  0
SECTION
  2
HEADER
  9
$ACADVER
  1
AC1009
  9
$INSBASE
 10
0.0
 20
0.0
 30
0.0
  9
$EXTMIN
 10
160.8473844286604
 20
203.7679866774638
 30
-0.0015258207003583
  9
$EXTMAX
 10
1011.968447327111
 20
843.99584134679549
 30
0.0000000349246037
  9
$LIMMIN
 10
0.0
 20
0.0
  9
$LIMMAX
 10
1138.0
 20
740.00000000000011
  9
$ORTHOMODE
 70
     0
  9
$REGENMODE
 70
     1
  9
$FILLMODE
 70
     1
  9
$QTEXTMODE
 70
     0
  9
$MIRRTEXT
 70
     1
  9
$DRAGMODE
 70
     2
  9
$LTSCALE
 40
4.0
  9
$OSMODE
 70
   551
  9
$ATTMODE
 70
     1
  9
$TEXTSIZE
 40
2.5
  9
$TRACEWID
 40
1.0
  9
$TEXTSTYLE
  7
STANDARD
  9
$CLAYER
  8
AM_0
  9
$CELTYPE
  6
BYLAYER
  9
$CECOLOR
 62
   256
  9
$DIMSCALE
 40
4.0
  9
$DIMASZ
 40
2.5
  9
$DIMEXO
 40
1.0
  9
$DIMDLI
 40
7.0
  9
$DIMRND
 40
0.0
  9
$DIMDLE
 40
0.0
  9
$DIMEXE
 40
1.0
  9
$DIMTP
 40
0.1
  9
$DIMTM
 40
0.1000000001
  9
$DIMTXT
 40
2.5
  9
$DIMCEN
 40
0.0
  9
$DIMTSZ
 40
0.0
  9
$DIMTOL
 70
     0
  9
$DIMLIM
 70
     0
  9
$DIMTIH
 70
     0
  9
$DIMTOH
 70
     0
  9
$DIMSE1
 70
     0
  9
$DIMSE2
 70
     0
  9
$DIMTAD
 70
     3
  9
$DIMZIN
 70
     8
  9
$DIMBLK
  1

  9
$DIMASO
 70
     1
  9
$DIMSHO
 70
     1
  9
$DIMPOST
  1

  9
$DIMAPOST
  1
"
  9
$DIMALT
 70
     0
  9
$DIMALTD
 70
     2
  9
$DIMALTF
 40
0.0393701
  9
$DIMLFAC
 40
1.0
  9
$DIMTOFL
 70
     1
  9
$DIMTVP
 40
0.0
  9
$DIMTIX
 70
     0
  9
$DIMSOXD
 70
     0
  9
$DIMSAH
 70
     0
  9
$DIMBLK1
  1

  9
$DIMBLK2
  1

  9
$DIMSTYLE
  2
AM_JIS
  9
$DIMCLRD
 70
   256
  9
$DIMCLRE
 70
   256
  9
$DIMCLRT
 70
     4
  9
$DIMTFAC
 40
0.71
  9
$DIMGAP
 40
1.0
  9
$LUNITS
 70
     2
  9
$LUPREC
 70
     2
  9
$SKETCHINC
 40
1.0
  9
$FILLETRAD
 40
10.0
  9
$AUNITS
 70
     0
  9
$AUPREC
 70
     3
  9
$MENU
  1
.
  9
$ELEVATION
 40
0.0
  9
$PELEVATION
 40
0.0
  9
$THICKNESS
 40
0.0
  9
$LIMCHECK
 70
     0
  9
$BLIPMODE
 70
     0
  9
$CHAMFERA
 40
10.0
  9
$CHAMFERB
 40
10.0
  9
$SKPOLY
 70
     0
  9
$TDCREATE
 40
2452753.643349607
  9
$TDUPDATE
 40
2458543.4510143059
  9
$TDINDWG
 40
0.6463111921
  9
$TDUSRTIMER
 40
0.6463109954
  9
$USRTIMER
 70
     1
  9
$ANGBASE
 50
0.0
  9
$ANGDIR
 70
     0
  9
$PDMODE
 70
     0
  9
$PDSIZE
 40
0.0
  9
$PLINEWID
 40
0.0
  9
$COORDS
 70
     1
  9
$SPLFRAME
 70
     0
  9
$SPLINETYPE
 70
     6
  9
$SPLINESEGS
 70
     8
  9
$ATTDIA
 70
     1
  9
$ATTREQ
 70
     1
  9
$HANDLING
 70
     1
  9
$HANDSEED
  5
1C003
  9
$SURFTAB1
 70
     6
  9
$SURFTAB2
 70
     6
  9
$SURFTYPE
 70
     6
  9
$SURFU
 70
     6
  9
$SURFV
 70
     6
  9
$UCSNAME
  2

  9
$UCSORG
 10
0.0
 20
0.0
 30
0.0
  9
$UCSXDIR
 10
1.0
 20
0.0
 30
0.0
  9
$UCSYDIR
 10
0.0
 20
1.0
 30
0.0
  9
$PUCSNAME
  2

  9
$PUCSORG
 10
0.0
 20
0.0
 30
0.0
  9
$PUCSXDIR
 10
1.0
 20
0.0
 30
0.0
  9
$PUCSYDIR
 10
0.0
 20
1.0
 30
0.0
  9
$USERI1
 70
     0
  9
$USERI2
 70
     0
  9
$USERI3
 70
     0
  9
$USERI4
 70
     0
  9
$USERI5
 70
     0
  9
$USERR1
 40
0.0
  9
$USERR2
 40
0.0
  9
$USERR3
 40
0.0
  9
$USERR4
 40
0.0
  9
$USERR5
 40
0.0
  9
$WORLDVIEW
 70
     1
  9
$SHADEDGE
 70
     3
  9
$SHADEDIF
 70
    70
  9
$TILEMODE
 70
     1
  9
$MAXACTVP
 70
    48
  9
$PLIMCHECK
 70
     0
  9
$PEXTMIN
 10
1.0000000000000000E+020
 20
1.0000000000000000E+020
 30
1.0000000000000000E+020
  9
$PEXTMAX
 10
-1.0000000000000000E+020
 20
-1.0000000000000000E+020
 30
-1.0000000000000000E+020
  9
$PLIMMIN
 10
0.0
 20
0.0
  9
$PLIMMAX
 10
420.0
 20
297.0
  9
$UNITMODE
 70
     0
  9
$VISRETAIN
 70
     1
  9
$PLINEGEN
 70
     0
  9
$PSLTSCALE
 70
     1
  0
ENDSEC
  0
SECTION
  2
TABLES
  0
TABLE
  2
VPORT
 70
     1
  0
VPORT
  2
*ACTIVE
 70
     0
 10
0.0
 20
0.0
 11
1.0
 21
1.0
 12
586.40791587788578
 22
523.88191401212964
 13
0.0
 23
0.0
 14
10.0
 24
10.0
 15
40.0
 25
40.0
 16
0.0
 26
0.0
 36
1.0
 17
0.0
 27
0.0
 37
0.0
 40
644.62301156637523
 41
1.757159221076747
 42
50.0
 43
0.0
 44
0.0
 50
0.0
 51
0.0
 71
     0
 72
   100
 73
     1
 74
     1
 75
     0
 76
     0
 77
     0
 78
     0
  0
ENDTAB
  0
TABLE
  2
LTYPE
 70
    21
  0
LTYPE
  2
CONTINUOUS
 70
     0
  3
Solid line
 72
    65
 73
     0
 40
0.0
  0
LTYPE
  2
PHANTOM2
 70
     0
  3
Phantom (.5x) ___ _ _ ___ _ _ ___ _ _ ___ _ _
 72
    65
 73
     6
 40
31.75
 49
15.875
 49
-3.174999999999998
 49
3.174999999999998
 49
-3.174999999999998
 49
3.174999999999998
 49
-3.174999999999998
  0
LTYPE
  2
CENTER
 70
     0
  3
Center ____ _ ____ _ ____ _ ____ _ ____ _ ____
 72
    65
 73
     4
 40
50.799999999999997
 49
31.75
 49
-6.3499999999999979
 49
6.3499999999999979
 49
-6.3499999999999979
  0
LTYPE
  2
ACANSTGBM
 70
     0
  3
__ . . __ . .
 72
    65
 73
     6
 40
9.0
 49
4.0
 49
-1.0
 49
1.0
 49
-1.0
 49
1.0
 49
-1.0
  0
LTYPE
  2
ACANSTGLM
 70
     0
  3
_ _ _ _ _
 72
    65
 73
     2
 40
3.0
 49
2.0
 49
-1.0
  0
LTYPE
  2
GEN3B
 70
     0
  3
 - - - - -
 72
    65
 73
     2
 40
1.0
 49
0.5
 49
-0.5
  0
LTYPE
  2
GEN7A
 70
     0
  3
__ . __ . __
 72
    65
 73
     4
 40
7.375
 49
4.75
 49
-0.875
 49
0.875
 49
-0.875
  0
LTYPE
  2
AM_ISO02W050
 70
     0
  3
__ __ __ __ __ __ __ __ __ __ __ __ __ __ __
 72
    65
 73
     2
 40
7.5
 49
6.0
 49
-1.5
  0
LTYPE
  2
AM_ISO08W050
 70
     0
  3
____ . ____ . ____ . ____ . ____ . ____ . ____
 72
    65
 73
     4
 40
18.0
 49
12.0
 49
-1.5
 49
3.0
 49
-1.5
  0
LTYPE
  2
AM_ISO09W050
 70
     0
  3
_____ . . _____ . . _____ . . ____ .. ____
 72
    65
 73
     6
 40
22.5
 49
12.0
 49
-1.5
 49
3.0
 49
-1.5
 49
3.0
 49
-1.5
  0
LTYPE
  2
AMCONSTR
 70
     0
  3
_______________________
 72
    65
 73
     2
 40
9999.0
 49
9999.0
 49
0.0
  0
LTYPE
  2
AM_ISO02W050X2
 70
     0
  3
 _ _ _ _ _ _ _ _ _ _ _ _
 72
    65
 73
     2
 40
3.75
 49
3.0
 49
-0.75
  0
LTYPE
  2
AM_ISO08W050X2
 70
     0
  3
__ . __ . __ . __ . __ . __
 72
    65
 73
     4
 40
9.0
 49
6.0
 49
-0.75
 49
1.5
 49
-0.75
  0
LTYPE
  2
AMZIGZAG
 70
     0
  3
/\/-/\/-/\/-/\/-/\/-/\/
 72
    65
 73
     2
 40
11.0001
 49
0.0001
 49
-11.0
  0
LTYPE
  2
ACJISTGB
 70
     0
  3
__ . . __ . .
 72
    65
 73
     6
 40
9.0
 49
4.0
 49
-1.0
 49
1.0
 49
-1.0
 49
1.0
 49
-1.0
  0
LTYPE
  2
ACJISTGL
 70
     0
  3
_ _ _ _ _
 72
    65
 73
     2
 40
3.0
 49
2.0
 49
-1.0
  0
LTYPE
  2
ACISOWELD
 70
     0
  3
_ _ _ _ _
 72
    65
 73
     2
 40
2.0
 49
2.0
 49
-1.0
  0
LTYPE
  2
ACISOTGB
 70
     0
  3
__ . . __ . .
 72
    65
 73
     6
 40
9.0
 49
4.0
 49
-1.0
 49
1.0
 49
-1.0
 49
1.0
 49
-1.0
  0
LTYPE
  2
ACISOTGL
 70
     0
  3
_ _ _ _ _
 72
    65
 73
     2
 40
3.0
 49
2.0
 49
-1.0
  0
LTYPE
  2
HIDDEN
 70
     0
  3
Hidden __ __ __ __ __ __ __ __ __ __ __ __ __ _
 72
    65
 73
     2
 40
9.5249999999999968
 49
6.3499999999999979
 49
-3.174999999999998
  0
ENDTAB
  0
TABLE
  2
LAYER
 70
     8
  0
LAYER
  2
0
 70
     0
 62
     7
  6
CONTINUOUS
  0
LAYER
  2
ｽﾝﾎﾟｳｾﾝ
 70
     0
 62
     2
  6
CONTINUOUS
  0
LAYER
  2
DEFPOINTS
 70
     0
 62
     7
  6
CONTINUOUS
  0
LAYER
  2
ｶｸﾚｾﾝ2
 70
     0
 62
     3
  6
GEN3B
  0
LAYER
  2
ﾁｭｳｼﾝｾﾝ1
 70
     0
 62
     1
  6
GEN7A
  0
LAYER
  2
AM_0
 70
     0
 62
     7
  6
CONTINUOUS
  0
LAYER
  2
AM_0N
 70
     0
 62
     7
  6
CONTINUOUS
  0
LAYER
  2
AM_5
 70
     0
 62
     2
  6
CONTINUOUS
  0
ENDTAB
  0
TABLE
  2
STYLE
 70
     8
  0
STYLE
  2
STANDARD
 70
     0
 40
0.0
 41
0.8299999999999999
 50
0.0
 71
     0
 42
2.5
  3
txt.shx
  4
bigfont.shx
  0
STYLE
  2
ACANSTS
 70
     0
 40
1.0
 41
1.0
 50
0.0
 71
     0
 42
2.5
  3
romans.shx
  4
bigfont.shx
  0
STYLE
  2
ACANSGDT
 70
     0
 40
0.0
 41
1.0
 50
0.0
 71
     0
 42
2.5
  3
amgdtans.shx
  4

  0
STYLE
  2

 70
     1
 40
0.0
 41
1.0
 50
0.0
 71
     0
 42
2.5
  3
ltypeshp.shx
  4

  0
STYLE
  2
ACJISTS
 70
     0
 40
1.0
 41
1.0
 50
0.0
 71
     0
 42
2.5
  3
isocp.shx
  4
bigfont.shx
  0
STYLE
  2
ACJISGDT
 70
     0
 40
0.0
 41
1.0
 50
0.0
 71
     0
 42
2.5
  3
amgdt.shx
  4

  0
STYLE
  2
ACISOTS
 70
     0
 40
3.0
 41
1.0
 50
0.0
 71
     0
 42
2.5
  3
isocp.shx
  4
extfont.shx
  0
STYLE
  2
ACISOGDT
 70
     0
 40
0.0
 41
1.0
 50
0.0
 71
     0
 42
2.5
  3
amgdt.shx
  4

  0
ENDTAB
  0
TABLE
  2
VIEW
 70
    12
  0
VIEW
  2
GEN1
 70
     0
 40
95.824742268041234
 10
71.5
 20
137.08762886597941
 41
143.0
 11
0.0
 21
0.0
 31
1.0
 12
0.0
 22
0.0
 32
0.0
 42
50.0
 43
0.0
 44
0.0
 50
0.0
 71
     0
  0
VIEW
  2
GEN2
 70
     0
 40
95.824742268041234
 10
214.5
 20
137.08762886597941
 41
143.0
 11
0.0
 21
0.0
 31
1.0
 12
0.0
 22
0.0
 32
0.0
 42
50.0
 43
0.0
 44
0.0
 50
0.0
 71
     0
  0
VIEW
  2
GEN3
 70
     0
 40
95.824742268041234
 10
71.5
 20
47.912371134020603
 41
143.0
 11
0.0
 21
0.0
 31
1.0
 12
0.0
 22
0.0
 32
0.0
 42
50.0
 43
0.0
 44
0.0
 50
0.0
 71
     0
  0
VIEW
  2
GEN4
 70
     0
 40
95.824742268041234
 10
214.5
 20
47.912371134020603
 41
143.0
 11
0.0
 21
0.0
 31
1.0
 12
0.0
 22
0.0
 32
0.0
 42
50.0
 43
0.0
 44
0.0
 50
0.0
 71
     0
  0
VIEW
  2
GEN5
 70
     0
 40
95.824742268041234
 10
143.0
 20
92.500000000000057
 41
143.0
 11
0.0
 21
0.0
 31
1.0
 12
0.0
 22
0.0
 32
0.0
 42
50.0
 43
0.0
 44
0.0
 50
0.0
 71
     0
  0
VIEW
  2
GEN6
 70
     0
 40
191.64756804123709
 10
143.0
 20
92.5
 41
285.99714
 11
0.0
 21
0.0
 31
1.0
 12
0.0
 22
0.0
 32
0.0
 42
50.0
 43
0.0
 44
0.0
 50
0.0
 71
     0
  0
VIEW
  2
AM_VIEW1
 70
     0
 40
370.00000000000023
 10
332.86372007366492
 20
555.00000000000011
 41
665.72744014732973
 11
0.0
 21
0.0
 31
1.0
 12
0.0
 22
0.0
 32
0.0
 42
50.0
 43
0.0
 44
0.0
 50
0.0
 71
     0
  0
VIEW
  2
AM_VIEW2
 70
     0
 40
370.00000000000023
 10
805.13627992633508
 20
555.00000000000011
 41
665.72744014732973
 11
0.0
 21
0.0
 31
1.0
 12
0.0
 22
0.0
 32
0.0
 42
50.0
 43
0.0
 44
0.0
 50
0.0
 71
     0
  0
VIEW
  2
AM_VIEW3
 70
     0
 40
370.00000000000023
 10
332.86372007366492
 20
185.0
 41
665.72744014732973
 11
0.0
 21
0.0
 31
1.0
 12
0.0
 22
0.0
 32
0.0
 42
50.0
 43
0.0
 44
0.0
 50
0.0
 71
     0
  0
VIEW
  2
AM_VIEW4
 70
     0
 40
370.00000000000023
 10
805.13627992633508
 20
185.0
 41
665.72744014732973
 11
0.0
 21
0.0
 31
1.0
 12
0.0
 22
0.0
 32
0.0
 42
50.0
 43
0.0
 44
0.0
 50
0.0
 71
     0
  0
VIEW
  2
AM_VIEW5
 70
     0
 40
370.00000000000023
 10
569.0
 20
370.00000000000023
 41
665.72744014732962
 11
0.0
 21
0.0
 31
1.0
 12
0.0
 22
0.0
 32
0.0
 42
50.0
 43
0.0
 44
0.0
 50
0.0
 71
     0
  0
VIEW
  2
AM_VIEW6
 70
     0
 40
739.99260000000015
 10
569.0
 20
370.00000000000023
 41
1331.4415657458569
 11
0.0
 21
0.0
 31
1.0
 12
0.0
 22
0.0
 32
0.0
 42
50.0
 43
0.0
 44
0.0
 50
0.0
 71
     0
  0
ENDTAB
  0
TABLE
  2
UCS
 70
     0
  0
ENDTAB
  0
TABLE
  2
APPID
 70
    96
  0
APPID
  2
ACAD
 70
     0
  0
APPID
  2
MCAD_NO_VIS
 70
     0
  0
APPID
  2
ACAD_TEMP_GRAPHIC
 70
     0
  0
APPID
  2
AD_DRAW
 70
     0
  0
APPID
  2
DESIGNERASSEMBLIES
 70
     0
  0
APPID
  2
ASURF_PCURVE_APPNAME
 70
     0
  0
APPID
  2
GENIUS_GE3SECT_13
 70
     0
  0
APPID
  2
GENIUS_GENCFG_13
 70
     0
  0
APPID
  2
GENIUS_GE3CFG0_13
 70
     0
  0
APPID
  2
GENIUS_GENCFG0_13
 70
     0
  0
APPID
  2
GENIUS_GENCFG1_13
 70
     0
  0
APPID
  2
GENIUS_GENCFG2_13
 70
     0
  0
APPID
  2
GENIUS_GENCFG3_13
 70
     0
  0
APPID
  2
GENIUS_GENCFG4_13
 70
     0
  0
APPID
  2
GENIUS_GEVCFG0_13
 70
     0
  0
APPID
  2
GENIUS_GENOENT_13
 70
     0
  0
APPID
  2
GENIUS_GENREC_14
 70
     0
  0
APPID
  2
GENIUS_GENODEF_13
 70
     0
  0
APPID
  2
GENIUS_GENOBJ-N-REC_13
 70
     0
  0
APPID
  2
GENIUS_GENHINW_13
 70
     0
  0
APPID
  2
GENIUS_FIRSTVISTXT_14
 70
     0
  0
APPID
  2
GENIUS_GENOBJ-N-LEADER_13
 70
     0
  0
APPID
  2
GENIUS_GENOREF_13
 70
     0
  0
APPID
  2
GENIUS_GENOLIS_13
 70
     0
  0
APPID
  2
GEV_VCCNULL_SWITCH_OFF
 70
     0
  0
APPID
  2
GENIUS_GENDTOL_13
 70
     0
  0
APPID
  2
GENIUS_GEFCFG0_13
 70
     0
  0
APPID
  2
GENIUS_GENOBJ-N-TIT_13
 70
     0
  0
APPID
  2
GENIUS_GENTITLE_13
 70
     0
  0
APPID
  2
GENIUS_GENZVEED_13
 70
     0
  0
APPID
  2
GENIUS_GENOBJ-N-SDF_13
 70
     0
  0
APPID
  2
GENIUS_GENSCREG_13
 70
     0
  0
APPID
  2
GENIUS_DUMCFG0_13
 70
     0
  0
APPID
  2
GEVID936201362
 70
     0
  0
APPID
  2
GEVDC
 70
     0
  0
APPID
  2
GEVCON
 70
     0
  0
APPID
  2
VCC
 70
     0
  0
APPID
  2
GEVPT
 70
     0
  0
APPID
  2
GEVIT
 70
     0
  0
APPID
  2
GENBH
 70
     0
  0
APPID
  2
GEVMK
 70
     0
  0
APPID
  2
GENIUS_GENBH_13
 70
     0
  0
APPID
  2
GENIUS_GENOBJ-NBEHI-BHF_13
 70
     0
  0
APPID
  2
GENIUS_GENOBJ-NBEHI-BHB_13
 70
     0
  0
APPID
  2
GENIUS_GENOBJ-F-DESC_13
 70
     0
  0
APPID
  2
GENIUS_GEFDESC_14
 70
     0
  0
APPID
  2
GENIUS_GENOBJ-F-PART_13
 70
     0
  0
APPID
  2
GENIUS_GEFSTDP_13
 70
     0
  0
APPID
  2
GENIUS_GEFPARTINS_13
 70
     0
  0
APPID
  2
GENIUS_GENTRA_14
 70
     0
  0
APPID
  2
GENIUS_GENINF13_13
 70
     0
  0
APPID
  2
GENIUS_GENOBJ-N-INFOPT_13
 70
     0
  0
APPID
  2
GENIUS_GENOBJ-N-RSSYM_13
 70
     0
  0
APPID
  2
GENIUS_GENSYMENT_13
 70
     0
  0
APPID
  2
GENIUS_GENSCSYM_13
 70
     0
  0
APPID
  2
GENIUS_GEFINFNAM_13
 70
     0
  0
APPID
  2
GENIUS_GENSCREG_15
 70
     0
  0
APPID
  2
GENIUS_GENOBJ-N-CEN_13
 70
     0
  0
APPID
  2
GENIUS_GENOBJ-N-CRS_13
 70
     0
  0
APPID
  2
GENIUS_GENOBJ-N-CRC_13
 70
     0
  0
APPID
  2
GENIUS_GENCRC_14
 70
     0
  0
APPID
  2
GEVID942827039
 70
     0
  0
APPID
  2
GEVID942827040
 70
     0
  0
APPID
  2
GEVID942827041
 70
     0
  0
APPID
  2
GENIUS_GENOBJ-F-SCPASSM_13
 70
     0
  0
APPID
  2
GENIUS_GENDIMSH_14
 70
     0
  0
APPID
  2
GENIUS_GENFIL_13
 70
     0
  0
APPID
  2
GENIUS_GENOBJ-N-CHA_13
 70
     0
  0
APPID
  2
GENIUS_GENOBJ-N-FIL_13
 70
     0
  0
APPID
  2
GEVID942827042
 70
     0
  0
APPID
  2
GEVID946020473
 70
     0
  0
APPID
  2
GEVID946020474
 70
     0
  0
APPID
  2
GEVID946020475
 70
     0
  0
APPID
  2
GENIUS_GENOBJ-N-HTC_13
 70
     0
  0
APPID
  2
GENIUS_GENHATCH_13
 70
     0
  0
APPID
  2
GEVID948854295
 70
     0
  0
APPID
  2
GEVID939402019
 70
     0
  0
APPID
  2
GEVID952919491
 70
     0
  0
APPID
  2
GEVID952919492
 70
     0
  0
APPID
  2
GENIUS_GEFWELD_13
 70
     0
  0
APPID
  2
GENIUS_GENOBJ-F-WELS_13
 70
     0
  0
APPID
  2
GEVID952919493
 70
     0
  0
APPID
  2
GENIUS_GENOBJ-N-RSBK_13
 70
     0
  0
APPID
  2
GENIUS_GENOBJ-N-LIB_13
 70
     0
  0
APPID
  2
GENIUS_GENSCALE_13
 70
     0
  0
APPID
  2
GEVID986376691
 70
     0
  0
APPID
  2
ACATTRIBSERVICES
 70
     0
  0
APPID
  2
DCO15
 70
     0
  0
APPID
  2
ACADM_DIM_EDIT
 70
     0
  0
APPID
  2
AMDT_DM_ADJ
 70
     0
  0
APPID
  2
ACAD_MLEADERVER
 70
     0
  0
APPID
  2
ACAD_DSTYLE_DIMBREAK
 70
     0
  0
APPID
  2
ACAD_DSTYLE_DIMJAG
 70
     0
  0
APPID
  2
ACAD_NAV_VCDISPLAY
 70
     0
  0
APPID
  2
ACADANNOPO
 70
     0
  0
APPID
  2
ACAD_EXEMPT_FROM_CAD_STANDARDS
 70
     0
  0
ENDTAB
  0
TABLE
  2
DIMSTYLE
 70
    16
  0
DIMSTYLE
  2
STANDARD
 70
     0
  3

  4

  5

  6

  7

 40
1.0
 41
0.18
 42
0.0625
 43
0.38
 44
0.18
 45
0.0
 46
0.0
 47
0.0
 48
0.0
140
0.18
141
0.09
142
0.0
143
25.399999999999999
144
1.0
145
0.0
146
1.0
147
0.09
 71
     0
 72
     0
 73
     1
 74
     1
 75
     0
 76
     0
 77
     0
 78
     0
170
     0
171
     2
172
     0
173
     0
174
     0
175
     0
176
     0
177
     0
178
     0
  0
DIMSTYLE
  2
AM_JIS
 70
     0
  3

  4
"
  5

  6

  7

 40
1.0
 41
2.5
 42
1.0
 43
7.0
 44
1.0
 45
0.0
 46
0.0
 47
0.1
 48
0.1000000001
140
2.5
141
0.0
142
0.0
143
0.0393701
144
1.0
145
0.0
146
0.71
147
1.0
 71
     0
 72
     0
 73
     0
 74
     0
 75
     0
 76
     0
 77
     3
 78
     8
170
     0
171
     2
172
     1
173
     0
174
     0
175
     0
176
   256
177
   256
178
     4
  0
DIMSTYLE
  2
AM_JIS$3
 70
     0
  3

  4
"
  5

  6

  7

 40
1.0
 41
2.5
 42
1.0
 43
7.0
 44
1.0
 45
0.0
 46
0.0
 47
0.1
 48
0.1000000001
140
2.5
141
0.0
142
0.0
143
0.0393701
144
1.0
145
0.0
146
0.71
147
1.0
 71
     0
 72
     0
 73
     0
 74
     1
 75
     0
 76
     0
 77
     3
 78
     8
170
     0
171
     2
172
     0
173
     0
174
     0
175
     0
176
   256
177
   256
178
     4
  0
DIMSTYLE
  2
AM_JIS$4
 70
     0
  3

  4
"
  5

  6

  7

 40
1.0
 41
2.5
 42
1.0
 43
7.0
 44
1.0
 45
0.0
 46
0.0
 47
0.1
 48
0.1000000001
140
2.5
141
0.0
142
0.0
143
0.0393701
144
1.0
145
0.0
146
0.71
147
1.0
 71
     0
 72
     0
 73
     0
 74
     0
 75
     0
 76
     0
 77
     3
 78
     8
170
     0
171
     2
172
     0
173
     0
174
     0
175
     0
176
   256
177
   256
178
     4
  0
DIMSTYLE
  2
AM_JIS$6
 70
     0
  3

  4
"
  5

  6

  7

 40
1.0
 41
2.5
 42
1.0
 43
7.0
 44
1.0
 45
0.0
 46
0.0
 47
0.1
 48
0.1000000001
140
2.5
141
0.0
142
0.0
143
0.0393701
144
1.0
145
0.0
146
0.71
147
1.0
 71
     0
 72
     0
 73
     0
 74
     0
 75
     0
 76
     0
 77
     0
 78
     8
170
     0
171
     2
172
     1
173
     0
174
     0
175
     0
176
   256
177
   256
178
     4
  0
DIMSTYLE
  2
AM_JIS$7
 70
     0
  3

  4
"
  5

  6

  7

 40
1.0
 41
2.5
 42
1.0
 43
7.0
 44
1.0
 45
0.0
 46
0.0
 47
0.1
 48
0.1000000001
140
2.5
141
0.0
142
0.0
143
0.0393701
144
1.0
145
0.0
146
0.71
147
1.0
 71
     0
 72
     0
 73
     0
 74
     0
 75
     0
 76
     0
 77
     3
 78
     8
170
     0
171
     2
172
     1
173
     0
174
     0
175
     0
176
   256
177
   256
178
     4
  0
DIMSTYLE
  2
AM_JIS$SF
 70
     0
  3

  4
"
  5
OPEN30
  6
OPEN30
  7
OPEN30
 40
1.0
 41
2.5
 42
1.0
 43
10.0
 44
1.0
 45
0.0
 46
0.0
 47
0.1
 48
0.1
140
3.5
141
0.0
142
0.0
143
0.0393701
144
1.0
145
0.0
146
0.71
147
1.5
 71
     0
 72
     0
 73
     0
 74
     0
 75
     1
 76
     1
 77
     3
 78
     8
170
     0
171
     2
172
     1
173
     0
174
     0
175
     0
176
   256
177
   256
178
     4
  0
DIMSTYLE
  2
AM_JIS$SH
 70
     0
  3

  4
"
  5

  6
NONE
  7

 40
1.0
 41
2.5
 42
1.0
 43
10.0
 44
1.0
 45
0.0
 46
0.0
 47
0.1
 48
0.1
140
3.5
141
0.0
142
0.0
143
0.0393701
144
1.0
145
0.0
146
0.71
147
1.5
 71
     0
 72
     0
 73
     0
 74
     0
 75
     1
 76
     0
 77
     3
 78
     8
170
     0
171
     2
172
     1
173
     1
174
     0
175
     0
176
   256
177
   256
178
     4
  0
DIMSTYLE
  2
AM_ISO
 70
     0
  3

  4
"
  5

  6

  7

 40
1.0
 41
2.5
 42
1.0
 43
10.0
 44
1.0
 45
0.0
 46
0.0
 47
0.0
 48
0.000000001
140
3.0
141
0.0
142
0.0
143
0.0393701
144
1.0
145
0.0
146
0.71
147
1.299999999999998
 71
     1
 72
     0
 73
     0
 74
     0
 75
     0
 76
     0
 77
     1
 78
     8
170
     0
171
     2
172
     1
173
     0
174
     0
175
     0
176
   256
177
   256
178
     4
  0
DIMSTYLE
  2
AM_ISO$3
 70
     0
  3

  4
"
  5

  6

  7

 40
1.0
 41
2.5
 42
1.0
 43
10.0
 44
1.0
 45
0.0
 46
0.0
 47
0.0
 48
0.000000001
140
2.5
141
0.0
142
0.0
143
0.0393701
144
1.0
145
0.0
146
0.71
147
1.299999999999998
 71
     1
 72
     0
 73
     0
 74
     1
 75
     0
 76
     0
 77
     1
 78
     8
170
     0
171
     2
172
     0
173
     0
174
     0
175
     0
176
   256
177
   256
178
     4
  0
DIMSTYLE
  2
AM_ISO$4
 70
     0
  3

  4
"
  5

  6

  7

 40
1.0
 41
2.5
 42
1.0
 43
10.0
 44
1.0
 45
0.0
 46
0.0
 47
0.0
 48
0.000000001
140
2.5
141
0.0
142
0.0
143
0.0393701
144
1.0
145
0.0
146
0.71
147
1.299999999999998
 71
     1
 72
     0
 73
     0
 74
     1
 75
     0
 76
     0
 77
     1
 78
     8
170
     0
171
     2
172
     0
173
     0
174
     0
175
     0
176
   256
177
   256
178
     4
  0
DIMSTYLE
  2
AM_ISO$6
 70
     0
  3

  4
"
  5

  6

  7

 40
1.0
 41
2.5
 42
1.0
 43
10.0
 44
1.0
 45
0.0
 46
0.0
 47
0.0
 48
0.000000001
140
2.5
141
0.0
142
0.0
143
0.0393701
144
1.0
145
0.0
146
0.71
147
1.299999999999998
 71
     1
 72
     0
 73
     0
 74
     0
 75
     0
 76
     0
 77
     0
 78
     8
170
     0
171
     2
172
     1
173
     0
174
     0
175
     0
176
   256
177
   256
178
     4
  0
DIMSTYLE
  2
AM_ISO$7
 70
     0
  3

  4
"
  5

  6

  7

 40
1.0
 41
2.5
 42
1.0
 43
10.0
 44
1.0
 45
0.0
 46
0.0
 47
0.0
 48
0.000000001
140
2.5
141
0.0
142
0.0
143
0.0393701
144
1.0
145
0.0
146
0.71
147
1.299999999999998
 71
     1
 72
     0
 73
     0
 74
     0
 75
     0
 76
     0
 77
     1
 78
     8
170
     0
171
     2
172
     1
173
     0
174
     0
175
     0
176
   256
177
   256
178
     4
  0
DIMSTYLE
  2
AM_ISO$SF
 70
     0
  3

  4
"
  5

  6

  7

 40
1.0
 41
2.5
 42
1.0
 43
10.0
 44
1.0
 45
0.0
 46
0.0
 47
0.1
 48
0.1
140
3.5
141
0.0
142
0.0
143
0.0393701
144
1.0
145
0.0
146
0.71
147
1.5
 71
     0
 72
     0
 73
     0
 74
     0
 75
     1
 76
     1
 77
     1
 78
     8
170
     0
171
     2
172
     1
173
     0
174
     0
175
     0
176
   256
177
   256
178
     4
  0
DIMSTYLE
  2
AM_ISO$SH
 70
     0
  3

  4
"
  5

  6
GENAXEH
  7

 40
1.0
 41
2.5
 42
1.0
 43
10.0
 44
1.0
 45
0.0
 46
0.0
 47
0.1
 48
0.1
140
3.5
141
0.0
142
0.0
143
0.0393701
144
2.0
145
0.0
146
0.71
147
1.5
 71
     0
 72
     0
 73
     0
 74
     0
 75
     1
 76
     1
 77
     1
 78
     8
170
     0
171
     2
172
     1
173
     1
174
     0
175
     0
176
   256
177
   256
178
     4
  0
DIMSTYLE
  2
AM_JIS$0
 70
     0
  3

  4
"
  5

  6

  7

 40
1.0
 41
2.5
 42
1.0
 43
7.0
 44
1.0
 45
0.0
 46
0.0
 47
0.1
 48
0.1000000001
140
2.5
141
0.0
142
0.0
143
0.0393701
144
1.0
145
0.0
146
0.71
147
1.0
 71
     0
 72
     0
 73
     0
 74
     0
 75
     0
 76
     0
 77
     3
 78
     8
170
     0
171
     2
172
     1
173
     0
174
     0
175
     0
176
   256
177
   256
178
     4
  0
ENDTAB
  0
ENDSEC
  0
SECTION
  2
BLOCKS
  0
BLOCK
  8
0
  2
$MODEL_SPACE
 70
     0
 10
0.0
 20
0.0
 30
0.0
  3
$MODEL_SPACE
  1

  0
ENDBLK
  5
1A
  8
0
  0
BLOCK
 67
     1
  8
0
  2
$PAPER_SPACE
 70
     0
 10
0.0
 20
0.0
 30
0.0
  3
$PAPER_SPACE
  1

  0
ENDBLK
  5
17
 67
     1
  8
0
  0
BLOCK
  8
0
  2
_OPEN30
 70
     0
 10
0.0
 20
0.0
 30
0.0
  3
_OPEN30
  1

  0
LINE
  5
21C5
  8
0
 62
     0
 10
-1.0
 20
0.26794919
 30
0.0
 11
0.0
 21
0.0
 31
0.0
  0
LINE
  5
21C6
  8
0
 62
     0
 10
0.0
 20
0.0
 30
0.0
 11
-1.0
 21
-0.26794919
 31
0.0
  0
LINE
  5
21C7
  8
0
 62
     0
 10
0.0
 20
0.0
 30
0.0
 11
-1.0
 21
0.0
 31
0.0
  0
ENDBLK
  5
21C9
  8
0
  0
BLOCK
  8
0
  2
GENAXEH
 70
     0
 10
0.0
 20
0.0
 30
0.0
  3
GENAXEH
  1

  0
LINE
  5
21D0
  8
0
 10
-1.0
 20
0.0
 30
0.0
 11
1.0
 21
0.0
 31
0.0
  0
ENDBLK
  5
21D2
  8
0
  0
BLOCK
  8
0
  2
_NONE
 70
     0
 10
0.0
 20
0.0
 30
0.0
  3
_NONE
  1

  0
ENDBLK
  5
8193
  8
0
  0
ENDSEC
  0
SECTION
  2
ENTITIES
  0
POINT
  5
1B94
  8
0
 10
0.0
 20
0.0
 30
0.0
1001
GENIUS_GENODEF_13
1002
{
1000
HIER
1070
     1
1002
}
1002
{
1000
MANEDIT
1070
     0
1002
}
1002
{
1000
NOSEL
1070
     0
1002
}
1002
{
1000
BEHIND
1070
     0
1002
}
1002
{
1000
REACTOR
1002
}
1001
GENIUS_GENOBJ-N-SDF_13
1002
{
1000
OWNER
1000
GEN
1002
}
1001
GENIUS_GENOENT_13
1002
{
1000
MYREF
1005
1B94
1002
}
1002
{
1000
GRP
1005
0
1002
}
1001
GENIUS_GENOLIS_13
1002
{
1000
ENT
1005
89
1002
}
  0
CIRCLE
  5
1A4B8
  8
0
 10
548.89682272567916
 20
394.2151758836597
 30
0.0
 40
8.9999999999999964
  0
CIRCLE
  5
1A4B9
  8
0
 10
548.89682272567916
 20
394.2151758836597
 30
0.0
 40
11.999999999999989
  0
CIRCLE
  5
1A4BA
  8
0
 10
548.89682272567916
 20
264.21517197035769
 30
0.0
 40
8.9999999999999964
  0
CIRCLE
  5
1A4BB
  8
0
 10
548.89682272567916
 20
264.21517197035769
 30
0.0
 40
11.999999999999989
  0
LINE
  5
1A4BC
  8
0
 10
549.52231945021663
 20
435.9117922998696
 30
0.0
 11
564.52229280943038
 21
400.91179443438818
 31
0.0
  0
LINE
  5
1A4BD
  8
0
 10
549.52231945021663
 20
222.51855555414679
 30
0.0
 11
564.52229280943038
 21
257.51855341962829
 31
0.0
  0
POLYLINE
  5
1A4C0
  8
AM_0
 10
563.8968231562136
 20
394.21647586549852
 30
0.0
 66
     1
 70
     8
  0
VERTEX
  8
AM_0
  5
1BD79
 10
563.897
 20
394.216
 30
0.000000
  70
    32
  0
VERTEX
  8
AM_0
  5
1BD7A
 10
563.896
 20
394.401
 30
0.000000
  70
    32
  0
VERTEX
  8
AM_0
  5
1BD7B
 10
563.892
 20
394.585
 30
0.000000
  70
    32
  0
VERTEX
  8
AM_0
  5
1BD7C
 10
563.887
 20
394.769
 30
0.000000
  70
    32
  0
VERTEX
  8
AM_0
  5
1BD7D
 10
563.879
 20
394.953
 30
0.000000
  70
    32
  0
VERTEX
  8
AM_0
  5
1BD7E
 10
563.869
 20
395.136
 30
0.000000
  70
    32
  0
VERTEX
  8
AM_0
  5
1BD7F
 10
563.856
 20
395.320
 30
0.000000
  70
    32
  0
VERTEX
  8
AM_0
  5
1BD80
 10
563.842
 20
395.503
 30
0.000000
  70
    32
  0
VERTEX
  8
AM_0
  5
1BD81
 10
563.825
 20
395.687
 30
0.000000
  70
    32
  0
VERTEX
  8
AM_0
  5
1BD82
 10
563.805
 20
395.870
 30
0.000000
  70
    32
  0
VERTEX
  8
AM_0
  5
1BD83
 10
563.784
 20
396.053
 30
0.000000
  70
    32
  0
VERTEX
  8
AM_0
  5
1BD84
 10
563.760
 20
396.235
 30
0.000000
  70
    32
  0
VERTEX
  8
AM_0
  5
1BD85
 10
563.734
 20
396.417
 30
0.000000
  70
    32
  0
VERTEX
  8
AM_0
  5
1BD86
 10
563.706
 20
396.599
 30
0.000000
  70
    32
  0
VERTEX
  8
AM_0
  5
1BD87
 10
563.676
 20
396.781
 30
0.000000
  70
    32
  0
VERTEX
  8
AM_0
  5
1BD88
 10
563.643
 20
396.962
 30
0.000000
  70
    32
  0
VERTEX
  8
AM_0
  5
1BD89
 10
563.609
 20
397.143
 30
0.000000
  70
    32
  0
VERTEX
  8
AM_0
  5
1BD8A
 10
563.572
 20
397.323
 30
0.000000
  70
    32
  0
VERTEX
  8
AM_0
  5
1BD8B
 10
563.532
 20
397.503
 30
0.000000
  70
    32
  0
VERTEX
  8
AM_0
  5
1BD8C
 10
563.491
 20
397.682
 30
0.000000
  70
    32
  0
VERTEX
  8
AM_0
  5
1BD8D
 10
563.447
 20
397.861
 30
0.000000
  70
    32
  0
VERTEX
  8
AM_0
  5
1BD8E
 10
563.401
 20
398.040
 30
0.000000
  70
    32
  0
VERTEX
  8
AM_0
  5
1BD8F
 10
563.353
 20
398.217
 30
0.000000
  70
    32
  0
VERTEX
  8
AM_0
  5
1BD90
 10
563.303
 20
398.394
 30
0.000000
  70
    32
  0
VERTEX
  8
AM_0
  5
1BD91
 10
563.251
 20
398.571
 30
0.000000
  70
    32
  0
VERTEX
  8
AM_0
  5
1BD92
 10
563.196
 20
398.747
 30
0.000000
  70
    32
  0
VERTEX
  8
AM_0
  5
1BD93
 10
563.140
 20
398.922
 30
0.000000
  70
    32
  0
VERTEX
  8
AM_0
  5
1BD94
 10
563.081
 20
399.096
 30
0.000000
  70
    32
  0
VERTEX
  8
AM_0
  5
1BD95
 10
563.020
 20
399.270
 30
0.000000
  70
    32
  0
VERTEX
  8
AM_0
  5
1BD96
 10
562.957
 20
399.443
 30
0.000000
  70
    32
  0
VERTEX
  8
AM_0
  5
1BD97
 10
562.892
 20
399.615
 30
0.000000
  70
    32
  0
VERTEX
  8
AM_0
  5
1BD98
 10
562.824
 20
399.786
 30
0.000000
  70
    32
  0
VERTEX
  8
AM_0
  5
1BD99
 10
562.755
 20
399.957
 30
0.000000
  70
    32
  0
VERTEX
  8
AM_0
  5
1BD9A
 10
562.684
 20
400.126
 30
0.000000
  70
    32
  0
VERTEX
  8
AM_0
  5
1BD9B
 10
562.610
 20
400.295
 30
0.000000
  70
    32
  0
VERTEX
  8
AM_0
  5
1BD9C
 10
562.534
 20
400.463
 30
0.000000
  70
    32
  0
VERTEX
  8
AM_0
  5
1BD9D
 10
562.457
 20
400.630
 30
0.000000
  70
    32
  0
VERTEX
  8
AM_0
  5
1BD9E
 10
562.377
 20
400.796
 30
0.000000
  70
    32
  0
VERTEX
  8
AM_0
  5
1BD9F
 10
562.295
 20
400.961
 30
0.000000
  70
    32
  0
VERTEX
  8
AM_0
  5
1BDA0
 10
562.211
 20
401.125
 30
0.000000
  70
    32
  0
VERTEX
  8
AM_0
  5
1BDA1
 10
562.126
 20
401.288
 30
0.000000
  70
    32
  0
VERTEX
  8
AM_0
  5
1BDA2
 10
562.038
 20
401.449
 30
0.000000
  70
    32
  0
VERTEX
  8
AM_0
  5
1BDA3
 10
561.948
 20
401.610
 30
0.000000
  70
    32
  0
VERTEX
  8
AM_0
  5
1BDA4
 10
561.856
 20
401.770
 30
0.000000
  70
    32
  0
VERTEX
  8
AM_0
  5
1BDA5
 10
561.763
 20
401.928
 30
0.000000
  70
    32
  0
VERTEX
  8
AM_0
  5
1BDA6
 10
561.667
 20
402.085
 30
0.000000
  70
    32
  0
VERTEX
  8
AM_0
  5
1BDA7
 10
561.570
 20
402.242
 30
0.000000
  70
    32
  0
VERTEX
  8
AM_0
  5
1BDA8
 10
561.470
 20
402.397
 30
0.000000
  70
    32
  0
VERTEX
  8
AM_0
  5
1BDA9
 10
561.369
 20
402.550
 30
0.000000
  70
    32
  0
VERTEX
  8
AM_0
  5
1BDAA
 10
561.266
 20
402.703
 30
0.000000
  70
    32
  0
VERTEX
  8
AM_0
  5
1BDAB
 10
561.161
 20
402.854
 30
0.000000
  70
    32
  0
VERTEX
  8
AM_0
  5
1BDAC
 10
561.054
 20
403.004
 30
0.000000
  70
    32
  0
VERTEX
  8
AM_0
  5
1BDAD
 10
560.945
 20
403.152
 30
0.000000
  70
    32
  0
VERTEX
  8
AM_0
  5
1BDAE
 10
560.834
 20
403.299
 30
0.000000
  70
    32
  0
VERTEX
  8
AM_0
  5
1BDAF
 10
560.722
 20
403.445
 30
0.000000
  70
    32
  0
VERTEX
  8
AM_0
  5
1BDB0
 10
560.608
 20
403.590
 30
0.000000
  70
    32
  0
VERTEX
  8
AM_0
  5
1BDB1
 10
560.492
 20
403.733
 30
0.000000
  70
    32
  0
VERTEX
  8
AM_0
  5
1BDB2
 10
560.374
 20
403.874
 30
0.000000
  70
    32
  0
VERTEX
  8
AM_0
  5
1BDB3
 10
560.255
 20
404.014
 30
0.000000
  70
    32
  0
VERTEX
  8
AM_0
  5
1BDB4
 10
560.134
 20
404.153
 30
0.000000
  70
    32
  0
VERTEX
  8
AM_0
  5
1BDB5
 10
560.011
 20
404.290
 30
0.000000
  70
    32
  0
VERTEX
  8
AM_0
  5
1BDB6
 10
559.887
 20
404.426
 30
0.000000
  70
    32
  0
VERTEX
  8
AM_0
  5
1BDB7
 10
559.761
 20
404.560
 30
0.000000
  70
    32
  0
VERTEX
  8
AM_0
  5
1BDB8
 10
559.633
 20
404.692
 30
0.000000
  70
    32
  0
VERTEX
  8
AM_0
  5
1BDB9
 10
559.503
 20
404.823
 30
0.000000
  70
    32
  0
VERTEX
  8
AM_0
  5
1BDBA
 10
559.372
 20
404.953
 30
0.000000
  70
    32
  0
VERTEX
  8
AM_0
  5
1BDBB
 10
559.240
 20
405.080
 30
0.000000
  70
    32
  0
VERTEX
  8
AM_0
  5
1BDBC
 10
559.106
 20
405.207
 30
0.000000
  70
    32
  0
VERTEX
  8
AM_0
  5
1BDBD
 10
558.970
 20
405.331
 30
0.000000
  70
    32
  0
VERTEX
  8
AM_0
  5
1BDBE
 10
558.833
 20
405.454
 30
0.000000
  70
    32
  0
VERTEX
  8
AM_0
  5
1BDBF
 10
558.694
 20
405.575
 30
0.000000
  70
    32
  0
VERTEX
  8
AM_0
  5
1BDC0
 10
558.554
 20
405.694
 30
0.000000
  70
    32
  0
VERTEX
  8
AM_0
  5
1BDC1
 10
558.413
 20
405.812
 30
0.000000
  70
    32
  0
VERTEX
  8
AM_0
  5
1BDC2
 10
558.270
 20
405.928
 30
0.000000
  70
    32
  0
VERTEX
  8
AM_0
  5
1BDC3
 10
558.125
 20
406.042
 30
0.000000
  70
    32
  0
VERTEX
  8
AM_0
  5
1BDC4
 10
557.979
 20
406.154
 30
0.000000
  70
    32
  0
VERTEX
  8
AM_0
  5
1BDC5
 10
557.832
 20
406.265
 30
0.000000
  70
    32
  0
VERTEX
  8
AM_0
  5
1BDC6
 10
557.684
 20
406.374
 30
0.000000
  70
    32
  0
VERTEX
  8
AM_0
  5
1BDC7
 10
557.534
 20
406.480
 30
0.000000
  70
    32
  0
VERTEX
  8
AM_0
  5
1BDC8
 10
557.383
 20
406.586
 30
0.000000
  70
    32
  0
VERTEX
  8
AM_0
  5
1BDC9
 10
557.230
 20
406.689
 30
0.000000
  70
    32
  0
VERTEX
  8
AM_0
  5
1BDCA
 10
557.077
 20
406.790
 30
0.000000
  70
    32
  0
VERTEX
  8
AM_0
  5
1BDCB
 10
556.922
 20
406.890
 30
0.000000
  70
    32
  0
VERTEX
  8
AM_0
  5
1BDCC
 10
556.766
 20
406.987
 30
0.000000
  70
    32
  0
VERTEX
  8
AM_0
  5
1BDCD
 10
556.608
 20
407.083
 30
0.000000
  70
    32
  0
VERTEX
  8
AM_0
  5
1BDCE
 10
556.450
 20
407.176
 30
0.000000
  70
    32
  0
VERTEX
  8
AM_0
  5
1BDCF
 10
556.290
 20
407.268
 30
0.000000
  70
    32
  0
VERTEX
  8
AM_0
  5
1BDD0
 10
556.130
 20
407.358
 30
0.000000
  70
    32
  0
VERTEX
  8
AM_0
  5
1BDD1
 10
555.968
 20
407.446
 30
0.000000
  70
    32
  0
VERTEX
  8
AM_0
  5
1BDD2
 10
555.805
 20
407.531
 30
0.000000
  70
    32
  0
VERTEX
  8
AM_0
  5
1BDD3
 10
555.641
 20
407.615
 30
0.000000
  70
    32
  0
VERTEX
  8
AM_0
  5
1BDD4
 10
555.476
 20
407.697
 30
0.000000
  70
    32
  0
VERTEX
  8
AM_0
  5
1BDD5
 10
555.310
 20
407.777
 30
0.000000
  70
    32
  0
VERTEX
  8
AM_0
  5
1BDD6
 10
555.143
 20
407.854
 30
0.000000
  70
    32
  0
VERTEX
  8
AM_0
  5
1BDD7
 10
554.975
 20
407.930
 30
0.000000
  70
    32
  0
VERTEX
  8
AM_0
  5
1BDD8
 10
554.807
 20
408.003
 30
0.000000
  70
    32
  0
VERTEX
  8
AM_0
  5
1BDD9
 10
554.637
 20
408.075
 30
0.000000
  70
    32
  0
VERTEX
  8
AM_0
  5
1BDDA
 10
554.467
 20
408.144
 30
0.000000
  70
    32
  0
VERTEX
  8
AM_0
  5
1BDDB
 10
554.295
 20
408.212
 30
0.000000
  70
    32
  0
VERTEX
  8
AM_0
  5
1BDDC
 10
554.123
 20
408.277
 30
0.000000
  70
    32
  0
VERTEX
  8
AM_0
  5
1BDDD
 10
553.950
 20
408.340
 30
0.000000
  70
    32
  0
VERTEX
  8
AM_0
  5
1BDDE
 10
553.776
 20
408.401
 30
0.000000
  70
    32
  0
VERTEX
  8
AM_0
  5
1BDDF
 10
553.602
 20
408.460
 30
0.000000
  70
    32
  0
VERTEX
  8
AM_0
  5
1BDE0
 10
553.427
 20
408.516
 30
0.000000
  70
    32
  0
VERTEX
  8
AM_0
  5
1BDE1
 10
553.251
 20
408.571
 30
0.000000
  70
    32
  0
VERTEX
  8
AM_0
  5
1BDE2
 10
553.075
 20
408.623
 30
0.000000
  70
    32
  0
VERTEX
  8
AM_0
  5
1BDE3
 10
552.898
 20
408.673
 30
0.000000
  70
    32
  0
VERTEX
  8
AM_0
  5
1BDE4
 10
552.720
 20
408.721
 30
0.000000
  70
    32
  0
VERTEX
  8
AM_0
  5
1BDE5
 10
552.542
 20
408.767
 30
0.000000
  70
    32
  0
VERTEX
  8
AM_0
  5
1BDE6
 10
552.363
 20
408.811
 30
0.000000
  70
    32
  0
VERTEX
  8
AM_0
  5
1BDE7
 10
552.183
 20
408.852
 30
0.000000
  70
    32
  0
VERTEX
  8
AM_0
  5
1BDE8
 10
552.003
 20
408.892
 30
0.000000
  70
    32
  0
VERTEX
  8
AM_0
  5
1BDE9
 10
551.823
 20
408.929
 30
0.000000
  70
    32
  0
VERTEX
  8
AM_0
  5
1BDEA
 10
551.642
 20
408.963
 30
0.000000
  70
    32
  0
VERTEX
  8
AM_0
  5
1BDEB
 10
551.461
 20
408.996
 30
0.000000
  70
    32
  0
VERTEX
  8
AM_0
  5
1BDEC
 10
551.280
 20
409.026
 30
0.000000
  70
    32
  0
VERTEX
  8
AM_0
  5
1BDED
 10
551.098
 20
409.054
 30
0.000000
  70
    32
  0
VERTEX
  8
AM_0
  5
1BDEE
 10
550.916
 20
409.080
 30
0.000000
  70
    32
  0
VERTEX
  8
AM_0
  5
1BDEF
 10
550.733
 20
409.104
 30
0.000000
  70
    32
  0
VERTEX
  8
AM_0
  5
1BDF0
 10
550.550
 20
409.125
 30
0.000000
  70
    32
  0
VERTEX
  8
AM_0
  5
1BDF1
 10
550.367
 20
409.145
 30
0.000000
  70
    32
  0
VERTEX
  8
AM_0
  5
1BDF2
 10
550.184
 20
409.161
 30
0.000000
  70
    32
  0
VERTEX
  8
AM_0
  5
1BDF3
 10
550.000
 20
409.176
 30
0.000000
  70
    32
  0
VERTEX
  8
AM_0
  5
1BDF4
 10
549.817
 20
409.189
 30
0.000000
  70
    32
  0
VERTEX
  8
AM_0
  5
1BDF5
 10
549.633
 20
409.199
 30
0.000000
  70
    32
  0
VERTEX
  8
AM_0
  5
1BDF6
 10
549.449
 20
409.207
 30
0.000000
  70
    32
  0
VERTEX
  8
AM_0
  5
1BDF7
 10
549.265
 20
409.212
 30
0.000000
  70
    32
  0
VERTEX
  8
AM_0
  5
1BDF8
 10
549.081
 20
409.216
 30
0.000000
  70
    32
  0
VERTEX
  8
AM_0
  5
1BDF9
 10
548.897
 20
409.217
 30
0.000000
  70
    32
  0
SEQEND
  8
AM_0
  5
1BDFA
  0
ARC
  5
1A4C1
  8
AM_0
 10
549.64682291763506
 20
371.72897934661319
 30
0.0
 40
6.249999999999992
 50
0.0
 51
91.910213703606075
1001
GENIUS_GENOBJ-N-FIL_13
1002
{
1000
OWNER
1000
GEN
1002
}
1001
GENIUS_GENODEF_13
1002
{
1000
HIER
1070
     0
1002
}
1002
{
1000
MANEDIT
1070
     0
1002
}
1002
{
1000
NOSEL
1070
     0
1002
}
1002
{
1000
BEHIND
1070
     0
1002
}
1002
{
1000
OTHER
1070
     0
1002
}
1002
{
1000
REACTOR
1002
}
  0
ARC
  5
1A4C2
  8
AM_0
 10
549.64682291763506
 20
286.70136850740369
 30
0.0
 40
6.249999999999992
 50
268.08978629639392
 51
0.0
1001
GENIUS_GENOBJ-N-FIL_13
1002
{
1000
OWNER
1000
GEN
1002
}
1001
GENIUS_GENODEF_13
1002
{
1000
HIER
1070
     0
1002
}
1002
{
1000
MANEDIT
1070
     0
1002
}
1002
{
1000
NOSEL
1070
     0
1002
}
1002
{
1000
BEHIND
1070
     0
1002
}
1002
{
1000
OTHER
1070
     0
1002
}
1002
{
1000
REACTOR
1002
}
  0
POLYLINE
  5
1A4C3
  8
AM_0
 10
548.89682205320696
 20
249.2135715411753
 30
0.0
 66
     1
 70
     8
  0
VERTEX
  8
AM_0
  5
1BDFB
 10
548.897
 20
249.214
 30
0.000000
  70
    32
  0
VERTEX
  8
AM_0
  5
1BDFC
 10
549.081
 20
249.215
 30
0.000000
  70
    32
  0
VERTEX
  8
AM_0
  5
1BDFD
 10
549.265
 20
249.218
 30
0.000000
  70
    32
  0
VERTEX
  8
AM_0
  5
1BDFE
 10
549.449
 20
249.224
 30
0.000000
  70
    32
  0
VERTEX
  8
AM_0
  5
1BDFF
 10
549.633
 20
249.232
 30
0.000000
  70
    32
  0
VERTEX
  8
AM_0
  5
1BE00
 10
549.817
 20
249.242
 30
0.000000
  70
    32
  0
VERTEX
  8
AM_0
  5
1BE01
 10
550.000
 20
249.254
 30
0.000000
  70
    32
  0
VERTEX
  8
AM_0
  5
1BE02
 10
550.184
 20
249.269
 30
0.000000
  70
    32
  0
VERTEX
  8
AM_0
  5
1BE03
 10
550.367
 20
249.286
 30
0.000000
  70
    32
  0
VERTEX
  8
AM_0
  5
1BE04
 10
550.550
 20
249.305
 30
0.000000
  70
    32
  0
VERTEX
  8
AM_0
  5
1BE05
 10
550.733
 20
249.326
 30
0.000000
  70
    32
  0
VERTEX
  8
AM_0
  5
1BE06
 10
550.916
 20
249.350
 30
0.000000
  70
    32
  0
VERTEX
  8
AM_0
  5
1BE07
 10
551.098
 20
249.376
 30
0.000000
  70
    32
  0
VERTEX
  8
AM_0
  5
1BE08
 10
551.280
 20
249.404
 30
0.000000
  70
    32
  0
VERTEX
  8
AM_0
  5
1BE09
 10
551.461
 20
249.434
 30
0.000000
  70
    32
  0
VERTEX
  8
AM_0
  5
1BE0A
 10
551.642
 20
249.467
 30
0.000000
  70
    32
  0
VERTEX
  8
AM_0
  5
1BE0B
 10
551.823
 20
249.502
 30
0.000000
  70
    32
  0
VERTEX
  8
AM_0
  5
1BE0C
 10
552.003
 20
249.539
 30
0.000000
  70
    32
  0
VERTEX
  8
AM_0
  5
1BE0D
 10
552.183
 20
249.578
 30
0.000000
  70
    32
  0
VERTEX
  8
AM_0
  5
1BE0E
 10
552.363
 20
249.619
 30
0.000000
  70
    32
  0
VERTEX
  8
AM_0
  5
1BE0F
 10
552.542
 20
249.663
 30
0.000000
  70
    32
  0
VERTEX
  8
AM_0
  5
1BE10
 10
552.720
 20
249.709
 30
0.000000
  70
    32
  0
VERTEX
  8
AM_0
  5
1BE11
 10
552.898
 20
249.757
 30
0.000000
  70
    32
  0
VERTEX
  8
AM_0
  5
1BE12
 10
553.075
 20
249.807
 30
0.000000
  70
    32
  0
VERTEX
  8
AM_0
  5
1BE13
 10
553.251
 20
249.859
 30
0.000000
  70
    32
  0
VERTEX
  8
AM_0
  5
1BE14
 10
553.427
 20
249.914
 30
0.000000
  70
    32
  0
VERTEX
  8
AM_0
  5
1BE15
 10
553.602
 20
249.971
 30
0.000000
  70
    32
  0
VERTEX
  8
AM_0
  5
1BE16
 10
553.776
 20
250.029
 30
0.000000
  70
    32
  0
VERTEX
  8
AM_0
  5
1BE17
 10
553.950
 20
250.090
 30
0.000000
  70
    32
  0
VERTEX
  8
AM_0
  5
1BE18
 10
554.123
 20
250.154
 30
0.000000
  70
    32
  0
VERTEX
  8
AM_0
  5
1BE19
 10
554.295
 20
250.219
 30
0.000000
  70
    32
  0
VERTEX
  8
AM_0
  5
1BE1A
 10
554.467
 20
250.286
 30
0.000000
  70
    32
  0
VERTEX
  8
AM_0
  5
1BE1B
 10
554.637
 20
250.355
 30
0.000000
  70
    32
  0
VERTEX
  8
AM_0
  5
1BE1C
 10
554.807
 20
250.427
 30
0.000000
  70
    32
  0
VERTEX
  8
AM_0
  5
1BE1D
 10
554.975
 20
250.500
 30
0.000000
  70
    32
  0
VERTEX
  8
AM_0
  5
1BE1E
 10
555.143
 20
250.576
 30
0.000000
  70
    32
  0
VERTEX
  8
AM_0
  5
1BE1F
 10
555.310
 20
250.654
 30
0.000000
  70
    32
  0
VERTEX
  8
AM_0
  5
1BE20
 10
555.476
 20
250.733
 30
0.000000
  70
    32
  0
VERTEX
  8
AM_0
  5
1BE21
 10
555.641
 20
250.815
 30
0.000000
  70
    32
  0
VERTEX
  8
AM_0
  5
1BE22
 10
555.805
 20
250.899
 30
0.000000
  70
    32
  0
VERTEX
  8
AM_0
  5
1BE23
 10
555.968
 20
250.985
 30
0.000000
  70
    32
  0
VERTEX
  8
AM_0
  5
1BE24
 10
556.130
 20
251.073
 30
0.000000
  70
    32
  0
VERTEX
  8
AM_0
  5
1BE25
 10
556.290
 20
251.162
 30
0.000000
  70
    32
  0
VERTEX
  8
AM_0
  5
1BE26
 10
556.450
 20
251.254
 30
0.000000
  70
    32
  0
VERTEX
  8
AM_0
  5
1BE27
 10
556.608
 20
251.348
 30
0.000000
  70
    32
  0
VERTEX
  8
AM_0
  5
1BE28
 10
556.766
 20
251.443
 30
0.000000
  70
    32
  0
VERTEX
  8
AM_0
  5
1BE29
 10
556.922
 20
251.541
 30
0.000000
  70
    32
  0
VERTEX
  8
AM_0
  5
1BE2A
 10
557.077
 20
251.640
 30
0.000000
  70
    32
  0
VERTEX
  8
AM_0
  5
1BE2B
 10
557.230
 20
251.742
 30
0.000000
  70
    32
  0
VERTEX
  8
AM_0
  5
1BE2C
 10
557.383
 20
251.845
 30
0.000000
  70
    32
  0
VERTEX
  8
AM_0
  5
1BE2D
 10
557.534
 20
251.950
 30
0.000000
  70
    32
  0
VERTEX
  8
AM_0
  5
1BE2E
 10
557.684
 20
252.057
 30
0.000000
  70
    32
  0
VERTEX
  8
AM_0
  5
1BE2F
 10
557.832
 20
252.166
 30
0.000000
  70
    32
  0
VERTEX
  8
AM_0
  5
1BE30
 10
557.979
 20
252.276
 30
0.000000
  70
    32
  0
VERTEX
  8
AM_0
  5
1BE31
 10
558.125
 20
252.388
 30
0.000000
  70
    32
  0
VERTEX
  8
AM_0
  5
1BE32
 10
558.270
 20
252.503
 30
0.000000
  70
    32
  0
VERTEX
  8
AM_0
  5
1BE33
 10
558.413
 20
252.618
 30
0.000000
  70
    32
  0
VERTEX
  8
AM_0
  5
1BE34
 10
558.554
 20
252.736
 30
0.000000
  70
    32
  0
VERTEX
  8
AM_0
  5
1BE35
 10
558.694
 20
252.856
 30
0.000000
  70
    32
  0
VERTEX
  8
AM_0
  5
1BE36
 10
558.833
 20
252.977
 30
0.000000
  70
    32
  0
VERTEX
  8
AM_0
  5
1BE37
 10
558.970
 20
253.099
 30
0.000000
  70
    32
  0
VERTEX
  8
AM_0
  5
1BE38
 10
559.106
 20
253.224
 30
0.000000
  70
    32
  0
VERTEX
  8
AM_0
  5
1BE39
 10
559.240
 20
253.350
 30
0.000000
  70
    32
  0
VERTEX
  8
AM_0
  5
1BE3A
 10
559.372
 20
253.478
 30
0.000000
  70
    32
  0
VERTEX
  8
AM_0
  5
1BE3B
 10
559.503
 20
253.607
 30
0.000000
  70
    32
  0
VERTEX
  8
AM_0
  5
1BE3C
 10
559.633
 20
253.738
 30
0.000000
  70
    32
  0
VERTEX
  8
AM_0
  5
1BE3D
 10
559.761
 20
253.871
 30
0.000000
  70
    32
  0
VERTEX
  8
AM_0
  5
1BE3E
 10
559.887
 20
254.005
 30
0.000000
  70
    32
  0
VERTEX
  8
AM_0
  5
1BE3F
 10
560.011
 20
254.140
 30
0.000000
  70
    32
  0
VERTEX
  8
AM_0
  5
1BE40
 10
560.134
 20
254.277
 30
0.000000
  70
    32
  0
VERTEX
  8
AM_0
  5
1BE41
 10
560.255
 20
254.416
 30
0.000000
  70
    32
  0
VERTEX
  8
AM_0
  5
1BE42
 10
560.374
 20
254.556
 30
0.000000
  70
    32
  0
VERTEX
  8
AM_0
  5
1BE43
 10
560.492
 20
254.698
 30
0.000000
  70
    32
  0
VERTEX
  8
AM_0
  5
1BE44
 10
560.608
 20
254.841
 30
0.000000
  70
    32
  0
VERTEX
  8
AM_0
  5
1BE45
 10
560.722
 20
254.985
 30
0.000000
  70
    32
  0
VERTEX
  8
AM_0
  5
1BE46
 10
560.834
 20
255.131
 30
0.000000
  70
    32
  0
VERTEX
  8
AM_0
  5
1BE47
 10
560.945
 20
255.278
 30
0.000000
  70
    32
  0
VERTEX
  8
AM_0
  5
1BE48
 10
561.054
 20
255.427
 30
0.000000
  70
    32
  0
VERTEX
  8
AM_0
  5
1BE49
 10
561.161
 20
255.577
 30
0.000000
  70
    32
  0
VERTEX
  8
AM_0
  5
1BE4A
 10
561.266
 20
255.728
 30
0.000000
  70
    32
  0
VERTEX
  8
AM_0
  5
1BE4B
 10
561.369
 20
255.880
 30
0.000000
  70
    32
  0
VERTEX
  8
AM_0
  5
1BE4C
 10
561.470
 20
256.034
 30
0.000000
  70
    32
  0
VERTEX
  8
AM_0
  5
1BE4D
 10
561.570
 20
256.189
 30
0.000000
  70
    32
  0
VERTEX
  8
AM_0
  5
1BE4E
 10
561.667
 20
256.345
 30
0.000000
  70
    32
  0
VERTEX
  8
AM_0
  5
1BE4F
 10
561.763
 20
256.502
 30
0.000000
  70
    32
  0
VERTEX
  8
AM_0
  5
1BE50
 10
561.856
 20
256.661
 30
0.000000
  70
    32
  0
VERTEX
  8
AM_0
  5
1BE51
 10
561.948
 20
256.820
 30
0.000000
  70
    32
  0
VERTEX
  8
AM_0
  5
1BE52
 10
562.038
 20
256.981
 30
0.000000
  70
    32
  0
VERTEX
  8
AM_0
  5
1BE53
 10
562.126
 20
257.143
 30
0.000000
  70
    32
  0
VERTEX
  8
AM_0
  5
1BE54
 10
562.211
 20
257.306
 30
0.000000
  70
    32
  0
VERTEX
  8
AM_0
  5
1BE55
 10
562.295
 20
257.470
 30
0.000000
  70
    32
  0
VERTEX
  8
AM_0
  5
1BE56
 10
562.377
 20
257.634
 30
0.000000
  70
    32
  0
VERTEX
  8
AM_0
  5
1BE57
 10
562.457
 20
257.800
 30
0.000000
  70
    32
  0
VERTEX
  8
AM_0
  5
1BE58
 10
562.534
 20
257.967
 30
0.000000
  70
    32
  0
VERTEX
  8
AM_0
  5
1BE59
 10
562.610
 20
258.135
 30
0.000000
  70
    32
  0
VERTEX
  8
AM_0
  5
1BE5A
 10
562.684
 20
258.304
 30
0.000000
  70
    32
  0
VERTEX
  8
AM_0
  5
1BE5B
 10
562.755
 20
258.474
 30
0.000000
  70
    32
  0
VERTEX
  8
AM_0
  5
1BE5C
 10
562.824
 20
258.644
 30
0.000000
  70
    32
  0
VERTEX
  8
AM_0
  5
1BE5D
 10
562.892
 20
258.815
 30
0.000000
  70
    32
  0
VERTEX
  8
AM_0
  5
1BE5E
 10
562.957
 20
258.987
 30
0.000000
  70
    32
  0
VERTEX
  8
AM_0
  5
1BE5F
 10
563.020
 20
259.160
 30
0.000000
  70
    32
  0
VERTEX
  8
AM_0
  5
1BE60
 10
563.081
 20
259.334
 30
0.000000
  70
    32
  0
VERTEX
  8
AM_0
  5
1BE61
 10
563.140
 20
259.509
 30
0.000000
  70
    32
  0
VERTEX
  8
AM_0
  5
1BE62
 10
563.196
 20
259.684
 30
0.000000
  70
    32
  0
VERTEX
  8
AM_0
  5
1BE63
 10
563.251
 20
259.860
 30
0.000000
  70
    32
  0
VERTEX
  8
AM_0
  5
1BE64
 10
563.303
 20
260.036
 30
0.000000
  70
    32
  0
VERTEX
  8
AM_0
  5
1BE65
 10
563.353
 20
260.213
 30
0.000000
  70
    32
  0
VERTEX
  8
AM_0
  5
1BE66
 10
563.401
 20
260.391
 30
0.000000
  70
    32
  0
VERTEX
  8
AM_0
  5
1BE67
 10
563.447
 20
260.569
 30
0.000000
  70
    32
  0
VERTEX
  8
AM_0
  5
1BE68
 10
563.491
 20
260.748
 30
0.000000
  70
    32
  0
VERTEX
  8
AM_0
  5
1BE69
 10
563.532
 20
260.927
 30
0.000000
  70
    32
  0
VERTEX
  8
AM_0
  5
1BE6A
 10
563.572
 20
261.107
 30
0.000000
  70
    32
  0
VERTEX
  8
AM_0
  5
1BE6B
 10
563.609
 20
261.287
 30
0.000000
  70
    32
  0
VERTEX
  8
AM_0
  5
1BE6C
 10
563.643
 20
261.468
 30
0.000000
  70
    32
  0
VERTEX
  8
AM_0
  5
1BE6D
 10
563.676
 20
261.649
 30
0.000000
  70
    32
  0
VERTEX
  8
AM_0
  5
1BE6E
 10
563.706
 20
261.831
 30
0.000000
  70
    32
  0
VERTEX
  8
AM_0
  5
1BE6F
 10
563.734
 20
262.013
 30
0.000000
  70
    32
  0
VERTEX
  8
AM_0
  5
1BE70
 10
563.760
 20
262.195
 30
0.000000
  70
    32
  0
VERTEX
  8
AM_0
  5
1BE71
 10
563.784
 20
262.378
 30
0.000000
  70
    32
  0
VERTEX
  8
AM_0
  5
1BE72
 10
563.805
 20
262.561
 30
0.000000
  70
    32
  0
VERTEX
  8
AM_0
  5
1BE73
 10
563.825
 20
262.744
 30
0.000000
  70
    32
  0
VERTEX
  8
AM_0
  5
1BE74
 10
563.842
 20
262.927
 30
0.000000
  70
    32
  0
VERTEX
  8
AM_0
  5
1BE75
 10
563.856
 20
263.110
 30
0.000000
  70
    32
  0
VERTEX
  8
AM_0
  5
1BE76
 10
563.869
 20
263.294
 30
0.000000
  70
    32
  0
VERTEX
  8
AM_0
  5
1BE77
 10
563.879
 20
263.478
 30
0.000000
  70
    32
  0
VERTEX
  8
AM_0
  5
1BE78
 10
563.887
 20
263.662
 30
0.000000
  70
    32
  0
VERTEX
  8
AM_0
  5
1BE79
 10
563.892
 20
263.846
 30
0.000000
  70
    32
  0
VERTEX
  8
AM_0
  5
1BE7A
 10
563.896
 20
264.030
 30
0.000000
  70
    32
  0
VERTEX
  8
AM_0
  5
1BE7B
 10
563.897
 20
264.214
 30
0.000000
  70
    32
  0
SEQEND
  8
AM_0
  5
1BE7C
  0
LINE
  5
1A4C4
  8
ﾁｭｳｼﾝｾﾝ1
 10
355.69830010154777
 20
329.21517392700861
 30
0.0
 11
576.56790436429856
 21
329.21517392700872
 31
0.0
  0
LINE
  5
1A4C9
  8
ｶｸﾚｾﾝ2
 10
356.89684752381731
 20
394.2151758836597
 30
0.0
 11
356.89684752381731
 21
285.54397160018868
 31
0.0
  0
ARC
  5
1A4CA
  8
AM_0
 10
373.14684779879582
 20
371.72897934661319
 30
0.0
 40
6.249999999999992
 50
88.089786296393925
 51
180.0
1001
GENIUS_GENODEF_13
1002
{
1000
HIER
1070
     0
1002
}
1002
{
1000
MANEDIT
1070
     0
1002
}
1002
{
1000
NOSEL
1070
     0
1002
}
1002
{
1000
BEHIND
1070
     0
1002
}
1002
{
1000
OTHER
1070
     0
1002
}
1002
{
1000
REACTOR
1002
}
1001
GENIUS_GENOBJ-N-FIL_13
1002
{
1000
OWNER
1000
GEN
1002
}
  0
LINE
  5
1A4CB
  8
AM_0
 10
351.80737073432527
 20
301.4868158248126
 30
0.0
 11
351.8073707343267
 21
392.94425310282918
 31
0.0
  0
ARC
  5
1A4CC
  8
AM_0
 10
746.05537409396334
 20
347.21553446382609
 30
0.0
 40
397.24800335969718
 50
173.3392856796832
 51
186.6607143203168
  0
LINE
  5
1A4CD
  8
AM_0
 10
342.89684755989742
 20
285.71554446259069
 30
0.0
 11
342.89684755989742
 21
408.71552446505081
 31
0.0
  0
LINE
  5
1A4CE
  8
AM_0
 10
358.89684756021711
 20
394.2164758654983
 30
0.0
 11
358.89684756021711
 21
264.21387198851897
 31
0.0
  0
LINE
  5
1A4CF
  8
ﾁｭｳｼﾝｾﾝ1
 10
488.89682091953978
 20
454.64397705298239
 30
0.0
 11
488.89682091953972
 21
203.78637080103491
 31
0.0
  0
CIRCLE
  5
1A4D0
  8
AM_0
 10
488.89682091953978
 20
329.21517392700861
 30
0.0
 40
49.99999999999995
  0
LINE
  5
1A4E1
  8
AM_0
 10
331.89684755967733
 20
283.21553820733823
 30
0.0
 11
331.89684755967733
 21
411.2155282073382
 31
0.0
  0
LINE
  5
1A503
  8
ﾁｭｳｼﾝｾﾝ1
 10
160.9208882550798
 20
347.21552903611371
 30
0.0
 11
382.05382091684982
 21
347.21553390657868
 31
0.0
  0
POLYLINE
  5
1A556
  8
0
 66
     1
 10
0.0
 20
0.0
 30
0.0
 70
     1
  0
VERTEX
  5
1BD22
  8
0
 10
368.89684797535199
 20
267.1019233163056
 30
0.0
  0
VERTEX
  5
1BD23
  8
0
 10
368.89684797535199
 20
261.32842062440932
 30
0.0
  0
VERTEX
  5
1BD24
  8
0
 10
373.89684797535199
 20
258.44166927846118
 30
0.0
  0
VERTEX
  5
1BD25
  8
0
 10
378.8968479753521
 20
261.32842062440932
 30
0.0
  0
VERTEX
  5
1BD26
  8
0
 10
378.8968479753521
 20
267.1019233163056
 30
0.0
  0
VERTEX
  5
1BD27
  8
0
 10
373.89684797535199
 20
269.98867466225369
 30
0.0
  0
SEQEND
  5
1BD28
  8
0
  0
CIRCLE
  5
1A557
  8
0
 10
373.89684797535187
 20
264.21517197035769
 30
0.0
 40
8.9999999999999964
  0
CIRCLE
  5
1A558
  8
0
 10
373.89684797535187
 20
264.21517197035769
 30
0.0
 40
11.999999999999989
  0
ARC
  5
1A559
  8
0
 10
388.89682091953978
 20
229.21517392700821
 30
0.0
 40
16.999999999999709
 50
203.19855493455009
 51
270.0
  0
ARC
  5
1A55B
  8
AM_0
 10
373.89684800755191
 20
264.21387198851858
 30
0.0
 40
16.249999999999979
 50
358.08942959105622
 51
91.910213703606075
  0
LINE
  5
1A55C
  8
AM_0
 10
373.89684800755191
 20
249.2135715411753
 30
0.0
 11
548.89682270887874
 21
249.2135715411753
 31
0.0
  0
LINE
  5
1A55D
  8
0
 10
373.27135125081458
 20
222.51855555414679
 30
0.0
 11
358.27137789160048
 21
257.51855341962801
 31
0.0
  0
POLYLINE
  5
1A55F
  8
AM_0
 10
358.89684756021722
 20
264.21387067715096
 30
0.0
 66
     1
 70
     8
  0
VERTEX
  8
AM_0
  5
1BE7D
 10
358.897
 20
264.214
 30
0.000000
  70
    32
  0
VERTEX
  8
AM_0
  5
1BE7E
 10
358.898
 20
264.030
 30
0.000000
  70
    32
  0
VERTEX
  8
AM_0
  5
1BE7F
 10
358.901
 20
263.846
 30
0.000000
  70
    32
  0
VERTEX
  8
AM_0
  5
1BE80
 10
358.907
 20
263.662
 30
0.000000
  70
    32
  0
VERTEX
  8
AM_0
  5
1BE81
 10
358.915
 20
263.478
 30
0.000000
  70
    32
  0
VERTEX
  8
AM_0
  5
1BE82
 10
358.925
 20
263.294
 30
0.000000
  70
    32
  0
VERTEX
  8
AM_0
  5
1BE83
 10
358.937
 20
263.110
 30
0.000000
  70
    32
  0
VERTEX
  8
AM_0
  5
1BE84
 10
358.952
 20
262.927
 30
0.000000
  70
    32
  0
VERTEX
  8
AM_0
  5
1BE85
 10
358.969
 20
262.744
 30
0.000000
  70
    32
  0
VERTEX
  8
AM_0
  5
1BE86
 10
358.988
 20
262.561
 30
0.000000
  70
    32
  0
VERTEX
  8
AM_0
  5
1BE87
 10
359.010
 20
262.378
 30
0.000000
  70
    32
  0
VERTEX
  8
AM_0
  5
1BE88
 10
359.033
 20
262.195
 30
0.000000
  70
    32
  0
VERTEX
  8
AM_0
  5
1BE89
 10
359.059
 20
262.013
 30
0.000000
  70
    32
  0
VERTEX
  8
AM_0
  5
1BE8A
 10
359.087
 20
261.831
 30
0.000000
  70
    32
  0
VERTEX
  8
AM_0
  5
1BE8B
 10
359.118
 20
261.649
 30
0.000000
  70
    32
  0
VERTEX
  8
AM_0
  5
1BE8C
 10
359.150
 20
261.468
 30
0.000000
  70
    32
  0
VERTEX
  8
AM_0
  5
1BE8D
 10
359.185
 20
261.287
 30
0.000000
  70
    32
  0
VERTEX
  8
AM_0
  5
1BE8E
 10
359.222
 20
261.107
 30
0.000000
  70
    32
  0
VERTEX
  8
AM_0
  5
1BE8F
 10
359.261
 20
260.927
 30
0.000000
  70
    32
  0
VERTEX
  8
AM_0
  5
1BE90
 10
359.303
 20
260.748
 30
0.000000
  70
    32
  0
VERTEX
  8
AM_0
  5
1BE91
 10
359.346
 20
260.569
 30
0.000000
  70
    32
  0
VERTEX
  8
AM_0
  5
1BE92
 10
359.392
 20
260.391
 30
0.000000
  70
    32
  0
VERTEX
  8
AM_0
  5
1BE93
 10
359.440
 20
260.213
 30
0.000000
  70
    32
  0
VERTEX
  8
AM_0
  5
1BE94
 10
359.490
 20
260.036
 30
0.000000
  70
    32
  0
VERTEX
  8
AM_0
  5
1BE95
 10
359.543
 20
259.860
 30
0.000000
  70
    32
  0
VERTEX
  8
AM_0
  5
1BE96
 10
359.597
 20
259.684
 30
0.000000
  70
    32
  0
VERTEX
  8
AM_0
  5
1BE97
 10
359.654
 20
259.509
 30
0.000000
  70
    32
  0
VERTEX
  8
AM_0
  5
1BE98
 10
359.713
 20
259.334
 30
0.000000
  70
    32
  0
VERTEX
  8
AM_0
  5
1BE99
 10
359.774
 20
259.160
 30
0.000000
  70
    32
  0
VERTEX
  8
AM_0
  5
1BE9A
 10
359.837
 20
258.987
 30
0.000000
  70
    32
  0
VERTEX
  8
AM_0
  5
1BE9B
 10
359.902
 20
258.815
 30
0.000000
  70
    32
  0
VERTEX
  8
AM_0
  5
1BE9C
 10
359.969
 20
258.644
 30
0.000000
  70
    32
  0
VERTEX
  8
AM_0
  5
1BE9D
 10
360.039
 20
258.474
 30
0.000000
  70
    32
  0
VERTEX
  8
AM_0
  5
1BE9E
 10
360.110
 20
258.304
 30
0.000000
  70
    32
  0
VERTEX
  8
AM_0
  5
1BE9F
 10
360.184
 20
258.135
 30
0.000000
  70
    32
  0
VERTEX
  8
AM_0
  5
1BEA0
 10
360.259
 20
257.967
 30
0.000000
  70
    32
  0
VERTEX
  8
AM_0
  5
1BEA1
 10
360.337
 20
257.800
 30
0.000000
  70
    32
  0
VERTEX
  8
AM_0
  5
1BEA2
 10
360.417
 20
257.634
 30
0.000000
  70
    32
  0
VERTEX
  8
AM_0
  5
1BEA3
 10
360.498
 20
257.470
 30
0.000000
  70
    32
  0
VERTEX
  8
AM_0
  5
1BEA4
 10
360.582
 20
257.306
 30
0.000000
  70
    32
  0
VERTEX
  8
AM_0
  5
1BEA5
 10
360.668
 20
257.143
 30
0.000000
  70
    32
  0
VERTEX
  8
AM_0
  5
1BEA6
 10
360.756
 20
256.981
 30
0.000000
  70
    32
  0
VERTEX
  8
AM_0
  5
1BEA7
 10
360.846
 20
256.820
 30
0.000000
  70
    32
  0
VERTEX
  8
AM_0
  5
1BEA8
 10
360.937
 20
256.661
 30
0.000000
  70
    32
  0
VERTEX
  8
AM_0
  5
1BEA9
 10
361.031
 20
256.502
 30
0.000000
  70
    32
  0
VERTEX
  8
AM_0
  5
1BEAA
 10
361.127
 20
256.345
 30
0.000000
  70
    32
  0
VERTEX
  8
AM_0
  5
1BEAB
 10
361.224
 20
256.189
 30
0.000000
  70
    32
  0
VERTEX
  8
AM_0
  5
1BEAC
 10
361.323
 20
256.034
 30
0.000000
  70
    32
  0
VERTEX
  8
AM_0
  5
1BEAD
 10
361.425
 20
255.880
 30
0.000000
  70
    32
  0
VERTEX
  8
AM_0
  5
1BEAE
 10
361.528
 20
255.728
 30
0.000000
  70
    32
  0
VERTEX
  8
AM_0
  5
1BEAF
 10
361.633
 20
255.577
 30
0.000000
  70
    32
  0
VERTEX
  8
AM_0
  5
1BEB0
 10
361.740
 20
255.427
 30
0.000000
  70
    32
  0
VERTEX
  8
AM_0
  5
1BEB1
 10
361.849
 20
255.278
 30
0.000000
  70
    32
  0
VERTEX
  8
AM_0
  5
1BEB2
 10
361.959
 20
255.131
 30
0.000000
  70
    32
  0
VERTEX
  8
AM_0
  5
1BEB3
 10
362.072
 20
254.985
 30
0.000000
  70
    32
  0
VERTEX
  8
AM_0
  5
1BEB4
 10
362.186
 20
254.841
 30
0.000000
  70
    32
  0
VERTEX
  8
AM_0
  5
1BEB5
 10
362.302
 20
254.698
 30
0.000000
  70
    32
  0
VERTEX
  8
AM_0
  5
1BEB6
 10
362.419
 20
254.556
 30
0.000000
  70
    32
  0
VERTEX
  8
AM_0
  5
1BEB7
 10
362.539
 20
254.416
 30
0.000000
  70
    32
  0
VERTEX
  8
AM_0
  5
1BEB8
 10
362.660
 20
254.277
 30
0.000000
  70
    32
  0
VERTEX
  8
AM_0
  5
1BEB9
 10
362.783
 20
254.140
 30
0.000000
  70
    32
  0
VERTEX
  8
AM_0
  5
1BEBA
 10
362.907
 20
254.005
 30
0.000000
  70
    32
  0
VERTEX
  8
AM_0
  5
1BEBB
 10
363.033
 20
253.871
 30
0.000000
  70
    32
  0
VERTEX
  8
AM_0
  5
1BEBC
 10
363.161
 20
253.738
 30
0.000000
  70
    32
  0
VERTEX
  8
AM_0
  5
1BEBD
 10
363.290
 20
253.607
 30
0.000000
  70
    32
  0
VERTEX
  8
AM_0
  5
1BEBE
 10
363.421
 20
253.478
 30
0.000000
  70
    32
  0
VERTEX
  8
AM_0
  5
1BEBF
 10
363.554
 20
253.350
 30
0.000000
  70
    32
  0
VERTEX
  8
AM_0
  5
1BEC0
 10
363.688
 20
253.224
 30
0.000000
  70
    32
  0
VERTEX
  8
AM_0
  5
1BEC1
 10
363.823
 20
253.099
 30
0.000000
  70
    32
  0
VERTEX
  8
AM_0
  5
1BEC2
 10
363.961
 20
252.977
 30
0.000000
  70
    32
  0
VERTEX
  8
AM_0
  5
1BEC3
 10
364.099
 20
252.856
 30
0.000000
  70
    32
  0
VERTEX
  8
AM_0
  5
1BEC4
 10
364.239
 20
252.736
 30
0.000000
  70
    32
  0
VERTEX
  8
AM_0
  5
1BEC5
 10
364.381
 20
252.618
 30
0.000000
  70
    32
  0
VERTEX
  8
AM_0
  5
1BEC6
 10
364.524
 20
252.503
 30
0.000000
  70
    32
  0
VERTEX
  8
AM_0
  5
1BEC7
 10
364.668
 20
252.388
 30
0.000000
  70
    32
  0
VERTEX
  8
AM_0
  5
1BEC8
 10
364.814
 20
252.276
 30
0.000000
  70
    32
  0
VERTEX
  8
AM_0
  5
1BEC9
 10
364.961
 20
252.166
 30
0.000000
  70
    32
  0
VERTEX
  8
AM_0
  5
1BECA
 10
365.110
 20
252.057
 30
0.000000
  70
    32
  0
VERTEX
  8
AM_0
  5
1BECB
 10
365.260
 20
251.950
 30
0.000000
  70
    32
  0
VERTEX
  8
AM_0
  5
1BECC
 10
365.411
 20
251.845
 30
0.000000
  70
    32
  0
VERTEX
  8
AM_0
  5
1BECD
 10
365.563
 20
251.742
 30
0.000000
  70
    32
  0
VERTEX
  8
AM_0
  5
1BECE
 10
365.717
 20
251.640
 30
0.000000
  70
    32
  0
VERTEX
  8
AM_0
  5
1BECF
 10
365.872
 20
251.541
 30
0.000000
  70
    32
  0
VERTEX
  8
AM_0
  5
1BED0
 10
366.028
 20
251.443
 30
0.000000
  70
    32
  0
VERTEX
  8
AM_0
  5
1BED1
 10
366.185
 20
251.348
 30
0.000000
  70
    32
  0
VERTEX
  8
AM_0
  5
1BED2
 10
366.344
 20
251.254
 30
0.000000
  70
    32
  0
VERTEX
  8
AM_0
  5
1BED3
 10
366.503
 20
251.162
 30
0.000000
  70
    32
  0
VERTEX
  8
AM_0
  5
1BED4
 10
366.664
 20
251.073
 30
0.000000
  70
    32
  0
VERTEX
  8
AM_0
  5
1BED5
 10
366.826
 20
250.985
 30
0.000000
  70
    32
  0
VERTEX
  8
AM_0
  5
1BED6
 10
366.989
 20
250.899
 30
0.000000
  70
    32
  0
VERTEX
  8
AM_0
  5
1BED7
 10
367.153
 20
250.815
 30
0.000000
  70
    32
  0
VERTEX
  8
AM_0
  5
1BED8
 10
367.318
 20
250.733
 30
0.000000
  70
    32
  0
VERTEX
  8
AM_0
  5
1BED9
 10
367.484
 20
250.654
 30
0.000000
  70
    32
  0
VERTEX
  8
AM_0
  5
1BEDA
 10
367.650
 20
250.576
 30
0.000000
  70
    32
  0
VERTEX
  8
AM_0
  5
1BEDB
 10
367.818
 20
250.500
 30
0.000000
  70
    32
  0
VERTEX
  8
AM_0
  5
1BEDC
 10
367.987
 20
250.427
 30
0.000000
  70
    32
  0
VERTEX
  8
AM_0
  5
1BEDD
 10
368.157
 20
250.355
 30
0.000000
  70
    32
  0
VERTEX
  8
AM_0
  5
1BEDE
 10
368.327
 20
250.286
 30
0.000000
  70
    32
  0
VERTEX
  8
AM_0
  5
1BEDF
 10
368.498
 20
250.219
 30
0.000000
  70
    32
  0
VERTEX
  8
AM_0
  5
1BEE0
 10
368.671
 20
250.154
 30
0.000000
  70
    32
  0
VERTEX
  8
AM_0
  5
1BEE1
 10
368.844
 20
250.090
 30
0.000000
  70
    32
  0
VERTEX
  8
AM_0
  5
1BEE2
 10
369.017
 20
250.029
 30
0.000000
  70
    32
  0
VERTEX
  8
AM_0
  5
1BEE3
 10
369.192
 20
249.971
 30
0.000000
  70
    32
  0
VERTEX
  8
AM_0
  5
1BEE4
 10
369.367
 20
249.914
 30
0.000000
  70
    32
  0
VERTEX
  8
AM_0
  5
1BEE5
 10
369.543
 20
249.859
 30
0.000000
  70
    32
  0
VERTEX
  8
AM_0
  5
1BEE6
 10
369.719
 20
249.807
 30
0.000000
  70
    32
  0
VERTEX
  8
AM_0
  5
1BEE7
 10
369.896
 20
249.757
 30
0.000000
  70
    32
  0
VERTEX
  8
AM_0
  5
1BEE8
 10
370.074
 20
249.709
 30
0.000000
  70
    32
  0
VERTEX
  8
AM_0
  5
1BEE9
 10
370.252
 20
249.663
 30
0.000000
  70
    32
  0
VERTEX
  8
AM_0
  5
1BEEA
 10
370.431
 20
249.619
 30
0.000000
  70
    32
  0
VERTEX
  8
AM_0
  5
1BEEB
 10
370.610
 20
249.578
 30
0.000000
  70
    32
  0
VERTEX
  8
AM_0
  5
1BEEC
 10
370.790
 20
249.539
 30
0.000000
  70
    32
  0
VERTEX
  8
AM_0
  5
1BEED
 10
370.970
 20
249.502
 30
0.000000
  70
    32
  0
VERTEX
  8
AM_0
  5
1BEEE
 10
371.151
 20
249.467
 30
0.000000
  70
    32
  0
VERTEX
  8
AM_0
  5
1BEEF
 10
371.332
 20
249.434
 30
0.000000
  70
    32
  0
VERTEX
  8
AM_0
  5
1BEF0
 10
371.514
 20
249.404
 30
0.000000
  70
    32
  0
VERTEX
  8
AM_0
  5
1BEF1
 10
371.696
 20
249.376
 30
0.000000
  70
    32
  0
VERTEX
  8
AM_0
  5
1BEF2
 10
371.878
 20
249.350
 30
0.000000
  70
    32
  0
VERTEX
  8
AM_0
  5
1BEF3
 10
372.061
 20
249.326
 30
0.000000
  70
    32
  0
VERTEX
  8
AM_0
  5
1BEF4
 10
372.244
 20
249.305
 30
0.000000
  70
    32
  0
VERTEX
  8
AM_0
  5
1BEF5
 10
372.427
 20
249.286
 30
0.000000
  70
    32
  0
VERTEX
  8
AM_0
  5
1BEF6
 10
372.610
 20
249.269
 30
0.000000
  70
    32
  0
VERTEX
  8
AM_0
  5
1BEF7
 10
372.793
 20
249.254
 30
0.000000
  70
    32
  0
VERTEX
  8
AM_0
  5
1BEF8
 10
372.977
 20
249.242
 30
0.000000
  70
    32
  0
VERTEX
  8
AM_0
  5
1BEF9
 10
373.161
 20
249.232
 30
0.000000
  70
    32
  0
VERTEX
  8
AM_0
  5
1BEFA
 10
373.345
 20
249.224
 30
0.000000
  70
    32
  0
VERTEX
  8
AM_0
  5
1BEFB
 10
373.529
 20
249.218
 30
0.000000
  70
    32
  0
VERTEX
  8
AM_0
  5
1BEFC
 10
373.713
 20
249.215
 30
0.000000
  70
    32
  0
VERTEX
  8
AM_0
  5
1BEFD
 10
373.897
 20
249.214
 30
0.000000
  70
    32
  0
SEQEND
  8
AM_0
  5
1BEFE
  0
LINE
  5
1A5D8
  8
AM_0
 10
366.89684779879548
 20
286.70136850740369
 30
0.0
 11
366.89684779879548
 21
371.72897934661319
 31
0.0
  0
LINE
  5
1A5DA
  8
AM_0
 10
331.89684755967733
 20
283.21554446254072
 30
0.0
 11
341.02345038745563
 21
283.21554446254072
 31
0.0
  0
LINE
  5
1A5DB
  8
AM_0
 10
331.89684755967733
 20
310.07555446307811
 30
0.0
 11
341.89684755987741
 21
310.07555446307811
 31
0.0
  0
LINE
  5
1A5DC
  8
AM_0
 10
331.89684755967733
 20
295.1755444627799
 30
0.0
 11
341.89684755987741
 21
295.1755444627799
 31
0.0
  0
LINE
  5
1A5DF
  8
AM_0
 10
331.89684755967733
 20
283.21550820733842
 30
0.0
 11
331.89684755967733
 21
287.2155082073383
 31
0.0
  0
LINE
  5
1A5E6
  8
0
  6
CONTINUOUS
 62
     7
 10
322.89678596507878
 20
283.21550272423809
 30
0.0
 11
331.89684755967733
 21
283.21550272423809
 31
0.0
  0
LINE
  5
1A5EF
  8
0
  6
CONTINUOUS
 62
     7
 10
323.89684755967733
 20
295.17557238670747
 30
0.0
 11
331.89684755967733
 21
295.17557238670747
 31
0.0
  0
LINE
  5
1A5FC
  8
0
  6
CONTINUOUS
 62
     7
 10
323.89684755967733
 20
310.07558238670782
 30
0.0
 11
331.89684755967733
 21
310.07558238670782
 31
0.0
  0
ARC
  5
1A600
  8
AM_0
 10
373.14684779879582
 20
286.70136850740369
 30
0.0
 40
6.249999999999992
 50
180.0
 51
271.910213703593
1001
GENIUS_GENODEF_13
1002
{
1000
HIER
1070
     0
1002
}
1002
{
1000
MANEDIT
1070
     0
1002
}
1002
{
1000
NOSEL
1070
     0
1002
}
1002
{
1000
BEHIND
1070
     0
1002
}
1002
{
1000
OTHER
1070
     0
1002
}
1002
{
1000
REACTOR
1002
}
1001
GENIUS_GENOBJ-N-FIL_13
1002
{
1000
OWNER
1000
GEN
1002
}
  0
ARC
  5
1A601
  8
AM_0
 10
345.89684755995728
 20
282.71554446253072
 30
0.0
 40
3.000000000059996
 50
90.0
 51
144.3146652873379
1001
GENIUS_GENOBJ-N-FIL_13
1002
{
1000
OWNER
1000
GEN
1002
}
1001
GENIUS_GENODEF_13
1002
{
1000
HIER
1070
     0
1002
}
1002
{
1000
MANEDIT
1070
     0
1002
}
1002
{
1000
NOSEL
1070
     0
1002
}
1002
{
1000
BEHIND
1070
     0
1002
}
1002
{
1000
OTHER
1070
     0
1002
}
1002
{
1000
REACTOR
1002
}
  0
ARC
  5
1A602
  8
AM_0
 10
355.89684756015731
 20
282.71554446253072
 30
0.0
 40
3.000000000059996
 50
0.0
 51
90.0
1001
GENIUS_GENODEF_13
1002
{
1000
HIER
1070
     0
1002
}
1002
{
1000
MANEDIT
1070
     0
1002
}
1002
{
1000
NOSEL
1070
     0
1002
}
1002
{
1000
BEHIND
1070
     0
1002
}
1002
{
1000
OTHER
1070
     0
1002
}
1002
{
1000
REACTOR
1002
}
1001
GENIUS_GENOBJ-N-FIL_13
1002
{
1000
OWNER
1000
GEN
1002
}
  0
LINE
  5
1A603
  8
AM_0
 10
345.89684755995728
 20
285.71554446259069
 30
0.0
 11
355.89684756015731
 21
285.71554446259069
 31
0.0
  0
ARC
  5
1A604
  8
AM_0
 10
341.02345038745563
 20
286.2155444626008
 30
0.0
 40
3.000000000059996
 50
270.0
 51
324.31466528733802
1001
GENIUS_GENOBJ-N-FIL_13
1002
{
1000
OWNER
1000
GEN
1002
}
1001
GENIUS_GENODEF_13
1002
{
1000
HIER
1070
     0
1002
}
1002
{
1000
MANEDIT
1070
     0
1002
}
1002
{
1000
NOSEL
1070
     0
1002
}
1002
{
1000
BEHIND
1070
     0
1002
}
1002
{
1000
OTHER
1070
     0
1002
}
1002
{
1000
REACTOR
1002
}
  0
ARC
  5
1A605
  8
AM_0
 10
354.46838191381647
 20
301.4868158248126
 30
0.0
 40
3.000000000059996
 50
186.6607143203168
 51
270.0
1001
GENIUS_GENODEF_13
1002
{
1000
HIER
1070
     0
1002
}
1002
{
1000
MANEDIT
1070
     0
1002
}
1002
{
1000
NOSEL
1070
     0
1002
}
1002
{
1000
BEHIND
1070
     0
1002
}
1002
{
1000
OTHER
1070
     0
1002
}
1002
{
1000
REACTOR
1002
}
1001
GENIUS_GENOBJ-N-FIL_13
1002
{
1000
OWNER
1000
GEN
1002
}
  0
LINE
  5
1A606
  8
AM_0
 10
354.46838191381647
 20
298.486815824752
 30
0.0
 11
357.89684756019727
 21
298.486815824752
 31
0.0
  0
ARC
  5
1A610
  8
AM_0
 10
526.40933085969323
 20
263.46373177975852
 30
0.0
 40
6.249999999999992
 50
270.0
 51
1.9105704089438631
1001
GENIUS_GENODEF_13
1002
{
1000
HIER
1070
     0
1002
}
1002
{
1000
MANEDIT
1070
     0
1002
}
1002
{
1000
NOSEL
1070
     0
1002
}
1002
{
1000
BEHIND
1070
     0
1002
}
1002
{
1000
OTHER
1070
     0
1002
}
1002
{
1000
REACTOR
1002
}
1001
GENIUS_GENOBJ-N-FIL_13
1002
{
1000
OWNER
1000
GEN
1002
}
  0
ARC
  5
1A611
  8
AM_0
 10
396.3843398567376
 20
263.46373177975852
 30
0.0
 40
6.249999999999992
 50
178.0894295910561
 51
270.0
1001
GENIUS_GENODEF_13
1002
{
1000
HIER
1070
     0
1002
}
1002
{
1000
MANEDIT
1070
     0
1002
}
1002
{
1000
NOSEL
1070
     0
1002
}
1002
{
1000
BEHIND
1070
     0
1002
}
1002
{
1000
OTHER
1070
     0
1002
}
1002
{
1000
REACTOR
1002
}
1001
GENIUS_GENOBJ-N-FIL_13
1002
{
1000
OWNER
1000
GEN
1002
}
  0
LINE
  5
1A613
  8
0
 10
533.89684978149148
 20
212.21517392700869
 30
0.0
 11
388.89682091953978
 21
212.21517392700869
 31
0.0
  0
CIRCLE
  5
1A617
  8
0
 10
388.89682091953978
 20
229.21517392700821
 30
0.0
 40
6.9999999999999991
  0
CIRCLE
  5
1A61D
  8
0
 10
533.89684978149148
 20
229.21517392700821
 30
0.0
 40
6.9999999999999991
  0
ARC
  5
1A61E
  8
0
 10
533.89684978149148
 20
229.21517392700821
 30
0.0
 40
16.999999999999709
 50
270.0
 51
336.80144506544991
  0
POLYLINE
  5
1A620
  8
AM_0
 10
513.89682166509783
 20
329.21517392700878
 30
0.0
 66
     1
 70
     8
  0
VERTEX
  8
AM_0
  5
1BEFF
 10
513.897
 20
329.215
 30
0.000000
  70
    32
  0
VERTEX
  8
AM_0
  5
1BF00
 10
513.867
 20
330.442
 30
0.000000
  70
    32
  0
VERTEX
  8
AM_0
  5
1BF01
 10
513.776
 20
331.666
 30
0.000000
  70
    32
  0
VERTEX
  8
AM_0
  5
1BF02
 10
513.626
 20
332.884
 30
0.000000
  70
    32
  0
VERTEX
  8
AM_0
  5
1BF03
 10
513.416
 20
334.093
 30
0.000000
  70
    32
  0
VERTEX
  8
AM_0
  5
1BF04
 10
513.148
 20
335.290
 30
0.000000
  70
    32
  0
VERTEX
  8
AM_0
  5
1BF05
 10
512.820
 20
336.472
 30
0.000000
  70
    32
  0
VERTEX
  8
AM_0
  5
1BF06
 10
512.435
 20
337.638
 30
0.000000
  70
    32
  0
VERTEX
  8
AM_0
  5
1BF07
 10
511.994
 20
338.782
 30
0.000000
  70
    32
  0
VERTEX
  8
AM_0
  5
1BF08
 10
511.497
 20
339.904
 30
0.000000
  70
    32
  0
VERTEX
  8
AM_0
  5
1BF09
 10
510.945
 20
341.000
 30
0.000000
  70
    32
  0
VERTEX
  8
AM_0
  5
1BF0A
 10
510.340
 20
342.068
 30
0.000000
  70
    32
  0
VERTEX
  8
AM_0
  5
1BF0B
 10
509.684
 20
343.105
 30
0.000000
  70
    32
  0
VERTEX
  8
AM_0
  5
1BF0C
 10
508.977
 20
344.108
 30
0.000000
  70
    32
  0
VERTEX
  8
AM_0
  5
1BF0D
 10
508.222
 20
345.075
 30
0.000000
  70
    32
  0
VERTEX
  8
AM_0
  5
1BF0E
 10
507.421
 20
346.004
 30
0.000000
  70
    32
  0
VERTEX
  8
AM_0
  5
1BF0F
 10
506.574
 20
346.893
 30
0.000000
  70
    32
  0
VERTEX
  8
AM_0
  5
1BF10
 10
505.686
 20
347.739
 30
0.000000
  70
    32
  0
VERTEX
  8
AM_0
  5
1BF11
 10
504.757
 20
348.541
 30
0.000000
  70
    32
  0
VERTEX
  8
AM_0
  5
1BF12
 10
503.789
 20
349.296
 30
0.000000
  70
    32
  0
VERTEX
  8
AM_0
  5
1BF13
 10
502.786
 20
350.002
 30
0.000000
  70
    32
  0
VERTEX
  8
AM_0
  5
1BF14
 10
501.749
 20
350.659
 30
0.000000
  70
    32
  0
VERTEX
  8
AM_0
  5
1BF15
 10
500.682
 20
351.264
 30
0.000000
  70
    32
  0
VERTEX
  8
AM_0
  5
1BF16
 10
499.586
 20
351.815
 30
0.000000
  70
    32
  0
VERTEX
  8
AM_0
  5
1BF17
 10
498.464
 20
352.313
 30
0.000000
  70
    32
  0
VERTEX
  8
AM_0
  5
1BF18
 10
497.319
 20
352.754
 30
0.000000
  70
    32
  0
VERTEX
  8
AM_0
  5
1BF19
 10
496.154
 20
353.139
 30
0.000000
  70
    32
  0
VERTEX
  8
AM_0
  5
1BF1A
 10
494.971
 20
353.466
 30
0.000000
  70
    32
  0
VERTEX
  8
AM_0
  5
1BF1B
 10
493.774
 20
353.735
 30
0.000000
  70
    32
  0
VERTEX
  8
AM_0
  5
1BF1C
 10
492.565
 20
353.945
 30
0.000000
  70
    32
  0
VERTEX
  8
AM_0
  5
1BF1D
 10
491.347
 20
354.095
 30
0.000000
  70
    32
  0
VERTEX
  8
AM_0
  5
1BF1E
 10
490.124
 20
354.186
 30
0.000000
  70
    32
  0
VERTEX
  8
AM_0
  5
1BF1F
 10
488.897
 20
354.216
 30
0.000000
  70
    32
  0
VERTEX
  8
AM_0
  5
1BF20
 10
487.670
 20
354.186
 30
0.000000
  70
    32
  0
VERTEX
  8
AM_0
  5
1BF21
 10
486.446
 20
354.095
 30
0.000000
  70
    32
  0
VERTEX
  8
AM_0
  5
1BF22
 10
485.229
 20
353.945
 30
0.000000
  70
    32
  0
VERTEX
  8
AM_0
  5
1BF23
 10
484.020
 20
353.735
 30
0.000000
  70
    32
  0
VERTEX
  8
AM_0
  5
1BF24
 10
482.822
 20
353.466
 30
0.000000
  70
    32
  0
VERTEX
  8
AM_0
  5
1BF25
 10
481.640
 20
353.139
 30
0.000000
  70
    32
  0
VERTEX
  8
AM_0
  5
1BF26
 10
480.475
 20
352.754
 30
0.000000
  70
    32
  0
VERTEX
  8
AM_0
  5
1BF27
 10
479.330
 20
352.313
 30
0.000000
  70
    32
  0
VERTEX
  8
AM_0
  5
1BF28
 10
478.208
 20
351.815
 30
0.000000
  70
    32
  0
VERTEX
  8
AM_0
  5
1BF29
 10
477.112
 20
351.264
 30
0.000000
  70
    32
  0
VERTEX
  8
AM_0
  5
1BF2A
 10
476.044
 20
350.659
 30
0.000000
  70
    32
  0
VERTEX
  8
AM_0
  5
1BF2B
 10
475.008
 20
350.002
 30
0.000000
  70
    32
  0
VERTEX
  8
AM_0
  5
1BF2C
 10
474.004
 20
349.296
 30
0.000000
  70
    32
  0
VERTEX
  8
AM_0
  5
1BF2D
 10
473.037
 20
348.541
 30
0.000000
  70
    32
  0
VERTEX
  8
AM_0
  5
1BF2E
 10
472.108
 20
347.739
 30
0.000000
  70
    32
  0
VERTEX
  8
AM_0
  5
1BF2F
 10
471.219
 20
346.893
 30
0.000000
  70
    32
  0
VERTEX
  8
AM_0
  5
1BF30
 10
470.373
 20
346.004
 30
0.000000
  70
    32
  0
VERTEX
  8
AM_0
  5
1BF31
 10
469.572
 20
345.075
 30
0.000000
  70
    32
  0
VERTEX
  8
AM_0
  5
1BF32
 10
468.817
 20
344.108
 30
0.000000
  70
    32
  0
VERTEX
  8
AM_0
  5
1BF33
 10
468.110
 20
343.105
 30
0.000000
  70
    32
  0
VERTEX
  8
AM_0
  5
1BF34
 10
467.454
 20
342.068
 30
0.000000
  70
    32
  0
VERTEX
  8
AM_0
  5
1BF35
 10
466.849
 20
341.000
 30
0.000000
  70
    32
  0
VERTEX
  8
AM_0
  5
1BF36
 10
466.297
 20
339.904
 30
0.000000
  70
    32
  0
VERTEX
  8
AM_0
  5
1BF37
 10
465.800
 20
338.782
 30
0.000000
  70
    32
  0
VERTEX
  8
AM_0
  5
1BF38
 10
465.358
 20
337.638
 30
0.000000
  70
    32
  0
VERTEX
  8
AM_0
  5
1BF39
 10
464.973
 20
336.472
 30
0.000000
  70
    32
  0
VERTEX
  8
AM_0
  5
1BF3A
 10
464.646
 20
335.290
 30
0.000000
  70
    32
  0
VERTEX
  8
AM_0
  5
1BF3B
 10
464.377
 20
334.093
 30
0.000000
  70
    32
  0
VERTEX
  8
AM_0
  5
1BF3C
 10
464.167
 20
332.884
 30
0.000000
  70
    32
  0
VERTEX
  8
AM_0
  5
1BF3D
 10
464.017
 20
331.666
 30
0.000000
  70
    32
  0
VERTEX
  8
AM_0
  5
1BF3E
 10
463.927
 20
330.442
 30
0.000000
  70
    32
  0
VERTEX
  8
AM_0
  5
1BF3F
 10
463.897
 20
329.215
 30
0.000000
  70
    32
  0
VERTEX
  8
AM_0
  5
1BF40
 10
463.927
 20
327.988
 30
0.000000
  70
    32
  0
VERTEX
  8
AM_0
  5
1BF41
 10
464.017
 20
326.765
 30
0.000000
  70
    32
  0
VERTEX
  8
AM_0
  5
1BF42
 10
464.167
 20
325.547
 30
0.000000
  70
    32
  0
VERTEX
  8
AM_0
  5
1BF43
 10
464.377
 20
324.338
 30
0.000000
  70
    32
  0
VERTEX
  8
AM_0
  5
1BF44
 10
464.646
 20
323.141
 30
0.000000
  70
    32
  0
VERTEX
  8
AM_0
  5
1BF45
 10
464.973
 20
321.958
 30
0.000000
  70
    32
  0
VERTEX
  8
AM_0
  5
1BF46
 10
465.358
 20
320.793
 30
0.000000
  70
    32
  0
VERTEX
  8
AM_0
  5
1BF47
 10
465.800
 20
319.648
 30
0.000000
  70
    32
  0
VERTEX
  8
AM_0
  5
1BF48
 10
466.297
 20
318.526
 30
0.000000
  70
    32
  0
VERTEX
  8
AM_0
  5
1BF49
 10
466.849
 20
317.430
 30
0.000000
  70
    32
  0
VERTEX
  8
AM_0
  5
1BF4A
 10
467.454
 20
316.362
 30
0.000000
  70
    32
  0
VERTEX
  8
AM_0
  5
1BF4B
 10
468.110
 20
315.326
 30
0.000000
  70
    32
  0
VERTEX
  8
AM_0
  5
1BF4C
 10
468.817
 20
314.322
 30
0.000000
  70
    32
  0
VERTEX
  8
AM_0
  5
1BF4D
 10
469.572
 20
313.355
 30
0.000000
  70
    32
  0
VERTEX
  8
AM_0
  5
1BF4E
 10
470.373
 20
312.426
 30
0.000000
  70
    32
  0
VERTEX
  8
AM_0
  5
1BF4F
 10
471.219
 20
311.537
 30
0.000000
  70
    32
  0
VERTEX
  8
AM_0
  5
1BF50
 10
472.108
 20
310.691
 30
0.000000
  70
    32
  0
VERTEX
  8
AM_0
  5
1BF51
 10
473.037
 20
309.890
 30
0.000000
  70
    32
  0
VERTEX
  8
AM_0
  5
1BF52
 10
474.004
 20
309.135
 30
0.000000
  70
    32
  0
VERTEX
  8
AM_0
  5
1BF53
 10
475.008
 20
308.428
 30
0.000000
  70
    32
  0
VERTEX
  8
AM_0
  5
1BF54
 10
476.044
 20
307.772
 30
0.000000
  70
    32
  0
VERTEX
  8
AM_0
  5
1BF55
 10
477.112
 20
307.167
 30
0.000000
  70
    32
  0
VERTEX
  8
AM_0
  5
1BF56
 10
478.208
 20
306.615
 30
0.000000
  70
    32
  0
VERTEX
  8
AM_0
  5
1BF57
 10
479.330
 20
306.118
 30
0.000000
  70
    32
  0
VERTEX
  8
AM_0
  5
1BF58
 10
480.475
 20
305.676
 30
0.000000
  70
    32
  0
VERTEX
  8
AM_0
  5
1BF59
 10
481.640
 20
305.291
 30
0.000000
  70
    32
  0
VERTEX
  8
AM_0
  5
1BF5A
 10
482.822
 20
304.964
 30
0.000000
  70
    32
  0
VERTEX
  8
AM_0
  5
1BF5B
 10
484.020
 20
304.695
 30
0.000000
  70
    32
  0
VERTEX
  8
AM_0
  5
1BF5C
 10
485.229
 20
304.485
 30
0.000000
  70
    32
  0
VERTEX
  8
AM_0
  5
1BF5D
 10
486.446
 20
304.335
 30
0.000000
  70
    32
  0
VERTEX
  8
AM_0
  5
1BF5E
 10
487.670
 20
304.245
 30
0.000000
  70
    32
  0
VERTEX
  8
AM_0
  5
1BF5F
 10
488.897
 20
304.215
 30
0.000000
  70
    32
  0
VERTEX
  8
AM_0
  5
1BF60
 10
490.124
 20
304.245
 30
0.000000
  70
    32
  0
VERTEX
  8
AM_0
  5
1BF61
 10
491.347
 20
304.335
 30
0.000000
  70
    32
  0
VERTEX
  8
AM_0
  5
1BF62
 10
492.565
 20
304.485
 30
0.000000
  70
    32
  0
VERTEX
  8
AM_0
  5
1BF63
 10
493.774
 20
304.695
 30
0.000000
  70
    32
  0
VERTEX
  8
AM_0
  5
1BF64
 10
494.971
 20
304.964
 30
0.000000
  70
    32
  0
VERTEX
  8
AM_0
  5
1BF65
 10
496.154
 20
305.291
 30
0.000000
  70
    32
  0
VERTEX
  8
AM_0
  5
1BF66
 10
497.319
 20
305.676
 30
0.000000
  70
    32
  0
VERTEX
  8
AM_0
  5
1BF67
 10
498.464
 20
306.118
 30
0.000000
  70
    32
  0
VERTEX
  8
AM_0
  5
1BF68
 10
499.586
 20
306.615
 30
0.000000
  70
    32
  0
VERTEX
  8
AM_0
  5
1BF69
 10
500.682
 20
307.167
 30
0.000000
  70
    32
  0
VERTEX
  8
AM_0
  5
1BF6A
 10
501.749
 20
307.772
 30
0.000000
  70
    32
  0
VERTEX
  8
AM_0
  5
1BF6B
 10
502.786
 20
308.428
 30
0.000000
  70
    32
  0
VERTEX
  8
AM_0
  5
1BF6C
 10
503.789
 20
309.135
 30
0.000000
  70
    32
  0
VERTEX
  8
AM_0
  5
1BF6D
 10
504.757
 20
309.890
 30
0.000000
  70
    32
  0
VERTEX
  8
AM_0
  5
1BF6E
 10
505.686
 20
310.691
 30
0.000000
  70
    32
  0
VERTEX
  8
AM_0
  5
1BF6F
 10
506.574
 20
311.537
 30
0.000000
  70
    32
  0
VERTEX
  8
AM_0
  5
1BF70
 10
507.421
 20
312.426
 30
0.000000
  70
    32
  0
VERTEX
  8
AM_0
  5
1BF71
 10
508.222
 20
313.355
 30
0.000000
  70
    32
  0
VERTEX
  8
AM_0
  5
1BF72
 10
508.977
 20
314.322
 30
0.000000
  70
    32
  0
VERTEX
  8
AM_0
  5
1BF73
 10
509.684
 20
315.326
 30
0.000000
  70
    32
  0
VERTEX
  8
AM_0
  5
1BF74
 10
510.340
 20
316.362
 30
0.000000
  70
    32
  0
VERTEX
  8
AM_0
  5
1BF75
 10
510.945
 20
317.430
 30
0.000000
  70
    32
  0
VERTEX
  8
AM_0
  5
1BF76
 10
511.497
 20
318.526
 30
0.000000
  70
    32
  0
VERTEX
  8
AM_0
  5
1BF77
 10
511.994
 20
319.648
 30
0.000000
  70
    32
  0
VERTEX
  8
AM_0
  5
1BF78
 10
512.435
 20
320.793
 30
0.000000
  70
    32
  0
VERTEX
  8
AM_0
  5
1BF79
 10
512.820
 20
321.958
 30
0.000000
  70
    32
  0
VERTEX
  8
AM_0
  5
1BF7A
 10
513.148
 20
323.141
 30
0.000000
  70
    32
  0
VERTEX
  8
AM_0
  5
1BF7B
 10
513.416
 20
324.338
 30
0.000000
  70
    32
  0
VERTEX
  8
AM_0
  5
1BF7C
 10
513.626
 20
325.547
 30
0.000000
  70
    32
  0
VERTEX
  8
AM_0
  5
1BF7D
 10
513.776
 20
326.765
 30
0.000000
  70
    32
  0
VERTEX
  8
AM_0
  5
1BF7E
 10
513.867
 20
327.988
 30
0.000000
  70
    32
  0
VERTEX
  8
AM_0
  5
1BF7F
 10
513.897
 20
329.215
 30
0.000000
  70
    32
  0
SEQEND
  8
AM_0
  5
1BF80
  0
LINE
  5
1A621
  8
AM_0
 10
396.3843398567376
 20
257.21373177975852
 30
0.0
 11
488.89682091953932
 21
257.21373177975852
 31
0.0
  0
ARC
  5
1A623
  8
0
 10
488.89682091953978
 20
329.21517392700861
 30
0.0
 40
16.000000000000512
 50
108.2099568642824
 51
71.79004313571761
  0
LINE
  5
1A624
  8
AM_0
 10
488.89682091953978
 20
257.21373177975852
 30
0.0
 11
526.40933085969323
 21
257.21373177975852
 31
0.0
  0
ARC
  5
1A625
  8
AM_0
 10
548.89682270887874
 20
264.21387198851858
 30
0.0
 40
16.249999999999979
 50
88.089786296393925
 51
181.9105704089439
  0
POLYLINE
  5
1A626
  8
0
 66
     1
 10
0.0
 20
0.0
 30
0.0
 70
     1
  0
VERTEX
  5
1BD29
  8
0
 10
543.89682272567927
 20
267.1019233163056
 30
0.0
  0
VERTEX
  5
1BD2A
  8
0
 10
543.89682272567927
 20
261.32842062440932
 30
0.0
  0
VERTEX
  5
1BD2B
  8
0
 10
548.8968227256795
 20
258.44166927846118
 30
0.0
  0
VERTEX
  5
1BD2C
  8
0
 10
553.8968227256795
 20
261.32842062440932
 30
0.0
  0
VERTEX
  5
1BD2D
  8
0
 10
553.8968227256795
 20
267.1019233163056
 30
0.0
  0
VERTEX
  5
1BD2E
  8
0
 10
548.8968227256795
 20
269.98867466225369
 30
0.0
  0
SEQEND
  5
1BD2F
  8
0
  0
LINE
  5
1A627
  8
AM_0
 10
493.89682091953972
 20
340.2151739270077
 30
0.0
 11
493.89682091953972
 21
348.21517392700781
 31
0.0
  0
LINE
  5
1A628
  8
AM_0
 10
483.89682091953978
 20
340.2151739270077
 30
0.0
 11
483.89682091953978
 21
348.21517392700781
 31
0.0
  0
CIRCLE
  5
1A629
  8
ｽﾝﾎﾟｳｾﾝ
 10
488.89682091953978
 20
329.21517392700838
 30
0.0
 40
4.0
  0
LINE
  5
1A62A
  8
0
 10
483.89682091953978
 20
340.2151739270077
 30
0.0
 11
493.89682091953972
 21
340.2151739270077
 31
0.0
  0
LINE
  5
1A62B
  8
0
 10
483.89682091953978
 20
348.21517392700781
 30
0.0
 11
493.89682091953972
 21
348.21517392700781
 31
0.0
  0
POLYLINE
  5
1A67B
  8
0
 66
     1
 10
0.0
 20
0.0
 30
0.0
 70
     1
  0
VERTEX
  5
1BD30
  8
0
 10
368.89684797535199
 20
397.10192722960801
 30
0.0
  0
VERTEX
  5
1BD31
  8
0
 10
368.89684797535199
 20
391.32842453771173
 30
0.0
  0
VERTEX
  5
1BD32
  8
0
 10
373.89684797535199
 20
388.44167319176358
 30
0.0
  0
VERTEX
  5
1BD33
  8
0
 10
378.8968479753521
 20
391.32842453771173
 30
0.0
  0
VERTEX
  5
1BD34
  8
0
 10
378.8968479753521
 20
397.10192722960801
 30
0.0
  0
VERTEX
  5
1BD35
  8
0
 10
373.89684797535199
 20
399.98867857555621
 30
0.0
  0
SEQEND
  5
1BD36
  8
0
  0
CIRCLE
  5
1A67C
  8
0
 10
373.89684797535187
 20
394.2151758836597
 30
0.0
 40
8.9999999999999964
  0
CIRCLE
  5
1A67D
  8
0
 10
373.89684797535187
 20
394.2151758836597
 30
0.0
 40
11.999999999999989
  0
ARC
  5
1A67E
  8
0
 10
388.89682091953978
 20
429.21517392700821
 30
0.0
 40
16.999999999999709
 50
90.0
 51
156.80144506544991
  0
ARC
  5
1A680
  8
AM_0
 10
373.89684800755191
 20
394.2164758654983
 30
0.0
 40
16.249999999999979
 50
268.08978629639392
 51
1.9105704089438631
  0
LINE
  5
1A681
  8
AM_0
 10
373.89684800755191
 20
409.21677631284189
 30
0.0
 11
548.89682270887874
 21
409.21677631284189
 31
0.0
  0
LINE
  5
1A698
  8
0
 10
373.27135125081458
 20
435.9117922998696
 30
0.0
 11
361.6158278830643
 21
408.71552446505058
 31
0.0
  0
LINE
  5
1A699
  8
AM_0
 10
331.89684755967733
 20
411.215524465101
 30
0.0
 11
341.02345038745563
 21
411.215524465101
 31
0.0
  0
LINE
  5
1A69A
  8
AM_0
 10
331.89684755967733
 20
399.25552446486131
 30
0.0
 11
341.89684755987741
 21
399.25552446486131
 31
0.0
  0
LINE
  5
1A69B
  8
AM_0
 10
331.89684755967733
 20
384.35551446456361
 30
0.0
 11
341.89684755987741
 21
384.35551446456361
 31
0.0
  0
LINE
  5
1A6AC
  8
0
  6
CONTINUOUS
 62
     7
 10
323.89684755967733
 20
384.35548272423762
 30
0.0
 11
331.89684755967733
 21
384.35548272423762
 31
0.0
  0
LINE
  5
1A6BD
  8
0
  6
CONTINUOUS
 62
     7
 10
323.89684755967733
 20
399.25549272423791
 30
0.0
 11
331.89684755967733
 21
399.25549272423791
 31
0.0
  0
LINE
  5
1A6CA
  8
0
  6
CONTINUOUS
 62
     7
 10
323.89684755967733
 20
411.21549272423789
 30
0.0
 11
331.89684755967733
 21
411.21549272423789
 31
0.0
  0
POLYLINE
  5
1A6CC
  8
AM_0
 10
373.89684735188195
 20
409.21677631284228
 30
0.0
 66
     1
 70
     8
  0
VERTEX
  8
AM_0
  5
1BF81
 10
373.897
 20
409.217
 30
0.000000
  70
    32
  0
VERTEX
  8
AM_0
  5
1BF82
 10
373.713
 20
409.216
 30
0.000000
  70
    32
  0
VERTEX
  8
AM_0
  5
1BF83
 10
373.529
 20
409.212
 30
0.000000
  70
    32
  0
VERTEX
  8
AM_0
  5
1BF84
 10
373.345
 20
409.207
 30
0.000000
  70
    32
  0
VERTEX
  8
AM_0
  5
1BF85
 10
373.161
 20
409.199
 30
0.000000
  70
    32
  0
VERTEX
  8
AM_0
  5
1BF86
 10
372.977
 20
409.189
 30
0.000000
  70
    32
  0
VERTEX
  8
AM_0
  5
1BF87
 10
372.793
 20
409.176
 30
0.000000
  70
    32
  0
VERTEX
  8
AM_0
  5
1BF88
 10
372.610
 20
409.161
 30
0.000000
  70
    32
  0
VERTEX
  8
AM_0
  5
1BF89
 10
372.427
 20
409.145
 30
0.000000
  70
    32
  0
VERTEX
  8
AM_0
  5
1BF8A
 10
372.244
 20
409.125
 30
0.000000
  70
    32
  0
VERTEX
  8
AM_0
  5
1BF8B
 10
372.061
 20
409.104
 30
0.000000
  70
    32
  0
VERTEX
  8
AM_0
  5
1BF8C
 10
371.878
 20
409.080
 30
0.000000
  70
    32
  0
VERTEX
  8
AM_0
  5
1BF8D
 10
371.696
 20
409.054
 30
0.000000
  70
    32
  0
VERTEX
  8
AM_0
  5
1BF8E
 10
371.514
 20
409.026
 30
0.000000
  70
    32
  0
VERTEX
  8
AM_0
  5
1BF8F
 10
371.332
 20
408.996
 30
0.000000
  70
    32
  0
VERTEX
  8
AM_0
  5
1BF90
 10
371.151
 20
408.963
 30
0.000000
  70
    32
  0
VERTEX
  8
AM_0
  5
1BF91
 10
370.970
 20
408.929
 30
0.000000
  70
    32
  0
VERTEX
  8
AM_0
  5
1BF92
 10
370.790
 20
408.892
 30
0.000000
  70
    32
  0
VERTEX
  8
AM_0
  5
1BF93
 10
370.610
 20
408.852
 30
0.000000
  70
    32
  0
VERTEX
  8
AM_0
  5
1BF94
 10
370.431
 20
408.811
 30
0.000000
  70
    32
  0
VERTEX
  8
AM_0
  5
1BF95
 10
370.252
 20
408.767
 30
0.000000
  70
    32
  0
VERTEX
  8
AM_0
  5
1BF96
 10
370.074
 20
408.721
 30
0.000000
  70
    32
  0
VERTEX
  8
AM_0
  5
1BF97
 10
369.896
 20
408.673
 30
0.000000
  70
    32
  0
VERTEX
  8
AM_0
  5
1BF98
 10
369.719
 20
408.623
 30
0.000000
  70
    32
  0
VERTEX
  8
AM_0
  5
1BF99
 10
369.543
 20
408.571
 30
0.000000
  70
    32
  0
VERTEX
  8
AM_0
  5
1BF9A
 10
369.367
 20
408.516
 30
0.000000
  70
    32
  0
VERTEX
  8
AM_0
  5
1BF9B
 10
369.192
 20
408.460
 30
0.000000
  70
    32
  0
VERTEX
  8
AM_0
  5
1BF9C
 10
369.017
 20
408.401
 30
0.000000
  70
    32
  0
VERTEX
  8
AM_0
  5
1BF9D
 10
368.843
 20
408.340
 30
0.000000
  70
    32
  0
VERTEX
  8
AM_0
  5
1BF9E
 10
368.671
 20
408.277
 30
0.000000
  70
    32
  0
VERTEX
  8
AM_0
  5
1BF9F
 10
368.498
 20
408.212
 30
0.000000
  70
    32
  0
VERTEX
  8
AM_0
  5
1BFA0
 10
368.327
 20
408.144
 30
0.000000
  70
    32
  0
VERTEX
  8
AM_0
  5
1BFA1
 10
368.157
 20
408.075
 30
0.000000
  70
    32
  0
VERTEX
  8
AM_0
  5
1BFA2
 10
367.987
 20
408.003
 30
0.000000
  70
    32
  0
VERTEX
  8
AM_0
  5
1BFA3
 10
367.818
 20
407.930
 30
0.000000
  70
    32
  0
VERTEX
  8
AM_0
  5
1BFA4
 10
367.650
 20
407.854
 30
0.000000
  70
    32
  0
VERTEX
  8
AM_0
  5
1BFA5
 10
367.484
 20
407.777
 30
0.000000
  70
    32
  0
VERTEX
  8
AM_0
  5
1BFA6
 10
367.318
 20
407.697
 30
0.000000
  70
    32
  0
VERTEX
  8
AM_0
  5
1BFA7
 10
367.153
 20
407.615
 30
0.000000
  70
    32
  0
VERTEX
  8
AM_0
  5
1BFA8
 10
366.989
 20
407.531
 30
0.000000
  70
    32
  0
VERTEX
  8
AM_0
  5
1BFA9
 10
366.826
 20
407.446
 30
0.000000
  70
    32
  0
VERTEX
  8
AM_0
  5
1BFAA
 10
366.664
 20
407.358
 30
0.000000
  70
    32
  0
VERTEX
  8
AM_0
  5
1BFAB
 10
366.503
 20
407.268
 30
0.000000
  70
    32
  0
VERTEX
  8
AM_0
  5
1BFAC
 10
366.344
 20
407.176
 30
0.000000
  70
    32
  0
VERTEX
  8
AM_0
  5
1BFAD
 10
366.185
 20
407.083
 30
0.000000
  70
    32
  0
VERTEX
  8
AM_0
  5
1BFAE
 10
366.028
 20
406.987
 30
0.000000
  70
    32
  0
VERTEX
  8
AM_0
  5
1BFAF
 10
365.872
 20
406.890
 30
0.000000
  70
    32
  0
VERTEX
  8
AM_0
  5
1BFB0
 10
365.717
 20
406.790
 30
0.000000
  70
    32
  0
VERTEX
  8
AM_0
  5
1BFB1
 10
365.563
 20
406.689
 30
0.000000
  70
    32
  0
VERTEX
  8
AM_0
  5
1BFB2
 10
365.411
 20
406.586
 30
0.000000
  70
    32
  0
VERTEX
  8
AM_0
  5
1BFB3
 10
365.260
 20
406.480
 30
0.000000
  70
    32
  0
VERTEX
  8
AM_0
  5
1BFB4
 10
365.110
 20
406.374
 30
0.000000
  70
    32
  0
VERTEX
  8
AM_0
  5
1BFB5
 10
364.961
 20
406.265
 30
0.000000
  70
    32
  0
VERTEX
  8
AM_0
  5
1BFB6
 10
364.814
 20
406.154
 30
0.000000
  70
    32
  0
VERTEX
  8
AM_0
  5
1BFB7
 10
364.668
 20
406.042
 30
0.000000
  70
    32
  0
VERTEX
  8
AM_0
  5
1BFB8
 10
364.524
 20
405.928
 30
0.000000
  70
    32
  0
VERTEX
  8
AM_0
  5
1BFB9
 10
364.381
 20
405.812
 30
0.000000
  70
    32
  0
VERTEX
  8
AM_0
  5
1BFBA
 10
364.239
 20
405.694
 30
0.000000
  70
    32
  0
VERTEX
  8
AM_0
  5
1BFBB
 10
364.099
 20
405.575
 30
0.000000
  70
    32
  0
VERTEX
  8
AM_0
  5
1BFBC
 10
363.961
 20
405.454
 30
0.000000
  70
    32
  0
VERTEX
  8
AM_0
  5
1BFBD
 10
363.823
 20
405.331
 30
0.000000
  70
    32
  0
VERTEX
  8
AM_0
  5
1BFBE
 10
363.688
 20
405.207
 30
0.000000
  70
    32
  0
VERTEX
  8
AM_0
  5
1BFBF
 10
363.554
 20
405.080
 30
0.000000
  70
    32
  0
VERTEX
  8
AM_0
  5
1BFC0
 10
363.421
 20
404.953
 30
0.000000
  70
    32
  0
VERTEX
  8
AM_0
  5
1BFC1
 10
363.290
 20
404.823
 30
0.000000
  70
    32
  0
VERTEX
  8
AM_0
  5
1BFC2
 10
363.161
 20
404.692
 30
0.000000
  70
    32
  0
VERTEX
  8
AM_0
  5
1BFC3
 10
363.033
 20
404.560
 30
0.000000
  70
    32
  0
VERTEX
  8
AM_0
  5
1BFC4
 10
362.907
 20
404.426
 30
0.000000
  70
    32
  0
VERTEX
  8
AM_0
  5
1BFC5
 10
362.783
 20
404.290
 30
0.000000
  70
    32
  0
VERTEX
  8
AM_0
  5
1BFC6
 10
362.660
 20
404.153
 30
0.000000
  70
    32
  0
VERTEX
  8
AM_0
  5
1BFC7
 10
362.539
 20
404.014
 30
0.000000
  70
    32
  0
VERTEX
  8
AM_0
  5
1BFC8
 10
362.419
 20
403.874
 30
0.000000
  70
    32
  0
VERTEX
  8
AM_0
  5
1BFC9
 10
362.302
 20
403.733
 30
0.000000
  70
    32
  0
VERTEX
  8
AM_0
  5
1BFCA
 10
362.186
 20
403.590
 30
0.000000
  70
    32
  0
VERTEX
  8
AM_0
  5
1BFCB
 10
362.072
 20
403.445
 30
0.000000
  70
    32
  0
VERTEX
  8
AM_0
  5
1BFCC
 10
361.959
 20
403.299
 30
0.000000
  70
    32
  0
VERTEX
  8
AM_0
  5
1BFCD
 10
361.849
 20
403.152
 30
0.000000
  70
    32
  0
VERTEX
  8
AM_0
  5
1BFCE
 10
361.740
 20
403.004
 30
0.000000
  70
    32
  0
VERTEX
  8
AM_0
  5
1BFCF
 10
361.633
 20
402.854
 30
0.000000
  70
    32
  0
VERTEX
  8
AM_0
  5
1BFD0
 10
361.528
 20
402.703
 30
0.000000
  70
    32
  0
VERTEX
  8
AM_0
  5
1BFD1
 10
361.425
 20
402.550
 30
0.000000
  70
    32
  0
VERTEX
  8
AM_0
  5
1BFD2
 10
361.323
 20
402.397
 30
0.000000
  70
    32
  0
VERTEX
  8
AM_0
  5
1BFD3
 10
361.224
 20
402.242
 30
0.000000
  70
    32
  0
VERTEX
  8
AM_0
  5
1BFD4
 10
361.127
 20
402.085
 30
0.000000
  70
    32
  0
VERTEX
  8
AM_0
  5
1BFD5
 10
361.031
 20
401.928
 30
0.000000
  70
    32
  0
VERTEX
  8
AM_0
  5
1BFD6
 10
360.937
 20
401.770
 30
0.000000
  70
    32
  0
VERTEX
  8
AM_0
  5
1BFD7
 10
360.846
 20
401.610
 30
0.000000
  70
    32
  0
VERTEX
  8
AM_0
  5
1BFD8
 10
360.756
 20
401.449
 30
0.000000
  70
    32
  0
VERTEX
  8
AM_0
  5
1BFD9
 10
360.668
 20
401.288
 30
0.000000
  70
    32
  0
VERTEX
  8
AM_0
  5
1BFDA
 10
360.582
 20
401.125
 30
0.000000
  70
    32
  0
VERTEX
  8
AM_0
  5
1BFDB
 10
360.498
 20
400.961
 30
0.000000
  70
    32
  0
VERTEX
  8
AM_0
  5
1BFDC
 10
360.417
 20
400.796
 30
0.000000
  70
    32
  0
VERTEX
  8
AM_0
  5
1BFDD
 10
360.337
 20
400.630
 30
0.000000
  70
    32
  0
VERTEX
  8
AM_0
  5
1BFDE
 10
360.259
 20
400.463
 30
0.000000
  70
    32
  0
VERTEX
  8
AM_0
  5
1BFDF
 10
360.184
 20
400.295
 30
0.000000
  70
    32
  0
VERTEX
  8
AM_0
  5
1BFE0
 10
360.110
 20
400.126
 30
0.000000
  70
    32
  0
VERTEX
  8
AM_0
  5
1BFE1
 10
360.039
 20
399.957
 30
0.000000
  70
    32
  0
VERTEX
  8
AM_0
  5
1BFE2
 10
359.969
 20
399.786
 30
0.000000
  70
    32
  0
VERTEX
  8
AM_0
  5
1BFE3
 10
359.902
 20
399.615
 30
0.000000
  70
    32
  0
VERTEX
  8
AM_0
  5
1BFE4
 10
359.837
 20
399.443
 30
0.000000
  70
    32
  0
VERTEX
  8
AM_0
  5
1BFE5
 10
359.774
 20
399.270
 30
0.000000
  70
    32
  0
VERTEX
  8
AM_0
  5
1BFE6
 10
359.713
 20
399.096
 30
0.000000
  70
    32
  0
VERTEX
  8
AM_0
  5
1BFE7
 10
359.654
 20
398.922
 30
0.000000
  70
    32
  0
VERTEX
  8
AM_0
  5
1BFE8
 10
359.597
 20
398.747
 30
0.000000
  70
    32
  0
VERTEX
  8
AM_0
  5
1BFE9
 10
359.543
 20
398.571
 30
0.000000
  70
    32
  0
VERTEX
  8
AM_0
  5
1BFEA
 10
359.490
 20
398.394
 30
0.000000
  70
    32
  0
VERTEX
  8
AM_0
  5
1BFEB
 10
359.440
 20
398.217
 30
0.000000
  70
    32
  0
VERTEX
  8
AM_0
  5
1BFEC
 10
359.392
 20
398.040
 30
0.000000
  70
    32
  0
VERTEX
  8
AM_0
  5
1BFED
 10
359.346
 20
397.861
 30
0.000000
  70
    32
  0
VERTEX
  8
AM_0
  5
1BFEE
 10
359.303
 20
397.682
 30
0.000000
  70
    32
  0
VERTEX
  8
AM_0
  5
1BFEF
 10
359.261
 20
397.503
 30
0.000000
  70
    32
  0
VERTEX
  8
AM_0
  5
1BFF0
 10
359.222
 20
397.323
 30
0.000000
  70
    32
  0
VERTEX
  8
AM_0
  5
1BFF1
 10
359.185
 20
397.143
 30
0.000000
  70
    32
  0
VERTEX
  8
AM_0
  5
1BFF2
 10
359.150
 20
396.962
 30
0.000000
  70
    32
  0
VERTEX
  8
AM_0
  5
1BFF3
 10
359.118
 20
396.781
 30
0.000000
  70
    32
  0
VERTEX
  8
AM_0
  5
1BFF4
 10
359.087
 20
396.599
 30
0.000000
  70
    32
  0
VERTEX
  8
AM_0
  5
1BFF5
 10
359.059
 20
396.417
 30
0.000000
  70
    32
  0
VERTEX
  8
AM_0
  5
1BFF6
 10
359.033
 20
396.235
 30
0.000000
  70
    32
  0
VERTEX
  8
AM_0
  5
1BFF7
 10
359.010
 20
396.053
 30
0.000000
  70
    32
  0
VERTEX
  8
AM_0
  5
1BFF8
 10
358.988
 20
395.870
 30
0.000000
  70
    32
  0
VERTEX
  8
AM_0
  5
1BFF9
 10
358.969
 20
395.687
 30
0.000000
  70
    32
  0
VERTEX
  8
AM_0
  5
1BFFA
 10
358.952
 20
395.503
 30
0.000000
  70
    32
  0
VERTEX
  8
AM_0
  5
1BFFB
 10
358.937
 20
395.320
 30
0.000000
  70
    32
  0
VERTEX
  8
AM_0
  5
1BFFC
 10
358.925
 20
395.136
 30
0.000000
  70
    32
  0
VERTEX
  8
AM_0
  5
1BFFD
 10
358.915
 20
394.953
 30
0.000000
  70
    32
  0
VERTEX
  8
AM_0
  5
1BFFE
 10
358.907
 20
394.769
 30
0.000000
  70
    32
  0
VERTEX
  8
AM_0
  5
1BFFF
 10
358.901
 20
394.585
 30
0.000000
  70
    32
  0
VERTEX
  8
AM_0
  5
1C000
 10
358.898
 20
394.401
 30
0.000000
  70
    32
  0
VERTEX
  8
AM_0
  5
1C001
 10
358.897
 20
394.216
 30
0.000000
  70
    32
  0
SEQEND
  8
AM_0
  5
1C002
  0
ARC
  5
1A6CD
  8
AM_0
 10
354.46838191381522
 20
392.94425310282918
 30
0.0
 40
3.000000000059996
 50
90.0
 51
173.3392856796832
1001
GENIUS_GENOBJ-N-FIL_13
1002
{
1000
OWNER
1000
GEN
1002
}
1001
GENIUS_GENODEF_13
1002
{
1000
HIER
1070
     0
1002
}
1002
{
1000
MANEDIT
1070
     0
1002
}
1002
{
1000
NOSEL
1070
     0
1002
}
1002
{
1000
BEHIND
1070
     0
1002
}
1002
{
1000
OTHER
1070
     0
1002
}
1002
{
1000
REACTOR
1002
}
  0
LINE
  5
1A6CE
  8
AM_0
 10
354.46838191381522
 20
395.94425310288921
 30
0.0
 11
357.89684756019727
 21
395.94425310288921
 31
0.0
  0
LINE
  5
1A6CF
  8
AM_0
 10
345.89684755995728
 20
408.71552446505081
 30
0.0
 11
370.05620812772401
 21
408.71552446505052
 31
0.0
  0
ARC
  5
1A6D0
  8
AM_0
 10
341.02345038745563
 20
408.21552446504052
 30
0.0
 40
3.000000000059996
 50
35.685334712662048
 51
90.0
1001
GENIUS_GENOBJ-N-FIL_13
1002
{
1000
OWNER
1000
GEN
1002
}
1001
GENIUS_GENODEF_13
1002
{
1000
HIER
1070
     0
1002
}
1002
{
1000
MANEDIT
1070
     0
1002
}
1002
{
1000
NOSEL
1070
     0
1002
}
1002
{
1000
BEHIND
1070
     0
1002
}
1002
{
1000
OTHER
1070
     0
1002
}
1002
{
1000
REACTOR
1002
}
  0
ARC
  5
1A6D1
  8
AM_0
 10
345.89684755995728
 20
411.715524465111
 30
0.0
 40
3.000000000059996
 50
215.68533471266201
 51
270.0
1001
GENIUS_GENOBJ-N-FIL_13
1002
{
1000
OWNER
1000
GEN
1002
}
1001
GENIUS_GENODEF_13
1002
{
1000
HIER
1070
     0
1002
}
1002
{
1000
MANEDIT
1070
     0
1002
}
1002
{
1000
NOSEL
1070
     0
1002
}
1002
{
1000
BEHIND
1070
     0
1002
}
1002
{
1000
OTHER
1070
     0
1002
}
1002
{
1000
REACTOR
1002
}
  0
LINE
  5
1A6D3
  8
0
 10
533.89684978149148
 20
446.21517392700758
 30
0.0
 11
388.89682091953978
 21
446.21517392700758
 31
0.0
  0
LINE
  5
1A6D4
  8
AM_0
 10
396.3843398567376
 20
401.21661607425858
 30
0.0
 11
488.89682091953978
 21
401.21661607425858
 31
0.0
  0
CIRCLE
  5
1A6D5
  8
0
 10
388.89682091953978
 20
429.21517392700821
 30
0.0
 40
6.9999999999999991
  0
ARC
  5
1A6D7
  8
AM_0
 10
396.3843398567376
 20
394.96661607425881
 30
0.0
 40
6.249999999999992
 50
90.0
 51
181.9105704089439
1001
GENIUS_GENOBJ-N-FIL_13
1002
{
1000
OWNER
1000
GEN
1002
}
1001
GENIUS_GENODEF_13
1002
{
1000
HIER
1070
     0
1002
}
1002
{
1000
MANEDIT
1070
     0
1002
}
1002
{
1000
NOSEL
1070
     0
1002
}
1002
{
1000
BEHIND
1070
     0
1002
}
1002
{
1000
OTHER
1070
     0
1002
}
1002
{
1000
REACTOR
1002
}
  0
CIRCLE
  5
1A6DA
  8
0
 10
533.89684978149148
 20
429.21517392700821
 30
0.0
 40
6.9999999999999991
  0
LINE
  5
1A6DB
  8
ﾁｭｳｼﾝｾﾝ1
 10
533.89684978149148
 20
414.21517392701639
 30
0.0
 11
533.89684978149148
 21
444.21517392700082
 31
0.0
  0
LINE
  5
1A6DC
  8
AM_0
 10
488.89682091953978
 20
401.21661607425858
 30
0.0
 11
526.40933085969323
 21
401.21661607425858
 31
0.0
  0
ARC
  5
1A6DE
  8
AM_0
 10
526.40933085969323
 20
394.96661607425881
 30
0.0
 40
6.249999999999992
 50
358.08942959105622
 51
90.0
1001
GENIUS_GENOBJ-N-FIL_13
1002
{
1000
OWNER
1000
GEN
1002
}
1001
GENIUS_GENODEF_13
1002
{
1000
HIER
1070
     0
1002
}
1002
{
1000
MANEDIT
1070
     0
1002
}
1002
{
1000
NOSEL
1070
     0
1002
}
1002
{
1000
BEHIND
1070
     0
1002
}
1002
{
1000
OTHER
1070
     0
1002
}
1002
{
1000
REACTOR
1002
}
  0
ARC
  5
1A6DF
  8
AM_0
 10
548.89682270887874
 20
394.2164758654983
 30
0.0
 40
16.249999999999979
 50
178.0894295910561
 51
271.910213703593
  0
POLYLINE
  5
1A6E0
  8
0
 66
     1
 10
0.0
 20
0.0
 30
0.0
 70
     1
  0
VERTEX
  5
1BD37
  8
0
 10
543.89682272567927
 20
397.10192722960801
 30
0.0
  0
VERTEX
  5
1BD38
  8
0
 10
543.89682272567927
 20
391.32842453771173
 30
0.0
  0
VERTEX
  5
1BD39
  8
0
 10
548.8968227256795
 20
388.44167319176358
 30
0.0
  0
VERTEX
  5
1BD3A
  8
0
 10
553.8968227256795
 20
391.32842453771173
 30
0.0
  0
VERTEX
  5
1BD3B
  8
0
 10
553.8968227256795
 20
397.10192722960801
 30
0.0
  0
VERTEX
  5
1BD3C
  8
0
 10
548.8968227256795
 20
399.98867857555621
 30
0.0
  0
SEQEND
  5
1BD3D
  8
0
  0
LINE
  5
1A6E1
  8
ﾁｭｳｼﾝｾﾝ1
 10
548.89686504028123
 20
429.21517392700861
 30
0.0
 11
518.89686504028123
 21
429.21517392700861
 31
0.0
  0
ARC
  5
1A6E2
  8
0
 10
533.89684978149148
 20
429.21517392700821
 30
0.0
 40
16.999999999999709
 50
23.198554934550121
 51
90.0
  0
LINE
  5
1A6E4
  8
AM_0
 10
565.8968231772144
 20
394.2151758836597
 30
0.0
 11
565.8968231772144
 21
264.21517197035769
 31
0.0
  0
LINE
  5
1A6E5
  8
AM_0
 10
563.89682315621394
 20
394.2164758654983
 30
0.0
 11
563.89682315621394
 21
264.21387198851897
 31
0.0
  0
LINE
  5
1A6E7
  8
AM_0
 10
555.89682291763506
 20
286.70136850740369
 30
0.0
 11
555.89682291763506
 21
371.72897934661319
 31
0.0
  0
ARC
  5
1A6E8
  8
AM_0
 10
548.89682272567916
 20
264.21517197035718
 30
0.0
 40
17.000000451534831
 50
336.80144506544991
 51
0.0
  0
ARC
  5
1A6EC
  8
AM_0
 10
548.89682272567916
 20
394.21517588365919
 30
0.0
 40
17.000000451534831
 50
0.0
 51
23.198554934550121
  0
LINE
  5
1A6F0
  8
AM_0
 10
761.57362486343538
 20
379.21517793559929
 30
0.0
 11
761.57362486343516
 21
279.21517552141381
 31
0.0
  0
LINE
  5
1A6F1
  8
AM_0
 10
925.57362678998447
 20
212.215176728507
 30
0.0
 11
925.57362678998447
 21
446.21517672850649
 31
0.0
  0
LINE
  5
1A6F2
  8
AM_0
 10
859.57362802417958
 20
249.33736029444211
 30
0.0
 11
859.57362802418004
 21
409.09299316257142
 31
0.0
  0
LINE
  5
1A6F4
  8
AM_0
 10
766.57362501394744
 20
250.96068828888039
 30
0.0
 11
766.57362501394744
 21
407.46966516813262
 31
0.0
  0
LINE
  5
1A6F6
  8
ﾁｭｳｼﾝｾﾝ1
 10
825.57362678998379
 20
241.47680240992449
 30
0.0
 11
825.57362678998379
 21
416.95355104708779
 31
0.0
  0
LINE
  5
1A6F7
  8
ﾁｭｳｼﾝｾﾝ1
 10
987.23775804666263
 20
329.21517672850621
 30
0.0
 11
663.9094955333054
 21
329.21517672850672
 31
0.0
  0
LINE
  5
1A6F9
  8
AM_0
 10
766.57362501394744
 20
250.96068828888039
 30
0.0
 11
859.57362802417958
 21
249.33736029444211
 31
0.0
  0
LINE
  5
1A6FC
  8
ﾁｭｳｼﾝｾﾝ1
 10
757.06979053531779
 20
347.2155410088364
 30
0.0
 11
894.07746304464968
 21
347.2155410088364
 31
0.0
  0
LINE
  5
1A6FD
  8
0
 10
752.07362501394744
 20
273.21517477185557
 30
0.0
 11
752.07362501394744
 21
255.2151747718556
 31
0.0
  0
LINE
  5
1A6FE
  8
0
 10
764.07362501394744
 20
276.21517477185557
 30
0.0
 11
764.07362501394744
 21
252.2151747718556
 31
0.0
  0
LINE
  5
1A6FF
  8
0
 10
752.07362501394744
 20
255.2151747718556
 30
0.0
 11
764.07362501394744
 21
255.2151747718556
 31
0.0
  0
LINE
  5
1A700
  8
0
 10
764.07362501394744
 20
252.2151747718556
 30
0.0
 11
766.57362501394744
 21
252.2151747718556
 31
0.0
  0
LINE
  5
1A707
  8
0
 10
670.57362678998402
 20
348.21517672850609
 30
0.0
 11
715.57362678998402
 21
348.21517672850609
 31
0.0
  0
LINE
  5
1A708
  8
0
 10
670.57362678998402
 20
345.21517672850649
 30
0.0
 11
728.57362678998402
 21
345.21517672850649
 31
0.0
  0
LINE
  5
1A709
  8
0
 10
670.57362678998402
 20
313.21517672850621
 30
0.0
 11
728.57362678998402
 21
313.21517672850621
 31
0.0
  0
LINE
  5
1A70A
  8
AM_0
 10
670.57362678998402
 20
313.21517672850621
 30
0.0
 11
670.57362678998402
 21
348.21517672850609
 31
0.0
  0
LINE
  5
1A70B
  8
0
 10
728.57362678998402
 20
349.21517672850609
 30
0.0
 11
728.57362678998402
 21
309.21517672850621
 31
0.0
  0
LINE
  5
1A70C
  8
AM_0
 10
756.57362471292424
 20
354.21517748106481
 30
0.0
 11
756.57362471292424
 21
304.21517597594891
 31
0.0
  0
LINE
  5
1A70D
  8
0
 10
764.07362501394744
 20
273.21517477185557
 30
0.0
 11
752.07362501394744
 21
273.21517477185557
 31
0.0
  0
LINE
  5
1A70E
  8
AM_0
 10
761.57362486343584
 20
304.21517597594891
 30
0.0
 11
756.57362471292424
 21
304.21517597594891
 31
0.0
  0
LINE
  5
1A70F
  8
0
 10
728.57362678998402
 20
309.21517672850621
 30
0.0
 11
756.5736247129247
 21
304.21517597594891
 31
0.0
  0
LINE
  5
1A710
  8
0
 10
761.57362486343516
 20
279.21517552141381
 30
0.0
 11
766.57362501394744
 21
279.21517552141381
 31
0.0
  0
LINE
  5
1A711
  8
0
 10
766.57362501394744
 20
276.21517477185557
 30
0.0
 11
764.07362501394744
 21
276.21517477185557
 31
0.0
  0
LINE
  5
1A712
  8
AM_0
 10
761.57362486343584
 20
354.21517748106481
 30
0.0
 11
756.57362471292424
 21
354.21517748106481
 31
0.0
  0
LINE
  5
1A713
  8
0
 10
728.57362678998402
 20
349.21517672850609
 30
0.0
 11
756.5736247129247
 21
354.21517748106481
 31
0.0
  0
LINE
  5
1A714
  8
0
 10
715.57362678998402
 20
348.21517672850609
 30
0.0
 11
715.57362678998402
 21
345.21517672850649
 31
0.0
  0
LINE
  5
1A72B
  8
AM_0
 10
859.57362802417958
 20
249.33736029444211
 30
0.0
 11
897.62598612531372
 21
248.6731314810302
 31
0.0
  0
LINE
  5
1ACBC
  8
AM_0
 10
900.57362678998425
 20
215.01957351541461
 30
0.0
 11
900.57362678998425
 21
245.6735884324969
 31
0.0
  0
LINE
  5
1ACBF
  8
AM_0
 10
925.57362678998447
 20
212.215176728507
 30
0.0
 11
902.50382779657866
 21
213.02079186137621
 31
0.0
  0
ARC
  5
1ACC0
  8
0
 10
902.57362678998413
 20
215.01957351541461
 30
0.0
 40
1.9999999999999989
 50
180.0
 51
267.99999999999631
1001
GENIUS_GENOBJ-N-FIL_13
1002
{
1000
OWNER
1000
GEN
1002
}
1001
GENIUS_GENODEF_13
1002
{
1000
HIER
1070
     0
1002
}
1002
{
1000
MANEDIT
1070
     0
1002
}
1002
{
1000
NOSEL
1070
     0
1002
}
1002
{
1000
BEHIND
1070
     0
1002
}
1002
{
1000
OTHER
1070
     0
1002
}
1002
{
1000
REACTOR
1002
}
  0
LINE
  5
1ACC3
  8
ﾁｭｳｼﾝｾﾝ1
 10
897.56683744025861
 20
229.21517672850609
 30
0.0
 11
929.20783069502727
 21
229.21517672850609
 31
0.0
  0
ARC
  5
1ACC5
  8
AM_0
 10
897.57362678998425
 20
245.6735884324969
 30
0.0
 40
2.9999999999999978
 50
0.0
 51
88.999959580877501
1001
GENIUS_GENOBJ-N-FIL_13
1002
{
1000
OWNER
1000
GEN
1002
}
1001
GENIUS_GENODEF_13
1002
{
1000
HIER
1070
     0
1002
}
1002
{
1000
MANEDIT
1070
     0
1002
}
1002
{
1000
NOSEL
1070
     0
1002
}
1002
{
1000
BEHIND
1070
     0
1002
}
1002
{
1000
OTHER
1070
     0
1002
}
1002
{
1000
REACTOR
1002
}
  0
ARC
  5
1ACDA
  8
AM_0
 10
800.57386678948365
 20
410.09932901009438
 30
0.0
 40
1.000393500020007
 50
2.0744399999949339
 51
179.0714379999965
  0
LINE
  5
1ACDB
  8
AM_0
 10
766.57362501394744
 20
407.46966516813262
 30
0.0
 11
859.57362802418004
 21
409.09299316257142
 31
0.0
  0
LINE
  5
1ACDC
  8
0
 10
752.07362501394744
 20
403.21517868515741
 30
0.0
 11
764.07362501394744
 21
403.21517868515741
 31
0.0
  0
LINE
  5
1ACDD
  8
0
 10
764.07362501394744
 20
385.21517868515753
 30
0.0
 11
752.07362501394744
 21
385.21517868515753
 31
0.0
  0
LINE
  5
1ACDE
  8
0
 10
752.07362501394744
 20
385.21517868515753
 30
0.0
 11
752.07362501394744
 21
403.21517868515741
 31
0.0
  0
LINE
  5
1ACDF
  8
0
 10
764.07362501394744
 20
382.21517868515753
 30
0.0
 11
764.07362501394744
 21
406.21517868515753
 31
0.0
  0
LINE
  5
1ACE0
  8
0
 10
761.57362486343538
 20
379.21517793559929
 30
0.0
 11
766.57362501394744
 21
379.21517793559929
 31
0.0
  0
LINE
  5
1ACE1
  8
0
 10
766.57362501394744
 20
382.21517868515753
 30
0.0
 11
764.07362501394744
 21
382.21517868515753
 31
0.0
  0
ARC
  5
1ACE2
  8
AM_0
 10
764.76636287897884
 20
382.2150210088368
 30
0.0
 40
1.000530599999998
 50
133.81804811085959
 51
267.38127000000139
  0
LINE
  5
1ACE3
  8
AM_0
 10
764.08064287897878
 20
381.47555100883642
 30
0.0
 11
764.08064287897878
 21
379.21517793559929
 31
0.0
  0
LINE
  5
1ACE4
  8
AM_0
 10
766.57362501394744
 20
381.1474935461859
 30
0.0
 11
764.72064287897888
 21
381.21554100883651
 31
0.0
  0
LINE
  5
1ACE5
  8
0
 10
764.07362501394744
 20
406.21517868515753
 30
0.0
 11
766.57362501394744
 21
406.21517868515753
 31
0.0
  0
ARC
  5
1ACE6
  8
AM_0
 10
790.57380778998379
 20
408.04846700883689
 30
0.0
 40
1.0001850000000001
 50
1.551130999995155
 51
180.16761299999791
  0
LINE
  5
1ACE7
  8
AM_0
 10
789.56597041082944
 20
407.90238902167732
 30
0.0
 11
789.57362706975141
 21
408.04554107309201
 31
0.0
  0
LINE
  5
1ACE8
  8
AM_0
 10
791.57841799001903
 20
407.94012666464158
 30
0.0
 11
791.57362678998379
 21
408.07554100883641
 31
0.0
  0
LINE
  5
1ACE9
  8
AM_0
 10
799.50092808804322
 20
408.08869046354511
 30
0.0
 11
799.57359678946364
 21
410.13554601009508
 31
0.0
  0
LINE
  5
1ACED
  8
AM_0
 10
859.57362802418004
 20
409.09299316257142
 30
0.0
 11
897.62598104137419
 21
409.75716924042831
 31
0.0
  0
ARC
  5
1ACF2
  8
AM_0
 10
825.57362678998379
 20
347.2155410088364
 30
0.0
 40
63.503836254666012
 50
76.113685254995161
 51
106.03489670621479
  0
ARC
  5
1ACF3
  8
AM_0
 10
810.57402678968356
 20
411.45485101012127
 30
0.0
 40
1.000414000020007
 50
2.331049999997953
 51
179.96048300000029
  0
LINE
  5
1ACF4
  8
AM_0
 10
801.64284918705539
 20
408.12885600849
 30
0.0
 11
801.57362678950381
 21
410.1355380100951
 31
0.0
  0
LINE
  5
1ACF5
  8
AM_0
 10
811.65363634763435
 20
409.17497197091348
 30
0.0
 11
811.57359678970363
 21
411.49554301012239
 31
0.0
  0
LINE
  5
1ACF6
  8
AM_0
 10
809.47322729548046
 20
408.64447845021527
 30
0.0
 11
809.57362678966365
 21
411.49554701012232
 31
0.0
  0
ARC
  5
1ACF7
  8
AM_0
 10
820.57417678988372
 20
412.12779801013522
 30
0.0
 40
1.0005848000200099
 50
2.7350399999978938
 51
179.5564910000007
  0
LINE
  5
1ACF8
  8
AM_0
 10
821.61360059942308
 20
410.59578565675122
 30
0.0
 11
821.57362678990353
 21
412.17554301013581
 31
0.0
  0
LINE
  5
1ACF9
  8
AM_0
 10
819.51342035714538
 20
410.42955145787232
 30
0.0
 11
819.57362678986397
 21
412.17553901013628
 31
0.0
  0
ARC
  5
1ACFE
  8
AM_0
 10
830.57304679008359
 20
412.12711901013489
 30
0.0
 40
1.0006038000200119
 50
0.4821899999981744
 51
177.2262829999969
  0
LINE
  5
1ACFF
  8
AM_0
 10
831.6338333269706
 20
410.42955144788772
 30
0.0
 11
831.5736267901035
 21
412.17553901013628
 31
0.0
  0
LINE
  5
1AD00
  8
AM_0
 10
829.51368334204994
 20
410.5970302105427
 30
0.0
 11
829.5736267900636
 21
412.17553901013628
 31
0.0
  0
ARC
  5
1AD01
  8
AM_0
 10
840.57319679028365
 20
411.45417601012161
 30
0.0
 40
1.0004282000200071
 50
0.0782200000044958
 51
177.6302479999965
  0
LINE
  5
1AD02
  8
AM_0
 10
839.49361723960885
 20
409.1749719692786
 30
0.0
 11
839.57362679026357
 21
411.49554301012239
 31
0.0
  0
LINE
  5
1AD03
  8
AM_0
 10
841.66575476916501
 20
408.87937002776721
 30
0.0
 11
841.57362679030393
 21
411.49554301012239
 31
0.0
  0
ARC
  5
1AD07
  8
AM_0
 10
850.57335679048367
 20
410.0989900100945
 30
0.0
 40
1.000402500020007
 50
0.9479099999998933
 51
177.90620799999991
  0
LINE
  5
1AD08
  8
AM_0
 10
849.52998997648115
 20
409.02684104937691
 30
0.0
 11
849.5735967904634
 21
410.13554601009508
 31
0.0
  0
LINE
  5
1AD09
  8
AM_0
 10
851.60748511268343
 20
409.0657984714336
 30
0.0
 11
851.57362679050368
 21
410.13554201009509
 31
0.0
  0
LINE
  5
1AD0C
  8
AM_0
 10
900.57362678998379
 20
412.75671237770132
 30
0.0
 11
900.57362678998425
 21
443.41077994159889
 31
0.0
  0
LINE
  5
1AD14
  8
ﾁｭｳｼﾝｾﾝ1
 10
897.56683744025861
 20
429.21517672850649
 30
0.0
 11
929.20783069502727
 21
429.21517672850649
 31
0.0
  0
ARC
  5
1AD16
  8
AM_0
 10
897.57362678998379
 20
412.75671237770132
 30
0.0
 40
2.9999999999999978
 50
270.99994330824171
 51
0.0
1001
GENIUS_GENOBJ-N-FIL_13
1002
{
1000
OWNER
1000
GEN
1002
}
1001
GENIUS_GENODEF_13
1002
{
1000
HIER
1070
     0
1002
}
1002
{
1000
MANEDIT
1070
     0
1002
}
1002
{
1000
NOSEL
1070
     0
1002
}
1002
{
1000
BEHIND
1070
     0
1002
}
1002
{
1000
OTHER
1070
     0
1002
}
1002
{
1000
REACTOR
1002
}
  0
LINE
  5
1AD1B
  8
AM_0
 10
925.57362678998447
 20
446.21517672850649
 30
0.0
 11
902.50382779657866
 21
445.40956159563689
 31
0.0
  0
ARC
  5
1AD1C
  8
0
 10
902.57362678998413
 20
443.41077994159889
 30
0.0
 40
1.9999999999999989
 50
92.000000000003695
 51
180.0
1001
GENIUS_GENODEF_13
1002
{
1000
HIER
1070
     0
1002
}
1002
{
1000
MANEDIT
1070
     0
1002
}
1002
{
1000
NOSEL
1070
     0
1002
}
1002
{
1000
BEHIND
1070
     0
1002
}
1002
{
1000
OTHER
1070
     0
1002
}
1002
{
1000
REACTOR
1002
}
1001
GENIUS_GENOBJ-N-FIL_13
1002
{
1000
OWNER
1000
GEN
1002
}
  0
ARC
  5
1AF03
  8
AM_0
 10
183.57686755671079
 20
382.2554834079416
 30
0.0
 40
1.6800002000336001
 50
90.000000000000057
 51
269.99999700000228
  0
ARC
  5
1AF04
  8
AM_0
 10
186.0804375567609
 20
388.80708340807269
 30
0.0
 40
4.9987221000999753
 50
279.40005899999522
 51
354.5864364999963
  0
ARC
  5
1AF05
  8
AM_0
 10
320.71074755945358
 20
382.26549340794207
 30
0.0
 40
1.680011000033599
 50
270.20803099999961
 51
89.791970000001939
  0
LINE
  5
1AF06
  8
AM_0
 10
176.8968475565772
 20
404.63548340838952
 30
0.0
 11
176.89684755657731
 21
289.7854834060924
 31
0.0
  0
LINE
  5
1AF07
  8
AM_0
 10
322.89684755949742
 20
286.7155034060309
 30
0.0
 11
322.8968473032499
 21
410.21550370880868
 31
0.0
  0
LINE
  5
1AF08
  8
AM_0
 10
170.8968475564572
 20
395.23509340820152
 30
0.0
 11
170.8968475564572
 21
352.21550340734092
 31
0.0
  0
LINE
  5
1AF16
  8
AM_0
 10
229.89684755763719
 20
270.21553340570091
 30
0.0
 11
229.89684755763719
 21
262.71553340555079
 31
0.0
  0
LINE
  5
1AF17
  8
AM_0
 10
224.3968475575272
 20
273.71553340577071
 30
0.0
 11
224.3968475575272
 21
254.2155334053808
 31
0.0
  0
LINE
  5
1AF18
  8
AM_0
 10
233.3968475577071
 20
270.21553340570091
 30
0.0
 11
233.3968475577071
 21
262.71553340555079
 31
0.0
  0
LINE
  5
1AF19
  8
AM_0
 10
244.89684755793709
 20
262.71553340555079
 30
0.0
 11
244.89684755793709
 21
270.21553340570091
 31
0.0
  0
LINE
  5
1AF1A
  8
AM_0
 10
241.39684755786709
 20
270.21553340570091
 30
0.0
 11
241.39684755786709
 21
262.71553340555079
 31
0.0
  0
ARC
  5
1AF1B
  8
AM_0
 10
237.396847557787
 20
262.71553340555079
 30
0.0
 40
7.5000000001500027
 50
180.0
 51
0.0000000000000325
  0
LINE
  5
1AF1C
  8
AM_0
 10
304.39684755912702
 20
273.71553340577071
 30
0.0
 11
304.39684755912702
 21
266.71553340563082
 31
0.0
  0
LINE
  5
1AF1D
  8
AM_0
 10
255.09284755814119
 20
247.21553340524079
 30
0.0
 11
249.90407204783409
 21
250.2155334053007
 31
0.0
  0
LINE
  5
1AF1E
  8
AM_0
 10
304.39684755912702
 20
266.71553340563082
 30
0.0
 11
246.89684755797711
 21
266.71553340563082
 31
0.0
  0
LINE
  5
1AF1F
  8
AM_0
 10
301.89684755907717
 20
250.2155334053007
 30
0.0
 11
226.89684755757719
 21
250.2155334053007
 31
0.0
  0
ARC
  5
1AF20
  8
AM_0
 10
227.896847557597
 20
265.71553340561098
 30
0.0
 40
1.00000000002
 50
0.0000000000000325
 51
90.000000000000057
  0
ARC
  5
1AF21
  8
AM_0
 10
236.3968475577673
 20
261.715533405531
 30
0.0
 40
7.500000000149992
 50
180.0
 51
270.0
  0
LINE
  5
1AF22
  8
AM_0
 10
225.89684755755709
 20
266.71553340563082
 30
0.0
 11
225.89684755755709
 21
251.2155334053208
 31
0.0
  0
ARC
  5
1AF23
  8
AM_0
 10
226.89684755757719
 20
251.2155334053208
 30
0.0
 40
1.00000000002
 50
180.0
 51
270.0
  0
LINE
  5
1AF24
  8
AM_0
 10
224.3968475575272
 20
266.71553340563082
 30
0.0
 11
227.896847557597
 21
266.71553340563082
 31
0.0
  0
LINE
  5
1AF25
  8
AM_0
 10
224.3968475575272
 20
254.2155334053808
 30
0.0
 11
225.89684755755709
 21
254.2155334053808
 31
0.0
  0
ARC
  5
1AF26
  8
AM_0
 10
238.39684755780721
 20
261.715533405531
 30
0.0
 40
7.5000000001499956
 50
270.0
 51
0.0000000000000325
  0
ARC
  5
1AF27
  8
AM_0
 10
237.396847557787
 20
262.71553340555079
 30
0.0
 40
4.0000000000799973
 50
180.0
 51
0.0000000000000325
  0
LINE
  5
1AF28
  8
AM_0
 10
228.89684755761721
 20
265.71553340561098
 30
0.0
 11
228.89684755761721
 21
261.715533405531
 31
0.0
  0
LINE
  5
1AF29
  8
AM_0
 10
238.39684755780721
 20
254.2155334053808
 30
0.0
 11
236.3968475577673
 21
254.2155334053808
 31
0.0
  0
ARC
  5
1AF2A
  8
AM_0
 10
246.89684755797711
 20
265.71553340561098
 30
0.0
 40
1.00000000002
 50
90.000000000000057
 51
180.0
  0
LINE
  5
1AF2B
  8
AM_0
 10
245.8968475579571
 20
261.715533405531
 30
0.0
 11
245.8968475579571
 21
265.71553340561098
 31
0.0
  0
LINE
  5
1AF2C
  8
AM_0
 10
295.89684755895712
 20
250.2155334053007
 30
0.0
 11
290.7008475588533
 21
247.21553340524079
 31
0.0
  0
LINE
  5
1AF2D
  8
AM_0
 10
290.7008475588533
 20
247.21553340524079
 30
0.0
 11
255.09284755814119
 21
247.21553340524079
 31
0.0
  0
LINE
  5
1AF2E
  8
AM_0
 10
302.89684755909718
 20
266.71553340563082
 30
0.0
 11
302.89684755909718
 21
251.2155334053208
 31
0.0
  0
ARC
  5
1AF2F
  8
AM_0
 10
301.89684755907717
 20
251.21553340532071
 30
0.0
 40
1.00000000002
 50
270.0
 51
0.0000000000000325
  0
LINE
  5
1AF30
  8
AM_0
 10
201.89684755707719
 20
285.3554834060036
 30
0.0
 11
256.89684755817751
 21
285.3554834060036
 31
0.0
  0
LINE
  5
1AF31
  8
AM_0
 10
223.89684755751739
 20
300.86549340631399
 30
0.0
 11
256.89684755817751
 21
300.86549340631399
 31
0.0
  0
LINE
  5
1AF32
  8
AM_0
 10
222.89684755749741
 20
300.87556340631409
 30
0.0
 11
316.71685755937398
 21
300.87556340631409
 31
0.0
  0
LINE
  5
1AF33
  8
AM_0
 10
304.39684755912731
 20
273.71553340577071
 30
0.0
 11
224.3968475575272
 21
273.71553340577071
 31
0.0
  0
LINE
  5
1AF34
  8
AM_0
 10
224.3968475575272
 20
270.21553340570091
 30
0.0
 11
304.39684755912702
 21
270.21553340570091
 31
0.0
  0
LINE
  5
1AF35
  8
AM_0
 10
184.4568600376289
 20
381.21550344900697
 30
0.0
 11
256.89684755817729
 21
381.2155034490072
 31
0.0
  0
LINE
  5
1AF36
  8
AM_0
 10
183.5668575567106
 20
380.58550340790839
 30
0.0
 11
256.89684755817729
 21
380.58550340790839
 31
0.0
  0
LINE
  5
1AF37
  8
AM_0
 10
256.89684755817729
 20
383.21550340796102
 30
0.0
 11
184.44686755672839
 21
383.21550340796102
 31
0.0
  0
LINE
  5
1AF38
  8
AM_0
 10
285.39684755874742
 20
373.21550340776082
 30
0.0
 11
184.44686755672839
 21
373.21550340776082
 31
0.0
  0
LINE
  5
1AF39
  8
AM_0
 10
183.35686755670639
 20
373.70549340777052
 30
0.0
 11
286.25701603057678
 21
373.70549340777092
 31
0.0
  0
LINE
  5
1AF3A
  8
AM_0
 10
319.82163364596107
 20
371.21550340772109
 30
0.0
 11
184.44686755672839
 21
371.21550340772092
 31
0.0
  0
LINE
  5
1AF3B
  8
AM_0
 10
183.35686755670639
 20
370.78548340771232
 30
0.0
 11
320.74160370801008
 21
370.78548340771232
 31
0.0
  0
LINE
  5
1AF3C
  8
AM_0
 10
183.22685755670409
 20
360.9055034075148
 30
0.0
 11
255.6268742278676
 21
360.9055034075148
 31
0.0
  0
LINE
  5
1AF3D
  8
AM_0
 10
254.33687975257249
 20
361.21550340752111
 30
0.0
 11
184.44686755672839
 21
361.21550340752083
 31
0.0
  0
LINE
  5
1AF3E
  8
AM_0
 10
254.33687975257249
 20
363.21550340756107
 30
0.0
 11
184.44686755672839
 21
363.2155034075609
 31
0.0
  0
LINE
  5
1AF3F
  8
AM_0
 10
183.22685755670409
 20
363.56548340756819
 30
0.0
 11
255.6268742278676
 21
363.56548340756819
 31
0.0
  0
LINE
  5
1AF40
  8
AM_0
 10
192.57686755689079
 20
313.84551340657339
 30
0.0
 11
256.89684755817751
 21
313.84551340657339
 31
0.0
  0
LINE
  5
1AF41
  8
AM_0
 10
256.89684755817751
 20
311.21550340652078
 30
0.0
 11
193.4468675569081
 21
311.21550340652078
 31
0.0
  0
LINE
  5
1AF42
  8
AM_0
 10
256.89684755817751
 20
313.2155034065612
 30
0.0
 11
193.4468675569081
 21
313.21550340656103
 31
0.0
  0
LINE
  5
1AF43
  8
AM_0
 10
192.57686755689079
 20
310.49550340650649
 30
0.0
 11
256.89684755817751
 21
310.49550340650649
 31
0.0
  0
LINE
  5
1AF44
  8
AM_0
 10
254.33860750173901
 20
331.21550340692102
 30
0.0
 11
184.45687755672839
 21
331.2155034069209
 31
0.0
  0
LINE
  5
1AF45
  8
AM_0
 10
254.33953100150569
 20
333.21550340696098
 30
0.0
 11
184.45687755672839
 21
333.21550340696098
 31
0.0
  0
LINE
  5
1AF46
  8
AM_0
 10
254.33687634713601
 20
341.2155034071211
 30
0.0
 11
184.45687755672839
 21
341.21550340712099
 31
0.0
  0
LINE
  5
1AF47
  8
AM_0
 10
254.33687634713439
 20
343.21550340716112
 30
0.0
 11
184.45687755672839
 21
343.21550340716101
 31
0.0
  0
LINE
  5
1AF48
  8
AM_0
 10
183.22685755670409
 20
330.87550340691422
 30
0.0
 11
255.43206082568491
 21
330.87550340691439
 31
0.0
  0
LINE
  5
1AF49
  8
AM_0
 10
183.22685755670409
 20
333.53548340696727
 30
0.0
 11
255.43206082568491
 21
333.53548340696739
 31
0.0
  0
LINE
  5
1AF4A
  8
AM_0
 10
183.1668675567025
 20
340.94548340711549
 30
0.0
 11
255.43206082568491
 21
340.94548340711549
 31
0.0
  0
LINE
  5
1AF4B
  8
AM_0
 10
183.1668675567025
 20
343.475483407166
 30
0.0
 11
255.43206082568491
 21
343.47548340716622
 31
0.0
  0
LINE
  5
1AF4C
  8
AM_0
 10
183.15685755670231
 20
350.95549340731583
 30
0.0
 11
255.6268742278676
 21
350.95549340731583
 31
0.0
  0
LINE
  5
1AF4D
  8
AM_0
 10
254.33687975257249
 20
351.21550340732102
 30
0.0
 11
184.44686755672839
 21
351.21550340732102
 31
0.0
  0
LINE
  5
1AF4E
  8
AM_0
 10
254.33687975257249
 20
353.21550340736098
 30
0.0
 11
184.44686755672839
 21
353.21550340736081
 31
0.0
  0
LINE
  5
1AF4F
  8
AM_0
 10
183.15685755670231
 20
353.4955034073667
 30
0.0
 11
255.6268742278676
 21
353.4955034073667
 31
0.0
  0
LINE
  5
1AF50
  8
AM_0
 10
285.4078018455748
 20
321.21550340672093
 30
0.0
 11
193.44686755690799
 21
321.21550340672093
 31
0.0
  0
LINE
  5
1AF51
  8
AM_0
 10
192.3568675568865
 20
320.72548340671108
 30
0.0
 11
286.25706938689962
 21
320.72548340671119
 31
0.0
  0
LINE
  5
1AF52
  8
AM_0
 10
319.8216336459613
 20
323.215503406761
 30
0.0
 11
193.44686755690799
 21
323.215503406761
 31
0.0
  0
LINE
  5
1AF53
  8
AM_0
 10
192.3568675568865
 20
323.65550340676981
 30
0.0
 11
320.91163359362292
 21
323.65550340676992
 31
0.0
  0
LINE
  5
1AF54
  8
AM_0
 10
170.89684755645729
 20
299.19588340628047
 30
0.0
 11
170.8968475564572
 21
342.215503407141
 31
0.0
  0
LINE
  5
1AF55
  8
AM_0
 10
201.89684755707719
 20
281.29549340592263
 30
0.0
 11
242.8968475578971
 21
281.29549340592263
 31
0.0
  0
LINE
  5
1AF56
  8
AM_0
 10
201.89684755707719
 20
281.97548340593607
 30
0.0
 11
242.8968475578971
 21
281.97548340593607
 31
0.0
  0
LINE
  5
1AF57
  8
AM_0
 10
201.89684755707719
 20
283.3254934059633
 30
0.0
 11
242.8968475578971
 21
283.3254934059633
 31
0.0
  0
LINE
  5
1AF58
  8
AM_0
 10
223.89684755751739
 20
300.86549340631399
 30
0.0
 11
186.8968475567774
 21
303.01149524578688
 31
0.0
  0
LINE
  5
1AF59
  8
AM_0
 10
182.61687755669169
 20
298.86546340627388
 30
0.0
 11
183.1568875567026
 21
295.87547340621398
 31
0.0
  0
ARC
  5
1AF5A
  8
AM_0
 10
185.11870755674161
 20
296.22890340622109
 30
0.0
 40
1.9934334000398679
 50
190.21196999999989
 51
270.2341159999944
  0
ARC
  5
1AF5B
  8
AM_0
 10
185.06853755674081
 20
290.94087340611537
 30
0.0
 40
1.9953895000399069
 50
192.01538000000019
 51
269.95193300000881
  0
ARC
  5
1AF5C
  8
AM_0
 10
185.02965755674001
 20
287.54097340604733
 30
0.0
 40
1.9954823000399089
 50
193.19407999999751
 51
270.20654200000092
  0
ARC
  5
1AF5D
  8
AM_0
 10
185.00417755673959
 20
285.91329340601487
 30
0.0
 40
1.9977812000399551
 50
194.13223000000309
 51
270.07691900000231
  0
LINE
  5
1AF5E
  8
AM_0
 10
180.68685755665311
 20
296.17549340622008
 30
0.0
 11
183.1068675567015
 21
296.17549340622008
 31
0.0
  0
ARC
  5
1AF5F
  8
AM_0
 10
180.68807755665321
 20
294.67134340619009
 30
0.0
 40
1.504139800030081
 50
12.444750000004831
 51
90.045749999994939
  0
ARC
  5
1AF60
  8
AM_0
 10
180.70604755665349
 20
290.6126934061088
 30
0.0
 40
1.502808100030055
 50
13.57782000000131
 51
89.969210000005035
  0
ARC
  5
1AF61
  8
AM_0
 10
180.7251575566539
 20
288.58839340606841
 30
0.0
 40
1.5070969000301411
 50
14.097819999996309
 51
89.935179999998354
  0
LINE
  5
1AF62
  8
AM_0
 10
180.72685755665421
 20
290.09551340609858
 30
0.0
 11
182.37685755668701
 21
290.09551340609858
 31
0.0
  0
LINE
  5
1AF63
  8
AM_0
 10
180.70687755665341
 20
292.11549340613891
 30
0.0
 11
182.76686755669479
 21
292.11549340613891
 31
0.0
  0
LINE
  5
1AF64
  8
AM_0
 10
183.0868775567011
 20
287.0855034060383
 30
0.0
 11
182.1668675566828
 21
290.965503406116
 31
0.0
  0
LINE
  5
1AF65
  8
AM_0
 10
183.06688755670069
 20
285.4254934060051
 30
0.0
 11
182.18688755668319
 21
288.95549340607579
 31
0.0
  0
LINE
  5
1AF66
  8
AM_0
 10
183.11687755670181
 20
290.52550340610708
 30
0.0
 11
182.1568575566825
 21
294.99550340619658
 31
0.0
  0
LINE
  5
1AF67
  8
AM_0
 10
176.89684755657731
 20
289.83511570823742
 30
0.0
 11
181.71685755667389
 21
289.71550340609099
 31
0.0
  0
ARC
  5
1AF68
  8
AM_0
 10
201.8993475570775
 20
283.29033340596271
 30
0.0
 40
1.9948452000398971
 50
194.36280000000011
 51
269.92834199999561
  0
ARC
  5
1AF69
  8
AM_0
 10
201.89141755707729
 20
283.97005340597599
 30
0.0
 40
1.9945769000398901
 50
179.84401000000369
 51
270.15599200000003
  0
LINE
  5
1AF6A
  8
AM_0
 10
185.0668575567407
 20
288.94548340607548
 30
0.0
 11
198.39684755700739
 21
288.94548340607548
 31
0.0
  0
LINE
  5
1AF6B
  8
AM_0
 10
185.1268575567419
 20
294.23549340618132
 30
0.0
 11
198.39684755700739
 21
294.23549340618132
 31
0.0
  0
LINE
  5
1AF6C
  8
AM_0
 10
185.0368575567401
 20
285.54549340600749
 30
0.0
 11
198.39684755700739
 21
285.54549340600749
 31
0.0
  0
LINE
  5
1AF6D
  8
AM_0
 10
185.00685755673959
 20
283.9154834059749
 30
0.0
 11
198.50685755700951
 21
283.9154834059749
 31
0.0
  0
LINE
  5
1AF6E
  8
AM_0
 10
199.89684755703729
 20
285.3254934060032
 30
0.0
 11
199.89684755703729
 21
292.73549340615119
 31
0.0
  0
ARC
  5
1AF6F
  8
AM_0
 10
198.39507755700731
 20
287.44368340604552
 30
0.0
 40
1.501797900030035
 50
0.0685499999989766
 51
89.931450000001121
  0
ARC
  5
1AF70
  8
AM_0
 10
198.5104975570095
 20
282.4086234059447
 30
0.0
 40
1.5068883000301361
 50
14.87692999999758
 51
90.137770000000515
  0
ARC
  5
1AF71
  8
AM_0
 10
198.3930275570074
 20
284.04164340597748
 30
0.0
 40
1.5038475000300759
 50
0.1463999999965262
 51
89.853600000010076
  0
ARC
  5
1AF72
  8
AM_0
 10
198.3911975570073
 20
292.72981340615121
 30
0.0
 40
1.505674500030113
 50
0.2155299999990105
 51
89.784480000007719
  0
ARC
  5
1AF73
  8
AM_0
 10
201.89324755707739
 20
287.35188340604361
 30
0.0
 40
1.9963853000399261
 50
179.89615999999739
 51
270.10383699999352
  0
ARC
  5
1AF74
  8
AM_0
 10
201.89406755707739
 20
285.32271340600312
 30
0.0
 40
1.9972084000399439
 50
179.91986000000111
 51
270.08014299999962
  0
LINE
  5
1AF75
  8
AM_0
 10
176.89684755657731
 20
312.9055034065546
 30
0.0
 11
186.8968475567774
 21
312.9055034065546
 31
0.0
  0
LINE
  5
1AF76
  8
AM_0
 10
176.89684755657731
 20
304.52550340638697
 30
0.0
 11
186.8968475567774
 21
304.52550340638697
 31
0.0
  0
LINE
  5
1AF77
  8
AM_0
 10
176.89684755657731
 20
298.8654934062738
 30
0.0
 11
186.8968475567774
 21
298.8654934062738
 31
0.0
  0
LINE
  5
1AF78
  8
AM_0
 10
173.15685755650259
 20
300.71550340631092
 30
0.0
 11
175.89684755655739
 21
300.71550340631092
 31
0.0
  0
LINE
  5
1AF79
  8
AM_0
 10
173.17684755650299
 20
305.2354934064013
 30
0.0
 11
175.89684755655739
 21
305.2354934064013
 31
0.0
  0
LINE
  5
1AF7A
  8
AM_0
 10
173.17684755650299
 20
299.5754934062881
 30
0.0
 11
176.89684755657731
 21
299.5754934062881
 31
0.0
  0
LINE
  5
1AF7B
  8
AM_0
 10
173.13686755650201
 20
298.61549340626891
 30
0.0
 11
176.39684755656751
 21
298.61549340626891
 31
0.0
  0
LINE
  5
1AF7C
  8
AM_0
 10
173.17684755650299
 20
297.4754834062461
 30
0.0
 11
176.39684755656751
 21
297.4754834062461
 31
0.0
  0
LINE
  5
1AF7D
  8
AM_0
 10
173.19686755650329
 20
304.09551340637847
 30
0.0
 11
176.89684755657731
 21
304.09551340637847
 31
0.0
  0
LINE
  5
1AF7E
  8
AM_0
 10
172.6768475564929
 20
300.83550340631331
 30
0.0
 11
171.436857556468
 21
301.4954734063266
 31
0.0
  0
ARC
  5
1AF7F
  8
AM_0
 10
171.8958375564772
 20
301.36095340632392
 30
0.0
 40
0.99898326001998
 50
180.312389999999
 51
240.03464000000409
  0
ARC
  5
1AF80
  8
AM_0
 10
171.90184755647749
 20
302.38652340634439
 30
0.0
 40
1.0050608000201
 50
180.628399999999
 51
242.44119000000481
  0
LINE
  5
1AF81
  8
AM_0
 10
172.6768475564929
 20
299.71547340629093
 30
0.0
 11
171.39684755646749
 21
300.49547340630647
 31
0.0
  0
LINE
  5
1AF82
  8
AM_0
 10
172.89684755649739
 20
299.8355034062933
 30
0.0
 11
172.89684755649739
 21
300.37550340630412
 31
0.0
  0
ARC
  5
1AF83
  8
AM_0
 10
173.19036755650319
 20
300.58659340630828
 30
0.0
 40
1.011208500020224
 50
239.48118999998781
 51
269.23431300000738
  0
ARC
  5
1AF84
  8
AM_0
 10
173.15514755650261
 20
301.72868340633119
 30
0.0
 40
1.0131912000202621
 50
241.8312399999993
 51
270.09627600000118
  0
ARC
  5
1AF85
  8
AM_0
 10
171.9040175564777
 20
299.20567340628082
 30
0.0
 40
1.007194200020143
 50
179.44232000000011
 51
239.76658000000199
  0
LINE
  5
1AF86
  8
AM_0
 10
172.6968675564934
 20
298.7354934062713
 30
0.0
 11
171.45684755646869
 21
299.35548340628372
 31
0.0
  0
LINE
  5
1AF87
  8
AM_0
 10
172.6768775564928
 20
297.6154934062489
 30
0.0
 11
171.39687755646739
 21
298.3355034062634
 31
0.0
  0
LINE
  5
1AF88
  8
AM_0
 10
172.89684755649739
 20
297.73549340625129
 30
0.0
 11
172.89684755649739
 21
298.2554834062617
 31
0.0
  0
ARC
  5
1AF89
  8
AM_0
 10
173.18773755650329
 20
298.47725340626619
 30
0.0
 40
1.001808000020036
 50
239.33833000000359
 51
269.37718000000922
  0
ARC
  5
1AF8A
  8
AM_0
 10
173.17443755650271
 20
299.61992340628922
 30
0.0
 40
1.005138300020102
 50
241.63206000000369
 51
267.85770900000898
  0
ARC
  5
1AF8B
  8
AM_0
 10
171.89989755647741
 20
300.25539340630161
 30
0.0
 40
1.0030519000200611
 50
179.99423000000229
 51
243.78734999999099
  0
ARC
  5
1AF8C
  8
AM_0
 10
171.89858755647739
 20
305.95812340641572
 30
0.0
 40
1.001733900020034
 50
180.14953999999739
 51
237.26236999999591
  0
LINE
  5
1AF8D
  8
AM_0
 10
172.65685755649261
 20
304.2554834063817
 30
0.0
 11
171.3568375564665
 21
305.11546340639887
 31
0.0
  0
LINE
  5
1AF8E
  8
AM_0
 10
172.89684755649739
 20
304.39549340638462
 30
0.0
 11
172.89684755649739
 21
304.87550340639422
 31
0.0
  0
LINE
  5
1AF8F
  8
AM_0
 10
172.6768775564928
 20
305.37550340640422
 30
0.0
 11
171.39687755646739
 21
306.11553340641899
 31
0.0
  0
ARC
  5
1AF90
  8
AM_0
 10
173.20250755650349
 20
305.10579340639867
 30
0.0
 40
1.010318000020205
 50
237.3114199999934
 51
269.67986000000519
  0
ARC
  5
1AF91
  8
AM_0
 10
173.18910755650319
 20
306.24214340642152
 30
0.0
 40
1.0067360000201351
 50
239.41356999999849
 51
269.30193900000148
  0
ARC
  5
1AF92
  8
AM_0
 10
171.9023975564773
 20
306.98476340643617
 30
0.0
 40
1.00559290002011
 50
180.52837999999889
 51
239.81866999999261
  0
ARC
  5
1AF93
  8
AM_0
 10
175.8897975565574
 20
301.72255340633097
 30
0.0
 40
1.0070832000201411
 50
270.40157799999861
 51
359.59842201999908
  0
ARC
  5
1AF94
  8
AM_0
 10
175.89144755655721
 20
306.24089340642138
 30
0.0
 40
1.005422700020107
 50
270.308188999994
 51
359.69180761999792
  0
LINE
  5
1AF95
  8
AM_0
 10
175.8968475565573
 20
323.215503406761
 30
0.0
 11
171.8968475564775
 21
323.215503406761
 31
0.0
  0
LINE
  5
1AF96
  8
AM_0
 10
175.8968475565573
 20
321.21550340672093
 30
0.0
 11
171.8968475564775
 21
321.21550340672093
 31
0.0
  0
LINE
  5
1AF97
  8
AM_0
 10
173.0568475565006
 20
313.47548340656613
 30
0.0
 11
175.89684755655739
 21
313.47548340656613
 31
0.0
  0
LINE
  5
1AF98
  8
AM_0
 10
173.1168475565018
 20
311.53548340652731
 30
0.0
 11
176.1968675565634
 21
311.53548340652731
 31
0.0
  0
ARC
  5
1AF99
  8
AM_0
 10
171.8890675564771
 20
322.22331340674123
 30
0.0
 40
0.9922232600198446
 50
89.549149999992665
 51
180.4508400000029
  0
ARC
  5
1AF9A
  8
AM_0
 10
171.9012975564774
 20
314.83882340659329
 30
0.0
 40
1.0044501000200889
 50
180.1901499999997
 51
253.54965000000379
  0
ARC
  5
1AF9B
  8
AM_0
 10
171.89638755647741
 20
313.06017340655779
 30
0.0
 40
0.999532700019991
 50
180.26813000000021
 51
247.6849499999995
  0
LINE
  5
1AF9C
  8
AM_0
 10
172.71685755649389
 20
311.61549340652891
 30
0.0
 11
171.51686755646969
 21
312.13548340653938
 31
0.0
  0
LINE
  5
1AF9D
  8
AM_0
 10
172.89684755649739
 20
311.83550340653329
 30
0.0
 11
172.89684755649739
 21
312.89549340655452
 31
0.0
  0
ARC
  5
1AF9E
  8
AM_0
 10
173.03951755649999
 20
314.49049340658649
 30
0.0
 40
1.015145100020302
 50
253.83232999999441
 51
270.97838100000092
  0
LINE
  5
1AF9F
  8
AM_0
 10
172.75685755649471
 20
313.51549340656697
 30
0.0
 11
171.6168475564717
 21
313.8754734065742
 31
0.0
  0
ARC
  5
1AFA0
  8
AM_0
 10
173.1100975565015
 20
312.54170340654753
 30
0.0
 40
1.006237100020124
 50
246.99537999999981
 51
270.38475599999759
  0
LINE
  5
1AFA1
  8
AM_0
 10
172.89684755649731
 20
321.59551340672863
 30
0.0
 11
172.89684755649731
 21
322.95549340675581
 31
0.0
  0
ARC
  5
1AFA2
  8
AM_0
 10
171.90593755647751
 20
322.22459340674118
 30
0.0
 40
1.0091312000201811
 50
180.51612999999961
 51
269.48387399999899
  0
ARC
  5
1AFA3
  8
AM_0
 10
175.88896755655719
 20
324.22337340678109
 30
0.0
 40
1.007920400020158
 50
270.44848800000472
 51
359.55151003999867
  0
ARC
  5
1AFA4
  8
AM_0
 10
175.9058775565577
 20
320.2245334067012
 30
0.0
 40
0.9910124500198204
 50
359.47799761999983
 51
90.521999999995714
  0
ARC
  5
1AFA5
  8
AM_0
 10
175.89055755655701
 20
314.48180340658632
 30
0.0
 40
1.0063295000201249
 50
270.359251999999
 51
359.64074623999619
  0
ARC
  5
1AFA6
  8
AM_0
 10
192.57686755689079
 20
312.17049340654
 30
0.0
 40
1.6750063000334989
 50
90.000000000000057
 51
269.99999700000228
  0
ARC
  5
1AFA7
  8
AM_0
 10
193.4468675569081
 20
312.21550340654079
 30
0.0
 40
1.0000032000200001
 50
90.000000000000057
 51
269.99999700000228
  0
LINE
  5
1AFA8
  8
AM_0
 10
186.8968475567774
 20
298.8654934062738
 30
0.0
 11
186.8968475567774
 21
312.9055034065546
 31
0.0
  0
ARC
  5
1AFA9
  8
AM_0
 10
200.89684755705741
 20
312.21550340654079
 30
0.0
 40
1.0000032000200001
 50
90.000000000000057
 51
269.99999700000228
  0
ARC
  5
1AFAA
  8
AM_0
 10
190.04677755684031
 20
306.00533340641681
 30
0.0
 40
1.004136700020082
 50
314.20256399999818
 51
5.1511600000039666
  0
ARC
  5
1AFAB
  8
AM_0
 10
186.51805755676989
 20
309.54744340648767
 30
0.0
 40
6.0039072001200786
 50
273.61728599999782
 51
314.77630699998912
  0
ARC
  5
1AFAC
  8
AM_0
 10
186.06182755676079
 20
305.6177234064088
 30
0.0
 40
5.0078936001001573
 50
5.4746799999995188
 51
80.401280000005869
  0
LINE
  5
1AFAD
  8
AM_0
 10
199.89684755703729
 20
309.9754834064961
 30
0.0
 11
199.89684755703729
 21
310.04549340649749
 31
0.0
  0
ARC
  5
1AFAE
  8
AM_0
 10
192.3568675568865
 20
322.19048340674038
 30
0.0
 40
1.465000400029298
 50
90.000000000000057
 51
269.99999700000228
  0
ARC
  5
1AFAF
  8
AM_0
 10
193.44686755690799
 20
322.21550340674088
 30
0.0
 40
1.0000032000200001
 50
90.000000000000057
 51
269.99999700000228
  0
ARC
  5
1AFB0
  8
AM_0
 10
200.8968475570573
 20
322.21550340674088
 30
0.0
 40
1.0000032000200001
 50
90.000000000000057
 51
269.99999700000228
  0
LINE
  5
1AFB1
  8
AM_0
 10
242.8968475578971
 20
273.71553340577071
 30
0.0
 11
242.8968475578971
 21
285.35557340600332
 31
0.0
  0
LINE
  5
1AFB2
  8
AM_0
 10
168.4029475564075
 20
331.99364340693649
 30
0.0
 11
168.4029475564075
 21
362.43727340754549
 31
0.0
  0
LINE
  5
1AFB3
  8
AM_0
 10
169.39684755642739
 20
367.21550340764082
 30
0.0
 11
169.39684755642739
 21
327.21550340684098
 31
0.0
  0
ARC
  5
1AFB4
  8
AM_0
 10
184.45687755672839
 20
352.21550340734092
 30
0.0
 40
1.0000124000199999
 50
90.000000000000057
 51
269.99999700000228
  0
ARC
  5
1AFB5
  8
AM_0
 10
184.4481475567284
 20
342.215503407141
 30
0.0
 40
1.0000380000199991
 50
89.500710000004958
 51
270.49928400000641
  0
ARC
  5
1AFB6
  8
AM_0
 10
183.16698755670271
 20
352.20549340734078
 30
0.0
 40
1.270038400025399
 50
89.554809999994418
 51
270.44518900000668
  0
ARC
  5
1AFB7
  8
AM_0
 10
184.4481475567284
 20
332.21550340694091
 30
0.0
 40
1.0000380000199991
 50
89.500710000004958
 51
270.49928400000641
  0
ARC
  5
1AFB8
  8
AM_0
 10
175.9058775565577
 20
340.22453340710109
 30
0.0
 40
0.9910124500198204
 50
359.47799761999983
 51
90.521999999995714
  0
LINE
  5
1AFB9
  8
AM_0
 10
175.8968475565573
 20
333.21550340696098
 30
0.0
 11
171.8968475564775
 21
333.21550340696098
 31
0.0
  0
LINE
  5
1AFBA
  8
AM_0
 10
175.8968475565573
 20
331.2155034069209
 30
0.0
 11
171.8968475564775
 21
331.2155034069209
 31
0.0
  0
LINE
  5
1AFBB
  8
AM_0
 10
169.39684755642739
 20
327.215473406841
 30
0.0
 11
170.8968475564572
 21
327.09547340683861
 31
0.0
  0
LINE
  5
1AFBC
  8
AM_0
 10
168.4029475564075
 20
331.99367340693652
 30
0.0
 11
168.9029475564175
 21
329.22368340688098
 31
0.0
  0
LINE
  5
1AFBD
  8
AM_0
 10
168.9029475564175
 20
329.22368340688098
 30
0.0
 11
169.4029775564272
 21
329.26369340688188
 31
0.0
  0
ARC
  5
1AFBE
  8
AM_0
 10
171.8890675564771
 20
332.22331340694109
 30
0.0
 40
0.9922232600198446
 50
89.549149999992665
 51
180.4508400000029
  0
ARC
  5
1AFBF
  8
AM_0
 10
171.90593755647751
 20
332.22459340694121
 30
0.0
 40
1.0091312000201811
 50
180.51612999999961
 51
269.48387399999899
  0
LINE
  5
1AFC0
  8
AM_0
 10
172.89684755649731
 20
331.61549340692898
 30
0.0
 11
172.89684755649731
 21
332.83550340695331
 31
0.0
  0
ARC
  5
1AFC1
  8
AM_0
 10
175.88896755655719
 20
334.22337340698112
 30
0.0
 40
1.007920400020158
 50
270.44848800000472
 51
359.55151003999867
  0
ARC
  5
1AFC2
  8
AM_0
 10
175.9058775565577
 20
330.22453340690117
 30
0.0
 40
0.9910124500198204
 50
359.47799761999983
 51
90.521999999995714
  0
ARC
  5
1AFC3
  8
AM_0
 10
183.22685755670409
 20
332.20549340694072
 30
0.0
 40
1.3300010000266
 50
90.000000000000057
 51
269.99999700000228
  0
LINE
  5
1AFC4
  8
AM_0
 10
175.8968475565573
 20
353.21550340736081
 30
0.0
 11
171.8968475564775
 21
353.21550340736081
 31
0.0
  0
LINE
  5
1AFC5
  8
AM_0
 10
175.8968475565573
 20
351.21550340732102
 30
0.0
 11
171.8968475564775
 21
351.21550340732102
 31
0.0
  0
LINE
  5
1AFC6
  8
AM_0
 10
175.8968475565573
 20
343.21550340716101
 30
0.0
 11
171.8968475564775
 21
343.21550340716101
 31
0.0
  0
LINE
  5
1AFC7
  8
AM_0
 10
175.8968475565573
 20
341.21550340712099
 30
0.0
 11
171.8968475564775
 21
341.21550340712099
 31
0.0
  0
ARC
  5
1AFC8
  8
AM_0
 10
171.90593755647751
 20
352.20641340734068
 30
0.0
 40
1.0091312000201811
 50
90.516129999999563
 51
179.48387000000039
  0
LINE
  5
1AFC9
  8
AM_0
 10
172.89684755649731
 20
352.81548340735287
 30
0.0
 11
172.89684755649731
 21
351.65550340732977
 31
0.0
  0
POINT
  5
1AFCA
  8
AM_0
 10
168.4029475564075
 20
347.21550340724082
 30
0.0
  0
ARC
  5
1AFCB
  8
AM_0
 10
171.90593755647751
 20
342.22459340714119
 30
0.0
 40
1.0091312000201811
 50
180.51612999999961
 51
269.48387399999899
  0
LINE
  5
1AFCC
  8
AM_0
 10
172.89684755649731
 20
341.61549340712878
 30
0.0
 11
172.89684755649731
 21
342.7755034071522
 31
0.0
  0
ARC
  5
1AFCD
  8
AM_0
 10
171.8890675564771
 20
342.22331340714118
 30
0.0
 40
0.9922232600198446
 50
89.549149999992665
 51
180.4508400000029
  0
ARC
  5
1AFCE
  8
AM_0
 10
171.8890675564771
 20
352.2076934073408
 30
0.0
 40
0.9922232600198446
 50
179.54914999999909
 51
270.45084499999541
  0
ARC
  5
1AFCF
  8
AM_0
 10
175.9058775565577
 20
354.20647340738083
 30
0.0
 40
0.9910124500198204
 50
269.47800000000427
 51
0.5219999999957203
  0
ARC
  5
1AFD0
  8
AM_0
 10
175.88896755655719
 20
344.22337340718121
 30
0.0
 40
1.007920400020158
 50
270.44848800000472
 51
359.55151003999867
  0
ARC
  5
1AFD1
  8
AM_0
 10
175.88896755655719
 20
350.20760340730089
 30
0.0
 40
1.007920400020158
 50
0.4484899999972399
 51
89.551510000009401
  0
ARC
  5
1AFD2
  8
AM_0
 10
183.1668675567025
 20
342.21050340714089
 30
0.0
 40
1.2650050000252999
 50
90.000000000000057
 51
269.99999700000228
  0
ARC
  5
1AFD3
  8
AM_0
 10
200.8968475570573
 20
332.21550340694091
 30
0.0
 40
1.0000032000200001
 50
90.000000000000057
 51
269.99999700000228
  0
ARC
  5
1AFD4
  8
AM_0
 10
200.8968475570573
 20
352.21550340734092
 30
0.0
 40
1.0000007000199991
 50
90.000000000000057
 51
269.99999700000228
  0
ARC
  5
1AFD5
  8
AM_0
 10
200.8968475570573
 20
342.215503407141
 30
0.0
 40
1.0000032000200001
 50
90.000000000000057
 51
269.99999700000228
  0
ARC
  5
1AFD6
  8
AM_0
 10
184.44805755672829
 20
382.2155034079409
 30
0.0
 40
1.0000387000199991
 50
89.495659999996718
 51
270.5043319999948
  0
ARC
  5
1AFD7
  8
AM_0
 10
184.44805755672829
 20
372.21550340774093
 30
0.0
 40
1.0000387000199991
 50
89.495659999996718
 51
270.5043319999948
  0
ARC
  5
1AFD8
  8
AM_0
 10
183.3595575567067
 20
372.23549340774139
 30
0.0
 40
1.460102600029201
 50
89.320999999995706
 51
270.67899300000448
  0
ARC
  5
1AFD9
  8
AM_0
 10
184.45687755672839
 20
362.21550340754078
 30
0.0
 40
1.0000124000199999
 50
90.000000000000057
 51
269.99999700000228
  0
ARC
  5
1AFDA
  8
AM_0
 10
183.22899755670409
 20
362.22548340754111
 30
0.0
 40
1.3300232000265999
 50
89.661519999989579
 51
270.3384679999927
  0
LINE
  5
1AFDB
  8
AM_0
 10
175.8968475565573
 20
361.21550340752083
 30
0.0
 11
171.8968475564775
 21
361.21550340752083
 31
0.0
  0
LINE
  5
1AFDC
  8
AM_0
 10
175.8968475565573
 20
363.2155034075609
 30
0.0
 11
171.8968475564775
 21
363.2155034075609
 31
0.0
  0
LINE
  5
1AFDD
  8
AM_0
 10
169.39684755642739
 20
367.21550340764082
 30
0.0
 11
170.8968475564572
 21
367.3355034076435
 31
0.0
  0
LINE
  5
1AFDE
  8
AM_0
 10
168.4029475564075
 20
362.43727340754549
 30
0.0
 11
168.9029475564175
 21
365.20729340760079
 31
0.0
  0
LINE
  5
1AFDF
  8
AM_0
 10
168.9029475564175
 20
365.20729340760079
 30
0.0
 11
169.40294755642751
 21
365.16728340759983
 31
0.0
  0
ARC
  5
1AFE0
  8
AM_0
 10
171.90593755647751
 20
362.20641340754082
 30
0.0
 40
1.0091312000201811
 50
90.516129999999563
 51
179.48387000000039
  0
ARC
  5
1AFE1
  8
AM_0
 10
171.8890675564771
 20
362.20769340754077
 30
0.0
 40
0.9922232600198446
 50
179.54914999999909
 51
270.45084499999541
  0
LINE
  5
1AFE2
  8
AM_0
 10
172.89684755649731
 20
362.81548340755307
 30
0.0
 11
172.89684755649731
 21
361.59551340752841
 31
0.0
  0
ARC
  5
1AFE3
  8
AM_0
 10
175.9058775565577
 20
364.2064734075808
 30
0.0
 40
0.9910124500198204
 50
269.47800000000427
 51
0.5219999999957203
  0
ARC
  5
1AFE4
  8
AM_0
 10
175.88896755655719
 20
360.2076034075007
 30
0.0
 40
1.007920400020158
 50
0.4484899999972399
 51
89.551510000009401
  0
LINE
  5
1AFE5
  8
AM_0
 10
173.05684755650049
 20
380.9554934079157
 30
0.0
 11
175.8968475565573
 21
380.9554934079157
 31
0.0
  0
LINE
  5
1AFE6
  8
AM_0
 10
173.1168475565018
 20
382.89549340795452
 30
0.0
 11
176.19686755656329
 21
382.89549340795452
 31
0.0
  0
LINE
  5
1AFE7
  8
AM_0
 10
175.8968475565573
 20
373.21550340776082
 30
0.0
 11
171.8968475564775
 21
373.21550340776082
 31
0.0
  0
LINE
  5
1AFE8
  8
AM_0
 10
175.8968475565573
 20
371.21550340772092
 30
0.0
 11
171.8968475564775
 21
371.21550340772092
 31
0.0
  0
ARC
  5
1AFE9
  8
AM_0
 10
173.11009755650139
 20
381.88927340793452
 30
0.0
 40
1.006237100020124
 50
89.615239999997897
 51
113.0046200000001
  0
ARC
  5
1AFEA
  8
AM_0
 10
171.89638755647729
 20
381.37080340792409
 30
0.0
 40
0.999532700019991
 50
112.3150500000005
 51
179.73186999999979
  0
LINE
  5
1AFEB
  8
AM_0
 10
172.7568275564945
 20
380.91548340791502
 30
0.0
 11
171.61684755647161
 21
380.55547340790781
 31
0.0
  0
ARC
  5
1AFEC
  8
AM_0
 10
173.0395175564999
 20
379.94051340789559
 30
0.0
 40
1.015145100020302
 50
89.021620000009563
 51
106.1676700000055
  0
LINE
  5
1AFED
  8
AM_0
 10
172.71685755649369
 20
382.8154834079528
 30
0.0
 11
171.51686755646961
 21
382.29549340794267
 31
0.0
  0
LINE
  5
1AFEE
  8
AM_0
 10
172.89684755649731
 20
382.5955134079486
 30
0.0
 11
172.89684755649731
 21
381.53548340792742
 31
0.0
  0
ARC
  5
1AFEF
  8
AM_0
 10
171.90593755647751
 20
372.20641340774091
 30
0.0
 40
1.0091312000201811
 50
90.516129999999563
 51
179.48387000000039
  0
ARC
  5
1AFF0
  8
AM_0
 10
171.8890675564771
 20
372.20769340774092
 30
0.0
 40
0.9922232600198446
 50
179.54914999999909
 51
270.45084499999541
  0
LINE
  5
1AFF1
  8
AM_0
 10
172.89684755649731
 20
372.83550340775349
 30
0.0
 11
172.89684755649731
 21
371.47548340772619
 31
0.0
  0
ARC
  5
1AFF2
  8
AM_0
 10
171.9012975564774
 20
379.59215340788842
 30
0.0
 40
1.0044501000200889
 50
106.45034999999611
 51
179.8098500000003
  0
ARC
  5
1AFF3
  8
AM_0
 10
176.2012875565633
 20
383.5910534079685
 30
0.0
 40
0.6955789300139117
 50
269.63466399998981
 51
0.3653399999995222
  0
ARC
  5
1AFF4
  8
AM_0
 10
175.9058775565577
 20
374.20647340778078
 30
0.0
 40
0.9910124500198204
 50
269.47800000000427
 51
0.5219999999957203
  0
ARC
  5
1AFF5
  8
AM_0
 10
175.88896755655719
 20
370.2076034077009
 30
0.0
 40
1.007920400020158
 50
0.4484899999972399
 51
89.551510000009401
  0
ARC
  5
1AFF6
  8
AM_0
 10
175.89055755655701
 20
379.94917340789573
 30
0.0
 40
1.0063295000201249
 50
0.3592499999960268
 51
89.640750000004061
  0
LINE
  5
1AFF7
  8
AM_0
 10
178.8968475566173
 20
381.51549340792678
 30
0.0
 11
182.07686755668061
 21
381.51549340792678
 31
0.0
  0
ARC
  5
1AFF8
  8
AM_0
 10
200.8968475570573
 20
362.21550340754078
 30
0.0
 40
1.0000007000199991
 50
90.000000000000057
 51
269.99999700000228
  0
ARC
  5
1AFF9
  8
AM_0
 10
200.8968475570573
 20
382.2155034079409
 30
0.0
 40
1.0000007000199991
 50
90.000000000000057
 51
269.99999700000228
  0
ARC
  5
1AFFA
  8
AM_0
 10
200.8968475570573
 20
372.21550340774093
 30
0.0
 40
1.0000007000199991
 50
90.000000000000057
 51
269.99999700000228
  0
LINE
  5
1AFFB
  8
AM_0
 10
316.71685755937398
 20
313.21556340656088
 30
0.0
 11
256.89684755817751
 21
313.21556340656088
 31
0.0
  0
LINE
  5
1AFFC
  8
AM_0
 10
316.71685755937398
 20
311.21556340652091
 30
0.0
 11
256.89684755817751
 21
311.21556340652091
 31
0.0
  0
LINE
  5
1AFFD
  8
AM_0
 10
256.89684755817751
 20
310.48558340650629
 30
0.0
 11
316.71685755937398
 21
310.48558340650629
 31
0.0
  0
LINE
  5
1AFFE
  8
AM_0
 10
301.39684755906751
 20
313.84556340657349
 30
0.0
 11
286.39684755876738
 21
313.84556340657349
 31
0.0
  0
LINE
  5
1AFFF
  8
AM_0
 10
301.39684755906751
 20
313.84556340657349
 30
0.0
 11
286.39684755876738
 21
313.84556340657349
 31
0.0
  0
LINE
  5
1B000
  8
AM_0
 10
256.89684755817751
 20
285.35557340600371
 30
0.0
 11
316.71685755937398
 21
285.35557340600371
 31
0.0
  0
LINE
  5
1B001
  8
AM_0
 10
285.39684755874748
 20
313.84556340657349
 30
0.0
 11
256.89684755817751
 21
313.84556340657349
 31
0.0
  0
ARC
  5
1B002
  8
AM_0
 10
254.3455942278419
 20
322.21550340674088
 30
0.0
 40
1.0000380000199991
 50
269.50071599999359
 51
90.499289999995113
  0
ARC
  5
1B003
  8
AM_0
 10
285.39684755874748
 20
320.21556340670099
 30
0.0
 40
1.00000000002
 50
359.99999999999352
 51
90.000000000000057
1001
GENIUS_GENOBJ-N-FIL_13
1002
{
1000
OWNER
1000
GEN
1002
}
1001
GENIUS_GENODEF_13
1002
{
1000
HIER
1070
     0
1002
}
1002
{
1000
MANEDIT
1070
     0
1002
}
1002
{
1000
NOSEL
1070
     0
1002
}
1002
{
1000
BEHIND
1070
     0
1002
}
1002
{
1000
OTHER
1070
     0
1002
}
1002
{
1000
REACTOR
1002
}
  0
ARC
  5
1B004
  8
AM_0
 10
285.39684755874748
 20
314.8455634065935
 30
0.0
 40
1.00000000002
 50
270.0
 51
0.0000000000000325
1001
GENIUS_GENOBJ-N-FIL_13
1002
{
1000
OWNER
1000
GEN
1002
}
1001
GENIUS_GENODEF_13
1002
{
1000
HIER
1070
     0
1002
}
1002
{
1000
MANEDIT
1070
     0
1002
}
1002
{
1000
NOSEL
1070
     0
1002
}
1002
{
1000
BEHIND
1070
     0
1002
}
1002
{
1000
OTHER
1070
     0
1002
}
1002
{
1000
REACTOR
1002
}
  0
LINE
  5
1B005
  8
AM_0
 10
286.39684755876738
 20
320.21556340670099
 30
0.0
 11
286.39684755876738
 21
314.8455634065935
 31
0.0
  0
CIRCLE
  5
1B006
  8
AM_0
 10
291.39684755886742
 20
318.71553340667077
 30
0.0
 40
0.750000000015
  0
LINE
  5
1B007
  8
AM_0
 10
322.89684755949742
 20
304.35557340638371
 30
0.0
 11
322.89684755949742
 21
296.75557340623158
 31
0.0
  0
LINE
  5
1B008
  8
AM_0
 10
321.89684755947741
 20
304.35557340638371
 30
0.0
 11
321.89684755947741
 21
296.75557340623158
 31
0.0
  0
LINE
  5
1B009
  8
AM_0
 10
318.65685755941252
 20
286.85556340603381
 30
0.0
 11
321.39266755946721
 21
297.05556340623781
 31
0.0
  0
ARC
  5
1B00A
  8
AM_0
 10
320.99684755945952
 20
298.75557340627188
 30
0.0
 40
1.700000800033999
 50
180.000010000001
 51
269.999979999998
  0
ARC
  5
1B00B
  8
AM_0
 10
316.70720755937361
 20
287.37256340604398
 30
0.0
 40
2.0170178000403398
 50
270.27369999999632
 51
345.14839999999828
  0
LINE
  5
1B00C
  8
AM_0
 10
322.89684755949742
 20
283.21550345832088
 30
0.0
 11
315.19756885559161
 21
278.2155334058607
 31
0.0
  0
LINE
  5
1B00D
  8
AM_0
 10
302.89684755909718
 20
278.2155334058607
 30
0.0
 11
315.19756885559161
 21
278.2155334058607
 31
0.0
  0
LINE
  5
1B00E
  8
AM_0
 10
302.89684755909718
 20
273.71553340577071
 30
0.0
 11
302.89684755909718
 21
278.2155334058607
 31
0.0
  0
LINE
  5
1B00F
  8
AM_0
 10
322.89684755949742
 20
284.215503405981
 30
0.0
 11
322.89684755949742
 21
286.7155034060309
 31
0.0
  0
LINE
  5
1B010
  8
AM_0
 10
321.89684755947741
 20
296.75557340623158
 30
0.0
 11
322.89684755949742
 21
296.75557340623158
 31
0.0
  0
ARC
  5
1B011
  8
AM_0
 10
323.90526755951748
 20
296.18397340622028
 30
0.0
 40
1.0084445000201681
 50
189.54607000000291
 51
269.52220000000051
  0
ARC
  5
1B012
  8
AM_0
 10
323.89684755951743
 20
284.215503405981
 30
0.0
 40
1.00000000002
 50
179.999989999999
 51
269.99999700000228
  0
LINE
  5
1B013
  8
AM_0
 10
318.61684755941189
 20
286.7155734060309
 30
0.0
 11
322.89684755949742
 21
286.7155734060309
 31
0.0
  0
LINE
  5
1B014
  8
AM_0
 10
320.71685755945379
 20
313.84556340657349
 30
0.0
 11
316.71685755937398
 21
313.84556340657349
 31
0.0
  0
LINE
  5
1B015
  8
AM_0
 10
316.71685755937398
 20
300.87556340631409
 30
0.0
 11
319.29686755942561
 21
300.87556340631409
 31
0.0
  0
LINE
  5
1B016
  8
AM_0
 10
316.71685755937398
 20
310.48558340650629
 30
0.0
 11
322.89684751017739
 21
310.48558340650629
 31
0.0
  0
ARC
  5
1B017
  8
AM_0
 10
317.23686755938422
 20
312.21556340654092
 30
0.0
 40
1.0000074000200001
 50
270.0
 51
90.000002999997704
  0
LINE
  5
1B018
  8
AM_0
 10
319.8216336459613
 20
321.21550340672093
 30
0.0
 11
302.38589327226248
 21
321.21550340672093
 31
0.0
  0
LINE
  5
1B019
  8
AM_0
 10
301.53662573093533
 20
320.72548340671119
 30
0.0
 11
320.91055100410011
 21
320.72548340671119
 31
0.0
  0
LINE
  5
1B01A
  8
AM_0
 10
317.23686755938422
 20
311.21556340652091
 30
0.0
 11
316.71685755937398
 21
311.21556340652091
 31
0.0
  0
LINE
  5
1B01B
  8
AM_0
 10
316.71685755937398
 20
313.84556340657349
 30
0.0
 11
302.39684755908729
 21
313.84556340657349
 31
0.0
  0
CIRCLE
  5
1B01C
  8
AM_0
 10
296.39684755896752
 20
318.71553340667077
 30
0.0
 40
0.750000000015
  0
ARC
  5
1B01D
  8
AM_0
 10
302.39684755908729
 20
320.21556340670099
 30
0.0
 40
1.00000000002
 50
90.000000000000057
 51
180.0
1001
GENIUS_GENOBJ-N-FIL_13
1002
{
1000
OWNER
1000
GEN
1002
}
1001
GENIUS_GENODEF_13
1002
{
1000
HIER
1070
     0
1002
}
1002
{
1000
MANEDIT
1070
     0
1002
}
1002
{
1000
NOSEL
1070
     0
1002
}
1002
{
1000
BEHIND
1070
     0
1002
}
1002
{
1000
OTHER
1070
     0
1002
}
1002
{
1000
REACTOR
1002
}
  0
ARC
  5
1B01E
  8
AM_0
 10
302.39684755908729
 20
314.8455634065935
 30
0.0
 40
1.00000000002
 50
180.0
 51
270.0
1001
GENIUS_GENOBJ-N-FIL_13
1002
{
1000
OWNER
1000
GEN
1002
}
1001
GENIUS_GENODEF_13
1002
{
1000
HIER
1070
     0
1002
}
1002
{
1000
MANEDIT
1070
     0
1002
}
1002
{
1000
NOSEL
1070
     0
1002
}
1002
{
1000
BEHIND
1070
     0
1002
}
1002
{
1000
OTHER
1070
     0
1002
}
1002
{
1000
REACTOR
1002
}
  0
LINE
  5
1B01F
  8
AM_0
 10
301.39684755906751
 20
320.21556340670099
 30
0.0
 11
301.39684755906751
 21
314.8455634065935
 31
0.0
  0
LINE
  5
1B020
  8
AM_0
 10
317.23686755938422
 20
313.21556340656088
 30
0.0
 11
316.71685755937398
 21
313.21556340656088
 31
0.0
  0
ARC
  5
1B021
  8
AM_0
 10
320.71074755945369
 20
312.16557340653998
 30
0.0
 40
1.680011000033599
 50
270.20802999999808
 51
89.791969000000449
  0
LINE
  5
1B022
  8
AM_0
 10
319.29686755942561
 20
302.35557340634358
 30
0.0
 11
319.29686755942561
 21
298.75557340627188
 31
0.0
  0
LINE
  5
1B023
  8
AM_0
 10
321.89684755947741
 20
297.05557340623773
 30
0.0
 11
320.99684755945952
 21
297.05557340623773
 31
0.0
  0
LINE
  5
1B024
  8
AM_0
 10
321.89684755947741
 20
304.05556340637781
 30
0.0
 11
320.99684755945952
 21
304.05556340637781
 31
0.0
  0
ARC
  5
1B025
  8
AM_0
 10
320.99684755945952
 20
302.35557340634358
 30
0.0
 40
1.6999969000339989
 50
90.000002999997704
 51
179.999979999998
  0
LINE
  5
1B026
  8
AM_0
 10
322.89684755949742
 20
301.33293340632332
 30
0.0
 11
321.89684755947741
 21
300.75560340631182
 31
0.0
  0
LINE
  5
1B027
  8
AM_0
 10
322.89684755949742
 20
300.33293340630331
 30
0.0
 11
321.89684755947741
 21
299.75557340629172
 31
0.0
  0
ARC
  5
1B028
  8
AM_0
 10
323.5577075595105
 20
299.3887834062844
 30
0.0
 40
1.4868059000297349
 50
116.38977999999901
 51
165.71726000000089
  0
LINE
  5
1B029
  8
AM_0
 10
321.89684755947741
 20
304.35557340638371
 30
0.0
 11
322.89684755949742
 21
304.35557340638371
 31
0.0
  0
ARC
  5
1B02A
  8
AM_0
 10
320.91163359362292
 20
322.19048340674038
 30
0.0
 40
1.465000400029298
 50
270.00000299999761
 51
90.000000000000057
  0
ARC
  5
1B02B
  8
AM_0
 10
319.82163359360118
 20
322.21550340674088
 30
0.0
 40
1.0000032000200001
 50
270.00000299999761
 51
90.000000000000057
  0
LINE
  5
1B02C
  8
AM_0
 10
316.71685755937392
 20
383.21550340796102
 30
0.0
 11
256.89684755817729
 21
383.21550340796102
 31
0.0
  0
LINE
  5
1B02D
  8
AM_0
 10
316.71685755937392
 20
381.21550340792101
 30
0.0
 11
256.89684755817729
 21
381.21550340792101
 31
0.0
  0
LINE
  5
1B02E
  8
AM_0
 10
301.3968475590674
 20
380.58550340790839
 30
0.0
 11
286.39684755876732
 21
380.58550340790839
 31
0.0
  0
ARC
  5
1B02F
  8
AM_0
 10
254.3455942278419
 20
332.21550340694102
 30
0.0
 40
1.0000380000199991
 50
269.50071599999359
 51
90.499289999995113
  0
ARC
  5
1B030
  8
AM_0
 10
255.5668842278663
 20
332.20549340694078
 30
0.0
 40
1.3300010000266
 50
270.00000299999761
 51
90.000000000000057
  0
ARC
  5
1B031
  8
AM_0
 10
254.3455942278419
 20
342.21550340714111
 30
0.0
 40
1.0000380000199991
 50
269.50071599999359
 51
90.499289999995113
  0
ARC
  5
1B032
  8
AM_0
 10
254.3455942278419
 20
352.21556340734099
 30
0.0
 40
1.0000380000199991
 50
269.50071000000491
 51
90.499284000006412
  0
ARC
  5
1B033
  8
AM_0
 10
255.6268742278676
 20
342.210503407141
 30
0.0
 40
1.2650050000252999
 50
270.00000299999761
 51
90.000000000000057
  0
ARC
  5
1B034
  8
AM_0
 10
255.6268742278676
 20
352.22056340734088
 30
0.0
 40
1.2650050000252999
 50
270.0
 51
89.999997000002381
  0
LINE
  5
1B035
  8
AM_0
 10
285.39684755874742
 20
380.58550340790839
 30
0.0
 11
256.89684755817729
 21
380.58550340790839
 31
0.0
  0
ARC
  5
1B036
  8
AM_0
 10
254.3455942278419
 20
362.21556340754091
 30
0.0
 40
1.0000380000199991
 50
269.50071000000491
 51
90.499284000006412
  0
ARC
  5
1B037
  8
AM_0
 10
255.5668842278663
 20
362.22557340754111
 30
0.0
 40
1.3300010000266
 50
270.0
 51
89.999997000002381
  0
ARC
  5
1B038
  8
AM_0
 10
254.3455942278419
 20
372.21550337714598
 30
0.0
 40
1.0000380000199991
 50
269.50071000000491
 51
90.499284000006412
  0
LINE
  5
1B039
  8
AM_0
 10
286.39684755876732
 20
374.21550340778077
 30
0.0
 11
286.39684755876732
 21
379.5855034078885
 31
0.0
  0
ARC
  5
1B03A
  8
AM_0
 10
285.39684755874742
 20
374.21550340778077
 30
0.0
 40
1.00000000002
 50
270.0
 51
0.0000000000000325
1001
GENIUS_GENOBJ-N-FIL_13
1002
{
1000
OWNER
1000
GEN
1002
}
1001
GENIUS_GENODEF_13
1002
{
1000
HIER
1070
     0
1002
}
1002
{
1000
MANEDIT
1070
     0
1002
}
1002
{
1000
NOSEL
1070
     0
1002
}
1002
{
1000
BEHIND
1070
     0
1002
}
1002
{
1000
OTHER
1070
     0
1002
}
1002
{
1000
REACTOR
1002
}
  0
ARC
  5
1B03B
  8
AM_0
 10
285.39684755874742
 20
379.5855034078885
 30
0.0
 40
1.00000000002
 50
0.0000000000000325
 51
90.000000000000057
1001
GENIUS_GENOBJ-N-FIL_13
1002
{
1000
OWNER
1000
GEN
1002
}
1001
GENIUS_GENODEF_13
1002
{
1000
HIER
1070
     0
1002
}
1002
{
1000
MANEDIT
1070
     0
1002
}
1002
{
1000
NOSEL
1070
     0
1002
}
1002
{
1000
BEHIND
1070
     0
1002
}
1002
{
1000
OTHER
1070
     0
1002
}
1002
{
1000
REACTOR
1002
}
  0
CIRCLE
  5
1B03C
  8
AM_0
 10
291.39684755886731
 20
375.71553340781088
 30
0.0
 40
0.750000000015
  0
ARC
  5
1B03D
  8
AM_0
 10
317.23686755938411
 20
382.2155034079409
 30
0.0
 40
1.0000074000200001
 50
269.99999700000228
 51
90.000000000000057
  0
LINE
  5
1B03E
  8
AM_0
 10
320.71685755945367
 20
380.58550340790839
 30
0.0
 11
316.71685755937392
 21
380.58550340790839
 31
0.0
  0
LINE
  5
1B03F
  8
AM_0
 10
319.82163364596107
 20
373.21550340776082
 30
0.0
 11
302.39684755908729
 21
373.21550340776082
 31
0.0
  0
LINE
  5
1B040
  8
AM_0
 10
301.53667908725782
 20
373.70549340777092
 30
0.0
 11
320.89535895384608
 21
373.70549340777092
 31
0.0
  0
LINE
  5
1B041
  8
AM_0
 10
316.71685755937392
 20
380.58550340790839
 30
0.0
 11
302.39684755908729
 21
380.58550340790839
 31
0.0
  0
CIRCLE
  5
1B042
  8
AM_0
 10
296.39684755896729
 20
375.71553340781088
 30
0.0
 40
0.750000000015
  0
LINE
  5
1B043
  8
AM_0
 10
301.3968475590674
 20
374.21550340778077
 30
0.0
 11
301.3968475590674
 21
379.5855034078885
 31
0.0
  0
ARC
  5
1B044
  8
AM_0
 10
302.39684755908729
 20
374.21550340778077
 30
0.0
 40
1.00000000002
 50
180.0
 51
270.0
1001
GENIUS_GENOBJ-N-FIL_13
1002
{
1000
OWNER
1000
GEN
1002
}
1001
GENIUS_GENODEF_13
1002
{
1000
HIER
1070
     0
1002
}
1002
{
1000
MANEDIT
1070
     0
1002
}
1002
{
1000
NOSEL
1070
     0
1002
}
1002
{
1000
BEHIND
1070
     0
1002
}
1002
{
1000
OTHER
1070
     0
1002
}
1002
{
1000
REACTOR
1002
}
  0
ARC
  5
1B045
  8
AM_0
 10
302.39684755908729
 20
379.5855034078885
 30
0.0
 40
1.00000000002
 50
90.000000000000057
 51
180.0
1001
GENIUS_GENOBJ-N-FIL_13
1002
{
1000
OWNER
1000
GEN
1002
}
1001
GENIUS_GENODEF_13
1002
{
1000
HIER
1070
     0
1002
}
1002
{
1000
MANEDIT
1070
     0
1002
}
1002
{
1000
NOSEL
1070
     0
1002
}
1002
{
1000
BEHIND
1070
     0
1002
}
1002
{
1000
OTHER
1070
     0
1002
}
1002
{
1000
REACTOR
1002
}
  0
LINE
  5
1B046
  8
AM_0
 10
317.23686755938411
 20
383.21550340796102
 30
0.0
 11
316.71685755937392
 21
383.21550340796102
 31
0.0
  0
LINE
  5
1B047
  8
AM_0
 10
317.23686755938411
 20
381.21550340792101
 30
0.0
 11
316.71685755937392
 21
381.21550340792101
 31
0.0
  0
ARC
  5
1B048
  8
AM_0
 10
320.91163359362281
 20
372.2405834077415
 30
0.0
 40
1.465000400029298
 50
270.0
 51
89.999997000002381
  0
ARC
  5
1B049
  8
AM_0
 10
319.82163359360101
 20
372.215563407741
 30
0.0
 40
1.0000032000200001
 50
270.0
 51
89.999997000002381
  0
LINE
  5
1B04B
  8
AM_0
 10
201.89684755707711
 20
409.07549340847783
 30
0.0
 11
256.89684755817729
 21
409.07549340847811
 31
0.0
  0
LINE
  5
1B04C
  8
AM_0
 10
201.89684755707711
 20
411.09549340851828
 30
0.0
 11
316.69661792975268
 21
411.09549340851862
 31
0.0
  0
LINE
  5
1B04D
  8
AM_0
 10
201.89684755707711
 20
412.45549340854581
 30
0.0
 11
316.69661793494129
 21
412.45549340854581
 31
0.0
  0
LINE
  5
1B04E
  8
AM_0
 10
201.89684755707711
 20
413.11549340855868
 30
0.0
 11
316.69661793744399
 21
413.11549340855868
 31
0.0
  0
LINE
  5
1B04F
  8
AM_0
 10
222.8968475574973
 20
393.55550340816791
 30
0.0
 11
316.71685755937392
 21
393.55550340816791
 31
0.0
  0
LINE
  5
1B050
  8
AM_0
 10
183.5668575567106
 20
383.94548340797559
 30
0.0
 11
256.89684755817729
 21
383.94548340797559
 31
0.0
  0
LINE
  5
1B051
  8
AM_0
 10
222.8968475574973
 20
393.55550340816791
 30
0.0
 11
186.89684755677729
 21
391.90276312630522
 31
0.0
  0
ARC
  5
1B052
  8
AM_0
 10
201.90435755707739
 20
410.4480034085056
 30
0.0
 40
2.007501100040149
 50
90.213689999998877
 51
179.78629999999569
  0
ARC
  5
1B053
  8
AM_0
 10
201.90477755707749
 20
411.11981340851889
 30
0.0
 40
1.995694300039913
 50
90.227350000001564
 51
165.02512000000161
  0
ARC
  5
1B054
  8
AM_0
 10
185.02413755673999
 20
408.50816340846683
 30
0.0
 40
2.0073326000401459
 50
90.207820000001149
 51
165.94993999999821
  0
ARC
  5
1B055
  8
AM_0
 10
185.13326755674211
 20
398.18894340826051
 30
0.0
 40
2.00656600004013
 50
89.897530000004267
 51
170.0543200000001
  0
ARC
  5
1B056
  8
AM_0
 10
185.075957556741
 20
403.47092340836622
 30
0.0
 40
2.0045698000400902
 50
89.974040000003541
 51
167.77208999999681
  0
ARC
  5
1B057
  8
AM_0
 10
185.04314755674019
 20
406.87561340843422
 30
0.0
 40
1.999890900039996
 50
90.180420000001433
 51
166.70569999999859
  0
LINE
  5
1B058
  8
AM_0
 10
176.8968475565772
 20
395.5555034082077
 30
0.0
 11
186.89684755677729
 21
395.5555034082077
 31
0.0
  0
LINE
  5
1B059
  8
AM_0
 10
176.8968475565772
 20
389.89549340809469
 30
0.0
 11
186.89684755677729
 21
389.89549340809469
 31
0.0
  0
ARC
  5
1B05A
  8
AM_0
 10
180.68801755665311
 20
399.73444340829161
 30
0.0
 40
1.498966200029979
 50
270.3384679999927
 51
348.49632400000138
  0
LINE
  5
1B05B
  8
AM_0
 10
182.6368675566921
 20
395.5555034082077
 30
0.0
 11
183.15685755670231
 21
398.5354934082676
 31
0.0
  0
LINE
  5
1B05C
  8
AM_0
 10
173.13686755650201
 20
395.81549340821311
 30
0.0
 11
176.39684755656739
 21
395.81549340821311
 31
0.0
  0
LINE
  5
1B05D
  8
AM_0
 10
173.17684755650291
 20
396.95549340823572
 30
0.0
 11
176.39684755656739
 21
396.95549340823572
 31
0.0
  0
LINE
  5
1B05E
  8
AM_0
 10
173.17684755650291
 20
394.85548340819378
 30
0.0
 11
176.8968475565772
 21
394.85548340819378
 31
0.0
  0
LINE
  5
1B05F
  8
AM_0
 10
173.1568575565025
 20
393.71550340817078
 30
0.0
 11
175.8968475565573
 21
393.71550340817078
 31
0.0
  0
LINE
  5
1B060
  8
AM_0
 10
173.17684755650291
 20
389.19548340808069
 30
0.0
 11
175.8968475565573
 21
389.19548340808069
 31
0.0
  0
LINE
  5
1B061
  8
AM_0
 10
173.19686755650321
 20
390.33550340810319
 30
0.0
 11
176.8968475565772
 21
390.33550340810319
 31
0.0
  0
ARC
  5
1B062
  8
AM_0
 10
171.90401755647761
 20
395.22530340820123
 30
0.0
 40
1.007194200020143
 50
120.23341999999801
 51
180.55767999999989
  0
LINE
  5
1B063
  8
AM_0
 10
172.69686755649329
 20
395.6955034082107
 30
0.0
 11
171.4568775564685
 21
395.07552340819808
 31
0.0
  0
ARC
  5
1B064
  8
AM_0
 10
173.19036755650311
 20
393.8443834081736
 30
0.0
 40
1.011208500020224
 50
90.765689999997619
 51
120.51881000001219
  0
LINE
  5
1B065
  8
AM_0
 10
172.67684755649279
 20
396.81549340823312
 30
0.0
 11
171.3968775564673
 21
396.09551340821872
 31
0.0
  0
LINE
  5
1B066
  8
AM_0
 10
172.89684755649731
 20
396.69550340823071
 30
0.0
 11
172.89684755649731
 21
396.17549340822012
 31
0.0
  0
ARC
  5
1B067
  8
AM_0
 10
173.1744375565026
 20
394.811053408193
 30
0.0
 40
1.005138300020102
 50
92.142290000000557
 51
118.3679399999963
  0
ARC
  5
1B068
  8
AM_0
 10
173.18773755650321
 20
395.95374340821581
 30
0.0
 40
1.001808000020036
 50
90.622820000003927
 51
120.66166999999641
  0
ARC
  5
1B069
  8
AM_0
 10
173.1551475565025
 20
392.70229340815058
 30
0.0
 40
1.0131912000202621
 50
89.903720000000618
 51
118.1687600000007
  0
LINE
  5
1B06A
  8
AM_0
 10
172.65685755649241
 20
390.17546340810009
 30
0.0
 11
171.35683755646639
 21
389.31548340808291
 31
0.0
  0
LINE
  5
1B06B
  8
AM_0
 10
172.89684755649731
 20
390.03548340809709
 30
0.0
 11
172.89684755649731
 21
389.55550340808787
 31
0.0
  0
ARC
  5
1B06C
  8
AM_0
 10
171.89858755647731
 20
388.47289340806611
 30
0.0
 40
1.001733900020034
 50
122.7376300000042
 51
179.8504599999961
  0
ARC
  5
1B06D
  8
AM_0
 10
171.9023975564773
 20
387.44621340804542
 30
0.0
 40
1.00559290002011
 50
120.18133000000741
 51
179.47162000000111
  0
LINE
  5
1B06E
  8
AM_0
 10
172.67684755649279
 20
389.05550340807798
 30
0.0
 11
171.39684755646741
 21
388.31548340806279
 31
0.0
  0
ARC
  5
1B06F
  8
AM_0
 10
173.1891075565031
 20
388.18883340806042
 30
0.0
 40
1.0067360000201351
 50
90.698059999994499
 51
120.5864300000015
  0
ARC
  5
1B070
  8
AM_0
 10
171.90184755647729
 20
392.04448340813752
 30
0.0
 40
1.0050608000201
 50
117.55880999999511
 51
179.371600000001
  0
ARC
  5
1B071
  8
AM_0
 10
173.20250755650341
 20
389.32518340808281
 30
0.0
 40
1.010318000020205
 50
90.320139999994765
 51
122.6885800000067
  0
ARC
  5
1B072
  8
AM_0
 10
171.89583755647709
 20
393.070053408158
 30
0.0
 40
0.99898326001998
 50
119.965359999996
 51
179.687610000001
  0
LINE
  5
1B073
  8
AM_0
 10
172.6768775564926
 20
393.5955134081687
 30
0.0
 11
171.43685755646791
 21
392.9354734081553
 31
0.0
  0
ARC
  5
1B074
  8
AM_0
 10
171.8998975564773
 20
394.1755834081801
 30
0.0
 40
1.0030519000200611
 50
116.21265000000891
 51
180.00576999999771
  0
LINE
  5
1B075
  8
AM_0
 10
172.67684755649279
 20
394.71547340819097
 30
0.0
 11
171.3968775564673
 21
393.93550340817552
 31
0.0
  0
LINE
  5
1B076
  8
AM_0
 10
172.89684755649731
 20
394.59551340818831
 30
0.0
 11
172.89684755649731
 21
394.05550340817757
 31
0.0
  0
ARC
  5
1B077
  8
AM_0
 10
176.3904975565672
 20
395.3091334082028
 30
0.0
 40
0.506400760010128
 50
0.7197000000047809
 51
89.280300000001816
  0
ARC
  5
1B078
  8
AM_0
 10
176.40120755656741
 20
397.45114340824563
 30
0.0
 40
0.4956644500099134
 50
269.49661899999961
 51
0.5033799999995241
  0
ARC
  5
1B079
  8
AM_0
 10
175.89144755655701
 20
388.19008340806062
 30
0.0
 40
1.005422700020107
 50
0.3081900000032887
 51
89.691810000009838
  0
ARC
  5
1B07A
  8
AM_0
 10
175.8897975565572
 20
392.70842340815079
 30
0.0
 40
1.0070832000201411
 50
0.4015799999984182
 51
89.598420000001582
  0
LINE
  5
1B07B
  8
AM_0
 10
180.736867556654
 20
404.33550340838332
 30
0.0
 11
182.3768575566869
 21
404.33550340838332
 31
0.0
  0
LINE
  5
1B07C
  8
AM_0
 10
180.6968675566533
 20
398.23549340826128
 30
0.0
 11
183.1168475567016
 21
398.23549340826128
 31
0.0
  0
ARC
  5
1B07D
  8
AM_0
 10
180.71318755665351
 20
403.79889340837258
 30
0.0
 40
1.5034074000300679
 50
270.13958599999978
 51
346.79614399999542
  0
LINE
  5
1B07E
  8
AM_0
 10
180.71685755665359
 20
402.29549340834262
 30
0.0
 11
182.77684755669469
 21
402.29549340834262
 31
0.0
  0
ARC
  5
1B07F
  8
AM_0
 10
180.7466975566544
 20
405.83426340841328
 30
0.0
 40
1.4987990000299749
 50
269.62344199999649
 51
345.36186499999792
  0
LINE
  5
1B080
  8
AM_0
 10
183.1168775567017
 20
403.89548340837467
 30
0.0
 11
182.1568575566823
 21
399.43549340828531
 31
0.0
  0
LINE
  5
1B081
  8
AM_0
 10
183.0968575567012
 20
407.3355034084434
 30
0.0
 11
182.17687755668291
 21
403.45549340836573
 31
0.0
  0
LINE
  5
1B082
  8
AM_0
 10
183.07686755670071
 20
408.99547340847653
 30
0.0
 11
182.1968675566832
 21
405.4554834084056
 31
0.0
  0
LINE
  5
1B083
  8
AM_0
 10
176.8968475565772
 20
404.59322973848111
 30
0.0
 11
181.73683755667389
 21
404.69548340839032
 31
0.0
  0
LINE
  5
1B084
  8
AM_0
 10
186.89684755677729
 20
386.715503408031
 30
0.0
 11
186.8968475567774
 21
383.93550340797538
 31
0.0
  0
LINE
  5
1B085
  8
AM_0
 10
186.89684755677729
 20
395.5555034082077
 30
0.0
 11
186.8968475567774
 21
383.94548340797559
 31
0.0
  0
ARC
  5
1B086
  8
AM_0
 10
190.0470875568403
 20
388.41307340806497
 30
0.0
 40
1.0127641000202541
 50
355.6067472000023
 51
45.505339999994469
  0
ARC
  5
1B087
  8
AM_0
 10
186.53624755676989
 20
384.85494340799369
 30
0.0
 40
6.0113902001202266
 50
45.404039999991618
 51
86.560850000005644
  0
LINE
  5
1B088
  8
AM_0
 10
185.0168675567395
 20
410.51549340850681
 30
0.0
 11
198.51686755700959
 21
410.51549340850681
 31
0.0
  0
LINE
  5
1B089
  8
AM_0
 10
185.0368575567399
 20
408.87549340847397
 30
0.0
 11
198.39684755700731
 21
408.87549340847397
 31
0.0
  0
LINE
  5
1B08A
  8
AM_0
 10
185.07686755674069
 20
405.47550340840598
 30
0.0
 11
198.39684755700731
 21
405.47550340840598
 31
0.0
  0
LINE
  5
1B08B
  8
AM_0
 10
185.13686755674209
 20
400.19550340830068
 30
0.0
 11
198.39684755700731
 21
400.19550340830068
 31
0.0
  0
ARC
  5
1B08C
  8
AM_0
 10
198.52877755700999
 20
412.0115534085366
 30
0.0
 40
1.496115700029921
 50
269.54349499999751
 51
345.44181399999928
  0
ARC
  5
1B08D
  8
AM_0
 10
198.40300755700741
 20
406.96933340843611
 30
0.0
 40
1.4938502000298759
 50
269.76363900000871
 51
0.2363600000010697
  0
ARC
  5
1B08E
  8
AM_0
 10
198.40416755700741
 20
401.68819340833028
 30
0.0
 40
1.492715800029853
 50
269.71972099999329
 51
0.280280000000537
  0
ARC
  5
1B08F
  8
AM_0
 10
198.40099755700751
 20
410.37137340850398
 30
0.0
 40
1.4958795000299161
 50
269.84195400000863
 51
0.158039999999219
  0
LINE
  5
1B090
  8
AM_0
 10
199.8968475570372
 20
409.09549340847832
 30
0.0
 11
199.8968475570372
 21
401.69550340833081
 31
0.0
  0
ARC
  5
1B091
  8
AM_0
 10
201.9020075570773
 20
409.09033340847827
 30
0.0
 40
2.0051613000401018
 50
90.147289999993205
 51
179.85271000000029
  0
ARC
  5
1B092
  8
AM_0
 10
201.9061875570774
 20
407.06616340843789
 30
0.0
 40
2.0093489000401861
 50
90.265960000000362
 51
179.73403999999971
  0
LINE
  5
1B093
  8
AM_0
 10
256.89684755817729
 20
383.94548340797559
 30
0.0
 11
316.71685755937392
 21
383.94548340797559
 31
0.0
  0
LINE
  5
1B094
  8
AM_0
 10
256.89684755817729
 20
409.07549340847811
 30
0.0
 11
316.71685755937392
 21
409.07549340847811
 31
0.0
  0
ARC
  5
1B095
  8
AM_0
 10
316.70720755967727
 20
410.43850340724077
 30
0.0
 40
2.0170177999999992
 50
14.85160000000179
 51
89.726300000003846
  0
ARC
  5
1B096
  8
AM_0
 10
316.70720755967727
 20
411.09850340724063
 30
0.0
 40
2.0170177999999992
 50
14.85160000000179
 51
89.726300000003846
  0
ARC
  5
1B097
  8
AM_0
 10
316.70720755967727
 20
409.0785034072407
 30
0.0
 40
2.0170177999999992
 50
14.85160000000179
 51
89.726300000003846
  0
ARC
  5
1B098
  8
AM_0
 10
316.7072075593735
 20
407.0585034084379
 30
0.0
 40
2.0170178000403398
 50
14.85160000000179
 51
89.726300000003846
  0
LINE
  5
1B099
  8
AM_0
 10
316.71685755937392
 20
393.55550340816791
 30
0.0
 11
319.29686755942538
 21
393.55550340816791
 31
0.0
  0
LINE
  5
1B09A
  8
AM_0
 10
316.71685755937392
 20
383.94548340797559
 30
0.0
 11
322.89684735775683
 21
383.94548340797559
 31
0.0
  0
ARC
  5
1B09B
  8
AM_0
 10
323.23805912198782
 20
400.23549340724088
 30
0.0
 40
2.0
 50
195.01429759842139
 51
260.1769509602787
1001
GENIUS_GENOBJ-N-FIL_13
1002
{
1000
OWNER
1000
GEN
1002
}
1001
GENIUS_GENODEF_13
1002
{
1000
HIER
1070
     0
1002
}
1002
{
1000
MANEDIT
1070
     0
1002
}
1002
{
1000
NOSEL
1070
     0
1002
}
1002
{
1000
BEHIND
1070
     0
1002
}
1002
{
1000
OTHER
1070
     0
1002
}
1002
{
1000
REACTOR
1002
}
  0
LINE
  5
1B09C
  8
AM_0
 10
318.6568575594124
 20
407.57550340844841
 30
0.0
 11
321.3926675594671
 21
397.37550340824419
 31
0.0
  0
LINE
  5
1B09D
  8
AM_0
 10
321.89684755947741
 20
397.37549340824421
 30
0.0
 11
320.9968475594593
 21
397.37549340824421
 31
0.0
  0
ARC
  5
1B09E
  8
AM_0
 10
320.9968475594593
 20
395.67549340821029
 30
0.0
 40
1.700000800033999
 50
90.000020000002039
 51
179.999989999999
  0
LINE
  5
1B09F
  8
AM_0
 10
321.89684755947741
 20
390.37550340810441
 30
0.0
 11
320.9968475594593
 21
390.37550340810441
 31
0.0
  0
ARC
  5
1B0A0
  8
AM_0
 10
320.9968475594593
 20
392.0754934081383
 30
0.0
 40
1.6999969000339989
 50
180.00001999999549
 51
269.99999700000228
  0
LINE
  5
1B0A1
  8
AM_0
 10
319.29686755942538
 20
392.0754934081383
 30
0.0
 11
319.29686755942538
 21
395.67549340821029
 31
0.0
  0
LINE
  5
1B0A2
  8
AM_0
 10
321.89684755947741
 20
390.07549340809828
 30
0.0
 11
321.89684755947741
 21
397.67549340825008
 31
0.0
  0
LINE
  5
1B0A3
  8
AM_0
 10
322.89684755949719
 20
390.07549340809828
 30
0.0
 11
322.89684755949719
 21
397.67549340825008
 31
0.0
  0
LINE
  5
1B0A4
  8
AM_0
 10
321.89684755947741
 20
397.67549340825008
 30
0.0
 11
322.89684755949719
 21
397.67549340825008
 31
0.0
  0
LINE
  5
1B0A5
  8
AM_0
 10
321.89684755947741
 20
390.07549340809828
 30
0.0
 11
322.89684755949719
 21
390.07549340809828
 31
0.0
  0
LINE
  5
1B0A6
  8
AM_0
 10
322.89684755949719
 20
393.09813340815867
 30
0.0
 11
321.89684755947741
 21
393.67546340817012
 31
0.0
  0
ARC
  5
1B0A7
  8
AM_0
 10
323.55770755951039
 20
395.04228340819759
 30
0.0
 40
1.4868059000297349
 50
194.282739999999
 51
243.61022000000091
  0
LINE
  5
1B0A8
  8
AM_0
 10
322.89684755949719
 20
394.09813340817868
 30
0.0
 11
321.89684755947741
 21
394.67549340819028
 31
0.0
  0
LINE
  5
1B0A9
  8
AM_0
 10
318.65685755967729
 20
411.61550340724051
 30
0.0
 11
320.21201001888602
 21
405.81738325857231
 31
0.0
  0
LINE
  5
1B0AA
  8
AM_0
 10
320.43245189301069
 20
404.33550340724082
 30
0.0
 11
322.14373243982112
 21
404.33550340724082
 31
0.0
  0
LINE
  5
1B0AB
  8
AM_0
 10
320.61484190851058
 20
402.29549340724088
 30
0.0
 11
322.51387412198778
 21
402.29549340724088
 31
0.0
  0
LINE
  5
1B0AC
  8
AM_0
 10
318.65685755967729
 20
409.59550340724059
 30
0.0
 11
321.30633670105271
 21
399.71737325857208
 31
0.0
  0
LINE
  5
1B0AD
  8
AM_0
 10
318.65685755967729
 20
410.9555034072406
 30
0.0
 11
320.58215170105268
 21
403.77737325857208
 31
0.0
  0
ARC
  5
1B0AE
  8
AM_0
 10
322.51387412198778
 20
404.2954934072406
 30
0.0
 40
2.0
 50
195.01429759842139
 51
270.0
1001
GENIUS_GENODEF_13
1002
{
1000
HIER
1070
     0
1002
}
1002
{
1000
MANEDIT
1070
     0
1002
}
1002
{
1000
NOSEL
1070
     0
1002
}
1002
{
1000
BEHIND
1070
     0
1002
}
1002
{
1000
OTHER
1070
     0
1002
}
1002
{
1000
REACTOR
1002
}
1001
GENIUS_GENOBJ-N-FIL_13
1002
{
1000
OWNER
1000
GEN
1002
}
  0
ARC
  5
1B0AF
  8
AM_0
 10
322.14373243982112
 20
406.33550340724082
 30
0.0
 40
2.0
 50
195.01429759842139
 51
270.0
1001
GENIUS_GENOBJ-N-FIL_13
1002
{
1000
OWNER
1000
GEN
1002
}
1001
GENIUS_GENODEF_13
1002
{
1000
HIER
1070
     0
1002
}
1002
{
1000
MANEDIT
1070
     0
1002
}
1002
{
1000
NOSEL
1070
     0
1002
}
1002
{
1000
BEHIND
1070
     0
1002
}
1002
{
1000
OTHER
1070
     0
1002
}
1002
{
1000
REACTOR
1002
}
  0
ARC
  5
1B0B0
  8
AM_0
 10
323.9059375595175
 20
410.20641340850102
 30
0.0
 40
1.0091312000201811
 50
90.516129999999563
 51
179.48387000000039
  0
ARC
  5
1B0B1
  8
AM_0
 10
323.90526755951743
 20
398.24709340826172
 30
0.0
 40
1.0084445000201681
 50
90.477799999999576
 51
170.4539299999972
  0
LINE
  5
1B0B2
  8
AM_0
 10
321.16200390851048
 20
398.2354934072406
 30
0.0
 11
322.89684732828692
 21
398.23549340724088
 31
0.0
  0
LINE
  5
1B0B3
  8
AM_0
 10
319.70290524184389
 20
407.71549340724067
 30
0.0
 11
322.896847308617
 21
407.71549340724067
 31
0.0
  0
LINE
  5
1B132
  8
AM_0
 10
802.57362678952381
 20
250.2155410068965
 30
0.0
 11
807.76362678962755
 21
247.2155410068365
 31
0.0
  0
LINE
  5
1B133
  8
AM_0
 10
843.37361679033995
 20
247.2155410068365
 30
0.0
 11
807.76362678962755
 21
247.2155410068365
 31
0.0
  0
LINE
  5
1B134
  8
AM_0
 10
847.21420497070721
 20
249.4312754675137
 30
0.0
 11
843.37361679033995
 21
247.2155410068365
 31
0.0
  0
CIRCLE
  5
1B32F
  8
AM_0
 10
488.89682091953978
 20
329.21517392700861
 30
0.0
 40
3.399999999999999
  0
LINE
  5
1B34A
  8
ﾁｭｳｼﾝｾﾝ1
 10
388.89682091953978
 20
414.21517392701583
 30
0.0
 11
388.89682091953978
 21
444.21517392700031
 31
0.0
  0
LINE
  5
1B34B
  8
ﾁｭｳｼﾝｾﾝ1
 10
403.89683617832912
 20
429.21517392700821
 30
0.0
 11
373.89683617832929
 21
429.21517392700821
 31
0.0
  0
LINE
  5
1B34C
  8
ﾁｭｳｼﾝｾﾝ1
 10
388.89682091953978
 20
214.215173927016
 30
0.0
 11
388.89682091953978
 21
244.21517392700039
 31
0.0
  0
LINE
  5
1B34D
  8
ﾁｭｳｼﾝｾﾝ1
 10
403.89683617832912
 20
229.21517392700821
 30
0.0
 11
373.89683617832929
 21
229.21517392700821
 31
0.0
  0
LINE
  5
1B34E
  8
ﾁｭｳｼﾝｾﾝ1
 10
533.89684978149148
 20
214.215173927016
 30
0.0
 11
533.89684978149148
 21
244.21517392700039
 31
0.0
  0
LINE
  5
1B34F
  8
ﾁｭｳｼﾝｾﾝ1
 10
548.89686504028077
 20
229.21517392700821
 30
0.0
 11
518.89686504028077
 21
229.21517392700821
 31
0.0
  0
ARC
  5
1B350
  8
AM_0
 10
373.89684797535187
 20
264.21517197035718
 30
0.0
 40
17.000000451534831
 50
180.0
 51
203.1985549345502
  0
ARC
  5
1B351
  8
ｶｸﾚｾﾝ2
 10
373.89684797535187
 20
394.21517588365919
 30
0.0
 40
17.000000451534831
 50
156.8014450654498
 51
180.0
  0
LINE
  5
1B352
  8
ｶｸﾚｾﾝ2
 10
361.6158278830643
 20
408.71552446505058
 30
0.0
 11
358.40138083092211
 21
401.21513514638741
 31
0.0
  0
LINE
  5
1B353
  8
AM_0
 10
356.89684752381731
 20
285.54397160018868
 30
0.0
 11
356.89684752381731
 21
264.21517197035769
 31
0.0
  0
LINE
  5
1B4ED
  8
AM_0
 10
900.57362678998425
 20
409.80861767089561
 30
0.0
 11
925.57362678998447
 21
409.80861767089561
 31
0.0
  0
LINE
  5
1B4EE
  8
AM_0
 10
900.57362678998425
 20
248.62173578611669
 30
0.0
 11
925.57362678998447
 21
248.62173578611669
 31
0.0
  0
LINE
  5
1B4EF
  8
AM_0
 10
360.63878270858339
 20
622.66220270268309
 30
0.0
 11
562.14926293211317
 21
622.66220270268275
 31
0.0
  0
LINE
  5
1B4F0
  8
AM_0
 10
438.89601972642231
 20
617.66220255357121
 30
0.0
 11
538.89762211265611
 21
617.66220255357121
 31
0.0
  0
LINE
  5
1B4F1
  8
AM_0
 10
358.89323383023361
 20
715.6622054761591
 30
0.0
 11
563.89320942623021
 21
715.6622054761591
 31
0.0
  0
LINE
  5
1B4F2
  8
AM_0
 10
356.89684752381629
 20
781.66220547615865
 30
0.0
 11
565.89682317721395
 21
781.66220547615922
 31
0.0
  0
LINE
  5
1B4F3
  8
AM_0
 10
357.6530544580653
 20
756.66220547615865
 30
0.0
 11
565.13787857456828
 21
756.6622054761591
 31
0.0
  0
LINE
  5
1B4F4
  8
ﾁｭｳｼﾝｾﾝ1
 10
162.14933382969389
 20
681.66220446220018
 30
0.0
 11
568.89320942623021
 21
681.66220446219995
 31
0.0
1001
GENIUS_GENODEF_13
1002
{
1000
HIER
1070
     0
1002
}
1002
{
1000
MANEDIT
1070
     0
1002
}
1002
{
1000
NOSEL
1070
     0
1002
}
1002
{
1000
BEHIND
1070
     0
1002
}
1002
{
1000
REACTOR
1002
}
1001
GENIUS_GENOBJ-N-CEN_13
1002
{
1000
OWNER
1000
GEN
1002
}
  0
LINE
  5
1B4F5
  8
AM_0
 10
360.63878270858339
 20
622.66220270268309
 30
0.0
 11
358.8932338300815
 21
715.6622054761591
 31
0.0
  0
LINE
  5
1B4F6
  8
AM_0
 10
342.89323382969383
 20
620.16220946219983
 30
0.0
 11
342.89323382969383
 21
743.16218946220022
 31
0.0
  0
LINE
  5
1B4F7
  8
AM_0
 10
331.89323382969383
 20
617.66217446219969
 30
0.0
 11
331.89323382969383
 21
745.66218946220022
 31
0.0
  0
ARC
  5
1B4F8
  8
AM_0
 10
345.8932338296932
 20
746.16218946220022
 30
0.0
 40
2.9999999999999978
 50
215.6853347126584
 51
270.0
1001
GENIUS_GENOBJ-N-FIL_13
1002
{
1000
OWNER
1000
GEN
1002
}
1001
GENIUS_GENODEF_13
1002
{
1000
HIER
1070
     0
1002
}
1002
{
1000
MANEDIT
1070
     0
1002
}
1002
{
1000
NOSEL
1070
     0
1002
}
1002
{
1000
BEHIND
1070
     0
1002
}
1002
{
1000
OTHER
1070
     0
1002
}
1002
{
1000
REACTOR
1002
}
  0
LINE
  5
1B4F9
  8
AM_0
 10
331.89323382969383
 20
745.66218946220022
 30
0.0
 11
341.0198366572892
 21
745.66218946220022
 31
0.0
  0
ARC
  5
1B4FA
  8
AM_0
 10
341.01983665728909
 20
742.66218946220033
 30
0.0
 40
2.9999999999999978
 50
35.68533471265836
 51
90.0
1001
GENIUS_GENOBJ-N-FIL_13
1002
{
1000
OWNER
1000
GEN
1002
}
1001
GENIUS_GENODEF_13
1002
{
1000
HIER
1070
     0
1002
}
1002
{
1000
MANEDIT
1070
     0
1002
}
1002
{
1000
NOSEL
1070
     0
1002
}
1002
{
1000
BEHIND
1070
     0
1002
}
1002
{
1000
OTHER
1070
     0
1002
}
1002
{
1000
REACTOR
1002
}
  0
LINE
  5
1B4FB
  8
AM_0
 10
331.89323382969383
 20
733.70218946219984
 30
0.0
 11
341.89323382969383
 21
733.70218946219984
 31
0.0
  0
LINE
  5
1B4FC
  8
AM_0
 10
331.89317600747631
 20
733.70219946216832
 30
0.0
 11
341.89317600747012
 21
733.70221057327956
 31
0.0
  0
LINE
  5
1B4FD
  8
AM_0
 10
331.89323382969383
 20
718.80217946219989
 30
0.0
 11
341.89323382969383
 21
718.80217946219989
 31
0.0
  0
LINE
  5
1B4FE
  8
AM_0
 10
331.89319256304333
 20
718.80218946217735
 30
0.0
 11
341.89319256303702
 21
718.8022005732887
 31
0.0
  0
ARC
  5
1B4FF
  8
AM_0
 10
348.47965730868378
 20
741.16218946220022
 30
0.0
 40
2.0
 50
4.9999999999995008
 51
90.0
1001
GENIUS_GENODEF_13
1002
{
1000
HIER
1070
     0
1002
}
1002
{
1000
MANEDIT
1070
     0
1002
}
1002
{
1000
NOSEL
1070
     0
1002
}
1002
{
1000
BEHIND
1070
     0
1002
}
1002
{
1000
OTHER
1070
     0
1002
}
1002
{
1000
REACTOR
1002
}
1001
GENIUS_GENOBJ-N-FIL_13
1002
{
1000
OWNER
1000
GEN
1002
}
  0
LINE
  5
1B500
  8
AM_0
 10
345.8932338296936
 20
743.16218946220022
 30
0.0
 11
348.4796573086839
 21
743.16218946219999
 31
0.0
  0
LINE
  5
1B501
  8
AM_0
 10
352.73350678154492
 20
715.48789399066368
 30
0.0
 11
350.47204670486752
 21
741.3365009476953
 31
0.0
  0
ARC
  5
1B502
  8
AM_0
 10
357.911827043708
 20
714.6622054761591
 30
0.0
 40
1.0
 50
270.0
 51
1.0752778360612041
1001
GENIUS_GENODEF_13
1002
{
1000
HIER
1070
     0
1002
}
1002
{
1000
MANEDIT
1070
     0
1002
}
1002
{
1000
NOSEL
1070
     0
1002
}
1002
{
1000
BEHIND
1070
     0
1002
}
1002
{
1000
OTHER
1070
     0
1002
}
1002
{
1000
REACTOR
1002
}
1001
GENIUS_GENOBJ-N-FIL_13
1002
{
1000
OWNER
1000
GEN
1002
}
  0
ARC
  5
1B503
  8
AM_0
 10
354.7258961777282
 20
715.6622054761591
 30
0.0
 40
2.0
 50
184.9999999999994
 51
270.0
1001
GENIUS_GENOBJ-N-FIL_13
1002
{
1000
OWNER
1000
GEN
1002
}
1001
GENIUS_GENODEF_13
1002
{
1000
HIER
1070
     0
1002
}
1002
{
1000
MANEDIT
1070
     0
1002
}
1002
{
1000
NOSEL
1070
     0
1002
}
1002
{
1000
BEHIND
1070
     0
1002
}
1002
{
1000
OTHER
1070
     0
1002
}
1002
{
1000
REACTOR
1002
}
  0
LINE
  5
1B504
  8
AM_0
 10
354.7258961777286
 20
713.66220547615887
 30
0.0
 11
357.91182704370812
 21
713.66220547615887
 31
0.0
  0
ARC
  5
1B505
  8
AM_0
 10
345.8932338296932
 20
617.16220946220005
 30
0.0
 40
2.9999999999999978
 50
90.0
 51
144.3146652873416
1001
GENIUS_GENOBJ-N-FIL_13
1002
{
1000
OWNER
1000
GEN
1002
}
1001
GENIUS_GENODEF_13
1002
{
1000
HIER
1070
     0
1002
}
1002
{
1000
MANEDIT
1070
     0
1002
}
1002
{
1000
NOSEL
1070
     0
1002
}
1002
{
1000
BEHIND
1070
     0
1002
}
1002
{
1000
OTHER
1070
     0
1002
}
1002
{
1000
REACTOR
1002
}
  0
LINE
  5
1B506
  8
AM_0
 10
331.89323382969383
 20
644.52221946220004
 30
0.0
 11
341.89323382969383
 21
644.52221946220004
 31
0.0
  0
LINE
  5
1B507
  8
AM_0
 10
331.89323382969383
 20
629.62220946220009
 30
0.0
 11
341.89323382969383
 21
629.62220946220009
 31
0.0
  0
LINE
  5
1B508
  8
AM_0
 10
331.89323382969383
 20
617.66220946219983
 30
0.0
 11
341.0198366572892
 21
617.66220946219983
 31
0.0
  0
ARC
  5
1B509
  8
AM_0
 10
341.01983665728898
 20
620.66220946219983
 30
0.0
 40
2.9999999999999978
 50
270.0
 51
324.3146652873416
1001
GENIUS_GENOBJ-N-FIL_13
1002
{
1000
OWNER
1000
GEN
1002
}
1001
GENIUS_GENODEF_13
1002
{
1000
HIER
1070
     0
1002
}
1002
{
1000
MANEDIT
1070
     0
1002
}
1002
{
1000
NOSEL
1070
     0
1002
}
1002
{
1000
BEHIND
1070
     0
1002
}
1002
{
1000
OTHER
1070
     0
1002
}
1002
{
1000
REACTOR
1002
}
  0
ARC
  5
1B50A
  8
AM_0
 10
358.6384304513972
 20
622.6622027026832
 30
0.0
 40
2.0
 50
1.075277835969997
 51
90.0
1001
GENIUS_GENODEF_13
1002
{
1000
HIER
1070
     0
1002
}
1002
{
1000
MANEDIT
1070
     0
1002
}
1002
{
1000
NOSEL
1070
     0
1002
}
1002
{
1000
BEHIND
1070
     0
1002
}
1002
{
1000
OTHER
1070
     0
1002
}
1002
{
1000
REACTOR
1002
}
1001
GENIUS_GENOBJ-N-FIL_13
1002
{
1000
OWNER
1000
GEN
1002
}
  0
LINE
  5
1B50B
  8
AM_0
 10
352.65926248335671
 20
621.98789797670463
 30
0.0
 11
352.73350678154492
 21
622.83651418817817
 31
0.0
  0
ARC
  5
1B50C
  8
AM_0
 10
354.7258961777282
 20
622.6622027026832
 30
0.0
 40
2.0
 50
90.0
 51
175.00000000000051
1001
GENIUS_GENODEF_13
1002
{
1000
HIER
1070
     0
1002
}
1002
{
1000
MANEDIT
1070
     0
1002
}
1002
{
1000
NOSEL
1070
     0
1002
}
1002
{
1000
BEHIND
1070
     0
1002
}
1002
{
1000
OTHER
1070
     0
1002
}
1002
{
1000
REACTOR
1002
}
1001
GENIUS_GENOBJ-N-FIL_13
1002
{
1000
OWNER
1000
GEN
1002
}
  0
LINE
  5
1B50D
  8
AM_0
 10
354.7258961777286
 20
624.66220270268298
 30
0.0
 11
358.63843045139743
 21
624.66220270268298
 31
0.0
  0
ARC
  5
1B50E
  8
AM_0
 10
350.66687308717292
 20
622.16220946220005
 30
0.0
 40
2.0
 50
270.0
 51
355.00000000000051
1001
GENIUS_GENOBJ-N-FIL_13
1002
{
1000
OWNER
1000
GEN
1002
}
1001
GENIUS_GENODEF_13
1002
{
1000
HIER
1070
     0
1002
}
1002
{
1000
MANEDIT
1070
     0
1002
}
1002
{
1000
NOSEL
1070
     0
1002
}
1002
{
1000
BEHIND
1070
     0
1002
}
1002
{
1000
OTHER
1070
     0
1002
}
1002
{
1000
REACTOR
1002
}
  0
LINE
  5
1B50F
  8
AM_0
 10
345.89323382969332
 20
620.16220946219983
 30
0.0
 11
350.66687308717309
 21
620.16220946219983
 31
0.0
  0
LINE
  5
1B510
  8
AM_0
 10
438.89601972642231
 20
617.66220255357121
 30
0.0
 11
438.89601972642231
 21
622.66220270268275
 31
0.0
  0
LINE
  5
1B511
  8
ﾁｭｳｼﾝｾﾝ1
 10
488.89682091953949
 20
843.97008345878737
 30
0.0
 11
488.89682091953978
 21
519.35432546561287
 31
0.0
  0
LINE
  5
1B512
  8
AM_0
 10
562.14926293211317
 20
622.66220270268275
 30
0.0
 11
563.89320942623021
 21
715.6622054761591
 31
0.0
  0
LINE
  5
1B515
  8
AM_0
 10
538.89762211265611
 20
617.66220255357121
 30
0.0
 11
538.89762211265611
 21
620.16220270268298
 31
0.0
  0
LINE
  5
1B517
  8
ｶｸﾚｾﾝ2
 10
300.39317382969352
 20
713.16220446220029
 30
0.0
 11
226.3931738296935
 21
713.16220446220029
 31
0.0
  0
LINE
  5
1B518
  8
ｶｸﾚｾﾝ2
 10
300.39317382969352
 20
650.16220446220029
 30
0.0
 11
226.3931738296935
 21
650.16220446220029
 31
0.0
  0
LINE
  5
1B519
  8
AM_0
 10
198.89320382969359
 20
745.55221546220025
 30
0.0
 11
251.89320382969359
 21
745.55221546220025
 31
0.0
  0
LINE
  5
1B51A
  8
AM_0
 10
198.89320382969359
 20
746.90222946220035
 30
0.0
 11
251.89320382969359
 21
746.90222946220035
 31
0.0
  0
LINE
  5
1B51B
  8
AM_0
 10
198.89320382969359
 20
747.57221146220024
 30
0.0
 11
251.89320382969359
 21
747.57221146220024
 31
0.0
  0
LINE
  5
1B51C
  8
AM_0
 10
220.89320382969359
 20
728.01222446220027
 30
0.0
 11
322.89320382969362
 21
728.01222446220027
 31
0.0
  0
LINE
  5
1B51D
  8
AM_0
 10
220.89320382969359
 20
635.31221446220025
 30
0.0
 11
322.89320382969362
 21
635.31221446220025
 31
0.0
  0
LINE
  5
1B51E
  8
AM_0
 10
316.24323382969368
 20
717.66220446220029
 30
0.0
 11
181.4432538296935
 21
717.66220446220029
 31
0.0
  0
LINE
  5
1B51F
  8
AM_0
 10
198.89320382969359
 20
743.52221646220016
 30
0.0
 11
315.70319382969382
 21
743.52221646220016
 31
0.0
  0
LINE
  5
1B520
  8
AM_0
 10
189.57319382969371
 20
644.9422244622001
 30
0.0
 11
319.71320382969378
 21
644.9422244622001
 31
0.0
  0
LINE
  5
1B521
  8
AM_0
 10
316.24323382969368
 20
645.66220446220041
 30
0.0
 11
190.44325382969339
 21
645.66220446220041
 31
0.0
  0
LINE
  5
1B522
  8
AM_0
 10
316.24323382969368
 20
715.66221446220015
 30
0.0
 11
181.4432538296935
 21
715.66221446220015
 31
0.0
  0
LINE
  5
1B523
  8
AM_0
 10
319.71320382969378
 20
715.03221446220016
 30
0.0
 11
180.57319382969359
 21
715.03221446220016
 31
0.0
  0
LINE
  5
1B524
  8
AM_0
 10
180.57319382969359
 20
718.38222446220016
 30
0.0
 11
319.71320382969378
 21
718.38222446220016
 31
0.0
  0
LINE
  5
1B525
  8
AM_0
 10
319.71320382969378
 20
648.29222446220024
 30
0.0
 11
189.57319382969371
 21
648.29222446220024
 31
0.0
  0
LINE
  5
1B526
  8
AM_0
 10
318.83817382969357
 20
707.66221856220034
 30
0.0
 11
181.4432538296935
 21
707.66222446220036
 31
0.0
  0
LINE
  5
1B527
  8
AM_0
 10
318.8381738820537
 20
705.66221036220031
 30
0.0
 11
181.4432538296935
 21
705.66220446220018
 31
0.0
  0
LINE
  5
1B528
  8
AM_0
 10
180.3532238296936
 20
708.14221446220029
 30
0.0
 11
319.92820382969347
 21
708.14222446220015
 31
0.0
  0
LINE
  5
1B529
  8
AM_0
 10
180.3532238296936
 20
705.22220446220035
 30
0.0
 11
319.92820390613878
 21
705.2222244622003
 31
0.0
  0
LINE
  5
1B52A
  8
AM_0
 10
180.2232138296938
 20
698.00222446220016
 30
0.0
 11
320.05821382969378
 21
698.00220446220032
 31
0.0
  0
LINE
  5
1B52B
  8
AM_0
 10
318.82817937185263
 20
697.66220249195862
 30
0.0
 11
181.45319382969339
 21
697.66220446220018
 31
0.0
  0
LINE
  5
1B52C
  8
AM_0
 10
318.8281794765723
 20
695.66220643152951
 30
0.0
 11
181.45319382969339
 21
695.66222446220036
 31
0.0
  0
LINE
  5
1B52D
  8
AM_0
 10
180.2232138296938
 20
695.34221446220033
 30
0.0
 11
320.05821389933197
 21
695.34220446220036
 31
0.0
  0
LINE
  5
1B52E
  8
AM_0
 10
180.16322382969361
 20
687.93221446220025
 30
0.0
 11
320.11820382969353
 21
687.93222846220033
 31
0.0
  0
LINE
  5
1B52F
  8
AM_0
 10
318.82817937185263
 20
687.66222249195857
 30
0.0
 11
181.45319382969339
 21
687.66220446220029
 31
0.0
  0
LINE
  5
1B530
  8
AM_0
 10
318.8281794765723
 20
685.66222643152935
 30
0.0
 11
181.45319382969339
 21
685.66220446220041
 31
0.0
  0
LINE
  5
1B531
  8
AM_0
 10
180.16322382969361
 20
685.39221446220029
 30
0.0
 11
320.11820389619078
 21
685.39222046220016
 31
0.0
  0
LINE
  5
1B532
  8
AM_0
 10
180.16322382969361
 20
677.92221446220037
 30
0.0
 11
320.11820382969353
 21
677.9222384622002
 31
0.0
  0
LINE
  5
1B533
  8
AM_0
 10
318.82817937185263
 20
677.66222249195835
 30
0.0
 11
181.45319382969339
 21
677.66222446220036
 31
0.0
  0
LINE
  5
1B534
  8
AM_0
 10
318.8281794765723
 20
675.66222643152946
 30
0.0
 11
181.45319382969339
 21
675.66220446220029
 31
0.0
  0
LINE
  5
1B535
  8
AM_0
 10
180.16322382969361
 20
675.3922144622004
 30
0.0
 11
320.11820389592879
 21
675.39223046220025
 31
0.0
  0
LINE
  5
1B536
  8
AM_0
 10
180.2232138296938
 20
667.9822144622002
 30
0.0
 11
320.05821382969378
 21
667.9822144622002
 31
0.0
  0
LINE
  5
1B537
  8
AM_0
 10
318.82817937185263
 20
667.66220249195862
 30
0.0
 11
181.45319382969339
 21
667.66222446220024
 31
0.0
  0
LINE
  5
1B538
  8
AM_0
 10
318.8281794765723
 20
665.6622064315294
 30
0.0
 11
181.45319382969339
 21
665.66222446220036
 31
0.0
  0
LINE
  5
1B539
  8
AM_0
 10
180.2232138296938
 20
665.32222446220044
 30
0.0
 11
320.05821389933197
 21
665.32221446220035
 31
0.0
  0
LINE
  5
1B53A
  8
AM_0
 10
189.3532238296936
 20
658.10221446220044
 30
0.0
 11
319.92321382969351
 21
658.10221446220044
 31
0.0
  0
LINE
  5
1B53B
  8
AM_0
 10
318.83318382969372
 20
657.66222856220043
 30
0.0
 11
190.44325382969339
 21
657.66220446220041
 31
0.0
  0
LINE
  5
1B53C
  8
AM_0
 10
318.83318388205379
 20
655.66222036220017
 30
0.0
 11
190.44325382969339
 21
655.66222446220024
 31
0.0
  0
LINE
  5
1B53D
  8
AM_0
 10
189.3532238296936
 20
655.17223446220009
 30
0.0
 11
319.9232139064008
 21
655.17221446220026
 31
0.0
  0
LINE
  5
1B53E
  8
AM_0
 10
316.24321482957129
 20
647.66222281646833
 30
0.0
 11
190.44325382969339
 21
647.66222446220024
 31
0.0
  0
LINE
  5
1B53F
  8
AM_0
 10
198.89320382969359
 20
617.77222446220026
 30
0.0
 11
251.89320382969359
 21
617.77222446220026
 31
0.0
  0
LINE
  5
1B540
  8
AM_0
 10
198.89320382969359
 20
616.42221446220015
 30
0.0
 11
251.89320382969359
 21
616.42221446220015
 31
0.0
  0
LINE
  5
1B541
  8
AM_0
 10
198.89320382969359
 20
615.74222446220028
 30
0.0
 11
251.89320382969359
 21
615.74222446220028
 31
0.0
  0
LINE
  5
1B542
  8
AM_0
 10
198.89320382969359
 20
619.80222446220023
 30
0.0
 11
315.70319382969382
 21
619.80222446220023
 31
0.0
  0
LINE
  5
1B543
  8
ｶｸﾚｾﾝ2
 10
223.3931738296935
 20
653.16220446220029
 30
0.0
 11
223.3931738296935
 21
710.16220446220018
 31
0.0
  0
LINE
  5
1B544
  8
AM_0
 10
170.8932338296938
 20
730.25221446220019
 30
0.0
 11
170.8932338296938
 21
686.6621944622002
 31
0.0
  0
LINE
  5
1B545
  8
AM_0
 10
175.8931738296935
 20
739.09220346220025
 30
0.0
 11
175.8931738296935
 21
681.66220446220018
 31
0.0
  0
LINE
  5
1B546
  8
AM_0
 10
169.3932338296938
 20
661.66221446220015
 30
0.0
 11
169.3932338296938
 21
701.66219446220032
 31
0.0
  0
LINE
  5
1B547
  8
AM_0
 10
168.3993338296934
 20
696.88409446220044
 30
0.0
 11
168.3993338296934
 21
666.44046446220034
 31
0.0
  0
LINE
  5
1B548
  8
AM_0
 10
179.6132338296936
 20
633.31221446220025
 30
0.0
 11
180.1532738296934
 21
630.32221446220024
 31
0.0
  0
LINE
  5
1B549
  8
AM_0
 10
172.8931738296935
 20
632.16220446220029
 30
0.0
 11
172.8931738296935
 21
632.69220446220015
 31
0.0
  0
LINE
  5
1B54A
  8
AM_0
 10
172.6631938296934
 20
632.04220446220017
 30
0.0
 11
171.3931738296935
 21
632.78221446220016
 31
0.0
  0
LINE
  5
1B54B
  8
AM_0
 10
175.8931738296935
 20
624.2322144622002
 30
0.0
 11
175.8931738296935
 21
681.66220446220018
 31
0.0
  0
ARC
  5
1B54C
  8
AM_0
 10
198.88776382969311
 20
618.41678446220044
 30
0.0
 40
1.9945760999999991
 50
179.8440099999971
 51
270.15599200000003
  0
ARC
  5
1B54D
  8
AM_0
 10
198.89570382969359
 20
617.73706446220035
 30
0.0
 40
1.994844099999999
 50
194.36279999999999
 51
269.92834199999561
  0
LINE
  5
1B54E
  8
AM_0
 10
182.1231838296936
 20
628.68222446220022
 30
0.0
 11
195.39320382969359
 21
628.68222446220022
 31
0.0
  0
LINE
  5
1B54F
  8
AM_0
 10
182.0031838296938
 20
618.3622244622004
 30
0.0
 11
195.5031838296938
 21
618.3622244622004
 31
0.0
  0
LINE
  5
1B550
  8
AM_0
 10
182.03321382969369
 20
619.99222446220017
 30
0.0
 11
195.39320382969359
 21
619.99222446220017
 31
0.0
  0
LINE
  5
1B551
  8
AM_0
 10
182.06324382969359
 20
623.39221446220029
 30
0.0
 11
195.39320382969359
 21
623.39221446220029
 31
0.0
  0
ARC
  5
1B552
  8
AM_0
 10
182.06489382969309
 20
625.38761446220042
 30
0.0
 40
1.9953879999999991
 50
192.01538000000019
 51
269.95193300000881
  0
LINE
  5
1B553
  8
AM_0
 10
180.08320382969359
 20
621.53221446220016
 30
0.0
 11
179.1631638296937
 21
625.41220446220041
 31
0.0
  0
ARC
  5
1B554
  8
AM_0
 10
177.72150382969309
 20
623.03511446220023
 30
0.0
 40
1.5070961
 50
14.09782000000264
 51
89.935179999998326
  0
LINE
  5
1B555
  8
AM_0
 10
177.7232138296938
 20
624.54221446220015
 30
0.0
 11
179.37324382969359
 21
624.54221446220015
 31
0.0
  0
LINE
  5
1B556
  8
AM_0
 10
175.8931438296938
 20
624.2322144622002
 30
0.0
 11
178.7132038296937
 21
624.16222446220024
 31
0.0
  0
LINE
  5
1B557
  8
AM_0
 10
180.0631838296938
 20
619.87220446220044
 30
0.0
 11
179.18317382969349
 21
623.40219446220044
 31
0.0
  0
ARC
  5
1B558
  8
AM_0
 10
182.02601382969351
 20
621.98767446220052
 30
0.0
 40
1.9954841000000001
 50
193.1940799999974
 51
270.20654200000092
  0
ARC
  5
1B559
  8
AM_0
 10
182.00050382969309
 20
620.35999446220046
 30
0.0
 40
1.9977800999999991
 50
194.13223000000309
 51
270.07691900000231
  0
LINE
  5
1B55A
  8
AM_0
 10
177.68317382969349
 20
630.62223446220025
 30
0.0
 11
180.1032238296936
 21
630.62223446220025
 31
0.0
  0
ARC
  5
1B55B
  8
AM_0
 10
177.68440382969311
 20
629.11808446220039
 30
0.0
 40
1.50414
 50
12.444750000004809
 51
90.045749999994939
  0
LINE
  5
1B55C
  8
AM_0
 10
177.70319382969339
 20
626.56223446220042
 30
0.0
 11
179.76319382969379
 21
626.56223446220042
 31
0.0
  0
ARC
  5
1B55D
  8
AM_0
 10
177.70240382969311
 20
625.05941446220015
 30
0.0
 40
1.5028081
 50
13.57782000000123
 51
89.969210000004949
  0
ARC
  5
1B55E
  8
AM_0
 10
173.15520382969311
 20
632.90808446220035
 30
0.0
 40
0.9959119600000002
 50
240.39301000001001
 51
270.45855600000272
  0
ARC
  5
1B55F
  8
AM_0
 10
175.38859382969349
 20
631.40758446220025
 30
0.0
 40
0.5046359900000002
 50
0.5237599999994825
 51
89.476240000000516
  0
LINE
  5
1B560
  8
AM_0
 10
173.1631938296934
 20
631.91220446220029
 30
0.0
 11
175.3932338296938
 21
631.91220446220029
 31
0.0
  0
ARC
  5
1B561
  8
AM_0
 10
182.1150638296931
 20
630.67565446220044
 30
0.0
 40
1.993431999999999
 50
190.21196999999981
 51
270.23411600000719
  0
LINE
  5
1B562
  8
AM_0
 10
180.1132338296936
 20
624.97222446220007
 30
0.0
 11
179.15321382969361
 21
629.44222446220022
 31
0.0
  0
LINE
  5
1B563
  8
AM_0
 10
196.89320382969359
 20
619.77222446220026
 30
0.0
 11
196.89320382969359
 21
627.18222446220011
 31
0.0
  0
ARC
  5
1B564
  8
AM_0
 10
195.39143382969311
 20
621.89043446220035
 30
0.0
 40
1.5017959999999979
 50
0.0685499999989503
 51
89.931450000001036
  0
ARC
  5
1B565
  8
AM_0
 10
195.50684382969351
 20
616.85532446220043
 30
0.0
 40
1.506888
 50
14.876930000003821
 51
90.137770000000501
  0
ARC
  5
1B566
  8
AM_0
 10
198.8904538296934
 20
619.76943446220037
 30
0.0
 40
1.9972080000000001
 50
179.91986000000111
 51
270.08014299999962
  0
ARC
  5
1B567
  8
AM_0
 10
198.8896038296935
 20
621.79860446220016
 30
0.0
 40
1.996383999999999
 50
179.89615999999731
 51
270.10383699999352
  0
ARC
  5
1B568
  8
AM_0
 10
195.38935382969339
 20
618.48838446220043
 30
0.0
 40
1.503848099999999
 50
0.1464000000030374
 51
89.853599999996987
  0
ARC
  5
1B569
  8
AM_0
 10
195.38752382969329
 20
627.17655446220044
 30
0.0
 40
1.505676
 50
0.2155299999989779
 51
89.78448000000769
  0
LINE
  5
1B56A
  8
AM_0
 10
169.3932338296938
 20
666.51219446220023
 30
0.0
 11
173.67320382969339
 21
666.51219446220023
 31
0.0
  0
LINE
  5
1B56B
  8
AM_0
 10
174.8931738296935
 20
665.66220446220029
 30
0.0
 11
171.8931738296935
 21
665.66220446220029
 31
0.0
  0
LINE
  5
1B56C
  8
AM_0
 10
174.8931738296935
 20
667.66221446220038
 30
0.0
 11
171.8931738296935
 21
667.66221446220038
 31
0.0
  0
LINE
  5
1B56D
  8
AM_0
 10
174.8931738296935
 20
655.66221446220038
 30
0.0
 11
171.8931738296935
 21
655.66221446220038
 31
0.0
  0
LINE
  5
1B56E
  8
AM_0
 10
174.8931738296935
 20
657.66220446220029
 30
0.0
 11
171.8931738296935
 21
657.66220446220029
 31
0.0
  0
LINE
  5
1B56F
  8
AM_0
 10
172.70317382969341
 20
646.05218446220022
 30
0.0
 11
171.5031638296939
 21
646.56218446220021
 31
0.0
  0
LINE
  5
1B570
  8
AM_0
 10
172.75322382969361
 20
647.96220446220025
 30
0.0
 11
171.60319382969351
 21
648.31221446220025
 31
0.0
  0
LINE
  5
1B571
  8
AM_0
 10
172.65318382969349
 20
634.16220446220029
 30
0.0
 11
171.37315382969359
 21
634.93219446220007
 31
0.0
  0
LINE
  5
1B572
  8
AM_0
 10
172.6431738296935
 20
638.70224446220027
 30
0.0
 11
171.34318382969349
 21
639.55223446220009
 31
0.0
  0
LINE
  5
1B573
  8
AM_0
 10
172.6631938296934
 20
639.81222446220022
 30
0.0
 11
171.3831638296935
 21
640.56222446220011
 31
0.0
  0
LINE
  5
1B574
  8
AM_0
 10
172.68321382969381
 20
633.16217446220037
 30
0.0
 11
171.44322382969381
 21
633.79217446220025
 31
0.0
  0
LINE
  5
1B575
  8
AM_0
 10
172.67320382969339
 20
635.27218446220024
 30
0.0
 11
171.42314382969349
 21
635.94218446220009
 31
0.0
  0
LINE
  5
1B576
  8
AM_0
 10
174.8931738296935
 20
687.66220446220029
 30
0.0
 11
171.8931738296935
 21
687.66220446220029
 31
0.0
  0
LINE
  5
1B577
  8
AM_0
 10
174.8931738296935
 20
685.66221446220027
 30
0.0
 11
171.8931738296935
 21
685.66221446220027
 31
0.0
  0
LINE
  5
1B578
  8
AM_0
 10
174.8931738296935
 20
675.66220446220029
 30
0.0
 11
171.8931738296935
 21
675.66220446220029
 31
0.0
  0
LINE
  5
1B579
  8
AM_0
 10
174.8931738296935
 20
677.66220446220018
 30
0.0
 11
171.8931738296935
 21
677.66220446220018
 31
0.0
  0
LINE
  5
1B57A
  8
AM_0
 10
170.8932338296938
 20
633.64219446220022
 30
0.0
 11
170.8932338296938
 21
676.66221446220038
 31
0.0
  0
ARC
  5
1B57B
  8
AM_0
 10
171.88798382969341
 20
640.3846044622004
 30
0.0
 40
0.9948279899999999
 50
179.56186999999991
 51
236.79531000000051
  0
ARC
  5
1B57C
  8
AM_0
 10
171.88640382969331
 20
636.82077446220035
 30
0.0
 40
0.9932120399999999
 50
179.91816999999921
 51
242.2006600000102
  0
ARC
  5
1B57D
  8
AM_0
 10
171.88640382969331
 20
633.6442844622004
 30
0.0
 40
0.99319202
 50
180.1204399999996
 51
240.22660000000889
  0
ARC
  5
1B57E
  8
AM_0
 10
171.88878382969321
 20
634.6825144622004
 30
0.0
 40
0.99558806
 50
180.0177499999989
 51
243.41251000000281
  0
ARC
  5
1B57F
  8
AM_0
 10
171.88762382969341
 20
635.7832344622002
 30
0.0
 40
0.9944360299999999
 50
180.0595100000007
 51
238.84782999999391
  0
ARC
  5
1B580
  8
AM_0
 10
171.88957382969329
 20
647.48062446220035
 30
0.0
 40
0.99640006
 50
179.90960000000121
 51
247.18261000000129
  0
ARC
  5
1B581
  8
AM_0
 10
171.88725382969321
 20
641.41900446220041
 30
0.0
 40
0.99407601
 50
179.8153599999992
 51
239.53079999999869
  0
ARC
  5
1B582
  8
AM_0
 10
171.88945382969311
 20
649.26645446220027
 30
0.0
 40
0.9962600499999998
 50
179.6695099999998
 51
253.30251000000001
  0
LINE
  5
1B583
  8
AM_0
 10
169.3931738296935
 20
661.66218446220023
 30
0.0
 11
170.8931738296935
 21
661.53218446220023
 31
0.0
  0
ARC
  5
1B584
  8
AM_0
 10
171.88823382969349
 20
656.65727446220035
 30
0.0
 40
0.9950800499999999
 50
179.7159300000007
 51
270.28407899999218
  0
ARC
  5
1B585
  8
AM_0
 10
171.8933538296933
 20
656.66198446220017
 30
0.0
 40
1.0002040000000001
 50
90.011680000005796
 51
179.98832999999539
  0
ARC
  5
1B586
  8
AM_0
 10
171.88823382969349
 20
666.65729446220041
 30
0.0
 40
0.99508399
 50
179.7161299999955
 51
270.28386699999589
  0
ARC
  5
1B587
  8
AM_0
 10
171.8933538296933
 20
666.66200446220034
 30
0.0
 40
1.000199999999998
 50
90.011470000006426
 51
179.9885300000002
  0
LINE
  5
1B588
  8
AM_0
 10
169.3932338296938
 20
664.38220446220021
 30
0.0
 11
170.8932338296938
 21
664.38220446220021
 31
0.0
  0
LINE
  5
1B589
  8
AM_0
 10
168.89933382969389
 20
663.67044446220041
 30
0.0
 11
169.39933382969389
 21
663.71045446220057
 31
0.0
  0
LINE
  5
1B58A
  8
AM_0
 10
168.3993338296934
 20
666.44046446220034
 30
0.0
 11
168.89933382969389
 21
663.67044446220041
 31
0.0
  0
ARC
  5
1B58B
  8
AM_0
 10
171.88823382969349
 20
676.65727446220035
 30
0.0
 40
0.9950879799999999
 50
179.71634999999941
 51
270.28365499999057
  0
ARC
  5
1B58C
  8
AM_0
 10
171.8933538296933
 20
676.66200446220034
 30
0.0
 40
1.0001959999999981
 50
90.011259999994166
 51
179.98875000000061
  0
ARC
  5
1B58D
  8
AM_0
 10
171.88823382969349
 20
686.65727446220035
 30
0.0
 40
0.9950800499999999
 50
179.71590000000009
 51
270.28410599999069
  0
POINT
  5
1B58E
  8
AM_0
 10
168.39933382969389
 20
681.66223446220044
 30
0.0
  0
ARC
  5
1B58F
  8
AM_0
 10
171.8933538296933
 20
686.66198446220039
 30
0.0
 40
1.0002040000000001
 50
90.011699999995159
 51
179.9882999999983
  0
LINE
  5
1B590
  8
AM_0
 10
220.89320382969359
 20
635.31223446220042
 30
0.0
 11
185.89320382969359
 21
637.34223446220039
 31
0.0
  0
ARC
  5
1B591
  8
AM_0
 10
197.8932038296935
 20
646.66222446220036
 30
0.0
 40
1.0000040999999991
 50
90.0
 51
269.99999700000228
  0
ARC
  5
1B592
  8
AM_0
 10
190.4432538296933
 20
646.66222446220036
 30
0.0
 40
1.0000040999999991
 50
90.0
 51
269.99999700000228
  0
ARC
  5
1B593
  8
AM_0
 10
189.57319382969311
 20
646.61722446220017
 30
0.0
 40
1.6750081000000001
 50
90.0
 51
269.99999700000228
  0
LINE
  5
1B594
  8
AM_0
 10
175.8932038296937
 20
647.35222446220041
 30
0.0
 11
185.89320382969359
 21
647.35222446220041
 31
0.0
  0
LINE
  5
1B595
  8
AM_0
 10
175.8932038296937
 20
633.31223446220042
 30
0.0
 11
185.89320382969359
 21
633.31223446220042
 31
0.0
  0
LINE
  5
1B596
  8
AM_0
 10
175.8932038296937
 20
638.97222446220007
 30
0.0
 11
185.89320382969359
 21
638.97222446220007
 31
0.0
  0
ARC
  5
1B597
  8
AM_0
 10
174.89079382969339
 20
640.67457446220044
 30
0.0
 40
1.002375999999999
 50
270.1355900000006
 51
359.86440800999611
  0
ARC
  5
1B598
  8
AM_0
 10
173.1282838296934
 20
636.15756446220018
 30
0.0
 40
0.99546796
 50
242.7963399999943
 51
270.8585519999919
  0
ARC
  5
1B599
  8
AM_0
 10
174.8942138296934
 20
636.16121446220041
 30
0.0
 40
0.9990080599999998
 50
269.94315700000391
 51
0.0568500000028305
  0
LINE
  5
1B59A
  8
AM_0
 10
173.1432338296938
 20
635.16220446220018
 30
0.0
 11
174.8931738296935
 21
635.16220446220018
 31
0.0
  0
ARC
  5
1B59B
  8
AM_0
 10
173.19981382969351
 20
639.52839446220025
 30
0.0
 40
0.9962120099999999
 50
236.03009999999921
 51
269.61809399999157
  0
ARC
  5
1B59C
  8
AM_0
 10
173.17259382969311
 20
640.66868446220019
 30
0.0
 40
0.9965200400000001
 50
239.25671999999781
 51
269.45878700000702
  0
LINE
  5
1B59D
  8
AM_0
 10
173.19322382969381
 20
638.53219446220021
 30
0.0
 11
175.8931738296935
 21
638.53219446220021
 31
0.0
  0
LINE
  5
1B59E
  8
AM_0
 10
173.1631938296934
 20
639.67221446220015
 30
0.0
 11
174.8931738296935
 21
639.67221446220015
 31
0.0
  0
LINE
  5
1B59F
  8
AM_0
 10
172.8931738296935
 20
638.83221446220011
 30
0.0
 11
172.8931738296935
 21
639.30220446220028
 31
0.0
  0
ARC
  5
1B5A0
  8
AM_0
 10
173.11796382969351
 20
634.05623446220045
 30
0.0
 40
0.9941280500000002
 50
244.0651900000021
 51
270.87719199999151
  0
ARC
  5
1B5A1
  8
AM_0
 10
173.1620338296934
 20
635.0164044622004
 30
0.0
 40
0.9942600099999999
 50
239.21891000000329
 51
270.6441179999976
  0
ARC
  5
1B5A2
  8
AM_0
 10
175.39482382969339
 20
633.56056446220043
 30
0.0
 40
0.4983640000000002
 50
269.8114019999926
 51
0.1885900000048846
  0
LINE
  5
1B5A3
  8
AM_0
 10
173.17320382969339
 20
634.02221446220028
 30
0.0
 11
175.8931738296935
 21
634.02221446220028
 31
0.0
  0
LINE
  5
1B5A4
  8
AM_0
 10
173.1331638296935
 20
633.06221446220036
 30
0.0
 11
175.3932338296938
 21
633.06221446220036
 31
0.0
  0
LINE
  5
1B5A5
  8
AM_0
 10
172.8931738296935
 20
634.26219446220023
 30
0.0
 11
172.8931738296935
 21
634.81219446220018
 31
0.0
  0
ARC
  5
1B5A6
  8
AM_0
 10
173.09416382969351
 20
646.9676844622004
 30
0.0
 40
0.99548006
 50
246.87297000000439
 51
269.9426790000079
  0
ARC
  5
1B5A7
  8
AM_0
 10
175.18864382969329
 20
645.26765446220043
 30
0.0
 40
0.7045519900000002
 50
0.3691099999995284
 51
89.630890000007057
  0
LINE
  5
1B5A8
  8
AM_0
 10
173.09318382969349
 20
645.97220446220035
 30
0.0
 11
175.1931638296935
 21
645.97220446220035
 31
0.0
  0
LINE
  5
1B5A9
  8
AM_0
 10
172.8931738296935
 20
646.27220446220019
 30
0.0
 11
172.8931738296935
 21
647.33220446220025
 31
0.0
  0
ARC
  5
1B5AA
  8
AM_0
 10
189.04310382969339
 20
640.45206446220016
 30
0.0
 40
1.004135999999999
 50
314.20256399999818
 51
5.1511600000038982
  0
LINE
  5
1B5AB
  8
AM_0
 10
185.89320382969359
 20
633.31223446220042
 30
0.0
 11
185.89320382969359
 21
647.35222446220041
 31
0.0
  0
ARC
  5
1B5AC
  8
AM_0
 10
185.51441382969321
 20
643.99416446220027
 30
0.0
 40
6.0039081999999979
 50
273.61728599999782
 51
314.77630700000287
  0
ARC
  5
1B5AD
  8
AM_0
 10
185.05811382969341
 20
640.06444446220019
 30
0.0
 40
5.0078917000000001
 50
5.474679999999478
 51
80.401280000005286
  0
ARC
  5
1B5AE
  8
AM_0
 10
174.88829382969331
 20
654.65729446220041
 30
0.0
 40
1.0049318999999981
 50
0.280419999996937
 51
89.719580000003077
  0
ARC
  5
1B5AF
  8
AM_0
 10
173.03233382969341
 20
648.9149144622005
 30
0.0
 40
0.99277198
 50
253.66818000000049
 51
270.62519199999991
  0
ARC
  5
1B5B0
  8
AM_0
 10
174.8948838296933
 20
648.92050446220026
 30
0.0
 40
0.99829602
 50
269.90203900000103
 51
0.0979600000026082
  0
LINE
  5
1B5B1
  8
AM_0
 10
173.04320382969371
 20
647.92221446220037
 30
0.0
 11
174.8931738296935
 21
647.92221446220037
 31
0.0
  0
LINE
  5
1B5B2
  8
AM_0
 10
172.8931738296935
 20
656.03219446220021
 30
0.0
 11
172.8931738296935
 21
657.40219446220021
 31
0.0
  0
ARC
  5
1B5B3
  8
AM_0
 10
174.8933538296933
 20
658.66205446220044
 30
0.0
 40
0.99985206
 50
269.99145300000441
 51
0.0085499999998362
  0
ARC
  5
1B5B4
  8
AM_0
 10
189.35322382969341
 20
656.6372144622004
 30
0.0
 40
1.4650000000000001
 50
90.0
 51
269.99999700000228
  0
ARC
  5
1B5B5
  8
AM_0
 10
190.4432538296933
 20
656.66222446220047
 30
0.0
 40
1.0000040999999991
 50
90.0
 51
269.99999700000228
  0
ARC
  5
1B5B6
  8
AM_0
 10
197.8932038296935
 20
656.66222446220047
 30
0.0
 40
1.0000040999999991
 50
90.0
 51
269.99999700000228
  0
ARC
  5
1B5B7
  8
ｶｸﾚｾﾝ2
 10
226.39317382969341
 20
653.16220446220041
 30
0.0
 40
3.0
 50
180.0
 51
270.0
  0
ARC
  5
1B5B8
  8
AM_0
 10
174.8933538296933
 20
678.66205446220044
 30
0.0
 40
0.99984801
 50
269.99122100000187
 51
0.0087799999995219
  0
ARC
  5
1B5B9
  8
AM_0
 10
180.22321382969309
 20
666.6522144622005
 30
0.0
 40
1.3300000000000001
 50
90.0
 51
269.99999700000228
  0
ARC
  5
1B5BA
  8
AM_0
 10
174.8933538296933
 20
668.66206446220042
 30
0.0
 40
0.9998440099999999
 50
269.9910090000015
 51
0.0089899999971532
  0
LINE
  5
1B5BB
  8
AM_0
 10
172.8931738296935
 20
666.05221446220025
 30
0.0
 11
172.8931738296935
 21
667.26219446220023
 31
0.0
  0
ARC
  5
1B5BC
  8
AM_0
 10
174.88829382969331
 20
664.65729446220041
 30
0.0
 40
1.004928
 50
0.2802199999997334
 51
89.719780000006736
  0
ARC
  5
1B5BD
  8
AM_0
 10
181.44453382969311
 20
666.66220446220052
 30
0.0
 40
1.000035999999999
 50
89.500710000004958
 51
270.49928399999339
  0
ARC
  5
1B5BE
  8
AM_0
 10
180.16322382969341
 20
676.65723446220022
 30
0.0
 40
1.265004
 50
90.0
 51
269.99999700000228
  0
LINE
  5
1B5BF
  8
AM_0
 10
172.8931738296935
 20
676.05220446220017
 30
0.0
 11
172.8931738296935
 21
677.2122244622002
 31
0.0
  0
ARC
  5
1B5C0
  8
AM_0
 10
174.88829382969331
 20
674.65730446220016
 30
0.0
 40
1.0049238999999981
 50
0.2800099999963468
 51
89.719989999997168
  0
ARC
  5
1B5C1
  8
AM_0
 10
181.44453382969311
 20
676.66222446220047
 30
0.0
 40
1.000035999999999
 50
89.500710000004958
 51
270.49928399999339
  0
ARC
  5
1B5C2
  8
AM_0
 10
197.8932038296935
 20
666.66220446220052
 30
0.0
 40
1.0000040999999991
 50
90.0
 51
269.99999700000228
  0
ARC
  5
1B5C3
  8
AM_0
 10
197.8932038296935
 20
676.66222446220047
 30
0.0
 40
1.0000040999999991
 50
90.0
 51
269.99999700000228
  0
ARC
  5
1B5C4
  8
AM_0
 10
181.44453382969311
 20
686.66222446220036
 30
0.0
 40
1.000035999999999
 50
89.500710000004958
 51
270.49928399999339
  0
ARC
  5
1B5C5
  8
AM_0
 10
174.88823382969349
 20
684.65728446220044
 30
0.0
 40
1.0049318999999981
 50
0.2804500000010179
 51
89.719550000005526
  0
ARC
  5
1B5C6
  8
AM_0
 10
180.16322382969341
 20
686.66222446220036
 30
0.0
 40
1.270003999999999
 50
90.0
 51
269.99999700000228
  0
LINE
  5
1B5C7
  8
AM_0
 10
172.8931738296935
 20
687.27221446220017
 30
0.0
 11
172.8931738296935
 21
686.11219446220025
 31
0.0
  0
ARC
  5
1B5C8
  8
AM_0
 10
174.8933538296933
 20
688.66205446220044
 30
0.0
 40
0.99985206
 50
269.9914259999988
 51
0.0085700000020505
  0
ARC
  5
1B5C9
  8
AM_0
 10
197.8932038296935
 20
686.66222446220036
 30
0.0
 40
1.0000040999999991
 50
90.0
 51
269.99999700000228
  0
LINE
  5
1B5CA
  8
AM_0
 10
172.6631938296934
 20
731.27217346220027
 30
0.0
 11
171.3931738296935
 21
730.54217746220036
 31
0.0
  0
LINE
  5
1B5CB
  8
AM_0
 10
172.6831538296934
 20
730.15217846220025
 30
0.0
 11
171.4431638296935
 21
729.52218046220025
 31
0.0
  0
LINE
  5
1B5CC
  8
AM_0
 10
172.6431738296935
 20
724.62219446220035
 30
0.0
 11
171.34318382969349
 21
723.77218846220035
 31
0.0
  0
LINE
  5
1B5CD
  8
AM_0
 10
172.65318382969349
 20
729.16217246220037
 30
0.0
 11
171.37315382969359
 21
728.39216046220031
 31
0.0
  0
LINE
  5
1B5CE
  8
AM_0
 10
172.6631938296934
 20
723.51218646220025
 30
0.0
 11
171.3832238296938
 21
722.76220146220032
 31
0.0
  0
LINE
  5
1B5CF
  8
AM_0
 10
172.67320382969339
 20
728.04220746220017
 30
0.0
 11
171.42320382969339
 21
727.38221946220017
 31
0.0
  0
LINE
  5
1B5D0
  8
AM_0
 10
172.70317382969341
 20
717.27218046220025
 30
0.0
 11
171.50322382969361
 21
716.7522144622003
 31
0.0
  0
LINE
  5
1B5D1
  8
AM_0
 10
172.75322382969361
 20
715.36218446220016
 30
0.0
 11
171.60319382969351
 21
715.00218446220026
 31
0.0
  0
LINE
  5
1B5D2
  8
AM_0
 10
169.3932338296938
 20
696.81221446220025
 30
0.0
 11
173.9731938296938
 21
696.81221446220025
 31
0.0
  0
LINE
  5
1B5D3
  8
AM_0
 10
174.8931738296935
 20
707.66219446220032
 30
0.0
 11
171.8931738296935
 21
707.66219446220032
 31
0.0
  0
LINE
  5
1B5D4
  8
AM_0
 10
174.8931738296935
 20
705.66220446220018
 30
0.0
 11
171.8931738296935
 21
705.66220446220018
 31
0.0
  0
LINE
  5
1B5D5
  8
AM_0
 10
174.8931738296935
 20
697.66221446220027
 30
0.0
 11
171.8931738296935
 21
697.66221446220027
 31
0.0
  0
LINE
  5
1B5D6
  8
AM_0
 10
174.8931738296935
 20
695.66219446220032
 30
0.0
 11
171.8931738296935
 21
695.66219446220032
 31
0.0
  0
LINE
  5
1B5D7
  8
AM_0
 10
169.3932338296938
 20
698.94220446220027
 30
0.0
 11
170.8932338296938
 21
698.94220446220027
 31
0.0
  0
LINE
  5
1B5D8
  8
AM_0
 10
168.89933382969389
 20
699.65405446220063
 30
0.0
 11
169.39936382969361
 21
699.61404446220035
 31
0.0
  0
ARC
  5
1B5D9
  8
AM_0
 10
171.8933538296933
 20
696.66199446220048
 30
0.0
 40
1.000199999999998
 50
90.011489999995774
 51
179.98849999999649
  0
LINE
  5
1B5DA
  8
AM_0
 10
168.3993338296934
 20
696.88406446220051
 30
0.0
 11
168.89933382969389
 21
699.65405446220063
 31
0.0
  0
ARC
  5
1B5DB
  8
AM_0
 10
171.88823382969349
 20
696.65728446220032
 30
0.0
 40
0.99508399
 50
179.716110000002
 51
270.28389399999401
  0
ARC
  5
1B5DC
  8
AM_0
 10
171.8933538296933
 20
706.66200446220046
 30
0.0
 40
1.0001959999999981
 50
90.011279999996532
 51
179.9887199999969
  0
ARC
  5
1B5DD
  8
AM_0
 10
171.88823382969349
 20
706.65726446220049
 30
0.0
 40
0.99508399
 50
179.71632000000011
 51
270.2836759999974
  0
LINE
  5
1B5DE
  8
AM_0
 10
169.3932338296938
 20
701.66220446220018
 30
0.0
 11
170.8931738296935
 21
701.79220446220029
 31
0.0
  0
ARC
  5
1B5DF
  8
AM_0
 10
171.88969382969341
 20
715.83373446220037
 30
0.0
 40
0.9964760499999998
 50
112.82034
 51
180.08741999999921
  0
ARC
  5
1B5E0
  8
AM_0
 10
171.88957382969329
 20
714.04786146220033
 30
0.0
 40
0.9963800299999999
 50
106.7029300000048
 51
179.75050999999979
  0
ARC
  5
1B5E1
  8
AM_0
 10
171.89226382969349
 20
722.93751746220028
 30
0.0
 40
0.9991000299999999
 50
123.3382300000103
 51
180.30457999999891
  0
ARC
  5
1B5E2
  8
AM_0
 10
171.8916538296935
 20
721.90290246220025
 30
0.0
 40
0.9984599899999999
 50
120.61344999999829
 51
180.04038000000051
  0
ARC
  5
1B5E3
  8
AM_0
 10
171.8909138296934
 20
726.50091046220018
 30
0.0
 40
0.99770796
 50
117.95524000000469
 51
179.92595000000051
  0
ARC
  5
1B5E4
  8
AM_0
 10
171.88884382969351
 20
728.63184546220032
 30
0.0
 40
0.99566799
 50
116.5901699999926
 51
179.97956999999909
  0
ARC
  5
1B5E5
  8
AM_0
 10
171.89079382969339
 20
729.67753846220035
 30
0.0
 40
0.9976240400000001
 50
119.9204600000018
 51
179.73248999999601
  0
ARC
  5
1B5E6
  8
AM_0
 10
171.89195382969319
 20
727.53870646220037
 30
0.0
 40
0.9987800700000001
 50
121.29145000000671
 51
180.3733299999999
  0
ARC
  5
1B5E7
  8
AM_0
 10
185.5234538296931
 20
719.31571446220016
 30
0.0
 40
6.007896399999999
 50
45.382730000005672
 51
86.471550000001685
  0
LINE
  5
1B5E8
  8
AM_0
 10
185.89320382969359
 20
730.01221446220029
 30
0.0
 11
185.89320382969359
 21
718.32221407433178
 31
0.0
  0
ARC
  5
1B5E9
  8
AM_0
 10
174.8933538296933
 20
708.66204446220036
 30
0.0
 40
0.99984801
 50
269.99119300000132
 51
0.0088100000029634
  0
ARC
  5
1B5EA
  8
AM_0
 10
180.22321382969309
 20
696.67220446220051
 30
0.0
 40
1.3300000000000001
 50
90.0
 51
269.99999700000228
  0
LINE
  5
1B5EB
  8
AM_0
 10
172.8931738296935
 20
697.27219446220033
 30
0.0
 11
172.8931738296935
 21
696.05221446220037
 31
0.0
  0
ARC
  5
1B5EC
  8
AM_0
 10
174.8933538296933
 20
698.66205446220033
 30
0.0
 40
0.9998440099999999
 50
269.99098200000878
 51
0.0090200000005147
  0
ARC
  5
1B5ED
  8
AM_0
 10
174.88829382969331
 20
694.6572944622003
 30
0.0
 40
1.004928
 50
0.2802399999999494
 51
89.719760000000036
  0
ARC
  5
1B5EE
  8
AM_0
 10
181.44453382969311
 20
696.66220446220052
 30
0.0
 40
1.000035999999999
 50
89.500710000004958
 51
270.49928399999339
  0
ARC
  5
1B5EF
  8
AM_0
 10
180.35322382969341
 20
706.68222446220034
 30
0.0
 40
1.4599999999999991
 50
90.0
 51
269.99999700000228
  0
LINE
  5
1B5F0
  8
AM_0
 10
172.8931738296935
 20
707.29220446220029
 30
0.0
 11
172.8931738296935
 21
705.92221446220037
 31
0.0
  0
ARC
  5
1B5F1
  8
AM_0
 10
174.88829382969331
 20
704.6572944622003
 30
0.0
 40
1.0049238999999981
 50
0.2800299999961631
 51
89.719960000000682
  0
ARC
  5
1B5F2
  8
AM_0
 10
181.4432538296933
 20
706.66221446220015
 30
0.0
 40
1.0000040999999991
 50
90.0
 51
269.99999700000228
  0
ARC
  5
1B5F3
  8
AM_0
 10
197.8932038296935
 20
696.66220446220052
 30
0.0
 40
1.0000040999999991
 50
90.0
 51
269.99999700000228
  0
ARC
  5
1B5F4
  8
AM_0
 10
197.8932038296935
 20
706.66221446220015
 30
0.0
 40
1.0000040999999991
 50
90.0
 51
269.99999700000228
  0
ARC
  5
1B5F5
  8
AM_0
 10
181.44325645961499
 20
716.66222151220029
 30
0.0
 40
1.000007050003423
 50
90.000150682346131
 51
269.99984931765391
  0
LINE
  5
1B5F6
  8
AM_0
 10
172.8931738296935
 20
717.05221046220015
 30
0.0
 11
172.8931738296935
 21
715.99221246220031
 31
0.0
  0
ARC
  5
1B5F7
  8
AM_0
 10
180.57319382969311
 20
716.70722446220043
 30
0.0
 40
1.6750081000000001
 50
90.0
 51
269.99999700000228
  0
LINE
  5
1B5F8
  8
AM_0
 10
175.8932038296937
 20
715.96221446220034
 30
0.0
 11
179.06324382969359
 21
715.96221446220034
 31
0.0
  0
ARC
  5
1B5F9
  8
AM_0
 10
174.88988382969319
 20
714.39885146220035
 30
0.0
 40
1.003363999999999
 50
0.1917200000035901
 51
89.808290000007787
  0
ARC
  5
1B5FA
  8
AM_0
 10
173.03374382969329
 20
714.39951546220016
 30
0.0
 40
1.0027280000000001
 50
89.459599999994069
 51
106.2470299999982
  0
LINE
  5
1B5FB
  8
AM_0
 10
173.04320382969371
 20
715.40220046220031
 30
0.0
 11
174.8931738296935
 21
715.40220046220031
 31
0.0
  0
ARC
  5
1B5FC
  8
AM_0
 10
173.15654382969339
 20
722.64120646220033
 30
0.0
 40
1.001012
 50
89.619799999989866
 51
119.52863999999251
  0
ARC
  5
1B5FD
  8
AM_0
 10
174.89073382969309
 20
722.63974246220016
 30
0.0
 40
1.0024599999999999
 50
0.1403800000055
 51
89.859620000007524
  0
LINE
  5
1B5FE
  8
AM_0
 10
173.1631938296934
 20
723.64219846220033
 30
0.0
 11
174.8931738296935
 21
723.64219846220033
 31
0.0
  0
ARC
  5
1B5FF
  8
AM_0
 10
175.1937738296933
 20
718.05164546220033
 30
0.0
 40
0.69944
 50
269.95415999999341
 51
0.0458400000001724
  0
ARC
  5
1B600
  8
AM_0
 10
173.0961738296931
 20
716.34697946220035
 30
0.0
 40
1.005223999999999
 50
90.170639999996354
 51
113.01371000000169
  0
LINE
  5
1B601
  8
AM_0
 10
173.09318382969349
 20
717.35220546220035
 30
0.0
 11
175.1931638296935
 21
717.35220546220035
 31
0.0
  0
ARC
  5
1B602
  8
AM_0
 10
197.8932038296935
 20
716.66222446220036
 30
0.0
 40
1.0000040999999991
 50
90.0
 51
269.99999700000228
  0
ARC
  5
1B603
  8
AM_0
 10
189.03974382969321
 20
722.87112446220044
 30
0.0
 40
1.007376
 50
354.93659510000271
 51
45.70967999999759
  0
ARC
  5
1B604
  8
AM_0
 10
185.06342382969339
 20
723.2550944622003
 30
0.0
 40
5.0021839000000003
 50
279.54857499999832
 51
354.57547400000232
  0
ARC
  5
1B605
  8
ｶｸﾚｾﾝ2
 10
226.39317382969341
 20
710.16220446220018
 30
0.0
 40
3.0
 50
90.0
 51
180.0
  0
LINE
  5
1B606
  8
AM_0
 10
220.8932638296935
 20
728.01221446220018
 30
0.0
 11
185.8932638296935
 21
725.98221446220032
 31
0.0
  0
LINE
  5
1B607
  8
AM_0
 10
196.89320382969359
 20
743.55222246220035
 30
0.0
 11
196.89320382969359
 21
736.14221946220027
 31
0.0
  0
ARC
  5
1B608
  8
AM_0
 10
182.06513382969339
 20
737.92651346220032
 30
0.0
 40
1.995695899999999
 50
90.05521999999722
 51
167.97747000000001
  0
LINE
  5
1B609
  8
AM_0
 10
175.8932038296937
 20
739.09222346220031
 30
0.0
 11
178.7132038296937
 21
739.16222346220025
 31
0.0
  0
ARC
  5
1B60A
  8
AM_0
 10
177.7281638296931
 20
740.28399646220032
 30
0.0
 40
1.501779999999999
 50
269.81061700000743
 51
345.66716399999922
  0
LINE
  5
1B60B
  8
AM_0
 10
180.08320382969359
 20
741.79222846220034
 30
0.0
 11
179.1631638296937
 21
737.91223146220034
 31
0.0
  0
LINE
  5
1B60C
  8
AM_0
 10
182.1231838296936
 20
734.64221946220016
 30
0.0
 11
195.39320382969359
 21
734.64221946220016
 31
0.0
  0
LINE
  5
1B60D
  8
AM_0
 10
175.8932038296937
 20
730.01221446220029
 30
0.0
 11
185.89320382969359
 21
730.01221446220029
 31
0.0
  0
LINE
  5
1B60E
  8
AM_0
 10
175.8932038296937
 20
724.35221446220032
 30
0.0
 11
185.89320382969359
 21
724.35221446220032
 31
0.0
  0
LINE
  5
1B60F
  8
AM_0
 10
179.6132338296936
 20
730.01221446220029
 30
0.0
 11
180.1532738296934
 21
733.00223546220025
 31
0.0
  0
ARC
  5
1B610
  8
AM_0
 10
175.39360382969329
 20
731.91176846220026
 30
0.0
 40
0.49955601
 50
269.94910599999588
 51
0.0508899999969081
  0
ARC
  5
1B611
  8
AM_0
 10
173.17387382969309
 20
730.41112746220028
 30
0.0
 40
1.001135899999998
 50
90.61249000000069
 51
120.67200000000349
  0
ARC
  5
1B612
  8
AM_0
 10
173.13902382969309
 20
729.26294146220027
 30
0.0
 40
0.99928796
 50
90.333809999992155
 51
117.1387299999958
  0
ARC
  5
1B613
  8
AM_0
 10
175.38975382969329
 20
729.75881446220035
 30
0.0
 40
0.50340396
 50
0.3861300000047318
 51
89.613869999995245
  0
LINE
  5
1B614
  8
AM_0
 10
173.1631938296934
 20
731.41221046220016
 30
0.0
 11
175.3932338296938
 21
731.41221046220016
 31
0.0
  0
LINE
  5
1B615
  8
AM_0
 10
173.1331638296935
 20
730.26219346220034
 30
0.0
 11
175.3932338296938
 21
730.26219346220034
 31
0.0
  0
LINE
  5
1B616
  8
AM_0
 10
172.8931738296935
 20
731.16220346220018
 30
0.0
 11
172.8931738296935
 21
730.63220446220032
 31
0.0
  0
ARC
  5
1B617
  8
AM_0
 10
173.1645338296934
 20
728.2985474622003
 30
0.0
 40
1.003687999999999
 50
89.5072500000025
 51
120.6297299999936
  0
LINE
  5
1B618
  8
AM_0
 10
173.17320382969339
 20
729.3021944622003
 30
0.0
 11
175.8931738296935
 21
729.3021944622003
 31
0.0
  0
LINE
  5
1B619
  8
AM_0
 10
173.1432338296938
 20
728.1622034622003
 30
0.0
 11
174.8931738296935
 21
728.1622034622003
 31
0.0
  0
LINE
  5
1B61A
  8
AM_0
 10
172.8931738296935
 20
729.06221246220036
 30
0.0
 11
172.8931738296935
 21
728.51220946220019
 31
0.0
  0
ARC
  5
1B61B
  8
AM_0
 10
173.1483638296931
 20
727.16157746220017
 30
0.0
 40
1.0006280000000001
 50
90.295290000000691
 51
118.35013999999779
  0
ARC
  5
1B61C
  8
AM_0
 10
174.88914382969321
 20
727.15812146220037
 30
0.0
 40
1.004083999999998
 50
0.2326300000036064
 51
89.76736999999639
  0
ARC
  5
1B61D
  8
AM_0
 10
173.18596382969309
 20
723.78170246220031
 30
0.0
 40
1.0005360000000001
 50
89.586779999997887
 51
122.8536000000062
  0
LINE
  5
1B61E
  8
AM_0
 10
173.19322382969381
 20
724.78221346220016
 30
0.0
 11
175.8931738296935
 21
724.78221346220016
 31
0.0
  0
LINE
  5
1B61F
  8
AM_0
 10
172.8931738296935
 20
724.49219746220035
 30
0.0
 11
172.8931738296935
 21
724.02221146220018
 31
0.0
  0
LINE
  5
1B620
  8
AM_0
 10
177.7232138296938
 20
738.78221146220028
 30
0.0
 11
179.37324382969359
 21
738.78221146220028
 31
0.0
  0
LINE
  5
1B621
  8
AM_0
 10
177.70319382969339
 20
736.76221446220029
 30
0.0
 11
179.76319382969379
 21
736.76221446220029
 31
0.0
  0
ARC
  5
1B622
  8
AM_0
 10
177.70753382969309
 20
738.25855246220056
 30
0.0
 40
1.4963319999999991
 50
269.83540999999269
 51
346.617561999999
  0
LINE
  5
1B623
  8
AM_0
 10
177.68317382969349
 20
732.69221446220035
 30
0.0
 11
180.1032238296936
 21
732.69221446220035
 31
0.0
  0
ARC
  5
1B624
  8
AM_0
 10
177.68336382969349
 20
734.19500746220035
 30
0.0
 40
1.5027881000000001
 50
269.99533199999661
 51
347.98665799999719
  0
ARC
  5
1B625
  8
AM_0
 10
182.12019382969311
 20
732.64259346220035
 30
0.0
 40
1.9996280999999989
 50
89.914669999993549
 51
169.63923999999841
  0
LINE
  5
1B626
  8
AM_0
 10
180.1132338296936
 20
738.34222346220031
 30
0.0
 11
179.15321382969361
 21
733.88220946220031
 31
0.0
  0
ARC
  5
1B627
  8
AM_0
 10
195.3928338296933
 20
736.14258546220026
 30
0.0
 40
1.5003600999999991
 50
270.01381500000002
 51
359.98618399999862
  0
LINE
  5
1B628
  8
AM_0
 10
182.03321382969369
 20
743.33222146220032
 30
0.0
 11
195.39320382969359
 21
743.33222146220032
 31
0.0
  0
LINE
  5
1B629
  8
AM_0
 10
182.0031838296938
 20
744.96222646220031
 30
0.0
 11
195.5031838296938
 21
744.96222646220031
 31
0.0
  0
LINE
  5
1B62A
  8
AM_0
 10
182.06324382969359
 20
739.92222546220034
 30
0.0
 11
195.39320382969359
 21
739.92222546220034
 31
0.0
  0
ARC
  5
1B62B
  8
AM_0
 10
182.03114382969309
 20
741.33028346220055
 30
0.0
 40
2.001947899999998
 50
89.940519999992446
 51
166.65886000000151
  0
ARC
  5
1B62C
  8
AM_0
 10
182.00562382969341
 20
742.95790846220029
 30
0.0
 40
2.0043239999999991
 50
90.068909999994617
 51
165.72194999999931
  0
LINE
  5
1B62D
  8
AM_0
 10
180.06324382969359
 20
743.45220946220024
 30
0.0
 11
179.18324382969351
 21
739.91220846220017
 31
0.0
  0
ARC
  5
1B62E
  8
AM_0
 10
198.8943038296934
 20
745.5757904622003
 30
0.0
 40
1.996427999999999
 50
90.032389999995445
 51
165.30537000000089
  0
ARC
  5
1B62F
  8
AM_0
 10
198.8930138296933
 20
744.90239646220027
 30
0.0
 40
1.999824
 50
89.994940000005315
 51
180.00506000000121
  0
ARC
  5
1B630
  8
AM_0
 10
195.3946038296931
 20
744.83077946220033
 30
0.0
 40
1.498559999999999
 50
269.94488499999687
 51
0.0551199999994179
  0
ARC
  5
1B631
  8
AM_0
 10
198.89570382969359
 20
743.54970546220034
 30
0.0
 40
2.0025157999999981
 50
90.071899999999786
 51
179.9281000000002
  0
ARC
  5
1B632
  8
AM_0
 10
195.51191382969321
 20
746.46250146220052
 30
0.0
 40
1.5003120000000001
 50
269.6683369999925
 51
345.31696600000072
  0
ARC
  5
1B633
  8
AM_0
 10
195.3916738296935
 20
741.42373646220051
 30
0.0
 40
1.5015080999999979
 50
270.05754899999692
 51
359.94245300200021
  0
ARC
  5
1B634
  8
AM_0
 10
198.8948438296934
 20
741.52057646220032
 30
0.0
 40
2.001640099999999
 50
90.046959999991643
 51
179.95303999999521
  0
LINE
  5
1B635
  8
ｶｸﾚｾﾝ2
 10
303.39317382969352
 20
710.16220446220018
 30
0.0
 11
303.39317382969352
 21
653.16220446220029
 31
0.0
  0
LINE
  5
1B636
  8
ﾁｭｳｼﾝｾﾝ1
 10
271.89317382969352
 20
647.16220446220018
 30
0.0
 11
271.89317382969352
 21
716.16220446220029
 31
0.0
1001
GENIUS_GENODEF_13
1002
{
1000
HIER
1070
     0
1002
}
1002
{
1000
MANEDIT
1070
     0
1002
}
1002
{
1000
NOSEL
1070
     0
1002
}
1002
{
1000
BEHIND
1070
     0
1002
}
1002
{
1000
REACTOR
1002
}
1001
GENIUS_GENOBJ-N-CEN_13
1002
{
1000
OWNER
1000
GEN
1002
}
  0
LINE
  5
1B637
  8
AM_0
 10
322.89320382969362
 20
618.66220946220005
 30
0.0
 11
322.89320384588632
 21
744.66217843803474
 31
0.0
  0
LINE
  5
1B638
  8
AM_0
 10
317.6332238296938
 20
621.28221446220016
 30
0.0
 11
321.09321382969358
 21
634.20223446220018
 31
0.0
  0
ARC
  5
1B639
  8
AM_0
 10
251.89259382969351
 20
617.74283446220045
 30
0.0
 40
2.000623899999999
 50
270.01782400000212
 51
359.98217599900119
  0
ARC
  5
1B63A
  8
AM_0
 10
251.89613382969321
 20
618.41930446220067
 30
0.0
 40
1.9970881
 50
269.91637499999922
 51
0.0836200000014831
  0
ARC
  5
1B63B
  8
AM_0
 10
251.89344382969341
 20
619.77195446220026
 30
0.0
 40
1.9997199999999991
 50
269.99193799999318
 51
0.0080600000039777
  0
LINE
  5
1B63C
  8
AM_0
 10
253.89320382969359
 20
617.74222446220017
 30
0.0
 11
253.89320382969359
 21
619.80222446220023
 31
0.0
  0
LINE
  5
1B63D
  8
AM_0
 10
322.60322382969372
 20
630.62223446220025
 30
0.0
 11
320.19322382969369
 21
630.62223446220025
 31
0.0
  0
ARC
  5
1B63E
  8
AM_0
 10
322.59904382969358
 20
629.12174446220024
 30
0.0
 40
1.500475999999999
 50
89.841720000000265
 51
167.66777000000121
  0
LINE
  5
1B63F
  8
AM_0
 10
317.6031938296934
 20
621.16222446220024
 30
0.0
 11
322.89320382969362
 21
621.16222446220024
 31
0.0
  0
LINE
  5
1B640
  8
AM_0
 10
319.70319382969382
 20
622.74218446220027
 30
0.0
 11
321.14320382969362
 21
629.44217446220023
 31
0.0
  0
ARC
  5
1B641
  8
AM_0
 10
317.74766382969352
 20
623.1623944622005
 30
0.0
 40
2.0001799999999981
 50
269.87248499999549
 51
347.8736480000029
  0
ARC
  5
1B642
  8
AM_0
 10
315.70365382969351
 20
621.80002446220044
 30
0.0
 40
1.997795899999999
 50
269.98641899999637
 51
344.9784029999978
  0
LINE
  5
1B643
  8
AM_0
 10
323.89320382969362
 20
617.66220946220005
 30
0.0
 11
331.89323382969383
 21
617.66220946220005
 31
0.0
  0
ARC
  5
1B644
  8
AM_0
 10
323.8882538296935
 20
618.65724946220007
 30
0.0
 40
0.9950640200000001
 50
179.714940000002
 51
270.2850619999931
  0
LINE
  5
1B645
  8
AM_0
 10
323.89320382969362
 20
629.62221446220042
 30
0.0
 11
331.89323382969383
 21
629.62221446220042
 31
0.0
  0
ARC
  5
1B646
  8
AM_0
 10
323.88761382969329
 20
630.61660446220037
 30
0.0
 40
0.9944000200000001
 50
179.6764900000021
 51
270.32350899999352
  0
ARC
  5
1B647
  8
ｶｸﾚｾﾝ2
 10
300.3931738296933
 20
653.16220446220029
 30
0.0
 40
3.0
 50
270.0
 51
0.0
  0
ARC
  5
1B648
  8
AM_0
 10
316.23502382969309
 20
646.66222446220036
 30
0.0
 40
1.000031899999998
 50
270.46929999999787
 51
89.530700000002156
  0
ARC
  5
1B649
  8
AM_0
 10
319.71320382969321
 20
646.61722446220017
 30
0.0
 40
1.675
 50
269.99999700000228
 51
90.0
  0
ARC
  5
1B64A
  8
AM_0
 10
322.5434738296936
 20
633.80982446220025
 30
0.0
 40
1.502391899999999
 50
90.009359999993535
 51
164.85999000000021
  0
LINE
  5
1B64B
  8
AM_0
 10
322.89320382969362
 20
644.51221446220018
 30
0.0
 11
331.89323382969383
 21
644.51221446220018
 31
0.0
  0
ARC
  5
1B64C
  8
AM_0
 10
319.92321382969351
 20
656.6372144622004
 30
0.0
 40
1.4650000000000001
 50
270.00000299999761
 51
90.0
  0
ARC
  5
1B64D
  8
AM_0
 10
318.83318382969321
 20
656.66222446220047
 30
0.0
 40
1.0000040999999991
 50
270.00000299999761
 51
90.0
  0
ARC
  5
1B64E
  8
AM_0
 10
318.83689382969362
 20
666.66220446220052
 30
0.0
 40
1.000035999999999
 50
269.50071599999359
 51
90.499289999995042
  0
ARC
  5
1B64F
  8
AM_0
 10
320.0582138296931
 20
666.6522144622005
 30
0.0
 40
1.3300000000000001
 50
270.00000299999761
 51
90.0
  0
ARC
  5
1B650
  8
AM_0
 10
318.83689382969362
 20
676.66222446220047
 30
0.0
 40
1.000035999999999
 50
269.50071599999359
 51
90.499289999995042
  0
ARC
  5
1B651
  8
AM_0
 10
320.11820382969341
 20
676.65723446220022
 30
0.0
 40
1.265004
 50
270.00000299999761
 51
90.0
  0
ARC
  5
1B652
  8
AM_0
 10
320.11820382969341
 20
686.66222446220036
 30
0.0
 40
1.270003999999999
 50
270.00000299999761
 51
90.0
  0
ARC
  5
1B653
  8
AM_0
 10
318.83689382969362
 20
686.66222446220036
 30
0.0
 40
1.000035999999999
 50
269.50071599999359
 51
90.499289999995042
  0
ARC
  5
1B654
  8
AM_0
 10
251.8923438296934
 20
745.57134946220037
 30
0.0
 40
2.0008759
 50
0.0251100000023907
 51
89.974889999991035
  0
ARC
  5
1B655
  8
AM_0
 10
251.89088382969351
 20
744.89987946220015
 30
0.0
 40
2.002332
 50
0.0667400000013085
 51
89.933259999998697
  0
ARC
  5
1B656
  8
AM_0
 10
251.88819382969319
 20
743.5472104622005
 30
0.0
 40
2.0050240000000001
 50
0.1434100000012872
 51
89.856589999998718
  0
LINE
  5
1B657
  8
AM_0
 10
253.89320382969359
 20
745.57221946220034
 30
0.0
 11
253.89320382969359
 21
743.52221646220016
 31
0.0
  0
ARC
  5
1B658
  8
ｶｸﾚｾﾝ2
 10
300.3931738296933
 20
710.16220446220018
 30
0.0
 40
3.0
 50
0.0
 51
90.0
  0
ARC
  5
1B659
  8
AM_0
 10
320.0582138296931
 20
696.67220446220051
 30
0.0
 40
1.3300000000000001
 50
270.00000299999761
 51
90.0
  0
ARC
  5
1B65A
  8
AM_0
 10
318.83689382969362
 20
696.66220446220052
 30
0.0
 40
1.000035999999999
 50
269.50071599999359
 51
90.499289999995042
  0
ARC
  5
1B65B
  8
AM_0
 10
318.83817382969352
 20
706.66221446220015
 30
0.0
 40
1.0000040999999991
 50
270.00000299999761
 51
90.0
  0
ARC
  5
1B65C
  8
AM_0
 10
319.92820382969342
 20
706.68222446220034
 30
0.0
 40
1.4599999999999991
 50
270.00000299999761
 51
90.0
  0
ARC
  5
1B65D
  8
AM_0
 10
316.23502382969309
 20
716.66222446220036
 30
0.0
 40
1.000031899999998
 50
270.46929999999787
 51
89.530700000002156
  0
ARC
  5
1B65E
  8
AM_0
 10
319.71320382969321
 20
716.70722446220043
 30
0.0
 40
1.675
 50
269.99999700000228
 51
90.0
  0
LINE
  5
1B65F
  8
AM_0
 10
322.89320382969362
 20
718.81222446220033
 30
0.0
 11
331.89323382969383
 21
718.81222446220033
 31
0.0
  0
LINE
  5
1B660
  8
AM_0
 10
319.70322382969351
 20
740.58222946220019
 30
0.0
 11
321.14323382969383
 21
733.88223246220025
 31
0.0
  0
LINE
  5
1B661
  8
AM_0
 10
317.6332238296938
 20
742.04222846220034
 30
0.0
 11
321.09321382969358
 21
729.12222246220028
 31
0.0
  0
LINE
  5
1B662
  8
AM_0
 10
322.60322382969372
 20
732.69221446220035
 30
0.0
 11
320.19322382969369
 21
732.69221446220035
 31
0.0
  0
ARC
  5
1B663
  8
AM_0
 10
322.5385238296937
 20
729.50821646220015
 30
0.0
 40
1.495995999999999
 50
194.95233999999431
 51
270.1782929999938
  0
ARC
  5
1B664
  8
AM_0
 10
322.60029382969338
 20
734.19155046220044
 30
0.0
 40
1.499328
 50
191.90615999999861
 51
270.11184899999341
  0
LINE
  5
1B665
  8
AM_0
 10
323.89320382969362
 20
733.70222446220032
 30
0.0
 11
331.89323382969383
 21
733.70222446220032
 31
0.0
  0
ARC
  5
1B666
  8
AM_0
 10
323.89268382969351
 20
732.70274346220026
 30
0.0
 40
0.9994760199999999
 50
89.970079999993175
 51
180.0299099999979
  0
LINE
  5
1B667
  8
AM_0
 10
317.6031938296934
 20
742.16222346220025
 30
0.0
 11
322.89320382969362
 21
742.16222346220025
 31
0.0
  0
ARC
  5
1B668
  8
AM_0
 10
315.69862382969319
 20
741.51780646220016
 30
0.0
 40
2.0044159999999991
 50
15.16666000000056
 51
89.868520000007706
  0
ARC
  5
1B669
  8
AM_0
 10
317.74253382969351
 20
740.15568546220049
 30
0.0
 40
2.0065319999999991
 50
12.27313000000315
 51
89.980730000003263
  0
LINE
  5
1B66A
  8
AM_0
 10
323.89320382969362
 20
745.66218946220022
 30
0.0
 11
331.89323382969383
 21
745.66218946220022
 31
0.0
  0
ARC
  5
1B66B
  8
AM_0
 10
323.89338382969351
 20
744.66199846220024
 30
0.0
 40
1.000179999999999
 50
90.010320000000064
 51
179.98968999999451
  0
LINE
  5
1B66C
  8
0
 10
560.89451136312005
 20
620.16220270268298
 30
0.0
 11
536.89451136312039
 21
620.16220270268298
 31
0.0
  0
LINE
  5
1B66D
  8
0
 10
560.89451136312005
 20
622.66220270268275
 30
0.0
 11
560.89451136312005
 21
620.16220270268298
 31
0.0
  0
LINE
  5
1B66E
  8
0
 10
539.89451136312005
 20
608.16220270268286
 30
0.0
 11
539.89451136312005
 21
620.16220270268298
 31
0.0
  0
LINE
  5
1B66F
  8
0
 10
557.89451136312039
 20
620.16220270268298
 30
0.0
 11
557.89451136312039
 21
608.16220270268286
 31
0.0
  0
LINE
  5
1B670
  8
0
 10
557.89451136312039
 20
608.16220270268286
 30
0.0
 11
539.89451136312005
 21
608.16220270268286
 31
0.0
  0
LINE
  5
1B671
  8
0
 10
536.89451136312039
 20
620.16220270268298
 30
0.0
 11
536.89451136312039
 21
622.66220270268275
 31
0.0
  0
LINE
  5
1B672
  8
0
 10
385.89323427756813
 20
620.16220270268298
 30
0.0
 11
361.89323427756813
 21
620.16220270268298
 31
0.0
  0
LINE
  5
1B673
  8
0
 10
385.89323427756813
 20
622.66220270268309
 30
0.0
 11
385.89323427756813
 21
620.16220270268298
 31
0.0
  0
LINE
  5
1B674
  8
0
 10
364.89323427756813
 20
608.16220270268286
 30
0.0
 11
364.89323427756813
 21
620.16220270268298
 31
0.0
  0
LINE
  5
1B675
  8
0
 10
382.89323427756813
 20
620.16220270268298
 30
0.0
 11
382.89323427756813
 21
608.16220270268286
 31
0.0
  0
LINE
  5
1B676
  8
0
 10
382.89323427756813
 20
608.16220270268286
 30
0.0
 11
364.89323427756813
 21
608.16220270268286
 31
0.0
  0
LINE
  5
1B677
  8
0
 10
361.89323427756813
 20
620.16220270268298
 30
0.0
 11
361.89323427756813
 21
622.66220270268309
 31
0.0
  0
LINE
  5
1B678
  8
AM_0
 10
563.89320942623021
 20
715.6622054761591
 30
0.0
 11
565.89682317721395
 21
781.66220547615922
 31
0.0
  0
LINE
  5
1B679
  8
AM_0
 10
358.89323383023361
 20
715.6622054761591
 30
0.0
 11
356.89684752381629
 21
781.66220547615865
 31
0.0
  0
LINE
  5
1B67A
  8
AM_0
 10
543.25520133668908
 20
781.66220547615922
 30
0.0
 11
543.25520133668908
 21
756.6622054761591
 31
0.0
  0
LINE
  5
1B67B
  8
ﾁｭｳｼﾝｾﾝ1
 10
533.89684978149148
 20
786.66220547615922
 30
0.0
 11
533.89684978149148
 21
751.66220547615899
 31
0.0
  0
LINE
  5
1B67C
  8
AM_0
 10
379.5384693643411
 20
781.66220547615922
 30
0.0
 11
379.5384693643411
 21
756.66220547615922
 31
0.0
  0
LINE
  5
1B67D
  8
ﾁｭｳｼﾝｾﾝ1
 10
388.89682091953881
 20
786.66220547615933
 30
0.0
 11
388.89682091953881
 21
751.66220547615922
 31
0.0
  0
LINE
  5
1B680
  8
0
 10
472.89682091953932
 20
526.66220448012041
 30
0.0
 11
472.89682091953932
 21
584.66220448012041
 31
0.0
  0
LINE
  5
1B681
  8
0
 10
504.89682091953978
 20
526.66220448012041
 30
0.0
 11
504.89682091953978
 21
584.66220448012041
 31
0.0
  0
LINE
  5
1B682
  8
AM_0
 10
504.89682091953978
 20
526.66220448012041
 30
0.0
 11
472.89682091953932
 21
526.66220448012041
 31
0.0
  0
LINE
  5
1B683
  8
0
 10
468.89682091953972
 20
584.66220448012041
 30
0.0
 11
508.89682091953978
 21
584.66220448012041
 31
0.0
  0
LINE
  5
1B684
  8
AM_0
 10
463.89682016698089
 20
612.66220240306075
 30
0.0
 11
513.89682167209708
 21
612.66220240306075
 31
0.0
  0
LINE
  5
1B685
  8
AM_0
 10
513.89682167209708
 20
617.66220255357211
 30
0.0
 11
513.89682167209708
 21
612.66220240306075
 31
0.0
  0
LINE
  5
1B686
  8
0
 10
508.89682091953978
 20
584.66220448012041
 30
0.0
 11
513.89682167209708
 21
612.66220240306075
 31
0.0
  0
LINE
  5
1B687
  8
AM_0
 10
463.89682016698089
 20
617.66220255357211
 30
0.0
 11
463.89682016698089
 21
612.66220240306075
 31
0.0
  0
LINE
  5
1B688
  8
0
 10
468.89682091953972
 20
584.66220448012041
 30
0.0
 11
463.89682016698089
 21
612.66220240306075
 31
0.0
  0
LINE
  5
1B6C6
  8
AM_0
 10
493.89682091953949
 20
526.66220448012041
 30
0.0
 11
493.89682091953932
 21
571.66220448012018
 31
0.0
  0
LINE
  5
1B6CC
  8
AM_0
 10
483.89682091953938
 20
526.66220448012041
 30
0.0
 11
483.89682091953921
 21
571.66220448012018
 31
0.0
  0
LINE
  5
1B6CD
  8
AM_0
 10
483.89682091953921
 20
571.66220448012018
 30
0.0
 11
493.89682091953932
 21
571.66220448012018
 31
0.0
  0
ARC
  5
1B6CE
  8
AM_0
 10
488.89682091953932
 20
571.66220448012018
 30
0.0
 40
5.0
 50
0.0
 51
180.0
  0
LINE
  5
1BB8D
  8
ｶｸﾚｾﾝ2
 10
889.57362871653299
 20
367.21517793559929
 30
0.0
 11
889.57362871653299
 21
291.21517552141358
 31
0.0
  0
LINE
  5
1BB8E
  8
ｶｸﾚｾﾝ2
 10
922.57362678998425
 20
349.21517672850609
 30
0.0
 11
922.57362678998425
 21
309.21517672850598
 31
0.0
  0
LINE
  5
1BB8F
  8
AM_0
 10
980.57362678998436
 20
313.21517672850598
 30
0.0
 11
980.57362678998436
 21
348.21517672850598
 31
0.0
  0
LINE
  5
1BB90
  8
ｶｸﾚｾﾝ2
 10
894.57362886704436
 20
354.2151774810647
 30
0.0
 11
894.57362886704436
 21
304.21517597594863
 31
0.0
  0
LINE
  5
1BB91
  8
ｶｸﾚｾﾝ2
 10
894.57362886704436
 20
354.2151774810647
 30
0.0
 11
894.57362886704436
 21
304.21517597594828
 31
0.0
  0
LINE
  5
1BB92
  8
ｶｸﾚｾﾝ2
 10
894.57362886704436
 20
354.2151774810647
 30
0.0
 11
894.57362886704436
 21
304.21517597594828
 31
0.0
  0
LINE
  5
1BB93
  8
ｶｸﾚｾﾝ2
 10
922.57362678998425
 20
309.21517672850598
 30
0.0
 11
894.57362886704436
 21
304.21517597594828
 31
0.0
  0
LINE
  5
1BB94
  8
ｶｸﾚｾﾝ2
 10
889.57362871653299
 20
304.21517597594863
 30
0.0
 11
894.57362886704436
 21
304.21517597594863
 31
0.0
  0
LINE
  5
1BB95
  8
ｶｸﾚｾﾝ2
 10
889.57362871653299
 20
304.21517597594828
 30
0.0
 11
894.57362886704436
 21
304.21517597594828
 31
0.0
  0
LINE
  5
1BB96
  8
ｶｸﾚｾﾝ2
 10
889.57362871653288
 20
304.21517597594828
 30
0.0
 11
894.57362886704436
 21
304.21517597594828
 31
0.0
  0
LINE
  5
1BB97
  8
0
 10
980.57362678998436
 20
313.21517672850598
 30
0.0
 11
925.57362678998447
 21
313.21517672850598
 31
0.0
  0
LINE
  5
1BB98
  8
ｶｸﾚｾﾝ2
 10
922.57362678998425
 20
349.21517672850609
 30
0.0
 11
894.57362886704436
 21
354.2151774810647
 31
0.0
  0
LINE
  5
1BB99
  8
ｶｸﾚｾﾝ2
 10
889.57362871653299
 20
354.2151774810647
 30
0.0
 11
894.57362886704436
 21
354.2151774810647
 31
0.0
  0
LINE
  5
1BB9A
  8
ｶｸﾚｾﾝ2
 10
889.57362871653299
 20
354.2151774810647
 30
0.0
 11
894.57362886704436
 21
354.2151774810647
 31
0.0
  0
LINE
  5
1BB9B
  8
ｶｸﾚｾﾝ2
 10
889.57362871653288
 20
354.2151774810647
 30
0.0
 11
894.57362886704436
 21
354.2151774810647
 31
0.0
  0
LINE
  5
1BB9C
  8
0
 10
980.57362678998436
 20
348.21517672850598
 30
0.0
 11
935.57362678998436
 21
348.21517672850598
 31
0.0
  0
LINE
  5
1BB9D
  8
0
 10
980.57362678998436
 20
345.21517672850609
 30
0.0
 11
925.57362678998447
 21
345.21517672850609
 31
0.0
  0
LINE
  5
1BB9E
  8
0
 10
935.57362678998436
 20
348.21517672850598
 30
0.0
 11
935.57362678998436
 21
345.21517672850609
 31
0.0
  0
LINE
  5
1BB9F
  8
ｶｸﾚｾﾝ2
 10
925.5736267899839
 20
345.21517672850609
 30
0.0
 11
922.57362678998425
 21
345.21517672850609
 31
0.0
  0
LINE
  5
1BBA0
  8
ｶｸﾚｾﾝ2
 10
925.57362678998447
 20
313.21517672850598
 30
0.0
 11
922.57362678998447
 21
313.21517672850621
 31
0.0
  0
LINE
  5
1BBA3
  8
0
 10
472.89682091953949
 20
836.66220444427995
 30
0.0
 11
472.89682091953949
 21
781.66220547615876
 31
0.0
  0
LINE
  5
1BBA4
  8
0
 10
504.89682091954
 20
836.66220444427995
 30
0.0
 11
504.89682091954
 21
781.66220547615876
 31
0.0
  0
LINE
  5
1BBA5
  8
AM_0
 10
504.89682091954
 20
836.66220444427995
 30
0.0
 11
472.89682091953949
 21
836.66220444427995
 31
0.0
  0
LINE
  5
1BBA6
  8
AM_0
 10
483.89682091953938
 20
836.66220444427995
 30
0.0
 11
483.89682091953938
 21
791.66220444427984
 31
0.0
  0
LINE
  5
1BBA7
  8
AM_0
 10
493.89682091953949
 20
836.66220444427995
 30
0.0
 11
493.89682091953949
 21
791.66220444427984
 31
0.0
  0
LINE
  5
1BBA8
  8
AM_0
 10
483.89682091953938
 20
791.66220444427984
 30
0.0
 11
493.89682091953949
 21
791.66220444427984
 31
0.0
  0
ARC
  5
1BBA9
  8
AM_0
 10
488.89682091953949
 20
791.66220444427984
 30
0.0
 40
5.0
 50
180.0
 51
0.0
  0
LINE
  5
1BBAA
  8
ｶｸﾚｾﾝ2
 10
450.89681971244681
 20
745.66220740270785
 30
0.0
 11
526.89682212663206
 21
745.66220740270785
 31
0.0
  0
LINE
  5
1BBAB
  8
ｶｸﾚｾﾝ2
 10
468.89682091954
 20
778.66220547615922
 30
0.0
 11
508.89682091954
 21
778.66220547615922
 31
0.0
  0
LINE
  5
1BBAC
  8
ｶｸﾚｾﾝ2
 10
463.89682016698117
 20
750.66220755321933
 30
0.0
 11
513.89682167209719
 21
750.66220755321933
 31
0.0
  0
LINE
  5
1BBAD
  8
ｶｸﾚｾﾝ2
 10
463.89682016698117
 20
750.66220755321945
 30
0.0
 11
513.89682167209764
 21
750.66220755321945
 31
0.0
  0
LINE
  5
1BBAE
  8
ｶｸﾚｾﾝ2
 10
463.89682016698117
 20
750.66220755321933
 30
0.0
 11
513.89682167209764
 21
750.66220755321933
 31
0.0
  0
LINE
  5
1BBAF
  8
ｶｸﾚｾﾝ2
 10
508.89682091954
 20
778.66220547615922
 30
0.0
 11
513.89682167209764
 21
750.66220755321945
 31
0.0
  0
LINE
  5
1BBB0
  8
ｶｸﾚｾﾝ2
 10
513.89682167209719
 20
745.66220740270785
 30
0.0
 11
513.89682167209719
 21
750.66220755321933
 31
0.0
  0
LINE
  5
1BBB1
  8
ｶｸﾚｾﾝ2
 10
513.89682167209764
 20
745.66220740270785
 30
0.0
 11
513.89682167209764
 21
750.66220755321945
 31
0.0
  0
LINE
  5
1BBB2
  8
ｶｸﾚｾﾝ2
 10
513.89682167209764
 20
745.66220740270785
 30
0.0
 11
513.89682167209764
 21
750.66220755321933
 31
0.0
  0
LINE
  5
1BBB3
  8
ｶｸﾚｾﾝ2
 10
468.89682091954
 20
778.66220547615922
 30
0.0
 11
463.89682016698117
 21
750.66220755321945
 31
0.0
  0
LINE
  5
1BBB4
  8
ｶｸﾚｾﾝ2
 10
463.89682016698117
 20
745.66220740270785
 30
0.0
 11
463.89682016698117
 21
750.66220755321933
 31
0.0
  0
LINE
  5
1BBB5
  8
ｶｸﾚｾﾝ2
 10
463.89682016698117
 20
745.66220740270785
 30
0.0
 11
463.89682016698117
 21
750.66220755321945
 31
0.0
  0
LINE
  5
1BBB6
  8
ｶｸﾚｾﾝ2
 10
463.89682016698117
 20
745.66220740270785
 30
0.0
 11
463.89682016698117
 21
750.66220755321933
 31
0.0
  0
LINE
  5
1BBB7
  8
ｶｸﾚｾﾝ2
 10
472.89682091953978
 20
781.66220547615876
 30
0.0
 11
472.89682091953978
 21
778.66220547615922
 31
0.0
  0
LINE
  5
1BBB8
  8
ｶｸﾚｾﾝ2
 10
504.89682091954
 20
781.66220547615922
 30
0.0
 11
504.89682091953978
 21
778.66220547615922
 31
0.0
  0
TEXT
  5
1BD00
  8
AM_0
 10
674.43606681014444
 20
704.21409581622095
 30
0.0
 40
15.0
  1
VC04-080FMT~VC04-240FMT
1001
ACAD
1000
MTEXTBEGIN
1070
    73
1070
     1
1070
    44
1040
1.0
1070
    74
1070
     0
1000
MTEXTEND
  0
VIEWPORT
  5
89
 67
     1
  8
0
 10
210.0
 20
148.5
 30
0.0
 40
420.0
 41
297.0
 68
     1
 69
     1
1001
ACAD
1000
MVIEW
1002
{
1070
    16
1010
0.0
1020
0.0
1030
0.0
1010
0.0
1020
0.0
1030
1.0
1040
0.0
1040
297.0
1040
221.70154043645701
1040
148.5
1040
50.0
1040
0.0
1040
0.0
1070
     0
1070
   100
1070
     1
1070
     1
1070
     0
1070
     0
1070
     0
1070
     0
1040
0.0
1040
0.0
1040
0.0
1040
10.0
1040
10.0
1040
10.0
1040
10.0
1070
     0
1002
{
1002
}
1002
}
1001
GENIUS_GENOREF_13
1005
1B94
1001
GENIUS_GENSCREG_15
1000
PF
1040
1.0
1000
DF
1040
1.0
1000
MIN
1011
0.0
1021
0.0
1031
0.0
1021
0.0
1031
0.0
1000
MAX
1011
420.0
1021
0.0
1031
0.0
1021
297.0
1031
0.0
1000
FLAGS
1070
     4
  0
ENDSEC
  0
EOF
