  0
SECTION
  2
HEADER
  9
$ACADVER
  1
AC1009
  9
$INSBASE
 10
0.0
 20
0.0
 30
0.0
  9
$EXTMIN
 10
124.64239781424649
 20
199.40630671287559
 30
-0.0000000000000058
  9
$EXTMAX
 10
1124.6640651340881
 20
861.88026202265098
 30
0.0000000000000104
  9
$LIMMIN
 10
0.0
 20
0.0
  9
$LIMMAX
 10
1138.0
 20
740.00000000000011
  9
$ORTHOMODE
 70
     0
  9
$REGENMODE
 70
     1
  9
$FILLMODE
 70
     1
  9
$QTEXTMODE
 70
     0
  9
$MIRRTEXT
 70
     1
  9
$DRAGMODE
 70
     2
  9
$LTSCALE
 40
4.0
  9
$OSMODE
 70
   551
  9
$ATTMODE
 70
     1
  9
$TEXTSIZE
 40
2.5
  9
$TRACEWID
 40
1.0
  9
$TEXTSTYLE
  7
STANDARD
  9
$CLAYER
  8
AM_0
  9
$CELTYPE
  6
BYLAYER
  9
$CECOLOR
 62
   256
  9
$DIMSCALE
 40
4.0
  9
$DIMASZ
 40
2.5
  9
$DIMEXO
 40
1.0
  9
$DIMDLI
 40
7.0
  9
$DIMRND
 40
0.0
  9
$DIMDLE
 40
0.0
  9
$DIMEXE
 40
1.0
  9
$DIMTP
 40
0.1
  9
$DIMTM
 40
0.1000000001
  9
$DIMTXT
 40
2.5
  9
$DIMCEN
 40
0.0
  9
$DIMTSZ
 40
0.0
  9
$DIMTOL
 70
     0
  9
$DIMLIM
 70
     0
  9
$DIMTIH
 70
     0
  9
$DIMTOH
 70
     0
  9
$DIMSE1
 70
     0
  9
$DIMSE2
 70
     0
  9
$DIMTAD
 70
     3
  9
$DIMZIN
 70
     8
  9
$DIMBLK
  1

  9
$DIMASO
 70
     1
  9
$DIMSHO
 70
     1
  9
$DIMPOST
  1

  9
$DIMAPOST
  1
"
  9
$DIMALT
 70
     0
  9
$DIMALTD
 70
     2
  9
$DIMALTF
 40
0.0393701
  9
$DIMLFAC
 40
1.0
  9
$DIMTOFL
 70
     1
  9
$DIMTVP
 40
0.0
  9
$DIMTIX
 70
     0
  9
$DIMSOXD
 70
     0
  9
$DIMSAH
 70
     0
  9
$DIMBLK1
  1

  9
$DIMBLK2
  1

  9
$DIMSTYLE
  2
AM_JIS
  9
$DIMCLRD
 70
   256
  9
$DIMCLRE
 70
   256
  9
$DIMCLRT
 70
     4
  9
$DIMTFAC
 40
0.71
  9
$DIMGAP
 40
1.0
  9
$LUNITS
 70
     2
  9
$LUPREC
 70
     2
  9
$SKETCHINC
 40
1.0
  9
$FILLETRAD
 40
0.0
  9
$AUNITS
 70
     0
  9
$AUPREC
 70
     3
  9
$MENU
  1
.
  9
$ELEVATION
 40
0.0
  9
$PELEVATION
 40
0.0
  9
$THICKNESS
 40
0.0
  9
$LIMCHECK
 70
     0
  9
$BLIPMODE
 70
     0
  9
$CHAMFERA
 40
10.0
  9
$CHAMFERB
 40
10.0
  9
$SKPOLY
 70
     0
  9
$TDCREATE
 40
2452753.643349607
  9
$TDUPDATE
 40
2458543.4515539929
  9
$TDINDWG
 40
0.6815310764
  9
$TDUSRTIMER
 40
0.6815303472000001
  9
$USRTIMER
 70
     1
  9
$ANGBASE
 50
0.0
  9
$ANGDIR
 70
     0
  9
$PDMODE
 70
     0
  9
$PDSIZE
 40
0.0
  9
$PLINEWID
 40
0.0
  9
$COORDS
 70
     1
  9
$SPLFRAME
 70
     0
  9
$SPLINETYPE
 70
     6
  9
$SPLINESEGS
 70
     8
  9
$ATTDIA
 70
     1
  9
$ATTREQ
 70
     1
  9
$HANDLING
 70
     1
  9
$HANDSEED
  5
1CDEB
  9
$SURFTAB1
 70
     6
  9
$SURFTAB2
 70
     6
  9
$SURFTYPE
 70
     6
  9
$SURFU
 70
     6
  9
$SURFV
 70
     6
  9
$UCSNAME
  2

  9
$UCSORG
 10
0.0
 20
0.0
 30
0.0
  9
$UCSXDIR
 10
1.0
 20
0.0
 30
0.0
  9
$UCSYDIR
 10
0.0
 20
1.0
 30
0.0
  9
$PUCSNAME
  2

  9
$PUCSORG
 10
0.0
 20
0.0
 30
0.0
  9
$PUCSXDIR
 10
1.0
 20
0.0
 30
0.0
  9
$PUCSYDIR
 10
0.0
 20
1.0
 30
0.0
  9
$USERI1
 70
     0
  9
$USERI2
 70
     0
  9
$USERI3
 70
     0
  9
$USERI4
 70
     0
  9
$USERI5
 70
     0
  9
$USERR1
 40
0.0
  9
$USERR2
 40
0.0
  9
$USERR3
 40
0.0
  9
$USERR4
 40
0.0
  9
$USERR5
 40
0.0
  9
$WORLDVIEW
 70
     1
  9
$SHADEDGE
 70
     3
  9
$SHADEDIF
 70
    70
  9
$TILEMODE
 70
     1
  9
$MAXACTVP
 70
    48
  9
$PLIMCHECK
 70
     0
  9
$PEXTMIN
 10
1.0000000000000000E+020
 20
1.0000000000000000E+020
 30
1.0000000000000000E+020
  9
$PEXTMAX
 10
-1.0000000000000000E+020
 20
-1.0000000000000000E+020
 30
-1.0000000000000000E+020
  9
$PLIMMIN
 10
0.0
 20
0.0
  9
$PLIMMAX
 10
420.0
 20
297.0
  9
$UNITMODE
 70
     0
  9
$VISRETAIN
 70
     1
  9
$PLINEGEN
 70
     0
  9
$PSLTSCALE
 70
     1
  0
ENDSEC
  0
SECTION
  2
TABLES
  0
TABLE
  2
VPORT
 70
     1
  0
VPORT
  2
*ACTIVE
 70
     0
 10
0.0
 20
0.0
 11
1.0
 21
1.0
 12
624.65323147416711
 22
530.64328436776327
 13
0.0
 23
0.0
 14
10.0
 24
10.0
 15
40.0
 25
40.0
 16
0.0
 26
0.0
 36
1.0
 17
0.0
 27
0.0
 37
0.0
 40
667.02183143318337
 41
1.7571592210767459
 42
50.0
 43
0.0
 44
0.0
 50
0.0
 51
0.0
 71
     0
 72
   100
 73
     1
 74
     1
 75
     0
 76
     0
 77
     0
 78
     0
  0
ENDTAB
  0
TABLE
  2
LTYPE
 70
    21
  0
LTYPE
  2
CONTINUOUS
 70
     0
  3
Solid line
 72
    65
 73
     0
 40
0.0
  0
LTYPE
  2
PHANTOM2
 70
     0
  3
Phantom (.5x) ___ _ _ ___ _ _ ___ _ _ ___ _ _
 72
    65
 73
     6
 40
31.75
 49
15.875
 49
-3.174999999999998
 49
3.174999999999998
 49
-3.174999999999998
 49
3.174999999999998
 49
-3.174999999999998
  0
LTYPE
  2
CENTER
 70
     0
  3
Center ____ _ ____ _ ____ _ ____ _ ____ _ ____
 72
    65
 73
     4
 40
50.799999999999997
 49
31.75
 49
-6.3499999999999979
 49
6.3499999999999979
 49
-6.3499999999999979
  0
LTYPE
  2
GEN3B
 70
     0
  3
 - - - - -
 72
    65
 73
     2
 40
1.0
 49
0.5
 49
-0.5
  0
LTYPE
  2
GEN7A
 70
     0
  3
__ . __ . __
 72
    65
 73
     4
 40
7.375
 49
4.75
 49
-0.875
 49
0.875
 49
-0.875
  0
LTYPE
  2
AM_ISO02W050
 70
     0
  3
__ __ __ __ __ __ __ __ __ __ __ __ __ __ __
 72
    65
 73
     2
 40
7.5
 49
6.0
 49
-1.5
  0
LTYPE
  2
AM_ISO08W050
 70
     0
  3
____ . ____ . ____ . ____ . ____ . ____ . ____
 72
    65
 73
     4
 40
18.0
 49
12.0
 49
-1.5
 49
3.0
 49
-1.5
  0
LTYPE
  2
AM_ISO09W050
 70
     0
  3
_____ . . _____ . . _____ . . ____ .. ____
 72
    65
 73
     6
 40
22.5
 49
12.0
 49
-1.5
 49
3.0
 49
-1.5
 49
3.0
 49
-1.5
  0
LTYPE
  2
AMCONSTR
 70
     0
  3
_______________________
 72
    65
 73
     2
 40
9999.0
 49
9999.0
 49
0.0
  0
LTYPE
  2
AM_ISO02W050X2
 70
     0
  3
 _ _ _ _ _ _ _ _ _ _ _ _
 72
    65
 73
     2
 40
3.75
 49
3.0
 49
-0.75
  0
LTYPE
  2
AM_ISO08W050X2
 70
     0
  3
__ . __ . __ . __ . __ . __
 72
    65
 73
     4
 40
9.0
 49
6.0
 49
-0.75
 49
1.5
 49
-0.75
  0
LTYPE
  2
AMZIGZAG
 70
     0
  3
/\/-/\/-/\/-/\/-/\/-/\/
 72
    65
 73
     2
 40
11.0001
 49
0.0001
 49
-11.0
  0
LTYPE
  2
ACISOWELD
 70
     0
  3
_ _ _ _ _
 72
    65
 73
     2
 40
2.0
 49
2.0
 49
-1.0
  0
LTYPE
  2
ACISOTGB
 70
     0
  3
__ . . __ . .
 72
    65
 73
     6
 40
9.0
 49
4.0
 49
-1.0
 49
1.0
 49
-1.0
 49
1.0
 49
-1.0
  0
LTYPE
  2
ACISOTGL
 70
     0
  3
_ _ _ _ _
 72
    65
 73
     2
 40
3.0
 49
2.0
 49
-1.0
  0
LTYPE
  2
HIDDEN
 70
     0
  3
Hidden __ __ __ __ __ __ __ __ __ __ __ __ __ _
 72
    65
 73
     2
 40
9.5249999999999968
 49
6.349999999999997
 49
-3.174999999999998
  0
LTYPE
  2
ACANSTGBM
 70
     0
  3
__ . . __ . .
 72
    65
 73
     6
 40
9.0
 49
4.0
 49
-1.0
 49
1.0
 49
-1.0
 49
1.0
 49
-1.0
  0
LTYPE
  2
ACANSTGLM
 70
     0
  3
_ _ _ _ _
 72
    65
 73
     2
 40
3.0
 49
2.0
 49
-1.0
  0
LTYPE
  2
ACJISTGB
 70
     0
  3
__ . . __ . .
 72
    65
 73
     6
 40
9.0
 49
4.0
 49
-1.0
 49
1.0
 49
-1.0
 49
1.0
 49
-1.0
  0
LTYPE
  2
ACJISTGL
 70
     0
  3
_ _ _ _ _
 72
    65
 73
     2
 40
3.0
 49
2.0
 49
-1.0
  0
ENDTAB
  0
TABLE
  2
LAYER
 70
     8
  0
LAYER
  2
0
 70
     0
 62
     7
  6
CONTINUOUS
  0
LAYER
  2
ｽﾝﾎﾟｳｾﾝ
 70
     0
 62
     2
  6
CONTINUOUS
  0
LAYER
  2
DEFPOINTS
 70
     0
 62
     7
  6
CONTINUOUS
  0
LAYER
  2
ｶｸﾚｾﾝ2
 70
     0
 62
     3
  6
GEN3B
  0
LAYER
  2
ﾁｭｳｼﾝｾﾝ1
 70
     0
 62
     1
  6
GEN7A
  0
LAYER
  2
AM_0
 70
     0
 62
     7
  6
CONTINUOUS
  0
LAYER
  2
AM_0N
 70
     0
 62
     7
  6
CONTINUOUS
  0
LAYER
  2
AM_5
 70
     0
 62
     2
  6
CONTINUOUS
  0
ENDTAB
  0
TABLE
  2
STYLE
 70
     8
  0
STYLE
  2
STANDARD
 70
     0
 40
0.0
 41
0.8299999999999999
 50
0.0
 71
     0
 42
2.5
  3
txt.shx
  4
bigfont.shx
  0
STYLE
  2

 70
     1
 40
0.0
 41
1.0
 50
0.0
 71
     0
 42
2.5
  3
ltypeshp.shx
  4

  0
STYLE
  2
ACISOTS
 70
     0
 40
1.0
 41
1.0
 50
0.0
 71
     0
 42
2.5
  3
isocp.shx
  4
extfont.shx
  0
STYLE
  2
ACISOGDT
 70
     0
 40
0.0
 41
1.0
 50
0.0
 71
     0
 42
2.5
  3
amgdt.shx
  4

  0
STYLE
  2
ACANSTS
 70
     0
 40
1.0
 41
1.0
 50
0.0
 71
     0
 42
2.5
  3
romans.shx
  4
bigfont.shx
  0
STYLE
  2
ACANSGDT
 70
     0
 40
0.0
 41
1.0
 50
0.0
 71
     0
 42
2.5
  3
amgdtans.shx
  4

  0
STYLE
  2
ACJISGDT
 70
     0
 40
0.0
 41
1.0
 50
0.0
 71
     0
 42
2.5
  3
amgdt.shx
  4

  0
STYLE
  2
ACJISTS
 70
     0
 40
1.0
 41
1.0
 50
0.0
 71
     0
 42
2.5
  3
isocp.shx
  4
extfont.shx
  0
ENDTAB
  0
TABLE
  2
VIEW
 70
    12
  0
VIEW
  2
GEN1
 70
     0
 40
95.824742268041234
 10
71.5
 20
137.08762886597941
 41
143.0
 11
0.0
 21
0.0
 31
1.0
 12
0.0
 22
0.0
 32
0.0
 42
50.0
 43
0.0
 44
0.0
 50
0.0
 71
     0
  0
VIEW
  2
GEN2
 70
     0
 40
95.824742268041234
 10
214.5
 20
137.08762886597941
 41
143.0
 11
0.0
 21
0.0
 31
1.0
 12
0.0
 22
0.0
 32
0.0
 42
50.0
 43
0.0
 44
0.0
 50
0.0
 71
     0
  0
VIEW
  2
GEN3
 70
     0
 40
95.824742268041234
 10
71.5
 20
47.912371134020603
 41
143.0
 11
0.0
 21
0.0
 31
1.0
 12
0.0
 22
0.0
 32
0.0
 42
50.0
 43
0.0
 44
0.0
 50
0.0
 71
     0
  0
VIEW
  2
GEN4
 70
     0
 40
95.824742268041234
 10
214.5
 20
47.912371134020603
 41
143.0
 11
0.0
 21
0.0
 31
1.0
 12
0.0
 22
0.0
 32
0.0
 42
50.0
 43
0.0
 44
0.0
 50
0.0
 71
     0
  0
VIEW
  2
GEN5
 70
     0
 40
95.824742268041234
 10
143.0
 20
92.500000000000057
 41
143.0
 11
0.0
 21
0.0
 31
1.0
 12
0.0
 22
0.0
 32
0.0
 42
50.0
 43
0.0
 44
0.0
 50
0.0
 71
     0
  0
VIEW
  2
GEN6
 70
     0
 40
191.64756804123709
 10
143.0
 20
92.5
 41
285.99714
 11
0.0
 21
0.0
 31
1.0
 12
0.0
 22
0.0
 32
0.0
 42
50.0
 43
0.0
 44
0.0
 50
0.0
 71
     0
  0
VIEW
  2
AM_VIEW1
 70
     0
 40
370.00000000000023
 10
332.86372007366492
 20
555.00000000000011
 41
665.72744014732973
 11
0.0
 21
0.0
 31
1.0
 12
0.0
 22
0.0
 32
0.0
 42
50.0
 43
0.0
 44
0.0
 50
0.0
 71
     0
  0
VIEW
  2
AM_VIEW2
 70
     0
 40
370.00000000000023
 10
805.13627992633508
 20
555.00000000000011
 41
665.72744014732973
 11
0.0
 21
0.0
 31
1.0
 12
0.0
 22
0.0
 32
0.0
 42
50.0
 43
0.0
 44
0.0
 50
0.0
 71
     0
  0
VIEW
  2
AM_VIEW3
 70
     0
 40
370.00000000000023
 10
332.86372007366492
 20
185.0
 41
665.72744014732973
 11
0.0
 21
0.0
 31
1.0
 12
0.0
 22
0.0
 32
0.0
 42
50.0
 43
0.0
 44
0.0
 50
0.0
 71
     0
  0
VIEW
  2
AM_VIEW4
 70
     0
 40
370.00000000000023
 10
805.13627992633508
 20
185.0
 41
665.72744014732973
 11
0.0
 21
0.0
 31
1.0
 12
0.0
 22
0.0
 32
0.0
 42
50.0
 43
0.0
 44
0.0
 50
0.0
 71
     0
  0
VIEW
  2
AM_VIEW5
 70
     0
 40
370.00000000000023
 10
569.0
 20
370.00000000000023
 41
665.72744014732962
 11
0.0
 21
0.0
 31
1.0
 12
0.0
 22
0.0
 32
0.0
 42
50.0
 43
0.0
 44
0.0
 50
0.0
 71
     0
  0
VIEW
  2
AM_VIEW6
 70
     0
 40
739.99260000000015
 10
569.0
 20
370.00000000000023
 41
1331.4415657458569
 11
0.0
 21
0.0
 31
1.0
 12
0.0
 22
0.0
 32
0.0
 42
50.0
 43
0.0
 44
0.0
 50
0.0
 71
     0
  0
ENDTAB
  0
TABLE
  2
UCS
 70
     0
  0
ENDTAB
  0
TABLE
  2
APPID
 70
   101
  0
APPID
  2
ACAD
 70
     0
  0
APPID
  2
MCAD_NO_VIS
 70
     0
  0
APPID
  2
ACAD_TEMP_GRAPHIC
 70
     0
  0
APPID
  2
AD_DRAW
 70
     0
  0
APPID
  2
DESIGNERASSEMBLIES
 70
     0
  0
APPID
  2
ASURF_PCURVE_APPNAME
 70
     0
  0
APPID
  2
GENIUS_GE3SECT_13
 70
     0
  0
APPID
  2
GENIUS_GENCFG_13
 70
     0
  0
APPID
  2
GENIUS_GE3CFG0_13
 70
     0
  0
APPID
  2
GENIUS_GENCFG0_13
 70
     0
  0
APPID
  2
GENIUS_GENCFG1_13
 70
     0
  0
APPID
  2
GENIUS_GENCFG2_13
 70
     0
  0
APPID
  2
GENIUS_GENCFG3_13
 70
     0
  0
APPID
  2
GENIUS_GENCFG4_13
 70
     0
  0
APPID
  2
GENIUS_GEVCFG0_13
 70
     0
  0
APPID
  2
GENIUS_GENOENT_13
 70
     0
  0
APPID
  2
GENIUS_GENREC_14
 70
     0
  0
APPID
  2
GENIUS_GENODEF_13
 70
     0
  0
APPID
  2
GENIUS_GENOBJ-N-REC_13
 70
     0
  0
APPID
  2
GENIUS_GENHINW_13
 70
     0
  0
APPID
  2
GENIUS_FIRSTVISTXT_14
 70
     0
  0
APPID
  2
GENIUS_GENOBJ-N-LEADER_13
 70
     0
  0
APPID
  2
GENIUS_GENOREF_13
 70
     0
  0
APPID
  2
GENIUS_GENOLIS_13
 70
     0
  0
APPID
  2
GEV_VCCNULL_SWITCH_OFF
 70
     0
  0
APPID
  2
GENIUS_GENDTOL_13
 70
     0
  0
APPID
  2
GENIUS_GEFCFG0_13
 70
     0
  0
APPID
  2
GENIUS_GENOBJ-N-TIT_13
 70
     0
  0
APPID
  2
GENIUS_GENTITLE_13
 70
     0
  0
APPID
  2
GENIUS_GENZVEED_13
 70
     0
  0
APPID
  2
GENIUS_GENOBJ-N-SDF_13
 70
     0
  0
APPID
  2
GENIUS_GENSCREG_13
 70
     0
  0
APPID
  2
GENIUS_DUMCFG0_13
 70
     0
  0
APPID
  2
GEVID936201362
 70
     0
  0
APPID
  2
GEVDC
 70
     0
  0
APPID
  2
GEVCON
 70
     0
  0
APPID
  2
VCC
 70
     0
  0
APPID
  2
GEVPT
 70
     0
  0
APPID
  2
GEVIT
 70
     0
  0
APPID
  2
GENBH
 70
     0
  0
APPID
  2
GEVMK
 70
     0
  0
APPID
  2
GENIUS_GENBH_13
 70
     0
  0
APPID
  2
GENIUS_GENOBJ-NBEHI-BHF_13
 70
     0
  0
APPID
  2
GENIUS_GENOBJ-NBEHI-BHB_13
 70
     0
  0
APPID
  2
GENIUS_GENOBJ-F-DESC_13
 70
     0
  0
APPID
  2
GENIUS_GEFDESC_14
 70
     0
  0
APPID
  2
GENIUS_GENOBJ-F-PART_13
 70
     0
  0
APPID
  2
GENIUS_GEFSTDP_13
 70
     0
  0
APPID
  2
GENIUS_GEFPARTINS_13
 70
     0
  0
APPID
  2
GENIUS_GENTRA_14
 70
     0
  0
APPID
  2
GENIUS_GENINF13_13
 70
     0
  0
APPID
  2
GENIUS_GENOBJ-N-INFOPT_13
 70
     0
  0
APPID
  2
GENIUS_GENOBJ-N-RSSYM_13
 70
     0
  0
APPID
  2
GENIUS_GENSYMENT_13
 70
     0
  0
APPID
  2
GENIUS_GENSCSYM_13
 70
     0
  0
APPID
  2
GENIUS_GEFINFNAM_13
 70
     0
  0
APPID
  2
GENIUS_GENSCREG_15
 70
     0
  0
APPID
  2
GENIUS_GENOBJ-N-CEN_13
 70
     0
  0
APPID
  2
GENIUS_GENOBJ-N-CRS_13
 70
     0
  0
APPID
  2
GENIUS_GENOBJ-N-CRC_13
 70
     0
  0
APPID
  2
GENIUS_GENCRC_14
 70
     0
  0
APPID
  2
GEVID942827039
 70
     0
  0
APPID
  2
GEVID942827040
 70
     0
  0
APPID
  2
GEVID942827041
 70
     0
  0
APPID
  2
GENIUS_GENOBJ-F-SCPASSM_13
 70
     0
  0
APPID
  2
GENIUS_GENDIMSH_14
 70
     0
  0
APPID
  2
GENIUS_GENFIL_13
 70
     0
  0
APPID
  2
GENIUS_GENOBJ-N-CHA_13
 70
     0
  0
APPID
  2
GENIUS_GENOBJ-N-FIL_13
 70
     0
  0
APPID
  2
GEVID942827042
 70
     0
  0
APPID
  2
GEVID946020473
 70
     0
  0
APPID
  2
GEVID946020474
 70
     0
  0
APPID
  2
GEVID946020475
 70
     0
  0
APPID
  2
GENIUS_GENOBJ-N-HTC_13
 70
     0
  0
APPID
  2
GENIUS_GENHATCH_13
 70
     0
  0
APPID
  2
GEVID948854295
 70
     0
  0
APPID
  2
GEVID939402019
 70
     0
  0
APPID
  2
GEVID952919491
 70
     0
  0
APPID
  2
GEVID952919492
 70
     0
  0
APPID
  2
GENIUS_GEFWELD_13
 70
     0
  0
APPID
  2
GENIUS_GENOBJ-F-WELS_13
 70
     0
  0
APPID
  2
GEVID952919493
 70
     0
  0
APPID
  2
GENIUS_GENOBJ-N-RSBK_13
 70
     0
  0
APPID
  2
GENIUS_GENOBJ-N-LIB_13
 70
     0
  0
APPID
  2
GENIUS_GENSCALE_13
 70
     0
  0
APPID
  2
GEVID986376691
 70
     0
  0
APPID
  2
ACATTRIBSERVICES
 70
     0
  0
APPID
  2
DCO15
 70
     0
  0
APPID
  2
ACADM_DIM_EDIT
 70
     0
  0
APPID
  2
AMDT_DM_ADJ
 70
     0
  0
APPID
  2
ACAD_MLEADERVER
 70
     0
  0
APPID
  2
CONTENTBLOCKDESCRIPTION
 70
     0
  0
APPID
  2
ACADANNOTATIVE
 70
     0
  0
APPID
  2
GEVID1057795304
 70
     0
  0
APPID
  2
GENIUS_GEFSH_13
 70
     0
  0
APPID
  2
GENIUS_GENOBJ-F-SHS_13
 70
     0
  0
APPID
  2
ACAD_DSTYLE_DIMBREAK
 70
     0
  0
APPID
  2
ACAD_DSTYLE_DIMJAG
 70
     0
  0
APPID
  2
ACAD_NAV_VCDISPLAY
 70
     0
  0
APPID
  2
ACADANNOPO
 70
     0
  0
APPID
  2
ACAD_EXEMPT_FROM_CAD_STANDARDS
 70
     0
  0
ENDTAB
  0
TABLE
  2
DIMSTYLE
 70
    21
  0
DIMSTYLE
  2
STANDARD
 70
     0
  3

  4

  5

  6

  7

 40
1.0
 41
0.18
 42
0.0625
 43
0.38
 44
0.18
 45
0.0
 46
0.0
 47
0.0
 48
0.0
140
0.18
141
0.09
142
0.0
143
25.399999999999999
144
1.0
145
0.0
146
1.0
147
0.09
 71
     0
 72
     0
 73
     1
 74
     1
 75
     0
 76
     0
 77
     0
 78
     0
170
     0
171
     2
172
     0
173
     0
174
     0
175
     0
176
     0
177
     0
178
     0
  0
DIMSTYLE
  2
AM_JIS
 70
     0
  3

  4
"
  5

  6

  7

 40
1.0
 41
2.0
 42
1.0
 43
8.0
 44
1.0
 45
0.0
 46
0.0
 47
0.1
 48
0.1
140
2.5
141
0.0
142
0.0
143
0.0393701
144
1.0
145
0.0
146
0.71
147
1.5
 71
     0
 72
     0
 73
     0
 74
     0
 75
     0
 76
     0
 77
     3
 78
     8
170
     0
171
     2
172
     1
173
     0
174
     0
175
     0
176
     2
177
     2
178
     4
  0
DIMSTYLE
  2
AM_ISO
 70
     0
  3

  4
"
  5

  6

  7

 40
1.0
 41
2.5
 42
1.0
 43
10.0
 44
1.0
 45
0.0
 46
0.0
 47
0.1
 48
0.1
140
3.5
141
0.0
142
0.0
143
0.0393701
144
1.0
145
0.0
146
0.71
147
1.5
 71
     0
 72
     0
 73
     0
 74
     0
 75
     0
 76
     0
 77
     1
 78
     8
170
     0
171
     2
172
     1
173
     0
174
     0
175
     0
176
   256
177
   256
178
     2
  0
DIMSTYLE
  2
AM_ISO$3
 70
     0
  3

  4
"
  5

  6

  7

 40
1.0
 41
2.5
 42
1.0
 43
10.0
 44
1.0
 45
0.0
 46
0.0
 47
0.1
 48
0.1
140
3.5
141
0.0
142
0.0
143
0.0393701
144
1.0
145
0.0
146
0.71
147
1.5
 71
     0
 72
     0
 73
     0
 74
     1
 75
     0
 76
     0
 77
     1
 78
     8
170
     0
171
     2
172
     0
173
     0
174
     0
175
     0
176
   256
177
   256
178
     2
  0
DIMSTYLE
  2
AM_ISO$4
 70
     0
  3

  4
"
  5

  6

  7

 40
1.0
 41
2.5
 42
1.0
 43
10.0
 44
1.0
 45
0.0
 46
0.0
 47
0.1
 48
0.1
140
3.5
141
0.0
142
0.0
143
0.0393701
144
1.0
145
0.0
146
0.71
147
1.5
 71
     0
 72
     0
 73
     0
 74
     1
 75
     0
 76
     0
 77
     1
 78
     8
170
     0
171
     2
172
     0
173
     0
174
     0
175
     0
176
   256
177
   256
178
     2
  0
DIMSTYLE
  2
AM_ISO$6
 70
     0
  3

  4
"
  5

  6

  7

 40
1.0
 41
2.5
 42
1.0
 43
10.0
 44
1.0
 45
0.0
 46
0.0
 47
0.1
 48
0.1
140
3.5
141
0.0
142
0.0
143
0.0393701
144
1.0
145
0.0
146
0.71
147
1.5
 71
     0
 72
     0
 73
     0
 74
     0
 75
     0
 76
     0
 77
     0
 78
     8
170
     0
171
     2
172
     1
173
     0
174
     0
175
     0
176
   256
177
   256
178
     2
  0
DIMSTYLE
  2
AM_ISO$7
 70
     0
  3

  4
"
  5

  6

  7

 40
1.0
 41
2.5
 42
1.0
 43
10.0
 44
1.0
 45
0.0
 46
0.0
 47
0.1
 48
0.1
140
5.0
141
0.0
142
0.0
143
0.0393701
144
1.0
145
0.0
146
0.71
147
1.5
 71
     0
 72
     0
 73
     0
 74
     0
 75
     0
 76
     0
 77
     1
 78
     8
170
     0
171
     2
172
     1
173
     0
174
     0
175
     0
176
   256
177
   256
178
     2
  0
DIMSTYLE
  2
AM_ISO$SF
 70
     0
  3

  4
"
  5

  6

  7

 40
1.0
 41
2.5
 42
1.0
 43
10.0
 44
1.0
 45
0.0
 46
0.0
 47
0.1
 48
0.1
140
3.5
141
0.0
142
0.0
143
0.0393701
144
1.0
145
0.0
146
0.71
147
1.5
 71
     0
 72
     0
 73
     0
 74
     0
 75
     1
 76
     1
 77
     1
 78
     8
170
     0
171
     2
172
     1
173
     0
174
     0
175
     0
176
   256
177
   256
178
     2
  0
DIMSTYLE
  2
AM_ISO$SH
 70
     0
  3

  4
"
  5

  6
GENAXEH
  7

 40
1.0
 41
2.5
 42
1.0
 43
10.0
 44
1.0
 45
0.0
 46
0.0
 47
0.1
 48
0.1
140
3.5
141
0.0
142
0.0
143
0.0393701
144
2.0
145
0.0
146
0.71
147
1.5
 71
     0
 72
     0
 73
     0
 74
     0
 75
     1
 76
     1
 77
     1
 78
     8
170
     0
171
     2
172
     1
173
     1
174
     0
175
     0
176
   256
177
   256
178
     2
  0
DIMSTYLE
  2
AM_ANSI
 70
     0
  3

  4
"
  5

  6

  7

 40
1.0
 41
2.5
 42
1.0
 43
10.0
 44
1.0
 45
0.0
 46
0.0
 47
0.1
 48
0.1
140
3.5
141
0.0
142
0.0
143
0.0393701
144
1.0
145
0.0
146
0.71
147
1.5
 71
     0
 72
     0
 73
     1
 74
     1
 75
     0
 76
     0
 77
     0
 78
     8
170
     0
171
     2
172
     0
173
     0
174
     0
175
     0
176
     2
177
     2
178
     4
  0
DIMSTYLE
  2
AM_ANSI$3
 70
     0
  3

  4
"
  5

  6

  7

 40
1.0
 41
2.5
 42
1.0
 43
10.0
 44
1.0
 45
0.0
 46
0.0
 47
0.1
 48
0.1
140
3.5
141
0.0
142
0.0
143
0.0393701
144
1.0
145
0.0
146
0.71
147
1.5
 71
     0
 72
     0
 73
     1
 74
     1
 75
     0
 76
     0
 77
     0
 78
     8
170
     0
171
     2
172
     0
173
     0
174
     0
175
     0
176
     2
177
     2
178
     4
  0
DIMSTYLE
  2
AM_ANSI$4
 70
     0
  3

  4
"
  5

  6

  7

 40
1.0
 41
2.5
 42
1.0
 43
10.0
 44
1.0
 45
0.0
 46
0.0
 47
0.1
 48
0.1
140
3.5
141
0.0
142
0.0
143
0.0393701
144
1.0
145
0.0
146
0.71
147
1.5
 71
     0
 72
     0
 73
     1
 74
     1
 75
     0
 76
     0
 77
     0
 78
     8
170
     0
171
     2
172
     0
173
     0
174
     0
175
     0
176
     2
177
     2
178
     4
  0
DIMSTYLE
  2
AM_ANSI$7
 70
     0
  3

  4
"
  5

  6

  7

 40
1.0
 41
2.5
 42
1.0
 43
10.0
 44
1.0
 45
0.0
 46
0.0
 47
0.1
 48
0.1
140
5.0
141
0.0
142
0.0
143
0.0393701
144
1.0
145
0.0
146
0.71
147
1.5
 71
     0
 72
     0
 73
     1
 74
     1
 75
     0
 76
     0
 77
     0
 78
     8
170
     0
171
     2
172
     0
173
     0
174
     0
175
     0
176
     2
177
     2
178
     4
  0
DIMSTYLE
  2
AM_ANSI$SF
 70
     0
  3

  4
"
  5

  6

  7

 40
1.0
 41
2.5
 42
1.0
 43
10.0
 44
1.0
 45
0.0
 46
0.0
 47
0.1
 48
0.1
140
3.5
141
0.0
142
0.0
143
0.0393701
144
1.0
145
0.0
146
0.71
147
1.5
 71
     0
 72
     0
 73
     1
 74
     1
 75
     1
 76
     1
 77
     0
 78
     8
170
     0
171
     2
172
     0
173
     0
174
     0
175
     0
176
     2
177
     2
178
     4
  0
DIMSTYLE
  2
AM_ANSI$SH
 70
     0
  3

  4
"
  5

  6
GENAXEH
  7

 40
1.0
 41
2.5
 42
1.0
 43
10.0
 44
1.0
 45
0.0
 46
0.0
 47
0.1
 48
0.1
140
3.5
141
0.0
142
0.0
143
0.0393701
144
1.0
145
0.0
146
0.71
147
1.5
 71
     0
 72
     0
 73
     1
 74
     1
 75
     1
 76
     1
 77
     0
 78
     8
170
     0
171
     2
172
     0
173
     1
174
     0
175
     0
176
     2
177
     2
178
     4
  0
DIMSTYLE
  2
AM_JIS$3
 70
     0
  3

  4
"
  5

  6

  7

 40
1.0
 41
2.0
 42
1.0
 43
10.0
 44
1.0
 45
0.0
 46
0.0
 47
0.1
 48
0.1
140
2.5
141
0.0
142
0.0
143
0.0393701
144
1.0
145
0.0
146
0.71
147
1.5
 71
     0
 72
     0
 73
     0
 74
     1
 75
     0
 76
     0
 77
     3
 78
     8
170
     0
171
     2
172
     0
173
     0
174
     0
175
     0
176
     2
177
     2
178
     4
  0
DIMSTYLE
  2
AM_JIS$4
 70
     0
  3

  4
"
  5

  6

  7

 40
1.0
 41
2.0
 42
1.0
 43
10.0
 44
1.0
 45
0.0
 46
0.0
 47
0.1
 48
0.1
140
2.5
141
0.0
142
0.0
143
0.0393701
144
1.0
145
0.0
146
0.71
147
1.5
 71
     0
 72
     0
 73
     0
 74
     0
 75
     0
 76
     0
 77
     3
 78
     8
170
     0
171
     2
172
     0
173
     0
174
     0
175
     0
176
     2
177
     2
178
     4
  0
DIMSTYLE
  2
AM_JIS$6
 70
     0
  3

  4
"
  5

  6

  7

 40
1.0
 41
2.0
 42
1.0
 43
10.0
 44
1.0
 45
0.0
 46
0.0
 47
0.1
 48
0.1
140
2.5
141
0.0
142
0.0
143
0.0393701
144
1.0
145
0.0
146
0.71
147
1.5
 71
     0
 72
     0
 73
     0
 74
     0
 75
     0
 76
     0
 77
     0
 78
     8
170
     0
171
     2
172
     1
173
     0
174
     0
175
     0
176
     2
177
     2
178
     4
  0
DIMSTYLE
  2
AM_JIS$7
 70
     0
  3

  4
"
  5

  6
OPEN30
  7
OPEN30
 40
1.0
 41
2.0
 42
1.0
 43
10.0
 44
1.0
 45
0.0
 46
0.0
 47
0.1
 48
0.1
140
2.5
141
0.0
142
0.0
143
0.0393701
144
1.0
145
0.0
146
0.71
147
1.5
 71
     0
 72
     0
 73
     0
 74
     0
 75
     0
 76
     0
 77
     3
 78
     8
170
     0
171
     2
172
     1
173
     0
174
     0
175
     0
176
     2
177
     2
178
     4
  0
DIMSTYLE
  2
AM_JIS$SF
 70
     0
  3

  4
"
  5

  6

  7

 40
1.0
 41
2.0
 42
1.0
 43
10.0
 44
1.0
 45
0.0
 46
0.0
 47
0.1
 48
0.1
140
2.5
141
0.0
142
0.0
143
0.0393701
144
1.0
145
0.0
146
0.71
147
1.5
 71
     0
 72
     0
 73
     0
 74
     0
 75
     1
 76
     1
 77
     3
 78
     8
170
     0
171
     2
172
     1
173
     0
174
     0
175
     0
176
     2
177
     2
178
     4
  0
DIMSTYLE
  2
AM_JIS$SH
 70
     0
  3

  4
"
  5

  6
GENAXEH
  7

 40
1.0
 41
2.0
 42
1.0
 43
10.0
 44
1.0
 45
0.0
 46
0.0
 47
0.1
 48
0.1
140
2.5
141
0.0
142
0.0
143
0.0393701
144
2.0
145
0.0
146
0.71
147
1.5
 71
     0
 72
     0
 73
     0
 74
     0
 75
     1
 76
     1
 77
     3
 78
     8
170
     0
171
     2
172
     1
173
     1
174
     0
175
     0
176
     2
177
     2
178
     4
  0
ENDTAB
  0
ENDSEC
  0
SECTION
  2
BLOCKS
  0
BLOCK
  8
0
  2
$MODEL_SPACE
 70
     0
 10
0.0
 20
0.0
 30
0.0
  3
$MODEL_SPACE
  1

  0
ENDBLK
  5
1A
  8
0
  0
BLOCK
 67
     1
  8
0
  2
$PAPER_SPACE
 70
     0
 10
0.0
 20
0.0
 30
0.0
  3
$PAPER_SPACE
  1

  0
ENDBLK
  5
17
 67
     1
  8
0
  0
BLOCK
  8
0
  2
GENAXEH
 70
     0
 10
0.0
 20
0.0
 30
0.0
  3
GENAXEH
  1

  0
LINE
  5
1C6AF
  8
0
 10
-1.0
 20
0.0
 30
0.0
 11
1.0
 21
0.0
 31
0.0
  0
ENDBLK
  5
1C6B0
  8
0
  0
BLOCK
  8
0
  6
BYBLOCK
 62
     0
  2
$6-44
 70
     0
 10
0.0
 20
0.0
 30
0.0
  3
$6-44
  1

  0
ARC
  5
1B887
  8
0
  6
CONTINUOUS
 62
     0
 10
-2.300003000000002
 20
2.3999909999999431
 30
0.0
 40
2.2000009999999981
 50
90.000003000000945
 51
179.99997799999841
  0
ARC
  5
1B888
  8
0
  6
CONTINUOUS
 62
     0
 10
2.300003000000002
 20
2.3999910000000551
 30
0.0
 40
2.1999970000000002
 50
0.0
 51
89.999982000000827
  0
LINE
  5
1B889
  8
0
  6
CONTINUOUS
 62
     0
 10
-0.0494449999999915
 20
0.0
 30
0.0
 11
-0.8000000000000112
 21
1.30000000000001
 31
0.0
  0
LINE
  5
1B88A
  8
0
  6
CONTINUOUS
 62
     0
 10
0.9505550000000083
 20
0.0
 30
0.0
 11
0.1999999999999886
 21
1.30000000000001
 31
0.0
  0
LINE
  5
1B88B
  8
0
  6
CONTINUOUS
 62
     0
 10
4.600000000000021
 20
1.30000000000001
 30
0.0
 11
4.600000000000021
 21
0.0
 31
0.0
  0
LINE
  5
1B88C
  8
0
  6
CONTINUOUS
 62
     0
 10
-4.600000000000021
 20
1.30000000000001
 30
0.0
 11
-4.600000000000021
 21
0.0
 31
0.0
  0
LINE
  5
1B88D
  8
0
  6
CONTINUOUS
 62
     0
 10
4.600000000000021
 20
0.0
 30
0.0
 11
-4.600000000000021
 21
0.0
 31
0.0
  0
LINE
  5
1B88E
  8
0
  6
CONTINUOUS
 62
     0
 10
2.300003000000002
 20
4.6000029999999583
 30
0.0
 11
-2.300003000000002
 21
4.6000029999999583
 31
0.0
  0
LINE
  5
1B88F
  8
0
  6
CONTINUOUS
 62
     0
 10
4.600000000000021
 20
1.30000000000001
 30
0.0
 11
-4.600000000000021
 21
1.30000000000001
 31
0.0
  0
LINE
  5
1B890
  8
0
  6
CONTINUOUS
 62
     0
 10
-4.5
 20
1.30000000000001
 30
0.0
 11
-4.5
 21
2.3999909999999431
 31
0.0
  0
LINE
  5
1B891
  8
0
  6
CONTINUOUS
 62
     0
 10
4.5
 20
1.30000000000001
 30
0.0
 11
4.5
 21
2.3999910000000551
 31
0.0
  0
ENDBLK
  5
1B892
  8
0
  6
BYBLOCK
 62
     0
  0
BLOCK
  8
0
  2
_OPEN30
 70
     0
 10
0.0
 20
0.0
 30
0.0
  3
_OPEN30
  1

  0
LINE
  5
1C6F6
  8
0
  6
BYBLOCK
 62
     0
 10
-1.0
 20
0.26794919
 30
0.0
 11
0.0
 21
0.0
 31
0.0
  0
LINE
  5
1C6F7
  8
0
  6
BYBLOCK
 62
     0
 10
0.0
 20
0.0
 30
0.0
 11
-1.0
 21
-0.26794919
 31
0.0
  0
LINE
  5
1C6F8
  8
0
  6
BYBLOCK
 62
     0
 10
0.0
 20
0.0
 30
0.0
 11
-1.0
 21
0.0
 31
0.0
  0
ENDBLK
  5
1C6F9
  8
0
  0
BLOCK
  8
0
  2
_NONE
 70
     0
 10
0.0
 20
0.0
 30
0.0
  3
_NONE
  1

  0
ENDBLK
  5
1C7CE
  8
0
  0
ENDSEC
  0
SECTION
  2
ENTITIES
  0
POINT
  5
1B94
  8
0
 10
0.0
 20
0.0
 30
0.0
1001
GENIUS_GENODEF_13
1002
{
1000
HIER
1070
     1
1002
}
1002
{
1000
MANEDIT
1070
     0
1002
}
1002
{
1000
NOSEL
1070
     0
1002
}
1002
{
1000
BEHIND
1070
     0
1002
}
1002
{
1000
REACTOR
1002
}
1001
GENIUS_GENOBJ-N-SDF_13
1002
{
1000
OWNER
1000
GEN
1002
}
1001
GENIUS_GENOENT_13
1002
{
1000
MYREF
1005
1B94
1002
}
1002
{
1000
GRP
1005
0
1002
}
1001
GENIUS_GENOLIS_13
1002
{
1000
ENT
1005
89
1002
}
  0
CIRCLE
  5
1A1AA
  8
AM_0
 10
529.55229911344975
 20
332.70089935700469
 30
0.0
 40
50.0
  0
LINE
  5
1A1AB
  8
0
 10
574.55232797540168
 20
449.70089935700372
 30
0.0
 11
429.55229911344981
 21
449.70089935700372
 31
0.0
  0
LINE
  5
1A1AC
  8
0
 10
574.55232797540168
 20
215.70089935700469
 30
0.0
 11
429.55229911344981
 21
215.70089935700469
 31
0.0
  0
LINE
  5
1A1AD
  8
AM_0
 10
529.55229911344975
 20
404.70090152437132
 30
0.0
 11
566.69560448721677
 21
404.70090152437132
 31
0.0
  0
LINE
  5
1A1AE
  8
AM_0
 10
529.55229911344975
 20
260.70089718963698
 30
0.0
 11
566.69560448721677
 21
260.70089718963737
 31
0.0
  0
LINE
  5
1A1AF
  8
AM_0
 10
414.55232616926219
 20
252.70089694881869
 30
0.0
 11
589.55230091958924
 21
252.70089694881869
 31
0.0
  0
LINE
  5
1A1B0
  8
AM_0
 10
414.55232616926219
 20
412.70090176519011
 30
0.0
 11
589.55230091958924
 21
412.70090176519011
 31
0.0
  0
LINE
  5
1A1B1
  8
ﾁｭｳｼﾝｾﾝ1
 10
124.7
 20
332.70089935700457
 30
0.0
 11
617.70279513034257
 21
332.70089935700457
 31
0.0
  0
LINE
  5
1A1B4
  8
ｶｸﾚｾﾝ2
 10
397.5523257177274
 20
397.70090131365549
 30
0.0
 11
397.5523257177274
 21
267.70089740035331
 31
0.0
  0
LINE
  5
1A1B5
  8
AM_0
 10
407.55232595854562
 20
290.55759383272601
 30
0.0
 11
407.55232595854562
 21
374.84420488128308
 31
0.0
  0
LINE
  5
1A1B6
  8
AM_0
 10
399.55232571772729
 20
397.70090131365549
 30
0.0
 11
399.55232571772729
 21
267.70089740035331
 31
0.0
  0
LINE
  5
1A1B7
  8
ﾁｭｳｼﾝｾﾝ1
 10
529.55229911344975
 20
458.29800083675599
 30
0.0
 11
529.55229911344975
 21
207.10379787725341
 31
0.0
  0
LINE
  5
1A1B8
  8
AM_0
 10
390.79224911967498
 20
394.11613546587142
 30
0.0
 11
390.79224911967532
 21
271.28566324813789
 31
0.0
  0
POLYLINE
  5
1A1B9
  8
AM_0
 10
390.07951224810131
 20
393.84028450978076
 30
0.0
 66
     1
 70
     8
  0
VERTEX
  8
AM_0
  5
1C855
 10
390.080
 20
393.840
 30
0.000000
  70
    32
  0
VERTEX
  8
AM_0
  5
1C856
 10
390.009
 20
392.887
 30
0.000000
  70
    32
  0
VERTEX
  8
AM_0
  5
1C857
 10
389.939
 20
391.933
 30
0.000000
  70
    32
  0
VERTEX
  8
AM_0
  5
1C858
 10
389.870
 20
390.979
 30
0.000000
  70
    32
  0
VERTEX
  8
AM_0
  5
1C859
 10
389.803
 20
390.026
 30
0.000000
  70
    32
  0
VERTEX
  8
AM_0
  5
1C85A
 10
389.736
 20
389.072
 30
0.000000
  70
    32
  0
VERTEX
  8
AM_0
  5
1C85B
 10
389.671
 20
388.118
 30
0.000000
  70
    32
  0
VERTEX
  8
AM_0
  5
1C85C
 10
389.607
 20
387.164
 30
0.000000
  70
    32
  0
VERTEX
  8
AM_0
  5
1C85D
 10
389.544
 20
386.210
 30
0.000000
  70
    32
  0
VERTEX
  8
AM_0
  5
1C85E
 10
389.482
 20
385.255
 30
0.000000
  70
    32
  0
VERTEX
  8
AM_0
  5
1C85F
 10
389.421
 20
384.301
 30
0.000000
  70
    32
  0
VERTEX
  8
AM_0
  5
1C860
 10
389.361
 20
383.347
 30
0.000000
  70
    32
  0
VERTEX
  8
AM_0
  5
1C861
 10
389.302
 20
382.392
 30
0.000000
  70
    32
  0
VERTEX
  8
AM_0
  5
1C862
 10
389.245
 20
381.438
 30
0.000000
  70
    32
  0
VERTEX
  8
AM_0
  5
1C863
 10
389.189
 20
380.483
 30
0.000000
  70
    32
  0
VERTEX
  8
AM_0
  5
1C864
 10
389.133
 20
379.529
 30
0.000000
  70
    32
  0
VERTEX
  8
AM_0
  5
1C865
 10
389.079
 20
378.574
 30
0.000000
  70
    32
  0
VERTEX
  8
AM_0
  5
1C866
 10
389.026
 20
377.619
 30
0.000000
  70
    32
  0
VERTEX
  8
AM_0
  5
1C867
 10
388.974
 20
376.665
 30
0.000000
  70
    32
  0
VERTEX
  8
AM_0
  5
1C868
 10
388.923
 20
375.710
 30
0.000000
  70
    32
  0
VERTEX
  8
AM_0
  5
1C869
 10
388.874
 20
374.755
 30
0.000000
  70
    32
  0
VERTEX
  8
AM_0
  5
1C86A
 10
388.825
 20
373.800
 30
0.000000
  70
    32
  0
VERTEX
  8
AM_0
  5
1C86B
 10
388.778
 20
372.845
 30
0.000000
  70
    32
  0
VERTEX
  8
AM_0
  5
1C86C
 10
388.731
 20
371.890
 30
0.000000
  70
    32
  0
VERTEX
  8
AM_0
  5
1C86D
 10
388.686
 20
370.935
 30
0.000000
  70
    32
  0
VERTEX
  8
AM_0
  5
1C86E
 10
388.642
 20
369.980
 30
0.000000
  70
    32
  0
VERTEX
  8
AM_0
  5
1C86F
 10
388.599
 20
369.024
 30
0.000000
  70
    32
  0
VERTEX
  8
AM_0
  5
1C870
 10
388.557
 20
368.069
 30
0.000000
  70
    32
  0
VERTEX
  8
AM_0
  5
1C871
 10
388.516
 20
367.114
 30
0.000000
  70
    32
  0
VERTEX
  8
AM_0
  5
1C872
 10
388.477
 20
366.158
 30
0.000000
  70
    32
  0
VERTEX
  8
AM_0
  5
1C873
 10
388.438
 20
365.203
 30
0.000000
  70
    32
  0
VERTEX
  8
AM_0
  5
1C874
 10
388.401
 20
364.247
 30
0.000000
  70
    32
  0
VERTEX
  8
AM_0
  5
1C875
 10
388.364
 20
363.292
 30
0.000000
  70
    32
  0
VERTEX
  8
AM_0
  5
1C876
 10
388.329
 20
362.336
 30
0.000000
  70
    32
  0
VERTEX
  8
AM_0
  5
1C877
 10
388.295
 20
361.381
 30
0.000000
  70
    32
  0
VERTEX
  8
AM_0
  5
1C878
 10
388.262
 20
360.425
 30
0.000000
  70
    32
  0
VERTEX
  8
AM_0
  5
1C879
 10
388.230
 20
359.470
 30
0.000000
  70
    32
  0
VERTEX
  8
AM_0
  5
1C87A
 10
388.199
 20
358.514
 30
0.000000
  70
    32
  0
VERTEX
  8
AM_0
  5
1C87B
 10
388.170
 20
357.558
 30
0.000000
  70
    32
  0
VERTEX
  8
AM_0
  5
1C87C
 10
388.141
 20
356.602
 30
0.000000
  70
    32
  0
VERTEX
  8
AM_0
  5
1C87D
 10
388.114
 20
355.647
 30
0.000000
  70
    32
  0
VERTEX
  8
AM_0
  5
1C87E
 10
388.088
 20
354.691
 30
0.000000
  70
    32
  0
VERTEX
  8
AM_0
  5
1C87F
 10
388.063
 20
353.735
 30
0.000000
  70
    32
  0
VERTEX
  8
AM_0
  5
1C880
 10
388.039
 20
352.779
 30
0.000000
  70
    32
  0
VERTEX
  8
AM_0
  5
1C881
 10
388.016
 20
351.823
 30
0.000000
  70
    32
  0
VERTEX
  8
AM_0
  5
1C882
 10
387.994
 20
350.867
 30
0.000000
  70
    32
  0
VERTEX
  8
AM_0
  5
1C883
 10
387.973
 20
349.911
 30
0.000000
  70
    32
  0
VERTEX
  8
AM_0
  5
1C884
 10
387.954
 20
348.955
 30
0.000000
  70
    32
  0
VERTEX
  8
AM_0
  5
1C885
 10
387.935
 20
347.999
 30
0.000000
  70
    32
  0
VERTEX
  8
AM_0
  5
1C886
 10
387.918
 20
347.043
 30
0.000000
  70
    32
  0
VERTEX
  8
AM_0
  5
1C887
 10
387.902
 20
346.087
 30
0.000000
  70
    32
  0
VERTEX
  8
AM_0
  5
1C888
 10
387.887
 20
345.131
 30
0.000000
  70
    32
  0
VERTEX
  8
AM_0
  5
1C889
 10
387.873
 20
344.175
 30
0.000000
  70
    32
  0
VERTEX
  8
AM_0
  5
1C88A
 10
387.860
 20
343.219
 30
0.000000
  70
    32
  0
VERTEX
  8
AM_0
  5
1C88B
 10
387.848
 20
342.263
 30
0.000000
  70
    32
  0
VERTEX
  8
AM_0
  5
1C88C
 10
387.838
 20
341.306
 30
0.000000
  70
    32
  0
VERTEX
  8
AM_0
  5
1C88D
 10
387.828
 20
340.350
 30
0.000000
  70
    32
  0
VERTEX
  8
AM_0
  5
1C88E
 10
387.820
 20
339.394
 30
0.000000
  70
    32
  0
VERTEX
  8
AM_0
  5
1C88F
 10
387.812
 20
338.438
 30
0.000000
  70
    32
  0
VERTEX
  8
AM_0
  5
1C890
 10
387.806
 20
337.482
 30
0.000000
  70
    32
  0
VERTEX
  8
AM_0
  5
1C891
 10
387.801
 20
336.526
 30
0.000000
  70
    32
  0
VERTEX
  8
AM_0
  5
1C892
 10
387.797
 20
335.569
 30
0.000000
  70
    32
  0
VERTEX
  8
AM_0
  5
1C893
 10
387.794
 20
334.613
 30
0.000000
  70
    32
  0
VERTEX
  8
AM_0
  5
1C894
 10
387.793
 20
333.657
 30
0.000000
  70
    32
  0
VERTEX
  8
AM_0
  5
1C895
 10
387.792
 20
332.701
 30
0.000000
  70
    32
  0
VERTEX
  8
AM_0
  5
1C896
 10
387.793
 20
331.745
 30
0.000000
  70
    32
  0
VERTEX
  8
AM_0
  5
1C897
 10
387.794
 20
330.789
 30
0.000000
  70
    32
  0
VERTEX
  8
AM_0
  5
1C898
 10
387.797
 20
329.832
 30
0.000000
  70
    32
  0
VERTEX
  8
AM_0
  5
1C899
 10
387.801
 20
328.876
 30
0.000000
  70
    32
  0
VERTEX
  8
AM_0
  5
1C89A
 10
387.806
 20
327.920
 30
0.000000
  70
    32
  0
VERTEX
  8
AM_0
  5
1C89B
 10
387.812
 20
326.964
 30
0.000000
  70
    32
  0
VERTEX
  8
AM_0
  5
1C89C
 10
387.820
 20
326.008
 30
0.000000
  70
    32
  0
VERTEX
  8
AM_0
  5
1C89D
 10
387.828
 20
325.051
 30
0.000000
  70
    32
  0
VERTEX
  8
AM_0
  5
1C89E
 10
387.838
 20
324.095
 30
0.000000
  70
    32
  0
VERTEX
  8
AM_0
  5
1C89F
 10
387.848
 20
323.139
 30
0.000000
  70
    32
  0
VERTEX
  8
AM_0
  5
1C8A0
 10
387.860
 20
322.183
 30
0.000000
  70
    32
  0
VERTEX
  8
AM_0
  5
1C8A1
 10
387.873
 20
321.227
 30
0.000000
  70
    32
  0
VERTEX
  8
AM_0
  5
1C8A2
 10
387.887
 20
320.271
 30
0.000000
  70
    32
  0
VERTEX
  8
AM_0
  5
1C8A3
 10
387.902
 20
319.315
 30
0.000000
  70
    32
  0
VERTEX
  8
AM_0
  5
1C8A4
 10
387.918
 20
318.359
 30
0.000000
  70
    32
  0
VERTEX
  8
AM_0
  5
1C8A5
 10
387.935
 20
317.403
 30
0.000000
  70
    32
  0
VERTEX
  8
AM_0
  5
1C8A6
 10
387.954
 20
316.447
 30
0.000000
  70
    32
  0
VERTEX
  8
AM_0
  5
1C8A7
 10
387.973
 20
315.491
 30
0.000000
  70
    32
  0
VERTEX
  8
AM_0
  5
1C8A8
 10
387.994
 20
314.535
 30
0.000000
  70
    32
  0
VERTEX
  8
AM_0
  5
1C8A9
 10
388.016
 20
313.579
 30
0.000000
  70
    32
  0
VERTEX
  8
AM_0
  5
1C8AA
 10
388.039
 20
312.623
 30
0.000000
  70
    32
  0
VERTEX
  8
AM_0
  5
1C8AB
 10
388.063
 20
311.667
 30
0.000000
  70
    32
  0
VERTEX
  8
AM_0
  5
1C8AC
 10
388.088
 20
310.711
 30
0.000000
  70
    32
  0
VERTEX
  8
AM_0
  5
1C8AD
 10
388.114
 20
309.755
 30
0.000000
  70
    32
  0
VERTEX
  8
AM_0
  5
1C8AE
 10
388.141
 20
308.799
 30
0.000000
  70
    32
  0
VERTEX
  8
AM_0
  5
1C8AF
 10
388.170
 20
307.844
 30
0.000000
  70
    32
  0
VERTEX
  8
AM_0
  5
1C8B0
 10
388.199
 20
306.888
 30
0.000000
  70
    32
  0
VERTEX
  8
AM_0
  5
1C8B1
 10
388.230
 20
305.932
 30
0.000000
  70
    32
  0
VERTEX
  8
AM_0
  5
1C8B2
 10
388.262
 20
304.977
 30
0.000000
  70
    32
  0
VERTEX
  8
AM_0
  5
1C8B3
 10
388.295
 20
304.021
 30
0.000000
  70
    32
  0
VERTEX
  8
AM_0
  5
1C8B4
 10
388.329
 20
303.065
 30
0.000000
  70
    32
  0
VERTEX
  8
AM_0
  5
1C8B5
 10
388.364
 20
302.110
 30
0.000000
  70
    32
  0
VERTEX
  8
AM_0
  5
1C8B6
 10
388.401
 20
301.154
 30
0.000000
  70
    32
  0
VERTEX
  8
AM_0
  5
1C8B7
 10
388.438
 20
300.199
 30
0.000000
  70
    32
  0
VERTEX
  8
AM_0
  5
1C8B8
 10
388.477
 20
299.243
 30
0.000000
  70
    32
  0
VERTEX
  8
AM_0
  5
1C8B9
 10
388.516
 20
298.288
 30
0.000000
  70
    32
  0
VERTEX
  8
AM_0
  5
1C8BA
 10
388.557
 20
297.333
 30
0.000000
  70
    32
  0
VERTEX
  8
AM_0
  5
1C8BB
 10
388.599
 20
296.377
 30
0.000000
  70
    32
  0
VERTEX
  8
AM_0
  5
1C8BC
 10
388.642
 20
295.422
 30
0.000000
  70
    32
  0
VERTEX
  8
AM_0
  5
1C8BD
 10
388.686
 20
294.467
 30
0.000000
  70
    32
  0
VERTEX
  8
AM_0
  5
1C8BE
 10
388.731
 20
293.512
 30
0.000000
  70
    32
  0
VERTEX
  8
AM_0
  5
1C8BF
 10
388.778
 20
292.557
 30
0.000000
  70
    32
  0
VERTEX
  8
AM_0
  5
1C8C0
 10
388.825
 20
291.602
 30
0.000000
  70
    32
  0
VERTEX
  8
AM_0
  5
1C8C1
 10
388.874
 20
290.647
 30
0.000000
  70
    32
  0
VERTEX
  8
AM_0
  5
1C8C2
 10
388.923
 20
289.692
 30
0.000000
  70
    32
  0
VERTEX
  8
AM_0
  5
1C8C3
 10
388.974
 20
288.737
 30
0.000000
  70
    32
  0
VERTEX
  8
AM_0
  5
1C8C4
 10
389.026
 20
287.782
 30
0.000000
  70
    32
  0
VERTEX
  8
AM_0
  5
1C8C5
 10
389.079
 20
286.828
 30
0.000000
  70
    32
  0
VERTEX
  8
AM_0
  5
1C8C6
 10
389.133
 20
285.873
 30
0.000000
  70
    32
  0
VERTEX
  8
AM_0
  5
1C8C7
 10
389.189
 20
284.918
 30
0.000000
  70
    32
  0
VERTEX
  8
AM_0
  5
1C8C8
 10
389.245
 20
283.964
 30
0.000000
  70
    32
  0
VERTEX
  8
AM_0
  5
1C8C9
 10
389.302
 20
283.009
 30
0.000000
  70
    32
  0
VERTEX
  8
AM_0
  5
1C8CA
 10
389.361
 20
282.055
 30
0.000000
  70
    32
  0
VERTEX
  8
AM_0
  5
1C8CB
 10
389.421
 20
281.101
 30
0.000000
  70
    32
  0
VERTEX
  8
AM_0
  5
1C8CC
 10
389.482
 20
280.146
 30
0.000000
  70
    32
  0
VERTEX
  8
AM_0
  5
1C8CD
 10
389.544
 20
279.192
 30
0.000000
  70
    32
  0
VERTEX
  8
AM_0
  5
1C8CE
 10
389.607
 20
278.238
 30
0.000000
  70
    32
  0
VERTEX
  8
AM_0
  5
1C8CF
 10
389.671
 20
277.284
 30
0.000000
  70
    32
  0
VERTEX
  8
AM_0
  5
1C8D0
 10
389.736
 20
276.330
 30
0.000000
  70
    32
  0
VERTEX
  8
AM_0
  5
1C8D1
 10
389.803
 20
275.376
 30
0.000000
  70
    32
  0
VERTEX
  8
AM_0
  5
1C8D2
 10
389.870
 20
274.422
 30
0.000000
  70
    32
  0
VERTEX
  8
AM_0
  5
1C8D3
 10
389.939
 20
273.469
 30
0.000000
  70
    32
  0
VERTEX
  8
AM_0
  5
1C8D4
 10
390.009
 20
272.515
 30
0.000000
  70
    32
  0
VERTEX
  8
AM_0
  5
1C8D5
 10
390.080
 20
271.562
 30
0.000000
  70
    32
  0
SEQEND
  8
AM_0
  5
1C8D6
  0
LINE
  5
1A1BA
  8
AM_0
 10
363.0523257067772
 20
406.20236935700473
 30
0.0
 11
363.05232570677742
 21
332.70089935700469
 31
0.0
  0
LINE
  5
1A1BB
  8
AM_0
 10
377.05232571097707
 20
403.20229481260071
 30
0.0
 11
377.05232571097741
 21
332.70089935700469
 31
0.0
  0
LINE
  5
1A1E1
  8
AM_0
 10
378.02094762808377
 20
260.69947265559711
 30
0.0
 11
399.58566617932769
 21
260.69949880113921
 31
0.0
  0
LINE
  5
1A262
  8
AM_0
 10
363.0523257067772
 20
259.19942935700448
 30
0.0
 11
363.05232570677742
 21
332.70089935700469
 31
0.0
  0
LINE
  5
1A263
  8
AM_0
 10
377.05232571097707
 20
262.199503901409
 30
0.0
 11
377.05232571097741
 21
332.70089935700469
 31
0.0
  0
LINE
  5
1A27C
  8
AM_0
 10
363.05233178645091
 20
259.19942450731639
 30
0.0
 11
374.05233099927108
 21
259.1994439014137
 31
0.0
  0
POLYLINE
  5
1A27D
  8
AM_0
 10
374.05233099927085
 20
259.19944390141359
 30
0.0
 66
     1
 70
     8
  0
VERTEX
  8
AM_0
  5
1C8D7
 10
374.052
 20
259.199
 30
0.000000
  70
    32
  0
VERTEX
  8
AM_0
  5
1C8D8
 10
374.069
 20
259.199
 30
0.000000
  70
    32
  0
VERTEX
  8
AM_0
  5
1C8D9
 10
374.086
 20
259.200
 30
0.000000
  70
    32
  0
VERTEX
  8
AM_0
  5
1C8DA
 10
374.103
 20
259.200
 30
0.000000
  70
    32
  0
VERTEX
  8
AM_0
  5
1C8DB
 10
374.120
 20
259.200
 30
0.000000
  70
    32
  0
VERTEX
  8
AM_0
  5
1C8DC
 10
374.137
 20
259.201
 30
0.000000
  70
    32
  0
VERTEX
  8
AM_0
  5
1C8DD
 10
374.154
 20
259.201
 30
0.000000
  70
    32
  0
VERTEX
  8
AM_0
  5
1C8DE
 10
374.171
 20
259.202
 30
0.000000
  70
    32
  0
VERTEX
  8
AM_0
  5
1C8DF
 10
374.188
 20
259.203
 30
0.000000
  70
    32
  0
VERTEX
  8
AM_0
  5
1C8E0
 10
374.205
 20
259.203
 30
0.000000
  70
    32
  0
VERTEX
  8
AM_0
  5
1C8E1
 10
374.222
 20
259.204
 30
0.000000
  70
    32
  0
VERTEX
  8
AM_0
  5
1C8E2
 10
374.239
 20
259.205
 30
0.000000
  70
    32
  0
VERTEX
  8
AM_0
  5
1C8E3
 10
374.255
 20
259.206
 30
0.000000
  70
    32
  0
VERTEX
  8
AM_0
  5
1C8E4
 10
374.272
 20
259.208
 30
0.000000
  70
    32
  0
VERTEX
  8
AM_0
  5
1C8E5
 10
374.289
 20
259.209
 30
0.000000
  70
    32
  0
VERTEX
  8
AM_0
  5
1C8E6
 10
374.306
 20
259.210
 30
0.000000
  70
    32
  0
VERTEX
  8
AM_0
  5
1C8E7
 10
374.323
 20
259.212
 30
0.000000
  70
    32
  0
VERTEX
  8
AM_0
  5
1C8E8
 10
374.340
 20
259.213
 30
0.000000
  70
    32
  0
VERTEX
  8
AM_0
  5
1C8E9
 10
374.357
 20
259.215
 30
0.000000
  70
    32
  0
VERTEX
  8
AM_0
  5
1C8EA
 10
374.374
 20
259.217
 30
0.000000
  70
    32
  0
VERTEX
  8
AM_0
  5
1C8EB
 10
374.390
 20
259.219
 30
0.000000
  70
    32
  0
VERTEX
  8
AM_0
  5
1C8EC
 10
374.407
 20
259.221
 30
0.000000
  70
    32
  0
VERTEX
  8
AM_0
  5
1C8ED
 10
374.424
 20
259.223
 30
0.000000
  70
    32
  0
VERTEX
  8
AM_0
  5
1C8EE
 10
374.441
 20
259.225
 30
0.000000
  70
    32
  0
VERTEX
  8
AM_0
  5
1C8EF
 10
374.458
 20
259.227
 30
0.000000
  70
    32
  0
VERTEX
  8
AM_0
  5
1C8F0
 10
374.474
 20
259.229
 30
0.000000
  70
    32
  0
VERTEX
  8
AM_0
  5
1C8F1
 10
374.491
 20
259.232
 30
0.000000
  70
    32
  0
VERTEX
  8
AM_0
  5
1C8F2
 10
374.508
 20
259.234
 30
0.000000
  70
    32
  0
VERTEX
  8
AM_0
  5
1C8F3
 10
374.525
 20
259.237
 30
0.000000
  70
    32
  0
VERTEX
  8
AM_0
  5
1C8F4
 10
374.541
 20
259.240
 30
0.000000
  70
    32
  0
VERTEX
  8
AM_0
  5
1C8F5
 10
374.558
 20
259.242
 30
0.000000
  70
    32
  0
VERTEX
  8
AM_0
  5
1C8F6
 10
374.575
 20
259.245
 30
0.000000
  70
    32
  0
VERTEX
  8
AM_0
  5
1C8F7
 10
374.591
 20
259.248
 30
0.000000
  70
    32
  0
VERTEX
  8
AM_0
  5
1C8F8
 10
374.608
 20
259.251
 30
0.000000
  70
    32
  0
VERTEX
  8
AM_0
  5
1C8F9
 10
374.625
 20
259.255
 30
0.000000
  70
    32
  0
VERTEX
  8
AM_0
  5
1C8FA
 10
374.641
 20
259.258
 30
0.000000
  70
    32
  0
VERTEX
  8
AM_0
  5
1C8FB
 10
374.658
 20
259.261
 30
0.000000
  70
    32
  0
VERTEX
  8
AM_0
  5
1C8FC
 10
374.675
 20
259.265
 30
0.000000
  70
    32
  0
VERTEX
  8
AM_0
  5
1C8FD
 10
374.691
 20
259.268
 30
0.000000
  70
    32
  0
VERTEX
  8
AM_0
  5
1C8FE
 10
374.708
 20
259.272
 30
0.000000
  70
    32
  0
VERTEX
  8
AM_0
  5
1C8FF
 10
374.724
 20
259.276
 30
0.000000
  70
    32
  0
VERTEX
  8
AM_0
  5
1C900
 10
374.741
 20
259.279
 30
0.000000
  70
    32
  0
VERTEX
  8
AM_0
  5
1C901
 10
374.757
 20
259.283
 30
0.000000
  70
    32
  0
VERTEX
  8
AM_0
  5
1C902
 10
374.774
 20
259.287
 30
0.000000
  70
    32
  0
VERTEX
  8
AM_0
  5
1C903
 10
374.790
 20
259.292
 30
0.000000
  70
    32
  0
VERTEX
  8
AM_0
  5
1C904
 10
374.806
 20
259.296
 30
0.000000
  70
    32
  0
VERTEX
  8
AM_0
  5
1C905
 10
374.823
 20
259.300
 30
0.000000
  70
    32
  0
VERTEX
  8
AM_0
  5
1C906
 10
374.839
 20
259.304
 30
0.000000
  70
    32
  0
VERTEX
  8
AM_0
  5
1C907
 10
374.855
 20
259.309
 30
0.000000
  70
    32
  0
VERTEX
  8
AM_0
  5
1C908
 10
374.872
 20
259.314
 30
0.000000
  70
    32
  0
VERTEX
  8
AM_0
  5
1C909
 10
374.888
 20
259.318
 30
0.000000
  70
    32
  0
VERTEX
  8
AM_0
  5
1C90A
 10
374.904
 20
259.323
 30
0.000000
  70
    32
  0
VERTEX
  8
AM_0
  5
1C90B
 10
374.921
 20
259.328
 30
0.000000
  70
    32
  0
VERTEX
  8
AM_0
  5
1C90C
 10
374.937
 20
259.333
 30
0.000000
  70
    32
  0
VERTEX
  8
AM_0
  5
1C90D
 10
374.953
 20
259.338
 30
0.000000
  70
    32
  0
VERTEX
  8
AM_0
  5
1C90E
 10
374.969
 20
259.343
 30
0.000000
  70
    32
  0
VERTEX
  8
AM_0
  5
1C90F
 10
374.985
 20
259.348
 30
0.000000
  70
    32
  0
VERTEX
  8
AM_0
  5
1C910
 10
375.001
 20
259.353
 30
0.000000
  70
    32
  0
VERTEX
  8
AM_0
  5
1C911
 10
375.017
 20
259.359
 30
0.000000
  70
    32
  0
VERTEX
  8
AM_0
  5
1C912
 10
375.033
 20
259.364
 30
0.000000
  70
    32
  0
VERTEX
  8
AM_0
  5
1C913
 10
375.049
 20
259.370
 30
0.000000
  70
    32
  0
VERTEX
  8
AM_0
  5
1C914
 10
375.065
 20
259.376
 30
0.000000
  70
    32
  0
VERTEX
  8
AM_0
  5
1C915
 10
375.081
 20
259.381
 30
0.000000
  70
    32
  0
VERTEX
  8
AM_0
  5
1C916
 10
375.097
 20
259.387
 30
0.000000
  70
    32
  0
VERTEX
  8
AM_0
  5
1C917
 10
375.113
 20
259.393
 30
0.000000
  70
    32
  0
VERTEX
  8
AM_0
  5
1C918
 10
375.129
 20
259.399
 30
0.000000
  70
    32
  0
VERTEX
  8
AM_0
  5
1C919
 10
375.145
 20
259.405
 30
0.000000
  70
    32
  0
VERTEX
  8
AM_0
  5
1C91A
 10
375.160
 20
259.412
 30
0.000000
  70
    32
  0
VERTEX
  8
AM_0
  5
1C91B
 10
375.176
 20
259.418
 30
0.000000
  70
    32
  0
VERTEX
  8
AM_0
  5
1C91C
 10
375.192
 20
259.424
 30
0.000000
  70
    32
  0
VERTEX
  8
AM_0
  5
1C91D
 10
375.207
 20
259.431
 30
0.000000
  70
    32
  0
VERTEX
  8
AM_0
  5
1C91E
 10
375.223
 20
259.437
 30
0.000000
  70
    32
  0
VERTEX
  8
AM_0
  5
1C91F
 10
375.239
 20
259.444
 30
0.000000
  70
    32
  0
VERTEX
  8
AM_0
  5
1C920
 10
375.254
 20
259.451
 30
0.000000
  70
    32
  0
VERTEX
  8
AM_0
  5
1C921
 10
375.270
 20
259.458
 30
0.000000
  70
    32
  0
VERTEX
  8
AM_0
  5
1C922
 10
375.285
 20
259.464
 30
0.000000
  70
    32
  0
VERTEX
  8
AM_0
  5
1C923
 10
375.301
 20
259.471
 30
0.000000
  70
    32
  0
VERTEX
  8
AM_0
  5
1C924
 10
375.316
 20
259.479
 30
0.000000
  70
    32
  0
VERTEX
  8
AM_0
  5
1C925
 10
375.331
 20
259.486
 30
0.000000
  70
    32
  0
VERTEX
  8
AM_0
  5
1C926
 10
375.347
 20
259.493
 30
0.000000
  70
    32
  0
VERTEX
  8
AM_0
  5
1C927
 10
375.362
 20
259.500
 30
0.000000
  70
    32
  0
VERTEX
  8
AM_0
  5
1C928
 10
375.377
 20
259.508
 30
0.000000
  70
    32
  0
VERTEX
  8
AM_0
  5
1C929
 10
375.392
 20
259.515
 30
0.000000
  70
    32
  0
VERTEX
  8
AM_0
  5
1C92A
 10
375.407
 20
259.523
 30
0.000000
  70
    32
  0
VERTEX
  8
AM_0
  5
1C92B
 10
375.422
 20
259.531
 30
0.000000
  70
    32
  0
VERTEX
  8
AM_0
  5
1C92C
 10
375.438
 20
259.538
 30
0.000000
  70
    32
  0
VERTEX
  8
AM_0
  5
1C92D
 10
375.453
 20
259.546
 30
0.000000
  70
    32
  0
VERTEX
  8
AM_0
  5
1C92E
 10
375.467
 20
259.554
 30
0.000000
  70
    32
  0
VERTEX
  8
AM_0
  5
1C92F
 10
375.482
 20
259.562
 30
0.000000
  70
    32
  0
VERTEX
  8
AM_0
  5
1C930
 10
375.497
 20
259.570
 30
0.000000
  70
    32
  0
VERTEX
  8
AM_0
  5
1C931
 10
375.512
 20
259.579
 30
0.000000
  70
    32
  0
VERTEX
  8
AM_0
  5
1C932
 10
375.527
 20
259.587
 30
0.000000
  70
    32
  0
VERTEX
  8
AM_0
  5
1C933
 10
375.542
 20
259.595
 30
0.000000
  70
    32
  0
VERTEX
  8
AM_0
  5
1C934
 10
375.556
 20
259.604
 30
0.000000
  70
    32
  0
VERTEX
  8
AM_0
  5
1C935
 10
375.571
 20
259.612
 30
0.000000
  70
    32
  0
VERTEX
  8
AM_0
  5
1C936
 10
375.585
 20
259.621
 30
0.000000
  70
    32
  0
VERTEX
  8
AM_0
  5
1C937
 10
375.600
 20
259.629
 30
0.000000
  70
    32
  0
VERTEX
  8
AM_0
  5
1C938
 10
375.614
 20
259.638
 30
0.000000
  70
    32
  0
VERTEX
  8
AM_0
  5
1C939
 10
375.629
 20
259.647
 30
0.000000
  70
    32
  0
VERTEX
  8
AM_0
  5
1C93A
 10
375.643
 20
259.656
 30
0.000000
  70
    32
  0
VERTEX
  8
AM_0
  5
1C93B
 10
375.658
 20
259.665
 30
0.000000
  70
    32
  0
VERTEX
  8
AM_0
  5
1C93C
 10
375.672
 20
259.674
 30
0.000000
  70
    32
  0
VERTEX
  8
AM_0
  5
1C93D
 10
375.686
 20
259.683
 30
0.000000
  70
    32
  0
VERTEX
  8
AM_0
  5
1C93E
 10
375.700
 20
259.693
 30
0.000000
  70
    32
  0
VERTEX
  8
AM_0
  5
1C93F
 10
375.714
 20
259.702
 30
0.000000
  70
    32
  0
VERTEX
  8
AM_0
  5
1C940
 10
375.729
 20
259.711
 30
0.000000
  70
    32
  0
VERTEX
  8
AM_0
  5
1C941
 10
375.743
 20
259.721
 30
0.000000
  70
    32
  0
VERTEX
  8
AM_0
  5
1C942
 10
375.757
 20
259.731
 30
0.000000
  70
    32
  0
VERTEX
  8
AM_0
  5
1C943
 10
375.770
 20
259.740
 30
0.000000
  70
    32
  0
VERTEX
  8
AM_0
  5
1C944
 10
375.784
 20
259.750
 30
0.000000
  70
    32
  0
VERTEX
  8
AM_0
  5
1C945
 10
375.798
 20
259.760
 30
0.000000
  70
    32
  0
VERTEX
  8
AM_0
  5
1C946
 10
375.812
 20
259.770
 30
0.000000
  70
    32
  0
VERTEX
  8
AM_0
  5
1C947
 10
375.826
 20
259.780
 30
0.000000
  70
    32
  0
VERTEX
  8
AM_0
  5
1C948
 10
375.839
 20
259.790
 30
0.000000
  70
    32
  0
VERTEX
  8
AM_0
  5
1C949
 10
375.853
 20
259.800
 30
0.000000
  70
    32
  0
VERTEX
  8
AM_0
  5
1C94A
 10
375.866
 20
259.810
 30
0.000000
  70
    32
  0
VERTEX
  8
AM_0
  5
1C94B
 10
375.880
 20
259.820
 30
0.000000
  70
    32
  0
VERTEX
  8
AM_0
  5
1C94C
 10
375.893
 20
259.831
 30
0.000000
  70
    32
  0
VERTEX
  8
AM_0
  5
1C94D
 10
375.907
 20
259.841
 30
0.000000
  70
    32
  0
VERTEX
  8
AM_0
  5
1C94E
 10
375.920
 20
259.852
 30
0.000000
  70
    32
  0
VERTEX
  8
AM_0
  5
1C94F
 10
375.933
 20
259.862
 30
0.000000
  70
    32
  0
VERTEX
  8
AM_0
  5
1C950
 10
375.946
 20
259.873
 30
0.000000
  70
    32
  0
VERTEX
  8
AM_0
  5
1C951
 10
375.959
 20
259.884
 30
0.000000
  70
    32
  0
VERTEX
  8
AM_0
  5
1C952
 10
375.972
 20
259.894
 30
0.000000
  70
    32
  0
VERTEX
  8
AM_0
  5
1C953
 10
375.985
 20
259.905
 30
0.000000
  70
    32
  0
VERTEX
  8
AM_0
  5
1C954
 10
375.998
 20
259.916
 30
0.000000
  70
    32
  0
VERTEX
  8
AM_0
  5
1C955
 10
376.011
 20
259.927
 30
0.000000
  70
    32
  0
VERTEX
  8
AM_0
  5
1C956
 10
376.024
 20
259.938
 30
0.000000
  70
    32
  0
VERTEX
  8
AM_0
  5
1C957
 10
376.037
 20
259.949
 30
0.000000
  70
    32
  0
SEQEND
  8
AM_0
  5
1C958
  0
POLYLINE
  5
1A27E
  8
AM_0
 10
378.02094762808372
 20
260.69947265559722
 30
0.0
 66
     1
 70
     8
  0
VERTEX
  8
AM_0
  5
1C959
 10
378.021
 20
260.699
 30
0.000000
  70
    32
  0
VERTEX
  8
AM_0
  5
1C95A
 10
378.004
 20
260.699
 30
0.000000
  70
    32
  0
VERTEX
  8
AM_0
  5
1C95B
 10
377.987
 20
260.699
 30
0.000000
  70
    32
  0
VERTEX
  8
AM_0
  5
1C95C
 10
377.970
 20
260.699
 30
0.000000
  70
    32
  0
VERTEX
  8
AM_0
  5
1C95D
 10
377.953
 20
260.699
 30
0.000000
  70
    32
  0
VERTEX
  8
AM_0
  5
1C95E
 10
377.936
 20
260.698
 30
0.000000
  70
    32
  0
VERTEX
  8
AM_0
  5
1C95F
 10
377.919
 20
260.698
 30
0.000000
  70
    32
  0
VERTEX
  8
AM_0
  5
1C960
 10
377.902
 20
260.697
 30
0.000000
  70
    32
  0
VERTEX
  8
AM_0
  5
1C961
 10
377.885
 20
260.696
 30
0.000000
  70
    32
  0
VERTEX
  8
AM_0
  5
1C962
 10
377.869
 20
260.696
 30
0.000000
  70
    32
  0
VERTEX
  8
AM_0
  5
1C963
 10
377.852
 20
260.695
 30
0.000000
  70
    32
  0
VERTEX
  8
AM_0
  5
1C964
 10
377.835
 20
260.694
 30
0.000000
  70
    32
  0
VERTEX
  8
AM_0
  5
1C965
 10
377.818
 20
260.693
 30
0.000000
  70
    32
  0
VERTEX
  8
AM_0
  5
1C966
 10
377.801
 20
260.691
 30
0.000000
  70
    32
  0
VERTEX
  8
AM_0
  5
1C967
 10
377.784
 20
260.690
 30
0.000000
  70
    32
  0
VERTEX
  8
AM_0
  5
1C968
 10
377.767
 20
260.689
 30
0.000000
  70
    32
  0
VERTEX
  8
AM_0
  5
1C969
 10
377.750
 20
260.687
 30
0.000000
  70
    32
  0
VERTEX
  8
AM_0
  5
1C96A
 10
377.733
 20
260.686
 30
0.000000
  70
    32
  0
VERTEX
  8
AM_0
  5
1C96B
 10
377.717
 20
260.684
 30
0.000000
  70
    32
  0
VERTEX
  8
AM_0
  5
1C96C
 10
377.700
 20
260.682
 30
0.000000
  70
    32
  0
VERTEX
  8
AM_0
  5
1C96D
 10
377.683
 20
260.680
 30
0.000000
  70
    32
  0
VERTEX
  8
AM_0
  5
1C96E
 10
377.666
 20
260.678
 30
0.000000
  70
    32
  0
VERTEX
  8
AM_0
  5
1C96F
 10
377.649
 20
260.676
 30
0.000000
  70
    32
  0
VERTEX
  8
AM_0
  5
1C970
 10
377.632
 20
260.674
 30
0.000000
  70
    32
  0
VERTEX
  8
AM_0
  5
1C971
 10
377.616
 20
260.672
 30
0.000000
  70
    32
  0
VERTEX
  8
AM_0
  5
1C972
 10
377.599
 20
260.670
 30
0.000000
  70
    32
  0
VERTEX
  8
AM_0
  5
1C973
 10
377.582
 20
260.667
 30
0.000000
  70
    32
  0
VERTEX
  8
AM_0
  5
1C974
 10
377.565
 20
260.665
 30
0.000000
  70
    32
  0
VERTEX
  8
AM_0
  5
1C975
 10
377.549
 20
260.662
 30
0.000000
  70
    32
  0
VERTEX
  8
AM_0
  5
1C976
 10
377.532
 20
260.659
 30
0.000000
  70
    32
  0
VERTEX
  8
AM_0
  5
1C977
 10
377.515
 20
260.657
 30
0.000000
  70
    32
  0
VERTEX
  8
AM_0
  5
1C978
 10
377.499
 20
260.654
 30
0.000000
  70
    32
  0
VERTEX
  8
AM_0
  5
1C979
 10
377.482
 20
260.651
 30
0.000000
  70
    32
  0
VERTEX
  8
AM_0
  5
1C97A
 10
377.465
 20
260.648
 30
0.000000
  70
    32
  0
VERTEX
  8
AM_0
  5
1C97B
 10
377.449
 20
260.644
 30
0.000000
  70
    32
  0
VERTEX
  8
AM_0
  5
1C97C
 10
377.432
 20
260.641
 30
0.000000
  70
    32
  0
VERTEX
  8
AM_0
  5
1C97D
 10
377.415
 20
260.638
 30
0.000000
  70
    32
  0
VERTEX
  8
AM_0
  5
1C97E
 10
377.399
 20
260.634
 30
0.000000
  70
    32
  0
VERTEX
  8
AM_0
  5
1C97F
 10
377.382
 20
260.631
 30
0.000000
  70
    32
  0
VERTEX
  8
AM_0
  5
1C980
 10
377.366
 20
260.627
 30
0.000000
  70
    32
  0
VERTEX
  8
AM_0
  5
1C981
 10
377.349
 20
260.623
 30
0.000000
  70
    32
  0
VERTEX
  8
AM_0
  5
1C982
 10
377.333
 20
260.619
 30
0.000000
  70
    32
  0
VERTEX
  8
AM_0
  5
1C983
 10
377.316
 20
260.616
 30
0.000000
  70
    32
  0
VERTEX
  8
AM_0
  5
1C984
 10
377.300
 20
260.611
 30
0.000000
  70
    32
  0
VERTEX
  8
AM_0
  5
1C985
 10
377.283
 20
260.607
 30
0.000000
  70
    32
  0
VERTEX
  8
AM_0
  5
1C986
 10
377.267
 20
260.603
 30
0.000000
  70
    32
  0
VERTEX
  8
AM_0
  5
1C987
 10
377.250
 20
260.599
 30
0.000000
  70
    32
  0
VERTEX
  8
AM_0
  5
1C988
 10
377.234
 20
260.594
 30
0.000000
  70
    32
  0
VERTEX
  8
AM_0
  5
1C989
 10
377.218
 20
260.590
 30
0.000000
  70
    32
  0
VERTEX
  8
AM_0
  5
1C98A
 10
377.201
 20
260.585
 30
0.000000
  70
    32
  0
VERTEX
  8
AM_0
  5
1C98B
 10
377.185
 20
260.581
 30
0.000000
  70
    32
  0
VERTEX
  8
AM_0
  5
1C98C
 10
377.169
 20
260.576
 30
0.000000
  70
    32
  0
VERTEX
  8
AM_0
  5
1C98D
 10
377.153
 20
260.571
 30
0.000000
  70
    32
  0
VERTEX
  8
AM_0
  5
1C98E
 10
377.137
 20
260.566
 30
0.000000
  70
    32
  0
VERTEX
  8
AM_0
  5
1C98F
 10
377.120
 20
260.561
 30
0.000000
  70
    32
  0
VERTEX
  8
AM_0
  5
1C990
 10
377.104
 20
260.556
 30
0.000000
  70
    32
  0
VERTEX
  8
AM_0
  5
1C991
 10
377.088
 20
260.551
 30
0.000000
  70
    32
  0
VERTEX
  8
AM_0
  5
1C992
 10
377.072
 20
260.545
 30
0.000000
  70
    32
  0
VERTEX
  8
AM_0
  5
1C993
 10
377.056
 20
260.540
 30
0.000000
  70
    32
  0
VERTEX
  8
AM_0
  5
1C994
 10
377.040
 20
260.535
 30
0.000000
  70
    32
  0
VERTEX
  8
AM_0
  5
1C995
 10
377.024
 20
260.529
 30
0.000000
  70
    32
  0
VERTEX
  8
AM_0
  5
1C996
 10
377.008
 20
260.523
 30
0.000000
  70
    32
  0
VERTEX
  8
AM_0
  5
1C997
 10
376.992
 20
260.518
 30
0.000000
  70
    32
  0
VERTEX
  8
AM_0
  5
1C998
 10
376.976
 20
260.512
 30
0.000000
  70
    32
  0
VERTEX
  8
AM_0
  5
1C999
 10
376.960
 20
260.506
 30
0.000000
  70
    32
  0
VERTEX
  8
AM_0
  5
1C99A
 10
376.944
 20
260.500
 30
0.000000
  70
    32
  0
VERTEX
  8
AM_0
  5
1C99B
 10
376.929
 20
260.494
 30
0.000000
  70
    32
  0
VERTEX
  8
AM_0
  5
1C99C
 10
376.913
 20
260.487
 30
0.000000
  70
    32
  0
VERTEX
  8
AM_0
  5
1C99D
 10
376.897
 20
260.481
 30
0.000000
  70
    32
  0
VERTEX
  8
AM_0
  5
1C99E
 10
376.881
 20
260.475
 30
0.000000
  70
    32
  0
VERTEX
  8
AM_0
  5
1C99F
 10
376.866
 20
260.468
 30
0.000000
  70
    32
  0
VERTEX
  8
AM_0
  5
1C9A0
 10
376.850
 20
260.462
 30
0.000000
  70
    32
  0
VERTEX
  8
AM_0
  5
1C9A1
 10
376.835
 20
260.455
 30
0.000000
  70
    32
  0
VERTEX
  8
AM_0
  5
1C9A2
 10
376.819
 20
260.448
 30
0.000000
  70
    32
  0
VERTEX
  8
AM_0
  5
1C9A3
 10
376.804
 20
260.441
 30
0.000000
  70
    32
  0
VERTEX
  8
AM_0
  5
1C9A4
 10
376.788
 20
260.434
 30
0.000000
  70
    32
  0
VERTEX
  8
AM_0
  5
1C9A5
 10
376.773
 20
260.427
 30
0.000000
  70
    32
  0
VERTEX
  8
AM_0
  5
1C9A6
 10
376.757
 20
260.420
 30
0.000000
  70
    32
  0
VERTEX
  8
AM_0
  5
1C9A7
 10
376.742
 20
260.413
 30
0.000000
  70
    32
  0
VERTEX
  8
AM_0
  5
1C9A8
 10
376.727
 20
260.406
 30
0.000000
  70
    32
  0
VERTEX
  8
AM_0
  5
1C9A9
 10
376.711
 20
260.399
 30
0.000000
  70
    32
  0
VERTEX
  8
AM_0
  5
1C9AA
 10
376.696
 20
260.391
 30
0.000000
  70
    32
  0
VERTEX
  8
AM_0
  5
1C9AB
 10
376.681
 20
260.384
 30
0.000000
  70
    32
  0
VERTEX
  8
AM_0
  5
1C9AC
 10
376.666
 20
260.376
 30
0.000000
  70
    32
  0
VERTEX
  8
AM_0
  5
1C9AD
 10
376.651
 20
260.368
 30
0.000000
  70
    32
  0
VERTEX
  8
AM_0
  5
1C9AE
 10
376.636
 20
260.361
 30
0.000000
  70
    32
  0
VERTEX
  8
AM_0
  5
1C9AF
 10
376.621
 20
260.353
 30
0.000000
  70
    32
  0
VERTEX
  8
AM_0
  5
1C9B0
 10
376.606
 20
260.345
 30
0.000000
  70
    32
  0
VERTEX
  8
AM_0
  5
1C9B1
 10
376.591
 20
260.337
 30
0.000000
  70
    32
  0
VERTEX
  8
AM_0
  5
1C9B2
 10
376.576
 20
260.329
 30
0.000000
  70
    32
  0
VERTEX
  8
AM_0
  5
1C9B3
 10
376.561
 20
260.320
 30
0.000000
  70
    32
  0
VERTEX
  8
AM_0
  5
1C9B4
 10
376.546
 20
260.312
 30
0.000000
  70
    32
  0
VERTEX
  8
AM_0
  5
1C9B5
 10
376.532
 20
260.304
 30
0.000000
  70
    32
  0
VERTEX
  8
AM_0
  5
1C9B6
 10
376.517
 20
260.295
 30
0.000000
  70
    32
  0
VERTEX
  8
AM_0
  5
1C9B7
 10
376.502
 20
260.287
 30
0.000000
  70
    32
  0
VERTEX
  8
AM_0
  5
1C9B8
 10
376.488
 20
260.278
 30
0.000000
  70
    32
  0
VERTEX
  8
AM_0
  5
1C9B9
 10
376.473
 20
260.269
 30
0.000000
  70
    32
  0
VERTEX
  8
AM_0
  5
1C9BA
 10
376.459
 20
260.261
 30
0.000000
  70
    32
  0
VERTEX
  8
AM_0
  5
1C9BB
 10
376.444
 20
260.252
 30
0.000000
  70
    32
  0
VERTEX
  8
AM_0
  5
1C9BC
 10
376.430
 20
260.243
 30
0.000000
  70
    32
  0
VERTEX
  8
AM_0
  5
1C9BD
 10
376.416
 20
260.234
 30
0.000000
  70
    32
  0
VERTEX
  8
AM_0
  5
1C9BE
 10
376.401
 20
260.225
 30
0.000000
  70
    32
  0
VERTEX
  8
AM_0
  5
1C9BF
 10
376.387
 20
260.216
 30
0.000000
  70
    32
  0
VERTEX
  8
AM_0
  5
1C9C0
 10
376.373
 20
260.206
 30
0.000000
  70
    32
  0
VERTEX
  8
AM_0
  5
1C9C1
 10
376.359
 20
260.197
 30
0.000000
  70
    32
  0
VERTEX
  8
AM_0
  5
1C9C2
 10
376.345
 20
260.187
 30
0.000000
  70
    32
  0
VERTEX
  8
AM_0
  5
1C9C3
 10
376.331
 20
260.178
 30
0.000000
  70
    32
  0
VERTEX
  8
AM_0
  5
1C9C4
 10
376.317
 20
260.168
 30
0.000000
  70
    32
  0
VERTEX
  8
AM_0
  5
1C9C5
 10
376.303
 20
260.159
 30
0.000000
  70
    32
  0
VERTEX
  8
AM_0
  5
1C9C6
 10
376.289
 20
260.149
 30
0.000000
  70
    32
  0
VERTEX
  8
AM_0
  5
1C9C7
 10
376.275
 20
260.139
 30
0.000000
  70
    32
  0
VERTEX
  8
AM_0
  5
1C9C8
 10
376.261
 20
260.129
 30
0.000000
  70
    32
  0
VERTEX
  8
AM_0
  5
1C9C9
 10
376.248
 20
260.119
 30
0.000000
  70
    32
  0
VERTEX
  8
AM_0
  5
1C9CA
 10
376.234
 20
260.109
 30
0.000000
  70
    32
  0
VERTEX
  8
AM_0
  5
1C9CB
 10
376.221
 20
260.099
 30
0.000000
  70
    32
  0
VERTEX
  8
AM_0
  5
1C9CC
 10
376.207
 20
260.089
 30
0.000000
  70
    32
  0
VERTEX
  8
AM_0
  5
1C9CD
 10
376.194
 20
260.079
 30
0.000000
  70
    32
  0
VERTEX
  8
AM_0
  5
1C9CE
 10
376.180
 20
260.068
 30
0.000000
  70
    32
  0
VERTEX
  8
AM_0
  5
1C9CF
 10
376.167
 20
260.058
 30
0.000000
  70
    32
  0
VERTEX
  8
AM_0
  5
1C9D0
 10
376.153
 20
260.047
 30
0.000000
  70
    32
  0
VERTEX
  8
AM_0
  5
1C9D1
 10
376.140
 20
260.037
 30
0.000000
  70
    32
  0
VERTEX
  8
AM_0
  5
1C9D2
 10
376.127
 20
260.026
 30
0.000000
  70
    32
  0
VERTEX
  8
AM_0
  5
1C9D3
 10
376.114
 20
260.015
 30
0.000000
  70
    32
  0
VERTEX
  8
AM_0
  5
1C9D4
 10
376.101
 20
260.005
 30
0.000000
  70
    32
  0
VERTEX
  8
AM_0
  5
1C9D5
 10
376.088
 20
259.994
 30
0.000000
  70
    32
  0
VERTEX
  8
AM_0
  5
1C9D6
 10
376.075
 20
259.983
 30
0.000000
  70
    32
  0
VERTEX
  8
AM_0
  5
1C9D7
 10
376.062
 20
259.972
 30
0.000000
  70
    32
  0
VERTEX
  8
AM_0
  5
1C9D8
 10
376.049
 20
259.961
 30
0.000000
  70
    32
  0
VERTEX
  8
AM_0
  5
1C9D9
 10
376.037
 20
259.949
 30
0.000000
  70
    32
  0
SEQEND
  8
AM_0
  5
1C9DA
  0
LINE
  5
1A27F
  8
AM_0
 10
375.05232571037908
 20
269.6996393570052
 30
0.0
 11
363.0523257067793
 21
269.69963935700468
 31
0.0
  0
LINE
  5
1A293
  8
AM_0
 10
375.05232571037851
 20
293.63916573571203
 30
0.0
 11
363.0523257067785
 21
293.63916573571203
 31
0.0
  0
LINE
  5
1A2AE
  8
0
 10
413.9268294447246
 20
226.00428098414281
 30
0.0
 11
399.05685902483168
 21
260.70093813762549
 31
0.0
  0
ARC
  5
1A2AF
  8
AM_0
 10
414.55232616926219
 20
267.70089740035331
 30
0.0
 40
15.000000451534881
 50
180.00000500895689
 51
270.000000683243
  0
CIRCLE
  5
1A2B3
  8
0
 10
429.55229911344981
 20
232.7008993570042
 30
0.0
 40
7.0
  0
ARC
  5
1A2B4
  8
0
 10
429.55229911344981
 20
232.7008993570042
 30
0.0
 40
16.999999999999709
 50
203.19855493455009
 51
270.0
  0
LINE
  5
1A2B9
  8
AM_0
 10
437.40902260163449
 20
260.70089718963698
 30
0.0
 11
529.55229911344975
 21
260.70089718963737
 31
0.0
  0
CIRCLE
  5
1A2BA
  8
0
 10
414.55232616926219
 20
267.70089740035331
 30
0.0
 40
12.0
  0
ARC
  5
1A2BC
  8
AM_0
 10
414.55232616926219
 20
267.70089740035331
 30
0.0
 40
15.714285718999999
 50
0.3581004304211079
 51
89.641899569578882
  0
ARC
  5
1A2BD
  8
AM_0
 10
414.69518310354562
 20
290.55759383272601
 30
0.0
 40
7.142857144999998
 50
180.0
 51
269.64189956957892
1001
GENIUS_GENODEF_13
1002
{
1000
HIER
1070
     0
1002
}
1002
{
1000
MANEDIT
1070
     0
1002
}
1002
{
1000
NOSEL
1070
     0
1002
}
1002
{
1000
BEHIND
1070
     0
1002
}
1002
{
1000
OTHER
1070
     0
1002
}
1002
{
1000
REACTOR
1002
}
1001
GENIUS_GENOBJ-N-FIL_13
1002
{
1000
OWNER
1000
GEN
1002
}
  0
ARC
  5
1A2BE
  8
0
 10
399.58566981652172
 20
257.700938777852
 30
0.0
 40
3.000000000899997
 50
33.748837597605352
 51
90.000069465278145
1001
GENIUS_GENODEF_13
1002
{
1000
HIER
1070
     0
1002
}
1002
{
1000
MANEDIT
1070
     0
1002
}
1002
{
1000
NOSEL
1070
     0
1002
}
1002
{
1000
BEHIND
1070
     0
1002
}
1002
{
1000
OTHER
1070
     0
1002
}
1002
{
1000
REACTOR
1002
}
1001
GENIUS_GENOBJ-N-FIL_13
1002
{
1000
OWNER
1000
GEN
1002
}
  0
POLYLINE
  5
1A2BF
  8
AM_0
 10
390.07951224810057
 20
271.56151420423703
 30
0.0
 66
     1
 70
     8
  0
VERTEX
  8
AM_0
  5
1C9DB
 10
390.080
 20
271.562
 30
0.000000
  70
    32
  0
VERTEX
  8
AM_0
  5
1C9DC
 10
390.082
 20
271.527
 30
0.000000
  70
    32
  0
VERTEX
  8
AM_0
  5
1C9DD
 10
390.086
 20
271.492
 30
0.000000
  70
    32
  0
VERTEX
  8
AM_0
  5
1C9DE
 10
390.089
 20
271.457
 30
0.000000
  70
    32
  0
VERTEX
  8
AM_0
  5
1C9DF
 10
390.093
 20
271.422
 30
0.000000
  70
    32
  0
VERTEX
  8
AM_0
  5
1C9E0
 10
390.098
 20
271.387
 30
0.000000
  70
    32
  0
VERTEX
  8
AM_0
  5
1C9E1
 10
390.103
 20
271.352
 30
0.000000
  70
    32
  0
VERTEX
  8
AM_0
  5
1C9E2
 10
390.108
 20
271.318
 30
0.000000
  70
    32
  0
VERTEX
  8
AM_0
  5
1C9E3
 10
390.114
 20
271.283
 30
0.000000
  70
    32
  0
VERTEX
  8
AM_0
  5
1C9E4
 10
390.120
 20
271.249
 30
0.000000
  70
    32
  0
VERTEX
  8
AM_0
  5
1C9E5
 10
390.126
 20
271.214
 30
0.000000
  70
    32
  0
VERTEX
  8
AM_0
  5
1C9E6
 10
390.133
 20
271.180
 30
0.000000
  70
    32
  0
VERTEX
  8
AM_0
  5
1C9E7
 10
390.140
 20
271.146
 30
0.000000
  70
    32
  0
VERTEX
  8
AM_0
  5
1C9E8
 10
390.148
 20
271.111
 30
0.000000
  70
    32
  0
VERTEX
  8
AM_0
  5
1C9E9
 10
390.156
 20
271.077
 30
0.000000
  70
    32
  0
VERTEX
  8
AM_0
  5
1C9EA
 10
390.164
 20
271.043
 30
0.000000
  70
    32
  0
VERTEX
  8
AM_0
  5
1C9EB
 10
390.173
 20
271.009
 30
0.000000
  70
    32
  0
VERTEX
  8
AM_0
  5
1C9EC
 10
390.183
 20
270.975
 30
0.000000
  70
    32
  0
VERTEX
  8
AM_0
  5
1C9ED
 10
390.192
 20
270.942
 30
0.000000
  70
    32
  0
VERTEX
  8
AM_0
  5
1C9EE
 10
390.202
 20
270.908
 30
0.000000
  70
    32
  0
VERTEX
  8
AM_0
  5
1C9EF
 10
390.213
 20
270.875
 30
0.000000
  70
    32
  0
VERTEX
  8
AM_0
  5
1C9F0
 10
390.224
 20
270.841
 30
0.000000
  70
    32
  0
VERTEX
  8
AM_0
  5
1C9F1
 10
390.235
 20
270.808
 30
0.000000
  70
    32
  0
VERTEX
  8
AM_0
  5
1C9F2
 10
390.246
 20
270.775
 30
0.000000
  70
    32
  0
VERTEX
  8
AM_0
  5
1C9F3
 10
390.258
 20
270.742
 30
0.000000
  70
    32
  0
VERTEX
  8
AM_0
  5
1C9F4
 10
390.271
 20
270.709
 30
0.000000
  70
    32
  0
VERTEX
  8
AM_0
  5
1C9F5
 10
390.284
 20
270.677
 30
0.000000
  70
    32
  0
VERTEX
  8
AM_0
  5
1C9F6
 10
390.297
 20
270.644
 30
0.000000
  70
    32
  0
VERTEX
  8
AM_0
  5
1C9F7
 10
390.310
 20
270.612
 30
0.000000
  70
    32
  0
VERTEX
  8
AM_0
  5
1C9F8
 10
390.324
 20
270.580
 30
0.000000
  70
    32
  0
VERTEX
  8
AM_0
  5
1C9F9
 10
390.339
 20
270.548
 30
0.000000
  70
    32
  0
VERTEX
  8
AM_0
  5
1C9FA
 10
390.353
 20
270.516
 30
0.000000
  70
    32
  0
VERTEX
  8
AM_0
  5
1C9FB
 10
390.368
 20
270.484
 30
0.000000
  70
    32
  0
VERTEX
  8
AM_0
  5
1C9FC
 10
390.384
 20
270.453
 30
0.000000
  70
    32
  0
VERTEX
  8
AM_0
  5
1C9FD
 10
390.399
 20
270.421
 30
0.000000
  70
    32
  0
VERTEX
  8
AM_0
  5
1C9FE
 10
390.415
 20
270.390
 30
0.000000
  70
    32
  0
VERTEX
  8
AM_0
  5
1C9FF
 10
390.432
 20
270.359
 30
0.000000
  70
    32
  0
VERTEX
  8
AM_0
  5
1CA00
 10
390.449
 20
270.328
 30
0.000000
  70
    32
  0
VERTEX
  8
AM_0
  5
1CA01
 10
390.466
 20
270.298
 30
0.000000
  70
    32
  0
VERTEX
  8
AM_0
  5
1CA02
 10
390.484
 20
270.267
 30
0.000000
  70
    32
  0
VERTEX
  8
AM_0
  5
1CA03
 10
390.502
 20
270.237
 30
0.000000
  70
    32
  0
VERTEX
  8
AM_0
  5
1CA04
 10
390.520
 20
270.207
 30
0.000000
  70
    32
  0
VERTEX
  8
AM_0
  5
1CA05
 10
390.538
 20
270.178
 30
0.000000
  70
    32
  0
VERTEX
  8
AM_0
  5
1CA06
 10
390.557
 20
270.148
 30
0.000000
  70
    32
  0
VERTEX
  8
AM_0
  5
1CA07
 10
390.577
 20
270.119
 30
0.000000
  70
    32
  0
VERTEX
  8
AM_0
  5
1CA08
 10
390.596
 20
270.090
 30
0.000000
  70
    32
  0
VERTEX
  8
AM_0
  5
1CA09
 10
390.616
 20
270.061
 30
0.000000
  70
    32
  0
VERTEX
  8
AM_0
  5
1CA0A
 10
390.637
 20
270.033
 30
0.000000
  70
    32
  0
VERTEX
  8
AM_0
  5
1CA0B
 10
390.657
 20
270.004
 30
0.000000
  70
    32
  0
VERTEX
  8
AM_0
  5
1CA0C
 10
390.678
 20
269.976
 30
0.000000
  70
    32
  0
VERTEX
  8
AM_0
  5
1CA0D
 10
390.700
 20
269.948
 30
0.000000
  70
    32
  0
VERTEX
  8
AM_0
  5
1CA0E
 10
390.721
 20
269.921
 30
0.000000
  70
    32
  0
VERTEX
  8
AM_0
  5
1CA0F
 10
390.743
 20
269.893
 30
0.000000
  70
    32
  0
VERTEX
  8
AM_0
  5
1CA10
 10
390.765
 20
269.866
 30
0.000000
  70
    32
  0
VERTEX
  8
AM_0
  5
1CA11
 10
390.788
 20
269.839
 30
0.000000
  70
    32
  0
VERTEX
  8
AM_0
  5
1CA12
 10
390.811
 20
269.813
 30
0.000000
  70
    32
  0
VERTEX
  8
AM_0
  5
1CA13
 10
390.834
 20
269.787
 30
0.000000
  70
    32
  0
VERTEX
  8
AM_0
  5
1CA14
 10
390.858
 20
269.761
 30
0.000000
  70
    32
  0
VERTEX
  8
AM_0
  5
1CA15
 10
390.882
 20
269.735
 30
0.000000
  70
    32
  0
VERTEX
  8
AM_0
  5
1CA16
 10
390.906
 20
269.709
 30
0.000000
  70
    32
  0
VERTEX
  8
AM_0
  5
1CA17
 10
390.930
 20
269.684
 30
0.000000
  70
    32
  0
VERTEX
  8
AM_0
  5
1CA18
 10
390.955
 20
269.659
 30
0.000000
  70
    32
  0
VERTEX
  8
AM_0
  5
1CA19
 10
390.980
 20
269.635
 30
0.000000
  70
    32
  0
VERTEX
  8
AM_0
  5
1CA1A
 10
391.005
 20
269.610
 30
0.000000
  70
    32
  0
VERTEX
  8
AM_0
  5
1CA1B
 10
391.031
 20
269.586
 30
0.000000
  70
    32
  0
VERTEX
  8
AM_0
  5
1CA1C
 10
391.056
 20
269.563
 30
0.000000
  70
    32
  0
VERTEX
  8
AM_0
  5
1CA1D
 10
391.083
 20
269.539
 30
0.000000
  70
    32
  0
VERTEX
  8
AM_0
  5
1CA1E
 10
391.109
 20
269.516
 30
0.000000
  70
    32
  0
VERTEX
  8
AM_0
  5
1CA1F
 10
391.136
 20
269.494
 30
0.000000
  70
    32
  0
VERTEX
  8
AM_0
  5
1CA20
 10
391.163
 20
269.471
 30
0.000000
  70
    32
  0
VERTEX
  8
AM_0
  5
1CA21
 10
391.190
 20
269.449
 30
0.000000
  70
    32
  0
VERTEX
  8
AM_0
  5
1CA22
 10
391.217
 20
269.427
 30
0.000000
  70
    32
  0
VERTEX
  8
AM_0
  5
1CA23
 10
391.245
 20
269.406
 30
0.000000
  70
    32
  0
VERTEX
  8
AM_0
  5
1CA24
 10
391.273
 20
269.384
 30
0.000000
  70
    32
  0
VERTEX
  8
AM_0
  5
1CA25
 10
391.301
 20
269.364
 30
0.000000
  70
    32
  0
VERTEX
  8
AM_0
  5
1CA26
 10
391.329
 20
269.343
 30
0.000000
  70
    32
  0
VERTEX
  8
AM_0
  5
1CA27
 10
391.358
 20
269.323
 30
0.000000
  70
    32
  0
VERTEX
  8
AM_0
  5
1CA28
 10
391.387
 20
269.303
 30
0.000000
  70
    32
  0
VERTEX
  8
AM_0
  5
1CA29
 10
391.416
 20
269.283
 30
0.000000
  70
    32
  0
VERTEX
  8
AM_0
  5
1CA2A
 10
391.445
 20
269.264
 30
0.000000
  70
    32
  0
VERTEX
  8
AM_0
  5
1CA2B
 10
391.475
 20
269.245
 30
0.000000
  70
    32
  0
VERTEX
  8
AM_0
  5
1CA2C
 10
391.505
 20
269.227
 30
0.000000
  70
    32
  0
VERTEX
  8
AM_0
  5
1CA2D
 10
391.535
 20
269.209
 30
0.000000
  70
    32
  0
VERTEX
  8
AM_0
  5
1CA2E
 10
391.565
 20
269.191
 30
0.000000
  70
    32
  0
VERTEX
  8
AM_0
  5
1CA2F
 10
391.595
 20
269.174
 30
0.000000
  70
    32
  0
VERTEX
  8
AM_0
  5
1CA30
 10
391.626
 20
269.157
 30
0.000000
  70
    32
  0
VERTEX
  8
AM_0
  5
1CA31
 10
391.657
 20
269.140
 30
0.000000
  70
    32
  0
VERTEX
  8
AM_0
  5
1CA32
 10
391.688
 20
269.124
 30
0.000000
  70
    32
  0
VERTEX
  8
AM_0
  5
1CA33
 10
391.719
 20
269.108
 30
0.000000
  70
    32
  0
VERTEX
  8
AM_0
  5
1CA34
 10
391.751
 20
269.092
 30
0.000000
  70
    32
  0
VERTEX
  8
AM_0
  5
1CA35
 10
391.782
 20
269.077
 30
0.000000
  70
    32
  0
VERTEX
  8
AM_0
  5
1CA36
 10
391.814
 20
269.062
 30
0.000000
  70
    32
  0
VERTEX
  8
AM_0
  5
1CA37
 10
391.846
 20
269.047
 30
0.000000
  70
    32
  0
VERTEX
  8
AM_0
  5
1CA38
 10
391.878
 20
269.033
 30
0.000000
  70
    32
  0
VERTEX
  8
AM_0
  5
1CA39
 10
391.910
 20
269.019
 30
0.000000
  70
    32
  0
VERTEX
  8
AM_0
  5
1CA3A
 10
391.943
 20
269.006
 30
0.000000
  70
    32
  0
VERTEX
  8
AM_0
  5
1CA3B
 10
391.975
 20
268.993
 30
0.000000
  70
    32
  0
VERTEX
  8
AM_0
  5
1CA3C
 10
392.008
 20
268.980
 30
0.000000
  70
    32
  0
VERTEX
  8
AM_0
  5
1CA3D
 10
392.041
 20
268.968
 30
0.000000
  70
    32
  0
VERTEX
  8
AM_0
  5
1CA3E
 10
392.074
 20
268.956
 30
0.000000
  70
    32
  0
VERTEX
  8
AM_0
  5
1CA3F
 10
392.107
 20
268.945
 30
0.000000
  70
    32
  0
VERTEX
  8
AM_0
  5
1CA40
 10
392.140
 20
268.934
 30
0.000000
  70
    32
  0
VERTEX
  8
AM_0
  5
1CA41
 10
392.173
 20
268.923
 30
0.000000
  70
    32
  0
VERTEX
  8
AM_0
  5
1CA42
 10
392.207
 20
268.913
 30
0.000000
  70
    32
  0
VERTEX
  8
AM_0
  5
1CA43
 10
392.241
 20
268.903
 30
0.000000
  70
    32
  0
VERTEX
  8
AM_0
  5
1CA44
 10
392.274
 20
268.893
 30
0.000000
  70
    32
  0
VERTEX
  8
AM_0
  5
1CA45
 10
392.308
 20
268.884
 30
0.000000
  70
    32
  0
VERTEX
  8
AM_0
  5
1CA46
 10
392.342
 20
268.876
 30
0.000000
  70
    32
  0
VERTEX
  8
AM_0
  5
1CA47
 10
392.376
 20
268.867
 30
0.000000
  70
    32
  0
VERTEX
  8
AM_0
  5
1CA48
 10
392.410
 20
268.859
 30
0.000000
  70
    32
  0
VERTEX
  8
AM_0
  5
1CA49
 10
392.445
 20
268.852
 30
0.000000
  70
    32
  0
VERTEX
  8
AM_0
  5
1CA4A
 10
392.479
 20
268.845
 30
0.000000
  70
    32
  0
VERTEX
  8
AM_0
  5
1CA4B
 10
392.513
 20
268.838
 30
0.000000
  70
    32
  0
VERTEX
  8
AM_0
  5
1CA4C
 10
392.548
 20
268.832
 30
0.000000
  70
    32
  0
VERTEX
  8
AM_0
  5
1CA4D
 10
392.582
 20
268.826
 30
0.000000
  70
    32
  0
VERTEX
  8
AM_0
  5
1CA4E
 10
392.617
 20
268.820
 30
0.000000
  70
    32
  0
VERTEX
  8
AM_0
  5
1CA4F
 10
392.652
 20
268.815
 30
0.000000
  70
    32
  0
VERTEX
  8
AM_0
  5
1CA50
 10
392.686
 20
268.810
 30
0.000000
  70
    32
  0
VERTEX
  8
AM_0
  5
1CA51
 10
392.721
 20
268.806
 30
0.000000
  70
    32
  0
VERTEX
  8
AM_0
  5
1CA52
 10
392.756
 20
268.802
 30
0.000000
  70
    32
  0
VERTEX
  8
AM_0
  5
1CA53
 10
392.791
 20
268.799
 30
0.000000
  70
    32
  0
VERTEX
  8
AM_0
  5
1CA54
 10
392.826
 20
268.796
 30
0.000000
  70
    32
  0
VERTEX
  8
AM_0
  5
1CA55
 10
392.861
 20
268.793
 30
0.000000
  70
    32
  0
VERTEX
  8
AM_0
  5
1CA56
 10
392.896
 20
268.791
 30
0.000000
  70
    32
  0
VERTEX
  8
AM_0
  5
1CA57
 10
392.931
 20
268.789
 30
0.000000
  70
    32
  0
VERTEX
  8
AM_0
  5
1CA58
 10
392.966
 20
268.787
 30
0.000000
  70
    32
  0
VERTEX
  8
AM_0
  5
1CA59
 10
393.001
 20
268.786
 30
0.000000
  70
    32
  0
VERTEX
  8
AM_0
  5
1CA5A
 10
393.036
 20
268.786
 30
0.000000
  70
    32
  0
VERTEX
  8
AM_0
  5
1CA5B
 10
393.071
 20
268.786
 30
0.000000
  70
    32
  0
SEQEND
  8
AM_0
  5
1CA5C
  0
LINE
  5
1A2C0
  8
AM_0
 10
393.07112631716751
 20
268.78561324813779
 30
0.0
 11
397.05232571697729
 21
268.78561324813779
 31
0.0
  0
POLYLINE
  5
1A2C1
  8
0
 66
     1
 10
0.0
 20
0.0
 30
0.0
 70
     1
  0
VERTEX
  5
1C7FE
  8
0
 10
409.55232616926202
 20
270.58764874630128
 30
0.0
  0
VERTEX
  5
1C7FF
  8
0
 10
409.55232616926202
 20
264.814146054405
 30
0.0
  0
VERTEX
  5
1C800
  8
0
 10
414.55232616926219
 20
261.92739470845692
 30
0.0
  0
VERTEX
  5
1C801
  8
0
 10
419.55232616926207
 20
264.814146054405
 30
0.0
  0
VERTEX
  5
1C802
  8
0
 10
419.55232616926207
 20
270.58764874630128
 30
0.0
  0
VERTEX
  5
1C803
  8
0
 10
414.55232616926219
 20
273.47440009224943
 30
0.0
  0
SEQEND
  5
1C804
  8
0
  0
CIRCLE
  5
1A2C2
  8
0
 10
414.55232616926219
 20
267.70089740035331
 30
0.0
 40
9.0
  0
ARC
  5
1A2C4
  8
AM_0
 10
437.40902260163449
 20
267.84375433463708
 30
0.0
 40
7.142857144999998
 50
180.3581004304211
 51
270.0
1001
GENIUS_GENOBJ-N-FIL_13
1002
{
1000
OWNER
1000
GEN
1002
}
1001
GENIUS_GENODEF_13
1002
{
1000
HIER
1070
     0
1002
}
1002
{
1000
MANEDIT
1070
     0
1002
}
1002
{
1000
NOSEL
1070
     0
1002
}
1002
{
1000
BEHIND
1070
     0
1002
}
1002
{
1000
OTHER
1070
     0
1002
}
1002
{
1000
REACTOR
1002
}
  0
CIRCLE
  5
1A2C5
  8
AM_0
 10
529.55229911344975
 20
332.70089935700469
 30
0.0
 40
25.000000752558059
  0
ARC
  5
1A2C6
  8
0
 10
529.55229911344975
 20
332.70089935700469
 30
0.0
 40
16.000000000000512
 50
108.2099568642822
 51
71.790043135717795
  0
LINE
  5
1A2C7
  8
0
 10
524.55229911344986
 20
351.70089935700378
 30
0.0
 11
534.55229911344975
 21
351.70089935700378
 31
0.0
  0
LINE
  5
1A2C8
  8
AM_0
 10
534.55229911344975
 20
343.70089935700378
 30
0.0
 11
534.55229911344975
 21
351.70089935700378
 31
0.0
  0
LINE
  5
1A2C9
  8
0
 10
524.55229911344986
 20
343.70089935700378
 30
0.0
 11
534.55229911344975
 21
343.70089935700378
 31
0.0
  0
LINE
  5
1A2CA
  8
AM_0
 10
524.55229911344986
 20
343.70089935700378
 30
0.0
 11
524.55229911344986
 21
351.70089935700378
 31
0.0
  0
LINE
  5
1A2E3
  8
AM_0
 10
378.02094762808377
 20
404.70232605841198
 30
0.0
 11
399.58566617932769
 21
404.70229991286999
 31
0.0
  0
LINE
  5
1A300
  8
AM_0
 10
375.05232571037709
 20
371.76263297829792
 30
0.0
 11
363.05232570677742
 21
371.76263297829752
 31
0.0
  0
LINE
  5
1A301
  8
AM_0
 10
375.05232571037709
 20
395.70215935700469
 30
0.0
 11
363.0523257067772
 21
395.70215935700469
 31
0.0
  0
LINE
  5
1A308
  8
AM_0
 10
363.05233178645091
 20
406.20237420669258
 30
0.0
 11
374.05233099927108
 21
406.2023548125955
 31
0.0
  0
POLYLINE
  5
1A309
  8
AM_0
 10
376.03663848767729
 20
405.45234043550533
 30
0.0
 66
     1
 70
     8
  0
VERTEX
  8
AM_0
  5
1CA5D
 10
376.037
 20
405.452
 30
0.000000
  70
    32
  0
VERTEX
  8
AM_0
  5
1CA5E
 10
376.024
 20
405.464
 30
0.000000
  70
    32
  0
VERTEX
  8
AM_0
  5
1CA5F
 10
376.011
 20
405.475
 30
0.000000
  70
    32
  0
VERTEX
  8
AM_0
  5
1CA60
 10
375.998
 20
405.486
 30
0.000000
  70
    32
  0
VERTEX
  8
AM_0
  5
1CA61
 10
375.985
 20
405.497
 30
0.000000
  70
    32
  0
VERTEX
  8
AM_0
  5
1CA62
 10
375.972
 20
405.507
 30
0.000000
  70
    32
  0
VERTEX
  8
AM_0
  5
1CA63
 10
375.959
 20
405.518
 30
0.000000
  70
    32
  0
VERTEX
  8
AM_0
  5
1CA64
 10
375.946
 20
405.529
 30
0.000000
  70
    32
  0
VERTEX
  8
AM_0
  5
1CA65
 10
375.933
 20
405.540
 30
0.000000
  70
    32
  0
VERTEX
  8
AM_0
  5
1CA66
 10
375.920
 20
405.550
 30
0.000000
  70
    32
  0
VERTEX
  8
AM_0
  5
1CA67
 10
375.907
 20
405.561
 30
0.000000
  70
    32
  0
VERTEX
  8
AM_0
  5
1CA68
 10
375.893
 20
405.571
 30
0.000000
  70
    32
  0
VERTEX
  8
AM_0
  5
1CA69
 10
375.880
 20
405.582
 30
0.000000
  70
    32
  0
VERTEX
  8
AM_0
  5
1CA6A
 10
375.866
 20
405.592
 30
0.000000
  70
    32
  0
VERTEX
  8
AM_0
  5
1CA6B
 10
375.853
 20
405.602
 30
0.000000
  70
    32
  0
VERTEX
  8
AM_0
  5
1CA6C
 10
375.839
 20
405.612
 30
0.000000
  70
    32
  0
VERTEX
  8
AM_0
  5
1CA6D
 10
375.826
 20
405.622
 30
0.000000
  70
    32
  0
VERTEX
  8
AM_0
  5
1CA6E
 10
375.812
 20
405.632
 30
0.000000
  70
    32
  0
VERTEX
  8
AM_0
  5
1CA6F
 10
375.798
 20
405.642
 30
0.000000
  70
    32
  0
VERTEX
  8
AM_0
  5
1CA70
 10
375.784
 20
405.652
 30
0.000000
  70
    32
  0
VERTEX
  8
AM_0
  5
1CA71
 10
375.770
 20
405.662
 30
0.000000
  70
    32
  0
VERTEX
  8
AM_0
  5
1CA72
 10
375.757
 20
405.671
 30
0.000000
  70
    32
  0
VERTEX
  8
AM_0
  5
1CA73
 10
375.743
 20
405.681
 30
0.000000
  70
    32
  0
VERTEX
  8
AM_0
  5
1CA74
 10
375.729
 20
405.690
 30
0.000000
  70
    32
  0
VERTEX
  8
AM_0
  5
1CA75
 10
375.714
 20
405.700
 30
0.000000
  70
    32
  0
VERTEX
  8
AM_0
  5
1CA76
 10
375.700
 20
405.709
 30
0.000000
  70
    32
  0
VERTEX
  8
AM_0
  5
1CA77
 10
375.686
 20
405.718
 30
0.000000
  70
    32
  0
VERTEX
  8
AM_0
  5
1CA78
 10
375.672
 20
405.728
 30
0.000000
  70
    32
  0
VERTEX
  8
AM_0
  5
1CA79
 10
375.658
 20
405.737
 30
0.000000
  70
    32
  0
VERTEX
  8
AM_0
  5
1CA7A
 10
375.643
 20
405.746
 30
0.000000
  70
    32
  0
VERTEX
  8
AM_0
  5
1CA7B
 10
375.629
 20
405.755
 30
0.000000
  70
    32
  0
VERTEX
  8
AM_0
  5
1CA7C
 10
375.614
 20
405.764
 30
0.000000
  70
    32
  0
VERTEX
  8
AM_0
  5
1CA7D
 10
375.600
 20
405.772
 30
0.000000
  70
    32
  0
VERTEX
  8
AM_0
  5
1CA7E
 10
375.585
 20
405.781
 30
0.000000
  70
    32
  0
VERTEX
  8
AM_0
  5
1CA7F
 10
375.571
 20
405.790
 30
0.000000
  70
    32
  0
VERTEX
  8
AM_0
  5
1CA80
 10
375.556
 20
405.798
 30
0.000000
  70
    32
  0
VERTEX
  8
AM_0
  5
1CA81
 10
375.542
 20
405.807
 30
0.000000
  70
    32
  0
VERTEX
  8
AM_0
  5
1CA82
 10
375.527
 20
405.815
 30
0.000000
  70
    32
  0
VERTEX
  8
AM_0
  5
1CA83
 10
375.512
 20
405.823
 30
0.000000
  70
    32
  0
VERTEX
  8
AM_0
  5
1CA84
 10
375.497
 20
405.831
 30
0.000000
  70
    32
  0
VERTEX
  8
AM_0
  5
1CA85
 10
375.482
 20
405.840
 30
0.000000
  70
    32
  0
VERTEX
  8
AM_0
  5
1CA86
 10
375.467
 20
405.848
 30
0.000000
  70
    32
  0
VERTEX
  8
AM_0
  5
1CA87
 10
375.453
 20
405.856
 30
0.000000
  70
    32
  0
VERTEX
  8
AM_0
  5
1CA88
 10
375.438
 20
405.863
 30
0.000000
  70
    32
  0
VERTEX
  8
AM_0
  5
1CA89
 10
375.422
 20
405.871
 30
0.000000
  70
    32
  0
VERTEX
  8
AM_0
  5
1CA8A
 10
375.407
 20
405.879
 30
0.000000
  70
    32
  0
VERTEX
  8
AM_0
  5
1CA8B
 10
375.392
 20
405.886
 30
0.000000
  70
    32
  0
VERTEX
  8
AM_0
  5
1CA8C
 10
375.377
 20
405.894
 30
0.000000
  70
    32
  0
VERTEX
  8
AM_0
  5
1CA8D
 10
375.362
 20
405.901
 30
0.000000
  70
    32
  0
VERTEX
  8
AM_0
  5
1CA8E
 10
375.347
 20
405.909
 30
0.000000
  70
    32
  0
VERTEX
  8
AM_0
  5
1CA8F
 10
375.331
 20
405.916
 30
0.000000
  70
    32
  0
VERTEX
  8
AM_0
  5
1CA90
 10
375.316
 20
405.923
 30
0.000000
  70
    32
  0
VERTEX
  8
AM_0
  5
1CA91
 10
375.301
 20
405.930
 30
0.000000
  70
    32
  0
VERTEX
  8
AM_0
  5
1CA92
 10
375.285
 20
405.937
 30
0.000000
  70
    32
  0
VERTEX
  8
AM_0
  5
1CA93
 10
375.270
 20
405.944
 30
0.000000
  70
    32
  0
VERTEX
  8
AM_0
  5
1CA94
 10
375.254
 20
405.951
 30
0.000000
  70
    32
  0
VERTEX
  8
AM_0
  5
1CA95
 10
375.239
 20
405.958
 30
0.000000
  70
    32
  0
VERTEX
  8
AM_0
  5
1CA96
 10
375.223
 20
405.964
 30
0.000000
  70
    32
  0
VERTEX
  8
AM_0
  5
1CA97
 10
375.207
 20
405.971
 30
0.000000
  70
    32
  0
VERTEX
  8
AM_0
  5
1CA98
 10
375.192
 20
405.978
 30
0.000000
  70
    32
  0
VERTEX
  8
AM_0
  5
1CA99
 10
375.176
 20
405.984
 30
0.000000
  70
    32
  0
VERTEX
  8
AM_0
  5
1CA9A
 10
375.160
 20
405.990
 30
0.000000
  70
    32
  0
VERTEX
  8
AM_0
  5
1CA9B
 10
375.145
 20
405.996
 30
0.000000
  70
    32
  0
VERTEX
  8
AM_0
  5
1CA9C
 10
375.129
 20
406.003
 30
0.000000
  70
    32
  0
VERTEX
  8
AM_0
  5
1CA9D
 10
375.113
 20
406.009
 30
0.000000
  70
    32
  0
VERTEX
  8
AM_0
  5
1CA9E
 10
375.097
 20
406.015
 30
0.000000
  70
    32
  0
VERTEX
  8
AM_0
  5
1CA9F
 10
375.081
 20
406.020
 30
0.000000
  70
    32
  0
VERTEX
  8
AM_0
  5
1CAA0
 10
375.065
 20
406.026
 30
0.000000
  70
    32
  0
VERTEX
  8
AM_0
  5
1CAA1
 10
375.049
 20
406.032
 30
0.000000
  70
    32
  0
VERTEX
  8
AM_0
  5
1CAA2
 10
375.033
 20
406.037
 30
0.000000
  70
    32
  0
VERTEX
  8
AM_0
  5
1CAA3
 10
375.017
 20
406.043
 30
0.000000
  70
    32
  0
VERTEX
  8
AM_0
  5
1CAA4
 10
375.001
 20
406.048
 30
0.000000
  70
    32
  0
VERTEX
  8
AM_0
  5
1CAA5
 10
374.985
 20
406.054
 30
0.000000
  70
    32
  0
VERTEX
  8
AM_0
  5
1CAA6
 10
374.969
 20
406.059
 30
0.000000
  70
    32
  0
VERTEX
  8
AM_0
  5
1CAA7
 10
374.953
 20
406.064
 30
0.000000
  70
    32
  0
VERTEX
  8
AM_0
  5
1CAA8
 10
374.937
 20
406.069
 30
0.000000
  70
    32
  0
VERTEX
  8
AM_0
  5
1CAA9
 10
374.921
 20
406.074
 30
0.000000
  70
    32
  0
VERTEX
  8
AM_0
  5
1CAAA
 10
374.904
 20
406.079
 30
0.000000
  70
    32
  0
VERTEX
  8
AM_0
  5
1CAAB
 10
374.888
 20
406.084
 30
0.000000
  70
    32
  0
VERTEX
  8
AM_0
  5
1CAAC
 10
374.872
 20
406.088
 30
0.000000
  70
    32
  0
VERTEX
  8
AM_0
  5
1CAAD
 10
374.855
 20
406.093
 30
0.000000
  70
    32
  0
VERTEX
  8
AM_0
  5
1CAAE
 10
374.839
 20
406.097
 30
0.000000
  70
    32
  0
VERTEX
  8
AM_0
  5
1CAAF
 10
374.823
 20
406.102
 30
0.000000
  70
    32
  0
VERTEX
  8
AM_0
  5
1CAB0
 10
374.806
 20
406.106
 30
0.000000
  70
    32
  0
VERTEX
  8
AM_0
  5
1CAB1
 10
374.790
 20
406.110
 30
0.000000
  70
    32
  0
VERTEX
  8
AM_0
  5
1CAB2
 10
374.774
 20
406.114
 30
0.000000
  70
    32
  0
VERTEX
  8
AM_0
  5
1CAB3
 10
374.757
 20
406.118
 30
0.000000
  70
    32
  0
VERTEX
  8
AM_0
  5
1CAB4
 10
374.741
 20
406.122
 30
0.000000
  70
    32
  0
VERTEX
  8
AM_0
  5
1CAB5
 10
374.724
 20
406.126
 30
0.000000
  70
    32
  0
VERTEX
  8
AM_0
  5
1CAB6
 10
374.708
 20
406.130
 30
0.000000
  70
    32
  0
VERTEX
  8
AM_0
  5
1CAB7
 10
374.691
 20
406.134
 30
0.000000
  70
    32
  0
VERTEX
  8
AM_0
  5
1CAB8
 10
374.675
 20
406.137
 30
0.000000
  70
    32
  0
VERTEX
  8
AM_0
  5
1CAB9
 10
374.658
 20
406.141
 30
0.000000
  70
    32
  0
VERTEX
  8
AM_0
  5
1CABA
 10
374.641
 20
406.144
 30
0.000000
  70
    32
  0
VERTEX
  8
AM_0
  5
1CABB
 10
374.625
 20
406.147
 30
0.000000
  70
    32
  0
VERTEX
  8
AM_0
  5
1CABC
 10
374.608
 20
406.150
 30
0.000000
  70
    32
  0
VERTEX
  8
AM_0
  5
1CABD
 10
374.591
 20
406.154
 30
0.000000
  70
    32
  0
VERTEX
  8
AM_0
  5
1CABE
 10
374.575
 20
406.157
 30
0.000000
  70
    32
  0
VERTEX
  8
AM_0
  5
1CABF
 10
374.558
 20
406.159
 30
0.000000
  70
    32
  0
VERTEX
  8
AM_0
  5
1CAC0
 10
374.541
 20
406.162
 30
0.000000
  70
    32
  0
VERTEX
  8
AM_0
  5
1CAC1
 10
374.525
 20
406.165
 30
0.000000
  70
    32
  0
VERTEX
  8
AM_0
  5
1CAC2
 10
374.508
 20
406.168
 30
0.000000
  70
    32
  0
VERTEX
  8
AM_0
  5
1CAC3
 10
374.491
 20
406.170
 30
0.000000
  70
    32
  0
VERTEX
  8
AM_0
  5
1CAC4
 10
374.474
 20
406.173
 30
0.000000
  70
    32
  0
VERTEX
  8
AM_0
  5
1CAC5
 10
374.458
 20
406.175
 30
0.000000
  70
    32
  0
VERTEX
  8
AM_0
  5
1CAC6
 10
374.441
 20
406.177
 30
0.000000
  70
    32
  0
VERTEX
  8
AM_0
  5
1CAC7
 10
374.424
 20
406.179
 30
0.000000
  70
    32
  0
VERTEX
  8
AM_0
  5
1CAC8
 10
374.407
 20
406.181
 30
0.000000
  70
    32
  0
VERTEX
  8
AM_0
  5
1CAC9
 10
374.390
 20
406.183
 30
0.000000
  70
    32
  0
VERTEX
  8
AM_0
  5
1CACA
 10
374.374
 20
406.185
 30
0.000000
  70
    32
  0
VERTEX
  8
AM_0
  5
1CACB
 10
374.357
 20
406.187
 30
0.000000
  70
    32
  0
VERTEX
  8
AM_0
  5
1CACC
 10
374.340
 20
406.189
 30
0.000000
  70
    32
  0
VERTEX
  8
AM_0
  5
1CACD
 10
374.323
 20
406.190
 30
0.000000
  70
    32
  0
VERTEX
  8
AM_0
  5
1CACE
 10
374.306
 20
406.192
 30
0.000000
  70
    32
  0
VERTEX
  8
AM_0
  5
1CACF
 10
374.289
 20
406.193
 30
0.000000
  70
    32
  0
VERTEX
  8
AM_0
  5
1CAD0
 10
374.272
 20
406.194
 30
0.000000
  70
    32
  0
VERTEX
  8
AM_0
  5
1CAD1
 10
374.255
 20
406.195
 30
0.000000
  70
    32
  0
VERTEX
  8
AM_0
  5
1CAD2
 10
374.239
 20
406.197
 30
0.000000
  70
    32
  0
VERTEX
  8
AM_0
  5
1CAD3
 10
374.222
 20
406.198
 30
0.000000
  70
    32
  0
VERTEX
  8
AM_0
  5
1CAD4
 10
374.205
 20
406.198
 30
0.000000
  70
    32
  0
VERTEX
  8
AM_0
  5
1CAD5
 10
374.188
 20
406.199
 30
0.000000
  70
    32
  0
VERTEX
  8
AM_0
  5
1CAD6
 10
374.171
 20
406.200
 30
0.000000
  70
    32
  0
VERTEX
  8
AM_0
  5
1CAD7
 10
374.154
 20
406.201
 30
0.000000
  70
    32
  0
VERTEX
  8
AM_0
  5
1CAD8
 10
374.137
 20
406.201
 30
0.000000
  70
    32
  0
VERTEX
  8
AM_0
  5
1CAD9
 10
374.120
 20
406.202
 30
0.000000
  70
    32
  0
VERTEX
  8
AM_0
  5
1CADA
 10
374.103
 20
406.202
 30
0.000000
  70
    32
  0
VERTEX
  8
AM_0
  5
1CADB
 10
374.086
 20
406.202
 30
0.000000
  70
    32
  0
VERTEX
  8
AM_0
  5
1CADC
 10
374.069
 20
406.202
 30
0.000000
  70
    32
  0
VERTEX
  8
AM_0
  5
1CADD
 10
374.052
 20
406.202
 30
0.000000
  70
    32
  0
SEQEND
  8
AM_0
  5
1CADE
  0
POLYLINE
  5
1A30A
  8
AM_0
 10
376.03663848767701
 20
405.45234043550488
 30
0.0
 66
     1
 70
     8
  0
VERTEX
  8
AM_0
  5
1CADF
 10
376.037
 20
405.452
 30
0.000000
  70
    32
  0
VERTEX
  8
AM_0
  5
1CAE0
 10
376.049
 20
405.441
 30
0.000000
  70
    32
  0
VERTEX
  8
AM_0
  5
1CAE1
 10
376.062
 20
405.430
 30
0.000000
  70
    32
  0
VERTEX
  8
AM_0
  5
1CAE2
 10
376.075
 20
405.419
 30
0.000000
  70
    32
  0
VERTEX
  8
AM_0
  5
1CAE3
 10
376.088
 20
405.408
 30
0.000000
  70
    32
  0
VERTEX
  8
AM_0
  5
1CAE4
 10
376.101
 20
405.397
 30
0.000000
  70
    32
  0
VERTEX
  8
AM_0
  5
1CAE5
 10
376.114
 20
405.386
 30
0.000000
  70
    32
  0
VERTEX
  8
AM_0
  5
1CAE6
 10
376.127
 20
405.376
 30
0.000000
  70
    32
  0
VERTEX
  8
AM_0
  5
1CAE7
 10
376.140
 20
405.365
 30
0.000000
  70
    32
  0
VERTEX
  8
AM_0
  5
1CAE8
 10
376.153
 20
405.354
 30
0.000000
  70
    32
  0
VERTEX
  8
AM_0
  5
1CAE9
 10
376.167
 20
405.344
 30
0.000000
  70
    32
  0
VERTEX
  8
AM_0
  5
1CAEA
 10
376.180
 20
405.334
 30
0.000000
  70
    32
  0
VERTEX
  8
AM_0
  5
1CAEB
 10
376.194
 20
405.323
 30
0.000000
  70
    32
  0
VERTEX
  8
AM_0
  5
1CAEC
 10
376.207
 20
405.313
 30
0.000000
  70
    32
  0
VERTEX
  8
AM_0
  5
1CAED
 10
376.221
 20
405.303
 30
0.000000
  70
    32
  0
VERTEX
  8
AM_0
  5
1CAEE
 10
376.234
 20
405.293
 30
0.000000
  70
    32
  0
VERTEX
  8
AM_0
  5
1CAEF
 10
376.248
 20
405.282
 30
0.000000
  70
    32
  0
VERTEX
  8
AM_0
  5
1CAF0
 10
376.261
 20
405.273
 30
0.000000
  70
    32
  0
VERTEX
  8
AM_0
  5
1CAF1
 10
376.275
 20
405.263
 30
0.000000
  70
    32
  0
VERTEX
  8
AM_0
  5
1CAF2
 10
376.289
 20
405.253
 30
0.000000
  70
    32
  0
VERTEX
  8
AM_0
  5
1CAF3
 10
376.303
 20
405.243
 30
0.000000
  70
    32
  0
VERTEX
  8
AM_0
  5
1CAF4
 10
376.317
 20
405.233
 30
0.000000
  70
    32
  0
VERTEX
  8
AM_0
  5
1CAF5
 10
376.331
 20
405.224
 30
0.000000
  70
    32
  0
VERTEX
  8
AM_0
  5
1CAF6
 10
376.345
 20
405.214
 30
0.000000
  70
    32
  0
VERTEX
  8
AM_0
  5
1CAF7
 10
376.359
 20
405.205
 30
0.000000
  70
    32
  0
VERTEX
  8
AM_0
  5
1CAF8
 10
376.373
 20
405.196
 30
0.000000
  70
    32
  0
VERTEX
  8
AM_0
  5
1CAF9
 10
376.387
 20
405.186
 30
0.000000
  70
    32
  0
VERTEX
  8
AM_0
  5
1CAFA
 10
376.401
 20
405.177
 30
0.000000
  70
    32
  0
VERTEX
  8
AM_0
  5
1CAFB
 10
376.416
 20
405.168
 30
0.000000
  70
    32
  0
VERTEX
  8
AM_0
  5
1CAFC
 10
376.430
 20
405.159
 30
0.000000
  70
    32
  0
VERTEX
  8
AM_0
  5
1CAFD
 10
376.444
 20
405.150
 30
0.000000
  70
    32
  0
VERTEX
  8
AM_0
  5
1CAFE
 10
376.459
 20
405.141
 30
0.000000
  70
    32
  0
VERTEX
  8
AM_0
  5
1CAFF
 10
376.473
 20
405.132
 30
0.000000
  70
    32
  0
VERTEX
  8
AM_0
  5
1CB00
 10
376.488
 20
405.124
 30
0.000000
  70
    32
  0
VERTEX
  8
AM_0
  5
1CB01
 10
376.502
 20
405.115
 30
0.000000
  70
    32
  0
VERTEX
  8
AM_0
  5
1CB02
 10
376.517
 20
405.107
 30
0.000000
  70
    32
  0
VERTEX
  8
AM_0
  5
1CB03
 10
376.532
 20
405.098
 30
0.000000
  70
    32
  0
VERTEX
  8
AM_0
  5
1CB04
 10
376.546
 20
405.090
 30
0.000000
  70
    32
  0
VERTEX
  8
AM_0
  5
1CB05
 10
376.561
 20
405.081
 30
0.000000
  70
    32
  0
VERTEX
  8
AM_0
  5
1CB06
 10
376.576
 20
405.073
 30
0.000000
  70
    32
  0
VERTEX
  8
AM_0
  5
1CB07
 10
376.591
 20
405.065
 30
0.000000
  70
    32
  0
VERTEX
  8
AM_0
  5
1CB08
 10
376.606
 20
405.057
 30
0.000000
  70
    32
  0
VERTEX
  8
AM_0
  5
1CB09
 10
376.621
 20
405.049
 30
0.000000
  70
    32
  0
VERTEX
  8
AM_0
  5
1CB0A
 10
376.636
 20
405.041
 30
0.000000
  70
    32
  0
VERTEX
  8
AM_0
  5
1CB0B
 10
376.651
 20
405.033
 30
0.000000
  70
    32
  0
VERTEX
  8
AM_0
  5
1CB0C
 10
376.666
 20
405.026
 30
0.000000
  70
    32
  0
VERTEX
  8
AM_0
  5
1CB0D
 10
376.681
 20
405.018
 30
0.000000
  70
    32
  0
VERTEX
  8
AM_0
  5
1CB0E
 10
376.696
 20
405.011
 30
0.000000
  70
    32
  0
VERTEX
  8
AM_0
  5
1CB0F
 10
376.711
 20
405.003
 30
0.000000
  70
    32
  0
VERTEX
  8
AM_0
  5
1CB10
 10
376.727
 20
404.996
 30
0.000000
  70
    32
  0
VERTEX
  8
AM_0
  5
1CB11
 10
376.742
 20
404.989
 30
0.000000
  70
    32
  0
VERTEX
  8
AM_0
  5
1CB12
 10
376.757
 20
404.981
 30
0.000000
  70
    32
  0
VERTEX
  8
AM_0
  5
1CB13
 10
376.773
 20
404.974
 30
0.000000
  70
    32
  0
VERTEX
  8
AM_0
  5
1CB14
 10
376.788
 20
404.967
 30
0.000000
  70
    32
  0
VERTEX
  8
AM_0
  5
1CB15
 10
376.804
 20
404.960
 30
0.000000
  70
    32
  0
VERTEX
  8
AM_0
  5
1CB16
 10
376.819
 20
404.954
 30
0.000000
  70
    32
  0
VERTEX
  8
AM_0
  5
1CB17
 10
376.835
 20
404.947
 30
0.000000
  70
    32
  0
VERTEX
  8
AM_0
  5
1CB18
 10
376.850
 20
404.940
 30
0.000000
  70
    32
  0
VERTEX
  8
AM_0
  5
1CB19
 10
376.866
 20
404.934
 30
0.000000
  70
    32
  0
VERTEX
  8
AM_0
  5
1CB1A
 10
376.881
 20
404.927
 30
0.000000
  70
    32
  0
VERTEX
  8
AM_0
  5
1CB1B
 10
376.897
 20
404.921
 30
0.000000
  70
    32
  0
VERTEX
  8
AM_0
  5
1CB1C
 10
376.913
 20
404.914
 30
0.000000
  70
    32
  0
VERTEX
  8
AM_0
  5
1CB1D
 10
376.929
 20
404.908
 30
0.000000
  70
    32
  0
VERTEX
  8
AM_0
  5
1CB1E
 10
376.944
 20
404.902
 30
0.000000
  70
    32
  0
VERTEX
  8
AM_0
  5
1CB1F
 10
376.960
 20
404.896
 30
0.000000
  70
    32
  0
VERTEX
  8
AM_0
  5
1CB20
 10
376.976
 20
404.890
 30
0.000000
  70
    32
  0
VERTEX
  8
AM_0
  5
1CB21
 10
376.992
 20
404.884
 30
0.000000
  70
    32
  0
VERTEX
  8
AM_0
  5
1CB22
 10
377.008
 20
404.879
 30
0.000000
  70
    32
  0
VERTEX
  8
AM_0
  5
1CB23
 10
377.024
 20
404.873
 30
0.000000
  70
    32
  0
VERTEX
  8
AM_0
  5
1CB24
 10
377.040
 20
404.867
 30
0.000000
  70
    32
  0
VERTEX
  8
AM_0
  5
1CB25
 10
377.056
 20
404.862
 30
0.000000
  70
    32
  0
VERTEX
  8
AM_0
  5
1CB26
 10
377.072
 20
404.856
 30
0.000000
  70
    32
  0
VERTEX
  8
AM_0
  5
1CB27
 10
377.088
 20
404.851
 30
0.000000
  70
    32
  0
VERTEX
  8
AM_0
  5
1CB28
 10
377.104
 20
404.846
 30
0.000000
  70
    32
  0
VERTEX
  8
AM_0
  5
1CB29
 10
377.120
 20
404.841
 30
0.000000
  70
    32
  0
VERTEX
  8
AM_0
  5
1CB2A
 10
377.137
 20
404.836
 30
0.000000
  70
    32
  0
VERTEX
  8
AM_0
  5
1CB2B
 10
377.153
 20
404.831
 30
0.000000
  70
    32
  0
VERTEX
  8
AM_0
  5
1CB2C
 10
377.169
 20
404.826
 30
0.000000
  70
    32
  0
VERTEX
  8
AM_0
  5
1CB2D
 10
377.185
 20
404.821
 30
0.000000
  70
    32
  0
VERTEX
  8
AM_0
  5
1CB2E
 10
377.201
 20
404.816
 30
0.000000
  70
    32
  0
VERTEX
  8
AM_0
  5
1CB2F
 10
377.218
 20
404.812
 30
0.000000
  70
    32
  0
VERTEX
  8
AM_0
  5
1CB30
 10
377.234
 20
404.807
 30
0.000000
  70
    32
  0
VERTEX
  8
AM_0
  5
1CB31
 10
377.250
 20
404.803
 30
0.000000
  70
    32
  0
VERTEX
  8
AM_0
  5
1CB32
 10
377.267
 20
404.799
 30
0.000000
  70
    32
  0
VERTEX
  8
AM_0
  5
1CB33
 10
377.283
 20
404.794
 30
0.000000
  70
    32
  0
VERTEX
  8
AM_0
  5
1CB34
 10
377.300
 20
404.790
 30
0.000000
  70
    32
  0
VERTEX
  8
AM_0
  5
1CB35
 10
377.316
 20
404.786
 30
0.000000
  70
    32
  0
VERTEX
  8
AM_0
  5
1CB36
 10
377.333
 20
404.782
 30
0.000000
  70
    32
  0
VERTEX
  8
AM_0
  5
1CB37
 10
377.349
 20
404.779
 30
0.000000
  70
    32
  0
VERTEX
  8
AM_0
  5
1CB38
 10
377.366
 20
404.775
 30
0.000000
  70
    32
  0
VERTEX
  8
AM_0
  5
1CB39
 10
377.382
 20
404.771
 30
0.000000
  70
    32
  0
VERTEX
  8
AM_0
  5
1CB3A
 10
377.399
 20
404.768
 30
0.000000
  70
    32
  0
VERTEX
  8
AM_0
  5
1CB3B
 10
377.415
 20
404.764
 30
0.000000
  70
    32
  0
VERTEX
  8
AM_0
  5
1CB3C
 10
377.432
 20
404.761
 30
0.000000
  70
    32
  0
VERTEX
  8
AM_0
  5
1CB3D
 10
377.449
 20
404.757
 30
0.000000
  70
    32
  0
VERTEX
  8
AM_0
  5
1CB3E
 10
377.465
 20
404.754
 30
0.000000
  70
    32
  0
VERTEX
  8
AM_0
  5
1CB3F
 10
377.482
 20
404.751
 30
0.000000
  70
    32
  0
VERTEX
  8
AM_0
  5
1CB40
 10
377.499
 20
404.748
 30
0.000000
  70
    32
  0
VERTEX
  8
AM_0
  5
1CB41
 10
377.515
 20
404.745
 30
0.000000
  70
    32
  0
VERTEX
  8
AM_0
  5
1CB42
 10
377.532
 20
404.742
 30
0.000000
  70
    32
  0
VERTEX
  8
AM_0
  5
1CB43
 10
377.549
 20
404.740
 30
0.000000
  70
    32
  0
VERTEX
  8
AM_0
  5
1CB44
 10
377.565
 20
404.737
 30
0.000000
  70
    32
  0
VERTEX
  8
AM_0
  5
1CB45
 10
377.582
 20
404.735
 30
0.000000
  70
    32
  0
VERTEX
  8
AM_0
  5
1CB46
 10
377.599
 20
404.732
 30
0.000000
  70
    32
  0
VERTEX
  8
AM_0
  5
1CB47
 10
377.616
 20
404.730
 30
0.000000
  70
    32
  0
VERTEX
  8
AM_0
  5
1CB48
 10
377.632
 20
404.728
 30
0.000000
  70
    32
  0
VERTEX
  8
AM_0
  5
1CB49
 10
377.649
 20
404.725
 30
0.000000
  70
    32
  0
VERTEX
  8
AM_0
  5
1CB4A
 10
377.666
 20
404.723
 30
0.000000
  70
    32
  0
VERTEX
  8
AM_0
  5
1CB4B
 10
377.683
 20
404.721
 30
0.000000
  70
    32
  0
VERTEX
  8
AM_0
  5
1CB4C
 10
377.700
 20
404.720
 30
0.000000
  70
    32
  0
VERTEX
  8
AM_0
  5
1CB4D
 10
377.717
 20
404.718
 30
0.000000
  70
    32
  0
VERTEX
  8
AM_0
  5
1CB4E
 10
377.733
 20
404.716
 30
0.000000
  70
    32
  0
VERTEX
  8
AM_0
  5
1CB4F
 10
377.750
 20
404.715
 30
0.000000
  70
    32
  0
VERTEX
  8
AM_0
  5
1CB50
 10
377.767
 20
404.713
 30
0.000000
  70
    32
  0
VERTEX
  8
AM_0
  5
1CB51
 10
377.784
 20
404.712
 30
0.000000
  70
    32
  0
VERTEX
  8
AM_0
  5
1CB52
 10
377.801
 20
404.710
 30
0.000000
  70
    32
  0
VERTEX
  8
AM_0
  5
1CB53
 10
377.818
 20
404.709
 30
0.000000
  70
    32
  0
VERTEX
  8
AM_0
  5
1CB54
 10
377.835
 20
404.708
 30
0.000000
  70
    32
  0
VERTEX
  8
AM_0
  5
1CB55
 10
377.852
 20
404.707
 30
0.000000
  70
    32
  0
VERTEX
  8
AM_0
  5
1CB56
 10
377.869
 20
404.706
 30
0.000000
  70
    32
  0
VERTEX
  8
AM_0
  5
1CB57
 10
377.885
 20
404.705
 30
0.000000
  70
    32
  0
VERTEX
  8
AM_0
  5
1CB58
 10
377.902
 20
404.705
 30
0.000000
  70
    32
  0
VERTEX
  8
AM_0
  5
1CB59
 10
377.919
 20
404.704
 30
0.000000
  70
    32
  0
VERTEX
  8
AM_0
  5
1CB5A
 10
377.936
 20
404.704
 30
0.000000
  70
    32
  0
VERTEX
  8
AM_0
  5
1CB5B
 10
377.953
 20
404.703
 30
0.000000
  70
    32
  0
VERTEX
  8
AM_0
  5
1CB5C
 10
377.970
 20
404.703
 30
0.000000
  70
    32
  0
VERTEX
  8
AM_0
  5
1CB5D
 10
377.987
 20
404.703
 30
0.000000
  70
    32
  0
VERTEX
  8
AM_0
  5
1CB5E
 10
378.004
 20
404.702
 30
0.000000
  70
    32
  0
VERTEX
  8
AM_0
  5
1CB5F
 10
378.021
 20
404.702
 30
0.000000
  70
    32
  0
SEQEND
  8
AM_0
  5
1CB60
  0
LINE
  5
1A30E
  8
AM_0
 10
437.40902260163449
 20
404.70090152437132
 30
0.0
 11
529.55229911344975
 21
404.70090152437132
 31
0.0
  0
CIRCLE
  5
1A30F
  8
0
 10
429.55229911344981
 20
432.70089935700372
 30
0.0
 40
7.0
  0
LINE
  5
1A310
  8
0
 10
413.9268294447246
 20
439.39751772986551
 30
0.0
 11
399.05747615672072
 21
404.70230055325919
 31
0.0
  0
CIRCLE
  5
1A312
  8
0
 10
414.55232616926219
 20
397.70090131365549
 30
0.0
 40
12.0
  0
ARC
  5
1A314
  8
AM_0
 10
414.55232616926219
 20
397.70090131365549
 30
0.0
 40
15.714285718999999
 50
270.35810043042108
 51
359.64189956957239
  0
POLYLINE
  5
1A315
  8
0
 66
     1
 10
0.0
 20
0.0
 30
0.0
 70
     1
  0
VERTEX
  5
1C805
  8
0
 10
409.55232616926202
 20
400.58765265960358
 30
0.0
  0
VERTEX
  5
1C806
  8
0
 10
409.55232616926202
 20
394.81414996770741
 30
0.0
  0
VERTEX
  5
1C807
  8
0
 10
414.55232616926219
 20
391.92739862175932
 30
0.0
  0
VERTEX
  5
1C808
  8
0
 10
419.55232616926207
 20
394.81414996770741
 30
0.0
  0
VERTEX
  5
1C809
  8
0
 10
419.55232616926207
 20
400.58765265960358
 30
0.0
  0
VERTEX
  5
1C80A
  8
0
 10
414.55232616926219
 20
403.47440400555178
 30
0.0
  0
SEQEND
  5
1C80B
  8
0
  0
CIRCLE
  5
1A316
  8
0
 10
414.55232616926219
 20
397.70090131365549
 30
0.0
 40
9.0
  0
ARC
  5
1A318
  8
AM_0
 10
414.55232616926219
 20
397.70090131365549
 30
0.0
 40
15.00000045153484
 50
90.000002504475205
 51
180.00000500895689
  0
POLYLINE
  5
1A319
  8
AM_0
 10
393.07112631716728
 20
396.61618546587164
 30
0.0
 66
     1
 70
     8
  0
VERTEX
  8
AM_0
  5
1CB61
 10
393.071
 20
396.616
 30
0.000000
  70
    32
  0
VERTEX
  8
AM_0
  5
1CB62
 10
393.036
 20
396.616
 30
0.000000
  70
    32
  0
VERTEX
  8
AM_0
  5
1CB63
 10
393.001
 20
396.615
 30
0.000000
  70
    32
  0
VERTEX
  8
AM_0
  5
1CB64
 10
392.966
 20
396.614
 30
0.000000
  70
    32
  0
VERTEX
  8
AM_0
  5
1CB65
 10
392.931
 20
396.613
 30
0.000000
  70
    32
  0
VERTEX
  8
AM_0
  5
1CB66
 10
392.896
 20
396.611
 30
0.000000
  70
    32
  0
VERTEX
  8
AM_0
  5
1CB67
 10
392.861
 20
396.609
 30
0.000000
  70
    32
  0
VERTEX
  8
AM_0
  5
1CB68
 10
392.826
 20
396.606
 30
0.000000
  70
    32
  0
VERTEX
  8
AM_0
  5
1CB69
 10
392.791
 20
396.603
 30
0.000000
  70
    32
  0
VERTEX
  8
AM_0
  5
1CB6A
 10
392.756
 20
396.600
 30
0.000000
  70
    32
  0
VERTEX
  8
AM_0
  5
1CB6B
 10
392.721
 20
396.596
 30
0.000000
  70
    32
  0
VERTEX
  8
AM_0
  5
1CB6C
 10
392.686
 20
396.591
 30
0.000000
  70
    32
  0
VERTEX
  8
AM_0
  5
1CB6D
 10
392.652
 20
396.587
 30
0.000000
  70
    32
  0
VERTEX
  8
AM_0
  5
1CB6E
 10
392.617
 20
396.582
 30
0.000000
  70
    32
  0
VERTEX
  8
AM_0
  5
1CB6F
 10
392.582
 20
396.576
 30
0.000000
  70
    32
  0
VERTEX
  8
AM_0
  5
1CB70
 10
392.548
 20
396.570
 30
0.000000
  70
    32
  0
VERTEX
  8
AM_0
  5
1CB71
 10
392.513
 20
396.564
 30
0.000000
  70
    32
  0
VERTEX
  8
AM_0
  5
1CB72
 10
392.479
 20
396.557
 30
0.000000
  70
    32
  0
VERTEX
  8
AM_0
  5
1CB73
 10
392.445
 20
396.550
 30
0.000000
  70
    32
  0
VERTEX
  8
AM_0
  5
1CB74
 10
392.410
 20
396.543
 30
0.000000
  70
    32
  0
VERTEX
  8
AM_0
  5
1CB75
 10
392.376
 20
396.535
 30
0.000000
  70
    32
  0
VERTEX
  8
AM_0
  5
1CB76
 10
392.342
 20
396.526
 30
0.000000
  70
    32
  0
VERTEX
  8
AM_0
  5
1CB77
 10
392.308
 20
396.518
 30
0.000000
  70
    32
  0
VERTEX
  8
AM_0
  5
1CB78
 10
392.274
 20
396.508
 30
0.000000
  70
    32
  0
VERTEX
  8
AM_0
  5
1CB79
 10
392.241
 20
396.499
 30
0.000000
  70
    32
  0
VERTEX
  8
AM_0
  5
1CB7A
 10
392.207
 20
396.489
 30
0.000000
  70
    32
  0
VERTEX
  8
AM_0
  5
1CB7B
 10
392.173
 20
396.479
 30
0.000000
  70
    32
  0
VERTEX
  8
AM_0
  5
1CB7C
 10
392.140
 20
396.468
 30
0.000000
  70
    32
  0
VERTEX
  8
AM_0
  5
1CB7D
 10
392.107
 20
396.457
 30
0.000000
  70
    32
  0
VERTEX
  8
AM_0
  5
1CB7E
 10
392.074
 20
396.446
 30
0.000000
  70
    32
  0
VERTEX
  8
AM_0
  5
1CB7F
 10
392.041
 20
396.434
 30
0.000000
  70
    32
  0
VERTEX
  8
AM_0
  5
1CB80
 10
392.008
 20
396.421
 30
0.000000
  70
    32
  0
VERTEX
  8
AM_0
  5
1CB81
 10
391.975
 20
396.409
 30
0.000000
  70
    32
  0
VERTEX
  8
AM_0
  5
1CB82
 10
391.943
 20
396.396
 30
0.000000
  70
    32
  0
VERTEX
  8
AM_0
  5
1CB83
 10
391.910
 20
396.382
 30
0.000000
  70
    32
  0
VERTEX
  8
AM_0
  5
1CB84
 10
391.878
 20
396.369
 30
0.000000
  70
    32
  0
VERTEX
  8
AM_0
  5
1CB85
 10
391.846
 20
396.355
 30
0.000000
  70
    32
  0
VERTEX
  8
AM_0
  5
1CB86
 10
391.814
 20
396.340
 30
0.000000
  70
    32
  0
VERTEX
  8
AM_0
  5
1CB87
 10
391.782
 20
396.325
 30
0.000000
  70
    32
  0
VERTEX
  8
AM_0
  5
1CB88
 10
391.751
 20
396.310
 30
0.000000
  70
    32
  0
VERTEX
  8
AM_0
  5
1CB89
 10
391.719
 20
396.294
 30
0.000000
  70
    32
  0
VERTEX
  8
AM_0
  5
1CB8A
 10
391.688
 20
396.278
 30
0.000000
  70
    32
  0
VERTEX
  8
AM_0
  5
1CB8B
 10
391.657
 20
396.262
 30
0.000000
  70
    32
  0
VERTEX
  8
AM_0
  5
1CB8C
 10
391.626
 20
396.245
 30
0.000000
  70
    32
  0
VERTEX
  8
AM_0
  5
1CB8D
 10
391.595
 20
396.228
 30
0.000000
  70
    32
  0
VERTEX
  8
AM_0
  5
1CB8E
 10
391.565
 20
396.211
 30
0.000000
  70
    32
  0
VERTEX
  8
AM_0
  5
1CB8F
 10
391.535
 20
396.193
 30
0.000000
  70
    32
  0
VERTEX
  8
AM_0
  5
1CB90
 10
391.505
 20
396.175
 30
0.000000
  70
    32
  0
VERTEX
  8
AM_0
  5
1CB91
 10
391.475
 20
396.156
 30
0.000000
  70
    32
  0
VERTEX
  8
AM_0
  5
1CB92
 10
391.445
 20
396.138
 30
0.000000
  70
    32
  0
VERTEX
  8
AM_0
  5
1CB93
 10
391.416
 20
396.118
 30
0.000000
  70
    32
  0
VERTEX
  8
AM_0
  5
1CB94
 10
391.387
 20
396.099
 30
0.000000
  70
    32
  0
VERTEX
  8
AM_0
  5
1CB95
 10
391.358
 20
396.079
 30
0.000000
  70
    32
  0
VERTEX
  8
AM_0
  5
1CB96
 10
391.329
 20
396.059
 30
0.000000
  70
    32
  0
VERTEX
  8
AM_0
  5
1CB97
 10
391.301
 20
396.038
 30
0.000000
  70
    32
  0
VERTEX
  8
AM_0
  5
1CB98
 10
391.273
 20
396.017
 30
0.000000
  70
    32
  0
VERTEX
  8
AM_0
  5
1CB99
 10
391.245
 20
395.996
 30
0.000000
  70
    32
  0
VERTEX
  8
AM_0
  5
1CB9A
 10
391.217
 20
395.975
 30
0.000000
  70
    32
  0
VERTEX
  8
AM_0
  5
1CB9B
 10
391.190
 20
395.953
 30
0.000000
  70
    32
  0
VERTEX
  8
AM_0
  5
1CB9C
 10
391.163
 20
395.931
 30
0.000000
  70
    32
  0
VERTEX
  8
AM_0
  5
1CB9D
 10
391.136
 20
395.908
 30
0.000000
  70
    32
  0
VERTEX
  8
AM_0
  5
1CB9E
 10
391.109
 20
395.885
 30
0.000000
  70
    32
  0
VERTEX
  8
AM_0
  5
1CB9F
 10
391.083
 20
395.862
 30
0.000000
  70
    32
  0
VERTEX
  8
AM_0
  5
1CBA0
 10
391.056
 20
395.839
 30
0.000000
  70
    32
  0
VERTEX
  8
AM_0
  5
1CBA1
 10
391.031
 20
395.815
 30
0.000000
  70
    32
  0
VERTEX
  8
AM_0
  5
1CBA2
 10
391.005
 20
395.791
 30
0.000000
  70
    32
  0
VERTEX
  8
AM_0
  5
1CBA3
 10
390.980
 20
395.767
 30
0.000000
  70
    32
  0
VERTEX
  8
AM_0
  5
1CBA4
 10
390.955
 20
395.742
 30
0.000000
  70
    32
  0
VERTEX
  8
AM_0
  5
1CBA5
 10
390.930
 20
395.718
 30
0.000000
  70
    32
  0
VERTEX
  8
AM_0
  5
1CBA6
 10
390.906
 20
395.692
 30
0.000000
  70
    32
  0
VERTEX
  8
AM_0
  5
1CBA7
 10
390.882
 20
395.667
 30
0.000000
  70
    32
  0
VERTEX
  8
AM_0
  5
1CBA8
 10
390.858
 20
395.641
 30
0.000000
  70
    32
  0
VERTEX
  8
AM_0
  5
1CBA9
 10
390.834
 20
395.615
 30
0.000000
  70
    32
  0
VERTEX
  8
AM_0
  5
1CBAA
 10
390.811
 20
395.589
 30
0.000000
  70
    32
  0
VERTEX
  8
AM_0
  5
1CBAB
 10
390.788
 20
395.562
 30
0.000000
  70
    32
  0
VERTEX
  8
AM_0
  5
1CBAC
 10
390.765
 20
395.536
 30
0.000000
  70
    32
  0
VERTEX
  8
AM_0
  5
1CBAD
 10
390.743
 20
395.508
 30
0.000000
  70
    32
  0
VERTEX
  8
AM_0
  5
1CBAE
 10
390.721
 20
395.481
 30
0.000000
  70
    32
  0
VERTEX
  8
AM_0
  5
1CBAF
 10
390.700
 20
395.454
 30
0.000000
  70
    32
  0
VERTEX
  8
AM_0
  5
1CBB0
 10
390.678
 20
395.426
 30
0.000000
  70
    32
  0
VERTEX
  8
AM_0
  5
1CBB1
 10
390.657
 20
395.398
 30
0.000000
  70
    32
  0
VERTEX
  8
AM_0
  5
1CBB2
 10
390.637
 20
395.369
 30
0.000000
  70
    32
  0
VERTEX
  8
AM_0
  5
1CBB3
 10
390.616
 20
395.341
 30
0.000000
  70
    32
  0
VERTEX
  8
AM_0
  5
1CBB4
 10
390.596
 20
395.312
 30
0.000000
  70
    32
  0
VERTEX
  8
AM_0
  5
1CBB5
 10
390.577
 20
395.283
 30
0.000000
  70
    32
  0
VERTEX
  8
AM_0
  5
1CBB6
 10
390.557
 20
395.254
 30
0.000000
  70
    32
  0
VERTEX
  8
AM_0
  5
1CBB7
 10
390.538
 20
395.224
 30
0.000000
  70
    32
  0
VERTEX
  8
AM_0
  5
1CBB8
 10
390.520
 20
395.194
 30
0.000000
  70
    32
  0
VERTEX
  8
AM_0
  5
1CBB9
 10
390.502
 20
395.164
 30
0.000000
  70
    32
  0
VERTEX
  8
AM_0
  5
1CBBA
 10
390.484
 20
395.134
 30
0.000000
  70
    32
  0
VERTEX
  8
AM_0
  5
1CBBB
 10
390.466
 20
395.104
 30
0.000000
  70
    32
  0
VERTEX
  8
AM_0
  5
1CBBC
 10
390.449
 20
395.073
 30
0.000000
  70
    32
  0
VERTEX
  8
AM_0
  5
1CBBD
 10
390.432
 20
395.043
 30
0.000000
  70
    32
  0
VERTEX
  8
AM_0
  5
1CBBE
 10
390.415
 20
395.012
 30
0.000000
  70
    32
  0
VERTEX
  8
AM_0
  5
1CBBF
 10
390.399
 20
394.981
 30
0.000000
  70
    32
  0
VERTEX
  8
AM_0
  5
1CBC0
 10
390.384
 20
394.949
 30
0.000000
  70
    32
  0
VERTEX
  8
AM_0
  5
1CBC1
 10
390.368
 20
394.918
 30
0.000000
  70
    32
  0
VERTEX
  8
AM_0
  5
1CBC2
 10
390.353
 20
394.886
 30
0.000000
  70
    32
  0
VERTEX
  8
AM_0
  5
1CBC3
 10
390.339
 20
394.854
 30
0.000000
  70
    32
  0
VERTEX
  8
AM_0
  5
1CBC4
 10
390.324
 20
394.822
 30
0.000000
  70
    32
  0
VERTEX
  8
AM_0
  5
1CBC5
 10
390.310
 20
394.790
 30
0.000000
  70
    32
  0
VERTEX
  8
AM_0
  5
1CBC6
 10
390.297
 20
394.758
 30
0.000000
  70
    32
  0
VERTEX
  8
AM_0
  5
1CBC7
 10
390.284
 20
394.725
 30
0.000000
  70
    32
  0
VERTEX
  8
AM_0
  5
1CBC8
 10
390.271
 20
394.693
 30
0.000000
  70
    32
  0
VERTEX
  8
AM_0
  5
1CBC9
 10
390.258
 20
394.660
 30
0.000000
  70
    32
  0
VERTEX
  8
AM_0
  5
1CBCA
 10
390.246
 20
394.627
 30
0.000000
  70
    32
  0
VERTEX
  8
AM_0
  5
1CBCB
 10
390.235
 20
394.594
 30
0.000000
  70
    32
  0
VERTEX
  8
AM_0
  5
1CBCC
 10
390.224
 20
394.560
 30
0.000000
  70
    32
  0
VERTEX
  8
AM_0
  5
1CBCD
 10
390.213
 20
394.527
 30
0.000000
  70
    32
  0
VERTEX
  8
AM_0
  5
1CBCE
 10
390.202
 20
394.494
 30
0.000000
  70
    32
  0
VERTEX
  8
AM_0
  5
1CBCF
 10
390.192
 20
394.460
 30
0.000000
  70
    32
  0
VERTEX
  8
AM_0
  5
1CBD0
 10
390.183
 20
394.426
 30
0.000000
  70
    32
  0
VERTEX
  8
AM_0
  5
1CBD1
 10
390.173
 20
394.393
 30
0.000000
  70
    32
  0
VERTEX
  8
AM_0
  5
1CBD2
 10
390.164
 20
394.359
 30
0.000000
  70
    32
  0
VERTEX
  8
AM_0
  5
1CBD3
 10
390.156
 20
394.325
 30
0.000000
  70
    32
  0
VERTEX
  8
AM_0
  5
1CBD4
 10
390.148
 20
394.291
 30
0.000000
  70
    32
  0
VERTEX
  8
AM_0
  5
1CBD5
 10
390.140
 20
394.256
 30
0.000000
  70
    32
  0
VERTEX
  8
AM_0
  5
1CBD6
 10
390.133
 20
394.222
 30
0.000000
  70
    32
  0
VERTEX
  8
AM_0
  5
1CBD7
 10
390.126
 20
394.188
 30
0.000000
  70
    32
  0
VERTEX
  8
AM_0
  5
1CBD8
 10
390.120
 20
394.153
 30
0.000000
  70
    32
  0
VERTEX
  8
AM_0
  5
1CBD9
 10
390.114
 20
394.119
 30
0.000000
  70
    32
  0
VERTEX
  8
AM_0
  5
1CBDA
 10
390.108
 20
394.084
 30
0.000000
  70
    32
  0
VERTEX
  8
AM_0
  5
1CBDB
 10
390.103
 20
394.049
 30
0.000000
  70
    32
  0
VERTEX
  8
AM_0
  5
1CBDC
 10
390.098
 20
394.015
 30
0.000000
  70
    32
  0
VERTEX
  8
AM_0
  5
1CBDD
 10
390.093
 20
393.980
 30
0.000000
  70
    32
  0
VERTEX
  8
AM_0
  5
1CBDE
 10
390.089
 20
393.945
 30
0.000000
  70
    32
  0
VERTEX
  8
AM_0
  5
1CBDF
 10
390.086
 20
393.910
 30
0.000000
  70
    32
  0
VERTEX
  8
AM_0
  5
1CBE0
 10
390.082
 20
393.875
 30
0.000000
  70
    32
  0
VERTEX
  8
AM_0
  5
1CBE1
 10
390.080
 20
393.840
 30
0.000000
  70
    32
  0
SEQEND
  8
AM_0
  5
1CBE2
  0
LINE
  5
1A31A
  8
AM_0
 10
393.07112631716751
 20
396.61618546587152
 30
0.0
 11
397.05232571697729
 21
396.61618546587152
 31
0.0
  0
ARC
  5
1A31B
  8
AM_0
 10
414.69518310354562
 20
374.84420488128308
 30
0.0
 40
7.142857144999998
 50
90.358100430421089
 51
180.0
1001
GENIUS_GENODEF_13
1002
{
1000
HIER
1070
     0
1002
}
1002
{
1000
MANEDIT
1070
     0
1002
}
1002
{
1000
NOSEL
1070
     0
1002
}
1002
{
1000
BEHIND
1070
     0
1002
}
1002
{
1000
OTHER
1070
     0
1002
}
1002
{
1000
REACTOR
1002
}
1001
GENIUS_GENOBJ-N-FIL_13
1002
{
1000
OWNER
1000
GEN
1002
}
  0
ARC
  5
1A31C
  8
0
 10
399.58566981652172
 20
407.70085993615629
 30
0.0
 40
3.000000000899997
 50
269.99993053471542
 51
326.2511624023947
1001
GENIUS_GENOBJ-N-FIL_13
1002
{
1000
OWNER
1000
GEN
1002
}
1001
GENIUS_GENODEF_13
1002
{
1000
HIER
1070
     0
1002
}
1002
{
1000
MANEDIT
1070
     0
1002
}
1002
{
1000
NOSEL
1070
     0
1002
}
1002
{
1000
BEHIND
1070
     0
1002
}
1002
{
1000
OTHER
1070
     0
1002
}
1002
{
1000
REACTOR
1002
}
  0
ARC
  5
1A31D
  8
AM_0
 10
437.40902260163449
 20
397.55804437937172
 30
0.0
 40
7.142857144999998
 50
90.0
 51
179.6418995695789
1001
GENIUS_GENODEF_13
1002
{
1000
HIER
1070
     0
1002
}
1002
{
1000
MANEDIT
1070
     0
1002
}
1002
{
1000
NOSEL
1070
     0
1002
}
1002
{
1000
BEHIND
1070
     0
1002
}
1002
{
1000
OTHER
1070
     0
1002
}
1002
{
1000
REACTOR
1002
}
1001
GENIUS_GENOBJ-N-FIL_13
1002
{
1000
OWNER
1000
GEN
1002
}
  0
ARC
  5
1A31E
  8
0
 10
429.55229911344981
 20
432.70089935700372
 30
0.0
 40
16.999999999999709
 50
90.0
 51
156.80144506545
  0
LINE
  5
1A323
  8
AM_0
 10
606.55230137112449
 20
397.70090131365549
 30
0.0
 11
606.55230137112449
 21
267.70089740035331
 31
0.0
  0
LINE
  5
1A324
  8
AM_0
 10
596.55230113030518
 20
290.55759383272601
 30
0.0
 11
596.55230113030518
 21
374.84420488128308
 31
0.0
  0
LINE
  5
1A325
  8
AM_0
 10
604.55230137112426
 20
397.70090131365549
 30
0.0
 11
604.55230137112426
 21
267.70089740035331
 31
0.0
  0
LINE
  5
1A327
  8
0
 10
590.17779764412694
 20
226.00428098414281
 30
0.0
 11
605.17777100334092
 21
261.0042788496242
 31
0.0
  0
ARC
  5
1A328
  8
AM_0
 10
589.55230091958924
 20
267.70089740035331
 30
0.0
 40
15.00000045153484
 50
269.99999749551819
 51
0.0
  0
ARC
  5
1A32C
  8
0
 10
574.55232797540168
 20
232.7008993570042
 30
0.0
 40
16.999999999999709
 50
270.0
 51
336.80144506545003
  0
CIRCLE
  5
1A32D
  8
0
 10
574.55232797540168
 20
232.7008993570042
 30
0.0
 40
7.0
  0
ARC
  5
1A330
  8
AM_0
 10
589.40944398530542
 20
290.55759383272601
 30
0.0
 40
7.142857144999998
 50
270.35810043042108
 51
0.0
1001
GENIUS_GENODEF_13
1002
{
1000
HIER
1070
     0
1002
}
1002
{
1000
MANEDIT
1070
     0
1002
}
1002
{
1000
NOSEL
1070
     0
1002
}
1002
{
1000
BEHIND
1070
     0
1002
}
1002
{
1000
OTHER
1070
     0
1002
}
1002
{
1000
REACTOR
1002
}
1001
GENIUS_GENOBJ-N-FIL_13
1002
{
1000
OWNER
1000
GEN
1002
}
  0
ARC
  5
1A331
  8
AM_0
 10
589.55230091958924
 20
267.70089740035331
 30
0.0
 40
15.714285718999999
 50
90.358100430421089
 51
179.6418995695789
  0
CIRCLE
  5
1A332
  8
0
 10
589.55230091958924
 20
267.70089740035331
 30
0.0
 40
12.0
  0
ARC
  5
1A334
  8
AM_0
 10
566.69560448721677
 20
267.84375433463708
 30
0.0
 40
7.142857144999998
 50
270.0
 51
359.64189956957892
1001
GENIUS_GENOBJ-N-FIL_13
1002
{
1000
OWNER
1000
GEN
1002
}
1001
GENIUS_GENODEF_13
1002
{
1000
HIER
1070
     0
1002
}
1002
{
1000
MANEDIT
1070
     0
1002
}
1002
{
1000
NOSEL
1070
     0
1002
}
1002
{
1000
BEHIND
1070
     0
1002
}
1002
{
1000
OTHER
1070
     0
1002
}
1002
{
1000
REACTOR
1002
}
  0
POLYLINE
  5
1A335
  8
0
 66
     1
 10
0.0
 20
0.0
 30
0.0
 70
     1
  0
VERTEX
  5
1C80C
  8
0
 10
584.55230091958924
 20
270.58764874630128
 30
0.0
  0
VERTEX
  5
1C80D
  8
0
 10
584.55230091958924
 20
264.814146054405
 30
0.0
  0
VERTEX
  5
1C80E
  8
0
 10
589.55230091958924
 20
261.92739470845692
 30
0.0
  0
VERTEX
  5
1C80F
  8
0
 10
594.55230091958924
 20
264.814146054405
 30
0.0
  0
VERTEX
  5
1C810
  8
0
 10
594.55230091958924
 20
270.58764874630128
 30
0.0
  0
VERTEX
  5
1C811
  8
0
 10
589.55230091958924
 20
273.47440009224943
 30
0.0
  0
SEQEND
  5
1C812
  8
0
  0
CIRCLE
  5
1A336
  8
0
 10
589.55230091958924
 20
267.70089740035331
 30
0.0
 40
9.0
  0
ARC
  5
1A338
  8
AM_0
 10
589.55230091958924
 20
267.70089740035331
 30
0.0
 40
17.000000451534831
 50
336.80144506545003
 51
0.0
  0
LINE
  5
1A33A
  8
0
 10
590.17779764412694
 20
439.39751772986551
 30
0.0
 11
605.17777100334092
 21
404.39751986438381
 31
0.0
  0
CIRCLE
  5
1A33B
  8
0
 10
574.55232797540168
 20
432.70089935700372
 30
0.0
 40
7.0
  0
LINE
  5
1A33C
  8
ﾁｭｳｼﾝｾﾝ1
 10
574.55232797540202
 20
417.700899357004
 30
0.0
 11
574.55232797540202
 21
447.70089935700412
 31
0.0
  0
ARC
  5
1A33D
  8
AM_0
 10
589.55230091958924
 20
397.70090131365549
 30
0.0
 40
15.000000451534831
 50
0.0
 51
90.000002504475205
  0
POLYLINE
  5
1A33E
  8
0
 66
     1
 10
0.0
 20
0.0
 30
0.0
 70
     1
  0
VERTEX
  5
1C813
  8
0
 10
584.55230091958924
 20
400.58765265960358
 30
0.0
  0
VERTEX
  5
1C814
  8
0
 10
584.55230091958924
 20
394.81414996770741
 30
0.0
  0
VERTEX
  5
1C815
  8
0
 10
589.55230091958924
 20
391.92739862175932
 30
0.0
  0
VERTEX
  5
1C816
  8
0
 10
594.55230091958924
 20
394.81414996770741
 30
0.0
  0
VERTEX
  5
1C817
  8
0
 10
594.55230091958924
 20
400.58765265960358
 30
0.0
  0
VERTEX
  5
1C818
  8
0
 10
589.55230091958924
 20
403.47440400555178
 30
0.0
  0
SEQEND
  5
1C819
  8
0
  0
CIRCLE
  5
1A33F
  8
0
 10
589.55230091958924
 20
397.70090131365549
 30
0.0
 40
9.0
  0
CIRCLE
  5
1A340
  8
0
 10
589.55230091958924
 20
397.70090131365549
 30
0.0
 40
12.0
  0
ARC
  5
1A342
  8
AM_0
 10
566.69560448721677
 20
397.55804437937172
 30
0.0
 40
7.142857144999998
 50
0.3581004304211079
 51
90.0
1001
GENIUS_GENOBJ-N-FIL_13
1002
{
1000
OWNER
1000
GEN
1002
}
1001
GENIUS_GENODEF_13
1002
{
1000
HIER
1070
     0
1002
}
1002
{
1000
MANEDIT
1070
     0
1002
}
1002
{
1000
NOSEL
1070
     0
1002
}
1002
{
1000
BEHIND
1070
     0
1002
}
1002
{
1000
OTHER
1070
     0
1002
}
1002
{
1000
REACTOR
1002
}
  0
ARC
  5
1A343
  8
AM_0
 10
589.55230091958924
 20
397.70090131365549
 30
0.0
 40
15.714285718999999
 50
180.3581004304211
 51
269.64189956957239
  0
ARC
  5
1A345
  8
AM_0
 10
589.40944398530542
 20
374.84420488128308
 30
0.0
 40
7.142857144999998
 50
0.0
 51
89.641899569578882
1001
GENIUS_GENODEF_13
1002
{
1000
HIER
1070
     0
1002
}
1002
{
1000
MANEDIT
1070
     0
1002
}
1002
{
1000
NOSEL
1070
     0
1002
}
1002
{
1000
BEHIND
1070
     0
1002
}
1002
{
1000
OTHER
1070
     0
1002
}
1002
{
1000
REACTOR
1002
}
1001
GENIUS_GENOBJ-N-FIL_13
1002
{
1000
OWNER
1000
GEN
1002
}
  0
ARC
  5
1A347
  8
AM_0
 10
589.55230091958924
 20
397.70090131365509
 30
0.0
 40
17.000000451534831
 50
0.0
 51
23.198554934550032
  0
ARC
  5
1A348
  8
0
 10
574.55232797540168
 20
432.70089935700372
 30
0.0
 40
16.999999999999709
 50
23.198554934550032
 51
90.0
  0
LINE
  5
1A349
  8
ﾁｭｳｼﾝｾﾝ1
 10
589.55232797540179
 20
432.70089935700372
 30
0.0
 11
559.55232797540179
 21
432.70089935700372
 31
0.0
  0
LINE
  5
1A34D
  8
AM_0
 10
805.84229816274456
 20
382.70090056409731
 30
0.0
 11
805.84229816274456
 21
282.7008981499115
 31
0.0
  0
LINE
  5
1A34E
  8
AM_0
 10
969.84230008929364
 20
215.70089935700469
 30
0.0
 11
969.84230008929364
 21
449.70089935700452
 31
0.0
  0
LINE
  5
1A354
  8
AM_0
 10
903.8423013234883
 20
252.82308292294019
 30
0.0
 11
903.84230132348875
 21
412.5787157910691
 31
0.0
  0
LINE
  5
1A356
  8
AM_0
 10
810.84229831325661
 20
254.44641091737861
 30
0.0
 11
810.84229831325661
 21
410.95538779663059
 31
0.0
  0
LINE
  5
1A357
  8
ﾁｭｳｼﾝｾﾝ1
 10
869.84230014847105
 20
199.4242352002656
 30
0.0
 11
869.84230005132827
 21
421.74694419195703
 31
0.0
  0
LINE
  5
1A35A
  8
ﾁｭｳｼﾝｾﾝ1
 10
1031.8713298068801
 20
332.70089935700418
 30
0.0
 11
707.81327037359301
 21
332.70089935700469
 31
0.0
  0
LINE
  5
1A35D
  8
AM_0
 10
810.84229831325661
 20
254.44641091737861
 30
0.0
 11
903.8423013234883
 21
252.82308292294039
 31
0.0
  0
LINE
  5
1A365
  8
0
 10
714.84230008929308
 20
351.7008993570044
 30
0.0
 11
759.84230008929296
 21
351.7008993570044
 31
0.0
  0
LINE
  5
1A366
  8
0
 10
714.84230008929308
 20
348.70089935700429
 30
0.0
 11
772.84230008929308
 21
348.70089935700429
 31
0.0
  0
LINE
  5
1A367
  8
0
 10
714.84230008929308
 20
316.70089935700418
 30
0.0
 11
772.84230008929308
 21
316.70089935700418
 31
0.0
  0
LINE
  5
1A368
  8
AM_0
 10
714.84230008929308
 20
316.70089935700418
 30
0.0
 11
714.84230008929308
 21
351.7008993570044
 31
0.0
  0
LINE
  5
1A369
  8
0
 10
772.84230008929308
 20
312.70089935700418
 30
0.0
 11
800.84229801223341
 21
307.70089860444688
 31
0.0
  0
LINE
  5
1A36A
  8
AM_0
 10
800.84229801223341
 20
357.70090010956301
 30
0.0
 11
800.84229801223341
 21
307.70089860444688
 31
0.0
  0
LINE
  5
1A36D
  8
0
 10
796.34229831325672
 20
258.70089740035371
 30
0.0
 11
808.34229831325672
 21
258.70089740035371
 31
0.0
  0
LINE
  5
1A36E
  8
AM_0
 10
808.34229831325672
 20
276.70089740035371
 30
0.0
 11
796.34229831325672
 21
276.70089740035371
 31
0.0
  0
LINE
  5
1A36F
  8
0
 10
796.34229831325672
 20
276.70089740035371
 30
0.0
 11
796.34229831325672
 21
258.70089740035371
 31
0.0
  0
LINE
  5
1A370
  8
0
 10
808.34229831325672
 20
279.70089740035371
 30
0.0
 11
808.34229831325672
 21
255.70089740035371
 31
0.0
  0
LINE
  5
1A371
  8
0
 10
808.34229831325672
 20
255.70089740035371
 30
0.0
 11
810.84229831325661
 21
255.70089740035371
 31
0.0
  0
LINE
  5
1A372
  8
AM_0
 10
810.84229831325661
 20
279.70089740035371
 30
0.0
 11
808.34229831325672
 21
279.70089740035371
 31
0.0
  0
LINE
  5
1A37B
  8
AM_0
 10
805.84229816274456
 20
282.7008981499115
 30
0.0
 11
810.84229831325661
 21
282.7008981499115
 31
0.0
  0
LINE
  5
1A37F
  8
AM_0
 10
805.8422981627449
 20
307.70089860444688
 30
0.0
 11
800.84229801223341
 21
307.70089860444688
 31
0.0
  0
LINE
  5
1A380
  8
AM_0
 10
772.84230008929308
 20
352.70089935700429
 30
0.0
 11
800.84229801223341
 21
357.70090010956301
 31
0.0
  0
LINE
  5
1A381
  8
0
 10
772.84230008929308
 20
352.70089935700429
 30
0.0
 11
772.84230008929308
 21
312.70089935700418
 31
0.0
  0
LINE
  5
1A382
  8
0
 10
759.84230008929296
 20
351.7008993570044
 30
0.0
 11
759.84230008929296
 21
348.70089935700429
 31
0.0
  0
LINE
  5
1A397
  8
AM_0
 10
805.8422981627449
 20
357.70090010956301
 30
0.0
 11
800.84229801223341
 21
357.70090010956301
 31
0.0
  0
LINE
  5
1A39C
  8
AM_0
 10
903.8423013234883
 20
252.82308292294039
 30
0.0
 11
941.894659424623
 21
252.15885410952831
 31
0.0
  0
LINE
  5
1A94C
  8
ﾁｭｳｼﾝｾﾝ1
 10
941.83551073956755
 20
232.70089935700381
 30
0.0
 11
973.47650399433655
 21
232.70089935700381
 31
0.0
  0
LINE
  5
1A94F
  8
AM_0
 10
969.84230008929364
 20
215.70089935700469
 30
0.0
 11
946.77250109588852
 21
216.50651448987429
 31
0.0
  0
LINE
  5
1A951
  8
AM_0
 10
944.84230008929364
 20
218.50529614391269
 30
0.0
 11
944.84230008929364
 21
249.15931106099501
 31
0.0
  0
ARC
  5
1A952
  8
0
 10
946.84230008929364
 20
218.50529614391269
 30
0.0
 40
2.0
 50
180.0
 51
267.99999999999631
1001
GENIUS_GENOBJ-N-FIL_13
1002
{
1000
OWNER
1000
GEN
1002
}
1001
GENIUS_GENODEF_13
1002
{
1000
HIER
1070
     0
1002
}
1002
{
1000
MANEDIT
1070
     0
1002
}
1002
{
1000
NOSEL
1070
     0
1002
}
1002
{
1000
BEHIND
1070
     0
1002
}
1002
{
1000
OTHER
1070
     0
1002
}
1002
{
1000
REACTOR
1002
}
  0
ARC
  5
1A953
  8
AM_0
 10
941.84230008929364
 20
249.15931106099501
 30
0.0
 40
3.0
 50
0.0
 51
88.999959580877501
1001
GENIUS_GENOBJ-N-FIL_13
1002
{
1000
OWNER
1000
GEN
1002
}
1001
GENIUS_GENODEF_13
1002
{
1000
HIER
1070
     0
1002
}
1002
{
1000
MANEDIT
1070
     0
1002
}
1002
{
1000
NOSEL
1070
     0
1002
}
1002
{
1000
BEHIND
1070
     0
1002
}
1002
{
1000
OTHER
1070
     0
1002
}
1002
{
1000
REACTOR
1002
}
  0
LINE
  5
1A96F
  8
AM_0
 10
810.84229831325661
 20
410.95538779663059
 30
0.0
 11
903.84230132348875
 21
412.5787157910691
 31
0.0
  0
LINE
  5
1A970
  8
AM_0
 10
796.34229831325672
 20
388.70090131365561
 30
0.0
 11
796.34229831325672
 21
406.70090131365532
 31
0.0
  0
LINE
  5
1A971
  8
AM_0
 10
808.34229831325672
 20
385.70090131365561
 30
0.0
 11
808.34229831325672
 21
409.70090131365532
 31
0.0
  0
LINE
  5
1A974
  8
AM_0
 10
808.34229831325672
 20
388.70090131365561
 30
0.0
 11
796.34229831325672
 21
388.70090131365561
 31
0.0
  0
LINE
  5
1A976
  8
AM_0
 10
805.84229816274456
 20
382.70090056409731
 30
0.0
 11
810.84229831325661
 21
382.70090056409731
 31
0.0
  0
LINE
  5
1A97A
  8
AM_0
 10
810.84229831325661
 20
385.70090131365561
 30
0.0
 11
808.34229831325672
 21
385.70090131365561
 31
0.0
  0
LINE
  5
1A97B
  8
AM_0
 10
796.34229831325672
 20
406.70090131365532
 30
0.0
 11
808.34229831325672
 21
406.70090131365532
 31
0.0
  0
LINE
  5
1A97D
  8
AM_0
 10
808.34229831325672
 20
409.70090131365532
 30
0.0
 11
810.84229831325661
 21
409.70090131365532
 31
0.0
  0
LINE
  5
1A980
  8
AM_0
 10
903.84230132348875
 20
412.5787157910691
 30
0.0
 11
941.89465434068359
 21
413.24289186892628
 31
0.0
  0
LINE
  5
1A993
  8
AM_0
 10
944.84230008929296
 20
416.24243500619951
 30
0.0
 11
944.84230008929364
 21
446.89650257009652
 31
0.0
  0
ARC
  5
1A9A3
  8
AM_0
 10
941.84230008929296
 20
416.24243500619951
 30
0.0
 40
3.0
 50
270.99994330824171
 51
0.0
1001
GENIUS_GENOBJ-N-FIL_13
1002
{
1000
OWNER
1000
GEN
1002
}
1001
GENIUS_GENODEF_13
1002
{
1000
HIER
1070
     0
1002
}
1002
{
1000
MANEDIT
1070
     0
1002
}
1002
{
1000
NOSEL
1070
     0
1002
}
1002
{
1000
BEHIND
1070
     0
1002
}
1002
{
1000
OTHER
1070
     0
1002
}
1002
{
1000
REACTOR
1002
}
  0
LINE
  5
1A9A7
  8
ﾁｭｳｼﾝｾﾝ1
 10
941.83551073956755
 20
432.70089935700452
 30
0.0
 11
973.47650399433655
 21
432.70089935700452
 31
0.0
  0
LINE
  5
1A9A9
  8
AM_0
 10
969.84230008929364
 20
449.70089935700452
 30
0.0
 11
946.77250109588852
 21
448.8952842241348
 31
0.0
  0
ARC
  5
1A9AB
  8
0
 10
946.84230008929364
 20
446.89650257009652
 30
0.0
 40
2.0
 50
92.000000000003695
 51
180.0
1001
GENIUS_GENODEF_13
1002
{
1000
HIER
1070
     0
1002
}
1002
{
1000
MANEDIT
1070
     0
1002
}
1002
{
1000
NOSEL
1070
     0
1002
}
1002
{
1000
BEHIND
1070
     0
1002
}
1002
{
1000
OTHER
1070
     0
1002
}
1002
{
1000
REACTOR
1002
}
1001
GENIUS_GENOBJ-N-FIL_13
1002
{
1000
OWNER
1000
GEN
1002
}
  0
CIRCLE
  5
1AD56
  8
ｽﾝﾎﾟｳｾﾝ
 10
529.55229911344975
 20
332.70089935700469
 30
0.0
 40
4.0
  0
CIRCLE
  5
1B05D
  8
AM_0
 10
529.55229911344975
 20
332.70089935700469
 30
0.0
 40
3.399999999999999
  0
LINE
  5
1B061
  8
ﾁｭｳｼﾝｾﾝ1
 10
429.55229911344981
 20
417.700899357004
 30
0.0
 11
429.55229911344981
 21
447.70089935700412
 31
0.0
  0
LINE
  5
1B062
  8
ﾁｭｳｼﾝｾﾝ1
 10
444.55229911344958
 20
432.70089935700372
 30
0.0
 11
414.55229911344958
 21
432.70089935700372
 31
0.0
  0
LINE
  5
1B063
  8
ﾁｭｳｼﾝｾﾝ1
 10
429.55229911344981
 20
217.7008993570042
 30
0.0
 11
429.55229911344981
 21
247.7008993570042
 31
0.0
  0
LINE
  5
1B064
  8
ﾁｭｳｼﾝｾﾝ1
 10
444.55229911344958
 20
232.7008993570042
 30
0.0
 11
414.55229911344958
 21
232.7008993570042
 31
0.0
  0
LINE
  5
1B065
  8
ﾁｭｳｼﾝｾﾝ1
 10
574.55232797540168
 20
217.7008993570042
 30
0.0
 11
574.55232797540168
 21
247.7008993570042
 31
0.0
  0
LINE
  5
1B066
  8
ﾁｭｳｼﾝｾﾝ1
 10
589.55232797540145
 20
232.7008993570042
 30
0.0
 11
559.55232797540145
 21
232.7008993570042
 31
0.0
  0
ARC
  5
1B067
  8
ｶｸﾚｾﾝ2
 10
414.55232616926219
 20
267.70089740035331
 30
0.0
 40
17.000000451534831
 50
180.0
 51
203.19855493455
  0
ARC
  5
1B068
  8
ｶｸﾚｾﾝ2
 10
414.55232616926219
 20
397.70090131365509
 30
0.0
 40
17.000000451534831
 50
156.80144506545
 51
180.0
  0
LINE
  5
1B069
  8
ｶｸﾚｾﾝ2
 10
399.05747615672072
 20
404.70230055325919
 30
0.0
 11
398.92685608551091
 21
404.39751986438409
 31
0.0
  0
LINE
  5
1B06A
  8
ｶｸﾚｾﾝ2
 10
398.92685608551091
 20
261.00427884962357
 30
0.0
 11
399.05685902483168
 21
260.70093813762549
 31
0.0
  0
LINE
  5
1B110
  8
AM_0
 10
579.55330030556627
 20
636.50088938363615
 30
0.0
 11
479.55129792133317
 21
636.50088938363615
 31
0.0
  0
LINE
  5
1B111
  8
AM_0
 10
401.17568617823378
 20
641.50088953414775
 30
0.0
 11
602.92894091061248
 21
641.50088953414775
 31
0.0
  0
LINE
  5
1B112
  8
AM_0
 10
399.55232571772717
 20
734.50089254438024
 30
0.0
 11
604.55230137112426
 21
734.50089254438024
 31
0.0
  0
LINE
  5
1B113
  8
ﾁｭｳｼﾝｾﾝ1
 10
128.55000000000001
 20
700.50089540315548
 30
0.0
 11
609.55230137112414
 21
700.50089040315549
 31
0.0
  0
LINE
  5
1B153
  8
AM_0
 10
377.05227179065059
 20
629.99949774234437
 30
0.0
 11
377.05227179065082
 21
700.50089319794017
 31
0.0
  0
LINE
  5
1B154
  8
AM_0
 10
401.17568617823378
 20
641.50088953414775
 30
0.0
 11
399.55232571766192
 21
734.50089254438024
 31
0.0
  0
LINE
  5
1B156
  8
AM_0
 10
363.05227178645077
 20
774.00087940315552
 30
0.0
 11
363.05227178645077
 21
627.00089040315561
 31
0.0
  0
ARC
  5
1B158
  8
AM_0
 10
384.33235933415921
 20
770.50231224718584
 30
0.0
 40
2.0
 50
4.9999999999994991
 51
89.999930533327898
1001
GENIUS_GENODEF_13
1002
{
1000
HIER
1070
     0
1002
}
1002
{
1000
MANEDIT
1070
     0
1002
}
1002
{
1000
NOSEL
1070
     0
1002
}
1002
{
1000
BEHIND
1070
     0
1002
}
1002
{
1000
OTHER
1070
     0
1002
}
1002
{
1000
REACTOR
1002
}
1001
GENIUS_GENOBJ-N-FIL_13
1002
{
1000
OWNER
1000
GEN
1002
}
  0
LINE
  5
1B159
  8
AM_0
 10
377.05227179065082
 20
771.00228865353608
 30
0.0
 11
377.05227179065082
 21
700.50089319794017
 31
0.0
  0
LINE
  5
1B162
  8
AM_0
 10
363.05227786612443
 20
774.00236804762835
 30
0.0
 11
374.0522770789446
 21
774.00234865353104
 31
0.0
  0
LINE
  5
1B163
  8
AM_0
 10
378.02089370775741
 20
772.50231989934775
 30
0.0
 11
384.33236175900362
 21
772.50231224718414
 31
0.0
  0
POLYLINE
  5
1B164
  8
AM_0
 10
378.02089370775752
 20
772.50231989934764
 30
0.0
 66
     1
 70
     8
  0
VERTEX
  8
AM_0
  5
1CBE3
 10
378.021
 20
772.502
 30
0.000000
  70
    32
  0
VERTEX
  8
AM_0
  5
1CBE4
 10
378.004
 20
772.502
 30
0.000000
  70
    32
  0
VERTEX
  8
AM_0
  5
1CBE5
 10
377.987
 20
772.503
 30
0.000000
  70
    32
  0
VERTEX
  8
AM_0
  5
1CBE6
 10
377.970
 20
772.503
 30
0.000000
  70
    32
  0
VERTEX
  8
AM_0
  5
1CBE7
 10
377.953
 20
772.503
 30
0.000000
  70
    32
  0
VERTEX
  8
AM_0
  5
1CBE8
 10
377.936
 20
772.504
 30
0.000000
  70
    32
  0
VERTEX
  8
AM_0
  5
1CBE9
 10
377.919
 20
772.504
 30
0.000000
  70
    32
  0
VERTEX
  8
AM_0
  5
1CBEA
 10
377.902
 20
772.505
 30
0.000000
  70
    32
  0
VERTEX
  8
AM_0
  5
1CBEB
 10
377.885
 20
772.505
 30
0.000000
  70
    32
  0
VERTEX
  8
AM_0
  5
1CBEC
 10
377.869
 20
772.506
 30
0.000000
  70
    32
  0
VERTEX
  8
AM_0
  5
1CBED
 10
377.852
 20
772.507
 30
0.000000
  70
    32
  0
VERTEX
  8
AM_0
  5
1CBEE
 10
377.835
 20
772.508
 30
0.000000
  70
    32
  0
VERTEX
  8
AM_0
  5
1CBEF
 10
377.818
 20
772.509
 30
0.000000
  70
    32
  0
VERTEX
  8
AM_0
  5
1CBF0
 10
377.801
 20
772.510
 30
0.000000
  70
    32
  0
VERTEX
  8
AM_0
  5
1CBF1
 10
377.784
 20
772.512
 30
0.000000
  70
    32
  0
VERTEX
  8
AM_0
  5
1CBF2
 10
377.767
 20
772.513
 30
0.000000
  70
    32
  0
VERTEX
  8
AM_0
  5
1CBF3
 10
377.750
 20
772.515
 30
0.000000
  70
    32
  0
VERTEX
  8
AM_0
  5
1CBF4
 10
377.733
 20
772.516
 30
0.000000
  70
    32
  0
VERTEX
  8
AM_0
  5
1CBF5
 10
377.717
 20
772.518
 30
0.000000
  70
    32
  0
VERTEX
  8
AM_0
  5
1CBF6
 10
377.700
 20
772.520
 30
0.000000
  70
    32
  0
VERTEX
  8
AM_0
  5
1CBF7
 10
377.683
 20
772.521
 30
0.000000
  70
    32
  0
VERTEX
  8
AM_0
  5
1CBF8
 10
377.666
 20
772.523
 30
0.000000
  70
    32
  0
VERTEX
  8
AM_0
  5
1CBF9
 10
377.649
 20
772.525
 30
0.000000
  70
    32
  0
VERTEX
  8
AM_0
  5
1CBFA
 10
377.632
 20
772.528
 30
0.000000
  70
    32
  0
VERTEX
  8
AM_0
  5
1CBFB
 10
377.616
 20
772.530
 30
0.000000
  70
    32
  0
VERTEX
  8
AM_0
  5
1CBFC
 10
377.599
 20
772.532
 30
0.000000
  70
    32
  0
VERTEX
  8
AM_0
  5
1CBFD
 10
377.582
 20
772.535
 30
0.000000
  70
    32
  0
VERTEX
  8
AM_0
  5
1CBFE
 10
377.565
 20
772.537
 30
0.000000
  70
    32
  0
VERTEX
  8
AM_0
  5
1CBFF
 10
377.549
 20
772.540
 30
0.000000
  70
    32
  0
VERTEX
  8
AM_0
  5
1CC00
 10
377.532
 20
772.542
 30
0.000000
  70
    32
  0
VERTEX
  8
AM_0
  5
1CC01
 10
377.515
 20
772.545
 30
0.000000
  70
    32
  0
VERTEX
  8
AM_0
  5
1CC02
 10
377.498
 20
772.548
 30
0.000000
  70
    32
  0
VERTEX
  8
AM_0
  5
1CC03
 10
377.482
 20
772.551
 30
0.000000
  70
    32
  0
VERTEX
  8
AM_0
  5
1CC04
 10
377.465
 20
772.554
 30
0.000000
  70
    32
  0
VERTEX
  8
AM_0
  5
1CC05
 10
377.448
 20
772.557
 30
0.000000
  70
    32
  0
VERTEX
  8
AM_0
  5
1CC06
 10
377.432
 20
772.561
 30
0.000000
  70
    32
  0
VERTEX
  8
AM_0
  5
1CC07
 10
377.415
 20
772.564
 30
0.000000
  70
    32
  0
VERTEX
  8
AM_0
  5
1CC08
 10
377.399
 20
772.568
 30
0.000000
  70
    32
  0
VERTEX
  8
AM_0
  5
1CC09
 10
377.382
 20
772.571
 30
0.000000
  70
    32
  0
VERTEX
  8
AM_0
  5
1CC0A
 10
377.366
 20
772.575
 30
0.000000
  70
    32
  0
VERTEX
  8
AM_0
  5
1CC0B
 10
377.349
 20
772.579
 30
0.000000
  70
    32
  0
VERTEX
  8
AM_0
  5
1CC0C
 10
377.333
 20
772.582
 30
0.000000
  70
    32
  0
VERTEX
  8
AM_0
  5
1CC0D
 10
377.316
 20
772.586
 30
0.000000
  70
    32
  0
VERTEX
  8
AM_0
  5
1CC0E
 10
377.300
 20
772.590
 30
0.000000
  70
    32
  0
VERTEX
  8
AM_0
  5
1CC0F
 10
377.283
 20
772.594
 30
0.000000
  70
    32
  0
VERTEX
  8
AM_0
  5
1CC10
 10
377.267
 20
772.599
 30
0.000000
  70
    32
  0
VERTEX
  8
AM_0
  5
1CC11
 10
377.250
 20
772.603
 30
0.000000
  70
    32
  0
VERTEX
  8
AM_0
  5
1CC12
 10
377.234
 20
772.607
 30
0.000000
  70
    32
  0
VERTEX
  8
AM_0
  5
1CC13
 10
377.218
 20
772.612
 30
0.000000
  70
    32
  0
VERTEX
  8
AM_0
  5
1CC14
 10
377.201
 20
772.616
 30
0.000000
  70
    32
  0
VERTEX
  8
AM_0
  5
1CC15
 10
377.185
 20
772.621
 30
0.000000
  70
    32
  0
VERTEX
  8
AM_0
  5
1CC16
 10
377.169
 20
772.626
 30
0.000000
  70
    32
  0
VERTEX
  8
AM_0
  5
1CC17
 10
377.153
 20
772.631
 30
0.000000
  70
    32
  0
VERTEX
  8
AM_0
  5
1CC18
 10
377.136
 20
772.636
 30
0.000000
  70
    32
  0
VERTEX
  8
AM_0
  5
1CC19
 10
377.120
 20
772.641
 30
0.000000
  70
    32
  0
VERTEX
  8
AM_0
  5
1CC1A
 10
377.104
 20
772.646
 30
0.000000
  70
    32
  0
VERTEX
  8
AM_0
  5
1CC1B
 10
377.088
 20
772.651
 30
0.000000
  70
    32
  0
VERTEX
  8
AM_0
  5
1CC1C
 10
377.072
 20
772.656
 30
0.000000
  70
    32
  0
VERTEX
  8
AM_0
  5
1CC1D
 10
377.056
 20
772.662
 30
0.000000
  70
    32
  0
VERTEX
  8
AM_0
  5
1CC1E
 10
377.040
 20
772.667
 30
0.000000
  70
    32
  0
VERTEX
  8
AM_0
  5
1CC1F
 10
377.024
 20
772.673
 30
0.000000
  70
    32
  0
VERTEX
  8
AM_0
  5
1CC20
 10
377.008
 20
772.679
 30
0.000000
  70
    32
  0
VERTEX
  8
AM_0
  5
1CC21
 10
376.992
 20
772.684
 30
0.000000
  70
    32
  0
VERTEX
  8
AM_0
  5
1CC22
 10
376.976
 20
772.690
 30
0.000000
  70
    32
  0
VERTEX
  8
AM_0
  5
1CC23
 10
376.960
 20
772.696
 30
0.000000
  70
    32
  0
VERTEX
  8
AM_0
  5
1CC24
 10
376.944
 20
772.702
 30
0.000000
  70
    32
  0
VERTEX
  8
AM_0
  5
1CC25
 10
376.929
 20
772.708
 30
0.000000
  70
    32
  0
VERTEX
  8
AM_0
  5
1CC26
 10
376.913
 20
772.714
 30
0.000000
  70
    32
  0
VERTEX
  8
AM_0
  5
1CC27
 10
376.897
 20
772.721
 30
0.000000
  70
    32
  0
VERTEX
  8
AM_0
  5
1CC28
 10
376.881
 20
772.727
 30
0.000000
  70
    32
  0
VERTEX
  8
AM_0
  5
1CC29
 10
376.866
 20
772.734
 30
0.000000
  70
    32
  0
VERTEX
  8
AM_0
  5
1CC2A
 10
376.850
 20
772.740
 30
0.000000
  70
    32
  0
VERTEX
  8
AM_0
  5
1CC2B
 10
376.835
 20
772.747
 30
0.000000
  70
    32
  0
VERTEX
  8
AM_0
  5
1CC2C
 10
376.819
 20
772.754
 30
0.000000
  70
    32
  0
VERTEX
  8
AM_0
  5
1CC2D
 10
376.804
 20
772.760
 30
0.000000
  70
    32
  0
VERTEX
  8
AM_0
  5
1CC2E
 10
376.788
 20
772.767
 30
0.000000
  70
    32
  0
VERTEX
  8
AM_0
  5
1CC2F
 10
376.773
 20
772.774
 30
0.000000
  70
    32
  0
VERTEX
  8
AM_0
  5
1CC30
 10
376.757
 20
772.781
 30
0.000000
  70
    32
  0
VERTEX
  8
AM_0
  5
1CC31
 10
376.742
 20
772.789
 30
0.000000
  70
    32
  0
VERTEX
  8
AM_0
  5
1CC32
 10
376.727
 20
772.796
 30
0.000000
  70
    32
  0
VERTEX
  8
AM_0
  5
1CC33
 10
376.711
 20
772.803
 30
0.000000
  70
    32
  0
VERTEX
  8
AM_0
  5
1CC34
 10
376.696
 20
772.811
 30
0.000000
  70
    32
  0
VERTEX
  8
AM_0
  5
1CC35
 10
376.681
 20
772.818
 30
0.000000
  70
    32
  0
VERTEX
  8
AM_0
  5
1CC36
 10
376.666
 20
772.826
 30
0.000000
  70
    32
  0
VERTEX
  8
AM_0
  5
1CC37
 10
376.651
 20
772.833
 30
0.000000
  70
    32
  0
VERTEX
  8
AM_0
  5
1CC38
 10
376.636
 20
772.841
 30
0.000000
  70
    32
  0
VERTEX
  8
AM_0
  5
1CC39
 10
376.621
 20
772.849
 30
0.000000
  70
    32
  0
VERTEX
  8
AM_0
  5
1CC3A
 10
376.606
 20
772.857
 30
0.000000
  70
    32
  0
VERTEX
  8
AM_0
  5
1CC3B
 10
376.591
 20
772.865
 30
0.000000
  70
    32
  0
VERTEX
  8
AM_0
  5
1CC3C
 10
376.576
 20
772.873
 30
0.000000
  70
    32
  0
VERTEX
  8
AM_0
  5
1CC3D
 10
376.561
 20
772.881
 30
0.000000
  70
    32
  0
VERTEX
  8
AM_0
  5
1CC3E
 10
376.546
 20
772.890
 30
0.000000
  70
    32
  0
VERTEX
  8
AM_0
  5
1CC3F
 10
376.532
 20
772.898
 30
0.000000
  70
    32
  0
VERTEX
  8
AM_0
  5
1CC40
 10
376.517
 20
772.907
 30
0.000000
  70
    32
  0
VERTEX
  8
AM_0
  5
1CC41
 10
376.502
 20
772.915
 30
0.000000
  70
    32
  0
VERTEX
  8
AM_0
  5
1CC42
 10
376.488
 20
772.924
 30
0.000000
  70
    32
  0
VERTEX
  8
AM_0
  5
1CC43
 10
376.473
 20
772.932
 30
0.000000
  70
    32
  0
VERTEX
  8
AM_0
  5
1CC44
 10
376.459
 20
772.941
 30
0.000000
  70
    32
  0
VERTEX
  8
AM_0
  5
1CC45
 10
376.444
 20
772.950
 30
0.000000
  70
    32
  0
VERTEX
  8
AM_0
  5
1CC46
 10
376.430
 20
772.959
 30
0.000000
  70
    32
  0
VERTEX
  8
AM_0
  5
1CC47
 10
376.416
 20
772.968
 30
0.000000
  70
    32
  0
VERTEX
  8
AM_0
  5
1CC48
 10
376.401
 20
772.977
 30
0.000000
  70
    32
  0
VERTEX
  8
AM_0
  5
1CC49
 10
376.387
 20
772.986
 30
0.000000
  70
    32
  0
VERTEX
  8
AM_0
  5
1CC4A
 10
376.373
 20
772.996
 30
0.000000
  70
    32
  0
VERTEX
  8
AM_0
  5
1CC4B
 10
376.359
 20
773.005
 30
0.000000
  70
    32
  0
VERTEX
  8
AM_0
  5
1CC4C
 10
376.345
 20
773.014
 30
0.000000
  70
    32
  0
VERTEX
  8
AM_0
  5
1CC4D
 10
376.331
 20
773.024
 30
0.000000
  70
    32
  0
VERTEX
  8
AM_0
  5
1CC4E
 10
376.317
 20
773.033
 30
0.000000
  70
    32
  0
VERTEX
  8
AM_0
  5
1CC4F
 10
376.303
 20
773.043
 30
0.000000
  70
    32
  0
VERTEX
  8
AM_0
  5
1CC50
 10
376.289
 20
773.053
 30
0.000000
  70
    32
  0
VERTEX
  8
AM_0
  5
1CC51
 10
376.275
 20
773.063
 30
0.000000
  70
    32
  0
VERTEX
  8
AM_0
  5
1CC52
 10
376.261
 20
773.073
 30
0.000000
  70
    32
  0
VERTEX
  8
AM_0
  5
1CC53
 10
376.248
 20
773.082
 30
0.000000
  70
    32
  0
VERTEX
  8
AM_0
  5
1CC54
 10
376.234
 20
773.093
 30
0.000000
  70
    32
  0
VERTEX
  8
AM_0
  5
1CC55
 10
376.220
 20
773.103
 30
0.000000
  70
    32
  0
VERTEX
  8
AM_0
  5
1CC56
 10
376.207
 20
773.113
 30
0.000000
  70
    32
  0
VERTEX
  8
AM_0
  5
1CC57
 10
376.193
 20
773.123
 30
0.000000
  70
    32
  0
VERTEX
  8
AM_0
  5
1CC58
 10
376.180
 20
773.134
 30
0.000000
  70
    32
  0
VERTEX
  8
AM_0
  5
1CC59
 10
376.167
 20
773.144
 30
0.000000
  70
    32
  0
VERTEX
  8
AM_0
  5
1CC5A
 10
376.153
 20
773.154
 30
0.000000
  70
    32
  0
VERTEX
  8
AM_0
  5
1CC5B
 10
376.140
 20
773.165
 30
0.000000
  70
    32
  0
VERTEX
  8
AM_0
  5
1CC5C
 10
376.127
 20
773.176
 30
0.000000
  70
    32
  0
VERTEX
  8
AM_0
  5
1CC5D
 10
376.114
 20
773.186
 30
0.000000
  70
    32
  0
VERTEX
  8
AM_0
  5
1CC5E
 10
376.101
 20
773.197
 30
0.000000
  70
    32
  0
VERTEX
  8
AM_0
  5
1CC5F
 10
376.088
 20
773.208
 30
0.000000
  70
    32
  0
VERTEX
  8
AM_0
  5
1CC60
 10
376.075
 20
773.219
 30
0.000000
  70
    32
  0
VERTEX
  8
AM_0
  5
1CC61
 10
376.062
 20
773.230
 30
0.000000
  70
    32
  0
VERTEX
  8
AM_0
  5
1CC62
 10
376.049
 20
773.241
 30
0.000000
  70
    32
  0
VERTEX
  8
AM_0
  5
1CC63
 10
376.037
 20
773.252
 30
0.000000
  70
    32
  0
SEQEND
  8
AM_0
  5
1CC64
  0
POLYLINE
  5
1B165
  8
AM_0
 10
374.05227707894443
 20
774.00234865353139
 30
0.0
 66
     1
 70
     8
  0
VERTEX
  8
AM_0
  5
1CC65
 10
374.052
 20
774.002
 30
0.000000
  70
    32
  0
VERTEX
  8
AM_0
  5
1CC66
 10
374.069
 20
774.002
 30
0.000000
  70
    32
  0
VERTEX
  8
AM_0
  5
1CC67
 10
374.086
 20
774.002
 30
0.000000
  70
    32
  0
VERTEX
  8
AM_0
  5
1CC68
 10
374.103
 20
774.002
 30
0.000000
  70
    32
  0
VERTEX
  8
AM_0
  5
1CC69
 10
374.120
 20
774.002
 30
0.000000
  70
    32
  0
VERTEX
  8
AM_0
  5
1CC6A
 10
374.137
 20
774.001
 30
0.000000
  70
    32
  0
VERTEX
  8
AM_0
  5
1CC6B
 10
374.154
 20
774.001
 30
0.000000
  70
    32
  0
VERTEX
  8
AM_0
  5
1CC6C
 10
374.171
 20
774.000
 30
0.000000
  70
    32
  0
VERTEX
  8
AM_0
  5
1CC6D
 10
374.188
 20
773.999
 30
0.000000
  70
    32
  0
VERTEX
  8
AM_0
  5
1CC6E
 10
374.205
 20
773.998
 30
0.000000
  70
    32
  0
VERTEX
  8
AM_0
  5
1CC6F
 10
374.222
 20
773.998
 30
0.000000
  70
    32
  0
VERTEX
  8
AM_0
  5
1CC70
 10
374.238
 20
773.997
 30
0.000000
  70
    32
  0
VERTEX
  8
AM_0
  5
1CC71
 10
374.255
 20
773.995
 30
0.000000
  70
    32
  0
VERTEX
  8
AM_0
  5
1CC72
 10
374.272
 20
773.994
 30
0.000000
  70
    32
  0
VERTEX
  8
AM_0
  5
1CC73
 10
374.289
 20
773.993
 30
0.000000
  70
    32
  0
VERTEX
  8
AM_0
  5
1CC74
 10
374.306
 20
773.992
 30
0.000000
  70
    32
  0
VERTEX
  8
AM_0
  5
1CC75
 10
374.323
 20
773.990
 30
0.000000
  70
    32
  0
VERTEX
  8
AM_0
  5
1CC76
 10
374.340
 20
773.989
 30
0.000000
  70
    32
  0
VERTEX
  8
AM_0
  5
1CC77
 10
374.357
 20
773.987
 30
0.000000
  70
    32
  0
VERTEX
  8
AM_0
  5
1CC78
 10
374.374
 20
773.985
 30
0.000000
  70
    32
  0
VERTEX
  8
AM_0
  5
1CC79
 10
374.390
 20
773.983
 30
0.000000
  70
    32
  0
VERTEX
  8
AM_0
  5
1CC7A
 10
374.407
 20
773.981
 30
0.000000
  70
    32
  0
VERTEX
  8
AM_0
  5
1CC7B
 10
374.424
 20
773.979
 30
0.000000
  70
    32
  0
VERTEX
  8
AM_0
  5
1CC7C
 10
374.441
 20
773.977
 30
0.000000
  70
    32
  0
VERTEX
  8
AM_0
  5
1CC7D
 10
374.458
 20
773.975
 30
0.000000
  70
    32
  0
VERTEX
  8
AM_0
  5
1CC7E
 10
374.474
 20
773.973
 30
0.000000
  70
    32
  0
VERTEX
  8
AM_0
  5
1CC7F
 10
374.491
 20
773.970
 30
0.000000
  70
    32
  0
VERTEX
  8
AM_0
  5
1CC80
 10
374.508
 20
773.968
 30
0.000000
  70
    32
  0
VERTEX
  8
AM_0
  5
1CC81
 10
374.525
 20
773.965
 30
0.000000
  70
    32
  0
VERTEX
  8
AM_0
  5
1CC82
 10
374.541
 20
773.962
 30
0.000000
  70
    32
  0
VERTEX
  8
AM_0
  5
1CC83
 10
374.558
 20
773.959
 30
0.000000
  70
    32
  0
VERTEX
  8
AM_0
  5
1CC84
 10
374.575
 20
773.957
 30
0.000000
  70
    32
  0
VERTEX
  8
AM_0
  5
1CC85
 10
374.591
 20
773.954
 30
0.000000
  70
    32
  0
VERTEX
  8
AM_0
  5
1CC86
 10
374.608
 20
773.950
 30
0.000000
  70
    32
  0
VERTEX
  8
AM_0
  5
1CC87
 10
374.625
 20
773.947
 30
0.000000
  70
    32
  0
VERTEX
  8
AM_0
  5
1CC88
 10
374.641
 20
773.944
 30
0.000000
  70
    32
  0
VERTEX
  8
AM_0
  5
1CC89
 10
374.658
 20
773.941
 30
0.000000
  70
    32
  0
VERTEX
  8
AM_0
  5
1CC8A
 10
374.674
 20
773.937
 30
0.000000
  70
    32
  0
VERTEX
  8
AM_0
  5
1CC8B
 10
374.691
 20
773.934
 30
0.000000
  70
    32
  0
VERTEX
  8
AM_0
  5
1CC8C
 10
374.708
 20
773.930
 30
0.000000
  70
    32
  0
VERTEX
  8
AM_0
  5
1CC8D
 10
374.724
 20
773.926
 30
0.000000
  70
    32
  0
VERTEX
  8
AM_0
  5
1CC8E
 10
374.741
 20
773.922
 30
0.000000
  70
    32
  0
VERTEX
  8
AM_0
  5
1CC8F
 10
374.757
 20
773.918
 30
0.000000
  70
    32
  0
VERTEX
  8
AM_0
  5
1CC90
 10
374.774
 20
773.914
 30
0.000000
  70
    32
  0
VERTEX
  8
AM_0
  5
1CC91
 10
374.790
 20
773.910
 30
0.000000
  70
    32
  0
VERTEX
  8
AM_0
  5
1CC92
 10
374.806
 20
773.906
 30
0.000000
  70
    32
  0
VERTEX
  8
AM_0
  5
1CC93
 10
374.823
 20
773.902
 30
0.000000
  70
    32
  0
VERTEX
  8
AM_0
  5
1CC94
 10
374.839
 20
773.897
 30
0.000000
  70
    32
  0
VERTEX
  8
AM_0
  5
1CC95
 10
374.855
 20
773.893
 30
0.000000
  70
    32
  0
VERTEX
  8
AM_0
  5
1CC96
 10
374.872
 20
773.888
 30
0.000000
  70
    32
  0
VERTEX
  8
AM_0
  5
1CC97
 10
374.888
 20
773.884
 30
0.000000
  70
    32
  0
VERTEX
  8
AM_0
  5
1CC98
 10
374.904
 20
773.879
 30
0.000000
  70
    32
  0
VERTEX
  8
AM_0
  5
1CC99
 10
374.921
 20
773.874
 30
0.000000
  70
    32
  0
VERTEX
  8
AM_0
  5
1CC9A
 10
374.937
 20
773.869
 30
0.000000
  70
    32
  0
VERTEX
  8
AM_0
  5
1CC9B
 10
374.953
 20
773.864
 30
0.000000
  70
    32
  0
VERTEX
  8
AM_0
  5
1CC9C
 10
374.969
 20
773.859
 30
0.000000
  70
    32
  0
VERTEX
  8
AM_0
  5
1CC9D
 10
374.985
 20
773.854
 30
0.000000
  70
    32
  0
VERTEX
  8
AM_0
  5
1CC9E
 10
375.001
 20
773.848
 30
0.000000
  70
    32
  0
VERTEX
  8
AM_0
  5
1CC9F
 10
375.017
 20
773.843
 30
0.000000
  70
    32
  0
VERTEX
  8
AM_0
  5
1CCA0
 10
375.033
 20
773.837
 30
0.000000
  70
    32
  0
VERTEX
  8
AM_0
  5
1CCA1
 10
375.049
 20
773.832
 30
0.000000
  70
    32
  0
VERTEX
  8
AM_0
  5
1CCA2
 10
375.065
 20
773.826
 30
0.000000
  70
    32
  0
VERTEX
  8
AM_0
  5
1CCA3
 10
375.081
 20
773.820
 30
0.000000
  70
    32
  0
VERTEX
  8
AM_0
  5
1CCA4
 10
375.097
 20
773.815
 30
0.000000
  70
    32
  0
VERTEX
  8
AM_0
  5
1CCA5
 10
375.113
 20
773.809
 30
0.000000
  70
    32
  0
VERTEX
  8
AM_0
  5
1CCA6
 10
375.129
 20
773.803
 30
0.000000
  70
    32
  0
VERTEX
  8
AM_0
  5
1CCA7
 10
375.145
 20
773.796
 30
0.000000
  70
    32
  0
VERTEX
  8
AM_0
  5
1CCA8
 10
375.160
 20
773.790
 30
0.000000
  70
    32
  0
VERTEX
  8
AM_0
  5
1CCA9
 10
375.176
 20
773.784
 30
0.000000
  70
    32
  0
VERTEX
  8
AM_0
  5
1CCAA
 10
375.192
 20
773.778
 30
0.000000
  70
    32
  0
VERTEX
  8
AM_0
  5
1CCAB
 10
375.207
 20
773.771
 30
0.000000
  70
    32
  0
VERTEX
  8
AM_0
  5
1CCAC
 10
375.223
 20
773.764
 30
0.000000
  70
    32
  0
VERTEX
  8
AM_0
  5
1CCAD
 10
375.239
 20
773.758
 30
0.000000
  70
    32
  0
VERTEX
  8
AM_0
  5
1CCAE
 10
375.254
 20
773.751
 30
0.000000
  70
    32
  0
VERTEX
  8
AM_0
  5
1CCAF
 10
375.270
 20
773.744
 30
0.000000
  70
    32
  0
VERTEX
  8
AM_0
  5
1CCB0
 10
375.285
 20
773.737
 30
0.000000
  70
    32
  0
VERTEX
  8
AM_0
  5
1CCB1
 10
375.300
 20
773.730
 30
0.000000
  70
    32
  0
VERTEX
  8
AM_0
  5
1CCB2
 10
375.316
 20
773.723
 30
0.000000
  70
    32
  0
VERTEX
  8
AM_0
  5
1CCB3
 10
375.331
 20
773.716
 30
0.000000
  70
    32
  0
VERTEX
  8
AM_0
  5
1CCB4
 10
375.347
 20
773.709
 30
0.000000
  70
    32
  0
VERTEX
  8
AM_0
  5
1CCB5
 10
375.362
 20
773.701
 30
0.000000
  70
    32
  0
VERTEX
  8
AM_0
  5
1CCB6
 10
375.377
 20
773.694
 30
0.000000
  70
    32
  0
VERTEX
  8
AM_0
  5
1CCB7
 10
375.392
 20
773.686
 30
0.000000
  70
    32
  0
VERTEX
  8
AM_0
  5
1CCB8
 10
375.407
 20
773.679
 30
0.000000
  70
    32
  0
VERTEX
  8
AM_0
  5
1CCB9
 10
375.422
 20
773.671
 30
0.000000
  70
    32
  0
VERTEX
  8
AM_0
  5
1CCBA
 10
375.437
 20
773.663
 30
0.000000
  70
    32
  0
VERTEX
  8
AM_0
  5
1CCBB
 10
375.452
 20
773.656
 30
0.000000
  70
    32
  0
VERTEX
  8
AM_0
  5
1CCBC
 10
375.467
 20
773.648
 30
0.000000
  70
    32
  0
VERTEX
  8
AM_0
  5
1CCBD
 10
375.482
 20
773.640
 30
0.000000
  70
    32
  0
VERTEX
  8
AM_0
  5
1CCBE
 10
375.497
 20
773.631
 30
0.000000
  70
    32
  0
VERTEX
  8
AM_0
  5
1CCBF
 10
375.512
 20
773.623
 30
0.000000
  70
    32
  0
VERTEX
  8
AM_0
  5
1CCC0
 10
375.527
 20
773.615
 30
0.000000
  70
    32
  0
VERTEX
  8
AM_0
  5
1CCC1
 10
375.542
 20
773.607
 30
0.000000
  70
    32
  0
VERTEX
  8
AM_0
  5
1CCC2
 10
375.556
 20
773.598
 30
0.000000
  70
    32
  0
VERTEX
  8
AM_0
  5
1CCC3
 10
375.571
 20
773.590
 30
0.000000
  70
    32
  0
VERTEX
  8
AM_0
  5
1CCC4
 10
375.585
 20
773.581
 30
0.000000
  70
    32
  0
VERTEX
  8
AM_0
  5
1CCC5
 10
375.600
 20
773.572
 30
0.000000
  70
    32
  0
VERTEX
  8
AM_0
  5
1CCC6
 10
375.614
 20
773.564
 30
0.000000
  70
    32
  0
VERTEX
  8
AM_0
  5
1CCC7
 10
375.629
 20
773.555
 30
0.000000
  70
    32
  0
VERTEX
  8
AM_0
  5
1CCC8
 10
375.643
 20
773.546
 30
0.000000
  70
    32
  0
VERTEX
  8
AM_0
  5
1CCC9
 10
375.658
 20
773.537
 30
0.000000
  70
    32
  0
VERTEX
  8
AM_0
  5
1CCCA
 10
375.672
 20
773.528
 30
0.000000
  70
    32
  0
VERTEX
  8
AM_0
  5
1CCCB
 10
375.686
 20
773.518
 30
0.000000
  70
    32
  0
VERTEX
  8
AM_0
  5
1CCCC
 10
375.700
 20
773.509
 30
0.000000
  70
    32
  0
VERTEX
  8
AM_0
  5
1CCCD
 10
375.714
 20
773.500
 30
0.000000
  70
    32
  0
VERTEX
  8
AM_0
  5
1CCCE
 10
375.728
 20
773.490
 30
0.000000
  70
    32
  0
VERTEX
  8
AM_0
  5
1CCCF
 10
375.743
 20
773.481
 30
0.000000
  70
    32
  0
VERTEX
  8
AM_0
  5
1CCD0
 10
375.756
 20
773.471
 30
0.000000
  70
    32
  0
VERTEX
  8
AM_0
  5
1CCD1
 10
375.770
 20
773.462
 30
0.000000
  70
    32
  0
VERTEX
  8
AM_0
  5
1CCD2
 10
375.784
 20
773.452
 30
0.000000
  70
    32
  0
VERTEX
  8
AM_0
  5
1CCD3
 10
375.798
 20
773.442
 30
0.000000
  70
    32
  0
VERTEX
  8
AM_0
  5
1CCD4
 10
375.812
 20
773.432
 30
0.000000
  70
    32
  0
VERTEX
  8
AM_0
  5
1CCD5
 10
375.826
 20
773.422
 30
0.000000
  70
    32
  0
VERTEX
  8
AM_0
  5
1CCD6
 10
375.839
 20
773.412
 30
0.000000
  70
    32
  0
VERTEX
  8
AM_0
  5
1CCD7
 10
375.853
 20
773.402
 30
0.000000
  70
    32
  0
VERTEX
  8
AM_0
  5
1CCD8
 10
375.866
 20
773.392
 30
0.000000
  70
    32
  0
VERTEX
  8
AM_0
  5
1CCD9
 10
375.880
 20
773.382
 30
0.000000
  70
    32
  0
VERTEX
  8
AM_0
  5
1CCDA
 10
375.893
 20
773.371
 30
0.000000
  70
    32
  0
VERTEX
  8
AM_0
  5
1CCDB
 10
375.906
 20
773.361
 30
0.000000
  70
    32
  0
VERTEX
  8
AM_0
  5
1CCDC
 10
375.920
 20
773.350
 30
0.000000
  70
    32
  0
VERTEX
  8
AM_0
  5
1CCDD
 10
375.933
 20
773.340
 30
0.000000
  70
    32
  0
VERTEX
  8
AM_0
  5
1CCDE
 10
375.946
 20
773.329
 30
0.000000
  70
    32
  0
VERTEX
  8
AM_0
  5
1CCDF
 10
375.959
 20
773.318
 30
0.000000
  70
    32
  0
VERTEX
  8
AM_0
  5
1CCE0
 10
375.972
 20
773.307
 30
0.000000
  70
    32
  0
VERTEX
  8
AM_0
  5
1CCE1
 10
375.985
 20
773.297
 30
0.000000
  70
    32
  0
VERTEX
  8
AM_0
  5
1CCE2
 10
375.998
 20
773.286
 30
0.000000
  70
    32
  0
VERTEX
  8
AM_0
  5
1CCE3
 10
376.011
 20
773.275
 30
0.000000
  70
    32
  0
VERTEX
  8
AM_0
  5
1CCE4
 10
376.024
 20
773.264
 30
0.000000
  70
    32
  0
VERTEX
  8
AM_0
  5
1CCE5
 10
376.037
 20
773.252
 30
0.000000
  70
    32
  0
SEQEND
  8
AM_0
  5
1CCE6
  0
LINE
  5
1B16D
  8
AM_0
 10
375.05227179005283
 20
763.50215319793972
 30
0.0
 11
363.05227178645282
 21
763.50215319794006
 31
0.0
  0
LINE
  5
1B16E
  8
AM_0
 10
375.05227179005192
 20
739.56262681923295
 30
0.0
 11
363.0522717864518
 21
739.56262681923295
 31
0.0
  0
LINE
  5
1B16F
  8
AM_0
 10
386.32474873034289
 20
770.6766237326807
 30
0.0
 11
389.5049653829833
 21
734.3265810588847
 31
0.0
  0
ARC
  5
1B170
  8
AM_0
 10
391.49735477916653
 20
734.50089254437978
 30
0.0
 40
2.0
 50
184.9999999999994
 51
270.0
1001
GENIUS_GENOBJ-N-FIL_13
1002
{
1000
OWNER
1000
GEN
1002
}
1001
GENIUS_GENODEF_13
1002
{
1000
HIER
1070
     0
1002
}
1002
{
1000
MANEDIT
1070
     0
1002
}
1002
{
1000
NOSEL
1070
     0
1002
}
1002
{
1000
BEHIND
1070
     0
1002
}
1002
{
1000
OTHER
1070
     0
1002
}
1002
{
1000
REACTOR
1002
}
  0
LINE
  5
1B171
  8
AM_0
 10
391.4973547791667
 20
732.50089254438024
 30
0.0
 11
398.56962887055278
 21
732.50089254438024
 31
0.0
  0
ARC
  5
1B172
  8
AM_0
 10
398.56962887055261
 20
733.50089254438024
 30
0.0
 40
1.0
 50
270.0
 51
1.0000242476043999
1001
GENIUS_GENODEF_13
1002
{
1000
HIER
1070
     0
1002
}
1002
{
1000
MANEDIT
1070
     0
1002
}
1002
{
1000
NOSEL
1070
     0
1002
}
1002
{
1000
BEHIND
1070
     0
1002
}
1002
{
1000
OTHER
1070
     0
1002
}
1002
{
1000
REACTOR
1002
}
1001
GENIUS_GENOBJ-N-FIL_13
1002
{
1000
OWNER
1000
GEN
1002
}
  0
LINE
  5
1B173
  8
AM_0
 10
383.38496146148481
 20
643.50088953414775
 30
0.0
 11
399.17538150736959
 21
643.50088953414786
 31
0.0
  0
ARC
  5
1B174
  8
AM_0
 10
399.17538150736931
 20
641.50088953414775
 30
0.0
 40
2.0
 50
1.0000242476434871
 51
90.0
1001
GENIUS_GENOBJ-N-FIL_13
1002
{
1000
OWNER
1000
GEN
1002
}
1001
GENIUS_GENODEF_13
1002
{
1000
HIER
1070
     0
1002
}
1002
{
1000
MANEDIT
1070
     0
1002
}
1002
{
1000
NOSEL
1070
     0
1002
}
1002
{
1000
BEHIND
1070
     0
1002
}
1002
{
1000
OTHER
1070
     0
1002
}
1002
{
1000
REACTOR
1002
}
  0
LINE
  5
1B17A
  8
AM_0
 10
375.0522717900505
 20
661.43915957664717
 30
0.0
 11
363.05227178645077
 21
661.43915957664717
 31
0.0
  0
ARC
  5
1B184
  8
AM_0
 10
383.38496146148452
 20
641.50088953414775
 30
0.0
 40
2.0
 50
90.0
 51
175.00000000000051
1001
GENIUS_GENOBJ-N-FIL_13
1002
{
1000
OWNER
1000
GEN
1002
}
1001
GENIUS_GENODEF_13
1002
{
1000
HIER
1070
     0
1002
}
1002
{
1000
MANEDIT
1070
     0
1002
}
1002
{
1000
NOSEL
1070
     0
1002
}
1002
{
1000
BEHIND
1070
     0
1002
}
1002
{
1000
OTHER
1070
     0
1002
}
1002
{
1000
REACTOR
1002
}
  0
LINE
  5
1B185
  8
AM_0
 10
363.05227786612443
 20
626.99941834825211
 30
0.0
 11
374.0522770789446
 21
626.99943774234907
 31
0.0
  0
LINE
  5
1B186
  8
AM_0
 10
375.0522717900505
 20
637.49963319794006
 30
0.0
 11
363.0522717864506
 21
637.49963319794006
 31
0.0
  0
LINE
  5
1B187
  8
AM_0
 10
381.39257206530129
 20
641.67520101964305
 30
0.0
 11
380.3995717500257
 21
630.32515547938374
 31
0.0
  0
ARC
  5
1B188
  8
AM_0
 10
378.40718235384219
 20
630.49946696487928
 30
0.0
 40
2.0
 50
270.00006946667207
 51
355.00000000000051
1001
GENIUS_GENOBJ-N-FIL_13
1002
{
1000
OWNER
1000
GEN
1002
}
1001
GENIUS_GENODEF_13
1002
{
1000
HIER
1070
     0
1002
}
1002
{
1000
MANEDIT
1070
     0
1002
}
1002
{
1000
NOSEL
1070
     0
1002
}
1002
{
1000
BEHIND
1070
     0
1002
}
1002
{
1000
OTHER
1070
     0
1002
}
1002
{
1000
REACTOR
1002
}
  0
POLYLINE
  5
1B189
  8
AM_0
 10
376.03658456735064
 20
627.74945211943975
 30
0.0
 66
     1
 70
     8
  0
VERTEX
  8
AM_0
  5
1CCE7
 10
376.037
 20
627.749
 30
0.000000
  70
    32
  0
VERTEX
  8
AM_0
  5
1CCE8
 10
376.049
 20
627.761
 30
0.000000
  70
    32
  0
VERTEX
  8
AM_0
  5
1CCE9
 10
376.062
 20
627.772
 30
0.000000
  70
    32
  0
VERTEX
  8
AM_0
  5
1CCEA
 10
376.075
 20
627.783
 30
0.000000
  70
    32
  0
VERTEX
  8
AM_0
  5
1CCEB
 10
376.088
 20
627.794
 30
0.000000
  70
    32
  0
VERTEX
  8
AM_0
  5
1CCEC
 10
376.101
 20
627.805
 30
0.000000
  70
    32
  0
VERTEX
  8
AM_0
  5
1CCED
 10
376.114
 20
627.815
 30
0.000000
  70
    32
  0
VERTEX
  8
AM_0
  5
1CCEE
 10
376.127
 20
627.826
 30
0.000000
  70
    32
  0
VERTEX
  8
AM_0
  5
1CCEF
 10
376.140
 20
627.837
 30
0.000000
  70
    32
  0
VERTEX
  8
AM_0
  5
1CCF0
 10
376.153
 20
627.847
 30
0.000000
  70
    32
  0
VERTEX
  8
AM_0
  5
1CCF1
 10
376.167
 20
627.858
 30
0.000000
  70
    32
  0
VERTEX
  8
AM_0
  5
1CCF2
 10
376.180
 20
627.868
 30
0.000000
  70
    32
  0
VERTEX
  8
AM_0
  5
1CCF3
 10
376.193
 20
627.879
 30
0.000000
  70
    32
  0
VERTEX
  8
AM_0
  5
1CCF4
 10
376.207
 20
627.889
 30
0.000000
  70
    32
  0
VERTEX
  8
AM_0
  5
1CCF5
 10
376.220
 20
627.899
 30
0.000000
  70
    32
  0
VERTEX
  8
AM_0
  5
1CCF6
 10
376.234
 20
627.909
 30
0.000000
  70
    32
  0
VERTEX
  8
AM_0
  5
1CCF7
 10
376.248
 20
627.919
 30
0.000000
  70
    32
  0
VERTEX
  8
AM_0
  5
1CCF8
 10
376.261
 20
627.929
 30
0.000000
  70
    32
  0
VERTEX
  8
AM_0
  5
1CCF9
 10
376.275
 20
627.939
 30
0.000000
  70
    32
  0
VERTEX
  8
AM_0
  5
1CCFA
 10
376.289
 20
627.949
 30
0.000000
  70
    32
  0
VERTEX
  8
AM_0
  5
1CCFB
 10
376.303
 20
627.959
 30
0.000000
  70
    32
  0
VERTEX
  8
AM_0
  5
1CCFC
 10
376.317
 20
627.968
 30
0.000000
  70
    32
  0
VERTEX
  8
AM_0
  5
1CCFD
 10
376.331
 20
627.978
 30
0.000000
  70
    32
  0
VERTEX
  8
AM_0
  5
1CCFE
 10
376.345
 20
627.987
 30
0.000000
  70
    32
  0
VERTEX
  8
AM_0
  5
1CCFF
 10
376.359
 20
627.997
 30
0.000000
  70
    32
  0
VERTEX
  8
AM_0
  5
1CD00
 10
376.373
 20
628.006
 30
0.000000
  70
    32
  0
VERTEX
  8
AM_0
  5
1CD01
 10
376.387
 20
628.016
 30
0.000000
  70
    32
  0
VERTEX
  8
AM_0
  5
1CD02
 10
376.401
 20
628.025
 30
0.000000
  70
    32
  0
VERTEX
  8
AM_0
  5
1CD03
 10
376.416
 20
628.034
 30
0.000000
  70
    32
  0
VERTEX
  8
AM_0
  5
1CD04
 10
376.430
 20
628.043
 30
0.000000
  70
    32
  0
VERTEX
  8
AM_0
  5
1CD05
 10
376.444
 20
628.052
 30
0.000000
  70
    32
  0
VERTEX
  8
AM_0
  5
1CD06
 10
376.459
 20
628.061
 30
0.000000
  70
    32
  0
VERTEX
  8
AM_0
  5
1CD07
 10
376.473
 20
628.069
 30
0.000000
  70
    32
  0
VERTEX
  8
AM_0
  5
1CD08
 10
376.488
 20
628.078
 30
0.000000
  70
    32
  0
VERTEX
  8
AM_0
  5
1CD09
 10
376.502
 20
628.087
 30
0.000000
  70
    32
  0
VERTEX
  8
AM_0
  5
1CD0A
 10
376.517
 20
628.095
 30
0.000000
  70
    32
  0
VERTEX
  8
AM_0
  5
1CD0B
 10
376.532
 20
628.104
 30
0.000000
  70
    32
  0
VERTEX
  8
AM_0
  5
1CD0C
 10
376.546
 20
628.112
 30
0.000000
  70
    32
  0
VERTEX
  8
AM_0
  5
1CD0D
 10
376.561
 20
628.120
 30
0.000000
  70
    32
  0
VERTEX
  8
AM_0
  5
1CD0E
 10
376.576
 20
628.129
 30
0.000000
  70
    32
  0
VERTEX
  8
AM_0
  5
1CD0F
 10
376.591
 20
628.137
 30
0.000000
  70
    32
  0
VERTEX
  8
AM_0
  5
1CD10
 10
376.606
 20
628.145
 30
0.000000
  70
    32
  0
VERTEX
  8
AM_0
  5
1CD11
 10
376.621
 20
628.153
 30
0.000000
  70
    32
  0
VERTEX
  8
AM_0
  5
1CD12
 10
376.636
 20
628.161
 30
0.000000
  70
    32
  0
VERTEX
  8
AM_0
  5
1CD13
 10
376.651
 20
628.168
 30
0.000000
  70
    32
  0
VERTEX
  8
AM_0
  5
1CD14
 10
376.666
 20
628.176
 30
0.000000
  70
    32
  0
VERTEX
  8
AM_0
  5
1CD15
 10
376.681
 20
628.184
 30
0.000000
  70
    32
  0
VERTEX
  8
AM_0
  5
1CD16
 10
376.696
 20
628.191
 30
0.000000
  70
    32
  0
VERTEX
  8
AM_0
  5
1CD17
 10
376.711
 20
628.199
 30
0.000000
  70
    32
  0
VERTEX
  8
AM_0
  5
1CD18
 10
376.727
 20
628.206
 30
0.000000
  70
    32
  0
VERTEX
  8
AM_0
  5
1CD19
 10
376.742
 20
628.213
 30
0.000000
  70
    32
  0
VERTEX
  8
AM_0
  5
1CD1A
 10
376.757
 20
628.220
 30
0.000000
  70
    32
  0
VERTEX
  8
AM_0
  5
1CD1B
 10
376.773
 20
628.227
 30
0.000000
  70
    32
  0
VERTEX
  8
AM_0
  5
1CD1C
 10
376.788
 20
628.234
 30
0.000000
  70
    32
  0
VERTEX
  8
AM_0
  5
1CD1D
 10
376.804
 20
628.241
 30
0.000000
  70
    32
  0
VERTEX
  8
AM_0
  5
1CD1E
 10
376.819
 20
628.248
 30
0.000000
  70
    32
  0
VERTEX
  8
AM_0
  5
1CD1F
 10
376.835
 20
628.255
 30
0.000000
  70
    32
  0
VERTEX
  8
AM_0
  5
1CD20
 10
376.850
 20
628.262
 30
0.000000
  70
    32
  0
VERTEX
  8
AM_0
  5
1CD21
 10
376.866
 20
628.268
 30
0.000000
  70
    32
  0
VERTEX
  8
AM_0
  5
1CD22
 10
376.881
 20
628.275
 30
0.000000
  70
    32
  0
VERTEX
  8
AM_0
  5
1CD23
 10
376.897
 20
628.281
 30
0.000000
  70
    32
  0
VERTEX
  8
AM_0
  5
1CD24
 10
376.913
 20
628.287
 30
0.000000
  70
    32
  0
VERTEX
  8
AM_0
  5
1CD25
 10
376.929
 20
628.294
 30
0.000000
  70
    32
  0
VERTEX
  8
AM_0
  5
1CD26
 10
376.944
 20
628.300
 30
0.000000
  70
    32
  0
VERTEX
  8
AM_0
  5
1CD27
 10
376.960
 20
628.306
 30
0.000000
  70
    32
  0
VERTEX
  8
AM_0
  5
1CD28
 10
376.976
 20
628.312
 30
0.000000
  70
    32
  0
VERTEX
  8
AM_0
  5
1CD29
 10
376.992
 20
628.318
 30
0.000000
  70
    32
  0
VERTEX
  8
AM_0
  5
1CD2A
 10
377.008
 20
628.323
 30
0.000000
  70
    32
  0
VERTEX
  8
AM_0
  5
1CD2B
 10
377.024
 20
628.329
 30
0.000000
  70
    32
  0
VERTEX
  8
AM_0
  5
1CD2C
 10
377.040
 20
628.335
 30
0.000000
  70
    32
  0
VERTEX
  8
AM_0
  5
1CD2D
 10
377.056
 20
628.340
 30
0.000000
  70
    32
  0
VERTEX
  8
AM_0
  5
1CD2E
 10
377.072
 20
628.345
 30
0.000000
  70
    32
  0
VERTEX
  8
AM_0
  5
1CD2F
 10
377.088
 20
628.351
 30
0.000000
  70
    32
  0
VERTEX
  8
AM_0
  5
1CD30
 10
377.104
 20
628.356
 30
0.000000
  70
    32
  0
VERTEX
  8
AM_0
  5
1CD31
 10
377.120
 20
628.361
 30
0.000000
  70
    32
  0
VERTEX
  8
AM_0
  5
1CD32
 10
377.136
 20
628.366
 30
0.000000
  70
    32
  0
VERTEX
  8
AM_0
  5
1CD33
 10
377.153
 20
628.371
 30
0.000000
  70
    32
  0
VERTEX
  8
AM_0
  5
1CD34
 10
377.169
 20
628.376
 30
0.000000
  70
    32
  0
VERTEX
  8
AM_0
  5
1CD35
 10
377.185
 20
628.381
 30
0.000000
  70
    32
  0
VERTEX
  8
AM_0
  5
1CD36
 10
377.201
 20
628.385
 30
0.000000
  70
    32
  0
VERTEX
  8
AM_0
  5
1CD37
 10
377.218
 20
628.390
 30
0.000000
  70
    32
  0
VERTEX
  8
AM_0
  5
1CD38
 10
377.234
 20
628.394
 30
0.000000
  70
    32
  0
VERTEX
  8
AM_0
  5
1CD39
 10
377.250
 20
628.399
 30
0.000000
  70
    32
  0
VERTEX
  8
AM_0
  5
1CD3A
 10
377.267
 20
628.403
 30
0.000000
  70
    32
  0
VERTEX
  8
AM_0
  5
1CD3B
 10
377.283
 20
628.407
 30
0.000000
  70
    32
  0
VERTEX
  8
AM_0
  5
1CD3C
 10
377.300
 20
628.411
 30
0.000000
  70
    32
  0
VERTEX
  8
AM_0
  5
1CD3D
 10
377.316
 20
628.416
 30
0.000000
  70
    32
  0
VERTEX
  8
AM_0
  5
1CD3E
 10
377.333
 20
628.419
 30
0.000000
  70
    32
  0
VERTEX
  8
AM_0
  5
1CD3F
 10
377.349
 20
628.423
 30
0.000000
  70
    32
  0
VERTEX
  8
AM_0
  5
1CD40
 10
377.366
 20
628.427
 30
0.000000
  70
    32
  0
VERTEX
  8
AM_0
  5
1CD41
 10
377.382
 20
628.431
 30
0.000000
  70
    32
  0
VERTEX
  8
AM_0
  5
1CD42
 10
377.399
 20
628.434
 30
0.000000
  70
    32
  0
VERTEX
  8
AM_0
  5
1CD43
 10
377.415
 20
628.438
 30
0.000000
  70
    32
  0
VERTEX
  8
AM_0
  5
1CD44
 10
377.432
 20
628.441
 30
0.000000
  70
    32
  0
VERTEX
  8
AM_0
  5
1CD45
 10
377.448
 20
628.444
 30
0.000000
  70
    32
  0
VERTEX
  8
AM_0
  5
1CD46
 10
377.465
 20
628.448
 30
0.000000
  70
    32
  0
VERTEX
  8
AM_0
  5
1CD47
 10
377.482
 20
628.451
 30
0.000000
  70
    32
  0
VERTEX
  8
AM_0
  5
1CD48
 10
377.498
 20
628.454
 30
0.000000
  70
    32
  0
VERTEX
  8
AM_0
  5
1CD49
 10
377.515
 20
628.457
 30
0.000000
  70
    32
  0
VERTEX
  8
AM_0
  5
1CD4A
 10
377.532
 20
628.459
 30
0.000000
  70
    32
  0
VERTEX
  8
AM_0
  5
1CD4B
 10
377.549
 20
628.462
 30
0.000000
  70
    32
  0
VERTEX
  8
AM_0
  5
1CD4C
 10
377.565
 20
628.465
 30
0.000000
  70
    32
  0
VERTEX
  8
AM_0
  5
1CD4D
 10
377.582
 20
628.467
 30
0.000000
  70
    32
  0
VERTEX
  8
AM_0
  5
1CD4E
 10
377.599
 20
628.470
 30
0.000000
  70
    32
  0
VERTEX
  8
AM_0
  5
1CD4F
 10
377.616
 20
628.472
 30
0.000000
  70
    32
  0
VERTEX
  8
AM_0
  5
1CD50
 10
377.632
 20
628.474
 30
0.000000
  70
    32
  0
VERTEX
  8
AM_0
  5
1CD51
 10
377.649
 20
628.476
 30
0.000000
  70
    32
  0
VERTEX
  8
AM_0
  5
1CD52
 10
377.666
 20
628.478
 30
0.000000
  70
    32
  0
VERTEX
  8
AM_0
  5
1CD53
 10
377.683
 20
628.480
 30
0.000000
  70
    32
  0
VERTEX
  8
AM_0
  5
1CD54
 10
377.700
 20
628.482
 30
0.000000
  70
    32
  0
VERTEX
  8
AM_0
  5
1CD55
 10
377.717
 20
628.484
 30
0.000000
  70
    32
  0
VERTEX
  8
AM_0
  5
1CD56
 10
377.733
 20
628.486
 30
0.000000
  70
    32
  0
VERTEX
  8
AM_0
  5
1CD57
 10
377.750
 20
628.487
 30
0.000000
  70
    32
  0
VERTEX
  8
AM_0
  5
1CD58
 10
377.767
 20
628.489
 30
0.000000
  70
    32
  0
VERTEX
  8
AM_0
  5
1CD59
 10
377.784
 20
628.490
 30
0.000000
  70
    32
  0
VERTEX
  8
AM_0
  5
1CD5A
 10
377.801
 20
628.491
 30
0.000000
  70
    32
  0
VERTEX
  8
AM_0
  5
1CD5B
 10
377.818
 20
628.493
 30
0.000000
  70
    32
  0
VERTEX
  8
AM_0
  5
1CD5C
 10
377.835
 20
628.494
 30
0.000000
  70
    32
  0
VERTEX
  8
AM_0
  5
1CD5D
 10
377.852
 20
628.495
 30
0.000000
  70
    32
  0
VERTEX
  8
AM_0
  5
1CD5E
 10
377.869
 20
628.496
 30
0.000000
  70
    32
  0
VERTEX
  8
AM_0
  5
1CD5F
 10
377.885
 20
628.496
 30
0.000000
  70
    32
  0
VERTEX
  8
AM_0
  5
1CD60
 10
377.902
 20
628.497
 30
0.000000
  70
    32
  0
VERTEX
  8
AM_0
  5
1CD61
 10
377.919
 20
628.498
 30
0.000000
  70
    32
  0
VERTEX
  8
AM_0
  5
1CD62
 10
377.936
 20
628.498
 30
0.000000
  70
    32
  0
VERTEX
  8
AM_0
  5
1CD63
 10
377.953
 20
628.499
 30
0.000000
  70
    32
  0
VERTEX
  8
AM_0
  5
1CD64
 10
377.970
 20
628.499
 30
0.000000
  70
    32
  0
VERTEX
  8
AM_0
  5
1CD65
 10
377.987
 20
628.499
 30
0.000000
  70
    32
  0
VERTEX
  8
AM_0
  5
1CD66
 10
378.004
 20
628.499
 30
0.000000
  70
    32
  0
VERTEX
  8
AM_0
  5
1CD67
 10
378.021
 20
628.499
 30
0.000000
  70
    32
  0
SEQEND
  8
AM_0
  5
1CD68
  0
POLYLINE
  5
1B18A
  8
AM_0
 10
376.03658456735087
 20
627.74945211943975
 30
0.0
 66
     1
 70
     8
  0
VERTEX
  8
AM_0
  5
1CD69
 10
376.037
 20
627.749
 30
0.000000
  70
    32
  0
VERTEX
  8
AM_0
  5
1CD6A
 10
376.024
 20
627.738
 30
0.000000
  70
    32
  0
VERTEX
  8
AM_0
  5
1CD6B
 10
376.011
 20
627.727
 30
0.000000
  70
    32
  0
VERTEX
  8
AM_0
  5
1CD6C
 10
375.998
 20
627.716
 30
0.000000
  70
    32
  0
VERTEX
  8
AM_0
  5
1CD6D
 10
375.985
 20
627.705
 30
0.000000
  70
    32
  0
VERTEX
  8
AM_0
  5
1CD6E
 10
375.972
 20
627.694
 30
0.000000
  70
    32
  0
VERTEX
  8
AM_0
  5
1CD6F
 10
375.959
 20
627.684
 30
0.000000
  70
    32
  0
VERTEX
  8
AM_0
  5
1CD70
 10
375.946
 20
627.673
 30
0.000000
  70
    32
  0
VERTEX
  8
AM_0
  5
1CD71
 10
375.933
 20
627.662
 30
0.000000
  70
    32
  0
VERTEX
  8
AM_0
  5
1CD72
 10
375.920
 20
627.652
 30
0.000000
  70
    32
  0
VERTEX
  8
AM_0
  5
1CD73
 10
375.906
 20
627.641
 30
0.000000
  70
    32
  0
VERTEX
  8
AM_0
  5
1CD74
 10
375.893
 20
627.631
 30
0.000000
  70
    32
  0
VERTEX
  8
AM_0
  5
1CD75
 10
375.880
 20
627.620
 30
0.000000
  70
    32
  0
VERTEX
  8
AM_0
  5
1CD76
 10
375.866
 20
627.610
 30
0.000000
  70
    32
  0
VERTEX
  8
AM_0
  5
1CD77
 10
375.853
 20
627.600
 30
0.000000
  70
    32
  0
VERTEX
  8
AM_0
  5
1CD78
 10
375.839
 20
627.590
 30
0.000000
  70
    32
  0
VERTEX
  8
AM_0
  5
1CD79
 10
375.826
 20
627.580
 30
0.000000
  70
    32
  0
VERTEX
  8
AM_0
  5
1CD7A
 10
375.812
 20
627.570
 30
0.000000
  70
    32
  0
VERTEX
  8
AM_0
  5
1CD7B
 10
375.798
 20
627.560
 30
0.000000
  70
    32
  0
VERTEX
  8
AM_0
  5
1CD7C
 10
375.784
 20
627.550
 30
0.000000
  70
    32
  0
VERTEX
  8
AM_0
  5
1CD7D
 10
375.770
 20
627.540
 30
0.000000
  70
    32
  0
VERTEX
  8
AM_0
  5
1CD7E
 10
375.756
 20
627.531
 30
0.000000
  70
    32
  0
VERTEX
  8
AM_0
  5
1CD7F
 10
375.743
 20
627.521
 30
0.000000
  70
    32
  0
VERTEX
  8
AM_0
  5
1CD80
 10
375.728
 20
627.511
 30
0.000000
  70
    32
  0
VERTEX
  8
AM_0
  5
1CD81
 10
375.714
 20
627.502
 30
0.000000
  70
    32
  0
VERTEX
  8
AM_0
  5
1CD82
 10
375.700
 20
627.493
 30
0.000000
  70
    32
  0
VERTEX
  8
AM_0
  5
1CD83
 10
375.686
 20
627.483
 30
0.000000
  70
    32
  0
VERTEX
  8
AM_0
  5
1CD84
 10
375.672
 20
627.474
 30
0.000000
  70
    32
  0
VERTEX
  8
AM_0
  5
1CD85
 10
375.658
 20
627.465
 30
0.000000
  70
    32
  0
VERTEX
  8
AM_0
  5
1CD86
 10
375.643
 20
627.456
 30
0.000000
  70
    32
  0
VERTEX
  8
AM_0
  5
1CD87
 10
375.629
 20
627.447
 30
0.000000
  70
    32
  0
VERTEX
  8
AM_0
  5
1CD88
 10
375.614
 20
627.438
 30
0.000000
  70
    32
  0
VERTEX
  8
AM_0
  5
1CD89
 10
375.600
 20
627.429
 30
0.000000
  70
    32
  0
VERTEX
  8
AM_0
  5
1CD8A
 10
375.585
 20
627.421
 30
0.000000
  70
    32
  0
VERTEX
  8
AM_0
  5
1CD8B
 10
375.571
 20
627.412
 30
0.000000
  70
    32
  0
VERTEX
  8
AM_0
  5
1CD8C
 10
375.556
 20
627.404
 30
0.000000
  70
    32
  0
VERTEX
  8
AM_0
  5
1CD8D
 10
375.542
 20
627.395
 30
0.000000
  70
    32
  0
VERTEX
  8
AM_0
  5
1CD8E
 10
375.527
 20
627.387
 30
0.000000
  70
    32
  0
VERTEX
  8
AM_0
  5
1CD8F
 10
375.512
 20
627.379
 30
0.000000
  70
    32
  0
VERTEX
  8
AM_0
  5
1CD90
 10
375.497
 20
627.370
 30
0.000000
  70
    32
  0
VERTEX
  8
AM_0
  5
1CD91
 10
375.482
 20
627.362
 30
0.000000
  70
    32
  0
VERTEX
  8
AM_0
  5
1CD92
 10
375.467
 20
627.354
 30
0.000000
  70
    32
  0
VERTEX
  8
AM_0
  5
1CD93
 10
375.452
 20
627.346
 30
0.000000
  70
    32
  0
VERTEX
  8
AM_0
  5
1CD94
 10
375.437
 20
627.338
 30
0.000000
  70
    32
  0
VERTEX
  8
AM_0
  5
1CD95
 10
375.422
 20
627.331
 30
0.000000
  70
    32
  0
VERTEX
  8
AM_0
  5
1CD96
 10
375.407
 20
627.323
 30
0.000000
  70
    32
  0
VERTEX
  8
AM_0
  5
1CD97
 10
375.392
 20
627.315
 30
0.000000
  70
    32
  0
VERTEX
  8
AM_0
  5
1CD98
 10
375.377
 20
627.308
 30
0.000000
  70
    32
  0
VERTEX
  8
AM_0
  5
1CD99
 10
375.362
 20
627.300
 30
0.000000
  70
    32
  0
VERTEX
  8
AM_0
  5
1CD9A
 10
375.347
 20
627.293
 30
0.000000
  70
    32
  0
VERTEX
  8
AM_0
  5
1CD9B
 10
375.331
 20
627.286
 30
0.000000
  70
    32
  0
VERTEX
  8
AM_0
  5
1CD9C
 10
375.316
 20
627.279
 30
0.000000
  70
    32
  0
VERTEX
  8
AM_0
  5
1CD9D
 10
375.300
 20
627.271
 30
0.000000
  70
    32
  0
VERTEX
  8
AM_0
  5
1CD9E
 10
375.285
 20
627.264
 30
0.000000
  70
    32
  0
VERTEX
  8
AM_0
  5
1CD9F
 10
375.270
 20
627.258
 30
0.000000
  70
    32
  0
VERTEX
  8
AM_0
  5
1CDA0
 10
375.254
 20
627.251
 30
0.000000
  70
    32
  0
VERTEX
  8
AM_0
  5
1CDA1
 10
375.239
 20
627.244
 30
0.000000
  70
    32
  0
VERTEX
  8
AM_0
  5
1CDA2
 10
375.223
 20
627.237
 30
0.000000
  70
    32
  0
VERTEX
  8
AM_0
  5
1CDA3
 10
375.207
 20
627.231
 30
0.000000
  70
    32
  0
VERTEX
  8
AM_0
  5
1CDA4
 10
375.192
 20
627.224
 30
0.000000
  70
    32
  0
VERTEX
  8
AM_0
  5
1CDA5
 10
375.176
 20
627.218
 30
0.000000
  70
    32
  0
VERTEX
  8
AM_0
  5
1CDA6
 10
375.160
 20
627.212
 30
0.000000
  70
    32
  0
VERTEX
  8
AM_0
  5
1CDA7
 10
375.145
 20
627.205
 30
0.000000
  70
    32
  0
VERTEX
  8
AM_0
  5
1CDA8
 10
375.129
 20
627.199
 30
0.000000
  70
    32
  0
VERTEX
  8
AM_0
  5
1CDA9
 10
375.113
 20
627.193
 30
0.000000
  70
    32
  0
VERTEX
  8
AM_0
  5
1CDAA
 10
375.097
 20
627.187
 30
0.000000
  70
    32
  0
VERTEX
  8
AM_0
  5
1CDAB
 10
375.081
 20
627.181
 30
0.000000
  70
    32
  0
VERTEX
  8
AM_0
  5
1CDAC
 10
375.065
 20
627.176
 30
0.000000
  70
    32
  0
VERTEX
  8
AM_0
  5
1CDAD
 10
375.049
 20
627.170
 30
0.000000
  70
    32
  0
VERTEX
  8
AM_0
  5
1CDAE
 10
375.033
 20
627.164
 30
0.000000
  70
    32
  0
VERTEX
  8
AM_0
  5
1CDAF
 10
375.017
 20
627.159
 30
0.000000
  70
    32
  0
VERTEX
  8
AM_0
  5
1CDB0
 10
375.001
 20
627.153
 30
0.000000
  70
    32
  0
VERTEX
  8
AM_0
  5
1CDB1
 10
374.985
 20
627.148
 30
0.000000
  70
    32
  0
VERTEX
  8
AM_0
  5
1CDB2
 10
374.969
 20
627.143
 30
0.000000
  70
    32
  0
VERTEX
  8
AM_0
  5
1CDB3
 10
374.953
 20
627.138
 30
0.000000
  70
    32
  0
VERTEX
  8
AM_0
  5
1CDB4
 10
374.937
 20
627.133
 30
0.000000
  70
    32
  0
VERTEX
  8
AM_0
  5
1CDB5
 10
374.921
 20
627.128
 30
0.000000
  70
    32
  0
VERTEX
  8
AM_0
  5
1CDB6
 10
374.904
 20
627.123
 30
0.000000
  70
    32
  0
VERTEX
  8
AM_0
  5
1CDB7
 10
374.888
 20
627.118
 30
0.000000
  70
    32
  0
VERTEX
  8
AM_0
  5
1CDB8
 10
374.872
 20
627.114
 30
0.000000
  70
    32
  0
VERTEX
  8
AM_0
  5
1CDB9
 10
374.855
 20
627.109
 30
0.000000
  70
    32
  0
VERTEX
  8
AM_0
  5
1CDBA
 10
374.839
 20
627.104
 30
0.000000
  70
    32
  0
VERTEX
  8
AM_0
  5
1CDBB
 10
374.823
 20
627.100
 30
0.000000
  70
    32
  0
VERTEX
  8
AM_0
  5
1CDBC
 10
374.806
 20
627.096
 30
0.000000
  70
    32
  0
VERTEX
  8
AM_0
  5
1CDBD
 10
374.790
 20
627.092
 30
0.000000
  70
    32
  0
VERTEX
  8
AM_0
  5
1CDBE
 10
374.774
 20
627.087
 30
0.000000
  70
    32
  0
VERTEX
  8
AM_0
  5
1CDBF
 10
374.757
 20
627.083
 30
0.000000
  70
    32
  0
VERTEX
  8
AM_0
  5
1CDC0
 10
374.741
 20
627.079
 30
0.000000
  70
    32
  0
VERTEX
  8
AM_0
  5
1CDC1
 10
374.724
 20
627.076
 30
0.000000
  70
    32
  0
VERTEX
  8
AM_0
  5
1CDC2
 10
374.708
 20
627.072
 30
0.000000
  70
    32
  0
VERTEX
  8
AM_0
  5
1CDC3
 10
374.691
 20
627.068
 30
0.000000
  70
    32
  0
VERTEX
  8
AM_0
  5
1CDC4
 10
374.674
 20
627.065
 30
0.000000
  70
    32
  0
VERTEX
  8
AM_0
  5
1CDC5
 10
374.658
 20
627.061
 30
0.000000
  70
    32
  0
VERTEX
  8
AM_0
  5
1CDC6
 10
374.641
 20
627.058
 30
0.000000
  70
    32
  0
VERTEX
  8
AM_0
  5
1CDC7
 10
374.625
 20
627.055
 30
0.000000
  70
    32
  0
VERTEX
  8
AM_0
  5
1CDC8
 10
374.608
 20
627.051
 30
0.000000
  70
    32
  0
VERTEX
  8
AM_0
  5
1CDC9
 10
374.591
 20
627.048
 30
0.000000
  70
    32
  0
VERTEX
  8
AM_0
  5
1CDCA
 10
374.575
 20
627.045
 30
0.000000
  70
    32
  0
VERTEX
  8
AM_0
  5
1CDCB
 10
374.558
 20
627.042
 30
0.000000
  70
    32
  0
VERTEX
  8
AM_0
  5
1CDCC
 10
374.541
 20
627.040
 30
0.000000
  70
    32
  0
VERTEX
  8
AM_0
  5
1CDCD
 10
374.525
 20
627.037
 30
0.000000
  70
    32
  0
VERTEX
  8
AM_0
  5
1CDCE
 10
374.508
 20
627.034
 30
0.000000
  70
    32
  0
VERTEX
  8
AM_0
  5
1CDCF
 10
374.491
 20
627.032
 30
0.000000
  70
    32
  0
VERTEX
  8
AM_0
  5
1CDD0
 10
374.474
 20
627.029
 30
0.000000
  70
    32
  0
VERTEX
  8
AM_0
  5
1CDD1
 10
374.458
 20
627.027
 30
0.000000
  70
    32
  0
VERTEX
  8
AM_0
  5
1CDD2
 10
374.441
 20
627.025
 30
0.000000
  70
    32
  0
VERTEX
  8
AM_0
  5
1CDD3
 10
374.424
 20
627.023
 30
0.000000
  70
    32
  0
VERTEX
  8
AM_0
  5
1CDD4
 10
374.407
 20
627.021
 30
0.000000
  70
    32
  0
VERTEX
  8
AM_0
  5
1CDD5
 10
374.390
 20
627.019
 30
0.000000
  70
    32
  0
VERTEX
  8
AM_0
  5
1CDD6
 10
374.374
 20
627.017
 30
0.000000
  70
    32
  0
VERTEX
  8
AM_0
  5
1CDD7
 10
374.357
 20
627.015
 30
0.000000
  70
    32
  0
VERTEX
  8
AM_0
  5
1CDD8
 10
374.340
 20
627.013
 30
0.000000
  70
    32
  0
VERTEX
  8
AM_0
  5
1CDD9
 10
374.323
 20
627.012
 30
0.000000
  70
    32
  0
VERTEX
  8
AM_0
  5
1CDDA
 10
374.306
 20
627.010
 30
0.000000
  70
    32
  0
VERTEX
  8
AM_0
  5
1CDDB
 10
374.289
 20
627.009
 30
0.000000
  70
    32
  0
VERTEX
  8
AM_0
  5
1CDDC
 10
374.272
 20
627.008
 30
0.000000
  70
    32
  0
VERTEX
  8
AM_0
  5
1CDDD
 10
374.255
 20
627.006
 30
0.000000
  70
    32
  0
VERTEX
  8
AM_0
  5
1CDDE
 10
374.238
 20
627.005
 30
0.000000
  70
    32
  0
VERTEX
  8
AM_0
  5
1CDDF
 10
374.222
 20
627.004
 30
0.000000
  70
    32
  0
VERTEX
  8
AM_0
  5
1CDE0
 10
374.205
 20
627.003
 30
0.000000
  70
    32
  0
VERTEX
  8
AM_0
  5
1CDE1
 10
374.188
 20
627.002
 30
0.000000
  70
    32
  0
VERTEX
  8
AM_0
  5
1CDE2
 10
374.171
 20
627.002
 30
0.000000
  70
    32
  0
VERTEX
  8
AM_0
  5
1CDE3
 10
374.154
 20
627.001
 30
0.000000
  70
    32
  0
VERTEX
  8
AM_0
  5
1CDE4
 10
374.137
 20
627.001
 30
0.000000
  70
    32
  0
VERTEX
  8
AM_0
  5
1CDE5
 10
374.120
 20
627.000
 30
0.000000
  70
    32
  0
VERTEX
  8
AM_0
  5
1CDE6
 10
374.103
 20
627.000
 30
0.000000
  70
    32
  0
VERTEX
  8
AM_0
  5
1CDE7
 10
374.086
 20
627.000
 30
0.000000
  70
    32
  0
VERTEX
  8
AM_0
  5
1CDE8
 10
374.069
 20
626.999
 30
0.000000
  70
    32
  0
VERTEX
  8
AM_0
  5
1CDE9
 10
374.052
 20
626.999
 30
0.000000
  70
    32
  0
SEQEND
  8
AM_0
  5
1CDEA
  0
LINE
  5
1B18B
  8
AM_0
 10
378.02089370775741
 20
628.4994664965327
 30
0.0
 11
378.40718477868631
 21
628.49946696488064
 31
0.0
  0
LINE
  5
1B18E
  8
AM_0
 10
479.55129792133317
 20
636.50088938363615
 30
0.0
 11
479.55129792133317
 21
641.50088953414775
 31
0.0
  0
LINE
  5
1B190
  8
ﾁｭｳｼﾝｾﾝ1
 10
529.55229911344975
 20
861.83818156221446
 30
0.0
 11
529.55229911344975
 21
539.16360105815556
 31
0.0
  0
LINE
  5
1B191
  8
AM_0
 10
602.92894091061248
 20
641.50088953414775
 30
0.0
 11
604.55230137112426
 21
734.50089254438024
 31
0.0
  0
LINE
  5
1B193
  8
AM_0
 10
579.55330030556627
 20
636.50088938363615
 30
0.0
 11
579.55330030556627
 21
639.00088953414786
 31
0.0
  0
LINE
  5
1B194
  8
0
 10
601.55200092408029
 20
639.00088953414786
 30
0.0
 11
577.55200092408018
 21
639.00088953414786
 31
0.0
  0
LINE
  5
1B195
  8
0
 10
598.55200092408018
 20
627.00088953414775
 30
0.0
 11
580.55200092408006
 21
627.00088953414775
 31
0.0
  0
LINE
  5
1B196
  8
0
 10
598.55200092408018
 20
639.00088953414786
 30
0.0
 11
598.55200092408018
 21
627.00088953414775
 31
0.0
  0
LINE
  5
1B197
  8
0
 10
601.55200092408029
 20
641.50088953414775
 30
0.0
 11
601.55200092408029
 21
639.00088953414786
 31
0.0
  0
LINE
  5
1B198
  8
0
 10
580.55200092408006
 20
627.00088953414775
 30
0.0
 11
580.55200092408006
 21
639.00088953414786
 31
0.0
  0
LINE
  5
1B199
  8
0
 10
577.55200092408018
 20
639.00088953414786
 30
0.0
 11
577.55200092408018
 21
641.50088953414775
 31
0.0
  0
LINE
  5
1B19A
  8
0
 10
426.55232616926139
 20
639.00088953414786
 30
0.0
 11
402.55232616926162
 21
639.00088953414786
 31
0.0
  0
LINE
  5
1B19B
  8
0
 10
423.55232616926162
 20
627.00088953414775
 30
0.0
 11
405.55232616926162
 21
627.00088953414775
 31
0.0
  0
LINE
  5
1B19C
  8
0
 10
423.55232616926162
 20
639.00088953414786
 30
0.0
 11
423.55232616926162
 21
627.00088953414775
 31
0.0
  0
LINE
  5
1B19D
  8
0
 10
426.55232616926139
 20
641.50088953414775
 30
0.0
 11
426.55232616926139
 21
639.00088953414786
 31
0.0
  0
LINE
  5
1B19E
  8
0
 10
405.55232616926162
 20
627.00088953414775
 30
0.0
 11
405.55232616926162
 21
639.00088953414786
 31
0.0
  0
LINE
  5
1B19F
  8
0
 10
402.55232616926162
 20
639.00088953414786
 30
0.0
 11
402.55232616926162
 21
641.50088953414775
 31
0.0
  0
LINE
  5
1B1A0
  8
AM_0
 10
944.84230008929296
 20
413.29434087633268
 30
0.0
 11
969.84230008929364
 21
413.29434087633268
 31
0.0
  0
LINE
  5
1B1A1
  8
AM_0
 10
944.84230008929296
 20
252.1074578376751
 30
0.0
 11
969.84230008929364
 21
252.1074578376751
 31
0.0
  0
LINE
  5
1B1A2
  8
AM_0
 10
397.5523257177266
 20
800.50089254437989
 30
0.0
 11
606.55230137112414
 21
800.50089254438012
 31
0.0
  0
LINE
  5
1B1A3
  8
AM_0
 10
398.30853265197561
 20
775.50089254437989
 30
0.0
 11
605.79335676847882
 21
775.50089254438024
 31
0.0
  0
LINE
  5
1B1A4
  8
AM_0
 10
604.54868762014053
 20
734.50089254438024
 30
0.0
 11
606.55230137112414
 21
800.50089254438012
 31
0.0
  0
LINE
  5
1B1A5
  8
AM_0
 10
399.54871202414392
 20
734.50089254438024
 30
0.0
 11
397.5523257177266
 21
800.50089254437989
 31
0.0
  0
LINE
  5
1B1A6
  8
AM_0
 10
583.91067953059951
 20
800.50089254438012
 30
0.0
 11
583.91067953059951
 21
775.50089254438024
 31
0.0
  0
LINE
  5
1B1A7
  8
ﾁｭｳｼﾝｾﾝ1
 10
574.55232797540168
 20
805.50089254438035
 30
0.0
 11
574.55232797540168
 21
770.50089254438024
 31
0.0
  0
LINE
  5
1B1A8
  8
AM_0
 10
420.19394755825152
 20
800.50089254438046
 30
0.0
 11
420.19394755825152
 21
775.50089254438024
 31
0.0
  0
LINE
  5
1B1A9
  8
ﾁｭｳｼﾝｾﾝ1
 10
429.55229911344901
 20
805.50089254438035
 30
0.0
 11
429.55229911344901
 21
770.50089254438024
 31
0.0
  0
LINE
  5
1B1AC
  8
0
 10
513.55229911344975
 20
545.50089131018456
 30
0.0
 11
513.55229911344975
 21
603.50089131018467
 31
0.0
  0
LINE
  5
1B1AD
  8
0
 10
545.55229911344986
 20
545.50089131018456
 30
0.0
 11
545.55229911344986
 21
603.50089131018467
 31
0.0
  0
LINE
  5
1B1AE
  8
AM_0
 10
545.55229911344986
 20
545.50089131018456
 30
0.0
 11
513.55229911344975
 21
545.50089131018456
 31
0.0
  0
LINE
  5
1B1AF
  8
0
 10
549.55229911344986
 20
603.50089131018467
 30
0.0
 11
554.55229986600716
 21
631.50088923312524
 31
0.0
  0
LINE
  5
1B1B0
  8
AM_0
 10
504.55229836089097
 20
631.50088923312524
 30
0.0
 11
554.55229986600716
 21
631.50088923312524
 31
0.0
  0
LINE
  5
1B1B1
  8
AM_0
 10
554.55229986600716
 20
636.50088938363683
 30
0.0
 11
554.55229986600716
 21
631.50088923312524
 31
0.0
  0
LINE
  5
1B1B2
  8
0
 10
509.55229911344969
 20
603.50089131018467
 30
0.0
 11
504.55229836089097
 21
631.50088923312524
 31
0.0
  0
LINE
  5
1B1B3
  8
0
 10
509.55229911344969
 20
603.50089131018467
 30
0.0
 11
549.55229911344986
 21
603.50089131018467
 31
0.0
  0
LINE
  5
1B1B5
  8
AM_0
 10
504.55229836089097
 20
636.50088938363683
 30
0.0
 11
504.55229836089097
 21
631.50088923312524
 31
0.0
  0
LINE
  5
1B22A
  8
AM_0
 10
534.55229911344975
 20
545.50089131018456
 30
0.0
 11
534.55229911344975
 21
590.50089131018501
 31
0.0
  0
LINE
  5
1B230
  8
AM_0
 10
524.55229911344986
 20
545.50089131018456
 30
0.0
 11
524.55229911344986
 21
590.50089131018501
 31
0.0
  0
LINE
  5
1B231
  8
AM_0
 10
524.55229911344986
 20
590.50089131018501
 30
0.0
 11
534.55229911344975
 21
590.50089131018501
 31
0.0
  0
ARC
  5
1B232
  8
AM_0
 10
529.55229911344975
 20
590.50089131018501
 30
0.0
 40
5.0
 50
0.0
 51
180.0
  0
LINE
  5
1B71B
  8
ｶｸﾚｾﾝ2
 10
933.84230200526281
 20
370.70090056409742
 30
0.0
 11
933.84230200526281
 21
294.70089814991161
 31
0.0
  0
LINE
  5
1B71C
  8
ｶｸﾚｾﾝ2
 10
966.84230009023679
 20
352.70089935700418
 30
0.0
 11
966.84230009023679
 21
312.70089935700457
 31
0.0
  0
LINE
  5
1B71D
  8
AM_0
 10
1024.8423000902369
 20
316.70089935700418
 30
0.0
 11
1024.8423000902369
 21
351.70089935700418
 31
0.0
  0
LINE
  5
1B71E
  8
ｶｸﾚｾﾝ2
 10
938.84230216729725
 20
357.70090010956278
 30
0.0
 11
938.84230216729725
 21
307.70089860444688
 31
0.0
  0
LINE
  5
1B71F
  8
0
 10
1024.8423000902369
 20
316.70089935700418
 30
0.0
 11
969.84230009023668
 21
316.70089935700418
 31
0.0
  0
LINE
  5
1B720
  8
ｶｸﾚｾﾝ2
 10
933.84230201678554
 20
307.70089860444688
 30
0.0
 11
938.84230216729725
 21
307.70089860444688
 31
0.0
  0
LINE
  5
1B721
  8
ｶｸﾚｾﾝ2
 10
966.84230009023679
 20
312.70089935700457
 30
0.0
 11
938.84230216729725
 21
307.70089860444688
 31
0.0
  0
LINE
  5
1B722
  8
0
 10
1024.8423000902369
 20
348.70089935700469
 30
0.0
 11
969.84230009023668
 21
348.70089935700469
 31
0.0
  0
LINE
  5
1B723
  8
ｶｸﾚｾﾝ2
 10
933.84230201678554
 20
357.70090010956278
 30
0.0
 11
938.84230216729725
 21
357.70090010956278
 31
0.0
  0
LINE
  5
1B724
  8
ｶｸﾚｾﾝ2
 10
966.84230009023679
 20
352.70089935700457
 30
0.0
 11
938.84230216729725
 21
357.70090010956278
 31
0.0
  0
LINE
  5
1B725
  8
0
 10
1024.8423000902369
 20
351.70089935700418
 30
0.0
 11
979.84230009023668
 21
351.70089935700418
 31
0.0
  0
LINE
  5
1B726
  8
0
 10
979.84230009023668
 20
351.70089935700418
 30
0.0
 11
979.84230009023668
 21
348.70089935700469
 31
0.0
  0
LINE
  5
1B727
  8
ｶｸﾚｾﾝ2
 10
969.84230007871395
 20
348.70089935700469
 30
0.0
 11
966.84230009023679
 21
348.70089935700469
 31
0.0
  0
LINE
  5
1B728
  8
ｶｸﾚｾﾝ2
 10
969.84230009023668
 20
316.70089935700418
 30
0.0
 11
966.84230009023679
 21
316.70089935700418
 31
0.0
  0
LINE
  5
1B72B
  8
0
 10
513.55229911344975
 20
855.50088949612609
 30
0.0
 11
513.55229911344975
 21
800.50089254438012
 31
0.0
  0
LINE
  5
1B72C
  8
0
 10
545.55229911344986
 20
855.50088949612609
 30
0.0
 11
545.55229911344986
 21
800.50089254438046
 31
0.0
  0
LINE
  5
1B72D
  8
AM_0
 10
545.55229911344986
 20
855.50088949612609
 30
0.0
 11
513.55229911344975
 21
855.50088949612609
 31
0.0
  0
LINE
  5
1B72E
  8
AM_0
 10
524.55229911344986
 20
855.50088949612609
 30
0.0
 11
524.55229911344986
 21
810.50088949612598
 31
0.0
  0
LINE
  5
1B72F
  8
AM_0
 10
534.55229911344975
 20
855.50088949612609
 30
0.0
 11
534.55229911344975
 21
810.50088949612598
 31
0.0
  0
LINE
  5
1B730
  8
AM_0
 10
524.55229911344986
 20
810.50088949612598
 30
0.0
 11
534.55229911344975
 21
810.50088949612598
 31
0.0
  0
ARC
  5
1B731
  8
AM_0
 10
529.55229911344975
 20
810.50088949612598
 30
0.0
 40
5.0
 50
180.0
 51
0.0
  0
LINE
  5
1B732
  8
ｶｸﾚｾﾝ2
 10
491.5522979063569
 20
764.5008944709291
 30
0.0
 11
567.5523003205426
 21
764.5008944709291
 31
0.0
  0
LINE
  5
1B733
  8
ｶｸﾚｾﾝ2
 10
509.55229911344998
 20
797.50089255590308
 30
0.0
 11
549.55229911344964
 21
797.50089255590308
 31
0.0
  0
LINE
  5
1B734
  8
ｶｸﾚｾﾝ2
 10
504.55229836089131
 20
769.50089463296354
 30
0.0
 11
554.55229986600716
 21
769.50089463296354
 31
0.0
  0
LINE
  5
1B735
  8
ｶｸﾚｾﾝ2
 10
554.55229986600716
 20
764.50089448245194
 30
0.0
 11
554.55229986600716
 21
769.50089463296354
 31
0.0
  0
LINE
  5
1B736
  8
ｶｸﾚｾﾝ2
 10
549.55229911344964
 20
797.50089255590308
 30
0.0
 11
554.55229986600716
 21
769.50089463296354
 31
0.0
  0
LINE
  5
1B737
  8
ｶｸﾚｾﾝ2
 10
504.55229836089131
 20
764.50089448245194
 30
0.0
 11
504.55229836089131
 21
769.50089463296354
 31
0.0
  0
LINE
  5
1B738
  8
ｶｸﾚｾﾝ2
 10
509.55229911344958
 20
797.50089255590308
 30
0.0
 11
504.55229836089131
 21
769.50089463296354
 31
0.0
  0
LINE
  5
1B739
  8
ｶｸﾚｾﾝ2
 10
513.55229911344964
 20
800.50089254438012
 30
0.0
 11
513.55229911344964
 21
797.50089255590308
 31
0.0
  0
LINE
  5
1B73A
  8
ｶｸﾚｾﾝ2
 10
545.55229911344998
 20
800.50089255590331
 30
0.0
 11
545.55229911344998
 21
797.50089255590308
 31
0.0
  0
ARC
  5
1C0FD
  8
ｶｸﾚｾﾝ2
 10
266.73687678645092
 20
665.68448590315552
 30
0.0
 40
5.600000999999998
 50
180.0000570000002
 51
266.16303699999742
  0
ARC
  5
1C0FE
  8
ｶｸﾚｾﾝ2
 10
306.55227178645077
 20
1259.3508609031551
 30
0.0
 40
600.59997599999986
 50
266.16305400000141
 51
273.96601299999787
  0
ARC
  5
1C0FF
  8
ｶｸﾚｾﾝ2
 10
347.84637778645077
 20
663.78068490315525
 30
0.0
 40
3.6000059999999978
 50
273.96599899999779
 51
0.0000179999992061
  0
LINE
  5
1C100
  8
ｶｸﾚｾﾝ2
 10
351.44636778645082
 20
663.77020390315545
 30
0.0
 11
351.44636778645082
 21
737.22874690315541
 31
0.0
  0
ARC
  5
1C101
  8
ｶｸﾚｾﾝ2
 10
347.84637778645077
 20
737.22088590315525
 30
0.0
 40
3.5999989999999982
 50
0.0000179999992061
 51
86.033744000000965
  0
ARC
  5
1C102
  8
ｶｸﾚｾﾝ2
 10
306.55227178645077
 20
141.6509089031556
 30
0.0
 40
600.59997599999986
 50
86.033760000003795
 51
93.836910000000515
  0
LINE
  5
1C103
  8
ｶｸﾚｾﾝ2
 10
261.13687378645068
 20
735.3172849031555
 30
0.0
 11
261.13687378645068
 21
665.68448090315553
 31
0.0
  0
ARC
  5
1C104
  8
ｶｸﾚｾﾝ2
 10
266.73687678645092
 20
735.31728390315584
 30
0.0
 40
5.5999980000000003
 50
93.837062000007037
 51
179.99998200000081
  0
ARC
  5
1C10D
  8
0
  6
CONTINUOUS
 62
     0
 10
354.05232570677742
 20
270.66209135700461
 30
0.0
 40
1.0
 50
180.0
 51
270.0
  0
ARC
  5
1C10E
  8
AM_0
 10
354.05232570677742
 20
394.73970735700459
 30
0.0
 40
1.0
 50
90.0
 51
180.0
  0
ARC
  5
1C10F
  8
AM_0
 10
350.22865278645082
 20
775.39704990315545
 30
0.0
 40
2.0
 50
14.999997000000141
 51
90.0
  0
ARC
  5
1C110
  8
AM_0
 10
352.04389678645072
 20
767.00088490315545
 30
0.0
 40
2.0
 50
14.99999999999917
 51
90.0
  0
LINE
  5
1C111
  8
AM_0
 10
353.05227178645077
 20
773.00088490315545
 30
0.0
 11
353.05227178645077
 21
772.58656790315558
 31
0.0
  0
ARC
  5
1C112
  8
AM_0
 10
354.04977478645083
 20
773.00338190315551
 30
0.0
 40
0.9975059999999999
 50
89.856577999996375
 51
180.1434220000003
  0
LINE
  5
1C113
  8
AM_0
 10
353.05227178645077
 20
773.00587890315569
 30
0.0
 11
353.05227178645077
 21
773.00088490315545
 31
0.0
  0
LINE
  5
1C114
  8
AM_0
 10
352.96471578645082
 20
772.91332890315562
 30
0.0
 11
353.05227178645077
 21
773.00088490315545
 31
0.0
  0
LINE
  5
1C115
  8
AM_0
 10
355.05227178645077
 20
763.50088490315568
 30
0.0
 11
353.97574878645082
 21
767.51852290315583
 31
0.0
  0
LINE
  5
1C116
  8
AM_0
 10
354.05227178645077
 20
774.00088490315545
 30
0.0
 11
363.05227178645077
 21
774.00088490315545
 31
0.0
  0
LINE
  5
1C117
  8
AM_0
 10
355.05227178645077
 20
765.12246590315544
 30
0.0
 11
352.1605047864507
 21
775.91468790315582
 31
0.0
  0
ARC
  5
1C118
  8
AM_0
 10
354.05227178645077
 20
762.50088490315545
 30
0.0
 40
1.0
 50
90.0
 51
180.0
  0
ARC
  5
1C119
  8
AM_0
 10
284.05227178645077
 20
778.36308290315549
 30
0.0
 40
2.0
 50
0.0
 51
90.0
  0
ARC
  5
1C11A
  8
AM_0
 10
284.05227178645077
 20
777.93580490315549
 30
0.0
 40
2.0
 50
0.0
 51
90.0
  0
ARC
  5
1C11B
  8
AM_0
 10
284.05227178645077
 20
776.93045390315581
 30
0.0
 40
2.0
 50
13.49131099999923
 51
90.0
  0
LINE
  5
1C11C
  8
AM_0
 10
286.05227178645077
 20
778.36308290315549
 30
0.0
 11
286.05227178645077
 21
777.39704990315545
 31
0.0
  0
ARC
  5
1C11D
  8
AM_0
 10
203.0522717864508
 20
778.36308290315549
 30
0.0
 40
2.0
 50
90.0
 51
180.0
  0
LINE
  5
1C11E
  8
AM_0
 10
201.0522717864508
 20
776.38524090315548
 30
0.0
 11
201.0522717864508
 21
776.93045390315581
 31
0.0
  0
ARC
  5
1C11F
  8
AM_0
 10
202.90172178645071
 20
777.93580490315549
 30
0.0
 40
2.0
 50
90.0
 51
164.23045299999831
  0
ARC
  5
1C120
  8
AM_0
 10
199.05227178645069
 20
779.02287990315563
 30
0.0
 40
2.0
 50
270.0
 51
344.23045299999831
  0
ARC
  5
1C121
  8
AM_0
 10
203.0522717864508
 20
776.93045390315581
 30
0.0
 40
2.0
 50
90.0
 51
180.0
  0
ARC
  5
1C122
  8
AM_0
 10
199.05227178645069
 20
776.38524090315548
 30
0.0
 40
2.0
 50
270.0
 51
0.0
  0
ARC
  5
1C123
  8
AM_0
 10
203.0522717864508
 20
775.39704990315545
 30
0.0
 40
2.0
 50
90.0
 51
180.0
  0
ARC
  5
1C124
  8
AM_0
 10
199.05227178645069
 20
772.02925190315557
 30
0.0
 40
2.0
 50
270.0
 51
0.0
  0
LINE
  5
1C125
  8
AM_0
 10
201.0522717864508
 20
772.02925190315557
 30
0.0
 11
201.0522717864508
 21
775.39704990315545
 31
0.0
  0
ARC
  5
1C126
  8
AM_0
 10
199.05227178645069
 20
753.40193490315562
 30
0.0
 40
2.0
 50
270.0
 51
0.0
  0
LINE
  5
1C127
  8
AM_0
 10
201.0522717864508
 20
765.85680390315565
 30
0.0
 11
201.0522717864508
 21
753.40193490315562
 31
0.0
  0
ARC
  5
1C128
  8
AM_0
 10
203.0522717864508
 20
767.00088490315545
 30
0.0
 40
2.0
 50
90.0
 51
180.0
  0
ARC
  5
1C129
  8
AM_0
 10
199.05227178645069
 20
765.85680390315565
 30
0.0
 40
2.0
 50
270.0
 51
0.0
  0
LINE
  5
1C12A
  8
AM_0
 10
201.0522717864508
 20
765.85680390315565
 30
0.0
 11
201.0522717864508
 21
767.00088490315545
 31
0.0
  0
LINE
  5
1C12B
  8
AM_0
 10
199.05227178645069
 20
777.02287990315563
 30
0.0
 11
193.5462607864506
 21
777.02287990315563
 31
0.0
  0
LINE
  5
1C12C
  8
AM_0
 10
199.05227178645069
 20
774.38524090315525
 30
0.0
 11
193.5462607864506
 21
774.38524090315525
 31
0.0
  0
LINE
  5
1C12D
  8
AM_0
 10
199.05227178645069
 20
770.02925190315545
 30
0.0
 11
193.5462607864506
 21
770.02925190315545
 31
0.0
  0
LINE
  5
1C12E
  8
AM_0
 10
199.05227178645069
 20
763.85680390315565
 30
0.0
 11
193.5462607864506
 21
763.85680390315565
 31
0.0
  0
LINE
  5
1C12F
  8
AM_0
 10
203.0522717864508
 20
780.36308290315583
 30
0.0
 11
284.05227178645077
 21
780.36308290315583
 31
0.0
  0
LINE
  5
1C130
  8
AM_0
 10
202.90172178645071
 20
779.93580490315583
 30
0.0
 11
284.05227178645077
 21
779.93580490315583
 31
0.0
  0
LINE
  5
1C131
  8
AM_0
 10
203.0522717864508
 20
778.93045390315535
 30
0.0
 11
284.05227178645077
 21
778.93045390315535
 31
0.0
  0
LINE
  5
1C132
  8
AM_0
 10
203.0522717864508
 20
777.39704990315545
 30
0.0
 11
350.22865278645082
 21
777.39704990315545
 31
0.0
  0
LINE
  5
1C133
  8
AM_0
 10
203.0522717864508
 20
769.00088490315545
 30
0.0
 11
352.04389678645072
 21
769.00088490315545
 31
0.0
  0
LINE
  5
1C134
  8
AM_0
 10
193.5462607864506
 20
751.40193490315562
 30
0.0
 11
351.55227178645077
 21
751.40193490315562
 31
0.0
  0
ARC
  5
1C135
  8
AM_0
 10
352.04389678645072
 20
634.00088490315545
 30
0.0
 40
2.0
 50
270.0
 51
345.00000000000091
  0
ARC
  5
1C136
  8
AM_0
 10
354.04977478645083
 20
627.99838790315562
 30
0.0
 40
0.9975059999999999
 50
179.85657799999959
 51
270.14342199999061
  0
LINE
  5
1C137
  8
AM_0
 10
352.96471578645082
 20
628.08844090315552
 30
0.0
 11
353.05227178645077
 21
628.00088490315545
 31
0.0
  0
LINE
  5
1C138
  8
AM_0
 10
353.05227178645077
 20
627.99589090315555
 30
0.0
 11
353.05227178645077
 21
628.00088490315545
 31
0.0
  0
LINE
  5
1C139
  8
AM_0
 10
353.05227178645077
 20
628.00088490315545
 30
0.0
 11
353.05227178645077
 21
628.41520190315555
 31
0.0
  0
ARC
  5
1C13A
  8
AM_0
 10
350.22865278645082
 20
625.60471990315557
 30
0.0
 40
2.0
 50
270.0
 51
345.00000299999982
  0
LINE
  5
1C13B
  8
AM_0
 10
354.05227178645077
 20
627.00088490315545
 30
0.0
 11
363.05227178645077
 21
627.00088490315545
 31
0.0
  0
LINE
  5
1C13C
  8
AM_0
 10
355.05227178645077
 20
637.50088490315545
 30
0.0
 11
353.97574878645082
 21
633.48324690315553
 31
0.0
  0
LINE
  5
1C13D
  8
AM_0
 10
355.05227178645077
 20
635.87930390315557
 30
0.0
 11
352.1605047864507
 21
625.08708190315554
 31
0.0
  0
ARC
  5
1C13E
  8
AM_0
 10
354.05227178645077
 20
638.50088490315557
 30
0.0
 40
1.0
 50
180.0
 51
270.0
  0
LINE
  5
1C13F
  8
AM_0
 10
203.0522717864508
 20
622.07131590315555
 30
0.0
 11
284.05227178645077
 21
622.07131590315555
 31
0.0
  0
LINE
  5
1C140
  8
AM_0
 10
202.90172178645071
 20
621.06596490315553
 30
0.0
 11
284.05227178645077
 21
621.06596490315553
 31
0.0
  0
LINE
  5
1C141
  8
AM_0
 10
203.0522717864508
 20
620.63868690315553
 30
0.0
 11
284.05227178645077
 21
620.63868690315553
 31
0.0
  0
LINE
  5
1C142
  8
AM_0
 10
201.0522717864508
 20
635.14496590315548
 30
0.0
 11
201.0522717864508
 21
634.00088490315545
 31
0.0
  0
ARC
  5
1C143
  8
AM_0
 10
199.05227178645069
 20
635.14496590315548
 30
0.0
 40
2.0
 50
0.0
 51
90.0
  0
ARC
  5
1C144
  8
AM_0
 10
203.0522717864508
 20
634.00088490315545
 30
0.0
 40
2.0
 50
180.0
 51
270.0
  0
LINE
  5
1C145
  8
AM_0
 10
201.0522717864508
 20
635.14496590315548
 30
0.0
 11
201.0522717864508
 21
647.59983490315551
 31
0.0
  0
ARC
  5
1C146
  8
AM_0
 10
199.05227178645069
 20
647.59983490315551
 30
0.0
 40
2.0
 50
0.0
 51
90.0
  0
ARC
  5
1C147
  8
AM_0
 10
199.05227178645069
 20
621.9788899031555
 30
0.0
 40
2.0
 50
15.769547000001671
 51
90.0
  0
ARC
  5
1C148
  8
AM_0
 10
199.05227178645069
 20
624.61652890315554
 30
0.0
 40
2.0
 50
0.0
 51
90.0
  0
ARC
  5
1C149
  8
AM_0
 10
199.05227178645069
 20
628.97251790315545
 30
0.0
 40
2.0
 50
0.0
 51
90.0
  0
LINE
  5
1C14A
  8
AM_0
 10
201.0522717864508
 20
628.97251790315545
 30
0.0
 11
201.0522717864508
 21
625.60471990315557
 31
0.0
  0
ARC
  5
1C14B
  8
AM_0
 10
203.0522717864508
 20
625.60471990315557
 30
0.0
 40
2.0
 50
180.0
 51
270.0
  0
ARC
  5
1C14C
  8
AM_0
 10
203.0522717864508
 20
624.07131590315555
 30
0.0
 40
2.0
 50
180.0
 51
270.0
  0
ARC
  5
1C14D
  8
AM_0
 10
202.90172178645071
 20
623.06596490315553
 30
0.0
 40
2.0
 50
195.76954700000161
 51
270.0
  0
LINE
  5
1C14E
  8
AM_0
 10
201.0522717864508
 20
624.61652890315554
 30
0.0
 11
201.0522717864508
 21
624.07131590315555
 31
0.0
  0
ARC
  5
1C14F
  8
AM_0
 10
203.0522717864508
 20
622.63868690315553
 30
0.0
 40
2.0
 50
180.0
 51
270.0
  0
LINE
  5
1C150
  8
AM_0
 10
286.05227178645077
 20
622.63868690315553
 30
0.0
 11
286.05227178645077
 21
623.60471990315546
 31
0.0
  0
ARC
  5
1C151
  8
AM_0
 10
284.05227178645077
 20
624.07131590315555
 30
0.0
 40
2.0
 50
270.0
 51
346.50868900000069
  0
ARC
  5
1C152
  8
AM_0
 10
284.05227178645077
 20
623.06596490315553
 30
0.0
 40
2.0
 50
270.0
 51
0.0
  0
ARC
  5
1C153
  8
AM_0
 10
284.05227178645077
 20
622.63868690315553
 30
0.0
 40
2.0
 50
270.0
 51
0.0
  0
LINE
  5
1C154
  8
AM_0
 10
199.05227178645069
 20
637.14496590315525
 30
0.0
 11
193.5462607864506
 21
637.14496590315525
 31
0.0
  0
LINE
  5
1C155
  8
AM_0
 10
203.0522717864508
 20
632.00088490315545
 30
0.0
 11
352.04389678645072
 21
632.00088490315545
 31
0.0
  0
LINE
  5
1C156
  8
AM_0
 10
193.5462607864506
 20
649.5998349031554
 30
0.0
 11
351.55227178645077
 21
649.5998349031554
 31
0.0
  0
LINE
  5
1C157
  8
AM_0
 10
203.0522717864508
 20
623.60471990315546
 30
0.0
 11
350.22865278645082
 21
623.60471990315546
 31
0.0
  0
LINE
  5
1C158
  8
AM_0
 10
199.05227178645069
 20
623.97888990315516
 30
0.0
 11
193.5462607864506
 21
623.97888990315516
 31
0.0
  0
LINE
  5
1C159
  8
AM_0
 10
199.05227178645069
 20
626.61652890315554
 30
0.0
 11
193.5462607864506
 21
626.61652890315554
 31
0.0
  0
LINE
  5
1C15A
  8
AM_0
 10
199.05227178645069
 20
630.97251790315556
 30
0.0
 11
193.5462607864506
 21
630.97251790315556
 31
0.0
  0
LINE
  5
1C1AC
  8
AM_0
 10
353.05227178645077
 20
656.67094290315561
 30
0.0
 11
353.05227178645077
 21
664.31094290315548
 31
0.0
  0
LINE
  5
1C1AD
  8
AM_0
 10
353.05227178645077
 20
744.33088490315583
 30
0.0
 11
353.05227178645077
 21
736.69088490315562
 31
0.0
  0
ARC
  5
1C1AE
  8
AM_0
 10
354.05163278645063
 20
653.4593539031556
 30
0.0
 40
1.0026319999999971
 50
0.0540850000000842
 51
81.243758999994313
  0
LINE
  5
1C1AF
  8
AM_0
 10
354.20426478645072
 20
654.45030090315561
 30
0.0
 11
352.44546578645082
 21
654.72088490315525
 31
0.0
  0
LINE
  5
1C1B0
  8
AM_0
 10
354.19426478645067
 20
656.54030090315553
 30
0.0
 11
352.59157678645079
 21
656.32088490315562
 31
0.0
  0
ARC
  5
1C1B1
  8
AM_0
 10
354.04729678645072
 20
657.53650490315545
 30
0.0
 40
1.0069859999999999
 50
278.39216299999532
 51
359.64700199999959
  0
LINE
  5
1C1B2
  8
AM_0
 10
355.05426478645091
 20
657.53030090315553
 30
0.0
 11
355.05426478645091
 21
653.4603009031556
 31
0.0
  0
ARC
  5
1C1B3
  8
AM_0
 10
352.51090878645073
 20
655.5069449031555
 30
0.0
 40
0.8033630000000001
 50
0.2393299999995325
 51
89.760670000008602
  0
ARC
  5
1C1B4
  8
AM_0
 10
352.50920278645071
 20
655.51536290315562
 30
0.0
 40
0.8050779999999997
 50
270.36025099999512
 51
359.63974899999999
  0
ARC
  5
1C1B5
  8
AM_0
 10
354.04729678645072
 20
743.46526490315546
 30
0.0
 40
1.0069859999999999
 50
0.3529980000003979
 51
81.60783700000465
  0
LINE
  5
1C1B6
  8
AM_0
 10
354.19426478645067
 20
744.46146890315538
 30
0.0
 11
352.59157678645079
 21
744.68088490315552
 31
0.0
  0
ARC
  5
1C1B7
  8
AM_0
 10
354.05163278645063
 20
747.54241590315553
 30
0.0
 40
1.0026319999999971
 50
278.75624099999283
 51
359.9459149999999
  0
LINE
  5
1C1B8
  8
AM_0
 10
355.05426478645091
 20
743.47146890315537
 30
0.0
 11
355.05426478645091
 21
747.54146890315553
 31
0.0
  0
LINE
  5
1C1B9
  8
AM_0
 10
354.20426478645072
 20
746.55146890315552
 30
0.0
 11
352.44546578645082
 21
746.28088490315554
 31
0.0
  0
ARC
  5
1C1BA
  8
AM_0
 10
352.51090878645073
 20
745.49482490315563
 30
0.0
 40
0.8033630000000001
 50
270.23932999999141
 51
359.7606700000004
  0
ARC
  5
1C1BB
  8
AM_0
 10
352.50920278645071
 20
745.48640690315551
 30
0.0
 40
0.8050779999999997
 50
0.3602509999999621
 51
89.639749000004883
  0
LINE
  5
1C1CA
  8
AM_0
 10
353.05227178645077
 20
666.65094290315562
 30
0.0
 11
353.05227178645077
 21
674.40094290315562
 31
0.0
  0
ARC
  5
1C1CB
  8
AM_0
 10
354.04530378645092
 20
667.52708890315557
 30
0.0
 40
1.0069859999999999
 50
278.39216299999532
 51
359.64700199999959
  0
LINE
  5
1C1CC
  8
AM_0
 10
354.19227178645087
 20
666.53088490315554
 30
0.0
 11
352.51227278645058
 21
666.30088490315552
 31
0.0
  0
LINE
  5
1C1CD
  8
AM_0
 10
354.20227178645058
 20
664.44088490315562
 30
0.0
 11
352.51227278645058
 21
664.70088490315561
 31
0.0
  0
ARC
  5
1C1CE
  8
AM_0
 10
352.50720978645091
 20
665.50594690315563
 30
0.0
 40
0.8050779999999997
 50
270.36122599999391
 51
359.63974899999999
  0
ARC
  5
1C1CF
  8
AM_0
 10
352.50891578645093
 20
665.49752890315563
 30
0.0
 40
0.8033630000000001
 50
0.2393299999995325
 51
90.23918299999508
  0
ARC
  5
1C1D0
  8
AM_0
 10
354.04963978645083
 20
663.44993890315561
 30
0.0
 40
1.0026319999999971
 50
0.0540850000000842
 51
81.243758999994313
  0
LINE
  5
1C1D1
  8
AM_0
 10
355.05227178645077
 20
667.52088490315555
 30
0.0
 11
355.05227178645077
 21
663.45088490315561
 31
0.0
  0
LINE
  5
1C1D2
  8
AM_0
 10
353.05227178645077
 20
734.35088490315559
 30
0.0
 11
353.05227178645077
 21
726.60088490315582
 31
0.0
  0
LINE
  5
1C1D3
  8
AM_0
 10
354.19227178645087
 20
734.47088490315548
 30
0.0
 11
352.51227278645058
 21
734.7008849031555
 31
0.0
  0
ARC
  5
1C1D4
  8
AM_0
 10
354.04530378645092
 20
733.47468090315544
 30
0.0
 40
1.0069859999999999
 50
0.3529980000003979
 51
81.60783700000465
  0
ARC
  5
1C1D5
  8
AM_0
 10
354.04963978645083
 20
737.55183090315552
 30
0.0
 40
1.0026319999999971
 50
278.75624099999283
 51
359.9459149999999
  0
LINE
  5
1C1D6
  8
AM_0
 10
355.05227178645077
 20
733.48088490315547
 30
0.0
 11
355.05227178645077
 21
737.55088490315552
 31
0.0
  0
LINE
  5
1C1D7
  8
AM_0
 10
354.20227178645058
 20
736.56088490315551
 30
0.0
 11
352.51227278645058
 21
736.30088490315552
 31
0.0
  0
ARC
  5
1C1D8
  8
AM_0
 10
352.50720978645091
 20
735.4958229031555
 30
0.0
 40
0.8050779999999997
 50
0.3602509999999621
 51
89.638774000006123
  0
ARC
  5
1C1D9
  8
AM_0
 10
352.50891578645093
 20
735.50424090315551
 30
0.0
 40
0.8033630000000001
 50
269.76081699999179
 51
359.7606700000004
  0
LINE
  5
1C1DA
  8
AM_0
 10
353.05227178645077
 20
738.36482990315551
 30
0.0
 11
363.05227178645077
 21
738.36482990315551
 31
0.0
  0
LINE
  5
1C1DB
  8
AM_0
 10
353.05227178645077
 20
662.6469399031555
 30
0.0
 11
363.05227178645077
 21
662.6469399031555
 31
0.0
  0
LINE
  5
1C234
  8
AM_0
 10
829.575186090236
 20
246.32988835700451
 30
0.0
 11
829.20218509023596
 21
239.8328963570045
 31
0.0
  0
LINE
  5
1C235
  8
AM_0
 10
829.63822909023634
 20
211.8953913570044
 30
0.0
 11
829.18817409023654
 21
214.76789435700451
 31
0.0
  0
LINE
  5
1C236
  8
AM_0
 10
829.59619409023651
 20
242.27387535700441
 30
0.0
 11
829.1962020902364
 21
239.79788935700449
 31
0.0
  0
LINE
  5
1C237
  8
AM_0
 10
835.57517709023648
 20
247.7718833570045
 30
0.0
 11
904.11026909023633
 21
247.7718833570045
 31
0.0
  0
LINE
  5
1C238
  8
AM_0
 10
910.11026709023633
 20
246.3298893570045
 30
0.0
 11
910.48296609023657
 21
239.8328953570045
 31
0.0
  0
LINE
  5
1C239
  8
AM_0
 10
837.61683809023646
 20
205.6958863570045
 30
0.0
 11
902.06707109023625
 21
205.6958863570045
 31
0.0
  0
LINE
  5
1C23A
  8
AM_0
 10
837.61683809023646
 20
245.2868983570045
 30
0.0
 11
902.06707109023625
 21
245.2868983570045
 31
0.0
  0
LINE
  5
1C23B
  8
AM_0
 10
910.05149709023635
 20
211.92510935700449
 30
0.0
 11
910.49717309023629
 21
214.76790035700449
 31
0.0
  0
LINE
  5
1C23C
  8
AM_0
 10
910.0892670902366
 20
242.27389035700449
 30
0.0
 11
910.48916609023661
 21
239.79788935700449
 31
0.0
  0
LINE
  5
1C23D
  8
AM_0
 10
902.0681340902363
 20
219.57589135700451
 30
0.0
 11
837.6164600902365
 21
219.57589135700451
 31
0.0
  0
LINE
  5
1C23E
  8
AM_0
 10
835.57517709023648
 20
252.32989735700451
 30
0.0
 11
904.11026909023633
 21
252.32989735700451
 31
0.0
  0
LINE
  5
1C23F
  8
AM_0
 10
837.61683009023636
 20
219.5759013570044
 30
0.0
 11
837.20783709023635
 21
219.5649003570044
 31
0.0
  0
LINE
  5
1C240
  8
AM_0
 10
837.2078340902367
 20
219.56491335700451
 30
0.0
 11
836.80083609023609
 21
219.52990935700441
 31
0.0
  0
LINE
  5
1C241
  8
AM_0
 10
836.80083909023665
 20
219.52993835700451
 30
0.0
 11
836.40084009023656
 21
219.47393935700441
 31
0.0
  0
LINE
  5
1C242
  8
AM_0
 10
836.40083909023633
 20
219.47391935700449
 30
0.0
 11
836.00984309023647
 21
219.39492535700441
 31
0.0
  0
LINE
  5
1C243
  8
AM_0
 10
836.00983809023637
 20
219.39490335700449
 30
0.0
 11
835.63082709023649
 21
219.2948963570044
 31
0.0
  0
LINE
  5
1C244
  8
AM_0
 10
835.63084509023622
 20
219.2948693570045
 30
0.0
 11
835.26684709023687
 21
219.1738673570045
 31
0.0
  0
LINE
  5
1C245
  8
AM_0
 10
835.26683709023621
 20
219.17387435700451
 30
0.0
 11
834.92183809023663
 21
219.03288435700449
 31
0.0
  0
LINE
  5
1C246
  8
AM_0
 10
834.92184309023639
 20
219.03288435700449
 30
0.0
 11
834.59584609023625
 21
218.87388735700449
 31
0.0
  0
LINE
  5
1C247
  8
AM_0
 10
834.59584709023602
 20
218.87388435700441
 30
0.0
 11
834.29384309023624
 21
218.6968813570044
 31
0.0
  0
LINE
  5
1C248
  8
AM_0
 10
834.29383109023649
 20
218.69692035700439
 30
0.0
 11
834.01683009023657
 21
218.50391135700451
 31
0.0
  0
LINE
  5
1C249
  8
AM_0
 10
834.01682409023658
 20
218.5038993570044
 30
0.0
 11
833.76682209023625
 21
218.2968973570045
 31
0.0
  0
LINE
  5
1C24A
  8
AM_0
 10
833.76684409023665
 20
218.29688735700441
 30
0.0
 11
833.54684209023651
 21
218.0758933570045
 31
0.0
  0
LINE
  5
1C24B
  8
AM_0
 10
833.54683609023641
 20
218.07590735700441
 30
0.0
 11
833.35784109023655
 21
217.84391435700451
 31
0.0
  0
LINE
  5
1C24C
  8
AM_0
 10
833.35784609023665
 20
217.84389235700451
 30
0.0
 11
833.20084009023651
 21
217.60188635700439
 31
0.0
  0
LINE
  5
1C24D
  8
AM_0
 10
833.20083709023663
 20
217.60189635700451
 30
0.0
 11
833.07783409023637
 21
217.35189135700449
 31
0.0
  0
LINE
  5
1C24E
  8
AM_0
 10
833.07786009023641
 20
217.35188635700439
 30
0.0
 11
832.98886109023647
 21
217.09687535700439
 31
0.0
  0
LINE
  5
1C24F
  8
AM_0
 10
832.98884709023639
 20
217.09688435700451
 30
0.0
 11
832.93484509023654
 21
216.83688435700449
 31
0.0
  0
LINE
  5
1C250
  8
AM_0
 10
832.93484009023655
 20
216.83689835700449
 30
0.0
 11
832.9168420902364
 21
216.57589135700451
 31
0.0
  0
LINE
  5
1C251
  8
AM_0
 10
906.76717309023627
 20
216.5758933570045
 30
0.0
 11
906.74927109023645
 21
216.8368923570045
 31
0.0
  0
LINE
  5
1C252
  8
AM_0
 10
906.74927309023644
 20
216.8368833570045
 30
0.0
 11
906.69567309023626
 21
217.09687235700449
 31
0.0
  0
LINE
  5
1C253
  8
AM_0
 10
906.69567109023626
 20
217.0968793570045
 30
0.0
 11
906.60697209023635
 21
217.35188235700451
 31
0.0
  0
LINE
  5
1C254
  8
AM_0
 10
906.60696709023625
 20
217.35188035700449
 30
0.0
 11
906.48367009023627
 21
217.6018763570045
 31
0.0
  0
LINE
  5
1C255
  8
AM_0
 10
906.48368409023669
 20
217.60190035700441
 30
0.0
 11
906.3267790902363
 21
217.84390935700449
 31
0.0
  0
LINE
  5
1C256
  8
AM_0
 10
906.32676109023657
 20
217.84387535700441
 30
0.0
 11
906.13745309023682
 21
218.07587935700451
 31
0.0
  0
LINE
  5
1C257
  8
AM_0
 10
906.1374770902363
 20
218.0758893570044
 30
0.0
 11
905.91707309023639
 21
218.29688835700449
 31
0.0
  0
LINE
  5
1C258
  8
AM_0
 10
905.91707509023661
 20
218.29689935700449
 30
0.0
 11
905.66747809023639
 21
218.50389835700449
 31
0.0
  0
LINE
  5
1C259
  8
AM_0
 10
905.66749609023657
 20
218.5039033570045
 30
0.0
 11
905.39049209023631
 21
218.69691435700449
 31
0.0
  0
LINE
  5
1C25A
  8
AM_0
 10
905.39049009023631
 20
218.6969093570045
 30
0.0
 11
905.08818609023626
 21
218.87391335700451
 31
0.0
  0
LINE
  5
1C25B
  8
AM_0
 10
905.0881770902364
 20
218.87389035700451
 30
0.0
 11
904.76287809023665
 21
219.0328853570044
 31
0.0
  0
LINE
  5
1C25C
  8
AM_0
 10
904.76287809023665
 20
219.03289835700451
 30
0.0
 11
904.41707309023627
 21
219.17389235700449
 31
0.0
  0
LINE
  5
1C25D
  8
AM_0
 10
904.41707309023627
 20
219.1738883570045
 30
0.0
 11
904.05337309023662
 21
219.2948903570045
 31
0.0
  0
LINE
  5
1C25E
  8
AM_0
 10
904.0533820902366
 20
219.2949083570044
 30
0.0
 11
903.67457609023666
 21
219.39491535700449
 31
0.0
  0
LINE
  5
1C25F
  8
AM_0
 10
903.67457609023666
 20
219.39491135700439
 30
0.0
 11
903.28357309023625
 21
219.47390735700441
 31
0.0
  0
LINE
  5
1C260
  8
AM_0
 10
903.28357009023637
 20
219.47386535700451
 30
0.0
 11
902.88327009023658
 21
219.5298653570045
 31
0.0
  0
LINE
  5
1C261
  8
AM_0
 10
902.88327509023634
 20
219.52986735700449
 30
0.0
 11
902.4767740902364
 21
219.56487135700451
 31
0.0
  0
LINE
  5
1C262
  8
AM_0
 10
902.4767740902364
 20
219.56491835700439
 30
0.0
 11
902.06707109023625
 21
219.57592035700449
 31
0.0
  0
ARC
  5
1C263
  8
AM_0
 10
835.57517709023648
 20
246.32989735700451
 30
0.0
 40
6.0
 50
90.0
 51
179.99998199999911
  0
ARC
  5
1C264
  8
AM_0
 10
837.61683809023646
 20
209.6958863570045
 30
0.0
 40
4.0
 50
179.99998199999911
 51
269.99996400000163
  0
ARC
  5
1C265
  8
AM_0
 10
837.61683809023646
 20
241.2868983570045
 30
0.0
 40
4.0
 50
90.0
 51
179.99998199999911
  0
ARC
  5
1C266
  8
AM_0
 10
954.81327209023664
 20
225.4918923570045
 30
0.0
 40
122.221001
 50
172.57449400000041
 51
187.42550399999971
  0
ARC
  5
1C267
  8
AM_0
 10
899.8689820902365
 20
227.25989735700441
 30
0.0
 40
71.776710999999963
 50
169.93968699999891
 51
190.02400200000139
  0
ARC
  5
1C268
  8
AM_0
 10
835.57517709023648
 20
241.7718833570045
 30
0.0
 40
6.0
 50
90.0
 51
175.2037279999989
  0
ARC
  5
1C269
  8
AM_0
 10
835.57517709023648
 20
212.7628883570045
 30
0.0
 40
5.9999919999999971
 50
188.31313399999999
 51
263.06156699999713
  0
ARC
  5
1C26A
  8
AM_0
 10
904.11026909023633
 20
246.32989735700451
 30
0.0
 40
6.0
 50
0.0000180000008345
 51
89.999964000001583
  0
ARC
  5
1C26B
  8
AM_0
 10
902.06707109023625
 20
209.6958863570045
 30
0.0
 40
4.0
 50
269.99998099999289
 51
0.0000180000008345
  0
ARC
  5
1C26C
  8
AM_0
 10
902.06707109023625
 20
241.2868983570045
 30
0.0
 40
4.0
 50
0.0000180000008345
 51
89.999944999994469
  0
ARC
  5
1C26D
  8
AM_0
 10
784.87127009023641
 20
225.4918923570045
 30
0.0
 40
122.221001
 50
352.57495999999969
 51
7.4259640000013363
  0
ARC
  5
1C26E
  8
AM_0
 10
839.81556809023641
 20
227.25989735700441
 30
0.0
 40
71.776702999999983
 50
349.97597100000041
 51
10.059970999999891
  0
ARC
  5
1C26F
  8
AM_0
 10
904.11026909023633
 20
241.7718833570045
 30
0.0
 40
6.0
 50
4.7959859999997061
 51
89.999964000001583
  0
ARC
  5
1C270
  8
AM_0
 10
904.11026909023633
 20
212.7628883570045
 30
0.0
 40
6.0000049999999998
 50
276.9213300000024
 51
351.97358200000008
  0
LINE
  5
1C27B
  8
AM_0
 10
272.65232770677721
 20
250.7008993570046
 30
0.0
 11
342.39542770677741
 21
250.7008993570046
 31
0.0
  0
LINE
  5
1C27C
  8
AM_0
 10
351.45044570677732
 20
248.7959203570046
 30
0.0
 11
349.80245070677739
 21
252.32988435700469
 31
0.0
  0
LINE
  5
1C27D
  8
AM_0
 10
349.80245070677739
 20
252.32988435700469
 30
0.0
 11
260.98433170677731
 21
210.9138753570046
 31
0.0
  0
LINE
  5
1C27E
  8
AM_0
 10
262.6325247067773
 20
207.37890435700459
 30
0.0
 11
260.98433170677731
 21
210.9138753570046
 31
0.0
  0
LINE
  5
1C27F
  8
AM_0
 10
270.18552970677729
 20
207.74490835700459
 30
0.0
 11
269.86412770677731
 21
208.4339003570046
 31
0.0
  0
LINE
  5
1C280
  8
AM_0
 10
346.47742770677718
 20
223.61490135700461
 30
0.0
 11
346.47742770677718
 21
243.98890935700459
 31
0.0
  0
LINE
  5
1C281
  8
AM_0
 10
264.0999197067772
 20
206.8499013570046
 30
0.0
 11
350.92542470677751
 21
247.33690435700461
 31
0.0
  0
LINE
  5
1C282
  8
AM_0
 10
269.0523297067773
 20
214.67590535700461
 30
0.0
 11
269.0523297067773
 21
247.10090835700461
 31
0.0
  0
LINE
  5
1C283
  8
ﾁｭｳｼﾝｾﾝ1
 10
263.87612870677731
 20
230.7008993570046
 30
0.0
 11
272.46642970677732
 21
230.7008993570046
 31
0.0
  0
LINE
  5
1C284
  8
AM_0
 10
267.0523297067773
 20
242.30090535700469
 30
0.0
 11
267.0523297067773
 21
219.10090835700461
 31
0.0
  0
LINE
  5
1C285
  8
AM_0
 10
267.0523297067773
 20
242.30090535700469
 30
0.0
 11
268.0523297067773
 21
242.30090535700469
 31
0.0
  0
LINE
  5
1C286
  8
AM_0
 10
267.0523297067773
 20
219.10090835700461
 30
0.0
 11
268.0523297067773
 21
219.10090835700461
 31
0.0
  0
ARC
  5
1C29A
  8
AM_0
 10
272.65232770677721
 20
247.10090835700461
 30
0.0
 40
3.5999979999999998
 50
90.000061000000898
 51
179.99998200000081
  0
ARC
  5
1C29B
  8
AM_0
 10
350.45342570677741
 20
248.33090435700461
 30
0.0
 40
1.100006
 50
294.99982600000311
 51
24.999514000002979
  0
ARC
  5
1C29C
  8
AM_0
 10
263.62942870677739
 20
207.84390535700459
 30
0.0
 40
1.0999959999999971
 50
204.9998029999999
 51
295.00019499999701
  0
ARC
  5
1C29D
  8
AM_0
 10
338.87742970677732
 20
223.61490135700461
 30
0.0
 40
7.5999979999999967
 50
288.90001599999698
 51
0.0000179999992061
  0
ARC
  5
1C29E
  8
AM_0
 10
273.44823070677739
 20
209.26590235700459
 30
0.0
 40
3.5999979999999998
 50
204.9991570000013
 51
269.09402099999909
  0
ARC
  5
1C29F
  8
AM_0
 10
276.5547287067775
 20
405.64189335700462
 30
0.0
 40
200.0
 50
269.09405200000299
 51
288.90000300000241
  0
ARC
  5
1C2A0
  8
AM_0
 10
268.9578277067771
 20
208.0119043570046
 30
0.0
 40
0.9999979999999998
 50
24.99926800000048
 51
114.99935799999579
  0
ARC
  5
1C2A1
  8
AM_0
 10
348.47742770677718
 20
243.98890935700459
 30
0.0
 40
2.0
 50
115.00014999999649
 51
179.99998200000081
  0
ARC
  5
1C2A2
  8
AM_0
 10
342.39542770677741
 20
248.10090835700461
 30
0.0
 40
2.600006
 50
40.686130000000617
 51
90.0
  0
ARC
  5
1C2A3
  8
AM_0
 10
268.0523297067773
 20
243.30090535700461
 30
0.0
 40
1.0
 50
269.99894299999522
 51
0.0000179999992061
  0
ARC
  5
1C2A4
  8
AM_0
 10
268.0523297067773
 20
218.10090835700461
 30
0.0
 40
1.0
 50
0.0000179999992061
 51
90.0
  0
POINT
  5
1C2A5
  8
AM_0
 10
306.55227178645077
 20
700.50088490315545
 30
0.0
  0
LINE
  5
1C2A7
  8
ﾁｭｳｼﾝｾﾝ1
 10
306.55232570677731
 20
260.7856153570047
 30
0.0
 11
306.55232570677731
 21
246.7987933570046
 31
0.0
  0
ARC
  5
1C2C6
  8
AM_0
 10
854.82429409023655
 20
411.15600935700439
 30
0.0
 40
1.0
 50
35.54156773263275
 51
146.45844077113179
  0
ARC
  5
1C2CE
  8
AM_0
 10
874.82429409023655
 20
411.65931335700418
 30
0.0
 40
1.0
 50
25.382500229158239
 51
156.6175082746044
  0
ARC
  5
1C2D1
  8
AM_0
 10
864.82429409023655
 20
411.65931335700418
 30
0.0
 40
1.0
 50
14.786312807593511
 51
167.2136956961694
  0
ARC
  5
1C2D4
  8
AM_0
 10
869.84227109023652
 20
332.70089935700452
 30
0.0
 40
70.0
 50
156.1044371093918
 51
159.07516691289189
  0
ARC
  5
1C2D9
  8
AM_0
 10
869.84227109023652
 20
332.70089935700452
 30
0.0
 40
73.5
 50
150.54567055515409
 51
160.13345702211819
  0
LINE
  5
1C2DC
  8
AM_0
 10
806.84227109023664
 20
388.70090131365561
 30
0.0
 11
806.84227109023664
 21
382.70090056409742
 31
0.0
  0
LINE
  5
1C2E0
  8
AM_0
 10
795.84227109023652
 20
365.60598735700438
 30
0.0
 11
795.84227109023652
 21
357.70089935700452
 31
0.0
  0
ARC
  5
1C2E1
  8
AM_0
 10
801.84227109023652
 20
378.41616335700439
 30
0.0
 40
0.5
 50
90.0
 51
180.0
  0
LINE
  5
1C2E2
  8
AM_0
 10
801.34227109023641
 20
376.91616335700439
 30
0.0
 11
801.34227109023641
 21
378.41616335700439
 31
0.0
  0
ARC
  5
1C2E3
  8
AM_0
 10
801.84227109023652
 20
376.91616335700439
 30
0.0
 40
0.5
 50
180.0
 51
270.0
  0
LINE
  5
1C2ED
  8
AM_0
 10
805.84229816274456
 20
376.06147021833601
 30
0.0
 11
801.79834809023669
 21
376.41809635700452
 31
0.0
  0
LINE
  5
1C2EE
  8
AM_0
 10
805.84229816274444
 20
379.81100232601409
 30
0.0
 11
801.73451409023653
 21
378.90441435700438
 31
0.0
  0
LINE
  5
1C304
  8
AM_0
 10
792.39574809023679
 20
356.70150835700451
 30
0.0
 11
794.77953978452899
 21
356.61826446849858
 31
0.0
  0
ARC
  5
1C305
  8
AM_0
 10
792.43064709023622
 20
357.70089935700452
 30
0.0
 40
1.0
 50
92.000000000003666
 51
267.99999999999642
  0
LINE
  5
1C306
  8
AM_0
 10
792.39574809023679
 20
358.70029035700452
 30
0.0
 11
795.84227109023652
 21
358.82064535700442
 31
0.0
  0
ARC
  5
1C307
  8
AM_0
 10
799.8416340902362
 20
360.96152535700452
 30
0.0
 40
2.0
 50
271.99999999999068
 51
338.03549900000138
  0
ARC
  5
1C308
  8
AM_0
 10
801.14184409023665
 20
363.9928013570044
 30
0.0
 40
2.0
 50
335.53245499999912
 51
84.482415999997869
  0
ARC
  5
1C309
  8
AM_0
 10
793.9561060902364
 20
367.70089935700452
 30
0.0
 40
1.0
 50
94.613729999995016
 51
264.4824159999979
  0
ARC
  5
1C30A
  8
AM_0
 10
804.8522710902364
 20
371.58996435700448
 30
0.0
 40
2.0
 50
274.61372999999497
 51
299.67064293716783
  0
ARC
  5
1C319
  8
AM_0
 10
797.00180209023654
 20
357.70089935700452
 30
0.0
 40
1.1595309999999981
 50
92.000000000003666
 51
225.73275723152179
  0
LINE
  5
1C31A
  8
AM_0
 10
796.96133509023616
 20
358.8597243570045
 30
0.0
 11
799.91143309023653
 21
358.9627433570044
 31
0.0
  0
ARC
  5
1C31B
  8
AM_0
 10
794.84227109023652
 20
365.60598735700438
 30
0.0
 40
1.0
 50
0.0
 51
84.482415999997869
  0
LINE
  5
1C31C
  8
AM_0
 10
805.0131470902362
 20
369.59644535700443
 30
0.0
 11
793.87566909023667
 21
368.69765935700451
 31
0.0
  0
LINE
  5
1C31D
  8
AM_0
 10
801.33414709023657
 20
365.98353435700449
 30
0.0
 11
793.8599550902361
 21
366.70553235700447
 31
0.0
  0
LINE
  5
1C34A
  8
AM_0
 10
801.33414709023623
 20
299.41826435700438
 30
0.0
 11
793.8599550902361
 21
298.69626635700428
 31
0.0
  0
LINE
  5
1C34B
  8
AM_0
 10
805.0131470902362
 20
295.80535335700449
 30
0.0
 11
793.87566909023667
 21
296.70413935700452
 31
0.0
  0
ARC
  5
1C34C
  8
AM_0
 10
794.84227109023652
 20
299.79581135700448
 30
0.0
 40
1.0
 50
275.5175840000021
 51
0.0
  0
LINE
  5
1C34D
  8
AM_0
 10
796.96133509023616
 20
306.54207435700448
 30
0.0
 11
799.91143309023653
 21
306.43905535700452
 31
0.0
  0
ARC
  5
1C34E
  8
AM_0
 10
797.00180209023654
 20
307.70089935700452
 30
0.0
 40
1.1595309999999981
 50
134.26724276843649
 51
267.99999999999642
  0
ARC
  5
1C36A
  8
AM_0
 10
804.8522710902364
 20
293.8118343570045
 30
0.0
 40
2.0
 50
60.329357062832237
 51
85.386270000004984
  0
ARC
  5
1C36B
  8
AM_0
 10
793.9561060902364
 20
297.70089935700452
 30
0.0
 40
1.0
 50
95.517584000002117
 51
265.38627000000503
  0
ARC
  5
1C36C
  8
AM_0
 10
801.14184409023665
 20
301.40899735700452
 30
0.0
 40
2.0
 50
275.5175840000021
 51
24.467545000000911
  0
ARC
  5
1C36D
  8
AM_0
 10
799.8416340902362
 20
304.44027335700451
 30
0.0
 40
2.0
 50
21.964500999998702
 51
87.999999999996334
  0
LINE
  5
1C36E
  8
AM_0
 10
792.39574809023679
 20
306.70150835700451
 30
0.0
 11
795.84227109023652
 21
306.5811533570045
 31
0.0
  0
ARC
  5
1C36F
  8
AM_0
 10
792.43064709023622
 20
307.70089935700452
 30
0.0
 40
1.0
 50
92.000000000003666
 51
267.99999999999642
  0
LINE
  5
1C370
  8
AM_0
 10
792.39574809023679
 20
308.70029035700452
 30
0.0
 11
794.77953978453229
 21
308.7835342455104
 31
0.0
  0
LINE
  5
1C386
  8
AM_0
 10
805.84229816274444
 20
285.59079638799483
 30
0.0
 11
801.73451409023653
 21
286.49738435700448
 31
0.0
  0
LINE
  5
1C387
  8
AM_0
 10
805.84229816274456
 20
289.34032849567291
 30
0.0
 11
801.79834809023669
 21
288.9837023570044
 31
0.0
  0
ARC
  5
1C391
  8
AM_0
 10
801.84227109023652
 20
288.48563535700453
 30
0.0
 40
0.5
 50
90.0
 51
180.0
  0
LINE
  5
1C392
  8
AM_0
 10
801.34227109023641
 20
288.4856353570043
 30
0.0
 11
801.34227109023641
 21
286.9856353570043
 31
0.0
  0
ARC
  5
1C393
  8
AM_0
 10
801.84227109023652
 20
286.98563535700453
 30
0.0
 40
0.5
 50
180.0
 51
270.0
  0
LINE
  5
1C394
  8
AM_0
 10
795.84227109023652
 20
299.79581135700448
 30
0.0
 11
795.84227109023652
 21
307.70089935700452
 31
0.0
  0
LINE
  5
1C398
  8
AM_0
 10
806.84227109023664
 20
276.70089740035371
 30
0.0
 11
806.84227109023664
 21
282.7008981499115
 31
0.0
  0
LINE
  5
1C3A3
  8
AM_0
 10
836.34227109023664
 20
253.70089935700449
 30
0.0
 11
836.3324697197196
 21
254.00147642826261
 31
0.0
  0
LINE
  5
1C3A4
  8
AM_0
 10
351.55227178645077
 20
666.65094290315562
 30
0.0
 11
351.55227178645077
 21
674.40094290315562
 31
0.0
  0
LINE
  5
1C3A5
  8
AM_0
 10
351.55227178645077
 20
676.58094290315557
 30
0.0
 11
351.55227178645077
 21
684.45094290315524
 31
0.0
  0
LINE
  5
1C3A6
  8
AM_0
 10
351.55227178645077
 20
686.53094290315551
 30
0.0
 11
351.55227178645077
 21
694.48094290315555
 31
0.0
  0
LINE
  5
1C3A7
  8
AM_0
 10
351.55227178645077
 20
696.51094290315552
 30
0.0
 11
351.55227178645077
 21
704.49088490315523
 31
0.0
  0
LINE
  5
1C3A8
  8
AM_0
 10
351.55227178645077
 20
706.52088490315555
 30
0.0
 11
351.55227178645077
 21
714.47088490315537
 31
0.0
  0
LINE
  5
1C3A9
  8
AM_0
 10
351.55227178645077
 20
716.55088490315552
 30
0.0
 11
351.55227178645077
 21
724.42088490315552
 31
0.0
  0
LINE
  5
1C3AA
  8
AM_0
 10
351.55227178645077
 20
726.60088490315582
 30
0.0
 11
351.55227178645077
 21
734.35088490315559
 31
0.0
  0
LINE
  5
1C3AB
  8
AM_0
 10
351.55227178645077
 20
736.69088490315562
 30
0.0
 11
351.55227178645077
 21
744.33088490315583
 31
0.0
  0
LINE
  5
1C3AC
  8
AM_0
 10
354.04149178645088
 20
637.50094290315553
 30
0.0
 11
363.05227178645077
 21
637.50094290315553
 31
0.0
  0
LINE
  5
1C3AD
  8
AM_0
 10
354.05227178645077
 20
763.50088490315568
 30
0.0
 11
363.05227178645077
 21
763.50088490315568
 31
0.0
  0
LINE
  5
1C3AE
  8
AM_0
 10
193.5462607864506
 20
781.25088490315545
 30
0.0
 11
193.5462607864506
 21
619.75094290315553
 31
0.0
  0
LINE
  5
1C3AF
  8
AM_0
 10
351.55227178645077
 20
656.67094290315561
 30
0.0
 11
351.55227178645077
 21
664.31094290315548
 31
0.0
  0
LINE
  5
1C3B0
  8
AM_0
 10
351.55227178645077
 20
649.59989290315536
 30
0.0
 11
351.55227178645077
 21
654.33094290315546
 31
0.0
  0
LINE
  5
1C3B1
  8
AM_0
 10
354.19227178645087
 20
696.53088490315554
 30
0.0
 11
352.75227178645082
 21
696.33374190315556
 31
0.0
  0
LINE
  5
1C3B2
  8
AM_0
 10
354.20227178645058
 20
694.44088490315562
 30
0.0
 11
352.75227178645082
 21
694.6639619031555
 31
0.0
  0
LINE
  5
1C3B3
  8
AM_0
 10
355.05227178645077
 20
697.52088490315555
 30
0.0
 11
355.05227178645077
 21
693.45088490315584
 31
0.0
  0
LINE
  5
1C3B4
  8
AM_0
 10
354.19227178645087
 20
686.53088490315554
 30
0.0
 11
352.75227178645082
 21
686.33374190315556
 31
0.0
  0
LINE
  5
1C3B5
  8
AM_0
 10
354.20227178645058
 20
684.44088490315562
 30
0.0
 11
352.75227178645082
 21
684.6639619031555
 31
0.0
  0
LINE
  5
1C3B6
  8
AM_0
 10
355.05227178645077
 20
687.52088490315555
 30
0.0
 11
355.05227178645077
 21
683.45088490315561
 31
0.0
  0
LINE
  5
1C3B7
  8
AM_0
 10
354.20227178645058
 20
674.44088490315562
 30
0.0
 11
352.75227178645082
 21
674.66396190315538
 31
0.0
  0
LINE
  5
1C3B8
  8
AM_0
 10
354.19227178645087
 20
676.53088490315554
 30
0.0
 11
352.75227178645082
 21
676.33374190315556
 31
0.0
  0
LINE
  5
1C3B9
  8
AM_0
 10
355.05227178645077
 20
677.52088490315555
 30
0.0
 11
355.05227178645077
 21
673.45088490315561
 31
0.0
  0
ARC
  5
1C3BA
  8
AM_0
 10
352.50387678645058
 20
695.50088490315545
 30
0.0
 40
0.8000439999999999
 50
288.0879409999975
 51
71.912059000002486
  0
ARC
  5
1C3BB
  8
AM_0
 10
354.04963978645083
 20
693.44993890315584
 30
0.0
 40
1.0026319999999971
 50
0.0540850000000842
 51
81.243758999994313
  0
ARC
  5
1C3BC
  8
AM_0
 10
354.04530378645092
 20
697.52708890315557
 30
0.0
 40
1.0069859999999999
 50
278.39216299999532
 51
359.64700199999959
  0
ARC
  5
1C3BD
  8
AM_0
 10
352.50720978645091
 20
685.50594690315563
 30
0.0
 40
0.8050779999999997
 50
287.72178999999619
 51
359.63974899999999
  0
ARC
  5
1C3BE
  8
AM_0
 10
354.04963978645083
 20
683.44993890315561
 30
0.0
 40
1.0026319999999971
 50
0.0540850000000842
 51
81.243758999994313
  0
ARC
  5
1C3BF
  8
AM_0
 10
354.04530378645092
 20
687.52708890315546
 30
0.0
 40
1.0069859999999999
 50
278.39216299999532
 51
359.64700199999959
  0
ARC
  5
1C3C0
  8
AM_0
 10
352.50891578645093
 20
675.49752890315551
 30
0.0
 40
0.8033630000000001
 50
0.2393299999995325
 51
72.366849999997839
  0
ARC
  5
1C3C1
  8
AM_0
 10
352.50720978645091
 20
675.50594690315563
 30
0.0
 40
0.8050779999999997
 50
287.72178999999619
 51
359.63974899999999
  0
ARC
  5
1C3C2
  8
AM_0
 10
354.04530378645092
 20
677.52708890315546
 30
0.0
 40
1.0069859999999999
 50
278.39216299999532
 51
359.64700199999959
  0
ARC
  5
1C3C3
  8
AM_0
 10
354.04963978645083
 20
673.44993890315538
 30
0.0
 40
1.0026319999999971
 50
0.0540850000000842
 51
81.243758999994313
  0
ARC
  5
1C3C4
  8
AM_0
 10
352.50891578645093
 20
685.49752890315563
 30
0.0
 40
0.8033630000000001
 50
0.2393299999995325
 51
72.366849999997839
  0
LINE
  5
1C3C5
  8
AM_0
 10
353.05227178645077
 20
686.53094290315551
 30
0.0
 11
353.05227178645077
 21
694.48094290315555
 31
0.0
  0
LINE
  5
1C3C6
  8
AM_0
 10
353.05227178645077
 20
676.58094290315557
 30
0.0
 11
353.05227178645077
 21
684.45094290315524
 31
0.0
  0
ARC
  5
1C3C7
  8
AM_0
 10
170.21410178645081
 20
780.73363390315546
 30
0.0
 40
0.5
 50
272.99975299999591
 51
335.24658999999701
  0
ARC
  5
1C3C8
  8
AM_0
 10
144.67446378645079
 20
773.13687090315545
 30
0.0
 40
5.7500059999999991
 50
92.999882999996146
 51
170.00004799999829
  0
ARC
  5
1C3C9
  8
AM_0
 10
171.80330878645071
 20
780.00088490315579
 30
0.0
 40
1.25
 50
89.999982000000827
 51
154.6236390000004
  0
LINE
  5
1C3CA
  8
AM_0
 10
171.80330878645071
 20
781.25088490315545
 30
0.0
 11
193.5522717864508
 21
781.25088490315545
 31
0.0
  0
LINE
  5
1C3CB
  8
AM_0
 10
170.2402677864506
 20
780.23431890315555
 30
0.0
 11
144.37359778645069
 21
778.87881590315556
 31
0.0
  0
LINE
  5
1C3CC
  8
AM_0
 10
201.0522717864508
 20
736.30088490315552
 30
0.0
 11
352.51228578645078
 21
736.30088490315552
 31
0.0
  0
LINE
  5
1C3CD
  8
AM_0
 10
201.0522717864508
 20
734.35088490315559
 30
0.0
 11
354.54157678645078
 21
734.35088490315559
 31
0.0
  0
LINE
  5
1C3CE
  8
AM_0
 10
137.55105078645079
 20
634.75692390315555
 30
0.0
 11
137.55105078645079
 21
766.24490390315577
 31
0.0
  0
LINE
  5
1C3CF
  8
AM_0
 10
137.95079478645081
 20
768.11789590315584
 30
0.0
 11
139.0116567864506
 21
774.13537190315583
 31
0.0
  0
ARC
  5
1C3D0
  8
AM_0
 10
134.99636278645079
 20
768.63891590315552
 30
0.0
 40
2.999997
 50
276.36937100000398
 51
350.00017399999871
  0
ARC
  5
1C3D1
  8
AM_0
 10
135.55105078645079
 20
763.66978190315569
 30
0.0
 40
2.0
 50
96.36937100000398
 51
180.0
  0
LINE
  5
1C3D2
  8
AM_0
 10
201.0522717864508
 20
746.43221690315545
 30
0.0
 11
201.0522717864508
 21
729.78244190315581
 31
0.0
  0
LINE
  5
1C3D3
  8
AM_0
 10
193.5462607864506
 20
746.43221690315545
 30
0.0
 11
201.0522717864508
 21
746.43221690315545
 31
0.0
  0
LINE
  5
1C3D4
  8
AM_0
 10
193.5462607864506
 20
746.02088490315555
 30
0.0
 11
201.0522717864508
 21
746.02088490315555
 31
0.0
  0
LINE
  5
1C3D5
  8
AM_0
 10
193.5462607864506
 20
735.50088490315545
 30
0.0
 11
201.0522717864508
 21
735.50088490315545
 31
0.0
  0
LINE
  5
1C3D6
  8
AM_0
 10
193.5462607864506
 20
729.78244190315581
 30
0.0
 11
201.0522717864508
 21
729.78244190315581
 31
0.0
  0
LINE
  5
1C3D7
  8
AM_0
 10
351.55227178645077
 20
751.40193490315562
 30
0.0
 11
351.66842678645071
 21
752.60986090315555
 31
0.0
  0
LINE
  5
1C3D8
  8
AM_0
 10
353.05227178645077
 20
762.50088490315545
 30
0.0
 11
353.05227178645077
 21
746.67088490315541
 31
0.0
  0
LINE
  5
1C3D9
  8
AM_0
 10
351.55227178645077
 20
751.40193490315562
 30
0.0
 11
351.55227178645077
 21
746.67088490315541
 31
0.0
  0
LINE
  5
1C3DA
  8
AM_0
 10
353.05227178645077
 20
724.42088490315552
 30
0.0
 11
353.05227178645077
 21
716.55088490315552
 31
0.0
  0
LINE
  5
1C3DB
  8
AM_0
 10
353.05227178645077
 20
714.47088490315537
 30
0.0
 11
353.05227178645077
 21
706.52088490315555
 31
0.0
  0
LINE
  5
1C3DC
  8
AM_0
 10
201.0522717864508
 20
744.33088490315583
 30
0.0
 11
354.56181078645068
 21
744.33088490315583
 31
0.0
  0
LINE
  5
1C3DD
  8
AM_0
 10
193.5462607864506
 20
746.67088490315541
 30
0.0
 11
354.54731978645083
 21
746.67088490315541
 31
0.0
  0
LINE
  5
1C3DE
  8
AM_0
 10
201.0522717864508
 20
744.68088490315552
 30
0.0
 11
352.59157678645079
 21
744.68088490315552
 31
0.0
  0
LINE
  5
1C3DF
  8
AM_0
 10
201.0522717864508
 20
746.28088490315554
 30
0.0
 11
352.44546578645082
 21
746.28088490315554
 31
0.0
  0
LINE
  5
1C3E0
  8
AM_0
 10
352.75227178645082
 20
704.70088490315561
 30
0.0
 11
193.5462607864506
 21
704.70088490315561
 31
0.0
  0
LINE
  5
1C3E1
  8
AM_0
 10
352.75227178645082
 20
706.30088490315552
 30
0.0
 11
193.5462607864506
 21
706.30088490315552
 31
0.0
  0
LINE
  5
1C3E2
  8
AM_0
 10
193.5462607864506
 20
704.49088490315523
 30
0.0
 11
354.04618478645079
 21
704.49088490315523
 31
0.0
  0
LINE
  5
1C3E3
  8
AM_0
 10
193.5462607864506
 20
706.52088490315555
 30
0.0
 11
353.94227178645087
 21
706.52088490315555
 31
0.0
  0
LINE
  5
1C3E4
  8
AM_0
 10
193.5462607864506
 20
714.47088490315537
 30
0.0
 11
354.19227178645087
 21
714.47088490315537
 31
0.0
  0
LINE
  5
1C3E5
  8
AM_0
 10
193.5462607864506
 20
724.42088490315552
 30
0.0
 11
354.38985978645093
 21
724.42088490315552
 31
0.0
  0
LINE
  5
1C3E6
  8
AM_0
 10
193.5462607864506
 20
726.60088490315582
 30
0.0
 11
354.38985978645093
 21
726.60088490315582
 31
0.0
  0
ARC
  5
1C3E7
  8
AM_0
 10
352.50891578645093
 20
715.50424090315551
 30
0.0
 40
0.8033630000000001
 50
287.63315000000222
 51
359.7606700000004
  0
ARC
  5
1C3E8
  8
AM_0
 10
354.04963978645083
 20
727.55183090315541
 30
0.0
 40
1.0026319999999971
 50
278.75624099999283
 51
359.9459149999999
  0
ARC
  5
1C3E9
  8
AM_0
 10
354.04530378645092
 20
723.47468090315544
 30
0.0
 40
1.0069859999999999
 50
0.3529980000003979
 51
81.60783700000465
  0
ARC
  5
1C3EA
  8
AM_0
 10
352.50720978645091
 20
725.49582290315504
 30
0.0
 40
0.8050779999999997
 50
0.3602509999999621
 51
72.278210000003952
  0
ARC
  5
1C3EB
  8
AM_0
 10
352.50891578645093
 20
725.50424090315516
 30
0.0
 40
0.8033630000000001
 50
287.63315000000222
 51
359.7606700000004
  0
ARC
  5
1C3EC
  8
AM_0
 10
354.04530378645092
 20
713.47468090315544
 30
0.0
 40
1.0069859999999999
 50
0.3529980000003979
 51
81.60783700000465
  0
ARC
  5
1C3ED
  8
AM_0
 10
354.04963978645083
 20
717.55183090315552
 30
0.0
 40
1.0026319999999971
 50
278.75624099999283
 51
359.9459149999999
  0
ARC
  5
1C3EE
  8
AM_0
 10
352.50720978645091
 20
715.4958229031555
 30
0.0
 40
0.8050779999999997
 50
0.3602509999999621
 51
72.278210000003952
  0
ARC
  5
1C3EF
  8
AM_0
 10
354.04530378645092
 20
703.47468090315544
 30
0.0
 40
1.0069859999999999
 50
0.3529980000003979
 51
81.60783700000465
  0
ARC
  5
1C3F0
  8
AM_0
 10
354.04963978645083
 20
707.55183090315552
 30
0.0
 40
1.0026319999999971
 50
278.75624099999283
 51
359.9459149999999
  0
ARC
  5
1C3F1
  8
AM_0
 10
352.50387678645058
 20
705.50088490315568
 30
0.0
 40
0.8000439999999999
 50
288.0879409999975
 51
71.912059000002486
  0
LINE
  5
1C3F2
  8
AM_0
 10
201.0522717864508
 20
736.69088490315562
 30
0.0
 11
354.56349078645081
 21
736.69088490315562
 31
0.0
  0
LINE
  5
1C3F3
  8
AM_0
 10
193.5462607864506
 20
716.55088490315552
 30
0.0
 11
354.10227178645067
 21
716.55088490315552
 31
0.0
  0
LINE
  5
1C3F4
  8
AM_0
 10
193.5462607864506
 20
716.30088490315552
 30
0.0
 11
352.75227178645082
 21
716.30088490315552
 31
0.0
  0
LINE
  5
1C3F5
  8
AM_0
 10
193.5462607864506
 20
714.70088490315584
 30
0.0
 11
352.75227178645082
 21
714.70088490315584
 31
0.0
  0
LINE
  5
1C3F6
  8
AM_0
 10
193.5462607864506
 20
724.70088490315584
 30
0.0
 11
352.75227178645082
 21
724.70088490315584
 31
0.0
  0
LINE
  5
1C3F7
  8
AM_0
 10
193.5462607864506
 20
726.30088490315552
 30
0.0
 11
352.74367078645082
 21
726.30088490315552
 31
0.0
  0
LINE
  5
1C3F8
  8
AM_0
 10
201.0522717864508
 20
734.7008849031555
 30
0.0
 11
352.51226978645082
 21
734.7008849031555
 31
0.0
  0
LINE
  5
1C3F9
  8
AM_0
 10
355.05227178645077
 20
723.48088490315581
 30
0.0
 11
355.05227178645077
 21
727.55088490315552
 31
0.0
  0
LINE
  5
1C3FA
  8
AM_0
 10
354.19227178645087
 20
724.47088490315582
 30
0.0
 11
352.75227178645082
 21
724.66802790315523
 31
0.0
  0
LINE
  5
1C3FB
  8
AM_0
 10
354.20227178645058
 20
726.56088490315551
 30
0.0
 11
352.75227178645082
 21
726.33780790315564
 31
0.0
  0
LINE
  5
1C3FC
  8
AM_0
 10
355.05227178645077
 20
713.48088490315524
 30
0.0
 11
355.05227178645077
 21
717.55088490315552
 31
0.0
  0
LINE
  5
1C3FD
  8
AM_0
 10
354.20227178645058
 20
716.56088490315551
 30
0.0
 11
352.75227178645082
 21
716.33780790315564
 31
0.0
  0
LINE
  5
1C3FE
  8
AM_0
 10
354.19227178645087
 20
714.47088490315537
 30
0.0
 11
352.75227178645082
 21
714.66802790315558
 31
0.0
  0
LINE
  5
1C3FF
  8
AM_0
 10
355.05227178645077
 20
703.4808849031557
 30
0.0
 11
355.05227178645077
 21
707.55088490315552
 31
0.0
  0
LINE
  5
1C400
  8
AM_0
 10
354.20227178645058
 20
706.56088490315551
 30
0.0
 11
352.75227178645082
 21
706.33780790315564
 31
0.0
  0
LINE
  5
1C401
  8
AM_0
 10
354.19227178645087
 20
704.47088490315571
 30
0.0
 11
352.75227178645082
 21
704.66802790315523
 31
0.0
  0
ARC
  5
1C402
  8
AM_0
 10
170.21410178645081
 20
620.26819390315552
 30
0.0
 40
0.5
 50
24.75341000000298
 51
87.000247000004023
  0
ARC
  5
1C403
  8
AM_0
 10
144.67446378645079
 20
627.86495690315553
 30
0.0
 40
5.7500059999999991
 50
189.99995200000171
 51
267.00011700000391
  0
ARC
  5
1C404
  8
AM_0
 10
171.80330878645071
 20
621.00094290315553
 30
0.0
 40
1.25
 50
205.3763609999996
 51
270.00001799999922
  0
LINE
  5
1C405
  8
AM_0
 10
171.80330878645071
 20
619.75094290315553
 30
0.0
 11
193.5522717864508
 21
619.75094290315553
 31
0.0
  0
LINE
  5
1C406
  8
AM_0
 10
170.2402677864506
 20
620.76750890315554
 30
0.0
 11
144.37359778645069
 21
622.12301190315554
 31
0.0
  0
LINE
  5
1C407
  8
AM_0
 10
170.55288878645069
 20
780.25070190315569
 30
0.0
 11
170.55288878645069
 21
620.75112590315553
 31
0.0
  0
LINE
  5
1C408
  8
AM_0
 10
140.60524978645071
 20
626.53890690315552
 30
0.0
 11
140.60524978645071
 21
774.4629209031558
 31
0.0
  0
LINE
  5
1C409
  8
AM_0
 10
133.55105078645079
 20
763.66978190315569
 30
0.0
 11
133.55105078645079
 21
637.33204590315563
 31
0.0
  0
LINE
  5
1C40A
  8
AM_0
 10
137.95079478645081
 20
632.88393190315549
 30
0.0
 11
139.0116567864506
 21
626.86645590315561
 31
0.0
  0
ARC
  5
1C40B
  8
AM_0
 10
134.99636278645079
 20
632.36291190315524
 30
0.0
 40
2.999997
 50
9.9998260000013524
 51
83.630628999996034
  0
ARC
  5
1C40C
  8
AM_0
 10
135.55105078645079
 20
637.33204590315563
 30
0.0
 40
2.0
 50
180.0
 51
263.63062899999602
  0
LINE
  5
1C40D
  8
AM_0
 10
201.0522717864508
 20
654.56961090315554
 30
0.0
 11
201.0522717864508
 21
671.21938590315551
 31
0.0
  0
LINE
  5
1C40E
  8
AM_0
 10
193.5462607864506
 20
654.56961090315554
 30
0.0
 11
201.0522717864508
 21
654.56961090315554
 31
0.0
  0
LINE
  5
1C40F
  8
AM_0
 10
193.5462607864506
 20
654.98094290315555
 30
0.0
 11
201.0522717864508
 21
654.98094290315555
 31
0.0
  0
LINE
  5
1C410
  8
AM_0
 10
193.5462607864506
 20
665.50094290315553
 30
0.0
 11
201.0522717864508
 21
665.50094290315553
 31
0.0
  0
LINE
  5
1C411
  8
AM_0
 10
193.5462607864506
 20
671.21938590315551
 30
0.0
 11
201.0522717864508
 21
671.21938590315551
 31
0.0
  0
LINE
  5
1C412
  8
AM_0
 10
351.55227178645077
 20
649.59989290315536
 30
0.0
 11
351.66843178645081
 21
648.39190790315524
 31
0.0
  0
LINE
  5
1C413
  8
AM_0
 10
353.05227178645077
 20
638.50088490315557
 30
0.0
 11
353.05227178645077
 21
654.33094290315546
 31
0.0
  0
LINE
  5
1C414
  8
AM_0
 10
353.05227178645077
 20
704.49088490315523
 30
0.0
 11
353.05227178645077
 21
696.51094290315552
 31
0.0
  0
LINE
  5
1C415
  8
AM_0
 10
201.0522717864508
 20
656.67094290315561
 30
0.0
 11
354.56190878645072
 21
656.67094290315561
 31
0.0
  0
LINE
  5
1C416
  8
AM_0
 10
193.5462607864506
 20
654.33094290315546
 30
0.0
 11
354.54721678645092
 21
654.33094290315546
 31
0.0
  0
LINE
  5
1C417
  8
AM_0
 10
201.0522717864508
 20
656.32094290315524
 30
0.0
 11
352.59200078645091
 21
656.32094290315524
 31
0.0
  0
LINE
  5
1C418
  8
AM_0
 10
201.0522717864508
 20
654.72094290315545
 30
0.0
 11
352.44508778645081
 21
654.72094290315545
 31
0.0
  0
LINE
  5
1C419
  8
AM_0
 10
352.75227178645082
 20
696.30094290315583
 30
0.0
 11
193.5462607864506
 21
696.30094290315583
 31
0.0
  0
LINE
  5
1C41A
  8
AM_0
 10
352.75227178645082
 20
694.70094290315524
 30
0.0
 11
193.5462607864506
 21
694.70094290315524
 31
0.0
  0
LINE
  5
1C41B
  8
AM_0
 10
354.04660978645057
 20
696.51094290315552
 30
0.0
 11
193.5462607864506
 21
696.51094290315552
 31
0.0
  0
LINE
  5
1C41C
  8
AM_0
 10
353.94189378645058
 20
694.48094290315555
 30
0.0
 11
193.5462607864506
 21
694.48094290315555
 31
0.0
  0
LINE
  5
1C41D
  8
AM_0
 10
354.1926957864506
 20
686.53094290315551
 30
0.0
 11
193.5462607864506
 21
686.53094290315551
 31
0.0
  0
LINE
  5
1C41E
  8
AM_0
 10
354.39001878645081
 20
676.58094290315557
 30
0.0
 11
193.5462607864506
 21
676.58094290315557
 31
0.0
  0
LINE
  5
1C41F
  8
AM_0
 10
354.3672277864506
 20
674.40094290315562
 30
0.0
 11
193.5462607864506
 21
674.40094290315562
 31
0.0
  0
LINE
  5
1C420
  8
AM_0
 10
201.0522717864508
 20
664.31094290315548
 30
0.0
 11
354.56339378645089
 21
664.31094290315548
 31
0.0
  0
LINE
  5
1C421
  8
AM_0
 10
201.0522717864508
 20
666.65094290315562
 30
0.0
 11
354.54167978645091
 21
666.65094290315562
 31
0.0
  0
LINE
  5
1C422
  8
AM_0
 10
193.5462607864506
 20
684.45094290315524
 30
0.0
 11
354.13689378645091
 21
684.45094290315524
 31
0.0
  0
LINE
  5
1C423
  8
AM_0
 10
193.5462607864506
 20
684.70094290315546
 30
0.0
 11
352.75227178645082
 21
684.70094290315546
 31
0.0
  0
LINE
  5
1C424
  8
AM_0
 10
193.5462607864506
 20
686.30094290315549
 30
0.0
 11
352.75227178645082
 21
686.30094290315549
 31
0.0
  0
LINE
  5
1C425
  8
AM_0
 10
193.5462607864506
 20
676.3009429031556
 30
0.0
 11
352.75227178645082
 21
676.3009429031556
 31
0.0
  0
LINE
  5
1C426
  8
AM_0
 10
193.5462607864506
 20
674.70094290315558
 30
0.0
 11
352.75227178645082
 21
674.70094290315558
 31
0.0
  0
LINE
  5
1C427
  8
AM_0
 10
201.0522717864508
 20
666.30094290315537
 30
0.0
 11
352.51269778645059
 21
666.30094290315537
 31
0.0
  0
LINE
  5
1C428
  8
AM_0
 10
201.0522717864508
 20
664.70094290315535
 30
0.0
 11
352.51189478645063
 21
664.70094290315535
 31
0.0
  0
INSERT
  5
1C42A
  8
AM_0
  2
$6-44
 10
353.05227178645077
 20
643.89190790315536
 30
0.0
 41
-1.0
 42
-1.0
 50
270.0
  0
INSERT
  5
1C42B
  8
AM_0
  2
$6-44
 10
353.05226978645078
 20
757.10986090315555
 30
0.0
 50
90.0
  0
LINE
  5
1C42C
  8
AM_0
 10
903.34227109023664
 20
252.32989735700451
 30
0.0
 11
903.34227109023664
 21
252.83181102024599
 31
0.0
  0
LINE
  5
1C42D
  8
AM_0
 10
836.34227109023664
 20
252.32989735700451
 30
0.0
 11
836.34227109023664
 21
253.70089935700449
 31
0.0
  0
LINE
  5
1C42E
  8
AM_0
 10
853.55244536702514
 20
253.7008993570044
 30
0.0
 11
836.34227109023664
 21
253.70089935700449
 31
0.0
  0
ARC
  5
1C433
  8
AM_0
 10
201.07120070677729
 20
254.22596935700469
 30
0.0
 40
2.0
 50
60.311696999996023
 51
90.0
  0
LINE
  5
1C434
  8
AM_0
 10
193.55232570677731
 20
256.22596935700471
 30
0.0
 11
201.07120070677729
 21
256.22596935700471
 31
0.0
  0
ARC
  5
1C435
  8
AM_0
 10
199.1269527067773
 20
256.93184135700449
 30
0.0
 40
2.0
 50
11.08497000000013
 51
90.0
  0
LINE
  5
1C436
  8
AM_0
 10
193.55232570677731
 20
258.93184135700449
 30
0.0
 11
199.1269527067773
 21
258.93184135700449
 31
0.0
  0
ARC
  5
1C437
  8
AM_0
 10
203.05232570677731
 20
257.70089935700457
 30
0.0
 40
2.0
 50
180.0
 51
270.0
  0
ARC
  5
1C438
  8
AM_0
 10
203.05232570677731
 20
266.20090335700462
 30
0.0
 40
2.0
 50
180.0
 51
270.0
  0
LINE
  5
1C439
  8
AM_0
 10
201.05232570677731
 20
279.9013863570047
 30
0.0
 11
201.05232570677731
 21
257.70089935700457
 31
0.0
  0
LINE
  5
1C43A
  8
AM_0
 10
193.55232570677731
 20
278.51360235700469
 30
0.0
 11
201.05232570677731
 21
278.51360235700469
 31
0.0
  0
LINE
  5
1C43B
  8
AM_0
 10
193.55232570677731
 20
266.93690735700471
 30
0.0
 11
201.05232570677731
 21
266.93690735700471
 31
0.0
  0
LINE
  5
1C43C
  8
AM_0
 10
193.55232570677731
 20
260.87674435700461
 30
0.0
 11
201.05232570677731
 21
260.87674435700461
 31
0.0
  0
ARC
  5
1C43D
  8
AM_0
 10
351.05232370677737
 20
266.2008953570047
 30
0.0
 40
2.0
 50
269.99999799999722
 51
359.99999800000052
  0
LINE
  5
1C43E
  8
AM_0
 10
203.05232570677731
 20
281.9013863570047
 30
0.0
 11
351.05232270677732
 21
281.9013863570047
 31
0.0
  0
LINE
  5
1C43F
  8
AM_0
 10
203.05232570677731
 20
264.20090335700462
 30
0.0
 11
351.05802670677741
 21
264.20090335700462
 31
0.0
  0
LINE
  5
1C440
  8
AM_0
 10
353.05232570677742
 20
259.20089935700457
 30
0.0
 11
363.0523227067772
 21
259.20089935700457
 31
0.0
  0
LINE
  5
1C441
  8
AM_0
 10
354.05232570677742
 20
269.66209135700461
 30
0.0
 11
363.05232370677737
 21
269.66209135700461
 31
0.0
  0
INSERT
  5
1C442
  8
AM_0
  2
$6-44
 10
353.05232370677737
 20
276.09192335700459
 30
0.0
 41
-1.0
 42
-1.0
 50
270.0
  0
LINE
  5
1C443
  8
AM_0
 10
201.05232570677731
 20
407.65368735700429
 30
0.0
 11
201.05232570677731
 21
404.6148833570046
 31
0.0
  0
ARC
  5
1C444
  8
AM_0
 10
203.05232570677731
 20
399.20090335700462
 30
0.0
 40
2.0
 50
90.0
 51
180.0
  0
LINE
  5
1C445
  8
AM_0
 10
193.55232570677731
 20
386.97550035700459
 30
0.0
 11
201.05232570677731
 21
386.97550035700459
 31
0.0
  0
LINE
  5
1C446
  8
AM_0
 10
193.55232570677731
 20
398.54151935700469
 30
0.0
 11
201.05232570677731
 21
398.54151935700469
 31
0.0
  0
LINE
  5
1C447
  8
AM_0
 10
193.55232570677731
 20
404.6148833570046
 30
0.0
 11
201.05232570677731
 21
404.6148833570046
 31
0.0
  0
LINE
  5
1C448
  8
AM_0
 10
201.05232570677731
 20
409.17914535700459
 30
0.0
 11
201.05232570677731
 21
408.57586935700459
 31
0.0
  0
ARC
  5
1C449
  8
AM_0
 10
203.05232570677731
 20
407.65368735700429
 30
0.0
 40
2.0
 50
90.0
 51
180.0
  0
LINE
  5
1C44A
  8
AM_0
 10
193.55232570677731
 20
410.59404435700458
 30
0.0
 11
199.53299670677731
 21
410.59404435700458
 31
0.0
  0
LINE
  5
1C44B
  8
AM_0
 10
193.55232570677731
 20
409.2795323570046
 30
0.0
 11
199.20363670677739
 21
409.2795323570046
 31
0.0
  0
ARC
  5
1C44C
  8
AM_0
 10
199.20363670677739
 20
411.2795323570042
 30
0.0
 40
2.0
 50
270.0
 51
344.1903740000011
  0
ARC
  5
1C44D
  8
AM_0
 10
203.05232570677731
 20
410.18976535700472
 30
0.0
 40
2.0
 50
90.0
 51
164.1903740000011
  0
ARC
  5
1C44E
  8
AM_0
 10
199.53299670677731
 20
412.59404435700458
 30
0.0
 40
2.0
 50
270.0
 51
331.62214299999812
  0
ARC
  5
1C44F
  8
AM_0
 10
203.05232570677731
 20
410.69290735700457
 30
0.0
 40
2.0
 50
90.0
 51
151.6221439999978
  0
ARC
  5
1C450
  8
AM_0
 10
351.05232570677742
 20
399.20090335700462
 30
0.0
 40
2.0
 50
0.0
 51
90.0
  0
ARC
  5
1C451
  8
AM_0
 10
349.92483370677752
 20
407.65368735700429
 30
0.0
 40
2.0
 50
14.99999999999917
 51
90.0
  0
LINE
  5
1C452
  8
AM_0
 10
355.05232570677742
 20
396.24503335700462
 30
0.0
 11
351.85668570677723
 21
408.1713253570046
 31
0.0
  0
ARC
  5
1C453
  8
AM_0
 10
350.88934970677741
 20
409.17914535700459
 30
0.0
 40
2.0
 50
14.99999999999917
 51
90.0
  0
LINE
  5
1C454
  8
AM_0
 10
355.05232570677742
 20
401.37011635700458
 30
0.0
 11
352.82120170677717
 21
409.69678435700462
 31
0.0
  0
ARC
  5
1C455
  8
AM_0
 10
351.43704370677727
 20
410.18976535700472
 30
0.0
 40
2.0
 50
14.99999999999917
 51
90.0
  0
LINE
  5
1C456
  8
AM_0
 10
355.05232570677742
 20
404.42475335700459
 30
0.0
 11
353.36889470677733
 21
410.70740335700458
 31
0.0
  0
ARC
  5
1C457
  8
AM_0
 10
351.71807770677719
 20
410.69290735700457
 30
0.0
 40
2.0
 50
14.99999999999917
 51
90.0
  0
LINE
  5
1C458
  8
AM_0
 10
355.05232570677742
 20
405.97673135700472
 30
0.0
 11
353.6499297067773
 21
411.2105463570046
 31
0.0
  0
ARC
  5
1C459
  8
AM_0
 10
199.05232570677731
 20
408.57586935700459
 30
0.0
 40
2.0
 50
270.0
 51
0.0
  0
ARC
  5
1C45A
  8
AM_0
 10
203.05232570677731
 20
409.17914535700459
 30
0.0
 40
2.0
 50
90.0
 51
180.0
  0
LINE
  5
1C45B
  8
AM_0
 10
193.55232570677731
 20
406.57586935700442
 30
0.0
 11
199.05232570677731
 21
406.57586935700442
 31
0.0
  0
LINE
  5
1C45C
  8
AM_0
 10
201.05232570677731
 20
404.6148833570046
 30
0.0
 11
201.05232570677731
 21
385.57223935700472
 31
0.0
  0
INSERT
  5
1C45D
  8
AM_0
  2
$6-44
 10
353.05232570677742
 20
389.30987635700461
 30
0.0
 50
90.0
  0
LINE
  5
1C45E
  8
AM_0
 10
354.05232570677742
 20
395.7397073570047
 30
0.0
 11
363.05232570677742
 21
395.7397073570047
 31
0.0
  0
LINE
  5
1C45F
  8
AM_0
 10
203.05232570677731
 20
383.57223935700472
 30
0.0
 11
351.05232570677742
 21
383.57223935700472
 31
0.0
  0
LINE
  5
1C460
  8
AM_0
 10
203.05232570677731
 20
412.69290735700457
 30
0.0
 11
351.71807770677719
 21
412.69290735700457
 31
0.0
  0
LINE
  5
1C461
  8
AM_0
 10
203.05232570677731
 20
401.20090335700462
 30
0.0
 11
351.05232570677742
 21
401.20090335700462
 31
0.0
  0
LINE
  5
1C462
  8
AM_0
 10
203.05232570677731
 20
409.65368735700463
 30
0.0
 11
349.92483370677752
 21
409.65368735700463
 31
0.0
  0
LINE
  5
1C463
  8
AM_0
 10
203.05232570677731
 20
411.17914535700459
 30
0.0
 11
350.88934970677741
 21
411.17914535700459
 31
0.0
  0
LINE
  5
1C464
  8
AM_0
 10
203.05232570677731
 20
412.18976535700438
 30
0.0
 11
351.43704370677727
 21
412.18976535700438
 31
0.0
  0
LINE
  5
1C465
  8
AM_0
 10
273.05232570677731
 20
253.7008993570046
 30
0.0
 11
273.05232570677731
 21
250.7008993570046
 31
0.0
  0
LINE
  5
1C466
  8
AM_0
 10
340.05232570677731
 20
253.7008993570046
 30
0.0
 11
340.05232570677731
 21
250.7008993570046
 31
0.0
  0
LINE
  5
1C467
  8
AM_0
 10
137.55232570677731
 20
271.90792935700472
 30
0.0
 11
137.55232570677731
 21
394.81585935700463
 31
0.0
  0
LINE
  5
1C468
  8
AM_0
 10
133.55269570677731
 20
270.10091935700473
 30
0.0
 11
133.55269570677731
 21
395.30083935700469
 31
0.0
  0
LINE
  5
1C469
  8
AM_0
 10
137.95228570677719
 20
399.96789935700463
 30
0.0
 11
139.07527570677729
 21
406.33886935700463
 31
0.0
  0
LINE
  5
1C46A
  8
AM_0
 10
144.43739570677729
 20
411.08282935700458
 30
0.0
 11
170.07936570677751
 21
412.4268193570046
 31
0.0
  0
LINE
  5
1C46B
  8
AM_0
 10
170.55232570677731
 20
253.64559935700461
 30
0.0
 11
170.55232570677731
 21
411.58746935700458
 31
0.0
  0
LINE
  5
1C46C
  8
AM_0
 10
141.41426570677729
 20
404.72784935700457
 30
0.0
 11
141.41426570677729
 21
261.18087935700459
 31
0.0
  0
LINE
  5
1C46D
  8
AM_0
 10
137.95228570677719
 20
265.43389935700458
 30
0.0
 11
139.07527570677729
 21
259.06383935700461
 31
0.0
  0
LINE
  5
1C46E
  8
AM_0
 10
144.4373357067773
 20
254.3198893570046
 30
0.0
 11
170.07936570677751
 21
252.97588935700469
 31
0.0
  0
LINE
  5
1C46F
  8
AM_0
 10
171.64534570677731
 20
413.45086935700459
 30
0.0
 11
193.55232570677731
 21
413.45086935700459
 31
0.0
  0
LINE
  5
1C470
  8
AM_0
 10
171.64534570677731
 20
251.9508993570046
 30
0.0
 11
193.55232570677731
 21
251.9508993570046
 31
0.0
  0
LINE
  5
1C471
  8
AM_0
 10
340.05232570677731
 20
255.7008993570046
 30
0.0
 11
340.05232570677731
 21
253.7008993570046
 31
0.0
  0
LINE
  5
1C472
  8
AM_0
 10
273.05232570677731
 20
255.7008993570046
 30
0.0
 11
273.05232570677731
 21
253.7008993570046
 31
0.0
  0
LINE
  5
1C473
  8
AM_0
 10
273.05232570677731
 20
253.7008993570046
 30
0.0
 11
340.05232570677731
 21
253.7008993570046
 31
0.0
  0
LINE
  5
1C474
  8
AM_0
 10
203.05232570677731
 20
255.7008993570046
 30
0.0
 11
349.83284570677728
 21
255.7008993570046
 31
0.0
  0
LINE
  5
1C475
  8
AM_0
 10
316.55232570677731
 20
358.70089935700457
 30
0.0
 11
193.55232570677731
 21
358.70089935700457
 31
0.0
  0
LINE
  5
1C476
  8
AM_0
 10
316.55232570677731
 20
306.70089935700457
 30
0.0
 11
193.55232570677731
 21
306.70089935700457
 31
0.0
  0
LINE
  5
1C477
  8
AM_0
 10
332.55232570677731
 20
359.70089935700457
 30
0.0
 11
332.55232570677731
 21
365.70089935700457
 31
0.0
  0
LINE
  5
1C478
  8
AM_0
 10
317.55232570677731
 20
359.70089935700457
 30
0.0
 11
317.55232570677731
 21
365.70089935700457
 31
0.0
  0
LINE
  5
1C479
  8
AM_0
 10
332.55232570677731
 20
305.70089935700457
 30
0.0
 11
332.55232570677731
 21
299.70089935700457
 31
0.0
  0
LINE
  5
1C47A
  8
AM_0
 10
317.55232570677731
 20
305.70089935700457
 30
0.0
 11
317.55232570677731
 21
299.70089935700457
 31
0.0
  0
LINE
  5
1C47B
  8
AM_0
 10
289.05232570677731
 20
353.20089935700457
 30
0.0
 11
289.05232570677731
 21
312.20089935700457
 31
0.0
  0
LINE
  5
1C47C
  8
AM_0
 10
352.05232570677742
 20
353.20089935700457
 30
0.0
 11
352.05232570677742
 21
312.20089935700457
 31
0.0
  0
LINE
  5
1C47D
  8
AM_0
 10
289.05232570677731
 20
353.20089935700457
 30
0.0
 11
352.05232570677742
 21
353.20089935700457
 31
0.0
  0
LINE
  5
1C47E
  8
AM_0
 10
289.05232570677731
 20
312.20089935700457
 30
0.0
 11
352.05232570677742
 21
312.20089935700457
 31
0.0
  0
LINE
  5
1C47F
  8
AM_0
 10
289.05232570677731
 20
345.70089935700457
 30
0.0
 11
352.05232570677742
 21
345.70089935700457
 31
0.0
  0
LINE
  5
1C480
  8
AM_0
 10
201.05232570677731
 20
335.70089935700457
 30
0.0
 11
201.05232570677731
 21
329.70089935700457
 31
0.0
  0
LINE
  5
1C481
  8
AM_0
 10
351.76442570677727
 20
257.18218935700457
 30
0.0
 11
352.75233570677727
 21
260.86086935700467
 31
0.0
  0
LINE
  5
1C482
  8
AM_0
 10
351.1763457067774
 20
257.18218935700457
 30
0.0
 11
352.75233570677727
 21
263.05090935700463
 31
0.0
  0
LINE
  5
1C483
  8
AM_0
 10
353.05232570677742
 20
295.74267935700459
 30
0.0
 11
353.05232570677742
 21
259.20089935700457
 31
0.0
  0
LINE
  5
1C484
  8
AM_0
 10
352.05232570677742
 20
308.70089935700457
 30
0.0
 11
193.55232570677731
 21
308.70089935700457
 31
0.0
  0
LINE
  5
1C485
  8
AM_0
 10
352.05232570677742
 20
306.70089935700457
 30
0.0
 11
333.55232570677731
 21
306.70089935700457
 31
0.0
  0
LINE
  5
1C486
  8
AM_0
 10
285.05232570677731
 20
316.70089935700457
 30
0.0
 11
193.55232570677731
 21
316.70089935700457
 31
0.0
  0
LINE
  5
1C487
  8
AM_0
 10
285.05232570677731
 20
318.70089935700457
 30
0.0
 11
193.55232570677731
 21
318.70089935700457
 31
0.0
  0
LINE
  5
1C488
  8
AM_0
 10
285.05232570677731
 20
326.70089935700457
 30
0.0
 11
193.55232570677731
 21
326.70089935700457
 31
0.0
  0
LINE
  5
1C489
  8
AM_0
 10
285.05232570677731
 20
328.70089935700457
 30
0.0
 11
202.05232570677731
 21
328.70089935700457
 31
0.0
  0
LINE
  5
1C48A
  8
AM_0
 10
352.05232570677742
 20
286.70089935700457
 30
0.0
 11
193.55232570677731
 21
286.70089935700457
 31
0.0
  0
LINE
  5
1C48B
  8
AM_0
 10
352.05232570677742
 20
298.70089935700469
 30
0.0
 11
193.55232570677731
 21
298.70089935700469
 31
0.0
  0
LINE
  5
1C48C
  8
AM_0
 10
352.05232570677742
 20
296.70089935700469
 30
0.0
 11
193.55232570677731
 21
296.70089935700469
 31
0.0
  0
LINE
  5
1C48D
  8
AM_0
 10
352.05232570677742
 20
288.70089935700469
 30
0.0
 11
193.55232570677731
 21
288.70089935700469
 31
0.0
  0
LINE
  5
1C48E
  8
AM_0
 10
352.05232570677742
 20
376.70089935700457
 30
0.0
 11
193.55232570677731
 21
376.70089935700457
 31
0.0
  0
LINE
  5
1C48F
  8
AM_0
 10
352.05232570677742
 20
368.70089935700457
 30
0.0
 11
193.55232570677731
 21
368.70089935700457
 31
0.0
  0
LINE
  5
1C490
  8
AM_0
 10
352.05232570677742
 20
366.70089935700457
 30
0.0
 11
193.55232570677731
 21
366.70089935700457
 31
0.0
  0
LINE
  5
1C491
  8
AM_0
 10
352.05232570677742
 20
378.70089935700457
 30
0.0
 11
193.55232570677731
 21
378.70089935700457
 31
0.0
  0
LINE
  5
1C492
  8
AM_0
 10
285.05232570677731
 20
336.70089935700457
 30
0.0
 11
202.05232570677731
 21
336.70089935700457
 31
0.0
  0
LINE
  5
1C493
  8
AM_0
 10
285.05232570677731
 20
338.70089935700457
 30
0.0
 11
193.55232570677731
 21
338.70089935700457
 31
0.0
  0
LINE
  5
1C494
  8
AM_0
 10
285.05232570677731
 20
346.70089935700457
 30
0.0
 11
193.55232570677731
 21
346.70089935700457
 31
0.0
  0
LINE
  5
1C495
  8
AM_0
 10
285.05232570677731
 20
348.70089935700469
 30
0.0
 11
193.55232570677731
 21
348.70089935700469
 31
0.0
  0
LINE
  5
1C496
  8
AM_0
 10
352.05232570677742
 20
358.70089935700457
 30
0.0
 11
333.55232570677731
 21
358.70089935700457
 31
0.0
  0
LINE
  5
1C497
  8
AM_0
 10
352.05232570677742
 20
356.70089935700457
 30
0.0
 11
193.55232570677731
 21
356.70089935700457
 31
0.0
  0
LINE
  5
1C498
  8
AM_0
 10
353.05232570677742
 20
369.65911935700461
 30
0.0
 11
353.05232570677742
 21
399.20090335700462
 31
0.0
  0
LINE
  5
1C499
  8
AM_0
 10
193.55232570677731
 20
413.45086935700459
 30
0.0
 11
193.55232570677731
 21
251.9508993570046
 31
0.0
  0
ARC
  5
1C49A
  8
AM_0
 10
170.05232570677731
 20
412.92583935700452
 30
0.0
 40
0.5
 50
272.99996999999098
 51
335.5439499999992
  0
ARC
  5
1C49B
  8
AM_0
 10
144.7382357067772
 20
405.34087935700472
 30
0.0
 40
5.75
 50
92.99998600000211
 51
169.99997999999991
  0
ARC
  5
1C49C
  8
AM_0
 10
171.64534570677731
 20
412.20086935700448
 30
0.0
 40
1.25
 50
89.999988999991061
 51
155.54398000000231
  0
ARC
  5
1C49D
  8
AM_0
 10
135.80269570677731
 20
395.30083935700469
 30
0.0
 40
2.25
 50
98.816587999997054
 51
179.99997999999951
  0
ARC
  5
1C49E
  8
AM_0
 10
134.99800570677729
 20
400.48894935700463
 30
0.0
 40
3.0
 50
278.8169699999973
 51
349.99995000000109
  0
ARC
  5
1C49F
  8
AM_0
 10
135.80269570677731
 20
270.10091935700473
 30
0.0
 40
2.25
 50
179.99997999999951
 51
261.18293999999861
  0
ARC
  5
1C4A0
  8
AM_0
 10
134.99800570677729
 20
264.91293935700457
 30
0.0
 40
3.0
 50
9.9998319999988361
 51
81.183190999994267
  0
ARC
  5
1C4A1
  8
AM_0
 10
170.05232570677731
 20
252.4768993570047
 30
0.0
 40
0.5
 50
24.456398999999259
 51
86.999984999993288
  0
ARC
  5
1C4A2
  8
AM_0
 10
144.7382357067772
 20
260.06185935700461
 30
0.0
 40
5.75
 50
189.9999799999994
 51
266.99995000000291
  0
ARC
  5
1C4A3
  8
AM_0
 10
171.64534570677731
 20
253.2008993570046
 30
0.0
 40
1.25
 50
204.45596999999859
 51
269.99995999999589
  0
ARC
  5
1C4A4
  8
AM_0
 10
349.83284570677728
 20
257.70089935700457
 30
0.0
 40
2.0
 50
269.999989999999
 51
344.9683099999985
  0
ARC
  5
1C4A5
  8
AM_0
 10
349.24476570677729
 20
257.70089935700457
 30
0.0
 40
2.0
 50
269.999989999999
 51
344.9683099999985
  0
ARC
  5
1C4A6
  8
AM_0
 10
333.55232570677731
 20
299.70089935700457
 30
0.0
 40
1.0
 50
179.99999000000059
 51
270.0
  0
ARC
  5
1C4A7
  8
AM_0
 10
316.55232570677731
 20
299.70089935700457
 30
0.0
 40
1.0
 50
269.999989999999
 51
0.000000999999775
  0
ARC
  5
1C4A8
  8
AM_0
 10
316.55232570677731
 20
365.70089935700457
 30
0.0
 40
1.0
 50
0.0
 51
90.00000299999769
  0
ARC
  5
1C4A9
  8
AM_0
 10
333.55232570677731
 20
365.70089935700457
 30
0.0
 40
1.0
 50
90.00000299999769
 51
180.00000999999941
  0
ARC
  5
1C4AA
  8
AM_0
 10
333.55232570677731
 20
305.70089935700457
 30
0.0
 40
1.0
 50
90.00000299999769
 51
180.00000999999941
  0
ARC
  5
1C4AB
  8
AM_0
 10
316.55232570677731
 20
305.70089935700457
 30
0.0
 40
1.0
 50
0.0
 51
90.00000299999769
  0
ARC
  5
1C4AC
  8
AM_0
 10
333.55232570677731
 20
359.70089935700457
 30
0.0
 40
1.0
 50
179.99999000000059
 51
270.0
  0
ARC
  5
1C4AD
  8
AM_0
 10
316.55232570677731
 20
359.70089935700457
 30
0.0
 40
1.0
 50
269.999989999999
 51
0.000000999999775
  0
CIRCLE
  5
1C4AE
  8
AM_0
 10
327.55232570677731
 20
361.20089935700469
 30
0.0
 40
1.0
  0
CIRCLE
  5
1C4AF
  8
AM_0
 10
322.55232570677731
 20
361.20089935700469
 30
0.0
 40
1.149999999999999
  0
CIRCLE
  5
1C4B0
  8
AM_0
 10
322.55232570677731
 20
361.20089935700469
 30
0.0
 40
1.1000000000000001
  0
CIRCLE
  5
1C4B1
  8
AM_0
 10
322.55232570677731
 20
304.20089935700457
 30
0.0
 40
1.1000000000000001
  0
CIRCLE
  5
1C4B2
  8
AM_0
 10
322.55232570677731
 20
304.20089935700457
 30
0.0
 40
1.149999999999999
  0
CIRCLE
  5
1C4B3
  8
AM_0
 10
327.55232570677731
 20
304.20089935700457
 30
0.0
 40
1.0
  0
ARC
  5
1C4B4
  8
AM_0
 10
285.05232570677731
 20
347.70089935700457
 30
0.0
 40
1.0
 50
269.999989999999
 51
90.00000299999769
  0
ARC
  5
1C4B5
  8
AM_0
 10
285.05232570677731
 20
337.70089935700457
 30
0.0
 40
1.0
 50
269.999989999999
 51
90.00000299999769
  0
ARC
  5
1C4B6
  8
AM_0
 10
285.05232570677731
 20
327.70089935700457
 30
0.0
 40
1.0
 50
269.999989999999
 51
90.00000299999769
  0
ARC
  5
1C4B7
  8
AM_0
 10
285.05232570677731
 20
317.70089935700457
 30
0.0
 40
1.0
 50
269.999989999999
 51
90.00000299999769
  0
ARC
  5
1C4B8
  8
AM_0
 10
350.10231570677752
 20
297.70089935700457
 30
0.0
 40
1.0
 50
269.999989999999
 51
90.00000299999769
  0
ARC
  5
1C4B9
  8
AM_0
 10
352.05232570677742
 20
297.70089935700457
 30
0.0
 40
1.0
 50
269.999989999999
 51
90.00000299999769
  0
ARC
  5
1C4BA
  8
AM_0
 10
350.10231570677752
 20
307.70089935700457
 30
0.0
 40
1.0
 50
269.999989999999
 51
90.00000299999769
  0
ARC
  5
1C4BB
  8
AM_0
 10
352.05232570677742
 20
307.70089935700457
 30
0.0
 40
1.0
 50
269.999989999999
 51
90.00000299999769
  0
ARC
  5
1C4BC
  8
AM_0
 10
350.10231570677752
 20
357.70089935700457
 30
0.0
 40
1.0
 50
269.999989999999
 51
90.00000299999769
  0
ARC
  5
1C4BD
  8
AM_0
 10
352.05232570677742
 20
357.70089935700457
 30
0.0
 40
1.0
 50
269.999989999999
 51
90.00000299999769
  0
ARC
  5
1C4BE
  8
AM_0
 10
350.10231570677752
 20
367.70089935700457
 30
0.0
 40
1.0
 50
269.999989999999
 51
90.00000299999769
  0
ARC
  5
1C4BF
  8
AM_0
 10
352.05232570677742
 20
367.70089935700457
 30
0.0
 40
1.0
 50
269.999989999999
 51
90.00000299999769
  0
ARC
  5
1C4C0
  8
AM_0
 10
202.05232570677731
 20
335.70089935700457
 30
0.0
 40
1.0
 50
90.00000299999769
 51
180.00000999999941
  0
ARC
  5
1C4C1
  8
AM_0
 10
202.05232570677731
 20
329.70089935700457
 30
0.0
 40
1.0
 50
179.99999000000059
 51
270.0
  0
ARC
  5
1C4C2
  8
AM_0
 10
202.05229570677739
 20
317.70089935700457
 30
0.0
 40
1.0
 50
90.00000299999769
 51
270.0
  0
ARC
  5
1C4C3
  8
AM_0
 10
202.05229570677739
 20
307.70089935700457
 30
0.0
 40
1.0
 50
90.00000299999769
 51
270.0
  0
ARC
  5
1C4C4
  8
AM_0
 10
350.10231570677752
 20
287.70089935700457
 30
0.0
 40
1.0
 50
269.999989999999
 51
90.00000299999769
  0
ARC
  5
1C4C5
  8
AM_0
 10
352.05232570677742
 20
287.70089935700457
 30
0.0
 40
1.0
 50
269.999989999999
 51
90.00000299999769
  0
ARC
  5
1C4C6
  8
AM_0
 10
202.05229570677739
 20
287.70089935700457
 30
0.0
 40
1.0
 50
90.00000299999769
 51
270.0
  0
ARC
  5
1C4C7
  8
AM_0
 10
202.05229570677739
 20
297.70089935700457
 30
0.0
 40
1.0
 50
90.00000299999769
 51
270.0
  0
ARC
  5
1C4C8
  8
AM_0
 10
354.19838570677729
 20
260.4804993570047
 30
0.0
 40
1.4952499999999991
 50
140.0376500000024
 51
165.2626000000021
  0
ARC
  5
1C4C9
  8
AM_0
 10
354.19331570677741
 20
262.65639935700472
 30
0.0
 40
1.4940209999999989
 50
139.79258000000249
 51
164.69034000000019
  0
ARC
  5
1C4CA
  8
AM_0
 10
354.19648570677742
 20
406.46795935700459
 30
0.0
 40
1.495147999999999
 50
195.00189000000111
 51
195.0062130000002
  0
ARC
  5
1C4CB
  8
AM_0
 10
202.05229570677739
 20
367.70089935700457
 30
0.0
 40
1.0
 50
90.00000299999769
 51
270.0
  0
ARC
  5
1C4CC
  8
AM_0
 10
202.05229570677739
 20
377.70089935700457
 30
0.0
 40
1.0
 50
90.00000299999769
 51
270.0
  0
ARC
  5
1C4CD
  8
AM_0
 10
352.05232570677742
 20
377.70089935700457
 30
0.0
 40
1.0
 50
269.999989999999
 51
90.00000299999769
  0
ARC
  5
1C4CE
  8
AM_0
 10
350.10231570677752
 20
377.70089935700457
 30
0.0
 40
1.0
 50
269.999989999999
 51
90.00000299999769
  0
ARC
  5
1C4CF
  8
AM_0
 10
202.05229570677739
 20
357.70089935700457
 30
0.0
 40
1.0
 50
90.00000299999769
 51
270.0
  0
ARC
  5
1C4D0
  8
AM_0
 10
202.05229570677739
 20
347.70089935700457
 30
0.0
 40
1.0
 50
90.00000299999769
 51
270.0
  0
LINE
  5
1C4D1
  8
AM_0
 10
363.0523317067773
 20
406.20090435700439
 30
0.0
 11
354.99225870677719
 21
406.20090435700439
 31
0.0
  0
LINE
  5
1C4D2
  8
AM_0
 10
354.05232570677742
 20
295.74267935700459
 30
0.0
 11
363.05232570677742
 21
295.74267935700459
 31
0.0
  0
LINE
  5
1C4D3
  8
AM_0
 10
354.05232570677742
 20
369.65911935700461
 30
0.0
 11
363.05232570677742
 21
369.65911935700461
 31
0.0
  0
ARC
  5
1C52B
  8
AM_0
 10
869.84227109023652
 20
332.70089935700452
 30
0.0
 40
73.5
 50
199.86654297788081
 51
209.45432944484591
  0
ARC
  5
1C52C
  8
AM_0
 10
869.84227109023652
 20
332.70089935700452
 30
0.0
 40
70.0
 50
200.9248330871072
 51
203.8955628906082
  0
TEXT
  5
1C7DC
  8
AM_0
 10
759.64978394891932
 20
699.70161225934203
 30
0.0
 40
15.0
  1
VC08-007EFMT~VC08-060EFMT
1001
ACAD
1000
MTEXTBEGIN
1070
    73
1070
     1
1070
    44
1040
1.0
1070
    74
1070
     0
1000
MTEXTEND
  0
VIEWPORT
  5
89
 67
     1
  8
0
 10
210.0
 20
148.5
 30
0.0
 40
420.0
 41
297.0
 68
     1
 69
     1
1001
ACAD
1000
MVIEW
1002
{
1070
    16
1010
0.0
1020
0.0
1030
0.0
1010
0.0
1020
0.0
1030
1.0
1040
0.0
1040
297.0
1040
221.70154043645701
1040
148.5
1040
50.0
1040
0.0
1040
0.0
1070
     0
1070
   100
1070
     1
1070
     1
1070
     0
1070
     0
1070
     0
1070
     0
1040
0.0
1040
0.0
1040
0.0
1040
10.0
1040
10.0
1040
10.0
1040
10.0
1070
     0
1002
{
1002
}
1002
}
1001
GENIUS_GENOREF_13
1005
1B94
1001
GENIUS_GENSCREG_15
1000
PF
1040
1.0
1000
DF
1040
1.0
1000
MIN
1011
0.0
1021
0.0
1031
0.0
1021
0.0
1031
0.0
1000
MAX
1011
420.0
1021
0.0
1031
0.0
1021
297.0
1031
0.0
1000
FLAGS
1070
     4
  0
ENDSEC
  0
EOF
