  0
SECTION
  2
HEADER
  9
$ACADVER
  1
AC1009
  9
$INSBASE
 10
0.0
 20
0.0
 30
0.0
  9
$EXTMIN
 10
82.802629647080948
 20
162.09705853899959
 30
-0.0000000349181948
  9
$EXTMAX
 10
747.71111484012908
 20
616.10606860091968
 30
0.0000000814935747
  9
$LIMMIN
 10
0.0
 20
0.0
  9
$LIMMAX
 10
853.5
 20
555.00000000000011
  9
$ORTHOMODE
 70
     0
  9
$REGENMODE
 70
     1
  9
$FILLMODE
 70
     1
  9
$QTEXTMODE
 70
     0
  9
$MIRRTEXT
 70
     1
  9
$DRAGMODE
 70
     2
  9
$LTSCALE
 40
3.0
  9
$OSMODE
 70
   551
  9
$ATTMODE
 70
     1
  9
$TEXTSIZE
 40
2.5
  9
$TRACEWID
 40
1.0
  9
$TEXTSTYLE
  7
STANDARD
  9
$CLAYER
  8
AM_0
  9
$CELTYPE
  6
BYLAYER
  9
$CECOLOR
 62
   256
  9
$DIMSCALE
 40
3.0
  9
$DIMASZ
 40
2.5
  9
$DIMEXO
 40
1.0
  9
$DIMDLI
 40
7.0
  9
$DIMRND
 40
0.0
  9
$DIMDLE
 40
0.0
  9
$DIMEXE
 40
1.0
  9
$DIMTP
 40
0.1
  9
$DIMTM
 40
0.1000000001
  9
$DIMTXT
 40
2.5
  9
$DIMCEN
 40
0.0
  9
$DIMTSZ
 40
0.0
  9
$DIMTOL
 70
     0
  9
$DIMLIM
 70
     0
  9
$DIMTIH
 70
     0
  9
$DIMTOH
 70
     0
  9
$DIMSE1
 70
     0
  9
$DIMSE2
 70
     0
  9
$DIMTAD
 70
     3
  9
$DIMZIN
 70
     8
  9
$DIMBLK
  1

  9
$DIMASO
 70
     1
  9
$DIMSHO
 70
     1
  9
$DIMPOST
  1

  9
$DIMAPOST
  1
"
  9
$DIMALT
 70
     0
  9
$DIMALTD
 70
     2
  9
$DIMALTF
 40
0.0393701
  9
$DIMLFAC
 40
1.0
  9
$DIMTOFL
 70
     1
  9
$DIMTVP
 40
0.0
  9
$DIMTIX
 70
     0
  9
$DIMSOXD
 70
     0
  9
$DIMSAH
 70
     0
  9
$DIMBLK1
  1

  9
$DIMBLK2
  1

  9
$DIMSTYLE
  2
AM_JIS
  9
$DIMCLRD
 70
   256
  9
$DIMCLRE
 70
   256
  9
$DIMCLRT
 70
     4
  9
$DIMTFAC
 40
0.71
  9
$DIMGAP
 40
1.0
  9
$LUNITS
 70
     2
  9
$LUPREC
 70
     2
  9
$SKETCHINC
 40
1.0
  9
$FILLETRAD
 40
7.5
  9
$AUNITS
 70
     0
  9
$AUPREC
 70
     3
  9
$MENU
  1
.
  9
$ELEVATION
 40
0.0
  9
$PELEVATION
 40
0.0
  9
$THICKNESS
 40
0.0
  9
$LIMCHECK
 70
     0
  9
$BLIPMODE
 70
     0
  9
$CHAMFERA
 40
7.5
  9
$CHAMFERB
 40
7.5
  9
$SKPOLY
 70
     0
  9
$TDCREATE
 40
2452753.643349607
  9
$TDUPDATE
 40
2458543.559914873
  9
$TDINDWG
 40
0.3519488542
  9
$TDUSRTIMER
 40
0.3519486574
  9
$USRTIMER
 70
     1
  9
$ANGBASE
 50
0.0
  9
$ANGDIR
 70
     0
  9
$PDMODE
 70
     0
  9
$PDSIZE
 40
0.0
  9
$PLINEWID
 40
0.0
  9
$COORDS
 70
     1
  9
$SPLFRAME
 70
     0
  9
$SPLINETYPE
 70
     6
  9
$SPLINESEGS
 70
     8
  9
$ATTDIA
 70
     1
  9
$ATTREQ
 70
     1
  9
$HANDLING
 70
     1
  9
$HANDSEED
  5
F557
  9
$SURFTAB1
 70
     6
  9
$SURFTAB2
 70
     6
  9
$SURFTYPE
 70
     6
  9
$SURFU
 70
     6
  9
$SURFV
 70
     6
  9
$UCSNAME
  2

  9
$UCSORG
 10
0.0
 20
0.0
 30
0.0
  9
$UCSXDIR
 10
1.0
 20
0.0
 30
0.0
  9
$UCSYDIR
 10
0.0
 20
1.0
 30
0.0
  9
$PUCSNAME
  2

  9
$PUCSORG
 10
0.0
 20
0.0
 30
0.0
  9
$PUCSXDIR
 10
1.0
 20
0.0
 30
0.0
  9
$PUCSYDIR
 10
0.0
 20
1.0
 30
0.0
  9
$USERI1
 70
     0
  9
$USERI2
 70
     0
  9
$USERI3
 70
     0
  9
$USERI4
 70
     0
  9
$USERI5
 70
     0
  9
$USERR1
 40
0.0
  9
$USERR2
 40
0.0
  9
$USERR3
 40
0.0
  9
$USERR4
 40
0.0
  9
$USERR5
 40
0.0
  9
$WORLDVIEW
 70
     1
  9
$SHADEDGE
 70
     3
  9
$SHADEDIF
 70
    70
  9
$TILEMODE
 70
     1
  9
$MAXACTVP
 70
    48
  9
$PLIMCHECK
 70
     0
  9
$PEXTMIN
 10
1.0000000000000000E+020
 20
1.0000000000000000E+020
 30
1.0000000000000000E+020
  9
$PEXTMAX
 10
-1.0000000000000000E+020
 20
-1.0000000000000000E+020
 30
-1.0000000000000000E+020
  9
$PLIMMIN
 10
0.0
 20
0.0
  9
$PLIMMAX
 10
420.0
 20
297.0
  9
$UNITMODE
 70
     0
  9
$VISRETAIN
 70
     1
  9
$PLINEGEN
 70
     0
  9
$PSLTSCALE
 70
     1
  0
ENDSEC
  0
SECTION
  2
TABLES
  0
TABLE
  2
VPORT
 70
     1
  0
VPORT
  2
*ACTIVE
 70
     0
 10
0.0
 20
0.0
 11
1.0
 21
1.0
 12
415.25687224360502
 22
389.10156356995969
 13
0.0
 23
0.0
 14
7.5
 24
7.5
 15
30.0
 25
30.0
 16
0.0
 26
0.0
 36
1.0
 17
0.0
 27
0.0
 37
0.0
 40
457.12577672138423
 41
1.7571592210767459
 42
50.0
 43
0.0
 44
0.0
 50
0.0
 51
0.0
 71
    16
 72
   100
 73
     1
 74
     1
 75
     0
 76
     0
 77
     0
 78
     0
  0
ENDTAB
  0
TABLE
  2
LTYPE
 70
    21
  0
LTYPE
  2
CONTINUOUS
 70
     0
  3
Solid line
 72
    65
 73
     0
 40
0.0
  0
LTYPE
  2
PHANTOM2
 70
     0
  3
Phantom (.5x) ___ _ _ ___ _ _ ___ _ _ ___ _ _
 72
    65
 73
     6
 40
31.75
 49
15.875
 49
-3.174999999999998
 49
3.174999999999998
 49
-3.174999999999998
 49
3.174999999999998
 49
-3.174999999999998
  0
LTYPE
  2
CENTER
 70
     0
  3
Center ____ _ ____ _ ____ _ ____ _ ____ _ ____
 72
    65
 73
     4
 40
50.799999999999997
 49
31.75
 49
-6.3499999999999979
 49
6.3499999999999979
 49
-6.3499999999999979
  0
LTYPE
  2
ACANSTGBM
 70
     0
  3
__ . . __ . .
 72
    65
 73
     6
 40
9.0
 49
4.0
 49
-1.0
 49
1.0
 49
-1.0
 49
1.0
 49
-1.0
  0
LTYPE
  2
ACANSTGLM
 70
     0
  3
_ _ _ _ _
 72
    65
 73
     2
 40
3.0
 49
2.0
 49
-1.0
  0
LTYPE
  2
GEN3B
 70
     0
  3
 - - - - -
 72
    65
 73
     2
 40
1.0
 49
0.5
 49
-0.5
  0
LTYPE
  2
GEN7A
 70
     0
  3
__ . __ . __
 72
    65
 73
     4
 40
7.375
 49
4.75
 49
-0.875
 49
0.875
 49
-0.875
  0
LTYPE
  2
AM_ISO02W050
 70
     0
  3
__ __ __ __ __ __ __ __ __ __ __ __ __ __ __
 72
    65
 73
     2
 40
7.5
 49
6.0
 49
-1.5
  0
LTYPE
  2
AM_ISO08W050
 70
     0
  3
____ . ____ . ____ . ____ . ____ . ____ . ____
 72
    65
 73
     4
 40
18.0
 49
12.0
 49
-1.5
 49
3.0
 49
-1.5
  0
LTYPE
  2
AM_ISO09W050
 70
     0
  3
_____ . . _____ . . _____ . . ____ .. ____
 72
    65
 73
     6
 40
22.5
 49
12.0
 49
-1.5
 49
3.0
 49
-1.5
 49
3.0
 49
-1.5
  0
LTYPE
  2
AMCONSTR
 70
     0
  3
_______________________
 72
    65
 73
     2
 40
9999.0
 49
9999.0
 49
0.0
  0
LTYPE
  2
AM_ISO02W050X2
 70
     0
  3
 _ _ _ _ _ _ _ _ _ _ _ _
 72
    65
 73
     2
 40
3.75
 49
3.0
 49
-0.75
  0
LTYPE
  2
AM_ISO08W050X2
 70
     0
  3
__ . __ . __ . __ . __ . __
 72
    65
 73
     4
 40
9.0
 49
6.0
 49
-0.75
 49
1.5
 49
-0.75
  0
LTYPE
  2
AMZIGZAG
 70
     0
  3
/\/-/\/-/\/-/\/-/\/-/\/
 72
    65
 73
     2
 40
11.0001
 49
0.0001
 49
-11.0
  0
LTYPE
  2
ACJISTGB
 70
     0
  3
__ . . __ . .
 72
    65
 73
     6
 40
9.0
 49
4.0
 49
-1.0
 49
1.0
 49
-1.0
 49
1.0
 49
-1.0
  0
LTYPE
  2
ACJISTGL
 70
     0
  3
_ _ _ _ _
 72
    65
 73
     2
 40
3.0
 49
2.0
 49
-1.0
  0
LTYPE
  2
ACISOWELD
 70
     0
  3
_ _ _ _ _
 72
    65
 73
     2
 40
2.0
 49
2.0
 49
-1.0
  0
LTYPE
  2
ACISOTGB
 70
     0
  3
__ . . __ . .
 72
    65
 73
     6
 40
9.0
 49
4.0
 49
-1.0
 49
1.0
 49
-1.0
 49
1.0
 49
-1.0
  0
LTYPE
  2
ACISOTGL
 70
     0
  3
_ _ _ _ _
 72
    65
 73
     2
 40
3.0
 49
2.0
 49
-1.0
  0
LTYPE
  2
HIDDEN
 70
     0
  3
Hidden __ __ __ __ __ __ __ __ __ __ __ __ __ _
 72
    65
 73
     2
 40
9.5249999999999968
 49
6.3499999999999979
 49
-3.174999999999998
  0
ENDTAB
  0
TABLE
  2
LAYER
 70
     8
  0
LAYER
  2
0
 70
     0
 62
     7
  6
CONTINUOUS
  0
LAYER
  2
DEFPOINTS
 70
     0
 62
     7
  6
CONTINUOUS
  0
LAYER
  2
ｶｸﾚｾﾝ2
 70
     0
 62
     3
  6
GEN3B
  0
LAYER
  2
ﾁｭｳｼﾝｾﾝ1
 70
     0
 62
     1
  6
GEN7A
  0
LAYER
  2
AM_0
 70
     0
 62
     7
  6
CONTINUOUS
  0
LAYER
  2
AM_0N
 70
     0
 62
     7
  6
CONTINUOUS
  0
LAYER
  2
AM_5
 70
     0
 62
     2
  6
CONTINUOUS
  0
LAYER
  2
ｽﾝﾎﾟｳｾﾝ
 70
     0
 62
     2
  6
CONTINUOUS
  0
ENDTAB
  0
TABLE
  2
STYLE
 70
     8
  0
STYLE
  2
STANDARD
 70
     0
 40
0.0
 41
0.8299999999999999
 50
0.0
 71
     0
 42
2.5
  3
txt.shx
  4
bigfont.shx
  0
STYLE
  2
ACANSTS
 70
     0
 40
1.0
 41
1.0
 50
0.0
 71
     0
 42
2.5
  3
romans.shx
  4
bigfont.shx
  0
STYLE
  2
ACANSGDT
 70
     0
 40
0.0
 41
1.0
 50
0.0
 71
     0
 42
2.5
  3
amgdtans.shx
  4

  0
STYLE
  2

 70
     1
 40
0.0
 41
1.0
 50
0.0
 71
     0
 42
2.5
  3
ltypeshp.shx
  4

  0
STYLE
  2
ACJISTS
 70
     0
 40
1.0
 41
1.0
 50
0.0
 71
     0
 42
2.5
  3
isocp.shx
  4
bigfont.shx
  0
STYLE
  2
ACJISGDT
 70
     0
 40
0.0
 41
1.0
 50
0.0
 71
     0
 42
2.5
  3
amgdt.shx
  4

  0
STYLE
  2
ACISOTS
 70
     0
 40
3.0
 41
1.0
 50
0.0
 71
     0
 42
2.5
  3
isocp.shx
  4
extfont.shx
  0
STYLE
  2
ACISOGDT
 70
     0
 40
0.0
 41
1.0
 50
0.0
 71
     0
 42
2.5
  3
amgdt.shx
  4

  0
ENDTAB
  0
TABLE
  2
VIEW
 70
    12
  0
VIEW
  2
GEN1
 70
     0
 40
95.824742268041234
 10
71.5
 20
137.08762886597941
 41
143.0
 11
0.0
 21
0.0
 31
1.0
 12
0.0
 22
0.0
 32
0.0
 42
50.0
 43
0.0
 44
0.0
 50
0.0
 71
     0
  0
VIEW
  2
GEN2
 70
     0
 40
95.824742268041234
 10
214.5
 20
137.08762886597941
 41
143.0
 11
0.0
 21
0.0
 31
1.0
 12
0.0
 22
0.0
 32
0.0
 42
50.0
 43
0.0
 44
0.0
 50
0.0
 71
     0
  0
VIEW
  2
GEN3
 70
     0
 40
95.824742268041234
 10
71.5
 20
47.912371134020603
 41
143.0
 11
0.0
 21
0.0
 31
1.0
 12
0.0
 22
0.0
 32
0.0
 42
50.0
 43
0.0
 44
0.0
 50
0.0
 71
     0
  0
VIEW
  2
GEN4
 70
     0
 40
95.824742268041234
 10
214.5
 20
47.912371134020603
 41
143.0
 11
0.0
 21
0.0
 31
1.0
 12
0.0
 22
0.0
 32
0.0
 42
50.0
 43
0.0
 44
0.0
 50
0.0
 71
     0
  0
VIEW
  2
GEN5
 70
     0
 40
95.824742268041234
 10
143.0
 20
92.500000000000057
 41
143.0
 11
0.0
 21
0.0
 31
1.0
 12
0.0
 22
0.0
 32
0.0
 42
50.0
 43
0.0
 44
0.0
 50
0.0
 71
     0
  0
VIEW
  2
GEN6
 70
     0
 40
191.64756804123709
 10
143.0
 20
92.5
 41
285.99714
 11
0.0
 21
0.0
 31
1.0
 12
0.0
 22
0.0
 32
0.0
 42
50.0
 43
0.0
 44
0.0
 50
0.0
 71
     0
  0
VIEW
  2
AM_VIEW1
 70
     0
 40
277.50000000000011
 10
249.64779005524869
 20
416.25000000000011
 41
499.29558011049721
 11
0.0
 21
0.0
 31
1.0
 12
0.0
 22
0.0
 32
0.0
 42
50.0
 43
0.0
 44
0.0
 50
0.0
 71
    16
  0
VIEW
  2
AM_VIEW2
 70
     0
 40
277.50000000000011
 10
603.85220994475117
 20
416.25000000000011
 41
499.29558011049721
 11
0.0
 21
0.0
 31
1.0
 12
0.0
 22
0.0
 32
0.0
 42
50.0
 43
0.0
 44
0.0
 50
0.0
 71
    16
  0
VIEW
  2
AM_VIEW3
 70
     0
 40
277.50000000000011
 10
249.64779005524869
 20
138.75
 41
499.29558011049721
 11
0.0
 21
0.0
 31
1.0
 12
0.0
 22
0.0
 32
0.0
 42
50.0
 43
0.0
 44
0.0
 50
0.0
 71
    16
  0
VIEW
  2
AM_VIEW4
 70
     0
 40
277.50000000000011
 10
603.85220994475117
 20
138.75
 41
499.29558011049721
 11
0.0
 21
0.0
 31
1.0
 12
0.0
 22
0.0
 32
0.0
 42
50.0
 43
0.0
 44
0.0
 50
0.0
 71
    16
  0
VIEW
  2
AM_VIEW5
 70
     0
 40
277.50000000000011
 10
426.75
 20
277.50000000000011
 41
499.2955801104971
 11
0.0
 21
0.0
 31
1.0
 12
0.0
 22
0.0
 32
0.0
 42
50.0
 43
0.0
 44
0.0
 50
0.0
 71
    16
  0
VIEW
  2
AM_VIEW6
 70
     0
 40
554.99445000000014
 10
426.75
 20
277.5
 41
998.5811743093924
 11
0.0
 21
0.0
 31
1.0
 12
0.0
 22
0.0
 32
0.0
 42
50.0
 43
0.0
 44
0.0
 50
0.0
 71
    16
  0
ENDTAB
  0
TABLE
  2
UCS
 70
     0
  0
ENDTAB
  0
TABLE
  2
APPID
 70
    96
  0
APPID
  2
ACAD
 70
     0
  0
APPID
  2
MCAD_NO_VIS
 70
     0
  0
APPID
  2
ACAD_TEMP_GRAPHIC
 70
     0
  0
APPID
  2
AD_DRAW
 70
     0
  0
APPID
  2
DESIGNERASSEMBLIES
 70
     0
  0
APPID
  2
ASURF_PCURVE_APPNAME
 70
     0
  0
APPID
  2
GENIUS_GE3SECT_13
 70
     0
  0
APPID
  2
GENIUS_GENCFG_13
 70
     0
  0
APPID
  2
GENIUS_GE3CFG0_13
 70
     0
  0
APPID
  2
GENIUS_GENCFG0_13
 70
     0
  0
APPID
  2
GENIUS_GENCFG1_13
 70
     0
  0
APPID
  2
GENIUS_GENCFG2_13
 70
     0
  0
APPID
  2
GENIUS_GENCFG3_13
 70
     0
  0
APPID
  2
GENIUS_GENCFG4_13
 70
     0
  0
APPID
  2
GENIUS_GEVCFG0_13
 70
     0
  0
APPID
  2
GENIUS_GENOENT_13
 70
     0
  0
APPID
  2
GENIUS_GENREC_14
 70
     0
  0
APPID
  2
GENIUS_GENODEF_13
 70
     0
  0
APPID
  2
GENIUS_GENOBJ-N-REC_13
 70
     0
  0
APPID
  2
GENIUS_GENHINW_13
 70
     0
  0
APPID
  2
GENIUS_FIRSTVISTXT_14
 70
     0
  0
APPID
  2
GENIUS_GENOBJ-N-LEADER_13
 70
     0
  0
APPID
  2
GENIUS_GENOREF_13
 70
     0
  0
APPID
  2
GENIUS_GENOLIS_13
 70
     0
  0
APPID
  2
GEV_VCCNULL_SWITCH_OFF
 70
     0
  0
APPID
  2
GENIUS_GENDTOL_13
 70
     0
  0
APPID
  2
GENIUS_GEFCFG0_13
 70
     0
  0
APPID
  2
GENIUS_GENOBJ-N-TIT_13
 70
     0
  0
APPID
  2
GENIUS_GENTITLE_13
 70
     0
  0
APPID
  2
GENIUS_GENZVEED_13
 70
     0
  0
APPID
  2
GENIUS_GENOBJ-N-SDF_13
 70
     0
  0
APPID
  2
GENIUS_GENSCREG_13
 70
     0
  0
APPID
  2
GENIUS_DUMCFG0_13
 70
     0
  0
APPID
  2
GEVID936201362
 70
     0
  0
APPID
  2
GEVDC
 70
     0
  0
APPID
  2
GEVCON
 70
     0
  0
APPID
  2
VCC
 70
     0
  0
APPID
  2
GEVPT
 70
     0
  0
APPID
  2
GEVIT
 70
     0
  0
APPID
  2
GENBH
 70
     0
  0
APPID
  2
GEVMK
 70
     0
  0
APPID
  2
GENIUS_GENBH_13
 70
     0
  0
APPID
  2
GENIUS_GENOBJ-NBEHI-BHF_13
 70
     0
  0
APPID
  2
GENIUS_GENOBJ-NBEHI-BHB_13
 70
     0
  0
APPID
  2
GENIUS_GENOBJ-F-DESC_13
 70
     0
  0
APPID
  2
GENIUS_GEFDESC_14
 70
     0
  0
APPID
  2
GENIUS_GENOBJ-F-PART_13
 70
     0
  0
APPID
  2
GENIUS_GEFSTDP_13
 70
     0
  0
APPID
  2
GENIUS_GEFPARTINS_13
 70
     0
  0
APPID
  2
GENIUS_GENTRA_14
 70
     0
  0
APPID
  2
GENIUS_GENINF13_13
 70
     0
  0
APPID
  2
GENIUS_GENOBJ-N-INFOPT_13
 70
     0
  0
APPID
  2
GENIUS_GENOBJ-N-RSSYM_13
 70
     0
  0
APPID
  2
GENIUS_GENSYMENT_13
 70
     0
  0
APPID
  2
GENIUS_GENSCSYM_13
 70
     0
  0
APPID
  2
GENIUS_GEFINFNAM_13
 70
     0
  0
APPID
  2
GENIUS_GENSCREG_15
 70
     0
  0
APPID
  2
GENIUS_GENOBJ-N-CEN_13
 70
     0
  0
APPID
  2
GENIUS_GENOBJ-N-CRS_13
 70
     0
  0
APPID
  2
GENIUS_GENOBJ-N-CRC_13
 70
     0
  0
APPID
  2
GENIUS_GENCRC_14
 70
     0
  0
APPID
  2
GEVID942827039
 70
     0
  0
APPID
  2
GEVID942827040
 70
     0
  0
APPID
  2
GEVID942827041
 70
     0
  0
APPID
  2
GENIUS_GENOBJ-F-SCPASSM_13
 70
     0
  0
APPID
  2
GENIUS_GENDIMSH_14
 70
     0
  0
APPID
  2
GENIUS_GENFIL_13
 70
     0
  0
APPID
  2
GENIUS_GENOBJ-N-CHA_13
 70
     0
  0
APPID
  2
GENIUS_GENOBJ-N-FIL_13
 70
     0
  0
APPID
  2
GEVID942827042
 70
     0
  0
APPID
  2
GEVID946020473
 70
     0
  0
APPID
  2
GEVID946020474
 70
     0
  0
APPID
  2
GEVID946020475
 70
     0
  0
APPID
  2
GENIUS_GENOBJ-N-HTC_13
 70
     0
  0
APPID
  2
GENIUS_GENHATCH_13
 70
     0
  0
APPID
  2
GEVID948854295
 70
     0
  0
APPID
  2
GEVID939402019
 70
     0
  0
APPID
  2
GEVID952919491
 70
     0
  0
APPID
  2
GEVID952919492
 70
     0
  0
APPID
  2
GENIUS_GEFWELD_13
 70
     0
  0
APPID
  2
GENIUS_GENOBJ-F-WELS_13
 70
     0
  0
APPID
  2
GEVID952919493
 70
     0
  0
APPID
  2
GENIUS_GENOBJ-N-RSBK_13
 70
     0
  0
APPID
  2
GENIUS_GENOBJ-N-LIB_13
 70
     0
  0
APPID
  2
GENIUS_GENSCALE_13
 70
     0
  0
APPID
  2
GEVID986376691
 70
     0
  0
APPID
  2
ACATTRIBSERVICES
 70
     0
  0
APPID
  2
DCO15
 70
     0
  0
APPID
  2
ACADM_DIM_EDIT
 70
     0
  0
APPID
  2
AMDT_DM_ADJ
 70
     0
  0
APPID
  2
ACAD_MLEADERVER
 70
     0
  0
APPID
  2
ACAD_DSTYLE_DIMBREAK
 70
     0
  0
APPID
  2
ACAD_DSTYLE_DIMJAG
 70
     0
  0
APPID
  2
ACAD_NAV_VCDISPLAY
 70
     0
  0
APPID
  2
ACADANNOPO
 70
     0
  0
APPID
  2
ACAD_EXEMPT_FROM_CAD_STANDARDS
 70
     0
  0
ENDTAB
  0
TABLE
  2
DIMSTYLE
 70
    15
  0
DIMSTYLE
  2
STANDARD
 70
     0
  3

  4

  5

  6

  7

 40
1.0
 41
0.18
 42
0.0625
 43
0.38
 44
0.18
 45
0.0
 46
0.0
 47
0.0
 48
0.0
140
0.18
141
0.09
142
0.0
143
25.399999999999999
144
1.0
145
0.0
146
1.0
147
0.09
 71
     0
 72
     0
 73
     1
 74
     1
 75
     0
 76
     0
 77
     0
 78
     0
170
     0
171
     2
172
     0
173
     0
174
     0
175
     0
176
     0
177
     0
178
     0
  0
DIMSTYLE
  2
AM_JIS
 70
     0
  3

  4
"
  5

  6

  7

 40
1.0
 41
2.5
 42
1.0
 43
7.0
 44
1.0
 45
0.0
 46
0.0
 47
0.1
 48
0.1000000001
140
2.5
141
0.0
142
0.0
143
0.0393701
144
1.0
145
0.0
146
0.71
147
1.0
 71
     0
 72
     0
 73
     0
 74
     0
 75
     0
 76
     0
 77
     3
 78
     8
170
     0
171
     2
172
     1
173
     0
174
     0
175
     0
176
   256
177
   256
178
     4
  0
DIMSTYLE
  2
AM_JIS$3
 70
     0
  3

  4
"
  5

  6

  7

 40
1.0
 41
2.5
 42
1.0
 43
7.0
 44
1.0
 45
0.0
 46
0.0
 47
0.1
 48
0.1000000001
140
2.5
141
0.0
142
0.0
143
0.0393701
144
1.0
145
0.0
146
0.71
147
1.0
 71
     0
 72
     0
 73
     0
 74
     1
 75
     0
 76
     0
 77
     3
 78
     8
170
     0
171
     2
172
     0
173
     0
174
     0
175
     0
176
   256
177
   256
178
     4
  0
DIMSTYLE
  2
AM_JIS$4
 70
     0
  3

  4
"
  5

  6

  7

 40
1.0
 41
2.5
 42
1.0
 43
7.0
 44
1.0
 45
0.0
 46
0.0
 47
0.1
 48
0.1000000001
140
2.5
141
0.0
142
0.0
143
0.0393701
144
1.0
145
0.0
146
0.71
147
1.0
 71
     0
 72
     0
 73
     0
 74
     0
 75
     0
 76
     0
 77
     3
 78
     8
170
     0
171
     2
172
     0
173
     0
174
     0
175
     0
176
   256
177
   256
178
     4
  0
DIMSTYLE
  2
AM_JIS$6
 70
     0
  3

  4
"
  5

  6

  7

 40
1.0
 41
2.5
 42
1.0
 43
7.0
 44
1.0
 45
0.0
 46
0.0
 47
0.1
 48
0.1000000001
140
2.5
141
0.0
142
0.0
143
0.0393701
144
1.0
145
0.0
146
0.71
147
1.0
 71
     0
 72
     0
 73
     0
 74
     0
 75
     0
 76
     0
 77
     0
 78
     8
170
     0
171
     2
172
     1
173
     0
174
     0
175
     0
176
   256
177
   256
178
     4
  0
DIMSTYLE
  2
AM_JIS$7
 70
     0
  3

  4
"
  5

  6

  7

 40
1.0
 41
2.5
 42
1.0
 43
7.0
 44
1.0
 45
0.0
 46
0.0
 47
0.1
 48
0.1000000001
140
2.5
141
0.0
142
0.0
143
0.0393701
144
1.0
145
0.0
146
0.71
147
1.0
 71
     0
 72
     0
 73
     0
 74
     0
 75
     0
 76
     0
 77
     3
 78
     8
170
     0
171
     2
172
     1
173
     0
174
     0
175
     0
176
   256
177
   256
178
     4
  0
DIMSTYLE
  2
AM_JIS$SF
 70
     0
  3

  4
"
  5
OPEN30
  6
OPEN30
  7
OPEN30
 40
1.0
 41
2.5
 42
1.0
 43
10.0
 44
1.0
 45
0.0
 46
0.0
 47
0.1
 48
0.1
140
3.5
141
0.0
142
0.0
143
0.0393701
144
1.0
145
0.0
146
0.71
147
1.5
 71
     0
 72
     0
 73
     0
 74
     0
 75
     1
 76
     1
 77
     3
 78
     8
170
     0
171
     2
172
     1
173
     0
174
     0
175
     0
176
   256
177
   256
178
     4
  0
DIMSTYLE
  2
AM_JIS$SH
 70
     0
  3

  4
"
  5

  6
NONE
  7

 40
1.0
 41
2.5
 42
1.0
 43
10.0
 44
1.0
 45
0.0
 46
0.0
 47
0.1
 48
0.1
140
3.5
141
0.0
142
0.0
143
0.0393701
144
1.0
145
0.0
146
0.71
147
1.5
 71
     0
 72
     0
 73
     0
 74
     0
 75
     1
 76
     0
 77
     3
 78
     8
170
     0
171
     2
172
     1
173
     1
174
     0
175
     0
176
   256
177
   256
178
     4
  0
DIMSTYLE
  2
AM_ISO
 70
     0
  3

  4
"
  5

  6

  7

 40
1.0
 41
2.5
 42
1.0
 43
10.0
 44
1.0
 45
0.0
 46
0.0
 47
0.0
 48
0.000000001
140
3.0
141
0.0
142
0.0
143
0.0393701
144
1.0
145
0.0
146
0.71
147
1.299999999999998
 71
     1
 72
     0
 73
     0
 74
     0
 75
     0
 76
     0
 77
     1
 78
     8
170
     0
171
     2
172
     1
173
     0
174
     0
175
     0
176
   256
177
   256
178
     4
  0
DIMSTYLE
  2
AM_ISO$3
 70
     0
  3

  4
"
  5

  6

  7

 40
1.0
 41
2.5
 42
1.0
 43
10.0
 44
1.0
 45
0.0
 46
0.0
 47
0.0
 48
0.000000001
140
2.5
141
0.0
142
0.0
143
0.0393701
144
1.0
145
0.0
146
0.71
147
1.299999999999998
 71
     1
 72
     0
 73
     0
 74
     1
 75
     0
 76
     0
 77
     1
 78
     8
170
     0
171
     2
172
     0
173
     0
174
     0
175
     0
176
   256
177
   256
178
     4
  0
DIMSTYLE
  2
AM_ISO$4
 70
     0
  3

  4
"
  5

  6

  7

 40
1.0
 41
2.5
 42
1.0
 43
10.0
 44
1.0
 45
0.0
 46
0.0
 47
0.0
 48
0.000000001
140
2.5
141
0.0
142
0.0
143
0.0393701
144
1.0
145
0.0
146
0.71
147
1.299999999999998
 71
     1
 72
     0
 73
     0
 74
     1
 75
     0
 76
     0
 77
     1
 78
     8
170
     0
171
     2
172
     0
173
     0
174
     0
175
     0
176
   256
177
   256
178
     4
  0
DIMSTYLE
  2
AM_ISO$6
 70
     0
  3

  4
"
  5

  6

  7

 40
1.0
 41
2.5
 42
1.0
 43
10.0
 44
1.0
 45
0.0
 46
0.0
 47
0.0
 48
0.000000001
140
2.5
141
0.0
142
0.0
143
0.0393701
144
1.0
145
0.0
146
0.71
147
1.299999999999998
 71
     1
 72
     0
 73
     0
 74
     0
 75
     0
 76
     0
 77
     0
 78
     8
170
     0
171
     2
172
     1
173
     0
174
     0
175
     0
176
   256
177
   256
178
     4
  0
DIMSTYLE
  2
AM_ISO$7
 70
     0
  3

  4
"
  5

  6

  7

 40
1.0
 41
2.5
 42
1.0
 43
10.0
 44
1.0
 45
0.0
 46
0.0
 47
0.0
 48
0.000000001
140
2.5
141
0.0
142
0.0
143
0.0393701
144
1.0
145
0.0
146
0.71
147
1.299999999999998
 71
     1
 72
     0
 73
     0
 74
     0
 75
     0
 76
     0
 77
     1
 78
     8
170
     0
171
     2
172
     1
173
     0
174
     0
175
     0
176
   256
177
   256
178
     4
  0
DIMSTYLE
  2
AM_ISO$SF
 70
     0
  3

  4
"
  5

  6

  7

 40
1.0
 41
2.5
 42
1.0
 43
10.0
 44
1.0
 45
0.0
 46
0.0
 47
0.1
 48
0.1
140
3.5
141
0.0
142
0.0
143
0.0393701
144
1.0
145
0.0
146
0.71
147
1.5
 71
     0
 72
     0
 73
     0
 74
     0
 75
     1
 76
     1
 77
     1
 78
     8
170
     0
171
     2
172
     1
173
     0
174
     0
175
     0
176
   256
177
   256
178
     4
  0
DIMSTYLE
  2
AM_ISO$SH
 70
     0
  3

  4
"
  5

  6
GENAXEH
  7

 40
1.0
 41
2.5
 42
1.0
 43
10.0
 44
1.0
 45
0.0
 46
0.0
 47
0.1
 48
0.1
140
3.5
141
0.0
142
0.0
143
0.0393701
144
2.0
145
0.0
146
0.71
147
1.5
 71
     0
 72
     0
 73
     0
 74
     0
 75
     1
 76
     1
 77
     1
 78
     8
170
     0
171
     2
172
     1
173
     1
174
     0
175
     0
176
   256
177
   256
178
     4
  0
ENDTAB
  0
ENDSEC
  0
SECTION
  2
BLOCKS
  0
BLOCK
  8
0
  2
$MODEL_SPACE
 70
     0
 10
0.0
 20
0.0
 30
0.0
  3
$MODEL_SPACE
  1

  0
ENDBLK
  5
1A
  8
0
  0
BLOCK
 67
     1
  8
0
  2
$PAPER_SPACE
 70
     0
 10
0.0
 20
0.0
 30
0.0
  3
$PAPER_SPACE
  1

  0
ENDBLK
  5
17
 67
     1
  8
0
  0
BLOCK
  8
0
  2
_OPEN30
 70
     0
 10
0.0
 20
0.0
 30
0.0
  3
_OPEN30
  1

  0
LINE
  5
21C5
  8
0
 62
     0
 10
-1.0
 20
0.26794919
 30
0.0
 11
0.0
 21
0.0
 31
0.0
  0
LINE
  5
21C6
  8
0
 62
     0
 10
0.0
 20
0.0
 30
0.0
 11
-1.0
 21
-0.26794919
 31
0.0
  0
LINE
  5
21C7
  8
0
 62
     0
 10
0.0
 20
0.0
 30
0.0
 11
-1.0
 21
0.0
 31
0.0
  0
ENDBLK
  5
21C9
  8
0
  0
BLOCK
  8
0
  2
GENAXEH
 70
     0
 10
0.0
 20
0.0
 30
0.0
  3
GENAXEH
  1

  0
LINE
  5
21D0
  8
0
 10
-1.0
 20
0.0
 30
0.0
 11
1.0
 21
0.0
 31
0.0
  0
ENDBLK
  5
21D2
  8
0
  0
BLOCK
  8
0
  2
_NONE
 70
     0
 10
0.0
 20
0.0
 30
0.0
  3
_NONE
  1

  0
ENDBLK
  5
8193
  8
0
  0
BLOCK
  8
0
  2
*U5
 70
     1
 10
0.0
 20
0.0
 30
0.0
  3
*U5
  1

  0
SOLID
  5
F506
  8
AM_0
  6
CONTINUOUS
 10
-333.97107434277268
 20
472.85957464245308
 30
0.0
 11
-336.47107434277268
 21
472.85957464245308
 31
0.0
 12
-336.47107434277268
 22
470.35957464245308
 32
0.0
 13
-336.47107434277268
 23
470.35957464245308
 33
0.0
210
0.0
220
0.0
230
-1.0
  0
LINE
  5
F507
  8
AM_0
  6
CONTINUOUS
 10
336.47107434277268
 20
472.85957464245308
 30
0.0
 11
336.47107434277268
 21
470.35957464245308
 31
0.0
  0
LINE
  5
F508
  8
AM_0
  6
CONTINUOUS
 10
336.47107434277268
 20
470.35957464245308
 30
0.0
 11
333.97107434277268
 21
472.85957464245308
 31
0.0
  0
ENDBLK
  5
F50A
  8
0
  0
BLOCK
  8
0
  2
*U6
 70
     1
 10
0.0
 20
0.0
 30
0.0
  3
*U6
  1

  0
SOLID
  5
F50C
  8
AM_0
  6
CONTINUOUS
 10
-340.97107434277319
 20
472.85957464245308
 30
0.0
 11
-343.47107434277319
 21
472.85957464245308
 31
0.0
 12
-340.97107434277319
 22
470.35957464245308
 32
0.0
 13
-340.97107434277319
 23
470.35957464245308
 33
0.0
210
0.0
220
0.0
230
-1.0
  0
LINE
  5
F50D
  8
AM_0
  6
CONTINUOUS
 10
343.47107434277319
 20
472.85957464245308
 30
0.0
 11
340.97107434277319
 21
470.35957464245308
 31
0.0
  0
LINE
  5
F50E
  8
AM_0
  6
CONTINUOUS
 10
340.97107434277319
 20
470.35957464245308
 30
0.0
 11
340.97107434277319
 21
472.85957464245308
 31
0.0
  0
ENDBLK
  5
F510
  8
0
  0
BLOCK
  8
0
  2
*U7
 70
     1
 10
0.0
 20
0.0
 30
0.0
  3
*U7
  1

  0
SOLID
  5
F512
  8
AM_0
  6
CONTINUOUS
 10
-336.47107434277268
 20
560.35960857699149
 30
0.0
 11
-336.47107434277268
 21
557.85960857699126
 31
0.0
 12
-333.97107434277268
 22
557.85960857699126
 32
0.0
 13
-333.97107434277268
 23
557.85960857699126
 33
0.0
210
0.0
220
0.0
230
-1.0
  0
LINE
  5
F513
  8
AM_0
  6
CONTINUOUS
 10
336.47107434277268
 20
560.35960857699149
 30
0.0
 11
336.47107434277268
 21
557.85960857699126
 31
0.0
  0
LINE
  5
F514
  8
AM_0
  6
CONTINUOUS
 10
333.97107434277268
 20
557.85960857699126
 30
0.0
 11
336.47107434277268
 21
560.35960857699149
 31
0.0
  0
ENDBLK
  5
F516
  8
0
  0
BLOCK
  8
0
  2
*U8
 70
     1
 10
0.0
 20
0.0
 30
0.0
  3
*U8
  1

  0
SOLID
  5
F518
  8
AM_0
  6
CONTINUOUS
 10
-340.97107434277319
 20
560.35960857699149
 30
0.0
 11
-343.47107434277319
 21
557.85960857699126
 31
0.0
 12
-340.97107434277319
 22
557.85960857699126
 32
0.0
 13
-340.97107434277319
 23
557.85960857699126
 33
0.0
210
0.0
220
0.0
230
-1.0
  0
LINE
  5
F519
  8
AM_0
  6
CONTINUOUS
 10
340.97107434277319
 20
560.35960857699149
 30
0.0
 11
343.47107434277319
 21
557.85960857699126
 31
0.0
  0
LINE
  5
F51A
  8
AM_0
  6
CONTINUOUS
 10
340.97107434277319
 20
557.85960857699126
 30
0.0
 11
340.97107434277319
 21
560.35960857699149
 31
0.0
  0
ENDBLK
  5
F51C
  8
0
  0
ENDSEC
  0
SECTION
  2
ENTITIES
  0
POINT
  5
1B94
  8
0
 10
0.0
 20
0.0
 30
0.0
1001
GENIUS_GENODEF_13
1002
{
1000
HIER
1070
     1
1002
}
1002
{
1000
MANEDIT
1070
     0
1002
}
1002
{
1000
NOSEL
1070
     0
1002
}
1002
{
1000
BEHIND
1070
     0
1002
}
1002
{
1000
REACTOR
1002
}
1001
GENIUS_GENOBJ-N-SDF_13
1002
{
1000
OWNER
1000
GEN
1002
}
1001
GENIUS_GENOENT_13
1002
{
1000
MYREF
1005
1B94
1002
}
1002
{
1000
GRP
1005
0
1002
}
1001
GENIUS_GENOLIS_13
1002
{
1000
ENT
1005
89
1002
}
  0
LINE
  5
D411
  8
AM_0
 10
422.47107428269982
 20
266.4017327715041
 30
0.0
 11
422.47107428269982
 21
217.82244810353529
 31
0.0
  0
LINE
  5
D412
  8
AM_0
 10
297.47107428269987
 20
266.4017327715041
 30
0.0
 11
297.47107428269987
 21
218.25422605763691
 31
0.0
  0
POLYLINE
  5
D413
  8
AM_0
 66
     1
 10
0.0
 20
0.0
 30
0.0
  0
VERTEX
  5
D414
  8
AM_0
 10
153.8432082040751
 20
225.7715204375196
 30
0.0
 42
0.0007337051
  0
VERTEX
  5
D415
  8
AM_0
 10
153.8873482040751
 20
225.1691004375196
 30
0.0
 42
0.00075211323
  0
VERTEX
  5
D416
  8
AM_0
 10
153.9332882040751
 20
224.56671043751959
 30
0.0
 42
0.0007297491
  0
VERTEX
  5
D417
  8
AM_0
 10
153.9810182040751
 20
223.96451043751949
 30
0.0
 42
0.00073593041
  0
VERTEX
  5
D418
  8
AM_0
 10
154.03049820407509
 20
223.36252043751969
 30
0.0
 42
0.00074742739
  0
VERTEX
  5
D419
  8
AM_0
 10
154.0817682040751
 20
222.7606504375197
 30
0.0
 42
0.00073217363
  0
VERTEX
  5
D41A
  8
AM_0
 10
154.13482820407509
 20
222.15885043751979
 30
0.0
 42
0.00073754168
  0
VERTEX
  5
D41B
  8
AM_0
 10
154.18964820407521
 20
221.5573104375197
 30
0.0
 42
0.00073075073
  0
VERTEX
  5
D41C
  8
AM_0
 10
154.24622820407509
 20
220.95595043751979
 30
0.0
 42
0.00074550816
  0
VERTEX
  5
D41D
  8
AM_0
 10
154.30456820407511
 20
220.3548904375196
 30
0.0
 42
0.00074288416
  0
VERTEX
  5
D41E
  8
AM_0
 10
154.36471820407519
 20
219.75387043751951
 30
0.0
 42
0.00072504001
  0
VERTEX
  5
D41F
  8
AM_0
 10
154.42662820407509
 20
219.1531204375197
 30
0.0
 42
0.00074640667
  0
VERTEX
  5
D420
  8
AM_0
 10
154.49029820407509
 20
218.55252043751969
 30
0.0
  0
SEQEND
  5
D421
  8
AM_0
  0
LINE
  5
D422
  8
AM_0
 10
142.96496820407509
 20
183.36209043751961
 30
0.0
 11
142.96496820407509
 21
300.86209043751961
 31
0.0
  0
LINE
  5
D423
  8
AM_0
 10
150.96496820407509
 20
189.11209043751961
 30
0.0
 11
150.96496820407509
 21
295.11209043751961
 31
0.0
  0
LINE
  5
D424
  8
AM_0
 10
137.96496820407509
 20
279.29715043751958
 30
0.0
 11
137.96496820407509
 21
204.92606043751979
 31
0.0
  0
LINE
  5
D425
  8
AM_0
 10
87.463538104075184
 20
186.11209043751961
 30
0.0
 11
87.463538104075184
 21
237.11209043751961
 31
0.0
  0
LINE
  5
D426
  8
AM_0
 10
92.964968204075177
 20
276.64115043751968
 30
0.0
 11
92.964968204075177
 21
207.58304043751949
 31
0.0
  0
LINE
  5
D427
  8
AM_0
 10
92.463538104075184
 20
187.11209043751961
 30
0.0
 11
92.463538104075184
 21
237.1120904375195
 31
0.0
  0
LINE
  5
D428
  8
AM_0
 10
95.464968204075177
 20
294.89408043751962
 30
0.0
 11
95.464968204075177
 21
189.36209043751981
 31
0.0
  0
LINE
  5
D429
  8
AM_0
 10
258.96496820407509
 20
186.11209043751961
 30
0.0
 11
258.96496820407509
 21
298.11209043751961
 31
0.0
  0
CIRCLE
  5
D42B
  8
AM_0
 10
377.47107428269987
 20
242.1120904375197
 30
0.0
 40
27.500000819563869
  0
LINE
  5
D42D
  8
ﾁｭｳｼﾝｾﾝ1
 10
377.47107428269987
 20
298.11209195743828
 30
0.0
 11
377.47107428269987
 21
162.11209072064199
 31
0.0
  0
LINE
  5
D42E
  8
AM_0
 10
291.47107171970021
 20
282.11209162961262
 30
0.0
 11
291.47107171970021
 21
214.11208924542731
 31
0.0
  0
ARC
  5
D42F
  8
AM_0
 10
510.4710564609108
 20
242.1120904375197
 30
0.0
 40
236.0
 50
180.00000500895041
 51
190.56397173027369
  0
LINE
  5
D430
  8
AM_0
 10
266.96496820407521
 20
186.1120904375197
 30
0.0
 11
266.96496820407521
 21
298.11209043751973
 31
0.0
  0
LINE
  5
D431
  8
AM_0
 10
278.47107171970009
 20
191.4718087602736
 30
0.0
 11
278.47107171970009
 21
292.75237974416041
 31
0.0
  0
LINE
  5
D432
  8
AM_0
 10
152.6449582040751
 20
208.7421004375197
 30
0.0
 11
219.98498820407519
 21
208.7421004375197
 31
0.0
  0
LINE
  5
D433
  8
AM_0
 10
152.42498820407511
 20
215.62210043751961
 30
0.0
 11
219.96496820407509
 21
215.62210043751961
 31
0.0
  0
LINE
  5
D434
  8
AM_0
 10
219.96496820407509
 20
216.11209043751961
 30
0.0
 11
153.3249582040753
 21
216.11209043751961
 31
0.0
  0
LINE
  5
D435
  8
AM_0
 10
154.17498820407511
 20
185.83206043751969
 30
0.0
 11
251.09497820407509
 21
185.83206043751969
 31
0.0
  0
LINE
  5
D436
  8
AM_0
 10
154.21496820407509
 20
182.98209043751959
 30
0.0
 11
251.09497820407509
 21
182.98209043751959
 31
0.0
  0
LINE
  5
D437
  8
AM_0
 10
154.23498820407511
 20
181.13211043751949
 30
0.0
 11
251.09497820407509
 21
181.13211043751949
 31
0.0
  0
LINE
  5
D438
  8
AM_0
 10
154.25494820407511
 20
180.22208043751971
 30
0.0
 11
251.09503820407519
 21
180.22208043751971
 31
0.0
  0
LINE
  5
D439
  8
AM_0
 10
252.30499820407519
 20
206.11209043751961
 30
0.0
 11
153.3249582040753
 21
206.11209043751961
 31
0.0
  0
LINE
  5
D43A
  8
AM_0
 10
252.30499820407519
 20
208.11209043751961
 30
0.0
 11
153.3249582040753
 21
208.11209043751961
 31
0.0
  0
LINE
  5
D43B
  8
AM_0
 10
252.29779820407509
 20
218.11209043751961
 30
0.0
 11
153.3249582040753
 21
218.11209043751961
 31
0.0
  0
LINE
  5
D43C
  8
AM_0
 10
152.6449582040751
 20
205.39212043751951
 30
0.0
 11
255.78497820407509
 21
205.39212043751951
 31
0.0
  0
LINE
  5
D43D
  8
AM_0
 10
152.42498820407511
 20
218.55203043751959
 30
0.0
 11
255.99920820407519
 21
218.55203043751959
 31
0.0
  0
LINE
  5
D43E
  8
AM_0
 10
96.463538104075184
 20
177.11209043751961
 30
0.0
 11
133.96496820407509
 21
177.11209043751961
 31
0.0
  0
LINE
  5
D43F
  8
AM_0
 10
97.463538104075184
 20
182.11209043751961
 30
0.0
 11
120.96496820407511
 21
182.11209043751961
 31
0.0
  0
LINE
  5
D440
  8
AM_0
 10
95.464968204075177
 20
198.2211004375196
 30
0.0
 11
137.96496820407509
 21
198.2211004375196
 31
0.0
  0
LINE
  5
D441
  8
AM_0
 10
95.464968204075177
 20
208.47110043751971
 30
0.0
 11
137.96496820407509
 21
208.47110043751971
 31
0.0
  0
LINE
  5
D442
  8
AM_0
 10
94.964968204075134
 20
189.36209043751981
 30
0.0
 11
142.96496820407509
 21
189.36209043751981
 31
0.0
  0
ARC
  5
D443
  8
AM_0
 10
96.463538104075184
 20
186.11209043751961
 30
0.0
 40
9.0
 50
180.000020000002
 51
270.00001100000242
  0
LINE
  5
D444
  8
AM_0
 10
92.964968204075177
 20
198.85916043751959
 30
0.0
 11
92.964968204075177
 21
191.36209043751981
 31
0.0
  0
ARC
  5
D445
  8
AM_0
 10
97.463538104075184
 20
187.11209043751961
 30
0.0
 40
5.0
 50
180.0
 51
270.00001100000242
  0
ARC
  5
D446
  8
AM_0
 10
94.964968204075134
 20
191.36209043751981
 30
0.0
 40
2.0
 50
179.99997999999789
 51
269.99995000000149
  0
LINE
  5
D447
  8
AM_0
 10
94.164978204075169
 20
207.82107043751969
 30
0.0
 11
94.164978204075169
 21
198.62112043751981
 31
0.0
  0
LINE
  5
D448
  8
AM_0
 10
94.164978204075169
 20
207.82107043751969
 30
0.0
 11
95.464968204075177
 21
207.82107043751969
 31
0.0
  0
LINE
  5
D449
  8
AM_0
 10
93.864998204075164
 20
207.72110043751971
 30
0.0
 11
94.164978204075169
 21
207.72110043751971
 31
0.0
  0
LINE
  5
D44A
  8
AM_0
 10
94.164978204075169
 20
198.62112043751981
 30
0.0
 11
95.464968204075177
 21
198.62112043751981
 31
0.0
  0
LINE
  5
D44B
  8
AM_0
 10
93.864998204075164
 20
198.72110043751971
 30
0.0
 11
94.164978204075169
 21
198.72110043751971
 31
0.0
  0
ARC
  5
D44C
  8
AM_0
 10
93.864998204075164
 20
201.72110043751979
 30
0.0
 40
3.0
 50
252.54179625232339
 51
269.99995000000149
  0
ARC
  5
D44D
  8
AM_0
 10
93.864998204075164
 20
204.72110043751971
 30
0.0
 40
3.0
 50
89.999988999997555
 51
107.45820374767661
  0
LINE
  5
D44E
  8
AM_0
 10
117.96496820407511
 20
183.36209043751981
 30
0.0
 11
142.96496820407509
 21
183.36209043751981
 31
0.0
  0
LINE
  5
D44F
  8
AM_0
 10
117.96496820407511
 20
183.36209043751981
 30
0.0
 11
117.96496820407511
 21
189.36209043751981
 31
0.0
  0
LINE
  5
D450
  8
AM_0
 10
120.96496820407511
 20
183.36209043751961
 30
0.0
 11
120.96496820407511
 21
177.11209043751961
 31
0.0
  0
LINE
  5
D451
  8
AM_0
 10
133.96496820407509
 20
182.11209043751961
 30
0.0
 11
133.96496820407509
 21
177.11209043751961
 31
0.0
  0
LINE
  5
D452
  8
AM_0
 10
130.96496820407509
 20
183.36209043751961
 30
0.0
 11
130.96496820407509
 21
177.11209043751961
 31
0.0
  0
LINE
  5
D453
  8
AM_0
 10
130.96496820407509
 20
182.11209043751961
 30
0.0
 11
133.96496820407509
 21
182.11209043751961
 31
0.0
  0
LINE
  5
D454
  8
AM_0
 10
156.3249582040753
 20
205.46210043751969
 30
0.0
 11
150.96496820407509
 21
194.0121204375196
 31
0.0
  0
LINE
  5
D455
  8
AM_0
 10
137.96496820407509
 20
198.2211004375196
 30
0.0
 11
137.96496820407509
 21
189.36209043751981
 31
0.0
  0
LINE
  5
D456
  8
AM_0
 10
150.96496820407509
 20
191.32208043751959
 30
0.0
 11
152.25494820407511
 21
182.83212043751951
 31
0.0
  0
LINE
  5
D457
  8
AM_0
 10
150.96496820407509
 20
192.6720604375196
 30
0.0
 11
152.2449382040752
 21
184.66211043751969
 31
0.0
  0
LINE
  5
D458
  8
AM_0
 10
150.96496820407509
 20
191.32208043751959
 30
0.0
 11
152.27496820407509
 21
181.94205043751961
 31
0.0
  0
ARC
  5
D459
  8
AM_0
 10
154.16369820407519
 20
187.82620043751959
 30
0.0
 40
1.994108999999999
 50
190.81223000000159
 51
270.32445199999722
  0
ARC
  5
D45A
  8
AM_0
 10
154.25146820407511
 20
182.21768043751959
 30
0.0
 40
1.995633
 50
187.93887000000001
 51
270.10029199999769
  0
ARC
  5
D45B
  8
AM_0
 10
154.21521820407509
 20
184.9773304375197
 30
0.0
 40
1.9952829999999999
 50
189.09164999999931
 51
269.99379600000321
  0
ARC
  5
D45C
  8
AM_0
 10
154.22955820407509
 20
183.12882043751961
 30
0.0
 40
1.9967330000000001
 50
188.5461200000029
 51
270.15603300000112
  0
LINE
  5
D45D
  8
AM_0
 10
142.96496820407509
 20
189.11209043751961
 30
0.0
 11
150.96496820407509
 21
189.11209043751961
 31
0.0
  0
LINE
  5
D45E
  8
AM_0
 10
150.96496820407509
 20
194.01206043751949
 30
0.0
 11
152.20495820407521
 21
187.4520904375195
 31
0.0
  0
ARC
  5
D45F
  8
AM_0
 10
153.50958820407519
 20
207.11209043751961
 30
0.0
 40
1.0000138999999999
 50
89.691659999999231
 51
270.30834000000073
  0
ARC
  5
D460
  8
AM_0
 10
153.50958820407519
 20
217.11209043751961
 30
0.0
 40
1.0000138999999999
 50
89.691659999999231
 51
270.30834000000073
  0
ARC
  5
D461
  8
AM_0
 10
152.6375782040752
 20
207.06705043751961
 30
0.0
 40
1.6750160000000001
 50
89.746129999999027
 51
270.2538549999955
  0
LINE
  5
D462
  8
AM_0
 10
143.6649782040752
 20
198.9221504375196
 30
0.0
 11
149.89495820407521
 21
198.9221504375196
 31
0.0
  0
ARC
  5
D463
  8
AM_0
 10
152.42498820407511
 20
217.0870704375196
 30
0.0
 40
1.465004
 50
90.0
 51
269.99999700000228
  0
POLYLINE
  5
D464
  8
AM_0
 66
     1
 10
0.0
 20
0.0
 30
0.0
  0
VERTEX
  5
D465
  8
AM_0
 10
154.82586820407531
 20
215.62906043751971
 30
0.0
 42
0.00068898288
  0
VERTEX
  5
D466
  8
AM_0
 10
154.8967482040749
 20
215.0543104375198
 30
0.0
 42
0.00070644354
  0
VERTEX
  5
D467
  8
AM_0
 10
154.9692482040752
 20
214.4796204375196
 30
0.0
 42
0.00069248071
  0
VERTEX
  5
D468
  8
AM_0
 10
155.0433382040751
 20
213.90531043751969
 30
0.0
 42
0.00069585665
  0
VERTEX
  5
D469
  8
AM_0
 10
155.11901820407519
 20
213.33117043751969
 30
0.0
 42
0.00068980191
  0
VERTEX
  5
D46A
  8
AM_0
 10
155.1963182040752
 20
212.75717043751959
 30
0.0
 42
0.00072080104
  0
VERTEX
  5
D46B
  8
AM_0
 10
155.27520820407511
 20
212.1833804375197
 30
0.0
 42
0.00071002307
  0
VERTEX
  5
D46C
  8
AM_0
 10
155.3557482040751
 20
211.60991043751969
 30
0.0
 42
0.00072659056
  0
VERTEX
  5
D46D
  8
AM_0
 10
155.43790820407509
 20
211.03681043751959
 30
0.0
 42
0.00069570481
  0
VERTEX
  5
D46E
  8
AM_0
 10
155.52172820407509
 20
210.4637804375196
 30
0.0
 42
0.00071266935
  0
VERTEX
  5
D46F
  8
AM_0
 10
155.60715820407509
 20
209.89101043751961
 30
0.0
 42
0.00071614426
  0
VERTEX
  5
D470
  8
AM_0
 10
155.69418820407509
 20
209.3186704375197
 30
0.0
 42
0.00072288975
  0
VERTEX
  5
D471
  8
AM_0
 10
155.78289820407511
 20
208.7463704375196
 30
0.0
  0
SEQEND
  5
D472
  8
AM_0
  0
LINE
  5
D473
  8
AM_0
 10
301.54090613084452
 20
213.34151396046889
 30
0.0
 11
308.0341197567634
 21
212.11208924542731
 31
0.0
  0
LINE
  5
D476
  8
AM_0
 10
319.97107482907529
 20
212.1120892454272
 30
0.0
 11
296.47107171970021
 21
212.11208924542731
 31
0.0
  0
LINE
  5
D477
  8
AM_0
 10
428.47107580261832
 20
176.6120907206421
 30
0.0
 11
291.47107171970021
 21
176.61209072064199
 31
0.0
  0
LINE
  5
D478
  8
AM_0
 10
428.47107580261832
 20
172.11209072064199
 30
0.0
 11
291.47107171970021
 21
172.1120907206421
 31
0.0
  0
CIRCLE
  5
D479
  8
AM_5
 10
302.47107204752569
 20
202.11208924542689
 30
0.0
 40
2.9999999999999978
  0
CIRCLE
  5
D47A
  8
AM_0
 10
302.47107204752569
 20
202.11208924542689
 30
0.0
 40
3.9999999999999978
  0
CIRCLE
  5
D47B
  8
AM_0
 10
302.47107204752569
 20
202.11208924542689
 30
0.0
 40
7.9999999999999956
  0
POLYLINE
  5
D47C
  8
AM_0
 66
     1
 10
0.0
 20
0.0
 30
0.0
 70
     1
  0
VERTEX
  5
F4F6
  8
AM_0
 10
295.97588151914238
 20
205.86208924542689
 30
0.0
  0
VERTEX
  5
F4F7
  8
AM_0
 10
295.9758815191426
 20
198.36208924542689
 30
0.0
  0
VERTEX
  5
F4F8
  8
AM_0
 10
302.47107204752569
 20
194.61208924542689
 30
0.0
  0
VERTEX
  5
F4F9
  8
AM_0
 10
308.96626257590901
 20
198.36208924542689
 30
0.0
  0
VERTEX
  5
F4FA
  8
AM_0
 10
308.96626257590901
 20
205.86208924542689
 30
0.0
  0
VERTEX
  5
F4FB
  8
AM_0
 10
302.47107204752569
 20
209.612089245427
 30
0.0
  0
SEQEND
  5
F4FC
  8
AM_0
  0
LINE
  5
D47D
  8
ﾁｭｳｼﾝｾﾝ1
 10
294.97107182400828
 20
202.11208924542689
 30
0.0
 11
309.97107227104311
 21
202.11208924542689
 31
0.0
  0
ARC
  5
D47F
  8
AM_0
 10
237.96496820407521
 20
214.61209043751961
 30
0.0
 40
1.5
 50
90.0
 51
180.00001000000091
  0
ARC
  5
D480
  8
AM_0
 10
237.96496820407521
 20
214.61209043751961
 30
0.0
 40
1.02
 50
90.0
 51
180.00001000000091
  0
ARC
  5
D481
  8
AM_0
 10
237.9449482040751
 20
209.7521104375196
 30
0.0
 40
1.0
 50
179.999989999999
 51
269.99999700000228
  0
ARC
  5
D482
  8
AM_0
 10
237.96496820407521
 20
209.61209043751961
 30
0.0
 40
1.5
 50
179.999989999999
 51
269.99999700000228
  0
ARC
  5
D483
  8
AM_0
 10
219.96496820407509
 20
214.61209043751961
 30
0.0
 40
1.5
 50
359.99999931675052
 51
90.000010000001026
  0
ARC
  5
D484
  8
AM_0
 10
219.96496820407509
 20
214.61209043751961
 30
0.0
 40
1.02
 50
359.999999316757
 51
90.000010000001026
  0
ARC
  5
D485
  8
AM_0
 10
219.98498820407519
 20
209.7521104375196
 30
0.0
 40
1.0
 50
269.99999700000228
 51
0.0
  0
ARC
  5
D486
  8
AM_0
 10
219.96496820407509
 20
209.61209043751961
 30
0.0
 40
1.5
 50
269.99999700000228
 51
0.0
  0
LINE
  5
D487
  8
AM_0
 10
220.98498820407519
 20
214.61209043751961
 30
0.0
 11
220.98498820407519
 21
209.7521104375196
 31
0.0
  0
CIRCLE
  5
D488
  8
AM_0
 10
226.46496820407509
 20
213.61209043751961
 30
0.0
 40
1.1000000000000001
  0
CIRCLE
  5
D489
  8
AM_0
 10
226.46496820407509
 20
213.61209043751961
 30
0.0
 40
1.149999999999999
  0
LINE
  5
D48A
  8
AM_0
 10
221.46496820407509
 20
214.61209043751961
 30
0.0
 11
221.46496820407509
 21
209.61209043751961
 31
0.0
  0
LINE
  5
D48B
  8
AM_0
 10
236.94494820407519
 20
214.61209043751961
 30
0.0
 11
236.94494820407519
 21
209.7521104375196
 31
0.0
  0
LINE
  5
D48C
  8
AM_0
 10
236.46496820407509
 20
214.61209043751961
 30
0.0
 11
236.46496820407509
 21
209.61209043751961
 31
0.0
  0
CIRCLE
  5
D48D
  8
AM_0
 10
231.46496820407521
 20
213.61209043751961
 30
0.0
 40
1.0
  0
LINE
  5
D48E
  8
AM_0
 10
291.47107171970021
 20
214.11208924542731
 30
0.0
 11
291.47107171970021
 21
172.11209072064199
 31
0.0
  0
LINE
  5
D490
  8
AM_0
 10
266.96496820407521
 20
210.1721504375198
 30
0.0
 11
276.64571856506882
 21
210.1721504375198
 31
0.0
  0
LINE
  5
D491
  8
AM_0
 10
266.96496820407521
 20
196.1120904375197
 30
0.0
 11
278.47107171970009
 21
196.1120904375197
 31
0.0
  0
LINE
  5
D492
  8
AM_0
 10
266.96496820407521
 20
186.1120904375197
 30
0.0
 11
276.5221967828781
 21
186.1120904375197
 31
0.0
  0
ARC
  5
D493
  8
AM_0
 10
258.61816820407518
 20
196.7793304375196
 30
0.0
 40
1.5027759999999999
 50
90.122420000001355
 51
165.24357000000111
  0
LINE
  5
D494
  8
AM_0
 10
257.17068820407519
 20
199.94324043751959
 30
0.0
 11
253.02496820407509
 21
184.46210043751969
 31
0.0
  0
LINE
  5
D495
  8
AM_0
 10
257.17068820407519
 20
198.0932604375196
 30
0.0
 11
253.02496820407509
 21
182.61215043751969
 31
0.0
  0
LINE
  5
D496
  8
AM_0
 10
257.16497820407511
 20
202.77216043751969
 30
0.0
 11
253.02496820407509
 21
187.3121404375195
 31
0.0
  0
LINE
  5
D497
  8
AM_0
 10
253.50494820407519
 20
189.11209043751961
 30
0.0
 11
258.96496820407509
 21
189.11209043751961
 31
0.0
  0
LINE
  5
D498
  8
AM_0
 10
257.17071820407517
 20
197.18326043751949
 30
0.0
 11
253.0249982040751
 21
181.70215043751961
 31
0.0
  0
ARC
  5
D499
  8
AM_0
 10
251.09503820407519
 20
187.8303504375196
 30
0.0
 40
1.9982919999999991
 50
269.99736799999857
 51
344.96745200000402
  0
ARC
  5
D49A
  8
AM_0
 10
251.09014820407509
 20
182.22684043751951
 30
0.0
 40
2.0047290000000002
 50
270.13832199999979
 51
344.82650400000358
  0
ARC
  5
D49B
  8
AM_0
 10
251.09014820407509
 20
184.98685043751959
 30
0.0
 40
2.0047290000000002
 50
270.13832199999979
 51
344.82650400000358
  0
ARC
  5
D49C
  8
AM_0
 10
251.09014820407509
 20
183.1368704375196
 30
0.0
 40
2.0047290000000002
 50
270.13832199999979
 51
344.82650400000358
  0
LINE
  5
D49D
  8
AM_0
 10
258.96496820407509
 20
186.11209043751961
 30
0.0
 11
266.96496820407521
 21
186.11209043751961
 31
0.0
  0
LINE
  5
D49E
  8
AM_0
 10
258.96496820407509
 20
196.11209043751961
 30
0.0
 11
266.96496820407521
 21
196.11209043751961
 31
0.0
  0
ARC
  5
D49F
  8
AM_0
 10
255.78497820407509
 20
207.06705043751961
 30
0.0
 40
1.6750020000000001
 50
269.99999700000228
 51
90.000010000001026
  0
LINE
  5
D4A0
  8
AM_0
 10
237.9449482040751
 20
208.75211043751969
 30
0.0
 11
255.78497820407509
 21
208.75211043751969
 31
0.0
  0
LINE
  5
D4A1
  8
AM_0
 10
237.96496820407521
 20
215.62210043751961
 30
0.0
 11
256.01062820407509
 21
215.62210043751961
 31
0.0
  0
ARC
  5
D4A2
  8
AM_0
 10
252.30499820407519
 20
207.11209043751961
 30
0.0
 40
1.0
 50
269.99999700000228
 51
90.000010000001026
  0
LINE
  5
D4A3
  8
AM_0
 10
252.31213820407521
 20
216.11209043751961
 30
0.0
 11
237.96496820407521
 21
216.11209043751961
 31
0.0
  0
ARC
  5
D4A4
  8
AM_0
 10
252.3049382040752
 20
217.11209043751961
 30
0.0
 40
1.0000255999999981
 50
269.58946900000223
 51
90.410529999996797
  0
ARC
  5
D4A5
  8
AM_0
 10
258.61816820407518
 20
199.5393404375196
 30
0.0
 40
1.5027759999999999
 50
90.122420000001355
 51
165.24357000000111
  0
ARC
  5
D4A6
  8
AM_0
 10
258.61816820407518
 20
202.38931043751961
 30
0.0
 40
1.5027759999999999
 50
90.122420000001355
 51
165.24357000000111
  0
ARC
  5
D4A7
  8
AM_0
 10
258.61816820407518
 20
197.68936043751961
 30
0.0
 40
1.5027759999999999
 50
90.122420000001355
 51
165.24357000000111
  0
LINE
  5
D4A8
  8
AM_0
 10
258.96496820407509
 20
210.1721504375196
 30
0.0
 11
266.96496820407521
 21
210.1721504375196
 31
0.0
  0
ARC
  5
D4A9
  8
AM_0
 10
256.00494820407522
 20
217.08206043751969
 30
0.0
 40
1.460011199999999
 50
269.7752500000031
 51
90.224750000003354
  0
LINE
  5
D4AB
  8
ﾁｭｳｼﾝｾﾝ1
 10
302.47107204752569
 20
209.61208946894439
 30
0.0
 11
302.47107204752569
 21
194.61208902190941
 31
0.0
  0
LINE
  5
D4AC
  8
AM_0
 10
279.66485829708239
 20
193.1120904375197
 30
0.0
 11
291.47107171970021
 21
193.1120904375197
 31
0.0
  0
ARC
  5
D4AD
  8
AM_0
 10
276.5221967828781
 20
188.1120904375197
 30
0.0
 40
2.0
 50
270.0
 51
357.99953469735499
1001
GENIUS_GENOBJ-N-FIL_13
1002
{
1000
OWNER
1000
GEN
1002
}
1001
GENIUS_GENODEF_13
1002
{
1000
HIER
1070
     0
1002
}
1002
{
1000
MANEDIT
1070
     0
1002
}
1002
{
1000
NOSEL
1070
     0
1002
}
1002
{
1000
BEHIND
1070
     0
1002
}
1002
{
1000
OTHER
1070
     0
1002
}
1002
{
1000
REACTOR
1002
}
  0
ARC
  5
D4AE
  8
AM_0
 10
279.66612560130812
 20
192.10873758192099
 30
0.0
 40
1.003353655944897
 50
90.072368503728555
 51
175.63494469419581
  0
LINE
  5
D4AF
  8
AM_0
 10
278.52097787000838
 20
188.04227521188491
 30
0.0
 11
278.66568231540327
 21
192.18510374318379
 31
0.0
  0
LINE
  5
D4B1
  8
AM_0
 10
278.97107171970021
 20
198.84548124562519
 30
0.0
 11
291.47107171970032
 21
198.84548124562519
 31
0.0
  0
ARC
  5
D4B2
  8
AM_0
 10
296.47107171970021
 20
207.1120892454274
 30
0.0
 40
5.0
 50
90.0
 51
180.0
1001
GENIUS_GENOBJ-N-FIL_13
1002
{
1000
OWNER
1000
GEN
1002
}
1001
GENIUS_GENODEF_13
1002
{
1000
HIER
1070
     0
1002
}
1002
{
1000
MANEDIT
1070
     0
1002
}
1002
{
1000
NOSEL
1070
     0
1002
}
1002
{
1000
BEHIND
1070
     0
1002
}
1002
{
1000
OTHER
1070
     0
1002
}
1002
{
1000
REACTOR
1002
}
  0
ARC
  5
D4B3
  8
AM_0
 10
302.47107428269987
 20
218.254226057637
 30
0.0
 40
5.0000000000000044
 50
179.99999749551819
 51
259.27854448435272
  0
LINE
  5
D4B5
  8
AM_0
 10
342.47107323961859
 20
204.6120904375197
 30
0.0
 11
377.47107428269987
 21
204.6120904375197
 31
0.0
  0
LINE
  5
D4BC
  8
AM_0
 10
340.97107461052519
 20
197.61209072064159
 30
0.0
 11
340.97107461052548
 21
176.6120907206421
 31
0.0
  0
LINE
  5
D4BD
  8
AM_0
 10
336.47107461052542
 20
197.61209072064159
 30
0.0
 11
336.47107461052542
 21
176.6120907206421
 31
0.0
  0
LINE
  5
D4BE
  8
ﾁｭｳｼﾝｾﾝ1
 10
312.47107461052508
 20
186.61209072064199
 30
0.0
 11
312.47107461052508
 21
162.11209072064199
 31
0.0
  0
LINE
  5
D4BF
  8
AM_0
 10
340.9710746105257
 20
179.6120907206415
 30
0.0
 11
336.47107461052548
 21
179.6120907206415
 31
0.0
  0
LINE
  5
D4C0
  8
ｶｸﾚｾﾝ2
 10
307.47107461052508
 20
172.1120907206421
 30
0.0
 11
307.47107461052508
 21
176.6120907206421
 31
0.0
  0
LINE
  5
D4C2
  8
ｶｸﾚｾﾝ2
 10
317.47107461052519
 20
172.1120907206421
 30
0.0
 11
317.47107461052519
 21
176.6120907206421
 31
0.0
  0
ARC
  5
D4C3
  8
AM_0
 10
342.47107323961859
 20
242.1120904375197
 30
0.0
 40
37.5
 50
233.13010538979381
 51
270.0
  0
LINE
  5
D4C4
  8
AM_0
 10
340.9710746105257
 20
197.61209072064159
 30
0.0
 11
336.47107461052622
 21
197.61209072064159
 31
0.0
  0
LINE
  5
D4DF
  8
AM_0
 10
428.47107580261809
 20
207.1120892454274
 30
0.0
 11
428.47107580261832
 21
172.11209072064199
 31
0.0
  0
LINE
  5
D4E0
  8
AM_0
 10
383.47107291179321
 20
197.61209072064159
 30
0.0
 11
383.47107291179321
 21
176.6120907206421
 31
0.0
  0
LINE
  5
D4E1
  8
AM_0
 10
378.97107291179333
 20
197.61209072064159
 30
0.0
 11
378.97107291179287
 21
176.6120907206421
 31
0.0
  0
LINE
  5
D4E2
  8
ﾁｭｳｼﾝｾﾝ1
 10
407.4710739548745
 20
186.6120907206421
 30
0.0
 11
407.4710739548745
 21
162.11209072064199
 31
0.0
  0
LINE
  5
D4E5
  8
AM_0
 10
378.97107291179282
 20
179.6120907206415
 30
0.0
 11
383.47107291179287
 21
179.6120907206415
 31
0.0
  0
LINE
  5
D4E7
  8
ｶｸﾚｾﾝ2
 10
402.47107395487438
 20
172.1120907206421
 30
0.0
 11
402.47107395487438
 21
176.6120907206421
 31
0.0
  0
LINE
  5
D4E8
  8
ｶｸﾚｾﾝ2
 10
412.47107395487473
 20
172.1120907206421
 30
0.0
 11
412.47107395487473
 21
176.6120907206421
 31
0.0
  0
LINE
  5
D4F2
  8
AM_0
 10
423.4710758026182
 20
212.11208924542731
 30
0.0
 11
399.9710726932434
 21
212.11208924542731
 31
0.0
  0
LINE
  5
D4F6
  8
AM_0
 10
378.97107291179282
 20
197.61209072064159
 30
0.0
 11
383.47107291179231
 21
197.61209072064159
 31
0.0
  0
ARC
  5
D4FB
  8
AM_0
 10
377.47107428269987
 20
242.1120904375197
 30
0.0
 40
37.5
 50
270.0
 51
306.86989461020619
  0
CIRCLE
  5
D500
  8
AM_0
 10
417.47107547479271
 20
202.11208924542689
 30
0.0
 40
7.9999999999999956
  0
POLYLINE
  5
D501
  8
AM_0
 66
     1
 10
0.0
 20
0.0
 30
0.0
 70
     1
  0
VERTEX
  5
F4FD
  8
AM_0
 10
410.97588494640928
 20
205.86208924542689
 30
0.0
  0
VERTEX
  5
F4FE
  8
AM_0
 10
410.97588494640962
 20
198.36208924542689
 30
0.0
  0
VERTEX
  5
F4FF
  8
AM_0
 10
417.47107547479271
 20
194.61208924542689
 30
0.0
  0
VERTEX
  5
F500
  8
AM_0
 10
423.96626600317592
 20
198.36208924542689
 30
0.0
  0
VERTEX
  5
F501
  8
AM_0
 10
423.96626600317592
 20
205.86208924542689
 30
0.0
  0
VERTEX
  5
F502
  8
AM_0
 10
417.47107547479271
 20
209.612089245427
 30
0.0
  0
SEQEND
  5
F503
  8
AM_0
  0
LINE
  5
D503
  8
ﾁｭｳｼﾝｾﾝ1
 10
417.47107547479271
 20
209.61208946894439
 30
0.0
 11
417.47107547479271
 21
194.61208902190941
 31
0.0
  0
ARC
  5
D507
  8
AM_0
 10
417.47107428269987
 20
217.82244810353529
 30
0.0
 40
4.9999999999999947
 50
279.38664786785051
 51
0.0000025044687019
  0
CIRCLE
  5
D508
  8
AM_0
 10
417.47107547479271
 20
202.11208924542689
 30
0.0
 40
3.9999999999999978
  0
LINE
  5
D509
  8
ﾁｭｳｼﾝｾﾝ1
 10
409.97107525127558
 20
202.11208924542689
 30
0.0
 11
424.97107569831019
 21
202.11208924542689
 31
0.0
  0
CIRCLE
  5
D50A
  8
AM_5
 10
417.47107547479271
 20
202.11208924542689
 30
0.0
 40
2.9999999999999978
  0
LINE
  5
D50B
  8
AM_0
 10
413.5844135659359
 20
212.11208924542731
 30
0.0
 11
418.286549746567
 21
212.8893960405471
 31
0.0
  0
ARC
  5
D50C
  8
AM_0
 10
423.4710758026182
 20
207.1120892454274
 30
0.0
 40
5.0
 50
0.0
 51
90.0
1001
GENIUS_GENOBJ-N-FIL_13
1002
{
1000
OWNER
1000
GEN
1002
}
1001
GENIUS_GENODEF_13
1002
{
1000
HIER
1070
     0
1002
}
1002
{
1000
MANEDIT
1070
     0
1002
}
1002
{
1000
NOSEL
1070
     0
1002
}
1002
{
1000
BEHIND
1070
     0
1002
}
1002
{
1000
OTHER
1070
     0
1002
}
1002
{
1000
REACTOR
1002
}
  0
LINE
  5
D50D
  8
AM_0
 10
187.40368820407519
 20
236.11209043751961
 30
0.0
 11
153.3249582040753
 21
236.11209043751961
 31
0.0
  0
LINE
  5
D50E
  8
AM_0
 10
187.40368820407519
 20
238.11209043751961
 30
0.0
 11
153.3249582040753
 21
238.11209043751961
 31
0.0
  0
LINE
  5
D50F
  8
AM_0
 10
152.23498820407511
 20
235.84207043751971
 30
0.0
 11
188.68365820407519
 21
235.84207043751971
 31
0.0
  0
LINE
  5
D510
  8
AM_0
 10
152.23498820407511
 20
238.37210043751961
 30
0.0
 11
188.68365820407519
 21
238.37210043751961
 31
0.0
  0
LINE
  5
D511
  8
AM_0
 10
187.40368820407519
 20
226.11209043751961
 30
0.0
 11
153.3249582040753
 21
226.11209043751961
 31
0.0
  0
LINE
  5
D512
  8
AM_0
 10
152.2949882040752
 20
225.77213043751959
 30
0.0
 11
188.62365820407521
 21
225.77213043751959
 31
0.0
  0
LINE
  5
D513
  8
AM_0
 10
187.40368820407519
 20
228.11209043751961
 30
0.0
 11
153.3249582040753
 21
228.11209043751961
 31
0.0
  0
LINE
  5
D514
  8
AM_0
 10
152.2949882040752
 20
228.4320404375197
 30
0.0
 11
188.62365820407521
 21
228.4320404375197
 31
0.0
  0
LINE
  5
D515
  8
AM_0
 10
152.2949882040752
 20
258.45206043751961
 30
0.0
 11
188.63623820407511
 21
258.45206043751961
 31
0.0
  0
LINE
  5
D516
  8
AM_0
 10
152.23498820407511
 20
245.84207043751971
 30
0.0
 11
188.68365820407519
 21
245.84207043751971
 31
0.0
  0
LINE
  5
D517
  8
AM_0
 10
187.40368820407519
 20
246.11209043751961
 30
0.0
 11
153.3249582040753
 21
246.11209043751961
 31
0.0
  0
LINE
  5
D518
  8
AM_0
 10
187.40368820407519
 20
248.11209043751961
 30
0.0
 11
153.3249582040753
 21
248.11209043751961
 31
0.0
  0
LINE
  5
D519
  8
AM_0
 10
152.23498820407511
 20
248.38211043751949
 30
0.0
 11
188.68365820407519
 21
248.38211043751949
 31
0.0
  0
LINE
  5
D51A
  8
AM_0
 10
152.2949882040752
 20
255.7921504375195
 30
0.0
 11
188.62365820407521
 21
255.7921504375195
 31
0.0
  0
LINE
  5
D51B
  8
AM_0
 10
187.40368820407519
 20
256.11209043751961
 30
0.0
 11
153.3249582040753
 21
256.11209043751961
 31
0.0
  0
LINE
  5
D51C
  8
AM_0
 10
187.40368820407519
 20
258.11209043751961
 30
0.0
 11
153.3249582040753
 21
258.11209043751961
 31
0.0
  0
LINE
  5
D51D
  8
AM_0
 10
153.87121820407509
 20
301.2421004375197
 30
0.0
 11
176.29761840274199
 21
301.2421004375197
 31
0.0
  0
LINE
  5
D51E
  8
AM_0
 10
164.2671306356541
 20
311.61209043751961
 30
0.0
 11
181.86713063565409
 21
311.61209043751961
 31
0.0
  0
LINE
  5
D51F
  8
ﾁｭｳｼﾝｾﾝ1
 10
161.56713063566349
 20
328.61209043751961
 30
0.0
 11
185.56713063564479
 21
328.61209043751961
 31
0.0
  0
LINE
  5
D520
  8
AM_0
 10
219.96496820407509
 20
268.11209043751961
 30
0.0
 11
153.3249582040753
 21
268.11209043751961
 31
0.0
  0
LINE
  5
D521
  8
AM_0
 10
152.42498820407511
 20
268.60208043751959
 30
0.0
 11
219.96496820407509
 21
268.60208043751959
 31
0.0
  0
LINE
  5
D522
  8
AM_0
 10
152.6449582040751
 20
278.83206043751971
 30
0.0
 11
207.96496820407521
 21
278.83206043751971
 31
0.0
  0
LINE
  5
D523
  8
AM_0
 10
152.6449582040751
 20
275.48209043751967
 30
0.0
 11
219.98498820407519
 21
275.48209043751967
 31
0.0
  0
LINE
  5
D524
  8
AM_0
 10
207.96496820407521
 20
276.11209043751961
 30
0.0
 11
153.3249582040753
 21
276.11209043751961
 31
0.0
  0
LINE
  5
D525
  8
AM_0
 10
207.96496820407521
 20
278.11209043751961
 30
0.0
 11
153.3249582040753
 21
278.11209043751961
 31
0.0
  0
LINE
  5
D526
  8
AM_0
 10
160.98570685144301
 20
340.61209043751961
 30
0.0
 11
192.96377659017509
 21
335.16366440077559
 31
0.0
  0
LINE
  5
D527
  8
AM_0
 10
236.8671306356552
 20
345.61209043751961
 30
0.0
 11
161.39282577249509
 21
345.61209043751961
 31
0.0
  0
LINE
  5
D528
  8
AM_0
 10
237.6928257724951
 20
332.61209043751961
 30
0.0
 11
161.39282577249509
 21
345.61209043751961
 31
0.0
  0
ARC
  5
D529
  8
AM_0
 10
173.56713063565411
 20
328.61209043751961
 30
0.0
 40
9.3000000000000007
 50
0.0
 51
180.0
  0
LINE
  5
D52A
  8
AM_0
 10
161.067130635654
 20
341.61209043751961
 30
0.0
 11
237.36713063565409
 21
328.61209043751961
 31
0.0
  0
LINE
  5
D52B
  8
AM_0
 10
161.067130635654
 20
341.61209043751961
 30
0.0
 11
237.36713063565409
 21
328.61209043751961
 31
0.0
  0
CIRCLE
  5
D52C
  8
AM_0
 10
173.56713063565411
 20
328.61209043751961
 30
0.0
 40
6.299999999999998
  0
LINE
  5
D52D
  8
AM_0
 10
154.17498820407511
 20
298.39212043751968
 30
0.0
 11
251.09497820407509
 21
298.39212043751968
 31
0.0
  0
LINE
  5
D52E
  8
AM_0
 10
252.29779820407509
 20
266.11209043751961
 30
0.0
 11
153.3249582040753
 21
266.11209043751961
 31
0.0
  0
LINE
  5
D52F
  8
AM_0
 10
152.42498820407511
 20
265.67215043751958
 30
0.0
 11
255.99920820407519
 21
265.67215043751958
 31
0.0
  0
LINE
  5
D532
  8
ﾁｭｳｼﾝｾﾝ1
 10
433.47107580261832
 20
242.1120904375197
 30
0.0
 11
82.816575312458326
 21
242.1120904375197
 31
0.0
  0
LINE
  5
D534
  8
AM_0
 10
133.96496820407509
 20
302.11209043751961
 30
0.0
 11
133.96496820407509
 21
307.11209043751961
 31
0.0
  0
LINE
  5
D535
  8
AM_0
 10
130.96496820407509
 20
300.86209043751961
 30
0.0
 11
130.96496820407509
 21
307.11209043751961
 31
0.0
  0
LINE
  5
D536
  8
AM_0
 10
120.96496820407511
 20
300.86209043751961
 30
0.0
 11
120.96496820407511
 21
307.11209043751961
 31
0.0
  0
ARC
  5
D537
  8
AM_0
 10
96.463538104075184
 20
298.11209043751961
 30
0.0
 40
9.0
 50
90.000049999998495
 51
180.000020000002
  0
LINE
  5
D539
  8
AM_0
 10
97.463538104075184
 20
302.11209043751961
 30
0.0
 11
120.96496820407511
 21
302.11209043751961
 31
0.0
  0
LINE
  5
D53A
  8
AM_0
 10
94.964968204075134
 20
294.86209043751961
 30
0.0
 11
142.96496820407509
 21
294.86209043751961
 31
0.0
  0
LINE
  5
D53B
  8
AM_0
 10
95.464968204075177
 20
275.75308043751971
 30
0.0
 11
137.96496820407509
 21
275.75308043751971
 31
0.0
  0
LINE
  5
D53C
  8
AM_0
 10
95.464968204075177
 20
286.00308043751971
 30
0.0
 11
137.96496820407509
 21
286.00308043751971
 31
0.0
  0
LINE
  5
D53D
  8
AM_0
 10
92.463538104075184
 20
247.11209043751961
 30
0.0
 11
92.463538104075184
 21
297.11209043751961
 31
0.0
  0
LINE
  5
D53E
  8
AM_0
 10
87.463538104075184
 20
247.11209043751961
 30
0.0
 11
87.463538104075184
 21
298.11209043751961
 31
0.0
  0
LINE
  5
D53F
  8
AM_0
 10
86.464998204075187
 20
247.11209043751961
 30
0.0
 11
86.464998204075187
 21
237.11209043751961
 31
0.0
  0
LINE
  5
D540
  8
AM_0
 10
92.964968204075177
 20
237.11209043751961
 30
0.0
 11
86.464998204075187
 21
237.11209043751961
 31
0.0
  0
LINE
  5
D541
  8
AM_0
 10
92.964968204075177
 20
247.11209043751961
 30
0.0
 11
86.464998204075187
 21
247.11209043751961
 31
0.0
  0
LINE
  5
D542
  8
AM_0
 10
94.164978204075169
 20
276.40311043751967
 30
0.0
 11
94.164978204075169
 21
285.60306043751967
 31
0.0
  0
LINE
  5
D543
  8
AM_0
 10
94.164978204075169
 20
276.40311043751967
 30
0.0
 11
95.464968204075177
 21
276.40311043751967
 31
0.0
  0
LINE
  5
D544
  8
AM_0
 10
93.864998204075164
 20
276.5030804375196
 30
0.0
 11
94.164978204075169
 21
276.5030804375196
 31
0.0
  0
ARC
  5
D545
  8
AM_0
 10
93.864998204075164
 20
279.50308043751971
 30
0.0
 40
3.0
 50
252.54179625232339
 51
270.00001100000242
  0
ARC
  5
D546
  8
AM_0
 10
94.964968204075134
 20
292.86209043751961
 30
0.0
 40
2.0
 50
90.000049999998495
 51
180.000020000002
  0
LINE
  5
D547
  8
AM_0
 10
94.164978204075169
 20
285.60306043751967
 30
0.0
 11
95.464968204075177
 21
285.60306043751967
 31
0.0
  0
LINE
  5
D548
  8
AM_0
 10
93.864998204075164
 20
285.5030804375196
 30
0.0
 11
94.164978204075169
 21
285.5030804375196
 31
0.0
  0
ARC
  5
D549
  8
AM_0
 10
93.864998204075164
 20
282.50308043751971
 30
0.0
 40
3.0
 50
90.000049999998495
 51
107.45820374767661
  0
LINE
  5
D54A
  8
AM_0
 10
92.964968204075177
 20
285.36502043751972
 30
0.0
 11
92.964968204075177
 21
292.86209043751961
 31
0.0
  0
ARC
  5
D54B
  8
AM_0
 10
97.463538104075184
 20
297.11209043751961
 30
0.0
 40
5.0
 50
90.000049999998495
 51
180.000020000002
  0
POLYLINE
  5
D54C
  8
AM_0
 66
     1
 10
0.0
 20
0.0
 30
0.0
  0
VERTEX
  5
D54D
  8
AM_0
 10
153.8432082040751
 20
258.45267043751971
 30
0.0
 42
-0.00073721992
  0
VERTEX
  5
D54E
  8
AM_0
 10
153.8873582040751
 20
259.05508043751962
 30
0.0
 42
-0.00074398496
  0
VERTEX
  5
D54F
  8
AM_0
 10
153.9332882040751
 20
259.65735043751971
 30
0.0
 42
-0.00073322625
  0
VERTEX
  5
D550
  8
AM_0
 10
153.9810182040751
 20
260.25968043751959
 30
0.0
 42
-0.00073594289
  0
VERTEX
  5
D551
  8
AM_0
 10
154.03049820407509
 20
260.86167043751982
 30
0.0
 42
-0.00074742568
  0
VERTEX
  5
D552
  8
AM_0
 10
154.0817682040751
 20
261.46353043751981
 30
0.0
 42
-0.00073216749
  0
VERTEX
  5
D553
  8
AM_0
 10
154.13482820407509
 20
262.06534043751958
 30
0.0
 42
-0.00074184065
  0
VERTEX
  5
D554
  8
AM_0
 10
154.18964820407521
 20
262.66687043751949
 30
0.0
 42
-0.00072077528
  0
VERTEX
  5
D555
  8
AM_0
 10
154.24622820407509
 20
263.26810043751959
 30
0.0
 42
-0.00074978179
  0
VERTEX
  5
D556
  8
AM_0
 10
154.30456820407511
 20
263.8693004375196
 30
0.0
 42
-0.00074288888
  0
VERTEX
  5
D557
  8
AM_0
 10
154.36471820407519
 20
264.47032043751972
 30
0.0
 42
-0.00072503679
  0
VERTEX
  5
D558
  8
AM_0
 10
154.42662820407509
 20
265.0710604375198
 30
0.0
 42
-0.00074640584
  0
VERTEX
  5
D559
  8
AM_0
 10
154.49029820407509
 20
265.67166043751968
 30
0.0
  0
SEQEND
  5
D55A
  8
AM_0
  0
POLYLINE
  5
D55B
  8
AM_0
 66
     1
 10
0.0
 20
0.0
 30
0.0
  0
VERTEX
  5
D55C
  8
AM_0
 10
153.3249582040753
 20
242.11209043751961
 30
0.0
 42
0.00039106649
  0
VERTEX
  5
D55D
  8
AM_0
 10
153.32259820407509
 20
241.80096043751959
 30
0.0
 42
0.00035488198
  0
VERTEX
  5
D55E
  8
AM_0
 10
153.32070820407509
 20
241.48985043751969
 30
0.0
 42
0.00039706113
  0
VERTEX
  5
D55F
  8
AM_0
 10
153.31927820407509
 20
241.17874043751959
 30
0.0
 42
0.00038765718
  0
VERTEX
  5
D560
  8
AM_0
 10
153.31834820407511
 20
240.8676004375196
 30
0.0
 42
0.00040613432
  0
VERTEX
  5
D561
  8
AM_0
 10
153.31789820407519
 20
240.5565004375197
 30
0.0
 42
0.00035573434
  0
VERTEX
  5
D562
  8
AM_0
 10
153.31793820407529
 20
240.2453904375196
 30
0.0
 42
0.00038545884
  0
VERTEX
  5
D563
  8
AM_0
 10
153.31842820407519
 20
239.93426043751981
 30
0.0
 42
0.00035501205
  0
VERTEX
  5
D564
  8
AM_0
 10
153.31938820407521
 20
239.6231504375196
 30
0.0
 42
0.00040120779
  0
VERTEX
  5
D565
  8
AM_0
 10
153.32080820407509
 20
239.3119204375196
 30
0.0
 42
0.00038317817
  0
VERTEX
  5
D566
  8
AM_0
 10
153.3227182040753
 20
239.00079043751961
 30
0.0
 42
0.00035656084
  0
VERTEX
  5
D567
  8
AM_0
 10
153.3250982040752
 20
238.68955043751961
 30
0.0
 42
0.00040143615
  0
VERTEX
  5
D568
  8
AM_0
 10
153.3279482040752
 20
238.37845043751969
 30
0.0
  0
SEQEND
  5
D569
  8
AM_0
  0
ARC
  5
D56A
  8
AM_0
 10
153.50958820407519
 20
227.11209043751961
 30
0.0
 40
1.0000138999999999
 50
89.691659999999231
 51
270.30834000000073
  0
ARC
  5
D56B
  8
AM_0
 10
153.50958820407519
 20
237.11209043751961
 30
0.0
 40
1.0000138999999999
 50
89.691659999999231
 51
270.30834000000073
  0
POLYLINE
  5
D56C
  8
AM_0
 66
     1
 10
0.0
 20
0.0
 30
0.0
  0
VERTEX
  5
D56D
  8
AM_0
 10
153.36901820407519
 20
235.84171043751971
 30
0.0
 42
0.00076691992
  0
VERTEX
  5
D56E
  8
AM_0
 10
153.38381820407511
 20
235.22394043751959
 30
0.0
 42
0.00073262792
  0
VERTEX
  5
D56F
  8
AM_0
 10
153.40045820407519
 20
234.6063504375195
 30
0.0
 42
0.00076529537
  0
VERTEX
  5
D570
  8
AM_0
 10
153.41894820407509
 20
233.98868043751969
 30
0.0
 42
0.00075141097
  0
VERTEX
  5
D571
  8
AM_0
 10
153.43931820407511
 20
233.37108043751971
 30
0.0
 42
0.00075841687
  0
VERTEX
  5
D572
  8
AM_0
 10
153.46154820407509
 20
232.75365043751961
 30
0.0
 42
0.00075711788
  0
VERTEX
  5
D573
  8
AM_0
 10
153.48565820407521
 20
232.1361404375196
 30
0.0
 42
0.00075976003
  0
VERTEX
  5
D574
  8
AM_0
 10
153.51164820407499
 20
231.51875043751971
 30
0.0
 42
0.00075797311
  0
VERTEX
  5
D575
  8
AM_0
 10
153.5394882040753
 20
230.90147043751949
 30
0.0
 42
0.0007482613
  0
VERTEX
  5
D576
  8
AM_0
 10
153.56921820407521
 20
230.28409043751961
 30
0.0
 42
0.00074893561
  0
VERTEX
  5
D577
  8
AM_0
 10
153.60077820407511
 20
229.66696043751961
 30
0.0
 42
0.00076039839
  0
VERTEX
  5
D578
  8
AM_0
 10
153.63419820407509
 20
229.04993043751969
 30
0.0
 42
0.00075618786
  0
VERTEX
  5
D579
  8
AM_0
 10
153.6694982040751
 20
228.4328904375196
 30
0.0
  0
SEQEND
  5
D57A
  8
AM_0
  0
ARC
  5
D57B
  8
AM_0
 10
152.2949882040752
 20
227.1020804375197
 30
0.0
 40
1.3300049999999981
 50
90.0
 51
269.99999700000228
  0
ARC
  5
D57C
  8
AM_0
 10
152.2291282040751
 20
237.1070904375197
 30
0.0
 40
1.2650129999999991
 50
89.735589999997515
 51
270.26442099999832
  0
ARC
  5
D57D
  8
AM_0
 10
153.50958820407519
 20
247.11209043751961
 30
0.0
 40
1.0000138999999999
 50
89.691659999999231
 51
270.30834000000073
  0
ARC
  5
D57E
  8
AM_0
 10
153.50958820407519
 20
257.11209043751961
 30
0.0
 40
1.0000138999999999
 50
89.691659999999231
 51
270.30834000000073
  0
POLYLINE
  5
D57F
  8
AM_0
 66
     1
 10
0.0
 20
0.0
 30
0.0
  0
VERTEX
  5
D580
  8
AM_0
 10
153.36901820407519
 20
248.38248043751969
 30
0.0
 42
-0.00076695235
  0
VERTEX
  5
D581
  8
AM_0
 10
153.38381820407511
 20
249.00024043751961
 30
0.0
 42
-0.00073263043
  0
VERTEX
  5
D582
  8
AM_0
 10
153.40045820407519
 20
249.61784043751959
 30
0.0
 42
-0.00076525988
  0
VERTEX
  5
D583
  8
AM_0
 10
153.41894820407509
 20
250.23551043751971
 30
0.0
 42
-0.00075144488
  0
VERTEX
  5
D584
  8
AM_0
 10
153.43931820407511
 20
250.8531104375196
 30
0.0
 42
-0.00076035096
  0
VERTEX
  5
D585
  8
AM_0
 10
153.46155820407509
 20
251.47054043751959
 30
0.0
 42
-0.00075543154
  0
VERTEX
  5
D586
  8
AM_0
 10
153.48565820407521
 20
252.0879204375197
 30
0.0
 42
-0.0007577325
  0
VERTEX
  5
D587
  8
AM_0
 10
153.5116382040751
 20
252.70532043751959
 30
0.0
 42
-0.00076034585
  0
VERTEX
  5
D588
  8
AM_0
 10
153.5394882040753
 20
253.3227104375197
 30
0.0
 42
-0.00074823143
  0
VERTEX
  5
D589
  8
AM_0
 10
153.56921820407521
 20
253.94010043751959
 30
0.0
 42
-0.00074896605
  0
VERTEX
  5
D58A
  8
AM_0
 10
153.60077820407511
 20
254.55723043751959
 30
0.0
 42
-0.00076039763
  0
VERTEX
  5
D58B
  8
AM_0
 10
153.63419820407509
 20
255.17426043751959
 30
0.0
 42
-0.00075616127
  0
VERTEX
  5
D58C
  8
AM_0
 10
153.6694982040751
 20
255.79129043751959
 30
0.0
  0
SEQEND
  5
D58D
  8
AM_0
  0
POLYLINE
  5
D58E
  8
AM_0
 66
     1
 10
0.0
 20
0.0
 30
0.0
  0
VERTEX
  5
D58F
  8
AM_0
 10
153.3249582040753
 20
242.11209043751961
 30
0.0
 42
-0.00039106589
  0
VERTEX
  5
D590
  8
AM_0
 10
153.32259820407509
 20
242.42323043751961
 30
0.0
 42
-0.00035488584
  0
VERTEX
  5
D591
  8
AM_0
 10
153.32070820407509
 20
242.73434043751971
 30
0.0
 42
-0.00039705232
  0
VERTEX
  5
D592
  8
AM_0
 10
153.31927820407509
 20
243.0454404375196
 30
0.0
 42
-0.0003876649
  0
VERTEX
  5
D593
  8
AM_0
 10
153.31834820407511
 20
243.3565804375196
 30
0.0
 42
-0.00040613779
  0
VERTEX
  5
D594
  8
AM_0
 10
153.31789820407519
 20
243.6676904375195
 30
0.0
 42
-0.00035571855
  0
VERTEX
  5
D595
  8
AM_0
 10
153.31793820407529
 20
243.97879043751959
 30
0.0
 42
-0.00038547358
  0
VERTEX
  5
D596
  8
AM_0
 10
153.31842820407519
 20
244.2899304375197
 30
0.0
 42
-0.000355015
  0
VERTEX
  5
D597
  8
AM_0
 10
153.31938820407521
 20
244.6010304375196
 30
0.0
 42
-0.00040118616
  0
VERTEX
  5
D598
  8
AM_0
 10
153.32080820407509
 20
244.91226043751959
 30
0.0
 42
-0.00038319867
  0
VERTEX
  5
D599
  8
AM_0
 10
153.3227182040753
 20
245.22340043751959
 30
0.0
 42
-0.00035656356
  0
VERTEX
  5
D59A
  8
AM_0
 10
153.3250982040752
 20
245.5346304375197
 30
0.0
 42
-0.00040140992
  0
VERTEX
  5
D59B
  8
AM_0
 10
153.3279482040752
 20
245.84574043751971
 30
0.0
  0
SEQEND
  5
D59C
  8
AM_0
  0
ARC
  5
D59D
  8
AM_0
 10
152.2291282040751
 20
247.11209043751961
 30
0.0
 40
1.2700129999999981
 50
89.736630000000844
 51
270.26338299999838
  0
ARC
  5
D59E
  8
AM_0
 10
152.2949882040752
 20
257.12210043751958
 30
0.0
 40
1.3300049999999981
 50
90.0
 51
269.99999700000228
  0
LINE
  5
D59F
  8
AM_0
 10
117.96496820407511
 20
300.86209043751961
 30
0.0
 11
142.96496820407509
 21
300.86209043751961
 31
0.0
  0
LINE
  5
D5A0
  8
AM_0
 10
117.96496820407511
 20
300.86209043751961
 30
0.0
 11
117.96496820407511
 21
294.86209043751961
 31
0.0
  0
LINE
  5
D5A1
  8
AM_0
 10
130.96496820407509
 20
302.11209043751961
 30
0.0
 11
133.96496820407509
 21
302.11209043751961
 31
0.0
  0
LINE
  5
D5A2
  8
AM_0
 10
156.3249582040753
 20
278.7620904375197
 30
0.0
 11
150.96496820407509
 21
290.20209043751947
 31
0.0
  0
ARC
  5
D5A3
  8
AM_0
 10
153.50958820407519
 20
267.11209043751961
 30
0.0
 40
1.0000138999999999
 50
89.691659999999231
 51
270.30834000000073
  0
ARC
  5
D5A4
  8
AM_0
 10
153.50958820407519
 20
277.11209043751961
 30
0.0
 40
1.0000138999999999
 50
89.691659999999231
 51
270.30834000000073
  0
ARC
  5
D5A5
  8
AM_0
 10
152.42498820407511
 20
267.13712043751963
 30
0.0
 40
1.465004
 50
90.0
 51
269.99999700000228
  0
ARC
  5
D5A6
  8
AM_0
 10
152.6381282040752
 20
277.15714043751962
 30
0.0
 40
1.675014
 50
89.766490000000559
 51
270.23350100000317
  0
POLYLINE
  5
D5A7
  8
AM_0
 66
     1
 10
0.0
 20
0.0
 30
0.0
  0
VERTEX
  5
D5A8
  8
AM_0
 10
154.82586820407531
 20
268.59513043751969
 30
0.0
 42
-0.00068900015
  0
VERTEX
  5
D5A9
  8
AM_0
 10
154.8967482040749
 20
269.16988043751968
 30
0.0
 42
-0.00070644648
  0
VERTEX
  5
D5AA
  8
AM_0
 10
154.9692482040752
 20
269.74456043751962
 30
0.0
 42
-0.00069245587
  0
VERTEX
  5
D5AB
  8
AM_0
 10
155.0433382040751
 20
270.31888043751962
 30
0.0
 42
-0.00069587802
  0
VERTEX
  5
D5AC
  8
AM_0
 10
155.11901820407519
 20
270.89302043751968
 30
0.0
 42
-0.00068980012
  0
VERTEX
  5
D5AD
  8
AM_0
 10
155.1963182040752
 20
271.46702043751958
 30
0.0
 42
-0.00072079193
  0
VERTEX
  5
D5AE
  8
AM_0
 10
155.27520820407511
 20
272.04080043751952
 30
0.0
 42
-0.00071003147
  0
VERTEX
  5
D5AF
  8
AM_0
 10
155.3557482040751
 20
272.61428043751982
 30
0.0
 42
-0.00072658712
  0
VERTEX
  5
D5B0
  8
AM_0
 10
155.43790820407509
 20
273.18737043751958
 30
0.0
 42
-0.00069571059
  0
VERTEX
  5
D5B1
  8
AM_0
 10
155.52172820407509
 20
273.76041043751962
 30
0.0
 42
-0.0007126617
  0
VERTEX
  5
D5B2
  8
AM_0
 10
155.60715820407509
 20
274.33317043751958
 30
0.0
 42
-0.00071614574
  0
VERTEX
  5
D5B3
  8
AM_0
 10
155.69418820407509
 20
274.90552043751961
 30
0.0
 42
-0.00072290803
  0
VERTEX
  5
D5B4
  8
AM_0
 10
155.78289820407511
 20
275.4778204375196
 30
0.0
  0
SEQEND
  5
D5B5
  8
AM_0
  0
LINE
  5
D5B6
  8
AM_0
 10
150.96496820407509
 20
290.20215043751961
 30
0.0
 11
152.20495820407521
 21
296.76215043751961
 31
0.0
  0
LINE
  5
D5B7
  8
AM_0
 10
150.96496820407509
 20
291.55216043751972
 30
0.0
 11
152.2449382040752
 21
299.55210043751958
 31
0.0
  0
LINE
  5
D5B8
  8
AM_0
 10
150.96496820407509
 20
292.8921504375196
 30
0.0
 11
151.97418820407529
 21
299.54218043751968
 31
0.0
  0
LINE
  5
D5B9
  8
AM_0
 10
150.96496820407509
 20
292.89209043751958
 30
0.0
 11
151.8904482040752
 21
299.51871043751959
 31
0.0
  0
LINE
  5
D5BA
  8
AM_0
 10
142.96496820407509
 20
295.11209043751961
 30
0.0
 11
150.96496820407509
 21
295.11209043751961
 31
0.0
  0
LINE
  5
D5BB
  8
AM_0
 10
143.6649782040752
 20
285.30203043751959
 30
0.0
 11
149.89495820407521
 21
285.30203043751959
 31
0.0
  0
LINE
  5
D5BC
  8
AM_0
 10
137.96496820407509
 20
286.00308043751971
 30
0.0
 11
137.96496820407509
 21
294.86209043751961
 31
0.0
  0
ARC
  5
D5BD
  8
AM_0
 10
154.22113820407509
 20
299.24173043751972
 30
0.0
 40
2.000420099999999
 50
90.177290000003936
 51
171.0731799999981
  0
ARC
  5
D5BE
  8
AM_0
 10
153.9515982040752
 20
299.2421004375197
 30
0.0
 40
2.0
 50
90.000010000001026
 51
171.37037999999549
  0
ARC
  5
D5BF
  8
AM_0
 10
153.87121820407509
 20
299.2421004375197
 30
0.0
 40
2.0
 50
90.000010000001026
 51
172.04955999999649
  0
ARC
  5
D5C0
  8
AM_0
 10
154.1698082040752
 20
296.39285043751971
 30
0.0
 40
1.9992490000000001
 50
89.852569999998664
 51
169.35689999999889
  0
LINE
  5
D5C1
  8
AM_0
 10
96.463538104075184
 20
307.11209043751961
 30
0.0
 11
133.96496820407509
 21
307.11209043751961
 31
0.0
  0
LINE
  5
D5C4
  8
AM_0
 10
164.2671306356541
 20
311.61209043751961
 30
0.0
 11
164.2671306356541
 21
328.61209043751961
 31
0.0
  0
LINE
  5
D5C5
  8
AM_0
 10
158.46713063565409
 20
312.61209043751961
 30
0.0
 11
158.46713063565409
 21
335.61209043751961
 31
0.0
  0
LINE
  5
D5C6
  8
AM_0
 10
159.46713063565409
 20
311.61209043751961
 30
0.0
 11
164.2671306356541
 21
311.61209043751961
 31
0.0
  0
ARC
  5
D5C7
  8
AM_0
 10
159.46713063565409
 20
312.61209043751961
 30
0.0
 40
1.0
 50
180.0
 51
270.0
  0
LINE
  5
D5C8
  8
AM_0
 10
158.46713063565409
 20
335.61209043751961
 30
0.0
 11
158.46713063565309
 21
340.61209043751961
 31
0.0
  0
LINE
  5
D5C9
  8
AM_0
 10
157.96713063565409
 20
340.61209043751961
 30
0.0
 11
157.96713063565409
 21
336.91209043751871
 31
0.0
  0
LINE
  5
D5CA
  8
AM_0
 10
158.1671306356541
 20
339.61644775680372
 30
0.0
 11
158.1671306356541
 21
338.41644775680362
 31
0.0
  0
LINE
  5
D5CB
  8
AM_0
 10
156.46713063565511
 20
336.91209043751871
 30
0.0
 11
156.46713063565511
 21
344.11209043751961
 31
0.0
  0
ARC
  5
D5CC
  8
AM_0
 10
157.6671306356541
 20
336.91209043751871
 30
0.0
 40
0.3
 50
270.0
 51
0.0
  0
LINE
  5
D5CD
  8
AM_0
 10
158.36713063565409
 20
335.61209043751961
 30
0.0
 11
158.46713063565409
 21
335.61209043751961
 31
0.0
  0
LINE
  5
D5CE
  8
AM_0
 10
158.1671306356541
 20
335.8120904375188
 30
0.0
 11
158.36713063565409
 21
335.61209043751961
 31
0.0
  0
LINE
  5
D5CF
  8
AM_0
 10
157.96713063565409
 20
338.41644775680362
 30
0.0
 11
158.1671306356541
 21
338.41644775680362
 31
0.0
  0
LINE
  5
D5D0
  8
AM_0
 10
158.1671306356541
 20
338.41644775680362
 30
0.0
 11
158.1671306356541
 21
335.8120904375188
 31
0.0
  0
LINE
  5
D5D1
  8
AM_0
 10
157.2671306356541
 20
336.61209043751961
 30
0.0
 11
156.76713063565509
 21
336.61209043751961
 31
0.0
  0
LINE
  5
D5D2
  8
AM_0
 10
157.6671306356541
 20
336.61209043751961
 30
0.0
 11
157.2671306356541
 21
336.61209043751961
 31
0.0
  0
ARC
  5
D5D3
  8
AM_0
 10
156.76713063565509
 20
336.91209043751871
 30
0.0
 40
0.3
 50
180.0
 51
270.0
  0
LINE
  5
D5D4
  8
AM_0
 10
158.1671306356541
 20
340.61209043751961
 30
0.0
 11
158.1671306356541
 21
339.61644775680372
 31
0.0
  0
LINE
  5
D5D5
  8
AM_0
 10
156.96713063565409
 20
341.61209043751961
 30
0.0
 11
161.067130635654
 21
341.61209043751961
 31
0.0
  0
LINE
  5
D5D6
  8
AM_0
 10
157.2671306356541
 20
341.61209043751961
 30
0.0
 11
161.067130635654
 21
341.61209043751961
 31
0.0
  0
LINE
  5
D5D7
  8
AM_0
 10
156.96713063565409
 20
340.9120904375186
 30
0.0
 11
156.96713063565409
 21
341.61209043751961
 31
0.0
  0
ARC
  5
D5D8
  8
AM_0
 10
157.2671306356541
 20
341.91209043751871
 30
0.0
 40
0.3
 50
180.0
 51
270.0
  0
ARC
  5
D5D9
  8
AM_0
 10
157.2671306356541
 20
340.9120904375186
 30
0.0
 40
0.3
 50
180.0
 51
270.0
  0
LINE
  5
D5DA
  8
AM_0
 10
160.98570685144301
 20
340.61209043751961
 30
0.0
 11
157.2671306356541
 21
340.61209043751961
 31
0.0
  0
LINE
  5
D5DB
  8
AM_0
 10
158.1671306356541
 20
339.61644775680372
 30
0.0
 11
157.96713063565409
 21
339.61644775680372
 31
0.0
  0
LINE
  5
D5DC
  8
AM_0
 10
158.46713063565409
 20
345.61209043751961
 30
0.0
 11
161.39282577249509
 21
345.61209043751961
 31
0.0
  0
LINE
  5
D5DD
  8
AM_0
 10
157.96713063565511
 20
345.61209043751961
 30
0.0
 11
158.2656165318121
 21
345.61209043751848
 31
0.0
  0
ARC
  5
D5DE
  8
AM_0
 10
158.46713063565409
 20
344.11209043751961
 30
0.0
 40
1.5
 50
90.0
 51
180.0
  0
LINE
  5
D5DF
  8
AM_0
 10
156.96713063565409
 20
341.91209043751871
 30
0.0
 11
156.96713063565409
 21
344.11209043751961
 31
0.0
  0
ARC
  5
D5E0
  8
AM_0
 10
157.96713063565511
 20
344.11209043751848
 30
0.0
 40
1.5
 50
90.000000000006509
 51
179.99999999999349
  0
LINE
  5
D5E2
  8
AM_0
 10
319.42822760301237
 20
274.27276548634779
 30
0.0
 11
301.6555988188328
 21
271.33477720509779
 31
0.0
  0
LINE
  5
D5E6
  8
ﾁｭｳｼﾝｾﾝ1
 10
294.97107182400828
 20
282.11209162961262
 30
0.0
 11
309.97107227104311
 21
282.11209162961262
 31
0.0
  0
CIRCLE
  5
D5E7
  8
AM_0
 10
302.47107204752569
 20
282.11209162961262
 30
0.0
 40
4.5000001341104507
  0
LINE
  5
D5E8
  8
AM_0
 10
302.47107204752569
 20
293.11209195743828
 30
0.0
 11
419.4710754747926
 21
293.11209195743822
 31
0.0
  0
LINE
  5
D5E9
  8
AM_0
 10
237.96496820407521
 20
309.11215043751969
 30
0.0
 11
238.2457073271384
 21
298.39212043751968
 31
0.0
  0
LINE
  5
D5EA
  8
AM_0
 10
177.96490820407519
 20
309.11212043751982
 30
0.0
 11
177.68424401673619
 21
298.39212043751968
 31
0.0
  0
ARC
  5
D5EB
  8
AM_0
 10
237.9449482040751
 20
274.47208043751982
 30
0.0
 40
1.0
 50
90.0
 51
180.00001000000091
  0
ARC
  5
D5EC
  8
AM_0
 10
237.96496820407521
 20
269.61209043751961
 30
0.0
 40
1.5
 50
179.999989999999
 51
269.99999700000228
  0
ARC
  5
D5ED
  8
AM_0
 10
237.96496820407521
 20
269.61209043751961
 30
0.0
 40
1.02
 50
179.999989999999
 51
269.99999700000228
  0
ARC
  5
D5EE
  8
AM_0
 10
237.96496820407521
 20
274.61209043751961
 30
0.0
 40
1.5
 50
90.0
 51
180.00001000000091
  0
LINE
  5
D5EF
  8
AM_0
 10
252.30499820407519
 20
276.11209043751961
 30
0.0
 11
207.96496820407521
 21
276.11209043751961
 31
0.0
  0
LINE
  5
D5F0
  8
AM_0
 10
252.30499820407519
 20
278.11209043751961
 30
0.0
 11
207.96496820407521
 21
278.11209043751961
 31
0.0
  0
LINE
  5
D5F1
  8
AM_0
 10
207.96496820407521
 20
278.83206043751971
 30
0.0
 11
255.78497820407509
 21
278.83206043751971
 31
0.0
  0
ARC
  5
D5F2
  8
AM_0
 10
188.62994820407511
 20
227.09708043751979
 30
0.0
 40
1.3350147999999999
 50
269.73044399999861
 51
90.26957000000013
  0
ARC
  5
D5F3
  8
AM_0
 10
187.40368820407519
 20
227.11209043751961
 30
0.0
 40
1.000005699999998
 50
269.99999700000228
 51
90.000010000001026
  0
ARC
  5
D5F4
  8
AM_0
 10
188.6918982040751
 20
237.10208043751959
 30
0.0
 40
1.2700266
 50
269.62932999999532
 51
90.370680000000036
  0
ARC
  5
D5F5
  8
AM_0
 10
187.40368820407519
 20
237.11209043751961
 30
0.0
 40
1.000005699999998
 50
269.99999700000228
 51
90.000010000001026
  0
ARC
  5
D5F6
  8
AM_0
 10
188.6918982040751
 20
247.11209043751961
 30
0.0
 40
1.2700266
 50
269.62932999999532
 51
90.370680000000036
  0
ARC
  5
D5F7
  8
AM_0
 10
187.40368820407519
 20
247.11209043751961
 30
0.0
 40
1.000005699999998
 50
269.99999700000228
 51
90.000010000001026
  0
ARC
  5
D5F8
  8
AM_0
 10
188.62994820407511
 20
257.12210043751958
 30
0.0
 40
1.3300148000000001
 50
269.72943299999889
 51
90.270580000001374
  0
ARC
  5
D5F9
  8
AM_0
 10
187.40368820407519
 20
257.11209043751961
 30
0.0
 40
1.000005699999998
 50
269.99999700000228
 51
90.000010000001026
  0
ARC
  5
D5FA
  8
AM_0
 10
176.29761840274199
 20
302.7421004375197
 30
0.0
 40
1.5
 50
270.0
 51
358.50026113613279
1001
GENIUS_GENODEF_13
1002
{
1000
HIER
1070
     0
1002
}
1002
{
1000
MANEDIT
1070
     0
1002
}
1002
{
1000
NOSEL
1070
     0
1002
}
1002
{
1000
BEHIND
1070
     0
1002
}
1002
{
1000
REACTOR
1002
}
1001
GENIUS_GENOBJ-N-FIL_13
1002
{
1000
OWNER
1000
GEN
1002
}
  0
ARC
  5
D5FB
  8
AM_0
 10
219.98498820407519
 20
274.47208043751982
 30
0.0
 40
1.0
 50
359.99999931675052
 51
90.000010000001026
  0
ARC
  5
D5FC
  8
AM_0
 10
219.96496820407509
 20
269.61209043751961
 30
0.0
 40
1.02
 50
269.99999700000228
 51
0.0
  0
ARC
  5
D5FD
  8
AM_0
 10
219.96496820407509
 20
269.61209043751961
 30
0.0
 40
1.5
 50
269.99999700000228
 51
0.0
  0
ARC
  5
D5FE
  8
AM_0
 10
219.96496820407509
 20
274.61209043751961
 30
0.0
 40
1.5
 50
359.99999931675052
 51
90.000010000001026
  0
LINE
  5
D5FF
  8
AM_0
 10
220.98498820407519
 20
269.61209043751961
 30
0.0
 11
220.98498820407519
 21
274.47208043751982
 31
0.0
  0
LINE
  5
D600
  8
AM_0
 10
236.94494820407519
 20
269.61209043751961
 30
0.0
 11
236.94494820407519
 21
274.47208043751982
 31
0.0
  0
LINE
  5
D601
  8
AM_0
 10
236.46496820407509
 20
269.61209043751961
 30
0.0
 11
236.46496820407509
 21
274.61209043751961
 31
0.0
  0
LINE
  5
D602
  8
AM_0
 10
221.46496820407509
 20
269.61209043751961
 30
0.0
 11
221.46496820407509
 21
274.61209043751961
 31
0.0
  0
CIRCLE
  5
D603
  8
AM_0
 10
226.46496820407509
 20
270.61209043751961
 30
0.0
 40
1.149999999999999
  0
CIRCLE
  5
D604
  8
AM_0
 10
226.46496820407509
 20
270.61209043751961
 30
0.0
 40
1.1000000000000001
  0
CIRCLE
  5
D605
  8
AM_0
 10
231.46496820407521
 20
270.61209043751961
 30
0.0
 40
1.0
  0
ARC
  5
D606
  8
AM_0
 10
510.4710564609108
 20
242.1120904375197
 30
0.0
 40
236.0
 50
169.43603828764111
 51
180.00000500895041
  0
LINE
  5
D607
  8
AM_0
 10
266.96496820407521
 20
298.11209043751973
 30
0.0
 11
276.52219731585092
 21
298.11209043751973
 31
0.0
  0
LINE
  5
D608
  8
AM_0
 10
266.96496820407521
 20
288.11209043751973
 30
0.0
 11
278.47107171970009
 21
288.11209043751973
 31
0.0
  0
LINE
  5
D609
  8
AM_0
 10
266.96496820407521
 20
274.05204043751968
 30
0.0
 11
276.57098434003791
 21
274.05204043751968
 31
0.0
  0
LINE
  5
D60A
  8
AM_0
 10
257.17065820407521
 20
281.43103043751972
 30
0.0
 11
253.02490820407519
 21
296.91214043751972
 31
0.0
  0
ARC
  5
D60B
  8
AM_0
 10
255.78497820407509
 20
277.15714043751962
 30
0.0
 40
1.6750020000000001
 50
269.99999700000228
 51
90.000010000001026
  0
LINE
  5
D60C
  8
AM_0
 10
255.78497820407509
 20
275.48209043751967
 30
0.0
 11
237.9449482040751
 21
275.48209043751967
 31
0.0
  0
LINE
  5
D60D
  8
AM_0
 10
237.96496820407521
 20
268.59207043751968
 30
0.0
 11
255.99920820407519
 21
268.59207043751968
 31
0.0
  0
LINE
  5
D60E
  8
AM_0
 10
252.29779820407509
 20
268.11209043751961
 30
0.0
 11
237.96496820407521
 21
268.11209043751961
 31
0.0
  0
ARC
  5
D60F
  8
AM_0
 10
252.3049382040752
 20
267.11209043751961
 30
0.0
 40
1.0000255999999981
 50
269.58946900000223
 51
90.410529999996797
  0
ARC
  5
D610
  8
AM_0
 10
252.30499820407519
 20
277.11209043751961
 30
0.0
 40
1.0
 50
269.99999700000228
 51
90.000010000001026
  0
ARC
  5
D611
  8
AM_0
 10
256.00494820407522
 20
267.14212043751968
 30
0.0
 40
1.460011199999999
 50
269.7752500000031
 51
90.224750000003354
  0
LINE
  5
D612
  8
AM_0
 10
258.96496820407509
 20
274.05203043751959
 30
0.0
 11
266.96496820407521
 21
274.05203043751959
 31
0.0
  0
ARC
  5
D613
  8
AM_0
 10
258.61816820407518
 20
281.83487043751973
 30
0.0
 40
1.5027759999999999
 50
194.75642999999889
 51
269.87758699999841
  0
LINE
  5
D614
  8
AM_0
 10
253.50701820407511
 20
295.11209043751961
 30
0.0
 11
258.96496820407509
 21
295.11209043751961
 31
0.0
  0
LINE
  5
D615
  8
AM_0
 10
257.96496820407521
 20
295.11212043751982
 30
0.0
 11
252.23916820407521
 21
303.92908043751959
 31
0.0
  0
LINE
  5
D616
  8
AM_0
 10
239.54404888986019
 20
304.61209043751961
 30
0.0
 11
250.9811482040752
 21
304.61209043751961
 31
0.0
  0
ARC
  5
D617
  8
AM_0
 10
239.54404888986019
 20
306.11209043751961
 30
0.0
 40
1.5
 50
181.5001349063532
 51
270.0
1001
GENIUS_GENODEF_13
1002
{
1000
HIER
1070
     0
1002
}
1002
{
1000
MANEDIT
1070
     0
1002
}
1002
{
1000
NOSEL
1070
     0
1002
}
1002
{
1000
BEHIND
1070
     0
1002
}
1002
{
1000
REACTOR
1002
}
1001
GENIUS_GENOBJ-N-FIL_13
1002
{
1000
OWNER
1000
GEN
1002
}
  0
ARC
  5
D618
  8
AM_0
 10
250.9811482040752
 20
303.11209043751961
 30
0.0
 40
1.5
 50
33.00000000000108
 51
90.000010000001026
  0
ARC
  5
D619
  8
AM_0
 10
251.09014820407509
 20
296.3873604375197
 30
0.0
 40
2.0047290000000002
 50
15.17349999999808
 51
89.861679999995786
  0
LINE
  5
D61A
  8
AM_0
 10
258.96496820407509
 20
288.11209043751961
 30
0.0
 11
266.96496820407521
 21
288.11209043751961
 31
0.0
  0
LINE
  5
D61B
  8
AM_0
 10
258.96496820407509
 20
298.11209043751961
 30
0.0
 11
266.96496820407521
 21
298.11209043751961
 31
0.0
  0
LINE
  5
D61C
  8
ﾁｭｳｼﾝｾﾝ1
 10
302.47107204752569
 20
274.6120914060952
 30
0.0
 11
302.47107204752569
 21
289.61209185313032
 31
0.0
  0
ARC
  5
D61D
  8
AM_0
 10
302.47107204752569
 20
282.11209162961262
 30
0.0
 40
11.00000032782555
 50
90.000002504475205
 51
180.00000500895689
  0
ARC
  5
D61E
  8
AM_0
 10
302.47107428269987
 20
266.40173277150421
 30
0.0
 40
5.0000000000000107
 50
99.386642005123306
 51
179.99999749551819
  0
LINE
  5
D61F
  8
AM_0
 10
278.97107171970021
 20
285.37870725880879
 30
0.0
 11
291.47107171970021
 21
285.37870725880879
 31
0.0
  0
LINE
  5
D620
  8
AM_0
 10
279.66485829708239
 20
291.11209043751973
 30
0.0
 11
296.14651639936352
 21
291.11209043751973
 31
0.0
  0
LINE
  5
D621
  8
AM_0
 10
278.52097840298109
 20
296.18190566315451
 30
0.0
 11
278.66568231540327
 21
292.03909239064473
 31
0.0
  0
ARC
  5
D622
  8
AM_0
 10
279.6648583407939
 20
292.11209043751973
 30
0.0
 40
1.0000000000000091
 50
187.1807504503941
 51
269.99999749551819
  0
ARC
  5
D623
  8
AM_0
 10
276.52219731585092
 20
296.11209043751973
 30
0.0
 40
2.0
 50
2.0004653026450021
 51
90.0
1001
GENIUS_GENODEF_13
1002
{
1000
HIER
1070
     0
1002
}
1002
{
1000
MANEDIT
1070
     0
1002
}
1002
{
1000
NOSEL
1070
     0
1002
}
1002
{
1000
BEHIND
1070
     0
1002
}
1002
{
1000
OTHER
1070
     0
1002
}
1002
{
1000
REACTOR
1002
}
1001
GENIUS_GENOBJ-N-FIL_13
1002
{
1000
OWNER
1000
GEN
1002
}
  0
LINE
  5
D624
  8
AM_0
 10
239.86713063565509
 20
332.61209043751961
 30
0.0
 11
237.6928257724951
 21
332.61209043751961
 31
0.0
  0
ARC
  5
D625
  8
AM_0
 10
236.8671306356552
 20
343.11209043751961
 30
0.0
 40
2.5
 50
0.0
 51
90.0
  0
LINE
  5
D626
  8
AM_0
 10
245.74225690150121
 20
328.61209043751961
 30
0.0
 11
237.36713063565409
 21
328.61209043751961
 31
0.0
  0
LINE
  5
D627
  8
AM_0
 10
241.46496820407521
 20
309.11209043751961
 30
0.0
 11
174.46496820407521
 21
309.11209043751961
 31
0.0
  0
LINE
  5
D628
  8
AM_0
 10
244.74225690150109
 20
311.61209043751961
 30
0.0
 11
234.06713063565419
 21
311.61209043751961
 31
0.0
  0
LINE
  5
D629
  8
AM_0
 10
226.86713063565409
 20
311.61209043751961
 30
0.0
 11
189.06713063565411
 21
311.61209043751961
 31
0.0
  0
LINE
  5
D62A
  8
AM_0
 10
202.36377659017509
 20
333.56209166158862
 30
0.0
 11
204.56713063565309
 21
333.18668402605459
 31
0.0
  0
LINE
  5
D62B
  8
AM_0
 10
182.86713063565409
 20
311.61209043751961
 30
0.0
 11
182.86713063565409
 21
328.61209043751961
 31
0.0
  0
LINE
  5
D62C
  8
AM_0
 10
202.36377659017509
 20
333.56209166158862
 30
0.0
 11
202.36377659017509
 21
316.61209043751961
 31
0.0
  0
LINE
  5
D62D
  8
AM_0
 10
194.96377659017509
 20
334.82290424350168
 30
0.0
 11
194.96377659017509
 21
316.61209043751848
 31
0.0
  0
LINE
  5
D62E
  8
AM_0
 10
197.1637765901751
 20
316.61209043751961
 30
0.0
 11
197.1637765901761
 21
334.4480680705006
 31
0.0
  0
LINE
  5
D62F
  8
AM_0
 10
198.6637765901751
 20
334.19249795254461
 30
0.0
 11
198.6637765901751
 21
316.61209043751961
 31
0.0
  0
LINE
  5
D630
  8
AM_0
 10
200.86377659017509
 20
316.61209043751961
 30
0.0
 11
200.86377659017509
 21
333.8176617795437
 31
0.0
  0
LINE
  5
D631
  8
AM_0
 10
192.96377659017509
 20
319.3234666167175
 30
0.0
 11
192.96377659017509
 21
335.16366440077559
 31
0.0
  0
LINE
  5
D632
  8
ﾁｭｳｼﾝｾﾝ1
 10
173.56713063565411
 20
316.61207543751959
 30
0.0
 11
173.56713063565411
 21
340.61207543751971
 31
0.0
  0
LINE
  5
D633
  8
AM_0
 10
189.06713063565411
 20
311.61209043751961
 30
0.0
 11
182.86713063565409
 21
311.61209043751961
 31
0.0
  0
LINE
  5
D634
  8
AM_0
 10
174.46496820407521
 20
311.61209043751961
 30
0.0
 11
174.46496820407521
 21
309.11209043751961
 31
0.0
  0
LINE
  5
D635
  8
AM_0
 10
181.86713063565409
 20
311.61209043751961
 30
0.0
 11
182.86713063565409
 21
311.61209043751961
 31
0.0
  0
LINE
  5
D636
  8
AM_0
 10
193.6637765901751
 20
316.61209043751961
 30
0.0
 11
193.6637765901751
 21
318.65611456011362
 31
0.0
  0
LINE
  5
D637
  8
AM_0
 10
194.96377659017509
 20
316.61209043751848
 30
0.0
 11
193.6637765901751
 21
316.61209043751961
 31
0.0
  0
LINE
  5
D638
  8
AM_0
 10
202.36377659017509
 20
316.61209043751961
 30
0.0
 11
200.86377659017509
 21
316.61209043751961
 31
0.0
  0
LINE
  5
D639
  8
AM_0
 10
198.6637765901751
 20
316.61209043751961
 30
0.0
 11
197.1637765901751
 21
316.61209043751961
 31
0.0
  0
LINE
  5
D63A
  8
AM_0
 10
194.96377659017509
 20
320.61209043751961
 30
0.0
 11
192.96377659017509
 21
320.61209043751961
 31
0.0
  0
LINE
  5
D63B
  8
AM_0
 10
193.6637765901751
 20
318.65611456011362
 30
0.0
 11
192.96377659017509
 21
319.3234666167175
 31
0.0
  0
LINE
  5
D63C
  8
AM_0
 10
202.36377659017509
 20
320.61209043751961
 30
0.0
 11
200.86377659017509
 21
320.61209043751961
 31
0.0
  0
LINE
  5
D63D
  8
AM_0
 10
198.6637765901751
 20
320.61209043751961
 30
0.0
 11
197.1637765901751
 21
320.61209043751961
 31
0.0
  0
CIRCLE
  5
D63E
  8
AM_0
 10
188.06713063565411
 20
328.61209043751961
 30
0.0
 40
0.75
  0
LINE
  5
D63F
  8
AM_0
 10
194.96377659017509
 20
334.82290424350168
 30
0.0
 11
197.1637765901761
 21
334.4480680705006
 31
0.0
  0
LINE
  5
D640
  8
AM_0
 10
198.6637765901751
 20
334.19249795254461
 30
0.0
 11
200.86377659017509
 21
333.8176617795437
 31
0.0
  0
LINE
  5
D641
  8
AM_0
 10
230.74225690150109
 20
328.72696395454778
 30
0.0
 11
230.74225690150109
 21
311.61209043751961
 31
0.0
  0
LINE
  5
D642
  8
AM_0
 10
219.38054681756211
 20
316.61209043751961
 30
0.0
 11
219.38054681756211
 21
330.66277301209982
 31
0.0
  0
LINE
  5
D643
  8
AM_0
 10
217.17719277208519
 20
331.03818064763271
 30
0.0
 11
217.17719277208519
 21
316.61209043751961
 31
0.0
  0
LINE
  5
D644
  8
AM_0
 10
220.88054681756199
 20
330.40720289414372
 30
0.0
 11
220.88054681756199
 21
316.61209043751961
 31
0.0
  0
LINE
  5
D645
  8
AM_0
 10
209.77048468113011
 20
332.30013615461058
 30
0.0
 11
209.77048468113011
 21
316.61209043751961
 31
0.0
  0
LINE
  5
D646
  8
AM_0
 10
211.97383872660819
 20
316.61209043751961
 30
0.0
 11
211.97383872660819
 21
331.92472851907661
 31
0.0
  0
LINE
  5
D647
  8
AM_0
 10
213.47383872660819
 20
331.66915840112171
 30
0.0
 11
213.47383872660819
 21
316.61209043751961
 31
0.0
  0
LINE
  5
D648
  8
AM_0
 10
215.67719277208519
 20
316.61209043751961
 30
0.0
 11
215.67719277208519
 21
331.29375076558858
 31
0.0
  0
LINE
  5
D649
  8
AM_0
 10
208.2704846811302
 20
316.61209043751961
 30
0.0
 11
208.2704846811302
 21
332.55570627256549
 31
0.0
  0
LINE
  5
D64A
  8
AM_0
 10
204.56713063565309
 20
316.61209043751961
 30
0.0
 11
204.56713063565309
 21
333.18668402605459
 31
0.0
  0
LINE
  5
D64B
  8
AM_0
 10
206.5671306356561
 20
332.84592386878057
 30
0.0
 11
206.5671306356561
 21
319.3234666167175
 31
0.0
  0
LINE
  5
D64C
  8
AM_0
 10
205.8671306356531
 20
318.65611456011362
 30
0.0
 11
205.8671306356531
 21
316.61209043751961
 31
0.0
  0
LINE
  5
D64D
  8
AM_0
 10
213.47383872660819
 20
316.61209043751961
 30
0.0
 11
211.97383872660819
 21
316.61209043751961
 31
0.0
  0
LINE
  5
D64E
  8
AM_0
 10
209.77048468113011
 20
316.61209043751961
 30
0.0
 11
208.2704846811302
 21
316.61209043751961
 31
0.0
  0
LINE
  5
D64F
  8
AM_0
 10
205.8671306356531
 20
316.61209043751961
 30
0.0
 11
204.56713063565309
 21
316.61209043751961
 31
0.0
  0
LINE
  5
D650
  8
AM_0
 10
220.88054681756199
 20
316.61209043751961
 30
0.0
 11
219.38054681756211
 21
316.61209043751961
 31
0.0
  0
LINE
  5
D651
  8
AM_0
 10
217.17719277208519
 20
316.61209043751961
 30
0.0
 11
215.67719277208519
 21
316.61209043751961
 31
0.0
  0
LINE
  5
D652
  8
AM_0
 10
213.47383872660819
 20
320.61209043751961
 30
0.0
 11
211.97383872660819
 21
320.61209043751961
 31
0.0
  0
LINE
  5
D653
  8
AM_0
 10
206.5671306356561
 20
319.3234666167175
 30
0.0
 11
205.8671306356531
 21
318.65611456011362
 31
0.0
  0
LINE
  5
D654
  8
AM_0
 10
209.77048468113011
 20
320.61209043751961
 30
0.0
 11
208.2704846811302
 21
320.61209043751961
 31
0.0
  0
LINE
  5
D655
  8
AM_0
 10
206.5671306356561
 20
320.61209043751961
 30
0.0
 11
204.56713063565309
 21
320.61209043751961
 31
0.0
  0
LINE
  5
D656
  8
AM_0
 10
220.88054681756199
 20
320.61209043751961
 30
0.0
 11
219.38054681756211
 21
320.61209043751961
 31
0.0
  0
LINE
  5
D657
  8
AM_0
 10
217.17719277208519
 20
320.61209043751961
 30
0.0
 11
215.67719277208519
 21
320.61209043751961
 31
0.0
  0
LINE
  5
D658
  8
AM_0
 10
234.06713063565419
 20
311.61209043751961
 30
0.0
 11
226.86713063565409
 21
311.61209043751961
 31
0.0
  0
LINE
  5
D659
  8
AM_0
 10
220.88054681756199
 20
330.40720289414372
 30
0.0
 11
230.74225690150109
 21
328.72696395454778
 31
0.0
  0
LINE
  5
D65A
  8
AM_0
 10
209.77048468113011
 20
332.30013615461058
 30
0.0
 11
211.97383872660819
 21
331.92472851907661
 31
0.0
  0
LINE
  5
D65B
  8
AM_0
 10
206.5671306356561
 20
332.84592386878057
 30
0.0
 11
208.2704846811302
 21
332.55570627256549
 31
0.0
  0
LINE
  5
D65C
  8
AM_0
 10
217.17719277208519
 20
331.03818064763271
 30
0.0
 11
219.38054681756211
 21
330.66277301209982
 31
0.0
  0
LINE
  5
D65D
  8
AM_0
 10
213.47383872660819
 20
331.66915840112171
 30
0.0
 11
215.67719277208519
 21
331.29375076558858
 31
0.0
  0
LINE
  5
D65E
  8
AM_0
 10
229.09728215467209
 20
345.61209043751961
 30
0.0
 11
229.09728215467209
 21
334.07659983505152
 31
0.0
  0
CIRCLE
  5
D65F
  8
AM_0
 10
222.56713063565419
 20
328.61209043751961
 30
0.0
 40
0.75
  0
LINE
  5
D660
  8
AM_0
 10
229.9671306356552
 20
333.92629566481662
 30
0.0
 11
229.9671306356552
 21
329.87290301943273
 31
0.0
  0
LINE
  5
D661
  8
AM_0
 10
245.74225690150121
 20
328.61209043751961
 30
0.0
 11
245.74225690150121
 21
312.61209043751961
 31
0.0
  0
ARC
  5
D662
  8
AM_0
 10
244.74225690150109
 20
312.61209043751961
 30
0.0
 40
1.0
 50
270.0
 51
0.0
  0
LINE
  5
D663
  8
AM_0
 10
241.46496820407521
 20
311.61209043751961
 30
0.0
 11
241.46496820407521
 21
309.11209043751961
 31
0.0
  0
LINE
  5
D664
  8
AM_0
 10
239.3671306356552
 20
333.11209043751961
 30
0.0
 11
239.3671306356552
 21
343.11209043751961
 31
0.0
  0
LINE
  5
D665
  8
AM_0
 10
245.74225690150121
 20
328.61209043751961
 30
0.0
 11
245.74225690150121
 21
332.11209043751961
 31
0.0
  0
ARC
  5
D666
  8
AM_0
 10
245.24225690150109
 20
332.11209043751961
 30
0.0
 40
0.5
 50
0.0
 51
90.0
  0
ARC
  5
D667
  8
AM_0
 10
239.86713063565509
 20
333.11209043751961
 30
0.0
 40
0.5
 50
180.0
 51
270.0
  0
LINE
  5
D668
  8
AM_0
 10
239.86713063565509
 20
332.61209043751961
 30
0.0
 11
245.24225690150109
 21
332.61209043751961
 31
0.0
  0
LINE
  5
D66B
  8
AM_0
 10
333.99379461961399
 20
287.11209043751973
 30
0.0
 11
385.94836920457487
 21
287.11209043751973
 31
0.0
  0
LINE
  5
D66E
  8
AM_0
 10
314.58432293675179
 20
286.11209043751978
 30
0.0
 11
316.0276986097258
 21
283.61209043751978
 31
0.0
  0
CIRCLE
  5
D66F
  8
AM_0
 10
317.47107428269987
 20
286.11209043751978
 30
0.0
 40
5.0
  0
CIRCLE
  5
D670
  8
AM_0
 10
317.47107428269987
 20
286.11209043751978
 30
0.0
 40
2.886751345948126
  0
LINE
  5
D671
  8
AM_0
 10
318.914449955674
 20
283.61209043751978
 30
0.0
 11
320.35782562864802
 21
286.11209043751978
 31
0.0
  0
ARC
  5
D672
  8
AM_0
 10
333.99379461961399
 20
282.11209043751978
 30
0.0
 40
4.9999999999999911
 50
90.000005008956919
 51
166.39104000729481
  0
ARC
  5
D673
  8
AM_0
 10
317.47107428269987
 20
286.11209043751978
 30
0.0
 40
6.0000000000000062
 50
179.99999749551819
 51
0.0000025044687019
  0
ARC
  5
D674
  8
AM_0
 10
317.47107428269987
 20
286.11209043751978
 30
0.0
 40
11.999999999999989
 50
279.38664786785051
 51
346.39104182853202
  0
LINE
  5
D675
  8
AM_0
 10
316.0276986097258
 20
283.61209043751978
 30
0.0
 11
318.914449955674
 21
283.61209043751978
 31
0.0
  0
ARC
  5
D676
  8
AM_0
 10
309.47107428269987
 20
291.11209043751978
 30
0.0
 40
2.0000000000000022
 50
0.0000025044687019
 51
90.000005008956919
  0
LINE
  5
D677
  8
AM_0
 10
311.47107428269987
 20
291.11209043751973
 30
0.0
 11
311.47107428269987
 21
286.11209043751978
 31
0.0
  0
LINE
  5
D678
  8
AM_0
 10
316.0276986097262
 20
288.6120904375199
 30
0.0
 11
314.58432293675179
 21
286.11209043751978
 31
0.0
  0
LINE
  5
D679
  8
AM_0
 10
318.91444995567372
 20
288.6120904375199
 30
0.0
 11
316.0276986097262
 21
288.6120904375199
 31
0.0
  0
LINE
  5
D67A
  8
AM_0
 10
320.35782562864802
 20
286.11209043751978
 30
0.0
 11
318.91444995567372
 21
288.6120904375199
 31
0.0
  0
ARC
  5
D67B
  8
AM_0
 10
325.47107428269987
 20
291.11209043751978
 30
0.0
 40
2.0000000000000062
 50
90.000005008956919
 51
180.000000683243
  0
LINE
  5
D67C
  8
AM_0
 10
323.47107428269987
 20
291.11209043751973
 30
0.0
 11
323.47107428269987
 21
286.11209043751978
 31
0.0
  0
LINE
  5
D680
  8
AM_0
 10
405.35782562864779
 20
286.11209043751978
 30
0.0
 11
403.9144499556736
 21
288.61209043751978
 31
0.0
1001
GENIUS_GENOREF_13
1005
0
  0
LINE
  5
D681
  8
AM_0
 10
403.91444995567389
 20
283.61209043751973
 30
0.0
 11
405.35782562864779
 21
286.11209043751978
 31
0.0
1001
GENIUS_GENOREF_13
1005
0
  0
CIRCLE
  5
D682
  8
AM_0
 10
402.4710742826997
 20
286.11209043751978
 30
0.0
 40
5.0
1001
GENIUS_GENOREF_13
1005
0
  0
CIRCLE
  5
D683
  8
AM_0
 10
402.4710742826997
 20
286.11209043751978
 30
0.0
 40
2.886751345948126
1001
GENIUS_GENOREF_13
1005
0
  0
LINE
  5
D684
  8
AM_0
 10
400.51392096238732
 20
274.27276548634779
 30
0.0
 11
418.286549746567
 21
271.33477720509779
 31
0.0
  0
ARC
  5
D685
  8
AM_0
 10
402.4710742826997
 20
286.11209043751978
 30
0.0
 40
6.0000000000000062
 50
179.99999749551819
 51
0.0000025044687019
  0
LINE
  5
D686
  8
AM_0
 10
399.58432293675168
 20
286.11209043751978
 30
0.0
 11
401.0276986097258
 21
283.61209043751973
 31
0.0
1001
GENIUS_GENOREF_13
1005
0
  0
ARC
  5
D687
  8
AM_0
 10
385.94836920457487
 20
282.11209043751973
 30
0.0
 40
5.0
 50
13.608963180428949
 51
90.000005008956919
  0
ARC
  5
D688
  8
AM_0
 10
402.4710742826997
 20
286.11209043751978
 30
0.0
 40
12.0
 50
193.608958171468
 51
260.6133521321496
  0
LINE
  5
D689
  8
AM_0
 10
401.0276986097258
 20
283.61209043751973
 30
0.0
 11
403.91444995567389
 21
283.61209043751973
 31
0.0
1001
GENIUS_GENOREF_13
1005
0
  0
ARC
  5
D68A
  8
AM_0
 10
394.47107428269987
 20
291.11209043751973
 30
0.0
 40
2.0000000000000022
 50
0.0000025044687019
 51
90.000005008956919
  0
LINE
  5
D68B
  8
AM_0
 10
401.02769860972597
 20
288.61209043751978
 30
0.0
 11
399.58432293675168
 21
286.11209043751978
 31
0.0
1001
GENIUS_GENOREF_13
1005
0
  0
LINE
  5
D68C
  8
AM_0
 10
403.9144499556736
 20
288.61209043751978
 30
0.0
 11
401.02769860972597
 21
288.61209043751978
 31
0.0
1001
GENIUS_GENOREF_13
1005
0
  0
LINE
  5
D68D
  8
AM_0
 10
396.47107428269987
 20
291.11209043751973
 30
0.0
 11
396.47107428269987
 21
286.11209043751978
 31
0.0
  0
CIRCLE
  5
D68E
  8
AM_0
 10
417.47107547479271
 20
282.11209162961262
 30
0.0
 40
4.5000001341104507
  0
LINE
  5
D68F
  8
ﾁｭｳｼﾝｾﾝ1
 10
417.47107547479271
 20
274.6120914060952
 30
0.0
 11
417.47107547479271
 21
289.61209185313032
 31
0.0
  0
ARC
  5
D690
  8
AM_0
 10
419.4710754747926
 20
282.11209162961262
 30
0.0
 40
11.000000327825539
 50
0.0
 51
90.0
  0
ARC
  5
D691
  8
AM_0
 10
417.47107428269987
 20
266.4017327715041
 30
0.0
 40
5.0000000000000044
 50
0.0000025044687019
 51
80.613357994876694
  0
LINE
  5
D692
  8
ﾁｭｳｼﾝｾﾝ1
 10
409.97107525127558
 20
282.11209162961262
 30
0.0
 11
424.97107569831019
 21
282.11209162961262
 31
0.0
  0
LINE
  5
D693
  8
AM_0
 10
408.47107428269982
 20
291.11209043751973
 30
0.0
 11
408.47107428269982
 21
286.11209043751978
 31
0.0
  0
ARC
  5
D694
  8
AM_0
 10
410.4710742826997
 20
291.11209043751973
 30
0.0
 40
2.0000000000000062
 50
90.000005008956919
 51
180.000000683243
  0
LINE
  5
D698
  8
AM_0
 10
685.15472309675579
 20
214.61208961795589
 30
0.0
 11
685.15472309675579
 21
269.61209125708359
 31
0.0
  0
LINE
  5
D699
  8
AM_0
 10
601.15472059336071
 20
214.61208961795589
 30
0.0
 11
601.15472059336071
 21
269.61209125708359
 31
0.0
  0
ARC
  5
D69A
  8
AM_0
 10
643.15472184505825
 20
242.11209043751981
 30
0.0
 40
56.5
 50
144.98137173791559
 51
165.88809156090261
  0
LINE
  5
D69B
  8
AM_0
 10
681.15472297754661
 20
179.6120907206419
 30
0.0
 11
681.1547229775465
 21
292.0124228341877
 31
0.0
  0
LINE
  5
D69C
  8
AM_0
 10
605.15472071256988
 20
179.6120907206419
 30
0.0
 11
605.15472071256988
 21
292.88517610660881
 31
0.0
  0
LINE
  5
D69D
  8
AM_0
 10
618.15472110000007
 20
191.1120889176012
 30
0.0
 11
618.15472110000007
 21
293.11209195743822
 31
0.0
  0
ARC
  5
D69E
  8
AM_0
 10
643.15472184505825
 20
242.11209043751981
 30
0.0
 40
56.5
 50
324.98137173791582
 51
345.88809156090252
  0
LINE
  5
D69F
  8
ﾁｭｳｼﾝｾﾝ1
 10
643.15472184505813
 20
353.73398522860077
 30
0.0
 11
643.15472184505813
 21
171.74174594504251
 31
0.0
  0
ARC
  5
D6A2
  8
AM_0
 10
678.10764680568059
 20
186.8130346570523
 30
0.0
 40
1.0
 50
181.99999999999719
 51
288.52714231446828
1001
GENIUS_GENODEF_13
1002
{
1000
HIER
1070
     0
1002
}
1002
{
1000
MANEDIT
1070
     0
1002
}
1002
{
1000
NOSEL
1070
     0
1002
}
1002
{
1000
BEHIND
1070
     0
1002
}
1002
{
1000
REACTOR
1002
}
1001
GENIUS_GENOBJ-N-FIL_13
1002
{
1000
OWNER
1000
GEN
1002
}
  0
LINE
  5
D6A3
  8
AM_0
 10
618.15472109999882
 20
191.1120889176014
 30
0.0
 11
681.1547229775465
 21
192.21175804085181
 31
0.0
  0
ARC
  5
D6A7
  8
AM_0
 10
622.09509500971467
 20
207.10002386129841
 30
0.0
 40
25.0
 50
237.46784718651381
 51
270.0
1001
GENIUS_GENOBJ-N-FIL_13
1002
{
1000
OWNER
1000
GEN
1002
}
1001
GENIUS_GENODEF_13
1002
{
1000
HIER
1070
     0
1002
}
1002
{
1000
MANEDIT
1070
     0
1002
}
1002
{
1000
NOSEL
1070
     0
1002
}
1002
{
1000
BEHIND
1070
     0
1002
}
1002
{
1000
OTHER
1070
     0
1002
}
1002
{
1000
REACTOR
1002
}
  0
ARC
  5
D6A8
  8
AM_0
 10
622.09509500971467
 20
207.10002386129841
 30
0.0
 40
30.0
 50
235.61998658935471
 51
268.37492001640601
1001
GENIUS_GENOBJ-N-FIL_13
1002
{
1000
OWNER
1000
GEN
1002
}
1001
GENIUS_GENODEF_13
1002
{
1000
HIER
1070
     0
1002
}
1002
{
1000
MANEDIT
1070
     0
1002
}
1002
{
1000
NOSEL
1070
     0
1002
}
1002
{
1000
BEHIND
1070
     0
1002
}
1002
{
1000
OTHER
1070
     0
1002
}
1002
{
1000
REACTOR
1002
}
  0
LINE
  5
D6A9
  8
AM_0
 10
618.15472110000007
 20
191.1120889176014
 30
0.0
 11
605.15472071256988
 21
191.33900476843081
 31
0.0
  0
LINE
  5
D6AE
  8
AM_0
 10
600.6547207125692
 20
182.22731440979121
 30
0.0
 11
595.03949702342015
 21
176.6120907206419
 31
0.0
  0
LINE
  5
D6AF
  8
AM_0
 10
594.65471923735493
 20
194.61208924542709
 30
0.0
 11
579.65472071256954
 21
179.61209072064199
 31
0.0
  0
LINE
  5
D6B0
  8
ﾁｭｳｼﾝｾﾝ1
 10
578.15472205367359
 20
186.6120907206421
 30
0.0
 11
578.15472205367348
 21
162.1120907206419
 31
0.0
  0
LINE
  5
D6B1
  8
AM_0
 10
600.6547207125692
 20
212.1120892454274
 30
0.0
 11
600.6547207125692
 21
179.6120907206419
 31
0.0
  0
LINE
  5
D6B4
  8
AM_0
 10
568.15472071257022
 20
176.6120907206419
 30
0.0
 11
597.65472071256897
 21
176.6120907206419
 31
0.0
  0
LINE
  5
D6B5
  8
AM_0
 10
568.15472071257022
 20
172.1120907206419
 30
0.0
 11
597.65472071256966
 21
172.1120907206419
 31
0.0
  0
LINE
  5
D6B7
  8
AM_0
 10
568.15472071257022
 20
176.6120907206419
 30
0.0
 11
568.15472071257022
 21
172.1120907206419
 31
0.0
  0
LINE
  5
D6B8
  8
ｶｸﾚｾﾝ2
 10
573.15472205367382
 20
172.11209072064199
 30
0.0
 11
573.15472205367382
 21
176.61209072064199
 31
0.0
  0
LINE
  5
D6B9
  8
AM_0
 10
579.6547207125692
 20
179.61209072064159
 30
0.0
 11
579.6547207125692
 21
176.6120907206419
 31
0.0
  0
LINE
  5
D6BA
  8
ｶｸﾚｾﾝ2
 10
583.15472205367359
 20
172.11209072064199
 30
0.0
 11
583.15472205367359
 21
176.61209072064199
 31
0.0
  0
ARC
  5
D6BC
  8
AM_0
 10
597.65472071256966
 20
179.6120907206419
 30
0.0
 40
7.5
 50
270.0
 51
0.0
1001
GENIUS_GENOBJ-N-FIL_13
1002
{
1000
OWNER
1000
GEN
1002
}
1001
GENIUS_GENODEF_13
1002
{
1000
HIER
1070
     0
1002
}
1002
{
1000
MANEDIT
1070
     0
1002
}
1002
{
1000
NOSEL
1070
     0
1002
}
1002
{
1000
BEHIND
1070
     0
1002
}
1002
{
1000
OTHER
1070
     0
1002
}
1002
{
1000
REACTOR
1002
}
  0
ARC
  5
D6BD
  8
AM_0
 10
597.65472071256897
 20
179.6120907206419
 30
0.0
 40
3.0
 50
270.0
 51
0.0
1001
GENIUS_GENOBJ-N-FIL_13
1002
{
1000
OWNER
1000
GEN
1002
}
1001
GENIUS_GENODEF_13
1002
{
1000
HIER
1070
     0
1002
}
1002
{
1000
MANEDIT
1070
     0
1002
}
1002
{
1000
NOSEL
1070
     0
1002
}
1002
{
1000
BEHIND
1070
     0
1002
}
1002
{
1000
OTHER
1070
     0
1002
}
1002
{
1000
REACTOR
1002
}
  0
LINE
  5
D6C2
  8
AM_0
 10
592.56472071256974
 20
209.612089245427
 30
0.0
 11
592.56472071256974
 21
194.612089245427
 31
0.0
  0
LINE
  5
D6C3
  8
AM_0
 10
599.06472071256962
 20
210.61208924542709
 30
0.0
 11
599.06472071256917
 21
193.612089245427
 31
0.0
  0
LINE
  5
D6C4
  8
AM_0
 10
592.56472071256974
 20
194.612089245427
 30
0.0
 11
599.06472071256962
 21
194.61208924542709
 31
0.0
  0
LINE
  5
D6C7
  8
AM_0
 10
607.13062202234914
 20
186.80221906468981
 30
0.0
 11
606.97330248070421
 21
191.3072613055908
 31
0.0
  0
LINE
  5
D6C8
  8
AM_0
 10
609.20118771145508
 20
186.77813516034959
 30
0.0
 11
609.35789476693856
 21
191.26563809240719
 31
0.0
  0
ARC
  5
D6C9
  8
AM_0
 10
643.15472184505825
 20
291.11209043751978
 30
0.0
 40
111.0
 50
251.4334191981043
 51
251.47285768553181
  0
ARC
  5
D6CA
  8
AM_0
 10
608.13001284936854
 20
186.83711856139229
 30
0.0
 40
1.0
 50
182.00000000000369
 51
251.433419198097
1001
GENIUS_GENODEF_13
1002
{
1000
HIER
1070
     0
1002
}
1002
{
1000
MANEDIT
1070
     0
1002
}
1002
{
1000
NOSEL
1070
     0
1002
}
1002
{
1000
BEHIND
1070
     0
1002
}
1002
{
1000
REACTOR
1002
}
1001
GENIUS_GENOBJ-N-FIL_13
1002
{
1000
OWNER
1000
GEN
1002
}
  0
ARC
  5
D6CB
  8
AM_0
 10
608.20179688443568
 20
186.8130346570523
 30
0.0
 40
1.0
 50
251.47285768553181
 51
358.00000000000279
1001
GENIUS_GENODEF_13
1002
{
1000
HIER
1070
     0
1002
}
1002
{
1000
MANEDIT
1070
     0
1002
}
1002
{
1000
NOSEL
1070
     0
1002
}
1002
{
1000
BEHIND
1070
     0
1002
}
1002
{
1000
REACTOR
1002
}
1001
GENIUS_GENOBJ-N-FIL_13
1002
{
1000
OWNER
1000
GEN
1002
}
  0
LINE
  5
D6CD
  8
AM_0
 10
599.06472071256917
 20
193.612089245427
 30
0.0
 11
600.65472071256954
 21
193.612089245427
 31
0.0
  0
ARC
  5
D6CE
  8
AM_0
 10
622.09509500971467
 20
207.10002386129841
 30
0.0
 40
25.0
 50
227.3424515085693
 51
233.155059700518
1001
GENIUS_GENOBJ-N-FIL_13
1002
{
1000
OWNER
1000
GEN
1002
}
1001
GENIUS_GENODEF_13
1002
{
1000
HIER
1070
     0
1002
}
1002
{
1000
MANEDIT
1070
     0
1002
}
1002
{
1000
NOSEL
1070
     0
1002
}
1002
{
1000
BEHIND
1070
     0
1002
}
1002
{
1000
OTHER
1070
     0
1002
}
1002
{
1000
REACTOR
1002
}
  0
LINE
  5
D6CF
  8
AM_0
 10
592.56472071256974
 20
198.362089245427
 30
0.0
 11
599.06472071256917
 21
198.362089245427
 31
0.0
  0
LINE
  5
D6D0
  8
AM_0
 10
592.56472071256974
 20
205.86208924542709
 30
0.0
 11
599.06472071256962
 21
205.86208924542689
 31
0.0
  0
LINE
  5
D6D1
  8
AM_0
 10
592.56472071256974
 20
209.612089245427
 30
0.0
 11
599.06472071256962
 21
209.612089245427
 31
0.0
  0
LINE
  5
D6D2
  8
AM_0
 10
589.15472184505825
 20
208.20513904866269
 30
0.0
 11
589.15472184505825
 21
215.94055957635501
 31
0.0
  0
LINE
  5
D6D3
  8
AM_0
 10
592.24472297754596
 20
206.11208924542709
 30
0.0
 11
592.24472297754596
 21
198.112089245427
 31
0.0
  0
LINE
  5
D6D4
  8
AM_5
 10
592.56472071256974
 20
199.112089245427
 30
0.0
 11
592.24472297754573
 21
199.112089245427
 31
0.0
  0
LINE
  5
D6D5
  8
AM_5
 10
592.56472071256974
 20
205.112089245427
 30
0.0
 11
592.24472297754596
 21
205.112089245427
 31
0.0
  0
LINE
  5
D6D6
  8
AM_0
 10
592.56472071256974
 20
198.112089245427
 30
0.0
 11
592.24472297754573
 21
198.112089245427
 31
0.0
  0
LINE
  5
D6D7
  8
AM_0
 10
592.56472071256974
 20
206.11208924542709
 30
0.0
 11
592.24472297754596
 21
206.11208924542709
 31
0.0
  0
ARC
  5
D6D8
  8
AM_0
 10
587.87974996893035
 20
207.08738144182979
 30
0.0
 40
1.0
 50
198.56658080190289
 51
267.99999999999642
1001
GENIUS_GENODEF_13
1002
{
1000
HIER
1070
     0
1002
}
1002
{
1000
MANEDIT
1070
     0
1002
}
1002
{
1000
NOSEL
1070
     0
1002
}
1002
{
1000
BEHIND
1070
     0
1002
}
1002
{
1000
REACTOR
1002
}
1001
GENIUS_GENOBJ-N-FIL_13
1002
{
1000
OWNER
1000
GEN
1002
}
  0
ARC
  5
D6D9
  8
AM_0
 10
587.85566606459065
 20
207.15916547689719
 30
0.0
 40
1.0
 50
92.000000000003581
 51
198.52714231446819
1001
GENIUS_GENODEF_13
1002
{
1000
HIER
1070
     0
1002
}
1002
{
1000
MANEDIT
1070
     0
1002
}
1002
{
1000
NOSEL
1070
     0
1002
}
1002
{
1000
BEHIND
1070
     0
1002
}
1002
{
1000
REACTOR
1002
}
1001
GENIUS_GENOBJ-N-FIL_13
1002
{
1000
OWNER
1000
GEN
1002
}
  0
ARC
  5
D6DA
  8
AM_0
 10
692.15472184505825
 20
242.1120904375197
 30
0.0
 40
111.0
 50
198.52714231446819
 51
198.56658080189669
  0
LINE
  5
D6DB
  8
AM_0
 10
587.84485047222802
 20
206.08799061481079
 30
0.0
 11
592.24472297754596
 21
205.93434368125941
 31
0.0
  0
LINE
  5
D6DC
  8
AM_0
 10
587.82076656788774
 20
208.1585563039165
 30
0.0
 11
592.56472071256974
 21
208.32421883308231
 31
0.0
  0
LINE
  5
D6DD
  8
AM_0
 10
585.00475214751941
 20
216.0854797115604
 30
0.0
 11
593.15502724762496
 21
215.80086583349529
 31
0.0
  0
LINE
  5
D6DE
  8
AM_0
 10
584.98841741319643
 20
218.15427636056401
 30
0.0
 11
591.87376778693795
 21
218.39471809383531
 31
0.0
  0
ARC
  5
D6DF
  8
AM_0
 10
692.15472184505825
 20
242.1120904375197
 30
0.0
 40
111.0
 50
193.11367014330619
 51
193.15111826064779
  0
ARC
  5
D6E0
  8
AM_0
 10
585.02331690989911
 20
217.1548855335447
 30
0.0
 40
1.0
 50
92.000000000003581
 51
193.11367014329841
1001
GENIUS_GENODEF_13
1002
{
1000
HIER
1070
     0
1002
}
1002
{
1000
MANEDIT
1070
     0
1002
}
1002
{
1000
NOSEL
1070
     0
1002
}
1002
{
1000
BEHIND
1070
     0
1002
}
1002
{
1000
REACTOR
1002
}
1001
GENIUS_GENOBJ-N-FIL_13
1002
{
1000
OWNER
1000
GEN
1002
}
  0
ARC
  5
D6E1
  8
AM_0
 10
585.03965164422175
 20
217.08487053857939
 30
0.0
 40
1.0
 50
193.15111826064779
 51
267.99999999999642
1001
GENIUS_GENODEF_13
1002
{
1000
HIER
1070
     0
1002
}
1002
{
1000
MANEDIT
1070
     0
1002
}
1002
{
1000
NOSEL
1070
     0
1002
}
1002
{
1000
BEHIND
1070
     0
1002
}
1002
{
1000
REACTOR
1002
}
1001
GENIUS_GENOBJ-N-FIL_13
1002
{
1000
OWNER
1000
GEN
1002
}
  0
LINE
  5
D6E2
  8
0
 10
600.6547207125692
 20
212.11208924542731
 30
0.0
 11
605.15472071256988
 21
212.11208924542731
 31
0.0
  0
LINE
  5
D6E3
  8
AM_0
 10
601.15472059336071
 20
214.61208961795589
 30
0.0
 11
605.15472071256988
 21
214.61208961795589
 31
0.0
  0
LINE
  5
D6E4
  8
AM_0
 10
599.06472071256917
 20
210.61208924542709
 30
0.0
 11
600.65472071256954
 21
210.61208924542709
 31
0.0
  0
CIRCLE
  5
D6E5
  8
AM_0
 10
643.09509500971456
 20
179.60605690353989
 30
0.0
 40
2.4939669577585151
  0
LINE
  5
D6E6
  8
AM_0
 10
644.89509500971474
 20
183.36208994578141
 30
0.0
 11
641.29509500971471
 21
183.36208994578141
 31
0.0
  0
ARC
  5
D6E7
  8
AM_0
 10
643.15472184505825
 20
242.11209043751981
 30
0.0
 40
56.5
 50
244.48212463480019
 51
297.51787536520209
  0
LINE
  5
D6E8
  8
AM_0
 10
638.09509500971467
 20
177.11208994578141
 30
0.0
 11
621.24431919988899
 21
177.11208994578141
 31
0.0
  0
ARC
  5
D6E9
  8
AM_0
 10
628.19377307194554
 20
182.13424859887681
 30
0.0
 40
1.0
 50
262.18305216830549
 51
358.00000000000279
1001
GENIUS_GENODEF_13
1002
{
1000
HIER
1070
     0
1002
}
1002
{
1000
MANEDIT
1070
     0
1002
}
1002
{
1000
NOSEL
1070
     0
1002
}
1002
{
1000
BEHIND
1070
     0
1002
}
1002
{
1000
REACTOR
1002
}
1001
GENIUS_GENOBJ-N-FIL_13
1002
{
1000
OWNER
1000
GEN
1002
}
  0
LINE
  5
D6EA
  8
AM_0
 10
619.19690776810216
 20
183.94578600565819
 30
0.0
 11
619.43734950137377
 21
190.8311363793996
 31
0.0
  0
LINE
  5
D6EB
  8
AM_0
 10
617.128111119099
 20
183.9621207399808
 30
0.0
 11
616.87765029726768
 21
191.13438027138099
 31
0.0
  0
LINE
  5
D6EC
  8
AM_0
 10
627.12547448899204
 20
182.1088312545476
 30
0.0
 11
626.91993208514464
 21
187.99479559149671
 31
0.0
  0
ARC
  5
D6ED
  8
AM_0
 10
618.12750194611783
 20
183.9970202366834
 30
0.0
 40
1.0
 50
181.99999999999719
 51
256.84888173934507
1001
GENIUS_GENODEF_13
1002
{
1000
HIER
1070
     0
1002
}
1002
{
1000
MANEDIT
1070
     0
1002
}
1002
{
1000
NOSEL
1070
     0
1002
}
1002
{
1000
BEHIND
1070
     0
1002
}
1002
{
1000
REACTOR
1002
}
1001
GENIUS_GENOBJ-N-FIL_13
1002
{
1000
OWNER
1000
GEN
1002
}
  0
ARC
  5
D6EE
  8
AM_0
 10
643.15472184505825
 20
291.11209043751978
 30
0.0
 40
111.0
 50
256.84888173934507
 51
256.88632985670091
  0
ARC
  5
D6EF
  8
AM_0
 10
618.19751694108334
 20
183.9806855023609
 30
0.0
 40
1.0
 50
256.88632985670091
 51
357.99999999999642
1001
GENIUS_GENODEF_13
1002
{
1000
HIER
1070
     0
1002
}
1002
{
1000
MANEDIT
1070
     0
1002
}
1002
{
1000
NOSEL
1070
     0
1002
}
1002
{
1000
BEHIND
1070
     0
1002
}
1002
{
1000
REACTOR
1002
}
1001
GENIUS_GENOBJ-N-FIL_13
1002
{
1000
OWNER
1000
GEN
1002
}
  0
LINE
  5
D6F0
  8
AM_0
 10
627.06615521459787
 20
182.10002386129841
 30
0.0
 11
622.09509500971467
 21
182.10002386129841
 31
0.0
  0
ARC
  5
D6F1
  8
AM_0
 10
628.12486531601076
 20
182.1437307512501
 30
0.0
 40
1.0
 50
181.99999999999719
 51
262.1468219111938
1001
GENIUS_GENODEF_13
1002
{
1000
HIER
1070
     0
1002
}
1002
{
1000
MANEDIT
1070
     0
1002
}
1002
{
1000
NOSEL
1070
     0
1002
}
1002
{
1000
BEHIND
1070
     0
1002
}
1002
{
1000
REACTOR
1002
}
1001
GENIUS_GENOBJ-N-FIL_13
1002
{
1000
OWNER
1000
GEN
1002
}
  0
ARC
  5
D6F2
  8
AM_0
 10
643.15472184505825
 20
291.11209043751978
 30
0.0
 40
111.0
 50
262.14682191118732
 51
262.18305216830549
  0
LINE
  5
D6F3
  8
AM_0
 10
629.1931638989646
 20
182.09934910217399
 30
0.0
 11
629.37540698483099
 21
187.31810826809979
 31
0.0
  0
LINE
  5
D6F4
  8
AM_0
 10
637.03134181486723
 20
182.10002386129841
 30
0.0
 11
629.13356062672869
 21
182.1000238612985
 31
0.0
  0
LINE
  5
D6F5
  8
AM_0
 10
641.29509500971471
 20
177.11208994578141
 30
0.0
 11
638.09509500971467
 21
177.11208994578141
 31
0.0
  0
LINE
  5
D6F6
  8
AM_0
 10
643.09509500971467
 20
177.11208994578141
 30
0.0
 11
641.29509500971471
 21
177.11208994578129
 31
0.0
  0
LINE
  5
D6F7
  8
AM_0
 10
641.29509500971471
 20
177.8798265636396
 30
0.0
 11
641.29509500971471
 21
177.11208994578141
 31
0.0
  0
LINE
  5
D6F8
  8
AM_0
 10
638.09509500971467
 20
180.2278105055949
 30
0.0
 11
638.09509500971467
 21
177.11208994578141
 31
0.0
  0
LINE
  5
D6F9
  8
AM_0
 10
643.09509500971467
 20
182.10002386129841
 30
0.0
 11
641.29509500971471
 21
182.1000238612983
 31
0.0
  0
LINE
  5
D6FA
  8
AM_0
 10
641.29509500971471
 20
183.36208994578141
 30
0.0
 11
641.29509500971471
 21
181.33228724344011
 31
0.0
  0
ARC
  5
D6FB
  8
AM_0
 10
638.19042922729466
 20
181.22416662964531
 30
0.0
 40
1.0
 50
267.41336677122672
 51
357.99999999999642
1001
GENIUS_GENODEF_13
1002
{
1000
HIER
1070
     0
1002
}
1002
{
1000
MANEDIT
1070
     0
1002
}
1002
{
1000
NOSEL
1070
     0
1002
}
1002
{
1000
BEHIND
1070
     0
1002
}
1002
{
1000
REACTOR
1002
}
1001
GENIUS_GENOBJ-N-FIL_13
1002
{
1000
OWNER
1000
GEN
1002
}
  0
ARC
  5
D6FC
  8
AM_0
 10
643.15472184505825
 20
291.11209043751978
 30
0.0
 40
111.0
 50
267.37771591204711
 51
267.41336677122672
  0
ARC
  5
D6FD
  8
AM_0
 10
638.12205519317877
 20
181.22727680810581
 30
0.0
 40
1.0
 50
181.99999999999719
 51
267.37771591204711
1001
GENIUS_GENODEF_13
1002
{
1000
HIER
1070
     0
1002
}
1002
{
1000
MANEDIT
1070
     0
1002
}
1002
{
1000
NOSEL
1070
     0
1002
}
1002
{
1000
BEHIND
1070
     0
1002
}
1002
{
1000
REACTOR
1002
}
1001
GENIUS_GENOBJ-N-FIL_13
1002
{
1000
OWNER
1000
GEN
1002
}
  0
LINE
  5
D6FE
  8
AM_0
 10
637.1226643661596
 20
181.19237731140331
 30
0.0
 11
636.95641589231184
 21
185.9531107164089
 31
0.0
  0
LINE
  5
D6FF
  8
AM_0
 10
639.18982005431394
 20
181.1892671329428
 30
0.0
 11
639.3487500156748
 21
185.74042576071679
 31
0.0
  0
LINE
  5
D700
  8
AM_0
 10
659.18396920112434
 20
182.1088312545476
 30
0.0
 11
659.38951160497186
 21
187.99479559149671
 31
0.0
  0
LINE
  5
D701
  8
AM_0
 10
657.11627979115178
 20
182.09934910217399
 30
0.0
 11
656.93403670528551
 21
187.31810826809979
 31
0.0
  0
LINE
  5
D702
  8
AM_0
 10
648.09509500971467
 20
177.11208994578141
 30
0.0
 11
644.89509500971474
 21
177.11208994578141
 31
0.0
  0
LINE
  5
D703
  8
AM_0
 10
644.89509500971474
 20
183.36208994578141
 30
0.0
 11
644.89509500971462
 21
181.33228724343991
 31
0.0
  0
LINE
  5
D704
  8
AM_0
 10
644.89509500971462
 20
177.87982656363991
 30
0.0
 11
644.89509500971474
 21
177.11208994578141
 31
0.0
  0
LINE
  5
D705
  8
AM_0
 10
648.09509500971467
 20
180.22480434155679
 30
0.0
 11
648.09509500971467
 21
177.11208994578141
 31
0.0
  0
ARC
  5
D706
  8
AM_0
 10
648.18738849693773
 20
181.22727680810581
 30
0.0
 40
1.0
 50
272.62228408795289
 51
358.00000000000279
1001
GENIUS_GENODEF_13
1002
{
1000
HIER
1070
     0
1002
}
1002
{
1000
MANEDIT
1070
     0
1002
}
1002
{
1000
NOSEL
1070
     0
1002
}
1002
{
1000
BEHIND
1070
     0
1002
}
1002
{
1000
REACTOR
1002
}
1001
GENIUS_GENOBJ-N-FIL_13
1002
{
1000
OWNER
1000
GEN
1002
}
  0
ARC
  5
D707
  8
AM_0
 10
648.11901446282172
 20
181.22416662964531
 30
0.0
 40
1.0
 50
182.00000000000369
 51
272.58663322877328
1001
GENIUS_GENODEF_13
1002
{
1000
HIER
1070
     0
1002
}
1002
{
1000
MANEDIT
1070
     0
1002
}
1002
{
1000
NOSEL
1070
     0
1002
}
1002
{
1000
BEHIND
1070
     0
1002
}
1002
{
1000
REACTOR
1002
}
1001
GENIUS_GENOBJ-N-FIL_13
1002
{
1000
OWNER
1000
GEN
1002
}
  0
ARC
  5
D708
  8
AM_0
 10
643.15472184505825
 20
291.11209043751978
 30
0.0
 40
111.0
 50
272.58663322877328
 51
272.62228408795289
  0
LINE
  5
D709
  8
AM_0
 10
647.11962363580255
 20
181.1892671329428
 30
0.0
 11
646.96069367444159
 21
185.74042576071679
 31
0.0
  0
LINE
  5
D70A
  8
AM_0
 10
649.18677932395644
 20
181.19237731140331
 30
0.0
 11
649.35302779780466
 21
185.9531107164089
 31
0.0
  0
ARC
  5
D70B
  8
AM_0
 10
658.11567061817084
 20
182.13424859887681
 30
0.0
 40
1.0
 50
181.99999999999719
 51
277.81694783169439
1001
GENIUS_GENODEF_13
1002
{
1000
HIER
1070
     0
1002
}
1002
{
1000
MANEDIT
1070
     0
1002
}
1002
{
1000
NOSEL
1070
     0
1002
}
1002
{
1000
BEHIND
1070
     0
1002
}
1002
{
1000
REACTOR
1002
}
1001
GENIUS_GENOBJ-N-FIL_13
1002
{
1000
OWNER
1000
GEN
1002
}
  0
ARC
  5
D70C
  8
AM_0
 10
658.18457837410551
 20
182.1437307512501
 30
0.0
 40
1.0
 50
277.85317808880632
 51
358.00000000000279
1001
GENIUS_GENODEF_13
1002
{
1000
HIER
1070
     0
1002
}
1002
{
1000
MANEDIT
1070
     0
1002
}
1002
{
1000
NOSEL
1070
     0
1002
}
1002
{
1000
BEHIND
1070
     0
1002
}
1002
{
1000
REACTOR
1002
}
1001
GENIUS_GENOBJ-N-FIL_13
1002
{
1000
OWNER
1000
GEN
1002
}
  0
ARC
  5
D70D
  8
AM_0
 10
643.15472184505825
 20
291.11209043751978
 30
0.0
 40
111.0
 50
277.81694783169439
 51
277.85317808880632
  0
LINE
  5
D70E
  8
AM_0
 10
667.1125359220141
 20
183.94578600565819
 30
0.0
 11
666.87209418874272
 21
190.8311363793996
 31
0.0
  0
LINE
  5
D70F
  8
AM_0
 10
677.1082559786613
 20
186.77813516034959
 30
0.0
 11
676.92109027322454
 21
192.13785970711561
 31
0.0
  0
LINE
  5
D710
  8
AM_0
 10
669.18133257101749
 20
183.9621207399808
 30
0.0
 11
669.46228919724172
 21
192.00766585004769
 31
0.0
  0
ARC
  5
D711
  8
AM_0
 10
668.18194174399844
 20
183.9970202366834
 30
0.0
 40
1.0
 50
283.15111826065493
 51
358.00000000000279
1001
GENIUS_GENODEF_13
1002
{
1000
HIER
1070
     0
1002
}
1002
{
1000
MANEDIT
1070
     0
1002
}
1002
{
1000
NOSEL
1070
     0
1002
}
1002
{
1000
BEHIND
1070
     0
1002
}
1002
{
1000
REACTOR
1002
}
1001
GENIUS_GENOBJ-N-FIL_13
1002
{
1000
OWNER
1000
GEN
1002
}
  0
ARC
  5
D712
  8
AM_0
 10
643.15472184505825
 20
291.11209043751978
 30
0.0
 40
111.0
 50
283.1136701432992
 51
283.15111826065493
  0
ARC
  5
D713
  8
AM_0
 10
668.11192674903305
 20
183.9806855023609
 30
0.0
 40
1.0
 50
182.00000000000369
 51
283.1136701432992
1001
GENIUS_GENODEF_13
1002
{
1000
HIER
1070
     0
1002
}
1002
{
1000
MANEDIT
1070
     0
1002
}
1002
{
1000
NOSEL
1070
     0
1002
}
1002
{
1000
BEHIND
1070
     0
1002
}
1002
{
1000
REACTOR
1002
}
1001
GENIUS_GENOBJ-N-FIL_13
1002
{
1000
OWNER
1000
GEN
1002
}
  0
LINE
  5
D71B
  8
AM_0
 10
685.65472297754695
 20
182.22731440979121
 30
0.0
 11
691.26994666669611
 21
176.6120907206419
 31
0.0
  0
LINE
  5
D71C
  8
AM_0
 10
690.65472445276157
 20
195.612089245427
 30
0.0
 11
706.65472297754673
 21
179.61209072064199
 31
0.0
  0
LINE
  5
D71D
  8
ﾁｭｳｼﾝｾﾝ1
 10
708.1547216364412
 20
186.61209072064219
 30
0.0
 11
708.1547216364412
 21
162.1120907206419
 31
0.0
  0
LINE
  5
D71E
  8
AM_0
 10
685.65472297754604
 20
212.1120892454274
 30
0.0
 11
685.65472297754604
 21
179.6120907206419
 31
0.0
  0
LINE
  5
D721
  8
AM_0
 10
718.15472297754525
 20
176.6120907206419
 30
0.0
 11
688.65472297754593
 21
176.6120907206419
 31
0.0
  0
LINE
  5
D722
  8
AM_0
 10
718.15472297754525
 20
172.1120907206419
 30
0.0
 11
688.65472297754525
 21
172.1120907206419
 31
0.0
  0
ARC
  5
D723
  8
AM_0
 10
688.65472297754525
 20
179.6120907206419
 30
0.0
 40
7.5
 50
180.0
 51
270.0
1001
GENIUS_GENOBJ-N-FIL_13
1002
{
1000
OWNER
1000
GEN
1002
}
1001
GENIUS_GENODEF_13
1002
{
1000
HIER
1070
     0
1002
}
1002
{
1000
MANEDIT
1070
     0
1002
}
1002
{
1000
NOSEL
1070
     0
1002
}
1002
{
1000
BEHIND
1070
     0
1002
}
1002
{
1000
OTHER
1070
     0
1002
}
1002
{
1000
REACTOR
1002
}
  0
ARC
  5
D724
  8
AM_0
 10
688.65472297754593
 20
179.6120907206419
 30
0.0
 40
3.0
 50
180.0
 51
270.0
1001
GENIUS_GENOBJ-N-FIL_13
1002
{
1000
OWNER
1000
GEN
1002
}
1001
GENIUS_GENODEF_13
1002
{
1000
HIER
1070
     0
1002
}
1002
{
1000
MANEDIT
1070
     0
1002
}
1002
{
1000
NOSEL
1070
     0
1002
}
1002
{
1000
BEHIND
1070
     0
1002
}
1002
{
1000
OTHER
1070
     0
1002
}
1002
{
1000
REACTOR
1002
}
  0
LINE
  5
D726
  8
ｶｸﾚｾﾝ2
 10
703.1547216364412
 20
172.11209072064199
 30
0.0
 11
703.1547216364412
 21
176.61209072064199
 31
0.0
  0
LINE
  5
D727
  8
AM_0
 10
706.65472297754695
 20
179.61209072064159
 30
0.0
 11
706.65472297754673
 21
176.6120907206419
 31
0.0
  0
LINE
  5
D729
  8
AM_0
 10
718.15472297754525
 20
176.6120907206419
 30
0.0
 11
718.15472297754525
 21
172.1120907206419
 31
0.0
  0
LINE
  5
D72A
  8
ｶｸﾚｾﾝ2
 10
713.15472163644165
 20
172.11209072064199
 30
0.0
 11
713.15472163644165
 21
176.61209072064199
 31
0.0
  0
LINE
  5
D72D
  8
AM_0
 10
695.24472297754573
 20
208.612089245427
 30
0.0
 11
695.24472297754573
 21
195.612089245427
 31
0.0
  0
LINE
  5
D72E
  8
AM_0
 10
687.24472297754596
 20
210.61208924542709
 30
0.0
 11
687.24472297754596
 21
193.612089245427
 31
0.0
  0
LINE
  5
D72F
  8
AM_0
 10
687.24472297754596
 20
195.612089245427
 30
0.0
 11
695.24472297754573
 21
195.612089245427
 31
0.0
  0
LINE
  5
D730
  8
AM_0
 10
679.17882166776724
 20
186.80221906468981
 30
0.0
 11
679.36663701380542
 21
192.1805468842575
 31
0.0
  0
ARC
  5
D731
  8
AM_0
 10
643.15472184505825
 20
291.11209043751978
 30
0.0
 40
111.0
 50
288.52714231446828
 51
288.56658080189573
  0
ARC
  5
D732
  8
AM_0
 10
678.17943084074795
 20
186.83711856139229
 30
0.0
 40
1.0
 50
288.56658080190289
 51
357.99999999999642
1001
GENIUS_GENODEF_13
1002
{
1000
HIER
1070
     0
1002
}
1002
{
1000
MANEDIT
1070
     0
1002
}
1002
{
1000
NOSEL
1070
     0
1002
}
1002
{
1000
BEHIND
1070
     0
1002
}
1002
{
1000
REACTOR
1002
}
1001
GENIUS_GENOBJ-N-FIL_13
1002
{
1000
OWNER
1000
GEN
1002
}
  0
LINE
  5
D734
  8
AM_0
 10
687.24472297754596
 20
193.612089245427
 30
0.0
 11
685.65472297754604
 21
193.612089245427
 31
0.0
  0
LINE
  5
D737
  8
AM_0
 10
687.24472297754596
 20
208.612089245427
 30
0.0
 11
695.24472297754573
 21
208.612089245427
 31
0.0
  0
LINE
  5
D738
  8
AM_0
 10
701.30469154259697
 20
216.08547971156031
 30
0.0
 11
693.15441644249131
 21
215.80086583349521
 31
0.0
  0
LINE
  5
D739
  8
AM_0
 10
701.32102627691972
 20
218.1542763605639
 30
0.0
 11
694.43567590317843
 21
218.39471809383531
 31
0.0
  0
LINE
  5
D73A
  8
AM_0
 10
687.24472297754596
 20
210.61208924542709
 30
0.0
 11
685.65472297754604
 21
210.61208924542709
 31
0.0
  0
LINE
  5
D73B
  8
0
 10
685.65472297754695
 20
212.11208924542731
 30
0.0
 11
681.15472297754616
 21
212.11208924542731
 31
0.0
  0
LINE
  5
D73C
  8
AM_0
 10
685.15472309675579
 20
214.61208961795589
 30
0.0
 11
681.1547229775465
 21
214.61208961795589
 31
0.0
  0
LINE
  5
D73D
  8
AM_0
 10
689.15472184505825
 20
208.61208924542689
 30
0.0
 11
689.15472184505825
 21
208.8292119562343
 31
0.0
1001
GENIUS_GENODEF_13
1002
{
1000
HIER
1070
     0
1002
}
1002
{
1000
MANEDIT
1070
     0
1002
}
1002
{
1000
NOSEL
1070
     0
1002
}
1002
{
1000
BEHIND
1070
     0
1002
}
1002
{
1000
REACTOR
1002
}
1001
GENIUS_GENOBJ-N-CEN_13
1002
{
1000
OWNER
1000
GEN
1002
}
  0
ARC
  5
D73E
  8
AM_0
 10
690.65472184505825
 20
208.82921195623419
 30
0.0
 40
1.5
 50
144.98137173791559
 51
180.0
1001
GENIUS_GENODEF_13
1002
{
1000
HIER
1070
     0
1002
}
1002
{
1000
MANEDIT
1070
     0
1002
}
1002
{
1000
NOSEL
1070
     0
1002
}
1002
{
1000
BEHIND
1070
     0
1002
}
1002
{
1000
REACTOR
1002
}
1001
GENIUS_GENOBJ-N-FIL_13
1002
{
1000
OWNER
1000
GEN
1002
}
  0
LINE
  5
D73F
  8
AM_0
 10
697.15472184505813
 20
208.2051390486626
 30
0.0
 11
697.15472184505825
 21
215.94055957635501
 31
0.0
  0
ARC
  5
D740
  8
AM_0
 10
698.42969372118569
 20
207.08738144182979
 30
0.0
 40
1.0
 50
272.00000000000358
 51
341.433419198097
1001
GENIUS_GENODEF_13
1002
{
1000
HIER
1070
     0
1002
}
1002
{
1000
MANEDIT
1070
     0
1002
}
1002
{
1000
NOSEL
1070
     0
1002
}
1002
{
1000
BEHIND
1070
     0
1002
}
1002
{
1000
REACTOR
1002
}
1001
GENIUS_GENOBJ-N-FIL_13
1002
{
1000
OWNER
1000
GEN
1002
}
  0
ARC
  5
D741
  8
AM_0
 10
594.15472184505825
 20
242.11209043751981
 30
0.0
 40
111.0
 50
341.43341919810331
 51
341.47285768553172
  0
ARC
  5
D742
  8
AM_0
 10
698.45377762552584
 20
207.15916547689719
 30
0.0
 40
1.0
 50
341.47285768553172
 51
87.999999999996405
1001
GENIUS_GENODEF_13
1002
{
1000
HIER
1070
     0
1002
}
1002
{
1000
MANEDIT
1070
     0
1002
}
1002
{
1000
NOSEL
1070
     0
1002
}
1002
{
1000
BEHIND
1070
     0
1002
}
1002
{
1000
REACTOR
1002
}
1001
GENIUS_GENOBJ-N-FIL_13
1002
{
1000
OWNER
1000
GEN
1002
}
  0
LINE
  5
D743
  8
AM_0
 10
698.46459321788814
 20
206.08799061481071
 30
0.0
 11
695.24472297754585
 21
205.97555026835431
 31
0.0
  0
LINE
  5
D744
  8
AM_0
 10
698.48867712222875
 20
208.15855630391641
 30
0.0
 11
695.24472297754573
 21
208.27183767884461
 31
0.0
  0
ARC
  5
D745
  8
AM_0
 10
701.28612678021716
 20
217.1548855335447
 30
0.0
 40
1.0
 50
346.88632985670171
 51
87.999999999996405
1001
GENIUS_GENODEF_13
1002
{
1000
HIER
1070
     0
1002
}
1002
{
1000
MANEDIT
1070
     0
1002
}
1002
{
1000
NOSEL
1070
     0
1002
}
1002
{
1000
BEHIND
1070
     0
1002
}
1002
{
1000
REACTOR
1002
}
1001
GENIUS_GENOBJ-N-FIL_13
1002
{
1000
OWNER
1000
GEN
1002
}
  0
ARC
  5
D746
  8
AM_0
 10
594.15472184505825
 20
242.11209043751981
 30
0.0
 40
111.0
 50
346.84888173935212
 51
346.88632985669381
  0
ARC
  5
D747
  8
AM_0
 10
701.26979204589452
 20
217.08487053857939
 30
0.0
 40
1.0
 50
271.9999999999971
 51
346.84888173935212
1001
GENIUS_GENODEF_13
1002
{
1000
HIER
1070
     0
1002
}
1002
{
1000
MANEDIT
1070
     0
1002
}
1002
{
1000
NOSEL
1070
     0
1002
}
1002
{
1000
BEHIND
1070
     0
1002
}
1002
{
1000
REACTOR
1002
}
1001
GENIUS_GENOBJ-N-FIL_13
1002
{
1000
OWNER
1000
GEN
1002
}
  0
ARC
  5
D74A
  8
AM_0
 10
678.15472803505622
 20
313.11209043751938
 30
0.0
 40
0.9999999999998864
 50
270.0
 51
0.0
  0
LINE
  5
D74B
  8
AM_0
 10
679.15472803505816
 20
329.11209043751961
 30
0.0
 11
648.65472803505816
 21
329.11209043751961
 31
0.0
  0
LINE
  5
D74C
  8
AM_0
 10
667.65472803505656
 20
329.11209043751961
 30
0.0
 11
679.15472803505645
 21
329.11209043751961
 31
0.0
  0
LINE
  5
D74D
  8
AM_0
 10
678.65472803505816
 20
346.11209043751961
 30
0.0
 11
674.55472803505825
 21
346.11209043751961
 31
0.0
  0
LINE
  5
D74E
  8
AM_0
 10
607.15472803505645
 20
333.11209043751973
 30
0.0
 11
679.15472803505645
 21
333.11209043751973
 31
0.0
  0
ARC
  5
D755
  8
AM_0
 10
678.18903307025118
 20
299.11209043751978
 30
0.0
 40
1.0
 50
1.9999999999972149
 51
90.0
1001
GENIUS_GENODEF_13
1002
{
1000
HIER
1070
     0
1002
}
1002
{
1000
MANEDIT
1070
     0
1002
}
1002
{
1000
NOSEL
1070
     0
1002
}
1002
{
1000
BEHIND
1070
     0
1002
}
1002
{
1000
REACTOR
1002
}
1001
GENIUS_GENOBJ-N-FIL_13
1002
{
1000
OWNER
1000
GEN
1002
}
  0
LINE
  5
D759
  8
AM_0
 10
618.15472109999882
 20
293.11209195743828
 30
0.0
 11
681.15472297754661
 21
292.0124228341877
 31
0.0
  0
LINE
  5
D75C
  8
AM_0
 10
613.15472184505813
 20
293.02481664580222
 30
0.0
 11
613.15472184505813
 21
309.11209043751978
 31
0.0
  0
LINE
  5
D75D
  8
AM_0
 10
673.15472184505825
 20
292.15206337338122
 30
0.0
 11
673.15472184505813
 21
309.11209043751978
 31
0.0
  0
ARC
  5
D75E
  8
AM_0
 10
622.09509500971467
 20
277.12415701374118
 30
0.0
 40
30.0
 50
107.4576031237191
 51
177.77765529673869
1001
GENIUS_GENOBJ-N-FIL_13
1002
{
1000
OWNER
1000
GEN
1002
}
1001
GENIUS_GENODEF_13
1002
{
1000
HIER
1070
     0
1002
}
1002
{
1000
MANEDIT
1070
     0
1002
}
1002
{
1000
NOSEL
1070
     0
1002
}
1002
{
1000
BEHIND
1070
     0
1002
}
1002
{
1000
OTHER
1070
     0
1002
}
1002
{
1000
REACTOR
1002
}
  0
ARC
  5
D761
  8
AM_0
 10
622.09509500971467
 20
277.12415701374118
 30
0.0
 40
25.0
 50
111.1001960240869
 51
121.02616100631199
1001
GENIUS_GENOBJ-N-FIL_13
1002
{
1000
OWNER
1000
GEN
1002
}
1001
GENIUS_GENODEF_13
1002
{
1000
HIER
1070
     0
1002
}
1002
{
1000
MANEDIT
1070
     0
1002
}
1002
{
1000
NOSEL
1070
     0
1002
}
1002
{
1000
BEHIND
1070
     0
1002
}
1002
{
1000
OTHER
1070
     0
1002
}
1002
{
1000
REACTOR
1002
}
  0
LINE
  5
D762
  8
AM_0
 10
618.15472110000007
 20
293.11209195743822
 30
0.0
 11
605.15472071256988
 21
292.88517610660881
 31
0.0
  0
ARC
  5
D763
  8
AM_0
 10
611.19217090108009
 20
298.07145455951058
 30
0.0
 40
1.9655366667591301
 50
180.64955321106549
 51
356.841529773925
  0
LINE
  5
D764
  8
AM_0
 10
598.15472050395374
 20
227.112089990485
 30
0.0
 11
598.15472050395374
 21
257.11209088455462
 31
0.0
  0
LINE
  5
D765
  8
AM_0
 10
583.15146266208603
 20
226.0828430814536
 30
0.0
 11
589.03742699903501
 21
225.8773006776062
 31
0.0
  0
LINE
  5
D766
  8
AM_0
 10
583.14198050971254
 20
228.15053249142611
 30
0.0
 11
588.36073967563823
 21
228.33277557729261
 31
0.0
  0
ARC
  5
D767
  8
AM_0
 10
583.1863621587886
 20
227.08223390847249
 30
0.0
 40
1.0
 50
187.85317808880569
 51
267.99999999999642
1001
GENIUS_GENODEF_13
1002
{
1000
HIER
1070
     0
1002
}
1002
{
1000
MANEDIT
1070
     0
1002
}
1002
{
1000
NOSEL
1070
     0
1002
}
1002
{
1000
BEHIND
1070
     0
1002
}
1002
{
1000
REACTOR
1002
}
1001
GENIUS_GENOBJ-N-FIL_13
1002
{
1000
OWNER
1000
GEN
1002
}
  0
ARC
  5
D768
  8
AM_0
 10
692.15472184505825
 20
242.1120904375197
 30
0.0
 40
111.0
 50
187.81694783169499
 51
187.853178088813
  0
ARC
  5
D769
  8
AM_0
 10
583.1768800064151
 20
227.15114166440711
 30
0.0
 40
1.0
 50
92.000000000003581
 51
187.81694783169499
1001
GENIUS_GENODEF_13
1002
{
1000
HIER
1070
     0
1002
}
1002
{
1000
MANEDIT
1070
     0
1002
}
1002
{
1000
NOSEL
1070
     0
1002
}
1002
{
1000
BEHIND
1070
     0
1002
}
1002
{
1000
REACTOR
1002
}
1001
GENIUS_GENOBJ-N-FIL_13
1002
{
1000
OWNER
1000
GEN
1002
}
  0
LINE
  5
D76F
  8
AM_0
 10
598.15472050395374
 20
227.112089990485
 30
0.0
 11
601.15472059336071
 21
227.11208999048489
 31
0.0
  0
LINE
  5
D775
  8
AM_0
 10
583.15146266208603
 20
258.14133779358599
 30
0.0
 11
589.03742699903501
 21
258.34688019743322
 31
0.0
  0
LINE
  5
D776
  8
AM_0
 10
583.14198050971254
 20
256.07364838361309
 30
0.0
 11
588.36073967563823
 21
255.89140529774701
 31
0.0
  0
ARC
  5
D777
  8
AM_0
 10
692.15472184505825
 20
242.1120904375197
 30
0.0
 40
111.0
 50
172.14682191118689
 51
172.18305216830501
  0
ARC
  5
D778
  8
AM_0
 10
583.1863621587886
 20
257.14194696656682
 30
0.0
 40
1.0
 50
91.999999999997087
 51
172.14682191119419
1001
GENIUS_GENODEF_13
1002
{
1000
HIER
1070
     0
1002
}
1002
{
1000
MANEDIT
1070
     0
1002
}
1002
{
1000
NOSEL
1070
     0
1002
}
1002
{
1000
BEHIND
1070
     0
1002
}
1002
{
1000
REACTOR
1002
}
1001
GENIUS_GENOBJ-N-FIL_13
1002
{
1000
OWNER
1000
GEN
1002
}
  0
ARC
  5
D779
  8
AM_0
 10
583.1768800064151
 20
257.07303921063232
 30
0.0
 40
1.0
 50
172.18305216830501
 51
267.99999999999642
1001
GENIUS_GENODEF_13
1002
{
1000
HIER
1070
     0
1002
}
1002
{
1000
MANEDIT
1070
     0
1002
}
1002
{
1000
NOSEL
1070
     0
1002
}
1002
{
1000
BEHIND
1070
     0
1002
}
1002
{
1000
REACTOR
1002
}
1001
GENIUS_GENOBJ-N-FIL_13
1002
{
1000
OWNER
1000
GEN
1002
}
  0
LINE
  5
D77A
  8
AM_0
 10
598.15472050395374
 20
257.11209088455462
 30
0.0
 11
601.15472059336071
 21
257.1120908845545
 31
0.0
  0
ARC
  5
D77B
  8
AM_0
 10
602.15472184505825
 20
283.11209043751978
 30
0.0
 40
5.0
 50
90.0
 51
180.0
1001
GENIUS_GENODEF_13
1002
{
1000
HIER
1070
     0
1002
}
1002
{
1000
MANEDIT
1070
     0
1002
}
1002
{
1000
NOSEL
1070
     0
1002
}
1002
{
1000
BEHIND
1070
     0
1002
}
1002
{
1000
REACTOR
1002
}
1001
GENIUS_GENOBJ-N-FIL_13
1002
{
1000
OWNER
1000
GEN
1002
}
  0
LINE
  5
D77C
  8
AM_0
 10
587.82076656788774
 20
276.06562457112301
 30
0.0
 11
597.15472184505825
 21
275.73967567044252
 31
0.0
  0
LINE
  5
D77D
  8
AM_0
 10
587.84485047222825
 20
278.13619026022872
 30
0.0
 11
597.15472184505825
 21
278.46129813243721
 31
0.0
  0
LINE
  5
D77E
  8
AM_0
 10
589.15472184505825
 20
276.01904182637691
 30
0.0
 11
589.15472184505825
 21
268.28362129868458
 31
0.0
  0
LINE
  5
D77F
  8
AM_0
 10
585.00475214751941
 20
268.13870116347908
 30
0.0
 11
593.15502724762496
 21
268.42331504154419
 31
0.0
  0
LINE
  5
D780
  8
AM_0
 10
584.98841741319654
 20
266.06990451447552
 30
0.0
 11
591.87376778693795
 21
265.82946278120409
 31
0.0
  0
ARC
  5
D781
  8
AM_0
 10
585.03965164422175
 20
267.13931033645991
 30
0.0
 40
1.0
 50
91.999999999997087
 51
166.84888173935209
1001
GENIUS_GENODEF_13
1002
{
1000
HIER
1070
     0
1002
}
1002
{
1000
MANEDIT
1070
     0
1002
}
1002
{
1000
NOSEL
1070
     0
1002
}
1002
{
1000
BEHIND
1070
     0
1002
}
1002
{
1000
REACTOR
1002
}
1001
GENIUS_GENOBJ-N-FIL_13
1002
{
1000
OWNER
1000
GEN
1002
}
  0
ARC
  5
D782
  8
AM_0
 10
692.15472184505825
 20
242.1120904375197
 30
0.0
 40
111.0
 50
166.84888173935209
 51
166.88632985669381
  0
ARC
  5
D783
  8
AM_0
 10
585.02331690989911
 20
267.06929534149458
 30
0.0
 40
1.0
 50
166.88632985670159
 51
267.99999999999642
1001
GENIUS_GENODEF_13
1002
{
1000
HIER
1070
     0
1002
}
1002
{
1000
MANEDIT
1070
     0
1002
}
1002
{
1000
NOSEL
1070
     0
1002
}
1002
{
1000
BEHIND
1070
     0
1002
}
1002
{
1000
REACTOR
1002
}
1001
GENIUS_GENOBJ-N-FIL_13
1002
{
1000
OWNER
1000
GEN
1002
}
  0
ARC
  5
D784
  8
AM_0
 10
587.87974996893035
 20
277.13679943320949
 30
0.0
 40
1.0
 50
92.000000000003581
 51
161.43341919809711
1001
GENIUS_GENODEF_13
1002
{
1000
HIER
1070
     0
1002
}
1002
{
1000
MANEDIT
1070
     0
1002
}
1002
{
1000
NOSEL
1070
     0
1002
}
1002
{
1000
BEHIND
1070
     0
1002
}
1002
{
1000
REACTOR
1002
}
1001
GENIUS_GENOBJ-N-FIL_13
1002
{
1000
OWNER
1000
GEN
1002
}
  0
ARC
  5
D785
  8
AM_0
 10
587.85566606459065
 20
277.0650153981419
 30
0.0
 40
1.0
 50
161.47285768553169
 51
267.99999999999642
1001
GENIUS_GENODEF_13
1002
{
1000
HIER
1070
     0
1002
}
1002
{
1000
MANEDIT
1070
     0
1002
}
1002
{
1000
NOSEL
1070
     0
1002
}
1002
{
1000
BEHIND
1070
     0
1002
}
1002
{
1000
REACTOR
1002
}
1001
GENIUS_GENOBJ-N-FIL_13
1002
{
1000
OWNER
1000
GEN
1002
}
  0
ARC
  5
D786
  8
AM_0
 10
692.15472184505825
 20
242.1120904375197
 30
0.0
 40
111.0
 50
161.43341919810311
 51
161.47285768553169
  0
LINE
  5
D787
  8
AM_0
 10
601.15472059336071
 20
269.61209125708359
 30
0.0
 11
605.15472071256988
 21
269.61209125708359
 31
0.0
  0
ARC
  5
D788
  8
AM_0
 10
595.65472184505825
 20
275.39496891880481
 30
0.0
 40
1.5
 50
324.98137173791582
 51
0.0
1001
GENIUS_GENODEF_13
1002
{
1000
HIER
1070
     0
1002
}
1002
{
1000
MANEDIT
1070
     0
1002
}
1002
{
1000
NOSEL
1070
     0
1002
}
1002
{
1000
BEHIND
1070
     0
1002
}
1002
{
1000
REACTOR
1002
}
1001
GENIUS_GENOBJ-N-FIL_13
1002
{
1000
OWNER
1000
GEN
1002
}
  0
LINE
  5
D789
  8
AM_0
 10
597.15472184505825
 20
275.39496891880492
 30
0.0
 11
597.15472184505825
 21
283.1120904375199
 31
0.0
1001
GENIUS_GENODEF_13
1002
{
1000
HIER
1070
     0
1002
}
1002
{
1000
MANEDIT
1070
     0
1002
}
1002
{
1000
NOSEL
1070
     0
1002
}
1002
{
1000
BEHIND
1070
     0
1002
}
1002
{
1000
REACTOR
1002
}
1001
GENIUS_GENOBJ-N-CEN_13
1002
{
1000
OWNER
1000
GEN
1002
}
  0
ARC
  5
D78A
  8
AM_0
 10
622.09509500971467
 20
277.12415701374118
 30
0.0
 40
25.0
 50
127.00156130594731
 51
156.39078821915871
1001
GENIUS_GENOBJ-N-FIL_13
1002
{
1000
OWNER
1000
GEN
1002
}
1001
GENIUS_GENODEF_13
1002
{
1000
HIER
1070
     0
1002
}
1002
{
1000
MANEDIT
1070
     0
1002
}
1002
{
1000
NOSEL
1070
     0
1002
}
1002
{
1000
BEHIND
1070
     0
1002
}
1002
{
1000
OTHER
1070
     0
1002
}
1002
{
1000
REACTOR
1002
}
  0
LINE
  5
D78B
  8
AM_0
 10
607.12101979284625
 20
299.1469899342224
 30
0.0
 11
606.90341834424328
 21
292.91569973730952
 31
0.0
  0
LINE
  5
D78C
  8
AM_0
 10
609.18842389727024
 20
299.14698993422218
 30
0.0
 11
609.40450082530583
 21
292.9593562944072
 31
0.0
  0
LINE
  5
D78D
  8
AM_0
 10
605.15472184505825
 20
288.11209043751978
 30
0.0
 11
602.15472184505825
 21
288.11209043751978
 31
0.0
  0
LINE
  5
D78E
  8
AM_0
 10
608.18903307025118
 20
300.11209043751978
 30
0.0
 11
608.12041061986531
 21
300.11209043751978
 31
0.0
  0
ARC
  5
D78F
  8
AM_0
 10
608.18903307025118
 20
299.11209043751978
 30
0.0
 40
1.0
 50
1.9999999999972149
 51
90.000000000006509
1001
GENIUS_GENODEF_13
1002
{
1000
HIER
1070
     0
1002
}
1002
{
1000
MANEDIT
1070
     0
1002
}
1002
{
1000
NOSEL
1070
     0
1002
}
1002
{
1000
BEHIND
1070
     0
1002
}
1002
{
1000
REACTOR
1002
}
1001
GENIUS_GENOBJ-N-FIL_13
1002
{
1000
OWNER
1000
GEN
1002
}
  0
ARC
  5
D790
  8
AM_0
 10
608.12041061986531
 20
299.11209043751978
 30
0.0
 40
1.0
 50
89.999999999993477
 51
177.99999999999619
1001
GENIUS_GENODEF_13
1002
{
1000
HIER
1070
     0
1002
}
1002
{
1000
MANEDIT
1070
     0
1002
}
1002
{
1000
NOSEL
1070
     0
1002
}
1002
{
1000
BEHIND
1070
     0
1002
}
1002
{
1000
REACTOR
1002
}
1001
GENIUS_GENOBJ-N-FIL_13
1002
{
1000
OWNER
1000
GEN
1002
}
  0
LINE
  5
D791
  8
AM_0
 10
673.15472184505813
 20
304.61209043751978
 30
0.0
 11
613.15472184505813
 21
304.61209043751978
 31
0.0
  0
ARC
  5
D792
  8
AM_0
 10
643.15472184505825
 20
242.11209043751981
 30
0.0
 40
56.5
 50
62.48212463479782
 51
115.5178753651998
  0
LINE
  5
D793
  8
AM_0
 10
677.12101979284625
 20
299.14698993422218
 30
0.0
 11
676.87448421485783
 21
292.08713467969858
 31
0.0
  0
LINE
  5
D794
  8
AM_0
 10
678.12041061986531
 20
300.11209043751978
 30
0.0
 11
678.18903307025118
 21
300.11209043751978
 31
0.0
  0
ARC
  5
D795
  8
AM_0
 10
678.12041061986531
 20
299.11209043751978
 30
0.0
 40
1.0
 50
89.999999999993477
 51
177.99999999999619
1001
GENIUS_GENODEF_13
1002
{
1000
HIER
1070
     0
1002
}
1002
{
1000
MANEDIT
1070
     0
1002
}
1002
{
1000
NOSEL
1070
     0
1002
}
1002
{
1000
BEHIND
1070
     0
1002
}
1002
{
1000
REACTOR
1002
}
1001
GENIUS_GENOBJ-N-FIL_13
1002
{
1000
OWNER
1000
GEN
1002
}
  0
ARC
  5
D796
  8
AM_0
 10
675.11727278903595
 20
298.07145455951058
 30
0.0
 40
1.9655366667591301
 50
183.15847022607491
 51
359.35044678892791
  0
LINE
  5
D797
  8
AM_0
 10
607.15472803505645
 20
329.11209043751961
 30
0.0
 11
618.65472803505645
 21
329.11209043751961
 31
0.0
  0
LINE
  5
D798
  8
AM_0
 10
637.65472803505816
 20
329.11209043751961
 30
0.0
 11
607.15472803505838
 21
329.11209043751961
 31
0.0
  0
LINE
  5
D799
  8
AM_0
 10
608.15472803505645
 20
312.11209043751938
 30
0.0
 11
678.15472803505622
 21
312.11209043751938
 31
0.0
  0
LINE
  5
D79A
  8
AM_0
 10
609.65466724961721
 20
309.11209043751961
 30
0.0
 11
676.65471803505795
 21
309.11209043751961
 31
0.0
  0
LINE
  5
D79B
  8
AM_0
 10
618.07472803505823
 20
333.11209043751973
 30
0.0
 11
609.25472803505875
 21
334.57709043751947
 31
0.0
  0
ARC
  5
D79C
  8
AM_0
 10
611.75472803505875
 20
343.61209043751973
 30
0.0
 40
2.5
 50
90.0
 51
180.0
  0
LINE
  5
D79D
  8
AM_0
 10
607.65472803505816
 20
346.11209043751961
 30
0.0
 11
611.75472803505875
 21
346.11209043751961
 31
0.0
  0
LINE
  5
D79E
  8
AM_0
 10
607.15472803505645
 20
345.61209043751961
 30
0.0
 11
607.15472803505645
 21
313.11209043751938
 31
0.0
  0
ARC
  5
D79F
  8
AM_0
 10
608.15472803505645
 20
313.11209043751938
 30
0.0
 40
1.0
 50
180.0
 51
270.0
  0
LINE
  5
D7A0
  8
AM_0
 10
609.65466724961721
 20
312.11209043751938
 30
0.0
 11
609.65466724961721
 21
309.11209043751961
 31
0.0
  0
LINE
  5
D7A1
  8
AM_0
 10
609.25472803505875
 20
343.61209043751973
 30
0.0
 11
609.25472803505875
 21
334.57709043751947
 31
0.0
  0
ARC
  5
D7A2
  8
AM_0
 10
607.65472803505816
 20
345.61209043751961
 30
0.0
 40
0.5
 50
90.0
 51
180.0
  0
LINE
  5
D7A3
  8
AM_0
 10
648.65472803505816
 20
318.82887687774752
 30
0.0
 11
637.65472803505816
 21
318.82887687774752
 31
0.0
  0
LINE
  5
D7A4
  8
AM_0
 10
674.55472803505825
 20
346.11209043751961
 30
0.0
 11
611.75472803505875
 21
346.11209043751961
 31
0.0
  0
LINE
  5
D7A5
  8
AM_0
 10
618.65472803505645
 20
313.11209043751938
 30
0.0
 11
618.65472803505645
 21
329.11209043751961
 31
0.0
  0
LINE
  5
D7A6
  8
AM_0
 10
637.65472803505816
 20
318.82887687774752
 30
0.0
 11
637.65472803505816
 21
333.11209043751938
 31
0.0
  0
ARC
  5
D7A7
  8
AM_0
 10
617.65472803505668
 20
313.11209043751938
 30
0.0
 40
0.9999999999998864
 50
270.0
 51
0.0
  0
LINE
  5
D7A8
  8
AM_0
 10
619.52457651604141
 20
333.11209043751973
 30
0.0
 11
619.52457651604141
 21
343.61209043751973
 31
0.0
  0
POLYLINE
  5
D7A9
  8
AM_0
 66
     1
 10
0.0
 20
0.0
 30
0.0
 70
     8
  0
VERTEX
  5
D7AA
  8
AM_0
 10
620.66454283810094
 20
346.10213750259362
 30
0.0
 70
    32
  0
VERTEX
  5
D7AB
  8
AM_0
 10
620.66034283810097
 20
346.1011375025937
 30
0.0
 70
    32
  0
VERTEX
  5
D7AC
  8
AM_0
 10
620.65604283810114
 20
346.10013750259378
 30
0.0
 70
    32
  0
VERTEX
  5
D7AD
  8
AM_0
 10
620.65184283810129
 20
346.09913750259392
 30
0.0
 70
    32
  0
VERTEX
  5
D7AE
  8
AM_0
 10
620.64754283810123
 20
346.0981375025936
 30
0.0
 70
    32
  0
VERTEX
  5
D7AF
  8
AM_0
 10
620.64334283810115
 20
346.0971375025938
 30
0.0
 70
    32
  0
VERTEX
  5
D7B0
  8
AM_0
 10
620.63904283810109
 20
346.09613750259371
 30
0.0
 70
    32
  0
VERTEX
  5
D7B1
  8
AM_0
 10
620.63484283810135
 20
346.09513750259367
 30
0.0
 70
    32
  0
VERTEX
  5
D7B2
  8
AM_0
 10
620.63064283810093
 20
346.0941375025937
 30
0.0
 70
    32
  0
VERTEX
  5
D7B3
  8
AM_0
 10
620.62634283810132
 20
346.09313750259361
 30
0.0
 70
    32
  0
VERTEX
  5
D7B4
  8
AM_0
 10
620.62214283810124
 20
346.09213750259403
 30
0.0
 70
    32
  0
VERTEX
  5
D7B5
  8
AM_0
 10
620.61794283810093
 20
346.09113750259371
 30
0.0
 70
    32
  0
VERTEX
  5
D7B6
  8
AM_0
 10
620.6136428381011
 20
346.09013750259379
 30
0.0
 70
    32
  0
VERTEX
  5
D7B7
  8
AM_0
 10
620.6094428381009
 20
346.08913750259381
 30
0.0
 70
    32
  0
VERTEX
  5
D7B8
  8
AM_0
 10
620.60524283810128
 20
346.08813750259361
 30
0.0
 70
    32
  0
VERTEX
  5
D7B9
  8
AM_0
 10
620.60104283810131
 20
346.08713750259369
 30
0.0
 70
    32
  0
VERTEX
  5
D7BA
  8
AM_0
 10
620.59684283810122
 20
346.0861375025936
 30
0.0
 70
    32
  0
VERTEX
  5
D7BB
  8
AM_0
 10
620.59264283810114
 20
346.08413750259348
 30
0.0
 70
    32
  0
VERTEX
  5
D7BC
  8
AM_0
 10
620.58844283810151
 20
346.08313750259367
 30
0.0
 70
    32
  0
VERTEX
  5
D7BD
  8
AM_0
 10
620.58434283810129
 20
346.08213750259353
 30
0.0
 70
    32
  0
VERTEX
  5
D7BE
  8
AM_0
 10
620.58014283810087
 20
346.08113750259361
 30
0.0
 70
    32
  0
VERTEX
  5
D7BF
  8
AM_0
 10
620.57594283810124
 20
346.08013750259357
 30
0.0
 70
    32
  0
VERTEX
  5
D7C0
  8
AM_0
 10
620.57184283810125
 20
346.0781375025939
 30
0.0
 70
    32
  0
VERTEX
  5
D7C1
  8
AM_0
 10
620.56764283810105
 20
346.07713750259381
 30
0.0
 70
    32
  0
VERTEX
  5
D7C2
  8
AM_0
 10
620.56354283810106
 20
346.07613750259372
 30
0.0
 70
    32
  0
VERTEX
  5
D7C3
  8
AM_0
 10
620.55944283810118
 20
346.07413750259383
 30
0.0
 70
    32
  0
VERTEX
  5
D7C4
  8
AM_0
 10
620.55534283810096
 20
346.07313750259368
 30
0.0
 70
    32
  0
VERTEX
  5
D7C5
  8
AM_0
 10
620.55114283810133
 20
346.07213750259359
 30
0.0
 70
    32
  0
VERTEX
  5
D7C6
  8
AM_0
 10
620.54714283810097
 20
346.07013750259381
 30
0.0
 70
    32
  0
VERTEX
  5
D7C7
  8
AM_0
 10
620.54304283810131
 20
346.06913750259372
 30
0.0
 70
    32
  0
VERTEX
  5
D7C8
  8
AM_0
 10
620.53894283810132
 20
346.06713750259371
 30
0.0
 70
    32
  0
VERTEX
  5
D7C9
  8
AM_0
 10
620.5348428381011
 20
346.06613750259368
 30
0.0
 70
    32
  0
VERTEX
  5
D7CA
  8
AM_0
 10
620.53084283810119
 20
346.0641375025935
 30
0.0
 70
    32
  0
VERTEX
  5
D7CB
  8
AM_0
 10
620.52674283810086
 20
346.06313750259352
 30
0.0
 70
    32
  0
VERTEX
  5
D7CC
  8
AM_0
 10
620.52274283810129
 20
346.06113750259379
 30
0.0
 70
    32
  0
VERTEX
  5
D7CD
  8
AM_0
 10
620.51874283810116
 20
346.05913750259361
 30
0.0
 70
    32
  0
VERTEX
  5
D7CE
  8
AM_0
 10
620.51474283810114
 20
346.05813750259392
 30
0.0
 70
    32
  0
VERTEX
  5
D7CF
  8
AM_0
 10
620.51074283810112
 20
346.0561375025938
 30
0.0
 70
    32
  0
VERTEX
  5
D7D0
  8
AM_0
 10
620.5067428381011
 20
346.05413750259379
 30
0.0
 70
    32
  0
VERTEX
  5
D7D1
  8
AM_0
 10
620.50274283810097
 20
346.05213750259378
 30
0.0
 70
    32
  0
VERTEX
  5
D7D2
  8
AM_0
 10
620.49884283810093
 20
346.05113750259392
 30
0.0
 70
    32
  0
VERTEX
  5
D7D3
  8
AM_0
 10
620.49484283810136
 20
346.04913750259379
 30
0.0
 70
    32
  0
VERTEX
  5
D7D4
  8
AM_0
 10
620.49094283810132
 20
346.04713750259373
 30
0.0
 70
    32
  0
VERTEX
  5
D7D5
  8
AM_0
 10
620.48694283810107
 20
346.0451375025936
 30
0.0
 70
    32
  0
VERTEX
  5
D7D6
  8
AM_0
 10
620.48304283810114
 20
346.04313750259382
 30
0.0
 70
    32
  0
VERTEX
  5
D7D7
  8
AM_0
 10
620.47914283810132
 20
346.04113750259393
 30
0.0
 70
    32
  0
VERTEX
  5
D7D8
  8
AM_0
 10
620.47524283810094
 20
346.03913750259392
 30
0.0
 70
    32
  0
VERTEX
  5
D7D9
  8
AM_0
 10
620.47134283810112
 20
346.03713750259391
 30
0.0
 70
    32
  0
VERTEX
  5
D7DA
  8
AM_0
 10
620.46744283810131
 20
346.03513750259361
 30
0.0
 70
    32
  0
VERTEX
  5
D7DB
  8
AM_0
 10
620.46354283810092
 20
346.0331375025936
 30
0.0
 70
    32
  0
VERTEX
  5
D7DC
  8
AM_0
 10
620.45974283810131
 20
346.03113750259382
 30
0.0
 70
    32
  0
VERTEX
  5
D7DD
  8
AM_0
 10
620.45584283810092
 20
346.02913750259393
 30
0.0
 70
    32
  0
VERTEX
  5
D7DE
  8
AM_0
 10
620.45204283810119
 20
346.02713750259392
 30
0.0
 70
    32
  0
VERTEX
  5
D7DF
  8
AM_0
 10
620.44824283810124
 20
346.02513750259368
 30
0.0
 70
    32
  0
VERTEX
  5
D7E0
  8
AM_0
 10
620.44434283810119
 20
346.0231375025939
 30
0.0
 70
    32
  0
VERTEX
  5
D7E1
  8
AM_0
 10
620.44054283810112
 20
346.02113750259372
 30
0.0
 70
    32
  0
VERTEX
  5
D7E2
  8
AM_0
 10
620.43674283810117
 20
346.01913750259382
 30
0.0
 70
    32
  0
VERTEX
  5
D7E3
  8
AM_0
 10
620.4330428381013
 20
346.01713750259353
 30
0.0
 70
    32
  0
VERTEX
  5
D7E4
  8
AM_0
 10
620.42924283810123
 20
346.01513750259352
 30
0.0
 70
    32
  0
VERTEX
  5
D7E5
  8
AM_0
 10
620.42544283810128
 20
346.01213750259359
 30
0.0
 70
    32
  0
VERTEX
  5
D7E6
  8
AM_0
 10
620.42174283810095
 20
346.01013750259358
 30
0.0
 70
    32
  0
VERTEX
  5
D7E7
  8
AM_0
 10
620.41794283810111
 20
346.0081375025934
 30
0.0
 70
    32
  0
VERTEX
  5
D7E8
  8
AM_0
 10
620.41424283810125
 20
346.00613750259362
 30
0.0
 70
    32
  0
VERTEX
  5
D7E9
  8
AM_0
 10
620.41054283810115
 20
346.00313750259357
 30
0.0
 70
    32
  0
VERTEX
  5
D7EA
  8
AM_0
 10
620.40674283810097
 20
346.00113750259379
 30
0.0
 70
    32
  0
VERTEX
  5
D7EB
  8
AM_0
 10
620.4030428381011
 20
345.99913750259378
 30
0.0
 70
    32
  0
VERTEX
  5
D7EC
  8
AM_0
 10
620.39944283810132
 20
345.99713750259349
 30
0.0
 70
    32
  0
VERTEX
  5
D7ED
  8
AM_0
 10
620.39574283810146
 20
345.99413750259379
 30
0.0
 70
    32
  0
VERTEX
  5
D7EE
  8
AM_0
 10
620.39204283810102
 20
345.99213750259378
 30
0.0
 70
    32
  0
VERTEX
  5
D7EF
  8
AM_0
 10
620.38844283810124
 20
345.9901375025936
 30
0.0
 70
    32
  0
VERTEX
  5
D7F0
  8
AM_0
 10
620.38474283810115
 20
345.98713750259373
 30
0.0
 70
    32
  0
VERTEX
  5
D7F1
  8
AM_0
 10
620.38114283810114
 20
345.9851375025936
 30
0.0
 70
    32
  0
VERTEX
  5
D7F2
  8
AM_0
 10
620.37744283810093
 20
345.98213750259362
 30
0.0
 70
    32
  0
VERTEX
  5
D7F3
  8
AM_0
 10
620.37384283810093
 20
345.98013750259378
 30
0.0
 70
    32
  0
VERTEX
  5
D7F4
  8
AM_0
 10
620.37024283810092
 20
345.97813750259382
 30
0.0
 70
    32
  0
VERTEX
  5
D7F5
  8
AM_0
 10
620.36664283810092
 20
345.97513750259378
 30
0.0
 70
    32
  0
VERTEX
  5
D7F6
  8
AM_0
 10
620.36314283810111
 20
345.97313750259372
 30
0.0
 70
    32
  0
VERTEX
  5
D7F7
  8
AM_0
 10
620.35954283810122
 20
345.97013750259367
 30
0.0
 70
    32
  0
VERTEX
  5
D7F8
  8
AM_0
 10
620.35594283810133
 20
345.96813750259349
 30
0.0
 70
    32
  0
VERTEX
  5
D7F9
  8
AM_0
 10
620.3524428381013
 20
345.96513750259362
 30
0.0
 70
    32
  0
VERTEX
  5
D7FA
  8
AM_0
 10
620.34894283810115
 20
345.96313750259372
 30
0.0
 70
    32
  0
VERTEX
  5
D7FB
  8
AM_0
 10
620.34544283810112
 20
345.96013750259368
 30
0.0
 70
    32
  0
VERTEX
  5
D7FC
  8
AM_0
 10
620.34184283810112
 20
345.95713750259353
 30
0.0
 70
    32
  0
VERTEX
  5
D7FD
  8
AM_0
 10
620.33844283810129
 20
345.95513750259357
 30
0.0
 70
    32
  0
VERTEX
  5
D7FE
  8
AM_0
 10
620.33494283810091
 20
345.95213750259381
 30
0.0
 70
    32
  0
VERTEX
  5
D7FF
  8
AM_0
 10
620.33144283810122
 20
345.95013750259352
 30
0.0
 70
    32
  0
VERTEX
  5
D800
  8
AM_0
 10
620.32794283810097
 20
345.94713750259348
 30
0.0
 70
    32
  0
VERTEX
  5
D801
  8
AM_0
 10
620.32454283810114
 20
345.94413750259361
 30
0.0
 70
    32
  0
VERTEX
  5
D802
  8
AM_0
 10
620.32104283810122
 20
345.9421375025936
 30
0.0
 70
    32
  0
VERTEX
  5
D803
  8
AM_0
 10
620.31764283810094
 20
345.93913750259361
 30
0.0
 70
    32
  0
VERTEX
  5
D804
  8
AM_0
 10
620.31424283810134
 20
345.93613750259391
 30
0.0
 70
    32
  0
VERTEX
  5
D805
  8
AM_0
 10
620.31084283810094
 20
345.93413750259361
 30
0.0
 70
    32
  0
VERTEX
  5
D806
  8
AM_0
 10
620.30744283810111
 20
345.93113750259391
 30
0.0
 70
    32
  0
VERTEX
  5
D807
  8
AM_0
 10
620.30404283810117
 20
345.92813750259359
 30
0.0
 70
    32
  0
VERTEX
  5
D808
  8
AM_0
 10
620.30074283810131
 20
345.9251375025936
 30
0.0
 70
    32
  0
VERTEX
  5
D809
  8
AM_0
 10
620.2973428381008
 20
345.92313750259359
 30
0.0
 70
    32
  0
VERTEX
  5
D80A
  8
AM_0
 10
620.29404283810129
 20
345.92013750259372
 30
0.0
 70
    32
  0
VERTEX
  5
D80B
  8
AM_0
 10
620.29064283810123
 20
345.9171375025939
 30
0.0
 70
    32
  0
VERTEX
  5
D80C
  8
AM_0
 10
620.28734283810115
 20
345.91413750259358
 30
0.0
 70
    32
  0
VERTEX
  5
D80D
  8
AM_0
 10
620.28404283810153
 20
345.91213750259379
 30
0.0
 70
    32
  0
VERTEX
  5
D80E
  8
AM_0
 10
620.28074283810122
 20
345.90913750259392
 30
0.0
 70
    32
  0
VERTEX
  5
D80F
  8
AM_0
 10
620.27744283810114
 20
345.90613750259382
 30
0.0
 70
    32
  0
VERTEX
  5
D810
  8
AM_0
 10
620.27414283810151
 20
345.90313750259372
 30
0.0
 70
    32
  0
VERTEX
  5
D811
  8
AM_0
 10
620.27084283810098
 20
345.90013750259379
 30
0.0
 70
    32
  0
VERTEX
  5
D812
  8
AM_0
 10
620.26764283810098
 20
345.89713750259392
 30
0.0
 70
    32
  0
VERTEX
  5
D813
  8
AM_0
 10
620.26434283810124
 20
345.89413750259382
 30
0.0
 70
    32
  0
VERTEX
  5
D814
  8
AM_0
 10
620.26114283810125
 20
345.89113750259378
 30
0.0
 70
    32
  0
VERTEX
  5
D815
  8
AM_0
 10
620.25794283810148
 20
345.88813750259351
 30
0.0
 70
    32
  0
VERTEX
  5
D816
  8
AM_0
 10
620.25474283810115
 20
345.88613750259373
 30
0.0
 70
    32
  0
VERTEX
  5
D817
  8
AM_0
 10
620.25154283810093
 20
345.88313750259351
 30
0.0
 70
    32
  0
VERTEX
  5
D818
  8
AM_0
 10
620.24834283810094
 20
345.88013750259381
 30
0.0
 70
    32
  0
VERTEX
  5
D819
  8
AM_0
 10
620.24514283810129
 20
345.87713750259383
 30
0.0
 70
    32
  0
VERTEX
  5
D81A
  8
AM_0
 10
620.24194283810095
 20
345.87413750259373
 30
0.0
 70
    32
  0
VERTEX
  5
D81B
  8
AM_0
 10
620.23884283810128
 20
345.87113750259368
 30
0.0
 70
    32
  0
VERTEX
  5
D81C
  8
AM_0
 10
620.23564283810094
 20
345.86813750259392
 30
0.0
 70
    32
  0
VERTEX
  5
D81D
  8
AM_0
 10
620.23254283810115
 20
345.86513750259371
 30
0.0
 70
    32
  0
VERTEX
  5
D81E
  8
AM_0
 10
620.22944283810091
 20
345.86213750259373
 30
0.0
 70
    32
  0
VERTEX
  5
D81F
  8
AM_0
 10
620.22624283810114
 20
345.8591375025938
 30
0.0
 70
    32
  0
VERTEX
  5
D820
  8
AM_0
 10
620.22314283810101
 20
345.85613750259392
 30
0.0
 70
    32
  0
VERTEX
  5
D821
  8
AM_0
 10
620.22004283810111
 20
345.85313750259382
 30
0.0
 70
    32
  0
VERTEX
  5
D822
  8
AM_0
 10
620.21704283810129
 20
345.85013750259378
 30
0.0
 70
    32
  0
VERTEX
  5
D823
  8
AM_0
 10
620.21394283810105
 20
345.84613750259382
 30
0.0
 70
    32
  0
VERTEX
  5
D824
  8
AM_0
 10
620.21084283810092
 20
345.84313750259361
 30
0.0
 70
    32
  0
VERTEX
  5
D825
  8
AM_0
 10
620.20784283810087
 20
345.84013750259362
 30
0.0
 70
    32
  0
VERTEX
  5
D826
  8
AM_0
 10
620.20474283810097
 20
345.83713750259369
 30
0.0
 70
    32
  0
VERTEX
  5
D827
  8
AM_0
 10
620.20174283810115
 20
345.83413750259348
 30
0.0
 70
    32
  0
VERTEX
  5
D828
  8
AM_0
 10
620.19874283810111
 20
345.83113750259378
 30
0.0
 70
    32
  0
VERTEX
  5
D829
  8
AM_0
 10
620.19574283810095
 20
345.82813750259368
 30
0.0
 70
    32
  0
VERTEX
  5
D82A
  8
AM_0
 10
620.19274283810125
 20
345.82513750259341
 30
0.0
 70
    32
  0
VERTEX
  5
D82B
  8
AM_0
 10
620.1897428381011
 20
345.8211375025939
 30
0.0
 70
    32
  0
VERTEX
  5
D82C
  8
AM_0
 10
620.18674283810105
 20
345.8181375025938
 30
0.0
 70
    32
  0
VERTEX
  5
D82D
  8
AM_0
 10
620.18374283810124
 20
345.8151375025937
 30
0.0
 70
    32
  0
VERTEX
  5
D82E
  8
AM_0
 10
620.18084283810128
 20
345.81213750259349
 30
0.0
 70
    32
  0
VERTEX
  5
D82F
  8
AM_0
 10
620.17784283810124
 20
345.80913750259361
 30
0.0
 70
    32
  0
VERTEX
  5
D830
  8
AM_0
 10
620.17494283810106
 20
345.80613750259391
 30
0.0
 70
    32
  0
VERTEX
  5
D831
  8
AM_0
 10
620.17194283810102
 20
345.80213750259378
 30
0.0
 70
    32
  0
VERTEX
  5
D832
  8
AM_0
 10
620.16904283810095
 20
345.79913750259391
 30
0.0
 70
    32
  0
VERTEX
  5
D833
  8
AM_0
 10
620.16614283810122
 20
345.79613750259392
 30
0.0
 70
    32
  0
VERTEX
  5
D834
  8
AM_0
 10
620.16324283810093
 20
345.79313750259359
 30
0.0
 70
    32
  0
VERTEX
  5
D835
  8
AM_0
 10
620.16034283810109
 20
345.78913750259369
 30
0.0
 70
    32
  0
VERTEX
  5
D836
  8
AM_0
 10
620.15744283810125
 20
345.78613750259382
 30
0.0
 70
    32
  0
VERTEX
  5
D837
  8
AM_0
 10
620.15464283810093
 20
345.7831375025936
 30
0.0
 70
    32
  0
VERTEX
  5
D838
  8
AM_0
 10
620.15174283810131
 20
345.78013750259367
 30
0.0
 70
    32
  0
VERTEX
  5
D839
  8
AM_0
 10
620.14894283810111
 20
345.77613750259349
 30
0.0
 70
    32
  0
VERTEX
  5
D83A
  8
AM_0
 10
620.14604283810093
 20
345.7731375025939
 30
0.0
 70
    32
  0
VERTEX
  5
D83B
  8
AM_0
 10
620.14324283810117
 20
345.77013750259368
 30
0.0
 70
    32
  0
VERTEX
  5
D83C
  8
AM_0
 10
620.14044283810131
 20
345.76613750259389
 30
0.0
 70
    32
  0
VERTEX
  5
D83D
  8
AM_0
 10
620.13764283810133
 20
345.76313750259379
 30
0.0
 70
    32
  0
VERTEX
  5
D83E
  8
AM_0
 10
620.13484283810101
 20
345.76013750259392
 30
0.0
 70
    32
  0
VERTEX
  5
D83F
  8
AM_0
 10
620.13204283810114
 20
345.75613750259362
 30
0.0
 70
    32
  0
VERTEX
  5
D840
  8
AM_0
 10
620.12924283810116
 20
345.75313750259392
 30
0.0
 70
    32
  0
VERTEX
  5
D841
  8
AM_0
 10
620.12644283810153
 20
345.7501375025937
 30
0.0
 70
    32
  0
VERTEX
  5
D842
  8
AM_0
 10
620.12374283810129
 20
345.74613750259391
 30
0.0
 70
    32
  0
VERTEX
  5
D843
  8
AM_0
 10
620.12094283810109
 20
345.74313750259392
 30
0.0
 70
    32
  0
VERTEX
  5
D844
  8
AM_0
 10
620.11824283810085
 20
345.7401375025936
 30
0.0
 70
    32
  0
VERTEX
  5
D845
  8
AM_0
 10
620.1154428381011
 20
345.73613750259352
 30
0.0
 70
    32
  0
VERTEX
  5
D846
  8
AM_0
 10
620.1127428381011
 20
345.73313750259382
 30
0.0
 70
    32
  0
VERTEX
  5
D847
  8
AM_0
 10
620.11004283810098
 20
345.72913750259369
 30
0.0
 70
    32
  0
VERTEX
  5
D848
  8
AM_0
 10
620.10734283810086
 20
345.72613750259399
 30
0.0
 70
    32
  0
VERTEX
  5
D849
  8
AM_0
 10
620.10464283810131
 20
345.72313750259372
 30
0.0
 70
    32
  0
VERTEX
  5
D84A
  8
AM_0
 10
620.10194283810119
 20
345.7191375025937
 30
0.0
 70
    32
  0
VERTEX
  5
D84B
  8
AM_0
 10
620.09924283810096
 20
345.71613750259382
 30
0.0
 70
    32
  0
VERTEX
  5
D84C
  8
AM_0
 10
620.09664283810093
 20
345.71213750259392
 30
0.0
 70
    32
  0
VERTEX
  5
D84D
  8
AM_0
 10
620.09394283810093
 20
345.70913750259348
 30
0.0
 70
    32
  0
VERTEX
  5
D84E
  8
AM_0
 10
620.09124283810092
 20
345.70513750259357
 30
0.0
 70
    32
  0
VERTEX
  5
D84F
  8
AM_0
 10
620.08864283810135
 20
345.7021375025937
 30
0.0
 70
    32
  0
VERTEX
  5
D850
  8
AM_0
 10
620.08604283810121
 20
345.69913750259371
 30
0.0
 70
    32
  0
VERTEX
  5
D851
  8
AM_0
 10
620.08344283810106
 20
345.69513750259392
 30
0.0
 70
    32
  0
VERTEX
  5
D852
  8
AM_0
 10
620.08074283810106
 20
345.6921375025936
 30
0.0
 70
    32
  0
VERTEX
  5
D853
  8
AM_0
 10
620.0781428381008
 20
345.68813750259352
 30
0.0
 70
    32
  0
VERTEX
  5
D854
  8
AM_0
 10
620.07554283810111
 20
345.68513750259382
 30
0.0
 70
    32
  0
VERTEX
  5
D855
  8
AM_0
 10
620.07304283810095
 20
345.68113750259369
 30
0.0
 70
    32
  0
VERTEX
  5
D856
  8
AM_0
 10
620.07044283810114
 20
345.67813750259347
 30
0.0
 70
    32
  0
VERTEX
  5
D857
  8
AM_0
 10
620.06784283810123
 20
345.67413750259362
 30
0.0
 70
    32
  0
VERTEX
  5
D858
  8
AM_0
 10
620.06534283810106
 20
345.67113750259392
 30
0.0
 70
    32
  0
VERTEX
  5
D859
  8
AM_0
 10
620.06274283810114
 20
345.66713750259362
 30
0.0
 70
    32
  0
VERTEX
  5
D85A
  8
AM_0
 10
620.06024283810086
 20
345.66413750259358
 30
0.0
 70
    32
  0
VERTEX
  5
D85B
  8
AM_0
 10
620.05764283810129
 20
345.66013750259361
 30
0.0
 70
    32
  0
VERTEX
  5
D85C
  8
AM_0
 10
620.05514283810123
 20
345.65713750259391
 30
0.0
 70
    32
  0
VERTEX
  5
D85D
  8
AM_0
 10
620.05264283810141
 20
345.65313750259378
 30
0.0
 70
    32
  0
VERTEX
  5
D85E
  8
AM_0
 10
620.05014283810112
 20
345.64913750259348
 30
0.0
 70
    32
  0
VERTEX
  5
D85F
  8
AM_0
 10
620.04764283810096
 20
345.6461375025936
 30
0.0
 70
    32
  0
VERTEX
  5
D860
  8
AM_0
 10
620.04514283810124
 20
345.64213750259353
 30
0.0
 70
    32
  0
VERTEX
  5
D861
  8
AM_0
 10
620.04264283810096
 20
345.63913750259383
 30
0.0
 70
    32
  0
VERTEX
  5
D862
  8
AM_0
 10
620.04024283810111
 20
345.63513750259392
 30
0.0
 70
    32
  0
VERTEX
  5
D863
  8
AM_0
 10
620.03774283810094
 20
345.63213750259371
 30
0.0
 70
    32
  0
VERTEX
  5
D864
  8
AM_0
 10
620.03534283810131
 20
345.6281375025938
 30
0.0
 70
    32
  0
VERTEX
  5
D865
  8
AM_0
 10
620.03284283810137
 20
345.62413750259373
 30
0.0
 70
    32
  0
VERTEX
  5
D866
  8
AM_0
 10
620.03044283810129
 20
345.62113750259402
 30
0.0
 70
    32
  0
VERTEX
  5
D867
  8
AM_0
 10
620.02804283810133
 20
345.61713750259389
 30
0.0
 70
    32
  0
VERTEX
  5
D868
  8
AM_0
 10
620.02554283810105
 20
345.61413750259379
 30
0.0
 70
    32
  0
VERTEX
  5
D869
  8
AM_0
 10
620.02314283810085
 20
345.61013750259349
 30
0.0
 70
    32
  0
VERTEX
  5
D86A
  8
AM_0
 10
620.02074283810123
 20
345.6061375025937
 30
0.0
 70
    32
  0
VERTEX
  5
D86B
  8
AM_0
 10
620.01834283810115
 20
345.60313750259371
 30
0.0
 70
    32
  0
VERTEX
  5
D86C
  8
AM_0
 10
620.01594283810095
 20
345.59913750259369
 30
0.0
 70
    32
  0
VERTEX
  5
D86D
  8
AM_0
 10
620.01364283810119
 20
345.59513750259379
 30
0.0
 70
    32
  0
VERTEX
  5
D86E
  8
AM_0
 10
620.01124283810123
 20
345.59213750259369
 30
0.0
 70
    32
  0
VERTEX
  5
D86F
  8
AM_0
 10
620.00884283810115
 20
345.58813750259372
 30
0.0
 70
    32
  0
VERTEX
  5
D870
  8
AM_0
 10
620.00654283810093
 20
345.58413750259359
 30
0.0
 70
    32
  0
VERTEX
  5
D871
  8
AM_0
 10
620.0041428381013
 20
345.58113750259378
 30
0.0
 70
    32
  0
VERTEX
  5
D872
  8
AM_0
 10
620.00184283810131
 20
345.57713750259359
 30
0.0
 70
    32
  0
VERTEX
  5
D873
  8
AM_0
 10
619.99954283810132
 20
345.57313750259351
 30
0.0
 70
    32
  0
VERTEX
  5
D874
  8
AM_0
 10
619.99724283810133
 20
345.57013750259392
 30
0.0
 70
    32
  0
VERTEX
  5
D875
  8
AM_0
 10
619.99494283810088
 20
345.56613750259379
 30
0.0
 70
    32
  0
VERTEX
  5
D876
  8
AM_0
 10
619.99254283810092
 20
345.56213750259349
 30
0.0
 70
    32
  0
VERTEX
  5
D877
  8
AM_0
 10
619.99034283810113
 20
345.55913750259361
 30
0.0
 70
    32
  0
VERTEX
  5
D878
  8
AM_0
 10
619.98804283810102
 20
345.55513750259348
 30
0.0
 70
    32
  0
VERTEX
  5
D879
  8
AM_0
 10
619.98574283810115
 20
345.55113750259392
 30
0.0
 70
    32
  0
VERTEX
  5
D87A
  8
AM_0
 10
619.98344283810115
 20
345.54813750259382
 30
0.0
 70
    32
  0
VERTEX
  5
D87B
  8
AM_0
 10
619.98114283810105
 20
345.54413750259351
 30
0.0
 70
    32
  0
VERTEX
  5
D87C
  8
AM_0
 10
619.97894283810115
 20
345.54013750259372
 30
0.0
 70
    32
  0
VERTEX
  5
D87D
  8
AM_0
 10
619.97664283810116
 20
345.5361375025937
 30
0.0
 70
    32
  0
VERTEX
  5
D87E
  8
AM_0
 10
619.97444283810125
 20
345.53313750259377
 30
0.0
 70
    32
  0
VERTEX
  5
D87F
  8
AM_0
 10
619.97224283810112
 20
345.52913750259358
 30
0.0
 70
    32
  0
VERTEX
  5
D880
  8
AM_0
 10
619.96994283810113
 20
345.52513750259368
 30
0.0
 70
    32
  0
VERTEX
  5
D881
  8
AM_0
 10
619.967742838101
 20
345.52213750259358
 30
0.0
 70
    32
  0
VERTEX
  5
D882
  8
AM_0
 10
619.9655428381011
 20
345.51813750259379
 30
0.0
 70
    32
  0
VERTEX
  5
D883
  8
AM_0
 10
619.96334283810108
 20
345.51413750259383
 30
0.0
 70
    32
  0
VERTEX
  5
D884
  8
AM_0
 10
619.96114283810095
 20
345.51013750259369
 30
0.0
 70
    32
  0
VERTEX
  5
D885
  8
AM_0
 10
619.95894283810117
 20
345.50713750259382
 30
0.0
 70
    32
  0
VERTEX
  5
D886
  8
AM_0
 10
619.95684283810112
 20
345.50313750259392
 30
0.0
 70
    32
  0
VERTEX
  5
D887
  8
AM_0
 10
619.95464283810122
 20
345.49913750259373
 30
0.0
 70
    32
  0
VERTEX
  5
D888
  8
AM_0
 10
619.95244283810098
 20
345.49513750259382
 30
0.0
 70
    32
  0
VERTEX
  5
D889
  8
AM_0
 10
619.95034283810105
 20
345.49113750259369
 30
0.0
 70
    32
  0
VERTEX
  5
D88A
  8
AM_0
 10
619.94814283810126
 20
345.48813750259347
 30
0.0
 70
    32
  0
VERTEX
  5
D88B
  8
AM_0
 10
619.94604283810088
 20
345.48413750259391
 30
0.0
 70
    32
  0
VERTEX
  5
D88C
  8
AM_0
 10
619.94384283810132
 20
345.48013750259378
 30
0.0
 70
    32
  0
VERTEX
  5
D88D
  8
AM_0
 10
619.94174283810105
 20
345.47613750259382
 30
0.0
 70
    32
  0
VERTEX
  5
D88E
  8
AM_0
 10
619.93964283810124
 20
345.4731375025936
 30
0.0
 70
    32
  0
VERTEX
  5
D88F
  8
AM_0
 10
619.93754283810131
 20
345.4691375025937
 30
0.0
 70
    32
  0
VERTEX
  5
D890
  8
AM_0
 10
619.93544283810093
 20
345.46513750259379
 30
0.0
 70
    32
  0
VERTEX
  5
D891
  8
AM_0
 10
619.93334283810123
 20
345.46113750259371
 30
0.0
 70
    32
  0
VERTEX
  5
D892
  8
AM_0
 10
619.9312428381013
 20
345.45713750259353
 30
0.0
 70
    32
  0
VERTEX
  5
D893
  8
AM_0
 10
619.92914283810092
 20
345.45313750259362
 30
0.0
 70
    32
  0
VERTEX
  5
D894
  8
AM_0
 10
619.92704283810133
 20
345.45013750259352
 30
0.0
 70
    32
  0
VERTEX
  5
D895
  8
AM_0
 10
619.92504283810092
 20
345.44613750259361
 30
0.0
 70
    32
  0
VERTEX
  5
D896
  8
AM_0
 10
619.92294283810133
 20
345.4421375025936
 30
0.0
 70
    32
  0
VERTEX
  5
D897
  8
AM_0
 10
619.92084283810107
 20
345.43813750259352
 30
0.0
 70
    32
  0
VERTEX
  5
D898
  8
AM_0
 10
619.91884283810111
 20
345.43413750259373
 30
0.0
 70
    32
  0
VERTEX
  5
D899
  8
AM_0
 10
619.91674283810096
 20
345.43113750259369
 30
0.0
 70
    32
  0
VERTEX
  5
D89A
  8
AM_0
 10
619.91474283810123
 20
345.4271375025935
 30
0.0
 70
    32
  0
VERTEX
  5
D89B
  8
AM_0
 10
619.91274283810094
 20
345.42313750259382
 30
0.0
 70
    32
  0
VERTEX
  5
D89C
  8
AM_0
 10
619.9107428381011
 20
345.41913750259351
 30
0.0
 70
    32
  0
VERTEX
  5
D89D
  8
AM_0
 10
619.90874283810092
 20
345.41513750259372
 30
0.0
 70
    32
  0
VERTEX
  5
D89E
  8
AM_0
 10
619.90674283810131
 20
345.4111375025937
 30
0.0
 70
    32
  0
VERTEX
  5
D89F
  8
AM_0
 10
619.90474283810124
 20
345.40713750259391
 30
0.0
 70
    32
  0
VERTEX
  5
D8A0
  8
AM_0
 10
619.90274283810129
 20
345.4041375025937
 30
0.0
 70
    32
  0
VERTEX
  5
D8A1
  8
AM_0
 10
619.90074283810111
 20
345.40013750259368
 30
0.0
 70
    32
  0
VERTEX
  5
D8A2
  8
AM_0
 10
619.89874283810104
 20
345.3961375025936
 30
0.0
 70
    32
  0
VERTEX
  5
D8A3
  8
AM_0
 10
619.89674283810132
 20
345.39213750259381
 30
0.0
 70
    32
  0
VERTEX
  5
D8A4
  8
AM_0
 10
619.89484283810111
 20
345.38813750259391
 30
0.0
 70
    32
  0
VERTEX
  5
D8A5
  8
AM_0
 10
619.89284283810116
 20
345.38413750259372
 30
0.0
 70
    32
  0
VERTEX
  5
D8A6
  8
AM_0
 10
619.89094283810107
 20
345.38013750259353
 30
0.0
 70
    32
  0
VERTEX
  5
D8A7
  8
AM_0
 10
619.888942838101
 20
345.37613750259362
 30
0.0
 70
    32
  0
VERTEX
  5
D8A8
  8
AM_0
 10
619.88704283810114
 20
345.37213750259349
 30
0.0
 70
    32
  0
VERTEX
  5
D8A9
  8
AM_0
 10
619.88514283810116
 20
345.36913750259362
 30
0.0
 70
    32
  0
VERTEX
  5
D8AA
  8
AM_0
 10
619.88314283810132
 20
345.36513750259383
 30
0.0
 70
    32
  0
VERTEX
  5
D8AB
  8
AM_0
 10
619.88124283810123
 20
345.36113750259352
 30
0.0
 70
    32
  0
VERTEX
  5
D8AC
  8
AM_0
 10
619.87934283810125
 20
345.35713750259379
 30
0.0
 70
    32
  0
VERTEX
  5
D8AD
  8
AM_0
 10
619.87744283810093
 20
345.35313750259371
 30
0.0
 70
    32
  0
VERTEX
  5
D8AE
  8
AM_0
 10
619.87554283810118
 20
345.34913750259369
 30
0.0
 70
    32
  0
VERTEX
  5
D8AF
  8
AM_0
 10
619.87364283810098
 20
345.3451375025939
 30
0.0
 70
    32
  0
VERTEX
  5
D8B0
  8
AM_0
 10
619.87184283810109
 20
345.34113750259382
 30
0.0
 70
    32
  0
VERTEX
  5
D8B1
  8
AM_0
 10
619.86994283810111
 20
345.33713750259381
 30
0.0
 70
    32
  0
VERTEX
  5
D8B2
  8
AM_0
 10
619.86804283810125
 20
345.33313750259367
 30
0.0
 70
    32
  0
VERTEX
  5
D8B3
  8
AM_0
 10
619.86624283810124
 20
345.32913750259371
 30
0.0
 70
    32
  0
VERTEX
  5
D8B4
  8
AM_0
 10
619.86434283810115
 20
345.32613750259372
 30
0.0
 70
    32
  0
VERTEX
  5
D8B5
  8
AM_0
 10
619.86254283810115
 20
345.3221375025937
 30
0.0
 70
    32
  0
VERTEX
  5
D8B6
  8
AM_0
 10
619.86064283810128
 20
345.31813750259357
 30
0.0
 70
    32
  0
VERTEX
  5
D8B7
  8
AM_0
 10
619.85884283810105
 20
345.31413750259378
 30
0.0
 70
    32
  0
VERTEX
  5
D8B8
  8
AM_0
 10
619.85704283810094
 20
345.31013750259382
 30
0.0
 70
    32
  0
VERTEX
  5
D8B9
  8
AM_0
 10
619.85514283810085
 20
345.30613750259369
 30
0.0
 70
    32
  0
VERTEX
  5
D8BA
  8
AM_0
 10
619.85334283810096
 20
345.30213750259401
 30
0.0
 70
    32
  0
VERTEX
  5
D8BB
  8
AM_0
 10
619.85154283810107
 20
345.29813750259382
 30
0.0
 70
    32
  0
VERTEX
  5
D8BC
  8
AM_0
 10
619.84974283810129
 20
345.29413750259351
 30
0.0
 70
    32
  0
VERTEX
  5
D8BD
  8
AM_0
 10
619.84794283810129
 20
345.29013750259378
 30
0.0
 70
    32
  0
VERTEX
  5
D8BE
  8
AM_0
 10
619.84614283810106
 20
345.2861375025937
 30
0.0
 70
    32
  0
VERTEX
  5
D8BF
  8
AM_0
 10
619.84444283810092
 20
345.2821375025938
 30
0.0
 70
    32
  0
VERTEX
  5
D8C0
  8
AM_0
 10
619.84264283810091
 20
345.27813750259389
 30
0.0
 70
    32
  0
VERTEX
  5
D8C1
  8
AM_0
 10
619.84084283810114
 20
345.2741375025937
 30
0.0
 70
    32
  0
VERTEX
  5
D8C2
  8
AM_0
 10
619.83904283810102
 20
345.2701375025938
 30
0.0
 70
    32
  0
VERTEX
  5
D8C3
  8
AM_0
 10
619.83734283810088
 20
345.26613750259361
 30
0.0
 70
    32
  0
VERTEX
  5
D8C4
  8
AM_0
 10
619.83554283810099
 20
345.26213750259382
 30
0.0
 70
    32
  0
VERTEX
  5
D8C5
  8
AM_0
 10
619.8338428381013
 20
345.25813750259351
 30
0.0
 70
    32
  0
VERTEX
  5
D8C6
  8
AM_0
 10
619.83214283810128
 20
345.25413750259361
 30
0.0
 70
    32
  0
VERTEX
  5
D8C7
  8
AM_0
 10
619.83034283810116
 20
345.25013750259382
 30
0.0
 70
    32
  0
VERTEX
  5
D8C8
  8
AM_0
 10
619.82864283810102
 20
345.24613750259368
 30
0.0
 70
    32
  0
VERTEX
  5
D8C9
  8
AM_0
 10
619.82694283810122
 20
345.24213750259372
 30
0.0
 70
    32
  0
VERTEX
  5
D8CA
  8
AM_0
 10
619.8252428381013
 20
345.23813750259359
 30
0.0
 70
    32
  0
VERTEX
  5
D8CB
  8
AM_0
 10
619.82354283810105
 20
345.2341375025938
 30
0.0
 70
    32
  0
VERTEX
  5
D8CC
  8
AM_0
 10
619.82184283810113
 20
345.23013750259389
 30
0.0
 70
    32
  0
VERTEX
  5
D8CD
  8
AM_0
 10
619.82014283810111
 20
345.2261375025937
 30
0.0
 70
    32
  0
VERTEX
  5
D8CE
  8
AM_0
 10
619.81844283810119
 20
345.2221375025938
 30
0.0
 70
    32
  0
VERTEX
  5
D8CF
  8
AM_0
 10
619.81674283810128
 20
345.21813750259361
 30
0.0
 70
    32
  0
VERTEX
  5
D8D0
  8
AM_0
 10
619.81504283810114
 20
345.21413750259381
 30
0.0
 70
    32
  0
VERTEX
  5
D8D1
  8
AM_0
 10
619.81334283810122
 20
345.21013750259368
 30
0.0
 70
    32
  0
VERTEX
  5
D8D2
  8
AM_0
 10
619.8117428381014
 20
345.20613750259361
 30
0.0
 70
    32
  0
VERTEX
  5
D8D3
  8
AM_0
 10
619.81004283810114
 20
345.20213750259381
 30
0.0
 70
    32
  0
VERTEX
  5
D8D4
  8
AM_0
 10
619.80844283810109
 20
345.19813750259351
 30
0.0
 70
    32
  0
VERTEX
  5
D8D5
  8
AM_0
 10
619.80674283810151
 20
345.19413750259372
 30
0.0
 70
    32
  0
VERTEX
  5
D8D6
  8
AM_0
 10
619.80514283810123
 20
345.1901375025937
 30
0.0
 70
    32
  0
VERTEX
  5
D8D7
  8
AM_0
 10
619.80344283810132
 20
345.18613750259362
 30
0.0
 70
    32
  0
VERTEX
  5
D8D8
  8
AM_0
 10
619.80184283810115
 20
345.18213750259378
 30
0.0
 70
    32
  0
VERTEX
  5
D8D9
  8
AM_0
 10
619.8002428381011
 20
345.17813750259347
 30
0.0
 70
    32
  0
VERTEX
  5
D8DA
  8
AM_0
 10
619.79864283810139
 20
345.17413750259379
 30
0.0
 70
    32
  0
VERTEX
  5
D8DB
  8
AM_0
 10
619.79694283810124
 20
345.17013750259372
 30
0.0
 70
    32
  0
VERTEX
  5
D8DC
  8
AM_0
 10
619.79534283810131
 20
345.16613750259393
 30
0.0
 70
    32
  0
VERTEX
  5
D8DD
  8
AM_0
 10
619.79374283810125
 20
345.16213750259391
 30
0.0
 70
    32
  0
VERTEX
  5
D8DE
  8
AM_0
 10
619.79214283810131
 20
345.1581375025936
 30
0.0
 70
    32
  0
VERTEX
  5
D8DF
  8
AM_0
 10
619.79064283810123
 20
345.15413750259358
 30
0.0
 70
    32
  0
VERTEX
  5
D8E0
  8
AM_0
 10
619.78904283810095
 20
345.15013750259368
 30
0.0
 70
    32
  0
VERTEX
  5
D8E1
  8
AM_0
 10
619.78744283810124
 20
345.14613750259372
 30
0.0
 70
    32
  0
VERTEX
  5
D8E2
  8
AM_0
 10
619.78584283810096
 20
345.14213750259353
 30
0.0
 70
    32
  0
VERTEX
  5
D8E3
  8
AM_0
 10
619.78434283810122
 20
345.13813750259391
 30
0.0
 70
    32
  0
VERTEX
  5
D8E4
  8
AM_0
 10
619.78274283810106
 20
345.13413750259372
 30
0.0
 70
    32
  0
VERTEX
  5
D8E5
  8
AM_0
 10
619.78114283810123
 20
345.12913750259389
 30
0.0
 70
    32
  0
VERTEX
  5
D8E6
  8
AM_0
 10
619.77964283810093
 20
345.12513750259382
 30
0.0
 70
    32
  0
VERTEX
  5
D8E7
  8
AM_0
 10
619.7781428381013
 20
345.1211375025938
 30
0.0
 70
    32
  0
VERTEX
  5
D8E8
  8
AM_0
 10
619.77654283810114
 20
345.11713750259361
 30
0.0
 70
    32
  0
VERTEX
  5
D8E9
  8
AM_0
 10
619.77504283810106
 20
345.11313750259347
 30
0.0
 70
    32
  0
VERTEX
  5
D8EA
  8
AM_0
 10
619.77354283810132
 20
345.10913750259391
 30
0.0
 70
    32
  0
VERTEX
  5
D8EB
  8
AM_0
 10
619.77194283810093
 20
345.10513750259378
 30
0.0
 70
    32
  0
VERTEX
  5
D8EC
  8
AM_0
 10
619.77044283810085
 20
345.10113750259382
 30
0.0
 70
    32
  0
VERTEX
  5
D8ED
  8
AM_0
 10
619.76894283810134
 20
345.09713750259391
 30
0.0
 70
    32
  0
VERTEX
  5
D8EE
  8
AM_0
 10
619.76744283810115
 20
345.09313750259349
 30
0.0
 70
    32
  0
VERTEX
  5
D8EF
  8
AM_0
 10
619.76594283810095
 20
345.08913750259381
 30
0.0
 70
    32
  0
VERTEX
  5
D8F0
  8
AM_0
 10
619.76444283810133
 20
345.08513750259368
 30
0.0
 70
    32
  0
VERTEX
  5
D8F1
  8
AM_0
 10
619.7629428381008
 20
345.08113750259349
 30
0.0
 70
    32
  0
VERTEX
  5
D8F2
  8
AM_0
 10
619.76154283810126
 20
345.07713750259381
 30
0.0
 70
    32
  0
VERTEX
  5
D8F3
  8
AM_0
 10
619.76004283810107
 20
345.07213750259348
 30
0.0
 70
    32
  0
VERTEX
  5
D8F4
  8
AM_0
 10
619.75854283810088
 20
345.06813750259369
 30
0.0
 70
    32
  0
VERTEX
  5
D8F5
  8
AM_0
 10
619.75704283810114
 20
345.06413750259361
 30
0.0
 70
    32
  0
VERTEX
  5
D8F6
  8
AM_0
 10
619.75564283810093
 20
345.06013750259359
 30
0.0
 70
    32
  0
VERTEX
  5
D8F7
  8
AM_0
 10
619.7541428381013
 20
345.05613750259369
 30
0.0
 70
    32
  0
VERTEX
  5
D8F8
  8
AM_0
 10
619.75274283810131
 20
345.05213750259378
 30
0.0
 70
    32
  0
VERTEX
  5
D8F9
  8
AM_0
 10
619.75124283810112
 20
345.04813750259359
 30
0.0
 70
    32
  0
VERTEX
  5
D8FA
  8
AM_0
 10
619.74984283810124
 20
345.04413750259351
 30
0.0
 70
    32
  0
VERTEX
  5
D8FB
  8
AM_0
 10
619.74844283810091
 20
345.04013750259361
 30
0.0
 70
    32
  0
VERTEX
  5
D8FC
  8
AM_0
 10
619.74704283810092
 20
345.03613750259382
 30
0.0
 70
    32
  0
VERTEX
  5
D8FD
  8
AM_0
 10
619.7455428381013
 20
345.03113750259382
 30
0.0
 70
    32
  0
VERTEX
  5
D8FE
  8
AM_0
 10
619.74414283810108
 20
345.02713750259392
 30
0.0
 70
    32
  0
VERTEX
  5
D8FF
  8
AM_0
 10
619.74274283810098
 20
345.02313750259378
 30
0.0
 70
    32
  0
VERTEX
  5
D900
  8
AM_0
 10
619.7413428381011
 20
345.01913750259382
 30
0.0
 70
    32
  0
VERTEX
  5
D901
  8
AM_0
 10
619.73994283810123
 20
345.01513750259352
 30
0.0
 70
    32
  0
VERTEX
  5
D902
  8
AM_0
 10
619.73854283810113
 20
345.01113750259373
 30
0.0
 70
    32
  0
VERTEX
  5
D903
  8
AM_0
 10
619.73714283810102
 20
345.00713750259382
 30
0.0
 70
    32
  0
VERTEX
  5
D904
  8
AM_0
 10
619.73574283810115
 20
345.00313750259369
 30
0.0
 70
    32
  0
VERTEX
  5
D905
  8
AM_0
 10
619.7344428381009
 20
344.99913750259378
 30
0.0
 70
    32
  0
VERTEX
  5
D906
  8
AM_0
 10
619.73304283810114
 20
344.9941375025939
 30
0.0
 70
    32
  0
VERTEX
  5
D907
  8
AM_0
 10
619.73164283810127
 20
344.99013750259371
 30
0.0
 70
    32
  0
VERTEX
  5
D908
  8
AM_0
 10
619.73034283810114
 20
344.98613750259352
 30
0.0
 70
    32
  0
VERTEX
  5
D909
  8
AM_0
 10
619.72894283810115
 20
344.98213750259362
 30
0.0
 70
    32
  0
VERTEX
  5
D90A
  8
AM_0
 10
619.72764283810113
 20
344.97813750259371
 30
0.0
 70
    32
  0
VERTEX
  5
D90B
  8
AM_0
 10
619.72624283810114
 20
344.97413750259392
 30
0.0
 70
    32
  0
VERTEX
  5
D90C
  8
AM_0
 10
619.72494283810113
 20
344.97013750259367
 30
0.0
 70
    32
  0
VERTEX
  5
D90D
  8
AM_0
 10
619.72364283810089
 20
344.96513750259362
 30
0.0
 70
    32
  0
VERTEX
  5
D90E
  8
AM_0
 10
619.72224283810112
 20
344.9611375025936
 30
0.0
 70
    32
  0
VERTEX
  5
D90F
  8
AM_0
 10
619.72094283810122
 20
344.95713750259353
 30
0.0
 70
    32
  0
VERTEX
  5
D910
  8
AM_0
 10
619.71964283810109
 20
344.95313750259368
 30
0.0
 70
    32
  0
VERTEX
  5
D911
  8
AM_0
 10
619.71834283810131
 20
344.94913750259371
 30
0.0
 70
    32
  0
VERTEX
  5
D912
  8
AM_0
 10
619.71704283810129
 20
344.94513750259392
 30
0.0
 70
    32
  0
VERTEX
  5
D913
  8
AM_0
 10
619.71574283810105
 20
344.9411375025939
 30
0.0
 70
    32
  0
VERTEX
  5
D914
  8
AM_0
 10
619.71444283810092
 20
344.93613750259379
 30
0.0
 70
    32
  0
VERTEX
  5
D915
  8
AM_0
 10
619.71314283810125
 20
344.93213750259389
 30
0.0
 70
    32
  0
VERTEX
  5
D916
  8
AM_0
 10
619.71184283810123
 20
344.9281375025937
 30
0.0
 70
    32
  0
VERTEX
  5
D917
  8
AM_0
 10
619.71054283810111
 20
344.92413750259379
 30
0.0
 70
    32
  0
VERTEX
  5
D918
  8
AM_0
 10
619.7092428381012
 20
344.9201375025936
 30
0.0
 70
    32
  0
VERTEX
  5
D919
  8
AM_0
 10
619.70804283810128
 20
344.91613750259393
 30
0.0
 70
    32
  0
VERTEX
  5
D91A
  8
AM_0
 10
619.70674283810115
 20
344.91213750259391
 30
0.0
 70
    32
  0
VERTEX
  5
D91B
  8
AM_0
 10
619.70544283810102
 20
344.90713750259391
 30
0.0
 70
    32
  0
VERTEX
  5
D91C
  8
AM_0
 10
619.7042428381011
 20
344.90313750259372
 30
0.0
 70
    32
  0
VERTEX
  5
D91D
  8
AM_0
 10
619.70294283810131
 20
344.89913750259359
 30
0.0
 70
    32
  0
VERTEX
  5
D91E
  8
AM_0
 10
619.70174283810127
 20
344.89513750259363
 30
0.0
 70
    32
  0
VERTEX
  5
D91F
  8
AM_0
 10
619.70044283810114
 20
344.89113750259389
 30
0.0
 70
    32
  0
VERTEX
  5
D920
  8
AM_0
 10
619.69924283810133
 20
344.88713750259359
 30
0.0
 70
    32
  0
VERTEX
  5
D921
  8
AM_0
 10
619.69804283810095
 20
344.88213750259382
 30
0.0
 70
    32
  0
VERTEX
  5
D922
  8
AM_0
 10
619.69674283810093
 20
344.87813750259357
 30
0.0
 70
    32
  0
VERTEX
  5
D923
  8
AM_0
 10
619.69554283810146
 20
344.87413750259373
 30
0.0
 70
    32
  0
VERTEX
  5
D924
  8
AM_0
 10
619.69434283810097
 20
344.87013750259382
 30
0.0
 70
    32
  0
VERTEX
  5
D925
  8
AM_0
 10
619.69314283810093
 20
344.86613750259369
 30
0.0
 70
    32
  0
VERTEX
  5
D926
  8
AM_0
 10
619.69194283810134
 20
344.86213750259373
 30
0.0
 70
    32
  0
VERTEX
  5
D927
  8
AM_0
 10
619.69074283810107
 20
344.85713750259362
 30
0.0
 70
    32
  0
VERTEX
  5
D928
  8
AM_0
 10
619.68954283810115
 20
344.85313750259382
 30
0.0
 70
    32
  0
VERTEX
  5
D929
  8
AM_0
 10
619.68834283810133
 20
344.84913750259381
 30
0.0
 70
    32
  0
VERTEX
  5
D92A
  8
AM_0
 10
619.68714283810129
 20
344.84513750259367
 30
0.0
 70
    32
  0
VERTEX
  5
D92B
  8
AM_0
 10
619.68594283810091
 20
344.84113750259371
 30
0.0
 70
    32
  0
VERTEX
  5
D92C
  8
AM_0
 10
619.68474283810133
 20
344.83613750259377
 30
0.0
 70
    32
  0
VERTEX
  5
D92D
  8
AM_0
 10
619.68364283810092
 20
344.83213750259353
 30
0.0
 70
    32
  0
VERTEX
  5
D92E
  8
AM_0
 10
619.682442838101
 20
344.82813750259379
 30
0.0
 70
    32
  0
VERTEX
  5
D92F
  8
AM_0
 10
619.68124283810107
 20
344.82413750259371
 30
0.0
 70
    32
  0
VERTEX
  5
D930
  8
AM_0
 10
619.68014283810123
 20
344.8201375025937
 30
0.0
 70
    32
  0
VERTEX
  5
D931
  8
AM_0
 10
619.67894283810131
 20
344.8161375025939
 30
0.0
 70
    32
  0
VERTEX
  5
D932
  8
AM_0
 10
619.67784283810113
 20
344.81113750259391
 30
0.0
 70
    32
  0
VERTEX
  5
D933
  8
AM_0
 10
619.67664283810132
 20
344.80713750259378
 30
0.0
 70
    32
  0
VERTEX
  5
D934
  8
AM_0
 10
619.67554283810102
 20
344.80313750259359
 30
0.0
 70
    32
  0
VERTEX
  5
D935
  8
AM_0
 10
619.6743428381011
 20
344.79913750259391
 30
0.0
 70
    32
  0
VERTEX
  5
D936
  8
AM_0
 10
619.67324283810115
 20
344.79513750259372
 30
0.0
 70
    32
  0
VERTEX
  5
D937
  8
AM_0
 10
619.67214283810131
 20
344.79013750259389
 30
0.0
 70
    32
  0
VERTEX
  5
D938
  8
AM_0
 10
619.67104283810113
 20
344.78613750259382
 30
0.0
 70
    32
  0
VERTEX
  5
D939
  8
AM_0
 10
619.66984283810109
 20
344.7821375025938
 30
0.0
 70
    32
  0
VERTEX
  5
D93A
  8
AM_0
 10
619.66874283810091
 20
344.77813750259361
 30
0.0
 70
    32
  0
VERTEX
  5
D93B
  8
AM_0
 10
619.6676428381013
 20
344.77413750259348
 30
0.0
 70
    32
  0
VERTEX
  5
D93C
  8
AM_0
 10
619.66654283810101
 20
344.76913750259382
 30
0.0
 70
    32
  0
VERTEX
  5
D93D
  8
AM_0
 10
619.66544283810117
 20
344.76513750259352
 30
0.0
 70
    32
  0
VERTEX
  5
D93E
  8
AM_0
 10
619.66434283810077
 20
344.76113750259373
 30
0.0
 70
    32
  0
VERTEX
  5
D93F
  8
AM_0
 10
619.66324283810116
 20
344.75713750259371
 30
0.0
 70
    32
  0
VERTEX
  5
D940
  8
AM_0
 10
619.66224283810118
 20
344.75213750259371
 30
0.0
 70
    32
  0
VERTEX
  5
D941
  8
AM_0
 10
619.66114283810123
 20
344.74813750259381
 30
0.0
 70
    32
  0
VERTEX
  5
D942
  8
AM_0
 10
619.66004283810116
 20
344.7441375025939
 30
0.0
 70
    32
  0
VERTEX
  5
D943
  8
AM_0
 10
619.6589428381011
 20
344.74013750259371
 30
0.0
 70
    32
  0
VERTEX
  5
D944
  8
AM_0
 10
619.65794283810101
 20
344.73613750259352
 30
0.0
 70
    32
  0
VERTEX
  5
D945
  8
AM_0
 10
619.6568428381014
 20
344.73113750259392
 30
0.0
 70
    32
  0
VERTEX
  5
D946
  8
AM_0
 10
619.65584283810119
 20
344.72713750259362
 30
0.0
 70
    32
  0
VERTEX
  5
D947
  8
AM_0
 10
619.65474283810124
 20
344.72313750259372
 30
0.0
 70
    32
  0
VERTEX
  5
D948
  8
AM_0
 10
619.65374283810115
 20
344.7191375025937
 30
0.0
 70
    32
  0
VERTEX
  5
D949
  8
AM_0
 10
619.65264283810109
 20
344.71513750259351
 30
0.0
 70
    32
  0
VERTEX
  5
D94A
  8
AM_0
 10
619.65164283810077
 20
344.71013750259368
 30
0.0
 70
    32
  0
VERTEX
  5
D94B
  8
AM_0
 10
619.65064283810113
 20
344.70613750259378
 30
0.0
 70
    32
  0
VERTEX
  5
D94C
  8
AM_0
 10
619.64954283810118
 20
344.70213750259359
 30
0.0
 70
    32
  0
VERTEX
  5
D94D
  8
AM_0
 10
619.64854283810132
 20
344.69813750259351
 30
0.0
 70
    32
  0
VERTEX
  5
D94E
  8
AM_0
 10
619.64754283810112
 20
344.69313750259357
 30
0.0
 70
    32
  0
VERTEX
  5
D94F
  8
AM_0
 10
619.64654283810114
 20
344.68913750259361
 30
0.0
 70
    32
  0
VERTEX
  5
D950
  8
AM_0
 10
619.64554283810151
 20
344.68513750259382
 30
0.0
 70
    32
  0
VERTEX
  5
D951
  8
AM_0
 10
619.64454283810085
 20
344.68113750259369
 30
0.0
 70
    32
  0
VERTEX
  5
D952
  8
AM_0
 10
619.64354283810087
 20
344.67713750259378
 30
0.0
 70
    32
  0
VERTEX
  5
D953
  8
AM_0
 10
619.64254283810112
 20
344.67213750259373
 30
0.0
 70
    32
  0
VERTEX
  5
D954
  8
AM_0
 10
619.64154283810115
 20
344.66813750259399
 30
0.0
 70
    32
  0
VERTEX
  5
D955
  8
AM_0
 10
619.64054283810106
 20
344.66413750259369
 30
0.0
 70
    32
  0
VERTEX
  5
D956
  8
AM_0
 10
619.63964283810105
 20
344.6601375025935
 30
0.0
 70
    32
  0
VERTEX
  5
D957
  8
AM_0
 10
619.63864283810108
 20
344.65513750259367
 30
0.0
 70
    32
  0
VERTEX
  5
D958
  8
AM_0
 10
619.63764283810133
 20
344.65113750259349
 30
0.0
 70
    32
  0
VERTEX
  5
D959
  8
AM_0
 10
619.6367428381011
 20
344.64713750259358
 30
0.0
 70
    32
  0
VERTEX
  5
D95A
  8
AM_0
 10
619.63574283810124
 20
344.64313750259379
 30
0.0
 70
    32
  0
VERTEX
  5
D95B
  8
AM_0
 10
619.63474283810149
 20
344.63813750259379
 30
0.0
 70
    32
  0
VERTEX
  5
D95C
  8
AM_0
 10
619.63384283810149
 20
344.63413750259372
 30
0.0
 70
    32
  0
VERTEX
  5
D95D
  8
AM_0
 10
619.63284283810094
 20
344.63013750259353
 30
0.0
 70
    32
  0
VERTEX
  5
D95E
  8
AM_0
 10
619.63194283810094
 20
344.62613750259379
 30
0.0
 70
    32
  0
VERTEX
  5
D95F
  8
AM_0
 10
619.63104283810105
 20
344.62113750259391
 30
0.0
 70
    32
  0
VERTEX
  5
D960
  8
AM_0
 10
619.6300428381013
 20
344.61713750259361
 30
0.0
 70
    32
  0
VERTEX
  5
D961
  8
AM_0
 10
619.62914283810107
 20
344.61313750259347
 30
0.0
 70
    32
  0
VERTEX
  5
D962
  8
AM_0
 10
619.6282428381013
 20
344.60913750259391
 30
0.0
 70
    32
  0
VERTEX
  5
D963
  8
AM_0
 10
619.6273428381013
 20
344.60413750259369
 30
0.0
 70
    32
  0
VERTEX
  5
D964
  8
AM_0
 10
619.6264428381013
 20
344.6001375025935
 30
0.0
 70
    32
  0
VERTEX
  5
D965
  8
AM_0
 10
619.6255428381013
 20
344.59613750259382
 30
0.0
 70
    32
  0
VERTEX
  5
D966
  8
AM_0
 10
619.62464283810107
 20
344.5921375025938
 30
0.0
 70
    32
  0
VERTEX
  5
D967
  8
AM_0
 10
619.62374283810095
 20
344.58713750259392
 30
0.0
 70
    32
  0
VERTEX
  5
D968
  8
AM_0
 10
619.62284283810118
 20
344.58313750259367
 30
0.0
 70
    32
  0
VERTEX
  5
D969
  8
AM_0
 10
619.62194283810129
 20
344.57913750259371
 30
0.0
 70
    32
  0
VERTEX
  5
D96A
  8
AM_0
 10
619.62104283810129
 20
344.57513750259352
 30
0.0
 70
    32
  0
VERTEX
  5
D96B
  8
AM_0
 10
619.62014283810117
 20
344.57013750259392
 30
0.0
 70
    32
  0
VERTEX
  5
D96C
  8
AM_0
 10
619.61924283810106
 20
344.5661375025939
 30
0.0
 70
    32
  0
VERTEX
  5
D96D
  8
AM_0
 10
619.61844283810092
 20
344.5621375025936
 30
0.0
 70
    32
  0
VERTEX
  5
D96E
  8
AM_0
 10
619.61754283810092
 20
344.55813750259381
 30
0.0
 70
    32
  0
VERTEX
  5
D96F
  8
AM_0
 10
619.61664283810092
 20
344.55313750259347
 30
0.0
 70
    32
  0
VERTEX
  5
D970
  8
AM_0
 10
619.61584283810134
 20
344.54913750259362
 30
0.0
 70
    32
  0
VERTEX
  5
D971
  8
AM_0
 10
619.61494283810134
 20
344.54513750259389
 30
0.0
 70
    32
  0
VERTEX
  5
D972
  8
AM_0
 10
619.61414283810132
 20
344.54113750259393
 30
0.0
 70
    32
  0
VERTEX
  5
D973
  8
AM_0
 10
619.61324283810109
 20
344.5361375025937
 30
0.0
 70
    32
  0
VERTEX
  5
D974
  8
AM_0
 10
619.61244283810106
 20
344.53213750259391
 30
0.0
 70
    32
  0
VERTEX
  5
D975
  8
AM_0
 10
619.61154283810129
 20
344.52813750259378
 30
0.0
 70
    32
  0
VERTEX
  5
D976
  8
AM_0
 10
619.61074283810092
 20
344.5241375025937
 30
0.0
 70
    32
  0
VERTEX
  5
D977
  8
AM_0
 10
619.60994283810101
 20
344.51913750259382
 30
0.0
 70
    32
  0
VERTEX
  5
D978
  8
AM_0
 10
619.60914283810132
 20
344.51513750259352
 30
0.0
 70
    32
  0
VERTEX
  5
D979
  8
AM_0
 10
619.60824283810121
 20
344.5111375025939
 30
0.0
 70
    32
  0
VERTEX
  5
D97A
  8
AM_0
 10
619.60744283810095
 20
344.50613750259362
 30
0.0
 70
    32
  0
VERTEX
  5
D97B
  8
AM_0
 10
619.60664283810115
 20
344.50213750259371
 30
0.0
 70
    32
  0
VERTEX
  5
D97C
  8
AM_0
 10
619.60584283810124
 20
344.49813750259392
 30
0.0
 70
    32
  0
VERTEX
  5
D97D
  8
AM_0
 10
619.60504283810133
 20
344.49413750259362
 30
0.0
 70
    32
  0
VERTEX
  5
D97E
  8
AM_0
 10
619.60424283810096
 20
344.48913750259368
 30
0.0
 70
    32
  0
VERTEX
  5
D97F
  8
AM_0
 10
619.60344283810093
 20
344.48513750259377
 30
0.0
 70
    32
  0
VERTEX
  5
D980
  8
AM_0
 10
619.60264283810113
 20
344.4811375025937
 30
0.0
 70
    32
  0
VERTEX
  5
D981
  8
AM_0
 10
619.60184283810111
 20
344.47713750259362
 30
0.0
 70
    32
  0
VERTEX
  5
D982
  8
AM_0
 10
619.60104283810131
 20
344.47213750259368
 30
0.0
 70
    32
  0
VERTEX
  5
D983
  8
AM_0
 10
619.60034283810114
 20
344.46813750259361
 30
0.0
 70
    32
  0
VERTEX
  5
D984
  8
AM_0
 10
619.59954283810123
 20
344.46413750259359
 30
0.0
 70
    32
  0
VERTEX
  5
D985
  8
AM_0
 10
619.59874283810132
 20
344.45913750259359
 30
0.0
 70
    32
  0
VERTEX
  5
D986
  8
AM_0
 10
619.59794283810106
 20
344.4551375025938
 30
0.0
 70
    32
  0
VERTEX
  5
D987
  8
AM_0
 10
619.59724283810101
 20
344.45113750259372
 30
0.0
 70
    32
  0
VERTEX
  5
D988
  8
AM_0
 10
619.59644283810087
 20
344.4471375025937
 30
0.0
 70
    32
  0
VERTEX
  5
D989
  8
AM_0
 10
619.59574283810093
 20
344.44213750259371
 30
0.0
 70
    32
  0
VERTEX
  5
D98A
  8
AM_0
 10
619.59494283810125
 20
344.43813750259352
 30
0.0
 70
    32
  0
VERTEX
  5
D98B
  8
AM_0
 10
619.5942428381012
 20
344.43413750259361
 30
0.0
 70
    32
  0
VERTEX
  5
D98C
  8
AM_0
 10
619.59344283810105
 20
344.42913750259368
 30
0.0
 70
    32
  0
VERTEX
  5
D98D
  8
AM_0
 10
619.59274283810112
 20
344.42513750259371
 30
0.0
 70
    32
  0
VERTEX
  5
D98E
  8
AM_0
 10
619.59204283810129
 20
344.42113750259392
 30
0.0
 70
    32
  0
VERTEX
  5
D98F
  8
AM_0
 10
619.59124283810092
 20
344.4171375025935
 30
0.0
 70
    32
  0
VERTEX
  5
D990
  8
AM_0
 10
619.59054283810133
 20
344.41213750259368
 30
0.0
 70
    32
  0
VERTEX
  5
D991
  8
AM_0
 10
619.58984283810128
 20
344.40813750259377
 30
0.0
 70
    32
  0
VERTEX
  5
D992
  8
AM_0
 10
619.58914283810111
 20
344.40413750259358
 30
0.0
 70
    32
  0
VERTEX
  5
D993
  8
AM_0
 10
619.58834283810097
 20
344.39913750259359
 30
0.0
 70
    32
  0
VERTEX
  5
D994
  8
AM_0
 10
619.58764283810092
 20
344.3951375025938
 30
0.0
 70
    32
  0
VERTEX
  5
D995
  8
AM_0
 10
619.58694283810132
 20
344.39113750259372
 30
0.0
 70
    32
  0
VERTEX
  5
D996
  8
AM_0
 10
619.58624283810104
 20
344.38713750259382
 30
0.0
 70
    32
  0
VERTEX
  5
D997
  8
AM_0
 10
619.58554283810111
 20
344.38213750259382
 30
0.0
 70
    32
  0
VERTEX
  5
D998
  8
AM_0
 10
619.58484283810128
 20
344.37813750259392
 30
0.0
 70
    32
  0
VERTEX
  5
D999
  8
AM_0
 10
619.58414283810123
 20
344.37413750259373
 30
0.0
 70
    32
  0
VERTEX
  5
D99A
  8
AM_0
 10
619.58354283810115
 20
344.3691375025935
 30
0.0
 70
    32
  0
VERTEX
  5
D99B
  8
AM_0
 10
619.5828428381011
 20
344.36513750259383
 30
0.0
 70
    32
  0
VERTEX
  5
D99C
  8
AM_0
 10
619.58214283810116
 20
344.36113750259352
 30
0.0
 70
    32
  0
VERTEX
  5
D99D
  8
AM_0
 10
619.58144283810122
 20
344.35713750259367
 30
0.0
 70
    32
  0
VERTEX
  5
D99E
  8
AM_0
 10
619.5807428381014
 20
344.35213750259362
 30
0.0
 70
    32
  0
VERTEX
  5
D99F
  8
AM_0
 10
619.5801428381011
 20
344.3481375025936
 30
0.0
 70
    32
  0
VERTEX
  5
D9A0
  8
AM_0
 10
619.57944283810116
 20
344.3441375025937
 30
0.0
 70
    32
  0
VERTEX
  5
D9A1
  8
AM_0
 10
619.57884283810097
 20
344.33913750259359
 30
0.0
 70
    32
  0
VERTEX
  5
D9A2
  8
AM_0
 10
619.57814283810114
 20
344.33513750259368
 30
0.0
 70
    32
  0
VERTEX
  5
D9A3
  8
AM_0
 10
619.57744283810086
 20
344.33113750259378
 30
0.0
 70
    32
  0
VERTEX
  5
D9A4
  8
AM_0
 10
619.57684283810124
 20
344.3271375025937
 30
0.0
 70
    32
  0
VERTEX
  5
D9A5
  8
AM_0
 10
619.57624283810117
 20
344.32213750259359
 30
0.0
 70
    32
  0
VERTEX
  5
D9A6
  8
AM_0
 10
619.57554283810111
 20
344.31813750259369
 30
0.0
 70
    32
  0
VERTEX
  5
D9A7
  8
AM_0
 10
619.57494283810115
 20
344.31413750259378
 30
0.0
 70
    32
  0
VERTEX
  5
D9A8
  8
AM_0
 10
619.57424283810133
 20
344.30913750259373
 30
0.0
 70
    32
  0
VERTEX
  5
D9A9
  8
AM_0
 10
619.57364283810114
 20
344.30513750259348
 30
0.0
 70
    32
  0
VERTEX
  5
D9AA
  8
AM_0
 10
619.57304283810095
 20
344.30113750259358
 30
0.0
 70
    32
  0
VERTEX
  5
D9AB
  8
AM_0
 10
619.57244283810132
 20
344.29613750259369
 30
0.0
 70
    32
  0
VERTEX
  5
D9AC
  8
AM_0
 10
619.57184283810113
 20
344.29213750259379
 30
0.0
 70
    32
  0
VERTEX
  5
D9AD
  8
AM_0
 10
619.57114283810131
 20
344.28813750259371
 30
0.0
 70
    32
  0
VERTEX
  5
D9AE
  8
AM_0
 10
619.57054283810123
 20
344.28313750259377
 30
0.0
 70
    32
  0
VERTEX
  5
D9AF
  8
AM_0
 10
619.56994283810116
 20
344.2791375025937
 30
0.0
 70
    32
  0
VERTEX
  5
D9B0
  8
AM_0
 10
619.56934283810119
 20
344.27513750259368
 30
0.0
 70
    32
  0
VERTEX
  5
D9B1
  8
AM_0
 10
619.56874283810123
 20
344.2711375025936
 30
0.0
 70
    32
  0
VERTEX
  5
D9B2
  8
AM_0
 10
619.56814283810115
 20
344.26613750259372
 30
0.0
 70
    32
  0
VERTEX
  5
D9B3
  8
AM_0
 10
619.56754283810119
 20
344.26213750259382
 30
0.0
 70
    32
  0
VERTEX
  5
D9B4
  8
AM_0
 10
619.56694283810123
 20
344.2581375025934
 30
0.0
 70
    32
  0
VERTEX
  5
D9B5
  8
AM_0
 10
619.56644283810112
 20
344.25313750259357
 30
0.0
 70
    32
  0
VERTEX
  5
D9B6
  8
AM_0
 10
619.56584283810093
 20
344.24913750259373
 30
0.0
 70
    32
  0
VERTEX
  5
D9B7
  8
AM_0
 10
619.56524283810131
 20
344.24513750259348
 30
0.0
 70
    32
  0
VERTEX
  5
D9B8
  8
AM_0
 10
619.56464283810112
 20
344.24013750259371
 30
0.0
 70
    32
  0
VERTEX
  5
D9B9
  8
AM_0
 10
619.56414283810125
 20
344.23613750259352
 30
0.0
 70
    32
  0
VERTEX
  5
D9BA
  8
AM_0
 10
619.56354283810106
 20
344.23213750259367
 30
0.0
 70
    32
  0
VERTEX
  5
D9BB
  8
AM_0
 10
619.56294283810098
 20
344.22813750259371
 30
0.0
 70
    32
  0
VERTEX
  5
D9BC
  8
AM_0
 10
619.56244283810122
 20
344.2231375025936
 30
0.0
 70
    32
  0
VERTEX
  5
D9BD
  8
AM_0
 10
619.56184283810126
 20
344.21913750259381
 30
0.0
 70
    32
  0
VERTEX
  5
D9BE
  8
AM_0
 10
619.56134283810093
 20
344.2151375025939
 30
0.0
 70
    32
  0
VERTEX
  5
D9BF
  8
AM_0
 10
619.56074283810131
 20
344.21013750259368
 30
0.0
 70
    32
  0
VERTEX
  5
D9C0
  8
AM_0
 10
619.56024283810086
 20
344.20613750259349
 30
0.0
 70
    32
  0
VERTEX
  5
D9C1
  8
AM_0
 10
619.55974283810133
 20
344.20213750259381
 30
0.0
 70
    32
  0
VERTEX
  5
D9C2
  8
AM_0
 10
619.55914283810125
 20
344.19713750259399
 30
0.0
 70
    32
  0
VERTEX
  5
D9C3
  8
AM_0
 10
619.55864283810092
 20
344.19313750259357
 30
0.0
 70
    32
  0
VERTEX
  5
D9C4
  8
AM_0
 10
619.55814283810105
 20
344.18913750259361
 30
0.0
 70
    32
  0
VERTEX
  5
D9C5
  8
AM_0
 10
619.55754283810074
 20
344.18413750259379
 30
0.0
 70
    32
  0
VERTEX
  5
D9C6
  8
AM_0
 10
619.55704283810087
 20
344.18013750259348
 30
0.0
 70
    32
  0
VERTEX
  5
D9C7
  8
AM_0
 10
619.55654283810088
 20
344.17613750259369
 30
0.0
 70
    32
  0
VERTEX
  5
D9C8
  8
AM_0
 10
619.55604283810123
 20
344.17113750259369
 30
0.0
 70
    32
  0
VERTEX
  5
D9C9
  8
AM_0
 10
619.55554283810125
 20
344.1671375025939
 30
0.0
 70
    32
  0
VERTEX
  5
D9CA
  8
AM_0
 10
619.55504283810092
 20
344.16313750259371
 30
0.0
 70
    32
  0
VERTEX
  5
D9CB
  8
AM_0
 10
619.55454283810116
 20
344.15813750259349
 30
0.0
 70
    32
  0
VERTEX
  5
D9CC
  8
AM_0
 10
619.55404283810117
 20
344.15413750259358
 30
0.0
 70
    32
  0
VERTEX
  5
D9CD
  8
AM_0
 10
619.55354283810107
 20
344.15013750259379
 30
0.0
 70
    32
  0
VERTEX
  5
D9CE
  8
AM_0
 10
619.55304283810085
 20
344.14613750259372
 30
0.0
 70
    32
  0
VERTEX
  5
D9CF
  8
AM_0
 10
619.55254283810132
 20
344.14113750259378
 30
0.0
 70
    32
  0
VERTEX
  5
D9D0
  8
AM_0
 10
619.55214283810096
 20
344.13713750259382
 30
0.0
 70
    32
  0
VERTEX
  5
D9D1
  8
AM_0
 10
619.5516428381012
 20
344.13313750259351
 30
0.0
 70
    32
  0
VERTEX
  5
D9D2
  8
AM_0
 10
619.5511428381011
 20
344.12813750259369
 30
0.0
 70
    32
  0
VERTEX
  5
D9D3
  8
AM_0
 10
619.55074283810131
 20
344.12413750259378
 30
0.0
 70
    32
  0
VERTEX
  5
D9D4
  8
AM_0
 10
619.55024283810098
 20
344.12013750259359
 30
0.0
 70
    32
  0
VERTEX
  5
D9D5
  8
AM_0
 10
619.54974283810122
 20
344.11513750259371
 30
0.0
 70
    32
  0
VERTEX
  5
D9D6
  8
AM_0
 10
619.5493428381011
 20
344.11113750259352
 30
0.0
 70
    32
  0
VERTEX
  5
D9D7
  8
AM_0
 10
619.54894283810097
 20
344.10713750259362
 30
0.0
 70
    32
  0
VERTEX
  5
D9D8
  8
AM_0
 10
619.5484428381011
 20
344.10213750259362
 30
0.0
 70
    32
  0
VERTEX
  5
D9D9
  8
AM_0
 10
619.54804283810131
 20
344.0981375025936
 30
0.0
 70
    32
  0
VERTEX
  5
D9DA
  8
AM_0
 10
619.54754283810087
 20
344.09413750259392
 30
0.0
 70
    32
  0
VERTEX
  5
D9DB
  8
AM_0
 10
619.54714283810108
 20
344.08913750259381
 30
0.0
 70
    32
  0
VERTEX
  5
D9DC
  8
AM_0
 10
619.54674283810084
 20
344.08513750259368
 30
0.0
 70
    32
  0
VERTEX
  5
D9DD
  8
AM_0
 10
619.54634283810105
 20
344.08113750259361
 30
0.0
 70
    32
  0
VERTEX
  5
D9DE
  8
AM_0
 10
619.54584283810107
 20
344.07613750259372
 30
0.0
 70
    32
  0
VERTEX
  5
D9DF
  8
AM_0
 10
619.54544283810128
 20
344.07213750259359
 30
0.0
 70
    32
  0
VERTEX
  5
D9E0
  8
AM_0
 10
619.54504283810115
 20
344.06813750259357
 30
0.0
 70
    32
  0
VERTEX
  5
D9E1
  8
AM_0
 10
619.54464283810114
 20
344.06313750259352
 30
0.0
 70
    32
  0
VERTEX
  5
D9E2
  8
AM_0
 10
619.54424283810135
 20
344.05913750259373
 30
0.0
 70
    32
  0
VERTEX
  5
D9E3
  8
AM_0
 10
619.54384283810123
 20
344.05513750259348
 30
0.0
 70
    32
  0
VERTEX
  5
D9E4
  8
AM_0
 10
619.54344283810121
 20
344.0501375025936
 30
0.0
 70
    32
  0
VERTEX
  5
D9E5
  8
AM_0
 10
619.54314283810095
 20
344.04613750259369
 30
0.0
 70
    32
  0
VERTEX
  5
D9E6
  8
AM_0
 10
619.54274283810093
 20
344.04213750259379
 30
0.0
 70
    32
  0
VERTEX
  5
D9E7
  8
AM_0
 10
619.54234283810115
 20
344.03713750259391
 30
0.0
 70
    32
  0
VERTEX
  5
D9E8
  8
AM_0
 10
619.54194283810114
 20
344.0331375025936
 30
0.0
 70
    32
  0
VERTEX
  5
D9E9
  8
AM_0
 10
619.54164283810132
 20
344.02913750259358
 30
0.0
 70
    32
  0
VERTEX
  5
D9EA
  8
AM_0
 10
619.54124283810131
 20
344.02413750259382
 30
0.0
 70
    32
  0
VERTEX
  5
D9EB
  8
AM_0
 10
619.54084283810118
 20
344.02013750259368
 30
0.0
 70
    32
  0
VERTEX
  5
D9EC
  8
AM_0
 10
619.54054283810115
 20
344.01613750259378
 30
0.0
 70
    32
  0
VERTEX
  5
D9ED
  8
AM_0
 10
619.54014283810113
 20
344.01113750259373
 30
0.0
 70
    32
  0
VERTEX
  5
D9EE
  8
AM_0
 10
619.53984283810132
 20
344.00713750259382
 30
0.0
 70
    32
  0
VERTEX
  5
D9EF
  8
AM_0
 10
619.53954283810106
 20
344.00313750259357
 30
0.0
 70
    32
  0
VERTEX
  5
D9F0
  8
AM_0
 10
619.53914283810093
 20
343.99813750259369
 30
0.0
 70
    32
  0
VERTEX
  5
D9F1
  8
AM_0
 10
619.53884283810135
 20
343.99413750259379
 30
0.0
 70
    32
  0
VERTEX
  5
D9F2
  8
AM_0
 10
619.53854283810131
 20
343.9901375025936
 30
0.0
 70
    32
  0
VERTEX
  5
D9F3
  8
AM_0
 10
619.53824283810093
 20
343.9851375025936
 30
0.0
 70
    32
  0
VERTEX
  5
D9F4
  8
AM_0
 10
619.53784283810126
 20
343.98113750259358
 30
0.0
 70
    32
  0
VERTEX
  5
D9F5
  8
AM_0
 10
619.53754283810122
 20
343.97713750259351
 30
0.0
 70
    32
  0
VERTEX
  5
D9F6
  8
AM_0
 10
619.53724283810129
 20
343.97213750259391
 30
0.0
 70
    32
  0
VERTEX
  5
D9F7
  8
AM_0
 10
619.53694283810125
 20
343.96813750259349
 30
0.0
 70
    32
  0
VERTEX
  5
D9F8
  8
AM_0
 10
619.53664283810133
 20
343.96413750259381
 30
0.0
 70
    32
  0
VERTEX
  5
D9F9
  8
AM_0
 10
619.53634283810106
 20
343.95913750259348
 30
0.0
 70
    32
  0
VERTEX
  5
D9FA
  8
AM_0
 10
619.53604283810125
 20
343.95513750259357
 30
0.0
 70
    32
  0
VERTEX
  5
D9FB
  8
AM_0
 10
619.53574283810133
 20
343.95113750259372
 30
0.0
 70
    32
  0
VERTEX
  5
D9FC
  8
AM_0
 10
619.53544283810095
 20
343.94613750259361
 30
0.0
 70
    32
  0
VERTEX
  5
D9FD
  8
AM_0
 10
619.53524283810134
 20
343.94213750259371
 30
0.0
 70
    32
  0
VERTEX
  5
D9FE
  8
AM_0
 10
619.5349428381013
 20
343.93813750259352
 30
0.0
 70
    32
  0
VERTEX
  5
D9FF
  8
AM_0
 10
619.53464283810092
 20
343.93313750259392
 30
0.0
 70
    32
  0
VERTEX
  5
DA00
  8
AM_0
 10
619.53434283810134
 20
343.9291375025939
 30
0.0
 70
    32
  0
VERTEX
  5
DA01
  8
AM_0
 10
619.53414283810093
 20
343.9251375025936
 30
0.0
 70
    32
  0
VERTEX
  5
DA02
  8
AM_0
 10
619.53384283810112
 20
343.92013750259372
 30
0.0
 70
    32
  0
VERTEX
  5
DA03
  8
AM_0
 10
619.53364283810106
 20
343.91613750259393
 30
0.0
 70
    32
  0
VERTEX
  5
DA04
  8
AM_0
 10
619.53334283810125
 20
343.91213750259379
 30
0.0
 70
    32
  0
VERTEX
  5
DA05
  8
AM_0
 10
619.53314283810107
 20
343.9071375025938
 30
0.0
 70
    32
  0
VERTEX
  5
DA06
  8
AM_0
 10
619.53284283810092
 20
343.90313750259372
 30
0.0
 70
    32
  0
VERTEX
  5
DA07
  8
AM_0
 10
619.5326428381012
 20
343.89913750259348
 30
0.0
 70
    32
  0
VERTEX
  5
DA08
  8
AM_0
 10
619.53234283810093
 20
343.89413750259382
 30
0.0
 70
    32
  0
VERTEX
  5
DA09
  8
AM_0
 10
619.53214283810132
 20
343.89013750259352
 30
0.0
 70
    32
  0
VERTEX
  5
DA0A
  8
AM_0
 10
619.53194283810092
 20
343.88613750259373
 30
0.0
 70
    32
  0
VERTEX
  5
DA0B
  8
AM_0
 10
619.53174283810097
 20
343.88113750259367
 30
0.0
 70
    32
  0
VERTEX
  5
DA0C
  8
AM_0
 10
619.53144283810093
 20
343.8771375025936
 30
0.0
 70
    32
  0
VERTEX
  5
DA0D
  8
AM_0
 10
619.53124283810132
 20
343.87313750259369
 30
0.0
 70
    32
  0
VERTEX
  5
DA0E
  8
AM_0
 10
619.5310428381008
 20
343.86813750259392
 30
0.0
 70
    32
  0
VERTEX
  5
DA0F
  8
AM_0
 10
619.53084283810131
 20
343.86413750259379
 30
0.0
 70
    32
  0
VERTEX
  5
DA10
  8
AM_0
 10
619.53064283810124
 20
343.86013750259349
 30
0.0
 70
    32
  0
VERTEX
  5
DA11
  8
AM_0
 10
619.53044283810129
 20
343.85513750259372
 30
0.0
 70
    32
  0
VERTEX
  5
DA12
  8
AM_0
 10
619.53024283810112
 20
343.8511375025937
 30
0.0
 70
    32
  0
VERTEX
  5
DA13
  8
AM_0
 10
619.53004283810094
 20
343.84713750259363
 30
0.0
 70
    32
  0
VERTEX
  5
DA14
  8
AM_0
 10
619.52984283810122
 20
343.84213750259403
 30
0.0
 70
    32
  0
VERTEX
  5
DA15
  8
AM_0
 10
619.52964283810093
 20
343.83813750259372
 30
0.0
 70
    32
  0
VERTEX
  5
DA16
  8
AM_0
 10
619.5294428381012
 20
343.83413750259382
 30
0.0
 70
    32
  0
VERTEX
  5
DA17
  8
AM_0
 10
619.52924283810114
 20
343.8291375025936
 30
0.0
 70
    32
  0
VERTEX
  5
DA18
  8
AM_0
 10
619.5290428381013
 20
343.82513750259352
 30
0.0
 70
    32
  0
VERTEX
  5
DA19
  8
AM_0
 10
619.52894283810122
 20
343.8211375025939
 30
0.0
 70
    32
  0
VERTEX
  5
DA1A
  8
AM_0
 10
619.52874283810092
 20
343.81613750259379
 30
0.0
 70
    32
  0
VERTEX
  5
DA1B
  8
AM_0
 10
619.52854283810132
 20
343.81213750259349
 30
0.0
 70
    32
  0
VERTEX
  5
DA1C
  8
AM_0
 10
619.52844283810111
 20
343.80713750259372
 30
0.0
 70
    32
  0
VERTEX
  5
DA1D
  8
AM_0
 10
619.52824283810094
 20
343.8031375025937
 30
0.0
 70
    32
  0
VERTEX
  5
DA1E
  8
AM_0
 10
619.52804283810133
 20
343.79913750259362
 30
0.0
 70
    32
  0
VERTEX
  5
DA1F
  8
AM_0
 10
619.52794283810124
 20
343.79413750259351
 30
0.0
 70
    32
  0
VERTEX
  5
DA20
  8
AM_0
 10
619.52774283810106
 20
343.79013750259361
 30
0.0
 70
    32
  0
VERTEX
  5
DA21
  8
AM_0
 10
619.52764283810131
 20
343.78613750259382
 30
0.0
 70
    32
  0
VERTEX
  5
DA22
  8
AM_0
 10
619.52744283810114
 20
343.78113750259359
 30
0.0
 70
    32
  0
VERTEX
  5
DA23
  8
AM_0
 10
619.52734283810094
 20
343.77713750259369
 30
0.0
 70
    32
  0
VERTEX
  5
DA24
  8
AM_0
 10
619.52724283810096
 20
343.7731375025935
 30
0.0
 70
    32
  0
VERTEX
  5
DA25
  8
AM_0
 10
619.52704283810124
 20
343.76813750259367
 30
0.0
 70
    32
  0
VERTEX
  5
DA26
  8
AM_0
 10
619.52694283810092
 20
343.76413750259348
 30
0.0
 70
    32
  0
VERTEX
  5
DA27
  8
AM_0
 10
619.52684283810117
 20
343.76013750259358
 30
0.0
 70
    32
  0
VERTEX
  5
DA28
  8
AM_0
 10
619.52674283810131
 20
343.75513750259398
 30
0.0
 70
    32
  0
VERTEX
  5
DA29
  8
AM_0
 10
619.52664283810088
 20
343.75113750259362
 30
0.0
 70
    32
  0
VERTEX
  5
DA2A
  8
AM_0
 10
619.52654283810102
 20
343.7471375025936
 30
0.0
 70
    32
  0
VERTEX
  5
DA2B
  8
AM_0
 10
619.5263428381013
 20
343.74213750259361
 30
0.0
 70
    32
  0
VERTEX
  5
DA2C
  8
AM_0
 10
619.52624283810133
 20
343.73813750259382
 30
0.0
 70
    32
  0
VERTEX
  5
DA2D
  8
AM_0
 10
619.52614283810124
 20
343.73413750259363
 30
0.0
 70
    32
  0
VERTEX
  5
DA2E
  8
AM_0
 10
619.52604283810092
 20
343.72913750259391
 30
0.0
 70
    32
  0
VERTEX
  5
DA2F
  8
AM_0
 10
619.52604283810092
 20
343.7251375025939
 30
0.0
 70
    32
  0
VERTEX
  5
DA30
  8
AM_0
 10
619.52594283810129
 20
343.72113750259382
 30
0.0
 70
    32
  0
VERTEX
  5
DA31
  8
AM_0
 10
619.52584283810131
 20
343.71613750259399
 30
0.0
 70
    32
  0
VERTEX
  5
DA32
  8
AM_0
 10
619.52574283810111
 20
343.71213750259358
 30
0.0
 70
    32
  0
VERTEX
  5
DA33
  8
AM_0
 10
619.52564283810113
 20
343.70813750259367
 30
0.0
 70
    32
  0
VERTEX
  5
DA34
  8
AM_0
 10
619.52564283810113
 20
343.70313750259379
 30
0.0
 70
    32
  0
VERTEX
  5
DA35
  8
AM_0
 10
619.52554283810093
 20
343.69913750259383
 30
0.0
 70
    32
  0
VERTEX
  5
DA36
  8
AM_0
 10
619.52544283810096
 20
343.6951375025937
 30
0.0
 70
    32
  0
VERTEX
  5
DA37
  8
AM_0
 10
619.52544283810096
 20
343.6901375025937
 30
0.0
 70
    32
  0
VERTEX
  5
DA38
  8
AM_0
 10
619.52534283810132
 20
343.68613750259362
 30
0.0
 70
    32
  0
VERTEX
  5
DA39
  8
AM_0
 10
619.52524283810124
 20
343.68113750259391
 30
0.0
 70
    32
  0
VERTEX
  5
DA3A
  8
AM_0
 10
619.52524283810124
 20
343.67713750259378
 30
0.0
 70
    32
  0
VERTEX
  5
DA3B
  8
AM_0
 10
619.52514283810092
 20
343.67313750259359
 30
0.0
 70
    32
  0
VERTEX
  5
DA3C
  8
AM_0
 10
619.52514283810092
 20
343.66813750259348
 30
0.0
 70
    32
  0
VERTEX
  5
DA3D
  8
AM_0
 10
619.52504283810129
 20
343.66413750259358
 30
0.0
 70
    32
  0
VERTEX
  5
DA3E
  8
AM_0
 10
619.52504283810129
 20
343.66013750259373
 30
0.0
 70
    32
  0
VERTEX
  5
DA3F
  8
AM_0
 10
619.5249428381012
 20
343.65513750259367
 30
0.0
 70
    32
  0
VERTEX
  5
DA40
  8
AM_0
 10
619.5249428381012
 20
343.65113750259349
 30
0.0
 70
    32
  0
VERTEX
  5
DA41
  8
AM_0
 10
619.52484283810099
 20
343.64713750259369
 30
0.0
 70
    32
  0
VERTEX
  5
DA42
  8
AM_0
 10
619.52484283810099
 20
343.64213750259353
 30
0.0
 70
    32
  0
VERTEX
  5
DA43
  8
AM_0
 10
619.52484283810099
 20
343.63813750259351
 30
0.0
 70
    32
  0
VERTEX
  5
DA44
  8
AM_0
 10
619.52474283810091
 20
343.63413750259372
 30
0.0
 70
    32
  0
VERTEX
  5
DA45
  8
AM_0
 10
619.52474283810091
 20
343.62913750259378
 30
0.0
 70
    32
  0
VERTEX
  5
DA46
  8
AM_0
 10
619.52464283810093
 20
343.62513750259359
 30
0.0
 70
    32
  0
VERTEX
  5
DA47
  8
AM_0
 10
619.52464283810093
 20
343.62113750259402
 30
0.0
 70
    32
  0
VERTEX
  5
DA48
  8
AM_0
 10
619.52464283810093
 20
343.61613750259357
 30
0.0
 70
    32
  0
VERTEX
  5
DA49
  8
AM_0
 10
619.5245428381013
 20
343.61213750259373
 30
0.0
 70
    32
  0
SEQEND
  5
DA4A
  8
AM_0
  0
LINE
  5
DA4B
  8
AM_0
 10
667.65472803505656
 20
313.11209043751938
 30
0.0
 11
667.65472803505656
 21
329.11209043751961
 31
0.0
  0
LINE
  5
DA4C
  8
AM_0
 10
648.65472803505816
 20
333.11209043751938
 30
0.0
 11
648.65472803505816
 21
318.82887687774752
 31
0.0
  0
ARC
  5
DA4D
  8
AM_0
 10
668.65472803505645
 20
313.11209043751938
 30
0.0
 40
1.0
 50
180.0
 51
270.0
  0
LINE
  5
DA4E
  8
AM_0
 10
676.65466724961721
 20
312.11209043751938
 30
0.0
 11
676.65466724961721
 21
309.11209043751961
 31
0.0
  0
LINE
  5
DA4F
  8
AM_0
 10
666.78487955407525
 20
333.11209043751973
 30
0.0
 11
666.78487955407525
 21
343.61209043752382
 31
0.0
  0
LINE
  5
DA50
  8
AM_0
 10
677.05472803505847
 20
334.57709043751947
 30
0.0
 11
677.05472803505847
 21
343.61209043751973
 31
0.0
  0
LINE
  5
DA51
  8
AM_0
 10
668.23472803505808
 20
333.11209043751973
 30
0.0
 11
677.05472803505847
 21
334.57709043751947
 31
0.0
  0
POLYLINE
  5
DA52
  8
AM_0
 66
     1
 10
0.0
 20
0.0
 30
0.0
 70
     8
  0
VERTEX
  5
DA53
  8
AM_0
 10
666.78514283810125
 20
343.61213750259373
 30
0.0
 70
    32
  0
VERTEX
  5
DA54
  8
AM_0
 10
666.78514283810125
 20
343.61613750259357
 30
0.0
 70
    32
  0
VERTEX
  5
DA55
  8
AM_0
 10
666.78514283810125
 20
343.62013750259348
 30
0.0
 70
    32
  0
VERTEX
  5
DA56
  8
AM_0
 10
666.78514283810125
 20
343.62513750259359
 30
0.0
 70
    32
  0
VERTEX
  5
DA57
  8
AM_0
 10
666.78514283810125
 20
343.62913750259378
 30
0.0
 70
    32
  0
VERTEX
  5
DA58
  8
AM_0
 10
666.78514283810125
 20
343.63313750259351
 30
0.0
 70
    32
  0
VERTEX
  5
DA59
  8
AM_0
 10
666.78514283810125
 20
343.63813750259351
 30
0.0
 70
    32
  0
VERTEX
  5
DA5A
  8
AM_0
 10
666.78414283810093
 20
343.64213750259353
 30
0.0
 70
    32
  0
VERTEX
  5
DA5B
  8
AM_0
 10
666.78414283810093
 20
343.64613750259372
 30
0.0
 70
    32
  0
VERTEX
  5
DA5C
  8
AM_0
 10
666.78414283810093
 20
343.65013750259368
 30
0.0
 70
    32
  0
VERTEX
  5
DA5D
  8
AM_0
 10
666.78414283810093
 20
343.65513750259367
 30
0.0
 70
    32
  0
VERTEX
  5
DA5E
  8
AM_0
 10
666.78414283810093
 20
343.65913750259398
 30
0.0
 70
    32
  0
VERTEX
  5
DA5F
  8
AM_0
 10
666.78414283810093
 20
343.66313750259371
 30
0.0
 70
    32
  0
VERTEX
  5
DA60
  8
AM_0
 10
666.78414283810093
 20
343.66713750259379
 30
0.0
 70
    32
  0
VERTEX
  5
DA61
  8
AM_0
 10
666.78414283810093
 20
343.67213750259373
 30
0.0
 70
    32
  0
VERTEX
  5
DA62
  8
AM_0
 10
666.78414283810093
 20
343.6761375025938
 30
0.0
 70
    32
  0
VERTEX
  5
DA63
  8
AM_0
 10
666.78414283810093
 20
343.6801375025936
 30
0.0
 70
    32
  0
VERTEX
  5
DA64
  8
AM_0
 10
666.78414283810093
 20
343.68513750259382
 30
0.0
 70
    32
  0
VERTEX
  5
DA65
  8
AM_0
 10
666.78414283810093
 20
343.68913750259361
 30
0.0
 70
    32
  0
VERTEX
  5
DA66
  8
AM_0
 10
666.78414283810093
 20
343.69313750259391
 30
0.0
 70
    32
  0
VERTEX
  5
DA67
  8
AM_0
 10
666.78414283810093
 20
343.69713750259382
 30
0.0
 70
    32
  0
VERTEX
  5
DA68
  8
AM_0
 10
666.78414283810093
 20
343.7021375025937
 30
0.0
 70
    32
  0
VERTEX
  5
DA69
  8
AM_0
 10
666.78414283810093
 20
343.70613750259378
 30
0.0
 70
    32
  0
VERTEX
  5
DA6A
  8
AM_0
 10
666.78414283810093
 20
343.71013750259368
 30
0.0
 70
    32
  0
VERTEX
  5
DA6B
  8
AM_0
 10
666.78414283810093
 20
343.71413750259381
 30
0.0
 70
    32
  0
VERTEX
  5
DA6C
  8
AM_0
 10
666.78314283810118
 20
343.7191375025937
 30
0.0
 70
    32
  0
VERTEX
  5
DA6D
  8
AM_0
 10
666.78314283810118
 20
343.72313750259377
 30
0.0
 70
    32
  0
VERTEX
  5
DA6E
  8
AM_0
 10
666.78314283810118
 20
343.72713750259362
 30
0.0
 70
    32
  0
VERTEX
  5
DA6F
  8
AM_0
 10
666.78314283810118
 20
343.73113750259421
 30
0.0
 70
    32
  0
VERTEX
  5
DA70
  8
AM_0
 10
666.78314283810118
 20
343.73613750259352
 30
0.0
 70
    32
  0
VERTEX
  5
DA71
  8
AM_0
 10
666.78314283810118
 20
343.74013750259383
 30
0.0
 70
    32
  0
VERTEX
  5
DA72
  8
AM_0
 10
666.78314283810118
 20
343.74413750259379
 30
0.0
 70
    32
  0
VERTEX
  5
DA73
  8
AM_0
 10
666.78314283810118
 20
343.74913750259373
 30
0.0
 70
    32
  0
VERTEX
  5
DA74
  8
AM_0
 10
666.78314283810118
 20
343.75313750259392
 30
0.0
 70
    32
  0
VERTEX
  5
DA75
  8
AM_0
 10
666.78314283810118
 20
343.75713750259371
 30
0.0
 70
    32
  0
VERTEX
  5
DA76
  8
AM_0
 10
666.78214283810087
 20
343.76113750259373
 30
0.0
 70
    32
  0
VERTEX
  5
DA77
  8
AM_0
 10
666.78214283810087
 20
343.76613750259372
 30
0.0
 70
    32
  0
VERTEX
  5
DA78
  8
AM_0
 10
666.78214283810087
 20
343.7701375025938
 30
0.0
 70
    32
  0
VERTEX
  5
DA79
  8
AM_0
 10
666.78214283810087
 20
343.77413750259359
 30
0.0
 70
    32
  0
VERTEX
  5
DA7A
  8
AM_0
 10
666.78214283810087
 20
343.77813750259372
 30
0.0
 70
    32
  0
VERTEX
  5
DA7B
  8
AM_0
 10
666.78214283810087
 20
343.7831375025936
 30
0.0
 70
    32
  0
VERTEX
  5
DA7C
  8
AM_0
 10
666.78214283810087
 20
343.78713750259391
 30
0.0
 70
    32
  0
VERTEX
  5
DA7D
  8
AM_0
 10
666.78114283810112
 20
343.79113750259393
 30
0.0
 70
    32
  0
VERTEX
  5
DA7E
  8
AM_0
 10
666.78114283810112
 20
343.7951375025936
 30
0.0
 70
    32
  0
VERTEX
  5
DA7F
  8
AM_0
 10
666.78114283810112
 20
343.8001375025936
 30
0.0
 70
    32
  0
VERTEX
  5
DA80
  8
AM_0
 10
666.78114283810112
 20
343.80413750259368
 30
0.0
 70
    32
  0
VERTEX
  5
DA81
  8
AM_0
 10
666.78114283810112
 20
343.80813750259358
 30
0.0
 70
    32
  0
VERTEX
  5
DA82
  8
AM_0
 10
666.78114283810112
 20
343.81313750259352
 30
0.0
 70
    32
  0
VERTEX
  5
DA83
  8
AM_0
 10
666.78114283810112
 20
343.81713750259382
 30
0.0
 70
    32
  0
VERTEX
  5
DA84
  8
AM_0
 10
666.78014283810114
 20
343.8211375025939
 30
0.0
 70
    32
  0
VERTEX
  5
DA85
  8
AM_0
 10
666.78014283810114
 20
343.82513750259352
 30
0.0
 70
    32
  0
VERTEX
  5
DA86
  8
AM_0
 10
666.78014283810114
 20
343.83013750259369
 30
0.0
 70
    32
  0
VERTEX
  5
DA87
  8
AM_0
 10
666.78014283810114
 20
343.83413750259382
 30
0.0
 70
    32
  0
VERTEX
  5
DA88
  8
AM_0
 10
666.78014283810114
 20
343.83813750259372
 30
0.0
 70
    32
  0
VERTEX
  5
DA89
  8
AM_0
 10
666.77914283810105
 20
343.84213750259403
 30
0.0
 70
    32
  0
VERTEX
  5
DA8A
  8
AM_0
 10
666.77914283810105
 20
343.84713750259363
 30
0.0
 70
    32
  0
VERTEX
  5
DA8B
  8
AM_0
 10
666.77914283810105
 20
343.8511375025937
 30
0.0
 70
    32
  0
VERTEX
  5
DA8C
  8
AM_0
 10
666.77914283810105
 20
343.85513750259372
 30
0.0
 70
    32
  0
VERTEX
  5
DA8D
  8
AM_0
 10
666.77914283810105
 20
343.85913750259363
 30
0.0
 70
    32
  0
VERTEX
  5
DA8E
  8
AM_0
 10
666.77914283810105
 20
343.86413750259379
 30
0.0
 70
    32
  0
VERTEX
  5
DA8F
  8
AM_0
 10
666.7781428381013
 20
343.86813750259392
 30
0.0
 70
    32
  0
VERTEX
  5
DA90
  8
AM_0
 10
666.7781428381013
 20
343.87213750259349
 30
0.0
 70
    32
  0
VERTEX
  5
DA91
  8
AM_0
 10
666.7781428381013
 20
343.87613750259362
 30
0.0
 70
    32
  0
VERTEX
  5
DA92
  8
AM_0
 10
666.7781428381013
 20
343.88113750259367
 30
0.0
 70
    32
  0
VERTEX
  5
DA93
  8
AM_0
 10
666.77714283810133
 20
343.88513750259369
 30
0.0
 70
    32
  0
VERTEX
  5
DA94
  8
AM_0
 10
666.77714283810133
 20
343.88913750259383
 30
0.0
 70
    32
  0
VERTEX
  5
DA95
  8
AM_0
 10
666.77714283810133
 20
343.89413750259382
 30
0.0
 70
    32
  0
VERTEX
  5
DA96
  8
AM_0
 10
666.77714283810133
 20
343.89813750259378
 30
0.0
 70
    32
  0
VERTEX
  5
DA97
  8
AM_0
 10
666.77714283810133
 20
343.90213750259369
 30
0.0
 70
    32
  0
VERTEX
  5
DA98
  8
AM_0
 10
666.77614283810124
 20
343.90613750259382
 30
0.0
 70
    32
  0
VERTEX
  5
DA99
  8
AM_0
 10
666.77614283810124
 20
343.91113750259382
 30
0.0
 70
    32
  0
VERTEX
  5
DA9A
  8
AM_0
 10
666.77614283810124
 20
343.91513750259361
 30
0.0
 70
    32
  0
VERTEX
  5
DA9B
  8
AM_0
 10
666.77614283810124
 20
343.91913750259351
 30
0.0
 70
    32
  0
VERTEX
  5
DA9C
  8
AM_0
 10
666.77514283810115
 20
343.92313750259359
 30
0.0
 70
    32
  0
VERTEX
  5
DA9D
  8
AM_0
 10
666.77514283810115
 20
343.92813750259359
 30
0.0
 70
    32
  0
VERTEX
  5
DA9E
  8
AM_0
 10
666.77514283810115
 20
343.93213750259378
 30
0.0
 70
    32
  0
VERTEX
  5
DA9F
  8
AM_0
 10
666.77414283810117
 20
343.93613750259391
 30
0.0
 70
    32
  0
VERTEX
  5
DAA0
  8
AM_0
 10
666.77414283810117
 20
343.9401375025937
 30
0.0
 70
    32
  0
VERTEX
  5
DAA1
  8
AM_0
 10
666.77414283810117
 20
343.94513750259392
 30
0.0
 70
    32
  0
VERTEX
  5
DAA2
  8
AM_0
 10
666.77414283810117
 20
343.94913750259371
 30
0.0
 70
    32
  0
VERTEX
  5
DAA3
  8
AM_0
 10
666.77314283810085
 20
343.95313750259379
 30
0.0
 70
    32
  0
VERTEX
  5
DAA4
  8
AM_0
 10
666.77314283810085
 20
343.95713750259353
 30
0.0
 70
    32
  0
VERTEX
  5
DAA5
  8
AM_0
 10
666.77314283810085
 20
343.96213750259358
 30
0.0
 70
    32
  0
VERTEX
  5
DAA6
  8
AM_0
 10
666.77314283810085
 20
343.96613750259371
 30
0.0
 70
    32
  0
VERTEX
  5
DAA7
  8
AM_0
 10
666.77214283810099
 20
343.97013750259367
 30
0.0
 70
    32
  0
VERTEX
  5
DAA8
  8
AM_0
 10
666.77214283810099
 20
343.97413750259392
 30
0.0
 70
    32
  0
VERTEX
  5
DAA9
  8
AM_0
 10
666.77214283810099
 20
343.97913750259391
 30
0.0
 70
    32
  0
VERTEX
  5
DAAA
  8
AM_0
 10
666.77114283810113
 20
343.98313750259359
 30
0.0
 70
    32
  0
VERTEX
  5
DAAB
  8
AM_0
 10
666.77114283810113
 20
343.98713750259373
 30
0.0
 70
    32
  0
VERTEX
  5
DAAC
  8
AM_0
 10
666.77114283810113
 20
343.99213750259378
 30
0.0
 70
    32
  0
VERTEX
  5
DAAD
  8
AM_0
 10
666.77014283810115
 20
343.99613750259391
 30
0.0
 70
    32
  0
VERTEX
  5
DAAE
  8
AM_0
 10
666.77014283810115
 20
344.00013750259382
 30
0.0
 70
    32
  0
VERTEX
  5
DAAF
  8
AM_0
 10
666.77014283810115
 20
344.00413750259378
 30
0.0
 70
    32
  0
VERTEX
  5
DAB0
  8
AM_0
 10
666.76914283810117
 20
344.00913750259377
 30
0.0
 70
    32
  0
VERTEX
  5
DAB1
  8
AM_0
 10
666.76914283810117
 20
344.01313750259362
 30
0.0
 70
    32
  0
VERTEX
  5
DAB2
  8
AM_0
 10
666.76914283810117
 20
344.01713750259353
 30
0.0
 70
    32
  0
VERTEX
  5
DAB3
  8
AM_0
 10
666.76814283810131
 20
344.02113750259372
 30
0.0
 70
    32
  0
VERTEX
  5
DAB4
  8
AM_0
 10
666.76814283810131
 20
344.02613750259383
 30
0.0
 70
    32
  0
VERTEX
  5
DAB5
  8
AM_0
 10
666.76814283810131
 20
344.03013750259362
 30
0.0
 70
    32
  0
VERTEX
  5
DAB6
  8
AM_0
 10
666.76714283810122
 20
344.03413750259369
 30
0.0
 70
    32
  0
VERTEX
  5
DAB7
  8
AM_0
 10
666.76714283810122
 20
344.0381375025936
 30
0.0
 70
    32
  0
VERTEX
  5
DAB8
  8
AM_0
 10
666.76714283810122
 20
344.04313750259382
 30
0.0
 70
    32
  0
VERTEX
  5
DAB9
  8
AM_0
 10
666.76614283810125
 20
344.04713750259378
 30
0.0
 70
    32
  0
VERTEX
  5
DABA
  8
AM_0
 10
666.76614283810125
 20
344.05113750259358
 30
0.0
 70
    32
  0
VERTEX
  5
DABB
  8
AM_0
 10
666.76514283810116
 20
344.05513750259348
 30
0.0
 70
    32
  0
VERTEX
  5
DABC
  8
AM_0
 10
666.76514283810116
 20
344.06013750259359
 30
0.0
 70
    32
  0
VERTEX
  5
DABD
  8
AM_0
 10
666.76514283810116
 20
344.0641375025935
 30
0.0
 70
    32
  0
VERTEX
  5
DABE
  8
AM_0
 10
666.76414283810095
 20
344.06813750259357
 30
0.0
 70
    32
  0
VERTEX
  5
DABF
  8
AM_0
 10
666.76414283810095
 20
344.07213750259359
 30
0.0
 70
    32
  0
VERTEX
  5
DAC0
  8
AM_0
 10
666.76314283810086
 20
344.07713750259381
 30
0.0
 70
    32
  0
VERTEX
  5
DAC1
  8
AM_0
 10
666.76314283810086
 20
344.08113750259361
 30
0.0
 70
    32
  0
VERTEX
  5
DAC2
  8
AM_0
 10
666.76314283810086
 20
344.08513750259368
 30
0.0
 70
    32
  0
VERTEX
  5
DAC3
  8
AM_0
 10
666.76214283810111
 20
344.08913750259381
 30
0.0
 70
    32
  0
VERTEX
  5
DAC4
  8
AM_0
 10
666.76214283810111
 20
344.09413750259392
 30
0.0
 70
    32
  0
VERTEX
  5
DAC5
  8
AM_0
 10
666.76114283810114
 20
344.0981375025936
 30
0.0
 70
    32
  0
VERTEX
  5
DAC6
  8
AM_0
 10
666.76114283810114
 20
344.10213750259362
 30
0.0
 70
    32
  0
VERTEX
  5
DAC7
  8
AM_0
 10
666.76014283810116
 20
344.10613750259358
 30
0.0
 70
    32
  0
VERTEX
  5
DAC8
  8
AM_0
 10
666.76014283810116
 20
344.11113750259352
 30
0.0
 70
    32
  0
VERTEX
  5
DAC9
  8
AM_0
 10
666.76014283810116
 20
344.11513750259371
 30
0.0
 70
    32
  0
VERTEX
  5
DACA
  8
AM_0
 10
666.7591428381013
 20
344.1191375025939
 30
0.0
 70
    32
  0
VERTEX
  5
DACB
  8
AM_0
 10
666.7591428381013
 20
344.12313750259369
 30
0.0
 70
    32
  0
VERTEX
  5
DACC
  8
AM_0
 10
666.75814283810132
 20
344.12813750259369
 30
0.0
 70
    32
  0
VERTEX
  5
DACD
  8
AM_0
 10
666.75814283810132
 20
344.13213750259382
 30
0.0
 70
    32
  0
VERTEX
  5
DACE
  8
AM_0
 10
666.75714283810123
 20
344.13613750259373
 30
0.0
 70
    32
  0
VERTEX
  5
DACF
  8
AM_0
 10
666.75714283810123
 20
344.14013750259352
 30
0.0
 70
    32
  0
VERTEX
  5
DAD0
  8
AM_0
 10
666.75614283810125
 20
344.14413750259371
 30
0.0
 70
    32
  0
VERTEX
  5
DAD1
  8
AM_0
 10
666.75614283810125
 20
344.1491375025937
 30
0.0
 70
    32
  0
VERTEX
  5
DAD2
  8
AM_0
 10
666.75514283810094
 20
344.15313750259389
 30
0.0
 70
    32
  0
VERTEX
  5
DAD3
  8
AM_0
 10
666.75514283810094
 20
344.1571375025938
 30
0.0
 70
    32
  0
VERTEX
  5
DAD4
  8
AM_0
 10
666.75414283810085
 20
344.1611375025937
 30
0.0
 70
    32
  0
VERTEX
  5
DAD5
  8
AM_0
 10
666.75414283810085
 20
344.16613750259393
 30
0.0
 70
    32
  0
VERTEX
  5
DAD6
  8
AM_0
 10
666.75314283810098
 20
344.17013750259372
 30
0.0
 70
    32
  0
VERTEX
  5
DAD7
  8
AM_0
 10
666.75314283810098
 20
344.17413750259368
 30
0.0
 70
    32
  0
VERTEX
  5
DAD8
  8
AM_0
 10
666.75214283810112
 20
344.17813750259347
 30
0.0
 70
    32
  0
VERTEX
  5
DAD9
  8
AM_0
 10
666.75214283810112
 20
344.18313750259369
 30
0.0
 70
    32
  0
VERTEX
  5
DADA
  8
AM_0
 10
666.75114283810115
 20
344.18713750259383
 30
0.0
 70
    32
  0
VERTEX
  5
DADB
  8
AM_0
 10
666.75114283810115
 20
344.19113750259368
 30
0.0
 70
    32
  0
VERTEX
  5
DADC
  8
AM_0
 10
666.75014283810128
 20
344.19513750259392
 30
0.0
 70
    32
  0
VERTEX
  5
DADD
  8
AM_0
 10
666.75014283810128
 20
344.20013750259352
 30
0.0
 70
    32
  0
VERTEX
  5
DADE
  8
AM_0
 10
666.74914283810131
 20
344.20413750259371
 30
0.0
 70
    32
  0
VERTEX
  5
DADF
  8
AM_0
 10
666.74914283810131
 20
344.20813750259367
 30
0.0
 70
    32
  0
VERTEX
  5
DAE0
  8
AM_0
 10
666.7481428381011
 20
344.21213750259381
 30
0.0
 70
    32
  0
VERTEX
  5
DAE1
  8
AM_0
 10
666.7481428381011
 20
344.21713750259369
 30
0.0
 70
    32
  0
VERTEX
  5
DAE2
  8
AM_0
 10
666.74714283810124
 20
344.22113750259359
 30
0.0
 70
    32
  0
VERTEX
  5
DAE3
  8
AM_0
 10
666.74714283810124
 20
344.22513750259378
 30
0.0
 70
    32
  0
VERTEX
  5
DAE4
  8
AM_0
 10
666.74614283810092
 20
344.22913750259369
 30
0.0
 70
    32
  0
VERTEX
  5
DAE5
  8
AM_0
 10
666.74614283810092
 20
344.23313750259359
 30
0.0
 70
    32
  0
VERTEX
  5
DAE6
  8
AM_0
 10
666.74514283810129
 20
344.23813750259347
 30
0.0
 70
    32
  0
VERTEX
  5
DAE7
  8
AM_0
 10
666.74414283810086
 20
344.24213750259372
 30
0.0
 70
    32
  0
VERTEX
  5
DAE8
  8
AM_0
 10
666.74414283810086
 20
344.2461375025938
 30
0.0
 70
    32
  0
VERTEX
  5
DAE9
  8
AM_0
 10
666.74314283810111
 20
344.25013750259382
 30
0.0
 70
    32
  0
VERTEX
  5
DAEA
  8
AM_0
 10
666.74314283810111
 20
344.25513750259358
 30
0.0
 70
    32
  0
VERTEX
  5
DAEB
  8
AM_0
 10
666.74214283810124
 20
344.25913750259372
 30
0.0
 70
    32
  0
VERTEX
  5
DAEC
  8
AM_0
 10
666.74214283810124
 20
344.26313750259391
 30
0.0
 70
    32
  0
VERTEX
  5
DAED
  8
AM_0
 10
666.74114283810115
 20
344.26713750259393
 30
0.0
 70
    32
  0
VERTEX
  5
DAEE
  8
AM_0
 10
666.74014283810129
 20
344.27213750259392
 30
0.0
 70
    32
  0
VERTEX
  5
DAEF
  8
AM_0
 10
666.74014283810129
 20
344.2761375025936
 30
0.0
 70
    32
  0
VERTEX
  5
DAF0
  8
AM_0
 10
666.73914283810097
 20
344.28013750259362
 30
0.0
 70
    32
  0
VERTEX
  5
DAF1
  8
AM_0
 10
666.73914283810097
 20
344.28413750259369
 30
0.0
 70
    32
  0
VERTEX
  5
DAF2
  8
AM_0
 10
666.73814283810123
 20
344.28813750259371
 30
0.0
 70
    32
  0
VERTEX
  5
DAF3
  8
AM_0
 10
666.73714283810148
 20
344.29313750259348
 30
0.0
 70
    32
  0
VERTEX
  5
DAF4
  8
AM_0
 10
666.73714283810148
 20
344.29713750259378
 30
0.0
 70
    32
  0
VERTEX
  5
DAF5
  8
AM_0
 10
666.73614283810116
 20
344.30113750259358
 30
0.0
 70
    32
  0
VERTEX
  5
DAF6
  8
AM_0
 10
666.73614283810116
 20
344.30513750259348
 30
0.0
 70
    32
  0
VERTEX
  5
DAF7
  8
AM_0
 10
666.73514283810096
 20
344.31013750259382
 30
0.0
 70
    32
  0
VERTEX
  5
DAF8
  8
AM_0
 10
666.73414283810109
 20
344.31413750259378
 30
0.0
 70
    32
  0
VERTEX
  5
DAF9
  8
AM_0
 10
666.73414283810109
 20
344.31813750259369
 30
0.0
 70
    32
  0
VERTEX
  5
DAFA
  8
AM_0
 10
666.73314283810123
 20
344.32213750259359
 30
0.0
 70
    32
  0
VERTEX
  5
DAFB
  8
AM_0
 10
666.73214283810114
 20
344.32613750259372
 30
0.0
 70
    32
  0
VERTEX
  5
DAFC
  8
AM_0
 10
666.73214283810114
 20
344.33113750259378
 30
0.0
 70
    32
  0
VERTEX
  5
DAFD
  8
AM_0
 10
666.73114283810128
 20
344.33513750259368
 30
0.0
 70
    32
  0
VERTEX
  5
DAFE
  8
AM_0
 10
666.73114283810128
 20
344.33913750259359
 30
0.0
 70
    32
  0
VERTEX
  5
DAFF
  8
AM_0
 10
666.73014283810085
 20
344.34313750259349
 30
0.0
 70
    32
  0
VERTEX
  5
DB00
  8
AM_0
 10
666.72914283810121
 20
344.3481375025936
 30
0.0
 70
    32
  0
VERTEX
  5
DB01
  8
AM_0
 10
666.72914283810121
 20
344.35213750259362
 30
0.0
 70
    32
  0
VERTEX
  5
DB02
  8
AM_0
 10
666.72814283810123
 20
344.35613750259358
 30
0.0
 70
    32
  0
VERTEX
  5
DB03
  8
AM_0
 10
666.72714283810114
 20
344.36013750259377
 30
0.0
 70
    32
  0
VERTEX
  5
DB04
  8
AM_0
 10
666.72714283810114
 20
344.36413750259368
 30
0.0
 70
    32
  0
VERTEX
  5
DB05
  8
AM_0
 10
666.72614283810094
 20
344.3691375025935
 30
0.0
 70
    32
  0
VERTEX
  5
DB06
  8
AM_0
 10
666.72514283810096
 20
344.37313750259392
 30
0.0
 70
    32
  0
VERTEX
  5
DB07
  8
AM_0
 10
666.72514283810096
 20
344.37713750259371
 30
0.0
 70
    32
  0
VERTEX
  5
DB08
  8
AM_0
 10
666.72414283810133
 20
344.38113750259362
 30
0.0
 70
    32
  0
VERTEX
  5
DB09
  8
AM_0
 10
666.72314283810113
 20
344.38613750259373
 30
0.0
 70
    32
  0
VERTEX
  5
DB0A
  8
AM_0
 10
666.72314283810113
 20
344.39013750259352
 30
0.0
 70
    32
  0
VERTEX
  5
DB0B
  8
AM_0
 10
666.72214283810115
 20
344.39413750259382
 30
0.0
 70
    32
  0
VERTEX
  5
DB0C
  8
AM_0
 10
666.72114283810106
 20
344.39813750259378
 30
0.0
 70
    32
  0
VERTEX
  5
DB0D
  8
AM_0
 10
666.72014283810108
 20
344.4021375025938
 30
0.0
 70
    32
  0
VERTEX
  5
DB0E
  8
AM_0
 10
666.72014283810108
 20
344.4071375025938
 30
0.0
 70
    32
  0
VERTEX
  5
DB0F
  8
AM_0
 10
666.71914283810133
 20
344.4111375025937
 30
0.0
 70
    32
  0
VERTEX
  5
DB10
  8
AM_0
 10
666.71814283810124
 20
344.41513750259372
 30
0.0
 70
    32
  0
VERTEX
  5
DB11
  8
AM_0
 10
666.71814283810124
 20
344.41913750259351
 30
0.0
 70
    32
  0
VERTEX
  5
DB12
  8
AM_0
 10
666.71714283810093
 20
344.42313750259382
 30
0.0
 70
    32
  0
VERTEX
  5
DB13
  8
AM_0
 10
666.71614283810095
 20
344.42813750259347
 30
0.0
 70
    32
  0
VERTEX
  5
DB14
  8
AM_0
 10
666.7151428381012
 20
344.4321375025936
 30
0.0
 70
    32
  0
VERTEX
  5
DB15
  8
AM_0
 10
666.7151428381012
 20
344.43613750259379
 30
0.0
 70
    32
  0
VERTEX
  5
DB16
  8
AM_0
 10
666.71414283810111
 20
344.44013750259381
 30
0.0
 70
    32
  0
VERTEX
  5
DB17
  8
AM_0
 10
666.71314283810113
 20
344.44413750259361
 30
0.0
 70
    32
  0
VERTEX
  5
DB18
  8
AM_0
 10
666.71214283810104
 20
344.44913750259371
 30
0.0
 70
    32
  0
VERTEX
  5
DB19
  8
AM_0
 10
666.71214283810104
 20
344.4531375025939
 30
0.0
 70
    32
  0
VERTEX
  5
DB1A
  8
AM_0
 10
666.71114283810095
 20
344.45713750259353
 30
0.0
 70
    32
  0
VERTEX
  5
DB1B
  8
AM_0
 10
666.71014283810132
 20
344.46113750259371
 30
0.0
 70
    32
  0
VERTEX
  5
DB1C
  8
AM_0
 10
666.70914283810123
 20
344.4651375025939
 30
0.0
 70
    32
  0
VERTEX
  5
DB1D
  8
AM_0
 10
666.70914283810123
 20
344.47013750259379
 30
0.0
 70
    32
  0
VERTEX
  5
DB1E
  8
AM_0
 10
666.70814283810114
 20
344.47413750259369
 30
0.0
 70
    32
  0
VERTEX
  5
DB1F
  8
AM_0
 10
666.70714283810128
 20
344.47813750259371
 30
0.0
 70
    32
  0
VERTEX
  5
DB20
  8
AM_0
 10
666.70614283810119
 20
344.48213750259367
 30
0.0
 70
    32
  0
VERTEX
  5
DB21
  8
AM_0
 10
666.70614283810119
 20
344.48613750259352
 30
0.0
 70
    32
  0
VERTEX
  5
DB22
  8
AM_0
 10
666.7051428381011
 20
344.49113750259357
 30
0.0
 70
    32
  0
VERTEX
  5
DB23
  8
AM_0
 10
666.70414283810112
 20
344.49513750259371
 30
0.0
 70
    32
  0
VERTEX
  5
DB24
  8
AM_0
 10
666.70314283810114
 20
344.49913750259373
 30
0.0
 70
    32
  0
VERTEX
  5
DB25
  8
AM_0
 10
666.70214283810105
 20
344.5031375025938
 30
0.0
 70
    32
  0
VERTEX
  5
DB26
  8
AM_0
 10
666.70214283810105
 20
344.50713750259382
 30
0.0
 70
    32
  0
VERTEX
  5
DB27
  8
AM_0
 10
666.70114283810119
 20
344.51213750259359
 30
0.0
 70
    32
  0
VERTEX
  5
DB28
  8
AM_0
 10
666.70014283810133
 20
344.51613750259378
 30
0.0
 70
    32
  0
VERTEX
  5
DB29
  8
AM_0
 10
666.69914283810124
 20
344.52013750259368
 30
0.0
 70
    32
  0
VERTEX
  5
DB2A
  8
AM_0
 10
666.69814283810126
 20
344.5241375025937
 30
0.0
 70
    32
  0
VERTEX
  5
DB2B
  8
AM_0
 10
666.69814283810126
 20
344.52813750259378
 30
0.0
 70
    32
  0
VERTEX
  5
DB2C
  8
AM_0
 10
666.69714283810117
 20
344.53313750259377
 30
0.0
 70
    32
  0
VERTEX
  5
DB2D
  8
AM_0
 10
666.69614283810108
 20
344.53713750259368
 30
0.0
 70
    32
  0
VERTEX
  5
DB2E
  8
AM_0
 10
666.69514283810111
 20
344.54113750259393
 30
0.0
 70
    32
  0
VERTEX
  5
DB2F
  8
AM_0
 10
666.69414283810113
 20
344.54513750259389
 30
0.0
 70
    32
  0
VERTEX
  5
DB30
  8
AM_0
 10
666.69314283810115
 20
344.54913750259362
 30
0.0
 70
    32
  0
VERTEX
  5
DB31
  8
AM_0
 10
666.69314283810115
 20
344.55313750259347
 30
0.0
 70
    32
  0
VERTEX
  5
DB32
  8
AM_0
 10
666.6921428381014
 20
344.55813750259381
 30
0.0
 70
    32
  0
VERTEX
  5
DB33
  8
AM_0
 10
666.69114283810131
 20
344.5621375025936
 30
0.0
 70
    32
  0
VERTEX
  5
DB34
  8
AM_0
 10
666.69014283810088
 20
344.5661375025939
 30
0.0
 70
    32
  0
VERTEX
  5
DB35
  8
AM_0
 10
666.68914283810125
 20
344.57013750259392
 30
0.0
 70
    32
  0
VERTEX
  5
DB36
  8
AM_0
 10
666.68814283810104
 20
344.57413750259371
 30
0.0
 70
    32
  0
VERTEX
  5
DB37
  8
AM_0
 10
666.68714283810107
 20
344.57913750259371
 30
0.0
 70
    32
  0
VERTEX
  5
DB38
  8
AM_0
 10
666.68714283810107
 20
344.58313750259367
 30
0.0
 70
    32
  0
VERTEX
  5
DB39
  8
AM_0
 10
666.68614283810109
 20
344.58713750259392
 30
0.0
 70
    32
  0
VERTEX
  5
DB3A
  8
AM_0
 10
666.685142838101
 20
344.59113750259382
 30
0.0
 70
    32
  0
VERTEX
  5
DB3B
  8
AM_0
 10
666.68414283810114
 20
344.59513750259367
 30
0.0
 70
    32
  0
VERTEX
  5
DB3C
  8
AM_0
 10
666.68314283810139
 20
344.59913750259358
 30
0.0
 70
    32
  0
VERTEX
  5
DB3D
  8
AM_0
 10
666.68214283810119
 20
344.60413750259369
 30
0.0
 70
    32
  0
VERTEX
  5
DB3E
  8
AM_0
 10
666.68114283810132
 20
344.60813750259382
 30
0.0
 70
    32
  0
VERTEX
  5
DB3F
  8
AM_0
 10
666.68014283810123
 20
344.61213750259373
 30
0.0
 70
    32
  0
VERTEX
  5
DB40
  8
AM_0
 10
666.67914283810126
 20
344.61613750259369
 30
0.0
 70
    32
  0
VERTEX
  5
DB41
  8
AM_0
 10
666.67914283810126
 20
344.62013750259359
 30
0.0
 70
    32
  0
VERTEX
  5
DB42
  8
AM_0
 10
666.67814283810151
 20
344.62413750259373
 30
0.0
 70
    32
  0
VERTEX
  5
DB43
  8
AM_0
 10
666.67714283810108
 20
344.62913750259378
 30
0.0
 70
    32
  0
VERTEX
  5
DB44
  8
AM_0
 10
666.67614283810087
 20
344.63313750259391
 30
0.0
 70
    32
  0
VERTEX
  5
DB45
  8
AM_0
 10
666.67514283810112
 20
344.63713750259359
 30
0.0
 70
    32
  0
VERTEX
  5
DB46
  8
AM_0
 10
666.67414283810137
 20
344.64113750259389
 30
0.0
 70
    32
  0
VERTEX
  5
DB47
  8
AM_0
 10
666.67314283810106
 20
344.6451375025938
 30
0.0
 70
    32
  0
VERTEX
  5
DB48
  8
AM_0
 10
666.67214283810131
 20
344.64913750259359
 30
0.0
 70
    32
  0
VERTEX
  5
DB49
  8
AM_0
 10
666.67114283810122
 20
344.65413750259358
 30
0.0
 70
    32
  0
VERTEX
  5
DB4A
  8
AM_0
 10
666.67014283810124
 20
344.65813750259377
 30
0.0
 70
    32
  0
VERTEX
  5
DB4B
  8
AM_0
 10
666.66914283810149
 20
344.66213750259368
 30
0.0
 70
    32
  0
VERTEX
  5
DB4C
  8
AM_0
 10
666.66814283810083
 20
344.66613750259393
 30
0.0
 70
    32
  0
VERTEX
  5
DB4D
  8
AM_0
 10
666.66714283810086
 20
344.67013750259378
 30
0.0
 70
    32
  0
VERTEX
  5
DB4E
  8
AM_0
 10
666.66614283810111
 20
344.67413750259362
 30
0.0
 70
    32
  0
VERTEX
  5
DB4F
  8
AM_0
 10
666.66514283810125
 20
344.67913750259379
 30
0.0
 70
    32
  0
VERTEX
  5
DB50
  8
AM_0
 10
666.66414283810116
 20
344.68313750259369
 30
0.0
 70
    32
  0
VERTEX
  5
DB51
  8
AM_0
 10
666.66314283810129
 20
344.68713750259349
 30
0.0
 70
    32
  0
VERTEX
  5
DB52
  8
AM_0
 10
666.66214283810132
 20
344.69113750259379
 30
0.0
 70
    32
  0
VERTEX
  5
DB53
  8
AM_0
 10
666.66114283810123
 20
344.69513750259358
 30
0.0
 70
    32
  0
VERTEX
  5
DB54
  8
AM_0
 10
666.66014283810148
 20
344.69913750259371
 30
0.0
 70
    32
  0
VERTEX
  5
DB55
  8
AM_0
 10
666.65914283810105
 20
344.70313750259368
 30
0.0
 70
    32
  0
VERTEX
  5
DB56
  8
AM_0
 10
666.65814283810084
 20
344.7081375025939
 30
0.0
 70
    32
  0
VERTEX
  5
DB57
  8
AM_0
 10
666.65714283810098
 20
344.71213750259369
 30
0.0
 70
    32
  0
VERTEX
  5
DB58
  8
AM_0
 10
666.65614283810123
 20
344.71613750259382
 30
0.0
 70
    32
  0
VERTEX
  5
DB59
  8
AM_0
 10
666.65514283810114
 20
344.72013750259367
 30
0.0
 70
    32
  0
VERTEX
  5
DB5A
  8
AM_0
 10
666.65414283810117
 20
344.72413750259392
 30
0.0
 70
    32
  0
VERTEX
  5
DB5B
  8
AM_0
 10
666.6531428381013
 20
344.72813750259371
 30
0.0
 70
    32
  0
VERTEX
  5
DB5C
  8
AM_0
 10
666.6521428381011
 20
344.73313750259382
 30
0.0
 70
    32
  0
VERTEX
  5
DB5D
  8
AM_0
 10
666.65114283810135
 20
344.73713750259373
 30
0.0
 70
    32
  0
VERTEX
  5
DB5E
  8
AM_0
 10
666.65014283810115
 20
344.74113750259357
 30
0.0
 70
    32
  0
VERTEX
  5
DB5F
  8
AM_0
 10
666.64914283810128
 20
344.74513750259371
 30
0.0
 70
    32
  0
VERTEX
  5
DB60
  8
AM_0
 10
666.64814283810085
 20
344.74913750259373
 30
0.0
 70
    32
  0
VERTEX
  5
DB61
  8
AM_0
 10
666.64714283810122
 20
344.75313750259392
 30
0.0
 70
    32
  0
VERTEX
  5
DB62
  8
AM_0
 10
666.64614283810113
 20
344.75713750259371
 30
0.0
 70
    32
  0
VERTEX
  5
DB63
  8
AM_0
 10
666.64514283810115
 20
344.76113750259373
 30
0.0
 70
    32
  0
VERTEX
  5
DB64
  8
AM_0
 10
666.64414283810129
 20
344.76613750259378
 30
0.0
 70
    32
  0
VERTEX
  5
DB65
  8
AM_0
 10
666.64314283810097
 20
344.77013750259368
 30
0.0
 70
    32
  0
VERTEX
  5
DB66
  8
AM_0
 10
666.64214283810134
 20
344.77413750259348
 30
0.0
 70
    32
  0
VERTEX
  5
DB67
  8
AM_0
 10
666.64014283810116
 20
344.77813750259361
 30
0.0
 70
    32
  0
VERTEX
  5
DB68
  8
AM_0
 10
666.63914283810095
 20
344.7821375025938
 30
0.0
 70
    32
  0
VERTEX
  5
DB69
  8
AM_0
 10
666.63814283810132
 20
344.78613750259382
 30
0.0
 70
    32
  0
VERTEX
  5
DB6A
  8
AM_0
 10
666.63714283810111
 20
344.79013750259389
 30
0.0
 70
    32
  0
VERTEX
  5
DB6B
  8
AM_0
 10
666.63614283810114
 20
344.79413750259351
 30
0.0
 70
    32
  0
VERTEX
  5
DB6C
  8
AM_0
 10
666.63514283810127
 20
344.79913750259391
 30
0.0
 70
    32
  0
VERTEX
  5
DB6D
  8
AM_0
 10
666.63414283810096
 20
344.80313750259359
 30
0.0
 70
    32
  0
VERTEX
  5
DB6E
  8
AM_0
 10
666.63314283810132
 20
344.80713750259378
 30
0.0
 70
    32
  0
VERTEX
  5
DB6F
  8
AM_0
 10
666.63214283810123
 20
344.81113750259391
 30
0.0
 70
    32
  0
VERTEX
  5
DB70
  8
AM_0
 10
666.63014283810094
 20
344.8151375025937
 30
0.0
 70
    32
  0
VERTEX
  5
DB71
  8
AM_0
 10
666.6291428381013
 20
344.81913750259378
 30
0.0
 70
    32
  0
VERTEX
  5
DB72
  8
AM_0
 10
666.6281428381011
 20
344.82313750259351
 30
0.0
 70
    32
  0
VERTEX
  5
DB73
  8
AM_0
 10
666.62714283810112
 20
344.8271375025937
 30
0.0
 70
    32
  0
VERTEX
  5
DB74
  8
AM_0
 10
666.62614283810092
 20
344.83213750259353
 30
0.0
 70
    32
  0
VERTEX
  5
DB75
  8
AM_0
 10
666.62514283810106
 20
344.83613750259377
 30
0.0
 70
    32
  0
VERTEX
  5
DB76
  8
AM_0
 10
666.62414283810131
 20
344.84013750259362
 30
0.0
 70
    32
  0
VERTEX
  5
DB77
  8
AM_0
 10
666.62214283810124
 20
344.8441375025937
 30
0.0
 70
    32
  0
VERTEX
  5
DB78
  8
AM_0
 10
666.62114283810092
 20
344.84813750259372
 30
0.0
 70
    32
  0
VERTEX
  5
DB79
  8
AM_0
 10
666.62014283810129
 20
344.85213750259362
 30
0.0
 70
    32
  0
VERTEX
  5
DB7A
  8
AM_0
 10
666.61914283810108
 20
344.85613750259358
 30
0.0
 70
    32
  0
VERTEX
  5
DB7B
  8
AM_0
 10
666.61814283810111
 20
344.8601375025936
 30
0.0
 70
    32
  0
VERTEX
  5
DB7C
  8
AM_0
 10
666.61714283810113
 20
344.86413750259391
 30
0.0
 70
    32
  0
VERTEX
  5
DB7D
  8
AM_0
 10
666.61514283810141
 20
344.86813750259392
 30
0.0
 70
    32
  0
VERTEX
  5
DB7E
  8
AM_0
 10
666.6141428381012
 20
344.87313750259369
 30
0.0
 70
    32
  0
VERTEX
  5
DB7F
  8
AM_0
 10
666.61314283810123
 20
344.87713750259383
 30
0.0
 70
    32
  0
VERTEX
  5
DB80
  8
AM_0
 10
666.61214283810125
 20
344.88113750259362
 30
0.0
 70
    32
  0
VERTEX
  5
DB81
  8
AM_0
 10
666.61114283810127
 20
344.88513750259392
 30
0.0
 70
    32
  0
VERTEX
  5
DB82
  8
AM_0
 10
666.60914283810109
 20
344.88913750259383
 30
0.0
 70
    32
  0
VERTEX
  5
DB83
  8
AM_0
 10
666.60814283810089
 20
344.89313750259367
 30
0.0
 70
    32
  0
VERTEX
  5
DB84
  8
AM_0
 10
666.60714283810114
 20
344.89713750259381
 30
0.0
 70
    32
  0
VERTEX
  5
DB85
  8
AM_0
 10
666.60614283810139
 20
344.90113750259383
 30
0.0
 70
    32
  0
VERTEX
  5
DB86
  8
AM_0
 10
666.60414283810132
 20
344.90513750259362
 30
0.0
 70
    32
  0
VERTEX
  5
DB87
  8
AM_0
 10
666.60314283810123
 20
344.90913750259369
 30
0.0
 70
    32
  0
VERTEX
  5
DB88
  8
AM_0
 10
666.60214283810126
 20
344.9131375025936
 30
0.0
 70
    32
  0
VERTEX
  5
DB89
  8
AM_0
 10
666.60114283810094
 20
344.91813750259371
 30
0.0
 70
    32
  0
VERTEX
  5
DB8A
  8
AM_0
 10
666.5991428381011
 20
344.92213750259373
 30
0.0
 70
    32
  0
VERTEX
  5
DB8B
  8
AM_0
 10
666.59814283810113
 20
344.92613750259392
 30
0.0
 70
    32
  0
VERTEX
  5
DB8C
  8
AM_0
 10
666.59714283810138
 20
344.93013750259348
 30
0.0
 70
    32
  0
VERTEX
  5
DB8D
  8
AM_0
 10
666.59614283810106
 20
344.93413750259361
 30
0.0
 70
    32
  0
VERTEX
  5
DB8E
  8
AM_0
 10
666.59414283810122
 20
344.93813750259352
 30
0.0
 70
    32
  0
VERTEX
  5
DB8F
  8
AM_0
 10
666.59314283810124
 20
344.94213750259371
 30
0.0
 70
    32
  0
VERTEX
  5
DB90
  8
AM_0
 10
666.59214283810093
 20
344.9461375025939
 30
0.0
 70
    32
  0
VERTEX
  5
DB91
  8
AM_0
 10
666.59114283810084
 20
344.95013750259352
 30
0.0
 70
    32
  0
VERTEX
  5
DB92
  8
AM_0
 10
666.589142838101
 20
344.95413750259371
 30
0.0
 70
    32
  0
VERTEX
  5
DB93
  8
AM_0
 10
666.58814283810125
 20
344.95813750259379
 30
0.0
 70
    32
  0
VERTEX
  5
DB94
  8
AM_0
 10
666.58714283810104
 20
344.96213750259369
 30
0.0
 70
    32
  0
VERTEX
  5
DB95
  8
AM_0
 10
666.58514283810132
 20
344.9661375025936
 30
0.0
 70
    32
  0
VERTEX
  5
DB96
  8
AM_0
 10
666.58414283810123
 20
344.97113750259371
 30
0.0
 70
    32
  0
VERTEX
  5
DB97
  8
AM_0
 10
666.58314283810137
 20
344.97513750259378
 30
0.0
 70
    32
  0
VERTEX
  5
DB98
  8
AM_0
 10
666.58114283810107
 20
344.97913750259391
 30
0.0
 70
    32
  0
VERTEX
  5
DB99
  8
AM_0
 10
666.58014283810087
 20
344.98313750259359
 30
0.0
 70
    32
  0
VERTEX
  5
DB9A
  8
AM_0
 10
666.57914283810123
 20
344.98713750259373
 30
0.0
 70
    32
  0
VERTEX
  5
DB9B
  8
AM_0
 10
666.57714283810105
 20
344.9911375025938
 30
0.0
 70
    32
  0
VERTEX
  5
DB9C
  8
AM_0
 10
666.5761428381013
 20
344.99513750259359
 30
0.0
 70
    32
  0
VERTEX
  5
DB9D
  8
AM_0
 10
666.57514283810133
 20
344.99913750259378
 30
0.0
 70
    32
  0
VERTEX
  5
DB9E
  8
AM_0
 10
666.57314283810115
 20
345.00313750259369
 30
0.0
 70
    32
  0
VERTEX
  5
DB9F
  8
AM_0
 10
666.57214283810117
 20
345.00713750259382
 30
0.0
 70
    32
  0
VERTEX
  5
DBA0
  8
AM_0
 10
666.57114283810085
 20
345.01113750259373
 30
0.0
 70
    32
  0
VERTEX
  5
DBA1
  8
AM_0
 10
666.56914283810113
 20
345.01513750259352
 30
0.0
 70
    32
  0
VERTEX
  5
DBA2
  8
AM_0
 10
666.56814283810115
 20
345.01913750259382
 30
0.0
 70
    32
  0
VERTEX
  5
DBA3
  8
AM_0
 10
666.56714283810129
 20
345.02313750259378
 30
0.0
 70
    32
  0
VERTEX
  5
DBA4
  8
AM_0
 10
666.56514283810134
 20
345.02713750259392
 30
0.0
 70
    32
  0
VERTEX
  5
DBA5
  8
AM_0
 10
666.56414283810125
 20
345.03113750259382
 30
0.0
 70
    32
  0
VERTEX
  5
DBA6
  8
AM_0
 10
666.56214283810095
 20
345.03513750259361
 30
0.0
 70
    32
  0
VERTEX
  5
DBA7
  8
AM_0
 10
666.56114283810132
 20
345.0391375025938
 30
0.0
 70
    32
  0
VERTEX
  5
DBA8
  8
AM_0
 10
666.56014283810111
 20
345.04313750259382
 30
0.0
 70
    32
  0
VERTEX
  5
DBA9
  8
AM_0
 10
666.55814283810105
 20
345.04713750259373
 30
0.0
 70
    32
  0
VERTEX
  5
DBAA
  8
AM_0
 10
666.5571428381013
 20
345.05113750259392
 30
0.0
 70
    32
  0
VERTEX
  5
DBAB
  8
AM_0
 10
666.55514283810123
 20
345.0551375025936
 30
0.0
 70
    32
  0
VERTEX
  5
DBAC
  8
AM_0
 10
666.55414283810126
 20
345.05913750259361
 30
0.0
 70
    32
  0
VERTEX
  5
DBAD
  8
AM_0
 10
666.55314283810117
 20
345.06313750259352
 30
0.0
 70
    32
  0
VERTEX
  5
DBAE
  8
AM_0
 10
666.5511428381011
 20
345.06713750259371
 30
0.0
 70
    32
  0
VERTEX
  5
DBAF
  8
AM_0
 10
666.55014283810112
 20
345.07113750259361
 30
0.0
 70
    32
  0
VERTEX
  5
DBB0
  8
AM_0
 10
666.54814283810128
 20
345.07613750259372
 30
0.0
 70
    32
  0
VERTEX
  5
DBB1
  8
AM_0
 10
666.54714283810131
 20
345.08013750259357
 30
0.0
 70
    32
  0
VERTEX
  5
DBB2
  8
AM_0
 10
666.54514283810113
 20
345.08413750259348
 30
0.0
 70
    32
  0
VERTEX
  5
DBB3
  8
AM_0
 10
666.54414283810115
 20
345.08813750259361
 30
0.0
 70
    32
  0
VERTEX
  5
DBB4
  8
AM_0
 10
666.54214283810097
 20
345.09213750259403
 30
0.0
 70
    32
  0
VERTEX
  5
DBB5
  8
AM_0
 10
666.541142838101
 20
345.09613750259359
 30
0.0
 70
    32
  0
VERTEX
  5
DBB6
  8
AM_0
 10
666.53914283810116
 20
345.10013750259378
 30
0.0
 70
    32
  0
VERTEX
  5
DBB7
  8
AM_0
 10
666.53814283810129
 20
345.10413750259391
 30
0.0
 70
    32
  0
VERTEX
  5
DBB8
  8
AM_0
 10
666.53614283810123
 20
345.10813750259359
 30
0.0
 70
    32
  0
VERTEX
  5
DBB9
  8
AM_0
 10
666.53514283810125
 20
345.11213750259373
 30
0.0
 70
    32
  0
VERTEX
  5
DBBA
  8
AM_0
 10
666.53314283810084
 20
345.11613750259369
 30
0.0
 70
    32
  0
VERTEX
  5
DBBB
  8
AM_0
 10
666.53214283810109
 20
345.12013750259348
 30
0.0
 70
    32
  0
VERTEX
  5
DBBC
  8
AM_0
 10
666.53014283810114
 20
345.12413750259378
 30
0.0
 70
    32
  0
VERTEX
  5
DBBD
  8
AM_0
 10
666.52914283810139
 20
345.12813750259357
 30
0.0
 70
    32
  0
VERTEX
  5
DBBE
  8
AM_0
 10
666.52714283810133
 20
345.13213750259382
 30
0.0
 70
    32
  0
VERTEX
  5
DBBF
  8
AM_0
 10
666.52614283810124
 20
345.13613750259373
 30
0.0
 70
    32
  0
VERTEX
  5
DBC0
  8
AM_0
 10
666.52414283810151
 20
345.13913750259371
 30
0.0
 70
    32
  0
VERTEX
  5
DBC1
  8
AM_0
 10
666.52314283810108
 20
345.14313750259367
 30
0.0
 70
    32
  0
VERTEX
  5
DBC2
  8
AM_0
 10
666.52114283810113
 20
345.14713750259392
 30
0.0
 70
    32
  0
VERTEX
  5
DBC3
  8
AM_0
 10
666.52014283810126
 20
345.15113750259383
 30
0.0
 70
    32
  0
VERTEX
  5
DBC4
  8
AM_0
 10
666.5181428381012
 20
345.15513750259362
 30
0.0
 70
    32
  0
VERTEX
  5
DBC5
  8
AM_0
 10
666.51714283810122
 20
345.15913750259369
 30
0.0
 70
    32
  0
VERTEX
  5
DBC6
  8
AM_0
 10
666.51514283810138
 20
345.1631375025936
 30
0.0
 70
    32
  0
VERTEX
  5
DBC7
  8
AM_0
 10
666.51314283810109
 20
345.16713750259379
 30
0.0
 70
    32
  0
VERTEX
  5
DBC8
  8
AM_0
 10
666.51214283810111
 20
345.17113750259369
 30
0.0
 70
    32
  0
VERTEX
  5
DBC9
  8
AM_0
 10
666.51014283810105
 20
345.1751375025936
 30
0.0
 70
    32
  0
VERTEX
  5
DBCA
  8
AM_0
 10
666.50914283810096
 20
345.17913750259379
 30
0.0
 70
    32
  0
VERTEX
  5
DBCB
  8
AM_0
 10
666.50714283810123
 20
345.18313750259358
 30
0.0
 70
    32
  0
VERTEX
  5
DBCC
  8
AM_0
 10
666.50514283810094
 20
345.18713750259383
 30
0.0
 70
    32
  0
VERTEX
  5
DBCD
  8
AM_0
 10
666.50414283810107
 20
345.19113750259368
 30
0.0
 70
    32
  0
VERTEX
  5
DBCE
  8
AM_0
 10
666.50214283810124
 20
345.19513750259381
 30
0.0
 70
    32
  0
VERTEX
  5
DBCF
  8
AM_0
 10
666.50114283810115
 20
345.19913750259383
 30
0.0
 70
    32
  0
VERTEX
  5
DBD0
  8
AM_0
 10
666.49914283810119
 20
345.20313750259362
 30
0.0
 70
    32
  0
VERTEX
  5
DBD1
  8
AM_0
 10
666.49714283810135
 20
345.20713750259353
 30
0.0
 70
    32
  0
VERTEX
  5
DBD2
  8
AM_0
 10
666.49614283810092
 20
345.2111375025936
 30
0.0
 70
    32
  0
VERTEX
  5
DBD3
  8
AM_0
 10
666.49414283810108
 20
345.21513750259379
 30
0.0
 70
    32
  0
VERTEX
  5
DBD4
  8
AM_0
 10
666.49214283810113
 20
345.21913750259392
 30
0.0
 70
    32
  0
VERTEX
  5
DBD5
  8
AM_0
 10
666.49114283810115
 20
345.2231375025936
 30
0.0
 70
    32
  0
VERTEX
  5
DBD6
  8
AM_0
 10
666.48914283810132
 20
345.22713750259362
 30
0.0
 70
    32
  0
VERTEX
  5
DBD7
  8
AM_0
 10
666.48714283810125
 20
345.23013750259389
 30
0.0
 70
    32
  0
VERTEX
  5
DBD8
  8
AM_0
 10
666.48614283810105
 20
345.2341375025938
 30
0.0
 70
    32
  0
VERTEX
  5
DBD9
  8
AM_0
 10
666.48414283810132
 20
345.23813750259359
 30
0.0
 70
    32
  0
VERTEX
  5
DBDA
  8
AM_0
 10
666.48214283810114
 20
345.24213750259372
 30
0.0
 70
    32
  0
VERTEX
  5
DBDB
  8
AM_0
 10
666.48114283810105
 20
345.24613750259368
 30
0.0
 70
    32
  0
VERTEX
  5
DBDC
  8
AM_0
 10
666.47914283810132
 20
345.25013750259382
 30
0.0
 70
    32
  0
VERTEX
  5
DBDD
  8
AM_0
 10
666.47714283810114
 20
345.25413750259361
 30
0.0
 70
    32
  0
VERTEX
  5
DBDE
  8
AM_0
 10
666.47614283810105
 20
345.25813750259351
 30
0.0
 70
    32
  0
VERTEX
  5
DBDF
  8
AM_0
 10
666.47414283810099
 20
345.26213750259382
 30
0.0
 70
    32
  0
VERTEX
  5
DBE0
  8
AM_0
 10
666.47214283810115
 20
345.26613750259361
 30
0.0
 70
    32
  0
VERTEX
  5
DBE1
  8
AM_0
 10
666.47014283810131
 20
345.2701375025938
 30
0.0
 70
    32
  0
VERTEX
  5
DBE2
  8
AM_0
 10
666.46914283810111
 20
345.2741375025937
 30
0.0
 70
    32
  0
VERTEX
  5
DBE3
  8
AM_0
 10
666.46714283810093
 20
345.27713750259392
 30
0.0
 70
    32
  0
VERTEX
  5
DBE4
  8
AM_0
 10
666.46514283810086
 20
345.28113750259359
 30
0.0
 70
    32
  0
VERTEX
  5
DBE5
  8
AM_0
 10
666.46314283810113
 20
345.2851375025935
 30
0.0
 70
    32
  0
VERTEX
  5
DBE6
  8
AM_0
 10
666.46214283810104
 20
345.2891375025938
 30
0.0
 70
    32
  0
VERTEX
  5
DBE7
  8
AM_0
 10
666.46014283810098
 20
345.29313750259359
 30
0.0
 70
    32
  0
VERTEX
  5
DBE8
  8
AM_0
 10
666.45814283810125
 20
345.29713750259378
 30
0.0
 70
    32
  0
VERTEX
  5
DBE9
  8
AM_0
 10
666.45614283810085
 20
345.30113750259369
 30
0.0
 70
    32
  0
VERTEX
  5
DBEA
  8
AM_0
 10
666.4551428381011
 20
345.30513750259348
 30
0.0
 70
    32
  0
VERTEX
  5
DBEB
  8
AM_0
 10
666.45314283810114
 20
345.30913750259373
 30
0.0
 70
    32
  0
VERTEX
  5
DBEC
  8
AM_0
 10
666.45114283810096
 20
345.31213750259383
 30
0.0
 70
    32
  0
VERTEX
  5
DBED
  8
AM_0
 10
666.44914283810124
 20
345.31613750259368
 30
0.0
 70
    32
  0
VERTEX
  5
DBEE
  8
AM_0
 10
666.44714283810094
 20
345.32013750259392
 30
0.0
 70
    32
  0
VERTEX
  5
DBEF
  8
AM_0
 10
666.44614283810085
 20
345.32413750259383
 30
0.0
 70
    32
  0
VERTEX
  5
DBF0
  8
AM_0
 10
666.44414283810113
 20
345.32813750259362
 30
0.0
 70
    32
  0
VERTEX
  5
DBF1
  8
AM_0
 10
666.44214283810106
 20
345.33213750259353
 30
0.0
 70
    32
  0
VERTEX
  5
DBF2
  8
AM_0
 10
666.44014283810122
 20
345.33613750259371
 30
0.0
 70
    32
  0
VERTEX
  5
DBF3
  8
AM_0
 10
666.43814283810093
 20
345.33913750259359
 30
0.0
 70
    32
  0
VERTEX
  5
DBF4
  8
AM_0
 10
666.43714283810095
 20
345.34313750259361
 30
0.0
 70
    32
  0
VERTEX
  5
DBF5
  8
AM_0
 10
666.43514283810111
 20
345.34713750259368
 30
0.0
 70
    32
  0
VERTEX
  5
DBF6
  8
AM_0
 10
666.43314283810105
 20
345.35113750259382
 30
0.0
 70
    32
  0
VERTEX
  5
DBF7
  8
AM_0
 10
666.43114283810121
 20
345.35513750259378
 30
0.0
 70
    32
  0
VERTEX
  5
DBF8
  8
AM_0
 10
666.42914283810126
 20
345.35913750259363
 30
0.0
 70
    32
  0
VERTEX
  5
DBF9
  8
AM_0
 10
666.42714283810096
 20
345.36313750259347
 30
0.0
 70
    32
  0
VERTEX
  5
DBFA
  8
AM_0
 10
666.42514283810124
 20
345.36613750259357
 30
0.0
 70
    32
  0
VERTEX
  5
DBFB
  8
AM_0
 10
666.42314283810106
 20
345.37013750259371
 30
0.0
 70
    32
  0
VERTEX
  5
DBFC
  8
AM_0
 10
666.42214283810108
 20
345.37413750259373
 30
0.0
 70
    32
  0
VERTEX
  5
DBFD
  8
AM_0
 10
666.42014283810136
 20
345.37813750259357
 30
0.0
 70
    32
  0
VERTEX
  5
DBFE
  8
AM_0
 10
666.41814283810095
 20
345.38213750259382
 30
0.0
 70
    32
  0
VERTEX
  5
DBFF
  8
AM_0
 10
666.41614283810122
 20
345.38513750259381
 30
0.0
 70
    32
  0
VERTEX
  5
DC00
  8
AM_0
 10
666.41414283810116
 20
345.38913750259383
 30
0.0
 70
    32
  0
VERTEX
  5
DC01
  8
AM_0
 10
666.41214283810132
 20
345.3931375025939
 30
0.0
 70
    32
  0
VERTEX
  5
DC02
  8
AM_0
 10
666.41014283810125
 20
345.39713750259392
 30
0.0
 70
    32
  0
VERTEX
  5
DC03
  8
AM_0
 10
666.40814283810107
 20
345.4011375025936
 30
0.0
 70
    32
  0
VERTEX
  5
DC04
  8
AM_0
 10
666.406142838101
 20
345.4041375025937
 30
0.0
 70
    32
  0
VERTEX
  5
DC05
  8
AM_0
 10
666.40414283810105
 20
345.40813750259377
 30
0.0
 70
    32
  0
VERTEX
  5
DC06
  8
AM_0
 10
666.40214283810133
 20
345.41213750259379
 30
0.0
 70
    32
  0
VERTEX
  5
DC07
  8
AM_0
 10
666.40014283810126
 20
345.41613750259393
 30
0.0
 70
    32
  0
VERTEX
  5
DC08
  8
AM_0
 10
666.39814283810131
 20
345.42013750259389
 30
0.0
 70
    32
  0
VERTEX
  5
DC09
  8
AM_0
 10
666.39614283810113
 20
345.42313750259382
 30
0.0
 70
    32
  0
VERTEX
  5
DC0A
  8
AM_0
 10
666.39414283810106
 20
345.4271375025935
 30
0.0
 70
    32
  0
VERTEX
  5
DC0B
  8
AM_0
 10
666.39214283810122
 20
345.43113750259369
 30
0.0
 70
    32
  0
VERTEX
  5
DC0C
  8
AM_0
 10
666.39014283810116
 20
345.43513750259382
 30
0.0
 70
    32
  0
VERTEX
  5
DC0D
  8
AM_0
 10
666.38814283810086
 20
345.4391375025935
 30
0.0
 70
    32
  0
VERTEX
  5
DC0E
  8
AM_0
 10
666.38614283810114
 20
345.4421375025936
 30
0.0
 70
    32
  0
VERTEX
  5
DC0F
  8
AM_0
 10
666.3841428381013
 20
345.44613750259361
 30
0.0
 70
    32
  0
VERTEX
  5
DC10
  8
AM_0
 10
666.38214283810123
 20
345.45013750259352
 30
0.0
 70
    32
  0
VERTEX
  5
DC11
  8
AM_0
 10
666.38014283810116
 20
345.4541375025936
 30
0.0
 70
    32
  0
VERTEX
  5
DC12
  8
AM_0
 10
666.37814283810087
 20
345.45713750259353
 30
0.0
 70
    32
  0
VERTEX
  5
DC13
  8
AM_0
 10
666.37614283810115
 20
345.46113750259371
 30
0.0
 70
    32
  0
VERTEX
  5
DC14
  8
AM_0
 10
666.37414283810131
 20
345.46513750259379
 30
0.0
 70
    32
  0
VERTEX
  5
DC15
  8
AM_0
 10
666.37214283810124
 20
345.4691375025937
 30
0.0
 70
    32
  0
VERTEX
  5
DC16
  8
AM_0
 10
666.37014283810151
 20
345.4721375025938
 30
0.0
 70
    32
  0
VERTEX
  5
DC17
  8
AM_0
 10
666.36814283810099
 20
345.47613750259382
 30
0.0
 70
    32
  0
VERTEX
  5
DC18
  8
AM_0
 10
666.36614283810115
 20
345.48013750259378
 30
0.0
 70
    32
  0
VERTEX
  5
DC19
  8
AM_0
 10
666.36414283810132
 20
345.48313750259382
 30
0.0
 70
    32
  0
VERTEX
  5
DC1A
  8
AM_0
 10
666.36114283810116
 20
345.48713750259378
 30
0.0
 70
    32
  0
VERTEX
  5
DC1B
  8
AM_0
 10
666.35914283810098
 20
345.49113750259369
 30
0.0
 70
    32
  0
VERTEX
  5
DC1C
  8
AM_0
 10
666.35714283810125
 20
345.49513750259382
 30
0.0
 70
    32
  0
VERTEX
  5
DC1D
  8
AM_0
 10
666.3551428381013
 20
345.49813750259392
 30
0.0
 70
    32
  0
VERTEX
  5
DC1E
  8
AM_0
 10
666.35314283810123
 20
345.50213750259371
 30
0.0
 70
    32
  0
VERTEX
  5
DC1F
  8
AM_0
 10
666.35114283810094
 20
345.50613750259362
 30
0.0
 70
    32
  0
VERTEX
  5
DC20
  8
AM_0
 10
666.3491428381011
 20
345.50913750259372
 30
0.0
 70
    32
  0
VERTEX
  5
DC21
  8
AM_0
 10
666.34714283810115
 20
345.51313750259379
 30
0.0
 70
    32
  0
VERTEX
  5
DC22
  8
AM_0
 10
666.34414283810122
 20
345.5171375025937
 30
0.0
 70
    32
  0
VERTEX
  5
DC23
  8
AM_0
 10
666.34214283810093
 20
345.5201375025938
 30
0.0
 70
    32
  0
VERTEX
  5
DC24
  8
AM_0
 10
666.34014283810109
 20
345.52413750259359
 30
0.0
 70
    32
  0
VERTEX
  5
DC25
  8
AM_0
 10
666.33814283810113
 20
345.52813750259389
 30
0.0
 70
    32
  0
VERTEX
  5
DC26
  8
AM_0
 10
666.33614283810095
 20
345.53113750259382
 30
0.0
 70
    32
  0
VERTEX
  5
DC27
  8
AM_0
 10
666.33314283810125
 20
345.5351375025935
 30
0.0
 70
    32
  0
VERTEX
  5
DC28
  8
AM_0
 10
666.33114283810085
 20
345.53913750259358
 30
0.0
 70
    32
  0
VERTEX
  5
DC29
  8
AM_0
 10
666.32914283810112
 20
345.5421375025935
 30
0.0
 70
    32
  0
VERTEX
  5
DC2A
  8
AM_0
 10
666.32714283810105
 20
345.54613750259392
 30
0.0
 70
    32
  0
VERTEX
  5
DC2B
  8
AM_0
 10
666.32514283810133
 20
345.55013750259371
 30
0.0
 70
    32
  0
VERTEX
  5
DC2C
  8
AM_0
 10
666.32214283810094
 20
345.55313750259347
 30
0.0
 70
    32
  0
VERTEX
  5
DC2D
  8
AM_0
 10
666.32014283810111
 20
345.5571375025936
 30
0.0
 70
    32
  0
VERTEX
  5
DC2E
  8
AM_0
 10
666.31814283810115
 20
345.56113750259379
 30
0.0
 70
    32
  0
VERTEX
  5
DC2F
  8
AM_0
 10
666.3161428381012
 20
345.56413750259361
 30
0.0
 70
    32
  0
VERTEX
  5
DC30
  8
AM_0
 10
666.31314283810093
 20
345.56813750259357
 30
0.0
 70
    32
  0
VERTEX
  5
DC31
  8
AM_0
 10
666.31114283810109
 20
345.57113750259361
 30
0.0
 70
    32
  0
VERTEX
  5
DC32
  8
AM_0
 10
666.30914283810114
 20
345.57513750259341
 30
0.0
 70
    32
  0
VERTEX
  5
DC33
  8
AM_0
 10
666.30714283810119
 20
345.57913750259371
 30
0.0
 70
    32
  0
VERTEX
  5
DC34
  8
AM_0
 10
666.30414283810126
 20
345.58213750259392
 30
0.0
 70
    32
  0
VERTEX
  5
DC35
  8
AM_0
 10
666.30214283810108
 20
345.58613750259377
 30
0.0
 70
    32
  0
VERTEX
  5
DC36
  8
AM_0
 10
666.30014283810112
 20
345.58913750259359
 30
0.0
 70
    32
  0
VERTEX
  5
DC37
  8
AM_0
 10
666.29714283810131
 20
345.59313750259361
 30
0.0
 70
    32
  0
VERTEX
  5
DC38
  8
AM_0
 10
666.29514283810124
 20
345.59713750259368
 30
0.0
 70
    32
  0
VERTEX
  5
DC39
  8
AM_0
 10
666.29314283810106
 20
345.60013750259361
 30
0.0
 70
    32
  0
VERTEX
  5
DC3A
  8
AM_0
 10
666.29014283810113
 20
345.60413750259369
 30
0.0
 70
    32
  0
VERTEX
  5
DC3B
  8
AM_0
 10
666.28814283810118
 20
345.60713750259367
 30
0.0
 70
    32
  0
VERTEX
  5
DC3C
  8
AM_0
 10
666.28614283810123
 20
345.61113750259352
 30
0.0
 70
    32
  0
VERTEX
  5
DC3D
  8
AM_0
 10
666.28314283810084
 20
345.61413750259379
 30
0.0
 70
    32
  0
VERTEX
  5
DC3E
  8
AM_0
 10
666.28114283810112
 20
345.61813750259392
 30
0.0
 70
    32
  0
VERTEX
  5
DC3F
  8
AM_0
 10
666.2781428381013
 20
345.62113750259402
 30
0.0
 70
    32
  0
VERTEX
  5
DC40
  8
AM_0
 10
666.27614283810124
 20
345.62513750259359
 30
0.0
 70
    32
  0
VERTEX
  5
DC41
  8
AM_0
 10
666.27414283810117
 20
345.62913750259378
 30
0.0
 70
    32
  0
VERTEX
  5
DC42
  8
AM_0
 10
666.27114283810135
 20
345.63213750259371
 30
0.0
 70
    32
  0
VERTEX
  5
DC43
  8
AM_0
 10
666.26914283810129
 20
345.63613750259378
 30
0.0
 70
    32
  0
VERTEX
  5
DC44
  8
AM_0
 10
666.26614283810147
 20
345.63913750259383
 30
0.0
 70
    32
  0
VERTEX
  5
DC45
  8
AM_0
 10
666.26414283810095
 20
345.6431375025939
 30
0.0
 70
    32
  0
VERTEX
  5
DC46
  8
AM_0
 10
666.26114283810114
 20
345.6461375025936
 30
0.0
 70
    32
  0
VERTEX
  5
DC47
  8
AM_0
 10
666.25914283810096
 20
345.65013750259368
 30
0.0
 70
    32
  0
VERTEX
  5
DC48
  8
AM_0
 10
666.25714283810134
 20
345.65313750259378
 30
0.0
 70
    32
  0
VERTEX
  5
DC49
  8
AM_0
 10
666.25414283810085
 20
345.65713750259391
 30
0.0
 70
    32
  0
VERTEX
  5
DC4A
  8
AM_0
 10
666.25214283810112
 20
345.66013750259361
 30
0.0
 70
    32
  0
VERTEX
  5
DC4B
  8
AM_0
 10
666.24914283810097
 20
345.66413750259358
 30
0.0
 70
    32
  0
VERTEX
  5
DC4C
  8
AM_0
 10
666.24714283810124
 20
345.66713750259362
 30
0.0
 70
    32
  0
VERTEX
  5
DC4D
  8
AM_0
 10
666.24414283810131
 20
345.67013750259378
 30
0.0
 70
    32
  0
VERTEX
  5
DC4E
  8
AM_0
 10
666.24214283810113
 20
345.67413750259362
 30
0.0
 70
    32
  0
VERTEX
  5
DC4F
  8
AM_0
 10
666.23914283810132
 20
345.67713750259389
 30
0.0
 70
    32
  0
VERTEX
  5
DC50
  8
AM_0
 10
666.23714283810125
 20
345.68113750259369
 30
0.0
 70
    32
  0
VERTEX
  5
DC51
  8
AM_0
 10
666.23414283810109
 20
345.68413750259361
 30
0.0
 70
    32
  0
VERTEX
  5
DC52
  8
AM_0
 10
666.23214283810114
 20
345.68813750259352
 30
0.0
 70
    32
  0
VERTEX
  5
DC53
  8
AM_0
 10
666.22914283810132
 20
345.6911375025939
 30
0.0
 70
    32
  0
VERTEX
  5
DC54
  8
AM_0
 10
666.22614283810105
 20
345.69413750259361
 30
0.0
 70
    32
  0
VERTEX
  5
DC55
  8
AM_0
 10
666.22414283810076
 20
345.69813750259351
 30
0.0
 70
    32
  0
VERTEX
  5
DC56
  8
AM_0
 10
666.2211428381014
 20
345.70113750259372
 30
0.0
 70
    32
  0
VERTEX
  5
DC57
  8
AM_0
 10
666.21914283810122
 20
345.70513750259357
 30
0.0
 70
    32
  0
VERTEX
  5
DC58
  8
AM_0
 10
666.21614283810095
 20
345.70813750259379
 30
0.0
 70
    32
  0
VERTEX
  5
DC59
  8
AM_0
 10
666.21314283810113
 20
345.71113750259389
 30
0.0
 70
    32
  0
VERTEX
  5
DC5A
  8
AM_0
 10
666.21114283810107
 20
345.71513750259362
 30
0.0
 70
    32
  0
VERTEX
  5
DC5B
  8
AM_0
 10
666.20814283810125
 20
345.71813750259349
 30
0.0
 70
    32
  0
VERTEX
  5
DC5C
  8
AM_0
 10
666.20614283810085
 20
345.72213750259363
 30
0.0
 70
    32
  0
VERTEX
  5
DC5D
  8
AM_0
 10
666.20314283810137
 20
345.7251375025935
 30
0.0
 70
    32
  0
VERTEX
  5
DC5E
  8
AM_0
 10
666.20014283810133
 20
345.72813750259371
 30
0.0
 70
    32
  0
VERTEX
  5
DC5F
  8
AM_0
 10
666.19814283810149
 20
345.73213750259362
 30
0.0
 70
    32
  0
VERTEX
  5
DC60
  8
AM_0
 10
666.19514283810088
 20
345.7351375025936
 30
0.0
 70
    32
  0
VERTEX
  5
DC61
  8
AM_0
 10
666.19214283810106
 20
345.73813750259347
 30
0.0
 70
    32
  0
VERTEX
  5
DC62
  8
AM_0
 10
666.19014283810122
 20
345.74213750259361
 30
0.0
 70
    32
  0
VERTEX
  5
DC63
  8
AM_0
 10
666.18714283810107
 20
345.74513750259359
 30
0.0
 70
    32
  0
VERTEX
  5
DC64
  8
AM_0
 10
666.18414283810114
 20
345.74813750259392
 30
0.0
 70
    32
  0
VERTEX
  5
DC65
  8
AM_0
 10
666.18114283810132
 20
345.75113750259379
 30
0.0
 70
    32
  0
VERTEX
  5
DC66
  8
AM_0
 10
666.17914283810126
 20
345.7551375025937
 30
0.0
 70
    32
  0
VERTEX
  5
DC67
  8
AM_0
 10
666.17614283810133
 20
345.7581375025938
 30
0.0
 70
    32
  0
VERTEX
  5
DC68
  8
AM_0
 10
666.17314283810117
 20
345.76113750259373
 30
0.0
 70
    32
  0
VERTEX
  5
DC69
  8
AM_0
 10
666.17014283810124
 20
345.76513750259352
 30
0.0
 70
    32
  0
VERTEX
  5
DC6A
  8
AM_0
 10
666.16814283810095
 20
345.76813750259379
 30
0.0
 70
    32
  0
VERTEX
  5
DC6B
  8
AM_0
 10
666.16514283810113
 20
345.77113750259372
 30
0.0
 70
    32
  0
VERTEX
  5
DC6C
  8
AM_0
 10
666.16214283810132
 20
345.77413750259359
 30
0.0
 70
    32
  0
VERTEX
  5
DC6D
  8
AM_0
 10
666.15914283810093
 20
345.77813750259378
 30
0.0
 70
    32
  0
VERTEX
  5
DC6E
  8
AM_0
 10
666.15714283810109
 20
345.78113750259382
 30
0.0
 70
    32
  0
VERTEX
  5
DC6F
  8
AM_0
 10
666.15414283810128
 20
345.78413750259392
 30
0.0
 70
    32
  0
VERTEX
  5
DC70
  8
AM_0
 10
666.15114283810124
 20
345.78713750259391
 30
0.0
 70
    32
  0
VERTEX
  5
DC71
  8
AM_0
 10
666.14814283810085
 20
345.79013750259378
 30
0.0
 70
    32
  0
VERTEX
  5
DC72
  8
AM_0
 10
666.14514283810115
 20
345.79413750259351
 30
0.0
 70
    32
  0
VERTEX
  5
DC73
  8
AM_0
 10
666.14214283810122
 20
345.79713750259373
 30
0.0
 70
    32
  0
VERTEX
  5
DC74
  8
AM_0
 10
666.14014283810127
 20
345.8001375025936
 30
0.0
 70
    32
  0
VERTEX
  5
DC75
  8
AM_0
 10
666.13714283810111
 20
345.80313750259347
 30
0.0
 70
    32
  0
VERTEX
  5
DC76
  8
AM_0
 10
666.13414283810096
 20
345.80613750259391
 30
0.0
 70
    32
  0
VERTEX
  5
DC77
  8
AM_0
 10
666.13114283810125
 20
345.80913750259361
 30
0.0
 70
    32
  0
VERTEX
  5
DC78
  8
AM_0
 10
666.12814283810076
 20
345.81213750259349
 30
0.0
 70
    32
  0
VERTEX
  5
DC79
  8
AM_0
 10
666.12514283810106
 20
345.81613750259379
 30
0.0
 70
    32
  0
VERTEX
  5
DC7A
  8
AM_0
 10
666.12214283810124
 20
345.81913750259361
 30
0.0
 70
    32
  0
VERTEX
  5
DC7B
  8
AM_0
 10
666.11914283810108
 20
345.82213750259359
 30
0.0
 70
    32
  0
VERTEX
  5
DC7C
  8
AM_0
 10
666.11614283810115
 20
345.82513750259341
 30
0.0
 70
    32
  0
VERTEX
  5
DC7D
  8
AM_0
 10
666.11314283810123
 20
345.82813750259368
 30
0.0
 70
    32
  0
VERTEX
  5
DC7E
  8
AM_0
 10
666.11014283810107
 20
345.83113750259378
 30
0.0
 70
    32
  0
VERTEX
  5
DC7F
  8
AM_0
 10
666.10714283810114
 20
345.83413750259348
 30
0.0
 70
    32
  0
VERTEX
  5
DC80
  8
AM_0
 10
666.10414283810132
 20
345.83713750259369
 30
0.0
 70
    32
  0
VERTEX
  5
DC81
  8
AM_0
 10
666.10114283810094
 20
345.84013750259362
 30
0.0
 70
    32
  0
VERTEX
  5
DC82
  8
AM_0
 10
666.09814283810113
 20
345.84313750259361
 30
0.0
 70
    32
  0
VERTEX
  5
DC83
  8
AM_0
 10
666.09514283810131
 20
345.84613750259382
 30
0.0
 70
    32
  0
VERTEX
  5
DC84
  8
AM_0
 10
666.09214283810081
 20
345.84913750259392
 30
0.0
 70
    32
  0
VERTEX
  5
DC85
  8
AM_0
 10
666.08914283810111
 20
345.85213750259362
 30
0.0
 70
    32
  0
VERTEX
  5
DC86
  8
AM_0
 10
666.0861428381013
 20
345.85513750259372
 30
0.0
 70
    32
  0
VERTEX
  5
DC87
  8
AM_0
 10
666.08314283810114
 20
345.85813750259382
 30
0.0
 70
    32
  0
VERTEX
  5
DC88
  8
AM_0
 10
666.08014283810087
 20
345.86113750259352
 30
0.0
 70
    32
  0
VERTEX
  5
DC89
  8
AM_0
 10
666.07714283810105
 20
345.86413750259379
 30
0.0
 70
    32
  0
VERTEX
  5
DC8A
  8
AM_0
 10
666.07414283810124
 20
345.86713750259361
 30
0.0
 70
    32
  0
VERTEX
  5
DC8B
  8
AM_0
 10
666.07114283810085
 20
345.87013750259382
 30
0.0
 70
    32
  0
VERTEX
  5
DC8C
  8
AM_0
 10
666.06814283810115
 20
345.87313750259381
 30
0.0
 70
    32
  0
VERTEX
  5
DC8D
  8
AM_0
 10
666.06514283810111
 20
345.87613750259368
 30
0.0
 70
    32
  0
VERTEX
  5
DC8E
  8
AM_0
 10
666.06214283810095
 20
345.87913750259378
 30
0.0
 70
    32
  0
VERTEX
  5
DC8F
  8
AM_0
 10
666.05914283810114
 20
345.88213750259371
 30
0.0
 70
    32
  0
VERTEX
  5
DC90
  8
AM_0
 10
666.05514283810123
 20
345.88513750259392
 30
0.0
 70
    32
  0
VERTEX
  5
DC91
  8
AM_0
 10
666.05214283810085
 20
345.88813750259351
 30
0.0
 70
    32
  0
VERTEX
  5
DC92
  8
AM_0
 10
666.04914283810115
 20
345.89113750259378
 30
0.0
 70
    32
  0
VERTEX
  5
DC93
  8
AM_0
 10
666.04614283810122
 20
345.89313750259367
 30
0.0
 70
    32
  0
VERTEX
  5
DC94
  8
AM_0
 10
666.04314283810083
 20
345.89613750259372
 30
0.0
 70
    32
  0
VERTEX
  5
DC95
  8
AM_0
 10
666.04014283810125
 20
345.89913750259348
 30
0.0
 70
    32
  0
VERTEX
  5
DC96
  8
AM_0
 10
666.03614283810123
 20
345.90213750259369
 30
0.0
 70
    32
  0
VERTEX
  5
DC97
  8
AM_0
 10
666.03314283810084
 20
345.90513750259362
 30
0.0
 70
    32
  0
VERTEX
  5
DC98
  8
AM_0
 10
666.03014283810114
 20
345.90813750259349
 30
0.0
 70
    32
  0
VERTEX
  5
DC99
  8
AM_0
 10
666.02714283810133
 20
345.91013750259361
 30
0.0
 70
    32
  0
VERTEX
  5
DC9A
  8
AM_0
 10
666.02314283810108
 20
345.91313750259371
 30
0.0
 70
    32
  0
VERTEX
  5
DC9B
  8
AM_0
 10
666.02014283810115
 20
345.91613750259393
 30
0.0
 70
    32
  0
VERTEX
  5
DC9C
  8
AM_0
 10
666.01714283810134
 20
345.91913750259351
 30
0.0
 70
    32
  0
VERTEX
  5
DC9D
  8
AM_0
 10
666.01414283810095
 20
345.92113750259392
 30
0.0
 70
    32
  0
VERTEX
  5
DC9E
  8
AM_0
 10
666.01014283810105
 20
345.92413750259391
 30
0.0
 70
    32
  0
VERTEX
  5
DC9F
  8
AM_0
 10
666.00714283810123
 20
345.92713750259378
 30
0.0
 70
    32
  0
VERTEX
  5
DCA0
  8
AM_0
 10
666.00414283810119
 20
345.92913750259368
 30
0.0
 70
    32
  0
VERTEX
  5
DCA1
  8
AM_0
 10
666.00014283810106
 20
345.93213750259378
 30
0.0
 70
    32
  0
VERTEX
  5
DCA2
  8
AM_0
 10
665.99714283810124
 20
345.93513750259359
 30
0.0
 70
    32
  0
VERTEX
  5
DCA3
  8
AM_0
 10
665.99414283810086
 20
345.9371375025936
 30
0.0
 70
    32
  0
VERTEX
  5
DCA4
  8
AM_0
 10
665.99014283810118
 20
345.9401375025937
 30
0.0
 70
    32
  0
VERTEX
  5
DCA5
  8
AM_0
 10
665.98714283810125
 20
345.94313750259369
 30
0.0
 70
    32
  0
VERTEX
  5
DCA6
  8
AM_0
 10
665.98414283810087
 20
345.94513750259392
 30
0.0
 70
    32
  0
VERTEX
  5
DCA7
  8
AM_0
 10
665.9801428381013
 20
345.9481375025938
 30
0.0
 70
    32
  0
VERTEX
  5
DCA8
  8
AM_0
 10
665.97714283810114
 20
345.95013750259352
 30
0.0
 70
    32
  0
VERTEX
  5
DCA9
  8
AM_0
 10
665.97314283810113
 20
345.95313750259368
 30
0.0
 70
    32
  0
VERTEX
  5
DCAA
  8
AM_0
 10
665.97014283810131
 20
345.956137502594
 30
0.0
 70
    32
  0
VERTEX
  5
DCAB
  8
AM_0
 10
665.96714283810149
 20
345.95813750259379
 30
0.0
 70
    32
  0
VERTEX
  5
DCAC
  8
AM_0
 10
665.96314283810125
 20
345.96113750259371
 30
0.0
 70
    32
  0
VERTEX
  5
DCAD
  8
AM_0
 10
665.96014283810098
 20
345.96313750259372
 30
0.0
 70
    32
  0
VERTEX
  5
DCAE
  8
AM_0
 10
665.95614283810085
 20
345.96613750259371
 30
0.0
 70
    32
  0
VERTEX
  5
DCAF
  8
AM_0
 10
665.95314283810114
 20
345.96813750259349
 30
0.0
 70
    32
  0
VERTEX
  5
DCB0
  8
AM_0
 10
665.94914283810147
 20
345.97113750259359
 30
0.0
 70
    32
  0
VERTEX
  5
DCB1
  8
AM_0
 10
665.94614283810097
 20
345.97313750259372
 30
0.0
 70
    32
  0
VERTEX
  5
DCB2
  8
AM_0
 10
665.94214283810106
 20
345.97513750259378
 30
0.0
 70
    32
  0
VERTEX
  5
DCB3
  8
AM_0
 10
665.93914283810125
 20
345.97813750259382
 30
0.0
 70
    32
  0
VERTEX
  5
DCB4
  8
AM_0
 10
665.93514283810111
 20
345.98013750259378
 30
0.0
 70
    32
  0
VERTEX
  5
DCB5
  8
AM_0
 10
665.93214283810096
 20
345.98313750259359
 30
0.0
 70
    32
  0
VERTEX
  5
DCB6
  8
AM_0
 10
665.92814283810128
 20
345.9851375025936
 30
0.0
 70
    32
  0
VERTEX
  5
DCB7
  8
AM_0
 10
665.92414283810092
 20
345.98713750259373
 30
0.0
 70
    32
  0
VERTEX
  5
DCB8
  8
AM_0
 10
665.92114283810122
 20
345.9901375025936
 30
0.0
 70
    32
  0
VERTEX
  5
DCB9
  8
AM_0
 10
665.91714283810109
 20
345.99213750259378
 30
0.0
 70
    32
  0
VERTEX
  5
DCBA
  8
AM_0
 10
665.91414283810116
 20
345.99413750259379
 30
0.0
 70
    32
  0
VERTEX
  5
DCBB
  8
AM_0
 10
665.91014283810125
 20
345.99713750259349
 30
0.0
 70
    32
  0
VERTEX
  5
DCBC
  8
AM_0
 10
665.906142838101
 20
345.99913750259378
 30
0.0
 70
    32
  0
VERTEX
  5
DCBD
  8
AM_0
 10
665.9031428381013
 20
346.00113750259379
 30
0.0
 70
    32
  0
VERTEX
  5
DCBE
  8
AM_0
 10
665.89914283810151
 20
346.00313750259357
 30
0.0
 70
    32
  0
VERTEX
  5
DCBF
  8
AM_0
 10
665.89514283810138
 20
346.00613750259362
 30
0.0
 70
    32
  0
VERTEX
  5
DCC0
  8
AM_0
 10
665.89214283810122
 20
346.0081375025934
 30
0.0
 70
    32
  0
VERTEX
  5
DCC1
  8
AM_0
 10
665.88814283810086
 20
346.01013750259358
 30
0.0
 70
    32
  0
VERTEX
  5
DCC2
  8
AM_0
 10
665.88414283810096
 20
346.01213750259359
 30
0.0
 70
    32
  0
VERTEX
  5
DCC3
  8
AM_0
 10
665.88114283810148
 20
346.01413750259371
 30
0.0
 70
    32
  0
VERTEX
  5
DCC4
  8
AM_0
 10
665.87714283810124
 20
346.01613750259389
 30
0.0
 70
    32
  0
VERTEX
  5
DCC5
  8
AM_0
 10
665.8731428381011
 20
346.01813750259367
 30
0.0
 70
    32
  0
VERTEX
  5
DCC6
  8
AM_0
 10
665.87014283810129
 20
346.02113750259372
 30
0.0
 70
    32
  0
VERTEX
  5
DCC7
  8
AM_0
 10
665.86614283810115
 20
346.0231375025939
 30
0.0
 70
    32
  0
VERTEX
  5
DCC8
  8
AM_0
 10
665.86214283810125
 20
346.02513750259368
 30
0.0
 70
    32
  0
VERTEX
  5
DCC9
  8
AM_0
 10
665.85814283810112
 20
346.02713750259392
 30
0.0
 70
    32
  0
VERTEX
  5
DCCA
  8
AM_0
 10
665.85514283810096
 20
346.02913750259393
 30
0.0
 70
    32
  0
VERTEX
  5
DCCB
  8
AM_0
 10
665.85114283810094
 20
346.03113750259382
 30
0.0
 70
    32
  0
VERTEX
  5
DCCC
  8
AM_0
 10
665.84714283810115
 20
346.0331375025936
 30
0.0
 70
    32
  0
VERTEX
  5
DCCD
  8
AM_0
 10
665.84314283810113
 20
346.03513750259361
 30
0.0
 70
    32
  0
VERTEX
  5
DCCE
  8
AM_0
 10
665.83914283810077
 20
346.03713750259391
 30
0.0
 70
    32
  0
VERTEX
  5
DCCF
  8
AM_0
 10
665.8361428381013
 20
346.0381375025936
 30
0.0
 70
    32
  0
VERTEX
  5
DCD0
  8
AM_0
 10
665.83214283810128
 20
346.04013750259361
 30
0.0
 70
    32
  0
VERTEX
  5
DCD1
  8
AM_0
 10
665.82814283810114
 20
346.04213750259379
 30
0.0
 70
    32
  0
VERTEX
  5
DCD2
  8
AM_0
 10
665.82414283810124
 20
346.04413750259351
 30
0.0
 70
    32
  0
VERTEX
  5
DCD3
  8
AM_0
 10
665.82014283810111
 20
346.04613750259392
 30
0.0
 70
    32
  0
VERTEX
  5
DCD4
  8
AM_0
 10
665.81614283810131
 20
346.0481375025937
 30
0.0
 70
    32
  0
VERTEX
  5
DCD5
  8
AM_0
 10
665.81214283810107
 20
346.04913750259379
 30
0.0
 70
    32
  0
VERTEX
  5
DCD6
  8
AM_0
 10
665.80914283810125
 20
346.05113750259392
 30
0.0
 70
    32
  0
VERTEX
  5
DCD7
  8
AM_0
 10
665.80514283810123
 20
346.05313750259359
 30
0.0
 70
    32
  0
VERTEX
  5
DCD8
  8
AM_0
 10
665.80114283810087
 20
346.05513750259348
 30
0.0
 70
    32
  0
VERTEX
  5
DCD9
  8
AM_0
 10
665.79714283810131
 20
346.0561375025938
 30
0.0
 70
    32
  0
VERTEX
  5
DCDA
  8
AM_0
 10
665.79314283810118
 20
346.05813750259392
 30
0.0
 70
    32
  0
VERTEX
  5
DCDB
  8
AM_0
 10
665.78914283810116
 20
346.06013750259359
 30
0.0
 70
    32
  0
VERTEX
  5
DCDC
  8
AM_0
 10
665.78514283810125
 20
346.06113750259379
 30
0.0
 70
    32
  0
VERTEX
  5
DCDD
  8
AM_0
 10
665.78114283810112
 20
346.06313750259352
 30
0.0
 70
    32
  0
VERTEX
  5
DCDE
  8
AM_0
 10
665.77714283810133
 20
346.0651375025937
 30
0.0
 70
    32
  0
VERTEX
  5
DCDF
  8
AM_0
 10
665.77314283810131
 20
346.06613750259368
 30
0.0
 70
    32
  0
VERTEX
  5
DCE0
  8
AM_0
 10
665.76914283810129
 20
346.06813750259369
 30
0.0
 70
    32
  0
VERTEX
  5
DCE1
  8
AM_0
 10
665.76514283810116
 20
346.06913750259372
 30
0.0
 70
    32
  0
VERTEX
  5
DCE2
  8
AM_0
 10
665.76114283810114
 20
346.0711375025935
 30
0.0
 70
    32
  0
VERTEX
  5
DCE3
  8
AM_0
 10
665.75714283810123
 20
346.07213750259359
 30
0.0
 70
    32
  0
VERTEX
  5
DCE4
  8
AM_0
 10
665.7531428381011
 20
346.07413750259383
 30
0.0
 70
    32
  0
VERTEX
  5
DCE5
  8
AM_0
 10
665.74914283810097
 20
346.07513750259352
 30
0.0
 70
    32
  0
VERTEX
  5
DCE6
  8
AM_0
 10
665.74514283810151
 20
346.07613750259372
 30
0.0
 70
    32
  0
VERTEX
  5
DCE7
  8
AM_0
 10
665.74114283810127
 20
346.0781375025939
 30
0.0
 70
    32
  0
VERTEX
  5
DCE8
  8
AM_0
 10
665.73714283810125
 20
346.07913750259371
 30
0.0
 70
    32
  0
VERTEX
  5
DCE9
  8
AM_0
 10
665.73314283810112
 20
346.08013750259357
 30
0.0
 70
    32
  0
VERTEX
  5
DCEA
  8
AM_0
 10
665.72914283810132
 20
346.08213750259353
 30
0.0
 70
    32
  0
VERTEX
  5
DCEB
  8
AM_0
 10
665.72514283810085
 20
346.08313750259367
 30
0.0
 70
    32
  0
VERTEX
  5
DCEC
  8
AM_0
 10
665.72114283810106
 20
346.08413750259348
 30
0.0
 70
    32
  0
VERTEX
  5
DCED
  8
AM_0
 10
665.71614283810095
 20
346.08513750259368
 30
0.0
 70
    32
  0
VERTEX
  5
DCEE
  8
AM_0
 10
665.71214283810104
 20
346.0861375025936
 30
0.0
 70
    32
  0
VERTEX
  5
DCEF
  8
AM_0
 10
665.70814283810125
 20
346.08813750259361
 30
0.0
 70
    32
  0
VERTEX
  5
DCF0
  8
AM_0
 10
665.70414283810112
 20
346.08913750259381
 30
0.0
 70
    32
  0
VERTEX
  5
DCF1
  8
AM_0
 10
665.70014283810133
 20
346.09013750259379
 30
0.0
 70
    32
  0
VERTEX
  5
DCF2
  8
AM_0
 10
665.69614283810131
 20
346.09113750259371
 30
0.0
 70
    32
  0
VERTEX
  5
DCF3
  8
AM_0
 10
665.69214283810118
 20
346.09213750259403
 30
0.0
 70
    32
  0
VERTEX
  5
DCF4
  8
AM_0
 10
665.68814283810116
 20
346.09313750259361
 30
0.0
 70
    32
  0
VERTEX
  5
DCF5
  8
AM_0
 10
665.68314283810105
 20
346.0941375025937
 30
0.0
 70
    32
  0
VERTEX
  5
DCF6
  8
AM_0
 10
665.67914283810126
 20
346.09513750259367
 30
0.0
 70
    32
  0
VERTEX
  5
DCF7
  8
AM_0
 10
665.67514283810112
 20
346.09613750259371
 30
0.0
 70
    32
  0
VERTEX
  5
DCF8
  8
AM_0
 10
665.67114283810122
 20
346.0971375025938
 30
0.0
 70
    32
  0
VERTEX
  5
DCF9
  8
AM_0
 10
665.66714283810097
 20
346.0981375025936
 30
0.0
 70
    32
  0
VERTEX
  5
DCFA
  8
AM_0
 10
665.66314283810095
 20
346.09913750259392
 30
0.0
 70
    32
  0
VERTEX
  5
DCFB
  8
AM_0
 10
665.65814283810084
 20
346.09913750259392
 30
0.0
 70
    32
  0
VERTEX
  5
DCFC
  8
AM_0
 10
665.65414283810105
 20
346.10013750259378
 30
0.0
 70
    32
  0
VERTEX
  5
DCFD
  8
AM_0
 10
665.65014283810126
 20
346.1011375025937
 30
0.0
 70
    32
  0
VERTEX
  5
DCFE
  8
AM_0
 10
665.64614283810124
 20
346.10213750259362
 30
0.0
 70
    32
  0
VERTEX
  5
DCFF
  8
AM_0
 10
665.64214283810122
 20
346.10313750259371
 30
0.0
 70
    32
  0
VERTEX
  5
DD00
  8
AM_0
 10
665.63714283810123
 20
346.10313750259371
 30
0.0
 70
    32
  0
VERTEX
  5
DD01
  8
AM_0
 10
665.63314283810132
 20
346.10413750259391
 30
0.0
 70
    32
  0
VERTEX
  5
DD02
  8
AM_0
 10
665.62914283810107
 20
346.10513750259389
 30
0.0
 70
    32
  0
VERTEX
  5
DD03
  8
AM_0
 10
665.62514283810106
 20
346.10513750259389
 30
0.0
 70
    32
  0
VERTEX
  5
DD04
  8
AM_0
 10
665.62014283810106
 20
346.10613750259358
 30
0.0
 70
    32
  0
VERTEX
  5
DD05
  8
AM_0
 10
665.61614283810115
 20
346.10713750259362
 30
0.0
 70
    32
  0
VERTEX
  5
DD06
  8
AM_0
 10
665.61214283810125
 20
346.10713750259362
 30
0.0
 70
    32
  0
VERTEX
  5
DD07
  8
AM_0
 10
665.60814283810112
 20
346.10813750259359
 30
0.0
 70
    32
  0
VERTEX
  5
DD08
  8
AM_0
 10
665.60314283810123
 20
346.10813750259359
 30
0.0
 70
    32
  0
VERTEX
  5
DD09
  8
AM_0
 10
665.59914283810087
 20
346.1091375025938
 30
0.0
 70
    32
  0
VERTEX
  5
DD0A
  8
AM_0
 10
665.59514283810131
 20
346.1091375025938
 30
0.0
 70
    32
  0
VERTEX
  5
DD0B
  8
AM_0
 10
665.59114283810095
 20
346.11013750259349
 30
0.0
 70
    32
  0
VERTEX
  5
DD0C
  8
AM_0
 10
665.5861428381013
 20
346.11013750259349
 30
0.0
 70
    32
  0
VERTEX
  5
DD0D
  8
AM_0
 10
665.5821428381015
 20
346.11013750259349
 30
0.0
 70
    32
  0
VERTEX
  5
DD0E
  8
AM_0
 10
665.57814283810114
 20
346.11113750259352
 30
0.0
 70
    32
  0
VERTEX
  5
DD0F
  8
AM_0
 10
665.57414283810124
 20
346.11113750259352
 30
0.0
 70
    32
  0
VERTEX
  5
DD10
  8
AM_0
 10
665.56914283810124
 20
346.11113750259352
 30
0.0
 70
    32
  0
VERTEX
  5
DD11
  8
AM_0
 10
665.56514283810122
 20
346.11113750259352
 30
0.0
 70
    32
  0
VERTEX
  5
DD12
  8
AM_0
 10
665.56114283810109
 20
346.11213750259373
 30
0.0
 70
    32
  0
VERTEX
  5
DD13
  8
AM_0
 10
665.55714283810084
 20
346.11213750259373
 30
0.0
 70
    32
  0
VERTEX
  5
DD14
  8
AM_0
 10
665.55214283810096
 20
346.11213750259373
 30
0.0
 70
    32
  0
VERTEX
  5
DD15
  8
AM_0
 10
665.54814283810106
 20
346.11213750259373
 30
0.0
 70
    32
  0
VERTEX
  5
DD16
  8
AM_0
 10
665.54414283810127
 20
346.11213750259373
 30
0.0
 70
    32
  0
VERTEX
  5
DD17
  8
AM_0
 10
665.53914283810116
 20
346.11213750259373
 30
0.0
 70
    32
  0
VERTEX
  5
DD18
  8
AM_0
 10
665.53514283810125
 20
346.11213750259373
 30
0.0
 70
    32
  0
VERTEX
  5
DD19
  8
AM_0
 10
665.53114283810112
 20
346.11213750259373
 30
0.0
 70
    32
  0
VERTEX
  5
DD1A
  8
AM_0
 10
665.52714283810133
 20
346.11213750259373
 30
0.0
 70
    32
  0
VERTEX
  5
DD1B
  8
AM_0
 10
665.52214283810076
 20
346.11213750259373
 30
0.0
 70
    32
  0
VERTEX
  5
DD1C
  8
AM_0
 10
665.51814283810131
 20
346.11113750259352
 30
0.0
 70
    32
  0
VERTEX
  5
DD1D
  8
AM_0
 10
665.51414283810107
 20
346.11113750259352
 30
0.0
 70
    32
  0
VERTEX
  5
DD1E
  8
AM_0
 10
665.51014283810139
 20
346.11113750259352
 30
0.0
 70
    32
  0
VERTEX
  5
DD1F
  8
AM_0
 10
665.50514283810151
 20
346.11113750259352
 30
0.0
 70
    32
  0
VERTEX
  5
DD20
  8
AM_0
 10
665.50114283810137
 20
346.11013750259349
 30
0.0
 70
    32
  0
VERTEX
  5
DD21
  8
AM_0
 10
665.49714283810124
 20
346.11013750259349
 30
0.0
 70
    32
  0
VERTEX
  5
DD22
  8
AM_0
 10
665.49314283810111
 20
346.11013750259349
 30
0.0
 70
    32
  0
VERTEX
  5
DD23
  8
AM_0
 10
665.48814283810123
 20
346.1091375025938
 30
0.0
 70
    32
  0
VERTEX
  5
DD24
  8
AM_0
 10
665.48414283810098
 20
346.1091375025938
 30
0.0
 70
    32
  0
VERTEX
  5
DD25
  8
AM_0
 10
665.48014283810085
 20
346.1091375025938
 30
0.0
 70
    32
  0
VERTEX
  5
DD26
  8
AM_0
 10
665.47614283810094
 20
346.10813750259359
 30
0.0
 70
    32
  0
VERTEX
  5
DD27
  8
AM_0
 10
665.47114283810129
 20
346.10813750259359
 30
0.0
 70
    32
  0
VERTEX
  5
DD28
  8
AM_0
 10
665.46714283810115
 20
346.10713750259362
 30
0.0
 70
    32
  0
VERTEX
  5
DD29
  8
AM_0
 10
665.46314283810113
 20
346.10713750259362
 30
0.0
 70
    32
  0
VERTEX
  5
DD2A
  8
AM_0
 10
665.45914283810123
 20
346.10613750259358
 30
0.0
 70
    32
  0
VERTEX
  5
DD2B
  8
AM_0
 10
665.45414283810112
 20
346.10613750259358
 30
0.0
 70
    32
  0
VERTEX
  5
DD2C
  8
AM_0
 10
665.45014283810133
 20
346.10513750259389
 30
0.0
 70
    32
  0
VERTEX
  5
DD2D
  8
AM_0
 10
665.44614283810108
 20
346.10513750259389
 30
0.0
 70
    32
  0
VERTEX
  5
DD2E
  8
AM_0
 10
665.4421428381014
 20
346.10413750259391
 30
0.0
 70
    32
  0
VERTEX
  5
DD2F
  8
AM_0
 10
665.43714283810095
 20
346.10413750259391
 30
0.0
 70
    32
  0
VERTEX
  5
DD30
  8
AM_0
 10
665.43314283810139
 20
346.10313750259371
 30
0.0
 70
    32
  0
VERTEX
  5
DD31
  8
AM_0
 10
665.42914283810126
 20
346.10313750259371
 30
0.0
 70
    32
  0
VERTEX
  5
DD32
  8
AM_0
 10
665.42514283810112
 20
346.10213750259362
 30
0.0
 70
    32
  0
SEQEND
  5
DD33
  8
AM_0
  0
ARC
  5
DD34
  8
AM_0
 10
674.55472803505825
 20
343.61209043751973
 30
0.0
 40
2.5
 50
0.0
 51
90.0
  0
LINE
  5
DD35
  8
AM_0
 10
688.15472318616276
 20
227.11208999048489
 30
0.0
 11
688.15472318616276
 21
257.1120908845545
 31
0.0
  0
LINE
  5
DD36
  8
AM_0
 10
685.15472309675579
 20
227.11208999048489
 30
0.0
 11
688.15472318616276
 21
227.11208999048489
 31
0.0
  0
ARC
  5
DD37
  8
AM_0
 10
703.12308153132778
 20
227.08223390847249
 30
0.0
 40
1.0
 50
271.9999999999971
 51
352.14682191119408
1001
GENIUS_GENODEF_13
1002
{
1000
HIER
1070
     0
1002
}
1002
{
1000
MANEDIT
1070
     0
1002
}
1002
{
1000
NOSEL
1070
     0
1002
}
1002
{
1000
BEHIND
1070
     0
1002
}
1002
{
1000
REACTOR
1002
}
1001
GENIUS_GENOBJ-N-FIL_13
1002
{
1000
OWNER
1000
GEN
1002
}
  0
ARC
  5
DD38
  8
AM_0
 10
703.13256368370128
 20
227.15114166440699
 30
0.0
 40
1.0
 50
352.18305216830498
 51
88.000000000002899
1001
GENIUS_GENODEF_13
1002
{
1000
HIER
1070
     0
1002
}
1002
{
1000
MANEDIT
1070
     0
1002
}
1002
{
1000
NOSEL
1070
     0
1002
}
1002
{
1000
BEHIND
1070
     0
1002
}
1002
{
1000
REACTOR
1002
}
1001
GENIUS_GENOBJ-N-FIL_13
1002
{
1000
OWNER
1000
GEN
1002
}
  0
LINE
  5
DD39
  8
AM_0
 10
703.15798102803035
 20
226.0828430814536
 30
0.0
 11
697.27201669108126
 21
225.8773006776062
 31
0.0
  0
LINE
  5
DD3A
  8
AM_0
 10
703.16746318040396
 20
228.15053249142599
 30
0.0
 11
697.94870401447815
 21
228.33277557729249
 31
0.0
  0
ARC
  5
DD3B
  8
AM_0
 10
594.15472184505825
 20
242.11209043751981
 30
0.0
 40
111.0
 50
352.14682191118692
 51
352.18305216830498
  0
LINE
  5
DD41
  8
AM_0
 10
685.15472309675579
 20
257.1120908845545
 30
0.0
 11
688.15472318616276
 21
257.1120908845545
 31
0.0
  0
ARC
  5
DD47
  8
AM_0
 10
703.12308153132778
 20
257.14194696656682
 30
0.0
 40
1.0
 50
7.8531780888057723
 51
88.000000000002899
1001
GENIUS_GENODEF_13
1002
{
1000
HIER
1070
     0
1002
}
1002
{
1000
MANEDIT
1070
     0
1002
}
1002
{
1000
NOSEL
1070
     0
1002
}
1002
{
1000
BEHIND
1070
     0
1002
}
1002
{
1000
REACTOR
1002
}
1001
GENIUS_GENOBJ-N-FIL_13
1002
{
1000
OWNER
1000
GEN
1002
}
  0
ARC
  5
DD48
  8
AM_0
 10
703.13256368370128
 20
257.07303921063209
 30
0.0
 40
1.0
 50
271.9999999999971
 51
7.8169478316949537
1001
GENIUS_GENODEF_13
1002
{
1000
HIER
1070
     0
1002
}
1002
{
1000
MANEDIT
1070
     0
1002
}
1002
{
1000
NOSEL
1070
     0
1002
}
1002
{
1000
BEHIND
1070
     0
1002
}
1002
{
1000
REACTOR
1002
}
1001
GENIUS_GENOBJ-N-FIL_13
1002
{
1000
OWNER
1000
GEN
1002
}
  0
LINE
  5
DD49
  8
AM_0
 10
703.16746318040396
 20
256.07364838361309
 30
0.0
 11
697.94870401447815
 21
255.89140529774701
 31
0.0
  0
LINE
  5
DD4A
  8
AM_0
 10
703.15798102803035
 20
258.14133779358599
 30
0.0
 11
697.27201669108126
 21
258.34688019743322
 31
0.0
  0
ARC
  5
DD4B
  8
AM_0
 10
594.15472184505825
 20
242.11209043751981
 30
0.0
 40
111.0
 50
7.8169478316949537
 51
7.8531780888131131
  0
ARC
  5
DD4C
  8
AM_0
 10
684.15472184505825
 20
283.11209043751978
 30
0.0
 40
5.0
 50
0.0
 51
90.0
1001
GENIUS_GENOBJ-N-CEN_13
1002
{
1000
OWNER
1000
GEN
1002
}
1001
GENIUS_GENODEF_13
1002
{
1000
HIER
1070
     0
1002
}
1002
{
1000
MANEDIT
1070
     0
1002
}
1002
{
1000
NOSEL
1070
     0
1002
}
1002
{
1000
BEHIND
1070
     0
1002
}
1002
{
1000
REACTOR
1002
}
1001
GENIUS_GENOBJ-N-FIL_13
1002
{
1000
OWNER
1000
GEN
1002
}
  0
LINE
  5
DD4D
  8
AM_0
 10
701.30469154259697
 20
268.13870116347908
 30
0.0
 11
693.15441644249131
 21
268.42331504154419
 31
0.0
  0
LINE
  5
DD4E
  8
AM_0
 10
701.32102627691972
 20
266.06990451447552
 30
0.0
 11
694.43567590317843
 21
265.82946278120409
 31
0.0
  0
LINE
  5
DD4F
  8
AM_0
 10
698.48867712222875
 20
276.06562457112301
 30
0.0
 11
689.15472184505825
 21
275.73967567044252
 31
0.0
  0
LINE
  5
DD50
  8
AM_0
 10
698.46459321788814
 20
278.13619026022872
 30
0.0
 11
689.15472184505825
 21
278.46129813243721
 31
0.0
  0
LINE
  5
DD51
  8
AM_0
 10
685.15472309675579
 20
269.6120912570837
 30
0.0
 11
681.1547229775465
 21
269.6120912570837
 31
0.0
  0
ARC
  5
DD52
  8
AM_0
 10
690.65472184505825
 20
275.39496891880469
 30
0.0
 40
1.5
 50
180.0
 51
215.01862826208691
1001
GENIUS_GENODEF_13
1002
{
1000
HIER
1070
     0
1002
}
1002
{
1000
MANEDIT
1070
     0
1002
}
1002
{
1000
NOSEL
1070
     0
1002
}
1002
{
1000
BEHIND
1070
     0
1002
}
1002
{
1000
REACTOR
1002
}
1001
GENIUS_GENOBJ-N-FIL_13
1002
{
1000
OWNER
1000
GEN
1002
}
  0
LINE
  5
DD53
  8
AM_0
 10
689.15472184505825
 20
275.39496891880492
 30
0.0
 11
689.15472184505825
 21
283.1120904375199
 31
0.0
1001
GENIUS_GENODEF_13
1002
{
1000
HIER
1070
     0
1002
}
1002
{
1000
MANEDIT
1070
     0
1002
}
1002
{
1000
NOSEL
1070
     0
1002
}
1002
{
1000
BEHIND
1070
     0
1002
}
1002
{
1000
REACTOR
1002
}
1001
GENIUS_GENOBJ-N-CEN_13
1002
{
1000
OWNER
1000
GEN
1002
}
  0
LINE
  5
DD54
  8
AM_0
 10
697.15472184505813
 20
276.01904182637691
 30
0.0
 11
697.15472184505825
 21
268.28362129868458
 31
0.0
  0
ARC
  5
DD55
  8
AM_0
 10
701.26979204589452
 20
267.1393103364598
 30
0.0
 40
1.0
 50
13.15111826064787
 51
88.000000000002899
1001
GENIUS_GENODEF_13
1002
{
1000
HIER
1070
     0
1002
}
1002
{
1000
MANEDIT
1070
     0
1002
}
1002
{
1000
NOSEL
1070
     0
1002
}
1002
{
1000
BEHIND
1070
     0
1002
}
1002
{
1000
REACTOR
1002
}
1001
GENIUS_GENOBJ-N-FIL_13
1002
{
1000
OWNER
1000
GEN
1002
}
  0
ARC
  5
DD56
  8
AM_0
 10
701.28612678021716
 20
267.06929534149452
 30
0.0
 40
1.0
 50
272.00000000000358
 51
13.11367014329841
1001
GENIUS_GENODEF_13
1002
{
1000
HIER
1070
     0
1002
}
1002
{
1000
MANEDIT
1070
     0
1002
}
1002
{
1000
NOSEL
1070
     0
1002
}
1002
{
1000
BEHIND
1070
     0
1002
}
1002
{
1000
REACTOR
1002
}
1001
GENIUS_GENOBJ-N-FIL_13
1002
{
1000
OWNER
1000
GEN
1002
}
  0
ARC
  5
DD57
  8
AM_0
 10
594.15472184505825
 20
242.11209043751981
 30
0.0
 40
111.0
 50
13.11367014329841
 51
13.15111826064787
  0
ARC
  5
DD58
  8
AM_0
 10
594.15472184505825
 20
242.11209043751981
 30
0.0
 40
111.0
 50
18.52714231446825
 51
18.566580801896752
  0
ARC
  5
DD59
  8
AM_0
 10
698.42969372118569
 20
277.13679943320949
 30
0.0
 40
1.0
 50
18.56658080190293
 51
87.999999999996405
1001
GENIUS_GENODEF_13
1002
{
1000
HIER
1070
     0
1002
}
1002
{
1000
MANEDIT
1070
     0
1002
}
1002
{
1000
NOSEL
1070
     0
1002
}
1002
{
1000
BEHIND
1070
     0
1002
}
1002
{
1000
REACTOR
1002
}
1001
GENIUS_GENOBJ-N-FIL_13
1002
{
1000
OWNER
1000
GEN
1002
}
  0
ARC
  5
DD5A
  8
AM_0
 10
698.45377762552584
 20
277.0650153981419
 30
0.0
 40
1.0
 50
272.00000000000358
 51
18.52714231446825
1001
GENIUS_GENODEF_13
1002
{
1000
HIER
1070
     0
1002
}
1002
{
1000
MANEDIT
1070
     0
1002
}
1002
{
1000
NOSEL
1070
     0
1002
}
1002
{
1000
BEHIND
1070
     0
1002
}
1002
{
1000
REACTOR
1002
}
1001
GENIUS_GENOBJ-N-FIL_13
1002
{
1000
OWNER
1000
GEN
1002
}
  0
LINE
  5
DD5B
  8
AM_0
 10
679.18842389727024
 20
299.1469899342224
 30
0.0
 11
679.43652115026612
 21
292.04241415864271
 31
0.0
  0
LINE
  5
DD5C
  8
AM_0
 10
684.15472184505825
 20
288.11209043751978
 30
0.0
 11
681.15472184505825
 21
288.11209043751978
 31
0.0
  0
LINE
  5
DD5D
  8
AM_0
 10
679.15472803505645
 20
313.11209043751938
 30
0.0
 11
679.15472803505645
 21
345.61209043751961
 31
0.0
  0
ARC
  5
DD5E
  8
AM_0
 10
678.65472803505816
 20
345.61209043751961
 30
0.0
 40
0.5
 50
0.0
 51
90.0
  0
LINE
  5
ED00
  8
AM_0
 10
430.2444643361959
 20
477.359566747808
 30
0.0
 11
291.47107145194752
 21
477.35958233787233
 31
0.0
  0
LINE
  5
ED01
  8
AM_0
 10
430.47138019094768
 20
490.35956735995609
 30
0.0
 11
291.47107118419461
 21
490.35956735995609
 31
0.0
  0
LINE
  5
ED02
  8
AM_0
 10
429.37171160321361
 20
553.35956923750246
 30
0.0
 11
291.47107145194752
 21
553.35956923750246
 31
0.0
  0
LINE
  5
ED03
  8
ﾁｭｳｼﾝｾﾝ1
 10
86.960035583331305
 20
515.35954816014714
 30
0.0
 11
433.4710758026182
 21
515.35959160972232
 31
0.0
1001
GENIUS_GENODEF_13
1002
{
1000
HIER
1070
     0
1002
}
1002
{
1000
MANEDIT
1070
     0
1002
}
1002
{
1000
NOSEL
1070
     0
1002
}
1002
{
1000
BEHIND
1070
     0
1002
}
1002
{
1000
REACTOR
1002
}
1001
GENIUS_GENOBJ-N-CEN_13
1002
{
1000
OWNER
1000
GEN
1002
}
  0
LINE
  5
ED04
  8
AM_0
 10
291.47107118419461
 20
490.35956735995609
 30
0.0
 11
292.57074057519247
 21
553.35958457735683
 31
0.0
  0
LINE
  5
ED05
  8
AM_0
 10
276.60254537958991
 20
570.89165663855761
 30
0.0
 11
276.6025606377043
 21
459.82747886608178
 31
0.0
  0
LINE
  5
ED06
  8
AM_0
 10
266.96496820407521
 20
571.35957816014729
 30
0.0
 11
266.96496820407521
 21
459.35955716014712
 31
0.0
  0
LINE
  5
ED07
  8
AM_0
 10
277.28660131255327
 20
461.01227412936782
 30
0.0
 11
282.52255419737048
 21
490.70686343285678
 31
0.0
1001
GENIUS_GENODEF_13
1002
{
1000
HIER
1070
     0
1002
}
1002
{
1000
MANEDIT
1070
     0
1002
}
1002
{
1000
NOSEL
1070
     0
1002
}
1002
{
1000
BEHIND
1070
     0
1002
}
1002
{
1000
REACTOR
1002
}
1001
GENIUS_GENOBJ-N-CEN_13
1002
{
1000
OWNER
1000
GEN
1002
}
  0
ARC
  5
ED08
  8
AM_0
 10
275.3169853084845
 20
461.35956766014709
 30
0.0
 40
2.0
 50
270.0
 51
350.00000821592602
1001
GENIUS_GENOBJ-N-CEN_13
1002
{
1000
OWNER
1000
GEN
1002
}
1001
GENIUS_GENODEF_13
1002
{
1000
HIER
1070
     0
1002
}
1002
{
1000
MANEDIT
1070
     0
1002
}
1002
{
1000
NOSEL
1070
     0
1002
}
1002
{
1000
BEHIND
1070
     0
1002
}
1002
{
1000
OTHER
1070
     0
1002
}
1002
{
1000
REACTOR
1002
}
1001
GENIUS_GENOBJ-N-FIL_13
1002
{
1000
OWNER
1000
GEN
1002
}
  0
LINE
  5
ED09
  8
AM_0
 10
266.96496820407521
 20
459.35956766014709
 30
0.0
 11
275.31698530848422
 21
459.35956766014709
 31
0.0
  0
LINE
  5
ED0A
  8
AM_0
 10
290.48837392107879
 20
492.35956735995609
 30
0.0
 11
284.49216975319541
 21
492.35956735995609
 31
0.0
  0
LINE
  5
ED0B
  8
AM_0
 10
266.96496820407521
 20
469.35954216014733
 30
0.0
 11
276.60255932817631
 21
469.35956351912182
 31
0.0
  0
LINE
  5
ED0C
  8
AM_0
 10
266.96496820407521
 20
483.4221101601471
 30
0.0
 11
276.60255739658828
 21
483.41963872825619
 31
0.0
  0
ARC
  5
ED0D
  8
AM_0
 10
284.49216975319541
 20
490.3595673599562
 30
0.0
 40
2.0
 50
90.0
 51
170.00000821592599
1001
GENIUS_GENODEF_13
1002
{
1000
HIER
1070
     0
1002
}
1002
{
1000
MANEDIT
1070
     0
1002
}
1002
{
1000
NOSEL
1070
     0
1002
}
1002
{
1000
BEHIND
1070
     0
1002
}
1002
{
1000
OTHER
1070
     0
1002
}
1002
{
1000
REACTOR
1002
}
1001
GENIUS_GENOBJ-N-FIL_13
1002
{
1000
OWNER
1000
GEN
1002
}
  0
LINE
  5
ED0E
  8
AM_0
 10
291.4710714519419
 20
490.3595826998104
 30
0.0
 11
291.69798730277148
 21
477.35958231238033
 31
0.0
  0
ARC
  5
ED0F
  8
AM_0
 10
290.48837392107879
 20
491.35956735995609
 30
0.0
 40
1.0
 50
359.00000000001131
 51
90.0
1001
GENIUS_GENODEF_13
1002
{
1000
HIER
1070
     0
1002
}
1002
{
1000
MANEDIT
1070
     0
1002
}
1002
{
1000
NOSEL
1070
     0
1002
}
1002
{
1000
BEHIND
1070
     0
1002
}
1002
{
1000
OTHER
1070
     0
1002
}
1002
{
1000
REACTOR
1002
}
1001
GENIUS_GENOBJ-N-FIL_13
1002
{
1000
OWNER
1000
GEN
1002
}
  0
LINE
  5
ED10
  8
AM_0
 10
290.57043565134649
 20
551.35956923750257
 30
0.0
 11
281.4710742826997
 21
551.35956923750257
 31
0.0
  0
LINE
  5
ED11
  8
AM_0
 10
277.28658572628751
 20
569.70686429791397
 30
0.0
 11
279.47107428269987
 21
557.31802445103767
 31
0.0
1001
GENIUS_GENODEF_13
1002
{
1000
HIER
1070
     0
1002
}
1002
{
1000
MANEDIT
1070
     0
1002
}
1002
{
1000
NOSEL
1070
     0
1002
}
1002
{
1000
BEHIND
1070
     0
1002
}
1002
{
1000
REACTOR
1002
}
1001
GENIUS_GENOBJ-N-CEN_13
1002
{
1000
OWNER
1000
GEN
1002
}
  0
LINE
  5
ED12
  8
AM_0
 10
266.96496820407521
 20
547.29951766014722
 30
0.0
 11
276.60254862070292
 21
547.29951766014722
 31
0.0
  0
ARC
  5
ED13
  8
AM_0
 10
281.47107428269987
 20
553.35956923750234
 30
0.0
 40
2.0
 50
180.0
 51
270.0
1001
GENIUS_GENODEF_13
1002
{
1000
HIER
1070
     0
1002
}
1002
{
1000
MANEDIT
1070
     0
1002
}
1002
{
1000
NOSEL
1070
     0
1002
}
1002
{
1000
BEHIND
1070
     0
1002
}
1002
{
1000
OTHER
1070
     0
1002
}
1002
{
1000
REACTOR
1002
}
1001
GENIUS_GENOBJ-N-FIL_13
1002
{
1000
OWNER
1000
GEN
1002
}
  0
LINE
  5
ED14
  8
AM_0
 10
279.4710742826997
 20
553.35956923750246
 30
0.0
 11
279.47107428269987
 21
557.31802445103767
 31
0.0
  0
ARC
  5
ED15
  8
AM_0
 10
275.31697027006379
 20
569.35956766014715
 30
0.0
 40
2.0
 50
10.000008215929659
 51
90.0
1001
GENIUS_GENOBJ-N-CEN_13
1002
{
1000
OWNER
1000
GEN
1002
}
1001
GENIUS_GENOBJ-N-FIL_13
1002
{
1000
OWNER
1000
GEN
1002
}
1001
GENIUS_GENODEF_13
1002
{
1000
HIER
1070
     0
1002
}
1002
{
1000
MANEDIT
1070
     0
1002
}
1002
{
1000
NOSEL
1070
     0
1002
}
1002
{
1000
BEHIND
1070
     0
1002
}
1002
{
1000
OTHER
1070
     0
1002
}
1002
{
1000
REACTOR
1002
}
  0
LINE
  5
ED16
  8
AM_0
 10
266.96496820407521
 20
561.35956766014715
 30
0.0
 11
276.6025466891183
 21
561.35956766014715
 31
0.0
  0
LINE
  5
ED17
  8
AM_0
 10
266.96496820407521
 20
571.35956766014715
 30
0.0
 11
275.31697027006362
 21
571.35956766014715
 31
0.0
  0
ARC
  5
ED18
  8
AM_0
 10
290.57043565134649
 20
553.35956923750234
 30
0.0
 40
2.0
 50
270.0
 51
359.0000000000046
1001
GENIUS_GENODEF_13
1002
{
1000
HIER
1070
     0
1002
}
1002
{
1000
MANEDIT
1070
     0
1002
}
1002
{
1000
NOSEL
1070
     0
1002
}
1002
{
1000
BEHIND
1070
     0
1002
}
1002
{
1000
OTHER
1070
     0
1002
}
1002
{
1000
REACTOR
1002
}
1001
GENIUS_GENOBJ-N-FIL_13
1002
{
1000
OWNER
1000
GEN
1002
}
  0
LINE
  5
ED32
  8
AM_0
 10
428.47107553486558
 20
445.35957464245331
 30
0.0
 11
428.47107553486558
 21
477.35957464245308
 31
0.0
  0
LINE
  5
ED33
  8
AM_0
 10
291.47107145194752
 20
477.35957464245308
 30
0.0
 11
291.47107145194752
 21
445.35957464245359
 31
0.0
  0
LINE
  5
ED36
  8
AM_0
 10
428.47107553486558
 20
472.85957464245308
 30
0.0
 11
392.47107472973482
 21
472.85957464245308
 31
0.0
  0
LINE
  5
ED37
  8
AM_0
 10
362.47107383566521
 20
472.85957464245308
 30
0.0
 11
291.47107145194752
 21
472.85957464245308
 31
0.0
  0
LINE
  5
ED38
  8
AM_0
 10
336.47107434277268
 20
450.85957464245308
 30
0.0
 11
336.47107434277268
 21
472.85957464245308
 31
0.0
  0
LINE
  5
ED39
  8
AM_0
 10
340.97107434277251
 20
450.85957464245308
 30
0.0
 11
340.97107434277291
 21
472.85957464245308
 31
0.0
  0
LINE
  5
ED3A
  8
AM_0
 10
340.97107434277302
 20
469.85957464245359
 30
0.0
 11
336.47107434277291
 21
469.85957464245359
 31
0.0
  0
ARC
  5
ED3B
  8
AM_0
 10
423.47107553486558
 20
445.35957464245331
 30
0.0
 40
5.0
 50
270.0
 51
0.0
1001
GENIUS_GENOBJ-N-FIL_13
1002
{
1000
OWNER
1000
GEN
1002
}
1001
GENIUS_GENODEF_13
1002
{
1000
HIER
1070
     0
1002
}
1002
{
1000
MANEDIT
1070
     0
1002
}
1002
{
1000
NOSEL
1070
     0
1002
}
1002
{
1000
BEHIND
1070
     0
1002
}
1002
{
1000
OTHER
1070
     0
1002
}
1002
{
1000
REACTOR
1002
}
  0
ARC
  5
ED3C
  8
AM_0
 10
296.47107145194752
 20
445.35957464245359
 30
0.0
 40
5.0
 50
180.0
 51
270.0
1001
GENIUS_GENODEF_13
1002
{
1000
HIER
1070
     0
1002
}
1002
{
1000
MANEDIT
1070
     0
1002
}
1002
{
1000
NOSEL
1070
     0
1002
}
1002
{
1000
BEHIND
1070
     0
1002
}
1002
{
1000
OTHER
1070
     0
1002
}
1002
{
1000
REACTOR
1002
}
1001
GENIUS_GENOBJ-N-FIL_13
1002
{
1000
OWNER
1000
GEN
1002
}
  0
LINE
  5
ED3D
  8
ﾁｭｳｼﾝｾﾝ1
 10
420.47107368712182
 20
450.35957598355708
 30
0.0
 11
394.47107368712187
 21
450.35957598355708
 31
0.0
  0
LINE
  5
ED3E
  8
ﾁｭｳｼﾝｾﾝ1
 10
407.47107368712182
 20
463.35957598355708
 30
0.0
 11
407.47107368712182
 21
437.35957598355708
 31
0.0
  0
CIRCLE
  5
ED3F
  8
AM_0
 10
407.47107368712182
 20
450.35957598355708
 30
0.0
 40
5.0
  0
CIRCLE
  5
ED40
  8
AM_0
 10
312.47107329969123
 20
450.35957598355708
 30
0.0
 40
5.0
  0
INSERT
  5
ED41
  8
AM_0
  6
CONTINUOUS
  2
*U5
 10
0.0
 20
0.0
 30
0.0
1001
GENIUS_GENODEF_13
1002
{
1000
HIER
1070
     0
1002
}
1002
{
1000
MANEDIT
1070
     0
1002
}
1002
{
1000
NOSEL
1070
     0
1002
}
1002
{
1000
BEHIND
1070
     0
1002
}
1002
{
1000
OTHER
1070
     0
1002
}
1002
{
1000
REACTOR
1002
}
1001
GENIUS_GENOBJ-N-HTC_13
1002
{
1000
OWNER
1000
GEN
1002
}
1001
GENIUS_GENHATCH_13
1002
{
1000
DATA
1040
0.0
1042
1.0
1000
SOLID
1070
     0
1011
335.8533229708803
1021
0.0
1031
0.0
1021
472.01346674380812
1031
0.0
1002
}
1002
{
1000
UCS
1010
0.0
1020
0.0
1030
0.0
1010
1.0
1020
0.0
1030
0.0
1010
0.0
1020
1.0
1030
0.0
1002
}
1001
ACAD
1002
{
1000
R14_HATCH_DATA
1000
ED41
1011
1.0
1021
0.0
1031
0.0
1021
0.0
1031
0.0
1011
0.0
1021
0.0
1031
0.0
1021
1.0
1031
0.0
1011
0.0
1021
0.0
1031
0.0
1021
0.0
1031
1.0
1040
0.0
1010
0.0
1020
0.0
1030
1.0
1000
SOLID
1070
     1
1070
     0
1071
        2
1071
        1
1071
        3
1070
     1
1040
333.97107434277268
1040
472.85957464245308
1040
336.47107434277268
1040
472.85957464245308
1070
     1
1040
336.47107434277268
1040
472.85957464245308
1040
336.47107434277268
1040
470.35957464245308
1070
     1
1040
336.47107434277268
1040
470.35957464245308
1040
333.97107434277268
1040
472.85957464245308
1071
        0
1071
       33
1071
        1
1070
     1
1040
291.47107145194741
1040
472.85957464245308
1040
428.47107553486558
1040
472.85957464245308
1071
        0
1070
     0
1070
     1
1071
        1
1040
525.99725727410691
1040
228.8619499924913
1040
0.0
1002
}
  0
LINE
  5
ED42
  8
AM_0
 10
336.47107434277268
 20
470.35957464245308
 30
0.0
 11
333.97107434277268
 21
472.85957464245308
 31
0.0
1001
GENIUS_GENFIL_13
1070
     0
1040
2.5
1040
2.5
1040
20.0
1040
0.0
1002
{
1002
}
1001
GENIUS_GENODEF_13
1002
{
1000
HIER
1070
     0
1002
}
1002
{
1000
MANEDIT
1070
     0
1002
}
1002
{
1000
NOSEL
1070
     0
1002
}
1002
{
1000
BEHIND
1070
     0
1002
}
1002
{
1000
OTHER
1070
     0
1002
}
1002
{
1000
REACTOR
1002
}
1001
GENIUS_GENOBJ-N-CHA_13
1002
{
1000
OWNER
1000
GEN
1002
}
  0
LINE
  5
ED43
  8
AM_0
 10
340.97107434277319
 20
470.35957464245308
 30
0.0
 11
343.47107434277319
 21
472.85957464245308
 31
0.0
1001
GENIUS_GENFIL_13
1070
     0
1040
2.5
1040
2.5
1040
20.0
1040
0.0
1002
{
1002
}
1001
GENIUS_GENODEF_13
1002
{
1000
HIER
1070
     0
1002
}
1002
{
1000
MANEDIT
1070
     0
1002
}
1002
{
1000
NOSEL
1070
     0
1002
}
1002
{
1000
BEHIND
1070
     0
1002
}
1002
{
1000
OTHER
1070
     0
1002
}
1002
{
1000
REACTOR
1002
}
1001
GENIUS_GENOBJ-N-CHA_13
1002
{
1000
OWNER
1000
GEN
1002
}
  0
INSERT
  5
ED44
  8
AM_0
  6
CONTINUOUS
  2
*U6
 10
0.0
 20
0.0
 30
0.0
1001
GENIUS_GENODEF_13
1002
{
1000
HIER
1070
     0
1002
}
1002
{
1000
MANEDIT
1070
     0
1002
}
1002
{
1000
NOSEL
1070
     0
1002
}
1002
{
1000
BEHIND
1070
     0
1002
}
1002
{
1000
OTHER
1070
     0
1002
}
1002
{
1000
REACTOR
1002
}
1001
GENIUS_GENOBJ-N-HTC_13
1002
{
1000
OWNER
1000
GEN
1002
}
1001
GENIUS_GENHATCH_13
1002
{
1000
DATA
1040
0.0
1042
1.0
1000
SOLID
1070
     0
1011
341.58882571466552
1021
0.0
1031
0.0
1021
472.01346674380812
1031
0.0
1002
}
1002
{
1000
UCS
1010
0.0
1020
0.0
1030
0.0
1010
1.0
1020
0.0
1030
0.0
1010
0.0
1020
1.0
1030
0.0
1002
}
1001
ACAD
1002
{
1000
R14_HATCH_DATA
1000
ED44
1011
1.0
1021
0.0
1031
0.0
1021
0.0
1031
0.0
1011
0.0
1021
0.0
1031
0.0
1021
1.0
1031
0.0
1011
0.0
1021
0.0
1031
0.0
1021
0.0
1031
1.0
1040
0.0
1010
0.0
1020
0.0
1030
1.0
1000
SOLID
1070
     1
1070
     0
1071
        2
1071
        1
1071
        3
1070
     1
1040
343.47107434277319
1040
472.85957464245308
1040
340.97107434277319
1040
472.85957464245308
1070
     1
1040
340.97107434277319
1040
472.85957464245308
1040
340.97107434277319
1040
470.35957464245308
1070
     1
1040
340.97107434277319
1040
470.35957464245308
1040
343.47107434277319
1040
472.85957464245308
1071
        0
1071
       33
1071
        1
1070
     1
1040
385.97107723359841
1040
472.85957464245308
1040
248.97107315068021
1040
472.85957464245308
1071
        0
1070
     0
1070
     1
1071
        1
1040
151.44489141143899
1040
228.8619499924913
1040
0.0
1002
}
  0
LINE
  5
ED45
  8
AM_5
 10
342.47107297186602
 20
472.85957464245308
 30
0.0
 11
342.47107297186602
 21
477.35957464245308
 31
0.0
  0
LINE
  5
ED46
  8
AM_5
 10
319.9710745613225
 20
472.85957464245308
 30
0.0
 11
319.9710745613225
 21
477.35957464245308
 31
0.0
  0
LINE
  5
ED47
  8
AM_0
 10
340.97107434277251
 20
450.85957464245308
 30
0.0
 11
336.47107434277268
 21
450.85957464245308
 31
0.0
  0
LINE
  5
ED48
  8
ﾁｭｳｼﾝｾﾝ1
 10
325.47107329969123
 20
450.35957598355708
 30
0.0
 11
299.47107329969123
 21
450.35957598355708
 31
0.0
  0
LINE
  5
ED49
  8
ﾁｭｳｼﾝｾﾝ1
 10
312.47107329969123
 20
463.35957598355708
 30
0.0
 11
312.47107329969123
 21
437.35957598355708
 31
0.0
  0
LINE
  5
ED4A
  8
AM_0
 10
428.47107553486558
 20
585.35960857699115
 30
0.0
 11
428.47107553486558
 21
553.35960857699138
 31
0.0
  0
LINE
  5
ED4B
  8
AM_0
 10
291.47107145194752
 20
553.35960857699138
 30
0.0
 11
291.47107145194752
 21
585.35960857699081
 31
0.0
  0
LINE
  5
ED4C
  8
AM_0
 10
296.47107145194752
 20
590.35960857699092
 30
0.0
 11
367.97107428269987
 21
590.35960857699115
 31
0.0
  0
LINE
  5
ED4D
  8
AM_0
 10
428.47107553486558
 20
557.85960857699126
 30
0.0
 11
392.47107472973471
 21
557.85960857699126
 31
0.0
  0
LINE
  5
ED4F
  8
AM_0
 10
336.47107434277268
 20
579.85960857699126
 30
0.0
 11
336.47107434277268
 21
557.85960857699126
 31
0.0
  0
LINE
  5
ED50
  8
AM_0
 10
340.97107434277251
 20
579.85960857699126
 30
0.0
 11
340.97107434277291
 21
557.85960857699126
 31
0.0
  0
LINE
  5
ED52
  8
AM_0
 10
340.97107434277302
 20
560.85960857699092
 30
0.0
 11
336.47107434277291
 21
560.85960857699092
 31
0.0
  0
ARC
  5
ED54
  8
AM_0
 10
423.47107553486558
 20
585.35960857699115
 30
0.0
 40
5.0
 50
0.0
 51
90.0
1001
GENIUS_GENOBJ-N-FIL_13
1002
{
1000
OWNER
1000
GEN
1002
}
1001
GENIUS_GENODEF_13
1002
{
1000
HIER
1070
     0
1002
}
1002
{
1000
MANEDIT
1070
     0
1002
}
1002
{
1000
NOSEL
1070
     0
1002
}
1002
{
1000
BEHIND
1070
     0
1002
}
1002
{
1000
OTHER
1070
     0
1002
}
1002
{
1000
REACTOR
1002
}
  0
ARC
  5
ED55
  8
AM_0
 10
296.47107145194752
 20
585.35960857699081
 30
0.0
 40
5.0
 50
90.0
 51
180.0
1001
GENIUS_GENODEF_13
1002
{
1000
HIER
1070
     0
1002
}
1002
{
1000
MANEDIT
1070
     0
1002
}
1002
{
1000
NOSEL
1070
     0
1002
}
1002
{
1000
BEHIND
1070
     0
1002
}
1002
{
1000
OTHER
1070
     0
1002
}
1002
{
1000
REACTOR
1002
}
1001
GENIUS_GENOBJ-N-FIL_13
1002
{
1000
OWNER
1000
GEN
1002
}
  0
LINE
  5
ED56
  8
ﾁｭｳｼﾝｾﾝ1
 10
420.47107368712182
 20
580.35960723588755
 30
0.0
 11
394.47107368712187
 21
580.35960723588755
 31
0.0
  0
LINE
  5
ED57
  8
ﾁｭｳｼﾝｾﾝ1
 10
407.47107368712182
 20
567.35960723588755
 30
0.0
 11
407.47107368712182
 21
593.35960723588755
 31
0.0
  0
CIRCLE
  5
ED58
  8
AM_0
 10
407.47107368712182
 20
580.35960723588755
 30
0.0
 40
5.0
  0
CIRCLE
  5
ED59
  8
AM_0
 10
312.47107329969123
 20
580.35960723588755
 30
0.0
 40
5.0
  0
INSERT
  5
ED5E
  8
AM_0
  6
CONTINUOUS
  2
*U7
 10
0.0
 20
0.0
 30
0.0
1001
GENIUS_GENODEF_13
1002
{
1000
HIER
1070
     0
1002
}
1002
{
1000
MANEDIT
1070
     0
1002
}
1002
{
1000
NOSEL
1070
     0
1002
}
1002
{
1000
BEHIND
1070
     0
1002
}
1002
{
1000
OTHER
1070
     0
1002
}
1002
{
1000
REACTOR
1002
}
1001
GENIUS_GENOBJ-N-HTC_13
1002
{
1000
OWNER
1000
GEN
1002
}
1001
GENIUS_GENHATCH_13
1002
{
1000
DATA
1040
0.0
1042
-1.0
1000
SOLID
1070
     0
1011
335.8533229708803
1021
0.0
1031
0.0
1021
558.70571647563634
1031
0.0
1002
}
1002
{
1000
UCS
1010
0.0
1020
0.0
1030
0.0
1010
1.0
1020
0.0
1030
0.0
1010
0.0
1020
1.0
1030
0.0
1002
}
1001
ACAD
1002
{
1000
R14_HATCH_DATA
1000
ED5E
1011
1.0
1021
0.0
1031
0.0
1021
0.0
1031
0.0
1011
0.0
1021
0.0
1031
0.0
1021
1.0
1031
0.0
1011
0.0
1021
0.0
1031
0.0
1021
0.0
1031
1.0
1040
0.0
1010
0.0
1020
0.0
1030
1.0
1000
SOLID
1070
     1
1070
     0
1071
        2
1071
        1
1071
        3
1070
     1
1040
333.97107434277268
1040
557.85960857699126
1040
336.47107434277268
1040
557.85960857699126
1070
     1
1040
336.47107434277268
1040
557.85960857699126
1040
336.47107434277268
1040
560.35960857699149
1070
     1
1040
336.47107434277268
1040
560.35960857699149
1040
333.97107434277268
1040
557.85960857699126
1071
        0
1071
       33
1071
        1
1070
     1
1040
291.47107145194741
1040
557.85960857699126
1040
428.47107553486558
1040
557.85960857699126
1071
        0
1070
     0
1070
     1
1071
        1
1040
525.99725727410691
1040
801.85723322695333
1040
0.0
1002
}
  0
LINE
  5
ED5F
  8
AM_0
 10
336.47107434277268
 20
560.35960857699149
 30
0.0
 11
333.97107434277268
 21
557.85960857699126
 31
0.0
1001
GENIUS_GENFIL_13
1070
     0
1040
2.5
1040
2.5
1040
20.0
1040
0.0
1002
{
1002
}
1001
GENIUS_GENODEF_13
1002
{
1000
HIER
1070
     0
1002
}
1002
{
1000
MANEDIT
1070
     0
1002
}
1002
{
1000
NOSEL
1070
     0
1002
}
1002
{
1000
BEHIND
1070
     0
1002
}
1002
{
1000
OTHER
1070
     0
1002
}
1002
{
1000
REACTOR
1002
}
1001
GENIUS_GENOBJ-N-CHA_13
1002
{
1000
OWNER
1000
GEN
1002
}
  0
LINE
  5
ED60
  8
AM_0
 10
340.97107434277319
 20
560.35960857699149
 30
0.0
 11
343.47107434277319
 21
557.85960857699126
 31
0.0
1001
GENIUS_GENFIL_13
1070
     0
1040
2.5
1040
2.5
1040
20.0
1040
0.0
1002
{
1002
}
1001
GENIUS_GENODEF_13
1002
{
1000
HIER
1070
     0
1002
}
1002
{
1000
MANEDIT
1070
     0
1002
}
1002
{
1000
NOSEL
1070
     0
1002
}
1002
{
1000
BEHIND
1070
     0
1002
}
1002
{
1000
OTHER
1070
     0
1002
}
1002
{
1000
REACTOR
1002
}
1001
GENIUS_GENOBJ-N-CHA_13
1002
{
1000
OWNER
1000
GEN
1002
}
  0
INSERT
  5
ED61
  8
AM_0
  6
CONTINUOUS
  2
*U8
 10
0.0
 20
0.0
 30
0.0
1001
GENIUS_GENODEF_13
1002
{
1000
HIER
1070
     0
1002
}
1002
{
1000
MANEDIT
1070
     0
1002
}
1002
{
1000
NOSEL
1070
     0
1002
}
1002
{
1000
BEHIND
1070
     0
1002
}
1002
{
1000
OTHER
1070
     0
1002
}
1002
{
1000
REACTOR
1002
}
1001
GENIUS_GENOBJ-N-HTC_13
1002
{
1000
OWNER
1000
GEN
1002
}
1001
GENIUS_GENHATCH_13
1002
{
1000
DATA
1040
0.0
1042
-1.0
1000
SOLID
1070
     0
1011
341.58882571466552
1021
0.0
1031
0.0
1021
558.70571647563634
1031
0.0
1002
}
1002
{
1000
UCS
1010
0.0
1020
0.0
1030
0.0
1010
1.0
1020
0.0
1030
0.0
1010
0.0
1020
1.0
1030
0.0
1002
}
1001
ACAD
1002
{
1000
R14_HATCH_DATA
1000
ED61
1011
1.0
1021
0.0
1031
0.0
1021
0.0
1031
0.0
1011
0.0
1021
0.0
1031
0.0
1021
1.0
1031
0.0
1011
0.0
1021
0.0
1031
0.0
1021
0.0
1031
1.0
1040
0.0
1010
0.0
1020
0.0
1030
1.0
1000
SOLID
1070
     1
1070
     0
1071
        2
1071
        1
1071
        3
1070
     1
1040
343.47107434277319
1040
557.85960857699126
1040
340.97107434277319
1040
557.85960857699126
1070
     1
1040
340.97107434277319
1040
557.85960857699126
1040
340.97107434277319
1040
560.35960857699149
1070
     1
1040
340.97107434277319
1040
560.35960857699149
1040
343.47107434277319
1040
557.85960857699126
1071
        0
1071
       33
1071
        1
1070
     1
1040
385.97107723359841
1040
557.85960857699126
1040
248.97107315068021
1040
557.85960857699126
1071
        0
1070
     0
1070
     1
1071
        1
1040
151.44489141143899
1040
801.85723322695333
1040
0.0
1002
}
  0
LINE
  5
ED62
  8
AM_5
 10
342.47107297186602
 20
557.85960857699126
 30
0.0
 11
342.47107297186602
 21
553.35960857699138
 31
0.0
  0
LINE
  5
ED63
  8
AM_5
 10
319.9710745613225
 20
557.85960857699126
 30
0.0
 11
319.9710745613225
 21
553.35960857699138
 31
0.0
  0
LINE
  5
ED65
  8
AM_0
 10
340.97107434277251
 20
579.85960857699126
 30
0.0
 11
336.47107434277268
 21
579.85960857699126
 31
0.0
  0
LINE
  5
ED66
  8
ﾁｭｳｼﾝｾﾝ1
 10
325.47107329969123
 20
580.35960723588755
 30
0.0
 11
299.47107329969123
 21
580.35960723588755
 31
0.0
  0
LINE
  5
ED67
  8
ﾁｭｳｼﾝｾﾝ1
 10
312.47107329969123
 20
567.35960723588755
 30
0.0
 11
312.47107329969123
 21
593.35960723588755
 31
0.0
  0
LINE
  5
ED68
  8
AM_0
 10
408.97107520703997
 20
559.4496085769913
 30
0.0
 11
425.97107520703997
 21
559.44960857699164
 31
0.0
  0
LINE
  5
ED69
  8
AM_0
 10
425.97107520703997
 20
559.44960857699164
 30
0.0
 11
425.97107520703997
 21
557.85960857699126
 31
0.0
  0
LINE
  5
ED6A
  8
AM_0
 10
408.97107520703997
 20
559.44960857699164
 30
0.0
 11
408.97107520703997
 21
557.85960857699126
 31
0.0
  0
LINE
  5
ED6B
  8
AM_0
 10
410.97107520704009
 20
567.44960857699016
 30
0.0
 11
423.97107520703997
 21
567.44960857699016
 31
0.0
  0
LINE
  5
ED6C
  8
AM_0
 10
423.97107520703997
 20
559.4496085769905
 30
0.0
 11
423.97107520703997
 21
567.44960857699016
 31
0.0
  0
LINE
  5
ED6D
  8
AM_0
 10
410.97107520704009
 20
559.4496085769905
 30
0.0
 11
410.97107520704009
 21
567.44960857699016
 31
0.0
  0
LINE
  5
ED6E
  8
AM_0
 10
293.97107177977301
 20
559.4496085769913
 30
0.0
 11
310.97107177977313
 21
559.44960857699164
 31
0.0
  0
LINE
  5
ED6F
  8
AM_0
 10
310.97107177977313
 20
559.44960857699164
 30
0.0
 11
310.97107177977313
 21
557.85960857699126
 31
0.0
  0
LINE
  5
ED70
  8
AM_0
 10
293.97107177977301
 20
559.44960857699164
 30
0.0
 11
293.97107177977301
 21
557.85960857699126
 31
0.0
  0
LINE
  5
ED71
  8
AM_0
 10
295.97107177977313
 20
567.44960857699016
 30
0.0
 11
308.9710717797729
 21
567.44960857699016
 31
0.0
  0
LINE
  5
ED72
  8
AM_0
 10
308.9710717797729
 20
559.4496085769905
 30
0.0
 11
308.9710717797729
 21
567.44960857699016
 31
0.0
  0
LINE
  5
ED73
  8
AM_0
 10
295.97107177977313
 20
559.4496085769905
 30
0.0
 11
295.97107177977313
 21
567.44960857699016
 31
0.0
  0
LINE
  5
ED74
  8
AM_0
 10
421.22107520704009
 20
464.76957464245243
 30
0.0
 11
421.22107520704009
 21
471.26957464245208
 31
0.0
  0
LINE
  5
ED75
  8
AM_0
 10
424.97107520703997
 20
464.76957464245243
 30
0.0
 11
424.97107520703997
 21
471.26957464245243
 31
0.0
  0
LINE
  5
ED76
  8
AM_0
 10
413.72107520704009
 20
464.76957464245243
 30
0.0
 11
413.7210752070402
 21
471.26957464245243
 31
0.0
  0
LINE
  5
ED77
  8
AM_0
 10
409.97107520703997
 20
464.76957464245243
 30
0.0
 11
409.9710752070402
 21
471.26957464245243
 31
0.0
  0
LINE
  5
ED78
  8
AM_0
 10
413.47107520703997
 20
464.44957690742882
 30
0.0
 11
421.47107520703997
 21
464.44957690742882
 31
0.0
  0
LINE
  5
ED79
  8
AM_0
 10
409.97107520703997
 20
464.76957464245243
 30
0.0
 11
424.97107520703997
 21
464.76957464245243
 31
0.0
  0
LINE
  5
ED7A
  8
AM_0
 10
421.47107520703997
 20
464.76957464245243
 30
0.0
 11
421.47107520703997
 21
464.44957690742848
 31
0.0
  0
LINE
  5
ED7B
  8
AM_5
 10
414.47107520703997
 20
464.76957464245243
 30
0.0
 11
414.47107520703997
 21
464.44957690742882
 31
0.0
  0
LINE
  5
ED7C
  8
AM_0
 10
413.47107520703997
 20
464.76957464245243
 30
0.0
 11
413.47107520703997
 21
464.44957690742882
 31
0.0
  0
LINE
  5
ED7D
  8
AM_5
 10
420.47107520704009
 20
464.76957464245243
 30
0.0
 11
420.47107520704009
 21
464.44957690742848
 31
0.0
  0
LINE
  5
ED7E
  8
AM_0
 10
408.97107520703997
 20
471.26957464245328
 30
0.0
 11
425.97107520703997
 21
471.26957464245328
 31
0.0
  0
LINE
  5
ED7F
  8
AM_0
 10
425.97107520703997
 20
471.26957464245328
 30
0.0
 11
425.97107520703997
 21
472.85957464245308
 31
0.0
  0
LINE
  5
ED80
  8
AM_0
 10
408.97107520703997
 20
471.26957464245328
 30
0.0
 11
408.97107520703997
 21
472.85957464245308
 31
0.0
  0
LINE
  5
ED81
  8
AM_0
 10
306.22107177977301
 20
464.76957464245243
 30
0.0
 11
306.22107177977301
 21
471.26957464245208
 31
0.0
  0
LINE
  5
ED82
  8
AM_0
 10
309.97107177977301
 20
464.76957464245243
 30
0.0
 11
309.9710717797729
 21
471.26957464245243
 31
0.0
  0
LINE
  5
ED83
  8
AM_0
 10
298.72107177977301
 20
464.76957464245243
 30
0.0
 11
298.72107177977313
 21
471.26957464245243
 31
0.0
  0
LINE
  5
ED84
  8
AM_0
 10
294.97107177977301
 20
464.76957464245243
 30
0.0
 11
294.97107177977313
 21
471.26957464245243
 31
0.0
  0
LINE
  5
ED85
  8
AM_0
 10
298.47107177977301
 20
464.44957690742882
 30
0.0
 11
306.47107177977301
 21
464.44957690742882
 31
0.0
  0
LINE
  5
ED86
  8
AM_0
 10
294.97107177977301
 20
464.76957464245243
 30
0.0
 11
309.97107177977301
 21
464.76957464245243
 31
0.0
  0
LINE
  5
ED87
  8
AM_0
 10
306.47107177977301
 20
464.76957464245243
 30
0.0
 11
306.47107177977301
 21
464.44957690742848
 31
0.0
  0
LINE
  5
ED88
  8
AM_5
 10
299.47107177977301
 20
464.76957464245243
 30
0.0
 11
299.47107177977301
 21
464.44957690742882
 31
0.0
  0
LINE
  5
ED89
  8
AM_0
 10
298.47107177977301
 20
464.76957464245243
 30
0.0
 11
298.47107177977301
 21
464.44957690742882
 31
0.0
  0
LINE
  5
ED8A
  8
AM_5
 10
305.47107177977301
 20
464.76957464245243
 30
0.0
 11
305.47107177977301
 21
464.44957690742848
 31
0.0
  0
LINE
  5
ED8B
  8
AM_0
 10
293.97107177977301
 20
471.26957464245328
 30
0.0
 11
310.97107177977301
 21
471.26957464245328
 31
0.0
  0
LINE
  5
ED8C
  8
AM_0
 10
310.97107177977301
 20
471.26957464245328
 30
0.0
 11
310.97107177977301
 21
472.85957464245308
 31
0.0
  0
LINE
  5
ED8D
  8
AM_0
 10
293.97107177977301
 20
471.26957464245328
 30
0.0
 11
293.97107177977301
 21
472.85957464245308
 31
0.0
  0
LINE
  5
F073
  8
AM_0
 10
404.97107510226368
 20
557.35956942023904
 30
0.0
 11
349.97107346313612
 21
557.35956942023904
 31
0.0
  0
LINE
  5
F074
  8
AM_0
 10
404.97107510226368
 20
557.35956942023904
 30
0.0
 11
404.97107510226368
 21
553.35956930102964
 31
0.0
  0
LINE
  5
F075
  8
AM_0
 10
349.97107346313601
 20
557.35956942023904
 30
0.0
 11
349.97107346313601
 21
553.35956930102964
 31
0.0
  0
LINE
  5
F076
  8
AM_0
 10
392.47107472973471
 20
560.35956950964578
 30
0.0
 11
362.47107383566521
 21
560.35956950964578
 31
0.0
  0
LINE
  5
F077
  8
AM_0
 10
362.47107383566521
 20
557.35956942023904
 30
0.0
 11
362.47107383566521
 21
560.35956950964578
 31
0.0
  0
LINE
  5
F078
  8
AM_0
 10
392.47107472973471
 20
557.35956942023904
 30
0.0
 11
392.47107472973471
 21
560.35956950964578
 31
0.0
  0
LINE
  5
F07B
  8
AM_0
 10
404.97107510226368
 20
473.35956691684379
 30
0.0
 11
404.97107510226368
 21
477.35956703605331
 31
0.0
  0
LINE
  5
F07C
  8
AM_0
 10
404.97107510226368
 20
473.35956691684379
 30
0.0
 11
349.97107346313612
 21
473.35956691684379
 31
0.0
  0
LINE
  5
F07D
  8
AM_0
 10
392.47107472973471
 20
470.35956682743699
 30
0.0
 11
362.47107383566521
 21
470.35956682743699
 31
0.0
  0
LINE
  5
F07E
  8
AM_0
 10
392.47107472973471
 20
470.35956682743699
 30
0.0
 11
392.47107472973471
 21
473.35956691684379
 31
0.0
  0
LINE
  5
F07F
  8
AM_0
 10
362.47107383566521
 20
470.35956682743699
 30
0.0
 11
362.47107383566521
 21
473.35956691684379
 31
0.0
  0
LINE
  5
F080
  8
AM_0
 10
349.97107346313612
 20
473.35956691684379
 30
0.0
 11
349.97107346313612
 21
477.35956703605331
 31
0.0
  0
LINE
  5
F098
  8
AM_0
 10
161.38493820407501
 20
549.25954766014695
 30
0.0
 11
228.52269402395061
 21
549.25954766014695
 31
0.0
  0
LINE
  5
F099
  8
AM_0
 10
228.5152027357698
 20
481.45955966014708
 30
0.0
 11
161.38493820407501
 21
481.45955966014708
 31
0.0
  0
LINE
  5
F09A
  8
AM_0
 10
154.25499820407509
 20
577.24457266014724
 30
0.0
 11
187.96497820407541
 21
577.24457266014724
 31
0.0
  0
LINE
  5
F09B
  8
AM_0
 10
154.23498820407559
 20
576.3345526601471
 30
0.0
 11
187.96497820407541
 21
576.3345526601471
 31
0.0
  0
LINE
  5
F09C
  8
AM_0
 10
176.46495820407529
 20
553.58453266014726
 30
0.0
 11
156.2875282040751
 21
552.08456266014696
 31
0.0
  0
LINE
  5
F09D
  8
AM_0
 10
154.21497820407529
 20
574.48454266014721
 30
0.0
 11
187.96497820407541
 21
574.48454266014721
 31
0.0
  0
LINE
  5
F09E
  8
AM_0
 10
154.16496820407531
 20
571.64456266014736
 30
0.0
 11
251.0849782040751
 21
571.64456266014736
 31
0.0
  0
LINE
  5
F09F
  8
AM_0
 10
152.63496820407519
 20
552.08453266014715
 30
0.0
 11
255.7849882040752
 21
552.08453266014715
 31
0.0
  0
LINE
  5
F0A0
  8
AM_0
 10
153.51502510992819
 20
551.35456615676753
 30
0.0
 11
252.30498815171509
 21
551.35456873014709
 31
0.0
  0
LINE
  5
F0A1
  8
AM_0
 10
176.46495820407529
 20
477.13456066014732
 30
0.0
 11
156.2921782040751
 21
478.63456066014709
 31
0.0
  0
LINE
  5
F0A2
  8
AM_0
 10
154.25499820407509
 20
453.4645606601473
 30
0.0
 11
187.96497820407541
 21
453.4645606601473
 31
0.0
  0
LINE
  5
F0A3
  8
AM_0
 10
154.23498820407559
 20
454.38455866014709
 30
0.0
 11
187.96497820407541
 21
454.38455866014709
 31
0.0
  0
LINE
  5
F0A4
  8
AM_0
 10
154.21497820407529
 20
456.22455466014719
 30
0.0
 11
187.96497820407541
 21
456.22455466014719
 31
0.0
  0
LINE
  5
F0A5
  8
AM_0
 10
152.63496820407519
 20
478.63456066014709
 30
0.0
 11
207.96495820407529
 21
478.63456066014709
 31
0.0
  0
LINE
  5
F0A6
  8
AM_0
 10
154.16496820407531
 20
459.07454566014718
 30
0.0
 11
251.0849782040751
 21
459.07454566014718
 31
0.0
  0
LINE
  5
F0A7
  8
AM_0
 10
252.20502276008779
 20
479.35956766014709
 30
0.0
 11
153.6074623609978
 21
479.35956766014709
 31
0.0
  0
ARC
  5
F0A8
  8
AM_0
 10
160.45757820407519
 20
482.85221466014713
 30
0.0
 40
3.492651899999998
 50
179.87933000000231
 51
270.12067999999482
  0
LINE
  5
F0A9
  8
AM_0
 10
161.38493820407501
 20
481.45955966014708
 30
0.0
 11
161.38493820407501
 21
479.35956866014698
 31
0.0
  0
ARC
  5
F0AA
  8
AM_0
 10
152.63496820407519
 20
480.31455166014729
 30
0.0
 40
1.679999999999999
 50
90.00000299999769
 51
270.0
  0
ARC
  5
F0AB
  8
AM_0
 10
93.013688204075208
 20
477.85947466014733
 30
0.0
 40
4.0507442999999981
 50
99.071790999998854
 51
224.9123400000027
  0
LINE
  5
F0AC
  8
AM_0
 10
106.8049282040751
 20
510.09955666014707
 30
0.0
 11
92.344988204075278
 21
465.58956166014718
 31
0.0
  0
LINE
  5
F0AD
  8
AM_0
 10
102.04497820407509
 20
511.6395646601473
 30
0.0
 11
87.584978204075071
 21
467.12955466014728
 31
0.0
  0
ARC
  5
F0AE
  8
AM_0
 10
153.5072182040754
 20
480.35456266014711
 30
0.0
 40
1.0000319699999971
 50
89.552707000000467
 51
270.44730000000118
  0
LINE
  5
F0AF
  8
AM_0
 10
150.96495820407549
 20
568.35455266014719
 30
0.0
 11
150.96495820407549
 21
465.91457266014709
 31
0.0
  0
LINE
  5
F0B0
  8
AM_0
 10
142.96497820407529
 20
572.35958266014723
 30
0.0
 11
142.96497820407529
 21
458.35956466014733
 31
0.0
  0
LINE
  5
F0B1
  8
AM_0
 10
94.964978204075294
 20
458.35956466014733
 30
0.0
 11
142.96497820407529
 21
458.35956466014733
 31
0.0
  0
LINE
  5
F0B2
  8
AM_0
 10
95.464958204075245
 20
471.46955266014709
 30
0.0
 11
142.96497820407529
 21
471.46955266014709
 31
0.0
  0
LINE
  5
F0B3
  8
AM_0
 10
95.464958204075245
 20
475.19954866014712
 30
0.0
 11
95.464958204075245
 21
458.35956466014733
 31
0.0
  0
ARC
  5
F0B4
  8
AM_0
 10
89.963918204075242
 20
466.35802366014718
 30
0.0
 40
3.001016099999998
 50
185.13259999999761
 51
0.0291460009999036
  0
LINE
  5
F0B5
  8
AM_0
 10
92.964968204075205
 20
467.50955866014709
 30
0.0
 11
92.964968204075205
 21
460.3595656601471
 31
0.0
  0
ARC
  5
F0B6
  8
AM_0
 10
89.964968204075205
 20
466.35956566014698
 30
0.0
 40
2.5014601500000002
 50
162.07207999999801
 51
342.0720699999988
  0
ARC
  5
F0B7
  8
AM_0
 10
94.962698204075238
 20
460.3572466601471
 30
0.0
 40
1.9976960999999991
 50
179.9338299999965
 51
270.06616999999699
  0
ARC
  5
F0B8
  8
AM_0
 10
86.676818204075246
 20
466.05721366014711
 30
0.0
 40
0.8023920299999998
 50
5.8908350000000453
 51
89.417558000000113
  0
LINE
  5
F0B9
  8
AM_0
 10
86.464958204075444
 20
466.85955166014708
 30
0.0
 11
86.685008204075146
 21
466.85955166014708
 31
0.0
  0
LINE
  5
F0BA
  8
AM_0
 10
86.464958204075444
 20
466.85955166014708
 30
0.0
 11
86.464958204075444
 21
466.35956566014698
 31
0.0
  0
ARC
  5
F0BB
  8
AM_0
 10
86.675348204075306
 20
466.05850966014708
 30
0.0
 40
0.30119199
 50
5.9148298000018524
 51
88.175987000000205
  0
LINE
  5
F0BC
  8
AM_0
 10
143.65497820407529
 20
472.16455966014712
 30
0.0
 11
149.88501820407529
 21
472.16455966014712
 31
0.0
  0
LINE
  5
F0BD
  8
AM_0
 10
142.96497820407529
 20
462.35455966014717
 30
0.0
 11
150.96495820407549
 21
462.35455966014717
 31
0.0
  0
LINE
  5
F0BE
  8
AM_0
 10
142.96497820407529
 20
462.35955166014708
 30
0.0
 11
150.96495820407549
 21
462.35955166014708
 31
0.0
  0
LINE
  5
F0BF
  8
AM_0
 10
137.96496820407521
 20
471.46955266014709
 30
0.0
 11
137.96496820407521
 21
458.35956466014733
 31
0.0
  0
LINE
  5
F0C0
  8
AM_0
 10
150.96495820407549
 20
464.57454766014712
 30
0.0
 11
152.2550182040753
 21
456.07456066014709
 31
0.0
  0
LINE
  5
F0C1
  8
AM_0
 10
150.96495820407549
 20
465.91455766014712
 30
0.0
 11
152.24493820407511
 21
457.91455966014712
 31
0.0
  0
LINE
  5
F0C2
  8
AM_0
 10
150.96495820407549
 20
464.57457766014733
 30
0.0
 11
152.27496820407529
 21
455.19457366014723
 31
0.0
  0
LINE
  5
F0C3
  8
AM_0
 10
150.96495820407549
 20
467.26454866014723
 30
0.0
 11
152.20494820407529
 21
460.70455066014728
 31
0.0
  0
ARC
  5
F0C4
  8
AM_0
 10
154.2285082040753
 20
456.38188966014712
 30
0.0
 40
1.9973481299999989
 50
188.85146999999961
 51
270.18467999999763
  0
ARC
  5
F0C5
  8
AM_0
 10
154.25709820407531
 20
455.46503566014712
 30
0.0
 40
2.000475929999999
 50
187.77046000000081
 51
269.93969000000249
  0
ARC
  5
F0C6
  8
AM_0
 10
154.22094820407511
 20
458.2247386601473
 30
0.0
 40
2.0001841200000001
 50
188.92099999999621
 51
269.8285299999992
  0
ARC
  5
F0C7
  8
AM_0
 10
154.16961820407519
 20
461.07355366014701
 30
0.0
 40
1.999007999999999
 50
190.637409999997
 51
269.86655000000297
  0
LINE
  5
F0C8
  8
AM_0
 10
156.3249682040753
 20
478.70456866014712
 30
0.0
 11
150.96495820407549
 21
467.26456366014719
 31
0.0
  0
ARC
  5
F0C9
  8
AM_0
 10
160.46544820407519
 20
547.85906766014705
 30
0.0
 40
3.5005001999999981
 50
90.008164999996055
 51
179.99183999999789
  0
LINE
  5
F0CA
  8
AM_0
 10
161.38493820407501
 20
549.25954766014695
 30
0.0
 11
161.38493820407501
 21
551.35454766014686
 31
0.0
  0
ARC
  5
F0CB
  8
AM_0
 10
152.63496820407519
 20
550.40455066014704
 30
0.0
 40
1.679999999999999
 50
90.00000299999769
 51
270.0
  0
LINE
  5
F0CC
  8
AM_0
 10
137.96496820407521
 20
523.35956866014715
 30
0.0
 11
137.96496820407521
 21
572.35958266014723
 31
0.0
  0
ARC
  5
F0CD
  8
AM_0
 10
93.860648204075275
 20
552.7497226601472
 30
0.0
 40
2.9956880400000001
 50
180.00363999999749
 51
275.83037000000309
  0
ARC
  5
F0CE
  8
AM_0
 10
153.5072182040754
 20
550.35456466014705
 30
0.0
 40
1.0000319699999971
 50
89.552707000000467
 51
270.44730000000118
  0
LINE
  5
F0CF
  8
AM_0
 10
95.464958204075245
 20
491.37955666014727
 30
0.0
 11
95.464958204075444
 21
572.35958266014723
 31
0.0
  0
LINE
  5
F0D0
  8
AM_0
 10
92.964968204075205
 20
483.68955166014712
 30
0.0
 11
92.964968204075205
 21
549.88953766014697
 31
0.0
  0
LINE
  5
F0D1
  8
AM_0
 10
95.464958204075245
 20
548.99955166014729
 30
0.0
 11
137.96496820407521
 21
548.99955166014729
 31
0.0
  0
LINE
  5
F0D2
  8
AM_0
 10
120.46497820407529
 20
513.35953666014734
 30
0.0
 11
131.46495820407529
 21
513.35953666014734
 31
0.0
  0
LINE
  5
F0D3
  8
AM_0
 10
120.46497820407529
 20
517.35956866014715
 30
0.0
 11
131.46495820407529
 21
517.35956866014715
 31
0.0
  0
ARC
  5
F0D4
  8
AM_0
 10
125.9625382040755
 20
515.35712566014706
 30
0.0
 40
7.9975721999999996
 50
198.19734999999929
 51
270.01730999999921
  0
ARC
  5
F0D5
  8
AM_0
 10
125.9644882040752
 20
515.35935466014735
 30
0.0
 40
8.000195699999999
 50
89.996300999997743
 51
161.78902999999599
  0
LINE
  5
F0D6
  8
AM_0
 10
120.46497820407529
 20
512.85956866014715
 30
0.0
 11
120.46497820407529
 21
517.85953666014734
 31
0.0
  0
ARC
  5
F0D7
  8
AM_0
 10
110.612738204075
 20
508.8624676601471
 30
0.0
 40
8.9970875999999969
 50
89.985774999998554
 51
162.02120000000269
  0
ARC
  5
F0D8
  8
AM_0
 10
110.6082082040752
 20
508.85917066014702
 30
0.0
 40
4.0003919999999971
 50
89.903054999997906
 51
161.9367900000002
  0
LINE
  5
F0D9
  8
AM_0
 10
110.6149282040753
 20
512.85956866014715
 30
0.0
 11
120.46497820407529
 21
512.85956866014715
 31
0.0
  0
LINE
  5
F0DA
  8
AM_0
 10
110.6149282040753
 20
517.85953666014734
 30
0.0
 11
120.46497820407529
 21
517.85953666014734
 31
0.0
  0
LINE
  5
F0DB
  8
AM_0
 10
156.96495820407529
 20
482.85956166014728
 30
0.0
 11
156.96495820407529
 21
547.85955766014695
 31
0.0
  0
ARC
  5
F0DC
  8
AM_0
 10
356.87058124567619
 20
513.65283187367265
 30
0.0
 40
203.55269646012371
 50
179.52099544220229
 51
179.87131288696031
  0
LINE
  5
F0DD
  8
AM_0
 10
131.46495820407529
 20
512.85956866014715
 30
0.0
 11
131.46495820407529
 21
517.85953666014734
 31
0.0
  0
LINE
  5
F0DE
  8
AM_0
 10
133.96497820407529
 20
512.85956866014715
 30
0.0
 11
133.96497820407529
 21
517.85953666014734
 31
0.0
  0
LINE
  5
F0DF
  8
ﾁｭｳｼﾝｾﾝ1
 10
125.96496820407521
 20
503.14755666014702
 30
0.0
 11
125.96496820407521
 21
527.56755266014704
 31
0.0
  0
LINE
  5
F0E0
  8
AM_0
 10
131.46495820407529
 20
512.85956866014715
 30
0.0
 11
133.96497820407529
 21
512.85956866014715
 31
0.0
  0
LINE
  5
F0E1
  8
AM_0
 10
125.96496820407521
 20
507.35953666014711
 30
0.0
 11
142.96497820407529
 21
507.35953666014711
 31
0.0
  0
ARC
  5
F0E2
  8
AM_0
 10
125.96496820407521
 20
515.35755466014712
 30
0.0
 40
4.9968401999999976
 50
203.56897999999919
 51
336.4310200000009
  0
ARC
  5
F0E3
  8
AM_0
 10
156.96550820407509
 20
497.359017660147
 30
0.0
 40
0.5005480100000002
 50
90.062622000000005
 51
179.93736999999049
  0
ARC
  5
F0E4
  8
AM_0
 10
357.9543212354705
 20
513.67223578951553
 30
0.0
 40
204.63676715666841
 50
184.10764570184199
 51
184.78412767205279
  0
ARC
  5
F0E5
  8
AM_0
 10
358.7662853716044
 20
513.72467663005057
 30
0.0
 40
205.44930125633391
 50
187.59407870998189
 51
188.88606759392101
  0
LINE
  5
F0E6
  8
AM_0
 10
157.30232736517991
 20
481.35454666014709
 30
0.0
 11
153.32502820407529
 21
481.35454666014709
 31
0.0
  0
LINE
  5
F0E7
  8
AM_0
 10
152.63496820407519
 20
481.99457566014712
 30
0.0
 11
157.0718622324892
 21
481.99457566014712
 31
0.0
  0
LINE
  5
F0E8
  8
AM_0
 10
152.42499820407531
 20
488.87455066014718
 30
0.0
 11
156.96495820407529
 21
488.87455066014718
 31
0.0
  0
LINE
  5
F0E9
  8
AM_0
 10
156.96495820407529
 20
489.35456266014711
 30
0.0
 11
153.32502820407529
 21
489.35456266014711
 31
0.0
  0
LINE
  5
F0EA
  8
AM_0
 10
152.42499820407531
 20
491.7945646601471
 30
0.0
 11
156.96495820407529
 21
491.7945646601471
 31
0.0
  0
LINE
  5
F0EB
  8
AM_0
 10
156.96495820407529
 20
491.35456066014717
 30
0.0
 11
153.32502820407529
 21
491.35456066014717
 31
0.0
  0
ARC
  5
F0EC
  8
AM_0
 10
152.41938820407529
 20
490.3345726601471
 30
0.0
 40
1.4600120099999989
 50
89.778814000002811
 51
270.22118999999998
  0
ARC
  5
F0ED
  8
AM_0
 10
153.5072182040754
 20
490.35454666014709
 30
0.0
 40
1.0000319699999971
 50
89.552707000000467
 51
270.44730000000118
  0
ARC
  5
F0EE
  8
AM_0
 10
358.28405000885829
 20
513.65436016921149
 30
0.0
 40
204.96200297080929
 50
186.94488316606041
 51
187.59240971813529
  0
ARC
  5
F0EF
  8
AM_0
 10
358.5246849701619
 20
513.72215924012812
 30
0.0
 40
205.20930746173451
 50
184.78473638767409
 51
185.45941055423361
  0
ARC
  5
F0F0
  8
AM_0
 10
357.87131607640111
 20
513.66295419173821
 30
0.0
 40
204.55326957220879
 50
185.46031399634279
 51
186.13700085447849
  0
LINE
  5
F0F1
  8
AM_0
 10
156.46495820407529
 20
497.35956766014709
 30
0.0
 11
156.46495820407529
 21
487.35955766014717
 31
0.0
  0
ARC
  5
F0F2
  8
AM_0
 10
156.95763820407529
 20
487.35221766014729
 30
0.0
 40
0.4927000100000001
 50
179.14455999999711
 51
270.85544000000289
  0
LINE
  5
F0F3
  8
AM_0
 10
152.29497820407511
 20
499.01456566014713
 30
0.0
 11
156.96495820407529
 21
499.01456566014713
 31
0.0
  0
LINE
  5
F0F4
  8
AM_0
 10
156.96495820407529
 20
499.35454666014732
 30
0.0
 11
153.32502820407529
 21
499.35454666014732
 31
0.0
  0
LINE
  5
F0F5
  8
AM_0
 10
156.96495820407529
 20
501.35456266014711
 30
0.0
 11
153.32502820407529
 21
501.35456266014711
 31
0.0
  0
LINE
  5
F0F6
  8
AM_0
 10
152.29497820407511
 20
501.67456966014709
 30
0.0
 11
156.96495820407529
 21
501.67456966014709
 31
0.0
  0
LINE
  5
F0F7
  8
AM_0
 10
152.23497820407499
 20
509.0845726601471
 30
0.0
 11
156.96495820407529
 21
509.0845726601471
 31
0.0
  0
LINE
  5
F0F8
  8
AM_0
 10
156.96495820407529
 20
509.35456366014711
 30
0.0
 11
153.32502820407529
 21
509.35456366014711
 31
0.0
  0
LINE
  5
F0F9
  8
AM_0
 10
156.96495820407529
 20
511.35456166014728
 30
0.0
 11
153.32502820407529
 21
511.35456166014728
 31
0.0
  0
LINE
  5
F0FA
  8
AM_0
 10
152.23497820407499
 20
511.62455266014712
 30
0.0
 11
156.96495820407529
 21
511.62455266014712
 31
0.0
  0
ARC
  5
F0FB
  8
AM_0
 10
357.69567788759031
 20
513.66049416700298
 30
0.0
 40
204.37787853975311
 50
181.97597713470401
 51
183.36186921970469
  0
ARC
  5
F0FC
  8
AM_0
 10
152.2887682040751
 20
500.34455266014709
 30
0.0
 40
1.3300160699999981
 50
89.73134399999789
 51
270.26864999999941
  0
ARC
  5
F0FD
  8
AM_0
 10
153.5072182040754
 20
500.35456066014717
 30
0.0
 40
1.0000319699999971
 50
89.552707000000467
 51
270.44730000000118
  0
ARC
  5
F0FE
  8
AM_0
 10
357.2485757362457
 20
513.65006225567708
 30
0.0
 40
203.93069622692141
 50
179.87077327205361
 51
180.22039274125009
  0
ARC
  5
F0FF
  8
AM_0
 10
356.21193617443993
 20
513.64181892315537
 30
0.0
 40
202.89403267033549
 50
180.21919094446369
 51
180.5706964946352
  0
ARC
  5
F100
  8
AM_0
 10
152.22675820407511
 20
510.35456266014711
 30
0.0
 40
1.270028039999999
 50
89.627211000000742
 51
270.3727900000024
  0
ARC
  5
F101
  8
AM_0
 10
153.5072182040754
 20
510.35456266014711
 30
0.0
 40
1.0000319699999971
 50
89.552707000000467
 51
270.44730000000118
  0
ARC
  5
F102
  8
AM_0
 10
357.9388995231659
 20
513.66759773412173
 30
0.0
 40
204.6212004872653
 50
181.28349981584489
 51
181.9756167481539
  0
LINE
  5
F103
  8
AM_0
 10
131.46495820407529
 20
517.85953666014734
 30
0.0
 11
133.96497820407529
 21
517.85953666014734
 31
0.0
  0
LINE
  5
F104
  8
AM_0
 10
125.96496820407521
 20
523.35956866014715
 30
0.0
 11
142.96497820407529
 21
523.35956866014715
 31
0.0
  0
ARC
  5
F105
  8
AM_0
 10
125.96496820407521
 20
515.35755466014712
 30
0.0
 40
4.998440399999998
 50
23.61099900000109
 51
156.38900000000541
  0
ARC
  5
F106
  8
AM_0
 10
357.79648618958771
 20
517.06249307226733
 30
0.0
 40
204.47815098782999
 50
175.2172449765915
 51
175.89452073852021
  0
LINE
  5
F107
  8
AM_0
 10
152.29497820407511
 20
531.70456966014694
 30
0.0
 11
156.96495820407529
 21
531.70456966014694
 31
0.0
  0
LINE
  5
F108
  8
AM_0
 10
152.23497820407499
 20
519.09455266014709
 30
0.0
 11
156.96495820407529
 21
519.09455266014709
 31
0.0
  0
LINE
  5
F109
  8
AM_0
 10
152.23497820407499
 20
521.63456266014714
 30
0.0
 11
156.96495820407529
 21
521.63456266014714
 31
0.0
  0
LINE
  5
F10A
  8
AM_0
 10
152.29497820407511
 20
529.03455466014714
 30
0.0
 11
156.96495820407529
 21
529.03455466014714
 31
0.0
  0
LINE
  5
F10B
  8
AM_0
 10
156.96495820407529
 20
519.35456266014705
 30
0.0
 11
153.32502820407529
 21
519.35456266014705
 31
0.0
  0
LINE
  5
F10C
  8
AM_0
 10
156.96495820407529
 20
521.35456366014705
 30
0.0
 11
153.32502820407529
 21
521.35456366014705
 31
0.0
  0
LINE
  5
F10D
  8
AM_0
 10
156.96495820407529
 20
529.35456166014717
 30
0.0
 11
153.32502820407529
 21
529.35456166014717
 31
0.0
  0
LINE
  5
F10E
  8
AM_0
 10
156.96495820407529
 20
531.35456266014705
 30
0.0
 11
153.32502820407529
 21
531.35456266014705
 31
0.0
  0
ARC
  5
F10F
  8
AM_0
 10
358.01615141132868
 20
517.04714160006893
 30
0.0
 40
204.69842337270779
 50
178.02572260412779
 51
178.71785518950389
  0
ARC
  5
F110
  8
AM_0
 10
357.9586021235873
 20
517.06679100378665
 30
0.0
 40
204.64076721509861
 50
180.13080539050151
 51
180.4794013531876
  0
ARC
  5
F111
  8
AM_0
 10
354.92868284545381
 20
517.06740822567042
 30
0.0
 40
201.61085738285439
 50
179.42527489174199
 51
180.13294661222409
  0
ARC
  5
F112
  8
AM_0
 10
152.22675820407511
 20
520.36454266014721
 30
0.0
 40
1.270028039999999
 50
89.627211000000742
 51
270.3727900000024
  0
ARC
  5
F113
  8
AM_0
 10
153.5072182040754
 20
520.35456166014728
 30
0.0
 40
1.0000319699999971
 50
89.552707000000467
 51
270.44730000000118
  0
ARC
  5
F114
  8
AM_0
 10
359.34136678629551
 20
516.99031567711563
 30
0.0
 40
206.0248100930055
 50
177.33501004864121
 51
178.0226252694244
  0
ARC
  5
F115
  8
AM_0
 10
358.02450111331541
 20
517.04449068633767
 30
0.0
 40
204.70684984457009
 50
176.64084313942831
 51
177.33301926919839
  0
ARC
  5
F116
  8
AM_0
 10
153.5072182040754
 20
530.35456366014705
 30
0.0
 40
1.0000319699999971
 50
89.552707000000467
 51
270.44730000000118
  0
ARC
  5
F117
  8
AM_0
 10
152.2887682040751
 20
530.36957866014723
 30
0.0
 40
1.335016049999999
 50
89.732355000002002
 51
270.26763000000221
  0
ARC
  5
F118
  8
AM_0
 10
358.07680459252867
 20
517.05434786758019
 30
0.0
 40
204.75756069728581
 50
171.10266677355361
 51
172.3979273485285
  0
LINE
  5
F119
  8
AM_0
 10
152.42499820407531
 20
538.92454066014704
 30
0.0
 11
156.96495820407529
 21
538.92454066014704
 31
0.0
  0
LINE
  5
F11A
  8
AM_0
 10
152.42499820407531
 20
541.84455466014697
 30
0.0
 11
156.96495820407529
 21
541.84455466014697
 31
0.0
  0
LINE
  5
F11B
  8
AM_0
 10
152.63496820407519
 20
548.72455966014707
 30
0.0
 11
157.07363080802699
 21
548.72455966014707
 31
0.0
  0
LINE
  5
F11C
  8
AM_0
 10
156.96495820407529
 20
539.35456366014705
 30
0.0
 11
153.32502820407529
 21
539.35456366014705
 31
0.0
  0
LINE
  5
F11D
  8
AM_0
 10
156.96495820407529
 20
541.35456466014705
 30
0.0
 11
153.32502820407529
 21
541.35456466014705
 31
0.0
  0
LINE
  5
F11E
  8
AM_0
 10
157.30048432510699
 20
549.35456266014717
 30
0.0
 11
153.32502820407529
 21
549.35456266014717
 31
0.0
  0
ARC
  5
F11F
  8
AM_0
 10
152.41932820407521
 20
540.38456266014714
 30
0.0
 40
1.4600120099999989
 50
89.777016999998949
 51
270.22298999999867
  0
ARC
  5
F120
  8
AM_0
 10
153.5072182040754
 20
540.35456266014705
 30
0.0
 40
1.0000319699999971
 50
89.552707000000467
 51
270.44730000000118
  0
ARC
  5
F121
  8
AM_0
 10
358.40224984969689
 20
517.00496448596618
 30
0.0
 40
205.086602105558
 50
173.86479656848491
 51
175.21533938006169
  0
ARC
  5
F122
  8
AM_0
 10
357.74596771189027
 20
517.10363747995029
 30
0.0
 40
204.4231110527293
 50
172.39935376234251
 51
173.04804061342691
  0
LINE
  5
F123
  8
AM_0
 10
156.46495820407529
 20
543.35955766014683
 30
0.0
 11
156.46495820407529
 21
533.35956766014715
 31
0.0
  0
ARC
  5
F124
  8
AM_0
 10
156.95744820407521
 20
533.35205766014701
 30
0.0
 40
0.49254802
 50
179.12656000000189
 51
270.87345000000158
  0
ARC
  5
F125
  8
AM_0
 10
156.96550820407509
 20
543.35901766014683
 30
0.0
 40
0.5005480100000002
 50
90.062622000000005
 51
179.93736999999049
  0
LINE
  5
F126
  8
AM_0
 10
94.964978204075294
 20
572.35958266014723
 30
0.0
 11
142.96497820407529
 21
572.35958266014723
 31
0.0
  0
LINE
  5
F127
  8
AM_0
 10
95.464958204075245
 20
559.24955266014729
 30
0.0
 11
142.96497820407529
 21
559.24955266014729
 31
0.0
  0
LINE
  5
F128
  8
AM_0
 10
92.964968204075205
 20
558.61955266014706
 30
0.0
 11
92.964968204075205
 21
570.35954266014721
 31
0.0
  0
ARC
  5
F129
  8
AM_0
 10
93.866648204075261
 20
555.75275266014717
 30
0.0
 40
3.0016479
 50
84.295613000003087
 51
180.06134999999779
  0
LINE
  5
F12A
  8
AM_0
 10
94.164968204075237
 20
549.6495766601472
 30
0.0
 11
94.164968204075237
 21
558.84956266014717
 31
0.0
  0
LINE
  5
F12B
  8
AM_0
 10
90.864998204075235
 20
552.7495426601472
 30
0.0
 11
90.864998204075235
 21
555.74954266014697
 31
0.0
  0
LINE
  5
F12C
  8
AM_0
 10
94.164968204075237
 20
549.6495766601472
 30
0.0
 11
95.464958204075245
 21
549.6495766601472
 31
0.0
  0
LINE
  5
F12D
  8
AM_0
 10
94.164968204075237
 20
558.84956266014717
 30
0.0
 11
95.464958204075245
 21
558.84956266014717
 31
0.0
  0
ARC
  5
F12E
  8
AM_0
 10
94.964468204075132
 20
570.36005266014695
 30
0.0
 40
1.9994960399999999
 50
89.985542999997904
 51
180.0144599999999
  0
LINE
  5
F12F
  8
AM_0
 10
142.96497820407529
 20
568.35455266014719
 30
0.0
 11
150.96495820407549
 21
568.35455266014719
 31
0.0
  0
LINE
  5
F130
  8
AM_0
 10
142.96497820407529
 20
568.35956266014716
 30
0.0
 11
150.96495820407549
 21
568.35956266014716
 31
0.0
  0
LINE
  5
F131
  8
AM_0
 10
143.65497820407529
 20
558.54455266014713
 30
0.0
 11
149.88501820407529
 21
558.54455266014713
 31
0.0
  0
LINE
  5
F132
  8
AM_0
 10
150.96495820407549
 20
566.14457266014711
 30
0.0
 11
152.2550182040753
 21
574.63457266014711
 31
0.0
  0
LINE
  5
F133
  8
AM_0
 10
150.96495820407549
 20
564.7945726601472
 30
0.0
 11
152.24493820407511
 21
572.80454266014726
 31
0.0
  0
LINE
  5
F134
  8
AM_0
 10
150.96495820407549
 20
563.4545626601473
 30
0.0
 11
152.20494820407529
 21
570.01457266014722
 31
0.0
  0
LINE
  5
F135
  8
AM_0
 10
150.96495820407549
 20
566.14454266014707
 30
0.0
 11
152.27496820407529
 21
575.52455266014726
 31
0.0
  0
LINE
  5
F136
  8
AM_0
 10
156.3249682040753
 20
552.00455266014728
 30
0.0
 11
150.96495820407549
 21
563.45453266014715
 31
0.0
  0
ARC
  5
F137
  8
AM_0
 10
154.22772820407511
 20
574.33997266014705
 30
0.0
 40
1.9945880699999989
 50
89.790753000002397
 51
171.507090000001
  0
ARC
  5
F138
  8
AM_0
 10
154.2133882040751
 20
572.49143266014721
 30
0.0
 40
1.9931281199999991
 50
89.953373000000497
 51
170.96118000000021
  0
ARC
  5
F139
  8
AM_0
 10
154.16784820407511
 20
569.6476426601472
 30
0.0
 40
1.9969040699999989
 50
90.083473999999597
 51
169.41256000000141
  0
ARC
  5
F13A
  8
AM_0
 10
154.24962820407509
 20
575.2510726601472
 30
0.0
 40
1.9934921999999999
 50
89.846091000001394
 51
172.1147400000026
  0
ARC
  5
F13B
  8
AM_0
 10
243.9649582040748
 20
481.35956766014721
 30
0.0
 40
2.0
 50
270.0
 51
0.0
  0
ARC
  5
F13C
  8
AM_0
 10
255.7849882040752
 20
480.31455166014729
 30
0.0
 40
1.675004159999999
 50
270.0
 51
90.00000299999769
  0
ARC
  5
F13D
  8
AM_0
 10
255.7849882040752
 20
480.31455166014729
 30
0.0
 40
1.6800080999999989
 50
270.0
 51
90.00000299999769
  0
ARC
  5
F13E
  8
AM_0
 10
252.3049882040751
 20
480.35456266014711
 30
0.0
 40
1.000004069999999
 50
270.0
 51
90.00000299999769
  0
LINE
  5
F13F
  8
AM_0
 10
258.9649882040751
 20
571.35956266014716
 30
0.0
 11
258.9649882040751
 21
459.35955166014719
 31
0.0
  0
LINE
  5
F140
  8
ﾁｭｳｼﾝｾﾝ1
 10
207.96495820407529
 20
555.98458216014728
 30
0.0
 11
207.96495820407529
 21
474.7345531601473
 31
0.0
  0
LINE
  5
F141
  8
AM_0
 10
253.504958204075
 20
462.35455966014717
 30
0.0
 11
258.9649882040751
 21
462.35455966014717
 31
0.0
  0
LINE
  5
F142
  8
AM_0
 10
176.46495820407529
 20
477.13456066014732
 30
0.0
 11
258.9649882040751
 21
477.13456066014732
 31
0.0
  0
LINE
  5
F143
  8
AM_0
 10
207.96495820407529
 20
478.63456066014709
 30
0.0
 11
255.7849882040752
 21
478.63456066014709
 31
0.0
  0
ARC
  5
F144
  8
AM_0
 10
187.9577782040754
 20
458.23174366014717
 30
0.0
 40
2.007180029999998
 50
270.20461999999759
 51
359.7953800000023
  0
ARC
  5
F145
  8
AM_0
 10
187.95696820407531
 20
455.47257166014708
 30
0.0
 40
2.0080361999999998
 50
270.22878999999938
 51
359.77121000000062
  0
ARC
  5
F146
  8
AM_0
 10
187.96167820407521
 20
456.3878416601471
 30
0.0
 40
2.003279969999999
 50
270.09378999999711
 51
359.90621000000289
  0
LINE
  5
F147
  8
AM_0
 10
189.96495820407529
 20
455.46456166014713
 30
0.0
 11
189.96495820407529
 21
459.07454566014718
 31
0.0
  0
LINE
  5
F148
  8
AM_0
 10
257.4649882040751
 20
477.13456066014732
 30
0.0
 11
253.0149682040751
 21
460.55455666014711
 31
0.0
  0
ARC
  5
F149
  8
AM_0
 10
251.08209820407509
 20
461.07669766014732
 30
0.0
 40
2.0021281800000001
 50
270.0815199999999
 51
344.88329999999871
  0
LINE
  5
F14A
  8
AM_0
 10
258.9649882040751
 20
459.35955166014719
 30
0.0
 11
266.96496820407521
 21
459.35955166014719
 31
0.0
  0
LINE
  5
F14B
  8
AM_0
 10
258.9649882040751
 20
469.35956566014721
 30
0.0
 11
266.96496820407521
 21
469.35956566014721
 31
0.0
  0
LINE
  5
F14C
  8
AM_0
 10
253.504958204075
 20
568.35455266014719
 30
0.0
 11
258.9649882040751
 21
568.35455266014719
 31
0.0
  0
ARC
  5
F14D
  8
AM_0
 10
258.61815820407509
 20
555.08231266014695
 30
0.0
 40
1.502776079999999
 50
194.75642999999971
 51
269.8775900000029
  0
LINE
  5
F14E
  8
AM_0
 10
176.46495820407529
 20
553.58453266014726
 30
0.0
 11
258.9649882040751
 21
553.58453266014726
 31
0.0
  0
ARC
  5
F14F
  8
AM_0
 10
243.9649582040748
 20
549.35956766014715
 30
0.0
 40
2.0
 50
0.0
 51
90.0
  0
CIRCLE
  5
F150
  8
AM_0
 10
240.4649582040748
 20
546.35956766014692
 30
0.0
 40
3.4999999999999631
  0
ARC
  5
F151
  8
AM_0
 10
255.7849882040752
 20
550.40455066014704
 30
0.0
 40
1.675004159999999
 50
270.0
 51
90.00000299999769
  0
ARC
  5
F152
  8
AM_0
 10
255.7849882040752
 20
550.40455066014704
 30
0.0
 40
1.6800080999999989
 50
270.0
 51
90.00000299999769
  0
ARC
  5
F153
  8
AM_0
 10
252.3049882040751
 20
550.35456466014705
 30
0.0
 40
1.000004069999999
 50
270.0
 51
90.00000299999769
  0
LINE
  5
F154
  8
AM_0
 10
243.4649582040756
 20
509.85956766014709
 30
0.0
 11
243.46495820407529
 21
520.85956766014715
 31
0.0
  0
LINE
  5
F155
  8
AM_0
 10
239.36495820407509
 20
538.40982019184105
 30
0.0
 11
239.3649582040749
 21
492.30931512845331
 31
0.0
  0
LINE
  5
F156
  8
AM_0
 10
241.4649582040754
 20
537.85956766014715
 30
0.0
 11
241.4649582040748
 21
492.85956766014709
 31
0.0
  0
LINE
  5
F157
  8
AM_0
 10
248.73498820407511
 20
545.35456366014716
 30
0.0
 11
248.73498820407511
 21
485.35456066014711
 31
0.0
  0
LINE
  5
F158
  8
AM_0
 10
229.5051602294306
 20
481.86961816648562
 30
0.0
 11
238.95490769773659
 21
491.31936563479172
 31
0.0
  0
LINE
  5
F159
  8
AM_0
 10
238.9549076977361
 20
491.31936563479121
 30
0.0
 11
229.50515222943091
 21
481.86961016648593
 31
0.0
  0
ARC
  5
F15A
  8
AM_0
 10
228.5152027357698
 20
482.85955966014723
 30
0.0
 40
1.399999999999999
 50
270.0
 51
315.00000000000921
1001
GENIUS_GENODEF_13
1002
{
1000
HIER
1070
     0
1002
}
1002
{
1000
MANEDIT
1070
     0
1002
}
1002
{
1000
NOSEL
1070
     0
1002
}
1002
{
1000
BEHIND
1070
     0
1002
}
1002
{
1000
OTHER
1070
     0
1002
}
1002
{
1000
REACTOR
1002
}
1001
GENIUS_GENOBJ-N-FIL_13
1002
{
1000
OWNER
1000
GEN
1002
}
  0
ARC
  5
F15B
  8
AM_0
 10
243.9649582040748
 20
488.85956766014709
 30
0.0
 40
2.0
 50
0.0
 51
90.0
  0
LINE
  5
F15C
  8
AM_0
 10
245.964958204075
 20
485.27685557582032
 30
0.0
 11
248.73498820407511
 21
485.3545456601471
 31
0.0
  0
LINE
  5
F15D
  8
AM_0
 10
252.3049882040751
 20
481.35454666014709
 30
0.0
 11
245.964958204075
 21
481.35454666014709
 31
0.0
  0
LINE
  5
F15E
  8
AM_0
 10
255.7849882040752
 20
481.99457566014712
 30
0.0
 11
245.964958204075
 21
481.99457566014712
 31
0.0
  0
LINE
  5
F15F
  8
AM_0
 10
237.82638652286809
 20
484.35956766014829
 30
0.0
 11
243.10352988528149
 21
484.35956766014817
 31
0.0
  0
CIRCLE
  5
F160
  8
AM_0
 10
240.4649582040748
 20
484.35956766014709
 30
0.0
 40
3.4999999999999631
  0
LINE
  5
F161
  8
AM_0
 10
240.46495820407469
 20
486.99813934135392
 30
0.0
 11
240.46495820407469
 21
481.72099597894049
 31
0.0
  0
LINE
  5
F162
  8
AM_0
 10
245.964958204075
 20
481.35956766014721
 30
0.0
 11
245.964958204075
 21
488.85956766014709
 31
0.0
  0
ARC
  5
F163
  8
AM_0
 10
237.9649582040752
 20
492.30931512845331
 30
0.0
 40
1.4000000000006301
 50
314.99999999997237
 51
0.0
  0
LINE
  5
F164
  8
AM_0
 10
243.9649582040748
 20
490.85956766014698
 30
0.0
 11
243.464958204075
 21
490.85956766014698
 31
0.0
  0
ARC
  5
F165
  8
AM_0
 10
243.464958204075
 20
492.85956766014709
 30
0.0
 40
2.0
 50
180.0
 51
270.0
  0
LINE
  5
F166
  8
AM_0
 10
241.464958204075
 20
509.85956766014709
 30
0.0
 11
243.4649582040754
 21
509.85956766014709
 31
0.0
  0
LINE
  5
F167
  8
AM_0
 10
229.50516022943131
 20
548.84951715380805
 30
0.0
 11
238.9549076977361
 21
539.3997696855032
 31
0.0
  0
ARC
  5
F168
  8
AM_0
 10
228.5152107357691
 20
547.85956766014715
 30
0.0
 40
1.40000000000077
 50
44.999999999972353
 51
89.999999999954412
  0
LINE
  5
F169
  8
AM_0
 10
243.46495820407529
 20
520.85956766014715
 30
0.0
 11
241.4649582040752
 21
520.85956766014715
 31
0.0
  0
LINE
  5
F16A
  8
AM_0
 10
252.3049882040751
 20
549.36458866014732
 30
0.0
 11
245.964958204075
 21
549.36458866014732
 31
0.0
  0
ARC
  5
F16B
  8
AM_0
 10
243.9649582040748
 20
541.85956766014715
 30
0.0
 40
2.0
 50
270.0
 51
0.0
  0
LINE
  5
F16C
  8
AM_0
 10
245.964958204075
 20
545.44226474447419
 30
0.0
 11
248.73498820407511
 21
545.36457466014713
 31
0.0
  0
LINE
  5
F16D
  8
AM_0
 10
255.7849882040752
 20
548.72455966014707
 30
0.0
 11
245.964958204075
 21
548.72455966014707
 31
0.0
  0
LINE
  5
F16E
  8
AM_0
 10
237.3649582040749
 20
540.98971917916333
 30
0.0
 11
238.95490769773619
 21
539.3997696855032
 31
0.0
  0
ARC
  5
F16F
  8
AM_0
 10
237.9649582040752
 20
538.40982019184105
 30
0.0
 40
1.400000000000118
 50
0.0
 51
45.00000000002764
  0
LINE
  5
F170
  8
AM_0
 10
243.464958204075
 20
539.85956766014715
 30
0.0
 11
243.9649582040748
 21
539.85956766014715
 31
0.0
  0
ARC
  5
F171
  8
AM_0
 10
243.464958204075
 20
537.85956766014715
 30
0.0
 40
2.0
 50
90.0
 51
180.0
  0
LINE
  5
F172
  8
AM_0
 10
237.82638652286809
 20
546.35956766014795
 30
0.0
 11
243.10352988528149
 21
546.35956766014795
 31
0.0
  0
LINE
  5
F173
  8
AM_0
 10
240.46495820407469
 20
548.99813934135364
 30
0.0
 11
240.46495820407469
 21
543.7209959789401
 31
0.0
  0
LINE
  5
F174
  8
AM_0
 10
245.964958204075
 20
541.85956766014715
 30
0.0
 11
245.964958204075
 21
549.35956766014715
 31
0.0
  0
LINE
  5
F175
  8
AM_0
 10
245.964958204075
 20
541.85956766014715
 30
0.0
 11
245.964958204075
 21
549.35956766014715
 31
0.0
  0
ARC
  5
F176
  8
AM_0
 10
187.96368820407531
 20
575.24327266014723
 30
0.0
 40
2.0012880000000002
 50
0.0368719990021973
 51
89.963125999997985
  0
ARC
  5
F177
  8
AM_0
 10
187.9645582040753
 20
572.48414266014709
 30
0.0
 40
2.0004079799999981
 50
0.0116490000006953
 51
89.98834999999788
  0
ARC
  5
F178
  8
AM_0
 10
187.96344820407541
 20
574.33301266014723
 30
0.0
 40
2.0015440500000001
 50
0.0442139990008822
 51
89.955783999999113
  0
LINE
  5
F179
  8
AM_0
 10
189.96495820407529
 20
575.24456266014715
 30
0.0
 11
189.96495820407529
 21
571.64456266014736
 31
0.0
  0
LINE
  5
F17A
  8
AM_0
 10
257.16498820407509
 20
554.6945626601472
 30
0.0
 11
253.01502820407521
 21
570.15455266014715
 31
0.0
  0
ARC
  5
F17B
  8
AM_0
 10
251.08215820407511
 20
569.64596266014723
 30
0.0
 40
1.99860411
 50
14.74271599999944
 51
89.919516000001124
  0
LINE
  5
F17C
  8
AM_0
 10
258.9649882040751
 20
483.41956366014728
 30
0.0
 11
266.96496820407521
 21
483.41956366014728
 31
0.0
  0
LINE
  5
F17D
  8
AM_0
 10
258.9649882040751
 20
547.29957166014719
 30
0.0
 11
266.96496820407521
 21
547.29957166014719
 31
0.0
  0
LINE
  5
F17E
  8
AM_0
 10
258.9649882040751
 20
561.35954266014733
 30
0.0
 11
266.96496820407521
 21
561.35954266014733
 31
0.0
  0
LINE
  5
F17F
  8
AM_0
 10
258.9649882040751
 20
571.35956266014716
 30
0.0
 11
266.96496820407521
 21
571.35956266014716
 31
0.0
  0
LINE
  5
F180
  8
AM_0
 10
362.47107383566521
 20
557.85960857699126
 30
0.0
 11
291.47107145194752
 21
557.85960857699126
 31
0.0
  0
LINE
  5
F182
  8
AM_0
 10
296.47107145194752
 20
440.35957464245348
 30
0.0
 11
367.97107428269987
 21
440.35957464245348
 31
0.0
  0
LINE
  5
F34B
  8
ﾁｭｳｼﾝｾﾝ1
 10
541.35706615355764
 20
242.11209043751981
 30
0.0
 11
744.95237753655852
 21
242.11209043751981
 31
0.0
  0
LINE
  5
F34C
  8
AM_0
 10
598.15472012395355
 20
227.1120899904848
 30
0.0
 11
574.15472012395344
 21
230.1120904375197
 31
0.0
  0
LINE
  5
F34D
  8
AM_0
 10
598.15472012395355
 20
257.1120908845545
 30
0.0
 11
574.15472012395344
 21
254.11209043751961
 31
0.0
  0
LINE
  5
F34E
  8
AM_0
 10
574.15472012395344
 20
251.6120904375195
 30
0.0
 11
546.15472012395344
 21
251.6120904375195
 31
0.0
  0
LINE
  5
F34F
  8
AM_0
 10
546.15472012395344
 20
232.61209043751981
 30
0.0
 11
574.15472012395344
 21
232.6120904345577
 31
0.0
  0
LINE
  5
F350
  8
AM_0
 10
546.15472012395344
 20
254.11209043751961
 30
0.0
 11
568.15472012395344
 21
254.11209043751961
 31
0.0
  0
LINE
  5
F351
  8
AM_0
 10
574.15472012395344
 20
254.11209043751961
 30
0.0
 11
574.15472012395344
 21
230.1120904375197
 31
0.0
  0
LINE
  5
F352
  8
AM_0
 10
568.15472012395344
 20
254.11209043751961
 30
0.0
 11
568.15472012395344
 21
251.6120904375195
 31
0.0
  0
LINE
  5
F353
  8
AM_0
 10
546.15472012395344
 20
232.61209043751981
 30
0.0
 11
546.15472012395344
 21
254.11209043751961
 31
0.0
  0
LINE
  5
F354
  8
AM_0
 10
688.15472356616272
 20
227.1120899904848
 30
0.0
 11
712.15472356616272
 21
230.1120904375197
 31
0.0
  0
LINE
  5
F355
  8
AM_0
 10
688.15472356616272
 20
257.1120908845545
 30
0.0
 11
712.15472356616272
 21
254.11209043751961
 31
0.0
  0
LINE
  5
F356
  8
AM_0
 10
712.15472356616272
 20
251.6120904375195
 30
0.0
 11
740.15472356616283
 21
251.6120904375195
 31
0.0
  0
LINE
  5
F357
  8
AM_0
 10
740.15472356616283
 20
232.61209043751981
 30
0.0
 11
712.15472356616272
 21
232.6120904345577
 31
0.0
  0
LINE
  5
F358
  8
AM_0
 10
740.15472356616283
 20
254.11209043751961
 30
0.0
 11
718.15472356616272
 21
254.11209043751961
 31
0.0
  0
LINE
  5
F359
  8
AM_0
 10
712.15472356616272
 20
254.11209043751961
 30
0.0
 11
712.15472356616272
 21
230.1120904375197
 31
0.0
  0
LINE
  5
F35A
  8
AM_0
 10
718.15472356616272
 20
254.11209043751961
 30
0.0
 11
718.15472356616272
 21
251.6120904375195
 31
0.0
  0
LINE
  5
F35B
  8
AM_0
 10
740.15472356616283
 20
232.61209043751981
 30
0.0
 11
740.15472356616283
 21
254.11209043751961
 31
0.0
  0
ARC
  5
F35C
  8
AM_0
 10
643.15472184505825
 20
242.11209043751981
 30
0.0
 40
56.5
 50
194.1119084390975
 51
215.01862826208421
  0
ARC
  5
F35D
  8
AM_0
 10
643.15472184505825
 20
242.11209043751981
 30
0.0
 40
56.5
 50
14.11190843909726
 51
35.018628262084228
  0
CIRCLE
  5
F36E
  8
0
 10
377.47107428269987
 20
242.1120904375197
 30
0.0
 40
15.00000044703483
  0
ARC
  5
F36F
  8
0
 10
377.47107428269987
 20
242.1120904375197
 30
0.0
 40
9.5000000000000124
 50
108.4084801705864
 51
71.591519829413585
  0
CIRCLE
  5
F370
  8
ｽﾝﾎﾟｳｾﾝ
 10
377.47107428269987
 20
242.1120904375197
 30
0.0
 40
3.0
  0
LINE
  5
F371
  8
0
 10
380.47107428269987
 20
248.1120904375197
 30
0.0
 11
374.47107428269987
 21
248.1120904375197
 31
0.0
  0
LINE
  5
F372
  8
0
 10
380.47107428269987
 20
254.1120904375197
 30
0.0
 11
380.47107428269987
 21
248.1120904375197
 31
0.0
  0
LINE
  5
F373
  8
0
 10
374.47107428269987
 20
254.1120904375197
 30
0.0
 11
380.47107428269987
 21
254.1120904375197
 31
0.0
  0
LINE
  5
F374
  8
0
 10
374.47107428269987
 20
248.1120904375197
 30
0.0
 11
374.47107428269987
 21
254.1120904375197
 31
0.0
  0
CIRCLE
  5
F375
  8
AM_0
 10
377.47107428269987
 20
242.1120904375197
 30
0.0
 40
2.5
  0
LINE
  5
F392
  8
ﾁｭｳｼﾝｾﾝ1
 10
377.4710742826997
 20
616.06846332331781
 30
0.0
 11
377.47107428269987
 21
414.65070585226641
 31
0.0
  0
LINE
  5
F393
  8
0
 10
362.47107383566521
 20
470.35961459151832
 30
0.0
 11
365.47107428269999
 21
446.35961459151821
 31
0.0
  0
LINE
  5
F394
  8
0
 10
392.47107472973482
 20
470.35961459151832
 30
0.0
 11
389.47107428269987
 21
446.35961459151821
 31
0.0
  0
LINE
  5
F395
  8
AM_0
 10
365.47107428269999
 20
446.35961459151821
 30
0.0
 11
389.47107428269987
 21
446.35961459151821
 31
0.0
  0
LINE
  5
F396
  8
0
 10
386.97107428269987
 20
418.35961459151798
 30
0.0
 11
367.97107428269987
 21
418.35961459151798
 31
0.0
  0
LINE
  5
F397
  8
0
 10
386.97107428269987
 20
418.35961459151798
 30
0.0
 11
386.97107428566193
 21
446.35961459151821
 31
0.0
  0
LINE
  5
F398
  8
0
 10
367.97107428269987
 20
446.35961459151821
 30
0.0
 11
367.97107428269987
 21
418.35961459151798
 31
0.0
  0
LINE
  5
F399
  8
0
 10
374.47107428269982
 20
440.35961459151832
 30
0.0
 11
380.47107428269959
 21
440.3596145915181
 31
0.0
  0
LINE
  5
F39A
  8
AM_0
 10
374.47107428269982
 20
418.35961459151798
 30
0.0
 11
374.47107428269982
 21
440.35961459151838
 31
0.0
  0
LINE
  5
F39B
  8
AM_0
 10
380.47107428269982
 20
418.35961459151798
 30
0.0
 11
380.47107428269987
 21
440.3596145915181
 31
0.0
  0
ARC
  5
F39C
  8
AM_0
 10
377.47107428269982
 20
440.35961459151832
 30
0.0
 40
2.9999999999999432
 50
0.0
 51
180.0
  0
LINE
  5
F39D
  8
0
 10
362.47107383566521
 20
560.35957064431182
 30
0.0
 11
365.47107428269999
 21
584.35957064431159
 31
0.0
  0
LINE
  5
F39E
  8
0
 10
392.47107472973482
 20
560.35957064431182
 30
0.0
 11
389.47107428269987
 21
584.35957064431159
 31
0.0
  0
LINE
  5
F39F
  8
AM_0
 10
365.47107428269999
 20
584.35957064431159
 30
0.0
 11
389.47107428269987
 21
584.35957064431159
 31
0.0
  0
LINE
  5
F3A0
  8
0
 10
386.97107428269987
 20
612.35957064431193
 30
0.0
 11
367.97107428269987
 21
612.35957064431193
 31
0.0
  0
LINE
  5
F3A1
  8
0
 10
386.97107428269987
 20
612.35957064431193
 30
0.0
 11
386.97107428566193
 21
584.35957064431159
 31
0.0
  0
LINE
  5
F3A2
  8
0
 10
367.97107428269987
 20
584.35957064431159
 30
0.0
 11
367.97107428269987
 21
612.35957064431193
 31
0.0
  0
LINE
  5
F3A3
  8
0
 10
374.47107428269982
 20
590.3595706443117
 30
0.0
 11
380.47107428269959
 21
590.35957064431193
 31
0.0
  0
LINE
  5
F3A4
  8
AM_0
 10
374.47107428269982
 20
612.35957064431193
 30
0.0
 11
374.47107428269982
 21
590.3595706443117
 31
0.0
  0
LINE
  5
F3A5
  8
AM_0
 10
380.47107428269982
 20
612.35957064431193
 30
0.0
 11
380.47107428269987
 21
590.35957064431193
 31
0.0
  0
ARC
  5
F3A6
  8
AM_0
 10
377.47107428269982
 20
590.3595706443117
 30
0.0
 40
2.9999999999999432
 50
180.0
 51
0.0
  0
LINE
  5
F3A7
  8
AM_0
 10
386.97107428502733
 20
590.35960857699115
 30
0.0
 11
423.47107553486558
 21
590.35960857699115
 31
0.0
  0
LINE
  5
F3A8
  8
AM_0
 10
386.97107430089522
 20
440.35957464245348
 30
0.0
 11
423.47107553486558
 21
440.35957464245331
 31
0.0
  0
LINE
  5
F425
  8
AM_0
 10
430.47077119293112
 20
490.3944875126835
 30
0.0
 11
429.37171160321361
 21
553.35956923750246
 31
0.0
  0
LINE
  5
F426
  8
AM_0
 10
430.47138019094768
 20
490.35956735995609
 30
0.0
 11
430.2444643361959
 21
477.359566747808
 31
0.0
  0
LINE
  5
F427
  8
AM_0
 10
430.47107580261832
 20
282.11209162961262
 30
0.0
 11
430.47107580261832
 21
202.1120892454268
 31
0.0
  0
ARC
  5
F428
  8
AM_0
 10
419.4710754747926
 20
202.1120892454268
 30
0.0
 40
11.000000327825539
 50
324.90319931238878
 51
0.0
  0
TEXT
  5
F4D4
  8
AM_0
 10
530.9869225260511
 20
497.2799770384774
 30
0.0
 40
10.0
  1
VC01-007KBT~VC01-060KBT
1001
ACAD
1000
MTEXTBEGIN
1070
    73
1070
     1
1070
    44
1040
1.0
1070
    74
1070
     0
1000
MTEXTEND
  0
VIEWPORT
  5
89
 67
     1
  8
0
 10
210.0
 20
148.5
 30
0.0
 40
420.0
 41
297.0
 68
     1
 69
     1
1001
ACAD
1000
MVIEW
1002
{
1070
    16
1010
0.0
1020
0.0
1030
0.0
1010
0.0
1020
0.0
1030
1.0
1040
0.0
1040
297.0
1040
221.70154043645701
1040
148.5
1040
50.0
1040
0.0
1040
0.0
1070
     0
1070
   100
1070
     1
1070
     1
1070
     0
1070
     0
1070
     0
1070
     0
1040
0.0
1040
0.0
1040
0.0
1040
10.0
1040
10.0
1040
10.0
1040
10.0
1070
     0
1002
{
1002
}
1002
}
1001
GENIUS_GENOREF_13
1005
1B94
1001
GENIUS_GENSCREG_15
1000
PF
1040
1.0
1000
DF
1040
1.0
1000
MIN
1011
0.0
1021
0.0
1031
0.0
1021
0.0
1031
0.0
1000
MAX
1011
420.0
1021
0.0
1031
0.0
1021
297.0
1031
0.0
1000
FLAGS
1070
     4
  0
ENDSEC
  0
EOF
