  0
SECTION
  2
HEADER
  9
$ACADVER
  1
AC1009
  9
$INSBASE
 10
0.0
 20
0.0
 30
0.0
  9
$EXTMIN
 10
-244.6080146661252
 20
195.3571850228922
 30
-0.0015258207003583
  9
$EXTMAX
 10
354.22595184872938
 20
607.42570994634536
 30
0.0000000349246037
  9
$LIMMIN
 10
0.0
 20
0.0
  9
$LIMMAX
 10
853.5
 20
555.00000000000011
  9
$ORTHOMODE
 70
     0
  9
$REGENMODE
 70
     1
  9
$FILLMODE
 70
     1
  9
$QTEXTMODE
 70
     0
  9
$MIRRTEXT
 70
     1
  9
$DRAGMODE
 70
     2
  9
$LTSCALE
 40
3.0
  9
$OSMODE
 70
   551
  9
$ATTMODE
 70
     1
  9
$TEXTSIZE
 40
2.5
  9
$TRACEWID
 40
1.0
  9
$TEXTSTYLE
  7
STANDARD
  9
$CLAYER
  8
AM_0
  9
$CELTYPE
  6
BYLAYER
  9
$CECOLOR
 62
   256
  9
$DIMSCALE
 40
3.0
  9
$DIMASZ
 40
2.5
  9
$DIMEXO
 40
1.0
  9
$DIMDLI
 40
7.0
  9
$DIMRND
 40
0.0
  9
$DIMDLE
 40
0.0
  9
$DIMEXE
 40
1.0
  9
$DIMTP
 40
0.1
  9
$DIMTM
 40
0.1000000001
  9
$DIMTXT
 40
2.5
  9
$DIMCEN
 40
0.0
  9
$DIMTSZ
 40
0.0
  9
$DIMTOL
 70
     0
  9
$DIMLIM
 70
     0
  9
$DIMTIH
 70
     0
  9
$DIMTOH
 70
     0
  9
$DIMSE1
 70
     0
  9
$DIMSE2
 70
     0
  9
$DIMTAD
 70
     3
  9
$DIMZIN
 70
     8
  9
$DIMBLK
  1

  9
$DIMASO
 70
     1
  9
$DIMSHO
 70
     1
  9
$DIMPOST
  1

  9
$DIMAPOST
  1
"
  9
$DIMALT
 70
     0
  9
$DIMALTD
 70
     2
  9
$DIMALTF
 40
0.0393701
  9
$DIMLFAC
 40
1.0
  9
$DIMTOFL
 70
     1
  9
$DIMTVP
 40
0.0
  9
$DIMTIX
 70
     0
  9
$DIMSOXD
 70
     0
  9
$DIMSAH
 70
     0
  9
$DIMBLK1
  1

  9
$DIMBLK2
  1

  9
$DIMSTYLE
  2
AM_JIS
  9
$DIMCLRD
 70
   256
  9
$DIMCLRE
 70
   256
  9
$DIMCLRT
 70
     4
  9
$DIMTFAC
 40
0.71
  9
$DIMGAP
 40
1.0
  9
$LUNITS
 70
     2
  9
$LUPREC
 70
     2
  9
$SKETCHINC
 40
1.0
  9
$FILLETRAD
 40
5.0
  9
$AUNITS
 70
     0
  9
$AUPREC
 70
     3
  9
$MENU
  1
.
  9
$ELEVATION
 40
0.0
  9
$PELEVATION
 40
0.0
  9
$THICKNESS
 40
0.0
  9
$LIMCHECK
 70
     0
  9
$BLIPMODE
 70
     0
  9
$CHAMFERA
 40
7.5
  9
$CHAMFERB
 40
7.5
  9
$SKPOLY
 70
     0
  9
$TDCREATE
 40
2452753.643349607
  9
$TDUPDATE
 40
2458543.4531598729
  9
$TDINDWG
 40
0.5209245255
  9
$TDUSRTIMER
 40
0.5209243403
  9
$USRTIMER
 70
     1
  9
$ANGBASE
 50
0.0
  9
$ANGDIR
 70
     0
  9
$PDMODE
 70
     0
  9
$PDSIZE
 40
0.0
  9
$PLINEWID
 40
0.0
  9
$COORDS
 70
     1
  9
$SPLFRAME
 70
     0
  9
$SPLINETYPE
 70
     6
  9
$SPLINESEGS
 70
     8
  9
$ATTDIA
 70
     1
  9
$ATTREQ
 70
     1
  9
$HANDLING
 70
     1
  9
$HANDSEED
  5
14631
  9
$SURFTAB1
 70
     6
  9
$SURFTAB2
 70
     6
  9
$SURFTYPE
 70
     6
  9
$SURFU
 70
     6
  9
$SURFV
 70
     6
  9
$UCSNAME
  2

  9
$UCSORG
 10
0.0
 20
0.0
 30
0.0
  9
$UCSXDIR
 10
1.0
 20
0.0
 30
0.0
  9
$UCSYDIR
 10
0.0
 20
1.0
 30
0.0
  9
$PUCSNAME
  2

  9
$PUCSORG
 10
0.0
 20
0.0
 30
0.0
  9
$PUCSXDIR
 10
1.0
 20
0.0
 30
0.0
  9
$PUCSYDIR
 10
0.0
 20
1.0
 30
0.0
  9
$USERI1
 70
     0
  9
$USERI2
 70
     0
  9
$USERI3
 70
     0
  9
$USERI4
 70
     0
  9
$USERI5
 70
     0
  9
$USERR1
 40
0.0
  9
$USERR2
 40
0.0
  9
$USERR3
 40
0.0
  9
$USERR4
 40
0.0
  9
$USERR5
 40
0.0
  9
$WORLDVIEW
 70
     1
  9
$SHADEDGE
 70
     3
  9
$SHADEDIF
 70
    70
  9
$TILEMODE
 70
     1
  9
$MAXACTVP
 70
    48
  9
$PLIMCHECK
 70
     0
  9
$PEXTMIN
 10
1.0000000000000000E+020
 20
1.0000000000000000E+020
 30
1.0000000000000000E+020
  9
$PEXTMAX
 10
-1.0000000000000000E+020
 20
-1.0000000000000000E+020
 30
-1.0000000000000000E+020
  9
$PLIMMIN
 10
0.0
 20
0.0
  9
$PLIMMAX
 10
420.0
 20
297.0
  9
$UNITMODE
 70
     0
  9
$VISRETAIN
 70
     1
  9
$PLINEGEN
 70
     0
  9
$PSLTSCALE
 70
     1
  0
ENDSEC
  0
SECTION
  2
TABLES
  0
TABLE
  2
VPORT
 70
     1
  0
VPORT
  2
*ACTIVE
 70
     0
 10
0.0
 20
0.0
 11
1.0
 21
1.0
 12
54.808968591302111
 22
401.39144748461882
 13
0.0
 23
0.0
 14
7.5
 24
7.5
 15
30.0
 25
30.0
 16
0.0
 26
0.0
 36
1.0
 17
0.0
 27
0.0
 37
0.0
 40
414.8973706323099
 41
1.7571592210767459
 42
50.0
 43
0.0
 44
0.0
 50
0.0
 51
0.0
 71
    16
 72
   100
 73
     1
 74
     1
 75
     0
 76
     0
 77
     0
 78
     0
  0
ENDTAB
  0
TABLE
  2
LTYPE
 70
    21
  0
LTYPE
  2
CONTINUOUS
 70
     0
  3
Solid line
 72
    65
 73
     0
 40
0.0
  0
LTYPE
  2
PHANTOM2
 70
     0
  3
Phantom (.5x) ___ _ _ ___ _ _ ___ _ _ ___ _ _
 72
    65
 73
     6
 40
31.75
 49
15.875
 49
-3.174999999999998
 49
3.174999999999998
 49
-3.174999999999998
 49
3.174999999999998
 49
-3.174999999999998
  0
LTYPE
  2
CENTER
 70
     0
  3
Center ____ _ ____ _ ____ _ ____ _ ____ _ ____
 72
    65
 73
     4
 40
50.799999999999997
 49
31.75
 49
-6.3499999999999979
 49
6.3499999999999979
 49
-6.3499999999999979
  0
LTYPE
  2
ACANSTGBM
 70
     0
  3
__ . . __ . .
 72
    65
 73
     6
 40
9.0
 49
4.0
 49
-1.0
 49
1.0
 49
-1.0
 49
1.0
 49
-1.0
  0
LTYPE
  2
ACANSTGLM
 70
     0
  3
_ _ _ _ _
 72
    65
 73
     2
 40
3.0
 49
2.0
 49
-1.0
  0
LTYPE
  2
GEN3B
 70
     0
  3
 - - - - -
 72
    65
 73
     2
 40
1.0
 49
0.5
 49
-0.5
  0
LTYPE
  2
GEN7A
 70
     0
  3
__ . __ . __
 72
    65
 73
     4
 40
7.375
 49
4.75
 49
-0.875
 49
0.875
 49
-0.875
  0
LTYPE
  2
AM_ISO02W050
 70
     0
  3
__ __ __ __ __ __ __ __ __ __ __ __ __ __ __
 72
    65
 73
     2
 40
7.5
 49
6.0
 49
-1.5
  0
LTYPE
  2
AM_ISO08W050
 70
     0
  3
____ . ____ . ____ . ____ . ____ . ____ . ____
 72
    65
 73
     4
 40
18.0
 49
12.0
 49
-1.5
 49
3.0
 49
-1.5
  0
LTYPE
  2
AM_ISO09W050
 70
     0
  3
_____ . . _____ . . _____ . . ____ .. ____
 72
    65
 73
     6
 40
22.5
 49
12.0
 49
-1.5
 49
3.0
 49
-1.5
 49
3.0
 49
-1.5
  0
LTYPE
  2
AMCONSTR
 70
     0
  3
_______________________
 72
    65
 73
     2
 40
9999.0
 49
9999.0
 49
0.0
  0
LTYPE
  2
AM_ISO02W050X2
 70
     0
  3
 _ _ _ _ _ _ _ _ _ _ _ _
 72
    65
 73
     2
 40
3.75
 49
3.0
 49
-0.75
  0
LTYPE
  2
AM_ISO08W050X2
 70
     0
  3
__ . __ . __ . __ . __ . __
 72
    65
 73
     4
 40
9.0
 49
6.0
 49
-0.75
 49
1.5
 49
-0.75
  0
LTYPE
  2
AMZIGZAG
 70
     0
  3
/\/-/\/-/\/-/\/-/\/-/\/
 72
    65
 73
     2
 40
11.0001
 49
0.0001
 49
-11.0
  0
LTYPE
  2
ACJISTGB
 70
     0
  3
__ . . __ . .
 72
    65
 73
     6
 40
9.0
 49
4.0
 49
-1.0
 49
1.0
 49
-1.0
 49
1.0
 49
-1.0
  0
LTYPE
  2
ACJISTGL
 70
     0
  3
_ _ _ _ _
 72
    65
 73
     2
 40
3.0
 49
2.0
 49
-1.0
  0
LTYPE
  2
ACISOWELD
 70
     0
  3
_ _ _ _ _
 72
    65
 73
     2
 40
2.0
 49
2.0
 49
-1.0
  0
LTYPE
  2
ACISOTGB
 70
     0
  3
__ . . __ . .
 72
    65
 73
     6
 40
9.0
 49
4.0
 49
-1.0
 49
1.0
 49
-1.0
 49
1.0
 49
-1.0
  0
LTYPE
  2
ACISOTGL
 70
     0
  3
_ _ _ _ _
 72
    65
 73
     2
 40
3.0
 49
2.0
 49
-1.0
  0
LTYPE
  2
HIDDEN
 70
     0
  3
Hidden __ __ __ __ __ __ __ __ __ __ __ __ __ _
 72
    65
 73
     2
 40
9.5249999999999968
 49
6.3499999999999979
 49
-3.174999999999998
  0
ENDTAB
  0
TABLE
  2
LAYER
 70
     8
  0
LAYER
  2
0
 70
     0
 62
     7
  6
CONTINUOUS
  0
LAYER
  2
ｽﾝﾎﾟｳｾﾝ
 70
     0
 62
     2
  6
CONTINUOUS
  0
LAYER
  2
DEFPOINTS
 70
     0
 62
     7
  6
CONTINUOUS
  0
LAYER
  2
ｶｸﾚｾﾝ2
 70
     0
 62
     3
  6
GEN3B
  0
LAYER
  2
ﾁｭｳｼﾝｾﾝ1
 70
     0
 62
     1
  6
GEN7A
  0
LAYER
  2
AM_0
 70
     0
 62
     7
  6
CONTINUOUS
  0
LAYER
  2
AM_0N
 70
     0
 62
     7
  6
CONTINUOUS
  0
LAYER
  2
AM_5
 70
     0
 62
     2
  6
CONTINUOUS
  0
ENDTAB
  0
TABLE
  2
STYLE
 70
     8
  0
STYLE
  2
STANDARD
 70
     0
 40
0.0
 41
0.8299999999999999
 50
0.0
 71
     0
 42
2.5
  3
txt.shx
  4
bigfont.shx
  0
STYLE
  2
ACANSTS
 70
     0
 40
1.0
 41
1.0
 50
0.0
 71
     0
 42
2.5
  3
romans.shx
  4
bigfont.shx
  0
STYLE
  2
ACANSGDT
 70
     0
 40
0.0
 41
1.0
 50
0.0
 71
     0
 42
2.5
  3
amgdtans.shx
  4

  0
STYLE
  2

 70
     1
 40
0.0
 41
1.0
 50
0.0
 71
     0
 42
2.5
  3
ltypeshp.shx
  4

  0
STYLE
  2
ACJISTS
 70
     0
 40
1.0
 41
1.0
 50
0.0
 71
     0
 42
2.5
  3
isocp.shx
  4
bigfont.shx
  0
STYLE
  2
ACJISGDT
 70
     0
 40
0.0
 41
1.0
 50
0.0
 71
     0
 42
2.5
  3
amgdt.shx
  4

  0
STYLE
  2
ACISOTS
 70
     0
 40
3.0
 41
1.0
 50
0.0
 71
     0
 42
2.5
  3
isocp.shx
  4
extfont.shx
  0
STYLE
  2
ACISOGDT
 70
     0
 40
0.0
 41
1.0
 50
0.0
 71
     0
 42
2.5
  3
amgdt.shx
  4

  0
ENDTAB
  0
TABLE
  2
VIEW
 70
    12
  0
VIEW
  2
GEN1
 70
     0
 40
95.824742268041234
 10
71.5
 20
137.08762886597941
 41
143.0
 11
0.0
 21
0.0
 31
1.0
 12
0.0
 22
0.0
 32
0.0
 42
50.0
 43
0.0
 44
0.0
 50
0.0
 71
     0
  0
VIEW
  2
GEN2
 70
     0
 40
95.824742268041234
 10
214.5
 20
137.08762886597941
 41
143.0
 11
0.0
 21
0.0
 31
1.0
 12
0.0
 22
0.0
 32
0.0
 42
50.0
 43
0.0
 44
0.0
 50
0.0
 71
     0
  0
VIEW
  2
GEN3
 70
     0
 40
95.824742268041234
 10
71.5
 20
47.912371134020603
 41
143.0
 11
0.0
 21
0.0
 31
1.0
 12
0.0
 22
0.0
 32
0.0
 42
50.0
 43
0.0
 44
0.0
 50
0.0
 71
     0
  0
VIEW
  2
GEN4
 70
     0
 40
95.824742268041234
 10
214.5
 20
47.912371134020603
 41
143.0
 11
0.0
 21
0.0
 31
1.0
 12
0.0
 22
0.0
 32
0.0
 42
50.0
 43
0.0
 44
0.0
 50
0.0
 71
     0
  0
VIEW
  2
GEN5
 70
     0
 40
95.824742268041234
 10
143.0
 20
92.500000000000057
 41
143.0
 11
0.0
 21
0.0
 31
1.0
 12
0.0
 22
0.0
 32
0.0
 42
50.0
 43
0.0
 44
0.0
 50
0.0
 71
     0
  0
VIEW
  2
GEN6
 70
     0
 40
191.64756804123709
 10
143.0
 20
92.5
 41
285.99714
 11
0.0
 21
0.0
 31
1.0
 12
0.0
 22
0.0
 32
0.0
 42
50.0
 43
0.0
 44
0.0
 50
0.0
 71
     0
  0
VIEW
  2
AM_VIEW1
 70
     0
 40
277.50000000000011
 10
249.64779005524869
 20
416.25000000000011
 41
499.29558011049721
 11
0.0
 21
0.0
 31
1.0
 12
0.0
 22
0.0
 32
0.0
 42
50.0
 43
0.0
 44
0.0
 50
0.0
 71
    16
  0
VIEW
  2
AM_VIEW2
 70
     0
 40
277.50000000000011
 10
603.85220994475117
 20
416.25000000000011
 41
499.29558011049721
 11
0.0
 21
0.0
 31
1.0
 12
0.0
 22
0.0
 32
0.0
 42
50.0
 43
0.0
 44
0.0
 50
0.0
 71
    16
  0
VIEW
  2
AM_VIEW3
 70
     0
 40
277.50000000000011
 10
249.64779005524869
 20
138.75
 41
499.29558011049721
 11
0.0
 21
0.0
 31
1.0
 12
0.0
 22
0.0
 32
0.0
 42
50.0
 43
0.0
 44
0.0
 50
0.0
 71
    16
  0
VIEW
  2
AM_VIEW4
 70
     0
 40
277.50000000000011
 10
603.85220994475117
 20
138.75
 41
499.29558011049721
 11
0.0
 21
0.0
 31
1.0
 12
0.0
 22
0.0
 32
0.0
 42
50.0
 43
0.0
 44
0.0
 50
0.0
 71
    16
  0
VIEW
  2
AM_VIEW5
 70
     0
 40
277.50000000000011
 10
426.75
 20
277.50000000000011
 41
499.2955801104971
 11
0.0
 21
0.0
 31
1.0
 12
0.0
 22
0.0
 32
0.0
 42
50.0
 43
0.0
 44
0.0
 50
0.0
 71
    16
  0
VIEW
  2
AM_VIEW6
 70
     0
 40
554.99445000000014
 10
426.75
 20
277.5
 41
998.5811743093924
 11
0.0
 21
0.0
 31
1.0
 12
0.0
 22
0.0
 32
0.0
 42
50.0
 43
0.0
 44
0.0
 50
0.0
 71
    16
  0
ENDTAB
  0
TABLE
  2
UCS
 70
     0
  0
ENDTAB
  0
TABLE
  2
APPID
 70
    97
  0
APPID
  2
ACAD
 70
     0
  0
APPID
  2
MCAD_NO_VIS
 70
     0
  0
APPID
  2
ACAD_TEMP_GRAPHIC
 70
     0
  0
APPID
  2
AD_DRAW
 70
     0
  0
APPID
  2
DESIGNERASSEMBLIES
 70
     0
  0
APPID
  2
ASURF_PCURVE_APPNAME
 70
     0
  0
APPID
  2
GENIUS_GE3SECT_13
 70
     0
  0
APPID
  2
GENIUS_GENCFG_13
 70
     0
  0
APPID
  2
GENIUS_GE3CFG0_13
 70
     0
  0
APPID
  2
GENIUS_GENCFG0_13
 70
     0
  0
APPID
  2
GENIUS_GENCFG1_13
 70
     0
  0
APPID
  2
GENIUS_GENCFG2_13
 70
     0
  0
APPID
  2
GENIUS_GENCFG3_13
 70
     0
  0
APPID
  2
GENIUS_GENCFG4_13
 70
     0
  0
APPID
  2
GENIUS_GEVCFG0_13
 70
     0
  0
APPID
  2
GENIUS_GENOENT_13
 70
     0
  0
APPID
  2
GENIUS_GENREC_14
 70
     0
  0
APPID
  2
GENIUS_GENODEF_13
 70
     0
  0
APPID
  2
GENIUS_GENOBJ-N-REC_13
 70
     0
  0
APPID
  2
GENIUS_GENHINW_13
 70
     0
  0
APPID
  2
GENIUS_FIRSTVISTXT_14
 70
     0
  0
APPID
  2
GENIUS_GENOBJ-N-LEADER_13
 70
     0
  0
APPID
  2
GENIUS_GENOREF_13
 70
     0
  0
APPID
  2
GENIUS_GENOLIS_13
 70
     0
  0
APPID
  2
GEV_VCCNULL_SWITCH_OFF
 70
     0
  0
APPID
  2
GENIUS_GENDTOL_13
 70
     0
  0
APPID
  2
GENIUS_GEFCFG0_13
 70
     0
  0
APPID
  2
GENIUS_GENOBJ-N-TIT_13
 70
     0
  0
APPID
  2
GENIUS_GENTITLE_13
 70
     0
  0
APPID
  2
GENIUS_GENZVEED_13
 70
     0
  0
APPID
  2
GENIUS_GENOBJ-N-SDF_13
 70
     0
  0
APPID
  2
GENIUS_GENSCREG_13
 70
     0
  0
APPID
  2
GENIUS_DUMCFG0_13
 70
     0
  0
APPID
  2
GEVID936201362
 70
     0
  0
APPID
  2
GEVDC
 70
     0
  0
APPID
  2
GEVCON
 70
     0
  0
APPID
  2
VCC
 70
     0
  0
APPID
  2
GEVPT
 70
     0
  0
APPID
  2
GEVIT
 70
     0
  0
APPID
  2
GENBH
 70
     0
  0
APPID
  2
GEVMK
 70
     0
  0
APPID
  2
GENIUS_GENBH_13
 70
     0
  0
APPID
  2
GENIUS_GENOBJ-NBEHI-BHF_13
 70
     0
  0
APPID
  2
GENIUS_GENOBJ-NBEHI-BHB_13
 70
     0
  0
APPID
  2
GENIUS_GENOBJ-F-DESC_13
 70
     0
  0
APPID
  2
GENIUS_GEFDESC_14
 70
     0
  0
APPID
  2
GENIUS_GENOBJ-F-PART_13
 70
     0
  0
APPID
  2
GENIUS_GEFSTDP_13
 70
     0
  0
APPID
  2
GENIUS_GEFPARTINS_13
 70
     0
  0
APPID
  2
GENIUS_GENTRA_14
 70
     0
  0
APPID
  2
GENIUS_GENINF13_13
 70
     0
  0
APPID
  2
GENIUS_GENOBJ-N-INFOPT_13
 70
     0
  0
APPID
  2
GENIUS_GENOBJ-N-RSSYM_13
 70
     0
  0
APPID
  2
GENIUS_GENSYMENT_13
 70
     0
  0
APPID
  2
GENIUS_GENSCSYM_13
 70
     0
  0
APPID
  2
GENIUS_GEFINFNAM_13
 70
     0
  0
APPID
  2
GENIUS_GENSCREG_15
 70
     0
  0
APPID
  2
GENIUS_GENOBJ-N-CEN_13
 70
     0
  0
APPID
  2
GENIUS_GENOBJ-N-CRS_13
 70
     0
  0
APPID
  2
GENIUS_GENOBJ-N-CRC_13
 70
     0
  0
APPID
  2
GENIUS_GENCRC_14
 70
     0
  0
APPID
  2
GEVID942827039
 70
     0
  0
APPID
  2
GEVID942827040
 70
     0
  0
APPID
  2
GEVID942827041
 70
     0
  0
APPID
  2
GENIUS_GENOBJ-F-SCPASSM_13
 70
     0
  0
APPID
  2
GENIUS_GENDIMSH_14
 70
     0
  0
APPID
  2
GENIUS_GENFIL_13
 70
     0
  0
APPID
  2
GENIUS_GENOBJ-N-CHA_13
 70
     0
  0
APPID
  2
GENIUS_GENOBJ-N-FIL_13
 70
     0
  0
APPID
  2
GEVID942827042
 70
     0
  0
APPID
  2
GEVID946020473
 70
     0
  0
APPID
  2
GEVID946020474
 70
     0
  0
APPID
  2
GEVID946020475
 70
     0
  0
APPID
  2
GENIUS_GENOBJ-N-HTC_13
 70
     0
  0
APPID
  2
GENIUS_GENHATCH_13
 70
     0
  0
APPID
  2
GEVID948854295
 70
     0
  0
APPID
  2
GEVID939402019
 70
     0
  0
APPID
  2
GEVID952919491
 70
     0
  0
APPID
  2
GEVID952919492
 70
     0
  0
APPID
  2
GENIUS_GEFWELD_13
 70
     0
  0
APPID
  2
GENIUS_GENOBJ-F-WELS_13
 70
     0
  0
APPID
  2
GEVID952919493
 70
     0
  0
APPID
  2
GENIUS_GENOBJ-N-RSBK_13
 70
     0
  0
APPID
  2
GENIUS_GENOBJ-N-LIB_13
 70
     0
  0
APPID
  2
GENIUS_GENSCALE_13
 70
     0
  0
APPID
  2
GEVID986376691
 70
     0
  0
APPID
  2
ACATTRIBSERVICES
 70
     0
  0
APPID
  2
DCO15
 70
     0
  0
APPID
  2
GEVID1088155249
 70
     0
  0
APPID
  2
ACADM_DIM_EDIT
 70
     0
  0
APPID
  2
AMDT_DM_ADJ
 70
     0
  0
APPID
  2
ACAD_MLEADERVER
 70
     0
  0
APPID
  2
ACAD_DSTYLE_DIMBREAK
 70
     0
  0
APPID
  2
ACAD_DSTYLE_DIMJAG
 70
     0
  0
APPID
  2
ACAD_NAV_VCDISPLAY
 70
     0
  0
APPID
  2
ACADANNOPO
 70
     0
  0
APPID
  2
ACAD_EXEMPT_FROM_CAD_STANDARDS
 70
     0
  0
ENDTAB
  0
TABLE
  2
DIMSTYLE
 70
    15
  0
DIMSTYLE
  2
STANDARD
 70
     0
  3

  4

  5

  6

  7

 40
1.0
 41
0.18
 42
0.0625
 43
0.38
 44
0.18
 45
0.0
 46
0.0
 47
0.0
 48
0.0
140
0.18
141
0.09
142
0.0
143
25.399999999999999
144
1.0
145
0.0
146
1.0
147
0.09
 71
     0
 72
     0
 73
     1
 74
     1
 75
     0
 76
     0
 77
     0
 78
     0
170
     0
171
     2
172
     0
173
     0
174
     0
175
     0
176
     0
177
     0
178
     0
  0
DIMSTYLE
  2
AM_JIS
 70
     0
  3

  4
"
  5

  6

  7

 40
1.0
 41
2.5
 42
1.0
 43
7.0
 44
1.0
 45
0.0
 46
0.0
 47
0.1
 48
0.1000000001
140
2.5
141
0.0
142
0.0
143
0.0393701
144
1.0
145
0.0
146
0.71
147
1.0
 71
     0
 72
     0
 73
     0
 74
     0
 75
     0
 76
     0
 77
     3
 78
     8
170
     0
171
     2
172
     1
173
     0
174
     0
175
     0
176
   256
177
   256
178
     4
  0
DIMSTYLE
  2
AM_JIS$3
 70
     0
  3

  4
"
  5

  6

  7

 40
1.0
 41
2.5
 42
1.0
 43
7.0
 44
1.0
 45
0.0
 46
0.0
 47
0.1
 48
0.1000000001
140
2.5
141
0.0
142
0.0
143
0.0393701
144
1.0
145
0.0
146
0.71
147
1.0
 71
     0
 72
     0
 73
     0
 74
     1
 75
     0
 76
     0
 77
     3
 78
     8
170
     0
171
     2
172
     0
173
     0
174
     0
175
     0
176
   256
177
   256
178
     4
  0
DIMSTYLE
  2
AM_JIS$4
 70
     0
  3

  4
"
  5

  6

  7

 40
1.0
 41
2.5
 42
1.0
 43
7.0
 44
1.0
 45
0.0
 46
0.0
 47
0.1
 48
0.1000000001
140
2.5
141
0.0
142
0.0
143
0.0393701
144
1.0
145
0.0
146
0.71
147
1.0
 71
     0
 72
     0
 73
     0
 74
     0
 75
     0
 76
     0
 77
     3
 78
     8
170
     0
171
     2
172
     0
173
     0
174
     0
175
     0
176
   256
177
   256
178
     4
  0
DIMSTYLE
  2
AM_JIS$6
 70
     0
  3

  4
"
  5

  6

  7

 40
1.0
 41
2.5
 42
1.0
 43
7.0
 44
1.0
 45
0.0
 46
0.0
 47
0.1
 48
0.1000000001
140
2.5
141
0.0
142
0.0
143
0.0393701
144
1.0
145
0.0
146
0.71
147
1.0
 71
     0
 72
     0
 73
     0
 74
     0
 75
     0
 76
     0
 77
     0
 78
     8
170
     0
171
     2
172
     1
173
     0
174
     0
175
     0
176
   256
177
   256
178
     4
  0
DIMSTYLE
  2
AM_JIS$7
 70
     0
  3

  4
"
  5

  6

  7

 40
1.0
 41
2.5
 42
1.0
 43
7.0
 44
1.0
 45
0.0
 46
0.0
 47
0.1
 48
0.1000000001
140
2.5
141
0.0
142
0.0
143
0.0393701
144
1.0
145
0.0
146
0.71
147
1.0
 71
     0
 72
     0
 73
     0
 74
     0
 75
     0
 76
     0
 77
     3
 78
     8
170
     0
171
     2
172
     1
173
     0
174
     0
175
     0
176
   256
177
   256
178
     4
  0
DIMSTYLE
  2
AM_JIS$SF
 70
     0
  3

  4
"
  5
OPEN30
  6
OPEN30
  7
OPEN30
 40
1.0
 41
2.5
 42
1.0
 43
10.0
 44
1.0
 45
0.0
 46
0.0
 47
0.1
 48
0.1
140
3.5
141
0.0
142
0.0
143
0.0393701
144
1.0
145
0.0
146
0.71
147
1.5
 71
     0
 72
     0
 73
     0
 74
     0
 75
     1
 76
     1
 77
     3
 78
     8
170
     0
171
     2
172
     1
173
     0
174
     0
175
     0
176
   256
177
   256
178
     4
  0
DIMSTYLE
  2
AM_JIS$SH
 70
     0
  3

  4
"
  5

  6
NONE
  7

 40
1.0
 41
2.5
 42
1.0
 43
10.0
 44
1.0
 45
0.0
 46
0.0
 47
0.1
 48
0.1
140
3.5
141
0.0
142
0.0
143
0.0393701
144
1.0
145
0.0
146
0.71
147
1.5
 71
     0
 72
     0
 73
     0
 74
     0
 75
     1
 76
     0
 77
     3
 78
     8
170
     0
171
     2
172
     1
173
     1
174
     0
175
     0
176
   256
177
   256
178
     4
  0
DIMSTYLE
  2
AM_ISO
 70
     0
  3

  4
"
  5

  6

  7

 40
1.0
 41
2.5
 42
1.0
 43
10.0
 44
1.0
 45
0.0
 46
0.0
 47
0.0
 48
0.000000001
140
3.0
141
0.0
142
0.0
143
0.0393701
144
1.0
145
0.0
146
0.71
147
1.299999999999998
 71
     1
 72
     0
 73
     0
 74
     0
 75
     0
 76
     0
 77
     1
 78
     8
170
     0
171
     2
172
     1
173
     0
174
     0
175
     0
176
   256
177
   256
178
     4
  0
DIMSTYLE
  2
AM_ISO$3
 70
     0
  3

  4
"
  5

  6

  7

 40
1.0
 41
2.5
 42
1.0
 43
10.0
 44
1.0
 45
0.0
 46
0.0
 47
0.0
 48
0.000000001
140
2.5
141
0.0
142
0.0
143
0.0393701
144
1.0
145
0.0
146
0.71
147
1.299999999999998
 71
     1
 72
     0
 73
     0
 74
     1
 75
     0
 76
     0
 77
     1
 78
     8
170
     0
171
     2
172
     0
173
     0
174
     0
175
     0
176
   256
177
   256
178
     4
  0
DIMSTYLE
  2
AM_ISO$4
 70
     0
  3

  4
"
  5

  6

  7

 40
1.0
 41
2.5
 42
1.0
 43
10.0
 44
1.0
 45
0.0
 46
0.0
 47
0.0
 48
0.000000001
140
2.5
141
0.0
142
0.0
143
0.0393701
144
1.0
145
0.0
146
0.71
147
1.299999999999998
 71
     1
 72
     0
 73
     0
 74
     1
 75
     0
 76
     0
 77
     1
 78
     8
170
     0
171
     2
172
     0
173
     0
174
     0
175
     0
176
   256
177
   256
178
     4
  0
DIMSTYLE
  2
AM_ISO$6
 70
     0
  3

  4
"
  5

  6

  7

 40
1.0
 41
2.5
 42
1.0
 43
10.0
 44
1.0
 45
0.0
 46
0.0
 47
0.0
 48
0.000000001
140
2.5
141
0.0
142
0.0
143
0.0393701
144
1.0
145
0.0
146
0.71
147
1.299999999999998
 71
     1
 72
     0
 73
     0
 74
     0
 75
     0
 76
     0
 77
     0
 78
     8
170
     0
171
     2
172
     1
173
     0
174
     0
175
     0
176
   256
177
   256
178
     4
  0
DIMSTYLE
  2
AM_ISO$7
 70
     0
  3

  4
"
  5

  6

  7

 40
1.0
 41
2.5
 42
1.0
 43
10.0
 44
1.0
 45
0.0
 46
0.0
 47
0.0
 48
0.000000001
140
2.5
141
0.0
142
0.0
143
0.0393701
144
1.0
145
0.0
146
0.71
147
1.299999999999998
 71
     1
 72
     0
 73
     0
 74
     0
 75
     0
 76
     0
 77
     1
 78
     8
170
     0
171
     2
172
     1
173
     0
174
     0
175
     0
176
   256
177
   256
178
     4
  0
DIMSTYLE
  2
AM_ISO$SF
 70
     0
  3

  4
"
  5

  6

  7

 40
1.0
 41
2.5
 42
1.0
 43
10.0
 44
1.0
 45
0.0
 46
0.0
 47
0.1
 48
0.1
140
3.5
141
0.0
142
0.0
143
0.0393701
144
1.0
145
0.0
146
0.71
147
1.5
 71
     0
 72
     0
 73
     0
 74
     0
 75
     1
 76
     1
 77
     1
 78
     8
170
     0
171
     2
172
     1
173
     0
174
     0
175
     0
176
   256
177
   256
178
     4
  0
DIMSTYLE
  2
AM_ISO$SH
 70
     0
  3

  4
"
  5

  6
GENAXEH
  7

 40
1.0
 41
2.5
 42
1.0
 43
10.0
 44
1.0
 45
0.0
 46
0.0
 47
0.1
 48
0.1
140
3.5
141
0.0
142
0.0
143
0.0393701
144
2.0
145
0.0
146
0.71
147
1.5
 71
     0
 72
     0
 73
     0
 74
     0
 75
     1
 76
     1
 77
     1
 78
     8
170
     0
171
     2
172
     1
173
     1
174
     0
175
     0
176
   256
177
   256
178
     4
  0
ENDTAB
  0
ENDSEC
  0
SECTION
  2
BLOCKS
  0
BLOCK
  8
0
  2
$MODEL_SPACE
 70
     0
 10
0.0
 20
0.0
 30
0.0
  3
$MODEL_SPACE
  1

  0
ENDBLK
  5
1A
  8
0
  0
BLOCK
 67
     1
  8
0
  2
$PAPER_SPACE
 70
     0
 10
0.0
 20
0.0
 30
0.0
  3
$PAPER_SPACE
  1

  0
ENDBLK
  5
17
 67
     1
  8
0
  0
BLOCK
  8
0
  2
_OPEN30
 70
     0
 10
0.0
 20
0.0
 30
0.0
  3
_OPEN30
  1

  0
LINE
  5
21C5
  8
0
 62
     0
 10
-1.0
 20
0.26794919
 30
0.0
 11
0.0
 21
0.0
 31
0.0
  0
LINE
  5
21C6
  8
0
 62
     0
 10
0.0
 20
0.0
 30
0.0
 11
-1.0
 21
-0.26794919
 31
0.0
  0
LINE
  5
21C7
  8
0
 62
     0
 10
0.0
 20
0.0
 30
0.0
 11
-1.0
 21
0.0
 31
0.0
  0
ENDBLK
  5
21C9
  8
0
  0
BLOCK
  8
0
  2
GENAXEH
 70
     0
 10
0.0
 20
0.0
 30
0.0
  3
GENAXEH
  1

  0
LINE
  5
21D0
  8
0
 10
-1.0
 20
0.0
 30
0.0
 11
1.0
 21
0.0
 31
0.0
  0
ENDBLK
  5
21D2
  8
0
  0
BLOCK
  8
0
  2
_NONE
 70
     0
 10
0.0
 20
0.0
 30
0.0
  3
_NONE
  1

  0
ENDBLK
  5
8193
  8
0
  0
BLOCK
  8
0
  2
*U5
 70
     1
 10
0.0
 20
0.0
 30
0.0
  3
*U5
  1

  0
SOLID
  5
145D4
  8
AM_0
  6
CONTINUOUS
 10
40.262498052413093
 20
472.40717884515192
 30
0.0
 11
37.7624980524131
 21
472.40717884515192
 31
0.0
 12
37.7624980524131
 22
469.90717884515198
 32
0.0
 13
37.7624980524131
 23
469.90717884515198
 33
0.0
210
0.0
220
0.0
230
-1.0
  0
LINE
  5
145D5
  8
AM_0
  6
CONTINUOUS
 10
-37.7624980524131
 20
472.40717884515192
 30
0.0
 11
-37.7624980524131
 21
469.90717884515198
 31
0.0
  0
LINE
  5
145D6
  8
AM_0
  6
CONTINUOUS
 10
-37.7624980524131
 20
469.90717884515198
 30
0.0
 11
-40.262498052413093
 21
472.40717884515192
 31
0.0
  0
ENDBLK
  5
145D8
  8
0
  0
BLOCK
  8
0
  2
*U6
 70
     1
 10
0.0
 20
0.0
 30
0.0
  3
*U6
  1

  0
SOLID
  5
145DA
  8
AM_0
  6
CONTINUOUS
 10
33.262498052412568
 20
472.40717884515192
 30
0.0
 11
30.762498052412582
 21
472.40717884515192
 31
0.0
 12
33.262498052412568
 22
469.90717884515198
 32
0.0
 13
33.262498052412568
 23
469.90717884515198
 33
0.0
210
0.0
220
0.0
230
-1.0
  0
LINE
  5
145DB
  8
AM_0
  6
CONTINUOUS
 10
-30.762498052412582
 20
472.40717884515192
 30
0.0
 11
-33.262498052412568
 21
469.90717884515198
 31
0.0
  0
LINE
  5
145DC
  8
AM_0
  6
CONTINUOUS
 10
-33.262498052412568
 20
469.90717884515198
 30
0.0
 11
-33.262498052412568
 21
472.40717884515192
 31
0.0
  0
ENDBLK
  5
145DE
  8
0
  0
BLOCK
  8
0
  2
*U7
 70
     1
 10
0.0
 20
0.0
 30
0.0
  3
*U7
  1

  0
SOLID
  5
145E0
  8
AM_0
  6
CONTINUOUS
 10
-9.2375002488546443
 20
559.90721277969033
 30
0.0
 11
-11.737500248854641
 21
557.40721277969021
 31
0.0
 12
-9.2375002488546443
 22
557.40721277969021
 32
0.0
 13
-9.2375002488546443
 23
557.40721277969021
 33
0.0
210
0.0
220
0.0
230
-1.0
  0
LINE
  5
145E1
  8
AM_0
  6
CONTINUOUS
 10
9.2375002488546443
 20
559.90721277969033
 30
0.0
 11
11.737500248854641
 21
557.40721277969021
 31
0.0
  0
LINE
  5
145E2
  8
AM_0
  6
CONTINUOUS
 10
9.2375002488546443
 20
557.40721277969021
 30
0.0
 11
9.2375002488546443
 21
559.90721277969033
 31
0.0
  0
ENDBLK
  5
145E4
  8
0
  0
BLOCK
  8
0
  2
*U8
 70
     1
 10
0.0
 20
0.0
 30
0.0
  3
*U8
  1

  0
SOLID
  5
145E6
  8
AM_0
  6
CONTINUOUS
 10
-4.7375002488541309
 20
559.90721277969033
 30
0.0
 11
-4.7375002488541309
 21
557.40721277969021
 31
0.0
 12
-2.2375002488541309
 22
557.40721277969021
 32
0.0
 13
-2.2375002488541309
 23
557.40721277969021
 33
0.0
210
0.0
220
0.0
230
-1.0
  0
LINE
  5
145E7
  8
AM_0
  6
CONTINUOUS
 10
4.7375002488541309
 20
559.90721277969033
 30
0.0
 11
4.7375002488541309
 21
557.40721277969021
 31
0.0
  0
LINE
  5
145E8
  8
AM_0
  6
CONTINUOUS
 10
2.2375002488541309
 20
557.40721277969021
 30
0.0
 11
4.7375002488541309
 21
559.90721277969033
 31
0.0
  0
ENDBLK
  5
145EA
  8
0
  0
BLOCK
  8
0
  2
*U9
 70
     1
 10
0.0
 20
0.0
 30
0.0
  3
*U9
  1

  0
SOLID
  5
145EC
  8
AM_0
  6
CONTINUOUS
 10
37.7624980524131
 20
559.90721277969033
 30
0.0
 11
37.7624980524131
 21
557.40721277969021
 31
0.0
 12
40.262498052413093
 22
557.40721277969021
 32
0.0
 13
40.262498052413093
 23
557.40721277969021
 33
0.0
210
0.0
220
0.0
230
-1.0
  0
LINE
  5
145ED
  8
AM_0
  6
CONTINUOUS
 10
-37.7624980524131
 20
559.90721277969033
 30
0.0
 11
-37.7624980524131
 21
557.40721277969021
 31
0.0
  0
LINE
  5
145EE
  8
AM_0
  6
CONTINUOUS
 10
-40.262498052413093
 20
557.40721277969021
 30
0.0
 11
-37.7624980524131
 21
559.90721277969033
 31
0.0
  0
ENDBLK
  5
145F0
  8
0
  0
BLOCK
  8
0
  2
*U10
 70
     1
 10
0.0
 20
0.0
 30
0.0
  3
*U10
  1

  0
SOLID
  5
145F2
  8
AM_0
  6
CONTINUOUS
 10
33.262498052412568
 20
559.90721277969033
 30
0.0
 11
30.762498052412582
 21
557.40721277969021
 31
0.0
 12
33.262498052412568
 22
557.40721277969021
 32
0.0
 13
33.262498052412568
 23
557.40721277969021
 33
0.0
210
0.0
220
0.0
230
-1.0
  0
LINE
  5
145F3
  8
AM_0
  6
CONTINUOUS
 10
-33.262498052412568
 20
559.90721277969033
 30
0.0
 11
-30.762498052412582
 21
557.40721277969021
 31
0.0
  0
LINE
  5
145F4
  8
AM_0
  6
CONTINUOUS
 10
-33.262498052412568
 20
557.40721277969021
 30
0.0
 11
-33.262498052412568
 21
559.90721277969033
 31
0.0
  0
ENDBLK
  5
145F6
  8
0
  0
ENDSEC
  0
SECTION
  2
ENTITIES
  0
POINT
  5
1B94
  8
0
 10
0.0
 20
0.0
 30
0.0
1001
GENIUS_GENODEF_13
1002
{
1000
HIER
1070
     1
1002
}
1002
{
1000
MANEDIT
1070
     0
1002
}
1002
{
1000
NOSEL
1070
     0
1002
}
1002
{
1000
BEHIND
1070
     0
1002
}
1002
{
1000
REACTOR
1002
}
1001
GENIUS_GENOBJ-N-SDF_13
1002
{
1000
OWNER
1000
GEN
1002
}
1001
GENIUS_GENOENT_13
1002
{
1000
MYREF
1005
1B94
1002
}
1002
{
1000
GRP
1005
0
1002
}
1001
GENIUS_GENOLIS_13
1002
{
1000
ENT
1005
89
1002
}
  0
LINE
  5
107E1
  8
AM_0
 10
209.31903376618791
 20
247.8755596322317
 30
0.0
 11
209.31903376618791
 21
302.87556127135929
 31
0.0
  0
LINE
  5
107E2
  8
AM_0
 10
293.31903626958302
 20
247.8755596322317
 30
0.0
 11
293.31903626958302
 21
302.87556127135929
 31
0.0
  0
ARC
  5
107E3
  8
AM_0
 10
251.3190350178854
 20
275.37556045179548
 30
0.0
 40
56.5
 50
324.98137173791582
 51
35.01862826208427
  0
LINE
  5
107E4
  8
AM_0
 10
289.31903615037379
 20
212.87556073491771
 30
0.0
 11
289.31903615037368
 21
325.2758928484634
 31
0.0
  0
LINE
  5
107E5
  8
AM_0
 10
213.3190338853972
 20
212.87556073491771
 30
0.0
 11
213.3190338853972
 21
326.14864612088451
 31
0.0
  0
LINE
  5
107E6
  8
AM_0
 10
226.31903427282739
 20
224.37555893187701
 30
0.0
 11
226.31903427282739
 21
326.37556197171392
 31
0.0
  0
LINE
  5
107E7
  8
ﾁｭｳｼﾝｾﾝ1
 10
251.3190350178854
 20
341.76763941721413
 30
0.0
 11
251.3190350178854
 21
208.983481486377
 31
0.0
  0
ARC
  5
107E8
  8
AM_0
 10
251.3190350178854
 20
275.37556045179548
 30
0.0
 40
56.5
 50
144.98137173791559
 51
165.88809156090281
  0
LINE
  5
107EF
  8
AM_0
 10
191.3062936825398
 20
261.41400250570217
 30
0.0
 11
196.52505284846561
 21
261.59624559156839
 31
0.0
  0
LINE
  5
107F0
  8
AM_0
 10
191.3157758349133
 20
259.3463130957295
 30
0.0
 11
197.2017401718625
 21
259.1407706918821
 31
0.0
  0
LINE
  5
107F1
  8
AM_0
 10
206.31903329678079
 20
260.37556000476059
 30
0.0
 11
182.31903329678079
 21
263.37556045179548
 31
0.0
  0
LINE
  5
107F2
  8
AM_0
 10
202.81903241018199
 20
227.87555925970281
 30
0.0
 11
187.81903388539689
 21
212.8755607349178
 31
0.0
  0
LINE
  5
107F3
  8
AM_0
 10
176.3190338853984
 20
209.87556073491771
 30
0.0
 11
205.8190338853976
 21
209.87556073491771
 31
0.0
  0
LINE
  5
107F4
  8
AM_0
 10
176.3190338853984
 20
205.37556073491771
 30
0.0
 11
205.81903388539831
 21
205.37556073491771
 31
0.0
  0
LINE
  5
107F6
  8
ﾁｭｳｼﾝｾﾝ1
 10
346.47567959327631
 20
275.37556045179559
 30
0.0
 11
150.8224318349927
 21
275.37556045179548
 31
0.0
  0
ARC
  5
107F7
  8
AM_0
 10
251.3190350178854
 20
275.37556045179548
 30
0.0
 40
56.5
 50
194.11190843909711
 51
215.01862826208429
  0
LINE
  5
107F9
  8
AM_0
 10
196.00916364505551
 20
239.3514606290866
 30
0.0
 11
200.4090361503732
 21
239.19781369553539
 31
0.0
  0
LINE
  5
107FA
  8
AM_0
 10
195.98507974071529
 20
241.42202631819251
 30
0.0
 11
200.72903388539689
 21
241.58768884735809
 31
0.0
  0
LINE
  5
107FB
  8
AM_0
 10
193.1690653203467
 20
249.34894972583641
 30
0.0
 11
201.31934042045239
 21
249.06433584777099
 31
0.0
  0
LINE
  5
107FC
  8
AM_0
 10
193.15273058602389
 20
251.41774637483979
 30
0.0
 11
200.03808095976541
 21
251.6581881081112
 31
0.0
  0
LINE
  5
107FD
  8
AM_0
 10
191.3157758349133
 20
291.4048078078618
 30
0.0
 11
197.2017401718625
 21
291.61035021170932
 31
0.0
  0
LINE
  5
107FE
  8
AM_0
 10
191.3062936825398
 20
289.33711839788918
 30
0.0
 11
196.52505284846561
 21
289.15487531202291
 31
0.0
  0
LINE
  5
107FF
  8
AM_0
 10
206.31903329678079
 20
290.37556089883032
 30
0.0
 11
182.31903329678079
 21
287.37556045179548
 31
0.0
  0
ARC
  5
10ABC
  8
AM_0
 10
205.8190338853976
 20
212.87556073491771
 30
0.0
 40
3.0
 50
270.0
 51
0.000000000000007
1001
GENIUS_GENOBJ-N-FIL_13
1002
{
1000
OWNER
1000
GEN
1002
}
1001
GENIUS_GENODEF_13
1002
{
1000
HIER
1070
     0
1002
}
1002
{
1000
MANEDIT
1070
     0
1002
}
1002
{
1000
NOSEL
1070
     0
1002
}
1002
{
1000
BEHIND
1070
     0
1002
}
1002
{
1000
OTHER
1070
     0
1002
}
1002
{
1000
REACTOR
1002
}
  0
LINE
  5
10ABD
  8
AM_0
 10
208.81903388539661
 20
215.49078442406699
 30
0.0
 11
203.20381019624759
 21
209.87556073491771
 31
0.0
  0
LINE
  5
10ABE
  8
AM_0
 10
314.81903615037447
 20
212.8755607349174
 30
0.0
 11
314.81903615037447
 21
209.87556073491771
 31
0.0
  0
ARC
  5
10ABF
  8
AM_0
 10
296.81903615037447
 20
212.87556073491771
 30
0.0
 40
3.0
 50
180.0
 51
270.0
1001
GENIUS_GENOBJ-N-FIL_13
1002
{
1000
OWNER
1000
GEN
1002
}
1001
GENIUS_GENODEF_13
1002
{
1000
HIER
1070
     0
1002
}
1002
{
1000
MANEDIT
1070
     0
1002
}
1002
{
1000
NOSEL
1070
     0
1002
}
1002
{
1000
BEHIND
1070
     0
1002
}
1002
{
1000
OTHER
1070
     0
1002
}
1002
{
1000
REACTOR
1002
}
  0
LINE
  5
10AC0
  8
AM_0
 10
293.81903615037447
 20
215.49078442406699
 30
0.0
 11
299.43425983952352
 21
209.87556073491771
 31
0.0
  0
LINE
  5
10AC1
  8
ﾁｭｳｼﾝｾﾝ1
 10
316.31903480927008
 20
219.87556073491791
 30
0.0
 11
316.31903480927019
 21
195.37556073491771
 31
0.0
  0
ARC
  5
10AC2
  8
AM_0
 10
296.81903615037379
 20
212.87556073491771
 30
0.0
 40
7.5
 50
180.0
 51
270.0
1001
GENIUS_GENOBJ-N-FIL_13
1002
{
1000
OWNER
1000
GEN
1002
}
1001
GENIUS_GENODEF_13
1002
{
1000
HIER
1070
     0
1002
}
1002
{
1000
MANEDIT
1070
     0
1002
}
1002
{
1000
NOSEL
1070
     0
1002
}
1002
{
1000
BEHIND
1070
     0
1002
}
1002
{
1000
OTHER
1070
     0
1002
}
1002
{
1000
REACTOR
1002
}
  0
ARC
  5
10AC3
  8
AM_0
 10
205.81903388539831
 20
212.87556073491771
 30
0.0
 40
7.5
 50
270.0
 51
0.000000000000007
1001
GENIUS_GENOBJ-N-FIL_13
1002
{
1000
OWNER
1000
GEN
1002
}
1001
GENIUS_GENODEF_13
1002
{
1000
HIER
1070
     0
1002
}
1002
{
1000
MANEDIT
1070
     0
1002
}
1002
{
1000
NOSEL
1070
     0
1002
}
1002
{
1000
BEHIND
1070
     0
1002
}
1002
{
1000
OTHER
1070
     0
1002
}
1002
{
1000
REACTOR
1002
}
  0
LINE
  5
10AC5
  8
AM_0
 10
326.31903615037328
 20
209.87556073491771
 30
0.0
 11
296.81903615037447
 21
209.87556073491771
 31
0.0
  0
LINE
  5
10AC6
  8
AM_0
 10
326.31903615037328
 20
205.37556073491771
 30
0.0
 11
296.81903615037379
 21
205.37556073491771
 31
0.0
  0
LINE
  5
10AC7
  8
AM_0
 10
326.31903615037328
 20
209.87556073491771
 30
0.0
 11
326.31903615037328
 21
205.37556073491771
 31
0.0
  0
LINE
  5
10AC8
  8
ｶｸﾚｾﾝ2
 10
321.31903480926968
 20
205.3755607349178
 30
0.0
 11
321.31903480926968
 21
209.8755607349178
 31
0.0
  0
LINE
  5
10AC9
  8
ｶｸﾚｾﾝ2
 10
311.31903480927002
 20
205.3755607349178
 30
0.0
 11
311.31903480927002
 21
209.8755607349178
 31
0.0
  0
ARC
  5
10ACA
  8
AM_0
 10
251.31903501788531
 20
275.37556045179559
 30
0.0
 40
56.5
 50
244.48212463480019
 51
297.51787536520271
  0
LINE
  5
10ACB
  8
AM_0
 10
226.31903427282589
 20
224.37555893187721
 30
0.0
 11
289.31903615037368
 21
225.47522805512759
 31
0.0
  0
LINE
  5
10ACC
  8
AM_0
 10
200.72903388539689
 20
231.62555925970281
 30
0.0
 11
207.22903388539649
 21
231.62555925970281
 31
0.0
  0
LINE
  5
10ACD
  8
AM_0
 10
200.72903388539689
 20
227.87555925970281
 30
0.0
 11
207.2290338853968
 21
227.8755592597029
 31
0.0
  0
LINE
  5
10ACE
  8
AM_0
 10
200.72903388539689
 20
239.12555925970281
 30
0.0
 11
207.2290338853968
 21
239.1255592597027
 31
0.0
  0
LINE
  5
10ACF
  8
AM_0
 10
200.72903388539689
 20
242.87555925970281
 30
0.0
 11
207.2290338853968
 21
242.8755592597027
 31
0.0
  0
LINE
  5
10AD0
  8
AM_0
 10
200.4090361503732
 20
239.37555925970281
 30
0.0
 11
200.4090361503732
 21
231.3755592597027
 31
0.0
  0
LINE
  5
10AD1
  8
AM_0
 10
200.72903388539689
 20
242.87555925970281
 30
0.0
 11
200.72903388539689
 21
227.87555925970281
 31
0.0
  0
LINE
  5
10AD3
  8
AM_0
 10
298.81903762558881
 20
228.87555925970281
 30
0.0
 11
314.81903615037407
 21
212.8755607349178
 31
0.0
  0
LINE
  5
10AD4
  8
AM_0
 10
200.72903388539689
 20
231.3755592597027
 30
0.0
 11
200.40903615037291
 21
231.3755592597027
 31
0.0
  0
ARC
  5
10ADA
  8
AM_0
 10
307.27839913987629
 20
243.4130095078178
 30
0.0
 40
1.9655366667591301
 50
93.158470226074797
 51
269.35044678893439
  0
LINE
  5
10ADB
  8
AM_0
 10
308.3539345145881
 20
239.34185839958371
 30
0.0
 11
303.40903615037303
 21
239.16917874364671
 31
0.0
  0
LINE
  5
10ADC
  8
AM_0
 10
308.35393451458788
 20
241.4092625040077
 30
0.0
 11
303.40903615037303
 21
241.58194215994459
 31
0.0
  0
ARC
  5
10ADE
  8
AM_0
 10
308.31903501788548
 20
240.4098716769889
 30
0.0
 40
1.0
 50
359.99999999999682
 51
88.000000000002856
1001
GENIUS_GENODEF_13
1002
{
1000
HIER
1070
     0
1002
}
1002
{
1000
MANEDIT
1070
     0
1002
}
1002
{
1000
NOSEL
1070
     0
1002
}
1002
{
1000
BEHIND
1070
     0
1002
}
1002
{
1000
REACTOR
1002
}
1001
GENIUS_GENOBJ-N-FIL_13
1002
{
1000
OWNER
1000
GEN
1002
}
  0
ARC
  5
10ADF
  8
AM_0
 10
308.31903501788548
 20
240.3412492266026
 30
0.0
 40
1.0
 50
272.00000000000369
 51
0.0000000000032639
1001
GENIUS_GENODEF_13
1002
{
1000
HIER
1070
     0
1002
}
1002
{
1000
MANEDIT
1070
     0
1002
}
1002
{
1000
NOSEL
1070
     0
1002
}
1002
{
1000
BEHIND
1070
     0
1002
}
1002
{
1000
REACTOR
1002
}
1001
GENIUS_GENOBJ-N-FIL_13
1002
{
1000
OWNER
1000
GEN
1002
}
  0
LINE
  5
10AE0
  8
AM_0
 10
309.3190350178856
 20
240.4098716769889
 30
0.0
 11
309.3190350178856
 21
240.3412492266026
 31
0.0
  0
LINE
  5
10AE1
  8
AM_5
 10
200.72903388539689
 20
238.37555925970281
 30
0.0
 11
200.4090361503732
 21
238.37555925970281
 31
0.0
  0
LINE
  5
10AE2
  8
AM_0
 10
200.72903388539689
 20
239.37555925970281
 30
0.0
 11
200.4090361503732
 21
239.37555925970281
 31
0.0
  0
LINE
  5
10AE3
  8
AM_5
 10
200.72903388539689
 20
232.37555925970281
 30
0.0
 11
200.40903615037291
 21
232.37555925970281
 31
0.0
  0
LINE
  5
10AE4
  8
AM_0
 10
295.40903615037411
 20
243.87555925970281
 30
0.0
 11
295.40903615037439
 21
226.8755592597027
 31
0.0
  0
LINE
  5
10AE5
  8
AM_0
 10
293.8190361503743
 20
245.37555925970321
 30
0.0
 11
293.81903615037447
 21
212.87556073491771
 31
0.0
  0
LINE
  5
10AE6
  8
AM_0
 10
217.41208362902819
 20
221.37556045179579
 30
0.0
 11
225.1475041567204
 21
221.37556045179571
 31
0.0
  0
LINE
  5
10AE7
  8
AM_0
 10
226.31903427282739
 20
224.37555893187721
 30
0.0
 11
213.3190338853972
 21
224.60247478270659
 31
0.0
  0
LINE
  5
10AE8
  8
AM_0
 10
217.36550088428211
 20
220.04160517462529
 30
0.0
 11
217.52220793976619
 21
224.529108106683
 31
0.0
  0
LINE
  5
10AE9
  8
AM_0
 10
215.29493519517649
 20
220.0656890789657
 30
0.0
 11
215.13761565353141
 21
224.57073131986661
 31
0.0
  0
ARC
  5
10AEA
  8
AM_0
 10
216.29432602219561
 20
220.1005885756681
 30
0.0
 40
1.0
 50
182.00000000000691
 51
251.43341919809691
1001
GENIUS_GENODEF_13
1002
{
1000
HIER
1070
     0
1002
}
1002
{
1000
MANEDIT
1070
     0
1002
}
1002
{
1000
NOSEL
1070
     0
1002
}
1002
{
1000
BEHIND
1070
     0
1002
}
1002
{
1000
REACTOR
1002
}
1001
GENIUS_GENOBJ-N-FIL_13
1002
{
1000
OWNER
1000
GEN
1002
}
  0
ARC
  5
10AEB
  8
AM_0
 10
216.3661100572632
 20
220.07650467132811
 30
0.0
 40
1.0
 50
251.47285768553181
 51
357.99999999999642
1001
GENIUS_GENODEF_13
1002
{
1000
HIER
1070
     0
1002
}
1002
{
1000
MANEDIT
1070
     0
1002
}
1002
{
1000
NOSEL
1070
     0
1002
}
1002
{
1000
BEHIND
1070
     0
1002
}
1002
{
1000
REACTOR
1002
}
1001
GENIUS_GENOBJ-N-FIL_13
1002
{
1000
OWNER
1000
GEN
1002
}
  0
ARC
  5
10AEC
  8
AM_0
 10
251.31903501788531
 20
324.37556045179571
 30
0.0
 40
111.0
 50
251.43341919810379
 51
251.47285768553181
  0
LINE
  5
10AED
  8
AM_0
 10
295.40903615037439
 20
226.8755592597027
 30
0.0
 11
293.81903615037407
 21
226.8755592597027
 31
0.0
  0
LINE
  5
10AEE
  8
AM_0
 10
225.2924242919261
 20
217.2255907542569
 30
0.0
 11
225.041963470095
 21
224.3978502856568
 31
0.0
  0
LINE
  5
10AEF
  8
AM_0
 10
227.36122094092971
 20
217.20925601993409
 30
0.0
 11
227.60166267420101
 21
224.09460639367549
 31
0.0
  0
LINE
  5
10AF0
  8
AM_0
 10
235.2897876618191
 20
215.37230126882349
 30
0.0
 11
235.0842452579719
 21
221.25826560577249
 31
0.0
  0
ARC
  5
10AF1
  8
AM_0
 10
226.36183011391049
 20
217.24415551663671
 30
0.0
 40
1.0
 50
256.88632985670131
 51
357.99999999999642
1001
GENIUS_GENODEF_13
1002
{
1000
HIER
1070
     0
1002
}
1002
{
1000
MANEDIT
1070
     0
1002
}
1002
{
1000
NOSEL
1070
     0
1002
}
1002
{
1000
BEHIND
1070
     0
1002
}
1002
{
1000
REACTOR
1002
}
1001
GENIUS_GENOBJ-N-FIL_13
1002
{
1000
OWNER
1000
GEN
1002
}
  0
ARC
  5
10AF2
  8
AM_0
 10
226.29181511894521
 20
217.26049025095949
 30
0.0
 40
1.0
 50
181.99999999999719
 51
256.8488817393515
1001
GENIUS_GENODEF_13
1002
{
1000
HIER
1070
     0
1002
}
1002
{
1000
MANEDIT
1070
     0
1002
}
1002
{
1000
NOSEL
1070
     0
1002
}
1002
{
1000
BEHIND
1070
     0
1002
}
1002
{
1000
REACTOR
1002
}
1001
GENIUS_GENOBJ-N-FIL_13
1002
{
1000
OWNER
1000
GEN
1002
}
  0
ARC
  5
10AF3
  8
AM_0
 10
251.31903501788531
 20
324.37556045179571
 30
0.0
 40
111.0
 50
256.8488817393515
 51
256.88632985669449
  0
ARC
  5
10AF4
  8
AM_0
 10
236.2891784888383
 20
215.40720076552611
 30
0.0
 40
1.0
 50
181.99999999999719
 51
262.14682191119402
1001
GENIUS_GENODEF_13
1002
{
1000
HIER
1070
     0
1002
}
1002
{
1000
MANEDIT
1070
     0
1002
}
1002
{
1000
NOSEL
1070
     0
1002
}
1002
{
1000
BEHIND
1070
     0
1002
}
1002
{
1000
REACTOR
1002
}
1001
GENIUS_GENOBJ-N-FIL_13
1002
{
1000
OWNER
1000
GEN
1002
}
  0
ARC
  5
10AF5
  8
AM_0
 10
251.31903501788531
 20
324.37556045179571
 30
0.0
 40
111.0
 50
262.14682191118732
 51
262.18305216830549
  0
ARC
  5
10AF6
  8
AM_0
 10
236.35808624477289
 20
215.39771861315259
 30
0.0
 40
1.0
 50
262.18305216830549
 51
357.99999999999949
1001
GENIUS_GENODEF_13
1002
{
1000
HIER
1070
     0
1002
}
1002
{
1000
MANEDIT
1070
     0
1002
}
1002
{
1000
NOSEL
1070
     0
1002
}
1002
{
1000
BEHIND
1070
     0
1002
}
1002
{
1000
REACTOR
1002
}
1001
GENIUS_GENOBJ-N-FIL_13
1002
{
1000
OWNER
1000
GEN
1002
}
  0
LINE
  5
10AF7
  8
AM_0
 10
237.357477071792
 20
215.36281911645
 30
0.0
 11
237.53972015765811
 21
220.5815782823758
 31
0.0
  0
LINE
  5
10AF8
  8
AM_0
 10
293.31903626958302
 20
247.8755596322317
 30
0.0
 11
289.31903615037368
 21
247.8755596322317
 31
0.0
  0
LINE
  5
10AF9
  8
0
 10
293.81903615037447
 20
245.3755592597031
 30
0.0
 11
289.31903615037379
 21
245.3755592597031
 31
0.0
  0
LINE
  5
10AFA
  8
AM_0
 10
295.40903615037439
 20
243.87555925970281
 30
0.0
 11
293.81903615037407
 21
243.87555925970281
 31
0.0
  0
ARC
  5
10AFC
  8
AM_0
 10
256.28332763564879
 20
214.48763664392141
 30
0.0
 40
1.0
 50
182.00000000000369
 51
272.58663322877328
1001
GENIUS_GENODEF_13
1002
{
1000
HIER
1070
     0
1002
}
1002
{
1000
MANEDIT
1070
     0
1002
}
1002
{
1000
NOSEL
1070
     0
1002
}
1002
{
1000
BEHIND
1070
     0
1002
}
1002
{
1000
REACTOR
1002
}
1001
GENIUS_GENOBJ-N-FIL_13
1002
{
1000
OWNER
1000
GEN
1002
}
  0
ARC
  5
10AFD
  8
AM_0
 10
251.31903501788531
 20
324.37556045179571
 30
0.0
 40
111.0
 50
267.37771591204711
 51
267.41336677122672
  0
ARC
  5
10AFE
  8
AM_0
 10
246.2863683660058
 20
214.4907468223816
 30
0.0
 40
1.0
 50
182.0000000000004
 51
267.37771591204711
1001
GENIUS_GENODEF_13
1002
{
1000
HIER
1070
     0
1002
}
1002
{
1000
MANEDIT
1070
     0
1002
}
1002
{
1000
NOSEL
1070
     0
1002
}
1002
{
1000
BEHIND
1070
     0
1002
}
1002
{
1000
REACTOR
1002
}
1001
GENIUS_GENOBJ-N-FIL_13
1002
{
1000
OWNER
1000
GEN
1002
}
  0
ARC
  5
10AFF
  8
AM_0
 10
246.35474240012201
 20
214.48763664392141
 30
0.0
 40
1.0
 50
267.41336677122672
 51
357.99999999999642
1001
GENIUS_GENODEF_13
1002
{
1000
HIER
1070
     0
1002
}
1002
{
1000
MANEDIT
1070
     0
1002
}
1002
{
1000
NOSEL
1070
     0
1002
}
1002
{
1000
BEHIND
1070
     0
1002
}
1002
{
1000
REACTOR
1002
}
1001
GENIUS_GENOBJ-N-FIL_13
1002
{
1000
OWNER
1000
GEN
1002
}
  0
LINE
  5
10B00
  8
AM_0
 10
245.28697753898689
 20
214.455847325679
 30
0.0
 11
245.12072906513899
 21
219.2165807306848
 31
0.0
  0
LINE
  5
10B01
  8
AM_0
 10
247.35413322714129
 20
214.4527371472185
 30
0.0
 11
247.51306318850189
 21
219.00389577499249
 31
0.0
  0
LINE
  5
10B02
  8
AM_0
 10
255.28393680862979
 20
214.4527371472185
 30
0.0
 11
255.12500684726871
 21
219.00389577499249
 31
0.0
  0
LINE
  5
10B03
  8
AM_0
 10
267.34828237395152
 20
215.37230126882349
 30
0.0
 11
267.55382477779892
 21
221.25826560577249
 31
0.0
  0
ARC
  5
10B04
  8
AM_0
 10
251.31903501788531
 20
324.37556045179571
 30
0.0
 40
111.0
 50
272.58663322877328
 51
272.62228408795289
  0
ARC
  5
10B05
  8
AM_0
 10
256.35170166976491
 20
214.4907468223816
 30
0.0
 40
1.0
 50
272.62228408795289
 51
357.99999999999949
1001
GENIUS_GENODEF_13
1002
{
1000
HIER
1070
     0
1002
}
1002
{
1000
MANEDIT
1070
     0
1002
}
1002
{
1000
NOSEL
1070
     0
1002
}
1002
{
1000
BEHIND
1070
     0
1002
}
1002
{
1000
REACTOR
1002
}
1001
GENIUS_GENOBJ-N-FIL_13
1002
{
1000
OWNER
1000
GEN
1002
}
  0
LINE
  5
10B06
  8
AM_0
 10
257.35109249678402
 20
214.455847325679
 30
0.0
 11
257.51734097063189
 21
219.2165807306848
 31
0.0
  0
ARC
  5
10B07
  8
AM_0
 10
266.34889154693258
 20
215.40720076552611
 30
0.0
 40
1.0
 50
277.85317808880598
 51
357.99999999999949
1001
GENIUS_GENODEF_13
1002
{
1000
HIER
1070
     0
1002
}
1002
{
1000
MANEDIT
1070
     0
1002
}
1002
{
1000
NOSEL
1070
     0
1002
}
1002
{
1000
BEHIND
1070
     0
1002
}
1002
{
1000
REACTOR
1002
}
1001
GENIUS_GENOBJ-N-FIL_13
1002
{
1000
OWNER
1000
GEN
1002
}
  0
ARC
  5
10B08
  8
AM_0
 10
251.31903501788531
 20
324.37556045179571
 30
0.0
 40
111.0
 50
277.81694783169439
 51
277.8531780888128
  0
ARC
  5
10B09
  8
AM_0
 10
266.27998379099802
 20
215.39771861315259
 30
0.0
 40
1.0
 50
182.0000000000004
 51
277.81694783169439
1001
GENIUS_GENODEF_13
1002
{
1000
HIER
1070
     0
1002
}
1002
{
1000
MANEDIT
1070
     0
1002
}
1002
{
1000
NOSEL
1070
     0
1002
}
1002
{
1000
BEHIND
1070
     0
1002
}
1002
{
1000
REACTOR
1002
}
1001
GENIUS_GENOBJ-N-FIL_13
1002
{
1000
OWNER
1000
GEN
1002
}
  0
LINE
  5
10B0A
  8
AM_0
 10
265.28059296397907
 20
215.36281911645
 30
0.0
 11
265.09834987811257
 21
220.5815782823758
 31
0.0
  0
LINE
  5
10B0B
  8
AM_0
 10
207.22903388539771
 20
243.87555925970281
 30
0.0
 11
207.22903388539771
 21
226.8755592597027
 31
0.0
  0
LINE
  5
10B0C
  8
AM_0
 10
303.40903615037303
 20
241.87555925970261
 30
0.0
 11
303.40903615037303
 21
228.87555925970281
 31
0.0
  0
LINE
  5
10B0D
  8
AM_0
 10
208.81903388539749
 20
245.37555925970321
 30
0.0
 11
208.8190338853976
 21
212.87556073491771
 31
0.0
  0
LINE
  5
10B0E
  8
AM_0
 10
287.3431348405943
 20
220.06568907896551
 30
0.0
 11
287.53095018663259
 21
225.44401689853319
 31
0.0
  0
LINE
  5
10B0F
  8
AM_0
 10
285.2725691514886
 20
220.04160517462529
 30
0.0
 11
285.08540344605171
 21
225.40132972139139
 31
0.0
  0
LINE
  5
10B10
  8
AM_0
 10
277.34564574384478
 20
217.2255907542569
 30
0.0
 11
277.62660237006901
 21
225.2711358643235
 31
0.0
  0
LINE
  5
10B11
  8
AM_0
 10
275.27684909484122
 20
217.20925601993389
 30
0.0
 11
275.0364073615699
 21
224.09460639367549
 31
0.0
  0
ARC
  5
10B12
  8
AM_0
 10
251.31903501788531
 20
324.37556045179571
 30
0.0
 40
111.0
 50
283.11367014330528
 51
283.1511182606485
  0
ARC
  5
10B13
  8
AM_0
 10
276.27623992186028
 20
217.24415551663671
 30
0.0
 40
1.0
 50
182.00000000000369
 51
283.1136701432988
1001
GENIUS_GENODEF_13
1002
{
1000
HIER
1070
     0
1002
}
1002
{
1000
MANEDIT
1070
     0
1002
}
1002
{
1000
NOSEL
1070
     0
1002
}
1002
{
1000
BEHIND
1070
     0
1002
}
1002
{
1000
REACTOR
1002
}
1001
GENIUS_GENOBJ-N-FIL_13
1002
{
1000
OWNER
1000
GEN
1002
}
  0
ARC
  5
10B14
  8
AM_0
 10
276.34625491682561
 20
217.26049025095949
 30
0.0
 40
1.0
 50
283.1511182606485
 51
357.99999999999949
1001
GENIUS_GENODEF_13
1002
{
1000
HIER
1070
     0
1002
}
1002
{
1000
MANEDIT
1070
     0
1002
}
1002
{
1000
NOSEL
1070
     0
1002
}
1002
{
1000
BEHIND
1070
     0
1002
}
1002
{
1000
REACTOR
1002
}
1001
GENIUS_GENOBJ-N-FIL_13
1002
{
1000
OWNER
1000
GEN
1002
}
  0
ARC
  5
10B15
  8
AM_0
 10
286.27195997850788
 20
220.07650467132811
 30
0.0
 40
1.0
 50
182.0000000000004
 51
288.52714231446828
1001
GENIUS_GENODEF_13
1002
{
1000
HIER
1070
     0
1002
}
1002
{
1000
MANEDIT
1070
     0
1002
}
1002
{
1000
NOSEL
1070
     0
1002
}
1002
{
1000
BEHIND
1070
     0
1002
}
1002
{
1000
REACTOR
1002
}
1001
GENIUS_GENOBJ-N-FIL_13
1002
{
1000
OWNER
1000
GEN
1002
}
  0
ARC
  5
10B16
  8
AM_0
 10
286.34374401357519
 20
220.1005885756681
 30
0.0
 40
1.0
 50
288.56658080190323
 51
357.99999999999301
1001
GENIUS_GENODEF_13
1002
{
1000
HIER
1070
     0
1002
}
1002
{
1000
MANEDIT
1070
     0
1002
}
1002
{
1000
NOSEL
1070
     0
1002
}
1002
{
1000
BEHIND
1070
     0
1002
}
1002
{
1000
REACTOR
1002
}
1001
GENIUS_GENOBJ-N-FIL_13
1002
{
1000
OWNER
1000
GEN
1002
}
  0
ARC
  5
10B17
  8
AM_0
 10
251.31903501788531
 20
324.37556045179571
 30
0.0
 40
111.0
 50
288.52714231446828
 51
288.56658080189618
  0
LINE
  5
10B18
  8
AM_0
 10
285.22598640674232
 20
221.37556045179579
 30
0.0
 11
277.49056587905
 21
221.37556045179571
 31
0.0
  0
LINE
  5
10B19
  8
AM_0
 10
295.40903615037308
 20
228.87555925970281
 30
0.0
 11
303.40903615037303
 21
228.87555925970281
 31
0.0
  0
LINE
  5
10B1A
  8
AM_0
 10
207.22903388539771
 20
226.8755592597027
 30
0.0
 11
208.8190338853976
 21
226.8755592597027
 31
0.0
  0
LINE
  5
10B1B
  8
AM_0
 10
209.31903376618791
 20
247.8755596322317
 30
0.0
 11
213.3190338853972
 21
247.8755596322317
 31
0.0
  0
LINE
  5
10B1C
  8
0
 10
208.81903388539661
 20
245.3755592597031
 30
0.0
 11
213.31903388539729
 21
245.3755592597031
 31
0.0
  0
LINE
  5
10B1E
  8
AM_0
 10
295.40903615037308
 20
241.87555925970261
 30
0.0
 11
303.40903615037303
 21
241.87555925970261
 31
0.0
  0
LINE
  5
10B20
  8
AM_0
 10
207.22903388539771
 20
243.87555925970281
 30
0.0
 11
208.8190338853976
 21
243.87555925970281
 31
0.0
  0
LINE
  5
10B21
  8
AM_0
 10
206.31903329678079
 20
290.37556089883032
 30
0.0
 11
206.31903329678079
 21
260.37556000476059
 31
0.0
  0
LINE
  5
10B22
  8
AM_0
 10
206.31903329678079
 20
260.37556000476059
 30
0.0
 11
209.31903338618781
 21
260.37556000476059
 31
0.0
  0
LINE
  5
10B23
  8
AM_0
 10
206.31903329678079
 20
290.37556089883032
 30
0.0
 11
209.31903338618781
 21
290.37556089883032
 31
0.0
  0
LINE
  5
10B24
  8
AM_0
 10
187.81903388539661
 20
212.8755607349174
 30
0.0
 11
187.81903388539689
 21
209.87556073491771
 31
0.0
  0
LINE
  5
10B26
  8
ﾁｭｳｼﾝｾﾝ1
 10
186.31903522650231
 20
219.875560734918
 30
0.0
 11
186.31903522650219
 21
195.3755607349176
 31
0.0
  0
LINE
  5
10B2A
  8
ｶｸﾚｾﾝ2
 10
191.31903522650251
 20
205.3755607349178
 30
0.0
 11
191.31903522650251
 21
209.8755607349178
 31
0.0
  0
LINE
  5
10B2B
  8
ｶｸﾚｾﾝ2
 10
181.319035226502
 20
205.3755607349178
 30
0.0
 11
181.319035226502
 21
209.8755607349178
 31
0.0
  0
LINE
  5
10B2C
  8
AM_0
 10
176.3190338853984
 20
209.87556073491771
 30
0.0
 11
176.3190338853984
 21
205.37556073491771
 31
0.0
  0
ARC
  5
10B2E
  8
AM_0
 10
196.0440631417581
 20
240.350851456106
 30
0.0
 40
1.0
 50
198.56658080190289
 51
267.99999999999642
1001
GENIUS_GENODEF_13
1002
{
1000
HIER
1070
     0
1002
}
1002
{
1000
MANEDIT
1070
     0
1002
}
1002
{
1000
NOSEL
1070
     0
1002
}
1002
{
1000
BEHIND
1070
     0
1002
}
1002
{
1000
REACTOR
1002
}
1001
GENIUS_GENOBJ-N-FIL_13
1002
{
1000
OWNER
1000
GEN
1002
}
  0
ARC
  5
10B2F
  8
AM_0
 10
196.01997923741811
 20
240.42263549117339
 30
0.0
 40
1.0
 50
91.999999999997158
 51
198.52714231447129
1001
GENIUS_GENODEF_13
1002
{
1000
HIER
1070
     0
1002
}
1002
{
1000
MANEDIT
1070
     0
1002
}
1002
{
1000
NOSEL
1070
     0
1002
}
1002
{
1000
BEHIND
1070
     0
1002
}
1002
{
1000
REACTOR
1002
}
1001
GENIUS_GENOBJ-N-FIL_13
1002
{
1000
OWNER
1000
GEN
1002
}
  0
ARC
  5
10B30
  8
AM_0
 10
300.31903501788548
 20
275.37556045179571
 30
0.0
 40
111.0
 50
198.52714231447129
 51
198.56658080189831
  0
ARC
  5
10B31
  8
AM_0
 10
193.20396481704921
 20
250.3483405528554
 30
0.0
 40
1.0
 50
193.15111826064941
 51
268.0000000000029
1001
GENIUS_GENODEF_13
1002
{
1000
HIER
1070
     0
1002
}
1002
{
1000
MANEDIT
1070
     0
1002
}
1002
{
1000
NOSEL
1070
     0
1002
}
1002
{
1000
BEHIND
1070
     0
1002
}
1002
{
1000
REACTOR
1002
}
1001
GENIUS_GENOBJ-N-FIL_13
1002
{
1000
OWNER
1000
GEN
1002
}
  0
ARC
  5
10B32
  8
AM_0
 10
300.31903501788548
 20
275.37556045179571
 30
0.0
 40
111.0
 50
193.11367014329761
 51
193.15111826064941
  0
ARC
  5
10B33
  8
AM_0
 10
193.1876300827266
 20
250.41835554782091
 30
0.0
 40
1.0
 50
92.000000000003624
 51
193.11367014329761
1001
GENIUS_GENODEF_13
1002
{
1000
HIER
1070
     0
1002
}
1002
{
1000
MANEDIT
1070
     0
1002
}
1002
{
1000
NOSEL
1070
     0
1002
}
1002
{
1000
BEHIND
1070
     0
1002
}
1002
{
1000
REACTOR
1002
}
1001
GENIUS_GENOBJ-N-FIL_13
1002
{
1000
OWNER
1000
GEN
1002
}
  0
LINE
  5
10B34
  8
AM_0
 10
182.31903329678079
 20
284.87556045179542
 30
0.0
 11
154.31903329678059
 21
284.87556045179542
 31
0.0
  0
LINE
  5
10B35
  8
AM_0
 10
154.31903329678059
 20
265.87556045179559
 30
0.0
 11
182.31903329678079
 21
265.87556044883348
 31
0.0
  0
LINE
  5
10B36
  8
AM_0
 10
154.31903329678059
 20
287.37556045179548
 30
0.0
 11
176.31903329678079
 21
287.37556045179548
 31
0.0
  0
LINE
  5
10B37
  8
AM_0
 10
182.31903329678079
 20
287.37556045179548
 30
0.0
 11
182.31903329678079
 21
263.37556045179548
 31
0.0
  0
ARC
  5
10B39
  8
AM_0
 10
191.34119317924259
 20
260.414611678683
 30
0.0
 40
1.0
 50
91.999999999997158
 51
187.8169478316909
1001
GENIUS_GENODEF_13
1002
{
1000
HIER
1070
     0
1002
}
1002
{
1000
MANEDIT
1070
     0
1002
}
1002
{
1000
NOSEL
1070
     0
1002
}
1002
{
1000
BEHIND
1070
     0
1002
}
1002
{
1000
REACTOR
1002
}
1001
GENIUS_GENOBJ-N-FIL_13
1002
{
1000
OWNER
1000
GEN
1002
}
  0
ARC
  5
10B3A
  8
AM_0
 10
300.31903501788548
 20
275.37556045179571
 30
0.0
 40
111.0
 50
187.81694783169581
 51
187.8531780888074
  0
ARC
  5
10B3C
  8
AM_0
 10
191.35067533161589
 20
260.34570392274838
 30
0.0
 40
1.0
 50
187.85317808880581
 51
268.0000000000029
1001
GENIUS_GENODEF_13
1002
{
1000
HIER
1070
     0
1002
}
1002
{
1000
MANEDIT
1070
     0
1002
}
1002
{
1000
NOSEL
1070
     0
1002
}
1002
{
1000
BEHIND
1070
     0
1002
}
1002
{
1000
REACTOR
1002
}
1001
GENIUS_GENOBJ-N-FIL_13
1002
{
1000
OWNER
1000
GEN
1002
}
  0
ARC
  5
10B3E
  8
AM_0
 10
191.35067533161589
 20
290.40541698084297
 30
0.0
 40
1.0
 50
91.999999999997158
 51
172.14682191119419
1001
GENIUS_GENODEF_13
1002
{
1000
HIER
1070
     0
1002
}
1002
{
1000
MANEDIT
1070
     0
1002
}
1002
{
1000
NOSEL
1070
     0
1002
}
1002
{
1000
BEHIND
1070
     0
1002
}
1002
{
1000
REACTOR
1002
}
1001
GENIUS_GENOBJ-N-FIL_13
1002
{
1000
OWNER
1000
GEN
1002
}
  0
ARC
  5
10B3F
  8
AM_0
 10
300.31903501788548
 20
275.37556045179571
 30
0.0
 40
111.0
 50
172.14682191119249
 51
172.1830521683091
  0
ARC
  5
10B40
  8
AM_0
 10
191.34119317924259
 20
290.3365092249083
 30
0.0
 40
1.0
 50
172.1830521683091
 51
268.0000000000029
1001
GENIUS_GENODEF_13
1002
{
1000
HIER
1070
     0
1002
}
1002
{
1000
MANEDIT
1070
     0
1002
}
1002
{
1000
NOSEL
1070
     0
1002
}
1002
{
1000
BEHIND
1070
     0
1002
}
1002
{
1000
REACTOR
1002
}
1001
GENIUS_GENOBJ-N-FIL_13
1002
{
1000
OWNER
1000
GEN
1002
}
  0
LINE
  5
10B41
  8
AM_0
 10
176.31903329678079
 20
287.37556045179548
 30
0.0
 11
176.31903329678079
 21
284.87556045179542
 31
0.0
  0
LINE
  5
10B42
  8
AM_0
 10
154.31903329678059
 20
265.87556045179559
 30
0.0
 11
154.31903329678059
 21
287.37556045179548
 31
0.0
  0
LINE
  5
10B43
  8
AM_0
 10
193.1690653203467
 20
301.40217117775478
 30
0.0
 11
201.2146104304135
 21
301.68312780397929
 31
0.0
  0
LINE
  5
10B44
  8
AM_0
 10
193.15273058602389
 20
299.33337452875151
 30
0.0
 11
200.03808095976541
 21
299.09293279548018
 31
0.0
  0
LINE
  5
10B45
  8
AM_0
 10
196.00916364505551
 20
311.39966027450481
 30
0.0
 11
205.3190350178854
 21
311.72476814671319
 31
0.0
  0
LINE
  5
10B46
  8
AM_0
 10
195.98507974071529
 20
309.32909458539888
 30
0.0
 11
205.31903501788551
 21
309.0031456847185
 31
0.0
  0
ARC
  5
10E4A
  8
AM_0
 10
251.3190350178854
 20
275.37556045179548
 30
0.0
 40
56.5
 50
62.482124634797451
 51
115.5178753651998
  0
LINE
  5
10E4B
  8
AM_0
 10
226.319034272826
 20
326.37556197171398
 30
0.0
 11
289.31903615037379
 21
325.2758928484634
 31
0.0
  0
ARC
  5
10E4C
  8
AM_0
 10
292.31903501788543
 20
316.37556045179548
 30
0.0
 40
5.0
 50
0.000000000000007
 51
90.0
1001
GENIUS_GENODEF_13
1002
{
1000
HIER
1070
     0
1002
}
1002
{
1000
MANEDIT
1070
     0
1002
}
1002
{
1000
NOSEL
1070
     0
1002
}
1002
{
1000
BEHIND
1070
     0
1002
}
1002
{
1000
REACTOR
1002
}
1001
GENIUS_GENOBJ-N-FIL_13
1002
{
1000
OWNER
1000
GEN
1002
}
  0
ARC
  5
10E51
  8
AM_0
 10
307.27839913987629
 20
307.33811139577358
 30
0.0
 40
1.9655366667591301
 50
90.649553211072103
 51
266.84152977392517
  0
LINE
  5
10E52
  8
AM_0
 10
308.35393451458788
 20
309.34185839958371
 30
0.0
 11
297.31903501788543
 21
308.9565112178949
 31
0.0
  0
LINE
  5
10E53
  8
AM_0
 10
308.3539345145881
 20
311.4092625040077
 30
0.0
 11
297.31903501788531
 21
311.7946096856972
 31
0.0
  0
ARC
  5
10E54
  8
AM_0
 10
308.31903501788548
 20
310.4098716769887
 30
0.0
 40
1.0
 50
0.000000000000007
 51
88.000000000002856
1001
GENIUS_GENODEF_13
1002
{
1000
HIER
1070
     0
1002
}
1002
{
1000
MANEDIT
1070
     0
1002
}
1002
{
1000
NOSEL
1070
     0
1002
}
1002
{
1000
BEHIND
1070
     0
1002
}
1002
{
1000
REACTOR
1002
}
1001
GENIUS_GENOBJ-N-FIL_13
1002
{
1000
OWNER
1000
GEN
1002
}
  0
ARC
  5
10E55
  8
AM_0
 10
308.31903501788548
 20
310.34124922660271
 30
0.0
 40
1.0
 50
272.00000000000369
 51
0.0000000000065208
1001
GENIUS_GENODEF_13
1002
{
1000
HIER
1070
     0
1002
}
1002
{
1000
MANEDIT
1070
     0
1002
}
1002
{
1000
NOSEL
1070
     0
1002
}
1002
{
1000
BEHIND
1070
     0
1002
}
1002
{
1000
REACTOR
1002
}
1001
GENIUS_GENOBJ-N-FIL_13
1002
{
1000
OWNER
1000
GEN
1002
}
  0
LINE
  5
10E56
  8
AM_0
 10
309.3190350178856
 20
310.34124922660271
 30
0.0
 11
309.3190350178856
 21
310.4098716769887
 31
0.0
  0
ARC
  5
10E57
  8
AM_0
 10
298.81903501788543
 20
308.65843893308062
 30
0.0
 40
1.5
 50
180.0
 51
215.01862826208429
1001
GENIUS_GENODEF_13
1002
{
1000
HIER
1070
     0
1002
}
1002
{
1000
MANEDIT
1070
     0
1002
}
1002
{
1000
NOSEL
1070
     0
1002
}
1002
{
1000
BEHIND
1070
     0
1002
}
1002
{
1000
REACTOR
1002
}
1001
GENIUS_GENOBJ-N-FIL_13
1002
{
1000
OWNER
1000
GEN
1002
}
  0
LINE
  5
10E58
  8
AM_0
 10
297.31903501788543
 20
308.65843893308062
 30
0.0
 11
297.31903501788543
 21
316.37556045179559
 31
0.0
1001
GENIUS_GENODEF_13
1002
{
1000
HIER
1070
     0
1002
}
1002
{
1000
MANEDIT
1070
     0
1002
}
1002
{
1000
NOSEL
1070
     0
1002
}
1002
{
1000
BEHIND
1070
     0
1002
}
1002
{
1000
REACTOR
1002
}
1001
GENIUS_GENOBJ-N-CEN_13
1002
{
1000
OWNER
1000
GEN
1002
}
  0
LINE
  5
10E59
  8
AM_0
 10
293.31903626958302
 20
302.87556127135929
 30
0.0
 11
289.31903615037368
 21
302.87556127135929
 31
0.0
  0
LINE
  5
10E5A
  8
AM_0
 10
217.41208362902819
 20
329.37556045179559
 30
0.0
 11
225.1475041567204
 21
329.37556045179571
 31
0.0
  0
LINE
  5
10E5B
  8
AM_0
 10
226.31903427282751
 20
326.37556197171392
 30
0.0
 11
213.31903388539729
 21
326.14864612088451
 31
0.0
  0
LINE
  5
10E5C
  8
AM_0
 10
217.36550088428211
 20
330.70951572896621
 30
0.0
 11
217.52220793976619
 21
326.22201279690807
 31
0.0
  0
LINE
  5
10E5D
  8
AM_0
 10
215.29493519517649
 20
330.68543182462571
 30
0.0
 11
215.1376156535313
 21
326.1803895837246
 31
0.0
  0
LINE
  5
10E5E
  8
AM_0
 10
289.31903501788548
 20
321.37556045179559
 30
0.0
 11
292.31903501788543
 21
321.37556045179559
 31
0.0
  0
ARC
  5
10E5F
  8
AM_0
 10
216.29432602219561
 20
330.65053232792337
 30
0.0
 40
1.0
 50
108.5665808019031
 51
177.99999999999301
1001
GENIUS_GENODEF_13
1002
{
1000
HIER
1070
     0
1002
}
1002
{
1000
MANEDIT
1070
     0
1002
}
1002
{
1000
NOSEL
1070
     0
1002
}
1002
{
1000
BEHIND
1070
     0
1002
}
1002
{
1000
REACTOR
1002
}
1001
GENIUS_GENOBJ-N-FIL_13
1002
{
1000
OWNER
1000
GEN
1002
}
  0
ARC
  5
10E60
  8
AM_0
 10
251.31903501788531
 20
226.37556045179571
 30
0.0
 40
111.0
 50
108.52714231446819
 51
108.56658080189619
  0
ARC
  5
10E61
  8
AM_0
 10
216.3661100572632
 20
330.6746162322633
 30
0.0
 40
1.0
 50
2.000000000003725
 51
108.52714231446819
1001
GENIUS_GENODEF_13
1002
{
1000
HIER
1070
     0
1002
}
1002
{
1000
MANEDIT
1070
     0
1002
}
1002
{
1000
NOSEL
1070
     0
1002
}
1002
{
1000
BEHIND
1070
     0
1002
}
1002
{
1000
REACTOR
1002
}
1001
GENIUS_GENOBJ-N-FIL_13
1002
{
1000
OWNER
1000
GEN
1002
}
  0
LINE
  5
10E62
  8
AM_0
 10
225.2924242919261
 20
333.52553014933449
 30
0.0
 11
225.041963470095
 21
326.3532706179343
 31
0.0
  0
LINE
  5
10E63
  8
AM_0
 10
227.36122094092971
 20
333.5418648836573
 30
0.0
 11
227.60166267420101
 21
326.65651450991589
 31
0.0
  0
ARC
  5
10E64
  8
AM_0
 10
226.36183011391049
 20
333.50696538695468
 30
0.0
 40
1.0
 50
2.000000000003725
 51
103.11367014329871
1001
GENIUS_GENODEF_13
1002
{
1000
HIER
1070
     0
1002
}
1002
{
1000
MANEDIT
1070
     0
1002
}
1002
{
1000
NOSEL
1070
     0
1002
}
1002
{
1000
BEHIND
1070
     0
1002
}
1002
{
1000
REACTOR
1002
}
1001
GENIUS_GENOBJ-N-FIL_13
1002
{
1000
OWNER
1000
GEN
1002
}
  0
ARC
  5
10E65
  8
AM_0
 10
226.29181511894521
 20
333.49063065263198
 30
0.0
 40
1.0
 50
103.1511182606484
 51
177.99999999999949
1001
GENIUS_GENODEF_13
1002
{
1000
HIER
1070
     0
1002
}
1002
{
1000
MANEDIT
1070
     0
1002
}
1002
{
1000
NOSEL
1070
     0
1002
}
1002
{
1000
BEHIND
1070
     0
1002
}
1002
{
1000
REACTOR
1002
}
1001
GENIUS_GENOBJ-N-FIL_13
1002
{
1000
OWNER
1000
GEN
1002
}
  0
ARC
  5
10E66
  8
AM_0
 10
251.31903501788531
 20
226.37556045179571
 30
0.0
 40
111.0
 50
103.11367014329871
 51
103.1511182606484
  0
ARC
  5
10E67
  8
AM_0
 10
236.2891784888383
 20
335.34392013806541
 30
0.0
 40
1.0
 50
97.853178088806075
 51
177.99999999999949
1001
GENIUS_GENODEF_13
1002
{
1000
HIER
1070
     0
1002
}
1002
{
1000
MANEDIT
1070
     0
1002
}
1002
{
1000
NOSEL
1070
     0
1002
}
1002
{
1000
BEHIND
1070
     0
1002
}
1002
{
1000
REACTOR
1002
}
1001
GENIUS_GENOBJ-N-FIL_13
1002
{
1000
OWNER
1000
GEN
1002
}
  0
ARC
  5
10E68
  8
AM_0
 10
251.31903501788531
 20
226.37556045179571
 30
0.0
 40
111.0
 50
97.816947831694506
 51
97.853178088812811
  0
ARC
  5
10E69
  8
AM_0
 10
236.35808624477289
 20
335.35340229043879
 30
0.0
 40
1.0
 50
2.0000000000004681
 51
97.816947831694506
1001
GENIUS_GENODEF_13
1002
{
1000
HIER
1070
     0
1002
}
1002
{
1000
MANEDIT
1070
     0
1002
}
1002
{
1000
NOSEL
1070
     0
1002
}
1002
{
1000
BEHIND
1070
     0
1002
}
1002
{
1000
REACTOR
1002
}
1001
GENIUS_GENOBJ-N-FIL_13
1002
{
1000
OWNER
1000
GEN
1002
}
  0
LINE
  5
10E6A
  8
AM_0
 10
237.357477071792
 20
335.38830178714142
 30
0.0
 11
237.53972015765811
 21
330.16954262121561
 31
0.0
  0
LINE
  5
10E6B
  8
AM_0
 10
235.2897876618191
 20
335.37881963476792
 30
0.0
 11
235.0842452579719
 21
329.49285529781889
 31
0.0
  0
ARC
  5
10E6C
  8
AM_0
 10
256.28332763564879
 20
336.26348425967012
 30
0.0
 40
1.0
 50
87.413366771226691
 51
177.99999999999619
1001
GENIUS_GENODEF_13
1002
{
1000
HIER
1070
     0
1002
}
1002
{
1000
MANEDIT
1070
     0
1002
}
1002
{
1000
NOSEL
1070
     0
1002
}
1002
{
1000
BEHIND
1070
     0
1002
}
1002
{
1000
REACTOR
1002
}
1001
GENIUS_GENOBJ-N-FIL_13
1002
{
1000
OWNER
1000
GEN
1002
}
  0
ARC
  5
10E6D
  8
AM_0
 10
251.31903501788531
 20
226.37556045179571
 30
0.0
 40
111.0
 50
92.586633228773294
 51
92.622284087952863
  0
ARC
  5
10E6E
  8
AM_0
 10
246.2863683660058
 20
336.26037408120982
 30
0.0
 40
1.0
 50
92.622284087952863
 51
177.99999999999949
1001
GENIUS_GENODEF_13
1002
{
1000
HIER
1070
     0
1002
}
1002
{
1000
MANEDIT
1070
     0
1002
}
1002
{
1000
NOSEL
1070
     0
1002
}
1002
{
1000
BEHIND
1070
     0
1002
}
1002
{
1000
REACTOR
1002
}
1001
GENIUS_GENOBJ-N-FIL_13
1002
{
1000
OWNER
1000
GEN
1002
}
  0
ARC
  5
10E6F
  8
AM_0
 10
246.35474240012201
 20
336.26348425967012
 30
0.0
 40
1.0
 50
2.000000000003725
 51
92.586633228773294
1001
GENIUS_GENODEF_13
1002
{
1000
HIER
1070
     0
1002
}
1002
{
1000
MANEDIT
1070
     0
1002
}
1002
{
1000
NOSEL
1070
     0
1002
}
1002
{
1000
BEHIND
1070
     0
1002
}
1002
{
1000
REACTOR
1002
}
1001
GENIUS_GENOBJ-N-FIL_13
1002
{
1000
OWNER
1000
GEN
1002
}
  0
LINE
  5
10E70
  8
AM_0
 10
245.28697753898689
 20
336.29527357791238
 30
0.0
 11
245.12072906513899
 21
331.53454017290659
 31
0.0
  0
LINE
  5
10E71
  8
AM_0
 10
247.35413322714129
 20
336.2983837563728
 30
0.0
 11
247.51306318850189
 21
331.74722512859893
 31
0.0
  0
LINE
  5
10E72
  8
AM_0
 10
255.28393680862979
 20
336.2983837563728
 30
0.0
 11
255.12500684726871
 21
331.74722512859893
 31
0.0
  0
ARC
  5
10E73
  8
AM_0
 10
256.35170166976491
 20
336.26037408120982
 30
0.0
 40
1.0
 50
2.0000000000004681
 51
87.377715912047094
1001
GENIUS_GENODEF_13
1002
{
1000
HIER
1070
     0
1002
}
1002
{
1000
MANEDIT
1070
     0
1002
}
1002
{
1000
NOSEL
1070
     0
1002
}
1002
{
1000
BEHIND
1070
     0
1002
}
1002
{
1000
REACTOR
1002
}
1001
GENIUS_GENOBJ-N-FIL_13
1002
{
1000
OWNER
1000
GEN
1002
}
  0
ARC
  5
10E74
  8
AM_0
 10
251.31903501788531
 20
226.37556045179571
 30
0.0
 40
111.0
 50
87.377715912047094
 51
87.413366771226691
  0
LINE
  5
10E75
  8
AM_0
 10
257.35109249678402
 20
336.29527357791238
 30
0.0
 11
257.51734097063189
 21
331.53454017290659
 31
0.0
  0
ARC
  5
10E76
  8
AM_0
 10
266.27998379099802
 20
335.35340229043879
 30
0.0
 40
1.0
 50
82.183052168305494
 51
177.99999999999949
1001
GENIUS_GENODEF_13
1002
{
1000
HIER
1070
     0
1002
}
1002
{
1000
MANEDIT
1070
     0
1002
}
1002
{
1000
NOSEL
1070
     0
1002
}
1002
{
1000
BEHIND
1070
     0
1002
}
1002
{
1000
REACTOR
1002
}
1001
GENIUS_GENOBJ-N-FIL_13
1002
{
1000
OWNER
1000
GEN
1002
}
  0
ARC
  5
10E77
  8
AM_0
 10
251.31903501788531
 20
226.37556045179571
 30
0.0
 40
111.0
 50
82.146821911187217
 51
82.183052168305494
  0
ARC
  5
10E78
  8
AM_0
 10
266.34889154693258
 20
335.34392013806541
 30
0.0
 40
1.0
 50
2.0000000000004681
 51
82.146821911193925
1001
GENIUS_GENODEF_13
1002
{
1000
HIER
1070
     0
1002
}
1002
{
1000
MANEDIT
1070
     0
1002
}
1002
{
1000
NOSEL
1070
     0
1002
}
1002
{
1000
BEHIND
1070
     0
1002
}
1002
{
1000
REACTOR
1002
}
1001
GENIUS_GENOBJ-N-FIL_13
1002
{
1000
OWNER
1000
GEN
1002
}
  0
LINE
  5
10E79
  8
AM_0
 10
265.28059296397907
 20
335.38830178714142
 30
0.0
 11
265.09834987811257
 21
330.16954262121561
 31
0.0
  0
LINE
  5
10E7A
  8
AM_0
 10
267.34828237395152
 20
335.37881963476792
 30
0.0
 11
267.55382477779892
 21
329.49285529781889
 31
0.0
  0
ARC
  5
10E7B
  8
AM_0
 10
210.3190350178854
 20
316.37556045179548
 30
0.0
 40
5.0
 50
90.0
 51
180.0
1001
GENIUS_GENOBJ-N-CEN_13
1002
{
1000
OWNER
1000
GEN
1002
}
1001
GENIUS_GENODEF_13
1002
{
1000
HIER
1070
     0
1002
}
1002
{
1000
MANEDIT
1070
     0
1002
}
1002
{
1000
NOSEL
1070
     0
1002
}
1002
{
1000
BEHIND
1070
     0
1002
}
1002
{
1000
REACTOR
1002
}
1001
GENIUS_GENOBJ-N-FIL_13
1002
{
1000
OWNER
1000
GEN
1002
}
  0
LINE
  5
10E7C
  8
AM_0
 10
209.31903376618791
 20
302.87556127135952
 30
0.0
 11
213.3190338853972
 21
302.87556127135952
 31
0.0
  0
ARC
  5
10E7D
  8
AM_0
 10
203.8190350178854
 20
308.65843893308062
 30
0.0
 40
1.5
 50
324.9813717379144
 51
0.000000000000007
1001
GENIUS_GENODEF_13
1002
{
1000
HIER
1070
     0
1002
}
1002
{
1000
MANEDIT
1070
     0
1002
}
1002
{
1000
NOSEL
1070
     0
1002
}
1002
{
1000
BEHIND
1070
     0
1002
}
1002
{
1000
REACTOR
1002
}
1001
GENIUS_GENOBJ-N-FIL_13
1002
{
1000
OWNER
1000
GEN
1002
}
  0
LINE
  5
10E7E
  8
AM_0
 10
205.3190350178854
 20
308.65843893308062
 30
0.0
 11
205.3190350178854
 21
316.37556045179559
 31
0.0
1001
GENIUS_GENODEF_13
1002
{
1000
HIER
1070
     0
1002
}
1002
{
1000
MANEDIT
1070
     0
1002
}
1002
{
1000
NOSEL
1070
     0
1002
}
1002
{
1000
BEHIND
1070
     0
1002
}
1002
{
1000
REACTOR
1002
}
1001
GENIUS_GENOBJ-N-CEN_13
1002
{
1000
OWNER
1000
GEN
1002
}
  0
LINE
  5
10E7F
  8
AM_0
 10
210.3190350178854
 20
321.37556045179559
 30
0.0
 11
213.3190350178854
 21
321.37556045179559
 31
0.0
  0
LINE
  5
10E80
  8
AM_0
 10
287.34313484059442
 20
330.68543182462571
 30
0.0
 11
287.53095018663271
 21
325.30710400505791
 31
0.0
  0
LINE
  5
10E81
  8
AM_0
 10
285.27256915148871
 20
330.70951572896621
 30
0.0
 11
285.08540344605188
 21
325.34979118219951
 31
0.0
  0
LINE
  5
10E82
  8
AM_0
 10
277.34564574384478
 20
333.52553014933449
 30
0.0
 11
277.62660237006901
 21
325.4799850392676
 31
0.0
  0
LINE
  5
10E83
  8
AM_0
 10
275.27684909484122
 20
333.5418648836573
 30
0.0
 11
275.0364073615699
 21
326.65651450991589
 31
0.0
  0
LINE
  5
10E84
  8
AM_0
 10
285.22598640674238
 20
329.37556045179559
 30
0.0
 11
277.49056587905011
 21
329.37556045179571
 31
0.0
  0
ARC
  5
10E85
  8
AM_0
 10
276.27623992186028
 20
333.50696538695468
 30
0.0
 40
1.0
 50
76.886329856701252
 51
177.99999999999619
1001
GENIUS_GENODEF_13
1002
{
1000
HIER
1070
     0
1002
}
1002
{
1000
MANEDIT
1070
     0
1002
}
1002
{
1000
NOSEL
1070
     0
1002
}
1002
{
1000
BEHIND
1070
     0
1002
}
1002
{
1000
REACTOR
1002
}
1001
GENIUS_GENOBJ-N-FIL_13
1002
{
1000
OWNER
1000
GEN
1002
}
  0
ARC
  5
10E86
  8
AM_0
 10
251.31903501788531
 20
226.37556045179571
 30
0.0
 40
111.0
 50
76.848881739351555
 51
76.886329856694516
  0
ARC
  5
10E87
  8
AM_0
 10
276.34625491682561
 20
333.49063065263198
 30
0.0
 40
1.0
 50
2.0000000000004681
 51
76.848881739351555
1001
GENIUS_GENODEF_13
1002
{
1000
HIER
1070
     0
1002
}
1002
{
1000
MANEDIT
1070
     0
1002
}
1002
{
1000
NOSEL
1070
     0
1002
}
1002
{
1000
BEHIND
1070
     0
1002
}
1002
{
1000
REACTOR
1002
}
1001
GENIUS_GENOBJ-N-FIL_13
1002
{
1000
OWNER
1000
GEN
1002
}
  0
ARC
  5
10E88
  8
AM_0
 10
286.27195997850788
 20
330.6746162322633
 30
0.0
 40
1.0
 50
71.472857685531778
 51
177.99999999999619
1001
GENIUS_GENODEF_13
1002
{
1000
HIER
1070
     0
1002
}
1002
{
1000
MANEDIT
1070
     0
1002
}
1002
{
1000
NOSEL
1070
     0
1002
}
1002
{
1000
BEHIND
1070
     0
1002
}
1002
{
1000
REACTOR
1002
}
1001
GENIUS_GENOBJ-N-FIL_13
1002
{
1000
OWNER
1000
GEN
1002
}
  0
ARC
  5
10E89
  8
AM_0
 10
286.34374401357519
 20
330.65053232792337
 30
0.0
 40
1.0
 50
2.0000000000069811
 51
71.433419198096814
1001
GENIUS_GENODEF_13
1002
{
1000
HIER
1070
     0
1002
}
1002
{
1000
MANEDIT
1070
     0
1002
}
1002
{
1000
NOSEL
1070
     0
1002
}
1002
{
1000
BEHIND
1070
     0
1002
}
1002
{
1000
REACTOR
1002
}
1001
GENIUS_GENOBJ-N-FIL_13
1002
{
1000
OWNER
1000
GEN
1002
}
  0
ARC
  5
10E8A
  8
AM_0
 10
251.31903501788531
 20
226.37556045179571
 30
0.0
 40
111.0
 50
71.433419198103806
 51
71.472857685531778
  0
ARC
  5
10E8B
  8
AM_0
 10
300.31903501788548
 20
275.37556045179571
 30
0.0
 40
111.0
 50
166.8488817393505
 51
166.88632985670239
  0
ARC
  5
10E8C
  8
AM_0
 10
193.1876300827266
 20
300.3327653557705
 30
0.0
 40
1.0
 50
166.88632985670239
 51
267.99999999999642
1001
GENIUS_GENODEF_13
1002
{
1000
HIER
1070
     0
1002
}
1002
{
1000
MANEDIT
1070
     0
1002
}
1002
{
1000
NOSEL
1070
     0
1002
}
1002
{
1000
BEHIND
1070
     0
1002
}
1002
{
1000
REACTOR
1002
}
1001
GENIUS_GENOBJ-N-FIL_13
1002
{
1000
OWNER
1000
GEN
1002
}
  0
ARC
  5
10E8D
  8
AM_0
 10
193.20396481704921
 20
300.40278035073601
 30
0.0
 40
1.0
 50
91.999999999997158
 51
166.8488817393505
1001
GENIUS_GENODEF_13
1002
{
1000
HIER
1070
     0
1002
}
1002
{
1000
MANEDIT
1070
     0
1002
}
1002
{
1000
NOSEL
1070
     0
1002
}
1002
{
1000
BEHIND
1070
     0
1002
}
1002
{
1000
REACTOR
1002
}
1001
GENIUS_GENOBJ-N-FIL_13
1002
{
1000
OWNER
1000
GEN
1002
}
  0
ARC
  5
10E8E
  8
AM_0
 10
196.0440631417581
 20
310.40026944748541
 30
0.0
 40
1.0
 50
92.000000000003624
 51
161.43341919809711
1001
GENIUS_GENODEF_13
1002
{
1000
HIER
1070
     0
1002
}
1002
{
1000
MANEDIT
1070
     0
1002
}
1002
{
1000
NOSEL
1070
     0
1002
}
1002
{
1000
BEHIND
1070
     0
1002
}
1002
{
1000
REACTOR
1002
}
1001
GENIUS_GENOBJ-N-FIL_13
1002
{
1000
OWNER
1000
GEN
1002
}
  0
ARC
  5
10E8F
  8
AM_0
 10
196.01997923741811
 20
310.3284854124181
 30
0.0
 40
1.0
 50
161.4728576855286
 51
268.0000000000029
1001
GENIUS_GENODEF_13
1002
{
1000
HIER
1070
     0
1002
}
1002
{
1000
MANEDIT
1070
     0
1002
}
1002
{
1000
NOSEL
1070
     0
1002
}
1002
{
1000
BEHIND
1070
     0
1002
}
1002
{
1000
REACTOR
1002
}
1001
GENIUS_GENOBJ-N-FIL_13
1002
{
1000
OWNER
1000
GEN
1002
}
  0
ARC
  5
10E90
  8
AM_0
 10
300.31903501788548
 20
275.37556045179571
 30
0.0
 40
111.0
 50
161.43341919810169
 51
161.4728576855286
  0
LINE
  5
11152
  8
AM_0
 10
324.31903501788531
 20
305.37556045179599
 30
0.0
 11
339.31903501788508
 21
305.37556045179599
 31
0.0
  0
LINE
  5
11153
  8
AM_0
 10
335.8190350178852
 20
308.37556045179599
 30
0.0
 11
320.81903501788531
 21
308.37556045179599
 31
0.0
  0
LINE
  5
11154
  8
AM_0
 10
336.81903501788508
 20
306.87556045179599
 30
0.0
 11
317.31903501788531
 21
306.87556045179599
 31
0.0
  0
LINE
  5
11155
  8
AM_0
 10
324.31903501788548
 20
245.37556045179599
 30
0.0
 11
339.31903501788548
 21
245.37556045179599
 31
0.0
  0
LINE
  5
11156
  8
AM_0
 10
335.81903501788548
 20
242.37556045179579
 30
0.0
 11
320.81903501788548
 21
242.37556045179579
 31
0.0
  0
LINE
  5
11157
  8
AM_0
 10
317.3190350178856
 20
243.87556045179599
 30
0.0
 11
336.81903501788548
 21
243.87556045179599
 31
0.0
  0
LINE
  5
11158
  8
AM_0
 10
313.81903501788531
 20
305.37556045179582
 30
0.0
 11
313.81903501788531
 21
245.37556045179579
 31
0.0
  0
LINE
  5
11159
  8
AM_0
 10
324.31903501788548
 20
243.87556045179599
 30
0.0
 11
324.31903501788531
 21
306.87556045179599
 31
0.0
  0
LINE
  5
1115A
  8
AM_0
 10
320.81903501788531
 20
308.37556045179599
 30
0.0
 11
320.81903501788548
 21
242.37556045179579
 31
0.0
  0
LINE
  5
1115B
  8
AM_0
 10
317.31903501788531
 20
306.87556045179599
 30
0.0
 11
317.3190350178856
 21
243.87556045179599
 31
0.0
  0
LINE
  5
1115C
  8
AM_0
 10
340.81903501788508
 20
303.87556045179599
 30
0.0
 11
340.81903501788548
 21
246.87556045179599
 31
0.0
  0
LINE
  5
1115D
  8
AM_0
 10
343.81903501788548
 20
258.07176045179591
 30
0.0
 11
343.81903501788531
 21
292.67946045179588
 31
0.0
  0
LINE
  5
1115E
  8
AM_0
 10
340.81903501788548
 20
252.8726950312369
 30
0.0
 11
343.81903501788548
 21
258.07176045179591
 31
0.0
  0
ARC
  5
1115F
  8
AM_0
 10
339.31903501788531
 20
246.87556045179591
 30
0.0
 40
1.5
 50
270.0
 51
0.000000000000007
  0
LINE
  5
11160
  8
AM_0
 10
336.81903501788548
 20
243.87556045179599
 30
0.0
 11
336.81903501788548
 21
245.37556045179599
 31
0.0
  0
LINE
  5
11161
  8
AM_0
 10
335.81903501788548
 20
243.87556045179571
 30
0.0
 11
335.81903501788548
 21
242.37556045179579
 31
0.0
  0
LINE
  5
11162
  8
AM_0
 10
336.81903501788508
 20
305.37556045179599
 30
0.0
 11
336.81903501788508
 21
306.87556045179599
 31
0.0
  0
LINE
  5
11163
  8
AM_0
 10
343.81903501788531
 20
292.67946045179588
 30
0.0
 11
340.81903501788543
 21
297.87556045179599
 31
0.0
  0
ARC
  5
11164
  8
AM_0
 10
339.31903501788531
 20
303.87556045179588
 30
0.0
 40
1.5
 50
0.000000000000007
 51
90.0
  0
LINE
  5
11165
  8
AM_0
 10
335.8190350178852
 20
306.87556045179599
 30
0.0
 11
335.8190350178852
 21
308.37556045179599
 31
0.0
  0
LINE
  5
11166
  8
AM_0
 10
299.19648273599159
 20
305.37556045179582
 30
0.0
 11
317.31903501788531
 21
305.37556045179582
 31
0.0
  0
LINE
  5
11167
  8
AM_0
 10
299.19648273599159
 20
245.37556045179551
 30
0.0
 11
317.3190350178856
 21
245.37556045179579
 31
0.0
  0
ARC
  5
11D55
  8
AM_0
 10
298.81903501788543
 20
242.09268197051
 30
0.0
 40
1.5
 50
144.98137173791559
 51
180.0
1001
GENIUS_GENODEF_13
1002
{
1000
HIER
1070
     0
1002
}
1002
{
1000
MANEDIT
1070
     0
1002
}
1002
{
1000
NOSEL
1070
     0
1002
}
1002
{
1000
BEHIND
1070
     0
1002
}
1002
{
1000
REACTOR
1002
}
1001
GENIUS_GENOBJ-N-FIL_13
1002
{
1000
OWNER
1000
GEN
1002
}
  0
LINE
  5
11D56
  8
AM_0
 10
297.31903501788543
 20
241.87555925970261
 30
0.0
 11
297.31903501788543
 21
242.09268197051011
 31
0.0
1001
GENIUS_GENODEF_13
1002
{
1000
HIER
1070
     0
1002
}
1002
{
1000
MANEDIT
1070
     0
1002
}
1002
{
1000
NOSEL
1070
     0
1002
}
1002
{
1000
BEHIND
1070
     0
1002
}
1002
{
1000
REACTOR
1002
}
1001
GENIUS_GENOBJ-N-CEN_13
1002
{
1000
OWNER
1000
GEN
1002
}
  0
ARC
  5
12DBF
  8
AM_0
 10
28.2375018875141
 20
319.37556045179559
 30
0.0
 40
12.0
 50
193.60895817147059
 51
260.61335213214949
  0
ARC
  5
12DC0
  8
AM_0
 10
3.2375018875140991
 20
275.37556045179548
 30
0.0
 40
37.5
 50
270.0
 51
306.86989461020607
  0
LINE
  5
12DC3
  8
AM_0
 10
-71.76250034766008
 20
326.37556197171409
 30
0.0
 11
45.237503079606988
 21
326.37556197171398
 31
0.0
  0
LINE
  5
12DC4
  8
ﾁｭｳｼﾝｾﾝ1
 10
59.237503407432541
 20
275.37556045179548
 30
0.0
 11
-244.57450664819629
 21
275.37556045179548
 31
0.0
  0
LINE
  5
12DC5
  8
AM_0
 10
54.237503407432541
 20
205.3755607349178
 30
0.0
 11
-82.762500675485626
 21
205.37556073491791
 31
0.0
  0
LINE
  5
12DC6
  8
AM_0
 10
54.237503407432612
 20
209.87556073491791
 30
0.0
 11
-82.762500675485626
 21
209.87556073491791
 31
0.0
  0
ARC
  5
12DCA
  8
AM_0
 10
136.2374840657252
 20
275.37556045179548
 30
0.0
 40
236.0
 50
169.43603828764131
 51
180.00000500895041
  0
LINE
  5
12DCB
  8
AM_0
 10
-95.762500675485626
 20
224.73527877454941
 30
0.0
 11
-95.762500675485626
 21
326.01584975843622
 31
0.0
  0
LINE
  5
12DCC
  8
AM_0
 10
-107.2686041911106
 20
219.37556045179559
 30
0.0
 11
-107.2686041911106
 21
331.37556045179548
 31
0.0
  0
LINE
  5
12DCD
  8
AM_0
 10
-82.762500675485626
 20
315.37556164388837
 30
0.0
 11
-82.762500675485626
 21
247.37555925970321
 31
0.0
  0
LINE
  5
12DCE
  8
ﾁｭｳｼﾝｾﾝ1
 10
3.2375018875140991
 20
331.37556197171421
 30
0.0
 11
3.2375018875140422
 21
195.3755607349178
 31
0.0
  0
LINE
  5
12DCF
  8
AM_0
 10
-76.7624981124859
 20
299.66520278577991
 30
0.0
 11
-76.7624981124859
 21
251.5176960719127
 31
0.0
  0
LINE
  5
12DD0
  8
AM_0
 10
4.737500516607497
 20
230.87556073491751
 30
0.0
 11
4.7375005166071551
 21
209.87556073491791
 31
0.0
  0
LINE
  5
12DD1
  8
AM_0
 10
9.2375005166073265
 20
230.87556073491751
 30
0.0
 11
9.2375005166073265
 21
209.87556073491791
 31
0.0
  0
LINE
  5
12DD2
  8
AM_0
 10
-37.762497784660397
 20
230.87556073491751
 30
0.0
 11
-37.762497784660397
 21
209.87556073491791
 31
0.0
  0
LINE
  5
12DD3
  8
AM_0
 10
-33.262497784660582
 20
230.87556073491751
 30
0.0
 11
-33.262497784660241
 21
209.87556073491791
 31
0.0
  0
LINE
  5
12DD4
  8
AM_0
 10
-82.762500675485626
 20
247.37555925970321
 30
0.0
 11
-82.762500675485626
 21
205.37556073491791
 31
0.0
  0
LINE
  5
12DD5
  8
ﾁｭｳｼﾝｾﾝ1
 10
-61.762497784660653
 20
219.8755607349178
 30
0.0
 11
-61.762497784660653
 21
195.37556073491791
 31
0.0
  0
LINE
  5
12DD7
  8
ｶｸﾚｾﾝ2
 10
-66.762497784660695
 20
205.37556073491791
 30
0.0
 11
-66.762497784660695
 21
209.87556073491791
 31
0.0
  0
LINE
  5
12DD8
  8
ｶｸﾚｾﾝ2
 10
-56.762497784660582
 20
205.37556073491791
 30
0.0
 11
-56.762497784660582
 21
209.87556073491791
 31
0.0
  0
ARC
  5
12DD9
  8
AM_0
 10
-31.762499155567198
 20
275.37556045179548
 30
0.0
 40
37.5
 50
233.13010538979381
 51
270.0
  0
ARC
  5
12DDA
  8
AM_0
 10
136.2374840657252
 20
275.37556045179548
 30
0.0
 40
236.0
 50
180.00000500895041
 51
190.56397173027651
  0
ARC
  5
12DDB
  8
AM_0
 10
-77.762500675485626
 20
240.37555925970321
 30
0.0
 40
5.0
 50
90.0
 51
180.0
1001
GENIUS_GENOBJ-N-FIL_13
1002
{
1000
OWNER
1000
GEN
1002
}
1001
GENIUS_GENODEF_13
1002
{
1000
HIER
1070
     0
1002
}
1002
{
1000
MANEDIT
1070
     0
1002
}
1002
{
1000
NOSEL
1070
     0
1002
}
1002
{
1000
BEHIND
1070
     0
1002
}
1002
{
1000
OTHER
1070
     0
1002
}
1002
{
1000
REACTOR
1002
}
  0
LINE
  5
12DDC
  8
AM_0
 10
-107.2686041911106
 20
229.37556045179551
 30
0.0
 11
-95.762500675485626
 21
229.37556045179551
 31
0.0
  0
LINE
  5
12DDD
  8
AM_0
 10
-107.2686041911106
 20
219.37556045179559
 30
0.0
 11
-97.71137561230762
 21
219.37556045179559
 31
0.0
  0
ARC
  5
12DDE
  8
AM_0
 10
-97.71137561230762
 20
221.37556045179559
 30
0.0
 40
2.0
 50
270.0
 51
357.99953469735487
1001
GENIUS_GENOBJ-N-FIL_13
1002
{
1000
OWNER
1000
GEN
1002
}
1001
GENIUS_GENODEF_13
1002
{
1000
HIER
1070
     0
1002
}
1002
{
1000
MANEDIT
1070
     0
1002
}
1002
{
1000
NOSEL
1070
     0
1002
}
1002
{
1000
BEHIND
1070
     0
1002
}
1002
{
1000
OTHER
1070
     0
1002
}
1002
{
1000
REACTOR
1002
}
  0
LINE
  5
12DDF
  8
AM_0
 10
-94.568714098103314
 20
226.37556045179551
 30
0.0
 11
-82.762500675485626
 21
226.37556045179551
 31
0.0
  0
LINE
  5
12DE0
  8
AM_0
 10
-95.712594525177337
 20
221.30574522616081
 30
0.0
 11
-95.567890079782515
 21
225.4485737574596
 31
0.0
  0
ARC
  5
12DE1
  8
AM_0
 10
-94.567446793877735
 20
225.3722075961968
 30
0.0
 40
1.003353655944897
 50
90.072368503728555
 51
175.63494469419581
  0
LINE
  5
12DE2
  8
AM_0
 10
-107.2686041911106
 20
243.43562045179559
 30
0.0
 11
-97.587853830116956
 21
243.43562045179559
 31
0.0
  0
LINE
  5
12DE3
  8
AM_0
 10
-95.262500675485654
 20
232.108951259901
 30
0.0
 11
-82.762500675485498
 21
232.108951259901
 31
0.0
  0
POLYLINE
  5
12DE4
  8
AM_0
 66
     1
 10
0.0
 20
0.0
 30
0.0
 70
     1
  0
VERTEX
  5
145C5
  8
AM_0
 10
-78.257690876043384
 20
239.12555925970281
 30
0.0
  0
VERTEX
  5
145C6
  8
AM_0
 10
-78.257690876043171
 20
231.6255592597027
 30
0.0
  0
VERTEX
  5
145C7
  8
AM_0
 10
-71.76250034766008
 20
227.87555925970281
 30
0.0
  0
VERTEX
  5
145C8
  8
AM_0
 10
-65.267309819276761
 20
231.6255592597027
 30
0.0
  0
VERTEX
  5
145C9
  8
AM_0
 10
-65.267309819276761
 20
239.12555925970281
 30
0.0
  0
VERTEX
  5
145CA
  8
AM_0
 10
-71.76250034766008
 20
242.87555925970281
 30
0.0
  0
SEQEND
  5
145CB
  8
AM_0
  0
CIRCLE
  5
12DE6
  8
AM_0
 10
-71.76250034766008
 20
235.3755592597027
 30
0.0
 40
3.9999999999999978
  0
CIRCLE
  5
12DE7
  8
AM_0
 10
-71.76250034766008
 20
235.3755592597027
 30
0.0
 40
7.9999999999999956
  0
LINE
  5
12DE9
  8
AM_0
 10
-54.262497566110419
 20
245.37555925970301
 30
0.0
 11
-77.762500675485626
 21
245.37555925970321
 31
0.0
  0
CIRCLE
  5
12DEA
  8
AM_5
 10
-71.76250034766008
 20
235.3755592597027
 30
0.0
 40
2.9999999999999978
  0
ARC
  5
12DEB
  8
AM_0
 10
-71.7624981124859
 20
251.51769607191281
 30
0.0
 40
5.0000000000000044
 50
179.99999749551819
 51
259.27854448435301
  0
LINE
  5
12DEC
  8
AM_0
 10
-72.692666264341256
 20
246.6049839747447
 30
0.0
 11
-66.199452638422429
 21
245.3755592597031
 31
0.0
  0
LINE
  5
12DED
  8
AM_0
 10
-31.762499155567198
 20
237.87556045179551
 30
0.0
 11
3.2375018875140991
 21
237.87556045179551
 31
0.0
  0
LINE
  5
12DEE
  8
AM_0
 10
-33.26249778466007
 20
212.8755607349174
 30
0.0
 11
-37.762497784660241
 21
212.8755607349174
 31
0.0
  0
LINE
  5
12DEF
  8
AM_0
 10
-33.26249778466007
 20
230.87556073491751
 30
0.0
 11
-37.762497784659558
 21
230.87556073491751
 31
0.0
  0
LINE
  5
12DF0
  8
AM_0
 10
4.7375005166069846
 20
212.8755607349174
 30
0.0
 11
9.2375005166071542
 21
212.8755607349174
 31
0.0
  0
LINE
  5
12DF1
  8
AM_0
 10
4.7375005166069846
 20
230.87556073491751
 30
0.0
 11
9.2375005166064721
 21
230.87556073491751
 31
0.0
  0
ARC
  5
12DF4
  8
AM_0
 10
-56.762498112485893
 20
319.37556045179559
 30
0.0
 40
11.999999999999989
 50
279.38664786785051
 51
346.39104182852941
  0
ARC
  5
12DF5
  8
AM_0
 10
-71.76250034766008
 20
315.37556164388837
 30
0.0
 40
11.00000032782555
 50
90.000002504475177
 51
180.00000500895689
  0
LINE
  5
12DF6
  8
AM_0
 10
-94.568714098103314
 20
324.37556045179548
 30
0.0
 11
-78.087055995822311
 21
324.37556045179548
 31
0.0
  0
LINE
  5
12DF7
  8
AM_0
 10
-107.2686041911106
 20
307.31551045179549
 30
0.0
 11
-97.662588055147793
 21
307.31551045179549
 31
0.0
  0
LINE
  5
12DF8
  8
AM_0
 10
-107.2686041911106
 20
321.37556045179559
 30
0.0
 11
-95.762500675485626
 21
321.37556045179559
 31
0.0
  0
LINE
  5
12DF9
  8
AM_0
 10
-107.2686041911106
 20
331.37556045179548
 30
0.0
 11
-97.711375079334857
 21
331.37556045179548
 31
0.0
  0
LINE
  5
12DFA
  8
AM_0
 10
-95.712593992204688
 20
329.44537567743032
 30
0.0
 11
-95.567890079782515
 21
325.30256240492048
 31
0.0
  0
LINE
  5
12DFB
  8
AM_0
 10
-95.262500675485654
 20
318.64217727308471
 30
0.0
 11
-82.762500675485626
 21
318.64217727308471
 31
0.0
  0
ARC
  5
12DFC
  8
AM_0
 10
-94.568714054391876
 20
325.37556045179559
 30
0.0
 40
1.0000000000000091
 50
187.1807504503941
 51
269.99999749551819
  0
ARC
  5
12DFD
  8
AM_0
 10
-97.711375079334857
 20
329.37556045179548
 30
0.0
 40
2.0
 50
2.0004653026450381
 51
90.0
1001
GENIUS_GENODEF_13
1002
{
1000
HIER
1070
     0
1002
}
1002
{
1000
MANEDIT
1070
     0
1002
}
1002
{
1000
NOSEL
1070
     0
1002
}
1002
{
1000
BEHIND
1070
     0
1002
}
1002
{
1000
OTHER
1070
     0
1002
}
1002
{
1000
REACTOR
1002
}
1001
GENIUS_GENOBJ-N-FIL_13
1002
{
1000
OWNER
1000
GEN
1002
}
  0
LINE
  5
12DFE
  8
AM_0
 10
-55.319122439511823
 20
316.87556045179559
 30
0.0
 11
-53.875746766537759
 21
319.37556045179559
 31
0.0
  0
LINE
  5
12DFF
  8
AM_0
 10
-59.649249458434028
 20
319.37556045179559
 30
0.0
 11
-58.205873785459957
 21
316.87556045179559
 31
0.0
  0
CIRCLE
  5
12E00
  8
AM_0
 10
-56.762498112485893
 20
319.37556045179559
 30
0.0
 40
2.886751345948126
  0
CIRCLE
  5
12E01
  8
AM_0
 10
-56.762498112485893
 20
319.37556045179559
 30
0.0
 40
5.0
  0
ARC
  5
12E03
  8
AM_0
 10
-56.762498112485893
 20
319.37556045179559
 30
0.0
 40
6.0000000000000062
 50
179.99999749551819
 51
0.0000025044687019
  0
CIRCLE
  5
12E04
  8
AM_0
 10
-71.76250034766008
 20
315.37556164388837
 30
0.0
 40
4.5000001341104507
  0
LINE
  5
12E06
  8
AM_0
 10
-54.8053447921734
 20
307.53623550062372
 30
0.0
 11
-72.577973576352974
 21
304.5982472193736
 31
0.0
  0
ARC
  5
12E07
  8
AM_0
 10
-71.7624981124859
 20
299.66520278578002
 30
0.0
 40
5.0000000000000107
 50
99.386642005123491
 51
179.99999749551819
  0
LINE
  5
12E08
  8
AM_0
 10
-58.205873785459957
 20
316.87556045179559
 30
0.0
 11
-55.319122439511823
 21
316.87556045179559
 31
0.0
  0
ARC
  5
12E09
  8
AM_0
 10
-64.7624981124859
 20
324.37556045179559
 30
0.0
 40
2.0000000000000022
 50
0.0000025044687019
 51
90.000005008956919
  0
LINE
  5
12E0A
  8
AM_0
 10
-55.319122439512057
 20
321.87556045179571
 30
0.0
 11
-58.205873785459687
 21
321.87556045179571
 31
0.0
  0
LINE
  5
12E0B
  8
AM_0
 10
-58.205873785459687
 20
321.87556045179571
 30
0.0
 11
-59.649249458434028
 21
319.37556045179559
 31
0.0
  0
LINE
  5
12E0C
  8
AM_0
 10
-62.7624981124859
 20
324.37556045179548
 30
0.0
 11
-62.7624981124859
 21
319.37556045179559
 31
0.0
  0
ARC
  5
12E0D
  8
AM_0
 10
-48.762498112485893
 20
324.37556045179559
 30
0.0
 40
2.0000000000000062
 50
90.000005008956919
 51
180.000000683243
  0
LINE
  5
12E0E
  8
AM_0
 10
-53.875746766537759
 20
319.37556045179559
 30
0.0
 11
-55.319122439512057
 21
321.87556045179571
 31
0.0
  0
LINE
  5
12E0F
  8
AM_0
 10
-50.762498112485893
 20
324.37556045179548
 30
0.0
 11
-50.762498112485893
 21
319.37556045179559
 31
0.0
  0
LINE
  5
12E10
  8
AM_0
 10
-40.239777775571838
 20
320.37556045179548
 30
0.0
 11
11.7147968093891
 21
320.37556045179548
 31
0.0
  0
ARC
  5
12E11
  8
AM_0
 10
-40.239777775571838
 20
315.37556045179559
 30
0.0
 40
4.9999999999999911
 50
90.000005008956919
 51
166.39104000729441
  0
ARC
  5
12E12
  8
AM_0
 10
11.7147968093891
 20
315.37556045179559
 30
0.0
 40
5.0
 50
13.60896318042886
 51
90.000005008956919
  0
LINE
  5
12E14
  8
AM_0
 10
48.237501887514107
 20
299.66520278577991
 30
0.0
 11
48.237501887514107
 21
251.08591811781119
 31
0.0
  0
LINE
  5
12E15
  8
AM_0
 10
54.237503407432541
 20
240.37555925970321
 30
0.0
 11
54.237503407432541
 21
205.37556073491791
 31
0.0
  0
LINE
  5
12E16
  8
ﾁｭｳｼﾝｾﾝ1
 10
33.237501559688781
 20
219.875560734918
 30
0.0
 11
33.237501559688781
 21
195.3755607349178
 31
0.0
  0
LINE
  5
12E17
  8
ｶｸﾚｾﾝ2
 10
28.237501559688791
 20
205.37556073491791
 30
0.0
 11
28.237501559688791
 21
209.87556073491791
 31
0.0
  0
LINE
  5
12E18
  8
ｶｸﾚｾﾝ2
 10
38.237501559688901
 20
205.37556073491791
 30
0.0
 11
38.237501559688901
 21
209.87556073491791
 31
0.0
  0
ARC
  5
12E19
  8
AM_0
 10
49.237503407432541
 20
240.37555925970321
 30
0.0
 40
5.0
 50
0.0
 51
90.0
1001
GENIUS_GENOBJ-N-FIL_13
1002
{
1000
OWNER
1000
GEN
1002
}
1001
GENIUS_GENODEF_13
1002
{
1000
HIER
1070
     0
1002
}
1002
{
1000
MANEDIT
1070
     0
1002
}
1002
{
1000
NOSEL
1070
     0
1002
}
1002
{
1000
BEHIND
1070
     0
1002
}
1002
{
1000
OTHER
1070
     0
1002
}
1002
{
1000
REACTOR
1002
}
  0
POLYLINE
  5
12E1A
  8
AM_0
 66
     1
 10
0.0
 20
0.0
 30
0.0
 70
     1
  0
VERTEX
  5
145CC
  8
AM_0
 10
36.742312551223677
 20
239.12555925970281
 30
0.0
  0
VERTEX
  5
145CD
  8
AM_0
 10
36.742312551223911
 20
231.6255592597027
 30
0.0
  0
VERTEX
  5
145CE
  8
AM_0
 10
43.237503079607002
 20
227.87555925970281
 30
0.0
  0
VERTEX
  5
145CF
  8
AM_0
 10
49.732693607990313
 20
231.6255592597027
 30
0.0
  0
VERTEX
  5
145D0
  8
AM_0
 10
49.732693607990313
 20
239.12555925970281
 30
0.0
  0
VERTEX
  5
145D1
  8
AM_0
 10
43.237503079607002
 20
242.87555925970281
 30
0.0
  0
SEQEND
  5
145D2
  8
AM_0
  0
CIRCLE
  5
12E1B
  8
AM_0
 10
43.237503079607002
 20
235.3755592597027
 30
0.0
 40
3.9999999999999978
  0
CIRCLE
  5
12E1D
  8
AM_0
 10
43.237503079607002
 20
235.3755592597027
 30
0.0
 40
7.9999999999999956
  0
LINE
  5
12E1E
  8
AM_0
 10
49.237503407432541
 20
245.37555925970321
 30
0.0
 11
25.737500298057508
 21
245.37555925970321
 31
0.0
  0
CIRCLE
  5
12E20
  8
AM_5
 10
43.237503079607002
 20
235.3755592597027
 30
0.0
 40
2.9999999999999978
  0
LINE
  5
12E21
  8
AM_0
 10
39.3508411707503
 20
245.37555925970321
 30
0.0
 11
44.052977351381287
 21
246.15286605482291
 31
0.0
  0
ARC
  5
12E22
  8
AM_0
 10
43.2375018875141
 20
251.08591811781119
 30
0.0
 40
4.9999999999999947
 50
279.38664786785051
 51
0.0000025044687019
  0
ARC
  5
12E23
  8
AM_0
 10
45.237503079606988
 20
315.37556164388837
 30
0.0
 40
11.000000327825539
 50
0.0
 51
90.0
  0
LINE
  5
12E24
  8
AM_0
 10
29.68087756048817
 20
316.87556045179548
 30
0.0
 11
31.124253233462241
 21
319.37556045179559
 31
0.0
1001
GENIUS_GENOREF_13
1005
0
  0
LINE
  5
12E25
  8
AM_0
 10
25.350750541565962
 20
319.37556045179559
 30
0.0
 11
26.794126214540029
 21
316.87556045179548
 31
0.0
1001
GENIUS_GENOREF_13
1005
0
  0
CIRCLE
  5
12E26
  8
AM_0
 10
28.2375018875141
 20
319.37556045179559
 30
0.0
 40
2.886751345948126
1001
GENIUS_GENOREF_13
1005
0
  0
CIRCLE
  5
12E27
  8
AM_0
 10
28.2375018875141
 20
319.37556045179559
 30
0.0
 40
5.0
1001
GENIUS_GENOREF_13
1005
0
  0
ARC
  5
12E28
  8
AM_0
 10
28.2375018875141
 20
319.37556045179559
 30
0.0
 40
6.0000000000000062
 50
179.99999749551819
 51
0.0000025044687019
  0
CIRCLE
  5
12E2A
  8
AM_0
 10
43.237503079607002
 20
315.37556164388837
 30
0.0
 40
4.5000001341104507
  0
LINE
  5
12E2B
  8
AM_0
 10
26.2803485672016
 20
307.53623550062372
 30
0.0
 11
44.052977351381287
 21
304.5982472193736
 31
0.0
  0
LINE
  5
12E2C
  8
AM_0
 10
26.794126214540029
 20
316.87556045179548
 30
0.0
 11
29.68087756048817
 21
316.87556045179548
 31
0.0
1001
GENIUS_GENOREF_13
1005
0
  0
ARC
  5
12E2D
  8
AM_0
 10
43.2375018875141
 20
299.66520278577991
 30
0.0
 40
5.0000000000000044
 50
0.0000025044687019
 51
80.613357994876466
  0
ARC
  5
12E2F
  8
AM_0
 10
36.2375018875141
 20
324.37556045179548
 30
0.0
 40
2.0000000000000062
 50
90.000005008956919
 51
180.000000683243
  0
LINE
  5
12E30
  8
AM_0
 10
29.680877560487939
 20
321.87556045179559
 30
0.0
 11
26.794126214540309
 21
321.87556045179559
 31
0.0
1001
GENIUS_GENOREF_13
1005
0
  0
ARC
  5
12E31
  8
AM_0
 10
20.2375018875141
 20
324.37556045179548
 30
0.0
 40
2.0000000000000022
 50
0.0000025044687019
 51
90.000005008956919
  0
LINE
  5
12E32
  8
AM_0
 10
26.794126214540309
 20
321.87556045179559
 30
0.0
 11
25.350750541565962
 21
319.37556045179559
 31
0.0
1001
GENIUS_GENOREF_13
1005
0
  0
LINE
  5
12E33
  8
AM_0
 10
22.2375018875141
 20
324.37556045179548
 30
0.0
 11
22.2375018875141
 21
319.37556045179559
 31
0.0
  0
LINE
  5
12E34
  8
AM_0
 10
31.124253233462241
 20
319.37556045179559
 30
0.0
 11
29.680877560487939
 21
321.87556045179559
 31
0.0
1001
GENIUS_GENOREF_13
1005
0
  0
LINE
  5
12E35
  8
AM_0
 10
34.2375018875141
 20
324.37556045179548
 30
0.0
 11
34.2375018875141
 21
319.37556045179559
 31
0.0
  0
CIRCLE
  5
133A1
  8
0
 10
3.2375018875140751
 20
275.37556045179548
 30
0.0
 40
15.00000044703483
  0
CIRCLE
  5
133A2
  8
AM_0
 10
3.2375018875140751
 20
275.37556045179548
 30
0.0
 40
27.500000819563869
  0
ARC
  5
133A3
  8
0
 10
3.2375018875140751
 20
275.37556045179548
 30
0.0
 40
9.5000000000000124
 50
108.4084801705864
 51
71.591519829413585
  0
CIRCLE
  5
133A4
  8
ｽﾝﾎﾟｳｾﾝ
 10
3.2375018875140751
 20
275.37556045179548
 30
0.0
 40
3.0
  0
LINE
  5
133A5
  8
0
 10
6.2375018875140764
 20
281.37556045179548
 30
0.0
 11
0.237501887514076
 21
281.37556045179548
 31
0.0
  0
LINE
  5
133A6
  8
0
 10
6.2375018875140764
 20
287.37556045179548
 30
0.0
 11
6.2375018875140764
 21
281.37556045179548
 31
0.0
  0
LINE
  5
133A7
  8
0
 10
0.237501887514076
 20
287.37556045179548
 30
0.0
 11
6.2375018875140764
 21
287.37556045179548
 31
0.0
  0
LINE
  5
133A8
  8
0
 10
0.237501887514076
 20
281.37556045179548
 30
0.0
 11
0.237501887514076
 21
287.37556045179548
 31
0.0
  0
CIRCLE
  5
133A9
  8
AM_0
 10
3.2375018875140751
 20
275.37556045179548
 30
0.0
 40
2.5
  0
LINE
  5
133AA
  8
AM_0
 10
-239.76250067548571
 20
290.5974123006099
 30
0.0
 11
-239.76250067548571
 21
260.15377826740689
 31
0.0
  0
ARC
  5
133AB
  8
AM_0
 10
-233.26860419111071
 20
262.37558002521922
 30
0.0
 40
1.0
 50
269.9999969999958
 51
0.0
  0
ARC
  5
133AC
  8
AM_0
 10
-236.26860419111071
 20
260.37558002521922
 30
0.0
 40
1.0
 50
90.0
 51
180.000010000001
  0
LINE
  5
133AD
  8
AM_0
 10
-237.26860419111071
 20
227.3592200252194
 30
0.0
 11
-237.26860419111071
 21
270.37559002521942
 31
0.0
  0
LINE
  5
133AE
  8
AM_0
 10
-232.26860419111071
 20
225.37559002521931
 30
0.0
 11
-232.26860419111071
 21
326.49880902521932
 31
0.0
  0
LINE
  5
133AF
  8
AM_0
 10
-238.76860419111071
 20
255.3755900252194
 30
0.0
 11
-238.76860419111071
 21
295.3755700252193
 31
0.0
  0
LINE
  5
133B0
  8
AM_0
 10
-231.26860419111071
 20
222.3755900252192
 30
0.0
 11
-231.26860419111071
 21
328.37557102521941
 31
0.0
  0
LINE
  5
133B1
  8
AM_0
 10
-235.50084419111079
 20
324.99073702521952
 30
0.0
 11
-236.76903419111079
 21
324.2577580252194
 31
0.0
  0
LINE
  5
133B2
  8
AM_0
 10
-232.26860419111071
 20
325.3755710252193
 30
0.0
 11
-231.26860419111071
 21
325.3755710252193
 31
0.0
  0
LINE
  5
133B3
  8
AM_0
 10
-235.00041419111071
 20
325.12496802521952
 30
0.0
 11
-232.76860419111071
 21
325.12496802521952
 31
0.0
  0
ARC
  5
133B4
  8
AM_0
 10
-232.76860419111071
 20
325.62496102521908
 30
0.0
 40
0.5
 50
269.9999969999958
 51
0.0
  0
ARC
  5
133B5
  8
AM_0
 10
-235.00041419111071
 20
324.12496102521908
 30
0.0
 40
1.0
 50
90.0
 51
120.0263999999973
  0
LINE
  5
133B6
  8
AM_0
 10
-239.76247015790759
 20
290.5974123006099
 30
0.0
 11
-239.26247015790759
 21
293.36740131428178
 31
0.0
  0
LINE
  5
133B7
  8
AM_0
 10
-237.26860419111071
 20
323.39198902521929
 30
0.0
 11
-237.26860419111071
 21
280.37557002521942
 31
0.0
  0
ARC
  5
133B8
  8
AM_0
 10
-233.26860419111071
 20
308.11875002521901
 30
0.0
 40
1.0
 50
0.0
 51
90.0
  0
ARC
  5
133B9
  8
AM_0
 10
-235.11827419111069
 20
308.11875002521901
 30
0.0
 40
1.0
 50
90.0
 51
107.0976300000043
  0
ARC
  5
133BA
  8
AM_0
 10
-233.26860419111071
 20
316.36051102521918
 30
0.0
 40
1.0
 50
0.0
 51
90.0
  0
LINE
  5
133BB
  8
AM_0
 10
-235.50267419111071
 20
317.22341002521938
 30
0.0
 11
-236.7740341911107
 21
316.47872802521943
 31
0.0
  0
ARC
  5
133BC
  8
AM_0
 10
-236.26860419111071
 20
316.64894702521912
 30
0.0
 40
1.0
 50
123.2547200000065
 51
180.000010000001
  0
LINE
  5
133BD
  8
AM_0
 10
-235.48826419111069
 20
321.76077902521939
 30
0.0
 11
-236.73686419111061
 21
321.0989140252193
 31
0.0
  0
LINE
  5
133BE
  8
AM_0
 10
-235.48198419111071
 20
323.87031402521939
 30
0.0
 11
-236.72124419111071
 21
323.24128602521932
 31
0.0
  0
LINE
  5
133BF
  8
AM_0
 10
-235.51835419111069
 20
318.3367450252195
 30
0.0
 11
-236.81700419111061
 21
317.48518202521939
 31
0.0
  0
LINE
  5
133C0
  8
AM_0
 10
-235.5061541911108
 20
322.87467102521941
 30
0.0
 11
-236.78306419111061
 21
322.10842802521938
 31
0.0
  0
ARC
  5
133C1
  8
AM_0
 10
-236.26860419111071
 20
321.25093702521917
 30
0.0
 40
1.0
 50
120.9666000000019
 51
180.000010000001
  0
ARC
  5
133C2
  8
AM_0
 10
-236.26860419111071
 20
320.21536102521918
 30
0.0
 40
1.0
 50
117.926589999999
 51
180.000010000001
  0
ARC
  5
133C3
  8
AM_0
 10
-236.26860419111071
 20
322.34963902521918
 30
0.0
 40
1.0
 50
116.91125000000299
 51
180.000010000001
  0
ARC
  5
133C4
  8
AM_0
 10
-236.26860419111071
 20
323.39198902521912
 30
0.0
 40
1.0
 50
120.0263900000039
 51
180.000010000001
  0
LINE
  5
133C5
  8
AM_0
 10
-235.02934419111071
 20
323.9786590252192
 30
0.0
 11
-232.76860419111071
 21
323.9786590252192
 31
0.0
  0
LINE
  5
133C6
  8
AM_0
 10
-235.0199441911108
 20
321.87722702521933
 30
0.0
 11
-233.26860419111071
 21
321.87722702521933
 31
0.0
  0
LINE
  5
133C7
  8
AM_0
 10
-234.9973041911106
 20
317.36049502521928
 30
0.0
 11
-233.26860419111071
 21
317.36049502521928
 31
0.0
  0
LINE
  5
133C8
  8
AM_0
 10
-234.96995419111079
 20
318.5005100252194
 30
0.0
 11
-232.26860419111071
 21
318.5005100252194
 31
0.0
  0
LINE
  5
133C9
  8
AM_0
 10
-234.9915641911108
 20
323.01724102521939
 30
0.0
 11
-232.26860419111071
 21
323.01724102521939
 31
0.0
  0
ARC
  5
133CA
  8
AM_0
 10
-232.76860419111071
 20
323.47866702521929
 30
0.0
 40
0.5
 50
0.0
 51
90.0
  0
ARC
  5
133CB
  8
AM_0
 10
-233.26860419111071
 20
320.87721902521912
 30
0.0
 40
1.0
 50
0.0
 51
90.0
  0
LINE
  5
133CC
  8
AM_0
 10
-235.26860419111071
 20
322.77213202521938
 30
0.0
 11
-235.26860419111071
 21
322.22611102521932
 31
0.0
  0
LINE
  5
133CD
  8
AM_0
 10
-235.26860419111071
 20
318.20603102521932
 30
0.0
 11
-235.26860419111071
 21
317.73391602521929
 31
0.0
  0
ARC
  5
133CE
  8
AM_0
 10
-234.9973041911106
 20
316.36051102521918
 30
0.0
 40
1.0
 50
90.0
 51
120.3595000000043
  0
ARC
  5
133CF
  8
AM_0
 10
-234.9699541911107
 20
317.50052502521908
 30
0.0
 40
1.0
 50
90.0
 51
123.2547299999982
  0
ARC
  5
133D0
  8
AM_0
 10
-235.01994419111071
 20
320.87721902521912
 30
0.0
 40
1.0
 50
90.0
 51
117.92660000000591
  0
ARC
  5
133D1
  8
AM_0
 10
-234.9915641911108
 20
322.01723402521912
 30
0.0
 40
1.0
 50
90.0
 51
120.9666000000019
  0
ARC
  5
133D2
  8
AM_0
 10
-235.0293441911106
 20
322.97867502521922
 30
0.0
 40
1.0
 50
90.0
 51
116.91126000000099
  0
LINE
  5
133D3
  8
AM_0
 10
-235.26860419111071
 20
324.87173302521933
 30
0.0
 11
-235.26860419111071
 21
324.3459690252194
 31
0.0
  0
LINE
  5
133D4
  8
AM_0
 10
-235.45671419111079
 20
310.9844810252194
 30
0.0
 11
-236.6614241911108
 21
310.46996902521943
 31
0.0
  0
ARC
  5
133D5
  8
AM_0
 10
-236.26860419111071
 20
309.55031502521911
 30
0.0
 40
1.0
 50
113.1270199999952
 51
180.000010000001
  0
LINE
  5
133D6
  8
AM_0
 10
-236.7740341911107
 20
316.47869002521929
 30
0.0
 11
-236.79759419111079
 21
316.4648650252193
 31
0.0
  0
ARC
  5
133D7
  8
AM_0
 10
-236.26860419111071
 20
315.6158210252193
 30
0.0
 40
1.0
 50
120.3595100000024
 51
180.000010000001
  0
ARC
  5
133D8
  8
AM_0
 10
-236.26860419111071
 20
315.6158210252193
 30
0.0
 40
1.0
 50
120.3595100000024
 51
180.000010000001
  0
LINE
  5
133D9
  8
AM_0
 10
-235.1182741911108
 20
309.11873502521939
 30
0.0
 11
-233.26860419111071
 21
309.11873502521939
 31
0.0
  0
LINE
  5
133DA
  8
AM_0
 10
-235.06395419111061
 20
311.06484902521919
 30
0.0
 11
-232.9686141911107
 21
311.06484902521919
 31
0.0
  0
ARC
  5
133DB
  8
AM_0
 10
-232.9686141911107
 20
311.76479202521909
 30
0.0
 40
0.6999999900000002
 50
269.9999969999958
 51
0.0
  0
LINE
  5
133DC
  8
AM_0
 10
-235.26860419111071
 20
310.7684700252193
 30
0.0
 11
-235.26860419111071
 21
309.70851802521929
 31
0.0
  0
ARC
  5
133DD
  8
AM_0
 10
-235.0639541911105
 20
310.06484102521898
 30
0.0
 40
1.0
 50
90.0
 51
113.1270299999956
  0
ARC
  5
133DE
  8
AM_0
 10
-233.26860419111071
 20
316.36051102521918
 30
0.0
 40
1.0
 50
0.0
 51
25.363240000000211
  0
ARC
  5
133DF
  8
AM_0
 10
-236.26860419111071
 20
300.37559002521908
 30
0.0
 40
1.0
 50
90.0
 51
180.000010000001
  0
LINE
  5
133E0
  8
AM_0
 10
-233.26860419111071
 20
301.3755700252193
 30
0.0
 11
-236.26860419111071
 21
301.3755700252193
 31
0.0
  0
LINE
  5
133E1
  8
AM_0
 10
-235.41228419111059
 20
309.0745150252194
 30
0.0
 11
-236.56267419111069
 21
308.72066402521932
 31
0.0
  0
ARC
  5
133E2
  8
AM_0
 10
-236.26860419111071
 20
307.764853025219
 30
0.0
 40
1.0
 50
107.0976300000043
 51
180.000010000001
  0
ARC
  5
133E3
  8
AM_0
 10
-233.26860419111071
 20
302.37558002521922
 30
0.0
 40
1.0
 50
269.9999969999958
 51
0.0
  0
LINE
  5
133E4
  8
AM_0
 10
-233.26860419111071
 20
299.37558002521928
 30
0.0
 11
-236.26860419111071
 21
299.37558002521928
 31
0.0
  0
LINE
  5
133E5
  8
AM_0
 10
-239.26250067548571
 20
293.36740131428178
 30
0.0
 11
-238.76247015790759
 21
293.3273927693599
 31
0.0
  0
LINE
  5
133E6
  8
AM_0
 10
-238.76854419111069
 20
295.3755700252193
 30
0.0
 11
-237.26860419111071
 21
295.50680002521932
 31
0.0
  0
ARC
  5
133E7
  8
AM_0
 10
-236.26860419111071
 20
300.37559002521908
 30
0.0
 40
1.0
 50
179.999989999999
 51
269.9999969999958
  0
LINE
  5
133E8
  8
AM_0
 10
-235.26860419111071
 20
301.00181002521941
 30
0.0
 11
-235.26860419111071
 21
299.6389500252194
 31
0.0
  0
ARC
  5
133E9
  8
AM_0
 10
-233.26860419111071
 20
298.37557002521919
 30
0.0
 40
1.0
 50
0.0
 51
90.0
  0
LINE
  5
133EA
  8
AM_0
 10
-238.76860419111071
 20
290.52561002521929
 30
0.0
 11
-235.4749041911108
 21
290.52561002521929
 31
0.0
  0
LINE
  5
133EB
  8
AM_0
 10
-233.26860419111071
 20
289.3755700252193
 30
0.0
 11
-236.26860419111071
 21
289.3755700252193
 31
0.0
  0
LINE
  5
133EC
  8
AM_0
 10
-233.26860419111071
 20
291.3755900252192
 30
0.0
 11
-236.26860419111071
 21
291.3755900252192
 31
0.0
  0
ARC
  5
133ED
  8
AM_0
 10
-236.26860419111071
 20
290.37558002521911
 30
0.0
 40
1.0
 50
179.999989999999
 51
269.9999969999958
  0
LINE
  5
133EE
  8
AM_0
 10
-238.76860419111071
 20
292.65762002521927
 30
0.0
 11
-237.26860419111071
 21
292.65762002521927
 31
0.0
  0
ARC
  5
133EF
  8
AM_0
 10
-236.26860419111071
 20
290.37558002521911
 30
0.0
 40
1.0
 50
90.0
 51
180.000010000001
  0
ARC
  5
133F0
  8
AM_0
 10
-233.26860419111071
 20
288.37559002521908
 30
0.0
 40
1.0
 50
0.0
 51
90.0
  0
ARC
  5
133F1
  8
AM_0
 10
-233.26860419111071
 20
292.37557002521919
 30
0.0
 40
1.0
 50
269.9999969999958
 51
0.0
  0
LINE
  5
133F2
  8
AM_0
 10
-235.26860419111071
 20
290.98269002521943
 30
0.0
 11
-235.26860419111071
 21
289.77133002521941
 31
0.0
  0
LINE
  5
133F3
  8
AM_0
 10
-233.26860419111071
 20
279.37559002521942
 30
0.0
 11
-236.26860419111071
 21
279.37559002521942
 31
0.0
  0
LINE
  5
133F4
  8
AM_0
 10
-233.26860419111071
 20
281.37558002521951
 30
0.0
 11
-236.26860419111071
 21
281.37558002521951
 31
0.0
  0
ARC
  5
133F5
  8
AM_0
 10
-236.26860419111071
 20
280.37557002521919
 30
0.0
 40
1.0
 50
179.999989999999
 51
269.9999969999958
  0
ARC
  5
133F6
  8
AM_0
 10
-236.26860419111071
 20
280.37557002521919
 30
0.0
 40
1.0
 50
90.0
 51
180.000010000001
  0
ARC
  5
133F7
  8
AM_0
 10
-233.26860419111071
 20
282.37559002521908
 30
0.0
 40
1.0
 50
269.9999969999958
 51
0.0
  0
ARC
  5
133F8
  8
AM_0
 10
-233.26860419111071
 20
278.37558002521922
 30
0.0
 40
1.0
 50
0.0
 51
90.0
  0
LINE
  5
133F9
  8
AM_0
 10
-235.26860419111071
 20
280.98886002521931
 30
0.0
 11
-235.26860419111071
 21
279.82797002521937
 31
0.0
  0
ARC
  5
133FA
  8
AM_0
 10
-233.26860419111071
 20
268.37558002521922
 30
0.0
 40
1.0
 50
0.0
 51
90.0
  0
ARC
  5
133FB
  8
AM_0
 10
-236.26860419111071
 20
270.3755900252192
 30
0.0
 40
1.0
 50
179.999989999999
 51
269.9999969999958
  0
LINE
  5
133FC
  8
AM_0
 10
-233.26860419111071
 20
271.37558002521951
 30
0.0
 11
-236.26860419111071
 21
271.37558002521951
 31
0.0
  0
LINE
  5
133FD
  8
AM_0
 10
-233.26860419111071
 20
269.37558002521951
 30
0.0
 11
-236.26860419111071
 21
269.37558002521951
 31
0.0
  0
ARC
  5
133FE
  8
AM_0
 10
-236.26860419111071
 20
270.3755900252192
 30
0.0
 40
1.0
 50
90.0
 51
180.000010000001
  0
ARC
  5
133FF
  8
AM_0
 10
-233.26860419111071
 20
272.37558002521922
 30
0.0
 40
1.0
 50
269.9999969999958
 51
0.0
  0
LINE
  5
13400
  8
AM_0
 10
-235.26860419111071
 20
269.76237002521941
 30
0.0
 11
-235.26860419111071
 21
270.92326002521941
 31
0.0
  0
ARC
  5
13401
  8
AM_0
 10
-233.26860419111071
 20
229.87395002521919
 30
0.0
 40
1.0
 50
269.9999969999958
 51
0.0
  0
LINE
  5
13402
  8
AM_0
 10
-235.48826419111069
 20
228.99042002521949
 30
0.0
 11
-236.73692419111069
 21
229.6522800252194
 31
0.0
  0
ARC
  5
13403
  8
AM_0
 10
-236.26860419111071
 20
230.5358700252192
 30
0.0
 40
1.0
 50
179.999989999999
 51
242.073399999994
  0
LINE
  5
13404
  8
AM_0
 10
-238.76860419111071
 20
260.22555002521938
 30
0.0
 11
-234.09111419111071
 21
260.22555002521921
 31
0.0
  0
LINE
  5
13405
  8
AM_0
 10
-233.26860419111071
 20
261.37559002521931
 30
0.0
 11
-236.26860419111071
 21
261.37559002521931
 31
0.0
  0
LINE
  5
13406
  8
AM_0
 10
-233.26860419111071
 20
259.37558002521928
 30
0.0
 11
-236.26860419111071
 21
259.37558002521939
 31
0.0
  0
LINE
  5
13407
  8
AM_0
 10
-239.26247015790759
 20
257.38375873615701
 30
0.0
 11
-238.76250067548571
 21
257.42376728107882
 31
0.0
  0
LINE
  5
13408
  8
AM_0
 10
-239.76250067548571
 20
260.15374774982882
 30
0.0
 11
-239.26250067548571
 21
257.38375873615701
 31
0.0
  0
LINE
  5
13409
  8
AM_0
 10
-238.76860419111071
 20
255.3755900252194
 30
0.0
 11
-237.26860419111071
 21
255.24437002521941
 31
0.0
  0
LINE
  5
1340A
  8
AM_0
 10
-238.76860419111071
 20
258.09361002521939
 30
0.0
 11
-237.26860419111071
 21
258.09361002521939
 31
0.0
  0
ARC
  5
1340B
  8
AM_0
 10
-236.26860419111071
 20
260.37558002521922
 30
0.0
 40
1.0
 50
179.999989999999
 51
269.9999969999958
  0
ARC
  5
1340C
  8
AM_0
 10
-233.26860419111071
 20
258.37559002521908
 30
0.0
 40
1.0
 50
0.0
 51
90.0
  0
LINE
  5
1340D
  8
AM_0
 10
-235.26860419111071
 20
259.76848002521928
 30
0.0
 11
-235.26860419111071
 21
260.97990002521942
 31
0.0
  0
LINE
  5
1340E
  8
AM_0
 10
-233.26860419111071
 20
251.37558002521931
 30
0.0
 11
-236.26860419111071
 21
251.37558002521939
 31
0.0
  0
LINE
  5
1340F
  8
AM_0
 10
-233.26860419111071
 20
249.3755900252192
 30
0.0
 11
-236.26860419111071
 21
249.3755900252194
 31
0.0
  0
ARC
  5
13410
  8
AM_0
 10
-236.26860419111071
 20
250.37558002521919
 30
0.0
 40
1.0
 50
90.0
 51
180.000010000001
  0
ARC
  5
13411
  8
AM_0
 10
-236.26860419111071
 20
250.37558002521919
 30
0.0
 40
1.0
 50
179.999989999999
 51
269.9999969999958
  0
ARC
  5
13412
  8
AM_0
 10
-233.26860419111071
 20
252.37559002521911
 30
0.0
 40
1.0
 50
269.9999969999958
 51
0.0
  0
LINE
  5
13413
  8
AM_0
 10
-235.26860419111071
 20
249.74942002521939
 30
0.0
 11
-235.26860419111071
 21
251.11221002521941
 31
0.0
  0
ARC
  5
13414
  8
AM_0
 10
-233.26860419111071
 20
248.37558002521919
 30
0.0
 40
1.0
 50
0.0
 51
90.0
  0
LINE
  5
13415
  8
AM_0
 10
-235.4567741911107
 20
239.76669002521939
 30
0.0
 11
-236.66136419111069
 21
240.28116002521941
 31
0.0
  0
LINE
  5
13416
  8
AM_0
 10
-235.41228419111059
 20
241.6766500252194
 30
0.0
 11
-236.56260419111061
 21
242.03049002521939
 31
0.0
  0
ARC
  5
13417
  8
AM_0
 10
-236.26860419111071
 20
242.9863100252191
 30
0.0
 40
1.0
 50
179.999989999999
 51
252.90236999999561
  0
ARC
  5
13418
  8
AM_0
 10
-236.26860419111071
 20
241.20085002521921
 30
0.0
 40
1.0
 50
179.999989999999
 51
246.87297000000439
  0
LINE
  5
13419
  8
AM_0
 10
-235.06395419111061
 20
239.68638002521939
 30
0.0
 11
-232.9686141911107
 21
239.68638002521931
 31
0.0
  0
ARC
  5
1341A
  8
AM_0
 10
-232.9686141911107
 20
238.9863700252192
 30
0.0
 40
0.6999999900000002
 50
0.0
 51
90.0
  0
ARC
  5
1341B
  8
AM_0
 10
-235.0639541911105
 20
240.68637002521919
 30
0.0
 40
1.0
 50
246.87297000000439
 51
269.9999969999958
  0
LINE
  5
1341C
  8
AM_0
 10
-235.1182741911108
 20
241.63248002521939
 30
0.0
 11
-233.26860419111071
 21
241.63248002521939
 31
0.0
  0
ARC
  5
1341D
  8
AM_0
 10
-233.26860419111071
 20
242.63248002521911
 30
0.0
 40
1.0
 50
269.9999969999958
 51
0.0
  0
ARC
  5
1341E
  8
AM_0
 10
-235.11827419111069
 20
242.63248002521911
 30
0.0
 40
1.0
 50
252.90236999999561
 51
269.9999969999958
  0
LINE
  5
1341F
  8
AM_0
 10
-235.26860419111071
 20
239.9827000252194
 30
0.0
 11
-235.26860419111071
 21
241.0426500252195
 31
0.0
  0
LINE
  5
13420
  8
AM_0
 10
-235.50273419111079
 20
233.52780002521939
 30
0.0
 11
-236.7740341911107
 21
234.27247002521941
 31
0.0
  0
LINE
  5
13421
  8
AM_0
 10
-235.51835419111069
 20
232.41443002521939
 30
0.0
 11
-236.81694419111079
 21
233.26599002521939
 31
0.0
  0
ARC
  5
13422
  8
AM_0
 10
-236.26860419111071
 20
234.10226002521921
 30
0.0
 40
1.0
 50
179.999989999999
 51
236.7452700000018
  0
ARC
  5
13423
  8
AM_0
 10
-236.26860419111071
 20
235.13534002521919
 30
0.0
 40
1.0
 50
179.999989999999
 51
239.64049999999571
  0
LINE
  5
13424
  8
AM_0
 10
-234.96995419111079
 20
232.2507000252194
 30
0.0
 11
-232.26860419111071
 21
232.2507000252194
 31
0.0
  0
LINE
  5
13425
  8
AM_0
 10
-234.9973041911106
 20
233.39067002521941
 30
0.0
 11
-233.26860419111071
 21
233.39067002521941
 31
0.0
  0
ARC
  5
13426
  8
AM_0
 10
-233.26860419111071
 20
234.3906500252192
 30
0.0
 40
1.0
 50
269.9999969999958
 51
0.0
  0
LINE
  5
13427
  8
AM_0
 10
-235.26860419111071
 20
232.54513002521929
 30
0.0
 11
-235.26860419111071
 21
233.01732002521939
 31
0.0
  0
ARC
  5
13428
  8
AM_0
 10
-234.9973041911106
 20
234.3906500252192
 30
0.0
 40
1.0
 50
239.64049999999571
 51
269.9999969999958
  0
ARC
  5
13429
  8
AM_0
 10
-234.9699541911107
 20
233.2507000252192
 30
0.0
 40
1.0
 50
236.7452700000018
 51
269.9999969999958
  0
LINE
  5
1342A
  8
AM_0
 10
-235.48192419111081
 20
226.88077002521939
 30
0.0
 11
-236.72117419111061
 21
227.5097900252195
 31
0.0
  0
LINE
  5
1342B
  8
AM_0
 10
-235.5061541911108
 20
227.87648002521939
 30
0.0
 11
-236.78319419111079
 21
228.64278002521939
 31
0.0
  0
LINE
  5
1342C
  8
AM_0
 10
-235.50078419111071
 20
225.7604700252194
 30
0.0
 11
-236.76896419111071
 21
226.49342002521939
 31
0.0
  0
ARC
  5
1342D
  8
AM_0
 10
-236.26860419111071
 20
229.50027002521909
 30
0.0
 40
1.0
 50
179.999989999999
 51
239.03339999999801
  0
ARC
  5
1342E
  8
AM_0
 10
-236.26860419111071
 20
228.4015200252191
 30
0.0
 40
1.0
 50
179.999989999999
 51
243.08873999999889
  0
ARC
  5
1342F
  8
AM_0
 10
-236.26860419111071
 20
227.3592200252192
 30
0.0
 40
1.0
 50
179.999989999999
 51
239.9736000000027
  0
LINE
  5
13430
  8
AM_0
 10
-232.26860419111071
 20
225.37559002521931
 30
0.0
 11
-231.26860419111071
 21
225.37559002521931
 31
0.0
  0
LINE
  5
13431
  8
AM_0
 10
-235.02934419111071
 20
226.77251002521939
 30
0.0
 11
-232.76860419111071
 21
226.77251002521939
 31
0.0
  0
LINE
  5
13432
  8
AM_0
 10
-235.0199441911108
 20
228.87393002521929
 30
0.0
 11
-233.26860419111071
 21
228.87393002521929
 31
0.0
  0
LINE
  5
13433
  8
AM_0
 10
-234.9915641911108
 20
227.7339900252193
 30
0.0
 11
-232.26860419111071
 21
227.7339900252193
 31
0.0
  0
LINE
  5
13434
  8
AM_0
 10
-235.00041419111071
 20
225.6261900252193
 30
0.0
 11
-232.76860419111071
 21
225.6261900252193
 31
0.0
  0
ARC
  5
13435
  8
AM_0
 10
-232.76860419111071
 20
225.12620002521919
 30
0.0
 40
0.5
 50
0.0
 51
90.0
  0
ARC
  5
13436
  8
AM_0
 10
-232.76860419111071
 20
227.27249002521921
 30
0.0
 40
0.5
 50
269.9999969999958
 51
0.0
  0
LINE
  5
13437
  8
AM_0
 10
-235.26860419111071
 20
225.8794200252193
 30
0.0
 11
-235.26860419111071
 21
226.40520002521939
 31
0.0
  0
LINE
  5
13438
  8
AM_0
 10
-235.26860419111071
 20
227.97903002521929
 30
0.0
 11
-235.26860419111071
 21
228.52511002521939
 31
0.0
  0
ARC
  5
13439
  8
AM_0
 10
-235.01994419111071
 20
229.87395002521919
 30
0.0
 40
1.0
 50
242.073399999994
 51
269.9999969999958
  0
ARC
  5
1343A
  8
AM_0
 10
-234.9915641911108
 20
228.73398002521901
 30
0.0
 40
1.0
 50
239.03339999999801
 51
269.9999969999958
  0
ARC
  5
1343B
  8
AM_0
 10
-235.0293441911106
 20
227.77249002521921
 30
0.0
 40
1.0
 50
243.08873999999889
 51
269.9999969999958
  0
ARC
  5
1343C
  8
AM_0
 10
-235.00041419111071
 20
226.62620002521919
 30
0.0
 40
1.0
 50
239.9736000000027
 51
269.9999969999958
  0
LINE
  5
1343D
  8
AM_0
 10
-230.57857419111079
 20
318.57059734882893
 30
0.0
 11
-224.34859419111069
 21
318.57059734882893
 31
0.0
  0
LINE
  5
1343E
  8
AM_0
 10
-231.26857419111059
 20
328.38058634882867
 30
0.0
 11
-223.26857419111059
 21
328.38058634882867
 31
0.0
  0
LINE
  5
1343F
  8
AM_0
 10
-231.26857419111059
 20
328.37559734882871
 30
0.0
 11
-223.26857419111059
 21
328.37559734882871
 31
0.0
  0
LINE
  5
13440
  8
AM_0
 10
-230.57857419111079
 20
232.19060334882869
 30
0.0
 11
-224.34859419111069
 21
232.19060334882869
 31
0.0
  0
LINE
  5
13441
  8
AM_0
 10
-231.26857419111059
 20
222.38058334882871
 30
0.0
 11
-223.26857419111059
 21
222.38058334882871
 31
0.0
  0
LINE
  5
13442
  8
AM_0
 10
-231.26857419111059
 20
222.37559334882869
 30
0.0
 11
-223.26857419111059
 21
222.37559334882869
 31
0.0
  0
LINE
  5
13443
  8
AM_0
 10
-217.9436869747986
 20
238.6556167864926
 30
0.0
 11
-223.26857419111059
 21
227.28059334882869
 31
0.0
  0
LINE
  5
13444
  8
AM_0
 10
-117.0685641911107
 20
236.0405733488287
 30
0.0
 11
-121.2185541911106
 21
220.5805833488287
 31
0.0
  0
LINE
  5
13445
  8
AM_0
 10
-115.2685741911107
 20
219.37559334882869
 30
0.0
 11
-115.2685741911107
 21
331.37559734882871
 31
0.0
  0
LINE
  5
13446
  8
AM_0
 10
-223.26857419111059
 20
222.38058334882871
 30
0.0
 11
-223.26857419111059
 21
324.82058134882868
 31
0.0
  0
LINE
  5
13447
  8
AM_0
 10
-220.0685641911108
 20
219.09059334882869
 30
0.0
 11
-123.14860419111049
 21
219.09059334882869
 31
0.0
  0
LINE
  5
13448
  8
AM_0
 10
-219.9785941911108
 20
213.49058334882869
 30
0.0
 11
-186.2685741911105
 21
213.49058334882869
 31
0.0
  0
LINE
  5
13449
  8
AM_0
 10
-219.9985541911106
 20
214.40059334882881
 30
0.0
 11
-186.2685741911105
 21
214.40059334882881
 31
0.0
  0
LINE
  5
1344A
  8
AM_0
 10
-220.01857419111059
 20
216.25059334882869
 30
0.0
 11
-186.2685741911105
 21
216.25059334882869
 31
0.0
  0
ARC
  5
1344B
  8
AM_0
 10
-220.02016419111061
 20
218.2437333488285
 30
0.0
 40
1.9931281000000001
 50
189.03881999999959
 51
270.04662699999949
  0
LINE
  5
1344C
  8
AM_0
 10
-223.26857419111059
 20
224.5906133488287
 30
0.0
 11
-221.9585741911107
 21
215.2106033488287
 31
0.0
  0
LINE
  5
1344D
  8
AM_0
 10
-223.26851419111071
 20
224.59057334882871
 30
0.0
 11
-221.9785341911107
 21
216.10058334882879
 31
0.0
  0
ARC
  5
1344E
  8
AM_0
 10
-220.00587419111051
 20
216.3951633488287
 30
0.0
 40
1.994588
 50
188.49291000000539
 51
270.20924699999762
  0
ARC
  5
1344F
  8
AM_0
 10
-219.9839041911105
 20
215.48407334882859
 30
0.0
 40
1.9934921000000001
 50
187.8852599999974
 51
270.15390899999858
  0
ARC
  5
13450
  8
AM_0
 10
-220.06569419111071
 20
221.0874933488285
 30
0.0
 40
1.9969039999999989
 50
190.58743999999859
 51
269.91652600000037
  0
LINE
  5
13451
  8
AM_0
 10
-223.26857419111059
 20
225.9405833488288
 30
0.0
 11
-221.9886041911108
 21
217.93059334882881
 31
0.0
  0
LINE
  5
13452
  8
AM_0
 10
-223.26857419111059
 20
227.28058334882871
 30
0.0
 11
-222.02858419111061
 21
220.7205833488288
 31
0.0
  0
ARC
  5
13453
  8
AM_0
 10
-186.26900419111061
 20
218.25101334882851
 30
0.0
 40
2.000407899999999
 50
270.01165000000208
 51
359.98835099999928
  0
LINE
  5
13454
  8
AM_0
 10
-184.26857419111059
 20
215.4906033488287
 30
0.0
 11
-184.26857419111059
 21
219.09059334882869
 31
0.0
  0
ARC
  5
13455
  8
AM_0
 10
-186.27016419111061
 20
216.4021433488285
 30
0.0
 40
2.0015439999999991
 50
270.04421600000092
 51
359.95578600099913
  0
ARC
  5
13456
  8
AM_0
 10
-186.26985419111071
 20
215.49188334882871
 30
0.0
 40
2.001287899999999
 50
270.036874000002
 51
359.9631280009977
  0
LINE
  5
13457
  8
AM_0
 10
-115.2685741911107
 20
219.37559334882869
 30
0.0
 11
-107.2686041911106
 21
219.37559334882869
 31
0.0
  0
ARC
  5
13458
  8
AM_0
 10
-123.15138419111059
 20
221.0891933488285
 30
0.0
 40
1.9986041000000001
 50
270.08048399999888
 51
345.25728400000082
  0
LINE
  5
13459
  8
AM_0
 10
-120.7285941911107
 20
222.38058334882871
 30
0.0
 11
-115.2685741911107
 21
222.38058334882871
 31
0.0
  0
LINE
  5
1345A
  8
AM_0
 10
-121.9285830783698
 20
239.3755630834055
 30
0.0
 11
-220.90862307836679
 21
239.37558751844151
 31
0.0
  0
LINE
  5
1345B
  8
AM_0
 10
-121.9285825846332
 20
241.3755630834055
 30
0.0
 11
-220.90862258462991
 21
241.37558751844139
 31
0.0
  0
LINE
  5
1345C
  8
AM_0
 10
-121.9357801159499
 20
251.37556308518259
 30
0.0
 11
-220.908620115947
 21
251.37558751844111
 31
0.0
  0
LINE
  5
1345D
  8
AM_0
 10
-221.5886232561046
 20
238.6556176863119
 30
0.0
 11
-118.4486032561077
 21
238.65559222430861
 31
0.0
  0
LINE
  5
1345E
  8
AM_0
 10
-221.8085900073398
 20
251.8155277406151
 30
0.0
 11
-118.2343700073427
 21
251.81550217142171
 31
0.0
  0
LINE
  5
1345F
  8
AM_0
 10
-221.80859073064661
 20
248.8855977406152
 30
0.0
 11
-118.2229507306497
 21
248.88557216860249
 31
0.0
  0
LINE
  5
13460
  8
AM_0
 10
-121.9214406096865
 20
249.3755630816427
 30
0.0
 11
-220.90862060968371
 21
249.37558751844119
 31
0.0
  0
LINE
  5
13461
  8
AM_0
 10
-221.58862242910061
 20
242.00559768631189
 30
0.0
 11
-118.4486024291038
 21
242.00557222430871
 31
0.0
  0
LINE
  5
13462
  8
AM_0
 10
-221.93858822492589
 20
259.03562777270781
 30
0.0
 11
-117.9400102685285
 21
259.03560209875388
 31
0.0
  0
LINE
  5
13463
  8
AM_0
 10
-221.93858756827819
 20
261.69553777270789
 30
0.0
 11
-118.09153511028789
 21
261.69551213616069
 31
0.0
  0
LINE
  5
13464
  8
AM_0
 10
-221.99858573897669
 20
269.1055677875197
 30
0.0
 11
-117.8824864854728
 21
269.10554208455352
 31
0.0
  0
LINE
  5
13465
  8
AM_0
 10
-221.99858511439251
 20
271.6355977875196
 30
0.0
 11
-118.045773138386
 21
271.63557212486381
 31
0.0
  0
LINE
  5
13466
  8
AM_0
 10
-121.92523888517231
 20
271.3755630825811
 30
0.0
 11
-220.90861517858059
 21
271.37558751844062
 31
0.0
  0
LINE
  5
13467
  8
AM_0
 10
-121.925239378909
 20
269.3755630825811
 30
0.0
 11
-220.9086156723173
 21
269.37558751844062
 31
0.0
  0
LINE
  5
13468
  8
AM_0
 10
-121.92524135385899
 20
261.37556308258132
 30
0.0
 11
-220.9086176472639
 21
261.37558751844091
 31
0.0
  0
LINE
  5
13469
  8
AM_0
 10
-121.925241847571
 20
259.37556308258138
 30
0.0
 11
-220.9086181410004
 21
259.37558751844091
 31
0.0
  0
LINE
  5
1346A
  8
AM_0
 10
-121.925237897678
 20
291.37556143926872
 30
0.0
 11
-220.90861419111059
 21
291.37556143926901
 31
0.0
  0
LINE
  5
1346B
  8
AM_0
 10
-121.9252378977028
 20
289.37556143926901
 30
0.0
 11
-220.90861419111059
 21
289.37556143926901
 31
0.0
  0
LINE
  5
1346C
  8
AM_0
 10
-121.9252378976992
 20
281.37556143926901
 30
0.0
 11
-220.90861419111059
 21
281.37556143926901
 31
0.0
  0
LINE
  5
1346D
  8
AM_0
 10
-121.9252378976992
 20
279.37556143926901
 30
0.0
 11
-220.90861419111059
 21
279.37556143926901
 31
0.0
  0
LINE
  5
1346E
  8
AM_0
 10
-221.99858419111061
 20
279.11555143926898
 30
0.0
 11
-118.0457722151011
 21
279.11555143926898
 31
0.0
  0
LINE
  5
1346F
  8
AM_0
 10
-221.99858419111061
 20
281.64558143926888
 30
0.0
 11
-117.88248493760371
 21
281.64558143926888
 31
0.0
  0
LINE
  5
13470
  8
AM_0
 10
-221.93858419111061
 20
289.05561143926889
 30
0.0
 11
-118.09153173311709
 21
289.05561143926889
 31
0.0
  0
LINE
  5
13471
  8
AM_0
 10
-221.93858419111061
 20
291.71552143926891
 30
0.0
 11
-117.9400062347101
 21
291.71552143926891
 31
0.0
  0
LINE
  5
13472
  8
AM_0
 10
-221.58861419111071
 20
308.74555143926892
 30
0.0
 11
-118.4485941911106
 21
308.74555143926858
 31
0.0
  0
LINE
  5
13473
  8
AM_0
 10
-121.92143419111051
 20
301.37556143926889
 30
0.0
 11
-220.90861419111059
 21
301.37556143926889
 31
0.0
  0
LINE
  5
13474
  8
AM_0
 10
-221.8085841911105
 20
301.86555143926898
 30
0.0
 11
-118.2229441911106
 21
301.86555143926898
 31
0.0
  0
LINE
  5
13475
  8
AM_0
 10
-221.8085841911105
 20
298.93562143926903
 30
0.0
 11
-118.2343641911104
 21
298.93562143926903
 31
0.0
  0
LINE
  5
13476
  8
AM_0
 10
-221.58861419111071
 20
312.095531439269
 30
0.0
 11
-118.4485941911106
 21
312.095531439269
 31
0.0
  0
LINE
  5
13477
  8
AM_0
 10
-121.9357741911105
 20
299.37556143926901
 30
0.0
 11
-220.90861419111059
 21
299.37556143926901
 31
0.0
  0
LINE
  5
13478
  8
AM_0
 10
-121.9285741911105
 20
309.37556143926889
 30
0.0
 11
-220.90861419111059
 21
309.37556143926889
 31
0.0
  0
LINE
  5
13479
  8
AM_0
 10
-121.9285741911105
 20
311.37556143926889
 30
0.0
 11
-220.90861419111059
 21
311.37556143926889
 31
0.0
  0
LINE
  5
1347A
  8
AM_0
 10
-197.76857419111059
 20
237.15060334882881
 30
0.0
 11
-115.2685741911107
 21
237.15060334882881
 31
0.0
  0
LINE
  5
1347B
  8
AM_0
 10
-197.76857419111059
 20
313.60058834882881
 30
0.0
 11
-115.2685741911107
 21
313.60058834882881
 31
0.0
  0
LINE
  5
1347C
  8
AM_0
 10
-220.06856419111051
 20
331.66060034882872
 30
0.0
 11
-123.14860419111049
 21
331.66060034882872
 31
0.0
  0
LINE
  5
1347D
  8
AM_0
 10
-217.93902685182701
 20
312.095531439269
 30
0.0
 11
-223.26863419111069
 21
323.47056834882869
 31
0.0
  0
POLYLINE
  5
1347E
  8
AM_0
 66
     1
 10
0.0
 20
0.0
 30
0.0
  0
VERTEX
  5
1347F
  8
AM_0
 10
-220.9086141911074
 20
275.37558751844023
 30
0.0
 42
0.00039106649
  0
VERTEX
  5
13480
  8
AM_0
 10
-220.91097426791549
 20
275.06445751902282
 30
0.0
 42
0.00035488198
  0
VERTEX
  5
13481
  8
AM_0
 10
-220.91286434471871
 20
274.75334751948958
 30
0.0
 42
0.00039706113
  0
VERTEX
  5
13482
  8
AM_0
 10
-220.9142944215219
 20
274.44223751984248
 30
0.0
 42
0.00038765718
  0
VERTEX
  5
13483
  8
AM_0
 10
-220.91522449833249
 20
274.13109752007199
 30
0.0
 42
0.00040613432
  0
VERTEX
  5
13484
  8
AM_0
 10
-220.91567457513321
 20
273.81999752018328
 30
0.0
 42
0.00035573434
  0
VERTEX
  5
13485
  8
AM_0
 10
-220.9156346519365
 20
273.50888752017329
 30
0.0
 42
0.00038545884
  0
VERTEX
  5
13486
  8
AM_0
 10
-220.91514472874459
 20
273.19775752005239
 30
0.0
 42
0.00035501205
  0
VERTEX
  5
13487
  8
AM_0
 10
-220.91418480554771
 20
272.88664751981543
 30
0.0
 42
0.00040120779
  0
VERTEX
  5
13488
  8
AM_0
 10
-220.9127648823806
 20
272.57541751946479
 30
0.0
 42
0.00038317817
  0
VERTEX
  5
13489
  8
AM_0
 10
-220.91085495918861
 20
272.26428751899329
 30
0.0
 42
0.00035656084
  0
VERTEX
  5
1348A
  8
AM_0
 10
-220.90847503602421
 20
271.95304751840581
 30
0.0
 42
0.00040143615
  0
VERTEX
  5
1348B
  8
AM_0
 10
-220.90562511282479
 20
271.64194751770231
 30
0.0
  0
SEQEND
  5
1348C
  8
AM_0
  0
LINE
  5
1348D
  8
AM_0
 10
-197.76863419111061
 20
237.15059334882881
 30
0.0
 11
-217.94606419111059
 21
238.65059334882881
 31
0.0
  0
ARC
  5
1348E
  8
AM_0
 10
-221.8085903689919
 20
250.35056774061511
 30
0.0
 40
1.465004
 50
89.999985855485264
 51
269.99998285548759
  0
ARC
  5
1348F
  8
AM_0
 10
-221.59600284261731
 20
240.33054768813369
 30
0.0
 40
1.6750160000000001
 50
89.746115855488753
 51
270.25384085548518
  0
ARC
  5
13490
  8
AM_0
 10
-220.72399283149849
 20
240.37558747286201
 30
0.0
 40
1.0000138999999999
 50
89.691645855488133
 51
270.30832585548961
  0
ARC
  5
13491
  8
AM_0
 10
-220.72399036281519
 20
250.3755874728617
 30
0.0
 40
1.0000138999999999
 50
89.691645855488133
 51
270.30832585548961
  0
POLYLINE
  5
13492
  8
AM_0
 66
     1
 10
0.0
 20
0.0
 30
0.0
  0
VERTEX
  5
13493
  8
AM_0
 10
-219.40771072892841
 20
248.892557147914
 30
0.0
 42
0.00068898288
  0
VERTEX
  5
13494
  8
AM_0
 10
-219.33683087081619
 20
248.31780713041601
 30
0.0
 42
0.00070644354
  0
VERTEX
  5
13495
  8
AM_0
 10
-219.2643310126887
 20
247.74311711251789
 30
0.0
 42
0.00069248071
  0
VERTEX
  5
13496
  8
AM_0
 10
-219.1902411544678
 20
247.1688070942275
 30
0.0
 42
0.00069585665
  0
VERTEX
  5
13497
  8
AM_0
 10
-219.11456129620461
 20
246.59466707554449
 30
0.0
 42
0.00068980191
  0
VERTEX
  5
13498
  8
AM_0
 10
-219.0372614379072
 20
246.02066705646169
 30
0.0
 42
0.00072080104
  0
VERTEX
  5
13499
  8
AM_0
 10
-218.95837157955779
 20
245.44687703698631
 30
0.0
 42
0.00071002307
  0
VERTEX
  5
1349A
  8
AM_0
 10
-218.8778317211293
 20
244.8734070171036
 30
0.0
 42
0.00072659056
  0
VERTEX
  5
1349B
  8
AM_0
 10
-218.79567186260951
 20
244.30030699682089
 30
0.0
 42
0.00069570481
  0
VERTEX
  5
1349C
  8
AM_0
 10
-218.71185200407251
 20
243.72727697612819
 30
0.0
 42
0.00071266935
  0
VERTEX
  5
1349D
  8
AM_0
 10
-218.62642214547131
 20
243.1545069550383
 30
0.0
 42
0.00071614426
  0
VERTEX
  5
1349E
  8
AM_0
 10
-218.5393922867639
 20
242.58216693355351
 30
0.0
 42
0.00072288975
  0
VERTEX
  5
1349F
  8
AM_0
 10
-218.4506824280466
 20
242.00986691165369
 30
0.0
  0
SEQEND
  5
134A0
  8
AM_0
  0
POLYLINE
  5
134A1
  8
AM_0
 66
     1
 10
0.0
 20
0.0
 30
0.0
  0
VERTEX
  5
134A2
  8
AM_0
 10
-220.86455573906559
 20
269.10520750756342
 30
0.0
 42
0.00076691992
  0
VERTEX
  5
134A3
  8
AM_0
 10
-220.84975589157341
 20
268.48743750390992
 30
0.0
 42
0.00073262792
  0
VERTEX
  5
134A4
  8
AM_0
 10
-220.8331160440369
 20
267.86984749980178
 30
0.0
 42
0.00076529537
  0
VERTEX
  5
134A5
  8
AM_0
 10
-220.81462619652009
 20
267.25217749523739
 30
0.0
 42
0.00075141097
  0
VERTEX
  5
134A6
  8
AM_0
 10
-220.79425634898581
 20
266.6345774902087
 30
0.0
 42
0.00075841687
  0
VERTEX
  5
134A7
  8
AM_0
 10
-220.77202650140961
 20
266.01714748472079
 30
0.0
 42
0.00075711788
  0
VERTEX
  5
134A8
  8
AM_0
 10
-220.74791665385331
 20
265.39963747876868
 30
0.0
 42
0.00075976003
  0
VERTEX
  5
134A9
  8
AM_0
 10
-220.7219268062675
 20
264.78224747235282
 30
0.0
 42
0.00075797311
  0
VERTEX
  5
134AA
  8
AM_0
 10
-220.6940869586544
 20
264.16496746547978
 30
0.0
 42
0.0007482613
  0
VERTEX
  5
134AB
  8
AM_0
 10
-220.66435711106581
 20
263.54758745814053
 30
0.0
 42
0.00074893561
  0
VERTEX
  5
134AC
  8
AM_0
 10
-220.6327972634158
 20
262.93045745034931
 30
0.0
 42
0.00076039839
  0
VERTEX
  5
134AD
  8
AM_0
 10
-220.5993774157408
 20
262.31342744209911
 30
0.0
 42
0.00075618786
  0
VERTEX
  5
134AE
  8
AM_0
 10
-220.5640775680684
 20
261.69638743338459
 30
0.0
  0
SEQEND
  5
134AF
  8
AM_0
  0
ARC
  5
134B0
  8
AM_0
 10
-221.9385878966032
 20
260.36557777270758
 30
0.0
 40
1.3300049999999981
 50
89.999985855485264
 51
269.99998285548759
  0
ARC
  5
134B1
  8
AM_0
 10
-220.72398789413211
 20
260.37558747286141
 30
0.0
 40
1.0000138999999999
 50
89.691645855488133
 51
270.30832585548961
  0
POLYLINE
  5
134B2
  8
AM_0
 66
     1
 10
0.0
 20
0.0
 30
0.0
  0
VERTEX
  5
134B3
  8
AM_0
 10
-220.3903682250764
 20
259.0350173905012
 30
0.0
 42
0.0007337051
  0
VERTEX
  5
134B4
  8
AM_0
 10
-220.34622837379479
 20
258.43259737960437
 30
0.0
 42
0.00075211323
  0
VERTEX
  5
134B5
  8
AM_0
 10
-220.30028852250581
 20
257.83020736826342
 30
0.0
 42
0.0007297491
  0
VERTEX
  5
134B6
  8
AM_0
 10
-220.25255867116999
 20
257.22800735648019
 30
0.0
 42
0.00073593041
  0
VERTEX
  5
134B7
  8
AM_0
 10
-220.20307881978221
 20
256.62601734426539
 30
0.0
 42
0.00074742739
  0
VERTEX
  5
134B8
  8
AM_0
 10
-220.15180896836489
 20
256.02414733160839
 30
0.0
 42
0.00073217363
  0
VERTEX
  5
134B9
  8
AM_0
 10
-220.09874911693021
 20
255.42234731850959
 30
0.0
 42
0.00073754168
  0
VERTEX
  5
134BA
  8
AM_0
 10
-220.0439292654315
 20
254.8208073049764
 30
0.0
 42
0.00073075073
  0
VERTEX
  5
134BB
  8
AM_0
 10
-219.9873494138881
 20
254.21944729100861
 30
0.0
 42
0.00074550816
  0
VERTEX
  5
134BC
  8
AM_0
 10
-219.92900956227081
 20
253.6183872766062
 30
0.0
 42
0.00074288416
  0
VERTEX
  5
134BD
  8
AM_0
 10
-219.8688597106437
 20
253.01736726175699
 30
0.0
 42
0.00072504001
  0
VERTEX
  5
134BE
  8
AM_0
 10
-219.80694985894959
 20
252.41661724647349
 30
0.0
 42
0.00074640667
  0
VERTEX
  5
134BF
  8
AM_0
 10
-219.7432800072188
 20
251.81601723075551
 30
0.0
  0
SEQEND
  5
134C0
  8
AM_0
  0
ARC
  5
134C1
  8
AM_0
 10
-222.00444542668339
 20
270.37058778896608
 30
0.0
 40
1.2650129999999991
 50
89.735575855488491
 51
270.26440685548931
  0
ARC
  5
134C2
  8
AM_0
 10
-220.723985425449
 20
270.37558747286113
 30
0.0
 40
1.0000138999999999
 50
89.691645855488133
 51
270.30832585548961
  0
LINE
  5
134C3
  8
AM_0
 10
-197.76857419111059
 20
313.60058834882881
 30
0.0
 11
-217.94142419111071
 21
312.10058834882881
 31
0.0
  0
POLYLINE
  5
134C4
  8
AM_0
 66
     1
 10
0.0
 20
0.0
 30
0.0
  0
VERTEX
  5
134C5
  8
AM_0
 10
-220.39036419111051
 20
291.71613143926879
 30
0.0
 42
-0.0007337051
  0
VERTEX
  5
134C6
  8
AM_0
 10
-220.34622419111051
 20
292.31855143926867
 30
0.0
 42
-0.00075211323
  0
VERTEX
  5
134C7
  8
AM_0
 10
-220.30028419111051
 20
292.92094143926869
 30
0.0
 42
-0.0007297491
  0
VERTEX
  5
134C8
  8
AM_0
 10
-220.25255419111051
 20
293.52314143926878
 30
0.0
 42
-0.00073593041
  0
VERTEX
  5
134C9
  8
AM_0
 10
-220.2030741911106
 20
294.12513143926873
 30
0.0
 42
-0.00074742739
  0
VERTEX
  5
134CA
  8
AM_0
 10
-220.15180419111039
 20
294.72700143926858
 30
0.0
 42
-0.00073217363
  0
VERTEX
  5
134CB
  8
AM_0
 10
-220.09874419111051
 20
295.32880143926849
 30
0.0
 42
-0.00073754168
  0
VERTEX
  5
134CC
  8
AM_0
 10
-220.04392419111059
 20
295.93034143926872
 30
0.0
 42
-0.00073075073
  0
VERTEX
  5
134CD
  8
AM_0
 10
-219.98734419111051
 20
296.53170143926849
 30
0.0
 42
-0.00074550816
  0
VERTEX
  5
134CE
  8
AM_0
 10
-219.92900419111061
 20
297.13276143926868
 30
0.0
 42
-0.00074288416
  0
VERTEX
  5
134CF
  8
AM_0
 10
-219.86885419111059
 20
297.7337814392688
 30
0.0
 42
-0.00072504001
  0
VERTEX
  5
134D0
  8
AM_0
 10
-219.80694419111049
 20
298.33453143926857
 30
0.0
 42
-0.00074640667
  0
VERTEX
  5
134D1
  8
AM_0
 10
-219.74327419111049
 20
298.93513143926862
 30
0.0
  0
SEQEND
  5
134D2
  8
AM_0
  0
POLYLINE
  5
134D3
  8
AM_0
 66
     1
 10
0.0
 20
0.0
 30
0.0
  0
VERTEX
  5
134D4
  8
AM_0
 10
-220.86455419111061
 20
281.6459414392686
 30
0.0
 42
-0.00076691992
  0
VERTEX
  5
134D5
  8
AM_0
 10
-220.84975419111069
 20
282.26371143926872
 30
0.0
 42
-0.00073262792
  0
VERTEX
  5
134D6
  8
AM_0
 10
-220.83311419111061
 20
282.88130143926878
 30
0.0
 42
-0.00076529537
  0
VERTEX
  5
134D7
  8
AM_0
 10
-220.81462419111071
 20
283.4989714392687
 30
0.0
 42
-0.00075141097
  0
VERTEX
  5
134D8
  8
AM_0
 10
-220.7942541911105
 20
284.11657143926868
 30
0.0
 42
-0.00075841687
  0
VERTEX
  5
134D9
  8
AM_0
 10
-220.77202419111049
 20
284.7340014392687
 30
0.0
 42
-0.00075711788
  0
VERTEX
  5
134DA
  8
AM_0
 10
-220.7479141911106
 20
285.35151143926879
 30
0.0
 42
-0.00075976003
  0
VERTEX
  5
134DB
  8
AM_0
 10
-220.7219241911105
 20
285.96890143926862
 30
0.0
 42
-0.00075797311
  0
VERTEX
  5
134DC
  8
AM_0
 10
-220.69408419111059
 20
286.58618143926878
 30
0.0
 42
-0.0007482613
  0
VERTEX
  5
134DD
  8
AM_0
 10
-220.66435419111059
 20
287.2035614392687
 30
0.0
 42
-0.00074893561
  0
VERTEX
  5
134DE
  8
AM_0
 10
-220.63279419111069
 20
287.82069143926878
 30
0.0
 42
-0.00076039839
  0
VERTEX
  5
134DF
  8
AM_0
 10
-220.59937419111051
 20
288.43772143926873
 30
0.0
 42
-0.00075618786
  0
VERTEX
  5
134E0
  8
AM_0
 10
-220.56407419111051
 20
289.0547614392687
 30
0.0
  0
SEQEND
  5
134E1
  8
AM_0
  0
POLYLINE
  5
134E2
  8
AM_0
 66
     1
 10
0.0
 20
0.0
 30
0.0
  0
VERTEX
  5
134E3
  8
AM_0
 10
-220.9086141911105
 20
275.37556143926872
 30
0.0
 42
-0.00039106649
  0
VERTEX
  5
134E4
  8
AM_0
 10
-220.91097419111051
 20
275.68669143926883
 30
0.0
 42
-0.00035488198
  0
VERTEX
  5
134E5
  8
AM_0
 10
-220.91286419111049
 20
275.99780143926858
 30
0.0
 42
-0.00039706113
  0
VERTEX
  5
134E6
  8
AM_0
 10
-220.91429419111051
 20
276.3089114392688
 30
0.0
 42
-0.00038765718
  0
VERTEX
  5
134E7
  8
AM_0
 10
-220.9152241911107
 20
276.62005143926871
 30
0.0
 42
-0.00040613432
  0
VERTEX
  5
134E8
  8
AM_0
 10
-220.9156741911107
 20
276.93115143926872
 30
0.0
 42
-0.00035573434
  0
VERTEX
  5
134E9
  8
AM_0
 10
-220.91563419111051
 20
277.24226143926882
 30
0.0
 42
-0.00038545884
  0
VERTEX
  5
134EA
  8
AM_0
 10
-220.9151441911107
 20
277.55339143926858
 30
0.0
 42
-0.00035501205
  0
VERTEX
  5
134EB
  8
AM_0
 10
-220.91418419111051
 20
277.86450143926868
 30
0.0
 42
-0.00040120779
  0
VERTEX
  5
134EC
  8
AM_0
 10
-220.91276419111051
 20
278.1757314392687
 30
0.0
 42
-0.00038317817
  0
VERTEX
  5
134ED
  8
AM_0
 10
-220.91085419111059
 20
278.48686143926881
 30
0.0
 42
-0.00035656084
  0
VERTEX
  5
134EE
  8
AM_0
 10
-220.90847419111071
 20
278.79810143926881
 30
0.0
 42
-0.00040143615
  0
VERTEX
  5
134EF
  8
AM_0
 10
-220.9056241911106
 20
279.10920143926859
 30
0.0
  0
SEQEND
  5
134F0
  8
AM_0
  0
ARC
  5
134F1
  8
AM_0
 10
-220.72398419111059
 20
280.37556143926872
 30
0.0
 40
1.0000138999999999
 50
89.691659999999231
 51
270.30834000000073
  0
ARC
  5
134F2
  8
AM_0
 10
-222.00444419111051
 20
280.3805614392686
 30
0.0
 40
1.2650129999999991
 50
89.735579000001735
 51
270.2644100000025
  0
ARC
  5
134F3
  8
AM_0
 10
-220.72398419111059
 20
290.37556143926872
 30
0.0
 40
1.0000138999999999
 50
89.691659999999231
 51
270.30834000000073
  0
ARC
  5
134F4
  8
AM_0
 10
-221.93858419111061
 20
290.38557143926869
 30
0.0
 40
1.3300049999999981
 50
90.00000299999769
 51
270.0
  0
POLYLINE
  5
134F5
  8
AM_0
 66
     1
 10
0.0
 20
0.0
 30
0.0
  0
VERTEX
  5
134F6
  8
AM_0
 10
-219.40770419111061
 20
301.85859143926859
 30
0.0
 42
-0.00068898288
  0
VERTEX
  5
134F7
  8
AM_0
 10
-219.33682419111059
 20
302.43334143926859
 30
0.0
 42
-0.00070644354
  0
VERTEX
  5
134F8
  8
AM_0
 10
-219.2643241911106
 20
303.00803143926868
 30
0.0
 42
-0.00069248071
  0
VERTEX
  5
134F9
  8
AM_0
 10
-219.19023419111051
 20
303.5823414392687
 30
0.0
 42
-0.00069585665
  0
VERTEX
  5
134FA
  8
AM_0
 10
-219.11455419111061
 20
304.15648143926859
 30
0.0
 42
-0.00068980191
  0
VERTEX
  5
134FB
  8
AM_0
 10
-219.03725419111069
 20
304.73048143926871
 30
0.0
 42
-0.00072080104
  0
VERTEX
  5
134FC
  8
AM_0
 10
-218.95836419111041
 20
305.30427143926858
 30
0.0
 42
-0.00071002307
  0
VERTEX
  5
134FD
  8
AM_0
 10
-218.87782419111051
 20
305.87774143926868
 30
0.0
 42
-0.00072659056
  0
VERTEX
  5
134FE
  8
AM_0
 10
-218.7956641911106
 20
306.45084143926869
 30
0.0
 42
-0.00069570481
  0
VERTEX
  5
134FF
  8
AM_0
 10
-218.71184419111049
 20
307.0238714392687
 30
0.0
 42
-0.00071266935
  0
VERTEX
  5
13500
  8
AM_0
 10
-218.6264141911104
 20
307.59664143926869
 30
0.0
 42
-0.00071614426
  0
VERTEX
  5
13501
  8
AM_0
 10
-218.53938419111051
 20
308.16898143926869
 30
0.0
 42
-0.00072288975
  0
VERTEX
  5
13502
  8
AM_0
 10
-218.45067419111049
 20
308.74128143926868
 30
0.0
  0
SEQEND
  5
13503
  8
AM_0
  0
ARC
  5
13504
  8
AM_0
 10
-221.8085841911105
 20
300.40058143926882
 30
0.0
 40
1.465004
 50
90.00000299999769
 51
270.0
  0
ARC
  5
13505
  8
AM_0
 10
-220.72398419111059
 20
300.37556143926872
 30
0.0
 40
1.0000138999999999
 50
89.691659999999231
 51
270.30834000000073
  0
ARC
  5
13506
  8
AM_0
 10
-220.72398419111059
 20
310.37556143926861
 30
0.0
 40
1.0000138999999999
 50
89.691659999999231
 51
270.30834000000073
  0
ARC
  5
13507
  8
AM_0
 10
-221.59599419111061
 20
310.42060143926869
 30
0.0
 40
1.6750160000000001
 50
89.746145000004475
 51
270.25387000000092
  0
LINE
  5
13508
  8
ﾁｭｳｼﾝｾﾝ1
 10
-166.26857419111079
 20
234.7505665341321
 30
0.0
 11
-166.26857419111079
 21
316.00056953413218
 31
0.0
  0
LINE
  5
13509
  8
AM_0
 10
-219.9785941911104
 20
337.27058634882877
 30
0.0
 11
-186.26857419111039
 21
337.27058634882877
 31
0.0
  0
LINE
  5
1350A
  8
AM_0
 10
-219.9985541911106
 20
336.3505953488289
 30
0.0
 11
-186.26857419111039
 21
336.3505953488289
 31
0.0
  0
LINE
  5
1350B
  8
AM_0
 10
-220.0185741911105
 20
334.51059134882871
 30
0.0
 11
-186.26857419111039
 21
334.51059134882871
 31
0.0
  0
ARC
  5
1350C
  8
AM_0
 10
-220.0639241911106
 20
329.66159234882849
 30
0.0
 40
1.9990078999999989
 50
90.133449999996998
 51
169.362590000003
  0
LINE
  5
1350D
  8
AM_0
 10
-223.26857419111059
 20
326.16057034882868
 30
0.0
 11
-221.9585741911105
 21
335.54057534882872
 31
0.0
  0
LINE
  5
1350E
  8
AM_0
 10
-223.26851419111071
 20
326.1605933488288
 30
0.0
 11
-221.97853419111041
 21
334.66058534882882
 31
0.0
  0
LINE
  5
1350F
  8
AM_0
 10
-223.26857419111059
 20
324.82059734882893
 30
0.0
 11
-221.9886041911104
 21
332.82058934882861
 31
0.0
  0
LINE
  5
13510
  8
AM_0
 10
-223.26857419111059
 20
323.47060634882882
 30
0.0
 11
-222.02858419111041
 21
330.03060334882872
 31
0.0
  0
ARC
  5
13511
  8
AM_0
 10
-220.01259419111059
 20
332.51041634882858
 30
0.0
 40
2.0001840999999998
 50
90.171470000000795
 51
171.07899999999731
  0
ARC
  5
13512
  8
AM_0
 10
-220.00502419111061
 20
334.3532583488286
 30
0.0
 40
1.9973480999999991
 50
89.815320000002416
 51
171.14853000000031
  0
ARC
  5
13513
  8
AM_0
 10
-219.97645419111069
 20
335.27011334882849
 30
0.0
 40
2.0004758999999992
 50
90.060310000003966
 51
172.22953999999919
  0
LINE
  5
13514
  8
AM_0
 10
-184.26857419111039
 20
335.2705933488287
 30
0.0
 11
-184.26857419111039
 21
331.66060034882872
 31
0.0
  0
ARC
  5
13515
  8
AM_0
 10
-186.27577419111049
 20
332.50341234882848
 30
0.0
 40
2.0071799999999991
 50
0.2046199999977178
 51
89.795380000002282
  0
ARC
  5
13516
  8
AM_0
 10
-186.27186419111061
 20
334.34730734882851
 30
0.0
 40
2.003279899999999
 50
0.0937899999971395
 51
89.906210000002858
  0
ARC
  5
13517
  8
AM_0
 10
-186.27656419111059
 20
335.26258334882851
 30
0.0
 40
2.0080360999999991
 50
0.228789999999435
 51
89.771210000000551
  0
LINE
  5
13518
  8
AM_0
 10
-116.7685741911107
 20
313.60058034882883
 30
0.0
 11
-121.21858419111049
 21
330.18058234882869
 31
0.0
  0
LINE
  5
13519
  8
AM_0
 10
-115.2685741911107
 20
229.37559334882869
 30
0.0
 11
-107.2686041911106
 21
229.37559334882869
 31
0.0
  0
LINE
  5
1351A
  8
AM_0
 10
-115.2685741911107
 20
243.43558334882869
 30
0.0
 11
-107.2686041911106
 21
243.43558334882869
 31
0.0
  0
ARC
  5
1351B
  8
AM_0
 10
-121.9286403628183
 20
250.37556308341979
 30
0.0
 40
1.0000255999999981
 50
269.58945485548259
 51
90.410515855483709
  0
ARC
  5
1351C
  8
AM_0
 10
-121.9285828315015
 20
240.37556308340521
 30
0.0
 40
1.0
 50
269.99998285548759
 51
89.999995855486276
  0
ARC
  5
1351D
  8
AM_0
 10
-118.4486230103804
 20
240.33054622431411
 30
0.0
 40
1.675026000120903
 50
270.0006727121953
 51
89.999295998823087
  0
ARC
  5
1351E
  8
AM_0
 10
-115.6153741911106
 20
235.6528233488286
 30
0.0
 40
1.5027759999999999
 50
90.122410000003583
 51
165.24357000000049
  0
ARC
  5
1351F
  8
AM_0
 10
-118.2286303702319
 20
250.3455321700047
 30
0.0
 40
1.460011199999999
 50
269.7752358554838
 51
90.224735855484013
  0
ARC
  5
13520
  8
AM_0
 10
-121.9286179941351
 20
260.37556308341448
 30
0.0
 40
1.000005699999998
 50
269.99998285548759
 51
89.999995855486276
  0
ARC
  5
13521
  8
AM_0
 10
-121.9286155254519
 20
270.37556308341442
 30
0.0
 40
1.000005699999998
 50
269.99998285548759
 51
89.999995855486276
  0
ARC
  5
13522
  8
AM_0
 10
-118.10363149784069
 20
260.36055213914659
 30
0.0
 40
1.3350147999999999
 50
269.73042985548369
 51
90.269555855485152
  0
ARC
  5
13523
  8
AM_0
 10
-118.04167902792319
 20
270.36555212385292
 30
0.0
 40
1.2700266
 50
269.62931585548409
 51
90.370665855488923
  0
LINE
  5
13524
  8
AM_0
 10
-115.2685741911107
 20
307.31558434882868
 30
0.0
 11
-107.2686041911106
 21
307.31558434882868
 31
0.0
  0
ARC
  5
13525
  8
AM_0
 10
-121.92861429111061
 20
280.37556143926872
 30
0.0
 40
1.000005699999998
 50
269.999989999999
 51
90.00000299999769
  0
ARC
  5
13526
  8
AM_0
 10
-121.92861429111061
 20
290.37556143926872
 30
0.0
 40
1.000005699999998
 50
269.999989999999
 51
90.00000299999769
  0
ARC
  5
13527
  8
AM_0
 10
-118.0416777911106
 20
280.38557143926869
 30
0.0
 40
1.2700266
 50
269.62932000000001
 51
90.370669999998199
  0
ARC
  5
13528
  8
AM_0
 10
-118.1036277911106
 20
290.39057143926863
 30
0.0
 40
1.3350147999999999
 50
269.7304299999999
 51
90.269556000001415
  0
ARC
  5
13529
  8
AM_0
 10
-121.9285741911106
 20
310.37556143926861
 30
0.0
 40
1.0
 50
269.999989999999
 51
90.00000299999769
  0
ARC
  5
1352A
  8
AM_0
 10
-121.9286341911105
 20
300.37556143926872
 30
0.0
 40
1.0000255999999981
 50
269.5894700000033
 51
90.410530999997775
  0
ARC
  5
1352B
  8
AM_0
 10
-118.2286241911106
 20
300.40559143926862
 30
0.0
 40
1.460011199999999
 50
269.77524999999667
 51
90.224750000003354
  0
ARC
  5
1352C
  8
AM_0
 10
-118.4486143588763
 20
310.42057743926807
 30
0.0
 40
1.675026000120903
 50
270.0006898566686
 51
89.999313143289925
  0
LINE
  5
1352D
  8
AM_0
 10
-115.2685741911107
 20
321.37558934882873
 30
0.0
 11
-107.2686041911106
 21
321.37558934882873
 31
0.0
  0
LINE
  5
1352E
  8
AM_0
 10
-115.2685741911107
 20
331.37559734882871
 30
0.0
 11
-107.2686041911106
 21
331.37559734882871
 31
0.0
  0
ARC
  5
1352F
  8
AM_0
 10
-123.1514441911107
 20
329.65845734882851
 30
0.0
 40
2.0021281000000002
 50
15.11669999999476
 51
89.918480000000116
  0
LINE
  5
13530
  8
AM_0
 10
-120.7285941911107
 20
328.38058634882867
 30
0.0
 11
-115.2685741911107
 21
328.38058634882867
 31
0.0
  0
LINE
  5
13531
  8
ｶｸﾚｾﾝ2
 10
-137.76857419111079
 20
306.87555779898298
 30
0.0
 11
-211.76857419111079
 21
306.87555779898298
 31
0.0
  0
LINE
  5
13532
  8
ｶｸﾚｾﾝ2
 10
-134.76857419111079
 20
303.87555779898298
 30
0.0
 11
-134.76857419111079
 21
246.8755577989829
 31
0.0
  0
ARC
  5
13533
  8
ｶｸﾚｾﾝ2
 10
-137.7685741911107
 20
303.87555779898281
 30
0.0
 40
3.0
 50
0.0
 51
90.0
  0
LINE
  5
13534
  8
ｶｸﾚｾﾝ2
 10
-137.76857419111079
 20
243.8755577989829
 30
0.0
 11
-211.76857419111079
 21
243.8755577989829
 31
0.0
  0
ARC
  5
13535
  8
ｶｸﾚｾﾝ2
 10
-137.7685741911107
 20
246.8755577989827
 30
0.0
 40
3.0
 50
270.0
 51
0.0
  0
LINE
  5
13536
  8
ｶｸﾚｾﾝ2
 10
-214.76857419111079
 20
246.8755577989829
 30
0.0
 11
-214.76857419111079
 21
303.87555779898298
 31
0.0
  0
ARC
  5
13537
  8
ｶｸﾚｾﾝ2
 10
-211.7685741911107
 20
246.87555779898281
 30
0.0
 40
3.0
 50
180.0
 51
270.0
  0
ARC
  5
13538
  8
ｶｸﾚｾﾝ2
 10
-211.7685741911107
 20
303.87555779898281
 30
0.0
 40
3.0
 50
90.0
 51
180.0
  0
LINE
  5
13960
  8
AM_0
 10
-115.2686041911106
 20
560.90717193627017
 30
0.0
 11
-107.2686041911106
 21
560.90717193627017
 31
0.0
  0
LINE
  5
13962
  8
AM_0
 10
-115.2686041911106
 20
570.9071719362704
 30
0.0
 11
-107.2686041911106
 21
570.9071719362704
 31
0.0
  0
LINE
  5
13967
  8
AM_0
 10
-115.2686041911106
 20
546.84711193627015
 30
0.0
 11
-107.2686041911106
 21
546.84711193627015
 31
0.0
  0
LINE
  5
13973
  8
AM_0
 10
-115.2686041911106
 20
482.96722193627039
 30
0.0
 11
-107.2686041911106
 21
482.96722193627039
 31
0.0
  0
LINE
  5
13975
  8
AM_0
 10
-115.2686041911106
 20
468.90717193627017
 30
0.0
 11
-107.2686041911106
 21
468.90717193627017
 31
0.0
  0
LINE
  5
13976
  8
AM_0
 10
-115.2686041911106
 20
458.90717193627029
 30
0.0
 11
-107.2686041911106
 21
458.90717193627029
 31
0.0
  0
LINE
  5
139BD
  8
AM_0
 10
-115.2686041911106
 20
458.90717193627029
 30
0.0
 11
-115.2686041911106
 21
570.9071719362704
 31
0.0
  0
LINE
  5
139BE
  8
AM_0
 10
-223.2686041911104
 20
461.90717193627029
 30
0.0
 11
-223.2686041911104
 21
567.9071719362704
 31
0.0
  0
LINE
  5
139BF
  8
AM_0
 10
-117.0685941911108
 20
475.56724193627048
 30
0.0
 11
-121.2086041911104
 21
460.10722193627032
 31
0.0
  0
LINE
  5
139C0
  8
AM_0
 10
-217.9086141911105
 20
478.25718193627051
 30
0.0
 11
-223.2686041911104
 21
466.80720193627019
 31
0.0
  0
LINE
  5
139C1
  8
AM_0
 10
-231.2686041911106
 20
461.90717193627029
 30
0.0
 11
-231.2686041911106
 21
567.9071719362704
 31
0.0
  0
LINE
  5
139C2
  8
AM_0
 10
-232.2686041911106
 20
464.90717193627017
 30
0.0
 11
-232.2686041911106
 21
564.90717193627017
 31
0.0
  0
LINE
  5
139C3
  8
AM_0
 10
-237.2686041911106
 20
466.88715193627053
 30
0.0
 11
-237.2686041911106
 21
509.90717193627029
 31
0.0
  0
LINE
  5
139C4
  8
AM_0
 10
-235.06859419111061
 20
479.21723193627042
 30
0.0
 11
-232.9686141911107
 21
479.21723193627042
 31
0.0
  0
LINE
  5
139C5
  8
AM_0
 10
-235.11857419111089
 20
481.16718193627031
 30
0.0
 11
-233.2686041911106
 21
481.16718193627031
 31
0.0
  0
LINE
  5
139C6
  8
AM_0
 10
-233.2686041911106
 20
490.90717193627029
 30
0.0
 11
-236.2686041911106
 21
490.90717193627029
 31
0.0
  0
LINE
  5
139C7
  8
AM_0
 10
-233.2686041911106
 20
488.90717193627029
 30
0.0
 11
-236.2686041911106
 21
488.90717193627029
 31
0.0
  0
LINE
  5
139C8
  8
AM_0
 10
-233.2686041911106
 20
500.90717193627029
 30
0.0
 11
-236.2686041911106
 21
500.90717193627029
 31
0.0
  0
LINE
  5
139C9
  8
AM_0
 10
-233.2686041911106
 20
498.90717193627029
 30
0.0
 11
-236.2686041911106
 21
498.90717193627029
 31
0.0
  0
LINE
  5
139CA
  8
AM_0
 10
-233.2686041911106
 20
510.90717193627017
 30
0.0
 11
-236.2686041911106
 21
510.90717193627017
 31
0.0
  0
LINE
  5
139CB
  8
AM_0
 10
-233.2686041911106
 20
508.90717193627029
 30
0.0
 11
-236.2686041911106
 21
508.90717193627029
 31
0.0
  0
LINE
  5
139CC
  8
AM_0
 10
-233.2686041911106
 20
528.9071719362704
 30
0.0
 11
-236.2686041911106
 21
528.9071719362704
 31
0.0
  0
LINE
  5
139CD
  8
AM_0
 10
-233.2686041911106
 20
520.9071719362704
 30
0.0
 11
-236.2686041911106
 21
520.9071719362704
 31
0.0
  0
LINE
  5
139CE
  8
AM_0
 10
-233.2686041911106
 20
518.90717193627017
 30
0.0
 11
-236.2686041911106
 21
518.90717193627017
 31
0.0
  0
LINE
  5
139CF
  8
AM_0
 10
-233.2686041911106
 20
538.9071719362704
 30
0.0
 11
-236.2686041911106
 21
538.9071719362704
 31
0.0
  0
LINE
  5
139D0
  8
AM_0
 10
-233.2686041911106
 20
530.90717193627029
 30
0.0
 11
-236.2686041911106
 21
530.90717193627029
 31
0.0
  0
LINE
  5
139D1
  8
AM_0
 10
-235.11857419111089
 20
548.64716193627032
 30
0.0
 11
-233.2686041911106
 21
548.64716193627032
 31
0.0
  0
LINE
  5
139D2
  8
AM_0
 10
-235.06859419111061
 20
550.59712193627024
 30
0.0
 11
-232.9686141911107
 21
550.59712193627024
 31
0.0
  0
LINE
  5
139D3
  8
AM_0
 10
-233.2686041911106
 20
540.9071719362704
 30
0.0
 11
-236.2686041911106
 21
540.9071719362704
 31
0.0
  0
LINE
  5
139D4
  8
AM_0
 10
-235.0186041911106
 20
561.4071719362704
 30
0.0
 11
-233.2686041911106
 21
561.4071719362704
 31
0.0
  0
ARC
  5
139D5
  8
AM_0
 10
-235.0052341911105
 20
555.88618193627042
 30
0.0
 40
1.001044999999998
 50
89.620290000000495
 51
119.52812999999919
  0
ARC
  5
139D6
  8
AM_0
 10
-234.9758141911106
 20
557.02668193627039
 30
0.0
 40
1.000521999999999
 50
89.58655999999965
 51
122.8538200000001
  0
LINE
  5
139D7
  8
AM_0
 10
-235.02861419111059
 20
563.50715193627036
 30
0.0
 11
-232.7686041911106
 21
563.50715193627036
 31
0.0
  0
ARC
  5
139D8
  8
AM_0
 10
-234.99718419111059
 20
561.54353193627037
 30
0.0
 40
1.003743999999998
 50
89.508099999999374
 51
120.62887000000271
  0
ARC
  5
139D9
  8
AM_0
 10
-234.9879041911108
 20
563.65608193627043
 30
0.0
 40
1.001123999999999
 50
90.612320000001219
 51
120.6721799999991
  0
LINE
  5
139DA
  8
AM_0
 10
-117.06291419111039
 20
554.22611193627006
 30
0.0
 11
-121.2086641911105
 21
569.70722193627034
 31
0.0
  0
LINE
  5
139DB
  8
AM_0
 10
-217.9086141911105
 20
551.55717193627027
 30
0.0
 11
-223.2686041911104
 21
562.99717193627021
 31
0.0
  0
LINE
  5
139DC
  8
AM_0
 10
-220.05858419111041
 20
571.18720193627018
 30
0.0
 11
-123.1385941911105
 21
571.18720193627018
 31
0.0
  0
LINE
  5
139DD
  8
AM_0
 10
-137.2686041911108
 20
604.4071719362704
 30
0.0
 11
-212.26860419111091
 21
604.4071719362704
 31
0.0
  0
LINE
  5
139DE
  8
AM_0
 10
-148.46460419111071
 20
607.4071719362704
 30
0.0
 11
-184.07260419111071
 21
607.4071719362704
 31
0.0
  0
LINE
  5
139DF
  8
AM_0
 10
-134.7686041911108
 20
587.9071719362704
 30
0.0
 11
-192.2686041911108
 21
587.9071719362704
 31
0.0
  0
LINE
  5
139E0
  8
AM_0
 10
-214.76860419111091
 20
584.4071719362704
 30
0.0
 11
-134.7686041911108
 21
584.4071719362704
 31
0.0
  0
LINE
  5
139E1
  8
AM_0
 10
-134.7686041911108
 20
581.90717193627063
 30
0.0
 11
-214.76860419111091
 21
581.90717193627063
 31
0.0
  0
LINE
  5
139E2
  8
AM_0
 10
-143.2686041911108
 20
604.4071719362704
 30
0.0
 11
-148.46460419111071
 21
607.4071719362704
 31
0.0
  0
ARC
  5
139E3
  8
AM_0
 10
-134.6895235053255
 20
578.9071719362704
 30
0.0
 40
1.4999999999999989
 50
181.50013490635311
 51
270.0
1001
GENIUS_GENODEF_13
1002
{
1000
HIER
1070
     0
1002
}
1002
{
1000
MANEDIT
1070
     0
1002
}
1002
{
1000
NOSEL
1070
     0
1002
}
1002
{
1000
BEHIND
1070
     0
1002
}
1002
{
1000
REACTOR
1002
}
1001
GENIUS_GENOBJ-N-FIL_13
1002
{
1000
OWNER
1000
GEN
1002
}
  0
LINE
  5
139E4
  8
AM_0
 10
-134.7686041911108
 20
581.90717193627063
 30
0.0
 11
-134.7686041911108
 21
587.9071719362704
 31
0.0
  0
LINE
  5
139E5
  8
AM_0
 10
-116.2686041911106
 20
567.90720193627021
 30
0.0
 11
-121.9944041911105
 21
576.72416193627032
 31
0.0
  0
LINE
  5
139E6
  8
AM_0
 10
-120.72655419111059
 20
567.9071719362704
 30
0.0
 11
-115.2686041911106
 21
567.9071719362704
 31
0.0
  0
LINE
  5
139E7
  8
AM_0
 10
-134.6895235053255
 20
577.40717193627017
 30
0.0
 11
-123.25242419111071
 21
577.40717193627017
 31
0.0
  0
ARC
  5
139E8
  8
AM_0
 10
-123.25242419111071
 20
575.9071719362704
 30
0.0
 40
1.4999999999999989
 50
33.000000000001492
 51
90.000010000000998
  0
ARC
  5
139E9
  8
AM_0
 10
-123.1434241911106
 20
569.18244193627015
 30
0.0
 40
2.0047289999999989
 50
15.173499999998089
 51
89.8616799999958
  0
LINE
  5
139EA
  8
AM_0
 10
-136.2686041911108
 20
587.9071719362704
 30
0.0
 11
-136.2686041911108
 21
603.4071719362704
 31
0.0
  0
ARC
  5
139EB
  8
AM_0
 10
-137.2686041911108
 20
603.40717193627063
 30
0.0
 40
1.0
 50
0.0
 51
90.0
  0
LINE
  5
139EC
  8
AM_0
 10
-136.2686041911106
 20
581.90723193627025
 30
0.0
 11
-135.98786506804731
 21
571.18720193627018
 31
0.0
  0
LINE
  5
139ED
  8
AM_0
 10
-184.07260419111071
 20
607.4071719362704
 30
0.0
 11
-189.2613797013139
 21
604.4071719362704
 31
0.0
  0
LINE
  5
139EE
  8
AM_0
 10
-200.7686041911108
 20
600.4071719362704
 30
0.0
 11
-202.7686041911108
 21
600.4071719362704
 31
0.0
  0
ARC
  5
139EF
  8
AM_0
 10
-201.76860419111091
 20
591.9071719362704
 30
0.0
 40
3.999999999999996
 50
0.0
 51
180.0
  0
ARC
  5
139F0
  8
AM_0
 10
-201.76860419111091
 20
591.9071719362704
 30
0.0
 40
7.5000000000000018
 50
0.0
 51
180.0
  0
LINE
  5
139F1
  8
AM_0
 10
-220.3623541911104
 20
574.03718193627049
 30
0.0
 11
-197.9359539924437
 21
574.03718193627049
 31
0.0
  0
ARC
  5
139F2
  8
AM_0
 10
-200.7686041911108
 20
592.9071719362704
 30
0.0
 40
7.4999999999999956
 50
0.0
 51
90.0
  0
ARC
  5
139F3
  8
AM_0
 10
-192.2686041911108
 20
588.9071719362704
 30
0.0
 40
1.0
 50
180.0
 51
270.0
  0
LINE
  5
139F4
  8
AM_0
 10
-193.2686041911108
 20
592.9071719362704
 30
0.0
 11
-193.2686041911108
 21
588.9071719362704
 31
0.0
  0
LINE
  5
139F5
  8
AM_0
 10
-197.7686041911108
 20
584.4071719362704
 30
0.0
 11
-197.7686041911108
 21
591.9071719362704
 31
0.0
  0
LINE
  5
139F6
  8
AM_0
 10
-194.2686041911108
 20
591.9071719362704
 30
0.0
 11
-194.2686041911108
 21
584.4071719362704
 31
0.0
  0
LINE
  5
139F7
  8
AM_0
 10
-196.2686641911105
 20
581.9072019362701
 30
0.0
 11
-196.54932837844959
 21
571.18720193627053
 31
0.0
  0
ARC
  5
139F8
  8
AM_0
 10
-197.9359539924437
 20
575.53718193627049
 30
0.0
 40
1.4999999999999989
 50
270.0
 51
358.50026113613268
1001
GENIUS_GENODEF_13
1002
{
1000
HIER
1070
     0
1002
}
1002
{
1000
MANEDIT
1070
     0
1002
}
1002
{
1000
NOSEL
1070
     0
1002
}
1002
{
1000
BEHIND
1070
     0
1002
}
1002
{
1000
REACTOR
1002
}
1001
GENIUS_GENOBJ-N-FIL_13
1002
{
1000
OWNER
1000
GEN
1002
}
  0
LINE
  5
139F9
  8
AM_0
 10
-214.76860419111091
 20
581.90717193627063
 30
0.0
 11
-214.76860419111091
 21
600.4071719362704
 31
0.0
  0
LINE
  5
139FA
  8
AM_0
 10
-213.2686041911108
 20
587.9071719362704
 30
0.0
 11
-213.2686041911108
 21
603.4071719362704
 31
0.0
  0
ARC
  5
139FB
  8
AM_0
 10
-202.7686041911108
 20
592.9071719362704
 30
0.0
 40
7.499999999999992
 50
90.0
 51
180.0
  0
ARC
  5
139FC
  8
AM_0
 10
-212.26860419111091
 20
603.4071719362704
 30
0.0
 40
1.0
 50
90.0
 51
180.0
  0
LINE
  5
139FD
  8
AM_0
 10
-214.76860419111091
 20
600.4071719362704
 30
0.0
 11
-213.2686041911108
 21
600.4071719362704
 31
0.0
  0
LINE
  5
139FE
  8
AM_0
 10
-209.2686041911108
 20
584.4071719362704
 30
0.0
 11
-209.2686041911108
 21
591.9071719362704
 31
0.0
  0
LINE
  5
139FF
  8
AM_0
 10
-205.76860419111091
 20
584.4071719362704
 30
0.0
 11
-205.76860419111091
 21
591.9071719362704
 31
0.0
  0
LINE
  5
13A00
  8
AM_0
 10
-210.26860419111091
 20
588.9071719362704
 30
0.0
 11
-210.26860419111091
 21
592.9071719362704
 31
0.0
  0
ARC
  5
13A01
  8
AM_0
 10
-211.2686041911108
 20
588.9071719362704
 30
0.0
 40
1.0
 50
270.0
 51
0.0
  0
LINE
  5
13A02
  8
AM_0
 10
-214.76860419111091
 20
587.9071719362704
 30
0.0
 11
-211.2686041911108
 21
587.9071719362704
 31
0.0
  0
ARC
  5
13A03
  8
AM_0
 10
-220.28197419111049
 20
572.03718193627026
 30
0.0
 40
1.9999999999999989
 50
90.000010000000998
 51
171.37037999999581
  0
ARC
  5
13A04
  8
AM_0
 10
-220.3623541911104
 20
572.03718193627026
 30
0.0
 40
1.9999999999999989
 50
90.000010000000998
 51
172.04955999999649
  0
ARC
  5
13A05
  8
AM_0
 10
-220.0124341911108
 20
572.03681193627006
 30
0.0
 40
2.000420099999999
 50
90.177290000000724
 51
171.0731799999985
  0
LINE
  5
13A06
  8
AM_0
 10
-231.2686041911106
 20
567.9071719362704
 30
0.0
 11
-223.2686041911106
 21
567.9071719362704
 31
0.0
  0
LINE
  5
13A07
  8
AM_0
 10
-223.2686041911104
 20
562.99723193627017
 30
0.0
 11
-222.02861419111031
 21
569.55723193627023
 31
0.0
  0
LINE
  5
13A08
  8
AM_0
 10
-223.2686041911104
 20
564.34724193627005
 30
0.0
 11
-221.98863419111061
 21
572.3471819362702
 31
0.0
  0
LINE
  5
13A09
  8
AM_0
 10
-223.2686041911104
 20
565.68723193627034
 30
0.0
 11
-222.25938419111051
 21
572.33726193627035
 31
0.0
  0
LINE
  5
13A0A
  8
AM_0
 10
-223.2686041911104
 20
565.68717193627037
 30
0.0
 11
-222.34312419111049
 21
572.31379193627015
 31
0.0
  0
ARC
  5
13A0B
  8
AM_0
 10
-220.06376419111049
 20
569.18793193627016
 30
0.0
 40
1.9992489999999989
 50
89.852570000001904
 51
169.35689999999889
  0
ARC
  5
13A0C
  8
AM_0
 10
-232.77196419111081
 20
563.00373193627036
 30
0.0
 40
0.5033929900000002
 50
0.3849000000018421
 51
89.615089999999398
  0
ARC
  5
13A0D
  8
AM_0
 10
-232.7681141911107
 20
565.15669193627036
 30
0.0
 40
0.49952301
 50
269.9452260000005
 51
0.0547699999986762
  0
LINE
  5
13A0E
  8
AM_0
 10
-232.2686041911106
 20
564.90717193627017
 30
0.0
 11
-231.2686041911106
 21
564.90717193627017
 31
0.0
  0
LINE
  5
13A0F
  8
AM_0
 10
-234.9885741911107
 20
562.54719193627034
 30
0.0
 11
-232.2686041911106
 21
562.54719193627034
 31
0.0
  0
LINE
  5
13A10
  8
AM_0
 10
-234.99858419111069
 20
564.6571719362704
 30
0.0
 11
-232.7686041911106
 21
564.6571719362704
 31
0.0
  0
LINE
  5
13A11
  8
AM_0
 10
-154.2686041911106
 20
540.9071719362704
 30
0.0
 11
-220.9086141911105
 21
540.9071719362704
 31
0.0
  0
LINE
  5
13A12
  8
AM_0
 10
-221.80858419111041
 20
541.39716193627032
 30
0.0
 11
-154.2686041911106
 21
541.39716193627032
 31
0.0
  0
LINE
  5
13A13
  8
AM_0
 10
-221.58861419111071
 20
548.27717193627052
 30
0.0
 11
-154.24858419111041
 21
548.27717193627052
 31
0.0
  0
LINE
  5
13A14
  8
AM_0
 10
-154.2686041911106
 20
488.90717193627029
 30
0.0
 11
-220.9086141911105
 21
488.90717193627029
 31
0.0
  0
LINE
  5
13A15
  8
AM_0
 10
-221.80858419111041
 20
488.41718193627042
 30
0.0
 11
-154.2686041911106
 21
488.41718193627042
 31
0.0
  0
LINE
  5
13A16
  8
AM_0
 10
-121.9357741911105
 20
490.90717193627029
 30
0.0
 11
-220.9086141911105
 21
490.90717193627029
 31
0.0
  0
LINE
  5
13A17
  8
AM_0
 10
-221.80858419111041
 20
491.34711193627038
 30
0.0
 11
-118.2343641911104
 21
491.34711193627038
 31
0.0
  0
LINE
  5
13A18
  8
AM_0
 10
-121.9357741911105
 20
538.9071719362704
 30
0.0
 11
-220.9086141911105
 21
538.9071719362704
 31
0.0
  0
LINE
  5
13A19
  8
AM_0
 10
-221.80858419111041
 20
538.46723193627042
 30
0.0
 11
-118.2343641911104
 21
538.46723193627042
 31
0.0
  0
LINE
  5
13A1A
  8
AM_0
 10
-221.58861419111071
 20
551.6271419362705
 30
0.0
 11
-166.2686041911106
 21
551.6271419362705
 31
0.0
  0
LINE
  5
13A1B
  8
AM_0
 10
-166.2686041911106
 20
548.9071719362704
 30
0.0
 11
-220.9086141911105
 21
548.9071719362704
 31
0.0
  0
LINE
  5
13A1C
  8
AM_0
 10
-166.2686041911106
 20
550.9071719362704
 30
0.0
 11
-220.9086141911105
 21
550.9071719362704
 31
0.0
  0
LINE
  5
13A1D
  8
AM_0
 10
-221.58861419111071
 20
481.53718193627031
 30
0.0
 11
-154.24858419111041
 21
481.53718193627031
 31
0.0
  0
LINE
  5
13A1E
  8
AM_0
 10
-121.9285741911105
 20
478.90717193627029
 30
0.0
 11
-220.9086141911105
 21
478.90717193627029
 31
0.0
  0
LINE
  5
13A1F
  8
AM_0
 10
-121.9285741911105
 20
480.90717193627029
 30
0.0
 11
-220.9086141911105
 21
480.90717193627029
 31
0.0
  0
LINE
  5
13A20
  8
AM_0
 10
-221.58861419111071
 20
478.1872019362703
 30
0.0
 11
-118.4485941911105
 21
478.1872019362703
 31
0.0
  0
LINE
  5
13A21
  8
AM_0
 10
-121.9357741911105
 20
540.9071719362704
 30
0.0
 11
-136.2686041911106
 21
540.9071719362704
 31
0.0
  0
LINE
  5
13A22
  8
AM_0
 10
-136.2686041911106
 20
541.38715193627047
 30
0.0
 11
-118.2343641911104
 21
541.38715193627047
 31
0.0
  0
LINE
  5
13A23
  8
AM_0
 10
-118.4485941911105
 20
548.27717193627052
 30
0.0
 11
-136.2886241911105
 21
548.27717193627052
 31
0.0
  0
LINE
  5
13A24
  8
AM_0
 10
-121.9285741911105
 20
548.9071719362704
 30
0.0
 11
-166.2686041911106
 21
548.9071719362704
 31
0.0
  0
LINE
  5
13A25
  8
AM_0
 10
-121.9285741911105
 20
550.9071719362704
 30
0.0
 11
-166.2686041911106
 21
550.9071719362704
 31
0.0
  0
LINE
  5
13A26
  8
AM_0
 10
-166.2686041911106
 20
551.6271419362705
 30
0.0
 11
-118.4485941911105
 21
551.6271419362705
 31
0.0
  0
ARC
  5
13A27
  8
AM_0
 10
-121.9286341911104
 20
539.90717193627017
 30
0.0
 40
1.0000255999999981
 50
269.58946900000223
 51
90.41052999999674
  0
ARC
  5
13A28
  8
AM_0
 10
-118.2286241911106
 20
539.93720193627053
 30
0.0
 40
1.460011199999999
 50
269.77525000000639
 51
90.224750000003326
  0
ARC
  5
13A29
  8
AM_0
 10
-118.4485941911105
 20
549.95222193627035
 30
0.0
 40
1.675001999999999
 50
269.9999969999991
 51
90.000010000000998
  0
ARC
  5
13A2A
  8
AM_0
 10
-115.6154041911106
 20
554.62995193627034
 30
0.0
 40
1.502775999999999
 50
194.7564299999994
 51
269.8775869999983
  0
ARC
  5
13A2B
  8
AM_0
 10
-121.9285741911105
 20
549.9071719362704
 30
0.0
 40
0.9999999999999998
 50
269.9999969999991
 51
90.000010000000998
  0
CIRCLE
  5
13A2C
  8
AM_0
 10
-142.7686041911106
 20
543.40717193627029
 30
0.0
 40
0.9999999999999998
  0
LINE
  5
13A2D
  8
AM_0
 10
-137.7686041911106
 20
542.4071719362704
 30
0.0
 11
-137.7686041911106
 21
547.40717193627029
 31
0.0
  0
LINE
  5
13A2E
  8
AM_0
 10
-137.28862419111081
 20
542.4071719362704
 30
0.0
 11
-137.28862419111081
 21
547.26716193627033
 31
0.0
  0
ARC
  5
13A2F
  8
AM_0
 10
-136.2886241911105
 20
547.26716193627033
 30
0.0
 40
0.9999999999999998
 50
90.0
 51
180.00001000000091
  0
ARC
  5
13A30
  8
AM_0
 10
-136.2686041911106
 20
547.40717193627029
 30
0.0
 40
1.4999999999999989
 50
90.0
 51
180.00001000000091
  0
ARC
  5
13A31
  8
AM_0
 10
-136.2686041911106
 20
542.4071719362704
 30
0.0
 40
1.4999999999999989
 50
179.999989999999
 51
269.9999969999991
  0
ARC
  5
13A32
  8
AM_0
 10
-136.2686041911106
 20
542.4071719362704
 30
0.0
 40
1.019999999999998
 50
179.999989999999
 51
269.9999969999991
  0
CIRCLE
  5
13A33
  8
AM_0
 10
-147.7686041911106
 20
543.40717193627029
 30
0.0
 40
1.149999999999999
  0
CIRCLE
  5
13A34
  8
AM_0
 10
-147.7686041911106
 20
543.40717193627029
 30
0.0
 40
1.0999999999999981
  0
LINE
  5
13A35
  8
AM_0
 10
-152.7686041911106
 20
542.4071719362704
 30
0.0
 11
-152.7686041911106
 21
547.40717193627029
 31
0.0
  0
LINE
  5
13A36
  8
AM_0
 10
-153.24858419111041
 20
542.4071719362704
 30
0.0
 11
-153.24858419111041
 21
547.26716193627033
 31
0.0
  0
ARC
  5
13A37
  8
AM_0
 10
-154.24858419111041
 20
547.26716193627033
 30
0.0
 40
0.9999999999999998
 50
359.99999931675052
 51
90.000010000000998
  0
ARC
  5
13A38
  8
AM_0
 10
-154.2686041911106
 20
547.40717193627029
 30
0.0
 40
1.4999999999999989
 50
359.99999931675052
 51
90.000010000000998
  0
ARC
  5
13A39
  8
AM_0
 10
-154.2686041911106
 20
542.4071719362704
 30
0.0
 40
1.019999999999998
 50
269.9999969999991
 51
0.0
  0
ARC
  5
13A3A
  8
AM_0
 10
-154.2686041911106
 20
542.4071719362704
 30
0.0
 40
1.4999999999999989
 50
269.9999969999991
 51
0.0
  0
LINE
  5
13A3B
  8
AM_0
 10
-121.92143419111039
 20
488.90717193627029
 30
0.0
 11
-136.2686041911106
 21
488.90717193627029
 31
0.0
  0
LINE
  5
13A3C
  8
AM_0
 10
-136.2686041911106
 20
488.41718193627042
 30
0.0
 11
-118.2229441911106
 21
488.41718193627042
 31
0.0
  0
LINE
  5
13A3D
  8
AM_0
 10
-136.2886241911105
 20
481.54719193627028
 30
0.0
 11
-118.4485941911105
 21
481.54719193627028
 31
0.0
  0
ARC
  5
13A3E
  8
AM_0
 10
-118.4485941911105
 20
479.86213193627037
 30
0.0
 40
1.675001999999999
 50
269.9999969999991
 51
90.000010000000998
  0
ARC
  5
13A3F
  8
AM_0
 10
-118.2286241911106
 20
489.8771419362705
 30
0.0
 40
1.460011199999999
 50
269.77525000000639
 51
90.224750000003326
  0
ARC
  5
13A40
  8
AM_0
 10
-115.6154041911106
 20
475.18439193627029
 30
0.0
 40
1.502775999999999
 50
90.122420000001313
 51
165.24357000000049
  0
ARC
  5
13A41
  8
AM_0
 10
-121.9286341911104
 20
489.90717193627017
 30
0.0
 40
1.0000255999999981
 50
269.58946900000223
 51
90.41052999999674
  0
ARC
  5
13A42
  8
AM_0
 10
-121.9285741911105
 20
479.90717193627029
 30
0.0
 40
0.9999999999999998
 50
269.9999969999991
 51
90.000010000000998
  0
CIRCLE
  5
13A43
  8
AM_0
 10
-147.7686041911106
 20
486.40717193627029
 30
0.0
 40
1.149999999999999
  0
LINE
  5
13A44
  8
AM_0
 10
-137.28862419111081
 20
487.40717193627029
 30
0.0
 11
-137.28862419111081
 21
482.54719193627039
 31
0.0
  0
LINE
  5
13A45
  8
AM_0
 10
-137.7686041911106
 20
487.40717193627029
 30
0.0
 11
-137.7686041911106
 21
482.40717193627029
 31
0.0
  0
CIRCLE
  5
13A46
  8
AM_0
 10
-147.7686041911106
 20
486.40717193627029
 30
0.0
 40
1.0999999999999981
  0
CIRCLE
  5
13A47
  8
AM_0
 10
-142.7686041911106
 20
486.40717193627029
 30
0.0
 40
0.9999999999999998
  0
ARC
  5
13A48
  8
AM_0
 10
-136.2686041911106
 20
487.40717193627029
 30
0.0
 40
1.4999999999999989
 50
90.0
 51
180.00001000000091
  0
ARC
  5
13A49
  8
AM_0
 10
-136.2686041911106
 20
487.40717193627029
 30
0.0
 40
1.019999999999998
 50
90.0
 51
180.00001000000091
  0
ARC
  5
13A4A
  8
AM_0
 10
-136.2686041911106
 20
482.40717193627029
 30
0.0
 40
1.4999999999999989
 50
179.999989999999
 51
269.9999969999991
  0
ARC
  5
13A4B
  8
AM_0
 10
-136.2886241911105
 20
482.54719193627039
 30
0.0
 40
0.9999999999999998
 50
179.999989999999
 51
269.9999969999991
  0
LINE
  5
13A4C
  8
AM_0
 10
-153.24858419111041
 20
487.40717193627029
 30
0.0
 11
-153.24858419111041
 21
482.54719193627039
 31
0.0
  0
LINE
  5
13A4D
  8
AM_0
 10
-152.7686041911106
 20
487.40717193627029
 30
0.0
 11
-152.7686041911106
 21
482.40717193627029
 31
0.0
  0
ARC
  5
13A4E
  8
AM_0
 10
-154.2686041911106
 20
487.40717193627029
 30
0.0
 40
1.4999999999999989
 50
359.99999931675052
 51
90.000010000000998
  0
ARC
  5
13A4F
  8
AM_0
 10
-154.2686041911106
 20
487.40717193627029
 30
0.0
 40
1.019999999999998
 50
359.999999316757
 51
90.000010000000998
  0
ARC
  5
13A50
  8
AM_0
 10
-154.2686041911106
 20
482.40717193627029
 30
0.0
 40
1.4999999999999989
 50
269.9999969999991
 51
0.0
  0
ARC
  5
13A51
  8
AM_0
 10
-154.24858419111041
 20
482.54719193627039
 30
0.0
 40
0.9999999999999998
 50
269.9999969999991
 51
0.0
  0
ARC
  5
13A52
  8
AM_0
 10
-222.00444419111071
 20
519.9071719362704
 30
0.0
 40
1.2700129999999981
 50
89.736630000000844
 51
270.26338299999838
  0
ARC
  5
13A53
  8
AM_0
 10
-233.27354419111069
 20
517.90229193627033
 30
0.0
 40
1.004942999999999
 50
0.2811300000018058
 51
89.718860000000547
  0
ARC
  5
13A54
  8
AM_0
 10
-185.54167419111059
 20
519.9071719362704
 30
0.0
 40
1.2700266
 50
269.62932999999202
 51
90.370680000000036
  0
LINE
  5
13A55
  8
AM_0
 10
-221.93858419111049
 20
531.2471419362704
 30
0.0
 11
-185.5973341911106
 21
531.2471419362704
 31
0.0
  0
LINE
  5
13A56
  8
AM_0
 10
-221.93858419111049
 20
528.58723193627009
 30
0.0
 11
-185.60991419111059
 21
528.58723193627009
 31
0.0
  0
LINE
  5
13A57
  8
AM_0
 10
-186.82988419111049
 20
528.9071719362704
 30
0.0
 11
-220.9086141911105
 21
528.9071719362704
 31
0.0
  0
LINE
  5
13A58
  8
AM_0
 10
-186.82988419111049
 20
530.90717193627029
 30
0.0
 11
-220.9086141911105
 21
530.90717193627029
 31
0.0
  0
LINE
  5
13A59
  8
AM_0
 10
-186.82988419111049
 20
518.90717193627017
 30
0.0
 11
-220.9086141911105
 21
518.90717193627017
 31
0.0
  0
LINE
  5
13A5A
  8
AM_0
 10
-186.82988419111049
 20
520.9071719362704
 30
0.0
 11
-220.9086141911105
 21
520.9071719362704
 31
0.0
  0
LINE
  5
13A5B
  8
AM_0
 10
-221.9985841911105
 20
521.17719193627033
 30
0.0
 11
-185.5499141911107
 21
521.17719193627033
 31
0.0
  0
ARC
  5
13A5C
  8
AM_0
 10
-185.60362419111081
 20
529.91718193627037
 30
0.0
 40
1.3300147999999981
 50
269.7294330000023
 51
90.270580000001416
  0
ARC
  5
13A5D
  8
AM_0
 10
-186.82988419111049
 20
529.9071719362704
 30
0.0
 40
1.000005699999998
 50
269.9999969999991
 51
90.000010000000998
  0
ARC
  5
13A5E
  8
AM_0
 10
-186.82988419111049
 20
519.9071719362704
 30
0.0
 40
1.000005699999998
 50
269.9999969999991
 51
90.000010000000998
  0
ARC
  5
13A5F
  8
AM_0
 10
-221.80858419111041
 20
539.93220193627042
 30
0.0
 40
1.4650039999999991
 50
90.0
 51
269.9999969999991
  0
ARC
  5
13A60
  8
AM_0
 10
-220.7239841911105
 20
539.90717193627017
 30
0.0
 40
1.000013899999999
 50
89.691659999999274
 51
270.30834000000073
  0
ARC
  5
13A61
  8
AM_0
 10
-221.5954441911106
 20
549.95222193627035
 30
0.0
 40
1.6750139999999989
 50
89.766490000000559
 51
270.23350100000317
  0
LINE
  5
13A62
  8
AM_0
 10
-230.56859419111061
 20
558.09712193627024
 30
0.0
 11
-224.33861419111059
 21
558.09712193627024
 31
0.0
  0
ARC
  5
13A63
  8
AM_0
 10
-233.27269419111079
 20
560.40302193627042
 30
0.0
 40
1.0041199999999999
 50
0.2346099999999662
 51
89.765390000000025
  0
ARC
  5
13A64
  8
AM_0
 10
-233.27183419111071
 20
555.88044193627036
 30
0.0
 40
1.0032760000000001
 50
0.3818899999953196
 51
25.801899999995051
  0
ARC
  5
13A65
  8
AM_0
 10
-233.2710441911108
 20
555.88471193627026
 30
0.0
 40
1.002470999999999
 50
0.1410700000000808
 51
89.858929999999944
  0
LINE
  5
13A66
  8
AM_0
 10
-234.9685541911108
 20
558.02717193627052
 30
0.0
 11
-232.2686041911106
 21
558.02717193627052
 31
0.0
  0
LINE
  5
13A67
  8
AM_0
 10
-234.99858419111069
 20
556.88715193627036
 30
0.0
 11
-233.2686041911106
 21
556.88715193627036
 31
0.0
  0
POLYLINE
  5
13A68
  8
AM_0
 66
     1
 10
0.0
 20
0.0
 30
0.0
  0
VERTEX
  5
13A69
  8
AM_0
 10
-219.4077041911105
 20
541.39021193627025
 30
0.0
 42
-0.00068900015
  0
VERTEX
  5
13A6A
  8
AM_0
 10
-219.33682419111051
 20
541.96496193627036
 30
0.0
 42
-0.00070644648
  0
VERTEX
  5
13A6B
  8
AM_0
 10
-219.26432419111069
 20
542.53964193627041
 30
0.0
 42
-0.00069245587
  0
VERTEX
  5
13A6C
  8
AM_0
 10
-219.19023419111051
 20
543.11396193627024
 30
0.0
 42
-0.00069587802
  0
VERTEX
  5
13A6D
  8
AM_0
 10
-219.1145541911105
 20
543.6881019362703
 30
0.0
 42
-0.00068980012
  0
VERTEX
  5
13A6E
  8
AM_0
 10
-219.03725419111061
 20
544.26210193627026
 30
0.0
 42
-0.00072079193
  0
VERTEX
  5
13A6F
  8
AM_0
 10
-218.95836419111041
 20
544.83588193627008
 30
0.0
 42
-0.00071003147
  0
VERTEX
  5
13A70
  8
AM_0
 10
-218.87782419111051
 20
545.40936193627033
 30
0.0
 42
-0.00072658712
  0
VERTEX
  5
13A71
  8
AM_0
 10
-218.79566419111049
 20
545.98245193627042
 30
0.0
 42
-0.00069571059
  0
VERTEX
  5
13A72
  8
AM_0
 10
-218.7118441911104
 20
546.55549193627041
 30
0.0
 42
-0.0007126617
  0
VERTEX
  5
13A73
  8
AM_0
 10
-218.6264141911104
 20
547.12825193627032
 30
0.0
 42
-0.00071614574
  0
VERTEX
  5
13A74
  8
AM_0
 10
-218.53938419111051
 20
547.70060193627035
 30
0.0
 42
-0.00072290803
  0
VERTEX
  5
13A75
  8
AM_0
 10
-218.45067419111049
 20
548.27290193627039
 30
0.0
  0
SEQEND
  5
13A76
  8
AM_0
  0
ARC
  5
13A77
  8
AM_0
 10
-220.7239841911105
 20
549.9071719362704
 30
0.0
 40
1.000013899999999
 50
89.691659999999274
 51
270.30834000000073
  0
ARC
  5
13A78
  8
AM_0
 10
-232.9680641911107
 20
551.2965819362704
 30
0.0
 40
0.6994530000000001
 50
269.95517099999921
 51
0.0448299999992585
  0
ARC
  5
13A79
  8
AM_0
 10
-233.27196419111081
 20
547.64387193627044
 30
0.0
 40
1.003352
 50
0.1910999999988938
 51
89.808889999999792
  0
ARC
  5
13A7A
  8
AM_0
 10
-233.2684241911106
 20
541.90705193627025
 30
0.0
 40
0.9998239899999999
 50
269.98992299999952
 51
0.0100800000047663
  0
ARC
  5
13A7B
  8
AM_0
 10
-221.93858419111049
 20
529.91718193627037
 30
0.0
 40
1.3300049999999981
 50
90.0
 51
269.9999969999991
  0
ARC
  5
13A7C
  8
AM_0
 10
-220.7239841911105
 20
529.9071719362704
 30
0.0
 40
1.000013899999999
 50
89.691659999999274
 51
270.30834000000073
  0
POLYLINE
  5
13A7D
  8
AM_0
 66
     1
 10
0.0
 20
0.0
 30
0.0
  0
VERTEX
  5
13A7E
  8
AM_0
 10
-220.39036419111039
 20
531.24775193627033
 30
0.0
 42
-0.00073721992
  0
VERTEX
  5
13A7F
  8
AM_0
 10
-220.3462141911105
 20
531.85016193627041
 30
0.0
 42
-0.00074398496
  0
VERTEX
  5
13A80
  8
AM_0
 10
-220.30028419111039
 20
532.45243193627016
 30
0.0
 42
-0.00073322625
  0
VERTEX
  5
13A81
  8
AM_0
 10
-220.25255419111039
 20
533.05476193627032
 30
0.0
 42
-0.00073594289
  0
VERTEX
  5
13A82
  8
AM_0
 10
-220.2030741911106
 20
533.65675193627033
 30
0.0
 42
-0.00074742568
  0
VERTEX
  5
13A83
  8
AM_0
 10
-220.15180419111039
 20
534.25861193627031
 30
0.0
 42
-0.00073216749
  0
VERTEX
  5
13A84
  8
AM_0
 10
-220.0987441911104
 20
534.86042193627043
 30
0.0
 42
-0.00074184065
  0
VERTEX
  5
13A85
  8
AM_0
 10
-220.04392419111059
 20
535.46195193627034
 30
0.0
 42
-0.00072077528
  0
VERTEX
  5
13A86
  8
AM_0
 10
-219.98734419111071
 20
536.06318193627033
 30
0.0
 42
-0.00074978179
  0
VERTEX
  5
13A87
  8
AM_0
 10
-219.92900419111061
 20
536.66438193627016
 30
0.0
 42
-0.00074288888
  0
VERTEX
  5
13A88
  8
AM_0
 10
-219.86885419111059
 20
537.26540193627045
 30
0.0
 42
-0.00072503679
  0
VERTEX
  5
13A89
  8
AM_0
 10
-219.80694419111049
 20
537.8661419362702
 30
0.0
 42
-0.00074640584
  0
VERTEX
  5
13A8A
  8
AM_0
 10
-219.74327419111049
 20
538.4667419362703
 30
0.0
  0
SEQEND
  5
13A8B
  8
AM_0
  0
ARC
  5
13A8C
  8
AM_0
 10
-233.27354419111069
 20
537.90229193627033
 30
0.0
 40
1.0049469
 50
0.2813699999992813
 51
89.718630000000701
  0
ARC
  5
13A8D
  8
AM_0
 10
-233.2684241911106
 20
531.90705193627025
 30
0.0
 40
0.9998210099999999
 50
269.98971800000169
 51
0.0102800000019698
  0
POLYLINE
  5
13A8E
  8
AM_0
 66
     1
 10
0.0
 20
0.0
 30
0.0
  0
VERTEX
  5
13A8F
  8
AM_0
 10
-220.86455419111081
 20
521.17756193627031
 30
0.0
 42
-0.00076695235
  0
VERTEX
  5
13A90
  8
AM_0
 10
-220.84975419111061
 20
521.7953219362704
 30
0.0
 42
-0.00073263043
  0
VERTEX
  5
13A91
  8
AM_0
 10
-220.83311419111061
 20
522.41292193627032
 30
0.0
 42
-0.00076525988
  0
VERTEX
  5
13A92
  8
AM_0
 10
-220.8146241911106
 20
523.03059193627053
 30
0.0
 42
-0.00075144488
  0
VERTEX
  5
13A93
  8
AM_0
 10
-220.79425419111041
 20
523.64819193627034
 30
0.0
 42
-0.00076035096
  0
VERTEX
  5
13A94
  8
AM_0
 10
-220.7720141911104
 20
524.26562193627035
 30
0.0
 42
-0.00075543154
  0
VERTEX
  5
13A95
  8
AM_0
 10
-220.7479141911106
 20
524.88300193627049
 30
0.0
 42
-0.0007577325
  0
VERTEX
  5
13A96
  8
AM_0
 10
-220.72193419111071
 20
525.50040193627035
 30
0.0
 42
-0.00076034585
  0
VERTEX
  5
13A97
  8
AM_0
 10
-220.6940841911107
 20
526.11779193627046
 30
0.0
 42
-0.00074823143
  0
VERTEX
  5
13A98
  8
AM_0
 10
-220.6643541911105
 20
526.73518193627035
 30
0.0
 42
-0.00074896605
  0
VERTEX
  5
13A99
  8
AM_0
 10
-220.63279419111061
 20
527.35231193627033
 30
0.0
 42
-0.00076039763
  0
VERTEX
  5
13A9A
  8
AM_0
 10
-220.5993741911104
 20
527.96934193627033
 30
0.0
 42
-0.00075616127
  0
VERTEX
  5
13A9B
  8
AM_0
 10
-220.56407419111039
 20
528.58637193627033
 30
0.0
  0
SEQEND
  5
13A9C
  8
AM_0
  0
ARC
  5
13A9D
  8
AM_0
 10
-220.7239841911105
 20
519.9071719362704
 30
0.0
 40
1.000013899999999
 50
89.691659999999274
 51
270.30834000000073
  0
ARC
  5
13A9E
  8
AM_0
 10
-233.2684241911106
 20
521.90705193627048
 30
0.0
 40
0.9998279799999998
 50
269.99016199999983
 51
0.0098400000029741
  0
ARC
  5
13A9F
  8
AM_0
 10
-233.27354419111069
 20
527.90229193627033
 30
0.0
 40
1.004939
 50
0.2809299999990067
 51
89.719060000000226
  0
LINE
  5
13AA0
  8
AM_0
 10
-186.82988419111049
 20
508.90717193627029
 30
0.0
 11
-220.9086141911105
 21
508.90717193627029
 31
0.0
  0
LINE
  5
13AA1
  8
AM_0
 10
-186.82988419111049
 20
510.90717193627017
 30
0.0
 11
-220.9086141911105
 21
510.90717193627017
 31
0.0
  0
LINE
  5
13AA2
  8
AM_0
 10
-221.9985841911105
 20
508.6371519362703
 30
0.0
 11
-185.5499141911107
 21
508.6371519362703
 31
0.0
  0
LINE
  5
13AA3
  8
AM_0
 10
-221.9985841911105
 20
511.16718193627042
 30
0.0
 11
-185.5499141911107
 21
511.16718193627042
 31
0.0
  0
LINE
  5
13AA4
  8
AM_0
 10
-221.9985841911105
 20
518.63715193627047
 30
0.0
 11
-185.5499141911107
 21
518.63715193627047
 31
0.0
  0
LINE
  5
13AA5
  8
AM_0
 10
-186.82988419111049
 20
500.90717193627029
 30
0.0
 11
-220.9086141911105
 21
500.90717193627029
 31
0.0
  0
LINE
  5
13AA6
  8
AM_0
 10
-221.93858419111049
 20
501.22712193627052
 30
0.0
 11
-185.60991419111059
 21
501.22712193627052
 31
0.0
  0
LINE
  5
13AA7
  8
AM_0
 10
-186.82988419111049
 20
498.90717193627029
 30
0.0
 11
-220.9086141911105
 21
498.90717193627029
 31
0.0
  0
LINE
  5
13AA8
  8
AM_0
 10
-221.93858419111049
 20
498.56721193627021
 30
0.0
 11
-185.60991419111059
 21
498.56721193627021
 31
0.0
  0
ARC
  5
13AA9
  8
AM_0
 10
-185.54167419111059
 20
509.89716193627032
 30
0.0
 40
1.2700266
 50
269.62932999999202
 51
90.370680000000036
  0
ARC
  5
13AAA
  8
AM_0
 10
-185.60362419111081
 20
499.8921619362705
 30
0.0
 40
1.3350147999999991
 50
269.73044399999537
 51
90.269570000000087
  0
ARC
  5
13AAB
  8
AM_0
 10
-186.82988419111049
 20
509.90717193627029
 30
0.0
 40
1.000005699999998
 50
269.9999969999991
 51
90.000010000000998
  0
ARC
  5
13AAC
  8
AM_0
 10
-186.82988419111049
 20
499.90717193627029
 30
0.0
 40
1.000005699999998
 50
269.9999969999991
 51
90.000010000000998
  0
POLYLINE
  5
13AAD
  8
AM_0
 66
     1
 10
0.0
 20
0.0
 30
0.0
  0
VERTEX
  5
13AAE
  8
AM_0
 10
-220.39036419111039
 20
498.56660193627022
 30
0.0
 42
0.0007337051
  0
VERTEX
  5
13AAF
  8
AM_0
 10
-220.34622419111039
 20
497.96418193627028
 30
0.0
 42
0.00075211323
  0
VERTEX
  5
13AB0
  8
AM_0
 10
-220.30028419111039
 20
497.36179193627038
 30
0.0
 42
0.0007297491
  0
VERTEX
  5
13AB1
  8
AM_0
 10
-220.25255419111039
 20
496.75959193627023
 30
0.0
 42
0.00073593041
  0
VERTEX
  5
13AB2
  8
AM_0
 10
-220.2030741911106
 20
496.1576019362704
 30
0.0
 42
0.00074742739
  0
VERTEX
  5
13AB3
  8
AM_0
 10
-220.15180419111039
 20
495.55573193627038
 30
0.0
 42
0.00073217363
  0
VERTEX
  5
13AB4
  8
AM_0
 10
-220.0987441911104
 20
494.95393193627029
 30
0.0
 42
0.00073754168
  0
VERTEX
  5
13AB5
  8
AM_0
 10
-220.04392419111059
 20
494.35239193627029
 30
0.0
 42
0.00073075073
  0
VERTEX
  5
13AB6
  8
AM_0
 10
-219.98734419111071
 20
493.75103193627052
 30
0.0
 42
0.00074550816
  0
VERTEX
  5
13AB7
  8
AM_0
 10
-219.92900419111061
 20
493.14997193627039
 30
0.0
 42
0.00074288416
  0
VERTEX
  5
13AB8
  8
AM_0
 10
-219.86885419111059
 20
492.54895193627021
 30
0.0
 42
0.00072504001
  0
VERTEX
  5
13AB9
  8
AM_0
 10
-219.80694419111049
 20
491.94820193627032
 30
0.0
 42
0.00074640667
  0
VERTEX
  5
13ABA
  8
AM_0
 10
-219.74327419111049
 20
491.34760193627022
 30
0.0
  0
SEQEND
  5
13ABB
  8
AM_0
  0
POLYLINE
  5
13ABC
  8
AM_0
 66
     1
 10
0.0
 20
0.0
 30
0.0
  0
VERTEX
  5
13ABD
  8
AM_0
 10
-220.86455419111081
 20
508.63679193627053
 30
0.0
 42
0.00076691992
  0
VERTEX
  5
13ABE
  8
AM_0
 10
-220.84975419111061
 20
508.01902193627029
 30
0.0
 42
0.00073262792
  0
VERTEX
  5
13ABF
  8
AM_0
 10
-220.83311419111061
 20
507.40143193627023
 30
0.0
 42
0.00076529537
  0
VERTEX
  5
13AC0
  8
AM_0
 10
-220.8146241911106
 20
506.78376193627048
 30
0.0
 42
0.00075141097
  0
VERTEX
  5
13AC1
  8
AM_0
 10
-220.79425419111041
 20
506.16616193627038
 30
0.0
 42
0.00075841687
  0
VERTEX
  5
13AC2
  8
AM_0
 10
-220.7720241911104
 20
505.54873193627031
 30
0.0
 42
0.00075711788
  0
VERTEX
  5
13AC3
  8
AM_0
 10
-220.7479141911106
 20
504.93122193627022
 30
0.0
 42
0.00075976003
  0
VERTEX
  5
13AC4
  8
AM_0
 10
-220.7219241911105
 20
504.31383193627028
 30
0.0
 42
0.00075797311
  0
VERTEX
  5
13AC5
  8
AM_0
 10
-220.6940841911107
 20
503.69655193627023
 30
0.0
 42
0.0007482613
  0
VERTEX
  5
13AC6
  8
AM_0
 10
-220.6643541911105
 20
503.07917193627031
 30
0.0
 42
0.00074893561
  0
VERTEX
  5
13AC7
  8
AM_0
 10
-220.63279419111061
 20
502.46204193627028
 30
0.0
 42
0.00076039839
  0
VERTEX
  5
13AC8
  8
AM_0
 10
-220.5993741911104
 20
501.8450119362704
 30
0.0
 42
0.00075618786
  0
VERTEX
  5
13AC9
  8
AM_0
 10
-220.56407419111039
 20
501.22797193627042
 30
0.0
  0
SEQEND
  5
13ACA
  8
AM_0
  0
ARC
  5
13ACB
  8
AM_0
 10
-233.27354419111069
 20
507.90229193627039
 30
0.0
 40
1.0049469
 50
0.2813399999993571
 51
89.718649999999656
  0
POLYLINE
  5
13ACC
  8
AM_0
 66
     1
 10
0.0
 20
0.0
 30
0.0
  0
VERTEX
  5
13ACD
  8
AM_0
 10
-220.9086141911105
 20
514.90717193627017
 30
0.0
 42
0.00039106649
  0
VERTEX
  5
13ACE
  8
AM_0
 10
-220.9109741911104
 20
514.59604193627024
 30
0.0
 42
0.00035488198
  0
VERTEX
  5
13ACF
  8
AM_0
 10
-220.9128641911104
 20
514.28493193627048
 30
0.0
 42
0.00039706113
  0
VERTEX
  5
13AD0
  8
AM_0
 10
-220.91429419111071
 20
513.97382193627038
 30
0.0
 42
0.00038765718
  0
VERTEX
  5
13AD1
  8
AM_0
 10
-220.91522419111061
 20
513.66268193627025
 30
0.0
 42
0.00040613432
  0
VERTEX
  5
13AD2
  8
AM_0
 10
-220.91567419111061
 20
513.35158193627035
 30
0.0
 42
0.00035573434
  0
VERTEX
  5
13AD3
  8
AM_0
 10
-220.91563419111051
 20
513.04047193627036
 30
0.0
 42
0.00038545884
  0
VERTEX
  5
13AD4
  8
AM_0
 10
-220.91514419111061
 20
512.72934193627032
 30
0.0
 42
0.00035501205
  0
VERTEX
  5
13AD5
  8
AM_0
 10
-220.91418419111051
 20
512.41823193627033
 30
0.0
 42
0.00040120779
  0
VERTEX
  5
13AD6
  8
AM_0
 10
-220.91276419111051
 20
512.10700193627031
 30
0.0
 42
0.00038317817
  0
VERTEX
  5
13AD7
  8
AM_0
 10
-220.9108541911105
 20
511.79587193627032
 30
0.0
 42
0.00035656084
  0
VERTEX
  5
13AD8
  8
AM_0
 10
-220.9084741911106
 20
511.48463193627038
 30
0.0
 42
0.00040143615
  0
VERTEX
  5
13AD9
  8
AM_0
 10
-220.90562419111049
 20
511.17353193627031
 30
0.0
  0
SEQEND
  5
13ADA
  8
AM_0
  0
POLYLINE
  5
13ADB
  8
AM_0
 66
     1
 10
0.0
 20
0.0
 30
0.0
  0
VERTEX
  5
13ADC
  8
AM_0
 10
-220.9086141911105
 20
514.90717193627017
 30
0.0
 42
-0.00039106589
  0
VERTEX
  5
13ADD
  8
AM_0
 10
-220.9109741911104
 20
515.21831193627042
 30
0.0
 42
-0.00035488584
  0
VERTEX
  5
13ADE
  8
AM_0
 10
-220.9128641911104
 20
515.52942193627007
 30
0.0
 42
-0.00039705232
  0
VERTEX
  5
13ADF
  8
AM_0
 10
-220.91429419111071
 20
515.84052193627042
 30
0.0
 42
-0.0003876649
  0
VERTEX
  5
13AE0
  8
AM_0
 10
-220.91522419111061
 20
516.15166193627033
 30
0.0
 42
-0.00040613779
  0
VERTEX
  5
13AE1
  8
AM_0
 10
-220.91567419111061
 20
516.46277193627031
 30
0.0
 42
-0.00035571855
  0
VERTEX
  5
13AE2
  8
AM_0
 10
-220.91563419111051
 20
516.77387193627033
 30
0.0
 42
-0.00038547358
  0
VERTEX
  5
13AE3
  8
AM_0
 10
-220.91514419111061
 20
517.08501193627035
 30
0.0
 42
-0.000355015
  0
VERTEX
  5
13AE4
  8
AM_0
 10
-220.91418419111051
 20
517.39611193627024
 30
0.0
 42
-0.00040118616
  0
VERTEX
  5
13AE5
  8
AM_0
 10
-220.91276419111051
 20
517.70734193627015
 30
0.0
 42
-0.00038319867
  0
VERTEX
  5
13AE6
  8
AM_0
 10
-220.9108541911105
 20
518.0184819362704
 30
0.0
 42
-0.00035656356
  0
VERTEX
  5
13AE7
  8
AM_0
 10
-220.9084741911106
 20
518.32971193627031
 30
0.0
 42
-0.00040140992
  0
VERTEX
  5
13AE8
  8
AM_0
 10
-220.90562419111049
 20
518.6408219362703
 30
0.0
  0
SEQEND
  5
13AE9
  8
AM_0
  0
ARC
  5
13AEA
  8
AM_0
 10
-222.00444419111071
 20
509.90217193627029
 30
0.0
 40
1.2650129999999991
 50
89.735589999994247
 51
270.26442099999832
  0
ARC
  5
13AEB
  8
AM_0
 10
-220.7239841911105
 20
509.90717193627029
 30
0.0
 40
1.000013899999999
 50
89.691659999999274
 51
270.30834000000073
  0
ARC
  5
13AEC
  8
AM_0
 10
-233.2684241911106
 20
511.90705193627031
 30
0.0
 40
0.9998249999999999
 50
269.98994999999883
 51
0.0100500000012449
  0
ARC
  5
13AED
  8
AM_0
 10
-221.93858419111049
 20
499.89716193627038
 30
0.0
 40
1.3300049999999981
 50
90.0
 51
269.9999969999991
  0
ARC
  5
13AEE
  8
AM_0
 10
-220.7239841911105
 20
499.90717193627029
 30
0.0
 40
1.000013899999999
 50
89.691659999999274
 51
270.30834000000073
  0
ARC
  5
13AEF
  8
AM_0
 10
-233.2684241911106
 20
501.90705193627042
 30
0.0
 40
0.9998210099999999
 50
269.98974500000088
 51
0.0102499999984485
  0
ARC
  5
13AF0
  8
AM_0
 10
-233.27354419111069
 20
497.90229193627027
 30
0.0
 40
1.004939
 50
0.2809000000002015
 51
89.719089999999127
  0
POLYLINE
  5
13AF1
  8
AM_0
 66
     1
 10
0.0
 20
0.0
 30
0.0
  0
VERTEX
  5
13AF2
  8
AM_0
 10
-219.4077041911105
 20
488.4241419362703
 30
0.0
 42
0.00068898288
  0
VERTEX
  5
13AF3
  8
AM_0
 10
-219.33682419111051
 20
487.84939193627048
 30
0.0
 42
0.00070644354
  0
VERTEX
  5
13AF4
  8
AM_0
 10
-219.26432419111069
 20
487.27470193627022
 30
0.0
 42
0.00069248071
  0
VERTEX
  5
13AF5
  8
AM_0
 10
-219.19023419111051
 20
486.70039193627031
 30
0.0
 42
0.00069585665
  0
VERTEX
  5
13AF6
  8
AM_0
 10
-219.1145541911105
 20
486.12625193627031
 30
0.0
 42
0.00068980191
  0
VERTEX
  5
13AF7
  8
AM_0
 10
-219.03725419111061
 20
485.5522519362703
 30
0.0
 42
0.00072080104
  0
VERTEX
  5
13AF8
  8
AM_0
 10
-218.95836419111041
 20
484.97846193627032
 30
0.0
 42
0.00071002307
  0
VERTEX
  5
13AF9
  8
AM_0
 10
-218.87782419111051
 20
484.40499193627039
 30
0.0
 42
0.00072659056
  0
VERTEX
  5
13AFA
  8
AM_0
 10
-218.79566419111049
 20
483.83189193627038
 30
0.0
 42
0.00069570481
  0
VERTEX
  5
13AFB
  8
AM_0
 10
-218.7118441911104
 20
483.25886193627019
 30
0.0
 42
0.00071266935
  0
VERTEX
  5
13AFC
  8
AM_0
 10
-218.6264141911104
 20
482.68609193627037
 30
0.0
 42
0.00071614426
  0
VERTEX
  5
13AFD
  8
AM_0
 10
-218.53938419111051
 20
482.11375193627038
 30
0.0
 42
0.00072288975
  0
VERTEX
  5
13AFE
  8
AM_0
 10
-218.45067419111049
 20
481.54145193627022
 30
0.0
  0
SEQEND
  5
13AFF
  8
AM_0
  0
ARC
  5
13B00
  8
AM_0
 10
-221.80858419111041
 20
489.88215193627019
 30
0.0
 40
1.4650039999999991
 50
90.0
 51
269.9999969999991
  0
ARC
  5
13B01
  8
AM_0
 10
-220.7239841911105
 20
489.90717193627017
 30
0.0
 40
1.000013899999999
 50
89.691659999999274
 51
270.30834000000073
  0
ARC
  5
13B02
  8
AM_0
 10
-233.2684241911106
 20
491.90705193627031
 30
0.0
 40
0.9998289899999999
 50
269.99018899999902
 51
0.0098099999995327
  0
ARC
  5
13B03
  8
AM_0
 10
-233.27354419111069
 20
487.90229193627039
 30
0.0
 40
1.004942999999999
 50
0.281110000000071
 51
89.718889999999945
  0
ARC
  5
13B04
  8
AM_0
 10
-221.59599419111049
 20
479.86213193627037
 30
0.0
 40
1.675015999999999
 50
89.746130000002296
 51
270.2538549999955
  0
ARC
  5
13B05
  8
AM_0
 10
-220.7239841911105
 20
479.90717193627029
 30
0.0
 40
1.000013899999999
 50
89.691659999999274
 51
270.30834000000073
  0
ARC
  5
13B06
  8
AM_0
 10
-232.9731341911106
 20
478.51264193627031
 30
0.0
 40
0.704566
 50
0.3700900000021967
 51
89.62989999999985
  0
ARC
  5
13B07
  8
AM_0
 10
-233.26689419111059
 20
482.16548193627023
 30
0.0
 40
0.9982839799999999
 50
269.9014239999986
 51
0.0985799999998705
  0
LINE
  5
13B08
  8
AM_0
 10
-237.2686041911106
 20
562.92719193627056
 30
0.0
 11
-237.2686041911106
 21
519.9071719362704
 31
0.0
  0
LINE
  5
13B09
  8
AM_0
 10
-235.2686041911106
 20
562.3072019362703
 30
0.0
 11
-235.2686041911106
 21
561.75715193627036
 31
0.0
  0
ARC
  5
13B0A
  8
AM_0
 10
-236.2728741911105
 20
561.87678193627028
 30
0.0
 40
0.9956849800000001
 50
116.59085999999959
 51
179.97886999999989
  0
LINE
  5
13B0B
  8
AM_0
 10
-235.50853419111081
 20
562.4071719362704
 30
0.0
 11
-236.78856419111071
 21
561.63715193627036
 31
0.0
  0
LINE
  5
13B0C
  8
AM_0
 10
-235.2686041911106
 20
564.40717193627017
 30
0.0
 11
-235.2686041911106
 21
563.87714193627016
 31
0.0
  0
LINE
  5
13B0D
  8
AM_0
 10
-235.47862419111061
 20
563.39719193627036
 30
0.0
 11
-236.7186141911107
 21
562.76719193627025
 31
0.0
  0
LINE
  5
13B0E
  8
AM_0
 10
-235.49858419111069
 20
564.51716193627055
 30
0.0
 11
-236.76854419111081
 21
563.78718193627049
 31
0.0
  0
ARC
  5
13B0F
  8
AM_0
 10
-235.02275419111081
 20
562.50788193627034
 30
0.0
 40
0.9993420200000001
 50
90.334539999998356
 51
117.1380000000004
  0
ARC
  5
13B10
  8
AM_0
 10
-236.2709841911105
 20
562.92256193627043
 30
0.0
 40
0.9976310099999999
 50
119.92075999999931
 51
179.7321900000014
  0
ARC
  5
13B11
  8
AM_0
 10
-236.27348419111061
 20
519.90229193627033
 30
0.0
 40
0.9950770099999999
 50
179.7158599999994
 51
270.28414000000049
  0
LINE
  5
13B12
  8
AM_0
 10
-239.7625006754856
 20
530.12900421166103
 30
0.0
 11
-239.7625006754856
 21
499.68537017845779
 31
0.0
  0
LINE
  5
13B13
  8
AM_0
 10
-238.7686041911106
 20
494.90717193627029
 30
0.0
 11
-238.7686041911106
 21
534.90717193627029
 31
0.0
  0
LINE
  5
13B14
  8
AM_0
 10
-235.2686041911106
 20
540.53718193627049
 30
0.0
 11
-235.2686041911106
 21
539.16718193627025
 31
0.0
  0
ARC
  5
13B15
  8
AM_0
 10
-236.2683541911106
 20
539.90693193627033
 30
0.0
 40
1.0001959999999981
 50
90.011249999999436
 51
179.98875000000061
  0
LINE
  5
13B16
  8
AM_0
 10
-235.4885741911107
 20
561.28718193627037
 30
0.0
 11
-236.7385741911107
 21
560.6271819362704
 31
0.0
  0
LINE
  5
13B17
  8
AM_0
 10
-235.2686041911106
 20
557.73713193627032
 30
0.0
 11
-235.2686041911106
 21
557.26716193627055
 31
0.0
  0
LINE
  5
13B18
  8
AM_0
 10
-236.77861419111059
 20
556.00718193627006
 30
0.0
 11
-236.79863419111049
 21
555.99720193627024
 31
0.0
  0
LINE
  5
13B19
  8
AM_0
 10
-235.49858419111069
 20
556.75712193627032
 30
0.0
 11
-236.7785541911108
 21
556.00715193627059
 31
0.0
  0
LINE
  5
13B1A
  8
AM_0
 10
-235.5186641911105
 20
557.86720193627025
 30
0.0
 11
-236.81865419111071
 21
557.01719193627048
 31
0.0
  0
ARC
  5
13B1B
  8
AM_0
 10
-235.0134141911108
 20
560.40656193627035
 30
0.0
 40
1.0006820000000001
 50
90.29607000000108
 51
118.34937999999831
  0
ARC
  5
13B1C
  8
AM_0
 10
-236.2708641911106
 20
559.74592193627052
 30
0.0
 40
0.9977070099999998
 50
117.95518999999921
 51
179.92597999999589
  0
ARC
  5
13B1D
  8
AM_0
 10
-236.2698241911107
 20
560.78364193627033
 30
0.0
 40
0.9987969999999998
 50
121.2920499999998
 51
180.37271999999899
  0
ARC
  5
13B1E
  8
AM_0
 10
-236.27012419111071
 20
555.14790193627027
 30
0.0
 40
0.9984580299999999
 50
120.6134300000008
 51
180.04042000000149
  0
ARC
  5
13B1F
  8
AM_0
 10
-236.27012419111071
 20
555.14790193627027
 30
0.0
 40
0.9984580299999999
 50
120.6134300000008
 51
180.04042000000149
  0
ARC
  5
13B20
  8
AM_0
 10
-236.2695141911106
 20
556.18244193627015
 30
0.0
 40
0.9990889999999998
 50
123.33790999999739
 51
180.3049100000035
  0
LINE
  5
13B21
  8
AM_0
 10
-235.2686041911106
 20
550.29719193627034
 30
0.0
 11
-235.2686041911106
 21
549.2371319362702
 31
0.0
  0
LINE
  5
13B22
  8
AM_0
 10
-235.4086141911107
 20
548.6071919362704
 30
0.0
 11
-236.55858419111061
 21
548.24717193627032
 31
0.0
  0
LINE
  5
13B23
  8
AM_0
 10
-235.4585441911108
 20
550.5171319362704
 30
0.0
 11
-236.6585541911106
 21
549.99711193627036
 31
0.0
  0
ARC
  5
13B24
  8
AM_0
 10
-235.1280341911106
 20
547.64448193627015
 30
0.0
 40
1.002699
 50
89.459359999998895
 51
106.2472799999978
  0
ARC
  5
13B25
  8
AM_0
 10
-235.06560419111059
 20
549.59199193627046
 30
0.0
 40
1.005233
 50
90.170750000000567
 51
113.0136099999999
  0
ARC
  5
13B26
  8
AM_0
 10
-236.2722041911106
 20
547.29279193627042
 30
0.0
 40
0.99638802
 50
106.70335999999961
 51
179.75009000000111
  0
ARC
  5
13B27
  8
AM_0
 10
-236.27208419111051
 20
549.07868193627019
 30
0.0
 40
0.9965090199999998
 50
112.8215499999996
 51
180.08625000000339
  0
LINE
  5
13B28
  8
AM_0
 10
-235.2686041911106
 20
530.51716193627055
 30
0.0
 11
-235.2686041911106
 21
529.29719193627034
 31
0.0
  0
ARC
  5
13B29
  8
AM_0
 10
-236.27348419111061
 20
529.90229193627033
 30
0.0
 40
0.9950810099999999
 50
179.71607999999549
 51
270.283928
  0
LINE
  5
13B2A
  8
AM_0
 10
-238.7686041911106
 20
530.05720193627042
 30
0.0
 11
-237.2686041911106
 21
530.05720193627042
 31
0.0
  0
LINE
  5
13B2B
  8
AM_0
 10
-238.7686041911106
 20
532.18720193627053
 30
0.0
 11
-237.2686041911106
 21
532.18720193627053
 31
0.0
  0
LINE
  5
13B2C
  8
AM_0
 10
-238.7686041911106
 20
534.90720193627033
 30
0.0
 11
-237.2686041911106
 21
535.03721193627018
 31
0.0
  0
LINE
  5
13B2D
  8
AM_0
 10
-239.7624701579075
 20
530.12900421166103
 30
0.0
 11
-239.2624701579075
 21
532.89899322533267
 31
0.0
  0
LINE
  5
13B2E
  8
AM_0
 10
-239.2625006754856
 20
532.89899322533267
 30
0.0
 11
-238.7624701579075
 21
532.85898468041103
 31
0.0
  0
ARC
  5
13B2F
  8
AM_0
 10
-236.27348419111061
 20
539.90229193627033
 30
0.0
 40
0.9950849999999999
 50
179.71628000000069
 51
270.28371700000059
  0
ARC
  5
13B30
  8
AM_0
 10
-236.2683541911106
 20
529.90693193627033
 30
0.0
 40
1.000199999999998
 50
90.011459999998721
 51
179.98854000000131
  0
LINE
  5
13B31
  8
AM_0
 10
-235.2686041911106
 20
520.51716193627055
 30
0.0
 11
-235.2686041911106
 21
519.35713193627055
 31
0.0
  0
ARC
  5
13B32
  8
AM_0
 10
-236.2683541911106
 20
519.90693193627033
 30
0.0
 40
1.0002040000000001
 50
90.011679999999274
 51
179.98834000000321
  0
LINE
  5
13B33
  8
AM_0
 10
-239.7625006754856
 20
499.68533966087978
 30
0.0
 11
-239.2625006754856
 21
496.91535064720767
 31
0.0
  0
LINE
  5
13B34
  8
AM_0
 10
-235.2686041911106
 20
509.29719193627028
 30
0.0
 11
-235.2686041911106
 21
510.45722193627029
 31
0.0
  0
ARC
  5
13B35
  8
AM_0
 10
-236.2683541911106
 20
509.90693193627021
 30
0.0
 40
1.0001959999999981
 50
90.011219999999085
 51
179.9887800000042
  0
ARC
  5
13B36
  8
AM_0
 10
-236.27348419111061
 20
509.90229193627027
 30
0.0
 40
0.9950849999999999
 50
179.71631000000031
 51
270.28368899999907
  0
LINE
  5
13B37
  8
AM_0
 10
-238.7686041911106
 20
497.62714193627022
 30
0.0
 11
-237.2686041911106
 21
497.62714193627022
 31
0.0
  0
LINE
  5
13B38
  8
AM_0
 10
-238.7686041911106
 20
499.75715193627059
 30
0.0
 11
-237.2686041911106
 21
499.75715193627059
 31
0.0
  0
LINE
  5
13B39
  8
AM_0
 10
-235.2686041911106
 20
499.29719193627039
 30
0.0
 11
-235.2686041911106
 21
500.50715193627047
 31
0.0
  0
ARC
  5
13B3A
  8
AM_0
 10
-236.2683541911106
 20
499.90693193627021
 30
0.0
 40
1.000199999999998
 50
90.011430000001596
 51
179.98856999999839
  0
ARC
  5
13B3B
  8
AM_0
 10
-236.27348419111061
 20
499.90229193627039
 30
0.0
 40
0.99508202
 50
179.716090000002
 51
270.28390100000189
  0
LINE
  5
13B3C
  8
AM_0
 10
-238.7686041911106
 20
494.90720193627021
 30
0.0
 11
-237.2686041911106
 21
494.77720193627027
 31
0.0
  0
LINE
  5
13B3D
  8
AM_0
 10
-239.2624701579075
 20
496.91535064720767
 30
0.0
 11
-238.7625006754856
 21
496.95535919212978
 31
0.0
  0
LINE
  5
13B3E
  8
AM_0
 10
-235.2686041911106
 20
489.27717193627052
 30
0.0
 11
-235.2686041911106
 21
490.64716193627038
 31
0.0
  0
ARC
  5
13B3F
  8
AM_0
 10
-236.27348419111061
 20
489.90229193627027
 30
0.0
 40
0.99507803
 50
179.71589000000009
 51
270.28411299999868
  0
ARC
  5
13B40
  8
AM_0
 10
-236.2683541911106
 20
489.90693193627021
 30
0.0
 40
1.000203
 50
90.011649999998838
 51
179.98835000000449
  0
LINE
  5
13B41
  8
AM_0
 10
-235.2686041911106
 20
479.51716193627038
 30
0.0
 11
-235.2686041911106
 21
480.57722193627029
 31
0.0
  0
LINE
  5
13B42
  8
AM_0
 10
-235.45860419111071
 20
479.29716193627019
 30
0.0
 11
-236.6585541911106
 21
479.80717193627021
 31
0.0
  0
LINE
  5
13B43
  8
AM_0
 10
-235.4086141911107
 20
481.20713193627029
 30
0.0
 11
-236.55858419111061
 21
481.5571419362704
 31
0.0
  0
ARC
  5
13B44
  8
AM_0
 10
-235.06761419111061
 20
480.21259193627031
 30
0.0
 40
0.9954450099999999
 50
246.87254999999959
 51
269.94309500000031
  0
ARC
  5
13B45
  8
AM_0
 10
-235.12944419111071
 20
482.15986193627037
 30
0.0
 40
0.9927430199999999
 50
253.66792999999791
 51
270.62544500000132
  0
ARC
  5
13B46
  8
AM_0
 10
-236.2722041911106
 20
480.72566193627028
 30
0.0
 40
0.9963999999999998
 50
179.90958000000049
 51
247.182639999999
  0
ARC
  5
13B47
  8
AM_0
 10
-236.27232419111081
 20
482.51142193627049
 30
0.0
 40
0.9962710099999999
 50
179.66995
 51
253.30208000000019
  0
LINE
  5
13B48
  8
AM_0
 10
-235.0186041911106
 20
468.40717193627029
 30
0.0
 11
-233.2686041911106
 21
468.40717193627029
 31
0.0
  0
ARC
  5
13B49
  8
AM_0
 10
-234.96196419111061
 20
472.77339193627029
 30
0.0
 40
0.99617702
 50
236.02951000000269
 51
269.61868200000077
  0
ARC
  5
13B4A
  8
AM_0
 10
-234.98918419111081
 20
473.91364193627032
 30
0.0
 40
0.99648702
 50
239.25623000000209
 51
269.4592790000014
  0
LINE
  5
13B4B
  8
AM_0
 10
-235.02861419111059
 20
466.3072019362703
 30
0.0
 11
-232.7686041911106
 21
466.3072019362703
 31
0.0
  0
ARC
  5
13B4C
  8
AM_0
 10
-235.0065741911107
 20
466.15302193627031
 30
0.0
 40
0.9959030199999999
 50
240.39283000000111
 51
270.4587330000009
  0
ARC
  5
13B4D
  8
AM_0
 10
-234.99974419111069
 20
468.26142193627038
 30
0.0
 40
0.99427301
 50
239.21908999999829
 51
270.643934
  0
LINE
  5
13B4E
  8
AM_0
 10
-220.05858419111041
 20
458.6271419362705
 30
0.0
 11
-123.1385941911105
 21
458.6271419362705
 31
0.0
  0
LINE
  5
13B4F
  8
AM_0
 10
-220.0186041911104
 20
455.77717193627052
 30
0.0
 11
-123.1385941911105
 21
455.77717193627052
 31
0.0
  0
LINE
  5
13B50
  8
AM_0
 10
-219.9985841911105
 20
453.92719193627022
 30
0.0
 11
-123.1385941911105
 21
453.92719193627022
 31
0.0
  0
LINE
  5
13B51
  8
AM_0
 10
-219.97862419111081
 20
453.0171619362705
 30
0.0
 11
-123.13853419111039
 21
453.0171619362705
 31
0.0
  0
ARC
  5
13B52
  8
AM_0
 10
-123.1434241911106
 20
455.0219219362703
 30
0.0
 40
2.0047289999999989
 50
270.13832199999979
 51
344.82650400000358
  0
ARC
  5
13B53
  8
AM_0
 10
-123.1434241911106
 20
455.93195193627031
 30
0.0
 40
2.0047289999999989
 50
270.13832199999979
 51
344.82650400000358
  0
LINE
  5
13B54
  8
AM_0
 10
-117.0628541911105
 20
469.97834193627023
 30
0.0
 11
-121.2085741911107
 21
454.49723193627023
 31
0.0
  0
LINE
  5
13B55
  8
AM_0
 10
-117.0628841911105
 20
470.88834193627031
 30
0.0
 11
-121.2086041911104
 21
455.40723193627031
 31
0.0
  0
LINE
  5
13B56
  8
AM_0
 10
-117.0628841911105
 20
472.73832193627021
 30
0.0
 11
-121.2086041911104
 21
457.25718193627051
 31
0.0
  0
LINE
  5
13B57
  8
AM_0
 10
-120.7286241911106
 20
461.90717193627029
 30
0.0
 11
-115.2686041911106
 21
461.90717193627029
 31
0.0
  0
ARC
  5
13B58
  8
AM_0
 10
-115.6154041911106
 20
470.48444193627029
 30
0.0
 40
1.502775999999999
 50
90.122420000001313
 51
165.24357000000049
  0
ARC
  5
13B59
  8
AM_0
 10
-115.6154041911106
 20
472.3344219362703
 30
0.0
 40
1.502775999999999
 50
90.122420000001313
 51
165.24357000000049
  0
ARC
  5
13B5A
  8
AM_0
 10
-115.6154041911106
 20
469.57441193627039
 30
0.0
 40
1.502775999999999
 50
90.122420000001313
 51
165.24357000000049
  0
ARC
  5
13B5B
  8
AM_0
 10
-123.13853419111039
 20
460.6254319362705
 30
0.0
 40
1.9982919999999991
 50
269.99736799999857
 51
344.9674520000039
  0
ARC
  5
13B5C
  8
AM_0
 10
-123.1434241911106
 20
457.78193193627021
 30
0.0
 40
2.0047289999999989
 50
270.13832199999979
 51
344.82650400000358
  0
ARC
  5
13B5D
  8
AM_0
 10
-220.0040141911104
 20
455.92390193627051
 30
0.0
 40
1.996732999999999
 50
188.54612000000259
 51
270.15603300000112
  0
ARC
  5
13B5E
  8
AM_0
 10
-219.98210419111049
 20
455.01276193627029
 30
0.0
 40
1.9956329999999991
 50
187.93887000000041
 51
270.10029199999769
  0
LINE
  5
13B5F
  8
AM_0
 10
-223.2686041911104
 20
465.46714193627042
 30
0.0
 11
-221.98863419111061
 21
457.45719193627031
 31
0.0
  0
LINE
  5
13B60
  8
AM_0
 10
-223.2686041911104
 20
466.80714193627028
 30
0.0
 11
-222.02861419111031
 21
460.24717193627032
 31
0.0
  0
LINE
  5
13B61
  8
AM_0
 10
-230.56859419111061
 20
471.71723193627031
 30
0.0
 11
-224.33861419111059
 21
471.71723193627031
 31
0.0
  0
ARC
  5
13B62
  8
AM_0
 10
-233.27092419111071
 20
473.91950193627031
 30
0.0
 40
1.002353
 50
270.13432700000061
 51
359.86567318000158
  0
LINE
  5
13B63
  8
AM_0
 10
-234.9685541911108
 20
471.77717193627052
 30
0.0
 11
-232.2686041911106
 21
471.77717193627052
 31
0.0
  0
LINE
  5
13B64
  8
AM_0
 10
-234.99858419111069
 20
472.91718193627031
 30
0.0
 11
-233.2686041911106
 21
472.91718193627031
 31
0.0
  0
ARC
  5
13B65
  8
AM_0
 10
-233.2676241911108
 20
469.40620193627041
 30
0.0
 40
0.9990100299999999
 50
269.9431909999999
 51
0.0568099999987215
  0
ARC
  5
13B66
  8
AM_0
 10
-232.77318419111069
 20
464.65254193627021
 30
0.0
 40
0.50463498
 50
0.5238300000003983
 51
89.476169999999527
  0
LINE
  5
13B67
  8
AM_0
 10
-232.2686041911106
 20
464.90717193627017
 30
0.0
 11
-231.2686041911106
 21
464.90717193627017
 31
0.0
  0
ARC
  5
13B68
  8
AM_0
 10
-232.76689419111059
 20
466.8054919362703
 30
0.0
 40
0.4983060100000002
 50
269.80489299999988
 51
0.1951100000021455
  0
LINE
  5
13B69
  8
AM_0
 10
-234.99858419111069
 20
465.15717193627029
 30
0.0
 11
-232.7686041911106
 21
465.15717193627029
 31
0.0
  0
LINE
  5
13B6A
  8
AM_0
 10
-234.9885741911107
 20
467.2671619362705
 30
0.0
 11
-232.2686041911106
 21
467.2671619362705
 31
0.0
  0
LINE
  5
13B6B
  8
AM_0
 10
-231.2686041911106
 20
461.90717193627029
 30
0.0
 11
-223.2686041911106
 21
461.90717193627029
 31
0.0
  0
LINE
  5
13B6C
  8
AM_0
 10
-223.2686041911104
 20
464.11716193627052
 30
0.0
 11
-221.97862419111061
 21
455.6272019362703
 31
0.0
  0
LINE
  5
13B6D
  8
AM_0
 10
-223.2686041911104
 20
464.11716193627052
 30
0.0
 11
-221.9586041911104
 21
454.73713193627032
 31
0.0
  0
ARC
  5
13B6E
  8
AM_0
 10
-220.0183541911108
 20
457.77241193627049
 30
0.0
 40
1.9952829999999979
 50
189.09164999999931
 51
269.99379599999992
  0
ARC
  5
13B6F
  8
AM_0
 10
-220.0698741911105
 20
460.62128193627029
 30
0.0
 40
1.994108999999999
 50
190.81223000000111
 51
270.32445199999722
  0
LINE
  5
13B70
  8
AM_0
 10
-235.2686041911106
 20
467.50715193627047
 30
0.0
 11
-235.2686041911106
 21
468.05720193627042
 31
0.0
  0
LINE
  5
13B71
  8
AM_0
 10
-235.50865419111051
 20
467.40711193627021
 30
0.0
 11
-236.78862419111061
 21
468.17713193627009
 31
0.0
  0
LINE
  5
13B72
  8
AM_0
 10
-235.2686041911106
 20
472.07722193627029
 30
0.0
 11
-235.2686041911106
 21
472.54719193627028
 31
0.0
  0
LINE
  5
13B73
  8
AM_0
 10
-235.5186641911105
 20
471.9471519362703
 30
0.0
 11
-236.81865419111071
 21
472.79713193627032
 31
0.0
  0
LINE
  5
13B74
  8
AM_0
 10
-235.49864419111049
 20
473.05714193627028
 30
0.0
 11
-236.77861419111059
 21
473.80714193627028
 31
0.0
  0
LINE
  5
13B75
  8
AM_0
 10
-235.4885741911107
 20
468.51713193627018
 30
0.0
 11
-236.7385741911107
 21
469.18714193627022
 31
0.0
  0
ARC
  5
13B76
  8
AM_0
 10
-235.03349419111061
 20
469.4025419362701
 30
0.0
 40
0.99545902
 50
242.79618000000099
 51
270.85870900000009
  0
LINE
  5
13B77
  8
AM_0
 10
-235.47862419111061
 20
466.40717193627029
 30
0.0
 11
-236.7186141911107
 21
467.03718193627049
 31
0.0
  0
LINE
  5
13B78
  8
AM_0
 10
-235.2686041911106
 20
465.40717193627017
 30
0.0
 11
-235.2686041911106
 21
465.93720193627053
 31
0.0
  0
LINE
  5
13B79
  8
AM_0
 10
-235.49858419111069
 20
465.28721193627041
 30
0.0
 11
-236.76854419111081
 21
466.02720193627039
 31
0.0
  0
ARC
  5
13B7A
  8
AM_0
 10
-235.04381419111061
 20
467.30122193627028
 30
0.0
 40
0.99411702
 50
244.06501999999989
 51
270.8773560000015
  0
ARC
  5
13B7B
  8
AM_0
 10
-236.27299419111071
 20
467.92744193627038
 30
0.0
 40
0.995579
 50
180.01736
 51
243.4129100000022
  0
ARC
  5
13B7C
  8
AM_0
 10
-236.27379419111071
 20
473.62959193627017
 30
0.0
 40
0.9948369899999999
 50
179.56214000000179
 51
236.79503999999741
  0
ARC
  5
13B7D
  8
AM_0
 10
-236.27452419111069
 20
474.6640119362703
 30
0.0
 40
0.99404597
 50
179.81435999999951
 51
239.53179999999961
  0
ARC
  5
13B7E
  8
AM_0
 10
-236.27537419111059
 20
470.06574193627017
 30
0.0
 40
0.9932109699999999
 50
179.91812999999991
 51
242.20068000000089
  0
ARC
  5
13B7F
  8
AM_0
 10
-236.27415419111071
 20
469.02815193627032
 30
0.0
 40
0.9944329899999999
 50
180.05949000000089
 51
238.84787000000031
  0
ARC
  5
13B80
  8
AM_0
 10
-236.27537419111059
 20
466.88923193627028
 30
0.0
 40
0.99319202
 50
180.1204100000019
 51
240.2266199999998
  0
LINE
  5
13B89
  8
AM_0
 10
56.01089194101025
 20
476.90717095050661
 30
0.0
 11
-82.762500943238337
 21
476.90718654057122
 31
0.0
  0
LINE
  5
13B8A
  8
AM_0
 10
56.23780779576208
 20
489.90717156265498
 30
0.0
 11
-82.762501210991076
 21
489.90717156265498
 31
0.0
  0
LINE
  5
13B8B
  8
AM_0
 10
55.138139208027923
 20
552.90717344020129
 30
0.0
 11
-82.762500943238337
 21
552.90717344020152
 31
0.0
  0
LINE
  5
13B8C
  8
ﾁｭｳｼﾝｾﾝ1
 10
-243.7686041911106
 20
514.90715236284575
 30
0.0
 11
59.237503407432428
 21
514.90719581242115
 31
0.0
1001
GENIUS_GENODEF_13
1002
{
1000
HIER
1070
     0
1002
}
1002
{
1000
MANEDIT
1070
     0
1002
}
1002
{
1000
NOSEL
1070
     0
1002
}
1002
{
1000
BEHIND
1070
     0
1002
}
1002
{
1000
REACTOR
1002
}
1001
GENIUS_GENOBJ-N-CEN_13
1002
{
1000
OWNER
1000
GEN
1002
}
  0
LINE
  5
13C20
  8
AM_0
 10
-82.762501210991076
 20
489.90717156265498
 30
0.0
 11
-81.662831819993244
 21
552.90718878005555
 31
0.0
  0
LINE
  5
13C24
  8
AM_0
 10
-97.631027015595919
 20
570.43926084125656
 30
0.0
 11
-97.631011757481446
 21
459.37508306878061
 31
0.0
  0
LINE
  5
13C25
  8
AM_0
 10
-107.2686041911106
 20
570.90718236284602
 30
0.0
 11
-107.2686041911106
 21
458.90716136284601
 31
0.0
  0
LINE
  5
13C26
  8
AM_0
 10
-96.946971082632416
 20
460.5598783320666
 30
0.0
 11
-91.711018197815264
 21
490.25446763555578
 31
0.0
1001
GENIUS_GENODEF_13
1002
{
1000
HIER
1070
     0
1002
}
1002
{
1000
MANEDIT
1070
     0
1002
}
1002
{
1000
NOSEL
1070
     0
1002
}
1002
{
1000
BEHIND
1070
     0
1002
}
1002
{
1000
REACTOR
1002
}
1001
GENIUS_GENOBJ-N-CEN_13
1002
{
1000
OWNER
1000
GEN
1002
}
  0
ARC
  5
13C27
  8
AM_0
 10
-98.916587086701355
 20
460.90717186284593
 30
0.0
 40
2.0
 50
270.0
 51
350.00000821592607
1001
GENIUS_GENOBJ-N-CEN_13
1002
{
1000
OWNER
1000
GEN
1002
}
1001
GENIUS_GENODEF_13
1002
{
1000
HIER
1070
     0
1002
}
1002
{
1000
MANEDIT
1070
     0
1002
}
1002
{
1000
NOSEL
1070
     0
1002
}
1002
{
1000
BEHIND
1070
     0
1002
}
1002
{
1000
OTHER
1070
     0
1002
}
1002
{
1000
REACTOR
1002
}
1001
GENIUS_GENOBJ-N-FIL_13
1002
{
1000
OWNER
1000
GEN
1002
}
  0
LINE
  5
13C28
  8
AM_0
 10
-107.2686041911106
 20
458.90717186284581
 30
0.0
 11
-98.916587086701583
 21
458.90717186284581
 31
0.0
  0
LINE
  5
13C29
  8
AM_0
 10
-83.7451984741069
 20
491.90717156265481
 30
0.0
 11
-89.741402641990334
 21
491.90717156265481
 31
0.0
  0
LINE
  5
13C2A
  8
AM_0
 10
-107.2686041911106
 20
468.90714636284622
 30
0.0
 11
-97.631013067009434
 21
468.90716772182071
 31
0.0
  0
LINE
  5
13C2B
  8
AM_0
 10
-107.2686041911106
 20
482.96971436284588
 30
0.0
 11
-97.631014998597493
 21
482.96724293095508
 31
0.0
  0
ARC
  5
13C2C
  8
AM_0
 10
-89.741402641990334
 20
489.90717156265509
 30
0.0
 40
2.0
 50
90.000000000000057
 51
170.0000082159261
1001
GENIUS_GENODEF_13
1002
{
1000
HIER
1070
     0
1002
}
1002
{
1000
MANEDIT
1070
     0
1002
}
1002
{
1000
NOSEL
1070
     0
1002
}
1002
{
1000
BEHIND
1070
     0
1002
}
1002
{
1000
OTHER
1070
     0
1002
}
1002
{
1000
REACTOR
1002
}
1001
GENIUS_GENOBJ-N-FIL_13
1002
{
1000
OWNER
1000
GEN
1002
}
  0
LINE
  5
13C2D
  8
AM_0
 10
-82.762500943243793
 20
489.90718690250918
 30
0.0
 11
-82.535585092414266
 21
476.9071865150791
 31
0.0
  0
ARC
  5
13C2E
  8
AM_0
 10
-83.7451984741069
 20
490.90717156265498
 30
0.0
 40
1.0
 50
359.00000000001131
 51
90.000000000000057
1001
GENIUS_GENODEF_13
1002
{
1000
HIER
1070
     0
1002
}
1002
{
1000
MANEDIT
1070
     0
1002
}
1002
{
1000
NOSEL
1070
     0
1002
}
1002
{
1000
BEHIND
1070
     0
1002
}
1002
{
1000
OTHER
1070
     0
1002
}
1002
{
1000
REACTOR
1002
}
1001
GENIUS_GENOBJ-N-FIL_13
1002
{
1000
OWNER
1000
GEN
1002
}
  0
LINE
  5
13C2F
  8
AM_0
 10
-83.663136743839218
 20
550.90717344020118
 30
0.0
 11
-92.762498112486128
 21
550.90717344020118
 31
0.0
  0
LINE
  5
13C30
  8
AM_0
 10
-96.946986668898276
 20
569.25446850061303
 30
0.0
 11
-94.762498112485915
 21
556.86562865373662
 31
0.0
1001
GENIUS_GENODEF_13
1002
{
1000
HIER
1070
     0
1002
}
1002
{
1000
MANEDIT
1070
     0
1002
}
1002
{
1000
NOSEL
1070
     0
1002
}
1002
{
1000
BEHIND
1070
     0
1002
}
1002
{
1000
REACTOR
1002
}
1001
GENIUS_GENOBJ-N-CEN_13
1002
{
1000
OWNER
1000
GEN
1002
}
  0
LINE
  5
13C31
  8
AM_0
 10
-107.2686041911106
 20
546.84712186284594
 30
0.0
 11
-97.631023774482841
 21
546.84712186284594
 31
0.0
  0
ARC
  5
13C32
  8
AM_0
 10
-92.7624981124859
 20
552.90717344020129
 30
0.0
 40
2.0
 50
180.0
 51
270.0
1001
GENIUS_GENODEF_13
1002
{
1000
HIER
1070
     0
1002
}
1002
{
1000
MANEDIT
1070
     0
1002
}
1002
{
1000
NOSEL
1070
     0
1002
}
1002
{
1000
BEHIND
1070
     0
1002
}
1002
{
1000
OTHER
1070
     0
1002
}
1002
{
1000
REACTOR
1002
}
1001
GENIUS_GENOBJ-N-FIL_13
1002
{
1000
OWNER
1000
GEN
1002
}
  0
LINE
  5
13C33
  8
AM_0
 10
-94.762498112486114
 20
552.90717344020129
 30
0.0
 11
-94.762498112485915
 21
556.86562865373662
 31
0.0
  0
ARC
  5
13C34
  8
AM_0
 10
-98.916602125121926
 20
568.90717186284598
 30
0.0
 40
2.0
 50
10.00000821593002
 51
90.000000000000057
1001
GENIUS_GENOBJ-N-CEN_13
1002
{
1000
OWNER
1000
GEN
1002
}
1001
GENIUS_GENOBJ-N-FIL_13
1002
{
1000
OWNER
1000
GEN
1002
}
1001
GENIUS_GENODEF_13
1002
{
1000
HIER
1070
     0
1002
}
1002
{
1000
MANEDIT
1070
     0
1002
}
1002
{
1000
NOSEL
1070
     0
1002
}
1002
{
1000
BEHIND
1070
     0
1002
}
1002
{
1000
OTHER
1070
     0
1002
}
1002
{
1000
REACTOR
1002
}
  0
LINE
  5
13C35
  8
AM_0
 10
-107.2686041911106
 20
560.90717186284587
 30
0.0
 11
-97.63102570606749
 21
560.90717186284587
 31
0.0
  0
LINE
  5
13C36
  8
AM_0
 10
-107.2686041911106
 20
570.9071718628461
 30
0.0
 11
-98.916602125122168
 21
570.9071718628461
 31
0.0
  0
ARC
  5
13C37
  8
AM_0
 10
-83.663136743839218
 20
552.90717344020129
 30
0.0
 40
2.0
 50
270.0
 51
359.0000000000046
1001
GENIUS_GENODEF_13
1002
{
1000
HIER
1070
     0
1002
}
1002
{
1000
MANEDIT
1070
     0
1002
}
1002
{
1000
NOSEL
1070
     0
1002
}
1002
{
1000
BEHIND
1070
     0
1002
}
1002
{
1000
OTHER
1070
     0
1002
}
1002
{
1000
REACTOR
1002
}
1001
GENIUS_GENOBJ-N-FIL_13
1002
{
1000
OWNER
1000
GEN
1002
}
  0
LINE
  5
13C3C
  8
ﾁｭｳｼﾝｾﾝ1
 10
3.2375018875140422
 20
561.90722056882669
 30
0.0
 11
3.2375018875140711
 21
414.09636983074228
 31
0.0
  0
LINE
  5
13C3D
  8
AM_0
 10
30.73750270707804
 20
472.90717105601539
 30
0.0
 11
-24.26249893204972
 21
472.90717105601539
 31
0.0
  0
LINE
  5
13C3E
  8
AM_0
 10
-24.26249893204972
 20
472.90717105601539
 30
0.0
 11
-24.26249893204972
 21
476.90717117522462
 31
0.0
  0
LINE
  5
13C3F
  8
AM_0
 10
30.73750270707804
 20
472.90717105601539
 30
0.0
 11
30.73750270707804
 21
476.90717117522462
 31
0.0
  0
LINE
  5
13C41
  8
AM_0
 10
30.737502707077908
 20
556.90717355941035
 30
0.0
 11
-24.26249893204972
 21
556.90717355941047
 31
0.0
  0
LINE
  5
13C42
  8
AM_0
 10
-24.26249893204972
 20
556.90717355941047
 30
0.0
 11
-24.26249893204972
 21
552.90717344020129
 31
0.0
  0
LINE
  5
13C43
  8
AM_0
 10
30.737502707077908
 20
556.90717355941035
 30
0.0
 11
30.737502707077908
 21
552.90717344020129
 31
0.0
  0
LINE
  5
13D3F
  8
AM_0
 10
-11.762498559520671
 20
469.90721797602441
 30
0.0
 11
18.237502334548999
 21
469.90721797602441
 31
0.0
  0
LINE
  5
13D40
  8
AM_0
 10
18.237502334548999
 20
472.90721806543138
 30
0.0
 11
18.237502334548999
 21
469.90721797602441
 31
0.0
  0
LINE
  5
13D41
  8
AM_0
 10
-11.762498559520671
 20
472.90721806543138
 30
0.0
 11
-11.762498559520671
 21
469.90721797602441
 31
0.0
  0
LINE
  5
13D42
  8
AM_0
 10
-11.762498559520671
 20
469.90721778602438
 30
0.0
 11
18.237502334548999
 21
469.90721778602438
 31
0.0
  0
LINE
  5
13D43
  8
0
 10
-11.762498559520671
 20
469.90721778602438
 30
0.0
 11
-8.7624981124858152
 21
445.9072177860242
 31
0.0
  0
LINE
  5
13D44
  8
AM_0
 10
-11.762498559520671
 20
469.90721778602438
 30
0.0
 11
-11.762498559520671
 21
472.90721787543129
 31
0.0
  0
LINE
  5
13D45
  8
0
 10
18.237502334548999
 20
469.90721778602438
 30
0.0
 11
15.237501887514171
 21
445.9072177860242
 31
0.0
  0
LINE
  5
13D46
  8
AM_0
 10
18.237502334548999
 20
469.90721778602438
 30
0.0
 11
18.237502334548999
 21
472.90721787543129
 31
0.0
  0
LINE
  5
13D47
  8
AM_0
 10
-8.7624981124858152
 20
445.9072177860242
 30
0.0
 11
15.237501887514171
 21
445.9072177860242
 31
0.0
  0
LINE
  5
13D48
  8
0
 10
12.737501887514179
 20
417.90721778602409
 30
0.0
 11
-6.2624981124858152
 21
417.90721778602409
 31
0.0
  0
LINE
  5
13D49
  8
0
 10
12.737501887514179
 20
417.90721778602409
 30
0.0
 11
12.73750189047615
 21
445.9072177860242
 31
0.0
  0
LINE
  5
13D4A
  8
0
 10
-6.2624981124858152
 20
445.9072177860242
 30
0.0
 11
-6.2624981124858152
 21
417.90721778602409
 31
0.0
  0
LINE
  5
13D4B
  8
0
 10
0.2375018875140427
 20
439.90721778602438
 30
0.0
 11
6.2375018875139574
 21
439.90721778602409
 31
0.0
  0
LINE
  5
13D4C
  8
AM_0
 10
0.2375018875140711
 20
417.90721778602409
 30
0.0
 11
0.2375018875140427
 21
439.90721778602449
 31
0.0
  0
LINE
  5
13D4D
  8
AM_0
 10
6.2375018875140711
 20
417.90721778602409
 30
0.0
 11
6.237501887514183
 21
439.90721778602409
 31
0.0
  0
ARC
  5
13D4E
  8
AM_0
 10
3.2375018875140711
 20
439.90721778602438
 30
0.0
 40
2.9999999999999432
 50
0.0
 51
180.0
  0
LINE
  5
13E49
  8
AM_0
 10
54.237503139679852
 20
444.9071788451522
 30
0.0
 11
54.237503139679852
 21
476.90717884515192
 31
0.0
  0
LINE
  5
13E4B
  8
AM_0
 10
-82.762500943238337
 20
476.90717884515192
 30
0.0
 11
-82.762500943238337
 21
444.9071788451522
 31
0.0
  0
LINE
  5
13E4C
  8
AM_0
 10
-77.762500943238322
 20
439.9071788451522
 30
0.0
 11
-6.2624981124858152
 21
439.9071788451522
 31
0.0
  0
LINE
  5
13E4D
  8
AM_0
 10
54.237503139679852
 20
472.40717884515192
 30
0.0
 11
18.237502334548999
 21
472.40717884515192
 31
0.0
  0
LINE
  5
13E4F
  8
AM_0
 10
-37.7624980524131
 20
450.4071788451518
 30
0.0
 11
-37.7624980524131
 21
472.40717884515192
 31
0.0
  0
LINE
  5
13E50
  8
AM_0
 10
-33.262498052413278
 20
450.4071788451518
 30
0.0
 11
-33.262498052412923
 21
472.40717884515192
 31
0.0
  0
LINE
  5
13E52
  8
AM_0
 10
-33.262498052412752
 20
469.40717884515232
 30
0.0
 11
-37.762498052412923
 21
469.40717884515232
 31
0.0
  0
ARC
  5
13E54
  8
AM_0
 10
49.237503139679852
 20
444.9071788451522
 30
0.0
 40
5.0
 50
270.0
 51
0.0
1001
GENIUS_GENOBJ-N-FIL_13
1002
{
1000
OWNER
1000
GEN
1002
}
1001
GENIUS_GENODEF_13
1002
{
1000
HIER
1070
     0
1002
}
1002
{
1000
MANEDIT
1070
     0
1002
}
1002
{
1000
NOSEL
1070
     0
1002
}
1002
{
1000
BEHIND
1070
     0
1002
}
1002
{
1000
OTHER
1070
     0
1002
}
1002
{
1000
REACTOR
1002
}
  0
ARC
  5
13E55
  8
AM_0
 10
-77.762500943238322
 20
444.9071788451522
 30
0.0
 40
5.0
 50
180.0
 51
270.0
1001
GENIUS_GENODEF_13
1002
{
1000
HIER
1070
     0
1002
}
1002
{
1000
MANEDIT
1070
     0
1002
}
1002
{
1000
NOSEL
1070
     0
1002
}
1002
{
1000
BEHIND
1070
     0
1002
}
1002
{
1000
OTHER
1070
     0
1002
}
1002
{
1000
REACTOR
1002
}
1001
GENIUS_GENOBJ-N-FIL_13
1002
{
1000
OWNER
1000
GEN
1002
}
  0
LINE
  5
13E56
  8
ﾁｭｳｼﾝｾﾝ1
 10
46.237501291936077
 20
449.9071801862558
 30
0.0
 11
20.23750129193613
 21
449.9071801862558
 31
0.0
  0
LINE
  5
13E57
  8
ﾁｭｳｼﾝｾﾝ1
 10
33.237501291936141
 20
462.9071801862558
 30
0.0
 11
33.237501291936141
 21
436.9071801862558
 31
0.0
  0
CIRCLE
  5
13E5A
  8
AM_0
 10
33.237501291936141
 20
449.9071801862558
 30
0.0
 40
5.0
  0
CIRCLE
  5
13E5C
  8
AM_0
 10
-61.762499095494583
 20
449.9071801862558
 30
0.0
 40
5.0
  0
INSERT
  5
13E66
  8
AM_0
  6
CONTINUOUS
  2
*U5
 10
0.0
 20
0.0
 30
0.0
1001
GENIUS_GENODEF_13
1002
{
1000
HIER
1070
     0
1002
}
1002
{
1000
MANEDIT
1070
     0
1002
}
1002
{
1000
NOSEL
1070
     0
1002
}
1002
{
1000
BEHIND
1070
     0
1002
}
1002
{
1000
OTHER
1070
     0
1002
}
1002
{
1000
REACTOR
1002
}
1001
GENIUS_GENOBJ-N-HTC_13
1002
{
1000
OWNER
1000
GEN
1002
}
1001
GENIUS_GENHATCH_13
1002
{
1000
DATA
1040
0.0
1042
1.0
1000
SOLID
1070
     0
1011
-38.380249424305418
1021
0.0
1031
0.0
1021
471.56107094650702
1031
0.0
1002
}
1002
{
1000
UCS
1010
0.0
1020
0.0
1030
0.0
1010
1.0
1020
0.0
1030
0.0
1010
0.0
1020
1.0
1030
0.0
1002
}
1001
ACAD
1002
{
1000
R14_HATCH_DATA
1000
13E66
1011
1.0
1021
0.0
1031
0.0
1021
0.0
1031
0.0
1011
0.0
1021
0.0
1031
0.0
1021
1.0
1031
0.0
1011
0.0
1021
0.0
1031
0.0
1021
0.0
1031
1.0
1040
0.0
1010
0.0
1020
0.0
1030
1.0
1000
SOLID
1070
     1
1070
     0
1071
        2
1071
        1
1071
        3
1070
     1
1040
-40.262498052413093
1040
472.40717884515192
1040
-37.7624980524131
1040
472.40717884515192
1070
     1
1040
-37.7624980524131
1040
472.40717884515192
1040
-37.7624980524131
1040
469.90717884515198
1070
     1
1040
-37.7624980524131
1040
469.90717884515198
1040
-40.262498052413093
1040
472.40717884515192
1071
        0
1071
       33
1071
        1
1070
     1
1040
-82.762500943238337
1040
472.40717884515192
1040
54.237503139679852
1040
472.40717884515192
1071
        0
1070
     0
1070
     1
1071
        1
1040
151.76368487892111
1040
228.40955419519011
1040
0.0
1002
}
  0
LINE
  5
13E67
  8
AM_0
 10
-37.7624980524131
 20
469.90717884515198
 30
0.0
 11
-40.262498052413093
 21
472.40717884515192
 31
0.0
1001
GENIUS_GENFIL_13
1070
     0
1040
2.5
1040
2.5
1040
20.0
1040
0.0
1002
{
1002
}
1001
GENIUS_GENODEF_13
1002
{
1000
HIER
1070
     0
1002
}
1002
{
1000
MANEDIT
1070
     0
1002
}
1002
{
1000
NOSEL
1070
     0
1002
}
1002
{
1000
BEHIND
1070
     0
1002
}
1002
{
1000
OTHER
1070
     0
1002
}
1002
{
1000
REACTOR
1002
}
1001
GENIUS_GENOBJ-N-CHA_13
1002
{
1000
OWNER
1000
GEN
1002
}
  0
LINE
  5
13E68
  8
AM_0
 10
-33.262498052412568
 20
469.90717884515198
 30
0.0
 11
-30.762498052412582
 21
472.40717884515192
 31
0.0
1001
GENIUS_GENFIL_13
1070
     0
1040
2.5
1040
2.5
1040
20.0
1040
0.0
1002
{
1002
}
1001
GENIUS_GENODEF_13
1002
{
1000
HIER
1070
     0
1002
}
1002
{
1000
MANEDIT
1070
     0
1002
}
1002
{
1000
NOSEL
1070
     0
1002
}
1002
{
1000
BEHIND
1070
     0
1002
}
1002
{
1000
OTHER
1070
     0
1002
}
1002
{
1000
REACTOR
1002
}
1001
GENIUS_GENOBJ-N-CHA_13
1002
{
1000
OWNER
1000
GEN
1002
}
  0
INSERT
  5
13E69
  8
AM_0
  6
CONTINUOUS
  2
*U6
 10
0.0
 20
0.0
 30
0.0
1001
GENIUS_GENODEF_13
1002
{
1000
HIER
1070
     0
1002
}
1002
{
1000
MANEDIT
1070
     0
1002
}
1002
{
1000
NOSEL
1070
     0
1002
}
1002
{
1000
BEHIND
1070
     0
1002
}
1002
{
1000
OTHER
1070
     0
1002
}
1002
{
1000
REACTOR
1002
}
1001
GENIUS_GENOBJ-N-HTC_13
1002
{
1000
OWNER
1000
GEN
1002
}
1001
GENIUS_GENHATCH_13
1002
{
1000
DATA
1040
0.0
1042
1.0
1000
SOLID
1070
     0
1011
-32.644746680520257
1021
0.0
1031
0.0
1021
471.56107094650702
1031
0.0
1002
}
1002
{
1000
UCS
1010
0.0
1020
0.0
1030
0.0
1010
1.0
1020
0.0
1030
0.0
1010
0.0
1020
1.0
1030
0.0
1002
}
1001
ACAD
1002
{
1000
R14_HATCH_DATA
1000
13E69
1011
1.0
1021
0.0
1031
0.0
1021
0.0
1031
0.0
1011
0.0
1021
0.0
1031
0.0
1021
1.0
1031
0.0
1011
0.0
1021
0.0
1031
0.0
1021
0.0
1031
1.0
1040
0.0
1010
0.0
1020
0.0
1030
1.0
1000
SOLID
1070
     1
1070
     0
1071
        2
1071
        1
1071
        3
1070
     1
1040
-30.762498052412582
1040
472.40717884515192
1040
-33.262498052412568
1040
472.40717884515192
1070
     1
1040
-33.262498052412568
1040
472.40717884515192
1040
-33.262498052412568
1040
469.90717884515198
1070
     1
1040
-33.262498052412568
1040
469.90717884515198
1040
-30.762498052412582
1040
472.40717884515192
1071
        0
1071
       33
1071
        1
1070
     1
1040
11.73750483841266
1040
472.40717884515192
1040
-125.26249924450551
1040
472.40717884515192
1071
        0
1070
     0
1070
     1
1071
        1
1040
-222.78868098374679
1040
228.40955419519011
1040
0.0
1002
}
  0
LINE
  5
13E7B
  8
AM_5
 10
-31.762499423319841
 20
472.40717884515192
 30
0.0
 11
-31.762499423319841
 21
476.90717884515192
 31
0.0
  0
LINE
  5
13E7C
  8
AM_5
 10
-54.26249783386325
 20
472.40717884515192
 30
0.0
 11
-54.262497833863279
 21
476.90717884515192
 31
0.0
  0
LINE
  5
13E7E
  8
AM_0
 10
-33.262498052413278
 20
450.4071788451518
 30
0.0
 11
-37.7624980524131
 21
450.4071788451518
 31
0.0
  0
LINE
  5
13EA4
  8
ﾁｭｳｼﾝｾﾝ1
 10
-48.762499095494569
 20
449.9071801862558
 30
0.0
 11
-74.762499095494547
 21
449.9071801862558
 31
0.0
  0
LINE
  5
13EA5
  8
ﾁｭｳｼﾝｾﾝ1
 10
-61.76249909549454
 20
462.9071801862558
 30
0.0
 11
-61.76249909549454
 21
436.9071801862558
 31
0.0
  0
LINE
  5
13EF4
  8
AM_0
 10
54.237503139679852
 20
584.90721277968976
 30
0.0
 11
54.237503139679852
 21
552.90721277969033
 31
0.0
  0
LINE
  5
13EF5
  8
AM_0
 10
-82.762500943238337
 20
552.90721277969033
 30
0.0
 11
-82.762500943238337
 21
584.90721277968976
 31
0.0
  0
LINE
  5
13EF6
  8
AM_0
 10
-77.762500943238322
 20
589.90721277968964
 30
0.0
 11
49.237503139679852
 21
589.90721277968976
 31
0.0
  0
LINE
  5
13EF7
  8
AM_0
 10
54.237503139679852
 20
557.40721277969021
 30
0.0
 11
-82.762500943238337
 21
557.40721277969021
 31
0.0
  0
LINE
  5
13EF8
  8
AM_0
 10
4.7375002488548432
 20
579.4072127796901
 30
0.0
 11
4.737500248854472
 21
557.40721277969021
 31
0.0
  0
LINE
  5
13EF9
  8
AM_0
 10
-37.7624980524131
 20
579.4072127796901
 30
0.0
 11
-37.7624980524131
 21
557.40721277969021
 31
0.0
  0
LINE
  5
13EFA
  8
AM_0
 10
-33.262498052413278
 20
579.4072127796901
 30
0.0
 11
-33.262498052412923
 21
557.40721277969021
 31
0.0
  0
LINE
  5
13EFB
  8
AM_0
 10
9.2375002488546691
 20
579.4072127796901
 30
0.0
 11
9.2375002488546443
 21
557.40721277969021
 31
0.0
  0
LINE
  5
13EFC
  8
AM_0
 10
-33.262498052412752
 20
560.40721277968964
 30
0.0
 11
-37.762498052412923
 21
560.40721277968964
 31
0.0
  0
LINE
  5
13EFD
  8
AM_0
 10
4.7375002488543023
 20
560.40721277968964
 30
0.0
 11
9.2375002488544702
 21
560.40721277968964
 31
0.0
  0
ARC
  5
13EFE
  8
AM_0
 10
49.237503139679852
 20
584.90721277968976
 30
0.0
 40
5.0
 50
0.0
 51
90.000000000000057
1001
GENIUS_GENOBJ-N-FIL_13
1002
{
1000
OWNER
1000
GEN
1002
}
1001
GENIUS_GENODEF_13
1002
{
1000
HIER
1070
     0
1002
}
1002
{
1000
MANEDIT
1070
     0
1002
}
1002
{
1000
NOSEL
1070
     0
1002
}
1002
{
1000
BEHIND
1070
     0
1002
}
1002
{
1000
OTHER
1070
     0
1002
}
1002
{
1000
REACTOR
1002
}
  0
ARC
  5
13EFF
  8
AM_0
 10
-77.762500943238322
 20
584.90721277968976
 30
0.0
 40
5.0
 50
90.000000000000057
 51
180.0
1001
GENIUS_GENODEF_13
1002
{
1000
HIER
1070
     0
1002
}
1002
{
1000
MANEDIT
1070
     0
1002
}
1002
{
1000
NOSEL
1070
     0
1002
}
1002
{
1000
BEHIND
1070
     0
1002
}
1002
{
1000
OTHER
1070
     0
1002
}
1002
{
1000
REACTOR
1002
}
1001
GENIUS_GENOBJ-N-FIL_13
1002
{
1000
OWNER
1000
GEN
1002
}
  0
LINE
  5
13F00
  8
ﾁｭｳｼﾝｾﾝ1
 10
46.237501291936077
 20
579.90721143858639
 30
0.0
 11
20.23750129193613
 21
579.90721143858639
 31
0.0
  0
LINE
  5
13F01
  8
ﾁｭｳｼﾝｾﾝ1
 10
33.237501291936141
 20
566.90721143858639
 30
0.0
 11
33.237501291936141
 21
592.90721143858639
 31
0.0
  0
CIRCLE
  5
13F04
  8
AM_0
 10
33.237501291936141
 20
579.90721143858639
 30
0.0
 40
5.0
  0
CIRCLE
  5
13F05
  8
AM_0
 10
-61.762499095494583
 20
579.90721143858639
 30
0.0
 40
5.0
  0
LINE
  5
13F06
  8
AM_0
 10
9.2375002488546443
 20
559.90721277969033
 30
0.0
 11
11.737500248854641
 21
557.40721277969021
 31
0.0
1001
GENIUS_GENFIL_13
1070
     0
1040
2.5
1040
2.5
1040
20.0
1040
0.0
1002
{
1002
}
1001
GENIUS_GENODEF_13
1002
{
1000
HIER
1070
     0
1002
}
1002
{
1000
MANEDIT
1070
     0
1002
}
1002
{
1000
NOSEL
1070
     0
1002
}
1002
{
1000
BEHIND
1070
     0
1002
}
1002
{
1000
OTHER
1070
     0
1002
}
1002
{
1000
REACTOR
1002
}
1001
GENIUS_GENOBJ-N-CHA_13
1002
{
1000
OWNER
1000
GEN
1002
}
  0
INSERT
  5
13F07
  8
AM_0
  6
CONTINUOUS
  2
*U7
 10
0.0
 20
0.0
 30
0.0
1001
GENIUS_GENODEF_13
1002
{
1000
HIER
1070
     0
1002
}
1002
{
1000
MANEDIT
1070
     0
1002
}
1002
{
1000
NOSEL
1070
     0
1002
}
1002
{
1000
BEHIND
1070
     0
1002
}
1002
{
1000
OTHER
1070
     0
1002
}
1002
{
1000
REACTOR
1002
}
1001
GENIUS_GENOBJ-N-HTC_13
1002
{
1000
OWNER
1000
GEN
1002
}
1001
GENIUS_GENHATCH_13
1002
{
1000
DATA
1040
0.0
1042
-1.0
1000
SOLID
1070
     0
1011
9.8552516207469658
1021
0.0
1031
0.0
1021
558.25332067833506
1031
0.0
1002
}
1002
{
1000
UCS
1010
0.0
1020
0.0
1030
0.0
1010
1.0
1020
0.0
1030
0.0
1010
0.0
1020
1.0
1030
0.0
1002
}
1001
ACAD
1002
{
1000
R14_HATCH_DATA
1000
13F07
1011
1.0
1021
0.0
1031
0.0
1021
0.0
1031
0.0
1011
0.0
1021
0.0
1031
0.0
1021
1.0
1031
0.0
1011
0.0
1021
0.0
1031
0.0
1021
0.0
1031
1.0
1040
0.0
1010
0.0
1020
0.0
1030
1.0
1000
SOLID
1070
     1
1070
     0
1071
        2
1071
        1
1071
        3
1070
     1
1040
11.737500248854641
1040
557.40721277969021
1040
9.2375002488546443
1040
557.40721277969021
1070
     1
1040
9.2375002488546443
1040
557.40721277969021
1040
9.2375002488546443
1040
559.90721277969033
1070
     1
1040
9.2375002488546443
1040
559.90721277969033
1040
11.737500248854641
1040
557.40721277969021
1071
        0
1071
       33
1071
        1
1070
     1
1040
54.237503139679852
1040
557.40721277969021
1040
-82.762500943238308
1040
557.40721277969021
1071
        0
1070
     0
1070
     1
1071
        1
1040
-180.2886826824795
1040
801.40483742965193
1040
0.0
1002
}
  0
INSERT
  5
13F08
  8
AM_0
  6
CONTINUOUS
  2
*U8
 10
0.0
 20
0.0
 30
0.0
1001
GENIUS_GENODEF_13
1002
{
1000
HIER
1070
     0
1002
}
1002
{
1000
MANEDIT
1070
     0
1002
}
1002
{
1000
NOSEL
1070
     0
1002
}
1002
{
1000
BEHIND
1070
     0
1002
}
1002
{
1000
OTHER
1070
     0
1002
}
1002
{
1000
REACTOR
1002
}
1001
GENIUS_GENOBJ-N-HTC_13
1002
{
1000
OWNER
1000
GEN
1002
}
1001
GENIUS_GENHATCH_13
1002
{
1000
DATA
1040
0.0
1042
-1.0
1000
SOLID
1070
     0
1011
4.1197488769618058
1021
0.0
1031
0.0
1021
558.25332067833506
1031
0.0
1002
}
1002
{
1000
UCS
1010
0.0
1020
0.0
1030
0.0
1010
1.0
1020
0.0
1030
0.0
1010
0.0
1020
1.0
1030
0.0
1002
}
1001
ACAD
1002
{
1000
R14_HATCH_DATA
1000
13F08
1011
1.0
1021
0.0
1031
0.0
1021
0.0
1031
0.0
1011
0.0
1021
0.0
1031
0.0
1021
1.0
1031
0.0
1011
0.0
1021
0.0
1031
0.0
1021
0.0
1031
1.0
1040
0.0
1010
0.0
1020
0.0
1030
1.0
1000
SOLID
1070
     1
1070
     0
1071
        2
1071
        1
1071
        3
1070
     1
1040
2.2375002488541309
1040
557.40721277969021
1040
4.7375002488541309
1040
557.40721277969021
1070
     1
1040
4.7375002488541309
1040
557.40721277969021
1040
4.7375002488541309
1040
559.90721277969033
1070
     1
1040
4.7375002488541309
1040
559.90721277969033
1040
2.2375002488541309
1040
557.40721277969021
1071
        0
1071
       33
1071
        1
1070
     1
1040
-40.262502641971111
1040
557.40721277969021
1040
96.737501440947057
1040
557.40721277969021
1071
        0
1070
     0
1070
     1
1071
        1
1040
194.26368318018831
1040
801.40483742965193
1040
0.0
1002
}
  0
LINE
  5
13F09
  8
AM_0
 10
4.7375002488541309
 20
559.90721277969033
 30
0.0
 11
2.2375002488541309
 21
557.40721277969021
 31
0.0
1001
GENIUS_GENFIL_13
1070
     0
1040
2.5
1040
2.5
1040
20.0
1040
0.0
1002
{
1002
}
1001
GENIUS_GENODEF_13
1002
{
1000
HIER
1070
     0
1002
}
1002
{
1000
MANEDIT
1070
     0
1002
}
1002
{
1000
NOSEL
1070
     0
1002
}
1002
{
1000
BEHIND
1070
     0
1002
}
1002
{
1000
OTHER
1070
     0
1002
}
1002
{
1000
REACTOR
1002
}
1001
GENIUS_GENOBJ-N-CHA_13
1002
{
1000
OWNER
1000
GEN
1002
}
  0
INSERT
  5
13F0A
  8
AM_0
  6
CONTINUOUS
  2
*U9
 10
0.0
 20
0.0
 30
0.0
1001
GENIUS_GENODEF_13
1002
{
1000
HIER
1070
     0
1002
}
1002
{
1000
MANEDIT
1070
     0
1002
}
1002
{
1000
NOSEL
1070
     0
1002
}
1002
{
1000
BEHIND
1070
     0
1002
}
1002
{
1000
OTHER
1070
     0
1002
}
1002
{
1000
REACTOR
1002
}
1001
GENIUS_GENOBJ-N-HTC_13
1002
{
1000
OWNER
1000
GEN
1002
}
1001
GENIUS_GENHATCH_13
1002
{
1000
DATA
1040
0.0
1042
-1.0
1000
SOLID
1070
     0
1011
-38.380249424305418
1021
0.0
1031
0.0
1021
558.25332067833506
1031
0.0
1002
}
1002
{
1000
UCS
1010
0.0
1020
0.0
1030
0.0
1010
1.0
1020
0.0
1030
0.0
1010
0.0
1020
1.0
1030
0.0
1002
}
1001
ACAD
1002
{
1000
R14_HATCH_DATA
1000
13F0A
1011
1.0
1021
0.0
1031
0.0
1021
0.0
1031
0.0
1011
0.0
1021
0.0
1031
0.0
1021
1.0
1031
0.0
1011
0.0
1021
0.0
1031
0.0
1021
0.0
1031
1.0
1040
0.0
1010
0.0
1020
0.0
1030
1.0
1000
SOLID
1070
     1
1070
     0
1071
        2
1071
        1
1071
        3
1070
     1
1040
-40.262498052413093
1040
557.40721277969021
1040
-37.7624980524131
1040
557.40721277969021
1070
     1
1040
-37.7624980524131
1040
557.40721277969021
1040
-37.7624980524131
1040
559.90721277969033
1070
     1
1040
-37.7624980524131
1040
559.90721277969033
1040
-40.262498052413093
1040
557.40721277969021
1071
        0
1071
       33
1071
        1
1070
     1
1040
-82.762500943238337
1040
557.40721277969021
1040
54.237503139679852
1040
557.40721277969021
1071
        0
1070
     0
1070
     1
1071
        1
1040
151.76368487892111
1040
801.40483742965193
1040
0.0
1002
}
  0
LINE
  5
13F0B
  8
AM_0
 10
-37.7624980524131
 20
559.90721277969033
 30
0.0
 11
-40.262498052413093
 21
557.40721277969021
 31
0.0
1001
GENIUS_GENFIL_13
1070
     0
1040
2.5
1040
2.5
1040
20.0
1040
0.0
1002
{
1002
}
1001
GENIUS_GENODEF_13
1002
{
1000
HIER
1070
     0
1002
}
1002
{
1000
MANEDIT
1070
     0
1002
}
1002
{
1000
NOSEL
1070
     0
1002
}
1002
{
1000
BEHIND
1070
     0
1002
}
1002
{
1000
OTHER
1070
     0
1002
}
1002
{
1000
REACTOR
1002
}
1001
GENIUS_GENOBJ-N-CHA_13
1002
{
1000
OWNER
1000
GEN
1002
}
  0
LINE
  5
13F0C
  8
AM_0
 10
-33.262498052412568
 20
559.90721277969033
 30
0.0
 11
-30.762498052412582
 21
557.40721277969021
 31
0.0
1001
GENIUS_GENFIL_13
1070
     0
1040
2.5
1040
2.5
1040
20.0
1040
0.0
1002
{
1002
}
1001
GENIUS_GENODEF_13
1002
{
1000
HIER
1070
     0
1002
}
1002
{
1000
MANEDIT
1070
     0
1002
}
1002
{
1000
NOSEL
1070
     0
1002
}
1002
{
1000
BEHIND
1070
     0
1002
}
1002
{
1000
OTHER
1070
     0
1002
}
1002
{
1000
REACTOR
1002
}
1001
GENIUS_GENOBJ-N-CHA_13
1002
{
1000
OWNER
1000
GEN
1002
}
  0
INSERT
  5
13F0D
  8
AM_0
  6
CONTINUOUS
  2
*U10
 10
0.0
 20
0.0
 30
0.0
1001
GENIUS_GENODEF_13
1002
{
1000
HIER
1070
     0
1002
}
1002
{
1000
MANEDIT
1070
     0
1002
}
1002
{
1000
NOSEL
1070
     0
1002
}
1002
{
1000
BEHIND
1070
     0
1002
}
1002
{
1000
OTHER
1070
     0
1002
}
1002
{
1000
REACTOR
1002
}
1001
GENIUS_GENOBJ-N-HTC_13
1002
{
1000
OWNER
1000
GEN
1002
}
1001
GENIUS_GENHATCH_13
1002
{
1000
DATA
1040
0.0
1042
-1.0
1000
SOLID
1070
     0
1011
-32.644746680520257
1021
0.0
1031
0.0
1021
558.25332067833506
1031
0.0
1002
}
1002
{
1000
UCS
1010
0.0
1020
0.0
1030
0.0
1010
1.0
1020
0.0
1030
0.0
1010
0.0
1020
1.0
1030
0.0
1002
}
1001
ACAD
1002
{
1000
R14_HATCH_DATA
1000
13F0D
1011
1.0
1021
0.0
1031
0.0
1021
0.0
1031
0.0
1011
0.0
1021
0.0
1031
0.0
1021
1.0
1031
0.0
1011
0.0
1021
0.0
1031
0.0
1021
0.0
1031
1.0
1040
0.0
1010
0.0
1020
0.0
1030
1.0
1000
SOLID
1070
     1
1070
     0
1071
        2
1071
        1
1071
        3
1070
     1
1040
-30.762498052412582
1040
557.40721277969021
1040
-33.262498052412568
1040
557.40721277969021
1070
     1
1040
-33.262498052412568
1040
557.40721277969021
1040
-33.262498052412568
1040
559.90721277969033
1070
     1
1040
-33.262498052412568
1040
559.90721277969033
1040
-30.762498052412582
1040
557.40721277969021
1071
        0
1071
       33
1071
        1
1070
     1
1040
11.73750483841266
1040
557.40721277969021
1040
-125.26249924450551
1040
557.40721277969021
1071
        0
1070
     0
1070
     1
1071
        1
1040
-222.78868098374679
1040
801.40483742965193
1040
0.0
1002
}
  0
LINE
  5
13F10
  8
AM_5
 10
-31.762499423319841
 20
557.40721277969021
 30
0.0
 11
-31.762499423319841
 21
552.90721277969033
 31
0.0
  0
LINE
  5
13F11
  8
AM_5
 10
-54.26249783386325
 20
557.40721277969021
 30
0.0
 11
-54.262497833863279
 21
552.90721277969033
 31
0.0
  0
LINE
  5
13F12
  8
AM_0
 10
9.2375002488546443
 20
579.4072127796901
 30
0.0
 11
4.737500248854813
 21
579.4072127796901
 31
0.0
  0
LINE
  5
13F13
  8
AM_0
 10
-33.262498052413278
 20
579.4072127796901
 30
0.0
 11
-37.7624980524131
 21
579.4072127796901
 31
0.0
  0
LINE
  5
13F14
  8
ﾁｭｳｼﾝｾﾝ1
 10
-48.762499095494569
 20
579.90721143858639
 30
0.0
 11
-74.762499095494547
 21
579.90721143858639
 31
0.0
  0
LINE
  5
13F15
  8
ﾁｭｳｼﾝｾﾝ1
 10
-61.76249909549454
 20
566.90721143858639
 30
0.0
 11
-61.76249909549454
 21
592.90721143858639
 31
0.0
  0
LINE
  5
13F17
  8
AM_0
 10
-11.762498559520671
 20
472.40717884515192
 30
0.0
 11
-82.762500943238337
 21
472.40717884515192
 31
0.0
  0
LINE
  5
13F19
  8
AM_0
 10
12.73750188984144
 20
439.9071788451522
 30
0.0
 11
49.237503139679852
 21
439.9071788451522
 31
0.0
  0
LINE
  5
13F4A
  8
AM_0
 10
34.737502811854242
 20
558.99721277969013
 30
0.0
 11
51.737502811854348
 21
558.99721277969036
 31
0.0
  0
LINE
  5
13F4B
  8
AM_0
 10
51.737502811854348
 20
558.99721277969036
 30
0.0
 11
51.737502811854348
 21
557.40721277969021
 31
0.0
  0
LINE
  5
13F4C
  8
AM_0
 10
34.737502811854242
 20
558.99721277969036
 30
0.0
 11
34.737502811854242
 21
557.40721277969021
 31
0.0
  0
LINE
  5
13F4D
  8
AM_0
 10
36.737502811854363
 20
566.99721277968922
 30
0.0
 11
49.737502811854242
 21
566.99721277968922
 31
0.0
  0
LINE
  5
13F4E
  8
AM_0
 10
49.737502811854242
 20
558.99721277968933
 30
0.0
 11
49.737502811854242
 21
566.99721277968922
 31
0.0
  0
LINE
  5
13F4F
  8
AM_0
 10
36.737502811854363
 20
558.99721277968933
 30
0.0
 11
36.737502811854363
 21
566.99721277968922
 31
0.0
  0
LINE
  5
13F50
  8
AM_0
 10
-80.262500615412804
 20
558.99721277969013
 30
0.0
 11
-63.262500615412698
 21
558.99721277969036
 31
0.0
  0
LINE
  5
13F51
  8
AM_0
 10
-63.262500615412698
 20
558.99721277969036
 30
0.0
 11
-63.262500615412698
 21
557.40721277969021
 31
0.0
  0
LINE
  5
13F52
  8
AM_0
 10
-80.262500615412804
 20
558.99721277969036
 30
0.0
 11
-80.262500615412804
 21
557.40721277969021
 31
0.0
  0
LINE
  5
13F53
  8
AM_0
 10
-78.262500615412705
 20
566.99721277968922
 30
0.0
 11
-65.262500615412819
 21
566.99721277968922
 31
0.0
  0
LINE
  5
13F54
  8
AM_0
 10
-65.262500615412819
 20
558.99721277968933
 30
0.0
 11
-65.262500615412819
 21
566.99721277968922
 31
0.0
  0
LINE
  5
13F55
  8
AM_0
 10
-78.262500615412705
 20
558.99721277968933
 30
0.0
 11
-78.262500615412705
 21
566.99721277968922
 31
0.0
  0
LINE
  5
13F63
  8
AM_0
 10
46.987502811854313
 20
464.31717884515132
 30
0.0
 11
46.987502811854313
 21
470.81717884515069
 31
0.0
  0
LINE
  5
13F64
  8
AM_0
 10
50.737502811854313
 20
464.31717884515132
 30
0.0
 11
50.737502811854199
 21
470.8171788451512
 31
0.0
  0
LINE
  5
13F65
  8
AM_0
 10
39.487502811854313
 20
464.31717884515132
 30
0.0
 11
39.487502811854426
 21
470.8171788451512
 31
0.0
  0
LINE
  5
13F66
  8
AM_0
 10
35.737502811854313
 20
464.31717884515132
 30
0.0
 11
35.737502811854426
 21
470.8171788451512
 31
0.0
  0
LINE
  5
13F67
  8
AM_0
 10
39.237502811854313
 20
463.9971811101276
 30
0.0
 11
47.237502811854313
 21
463.9971811101276
 31
0.0
  0
LINE
  5
13F68
  8
AM_0
 10
35.737502811854313
 20
464.31717884515132
 30
0.0
 11
50.737502811854313
 21
464.31717884515132
 31
0.0
  0
LINE
  5
13F69
  8
AM_0
 10
47.237502811854313
 20
464.31717884515132
 30
0.0
 11
47.237502811854313
 21
463.99718111012731
 31
0.0
  0
LINE
  5
13F6A
  8
AM_5
 10
40.237502811854313
 20
464.31717884515132
 30
0.0
 11
40.237502811854313
 21
463.9971811101276
 31
0.0
  0
LINE
  5
13F6B
  8
AM_0
 10
39.237502811854313
 20
464.31717884515132
 30
0.0
 11
39.237502811854313
 21
463.9971811101276
 31
0.0
  0
LINE
  5
13F6C
  8
AM_5
 10
46.237502811854313
 20
464.31717884515132
 30
0.0
 11
46.237502811854313
 21
463.99718111012731
 31
0.0
  0
LINE
  5
13F6D
  8
AM_0
 10
34.737502811854313
 20
470.81717884515211
 30
0.0
 11
51.737502811854313
 21
470.81717884515211
 31
0.0
  0
LINE
  5
13F6E
  8
AM_0
 10
51.737502811854313
 20
470.81717884515211
 30
0.0
 11
51.737502811854313
 21
472.40717884515192
 31
0.0
  0
LINE
  5
13F6F
  8
AM_0
 10
34.737502811854313
 20
470.81717884515211
 30
0.0
 11
34.737502811854313
 21
472.40717884515192
 31
0.0
  0
LINE
  5
13F70
  8
AM_0
 10
-68.012500615412762
 20
464.31717884515132
 30
0.0
 11
-68.012500615412762
 21
470.81717884515069
 31
0.0
  0
LINE
  5
13F71
  8
AM_0
 10
-64.262500615412762
 20
464.31717884515132
 30
0.0
 11
-64.262500615412876
 21
470.8171788451512
 31
0.0
  0
LINE
  5
13F72
  8
AM_0
 10
-75.512500615412776
 20
464.31717884515132
 30
0.0
 11
-75.512500615412634
 21
470.8171788451512
 31
0.0
  0
LINE
  5
13F73
  8
AM_0
 10
-79.262500615412776
 20
464.31717884515132
 30
0.0
 11
-79.262500615412634
 21
470.8171788451512
 31
0.0
  0
LINE
  5
13F74
  8
AM_0
 10
-75.762500615412776
 20
463.9971811101276
 30
0.0
 11
-67.762500615412762
 21
463.9971811101276
 31
0.0
  0
LINE
  5
13F75
  8
AM_0
 10
-79.262500615412776
 20
464.31717884515132
 30
0.0
 11
-64.262500615412762
 21
464.31717884515132
 31
0.0
  0
LINE
  5
13F76
  8
AM_0
 10
-67.762500615412762
 20
464.31717884515132
 30
0.0
 11
-67.762500615412762
 21
463.99718111012731
 31
0.0
  0
LINE
  5
13F77
  8
AM_5
 10
-74.762500615412776
 20
464.31717884515132
 30
0.0
 11
-74.762500615412776
 21
463.9971811101276
 31
0.0
  0
LINE
  5
13F78
  8
AM_0
 10
-75.762500615412776
 20
464.31717884515132
 30
0.0
 11
-75.762500615412776
 21
463.9971811101276
 31
0.0
  0
LINE
  5
13F79
  8
AM_5
 10
-68.762500615412762
 20
464.31717884515132
 30
0.0
 11
-68.762500615412762
 21
463.99718111012731
 31
0.0
  0
LINE
  5
13F7A
  8
AM_0
 10
-80.262500615412776
 20
470.81717884515211
 30
0.0
 11
-63.262500615412762
 21
470.81717884515211
 31
0.0
  0
LINE
  5
13F7B
  8
AM_0
 10
-63.262500615412762
 20
470.81717884515211
 30
0.0
 11
-63.262500615412762
 21
472.40717884515192
 31
0.0
  0
LINE
  5
13F7C
  8
AM_0
 10
-80.262500615412776
 20
470.81717884515211
 30
0.0
 11
-80.262500615412776
 21
472.40717884515192
 31
0.0
  0
LINE
  5
144F3
  8
AM_0
 10
56.237198797745322
 20
489.94209171538228
 30
0.0
 11
55.137529674494743
 21
552.94209359293018
 31
0.0
  0
LINE
  5
144F4
  8
AM_0
 10
56.23780779576208
 20
489.90717156265498
 30
0.0
 11
56.010282679157712
 21
476.8722663623501
 31
0.0
  0
LINE
  5
144F5
  8
AM_0
 10
56.237503407432527
 20
315.37556164388837
 30
0.0
 11
56.237503407432527
 21
235.3755592597027
 31
0.0
  0
ARC
  5
144F6
  8
AM_0
 10
45.237503079606988
 20
235.3755592597027
 30
0.0
 40
11.000000327825539
 50
324.90319931238918
 51
0.0
  0
TEXT
  5
145A2
  8
AM_0
 10
137.51851852752131
 20
526.27429999330673
 30
0.0
 40
10.0
  1
VC01-007KML~VC01-060KML
1001
ACAD
1000
MTEXTBEGIN
1070
    73
1070
     1
1070
    44
1040
1.0
1070
    74
1070
     0
1000
MTEXTEND
  0
VIEWPORT
  5
89
 67
     1
  8
0
 10
210.0
 20
148.5
 30
0.0
 40
420.0
 41
297.0
 68
     1
 69
     1
1001
ACAD
1000
MVIEW
1002
{
1070
    16
1010
0.0
1020
0.0
1030
0.0
1010
0.0
1020
0.0
1030
1.0
1040
0.0
1040
297.0
1040
221.70154043645701
1040
148.5
1040
50.0
1040
0.0
1040
0.0
1070
     0
1070
   100
1070
     1
1070
     1
1070
     0
1070
     0
1070
     0
1070
     0
1040
0.0
1040
0.0
1040
0.0
1040
10.0
1040
10.0
1040
10.0
1040
10.0
1070
     0
1002
{
1002
}
1002
}
1001
GENIUS_GENOREF_13
1005
1B94
1001
GENIUS_GENSCREG_15
1000
PF
1040
1.0
1000
DF
1040
1.0
1000
MIN
1011
0.0
1021
0.0
1031
0.0
1021
0.0
1031
0.0
1000
MAX
1011
420.0
1021
0.0
1031
0.0
1021
297.0
1031
0.0
1000
FLAGS
1070
     4
  0
ENDSEC
  0
EOF
