  0
SECTION
  2
HEADER
  9
$ACADVER
  1
AC1009
  9
$INSBASE
 10
0.0
 20
0.0
 30
0.0
  9
$EXTMIN
 10
-104.56051626912991
 20
183.88965026281079
 30
-0.0015258207003583
  9
$EXTMAX
 10
527.17352019931081
 20
641.97303654165285
 30
0.0000000349246037
  9
$LIMMIN
 10
0.0
 20
0.0
  9
$LIMMAX
 10
853.5
 20
555.00000000000011
  9
$ORTHOMODE
 70
     0
  9
$REGENMODE
 70
     1
  9
$FILLMODE
 70
     1
  9
$QTEXTMODE
 70
     0
  9
$MIRRTEXT
 70
     1
  9
$DRAGMODE
 70
     2
  9
$LTSCALE
 40
3.0
  9
$OSMODE
 70
   551
  9
$ATTMODE
 70
     1
  9
$TEXTSIZE
 40
2.5
  9
$TRACEWID
 40
1.0
  9
$TEXTSTYLE
  7
STANDARD
  9
$CLAYER
  8
AM_0
  9
$CELTYPE
  6
BYLAYER
  9
$CECOLOR
 62
   256
  9
$DIMSCALE
 40
3.0
  9
$DIMASZ
 40
2.5
  9
$DIMEXO
 40
1.0
  9
$DIMDLI
 40
7.0
  9
$DIMRND
 40
0.0
  9
$DIMDLE
 40
0.0
  9
$DIMEXE
 40
1.0
  9
$DIMTP
 40
0.1
  9
$DIMTM
 40
0.1000000001
  9
$DIMTXT
 40
2.5
  9
$DIMCEN
 40
0.0
  9
$DIMTSZ
 40
0.0
  9
$DIMTOL
 70
     0
  9
$DIMLIM
 70
     0
  9
$DIMTIH
 70
     0
  9
$DIMTOH
 70
     0
  9
$DIMSE1
 70
     0
  9
$DIMSE2
 70
     0
  9
$DIMTAD
 70
     3
  9
$DIMZIN
 70
     8
  9
$DIMBLK
  1

  9
$DIMASO
 70
     1
  9
$DIMSHO
 70
     1
  9
$DIMPOST
  1

  9
$DIMAPOST
  1
"
  9
$DIMALT
 70
     0
  9
$DIMALTD
 70
     2
  9
$DIMALTF
 40
0.0393701
  9
$DIMLFAC
 40
1.0
  9
$DIMTOFL
 70
     1
  9
$DIMTVP
 40
0.0
  9
$DIMTIX
 70
     0
  9
$DIMSOXD
 70
     0
  9
$DIMSAH
 70
     0
  9
$DIMBLK1
  1

  9
$DIMBLK2
  1

  9
$DIMSTYLE
  2
AM_JIS
  9
$DIMCLRD
 70
   256
  9
$DIMCLRE
 70
   256
  9
$DIMCLRT
 70
     4
  9
$DIMTFAC
 40
0.71
  9
$DIMGAP
 40
1.0
  9
$LUNITS
 70
     2
  9
$LUPREC
 70
     2
  9
$SKETCHINC
 40
1.0
  9
$FILLETRAD
 40
7.5
  9
$AUNITS
 70
     0
  9
$AUPREC
 70
     3
  9
$MENU
  1
.
  9
$ELEVATION
 40
0.0
  9
$PELEVATION
 40
0.0
  9
$THICKNESS
 40
0.0
  9
$LIMCHECK
 70
     0
  9
$BLIPMODE
 70
     0
  9
$CHAMFERA
 40
7.5
  9
$CHAMFERB
 40
7.5
  9
$SKPOLY
 70
     0
  9
$TDCREATE
 40
2452753.643349607
  9
$TDUPDATE
 40
2458543.4536861922
  9
$TDINDWG
 40
0.4188025
  9
$TDUSRTIMER
 40
0.4188023032
  9
$USRTIMER
 70
     1
  9
$ANGBASE
 50
0.0
  9
$ANGDIR
 70
     0
  9
$PDMODE
 70
     0
  9
$PDSIZE
 40
0.0
  9
$PLINEWID
 40
0.0
  9
$COORDS
 70
     1
  9
$SPLFRAME
 70
     0
  9
$SPLINETYPE
 70
     6
  9
$SPLINESEGS
 70
     8
  9
$ATTDIA
 70
     1
  9
$ATTREQ
 70
     1
  9
$HANDLING
 70
     1
  9
$HANDSEED
  5
17028
  9
$SURFTAB1
 70
     6
  9
$SURFTAB2
 70
     6
  9
$SURFTYPE
 70
     6
  9
$SURFU
 70
     6
  9
$SURFV
 70
     6
  9
$UCSNAME
  2

  9
$UCSORG
 10
0.0
 20
0.0
 30
0.0
  9
$UCSXDIR
 10
1.0
 20
0.0
 30
0.0
  9
$UCSYDIR
 10
0.0
 20
1.0
 30
0.0
  9
$PUCSNAME
  2

  9
$PUCSORG
 10
0.0
 20
0.0
 30
0.0
  9
$PUCSXDIR
 10
1.0
 20
0.0
 30
0.0
  9
$PUCSYDIR
 10
0.0
 20
1.0
 30
0.0
  9
$USERI1
 70
     0
  9
$USERI2
 70
     0
  9
$USERI3
 70
     0
  9
$USERI4
 70
     0
  9
$USERI5
 70
     0
  9
$USERR1
 40
0.0
  9
$USERR2
 40
0.0
  9
$USERR3
 40
0.0
  9
$USERR4
 40
0.0
  9
$USERR5
 40
0.0
  9
$WORLDVIEW
 70
     1
  9
$SHADEDGE
 70
     3
  9
$SHADEDIF
 70
    70
  9
$TILEMODE
 70
     1
  9
$MAXACTVP
 70
    48
  9
$PLIMCHECK
 70
     0
  9
$PEXTMIN
 10
1.0000000000000000E+020
 20
1.0000000000000000E+020
 30
1.0000000000000000E+020
  9
$PEXTMAX
 10
-1.0000000000000000E+020
 20
-1.0000000000000000E+020
 30
-1.0000000000000000E+020
  9
$PLIMMIN
 10
0.0
 20
0.0
  9
$PLIMMAX
 10
420.0
 20
297.0
  9
$UNITMODE
 70
     0
  9
$VISRETAIN
 70
     1
  9
$PLINEGEN
 70
     0
  9
$PSLTSCALE
 70
     1
  0
ENDSEC
  0
SECTION
  2
TABLES
  0
TABLE
  2
VPORT
 70
     1
  0
VPORT
  2
*ACTIVE
 70
     0
 10
0.0
 20
0.0
 11
1.0
 21
1.0
 12
211.30650196509049
 22
412.93134340223179
 13
0.0
 23
0.0
 14
7.5
 24
7.5
 15
30.0
 25
30.0
 16
0.0
 26
0.0
 36
1.0
 17
0.0
 27
0.0
 37
0.0
 40
461.22812348441761
 41
1.7571592210767459
 42
50.0
 43
0.0
 44
0.0
 50
0.0
 51
0.0
 71
    16
 72
   100
 73
     1
 74
     1
 75
     0
 76
     0
 77
     0
 78
     0
  0
ENDTAB
  0
TABLE
  2
LTYPE
 70
    21
  0
LTYPE
  2
CONTINUOUS
 70
     0
  3
Solid line
 72
    65
 73
     0
 40
0.0
  0
LTYPE
  2
PHANTOM2
 70
     0
  3
Phantom (.5x) ___ _ _ ___ _ _ ___ _ _ ___ _ _
 72
    65
 73
     6
 40
31.75
 49
15.875
 49
-3.174999999999998
 49
3.174999999999998
 49
-3.174999999999998
 49
3.174999999999998
 49
-3.174999999999998
  0
LTYPE
  2
CENTER
 70
     0
  3
Center ____ _ ____ _ ____ _ ____ _ ____ _ ____
 72
    65
 73
     4
 40
50.799999999999997
 49
31.75
 49
-6.3499999999999979
 49
6.3499999999999979
 49
-6.3499999999999979
  0
LTYPE
  2
ACANSTGBM
 70
     0
  3
__ . . __ . .
 72
    65
 73
     6
 40
9.0
 49
4.0
 49
-1.0
 49
1.0
 49
-1.0
 49
1.0
 49
-1.0
  0
LTYPE
  2
ACANSTGLM
 70
     0
  3
_ _ _ _ _
 72
    65
 73
     2
 40
3.0
 49
2.0
 49
-1.0
  0
LTYPE
  2
GEN3B
 70
     0
  3
 - - - - -
 72
    65
 73
     2
 40
1.0
 49
0.5
 49
-0.5
  0
LTYPE
  2
GEN7A
 70
     0
  3
__ . __ . __
 72
    65
 73
     4
 40
7.375
 49
4.75
 49
-0.875
 49
0.875
 49
-0.875
  0
LTYPE
  2
AM_ISO02W050
 70
     0
  3
__ __ __ __ __ __ __ __ __ __ __ __ __ __ __
 72
    65
 73
     2
 40
7.5
 49
6.0
 49
-1.5
  0
LTYPE
  2
AM_ISO08W050
 70
     0
  3
____ . ____ . ____ . ____ . ____ . ____ . ____
 72
    65
 73
     4
 40
18.0
 49
12.0
 49
-1.5
 49
3.0
 49
-1.5
  0
LTYPE
  2
AM_ISO09W050
 70
     0
  3
_____ . . _____ . . _____ . . ____ .. ____
 72
    65
 73
     6
 40
22.5
 49
12.0
 49
-1.5
 49
3.0
 49
-1.5
 49
3.0
 49
-1.5
  0
LTYPE
  2
AMCONSTR
 70
     0
  3
_______________________
 72
    65
 73
     2
 40
9999.0
 49
9999.0
 49
0.0
  0
LTYPE
  2
AM_ISO02W050X2
 70
     0
  3
 _ _ _ _ _ _ _ _ _ _ _ _
 72
    65
 73
     2
 40
3.75
 49
3.0
 49
-0.75
  0
LTYPE
  2
AM_ISO08W050X2
 70
     0
  3
__ . __ . __ . __ . __ . __
 72
    65
 73
     4
 40
9.0
 49
6.0
 49
-0.75
 49
1.5
 49
-0.75
  0
LTYPE
  2
AMZIGZAG
 70
     0
  3
/\/-/\/-/\/-/\/-/\/-/\/
 72
    65
 73
     2
 40
11.0001
 49
0.0001
 49
-11.0
  0
LTYPE
  2
ACJISTGB
 70
     0
  3
__ . . __ . .
 72
    65
 73
     6
 40
9.0
 49
4.0
 49
-1.0
 49
1.0
 49
-1.0
 49
1.0
 49
-1.0
  0
LTYPE
  2
ACJISTGL
 70
     0
  3
_ _ _ _ _
 72
    65
 73
     2
 40
3.0
 49
2.0
 49
-1.0
  0
LTYPE
  2
ACISOWELD
 70
     0
  3
_ _ _ _ _
 72
    65
 73
     2
 40
2.0
 49
2.0
 49
-1.0
  0
LTYPE
  2
ACISOTGB
 70
     0
  3
__ . . __ . .
 72
    65
 73
     6
 40
9.0
 49
4.0
 49
-1.0
 49
1.0
 49
-1.0
 49
1.0
 49
-1.0
  0
LTYPE
  2
ACISOTGL
 70
     0
  3
_ _ _ _ _
 72
    65
 73
     2
 40
3.0
 49
2.0
 49
-1.0
  0
LTYPE
  2
HIDDEN
 70
     0
  3
Hidden __ __ __ __ __ __ __ __ __ __ __ __ __ _
 72
    65
 73
     2
 40
9.5249999999999968
 49
6.3499999999999979
 49
-3.174999999999998
  0
ENDTAB
  0
TABLE
  2
LAYER
 70
     9
  0
LAYER
  2
0
 70
     0
 62
     7
  6
CONTINUOUS
  0
LAYER
  2
ｽﾝﾎﾟｳｾﾝ
 70
     0
 62
     2
  6
CONTINUOUS
  0
LAYER
  2
DEFPOINTS
 70
     0
 62
     7
  6
CONTINUOUS
  0
LAYER
  2
ｶｸﾚｾﾝ2
 70
     0
 62
     3
  6
GEN3B
  0
LAYER
  2
ﾁｭｳｼﾝｾﾝ1
 70
     0
 62
     1
  6
GEN7A
  0
LAYER
  2
AM_0
 70
     0
 62
     7
  6
CONTINUOUS
  0
LAYER
  2
AM_0N
 70
     0
 62
     7
  6
CONTINUOUS
  0
LAYER
  2
AM_5
 70
     0
 62
     2
  6
CONTINUOUS
  0
LAYER
  2
AM_4N
 70
     0
 62
     2
  6
CONTINUOUS
  0
ENDTAB
  0
TABLE
  2
STYLE
 70
     8
  0
STYLE
  2
STANDARD
 70
     0
 40
0.0
 41
0.8299999999999999
 50
0.0
 71
     0
 42
2.5
  3
txt.shx
  4
bigfont.shx
  0
STYLE
  2
ACANSTS
 70
     0
 40
1.0
 41
1.0
 50
0.0
 71
     0
 42
2.5
  3
romans.shx
  4
bigfont.shx
  0
STYLE
  2
ACANSGDT
 70
     0
 40
0.0
 41
1.0
 50
0.0
 71
     0
 42
2.5
  3
amgdtans.shx
  4

  0
STYLE
  2

 70
     1
 40
0.0
 41
1.0
 50
0.0
 71
     0
 42
2.5
  3
ltypeshp.shx
  4

  0
STYLE
  2
ACJISTS
 70
     0
 40
1.0
 41
1.0
 50
0.0
 71
     0
 42
2.5
  3
isocp.shx
  4
bigfont.shx
  0
STYLE
  2
ACJISGDT
 70
     0
 40
0.0
 41
1.0
 50
0.0
 71
     0
 42
2.5
  3
amgdt.shx
  4

  0
STYLE
  2
ACISOTS
 70
     0
 40
3.0
 41
1.0
 50
0.0
 71
     0
 42
2.5
  3
isocp.shx
  4
extfont.shx
  0
STYLE
  2
ACISOGDT
 70
     0
 40
0.0
 41
1.0
 50
0.0
 71
     0
 42
2.5
  3
amgdt.shx
  4

  0
ENDTAB
  0
TABLE
  2
VIEW
 70
    12
  0
VIEW
  2
GEN1
 70
     0
 40
95.824742268041234
 10
71.5
 20
137.08762886597941
 41
143.0
 11
0.0
 21
0.0
 31
1.0
 12
0.0
 22
0.0
 32
0.0
 42
50.0
 43
0.0
 44
0.0
 50
0.0
 71
     0
  0
VIEW
  2
GEN2
 70
     0
 40
95.824742268041234
 10
214.5
 20
137.08762886597941
 41
143.0
 11
0.0
 21
0.0
 31
1.0
 12
0.0
 22
0.0
 32
0.0
 42
50.0
 43
0.0
 44
0.0
 50
0.0
 71
     0
  0
VIEW
  2
GEN3
 70
     0
 40
95.824742268041234
 10
71.5
 20
47.912371134020603
 41
143.0
 11
0.0
 21
0.0
 31
1.0
 12
0.0
 22
0.0
 32
0.0
 42
50.0
 43
0.0
 44
0.0
 50
0.0
 71
     0
  0
VIEW
  2
GEN4
 70
     0
 40
95.824742268041234
 10
214.5
 20
47.912371134020603
 41
143.0
 11
0.0
 21
0.0
 31
1.0
 12
0.0
 22
0.0
 32
0.0
 42
50.0
 43
0.0
 44
0.0
 50
0.0
 71
     0
  0
VIEW
  2
GEN5
 70
     0
 40
95.824742268041234
 10
143.0
 20
92.500000000000057
 41
143.0
 11
0.0
 21
0.0
 31
1.0
 12
0.0
 22
0.0
 32
0.0
 42
50.0
 43
0.0
 44
0.0
 50
0.0
 71
     0
  0
VIEW
  2
GEN6
 70
     0
 40
191.64756804123709
 10
143.0
 20
92.5
 41
285.99714
 11
0.0
 21
0.0
 31
1.0
 12
0.0
 22
0.0
 32
0.0
 42
50.0
 43
0.0
 44
0.0
 50
0.0
 71
     0
  0
VIEW
  2
AM_VIEW1
 70
     0
 40
277.50000000000011
 10
249.64779005524869
 20
416.25000000000011
 41
499.29558011049721
 11
0.0
 21
0.0
 31
1.0
 12
0.0
 22
0.0
 32
0.0
 42
50.0
 43
0.0
 44
0.0
 50
0.0
 71
    16
  0
VIEW
  2
AM_VIEW2
 70
     0
 40
277.50000000000011
 10
603.85220994475117
 20
416.25000000000011
 41
499.29558011049721
 11
0.0
 21
0.0
 31
1.0
 12
0.0
 22
0.0
 32
0.0
 42
50.0
 43
0.0
 44
0.0
 50
0.0
 71
    16
  0
VIEW
  2
AM_VIEW3
 70
     0
 40
277.50000000000011
 10
249.64779005524869
 20
138.75
 41
499.29558011049721
 11
0.0
 21
0.0
 31
1.0
 12
0.0
 22
0.0
 32
0.0
 42
50.0
 43
0.0
 44
0.0
 50
0.0
 71
    16
  0
VIEW
  2
AM_VIEW4
 70
     0
 40
277.50000000000011
 10
603.85220994475117
 20
138.75
 41
499.29558011049721
 11
0.0
 21
0.0
 31
1.0
 12
0.0
 22
0.0
 32
0.0
 42
50.0
 43
0.0
 44
0.0
 50
0.0
 71
    16
  0
VIEW
  2
AM_VIEW5
 70
     0
 40
277.50000000000011
 10
426.75
 20
277.50000000000011
 41
499.2955801104971
 11
0.0
 21
0.0
 31
1.0
 12
0.0
 22
0.0
 32
0.0
 42
50.0
 43
0.0
 44
0.0
 50
0.0
 71
    16
  0
VIEW
  2
AM_VIEW6
 70
     0
 40
554.99445000000014
 10
426.75
 20
277.5
 41
998.5811743093924
 11
0.0
 21
0.0
 31
1.0
 12
0.0
 22
0.0
 32
0.0
 42
50.0
 43
0.0
 44
0.0
 50
0.0
 71
    16
  0
ENDTAB
  0
TABLE
  2
UCS
 70
     0
  0
ENDTAB
  0
TABLE
  2
APPID
 70
    96
  0
APPID
  2
ACAD
 70
     0
  0
APPID
  2
MCAD_NO_VIS
 70
     0
  0
APPID
  2
ACAD_TEMP_GRAPHIC
 70
     0
  0
APPID
  2
AD_DRAW
 70
     0
  0
APPID
  2
DESIGNERASSEMBLIES
 70
     0
  0
APPID
  2
ASURF_PCURVE_APPNAME
 70
     0
  0
APPID
  2
GENIUS_GE3SECT_13
 70
     0
  0
APPID
  2
GENIUS_GENCFG_13
 70
     0
  0
APPID
  2
GENIUS_GE3CFG0_13
 70
     0
  0
APPID
  2
GENIUS_GENCFG0_13
 70
     0
  0
APPID
  2
GENIUS_GENCFG1_13
 70
     0
  0
APPID
  2
GENIUS_GENCFG2_13
 70
     0
  0
APPID
  2
GENIUS_GENCFG3_13
 70
     0
  0
APPID
  2
GENIUS_GENCFG4_13
 70
     0
  0
APPID
  2
GENIUS_GEVCFG0_13
 70
     0
  0
APPID
  2
GENIUS_GENOENT_13
 70
     0
  0
APPID
  2
GENIUS_GENREC_14
 70
     0
  0
APPID
  2
GENIUS_GENODEF_13
 70
     0
  0
APPID
  2
GENIUS_GENOBJ-N-REC_13
 70
     0
  0
APPID
  2
GENIUS_GENHINW_13
 70
     0
  0
APPID
  2
GENIUS_FIRSTVISTXT_14
 70
     0
  0
APPID
  2
GENIUS_GENOBJ-N-LEADER_13
 70
     0
  0
APPID
  2
GENIUS_GENOREF_13
 70
     0
  0
APPID
  2
GENIUS_GENOLIS_13
 70
     0
  0
APPID
  2
GEV_VCCNULL_SWITCH_OFF
 70
     0
  0
APPID
  2
GENIUS_GENDTOL_13
 70
     0
  0
APPID
  2
GENIUS_GEFCFG0_13
 70
     0
  0
APPID
  2
GENIUS_GENOBJ-N-TIT_13
 70
     0
  0
APPID
  2
GENIUS_GENTITLE_13
 70
     0
  0
APPID
  2
GENIUS_GENZVEED_13
 70
     0
  0
APPID
  2
GENIUS_GENOBJ-N-SDF_13
 70
     0
  0
APPID
  2
GENIUS_GENSCREG_13
 70
     0
  0
APPID
  2
GENIUS_DUMCFG0_13
 70
     0
  0
APPID
  2
GEVID936201362
 70
     0
  0
APPID
  2
GEVDC
 70
     0
  0
APPID
  2
GEVCON
 70
     0
  0
APPID
  2
VCC
 70
     0
  0
APPID
  2
GEVPT
 70
     0
  0
APPID
  2
GEVIT
 70
     0
  0
APPID
  2
GENBH
 70
     0
  0
APPID
  2
GEVMK
 70
     0
  0
APPID
  2
GENIUS_GENBH_13
 70
     0
  0
APPID
  2
GENIUS_GENOBJ-NBEHI-BHF_13
 70
     0
  0
APPID
  2
GENIUS_GENOBJ-NBEHI-BHB_13
 70
     0
  0
APPID
  2
GENIUS_GENOBJ-F-DESC_13
 70
     0
  0
APPID
  2
GENIUS_GEFDESC_14
 70
     0
  0
APPID
  2
GENIUS_GENOBJ-F-PART_13
 70
     0
  0
APPID
  2
GENIUS_GEFSTDP_13
 70
     0
  0
APPID
  2
GENIUS_GEFPARTINS_13
 70
     0
  0
APPID
  2
GENIUS_GENTRA_14
 70
     0
  0
APPID
  2
GENIUS_GENINF13_13
 70
     0
  0
APPID
  2
GENIUS_GENOBJ-N-INFOPT_13
 70
     0
  0
APPID
  2
GENIUS_GENOBJ-N-RSSYM_13
 70
     0
  0
APPID
  2
GENIUS_GENSYMENT_13
 70
     0
  0
APPID
  2
GENIUS_GENSCSYM_13
 70
     0
  0
APPID
  2
GENIUS_GEFINFNAM_13
 70
     0
  0
APPID
  2
GENIUS_GENSCREG_15
 70
     0
  0
APPID
  2
GENIUS_GENOBJ-N-CEN_13
 70
     0
  0
APPID
  2
GENIUS_GENOBJ-N-CRS_13
 70
     0
  0
APPID
  2
GENIUS_GENOBJ-N-CRC_13
 70
     0
  0
APPID
  2
GENIUS_GENCRC_14
 70
     0
  0
APPID
  2
GEVID942827039
 70
     0
  0
APPID
  2
GEVID942827040
 70
     0
  0
APPID
  2
GEVID942827041
 70
     0
  0
APPID
  2
GENIUS_GENOBJ-F-SCPASSM_13
 70
     0
  0
APPID
  2
GENIUS_GENDIMSH_14
 70
     0
  0
APPID
  2
GENIUS_GENFIL_13
 70
     0
  0
APPID
  2
GENIUS_GENOBJ-N-CHA_13
 70
     0
  0
APPID
  2
GENIUS_GENOBJ-N-FIL_13
 70
     0
  0
APPID
  2
GEVID942827042
 70
     0
  0
APPID
  2
GEVID946020473
 70
     0
  0
APPID
  2
GEVID946020474
 70
     0
  0
APPID
  2
GEVID946020475
 70
     0
  0
APPID
  2
GENIUS_GENOBJ-N-HTC_13
 70
     0
  0
APPID
  2
GENIUS_GENHATCH_13
 70
     0
  0
APPID
  2
GEVID948854295
 70
     0
  0
APPID
  2
GEVID939402019
 70
     0
  0
APPID
  2
GEVID952919491
 70
     0
  0
APPID
  2
GEVID952919492
 70
     0
  0
APPID
  2
GENIUS_GEFWELD_13
 70
     0
  0
APPID
  2
GENIUS_GENOBJ-F-WELS_13
 70
     0
  0
APPID
  2
GEVID952919493
 70
     0
  0
APPID
  2
GENIUS_GENOBJ-N-RSBK_13
 70
     0
  0
APPID
  2
GENIUS_GENOBJ-N-LIB_13
 70
     0
  0
APPID
  2
GENIUS_GENSCALE_13
 70
     0
  0
APPID
  2
GEVID986376691
 70
     0
  0
APPID
  2
ACATTRIBSERVICES
 70
     0
  0
APPID
  2
DCO15
 70
     0
  0
APPID
  2
ACADM_DIM_EDIT
 70
     0
  0
APPID
  2
AMDT_DM_ADJ
 70
     0
  0
APPID
  2
ACAD_MLEADERVER
 70
     0
  0
APPID
  2
ACAD_DSTYLE_DIMBREAK
 70
     0
  0
APPID
  2
ACAD_DSTYLE_DIMJAG
 70
     0
  0
APPID
  2
ACAD_NAV_VCDISPLAY
 70
     0
  0
APPID
  2
ACADANNOPO
 70
     0
  0
APPID
  2
ACAD_EXEMPT_FROM_CAD_STANDARDS
 70
     0
  0
ENDTAB
  0
TABLE
  2
DIMSTYLE
 70
    16
  0
DIMSTYLE
  2
STANDARD
 70
     0
  3

  4

  5

  6

  7

 40
1.0
 41
0.18
 42
0.0625
 43
0.38
 44
0.18
 45
0.0
 46
0.0
 47
0.0
 48
0.0
140
0.18
141
0.09
142
0.0
143
25.399999999999999
144
1.0
145
0.0
146
1.0
147
0.09
 71
     0
 72
     0
 73
     1
 74
     1
 75
     0
 76
     0
 77
     0
 78
     0
170
     0
171
     2
172
     0
173
     0
174
     0
175
     0
176
     0
177
     0
178
     0
  0
DIMSTYLE
  2
AM_JIS
 70
     0
  3

  4
"
  5

  6

  7

 40
1.0
 41
2.5
 42
1.0
 43
7.0
 44
1.0
 45
0.0
 46
0.0
 47
0.1
 48
0.1000000001
140
2.5
141
0.0
142
0.0
143
0.0393701
144
1.0
145
0.0
146
0.71
147
1.0
 71
     0
 72
     0
 73
     0
 74
     0
 75
     0
 76
     0
 77
     3
 78
     8
170
     0
171
     2
172
     1
173
     0
174
     0
175
     0
176
   256
177
   256
178
     4
  0
DIMSTYLE
  2
AM_JIS$3
 70
     0
  3

  4
"
  5

  6

  7

 40
1.0
 41
2.5
 42
1.0
 43
7.0
 44
1.0
 45
0.0
 46
0.0
 47
0.1
 48
0.1000000001
140
2.5
141
0.0
142
0.0
143
0.0393701
144
1.0
145
0.0
146
0.71
147
1.0
 71
     0
 72
     0
 73
     0
 74
     1
 75
     0
 76
     0
 77
     3
 78
     8
170
     0
171
     2
172
     0
173
     0
174
     0
175
     0
176
   256
177
   256
178
     4
  0
DIMSTYLE
  2
AM_JIS$4
 70
     0
  3

  4
"
  5

  6

  7

 40
1.0
 41
2.5
 42
1.0
 43
7.0
 44
1.0
 45
0.0
 46
0.0
 47
0.1
 48
0.1000000001
140
2.5
141
0.0
142
0.0
143
0.0393701
144
1.0
145
0.0
146
0.71
147
1.0
 71
     0
 72
     0
 73
     0
 74
     0
 75
     0
 76
     0
 77
     3
 78
     8
170
     0
171
     2
172
     0
173
     0
174
     0
175
     0
176
   256
177
   256
178
     4
  0
DIMSTYLE
  2
AM_JIS$6
 70
     0
  3

  4
"
  5

  6

  7

 40
1.0
 41
2.5
 42
1.0
 43
7.0
 44
1.0
 45
0.0
 46
0.0
 47
0.1
 48
0.1000000001
140
2.5
141
0.0
142
0.0
143
0.0393701
144
1.0
145
0.0
146
0.71
147
1.0
 71
     0
 72
     0
 73
     0
 74
     0
 75
     0
 76
     0
 77
     0
 78
     8
170
     0
171
     2
172
     1
173
     0
174
     0
175
     0
176
   256
177
   256
178
     4
  0
DIMSTYLE
  2
AM_JIS$7
 70
     0
  3

  4
"
  5

  6

  7

 40
1.0
 41
2.5
 42
1.0
 43
7.0
 44
1.0
 45
0.0
 46
0.0
 47
0.1
 48
0.1000000001
140
2.5
141
0.0
142
0.0
143
0.0393701
144
1.0
145
0.0
146
0.71
147
1.0
 71
     0
 72
     0
 73
     0
 74
     0
 75
     0
 76
     0
 77
     3
 78
     8
170
     0
171
     2
172
     1
173
     0
174
     0
175
     0
176
   256
177
   256
178
     4
  0
DIMSTYLE
  2
AM_JIS$SF
 70
     0
  3

  4
"
  5
OPEN30
  6
OPEN30
  7
OPEN30
 40
1.0
 41
2.5
 42
1.0
 43
10.0
 44
1.0
 45
0.0
 46
0.0
 47
0.1
 48
0.1
140
3.5
141
0.0
142
0.0
143
0.0393701
144
1.0
145
0.0
146
0.71
147
1.5
 71
     0
 72
     0
 73
     0
 74
     0
 75
     1
 76
     1
 77
     3
 78
     8
170
     0
171
     2
172
     1
173
     0
174
     0
175
     0
176
   256
177
   256
178
     4
  0
DIMSTYLE
  2
AM_JIS$SH
 70
     0
  3

  4
"
  5

  6
NONE
  7

 40
1.0
 41
2.5
 42
1.0
 43
10.0
 44
1.0
 45
0.0
 46
0.0
 47
0.1
 48
0.1
140
3.5
141
0.0
142
0.0
143
0.0393701
144
1.0
145
0.0
146
0.71
147
1.5
 71
     0
 72
     0
 73
     0
 74
     0
 75
     1
 76
     0
 77
     3
 78
     8
170
     0
171
     2
172
     1
173
     1
174
     0
175
     0
176
   256
177
   256
178
     4
  0
DIMSTYLE
  2
AM_ISO
 70
     0
  3

  4
"
  5

  6

  7

 40
1.0
 41
2.5
 42
1.0
 43
10.0
 44
1.0
 45
0.0
 46
0.0
 47
0.0
 48
0.000000001
140
3.0
141
0.0
142
0.0
143
0.0393701
144
1.0
145
0.0
146
0.71
147
1.299999999999998
 71
     1
 72
     0
 73
     0
 74
     0
 75
     0
 76
     0
 77
     1
 78
     8
170
     0
171
     2
172
     1
173
     0
174
     0
175
     0
176
   256
177
   256
178
     4
  0
DIMSTYLE
  2
AM_ISO$3
 70
     0
  3

  4
"
  5

  6

  7

 40
1.0
 41
2.5
 42
1.0
 43
10.0
 44
1.0
 45
0.0
 46
0.0
 47
0.0
 48
0.000000001
140
2.5
141
0.0
142
0.0
143
0.0393701
144
1.0
145
0.0
146
0.71
147
1.299999999999998
 71
     1
 72
     0
 73
     0
 74
     1
 75
     0
 76
     0
 77
     1
 78
     8
170
     0
171
     2
172
     0
173
     0
174
     0
175
     0
176
   256
177
   256
178
     4
  0
DIMSTYLE
  2
AM_ISO$4
 70
     0
  3

  4
"
  5

  6

  7

 40
1.0
 41
2.5
 42
1.0
 43
10.0
 44
1.0
 45
0.0
 46
0.0
 47
0.0
 48
0.000000001
140
2.5
141
0.0
142
0.0
143
0.0393701
144
1.0
145
0.0
146
0.71
147
1.299999999999998
 71
     1
 72
     0
 73
     0
 74
     1
 75
     0
 76
     0
 77
     1
 78
     8
170
     0
171
     2
172
     0
173
     0
174
     0
175
     0
176
   256
177
   256
178
     4
  0
DIMSTYLE
  2
AM_ISO$6
 70
     0
  3

  4
"
  5

  6

  7

 40
1.0
 41
2.5
 42
1.0
 43
10.0
 44
1.0
 45
0.0
 46
0.0
 47
0.0
 48
0.000000001
140
2.5
141
0.0
142
0.0
143
0.0393701
144
1.0
145
0.0
146
0.71
147
1.299999999999998
 71
     1
 72
     0
 73
     0
 74
     0
 75
     0
 76
     0
 77
     0
 78
     8
170
     0
171
     2
172
     1
173
     0
174
     0
175
     0
176
   256
177
   256
178
     4
  0
DIMSTYLE
  2
AM_ISO$7
 70
     0
  3

  4
"
  5

  6

  7

 40
1.0
 41
2.5
 42
1.0
 43
10.0
 44
1.0
 45
0.0
 46
0.0
 47
0.0
 48
0.000000001
140
2.5
141
0.0
142
0.0
143
0.0393701
144
1.0
145
0.0
146
0.71
147
1.299999999999998
 71
     1
 72
     0
 73
     0
 74
     0
 75
     0
 76
     0
 77
     1
 78
     8
170
     0
171
     2
172
     1
173
     0
174
     0
175
     0
176
   256
177
   256
178
     4
  0
DIMSTYLE
  2
AM_ISO$SF
 70
     0
  3

  4
"
  5

  6

  7

 40
1.0
 41
2.5
 42
1.0
 43
10.0
 44
1.0
 45
0.0
 46
0.0
 47
0.1
 48
0.1
140
3.5
141
0.0
142
0.0
143
0.0393701
144
1.0
145
0.0
146
0.71
147
1.5
 71
     0
 72
     0
 73
     0
 74
     0
 75
     1
 76
     1
 77
     1
 78
     8
170
     0
171
     2
172
     1
173
     0
174
     0
175
     0
176
   256
177
   256
178
     4
  0
DIMSTYLE
  2
AM_ISO$SH
 70
     0
  3

  4
"
  5

  6
GENAXEH
  7

 40
1.0
 41
2.5
 42
1.0
 43
10.0
 44
1.0
 45
0.0
 46
0.0
 47
0.1
 48
0.1
140
3.5
141
0.0
142
0.0
143
0.0393701
144
2.0
145
0.0
146
0.71
147
1.5
 71
     0
 72
     0
 73
     0
 74
     0
 75
     1
 76
     1
 77
     1
 78
     8
170
     0
171
     2
172
     1
173
     1
174
     0
175
     0
176
   256
177
   256
178
     4
  0
DIMSTYLE
  2
AM_JIS$0
 70
     0
  3

  4
"
  5

  6

  7

 40
1.0
 41
2.5
 42
1.0
 43
7.0
 44
1.0
 45
0.0
 46
0.0
 47
0.1
 48
0.1000000001
140
2.5
141
0.0
142
0.0
143
0.0393701
144
1.0
145
0.0
146
0.71
147
1.0
 71
     0
 72
     0
 73
     0
 74
     0
 75
     0
 76
     0
 77
     3
 78
     8
170
     0
171
     2
172
     1
173
     0
174
     0
175
     0
176
   256
177
   256
178
     4
  0
ENDTAB
  0
ENDSEC
  0
SECTION
  2
BLOCKS
  0
BLOCK
  8
0
  2
$MODEL_SPACE
 70
     0
 10
0.0
 20
0.0
 30
0.0
  3
$MODEL_SPACE
  1

  0
ENDBLK
  5
1A
  8
0
  0
BLOCK
 67
     1
  8
0
  2
$PAPER_SPACE
 70
     0
 10
0.0
 20
0.0
 30
0.0
  3
$PAPER_SPACE
  1

  0
ENDBLK
  5
17
 67
     1
  8
0
  0
BLOCK
  8
0
  2
_OPEN30
 70
     0
 10
0.0
 20
0.0
 30
0.0
  3
_OPEN30
  1

  0
LINE
  5
21C5
  8
0
 62
     0
 10
-1.0
 20
0.26794919
 30
0.0
 11
0.0
 21
0.0
 31
0.0
  0
LINE
  5
21C6
  8
0
 62
     0
 10
0.0
 20
0.0
 30
0.0
 11
-1.0
 21
-0.26794919
 31
0.0
  0
LINE
  5
21C7
  8
0
 62
     0
 10
0.0
 20
0.0
 30
0.0
 11
-1.0
 21
0.0
 31
0.0
  0
ENDBLK
  5
21C9
  8
0
  0
BLOCK
  8
0
  2
GENAXEH
 70
     0
 10
0.0
 20
0.0
 30
0.0
  3
GENAXEH
  1

  0
LINE
  5
21D0
  8
0
 10
-1.0
 20
0.0
 30
0.0
 11
1.0
 21
0.0
 31
0.0
  0
ENDBLK
  5
21D2
  8
0
  0
BLOCK
  8
0
  2
_NONE
 70
     0
 10
0.0
 20
0.0
 30
0.0
  3
_NONE
  1

  0
ENDBLK
  5
8193
  8
0
  0
BLOCK
  8
0
  2
*U5
 70
     1
 10
0.0
 20
0.0
 30
0.0
  3
*U5
  1

  0
SOLID
  5
16DC3
  8
AM_0
  6
CONTINUOUS
 10
-106.7118411680861
 20
499.95345877019753
 30
0.0
 11
-109.2118411680861
 21
499.95345877019753
 31
0.0
 12
-106.7118411680861
 22
497.45345877019759
 32
0.0
 13
-106.7118411680861
 23
497.45345877019759
 33
0.0
210
0.0
220
0.0
230
-1.0
  0
LINE
  5
16DC4
  8
AM_0
  6
CONTINUOUS
 10
109.2118411680861
 20
499.95345877019753
 30
0.0
 11
106.7118411680861
 21
497.45345877019759
 31
0.0
  0
LINE
  5
16DC5
  8
AM_0
  6
CONTINUOUS
 10
106.7118411680861
 20
497.45345877019759
 30
0.0
 11
106.7118411680861
 21
499.95345877019753
 31
0.0
  0
ENDBLK
  5
16DC7
  8
0
  0
BLOCK
  8
0
  2
*U6
 70
     1
 10
0.0
 20
0.0
 30
0.0
  3
*U6
  1

  0
SOLID
  5
16DC9
  8
AM_0
  6
CONTINUOUS
 10
-99.711841168086565
 20
499.95345877019753
 30
0.0
 11
-102.21184116808649
 21
499.95345877019753
 31
0.0
 12
-102.21184116808649
 22
497.45345877019759
 32
0.0
 13
-102.21184116808649
 23
497.45345877019759
 33
0.0
210
0.0
220
0.0
230
-1.0
  0
LINE
  5
16DCA
  8
AM_0
  6
CONTINUOUS
 10
102.21184116808649
 20
499.95345877019753
 30
0.0
 11
102.21184116808649
 21
497.45345877019759
 31
0.0
  0
LINE
  5
16DCB
  8
AM_0
  6
CONTINUOUS
 10
102.21184116808649
 20
497.45345877019759
 30
0.0
 11
99.711841168086565
 21
499.95345877019753
 31
0.0
  0
ENDBLK
  5
16DCD
  8
0
  0
BLOCK
  8
0
  2
*U7
 70
     1
 10
0.0
 20
0.0
 30
0.0
  3
*U7
  1

  0
SOLID
  5
16DCF
  8
AM_0
  6
CONTINUOUS
 10
-151.2118677219581
 20
601.4534765106373
 30
0.0
 11
-153.7118677219581
 21
598.95347651063719
 31
0.0
 12
-151.2118677219581
 22
598.95347651063719
 32
0.0
 13
-151.2118677219581
 23
598.95347651063719
 33
0.0
210
0.0
220
0.0
230
-1.0
  0
LINE
  5
16DD0
  8
AM_0
  6
CONTINUOUS
 10
151.2118677219581
 20
601.4534765106373
 30
0.0
 11
153.7118677219581
 21
598.95347651063719
 31
0.0
  0
LINE
  5
16DD1
  8
AM_0
  6
CONTINUOUS
 10
151.2118677219581
 20
598.95347651063719
 30
0.0
 11
151.2118677219581
 21
601.4534765106373
 31
0.0
  0
ENDBLK
  5
16DD3
  8
0
  0
BLOCK
  8
0
  2
*U8
 70
     1
 10
0.0
 20
0.0
 30
0.0
  3
*U8
  1

  0
SOLID
  5
16DD5
  8
AM_0
  6
CONTINUOUS
 10
-146.7118677219585
 20
601.4534765106373
 30
0.0
 11
-146.7118677219585
 21
598.95347651063719
 31
0.0
 12
-144.2118677219585
 22
598.95347651063719
 32
0.0
 13
-144.2118677219585
 23
598.95347651063719
 33
0.0
210
0.0
220
0.0
230
-1.0
  0
LINE
  5
16DD6
  8
AM_0
  6
CONTINUOUS
 10
146.7118677219585
 20
601.4534765106373
 30
0.0
 11
146.7118677219585
 21
598.95347651063719
 31
0.0
  0
LINE
  5
16DD7
  8
AM_0
  6
CONTINUOUS
 10
144.2118677219585
 20
598.95347651063719
 30
0.0
 11
146.7118677219585
 21
601.4534765106373
 31
0.0
  0
ENDBLK
  5
16DD9
  8
0
  0
BLOCK
  8
0
  2
*U9
 70
     1
 10
0.0
 20
0.0
 30
0.0
  3
*U9
  1

  0
SOLID
  5
16DDB
  8
AM_0
  6
CONTINUOUS
 10
-106.7118411680861
 20
601.4534765106373
 30
0.0
 11
-109.2118411680861
 21
598.95347651063719
 31
0.0
 12
-106.7118411680861
 22
598.95347651063719
 32
0.0
 13
-106.7118411680861
 23
598.95347651063719
 33
0.0
210
0.0
220
0.0
230
-1.0
  0
LINE
  5
16DDC
  8
AM_0
  6
CONTINUOUS
 10
106.7118411680861
 20
601.4534765106373
 30
0.0
 11
109.2118411680861
 21
598.95347651063719
 31
0.0
  0
LINE
  5
16DDD
  8
AM_0
  6
CONTINUOUS
 10
106.7118411680861
 20
598.95347651063719
 30
0.0
 11
106.7118411680861
 21
601.4534765106373
 31
0.0
  0
ENDBLK
  5
16DDF
  8
0
  0
BLOCK
  8
0
  2
*U10
 70
     1
 10
0.0
 20
0.0
 30
0.0
  3
*U10
  1

  0
SOLID
  5
16DE1
  8
AM_0
  6
CONTINUOUS
 10
-102.21184116808649
 20
601.4534765106373
 30
0.0
 11
-102.21184116808649
 21
598.95347651063719
 31
0.0
 12
-99.711841168086565
 22
598.95347651063719
 32
0.0
 13
-99.711841168086565
 23
598.95347651063719
 33
0.0
210
0.0
220
0.0
230
-1.0
  0
LINE
  5
16DE2
  8
AM_0
  6
CONTINUOUS
 10
102.21184116808649
 20
601.4534765106373
 30
0.0
 11
102.21184116808649
 21
598.95347651063719
 31
0.0
  0
LINE
  5
16DE3
  8
AM_0
  6
CONTINUOUS
 10
99.711841168086565
 20
598.95347651063719
 30
0.0
 11
102.21184116808649
 21
601.4534765106373
 31
0.0
  0
ENDBLK
  5
16DE5
  8
0
  0
ENDSEC
  0
SECTION
  2
ENTITIES
  0
POINT
  5
1B94
  8
0
 10
0.0
 20
0.0
 30
0.0
1001
GENIUS_GENODEF_13
1002
{
1000
HIER
1070
     1
1002
}
1002
{
1000
MANEDIT
1070
     0
1002
}
1002
{
1000
NOSEL
1070
     0
1002
}
1002
{
1000
BEHIND
1070
     0
1002
}
1002
{
1000
REACTOR
1002
}
1001
GENIUS_GENOBJ-N-SDF_13
1002
{
1000
OWNER
1000
GEN
1002
}
1001
GENIUS_GENOENT_13
1002
{
1000
MYREF
1005
1B94
1002
}
1002
{
1000
GRP
1005
0
1002
}
1001
GENIUS_GENOLIS_13
1002
{
1000
ENT
1005
89
1002
}
  0
LINE
  5
13825
  8
AM_0
 10
362.9221731407124
 20
263.92712921822363
 30
0.0
 11
362.9221731407124
 21
293.92712921822363
 31
0.0
  0
LINE
  5
13826
  8
AM_0
 10
377.92217137107872
 20
298.92692984743769
 30
0.0
 11
377.92217137107872
 21
258.92732865535669
 31
0.0
  0
LINE
  5
13827
  8
0
 10
322.9221731749858
 20
266.92712920295543
 30
0.0
 11
322.922173097871
 21
293.92712920295543
 31
0.0
  0
ARC
  5
13829
  8
AM_0
 10
430.92217295060158
 20
262.42712902551767
 30
0.0
 40
56.5
 50
334.30251193091419
 51
29.85860575792525
  0
LINE
  5
1382F
  8
AM_0
 10
405.92217199692732
 20
218.92712746325799
 30
0.0
 11
405.92217199692732
 21
338.92713103953662
 31
0.0
  0
LINE
  5
13830
  8
AM_0
 10
385.92217160949718
 20
338.5780099390239
 30
0.0
 11
385.92217160949718
 21
201.427624251412
 31
0.0
  0
LINE
  5
13831
  8
AM_0
 10
475.92217429170609
 20
201.427624251412
 30
0.0
 11
475.92217429170609
 21
337.70529040111501
 31
0.0
  0
LINE
  5
13832
  8
AM_0
 10
479.92217441091549
 20
241.42712813381021
 30
0.0
 11
479.92217441091549
 21
316.42713036898419
 31
0.0
  0
LINE
  5
13833
  8
AM_0
 10
381.92217149028801
 20
241.42712813381021
 30
0.0
 11
381.92217149028801
 21
316.42713036898419
 31
0.0
  0
LINE
  5
13835
  8
ﾁｭｳｼﾝｾﾝ1
 10
430.92217295060158
 20
343.07320480321908
 30
0.0
 11
430.92217295060158
 21
193.93545296642139
 31
0.0
  0
LINE
  5
13837
  8
0
 10
362.9221731407124
 20
263.92712921822363
 30
0.0
 11
377.92217137107872
 21
258.92732865535669
 31
0.0
  0
LINE
  5
13838
  8
AM_0
 10
370.90943161525598
 20
248.46557107942391
 30
0.0
 11
376.12819078118179
 21
248.64781416529041
 31
0.0
  0
LINE
  5
13839
  8
AM_0
 10
370.00245982448507
 20
256.39507154661919
 30
0.0
 11
374.76319322949081
 21
256.22882307277109
 31
0.0
  0
LINE
  5
1383A
  8
AM_0
 10
372.75586851874021
 20
238.46931494856179
 30
0.0
 11
379.6412188924815
 21
238.7097566818332
 31
0.0
  0
LINE
  5
1383B
  8
AM_0
 10
370.91891376762948
 20
246.39788166945141
 30
0.0
 11
376.80487810457868
 21
246.19233926560381
 31
0.0
  0
ARC
  5
1383C
  8
AM_0
 10
430.92217295060158
 20
262.42712902551767
 30
0.0
 40
56.5
 50
182.38324875974649
 51
205.69748806908581
  0
LINE
  5
1383D
  8
AM_0
 10
372.77220325306291
 20
236.40051829955809
 30
0.0
 11
373.33217160949772
 21
236.3809637736604
 31
0.0
  0
LINE
  5
1383E
  8
AM_0
 10
482.01217429170589
 20
235.9276227761969
 30
0.0
 11
490.01217429170578
 21
235.9276227761969
 31
0.0
  0
LINE
  5
1383F
  8
AM_0
 10
482.01217429170589
 20
222.9276227761971
 30
0.0
 11
490.01217429170578
 21
222.9276227761971
 31
0.0
  0
LINE
  5
13841
  8
AM_0
 10
505.9221742917054
 20
193.927624251412
 30
0.0
 11
483.42217429170569
 21
193.927624251412
 31
0.0
  0
LINE
  5
13842
  8
AM_0
 10
505.9221742917054
 20
198.427624251412
 30
0.0
 11
483.42217429170609
 21
198.427624251412
 31
0.0
  0
LINE
  5
13843
  8
AM_0
 10
500.92217295060158
 20
203.427624251412
 30
0.0
 11
485.42217429170609
 21
218.9276229103076
 31
0.0
  0
LINE
  5
13844
  8
ﾁｭｳｼﾝｾﾝ1
 10
373.1359385491611
 20
262.42712913972508
 30
0.0
 11
525.83255912586264
 21
262.42712881726618
 31
0.0
  0
LINE
  5
13845
  8
ﾁｭｳｼﾝｾﾝ1
 10
486.97500482339763
 20
278.9271292513971
 30
0.0
 11
318.91748426911852
 21
278.9271292513971
 31
0.0
  0
LINE
  5
13B02
  8
ﾁｭｳｼﾝｾﾝ1
 10
365.92217295060158
 20
208.427624251412
 30
0.0
 11
365.92217295060158
 21
183.92762425141211
 31
0.0
  0
ARC
  5
13B03
  8
AM_0
 10
378.4221716094977
 20
201.427624251412
 30
0.0
 40
7.5
 50
270.0
 51
0.0
1001
GENIUS_GENOBJ-N-FIL_13
1002
{
1000
OWNER
1000
GEN
1002
}
1001
GENIUS_GENODEF_13
1002
{
1000
HIER
1070
     0
1002
}
1002
{
1000
MANEDIT
1070
     0
1002
}
1002
{
1000
NOSEL
1070
     0
1002
}
1002
{
1000
BEHIND
1070
     0
1002
}
1002
{
1000
OTHER
1070
     0
1002
}
1002
{
1000
REACTOR
1002
}
  0
ARC
  5
13B05
  8
AM_0
 10
483.42217429170569
 20
201.427624251412
 30
0.0
 40
7.5
 50
180.0
 51
270.0
1001
GENIUS_GENOBJ-N-FIL_13
1002
{
1000
OWNER
1000
GEN
1002
}
1001
GENIUS_GENODEF_13
1002
{
1000
HIER
1070
     0
1002
}
1002
{
1000
MANEDIT
1070
     0
1002
}
1002
{
1000
NOSEL
1070
     0
1002
}
1002
{
1000
BEHIND
1070
     0
1002
}
1002
{
1000
OTHER
1070
     0
1002
}
1002
{
1000
REACTOR
1002
}
  0
ARC
  5
13B06
  8
AM_0
 10
430.92217295060158
 20
262.42712902551767
 30
0.0
 40
56.5
 50
234.98137173791841
 51
305.01862826208679
  0
LINE
  5
13B07
  8
AM_0
 10
405.92217199692732
 20
218.9271274632579
 30
0.0
 11
475.92217429170609
 21
220.1489958449331
 31
0.0
  0
LINE
  5
13B08
  8
AM_0
 10
381.4221716094973
 20
240.9276227761975
 30
0.0
 11
381.4221716094973
 21
201.427624251412
 31
0.0
  0
LINE
  5
13B09
  8
AM_0
 10
373.33217160949772
 20
236.92762277619701
 30
0.0
 11
373.33217160949772
 21
221.92762277619701
 31
0.0
  0
LINE
  5
13B0A
  8
AM_0
 10
379.83217160949749
 20
237.9276227761971
 30
0.0
 11
379.83217160949721
 21
220.9276227761969
 31
0.0
  0
ARC
  5
13B0B
  8
AM_0
 10
389.92217295060181
 20
221.4271290255177
 30
0.0
 40
5.0
 50
216.869872032632
 51
270.0
1001
GENIUS_GENODEF_13
1002
{
1000
HIER
1070
     0
1002
}
1002
{
1000
MANEDIT
1070
     0
1002
}
1002
{
1000
NOSEL
1070
     0
1002
}
1002
{
1000
BEHIND
1070
     0
1002
}
1002
{
1000
REACTOR
1002
}
1001
GENIUS_GENOBJ-N-FIL_13
1002
{
1000
OWNER
1000
GEN
1002
}
  0
LINE
  5
13B0C
  8
AM_0
 10
385.9221716094973
 20
219.27624856377051
 30
0.0
 11
405.92217199692732
 21
218.92712746325799
 31
0.0
  0
LINE
  5
13B0E
  8
AM_0
 10
360.92217295060181
 20
203.427624251412
 30
0.0
 11
376.42217160949741
 21
218.9276229103076
 31
0.0
  0
LINE
  5
13B0F
  8
AM_0
 10
355.92217160949809
 20
198.427624251412
 30
0.0
 11
378.42217160949718
 21
198.427624251412
 31
0.0
  0
LINE
  5
13B10
  8
AM_0
 10
355.92217160949832
 20
193.927624251412
 30
0.0
 11
378.4221716094977
 21
193.927624251412
 31
0.0
  0
LINE
  5
13B11
  8
AM_0
 10
355.92217160949809
 20
198.427624251412
 30
0.0
 11
355.92217160949809
 21
193.927624251412
 31
0.0
  0
LINE
  5
13B12
  8
AM_0
 10
360.92217295060181
 20
198.427624251412
 30
0.0
 11
360.92217295060181
 21
203.427624251412
 31
0.0
  0
LINE
  5
13B13
  8
ｶｸﾚｾﾝ2
 10
360.92217295060181
 20
193.92762425141211
 30
0.0
 11
360.92217295060181
 21
198.42762425141211
 31
0.0
  0
LINE
  5
13B14
  8
AM_0
 10
375.72116282382513
 20
198.427624251412
 30
0.0
 11
381.4221716094973
 21
204.1286330370842
 31
0.0
  0
ARC
  5
13B15
  8
AM_0
 10
378.42217160949718
 20
201.427624251412
 30
0.0
 40
3.0
 50
270.0
 51
0.0
1001
GENIUS_GENOBJ-N-FIL_13
1002
{
1000
OWNER
1000
GEN
1002
}
1001
GENIUS_GENODEF_13
1002
{
1000
HIER
1070
     0
1002
}
1002
{
1000
MANEDIT
1070
     0
1002
}
1002
{
1000
NOSEL
1070
     0
1002
}
1002
{
1000
BEHIND
1070
     0
1002
}
1002
{
1000
OTHER
1070
     0
1002
}
1002
{
1000
REACTOR
1002
}
  0
LINE
  5
13B16
  8
ｶｸﾚｾﾝ2
 10
370.92217295060181
 20
193.92762425141211
 30
0.0
 11
370.92217295060181
 21
198.42762425141211
 31
0.0
  0
LINE
  5
13B1B
  8
AM_0N
 10
372.77898637447402
 20
233.42762277619701
 30
0.0
 11
372.77898637447402
 21
225.42762277619701
 31
0.0
1001
GENIUS_GENOREF_13
1005
0
  0
LINE
  5
13B1C
  8
AM_0N
 10
372.77898637447402
 20
225.42762277619701
 30
0.0
 11
372.012173874474
 21
226.194435276197
 31
0.0
1001
GENIUS_GENOREF_13
1005
0
  0
LINE
  5
13B1D
  8
AM_0
 10
373.33217160949772
 20
221.92762277619701
 30
0.0
 11
379.83217160949749
 21
221.92762277619721
 31
0.0
  0
LINE
  5
13B1E
  8
AM_0
 10
373.33217160949772
 20
225.67762277619701
 30
0.0
 11
379.83217160949721
 21
225.67762277619701
 31
0.0
  0
LINE
  5
13B1F
  8
AM_0
 10
376.4221716094973
 20
218.9276229103076
 30
0.0
 11
381.4221716094973
 21
218.9276229103076
 31
0.0
  0
LINE
  5
13B20
  8
AM_0N
 10
373.33217160949772
 20
225.42762277619701
 30
0.0
 11
372.77898637447402
 21
225.42762277619701
 31
0.0
1001
GENIUS_GENOREF_13
1005
0
  0
LINE
  5
13B21
  8
AM_0
 10
379.83217160949721
 20
220.9276227761969
 30
0.0
 11
381.42217160949752
 21
220.9276227761969
 31
0.0
  0
LINE
  5
13B22
  8
AM_0
 10
373.33217160949772
 20
233.17762277619701
 30
0.0
 11
379.83217160949749
 21
233.1776227761969
 31
0.0
  0
LINE
  5
13B23
  8
AM_0N
 10
372.012173874474
 20
232.660810276197
 30
0.0
 11
372.012173874474
 21
226.194435276197
 31
0.0
1001
GENIUS_GENOREF_13
1005
0
  0
LINE
  5
13B24
  8
AM_0N
 10
373.33217160949772
 20
233.42762277619701
 30
0.0
 11
372.77898637447402
 21
233.42762277619701
 31
0.0
1001
GENIUS_GENOREF_13
1005
0
  0
LINE
  5
13B25
  8
AM_0N
 10
372.77898637447402
 20
233.42762277619701
 30
0.0
 11
372.012173874474
 21
232.660810276197
 31
0.0
1001
GENIUS_GENOREF_13
1005
0
  0
LINE
  5
13B26
  8
AM_4N
 10
372.012173874474
 20
232.660810276197
 30
0.0
 11
373.33217160949772
 21
232.660810276197
 31
0.0
1001
GENIUS_GENOREF_13
1005
0
  0
LINE
  5
13B27
  8
AM_4N
 10
372.012173874474
 20
226.194435276197
 30
0.0
 11
373.33217160949772
 21
226.194435276197
 31
0.0
1001
GENIUS_GENOREF_13
1005
0
  0
LINE
  5
13B28
  8
AM_0
 10
394.89807312789281
 20
207.11725765268761
 30
0.0
 11
394.57296525568438
 21
216.42712902551759
 31
0.0
  0
LINE
  5
13B29
  8
AM_0
 10
396.96863881699858
 20
207.0931737483472
 30
0.0
 11
397.29458771767912
 21
216.42712902551759
 31
0.0
  0
LINE
  5
13B2A
  8
AM_0
 10
397.01522156174462
 20
208.42712902551759
 30
0.0
 11
404.75064208943701
 21
208.42712902551759
 31
0.0
  0
ARC
  5
13B2B
  8
AM_0
 10
395.89746395491198
 20
207.15215714938981
 30
0.0
 40
1.0
 50
182.00000000000369
 51
251.433419198097
1001
GENIUS_GENODEF_13
1002
{
1000
HIER
1070
     0
1002
}
1002
{
1000
MANEDIT
1070
     0
1002
}
1002
{
1000
NOSEL
1070
     0
1002
}
1002
{
1000
BEHIND
1070
     0
1002
}
1002
{
1000
REACTOR
1002
}
1001
GENIUS_GENOBJ-N-FIL_13
1002
{
1000
OWNER
1000
GEN
1002
}
  0
ARC
  5
13B2C
  8
AM_0
 10
430.92217295060158
 20
311.42712902551767
 30
0.0
 40
111.0
 50
251.43341919810331
 51
251.47285768553181
  0
ARC
  5
13B2D
  8
AM_0
 10
395.96924798997958
 20
207.1280732450499
 30
0.0
 40
1.0
 50
251.47285768553181
 51
357.99999999999642
1001
GENIUS_GENODEF_13
1002
{
1000
HIER
1070
     0
1002
}
1002
{
1000
MANEDIT
1070
     0
1002
}
1002
{
1000
NOSEL
1070
     0
1002
}
1002
{
1000
BEHIND
1070
     0
1002
}
1002
{
1000
REACTOR
1002
}
1001
GENIUS_GENOBJ-N-FIL_13
1002
{
1000
OWNER
1000
GEN
1002
}
  0
LINE
  5
13B2E
  8
AM_0
 10
416.96061500450833
 20
202.41438769017191
 30
0.0
 11
417.14285809037449
 21
207.63314685609771
 31
0.0
  0
LINE
  5
13B2F
  8
AM_0
 10
414.89292559453548
 20
202.4238698425454
 30
0.0
 11
414.68738319068842
 21
208.30983417949409
 31
0.0
  0
ARC
  5
13B30
  8
AM_0
 10
405.96496804662689
 20
204.29572409035859
 30
0.0
 40
1.0
 50
256.88632985670159
 51
357.99999999999642
1001
GENIUS_GENODEF_13
1002
{
1000
HIER
1070
     0
1002
}
1002
{
1000
MANEDIT
1070
     0
1002
}
1002
{
1000
NOSEL
1070
     0
1002
}
1002
{
1000
BEHIND
1070
     0
1002
}
1002
{
1000
REACTOR
1002
}
1001
GENIUS_GENOBJ-N-FIL_13
1002
{
1000
OWNER
1000
GEN
1002
}
  0
ARC
  5
13B31
  8
AM_0
 10
405.89495305166162
 20
204.3120588246814
 30
0.0
 40
1.0
 50
181.99999999999071
 51
256.84888173935212
1001
GENIUS_GENODEF_13
1002
{
1000
HIER
1070
     0
1002
}
1002
{
1000
MANEDIT
1070
     0
1002
}
1002
{
1000
NOSEL
1070
     0
1002
}
1002
{
1000
BEHIND
1070
     0
1002
}
1002
{
1000
REACTOR
1002
}
1001
GENIUS_GENOBJ-N-FIL_13
1002
{
1000
OWNER
1000
GEN
1002
}
  0
ARC
  5
13B32
  8
AM_0
 10
430.92217295060158
 20
311.42712902551767
 30
0.0
 40
111.0
 50
256.84888173935212
 51
256.88632985669381
  0
ARC
  5
13B33
  8
AM_0
 10
415.9612241774891
 20
202.4492871868745
 30
0.0
 40
1.0
 50
262.1830521683051
 51
357.99999999999642
1001
GENIUS_GENODEF_13
1002
{
1000
HIER
1070
     0
1002
}
1002
{
1000
MANEDIT
1070
     0
1002
}
1002
{
1000
NOSEL
1070
     0
1002
}
1002
{
1000
BEHIND
1070
     0
1002
}
1002
{
1000
REACTOR
1002
}
1001
GENIUS_GENOBJ-N-FIL_13
1002
{
1000
OWNER
1000
GEN
1002
}
  0
ARC
  5
13B34
  8
AM_0
 10
415.89231642155471
 20
202.45876933924799
 30
0.0
 40
1.0
 50
181.99999999999071
 51
262.14682191119419
1001
GENIUS_GENODEF_13
1002
{
1000
HIER
1070
     0
1002
}
1002
{
1000
MANEDIT
1070
     0
1002
}
1002
{
1000
NOSEL
1070
     0
1002
}
1002
{
1000
BEHIND
1070
     0
1002
}
1002
{
1000
REACTOR
1002
}
1001
GENIUS_GENOBJ-N-FIL_13
1002
{
1000
OWNER
1000
GEN
1002
}
  0
ARC
  5
13B35
  8
AM_0
 10
430.92217295060158
 20
311.42712902551767
 30
0.0
 40
111.0
 50
262.14682191118692
 51
262.1830521683051
  0
LINE
  5
13B36
  8
AM_0
 10
406.96435887364601
 20
204.260824593656
 30
0.0
 11
407.2048006069175
 21
211.1461749673974
 31
0.0
  0
LINE
  5
13B37
  8
AM_0
 10
404.8955622246425
 20
204.27715932797881
 30
0.0
 11
404.6109483465774
 21
212.4274344280845
 31
0.0
  0
LINE
  5
13B38
  8
AM_0
 10
397.63929446931672
 20
216.42712902551759
 30
0.0
 11
389.92217295060181
 21
216.42712902551759
 31
0.0
1001
GENIUS_GENODEF_13
1002
{
1000
HIER
1070
     0
1002
}
1002
{
1000
MANEDIT
1070
     0
1002
}
1002
{
1000
NOSEL
1070
     0
1002
}
1002
{
1000
BEHIND
1070
     0
1002
}
1002
{
1000
REACTOR
1002
}
1001
GENIUS_GENOBJ-N-CEN_13
1002
{
1000
OWNER
1000
GEN
1002
}
  0
ARC
  5
13B39
  8
AM_0
 10
397.63929446931672
 20
214.9271290255177
 30
0.0
 40
1.5
 50
54.981371737918423
 51
90.0
1001
GENIUS_GENODEF_13
1002
{
1000
HIER
1070
     0
1002
}
1002
{
1000
MANEDIT
1070
     0
1002
}
1002
{
1000
NOSEL
1070
     0
1002
}
1002
{
1000
BEHIND
1070
     0
1002
}
1002
{
1000
REACTOR
1002
}
1001
GENIUS_GENOBJ-N-FIL_13
1002
{
1000
OWNER
1000
GEN
1002
}
  0
LINE
  5
13B3C
  8
AM_0
 10
373.33217160949772
 20
236.92762277619701
 30
0.0
 11
379.83217160949749
 21
236.9276227761969
 31
0.0
  0
LINE
  5
13B3D
  8
AM_0
 10
385.92217160949718
 20
241.42712813381021
 30
0.0
 11
381.92217149028801
 21
241.42712813381021
 31
0.0
  0
LINE
  5
13B3E
  8
AM_0
 10
381.4221716094973
 20
240.9276227761975
 30
0.0
 11
385.9221716094977
 21
240.9276227761975
 31
0.0
  0
LINE
  5
13B3F
  8
AM_0
 10
379.83217160949721
 20
237.9276227761971
 30
0.0
 11
381.42217160949752
 21
237.9276227761971
 31
0.0
  0
LINE
  5
13B40
  8
AM_0
 10
480.42217429170631
 20
240.9276227761975
 30
0.0
 11
480.42217429170609
 21
201.427624251412
 31
0.0
  0
LINE
  5
13B41
  8
AM_0
 10
482.01217429170589
 20
237.9276227761971
 30
0.0
 11
482.01217429170589
 21
220.9276227761969
 31
0.0
  0
LINE
  5
13B42
  8
AM_0
 10
436.95423042950029
 20
201.50741589940091
 30
0.0
 11
437.1204789033481
 21
206.26814930440671
 31
0.0
  0
LINE
  5
13B43
  8
AM_0
 10
434.88707474134628
 20
201.50430572094021
 30
0.0
 11
434.7281447799852
 21
206.0554643487142
 31
0.0
  0
LINE
  5
13B44
  8
AM_0
 10
424.89011547170333
 20
201.50741589940091
 30
0.0
 11
424.72386699785528
 21
206.26814930440671
 31
0.0
  0
LINE
  5
13B45
  8
AM_0
 10
426.95727115985761
 20
201.50430572094021
 30
0.0
 11
427.11620112121813
 21
206.0554643487142
 31
0.0
  0
ARC
  5
13B46
  8
AM_0
 10
425.9578803328385
 20
201.53920521764331
 30
0.0
 40
1.0
 50
267.41336677122672
 51
357.99999999999642
1001
GENIUS_GENODEF_13
1002
{
1000
HIER
1070
     0
1002
}
1002
{
1000
MANEDIT
1070
     0
1002
}
1002
{
1000
NOSEL
1070
     0
1002
}
1002
{
1000
BEHIND
1070
     0
1002
}
1002
{
1000
REACTOR
1002
}
1001
GENIUS_GENOBJ-N-FIL_13
1002
{
1000
OWNER
1000
GEN
1002
}
  0
ARC
  5
13B47
  8
AM_0
 10
425.8895062987221
 20
201.54231539610359
 30
0.0
 40
1.0
 50
182.00000000000369
 51
267.37771591204699
1001
GENIUS_GENODEF_13
1002
{
1000
HIER
1070
     0
1002
}
1002
{
1000
MANEDIT
1070
     0
1002
}
1002
{
1000
NOSEL
1070
     0
1002
}
1002
{
1000
BEHIND
1070
     0
1002
}
1002
{
1000
REACTOR
1002
}
1001
GENIUS_GENOBJ-N-FIL_13
1002
{
1000
OWNER
1000
GEN
1002
}
  0
ARC
  5
13B48
  8
AM_0
 10
430.92217295060158
 20
311.42712902551767
 30
0.0
 40
111.0
 50
267.37771591204699
 51
267.41336677122672
  0
ARC
  5
13B49
  8
AM_0
 10
430.92217295060158
 20
311.42712902551767
 30
0.0
 40
111.0
 50
272.58663322877328
 51
272.62228408795301
  0
ARC
  5
13B4A
  8
AM_0
 10
435.95483960248117
 20
201.54231539610359
 30
0.0
 40
1.0
 50
272.62228408795301
 51
357.99999999999642
1001
GENIUS_GENODEF_13
1002
{
1000
HIER
1070
     0
1002
}
1002
{
1000
MANEDIT
1070
     0
1002
}
1002
{
1000
NOSEL
1070
     0
1002
}
1002
{
1000
BEHIND
1070
     0
1002
}
1002
{
1000
REACTOR
1002
}
1001
GENIUS_GENOBJ-N-FIL_13
1002
{
1000
OWNER
1000
GEN
1002
}
  0
ARC
  5
13B4B
  8
AM_0
 10
435.88646556836511
 20
201.53920521764331
 30
0.0
 40
1.0
 50
182.00000000000369
 51
272.58663322877328
1001
GENIUS_GENODEF_13
1002
{
1000
HIER
1070
     0
1002
}
1002
{
1000
MANEDIT
1070
     0
1002
}
1002
{
1000
NOSEL
1070
     0
1002
}
1002
{
1000
BEHIND
1070
     0
1002
}
1002
{
1000
REACTOR
1002
}
1001
GENIUS_GENOBJ-N-FIL_13
1002
{
1000
OWNER
1000
GEN
1002
}
  0
LINE
  5
13B4C
  8
AM_0
 10
446.95142030666779
 20
202.4238698425454
 30
0.0
 11
447.1569627105153
 21
208.30983417949409
 31
0.0
  0
LINE
  5
13B4D
  8
AM_0
 10
444.8837308966954
 20
202.41438769017191
 30
0.0
 11
444.70148781082901
 21
207.63314685609771
 31
0.0
  0
ARC
  5
13B4E
  8
AM_0
 10
445.88312172371428
 20
202.4492871868745
 30
0.0
 40
1.0
 50
182.00000000000369
 51
277.81694783169502
1001
GENIUS_GENODEF_13
1002
{
1000
HIER
1070
     0
1002
}
1002
{
1000
MANEDIT
1070
     0
1002
}
1002
{
1000
NOSEL
1070
     0
1002
}
1002
{
1000
BEHIND
1070
     0
1002
}
1002
{
1000
REACTOR
1002
}
1001
GENIUS_GENOBJ-N-FIL_13
1002
{
1000
OWNER
1000
GEN
1002
}
  0
ARC
  5
13B4F
  8
AM_0
 10
445.95202947964879
 20
202.45876933924799
 30
0.0
 40
1.0
 50
277.85317808880581
 51
357.99999999999642
1001
GENIUS_GENODEF_13
1002
{
1000
HIER
1070
     0
1002
}
1002
{
1000
MANEDIT
1070
     0
1002
}
1002
{
1000
NOSEL
1070
     0
1002
}
1002
{
1000
BEHIND
1070
     0
1002
}
1002
{
1000
REACTOR
1002
}
1001
GENIUS_GENOBJ-N-FIL_13
1002
{
1000
OWNER
1000
GEN
1002
}
  0
ARC
  5
13B50
  8
AM_0
 10
430.92217295060158
 20
311.42712902551767
 30
0.0
 40
111.0
 50
277.81694783169502
 51
277.85317808881319
  0
LINE
  5
13B51
  8
AM_0
 10
464.87570708420509
 20
207.0931737483472
 30
0.0
 11
464.54975818352477
 21
216.42712902551759
 31
0.0
  0
LINE
  5
13B52
  8
AM_0
 10
466.94627277331068
 20
207.11725765268719
 30
0.0
 11
467.2713806455194
 21
216.42712902551759
 31
0.0
  0
ARC
  5
13B54
  8
AM_0
 10
455.94939284954211
 20
204.3120588246814
 30
0.0
 40
1.0
 50
283.15111826064788
 51
357.99999999999642
1001
GENIUS_GENODEF_13
1002
{
1000
HIER
1070
     0
1002
}
1002
{
1000
MANEDIT
1070
     0
1002
}
1002
{
1000
NOSEL
1070
     0
1002
}
1002
{
1000
BEHIND
1070
     0
1002
}
1002
{
1000
REACTOR
1002
}
1001
GENIUS_GENOBJ-N-FIL_13
1002
{
1000
OWNER
1000
GEN
1002
}
  0
ARC
  5
13B55
  8
AM_0
 10
455.87937785457677
 20
204.29572409035859
 30
0.0
 40
1.0
 50
182.00000000000369
 51
283.11367014329829
1001
GENIUS_GENODEF_13
1002
{
1000
HIER
1070
     0
1002
}
1002
{
1000
MANEDIT
1070
     0
1002
}
1002
{
1000
NOSEL
1070
     0
1002
}
1002
{
1000
BEHIND
1070
     0
1002
}
1002
{
1000
REACTOR
1002
}
1001
GENIUS_GENOBJ-N-FIL_13
1002
{
1000
OWNER
1000
GEN
1002
}
  0
ARC
  5
13B56
  8
AM_0
 10
430.92217295060158
 20
311.42712902551767
 30
0.0
 40
111.0
 50
283.11367014330631
 51
283.15111826064788
  0
LINE
  5
13B57
  8
AM_0
 10
464.82912433945882
 20
208.42712902551759
 30
0.0
 11
457.09370381176672
 21
208.42712902551759
 31
0.0
  0
LINE
  5
13B58
  8
AM_0
 10
454.87998702755749
 20
204.26082459365551
 30
0.0
 11
454.63954529428622
 21
211.1461749673974
 31
0.0
  0
LINE
  5
13B59
  8
AM_0
 10
456.94878367656111
 20
204.27715932797881
 30
0.0
 11
457.23339755462632
 21
212.4274344280845
 31
0.0
  0
ARC
  5
13B5A
  8
AM_0
 10
430.92217295060158
 20
311.42712902551767
 30
0.0
 40
111.0
 50
288.52714231446828
 51
288.56658080189681
  0
ARC
  5
13B5B
  8
AM_0
 10
465.87509791122432
 20
207.1280732450499
 30
0.0
 40
1.0
 50
182.00000000000369
 51
288.52714231446828
1001
GENIUS_GENODEF_13
1002
{
1000
HIER
1070
     0
1002
}
1002
{
1000
MANEDIT
1070
     0
1002
}
1002
{
1000
NOSEL
1070
     0
1002
}
1002
{
1000
BEHIND
1070
     0
1002
}
1002
{
1000
REACTOR
1002
}
1001
GENIUS_GENOBJ-N-FIL_13
1002
{
1000
OWNER
1000
GEN
1002
}
  0
ARC
  5
13B5C
  8
AM_0
 10
465.94688194629191
 20
207.15215714938981
 30
0.0
 40
1.0
 50
288.56658080190289
 51
357.99999999999642
1001
GENIUS_GENODEF_13
1002
{
1000
HIER
1070
     0
1002
}
1002
{
1000
MANEDIT
1070
     0
1002
}
1002
{
1000
NOSEL
1070
     0
1002
}
1002
{
1000
BEHIND
1070
     0
1002
}
1002
{
1000
REACTOR
1002
}
1001
GENIUS_GENOBJ-N-FIL_13
1002
{
1000
OWNER
1000
GEN
1002
}
  0
LINE
  5
13B5D
  8
AM_0
 10
486.12318307737843
 20
198.427624251412
 30
0.0
 11
480.42217429170631
 21
204.1286330370842
 31
0.0
  0
ARC
  5
13B5E
  8
AM_0
 10
483.42217429170609
 20
201.427624251412
 30
0.0
 40
3.0
 50
180.0
 51
270.0
1001
GENIUS_GENOBJ-N-FIL_13
1002
{
1000
OWNER
1000
GEN
1002
}
1001
GENIUS_GENODEF_13
1002
{
1000
HIER
1070
     0
1002
}
1002
{
1000
MANEDIT
1070
     0
1002
}
1002
{
1000
NOSEL
1070
     0
1002
}
1002
{
1000
BEHIND
1070
     0
1002
}
1002
{
1000
OTHER
1070
     0
1002
}
1002
{
1000
REACTOR
1002
}
  0
LINE
  5
13B5F
  8
AM_0
 10
464.2050514318866
 20
216.42712902551759
 30
0.0
 11
471.92217295060158
 21
216.42712902551759
 31
0.0
1001
GENIUS_GENODEF_13
1002
{
1000
HIER
1070
     0
1002
}
1002
{
1000
MANEDIT
1070
     0
1002
}
1002
{
1000
NOSEL
1070
     0
1002
}
1002
{
1000
BEHIND
1070
     0
1002
}
1002
{
1000
REACTOR
1002
}
1001
GENIUS_GENOBJ-N-CEN_13
1002
{
1000
OWNER
1000
GEN
1002
}
  0
ARC
  5
13B60
  8
AM_0
 10
464.2050514318866
 20
214.92712902551759
 30
0.0
 40
1.5
 50
90.0
 51
125.01862826208161
1001
GENIUS_GENOBJ-N-FIL_13
1002
{
1000
OWNER
1000
GEN
1002
}
1001
GENIUS_GENODEF_13
1002
{
1000
HIER
1070
     0
1002
}
1002
{
1000
MANEDIT
1070
     0
1002
}
1002
{
1000
NOSEL
1070
     0
1002
}
1002
{
1000
BEHIND
1070
     0
1002
}
1002
{
1000
OTHER
1070
     0
1002
}
1002
{
1000
REACTOR
1002
}
  0
ARC
  5
13B61
  8
AM_0
 10
471.92217295060158
 20
221.4271290255177
 30
0.0
 40
5.0
 50
270.0
 51
323.13012796736803
1001
GENIUS_GENODEF_13
1002
{
1000
HIER
1070
     0
1002
}
1002
{
1000
MANEDIT
1070
     0
1002
}
1002
{
1000
NOSEL
1070
     0
1002
}
1002
{
1000
BEHIND
1070
     0
1002
}
1002
{
1000
REACTOR
1002
}
1001
GENIUS_GENOBJ-N-FIL_13
1002
{
1000
OWNER
1000
GEN
1002
}
  0
LINE
  5
13B62
  8
AM_0
 10
485.42217429170609
 20
218.9276229103076
 30
0.0
 11
480.42217429170609
 21
218.9276229103076
 31
0.0
  0
LINE
  5
13B63
  8
AM_0
 10
482.01217429170589
 20
220.9276227761969
 30
0.0
 11
480.42217429170609
 21
220.9276227761969
 31
0.0
  0
LINE
  5
13B64
  8
AM_0
 10
475.92217429170609
 20
241.42712813381021
 30
0.0
 11
479.92217441091549
 21
241.42712813381021
 31
0.0
  0
LINE
  5
13B65
  8
AM_0
 10
480.42217429170631
 20
240.9276227761975
 30
0.0
 11
475.92217429170557
 21
240.9276227761975
 31
0.0
  0
LINE
  5
13B66
  8
AM_0
 10
482.01217429170589
 20
237.9276227761971
 30
0.0
 11
480.42217429170609
 21
237.9276227761971
 31
0.0
  0
LINE
  5
13B67
  8
AM_0
 10
377.92217137107872
 20
258.92732865535669
 30
0.0
 11
381.92217149028801
 21
258.92732865535669
 31
0.0
  0
LINE
  5
13B68
  8
ﾁｭｳｼﾝｾﾝ1
 10
495.92217295060158
 20
208.427624251412
 30
0.0
 11
495.92217295060158
 21
183.92762425141211
 31
0.0
  0
ARC
  5
13B6D
  8
AM_0
 10
372.80710274976548
 20
237.39990912657711
 30
0.0
 40
1.0
 50
193.15111826065561
 51
268.0000000000029
1001
GENIUS_GENODEF_13
1002
{
1000
HIER
1070
     0
1002
}
1002
{
1000
MANEDIT
1070
     0
1002
}
1002
{
1000
NOSEL
1070
     0
1002
}
1002
{
1000
BEHIND
1070
     0
1002
}
1002
{
1000
REACTOR
1002
}
1001
GENIUS_GENOBJ-N-FIL_13
1002
{
1000
OWNER
1000
GEN
1002
}
  0
LINE
  5
13B6F
  8
ｶｸﾚｾﾝ2
 10
490.92217295060158
 20
193.92762425141211
 30
0.0
 11
490.92217295060158
 21
198.42762425141211
 31
0.0
  0
LINE
  5
13B70
  8
AM_0
 10
500.92217295060158
 20
198.427624251412
 30
0.0
 11
500.92217295060158
 21
203.427624251412
 31
0.0
  0
LINE
  5
13B71
  8
ｶｸﾚｾﾝ2
 10
500.92217295060158
 20
193.92762425141211
 30
0.0
 11
500.92217295060158
 21
198.42762425141211
 31
0.0
  0
LINE
  5
13B72
  8
AM_0
 10
505.92217429170529
 20
198.427624251412
 30
0.0
 11
505.92217429170529
 21
193.927624251412
 31
0.0
  0
LINE
  5
13B73
  8
AM_0
 10
490.01217429170578
 20
235.9276227761969
 30
0.0
 11
490.01217429170578
 21
222.9276227761971
 31
0.0
  0
LINE
  5
13B74
  8
0
 10
322.9221731407124
 20
266.92712920295543
 30
0.0
 11
362.9221731407124
 21
266.92712920295543
 31
0.0
  0
ARC
  5
13B75
  8
AM_0
 10
370.03424914272739
 20
257.4628364077542
 30
0.0
 40
1.0
 50
92.000000000003695
 51
182.5866332287668
1001
GENIUS_GENODEF_13
1002
{
1000
HIER
1070
     0
1002
}
1002
{
1000
MANEDIT
1070
     0
1002
}
1002
{
1000
NOSEL
1070
     0
1002
}
1002
{
1000
BEHIND
1070
     0
1002
}
1002
{
1000
REACTOR
1002
}
1001
GENIUS_GENOBJ-N-FIL_13
1002
{
1000
OWNER
1000
GEN
1002
}
  0
ARC
  5
13B77
  8
AM_0
 10
370.9443311119586
 20
247.466180252405
 30
0.0
 40
1.0
 50
91.999999999997215
 51
187.81694783168749
1001
GENIUS_GENODEF_13
1002
{
1000
HIER
1070
     0
1002
}
1002
{
1000
MANEDIT
1070
     0
1002
}
1002
{
1000
NOSEL
1070
     0
1002
}
1002
{
1000
BEHIND
1070
     0
1002
}
1002
{
1000
REACTOR
1002
}
1001
GENIUS_GENOBJ-N-FIL_13
1002
{
1000
OWNER
1000
GEN
1002
}
  0
ARC
  5
13B7A
  8
AM_0
 10
372.79076801544272
 20
237.4699241215429
 30
0.0
 40
1.0
 50
92.000000000003695
 51
193.11367014330619
1001
GENIUS_GENODEF_13
1002
{
1000
HIER
1070
     0
1002
}
1002
{
1000
MANEDIT
1070
     0
1002
}
1002
{
1000
NOSEL
1070
     0
1002
}
1002
{
1000
BEHIND
1070
     0
1002
}
1002
{
1000
REACTOR
1002
}
1001
GENIUS_GENOBJ-N-FIL_13
1002
{
1000
OWNER
1000
GEN
1002
}
  0
ARC
  5
13B7B
  8
AM_0
 10
479.92217295060158
 20
262.42712902551767
 30
0.0
 40
111.0
 50
193.11367014330619
 51
193.15111826065561
  0
ARC
  5
13B7C
  8
AM_0
 10
479.92217295060158
 20
262.42712902551767
 30
0.0
 40
111.0
 50
187.81694783168749
 51
187.853178088813
  0
ARC
  5
13B7D
  8
AM_0
 10
370.9538132643321
 20
247.39727249647041
 30
0.0
 40
1.0
 50
187.853178088813
 51
268.0000000000029
1001
GENIUS_GENODEF_13
1002
{
1000
HIER
1070
     0
1002
}
1002
{
1000
MANEDIT
1070
     0
1002
}
1002
{
1000
NOSEL
1070
     0
1002
}
1002
{
1000
BEHIND
1070
     0
1002
}
1002
{
1000
REACTOR
1002
}
1001
GENIUS_GENOBJ-N-FIL_13
1002
{
1000
OWNER
1000
GEN
1002
}
  0
ARC
  5
13B7F
  8
AM_0
 10
370.03735932118758
 20
257.39446237363819
 30
0.0
 40
1.0
 50
182.6222840879465
 51
268.0000000000029
1001
GENIUS_GENODEF_13
1002
{
1000
HIER
1070
     0
1002
}
1002
{
1000
MANEDIT
1070
     0
1002
}
1002
{
1000
NOSEL
1070
     0
1002
}
1002
{
1000
BEHIND
1070
     0
1002
}
1002
{
1000
REACTOR
1002
}
1001
GENIUS_GENOBJ-N-FIL_13
1002
{
1000
OWNER
1000
GEN
1002
}
  0
ARC
  5
13B80
  8
AM_0
 10
479.92217295060158
 20
262.42712902551767
 30
0.0
 40
111.0
 50
182.5866332287668
 51
182.6222840879465
  0
LINE
  5
13B87
  8
AM_0
 10
369.99934964602483
 20
258.46222723477308
 30
0.0
 11
374.55050827379881
 21
258.62115719613422
 31
0.0
  0
LINE
  5
13B89
  8
0
 10
362.9221731407124
 20
293.92712921822363
 30
0.0
 11
377.92217137107872
 21
298.92692984743769
 31
0.0
  0
LINE
  5
13E88
  8
AM_0
 10
405.92217199692732
 20
338.92713103953639
 30
0.0
 11
475.92217429170609
 21
337.70529040111501
 31
0.0
  0
LINE
  5
13E8D
  8
AM_0
 10
487.95707244730431
 20
298.46083107772961
 30
0.0
 11
479.92217441091549
 21
298.74141589994809
 31
0.0
  0
LINE
  5
13E8E
  8
AM_0
 10
487.95707244730391
 20
296.39342697330562
 30
0.0
 11
479.92217441091549
 21
296.11284215108719
 31
0.0
  0
ARC
  5
13E8F
  8
AM_0
 10
486.88153707259249
 20
294.3896799694956
 30
0.0
 40
1.9655366667591301
 50
90.64955321107206
 51
266.84152977392512
  0
ARC
  5
13E90
  8
AM_0
 10
487.92217295060158
 20
297.46144025071072
 30
0.0
 40
1.0
 50
0.000000000000007
 51
88.000000000002785
1001
GENIUS_GENODEF_13
1002
{
1000
HIER
1070
     0
1002
}
1002
{
1000
MANEDIT
1070
     0
1002
}
1002
{
1000
NOSEL
1070
     0
1002
}
1002
{
1000
BEHIND
1070
     0
1002
}
1002
{
1000
REACTOR
1002
}
1001
GENIUS_GENOBJ-N-FIL_13
1002
{
1000
OWNER
1000
GEN
1002
}
  0
ARC
  5
13E91
  8
AM_0
 10
487.92217295060158
 20
297.39281780032462
 30
0.0
 40
1.0
 50
272.00000000000369
 51
0.0000000000130346
1001
GENIUS_GENODEF_13
1002
{
1000
HIER
1070
     0
1002
}
1002
{
1000
MANEDIT
1070
     0
1002
}
1002
{
1000
NOSEL
1070
     0
1002
}
1002
{
1000
BEHIND
1070
     0
1002
}
1002
{
1000
REACTOR
1002
}
1001
GENIUS_GENOBJ-N-FIL_13
1002
{
1000
OWNER
1000
GEN
1002
}
  0
LINE
  5
13E92
  8
AM_0
 10
488.92217295060158
 20
297.39281780032462
 30
0.0
 11
488.92217295060158
 21
297.46144025071072
 31
0.0
  0
LINE
  5
13E93
  8
AM_0
 10
385.92217160949718
 20
316.42713036898419
 30
0.0
 11
381.92217149028801
 21
316.42713036898419
 31
0.0
  0
LINE
  5
13E94
  8
AM_0
 10
385.9221716094973
 20
338.5780099390239
 30
0.0
 11
405.92217199692732
 21
338.92713103953639
 31
0.0
  0
LINE
  5
13E95
  8
AM_0
 10
377.92217137107872
 20
298.92692984743769
 30
0.0
 11
381.92217149028801
 21
298.92692984743769
 31
0.0
  0
LINE
  5
13E96
  8
AM_0
 10
475.92217429170609
 20
316.42713036898419
 30
0.0
 11
479.92217441091549
 21
316.42713036898419
 31
0.0
  0
LINE
  5
13E98
  8
0
 10
322.9221731407124
 20
293.92712920295543
 30
0.0
 11
354.92217309787088
 21
293.92712920295543
 31
0.0
  0
LINE
  5
13E99
  8
0
 10
322.9221731407124
 20
290.92712920295543
 30
0.0
 11
362.9221731407124
 21
290.92712919694247
 31
0.0
  0
LINE
  5
13E9B
  8
0
 10
354.92217309787088
 20
293.92712920295543
 30
0.0
 11
354.9221730974196
 21
290.927129198145
 31
0.0
  0
LINE
  5
14115
  8
AM_0
 10
520.42217295060152
 20
290.92712908173672
 30
0.0
 11
520.42217295060175
 21
233.92712908173669
 31
0.0
  0
LINE
  5
14116
  8
AM_0
 10
496.92217295060158
 20
293.92712908173672
 30
0.0
 11
496.92217295060181
 21
230.92712908173669
 31
0.0
  0
LINE
  5
14117
  8
AM_0
 10
500.42217295060158
 20
295.42712908173661
 30
0.0
 11
500.42217295060181
 21
229.4271290817365
 31
0.0
  0
LINE
  5
14118
  8
AM_0
 10
503.92217295060169
 20
230.92712908173669
 30
0.0
 11
503.92217295060158
 21
293.92712908173672
 31
0.0
  0
LINE
  5
14119
  8
AM_0
 10
493.42217295060158
 20
292.42712908173638
 30
0.0
 11
493.42217295060158
 21
232.42712908173641
 31
0.0
  0
LINE
  5
1411A
  8
AM_0
 10
479.92217441091549
 20
292.4271290817365
 30
0.0
 11
496.92217295060158
 21
292.42712908173638
 31
0.0
  0
LINE
  5
1411B
  8
AM_0
 10
516.42217295060152
 20
293.92712908173672
 30
0.0
 11
496.92217295060158
 21
293.92712908173672
 31
0.0
  0
LINE
  5
1411C
  8
AM_0
 10
503.92217295060158
 20
292.42712908173672
 30
0.0
 11
518.92217295060152
 21
292.42712908173672
 31
0.0
  0
LINE
  5
1411D
  8
AM_0
 10
523.42217295060163
 20
279.73102908173661
 30
0.0
 11
520.42217295060163
 21
284.92712908173661
 31
0.0
  0
ARC
  5
1411E
  8
AM_0
 10
518.92217295060163
 20
290.92712908173672
 30
0.0
 40
1.5
 50
0.000000000000007
 51
90.0
  0
LINE
  5
1411F
  8
AM_0
 10
516.42217295060152
 20
292.42712908173672
 30
0.0
 11
516.42217295060152
 21
293.92712908173672
 31
0.0
  0
LINE
  5
14120
  8
AM_0
 10
515.42217295060152
 20
295.42712908173661
 30
0.0
 11
500.42217295060158
 21
295.42712908173661
 31
0.0
  0
LINE
  5
14121
  8
AM_0
 10
515.42217295060152
 20
293.92712908173672
 30
0.0
 11
515.42217295060152
 21
295.42712908173661
 31
0.0
  0
LINE
  5
14122
  8
AM_0
 10
523.42217295060175
 20
245.1233290817365
 30
0.0
 11
523.42217295060163
 21
279.73102908173661
 31
0.0
  0
LINE
  5
14123
  8
AM_0
 10
490.01217429170578
 20
232.4271290817363
 30
0.0
 11
496.92217295060181
 21
232.42712908173641
 31
0.0
  0
LINE
  5
14124
  8
AM_0
 10
496.92217295060181
 20
230.92712908173669
 30
0.0
 11
516.42217295060175
 21
230.92712908173669
 31
0.0
  0
LINE
  5
14125
  8
AM_0
 10
503.92217295060169
 20
232.42712908173669
 30
0.0
 11
518.92217295060186
 21
232.42712908173669
 31
0.0
  0
LINE
  5
14126
  8
AM_0
 10
520.42217295060175
 20
239.92426366117749
 30
0.0
 11
523.42217295060175
 21
245.1233290817365
 31
0.0
  0
LINE
  5
14127
  8
AM_0
 10
516.42217295060175
 20
230.92712908173669
 30
0.0
 11
516.42217295060175
 21
232.42712908173669
 31
0.0
  0
ARC
  5
14128
  8
AM_0
 10
518.92217295060163
 20
233.9271290817365
 30
0.0
 40
1.5
 50
270.0
 51
0.000000000000007
  0
LINE
  5
14129
  8
AM_0
 10
515.42217295060175
 20
229.4271290817365
 30
0.0
 11
500.42217295060181
 21
229.4271290817365
 31
0.0
  0
LINE
  5
1412A
  8
AM_0
 10
515.42217295060175
 20
230.92712908173641
 30
0.0
 11
515.42217295060175
 21
229.4271290817365
 31
0.0
  0
ARC
  5
15367
  8
AM_0
 10
170.71188554374791
 20
336.92712925139722
 30
0.0
 40
2.0000000000000022
 50
0.0000025044687019
 51
90.000005008950424
  0
ARC
  5
15368
  8
AM_0
 10
178.71188554374791
 20
331.92712925139722
 30
0.0
 40
6.0000000000000062
 50
179.99999749551819
 51
0.0000025044687019
  0
ARC
  5
15369
  8
AM_0
 10
178.71188554374791
 20
331.92712925139722
 30
0.0
 40
12.0
 50
193.60895817146721
 51
260.09318968439271
  0
LINE
  5
1536A
  8
AM_0
 10
170.31660515716001
 20
240.9276227761969
 30
0.0
 11
198.71188725738111
 21
240.92762277619701
 31
0.0
  0
LINE
  5
1536D
  8
AM_0
 10
203.71185673980051
 20
198.42762425141211
 30
0.0
 11
49.711882667823382
 21
198.42762425141211
 31
0.0
  0
LINE
  5
1536E
  8
AM_0
 10
203.71185673980051
 20
193.927624251412
 30
0.0
 11
49.711882667823261
 21
193.92762425141211
 31
0.0
  0
LINE
  5
1536F
  8
ﾁｭｳｼﾝｾﾝ1
 10
208.71188725738091
 20
278.9271292513971
 30
0.0
 11
46.454833412144822
 21
278.9271292513971
 31
0.0
  0
LINE
  5
15370
  8
AM_0
 10
59.711913483426891
 20
338.92653103951858
 30
0.0
 11
193.7118869593578
 21
338.92653103951858
 31
0.0
  0
LINE
  5
15377
  8
AM_0
 10
32.211882667823829
 20
206.42712875965881
 30
0.0
 11
32.211882667823829
 21
318.4271287596589
 31
0.0
  0
LINE
  5
15378
  8
AM_0
 10
43.717986183448822
 20
208.42712875965881
 30
0.0
 11
43.717986183449057
 21
316.4271287596589
 31
0.0
  0
LINE
  5
15379
  8
ﾁｭｳｼﾝｾﾝ1
 10
146.21188554374791
 20
343.92653103951858
 30
0.0
 11
146.21188554374791
 21
183.927624251412
 31
0.0
  0
LINE
  5
1537A
  8
AM_0
 10
49.711913185403773
 20
328.9266307414984
 30
0.0
 11
49.711913185403773
 21
193.92762425141211
 31
0.0
  0
ARC
  5
1537B
  8
AM_0
 10
275.71797092465982
 20
262.4271287596589
 30
0.0
 40
236.0
 50
169.4360382876414
 51
180.00000500895689
  0
LINE
  5
1537C
  8
AM_0
 10
55.71188554374794
 20
297.40441654387757
 30
0.0
 11
55.71188554374794
 21
260.44984195891669
 31
0.0
  0
LINE
  5
1537D
  8
ﾁｭｳｼﾝｾﾝ1
 10
81.432455539092857
 20
262.4271287596589
 30
0.0
 11
-104.5312817052006
 21
262.4271287596589
 31
0.0
  0
LINE
  5
1537E
  8
AM_0
 10
32.211882667823829
 20
230.48718875965889
 30
0.0
 11
41.8926330288175
 21
230.48718875965889
 31
0.0
  0
LINE
  5
1537F
  8
AM_0
 10
32.211882667823829
 20
216.4271287596589
 30
0.0
 11
43.717986183448822
 21
216.4271287596589
 31
0.0
  0
LINE
  5
15380
  8
AM_0
 10
32.211882667823829
 20
206.42712875965881
 30
0.0
 11
41.717986183448822
 21
206.42712875965881
 31
0.0
  0
ARC
  5
15381
  8
AM_0
 10
275.71797092465982
 20
262.4271287596589
 30
0.0
 40
236.0
 50
180.00000500895689
 51
190.56397173026639
  0
LINE
  5
15382
  8
ﾁｭｳｼﾝｾﾝ1
 10
79.211885543747144
 20
208.427624251412
 30
0.0
 11
79.211885543747144
 21
183.92762425141211
 31
0.0
  0
LINE
  5
15384
  8
AM_0
 10
106.7118855437466
 20
218.92772746327569
 30
0.0
 11
102.2118855437468
 21
218.92772746327569
 31
0.0
  0
LINE
  5
15385
  8
AM_0
 10
106.7118855437467
 20
203.42762425141211
 30
0.0
 11
102.2118855437469
 21
203.42762425141211
 31
0.0
  0
ARC
  5
15386
  8
AM_0
 10
107.2118538638758
 20
278.9271292513971
 30
0.0
 40
45.0
 50
237.61128836284411
 51
270.0
  0
CIRCLE
  5
15387
  8
AM_0
 10
60.211913498328038
 20
229.4276227761971
 30
0.0
 40
7.9999999999999956
  0
POLYLINE
  5
15388
  8
AM_0
 66
     1
 10
0.0
 20
0.0
 30
0.0
 70
     1
  0
VERTEX
  5
16DB4
  8
AM_0
 10
53.716722969944712
 20
233.17762277619701
 30
0.0
  0
VERTEX
  5
16DB5
  8
AM_0
 10
53.716722969944954
 20
225.67762277619701
 30
0.0
  0
VERTEX
  5
16DB6
  8
AM_0
 10
60.211913498328038
 20
221.92762277619701
 30
0.0
  0
VERTEX
  5
16DB7
  8
AM_0
 10
66.707104026711363
 20
225.67762277619701
 30
0.0
  0
VERTEX
  5
16DB8
  8
AM_0
 10
66.707104026711363
 20
233.17762277619701
 30
0.0
  0
VERTEX
  5
16DB9
  8
AM_0
 10
60.211913498328038
 20
236.92762277619701
 30
0.0
  0
SEQEND
  5
16DBA
  8
AM_0
  0
ARC
  5
1538A
  8
AM_0
 10
54.711913185403773
 20
235.9276227761969
 30
0.0
 40
5.0
 50
90.0
 51
180.0
1001
GENIUS_GENOBJ-N-FIL_13
1002
{
1000
OWNER
1000
GEN
1002
}
1001
GENIUS_GENODEF_13
1002
{
1000
HIER
1070
     0
1002
}
1002
{
1000
MANEDIT
1070
     0
1002
}
1002
{
1000
NOSEL
1070
     0
1002
}
1002
{
1000
BEHIND
1070
     0
1002
}
1002
{
1000
OTHER
1070
     0
1002
}
1002
{
1000
REACTOR
1002
}
  0
ARC
  5
1538B
  8
AM_0
 10
41.717986183448822
 20
208.42712875965881
 30
0.0
 40
2.0
 50
270.0
 51
0.0
1001
GENIUS_GENOBJ-N-FIL_13
1002
{
1000
OWNER
1000
GEN
1002
}
1001
GENIUS_GENODEF_13
1002
{
1000
HIER
1070
     0
1002
}
1002
{
1000
MANEDIT
1070
     0
1002
}
1002
{
1000
NOSEL
1070
     0
1002
}
1002
{
1000
BEHIND
1070
     0
1002
}
1002
{
1000
OTHER
1070
     0
1002
}
1002
{
1000
REACTOR
1002
}
  0
LINE
  5
1538D
  8
AM_0
 10
45.717986183448829
 20
218.92712875965881
 30
0.0
 11
49.711913185403773
 21
218.92712875965881
 31
0.0
  0
ARC
  5
1538E
  8
AM_0
 10
45.717986183448829
 20
216.92712875965881
 30
0.0
 40
2.0
 50
90.0
 51
180.0
1001
GENIUS_GENOBJ-N-FIL_13
1002
{
1000
OWNER
1000
GEN
1002
}
1001
GENIUS_GENODEF_13
1002
{
1000
HIER
1070
     0
1002
}
1002
{
1000
MANEDIT
1070
     0
1002
}
1002
{
1000
NOSEL
1070
     0
1002
}
1002
{
1000
BEHIND
1070
     0
1002
}
1002
{
1000
OTHER
1070
     0
1002
}
1002
{
1000
REACTOR
1002
}
  0
CIRCLE
  5
1538F
  8
AM_0
 10
60.211913498328038
 20
229.4276227761971
 30
0.0
 40
3.9999999999999978
  0
CIRCLE
  5
15390
  8
AM_5
 10
60.211913498328038
 20
229.4276227761971
 30
0.0
 40
2.9999999999999978
  0
LINE
  5
15391
  8
AM_0
 10
102.2118855437468
 20
218.92772746327569
 30
0.0
 11
102.2118855437471
 21
198.42762425141211
 31
0.0
  0
LINE
  5
15392
  8
ｶｸﾚｾﾝ2
 10
74.21188554374703
 20
193.92762425141211
 30
0.0
 11
74.21188554374703
 21
198.42762425141211
 31
0.0
  0
LINE
  5
15393
  8
ｶｸﾚｾﾝ2
 10
84.211885543747258
 20
193.92762425141211
 30
0.0
 11
84.211885543747258
 21
198.42762425141211
 31
0.0
  0
LINE
  5
15394
  8
AM_0
 10
83.107134250463787
 20
240.9276227761969
 30
0.0
 11
54.711913185403773
 21
240.9276227761969
 31
0.0
  0
ARC
  5
15395
  8
AM_0
 10
60.71188554374794
 20
260.44984195891669
 30
0.0
 40
5.0000000000000044
 50
179.99999749551819
 51
256.39103932404521
  0
LINE
  5
15396
  8
AM_0
 10
51.711877914353522
 20
249.9271330660944
 30
0.0
 11
56.711885543747933
 21
249.9271330660944
 31
0.0
  0
CIRCLE
  5
15397
  8
AM_0
 10
56.711885543747933
 20
243.92713306609451
 30
0.0
 40
2.886751345948126
1001
GENIUS_GENOREF_13
1005
0
  0
LINE
  5
15398
  8
AM_0
 10
55.268509870773869
 20
241.42713306609451
 30
0.0
 11
58.15526121672201
 21
241.42713306609451
 31
0.0
1001
GENIUS_GENOREF_13
1005
0
  0
LINE
  5
15399
  8
AM_0
 10
58.155261216721783
 20
246.4271330660946
 30
0.0
 11
55.268509870774089
 21
246.4271330660946
 31
0.0
1001
GENIUS_GENOREF_13
1005
0
  0
ARC
  5
1539A
  8
AM_0
 10
56.711885543747933
 20
243.92713306609451
 30
0.0
 40
5.0000000000000124
 50
323.13711661267382
 51
221.50833602839489
1001
GENIUS_GENOREF_13
1005
0
  0
LINE
  5
1539B
  8
AM_0
 10
55.268509870774089
 20
246.4271330660946
 30
0.0
 11
53.825134197799791
 21
243.92713306609451
 31
0.0
1001
GENIUS_GENOREF_13
1005
0
  0
LINE
  5
1539C
  8
AM_0
 10
53.825134197799791
 20
243.92713306609451
 30
0.0
 11
55.268509870773869
 21
241.42713306609451
 31
0.0
1001
GENIUS_GENOREF_13
1005
0
  0
ARC
  5
1539D
  8
AM_0
 10
51.711877914353408
 20
251.9271292513971
 30
0.0
 40
2.0000000000000022
 50
179.99999749551819
 51
270.0
  0
ARC
  5
1539E
  8
AM_0
 10
56.711885543747933
 20
243.92713306609451
 30
0.0
 40
6.0
 50
330.00539967970133
 51
90.000005008956919
  0
ARC
  5
1539F
  8
AM_0
 10
56.711885543747933
 20
243.92713306609451
 30
0.0
 40
11.999999999999989
 50
9.9068094049906783
 51
76.391044332999812
  0
LINE
  5
153A0
  8
AM_0
 10
59.598636889696067
 20
243.92713306609451
 30
0.0
 11
58.155261216721783
 21
246.4271330660946
 31
0.0
1001
GENIUS_GENOREF_13
1005
0
  0
LINE
  5
153A1
  8
AM_0
 10
58.15526121672201
 20
241.42713306609451
 30
0.0
 11
59.598636889696067
 21
243.92713306609451
 31
0.0
1001
GENIUS_GENOREF_13
1005
0
  0
LINE
  5
153A2
  8
AM_0
 10
69.417385319450204
 20
240.9276227761969
 30
0.0
 11
68.532945724412102
 21
245.99168537322339
 31
0.0
  0
ARC
  5
153A3
  8
AM_0
 10
146.21188554374791
 20
278.9271292513971
 30
0.0
 40
45.0
 50
270.0
 51
302.38871163715589
  0
LINE
  5
153A4
  8
AM_0
 10
107.2118538638758
 20
233.92712925139719
 30
0.0
 11
146.21188554374791
 21
233.92712925139719
 31
0.0
  0
LINE
  5
153A5
  8
AM_0
 10
106.7118855437464
 20
218.92772746327569
 30
0.0
 11
106.7118855437471
 21
198.42762425141211
 31
0.0
  0
LINE
  5
153A6
  8
AM_0
 10
146.71188298074779
 20
218.92772746327569
 30
0.0
 11
146.71188298074779
 21
198.42762425141211
 31
0.0
  0
LINE
  5
153A7
  8
AM_0
 10
151.21188298074779
 20
218.92772746327569
 30
0.0
 11
151.21188298074759
 21
198.42762425141211
 31
0.0
  0
LINE
  5
153A8
  8
AM_0
 10
151.21188298074759
 20
203.427624251412
 30
0.0
 11
146.71188298074779
 21
203.427624251412
 31
0.0
  0
LINE
  5
153A9
  8
ｶｸﾚｾﾝ2
 10
169.2118855437468
 20
193.927624251412
 30
0.0
 11
169.2118855437468
 21
198.427624251412
 31
0.0
  0
LINE
  5
153AA
  8
AM_0
 10
151.21188298074779
 20
218.92772746327569
 30
0.0
 11
146.71188298074799
 21
218.92772746327569
 31
0.0
  0
LINE
  5
153AC
  8
AM_0
 10
32.211882667823829
 20
318.4271287596589
 30
0.0
 11
41.717986183449042
 21
318.4271287596589
 31
0.0
  0
LINE
  5
153AD
  8
AM_0
 10
32.211882667823829
 20
308.42712875965879
 30
0.0
 11
43.717986183449057
 21
308.42712875965879
 31
0.0
  0
LINE
  5
153AE
  8
AM_0
 10
32.211882667823829
 20
294.3670787596588
 30
0.0
 11
41.817898803786647
 21
294.3670787596588
 31
0.0
  0
LINE
  5
153B0
  8
AM_0
 10
76.414308639451065
 20
332.92712925139722
 30
0.0
 11
162.18916520683391
 21
332.92712925139722
 31
0.0
  0
LINE
  5
153B2
  8
AM_0
 10
71.48886308281044
 20
328.78735874358472
 30
0.0
 11
68.532945724412102
 21
311.86257694426831
 31
0.0
  0
ARC
  5
153B3
  8
AM_0
 10
60.711885543748039
 20
297.40441654387769
 30
0.0
 40
5.0
 50
103.6089556670002
 51
179.99999749551819
  0
ARC
  5
153B4
  8
AM_0
 10
56.711885543748039
 20
313.92712925139722
 30
0.0
 40
12.0
 50
283.60896067595479
 51
350.09318877377632
  0
LINE
  5
153B5
  8
AM_0
 10
51.711877914353522
 20
319.92712925139722
 30
0.0
 11
56.711885543747933
 21
319.92712925139722
 31
0.0
  0
LINE
  5
153B6
  8
AM_0
 10
58.155261216721883
 20
316.42712925139728
 30
0.0
 11
55.268509870774309
 21
316.42712925139728
 31
0.0
1001
GENIUS_GENOREF_13
1005
0
  0
LINE
  5
153B7
  8
AM_0
 10
51.711877914353522
 20
307.92712925139722
 30
0.0
 11
56.711885543747933
 21
307.92712925139722
 31
0.0
  0
LINE
  5
153B8
  8
AM_0
 10
55.268509870773983
 20
311.42712925139722
 30
0.0
 11
58.155261216722117
 21
311.42712925139722
 31
0.0
1001
GENIUS_GENOREF_13
1005
0
  0
CIRCLE
  5
153B9
  8
AM_0
 10
56.711885543748039
 20
313.92712925139722
 30
0.0
 40
5.0
1001
GENIUS_GENOREF_13
1005
0
  0
ARC
  5
153BA
  8
AM_0
 10
56.711885543748039
 20
313.92712925139722
 30
0.0
 40
6.0
 50
270.0
 51
90.000005008956919
  0
CIRCLE
  5
153BB
  8
AM_0
 10
56.711885543748039
 20
313.92712925139722
 30
0.0
 40
2.886751345948126
1001
GENIUS_GENOREF_13
1005
0
  0
LINE
  5
153BC
  8
AM_0
 10
53.825134197799898
 20
313.92712925139722
 30
0.0
 11
55.268509870773983
 21
311.42712925139722
 31
0.0
1001
GENIUS_GENOREF_13
1005
0
  0
LINE
  5
153BD
  8
AM_0
 10
44.217986183449042
 20
305.6937455809479
 30
0.0
 11
49.71188266782405
 21
305.6937455809479
 31
0.0
  0
ARC
  5
153BE
  8
AM_0
 10
51.711877914353522
 20
305.92712925139722
 30
0.0
 40
1.9999999999999929
 50
90.000005008950424
 51
180.000000683243
  0
ARC
  5
153BF
  8
AM_0
 10
47.71188266782405
 20
318.4271287596589
 30
0.0
 40
2.0
 50
270.0
 51
0.0
1001
GENIUS_GENODEF_13
1002
{
1000
HIER
1070
     0
1002
}
1002
{
1000
MANEDIT
1070
     0
1002
}
1002
{
1000
NOSEL
1070
     0
1002
}
1002
{
1000
BEHIND
1070
     0
1002
}
1002
{
1000
OTHER
1070
     0
1002
}
1002
{
1000
REACTOR
1002
}
1001
GENIUS_GENOBJ-N-FIL_13
1002
{
1000
OWNER
1000
GEN
1002
}
  0
ARC
  5
153C0
  8
AM_0
 10
45.182087798586743
 20
318.4271287596589
 30
0.0
 40
2.0
 50
210.00000000000051
 51
270.0
1001
GENIUS_GENOBJ-N-FIL_13
1002
{
1000
OWNER
1000
GEN
1002
}
1001
GENIUS_GENODEF_13
1002
{
1000
HIER
1070
     0
1002
}
1002
{
1000
MANEDIT
1070
     0
1002
}
1002
{
1000
NOSEL
1070
     0
1002
}
1002
{
1000
BEHIND
1070
     0
1002
}
1002
{
1000
OTHER
1070
     0
1002
}
1002
{
1000
REACTOR
1002
}
  0
ARC
  5
153C1
  8
AM_0
 10
41.717986183449042
 20
316.4271287596589
 30
0.0
 40
2.0
 50
30.000000000000551
 51
90.0
1001
GENIUS_GENOBJ-N-FIL_13
1002
{
1000
OWNER
1000
GEN
1002
}
1001
GENIUS_GENODEF_13
1002
{
1000
HIER
1070
     0
1002
}
1002
{
1000
MANEDIT
1070
     0
1002
}
1002
{
1000
NOSEL
1070
     0
1002
}
1002
{
1000
BEHIND
1070
     0
1002
}
1002
{
1000
OTHER
1070
     0
1002
}
1002
{
1000
REACTOR
1002
}
  0
LINE
  5
153C2
  8
AM_0
 10
47.71188266782405
 20
316.4271287596589
 30
0.0
 11
45.182087798586743
 21
316.4271287596589
 31
0.0
  0
ARC
  5
153C3
  8
AM_0
 10
51.711877914353522
 20
321.92712925139722
 30
0.0
 40
2.0000000000000022
 50
179.99999749551819
 51
270.0
  0
LINE
  5
153C4
  8
AM_0
 10
55.268509870774309
 20
316.42712925139728
 30
0.0
 11
53.825134197799898
 21
313.92712925139722
 31
0.0
1001
GENIUS_GENOREF_13
1005
0
  0
LINE
  5
153C5
  8
AM_0
 10
58.155261216722117
 20
311.42712925139722
 30
0.0
 11
59.598636889696188
 21
313.92712925139722
 31
0.0
1001
GENIUS_GENOREF_13
1005
0
  0
LINE
  5
153C6
  8
AM_0
 10
59.598636889696188
 20
313.92712925139722
 30
0.0
 11
58.155261216721883
 21
316.42712925139728
 31
0.0
1001
GENIUS_GENOREF_13
1005
0
  0
ARC
  5
153C7
  8
AM_0
 10
76.414308639451164
 20
327.92712925139722
 30
0.0
 40
4.9999999999999911
 50
90.000005008956919
 51
170.093193782729
  0
POLYLINE
  5
153C8
  8
AM_0
 10
64.711913632438453
 20
328.42663572659728
 30
0.0
 66
     1
 70
     8
  0
VERTEX
  8
AM_0
  5
16E20
 10
64.7119
 20
328.427
 30
0.000000
  70
    32
  0
VERTEX
  8
AM_0
  5
16E21
 10
64.7065
 20
328.647
 30
0.000000
  70
    32
  0
VERTEX
  8
AM_0
  5
16E22
 10
64.6902
 20
328.868
 30
0.000000
  70
    32
  0
VERTEX
  8
AM_0
  5
16E23
 10
64.6632
 20
329.087
 30
0.000000
  70
    32
  0
VERTEX
  8
AM_0
  5
16E24
 10
64.6254
 20
329.305
 30
0.000000
  70
    32
  0
VERTEX
  8
AM_0
  5
16E25
 10
64.5771
 20
329.520
 30
0.000000
  70
    32
  0
VERTEX
  8
AM_0
  5
16E26
 10
64.5181
 20
329.733
 30
0.000000
  70
    32
  0
VERTEX
  8
AM_0
  5
16E27
 10
64.4489
 20
329.943
 30
0.000000
  70
    32
  0
VERTEX
  8
AM_0
  5
16E28
 10
64.3694
 20
330.149
 30
0.000000
  70
    32
  0
VERTEX
  8
AM_0
  5
16E29
 10
64.2799
 20
330.351
 30
0.000000
  70
    32
  0
VERTEX
  8
AM_0
  5
16E2A
 10
64.1806
 20
330.548
 30
0.000000
  70
    32
  0
VERTEX
  8
AM_0
  5
16E2B
 10
64.0717
 20
330.740
 30
0.000000
  70
    32
  0
VERTEX
  8
AM_0
  5
16E2C
 10
63.9535
 20
330.927
 30
0.000000
  70
    32
  0
VERTEX
  8
AM_0
  5
16E2D
 10
63.8263
 20
331.107
 30
0.000000
  70
    32
  0
VERTEX
  8
AM_0
  5
16E2E
 10
63.6905
 20
331.281
 30
0.000000
  70
    32
  0
VERTEX
  8
AM_0
  5
16E2F
 10
63.5462
 20
331.449
 30
0.000000
  70
    32
  0
VERTEX
  8
AM_0
  5
16E30
 10
63.3939
 20
331.609
 30
0.000000
  70
    32
  0
VERTEX
  8
AM_0
  5
16E31
 10
63.2339
 20
331.761
 30
0.000000
  70
    32
  0
VERTEX
  8
AM_0
  5
16E32
 10
63.0667
 20
331.905
 30
0.000000
  70
    32
  0
VERTEX
  8
AM_0
  5
16E33
 10
62.8926
 20
332.041
 30
0.000000
  70
    32
  0
VERTEX
  8
AM_0
  5
16E34
 10
62.7120
 20
332.168
 30
0.000000
  70
    32
  0
VERTEX
  8
AM_0
  5
16E35
 10
62.5254
 20
332.286
 30
0.000000
  70
    32
  0
VERTEX
  8
AM_0
  5
16E36
 10
62.3332
 20
332.395
 30
0.000000
  70
    32
  0
VERTEX
  8
AM_0
  5
16E37
 10
62.1359
 20
332.495
 30
0.000000
  70
    32
  0
VERTEX
  8
AM_0
  5
16E38
 10
61.9340
 20
332.584
 30
0.000000
  70
    32
  0
VERTEX
  8
AM_0
  5
16E39
 10
61.7279
 20
332.664
 30
0.000000
  70
    32
  0
VERTEX
  8
AM_0
  5
16E3A
 10
61.5182
 20
332.733
 30
0.000000
  70
    32
  0
VERTEX
  8
AM_0
  5
16E3B
 10
61.3053
 20
332.792
 30
0.000000
  70
    32
  0
VERTEX
  8
AM_0
  5
16E3C
 10
61.0898
 20
332.840
 30
0.000000
  70
    32
  0
VERTEX
  8
AM_0
  5
16E3D
 10
60.8722
 20
332.878
 30
0.000000
  70
    32
  0
VERTEX
  8
AM_0
  5
16E3E
 10
60.6530
 20
332.905
 30
0.000000
  70
    32
  0
VERTEX
  8
AM_0
  5
16E3F
 10
60.4327
 20
332.921
 30
0.000000
  70
    32
  0
VERTEX
  8
AM_0
  5
16E40
 10
60.2119
 20
332.927
 30
0.000000
  70
    32
  0
VERTEX
  8
AM_0
  5
16E41
 10
59.9911
 20
332.921
 30
0.000000
  70
    32
  0
VERTEX
  8
AM_0
  5
16E42
 10
59.7708
 20
332.905
 30
0.000000
  70
    32
  0
VERTEX
  8
AM_0
  5
16E43
 10
59.5516
 20
332.878
 30
0.000000
  70
    32
  0
VERTEX
  8
AM_0
  5
16E44
 10
59.3340
 20
332.840
 30
0.000000
  70
    32
  0
VERTEX
  8
AM_0
  5
16E45
 10
59.1185
 20
332.792
 30
0.000000
  70
    32
  0
VERTEX
  8
AM_0
  5
16E46
 10
58.9056
 20
332.733
 30
0.000000
  70
    32
  0
VERTEX
  8
AM_0
  5
16E47
 10
58.6959
 20
332.664
 30
0.000000
  70
    32
  0
VERTEX
  8
AM_0
  5
16E48
 10
58.4898
 20
332.584
 30
0.000000
  70
    32
  0
VERTEX
  8
AM_0
  5
16E49
 10
58.2879
 20
332.495
 30
0.000000
  70
    32
  0
VERTEX
  8
AM_0
  5
16E4A
 10
58.0906
 20
332.395
 30
0.000000
  70
    32
  0
VERTEX
  8
AM_0
  5
16E4B
 10
57.8985
 20
332.286
 30
0.000000
  70
    32
  0
VERTEX
  8
AM_0
  5
16E4C
 10
57.7118
 20
332.168
 30
0.000000
  70
    32
  0
VERTEX
  8
AM_0
  5
16E4D
 10
57.5313
 20
332.041
 30
0.000000
  70
    32
  0
VERTEX
  8
AM_0
  5
16E4E
 10
57.3571
 20
331.905
 30
0.000000
  70
    32
  0
VERTEX
  8
AM_0
  5
16E4F
 10
57.1899
 20
331.761
 30
0.000000
  70
    32
  0
VERTEX
  8
AM_0
  5
16E50
 10
57.0299
 20
331.609
 30
0.000000
  70
    32
  0
VERTEX
  8
AM_0
  5
16E51
 10
56.8776
 20
331.449
 30
0.000000
  70
    32
  0
VERTEX
  8
AM_0
  5
16E52
 10
56.7334
 20
331.281
 30
0.000000
  70
    32
  0
VERTEX
  8
AM_0
  5
16E53
 10
56.5975
 20
331.107
 30
0.000000
  70
    32
  0
VERTEX
  8
AM_0
  5
16E54
 10
56.4703
 20
330.927
 30
0.000000
  70
    32
  0
VERTEX
  8
AM_0
  5
16E55
 10
56.3521
 20
330.740
 30
0.000000
  70
    32
  0
VERTEX
  8
AM_0
  5
16E56
 10
56.2433
 20
330.548
 30
0.000000
  70
    32
  0
VERTEX
  8
AM_0
  5
16E57
 10
56.1440
 20
330.351
 30
0.000000
  70
    32
  0
VERTEX
  8
AM_0
  5
16E58
 10
56.0545
 20
330.149
 30
0.000000
  70
    32
  0
VERTEX
  8
AM_0
  5
16E59
 10
55.9750
 20
329.943
 30
0.000000
  70
    32
  0
VERTEX
  8
AM_0
  5
16E5A
 10
55.9057
 20
329.733
 30
0.000000
  70
    32
  0
VERTEX
  8
AM_0
  5
16E5B
 10
55.8468
 20
329.520
 30
0.000000
  70
    32
  0
VERTEX
  8
AM_0
  5
16E5C
 10
55.7984
 20
329.305
 30
0.000000
  70
    32
  0
VERTEX
  8
AM_0
  5
16E5D
 10
55.7606
 20
329.087
 30
0.000000
  70
    32
  0
VERTEX
  8
AM_0
  5
16E5E
 10
55.7336
 20
328.868
 30
0.000000
  70
    32
  0
VERTEX
  8
AM_0
  5
16E5F
 10
55.7173
 20
328.647
 30
0.000000
  70
    32
  0
VERTEX
  8
AM_0
  5
16E60
 10
55.7119
 20
328.427
 30
0.000000
  70
    32
  0
VERTEX
  8
AM_0
  5
16E61
 10
55.7173
 20
328.206
 30
0.000000
  70
    32
  0
VERTEX
  8
AM_0
  5
16E62
 10
55.7336
 20
327.986
 30
0.000000
  70
    32
  0
VERTEX
  8
AM_0
  5
16E63
 10
55.7606
 20
327.766
 30
0.000000
  70
    32
  0
VERTEX
  8
AM_0
  5
16E64
 10
55.7984
 20
327.549
 30
0.000000
  70
    32
  0
VERTEX
  8
AM_0
  5
16E65
 10
55.8468
 20
327.333
 30
0.000000
  70
    32
  0
VERTEX
  8
AM_0
  5
16E66
 10
55.9057
 20
327.120
 30
0.000000
  70
    32
  0
VERTEX
  8
AM_0
  5
16E67
 10
55.9750
 20
326.911
 30
0.000000
  70
    32
  0
VERTEX
  8
AM_0
  5
16E68
 10
56.0545
 20
326.705
 30
0.000000
  70
    32
  0
VERTEX
  8
AM_0
  5
16E69
 10
56.1440
 20
326.503
 30
0.000000
  70
    32
  0
VERTEX
  8
AM_0
  5
16E6A
 10
56.2433
 20
326.305
 30
0.000000
  70
    32
  0
VERTEX
  8
AM_0
  5
16E6B
 10
56.3521
 20
326.113
 30
0.000000
  70
    32
  0
VERTEX
  8
AM_0
  5
16E6C
 10
56.4703
 20
325.927
 30
0.000000
  70
    32
  0
VERTEX
  8
AM_0
  5
16E6D
 10
56.5975
 20
325.746
 30
0.000000
  70
    32
  0
VERTEX
  8
AM_0
  5
16E6E
 10
56.7334
 20
325.572
 30
0.000000
  70
    32
  0
VERTEX
  8
AM_0
  5
16E6F
 10
56.8776
 20
325.405
 30
0.000000
  70
    32
  0
VERTEX
  8
AM_0
  5
16E70
 10
57.0299
 20
325.245
 30
0.000000
  70
    32
  0
VERTEX
  8
AM_0
  5
16E71
 10
57.1899
 20
325.092
 30
0.000000
  70
    32
  0
VERTEX
  8
AM_0
  5
16E72
 10
57.3571
 20
324.948
 30
0.000000
  70
    32
  0
VERTEX
  8
AM_0
  5
16E73
 10
57.5313
 20
324.812
 30
0.000000
  70
    32
  0
VERTEX
  8
AM_0
  5
16E74
 10
57.7118
 20
324.685
 30
0.000000
  70
    32
  0
VERTEX
  8
AM_0
  5
16E75
 10
57.8985
 20
324.567
 30
0.000000
  70
    32
  0
VERTEX
  8
AM_0
  5
16E76
 10
58.0906
 20
324.458
 30
0.000000
  70
    32
  0
VERTEX
  8
AM_0
  5
16E77
 10
58.2879
 20
324.359
 30
0.000000
  70
    32
  0
VERTEX
  8
AM_0
  5
16E78
 10
58.4898
 20
324.269
 30
0.000000
  70
    32
  0
VERTEX
  8
AM_0
  5
16E79
 10
58.6959
 20
324.190
 30
0.000000
  70
    32
  0
VERTEX
  8
AM_0
  5
16E7A
 10
58.9056
 20
324.120
 30
0.000000
  70
    32
  0
VERTEX
  8
AM_0
  5
16E7B
 10
59.1185
 20
324.062
 30
0.000000
  70
    32
  0
VERTEX
  8
AM_0
  5
16E7C
 10
59.3340
 20
324.013
 30
0.000000
  70
    32
  0
VERTEX
  8
AM_0
  5
16E7D
 10
59.5516
 20
323.975
 30
0.000000
  70
    32
  0
VERTEX
  8
AM_0
  5
16E7E
 10
59.7708
 20
323.948
 30
0.000000
  70
    32
  0
VERTEX
  8
AM_0
  5
16E7F
 10
59.9911
 20
323.932
 30
0.000000
  70
    32
  0
VERTEX
  8
AM_0
  5
16E80
 10
60.2119
 20
323.927
 30
0.000000
  70
    32
  0
VERTEX
  8
AM_0
  5
16E81
 10
60.4327
 20
323.932
 30
0.000000
  70
    32
  0
VERTEX
  8
AM_0
  5
16E82
 10
60.6530
 20
323.948
 30
0.000000
  70
    32
  0
VERTEX
  8
AM_0
  5
16E83
 10
60.8722
 20
323.975
 30
0.000000
  70
    32
  0
VERTEX
  8
AM_0
  5
16E84
 10
61.0898
 20
324.013
 30
0.000000
  70
    32
  0
VERTEX
  8
AM_0
  5
16E85
 10
61.3053
 20
324.062
 30
0.000000
  70
    32
  0
VERTEX
  8
AM_0
  5
16E86
 10
61.5182
 20
324.120
 30
0.000000
  70
    32
  0
VERTEX
  8
AM_0
  5
16E87
 10
61.7279
 20
324.190
 30
0.000000
  70
    32
  0
VERTEX
  8
AM_0
  5
16E88
 10
61.9340
 20
324.269
 30
0.000000
  70
    32
  0
VERTEX
  8
AM_0
  5
16E89
 10
62.1359
 20
324.359
 30
0.000000
  70
    32
  0
VERTEX
  8
AM_0
  5
16E8A
 10
62.3332
 20
324.458
 30
0.000000
  70
    32
  0
VERTEX
  8
AM_0
  5
16E8B
 10
62.5254
 20
324.567
 30
0.000000
  70
    32
  0
VERTEX
  8
AM_0
  5
16E8C
 10
62.7120
 20
324.685
 30
0.000000
  70
    32
  0
VERTEX
  8
AM_0
  5
16E8D
 10
62.8926
 20
324.812
 30
0.000000
  70
    32
  0
VERTEX
  8
AM_0
  5
16E8E
 10
63.0667
 20
324.948
 30
0.000000
  70
    32
  0
VERTEX
  8
AM_0
  5
16E8F
 10
63.2339
 20
325.092
 30
0.000000
  70
    32
  0
VERTEX
  8
AM_0
  5
16E90
 10
63.3939
 20
325.245
 30
0.000000
  70
    32
  0
VERTEX
  8
AM_0
  5
16E91
 10
63.5462
 20
325.405
 30
0.000000
  70
    32
  0
VERTEX
  8
AM_0
  5
16E92
 10
63.6905
 20
325.572
 30
0.000000
  70
    32
  0
VERTEX
  8
AM_0
  5
16E93
 10
63.8263
 20
325.746
 30
0.000000
  70
    32
  0
VERTEX
  8
AM_0
  5
16E94
 10
63.9535
 20
325.927
 30
0.000000
  70
    32
  0
VERTEX
  8
AM_0
  5
16E95
 10
64.0717
 20
326.113
 30
0.000000
  70
    32
  0
VERTEX
  8
AM_0
  5
16E96
 10
64.1806
 20
326.305
 30
0.000000
  70
    32
  0
VERTEX
  8
AM_0
  5
16E97
 10
64.2799
 20
326.503
 30
0.000000
  70
    32
  0
VERTEX
  8
AM_0
  5
16E98
 10
64.3694
 20
326.705
 30
0.000000
  70
    32
  0
VERTEX
  8
AM_0
  5
16E99
 10
64.4489
 20
326.911
 30
0.000000
  70
    32
  0
VERTEX
  8
AM_0
  5
16E9A
 10
64.5181
 20
327.120
 30
0.000000
  70
    32
  0
VERTEX
  8
AM_0
  5
16E9B
 10
64.5771
 20
327.333
 30
0.000000
  70
    32
  0
VERTEX
  8
AM_0
  5
16E9C
 10
64.6254
 20
327.549
 30
0.000000
  70
    32
  0
VERTEX
  8
AM_0
  5
16E9D
 10
64.6632
 20
327.766
 30
0.000000
  70
    32
  0
VERTEX
  8
AM_0
  5
16E9E
 10
64.6902
 20
327.986
 30
0.000000
  70
    32
  0
VERTEX
  8
AM_0
  5
16E9F
 10
64.7065
 20
328.206
 30
0.000000
  70
    32
  0
VERTEX
  8
AM_0
  5
16EA0
 10
64.7119
 20
328.427
 30
0.000000
  70
    32
  0
SEQEND
  8
AM_0
  5
16EA1
  0
POLYLINE
  5
153C9
  8
AM_0
 10
59.711913046313491
 20
338.92653103951864
 30
0.0
 66
     1
 70
     8
  0
VERTEX
  8
AM_0
  5
16EA2
 10
59.7119
 20
338.927
 30
0.000000
  70
    32
  0
VERTEX
  8
AM_0
  5
16EA3
 10
59.5892
 20
338.926
 30
0.000000
  70
    32
  0
VERTEX
  8
AM_0
  5
16EA4
 10
59.4665
 20
338.924
 30
0.000000
  70
    32
  0
VERTEX
  8
AM_0
  5
16EA5
 10
59.3438
 20
338.920
 30
0.000000
  70
    32
  0
VERTEX
  8
AM_0
  5
16EA6
 10
59.2212
 20
338.914
 30
0.000000
  70
    32
  0
VERTEX
  8
AM_0
  5
16EA7
 10
59.0987
 20
338.908
 30
0.000000
  70
    32
  0
VERTEX
  8
AM_0
  5
16EA8
 10
58.9763
 20
338.899
 30
0.000000
  70
    32
  0
VERTEX
  8
AM_0
  5
16EA9
 10
58.8539
 20
338.890
 30
0.000000
  70
    32
  0
VERTEX
  8
AM_0
  5
16EAA
 10
58.7317
 20
338.878
 30
0.000000
  70
    32
  0
VERTEX
  8
AM_0
  5
16EAB
 10
58.6097
 20
338.866
 30
0.000000
  70
    32
  0
VERTEX
  8
AM_0
  5
16EAC
 10
58.4878
 20
338.851
 30
0.000000
  70
    32
  0
VERTEX
  8
AM_0
  5
16EAD
 10
58.3661
 20
338.836
 30
0.000000
  70
    32
  0
VERTEX
  8
AM_0
  5
16EAE
 10
58.2446
 20
338.818
 30
0.000000
  70
    32
  0
VERTEX
  8
AM_0
  5
16EAF
 10
58.1233
 20
338.800
 30
0.000000
  70
    32
  0
VERTEX
  8
AM_0
  5
16EB0
 10
58.0023
 20
338.779
 30
0.000000
  70
    32
  0
VERTEX
  8
AM_0
  5
16EB1
 10
57.8815
 20
338.758
 30
0.000000
  70
    32
  0
VERTEX
  8
AM_0
  5
16EB2
 10
57.7610
 20
338.734
 30
0.000000
  70
    32
  0
VERTEX
  8
AM_0
  5
16EB3
 10
57.6408
 20
338.710
 30
0.000000
  70
    32
  0
VERTEX
  8
AM_0
  5
16EB4
 10
57.5209
 20
338.684
 30
0.000000
  70
    32
  0
VERTEX
  8
AM_0
  5
16EB5
 10
57.4013
 20
338.656
 30
0.000000
  70
    32
  0
VERTEX
  8
AM_0
  5
16EB6
 10
57.2821
 20
338.627
 30
0.000000
  70
    32
  0
VERTEX
  8
AM_0
  5
16EB7
 10
57.1633
 20
338.596
 30
0.000000
  70
    32
  0
VERTEX
  8
AM_0
  5
16EB8
 10
57.0448
 20
338.564
 30
0.000000
  70
    32
  0
VERTEX
  8
AM_0
  5
16EB9
 10
56.9267
 20
338.531
 30
0.000000
  70
    32
  0
VERTEX
  8
AM_0
  5
16EBA
 10
56.8091
 20
338.496
 30
0.000000
  70
    32
  0
VERTEX
  8
AM_0
  5
16EBB
 10
56.6919
 20
338.460
 30
0.000000
  70
    32
  0
VERTEX
  8
AM_0
  5
16EBC
 10
56.5751
 20
338.422
 30
0.000000
  70
    32
  0
VERTEX
  8
AM_0
  5
16EBD
 10
56.4588
 20
338.383
 30
0.000000
  70
    32
  0
VERTEX
  8
AM_0
  5
16EBE
 10
56.3430
 20
338.342
 30
0.000000
  70
    32
  0
VERTEX
  8
AM_0
  5
16EBF
 10
56.2277
 20
338.300
 30
0.000000
  70
    32
  0
VERTEX
  8
AM_0
  5
16EC0
 10
56.1130
 20
338.256
 30
0.000000
  70
    32
  0
VERTEX
  8
AM_0
  5
16EC1
 10
55.9987
 20
338.212
 30
0.000000
  70
    32
  0
VERTEX
  8
AM_0
  5
16EC2
 10
55.8851
 20
338.165
 30
0.000000
  70
    32
  0
VERTEX
  8
AM_0
  5
16EC3
 10
55.7720
 20
338.118
 30
0.000000
  70
    32
  0
VERTEX
  8
AM_0
  5
16EC4
 10
55.6595
 20
338.069
 30
0.000000
  70
    32
  0
VERTEX
  8
AM_0
  5
16EC5
 10
55.5476
 20
338.018
 30
0.000000
  70
    32
  0
VERTEX
  8
AM_0
  5
16EC6
 10
55.4364
 20
337.966
 30
0.000000
  70
    32
  0
VERTEX
  8
AM_0
  5
16EC7
 10
55.3258
 20
337.913
 30
0.000000
  70
    32
  0
VERTEX
  8
AM_0
  5
16EC8
 10
55.2158
 20
337.859
 30
0.000000
  70
    32
  0
VERTEX
  8
AM_0
  5
16EC9
 10
55.1065
 20
337.803
 30
0.000000
  70
    32
  0
VERTEX
  8
AM_0
  5
16ECA
 10
54.9979
 20
337.746
 30
0.000000
  70
    32
  0
VERTEX
  8
AM_0
  5
16ECB
 10
54.8901
 20
337.687
 30
0.000000
  70
    32
  0
VERTEX
  8
AM_0
  5
16ECC
 10
54.7829
 20
337.627
 30
0.000000
  70
    32
  0
VERTEX
  8
AM_0
  5
16ECD
 10
54.6765
 20
337.566
 30
0.000000
  70
    32
  0
VERTEX
  8
AM_0
  5
16ECE
 10
54.5709
 20
337.504
 30
0.000000
  70
    32
  0
VERTEX
  8
AM_0
  5
16ECF
 10
54.4660
 20
337.440
 30
0.000000
  70
    32
  0
VERTEX
  8
AM_0
  5
16ED0
 10
54.3619
 20
337.375
 30
0.000000
  70
    32
  0
VERTEX
  8
AM_0
  5
16ED1
 10
54.2587
 20
337.309
 30
0.000000
  70
    32
  0
VERTEX
  8
AM_0
  5
16ED2
 10
54.1562
 20
337.241
 30
0.000000
  70
    32
  0
VERTEX
  8
AM_0
  5
16ED3
 10
54.0546
 20
337.172
 30
0.000000
  70
    32
  0
VERTEX
  8
AM_0
  5
16ED4
 10
53.9538
 20
337.102
 30
0.000000
  70
    32
  0
VERTEX
  8
AM_0
  5
16ED5
 10
53.8539
 20
337.031
 30
0.000000
  70
    32
  0
VERTEX
  8
AM_0
  5
16ED6
 10
53.7549
 20
336.959
 30
0.000000
  70
    32
  0
VERTEX
  8
AM_0
  5
16ED7
 10
53.6568
 20
336.885
 30
0.000000
  70
    32
  0
VERTEX
  8
AM_0
  5
16ED8
 10
53.5596
 20
336.810
 30
0.000000
  70
    32
  0
VERTEX
  8
AM_0
  5
16ED9
 10
53.4633
 20
336.734
 30
0.000000
  70
    32
  0
VERTEX
  8
AM_0
  5
16EDA
 10
53.3680
 20
336.657
 30
0.000000
  70
    32
  0
VERTEX
  8
AM_0
  5
16EDB
 10
53.2736
 20
336.578
 30
0.000000
  70
    32
  0
VERTEX
  8
AM_0
  5
16EDC
 10
53.1802
 20
336.499
 30
0.000000
  70
    32
  0
VERTEX
  8
AM_0
  5
16EDD
 10
53.0878
 20
336.418
 30
0.000000
  70
    32
  0
VERTEX
  8
AM_0
  5
16EDE
 10
52.9963
 20
336.336
 30
0.000000
  70
    32
  0
VERTEX
  8
AM_0
  5
16EDF
 10
52.9059
 20
336.253
 30
0.000000
  70
    32
  0
VERTEX
  8
AM_0
  5
16EE0
 10
52.8165
 20
336.169
 30
0.000000
  70
    32
  0
VERTEX
  8
AM_0
  5
16EE1
 10
52.7282
 20
336.084
 30
0.000000
  70
    32
  0
VERTEX
  8
AM_0
  5
16EE2
 10
52.6408
 20
335.998
 30
0.000000
  70
    32
  0
VERTEX
  8
AM_0
  5
16EE3
 10
52.5546
 20
335.910
 30
0.000000
  70
    32
  0
VERTEX
  8
AM_0
  5
16EE4
 10
52.4694
 20
335.822
 30
0.000000
  70
    32
  0
VERTEX
  8
AM_0
  5
16EE5
 10
52.3854
 20
335.733
 30
0.000000
  70
    32
  0
VERTEX
  8
AM_0
  5
16EE6
 10
52.3024
 20
335.642
 30
0.000000
  70
    32
  0
VERTEX
  8
AM_0
  5
16EE7
 10
52.2205
 20
335.551
 30
0.000000
  70
    32
  0
VERTEX
  8
AM_0
  5
16EE8
 10
52.1398
 20
335.458
 30
0.000000
  70
    32
  0
VERTEX
  8
AM_0
  5
16EE9
 10
52.0602
 20
335.365
 30
0.000000
  70
    32
  0
VERTEX
  8
AM_0
  5
16EEA
 10
51.9818
 20
335.270
 30
0.000000
  70
    32
  0
VERTEX
  8
AM_0
  5
16EEB
 10
51.9045
 20
335.175
 30
0.000000
  70
    32
  0
VERTEX
  8
AM_0
  5
16EEC
 10
51.8284
 20
335.079
 30
0.000000
  70
    32
  0
VERTEX
  8
AM_0
  5
16EED
 10
51.7535
 20
334.982
 30
0.000000
  70
    32
  0
VERTEX
  8
AM_0
  5
16EEE
 10
51.6798
 20
334.884
 30
0.000000
  70
    32
  0
VERTEX
  8
AM_0
  5
16EEF
 10
51.6073
 20
334.785
 30
0.000000
  70
    32
  0
VERTEX
  8
AM_0
  5
16EF0
 10
51.5361
 20
334.685
 30
0.000000
  70
    32
  0
VERTEX
  8
AM_0
  5
16EF1
 10
51.4660
 20
334.584
 30
0.000000
  70
    32
  0
VERTEX
  8
AM_0
  5
16EF2
 10
51.3972
 20
334.482
 30
0.000000
  70
    32
  0
VERTEX
  8
AM_0
  5
16EF3
 10
51.3297
 20
334.380
 30
0.000000
  70
    32
  0
VERTEX
  8
AM_0
  5
16EF4
 10
51.2634
 20
334.277
 30
0.000000
  70
    32
  0
VERTEX
  8
AM_0
  5
16EF5
 10
51.1984
 20
334.172
 30
0.000000
  70
    32
  0
VERTEX
  8
AM_0
  5
16EF6
 10
51.1346
 20
334.068
 30
0.000000
  70
    32
  0
VERTEX
  8
AM_0
  5
16EF7
 10
51.0722
 20
333.962
 30
0.000000
  70
    32
  0
VERTEX
  8
AM_0
  5
16EF8
 10
51.0110
 20
333.856
 30
0.000000
  70
    32
  0
VERTEX
  8
AM_0
  5
16EF9
 10
50.9512
 20
333.748
 30
0.000000
  70
    32
  0
VERTEX
  8
AM_0
  5
16EFA
 10
50.8927
 20
333.641
 30
0.000000
  70
    32
  0
VERTEX
  8
AM_0
  5
16EFB
 10
50.8355
 20
333.532
 30
0.000000
  70
    32
  0
VERTEX
  8
AM_0
  5
16EFC
 10
50.7797
 20
333.423
 30
0.000000
  70
    32
  0
VERTEX
  8
AM_0
  5
16EFD
 10
50.7252
 20
333.313
 30
0.000000
  70
    32
  0
VERTEX
  8
AM_0
  5
16EFE
 10
50.6720
 20
333.202
 30
0.000000
  70
    32
  0
VERTEX
  8
AM_0
  5
16EFF
 10
50.6202
 20
333.091
 30
0.000000
  70
    32
  0
VERTEX
  8
AM_0
  5
16F00
 10
50.5698
 20
332.979
 30
0.000000
  70
    32
  0
VERTEX
  8
AM_0
  5
16F01
 10
50.5208
 20
332.867
 30
0.000000
  70
    32
  0
VERTEX
  8
AM_0
  5
16F02
 10
50.4731
 20
332.753
 30
0.000000
  70
    32
  0
VERTEX
  8
AM_0
  5
16F03
 10
50.4269
 20
332.640
 30
0.000000
  70
    32
  0
VERTEX
  8
AM_0
  5
16F04
 10
50.3820
 20
332.526
 30
0.000000
  70
    32
  0
VERTEX
  8
AM_0
  5
16F05
 10
50.3385
 20
332.411
 30
0.000000
  70
    32
  0
VERTEX
  8
AM_0
  5
16F06
 10
50.2965
 20
332.295
 30
0.000000
  70
    32
  0
VERTEX
  8
AM_0
  5
16F07
 10
50.2558
 20
332.180
 30
0.000000
  70
    32
  0
VERTEX
  8
AM_0
  5
16F08
 10
50.2166
 20
332.063
 30
0.000000
  70
    32
  0
VERTEX
  8
AM_0
  5
16F09
 10
50.1789
 20
331.947
 30
0.000000
  70
    32
  0
VERTEX
  8
AM_0
  5
16F0A
 10
50.1425
 20
331.829
 30
0.000000
  70
    32
  0
VERTEX
  8
AM_0
  5
16F0B
 10
50.1076
 20
331.712
 30
0.000000
  70
    32
  0
VERTEX
  8
AM_0
  5
16F0C
 10
50.0742
 20
331.594
 30
0.000000
  70
    32
  0
VERTEX
  8
AM_0
  5
16F0D
 10
50.0421
 20
331.475
 30
0.000000
  70
    32
  0
VERTEX
  8
AM_0
  5
16F0E
 10
50.0116
 20
331.356
 30
0.000000
  70
    32
  0
VERTEX
  8
AM_0
  5
16F0F
 10
49.9825
 20
331.237
 30
0.000000
  70
    32
  0
VERTEX
  8
AM_0
  5
16F10
 10
49.9549
 20
331.118
 30
0.000000
  70
    32
  0
VERTEX
  8
AM_0
  5
16F11
 10
49.9287
 20
330.998
 30
0.000000
  70
    32
  0
VERTEX
  8
AM_0
  5
16F12
 10
49.9041
 20
330.878
 30
0.000000
  70
    32
  0
VERTEX
  8
AM_0
  5
16F13
 10
49.8809
 20
330.757
 30
0.000000
  70
    32
  0
VERTEX
  8
AM_0
  5
16F14
 10
49.8591
 20
330.636
 30
0.000000
  70
    32
  0
VERTEX
  8
AM_0
  5
16F15
 10
49.8389
 20
330.515
 30
0.000000
  70
    32
  0
VERTEX
  8
AM_0
  5
16F16
 10
49.8201
 20
330.394
 30
0.000000
  70
    32
  0
VERTEX
  8
AM_0
  5
16F17
 10
49.8029
 20
330.272
 30
0.000000
  70
    32
  0
VERTEX
  8
AM_0
  5
16F18
 10
49.7871
 20
330.151
 30
0.000000
  70
    32
  0
VERTEX
  8
AM_0
  5
16F19
 10
49.7728
 20
330.029
 30
0.000000
  70
    32
  0
VERTEX
  8
AM_0
  5
16F1A
 10
49.7601
 20
329.907
 30
0.000000
  70
    32
  0
VERTEX
  8
AM_0
  5
16F1B
 10
49.7488
 20
329.785
 30
0.000000
  70
    32
  0
VERTEX
  8
AM_0
  5
16F1C
 10
49.7390
 20
329.662
 30
0.000000
  70
    32
  0
VERTEX
  8
AM_0
  5
16F1D
 10
49.7307
 20
329.540
 30
0.000000
  70
    32
  0
VERTEX
  8
AM_0
  5
16F1E
 10
49.7240
 20
329.417
 30
0.000000
  70
    32
  0
VERTEX
  8
AM_0
  5
16F1F
 10
49.7187
 20
329.295
 30
0.000000
  70
    32
  0
VERTEX
  8
AM_0
  5
16F20
 10
49.7149
 20
329.172
 30
0.000000
  70
    32
  0
VERTEX
  8
AM_0
  5
16F21
 10
49.7127
 20
329.049
 30
0.000000
  70
    32
  0
VERTEX
  8
AM_0
  5
16F22
 10
49.7119
 20
328.927
 30
0.000000
  70
    32
  0
SEQEND
  8
AM_0
  5
16F23
  0
LINE
  5
153CB
  8
AM_0
 10
172.71188554374791
 20
336.92712925139722
 30
0.0
 11
172.71188554374791
 21
331.92712925139722
 31
0.0
  0
ARC
  5
153CC
  8
AM_0
 10
162.18916520683391
 20
327.92712925139722
 30
0.0
 40
5.0
 50
13.608963180428949
 51
90.000005008956919
  0
LINE
  5
153CD
  8
AM_0
 10
197.71187028495891
 20
312.22469852629951
 30
0.0
 11
197.71187028495891
 21
245.62956379119211
 31
0.0
  0
LINE
  5
153CE
  8
AM_0
 10
203.71188725738091
 20
328.9266307414984
 30
0.0
 11
203.71188725738111
 21
193.927624251412
 31
0.0
  0
LINE
  5
153CF
  8
ﾁｭｳｼﾝｾﾝ1
 10
174.2118855437468
 20
208.42762425141191
 30
0.0
 11
174.2118855437468
 21
183.927624251412
 31
0.0
  0
CIRCLE
  5
153D0
  8
AM_0
 10
193.2118869444565
 20
229.4276227761971
 30
0.0
 40
7.9999999999999956
  0
POLYLINE
  5
153D1
  8
AM_0
 66
     1
 10
0.0
 20
0.0
 30
0.0
 70
     1
  0
VERTEX
  5
16DBB
  8
AM_0
 10
186.71669641607309
 20
233.17762277619701
 30
0.0
  0
VERTEX
  5
16DBC
  8
AM_0
 10
186.7166964160734
 20
225.67762277619701
 30
0.0
  0
VERTEX
  5
16DBD
  8
AM_0
 10
193.2118869444565
 20
221.92762277619701
 30
0.0
  0
VERTEX
  5
16DBE
  8
AM_0
 10
199.70707747283981
 20
225.67762277619701
 30
0.0
  0
VERTEX
  5
16DBF
  8
AM_0
 10
199.70707747283981
 20
233.17762277619701
 30
0.0
  0
VERTEX
  5
16DC0
  8
AM_0
 10
193.2118869444565
 20
236.92762277619701
 30
0.0
  0
SEQEND
  5
16DC1
  8
AM_0
  0
ARC
  5
153D3
  8
AM_0
 10
198.71188725738111
 20
235.92762277619701
 30
0.0
 40
5.0
 50
0.0
 51
90.0
1001
GENIUS_GENOBJ-N-FIL_13
1002
{
1000
OWNER
1000
GEN
1002
}
1001
GENIUS_GENODEF_13
1002
{
1000
HIER
1070
     0
1002
}
1002
{
1000
MANEDIT
1070
     0
1002
}
1002
{
1000
NOSEL
1070
     0
1002
}
1002
{
1000
BEHIND
1070
     0
1002
}
1002
{
1000
OTHER
1070
     0
1002
}
1002
{
1000
REACTOR
1002
}
  0
LINE
  5
153D4
  8
ｶｸﾚｾﾝ2
 10
179.21188554374689
 20
193.927624251412
 30
0.0
 11
179.21188554374689
 21
198.427624251412
 31
0.0
  0
CIRCLE
  5
153D5
  8
AM_0
 10
193.2118869444565
 20
229.4276227761971
 30
0.0
 40
3.9999999999999978
  0
CIRCLE
  5
153D7
  8
AM_5
 10
193.2118869444565
 20
229.4276227761971
 30
0.0
 40
2.9999999999999978
  0
ARC
  5
153D8
  8
AM_0
 10
192.71187028495891
 20
245.62956379119211
 30
0.0
 40
5.0
 50
289.88314745317382
 51
0.0000025044687019
  0
LINE
  5
153DA
  8
AM_0
 10
193.57209977714629
 20
317.1501364535456
 30
0.0
 11
176.6473256072247
 21
320.1060690707331
 31
0.0
  0
ARC
  5
153DB
  8
AM_0
 10
192.71187028495891
 20
312.22469852629951
 30
0.0
 40
5.0000000000000044
 50
0.0000025044687019
 51
80.093184448073799
  0
POLYLINE
  5
153DC
  8
AM_0
 10
197.71188707856695
 20
328.42663572659728
 30
0.0
 66
     1
 70
     8
  0
VERTEX
  8
AM_0
  5
16F24
 10
197.712
 20
328.427
 30
0.000000
  70
    32
  0
VERTEX
  8
AM_0
  5
16F25
 10
197.706
 20
328.647
 30
0.000000
  70
    32
  0
VERTEX
  8
AM_0
  5
16F26
 10
197.690
 20
328.868
 30
0.000000
  70
    32
  0
VERTEX
  8
AM_0
  5
16F27
 10
197.663
 20
329.087
 30
0.000000
  70
    32
  0
VERTEX
  8
AM_0
  5
16F28
 10
197.625
 20
329.305
 30
0.000000
  70
    32
  0
VERTEX
  8
AM_0
  5
16F29
 10
197.577
 20
329.520
 30
0.000000
  70
    32
  0
VERTEX
  8
AM_0
  5
16F2A
 10
197.518
 20
329.733
 30
0.000000
  70
    32
  0
VERTEX
  8
AM_0
  5
16F2B
 10
197.449
 20
329.943
 30
0.000000
  70
    32
  0
VERTEX
  8
AM_0
  5
16F2C
 10
197.369
 20
330.149
 30
0.000000
  70
    32
  0
VERTEX
  8
AM_0
  5
16F2D
 10
197.280
 20
330.351
 30
0.000000
  70
    32
  0
VERTEX
  8
AM_0
  5
16F2E
 10
197.181
 20
330.548
 30
0.000000
  70
    32
  0
VERTEX
  8
AM_0
  5
16F2F
 10
197.072
 20
330.740
 30
0.000000
  70
    32
  0
VERTEX
  8
AM_0
  5
16F30
 10
196.954
 20
330.927
 30
0.000000
  70
    32
  0
VERTEX
  8
AM_0
  5
16F31
 10
196.826
 20
331.107
 30
0.000000
  70
    32
  0
VERTEX
  8
AM_0
  5
16F32
 10
196.690
 20
331.281
 30
0.000000
  70
    32
  0
VERTEX
  8
AM_0
  5
16F33
 10
196.546
 20
331.449
 30
0.000000
  70
    32
  0
VERTEX
  8
AM_0
  5
16F34
 10
196.394
 20
331.609
 30
0.000000
  70
    32
  0
VERTEX
  8
AM_0
  5
16F35
 10
196.234
 20
331.761
 30
0.000000
  70
    32
  0
VERTEX
  8
AM_0
  5
16F36
 10
196.067
 20
331.905
 30
0.000000
  70
    32
  0
VERTEX
  8
AM_0
  5
16F37
 10
195.893
 20
332.041
 30
0.000000
  70
    32
  0
VERTEX
  8
AM_0
  5
16F38
 10
195.712
 20
332.168
 30
0.000000
  70
    32
  0
VERTEX
  8
AM_0
  5
16F39
 10
195.525
 20
332.286
 30
0.000000
  70
    32
  0
VERTEX
  8
AM_0
  5
16F3A
 10
195.333
 20
332.395
 30
0.000000
  70
    32
  0
VERTEX
  8
AM_0
  5
16F3B
 10
195.136
 20
332.495
 30
0.000000
  70
    32
  0
VERTEX
  8
AM_0
  5
16F3C
 10
194.934
 20
332.584
 30
0.000000
  70
    32
  0
VERTEX
  8
AM_0
  5
16F3D
 10
194.728
 20
332.664
 30
0.000000
  70
    32
  0
VERTEX
  8
AM_0
  5
16F3E
 10
194.518
 20
332.733
 30
0.000000
  70
    32
  0
VERTEX
  8
AM_0
  5
16F3F
 10
194.305
 20
332.792
 30
0.000000
  70
    32
  0
VERTEX
  8
AM_0
  5
16F40
 10
194.090
 20
332.840
 30
0.000000
  70
    32
  0
VERTEX
  8
AM_0
  5
16F41
 10
193.872
 20
332.878
 30
0.000000
  70
    32
  0
VERTEX
  8
AM_0
  5
16F42
 10
193.653
 20
332.905
 30
0.000000
  70
    32
  0
VERTEX
  8
AM_0
  5
16F43
 10
193.433
 20
332.921
 30
0.000000
  70
    32
  0
VERTEX
  8
AM_0
  5
16F44
 10
193.212
 20
332.927
 30
0.000000
  70
    32
  0
VERTEX
  8
AM_0
  5
16F45
 10
192.991
 20
332.921
 30
0.000000
  70
    32
  0
VERTEX
  8
AM_0
  5
16F46
 10
192.771
 20
332.905
 30
0.000000
  70
    32
  0
VERTEX
  8
AM_0
  5
16F47
 10
192.552
 20
332.878
 30
0.000000
  70
    32
  0
VERTEX
  8
AM_0
  5
16F48
 10
192.334
 20
332.840
 30
0.000000
  70
    32
  0
VERTEX
  8
AM_0
  5
16F49
 10
192.118
 20
332.792
 30
0.000000
  70
    32
  0
VERTEX
  8
AM_0
  5
16F4A
 10
191.906
 20
332.733
 30
0.000000
  70
    32
  0
VERTEX
  8
AM_0
  5
16F4B
 10
191.696
 20
332.664
 30
0.000000
  70
    32
  0
VERTEX
  8
AM_0
  5
16F4C
 10
191.490
 20
332.584
 30
0.000000
  70
    32
  0
VERTEX
  8
AM_0
  5
16F4D
 10
191.288
 20
332.495
 30
0.000000
  70
    32
  0
VERTEX
  8
AM_0
  5
16F4E
 10
191.091
 20
332.395
 30
0.000000
  70
    32
  0
VERTEX
  8
AM_0
  5
16F4F
 10
190.898
 20
332.286
 30
0.000000
  70
    32
  0
VERTEX
  8
AM_0
  5
16F50
 10
190.712
 20
332.168
 30
0.000000
  70
    32
  0
VERTEX
  8
AM_0
  5
16F51
 10
190.531
 20
332.041
 30
0.000000
  70
    32
  0
VERTEX
  8
AM_0
  5
16F52
 10
190.357
 20
331.905
 30
0.000000
  70
    32
  0
VERTEX
  8
AM_0
  5
16F53
 10
190.190
 20
331.761
 30
0.000000
  70
    32
  0
VERTEX
  8
AM_0
  5
16F54
 10
190.030
 20
331.609
 30
0.000000
  70
    32
  0
VERTEX
  8
AM_0
  5
16F55
 10
189.878
 20
331.449
 30
0.000000
  70
    32
  0
VERTEX
  8
AM_0
  5
16F56
 10
189.733
 20
331.281
 30
0.000000
  70
    32
  0
VERTEX
  8
AM_0
  5
16F57
 10
189.597
 20
331.107
 30
0.000000
  70
    32
  0
VERTEX
  8
AM_0
  5
16F58
 10
189.470
 20
330.927
 30
0.000000
  70
    32
  0
VERTEX
  8
AM_0
  5
16F59
 10
189.352
 20
330.740
 30
0.000000
  70
    32
  0
VERTEX
  8
AM_0
  5
16F5A
 10
189.243
 20
330.548
 30
0.000000
  70
    32
  0
VERTEX
  8
AM_0
  5
16F5B
 10
189.144
 20
330.351
 30
0.000000
  70
    32
  0
VERTEX
  8
AM_0
  5
16F5C
 10
189.054
 20
330.149
 30
0.000000
  70
    32
  0
VERTEX
  8
AM_0
  5
16F5D
 10
188.975
 20
329.943
 30
0.000000
  70
    32
  0
VERTEX
  8
AM_0
  5
16F5E
 10
188.906
 20
329.733
 30
0.000000
  70
    32
  0
VERTEX
  8
AM_0
  5
16F5F
 10
188.847
 20
329.520
 30
0.000000
  70
    32
  0
VERTEX
  8
AM_0
  5
16F60
 10
188.798
 20
329.305
 30
0.000000
  70
    32
  0
VERTEX
  8
AM_0
  5
16F61
 10
188.761
 20
329.087
 30
0.000000
  70
    32
  0
VERTEX
  8
AM_0
  5
16F62
 10
188.734
 20
328.868
 30
0.000000
  70
    32
  0
VERTEX
  8
AM_0
  5
16F63
 10
188.717
 20
328.647
 30
0.000000
  70
    32
  0
VERTEX
  8
AM_0
  5
16F64
 10
188.712
 20
328.427
 30
0.000000
  70
    32
  0
VERTEX
  8
AM_0
  5
16F65
 10
188.717
 20
328.206
 30
0.000000
  70
    32
  0
VERTEX
  8
AM_0
  5
16F66
 10
188.734
 20
327.986
 30
0.000000
  70
    32
  0
VERTEX
  8
AM_0
  5
16F67
 10
188.761
 20
327.766
 30
0.000000
  70
    32
  0
VERTEX
  8
AM_0
  5
16F68
 10
188.798
 20
327.549
 30
0.000000
  70
    32
  0
VERTEX
  8
AM_0
  5
16F69
 10
188.847
 20
327.333
 30
0.000000
  70
    32
  0
VERTEX
  8
AM_0
  5
16F6A
 10
188.906
 20
327.120
 30
0.000000
  70
    32
  0
VERTEX
  8
AM_0
  5
16F6B
 10
188.975
 20
326.911
 30
0.000000
  70
    32
  0
VERTEX
  8
AM_0
  5
16F6C
 10
189.054
 20
326.705
 30
0.000000
  70
    32
  0
VERTEX
  8
AM_0
  5
16F6D
 10
189.144
 20
326.503
 30
0.000000
  70
    32
  0
VERTEX
  8
AM_0
  5
16F6E
 10
189.243
 20
326.305
 30
0.000000
  70
    32
  0
VERTEX
  8
AM_0
  5
16F6F
 10
189.352
 20
326.113
 30
0.000000
  70
    32
  0
VERTEX
  8
AM_0
  5
16F70
 10
189.470
 20
325.927
 30
0.000000
  70
    32
  0
VERTEX
  8
AM_0
  5
16F71
 10
189.597
 20
325.746
 30
0.000000
  70
    32
  0
VERTEX
  8
AM_0
  5
16F72
 10
189.733
 20
325.572
 30
0.000000
  70
    32
  0
VERTEX
  8
AM_0
  5
16F73
 10
189.878
 20
325.405
 30
0.000000
  70
    32
  0
VERTEX
  8
AM_0
  5
16F74
 10
190.030
 20
325.245
 30
0.000000
  70
    32
  0
VERTEX
  8
AM_0
  5
16F75
 10
190.190
 20
325.092
 30
0.000000
  70
    32
  0
VERTEX
  8
AM_0
  5
16F76
 10
190.357
 20
324.948
 30
0.000000
  70
    32
  0
VERTEX
  8
AM_0
  5
16F77
 10
190.531
 20
324.812
 30
0.000000
  70
    32
  0
VERTEX
  8
AM_0
  5
16F78
 10
190.712
 20
324.685
 30
0.000000
  70
    32
  0
VERTEX
  8
AM_0
  5
16F79
 10
190.898
 20
324.567
 30
0.000000
  70
    32
  0
VERTEX
  8
AM_0
  5
16F7A
 10
191.091
 20
324.458
 30
0.000000
  70
    32
  0
VERTEX
  8
AM_0
  5
16F7B
 10
191.288
 20
324.359
 30
0.000000
  70
    32
  0
VERTEX
  8
AM_0
  5
16F7C
 10
191.490
 20
324.269
 30
0.000000
  70
    32
  0
VERTEX
  8
AM_0
  5
16F7D
 10
191.696
 20
324.190
 30
0.000000
  70
    32
  0
VERTEX
  8
AM_0
  5
16F7E
 10
191.906
 20
324.120
 30
0.000000
  70
    32
  0
VERTEX
  8
AM_0
  5
16F7F
 10
192.118
 20
324.062
 30
0.000000
  70
    32
  0
VERTEX
  8
AM_0
  5
16F80
 10
192.334
 20
324.013
 30
0.000000
  70
    32
  0
VERTEX
  8
AM_0
  5
16F81
 10
192.552
 20
323.975
 30
0.000000
  70
    32
  0
VERTEX
  8
AM_0
  5
16F82
 10
192.771
 20
323.948
 30
0.000000
  70
    32
  0
VERTEX
  8
AM_0
  5
16F83
 10
192.991
 20
323.932
 30
0.000000
  70
    32
  0
VERTEX
  8
AM_0
  5
16F84
 10
193.212
 20
323.927
 30
0.000000
  70
    32
  0
VERTEX
  8
AM_0
  5
16F85
 10
193.433
 20
323.932
 30
0.000000
  70
    32
  0
VERTEX
  8
AM_0
  5
16F86
 10
193.653
 20
323.948
 30
0.000000
  70
    32
  0
VERTEX
  8
AM_0
  5
16F87
 10
193.872
 20
323.975
 30
0.000000
  70
    32
  0
VERTEX
  8
AM_0
  5
16F88
 10
194.090
 20
324.013
 30
0.000000
  70
    32
  0
VERTEX
  8
AM_0
  5
16F89
 10
194.305
 20
324.062
 30
0.000000
  70
    32
  0
VERTEX
  8
AM_0
  5
16F8A
 10
194.518
 20
324.120
 30
0.000000
  70
    32
  0
VERTEX
  8
AM_0
  5
16F8B
 10
194.728
 20
324.190
 30
0.000000
  70
    32
  0
VERTEX
  8
AM_0
  5
16F8C
 10
194.934
 20
324.269
 30
0.000000
  70
    32
  0
VERTEX
  8
AM_0
  5
16F8D
 10
195.136
 20
324.359
 30
0.000000
  70
    32
  0
VERTEX
  8
AM_0
  5
16F8E
 10
195.333
 20
324.458
 30
0.000000
  70
    32
  0
VERTEX
  8
AM_0
  5
16F8F
 10
195.525
 20
324.567
 30
0.000000
  70
    32
  0
VERTEX
  8
AM_0
  5
16F90
 10
195.712
 20
324.685
 30
0.000000
  70
    32
  0
VERTEX
  8
AM_0
  5
16F91
 10
195.893
 20
324.812
 30
0.000000
  70
    32
  0
VERTEX
  8
AM_0
  5
16F92
 10
196.067
 20
324.948
 30
0.000000
  70
    32
  0
VERTEX
  8
AM_0
  5
16F93
 10
196.234
 20
325.092
 30
0.000000
  70
    32
  0
VERTEX
  8
AM_0
  5
16F94
 10
196.394
 20
325.245
 30
0.000000
  70
    32
  0
VERTEX
  8
AM_0
  5
16F95
 10
196.546
 20
325.405
 30
0.000000
  70
    32
  0
VERTEX
  8
AM_0
  5
16F96
 10
196.690
 20
325.572
 30
0.000000
  70
    32
  0
VERTEX
  8
AM_0
  5
16F97
 10
196.826
 20
325.746
 30
0.000000
  70
    32
  0
VERTEX
  8
AM_0
  5
16F98
 10
196.954
 20
325.927
 30
0.000000
  70
    32
  0
VERTEX
  8
AM_0
  5
16F99
 10
197.072
 20
326.113
 30
0.000000
  70
    32
  0
VERTEX
  8
AM_0
  5
16F9A
 10
197.181
 20
326.305
 30
0.000000
  70
    32
  0
VERTEX
  8
AM_0
  5
16F9B
 10
197.280
 20
326.503
 30
0.000000
  70
    32
  0
VERTEX
  8
AM_0
  5
16F9C
 10
197.369
 20
326.705
 30
0.000000
  70
    32
  0
VERTEX
  8
AM_0
  5
16F9D
 10
197.449
 20
326.911
 30
0.000000
  70
    32
  0
VERTEX
  8
AM_0
  5
16F9E
 10
197.518
 20
327.120
 30
0.000000
  70
    32
  0
VERTEX
  8
AM_0
  5
16F9F
 10
197.577
 20
327.333
 30
0.000000
  70
    32
  0
VERTEX
  8
AM_0
  5
16FA0
 10
197.625
 20
327.549
 30
0.000000
  70
    32
  0
VERTEX
  8
AM_0
  5
16FA1
 10
197.663
 20
327.766
 30
0.000000
  70
    32
  0
VERTEX
  8
AM_0
  5
16FA2
 10
197.690
 20
327.986
 30
0.000000
  70
    32
  0
VERTEX
  8
AM_0
  5
16FA3
 10
197.706
 20
328.206
 30
0.000000
  70
    32
  0
VERTEX
  8
AM_0
  5
16FA4
 10
197.712
 20
328.427
 30
0.000000
  70
    32
  0
SEQEND
  8
AM_0
  5
16FA5
  0
LINE
  5
153DE
  8
AM_0
 10
184.71187028495891
 20
336.92712925139722
 30
0.0
 11
184.71187028495891
 21
331.92712925139722
 31
0.0
  0
CIRCLE
  5
153DF
  8
AM_0
 10
178.71188554374791
 20
331.92712925139722
 30
0.0
 40
2.886751345948126
1001
GENIUS_GENOREF_13
1005
0
  0
LINE
  5
153E0
  8
AM_0
 10
177.26850987077401
 20
334.42712925139728
 30
0.0
 11
175.8251341977998
 21
331.92712925139722
 31
0.0
1001
GENIUS_GENOREF_13
1005
0
  0
LINE
  5
153E1
  8
AM_0
 10
181.59863688969611
 20
331.92712925139722
 30
0.0
 11
180.15526121672181
 21
334.42712925139728
 31
0.0
1001
GENIUS_GENOREF_13
1005
0
  0
CIRCLE
  5
153E2
  8
AM_0
 10
178.71188554374791
 20
331.92712925139722
 30
0.0
 40
5.0
1001
GENIUS_GENOREF_13
1005
0
  0
LINE
  5
153E3
  8
AM_0
 10
180.15526121672201
 20
329.42712925139722
 30
0.0
 11
181.59863688969611
 21
331.92712925139722
 31
0.0
1001
GENIUS_GENOREF_13
1005
0
  0
LINE
  5
153E4
  8
AM_0
 10
177.26850987077381
 20
329.42712925139722
 30
0.0
 11
180.15526121672201
 21
329.42712925139722
 31
0.0
1001
GENIUS_GENOREF_13
1005
0
  0
LINE
  5
153E5
  8
AM_0
 10
175.8251341977998
 20
331.92712925139722
 30
0.0
 11
177.26850987077381
 21
329.42712925139722
 31
0.0
1001
GENIUS_GENOREF_13
1005
0
  0
LINE
  5
153E6
  8
AM_0
 10
180.15526121672181
 20
334.42712925139728
 30
0.0
 11
177.26850987077401
 21
334.42712925139728
 31
0.0
1001
GENIUS_GENOREF_13
1005
0
  0
ARC
  5
153E7
  8
AM_0
 10
186.71187028495879
 20
336.92712925139722
 30
0.0
 40
2.0000000000000062
 50
90.000005008956919
 51
180.000000683243
  0
POLYLINE
  5
153E8
  8
AM_0
 10
203.71188725738091
 20
328.9266307414984
 30
0.0
 66
     1
 70
     8
  0
VERTEX
  8
AM_0
  5
16FA6
 10
203.712
 20
328.927
 30
0.000000
  70
    32
  0
VERTEX
  8
AM_0
  5
16FA7
 10
203.711
 20
329.049
 30
0.000000
  70
    32
  0
VERTEX
  8
AM_0
  5
16FA8
 10
203.709
 20
329.172
 30
0.000000
  70
    32
  0
VERTEX
  8
AM_0
  5
16FA9
 10
203.705
 20
329.295
 30
0.000000
  70
    32
  0
VERTEX
  8
AM_0
  5
16FAA
 10
203.700
 20
329.417
 30
0.000000
  70
    32
  0
VERTEX
  8
AM_0
  5
16FAB
 10
203.693
 20
329.540
 30
0.000000
  70
    32
  0
VERTEX
  8
AM_0
  5
16FAC
 10
203.685
 20
329.662
 30
0.000000
  70
    32
  0
VERTEX
  8
AM_0
  5
16FAD
 10
203.675
 20
329.785
 30
0.000000
  70
    32
  0
VERTEX
  8
AM_0
  5
16FAE
 10
203.664
 20
329.907
 30
0.000000
  70
    32
  0
VERTEX
  8
AM_0
  5
16FAF
 10
203.651
 20
330.029
 30
0.000000
  70
    32
  0
VERTEX
  8
AM_0
  5
16FB0
 10
203.637
 20
330.151
 30
0.000000
  70
    32
  0
VERTEX
  8
AM_0
  5
16FB1
 10
203.621
 20
330.272
 30
0.000000
  70
    32
  0
VERTEX
  8
AM_0
  5
16FB2
 10
203.604
 20
330.394
 30
0.000000
  70
    32
  0
VERTEX
  8
AM_0
  5
16FB3
 10
203.585
 20
330.515
 30
0.000000
  70
    32
  0
VERTEX
  8
AM_0
  5
16FB4
 10
203.565
 20
330.636
 30
0.000000
  70
    32
  0
VERTEX
  8
AM_0
  5
16FB5
 10
203.543
 20
330.757
 30
0.000000
  70
    32
  0
VERTEX
  8
AM_0
  5
16FB6
 10
203.520
 20
330.878
 30
0.000000
  70
    32
  0
VERTEX
  8
AM_0
  5
16FB7
 10
203.495
 20
330.998
 30
0.000000
  70
    32
  0
VERTEX
  8
AM_0
  5
16FB8
 10
203.469
 20
331.118
 30
0.000000
  70
    32
  0
VERTEX
  8
AM_0
  5
16FB9
 10
203.441
 20
331.237
 30
0.000000
  70
    32
  0
VERTEX
  8
AM_0
  5
16FBA
 10
203.412
 20
331.356
 30
0.000000
  70
    32
  0
VERTEX
  8
AM_0
  5
16FBB
 10
203.382
 20
331.475
 30
0.000000
  70
    32
  0
VERTEX
  8
AM_0
  5
16FBC
 10
203.350
 20
331.594
 30
0.000000
  70
    32
  0
VERTEX
  8
AM_0
  5
16FBD
 10
203.316
 20
331.712
 30
0.000000
  70
    32
  0
VERTEX
  8
AM_0
  5
16FBE
 10
203.281
 20
331.829
 30
0.000000
  70
    32
  0
VERTEX
  8
AM_0
  5
16FBF
 10
203.245
 20
331.947
 30
0.000000
  70
    32
  0
VERTEX
  8
AM_0
  5
16FC0
 10
203.207
 20
332.063
 30
0.000000
  70
    32
  0
VERTEX
  8
AM_0
  5
16FC1
 10
203.168
 20
332.180
 30
0.000000
  70
    32
  0
VERTEX
  8
AM_0
  5
16FC2
 10
203.127
 20
332.295
 30
0.000000
  70
    32
  0
VERTEX
  8
AM_0
  5
16FC3
 10
203.085
 20
332.411
 30
0.000000
  70
    32
  0
VERTEX
  8
AM_0
  5
16FC4
 10
203.042
 20
332.526
 30
0.000000
  70
    32
  0
VERTEX
  8
AM_0
  5
16FC5
 10
202.997
 20
332.640
 30
0.000000
  70
    32
  0
VERTEX
  8
AM_0
  5
16FC6
 10
202.951
 20
332.753
 30
0.000000
  70
    32
  0
VERTEX
  8
AM_0
  5
16FC7
 10
202.903
 20
332.867
 30
0.000000
  70
    32
  0
VERTEX
  8
AM_0
  5
16FC8
 10
202.854
 20
332.979
 30
0.000000
  70
    32
  0
VERTEX
  8
AM_0
  5
16FC9
 10
202.804
 20
333.091
 30
0.000000
  70
    32
  0
VERTEX
  8
AM_0
  5
16FCA
 10
202.752
 20
333.202
 30
0.000000
  70
    32
  0
VERTEX
  8
AM_0
  5
16FCB
 10
202.699
 20
333.313
 30
0.000000
  70
    32
  0
VERTEX
  8
AM_0
  5
16FCC
 10
202.644
 20
333.423
 30
0.000000
  70
    32
  0
VERTEX
  8
AM_0
  5
16FCD
 10
202.588
 20
333.532
 30
0.000000
  70
    32
  0
VERTEX
  8
AM_0
  5
16FCE
 10
202.531
 20
333.641
 30
0.000000
  70
    32
  0
VERTEX
  8
AM_0
  5
16FCF
 10
202.473
 20
333.748
 30
0.000000
  70
    32
  0
VERTEX
  8
AM_0
  5
16FD0
 10
202.413
 20
333.856
 30
0.000000
  70
    32
  0
VERTEX
  8
AM_0
  5
16FD1
 10
202.352
 20
333.962
 30
0.000000
  70
    32
  0
VERTEX
  8
AM_0
  5
16FD2
 10
202.289
 20
334.068
 30
0.000000
  70
    32
  0
VERTEX
  8
AM_0
  5
16FD3
 10
202.225
 20
334.172
 30
0.000000
  70
    32
  0
VERTEX
  8
AM_0
  5
16FD4
 10
202.160
 20
334.277
 30
0.000000
  70
    32
  0
VERTEX
  8
AM_0
  5
16FD5
 10
202.094
 20
334.380
 30
0.000000
  70
    32
  0
VERTEX
  8
AM_0
  5
16FD6
 10
202.027
 20
334.482
 30
0.000000
  70
    32
  0
VERTEX
  8
AM_0
  5
16FD7
 10
201.958
 20
334.584
 30
0.000000
  70
    32
  0
VERTEX
  8
AM_0
  5
16FD8
 10
201.888
 20
334.685
 30
0.000000
  70
    32
  0
VERTEX
  8
AM_0
  5
16FD9
 10
201.816
 20
334.785
 30
0.000000
  70
    32
  0
VERTEX
  8
AM_0
  5
16FDA
 10
201.744
 20
334.884
 30
0.000000
  70
    32
  0
VERTEX
  8
AM_0
  5
16FDB
 10
201.670
 20
334.982
 30
0.000000
  70
    32
  0
VERTEX
  8
AM_0
  5
16FDC
 10
201.595
 20
335.079
 30
0.000000
  70
    32
  0
VERTEX
  8
AM_0
  5
16FDD
 10
201.519
 20
335.175
 30
0.000000
  70
    32
  0
VERTEX
  8
AM_0
  5
16FDE
 10
201.442
 20
335.271
 30
0.000000
  70
    32
  0
VERTEX
  8
AM_0
  5
16FDF
 10
201.364
 20
335.365
 30
0.000000
  70
    32
  0
VERTEX
  8
AM_0
  5
16FE0
 10
201.284
 20
335.458
 30
0.000000
  70
    32
  0
VERTEX
  8
AM_0
  5
16FE1
 10
201.203
 20
335.551
 30
0.000000
  70
    32
  0
VERTEX
  8
AM_0
  5
16FE2
 10
201.121
 20
335.642
 30
0.000000
  70
    32
  0
VERTEX
  8
AM_0
  5
16FE3
 10
201.038
 20
335.733
 30
0.000000
  70
    32
  0
VERTEX
  8
AM_0
  5
16FE4
 10
200.954
 20
335.822
 30
0.000000
  70
    32
  0
VERTEX
  8
AM_0
  5
16FE5
 10
200.869
 20
335.910
 30
0.000000
  70
    32
  0
VERTEX
  8
AM_0
  5
16FE6
 10
200.783
 20
335.998
 30
0.000000
  70
    32
  0
VERTEX
  8
AM_0
  5
16FE7
 10
200.696
 20
336.084
 30
0.000000
  70
    32
  0
VERTEX
  8
AM_0
  5
16FE8
 10
200.607
 20
336.169
 30
0.000000
  70
    32
  0
VERTEX
  8
AM_0
  5
16FE9
 10
200.518
 20
336.253
 30
0.000000
  70
    32
  0
VERTEX
  8
AM_0
  5
16FEA
 10
200.427
 20
336.336
 30
0.000000
  70
    32
  0
VERTEX
  8
AM_0
  5
16FEB
 10
200.336
 20
336.418
 30
0.000000
  70
    32
  0
VERTEX
  8
AM_0
  5
16FEC
 10
200.244
 20
336.499
 30
0.000000
  70
    32
  0
VERTEX
  8
AM_0
  5
16FED
 10
200.150
 20
336.578
 30
0.000000
  70
    32
  0
VERTEX
  8
AM_0
  5
16FEE
 10
200.056
 20
336.657
 30
0.000000
  70
    32
  0
VERTEX
  8
AM_0
  5
16FEF
 10
199.960
 20
336.734
 30
0.000000
  70
    32
  0
VERTEX
  8
AM_0
  5
16FF0
 10
199.864
 20
336.810
 30
0.000000
  70
    32
  0
VERTEX
  8
AM_0
  5
16FF1
 10
199.767
 20
336.885
 30
0.000000
  70
    32
  0
VERTEX
  8
AM_0
  5
16FF2
 10
199.669
 20
336.959
 30
0.000000
  70
    32
  0
VERTEX
  8
AM_0
  5
16FF3
 10
199.570
 20
337.031
 30
0.000000
  70
    32
  0
VERTEX
  8
AM_0
  5
16FF4
 10
199.470
 20
337.102
 30
0.000000
  70
    32
  0
VERTEX
  8
AM_0
  5
16FF5
 10
199.369
 20
337.172
 30
0.000000
  70
    32
  0
VERTEX
  8
AM_0
  5
16FF6
 10
199.268
 20
337.241
 30
0.000000
  70
    32
  0
VERTEX
  8
AM_0
  5
16FF7
 10
199.165
 20
337.309
 30
0.000000
  70
    32
  0
VERTEX
  8
AM_0
  5
16FF8
 10
199.062
 20
337.375
 30
0.000000
  70
    32
  0
VERTEX
  8
AM_0
  5
16FF9
 10
198.958
 20
337.440
 30
0.000000
  70
    32
  0
VERTEX
  8
AM_0
  5
16FFA
 10
198.853
 20
337.504
 30
0.000000
  70
    32
  0
VERTEX
  8
AM_0
  5
16FFB
 10
198.747
 20
337.566
 30
0.000000
  70
    32
  0
VERTEX
  8
AM_0
  5
16FFC
 10
198.641
 20
337.627
 30
0.000000
  70
    32
  0
VERTEX
  8
AM_0
  5
16FFD
 10
198.534
 20
337.687
 30
0.000000
  70
    32
  0
VERTEX
  8
AM_0
  5
16FFE
 10
198.426
 20
337.746
 30
0.000000
  70
    32
  0
VERTEX
  8
AM_0
  5
16FFF
 10
198.317
 20
337.803
 30
0.000000
  70
    32
  0
VERTEX
  8
AM_0
  5
17000
 10
198.208
 20
337.859
 30
0.000000
  70
    32
  0
VERTEX
  8
AM_0
  5
17001
 10
198.098
 20
337.913
 30
0.000000
  70
    32
  0
VERTEX
  8
AM_0
  5
17002
 10
197.987
 20
337.966
 30
0.000000
  70
    32
  0
VERTEX
  8
AM_0
  5
17003
 10
197.876
 20
338.018
 30
0.000000
  70
    32
  0
VERTEX
  8
AM_0
  5
17004
 10
197.764
 20
338.069
 30
0.000000
  70
    32
  0
VERTEX
  8
AM_0
  5
17005
 10
197.652
 20
338.118
 30
0.000000
  70
    32
  0
VERTEX
  8
AM_0
  5
17006
 10
197.539
 20
338.165
 30
0.000000
  70
    32
  0
VERTEX
  8
AM_0
  5
17007
 10
197.425
 20
338.212
 30
0.000000
  70
    32
  0
VERTEX
  8
AM_0
  5
17008
 10
197.311
 20
338.256
 30
0.000000
  70
    32
  0
VERTEX
  8
AM_0
  5
17009
 10
197.196
 20
338.300
 30
0.000000
  70
    32
  0
VERTEX
  8
AM_0
  5
1700A
 10
197.081
 20
338.342
 30
0.000000
  70
    32
  0
VERTEX
  8
AM_0
  5
1700B
 10
196.965
 20
338.383
 30
0.000000
  70
    32
  0
VERTEX
  8
AM_0
  5
1700C
 10
196.849
 20
338.422
 30
0.000000
  70
    32
  0
VERTEX
  8
AM_0
  5
1700D
 10
196.732
 20
338.460
 30
0.000000
  70
    32
  0
VERTEX
  8
AM_0
  5
1700E
 10
196.615
 20
338.496
 30
0.000000
  70
    32
  0
VERTEX
  8
AM_0
  5
1700F
 10
196.497
 20
338.531
 30
0.000000
  70
    32
  0
VERTEX
  8
AM_0
  5
17010
 10
196.379
 20
338.564
 30
0.000000
  70
    32
  0
VERTEX
  8
AM_0
  5
17011
 10
196.261
 20
338.596
 30
0.000000
  70
    32
  0
VERTEX
  8
AM_0
  5
17012
 10
196.142
 20
338.627
 30
0.000000
  70
    32
  0
VERTEX
  8
AM_0
  5
17013
 10
196.022
 20
338.656
 30
0.000000
  70
    32
  0
VERTEX
  8
AM_0
  5
17014
 10
195.903
 20
338.684
 30
0.000000
  70
    32
  0
VERTEX
  8
AM_0
  5
17015
 10
195.783
 20
338.710
 30
0.000000
  70
    32
  0
VERTEX
  8
AM_0
  5
17016
 10
195.663
 20
338.734
 30
0.000000
  70
    32
  0
VERTEX
  8
AM_0
  5
17017
 10
195.542
 20
338.758
 30
0.000000
  70
    32
  0
VERTEX
  8
AM_0
  5
17018
 10
195.422
 20
338.779
 30
0.000000
  70
    32
  0
VERTEX
  8
AM_0
  5
17019
 10
195.300
 20
338.800
 30
0.000000
  70
    32
  0
VERTEX
  8
AM_0
  5
1701A
 10
195.179
 20
338.818
 30
0.000000
  70
    32
  0
VERTEX
  8
AM_0
  5
1701B
 10
195.058
 20
338.836
 30
0.000000
  70
    32
  0
VERTEX
  8
AM_0
  5
1701C
 10
194.936
 20
338.851
 30
0.000000
  70
    32
  0
VERTEX
  8
AM_0
  5
1701D
 10
194.814
 20
338.866
 30
0.000000
  70
    32
  0
VERTEX
  8
AM_0
  5
1701E
 10
194.692
 20
338.878
 30
0.000000
  70
    32
  0
VERTEX
  8
AM_0
  5
1701F
 10
194.570
 20
338.890
 30
0.000000
  70
    32
  0
VERTEX
  8
AM_0
  5
17020
 10
194.448
 20
338.899
 30
0.000000
  70
    32
  0
VERTEX
  8
AM_0
  5
17021
 10
194.325
 20
338.908
 30
0.000000
  70
    32
  0
VERTEX
  8
AM_0
  5
17022
 10
194.203
 20
338.914
 30
0.000000
  70
    32
  0
VERTEX
  8
AM_0
  5
17023
 10
194.080
 20
338.920
 30
0.000000
  70
    32
  0
VERTEX
  8
AM_0
  5
17024
 10
193.957
 20
338.924
 30
0.000000
  70
    32
  0
VERTEX
  8
AM_0
  5
17025
 10
193.835
 20
338.926
 30
0.000000
  70
    32
  0
VERTEX
  8
AM_0
  5
17026
 10
193.712
 20
338.927
 30
0.000000
  70
    32
  0
SEQEND
  8
AM_0
  5
17027
  0
CIRCLE
  5
1623B
  8
AM_0
 10
146.21188554374811
 20
278.92712925139699
 30
0.0
 40
37.500001117587097
  0
LINE
  5
1625D
  8
AM_0
 10
-100.2820138165512
 20
534.23161190718997
 30
0.0
 11
-99.782013816551228
 21
531.4616228935181
 31
0.0
  0
POLYLINE
  5
1625E
  8
AM_0
 66
     1
 10
0.0
 20
0.0
 30
0.0
  0
VERTEX
  5
1625F
  8
AM_0
 10
-80.909877332176194
 20
533.11287418258064
 30
0.0
 42
0.0007337051
  0
VERTEX
  5
16260
  8
AM_0
 10
-80.865737332176238
 20
532.51046418258068
 30
0.0
 42
0.00075211323
  0
VERTEX
  5
16261
  8
AM_0
 10
-80.819797332176265
 20
531.90806418258035
 30
0.0
 42
0.0007297491
  0
VERTEX
  5
16262
  8
AM_0
 10
-80.772067332176064
 20
531.30586418258065
 30
0.0
 42
0.00073593041
  0
VERTEX
  5
16263
  8
AM_0
 10
-80.722587332176374
 20
530.70387418258065
 30
0.0
 42
0.00074742739
  0
VERTEX
  5
16264
  8
AM_0
 10
-80.671317332175974
 20
530.10201418258055
 30
0.0
 42
0.00073217363
  0
VERTEX
  5
16265
  8
AM_0
 10
-80.618257332176242
 20
529.50020418258066
 30
0.0
 42
0.00073754168
  0
VERTEX
  5
16266
  8
AM_0
 10
-80.563437332176434
 20
528.89866418258077
 30
0.0
 42
0.00073075073
  0
VERTEX
  5
16267
  8
AM_0
 10
-80.506857332176025
 20
528.29731418258064
 30
0.0
 42
0.00074550816
  0
VERTEX
  5
16268
  8
AM_0
 10
-80.448517332176436
 20
527.6962441825807
 30
0.0
 42
0.00074288416
  0
VERTEX
  5
16269
  8
AM_0
 10
-80.388367332176188
 20
527.09522418258064
 30
0.0
 42
0.00072504001
  0
VERTEX
  5
1626A
  8
AM_0
 10
-80.32645733217629
 20
526.49448418258044
 30
0.0
 42
0.00074640667
  0
VERTEX
  5
1626B
  8
AM_0
 10
-80.262787332176273
 20
525.89387418258036
 30
0.0
  0
SEQEND
  5
1626C
  8
AM_0
  0
LINE
  5
1626D
  8
AM_0
 10
-97.788117332176213
 20
501.43342418258061
 30
0.0
 11
-97.788117332176213
 21
544.4534441825806
 31
0.0
  0
LINE
  5
1626E
  8
AM_0
 10
-92.788117332176213
 20
499.45344418258048
 30
0.0
 11
-92.788117332176213
 21
599.45344418258048
 31
0.0
  0
LINE
  5
1626F
  8
AM_0
 10
-91.788117332176228
 20
496.45344418258043
 30
0.0
 11
-91.788117332176228
 21
602.4534441825806
 31
0.0
  0
LINE
  5
16270
  8
AM_0
 10
-99.288117332176228
 20
529.45344418258037
 30
0.0
 11
-99.288117332176228
 21
569.4534441825806
 31
0.0
  0
LINE
  5
16271
  8
AM_0
 10
24.211882667823769
 20
493.4534441825806
 30
0.0
 11
24.211882667823769
 21
605.4534441825806
 31
0.0
  0
LINE
  5
16272
  8
AM_0
 10
-83.788117332176213
 20
496.45344418258043
 30
0.0
 11
-83.788117332176213
 21
602.4534441825806
 31
0.0
  0
LINE
  5
16274
  8
AM_0
 10
-91.788117332176228
 20
602.4534441825806
 30
0.0
 11
-83.788117332176213
 21
602.4534441825806
 31
0.0
  0
LINE
  5
16275
  8
AM_0
 10
-75.288117332176213
 20
615.45344418258071
 30
0.0
 11
-75.288117332176213
 21
634.9534441825806
 31
0.0
  0
LINE
  5
16276
  8
AM_0
 10
-66.288117332176228
 20
618.9534441825806
 30
0.0
 11
-66.288117332176228
 21
626.4534441825806
 31
0.0
  0
LINE
  5
16277
  8
AM_0
 10
-69.788117332176213
 20
618.9534441825806
 30
0.0
 11
-69.788117332176213
 21
626.4534441825806
 31
0.0
  0
LINE
  5
16278
  8
AM_0
 10
-54.78811733217622
 20
626.4534441825806
 30
0.0
 11
-54.78811733217622
 21
618.9534441825806
 31
0.0
  0
LINE
  5
16279
  8
AM_0
 10
-58.288117332176228
 20
618.9534441825806
 30
0.0
 11
-58.288117332176228
 21
626.4534441825806
 31
0.0
  0
LINE
  5
1627A
  8
AM_0
 10
4.7118826678237671
 20
615.45344418258071
 30
0.0
 11
4.7118826678237671
 21
622.4534441825806
 31
0.0
  0
LINE
  5
1627B
  8
AM_0
 10
2.2118826678237702
 20
638.9534441825806
 30
0.0
 11
-72.788117332176213
 21
638.9534441825806
 31
0.0
  0
LINE
  5
1627C
  8
AM_0
 10
-8.9841173321761421
 20
641.95344418258037
 30
0.0
 11
-44.592117332176308
 21
641.95344418258037
 31
0.0
  0
LINE
  5
1627D
  8
AM_0
 10
4.7118826678237671
 20
622.4534441825806
 30
0.0
 11
-52.78811733217622
 21
622.4534441825806
 31
0.0
  0
LINE
  5
1627E
  8
AM_0
 10
-3.788117332176228
 20
638.9534441825806
 30
0.0
 11
-8.9841173321761421
 21
641.95344418258037
 31
0.0
  0
LINE
  5
1627F
  8
AM_0
 10
3.2118826678237702
 20
622.4534441825806
 30
0.0
 11
3.2118826678237702
 21
637.95344418258037
 31
0.0
  0
ARC
  5
16280
  8
AM_0
 10
2.2118826678238261
 20
637.95344418258071
 30
0.0
 40
1.0
 50
0.0
 51
90.0
  0
ARC
  5
16281
  8
AM_0
 10
-61.288117332176228
 20
627.4534441825806
 30
0.0
 40
7.4999999999999956
 50
0.0
 51
90.0
  0
ARC
  5
16282
  8
AM_0
 10
-62.28811733217622
 20
626.4534441825806
 30
0.0
 40
7.5000000000000018
 50
0.0
 51
180.0
  0
LINE
  5
16283
  8
AM_0
 10
-44.592117332176308
 20
641.95344418258037
 30
0.0
 11
-49.780892842379281
 21
638.9534441825806
 31
0.0
  0
ARC
  5
16284
  8
AM_0
 10
-52.78811733217622
 20
623.4534441825806
 30
0.0
 40
1.0
 50
180.0
 51
270.0
  0
LINE
  5
16285
  8
AM_0
 10
-53.788117332176228
 20
627.4534441825806
 30
0.0
 11
-53.788117332176228
 21
623.4534441825806
 31
0.0
  0
LINE
  5
16286
  8
AM_0
 10
-75.288117332176213
 20
622.4534441825806
 30
0.0
 11
-71.788117332176242
 21
622.4534441825806
 31
0.0
  0
LINE
  5
16287
  8
AM_0
 10
-75.288117332176213
 20
634.9534441825806
 30
0.0
 11
-73.788117332176242
 21
634.9534441825806
 31
0.0
  0
LINE
  5
16288
  8
AM_0
 10
-73.788117332176242
 20
622.4534441825806
 30
0.0
 11
-73.788117332176242
 21
637.95344418258037
 31
0.0
  0
ARC
  5
16289
  8
AM_0
 10
-62.28811733217622
 20
626.4534441825806
 30
0.0
 40
3.999999999999996
 50
0.0
 51
180.0
  0
ARC
  5
1628A
  8
AM_0
 10
-63.288117332176228
 20
627.4534441825806
 30
0.0
 40
7.499999999999992
 50
90.0
 51
180.0
  0
LINE
  5
1628B
  8
AM_0
 10
-61.288117332176228
 20
634.9534441825806
 30
0.0
 11
-63.288117332176228
 21
634.9534441825806
 31
0.0
  0
ARC
  5
1628C
  8
AM_0
 10
-72.788117332176213
 20
637.95344418258037
 30
0.0
 40
1.0
 50
90.0
 51
180.0
  0
LINE
  5
1628D
  8
AM_0
 10
-70.788117332176242
 20
623.4534441825806
 30
0.0
 11
-70.788117332176242
 21
627.4534441825806
 31
0.0
  0
ARC
  5
1628E
  8
AM_0
 10
-71.788117332176242
 20
623.4534441825806
 30
0.0
 40
1.0
 50
270.0
 51
0.0
  0
LINE
  5
1628F
  8
AM_0
 10
-26.788117332176231
 20
586.1734141825807
 30
0.0
 11
21.03189266782368
 21
586.1734141825807
 31
0.0
  0
LINE
  5
16290
  8
AM_0
 10
17.551912667823611
 20
585.4534441825806
 30
0.0
 11
-26.788117332176231
 21
585.4534441825806
 31
0.0
  0
LINE
  5
16291
  8
AM_0
 10
17.551912667823611
 20
583.45344418258037
 30
0.0
 11
-26.788117332176231
 21
583.45344418258037
 31
0.0
  0
LINE
  5
16292
  8
AM_0
 10
-80.578097332176242
 20
605.73347418258072
 30
0.0
 11
16.341892667823618
 21
605.73347418258072
 31
0.0
  0
LINE
  5
16293
  8
AM_0
 10
17.5447126678236
 20
573.4534441825806
 30
0.0
 11
-81.428127332176288
 21
573.4534441825806
 31
0.0
  0
LINE
  5
16294
  8
AM_0
 10
-82.108127332176124
 20
582.82344418258072
 30
0.0
 11
-14.7680973321763
 21
582.82344418258072
 31
0.0
  0
LINE
  5
16295
  8
AM_0
 10
-82.328097332176242
 20
575.94343418258063
 30
0.0
 11
-14.788117332176229
 21
575.94343418258063
 31
0.0
  0
LINE
  5
16296
  8
AM_0
 10
4.7118826678237671
 20
615.45344418258071
 30
0.0
 11
-75.288117332176213
 21
615.45344418258071
 31
0.0
  0
LINE
  5
16297
  8
AM_0
 10
-75.288117332176213
 20
618.9534441825806
 30
0.0
 11
4.7118826678237671
 21
618.9534441825806
 31
0.0
  0
LINE
  5
16298
  8
AM_0
 10
-14.788117332176229
 20
575.45344418258037
 30
0.0
 11
-81.428127332176288
 21
575.45344418258037
 31
0.0
  0
LINE
  5
16299
  8
AM_0
 10
-82.328097332176242
 20
573.01350418258062
 30
0.0
 11
21.24612266782373
 21
573.01350418258062
 31
0.0
  0
ARC
  5
1629A
  8
AM_0
 10
-14.788117332176229
 20
576.9534441825806
 30
0.0
 40
1.5
 50
269.9999969999991
 51
0.0
  0
ARC
  5
1629B
  8
AM_0
 10
3.2118826678237702
 20
576.9534441825806
 30
0.0
 40
1.5
 50
179.999989999999
 51
269.9999969999991
  0
ARC
  5
1629C
  8
AM_0
 10
21.25186266782384
 20
574.48347418258061
 30
0.0
 40
1.460011199999999
 50
269.77524999999991
 51
90.224750000000057
  0
LINE
  5
1629D
  8
AM_0
 10
21.03189266782368
 20
582.82344418258072
 30
0.0
 11
3.1919226678236869
 21
582.82344418258072
 31
0.0
  0
LINE
  5
1629E
  8
AM_0
 10
3.2118826678237702
 20
575.93342418258055
 30
0.0
 11
21.24612266782373
 21
575.93342418258055
 31
0.0
  0
LINE
  5
1629F
  8
AM_0
 10
4.7909814757599021
 20
611.95344418258048
 30
0.0
 11
16.228122667823691
 21
611.95344418258048
 31
0.0
  0
LINE
  5
162A0
  8
AM_0
 10
21.047250347372881
 20
593.88952740677973
 30
0.0
 11
18.271882667823711
 21
604.25343418258035
 31
0.0
  0
LINE
  5
162A1
  8
AM_0
 10
24.211882667823769
 20
605.4534441825806
 30
0.0
 11
32.211882667823772
 21
605.4534441825806
 31
0.0
  0
LINE
  5
162A2
  8
AM_0
 10
23.211882667823769
 20
602.4534441825806
 30
0.0
 11
17.486142667823909
 21
611.27034418258063
 31
0.0
  0
ARC
  5
162A3
  8
AM_0
 10
16.228122667823691
 20
610.4534441825806
 30
0.0
 40
1.5
 50
33.000000000001961
 51
90.000010000000998
  0
ARC
  5
162A4
  8
AM_0
 10
16.337062667823769
 20
603.72871418258035
 30
0.0
 40
2.0047290000000002
 50
15.173499999998089
 51
89.861679999998984
  0
LINE
  5
162A5
  8
AM_0
 10
18.753932667823779
 20
602.4534441825806
 30
0.0
 11
24.211882667823769
 21
602.4534441825806
 31
0.0
  0
LINE
  5
162A6
  8
AM_0
 10
24.211882667823769
 20
595.45344418258048
 30
0.0
 11
32.211882667823772
 21
595.45344418258048
 31
0.0
  0
LINE
  5
162A7
  8
AM_0
 10
24.211882667823769
 20
581.39338418258046
 30
0.0
 11
32.211882667823772
 21
581.39338418258046
 31
0.0
  0
ARC
  5
162A8
  8
AM_0
 10
22.311882667824189
 20
589.15342418258069
 30
0.0
 40
1.699996899999999
 50
180.00001999999549
 51
269.9999969999991
  0
ARC
  5
162A9
  8
AM_0
 10
22.311882667824189
 20
592.75343418258069
 30
0.0
 40
1.7000007999999991
 50
90.000019999998784
 51
179.999989999999
  0
LINE
  5
162AA
  8
AM_0
 10
20.611902667823809
 20
589.15342418258069
 30
0.0
 11
20.611902667823809
 21
592.75343418258069
 31
0.0
  0
LINE
  5
162AB
  8
AM_0
 10
23.211882667823769
 20
587.15342418258058
 30
0.0
 11
24.211882667823769
 21
587.15342418258058
 31
0.0
  0
LINE
  5
162AC
  8
AM_0
 10
24.211882667823769
 20
591.17607418258069
 30
0.0
 11
23.211882667823769
 21
591.75343418258058
 31
0.0
  0
LINE
  5
162AD
  8
AM_0
 10
24.211882667823769
 20
590.17607418258035
 30
0.0
 11
23.211882667823769
 21
590.75343418258058
 31
0.0
  0
LINE
  5
162AE
  8
AM_0
 10
23.211882667823769
 20
594.75343418258058
 30
0.0
 11
24.211882667823769
 21
594.75343418258058
 31
0.0
  0
LINE
  5
162AF
  8
AM_0
 10
24.211882667823769
 20
587.15342418258058
 30
0.0
 11
24.211882667823769
 21
594.75343418258058
 31
0.0
  0
LINE
  5
162B0
  8
AM_0
 10
23.211882667823769
 20
587.15342418258058
 30
0.0
 11
23.211882667823769
 21
594.75343418258058
 31
0.0
  0
LINE
  5
162B1
  8
AM_0
 10
23.211882667823769
 20
587.45344418258037
 30
0.0
 11
22.311882667824129
 21
587.45344418258037
 31
0.0
  0
LINE
  5
162B2
  8
AM_0
 10
23.211882667823769
 20
594.4534441825806
 30
0.0
 11
22.311882667824129
 21
594.4534441825806
 31
0.0
  0
ARC
  5
162B3
  8
AM_0
 10
17.551912667823611
 20
584.4534441825806
 30
0.0
 40
1.0
 50
269.9999969999991
 51
90.000010000000998
  0
ARC
  5
162B4
  8
AM_0
 10
21.03189266782374
 20
584.49849418258054
 30
0.0
 40
1.6750020000000001
 50
269.9999969999991
 51
90.000010000000998
  0
LINE
  5
162B5
  8
AM_0
 10
3.2380980815113931
 20
615.45344418258071
 30
0.0
 11
3.4926118815791911
 21
605.73347418258072
 31
0.0
  0
ARC
  5
162B6
  8
AM_0
 10
4.7909814757599021
 20
613.4534441825806
 30
0.0
 40
1.5
 50
181.49992594324999
 51
270.0
1001
GENIUS_GENODEF_13
1002
{
1000
HIER
1070
     0
1002
}
1002
{
1000
MANEDIT
1070
     0
1002
}
1002
{
1000
NOSEL
1070
     0
1002
}
1002
{
1000
BEHIND
1070
     0
1002
}
1002
{
1000
REACTOR
1002
}
1001
GENIUS_GENOBJ-N-FIL_13
1002
{
1000
OWNER
1000
GEN
1002
}
  0
CIRCLE
  5
162B7
  8
AM_0
 10
-8.2881173321762294
 20
577.9534441825806
 30
0.0
 40
1.1000000000000001
  0
CIRCLE
  5
162B8
  8
AM_0
 10
-8.2881173321762294
 20
577.9534441825806
 30
0.0
 40
1.149999999999999
  0
ARC
  5
162B9
  8
AM_0
 10
3.2118826678237702
 20
576.9534441825806
 30
0.0
 40
1.02
 50
179.999989999999
 51
269.9999969999991
  0
ARC
  5
162BA
  8
AM_0
 10
3.2118826678237702
 20
581.9534441825806
 30
0.0
 40
1.5
 50
90.0
 51
180.00001000000091
  0
ARC
  5
162BB
  8
AM_0
 10
3.1919226678236869
 20
581.81343418258064
 30
0.0
 40
1.0
 50
90.0
 51
180.00001000000091
  0
LINE
  5
162BC
  8
AM_0
 10
1.7118826678237691
 20
576.9534441825806
 30
0.0
 11
1.7118826678237691
 21
581.9534441825806
 31
0.0
  0
LINE
  5
162BD
  8
AM_0
 10
2.1919226678236861
 20
576.9534441825806
 30
0.0
 11
2.1919226678236861
 21
581.81343418258075
 31
0.0
  0
CIRCLE
  5
162BE
  8
AM_0
 10
-3.288117332176228
 20
577.9534441825806
 30
0.0
 40
1.0
  0
ARC
  5
162BF
  8
AM_0
 10
-14.788117332176229
 20
576.9534441825806
 30
0.0
 40
1.02
 50
269.9999969999991
 51
0.0
  0
ARC
  5
162C0
  8
AM_0
 10
-14.788117332176229
 20
581.9534441825806
 30
0.0
 40
1.5
 50
359.99999931675052
 51
90.000010000000998
  0
ARC
  5
162C1
  8
AM_0
 10
-14.7680973321763
 20
581.81343418258064
 30
0.0
 40
1.0
 50
359.99999931675052
 51
90.000010000000998
  0
LINE
  5
162C2
  8
AM_0
 10
-13.7680973321763
 20
576.9534441825806
 30
0.0
 11
-13.7680973321763
 21
581.81343418258075
 31
0.0
  0
LINE
  5
162C3
  8
AM_0
 10
-13.288117332176229
 20
576.9534441825806
 30
0.0
 11
-13.288117332176229
 21
581.9534441825806
 31
0.0
  0
LINE
  5
162C4
  8
AM_0
 10
17.5447126678236
 20
575.45344418258037
 30
0.0
 11
3.2118826678237702
 21
575.45344418258037
 31
0.0
  0
ARC
  5
162C5
  8
AM_0
 10
17.551852667823759
 20
574.45344418258048
 30
0.0
 40
1.0000255999999981
 50
269.58946899999899
 51
90.410530000000037
  0
ARC
  5
162C6
  8
AM_0
 10
-82.328097332176242
 20
574.47847418258061
 30
0.0
 40
1.465004
 50
90.0
 51
269.9999969999991
  0
ARC
  5
162C7
  8
AM_0
 10
-58.455404510824387
 20
610.08345418258068
 30
0.0
 40
1.5
 50
270.0
 51
358.50027754901231
1001
GENIUS_GENODEF_13
1002
{
1000
HIER
1070
     0
1002
}
1002
{
1000
MANEDIT
1070
     0
1002
}
1002
{
1000
NOSEL
1070
     0
1002
}
1002
{
1000
BEHIND
1070
     0
1002
}
1002
{
1000
REACTOR
1002
}
1001
GENIUS_GENOBJ-N-FIL_13
1002
{
1000
OWNER
1000
GEN
1002
}
  0
LINE
  5
162C8
  8
AM_0
 10
-26.788117332176231
 20
585.4534441825806
 30
0.0
 11
-81.428127332176288
 21
585.4534441825806
 31
0.0
  0
LINE
  5
162C9
  8
AM_0
 10
-26.788117332176231
 20
583.45344418258037
 30
0.0
 11
-81.428127332176288
 21
583.45344418258037
 31
0.0
  0
LINE
  5
162CA
  8
AM_0
 10
-82.108127332176124
 20
586.1734141825807
 30
0.0
 11
-26.788117332176231
 21
586.1734141825807
 31
0.0
  0
LINE
  5
162CB
  8
AM_0
 10
-56.814298406280209
 20
615.4534441825806
 30
0.0
 11
-57.06877766113945
 21
605.73347418258072
 31
0.0
  0
LINE
  5
162CC
  8
AM_0
 10
-78.428127332176288
 20
586.10347418258061
 30
0.0
 11
-83.788057332176365
 21
597.54338418258067
 31
0.0
  0
LINE
  5
162CD
  8
AM_0
 10
-80.881867332176228
 20
608.58345418258057
 30
0.0
 11
-58.455404510824387
 21
608.58345418258057
 31
0.0
  0
ARC
  5
162CE
  8
AM_0
 10
-80.881867332176228
 20
606.58345418258068
 30
0.0
 40
2.0
 50
90.000010000000998
 51
172.04955999999649
  0
ARC
  5
162CF
  8
AM_0
 10
-80.801487332176336
 20
606.58345418258068
 30
0.0
 40
2.0
 50
90.000010000000998
 51
171.3703800000024
  0
ARC
  5
162D0
  8
AM_0
 10
-80.531887332176268
 20
606.58308418258025
 30
0.0
 40
2.000420099999999
 50
90.177290000000724
 51
171.0731799999985
  0
ARC
  5
162D1
  8
AM_0
 10
-80.583217332176048
 20
603.73421418258056
 30
0.0
 40
1.9992490000000001
 50
89.852569999998622
 51
169.35689999999889
  0
LINE
  5
162D2
  8
AM_0
 10
-83.788117332176213
 20
598.89348418258044
 30
0.0
 11
-82.508087332176331
 21
606.89339418258044
 31
0.0
  0
LINE
  5
162D3
  8
AM_0
 10
-83.788117332176213
 20
597.54347418258055
 30
0.0
 11
-82.548067332176345
 21
604.1034741825805
 31
0.0
  0
LINE
  5
162D4
  8
AM_0
 10
-83.788117332176213
 20
600.23338418258072
 30
0.0
 11
-82.778837332176025
 21
606.88356418258036
 31
0.0
  0
LINE
  5
162D5
  8
AM_0
 10
-83.788057332176365
 20
600.23341418258065
 30
0.0
 11
-82.862637332176348
 21
606.86000418258072
 31
0.0
  0
LINE
  5
162D6
  8
AM_0
 10
-91.088107332176207
 20
592.64339418258044
 30
0.0
 11
-84.858127332176124
 21
592.64339418258044
 31
0.0
  0
ARC
  5
162D7
  8
AM_0
 10
-82.114957332176402
 20
584.49849418258054
 30
0.0
 40
1.675014
 50
89.766490000000559
 51
270.23350099999988
  0
ARC
  5
162D8
  8
AM_0
 10
-81.243497332176105
 20
584.4534441825806
 30
0.0
 40
1.0000138999999999
 50
89.691659999999274
 51
270.30834000000073
  0
POLYLINE
  5
162D9
  8
AM_0
 66
     1
 10
0.0
 20
0.0
 30
0.0
  0
VERTEX
  5
162DA
  8
AM_0
 10
-79.927217332176099
 20
575.93648418258056
 30
0.0
 42
-0.0006890001
  0
VERTEX
  5
162DB
  8
AM_0
 10
-79.856337332176338
 20
576.51123418258044
 30
0.0
 42
-0.00070644651
  0
VERTEX
  5
162DC
  8
AM_0
 10
-79.783837332176105
 20
577.0859141825805
 30
0.0
 42
-0.0006924559
  0
VERTEX
  5
162DD
  8
AM_0
 10
-79.70974733217605
 20
577.66023418258044
 30
0.0
 42
-0.00069587797
  0
VERTEX
  5
162DE
  8
AM_0
 10
-79.634067332176116
 20
578.23437418258061
 30
0.0
 42
-0.00071687041
  0
VERTEX
  5
162DF
  8
AM_0
 10
-79.556757332176446
 20
578.80837418258068
 30
0.0
 42
-0.00069759113
  0
VERTEX
  5
162E0
  8
AM_0
 10
-79.477817332176116
 20
579.3821641825806
 30
0.0
 42
-0.00071003142
  0
VERTEX
  5
162E1
  8
AM_0
 10
-79.397277332176202
 20
579.95563418258064
 30
0.0
 42
-0.00069954544
  0
VERTEX
  5
162E2
  8
AM_0
 10
-79.315137332176221
 20
580.52873418258037
 30
0.0
 42
-0.0007188852
  0
VERTEX
  5
162E3
  8
AM_0
 10
-79.231357332176287
 20
581.10176418258061
 30
0.0
 42
-0.00071266165
  0
VERTEX
  5
162E4
  8
AM_0
 10
-79.1459273321762
 20
581.67452418258063
 30
0.0
 42
-0.00071614577
  0
VERTEX
  5
162E5
  8
AM_0
 10
-79.058897332176045
 20
582.24687418258065
 30
0.0
 42
-0.00072290806
  0
VERTEX
  5
162E6
  8
AM_0
 10
-78.970187332176053
 20
582.81917418258035
 30
0.0
  0
SEQEND
  5
162E7
  8
AM_0
  0
LINE
  5
162E8
  8
AM_0
 10
-82.518097332176296
 20
545.71345418258045
 30
0.0
 11
-46.069427332176069
 21
545.71345418258045
 31
0.0
  0
LINE
  5
162E9
  8
AM_0
 10
-82.518097332176296
 20
543.18342418258055
 30
0.0
 11
-46.069427332176069
 21
543.18342418258055
 31
0.0
  0
LINE
  5
162EA
  8
AM_0
 10
-47.349397332176103
 20
545.45344418258048
 30
0.0
 11
-81.428127332176288
 21
545.45344418258048
 31
0.0
  0
LINE
  5
162EB
  8
AM_0
 10
-47.349397332176103
 20
543.4534441825806
 30
0.0
 11
-81.428127332176288
 21
543.4534441825806
 31
0.0
  0
LINE
  5
162EC
  8
AM_0
 10
-82.458097332176337
 20
535.77339418258055
 30
0.0
 11
-46.129427332176029
 21
535.77339418258055
 31
0.0
  0
LINE
  5
162ED
  8
AM_0
 10
-47.349397332176103
 20
535.4534441825806
 30
0.0
 11
-81.428127332176288
 21
535.4534441825806
 31
0.0
  0
LINE
  5
162EE
  8
AM_0
 10
-82.458097332176337
 20
533.11348418258046
 30
0.0
 11
-46.129427332176029
 21
533.11348418258046
 31
0.0
  0
LINE
  5
162EF
  8
AM_0
 10
-47.349397332176103
 20
533.45344418258037
 30
0.0
 11
-81.428127332176288
 21
533.45344418258037
 31
0.0
  0
LINE
  5
162F0
  8
AM_0
 10
-47.349397332176103
 20
553.4534441825806
 30
0.0
 11
-81.428127332176288
 21
553.4534441825806
 31
0.0
  0
LINE
  5
162F1
  8
AM_0
 10
-82.518097332176296
 20
553.18342418258055
 30
0.0
 11
-46.069427332176069
 21
553.18342418258055
 31
0.0
  0
LINE
  5
162F2
  8
AM_0
 10
-82.458097332176337
 20
565.79341418258059
 30
0.0
 11
-46.116847332176391
 21
565.79341418258059
 31
0.0
  0
LINE
  5
162F3
  8
AM_0
 10
-47.349397332176103
 20
565.4534441825806
 30
0.0
 11
-81.428127332176288
 21
565.4534441825806
 31
0.0
  0
LINE
  5
162F4
  8
AM_0
 10
-47.349397332176103
 20
563.45344418258037
 30
0.0
 11
-81.428127332176288
 21
563.45344418258037
 31
0.0
  0
LINE
  5
162F5
  8
AM_0
 10
-82.458097332176337
 20
563.13350418258074
 30
0.0
 11
-46.129427332176029
 21
563.13350418258074
 31
0.0
  0
LINE
  5
162F6
  8
AM_0
 10
-82.518097332176296
 20
555.72346418258076
 30
0.0
 11
-46.069427332176069
 21
555.72346418258076
 31
0.0
  0
LINE
  5
162F7
  8
AM_0
 10
-47.349397332176103
 20
555.4534441825806
 30
0.0
 11
-81.428127332176288
 21
555.4534441825806
 31
0.0
  0
ARC
  5
162F8
  8
AM_0
 10
-47.349397332176103
 20
554.45344418258037
 30
0.0
 40
1.000005699999998
 50
269.9999969999991
 51
90.000010000000998
  0
ARC
  5
162F9
  8
AM_0
 10
-46.061187332176402
 20
554.45344418258037
 30
0.0
 40
1.2700266
 50
269.6293300000018
 51
90.370680000000107
  0
ARC
  5
162FA
  8
AM_0
 10
-47.349397332176103
 20
564.4534441825806
 30
0.0
 40
1.000005699999998
 50
269.9999969999991
 51
90.000010000000998
  0
ARC
  5
162FB
  8
AM_0
 10
-46.123137332176213
 20
564.46345418258045
 30
0.0
 40
1.3300148000000001
 50
269.72943299999889
 51
90.270580000001416
  0
ARC
  5
162FC
  8
AM_0
 10
-46.061187332176402
 20
544.44343418258063
 30
0.0
 40
1.2700266
 50
269.6293300000018
 51
90.370680000000107
  0
ARC
  5
162FD
  8
AM_0
 10
-47.349397332176103
 20
544.4534441825806
 30
0.0
 40
1.000005699999998
 50
269.9999969999991
 51
90.000010000000998
  0
ARC
  5
162FE
  8
AM_0
 10
-47.349397332176103
 20
534.4534441825806
 30
0.0
 40
1.000005699999998
 50
269.9999969999991
 51
90.000010000000998
  0
ARC
  5
162FF
  8
AM_0
 10
-46.123137332176213
 20
534.43843418258064
 30
0.0
 40
1.3350147999999999
 50
269.73044399999861
 51
90.269570000000087
  0
ARC
  5
16300
  8
AM_0
 10
-81.243497332176105
 20
554.45344418258037
 30
0.0
 40
1.0000138999999999
 50
89.691659999999274
 51
270.30834000000073
  0
ARC
  5
16301
  8
AM_0
 10
-82.523957332176053
 20
554.45344418258037
 30
0.0
 40
1.2700129999999981
 50
89.736630000000844
 51
270.26338300000162
  0
ARC
  5
16302
  8
AM_0
 10
-81.243497332176105
 20
564.4534441825806
 30
0.0
 40
1.0000138999999999
 50
89.691659999999274
 51
270.30834000000073
  0
ARC
  5
16303
  8
AM_0
 10
-82.458097332176337
 20
564.46345418258045
 30
0.0
 40
1.3300049999999981
 50
90.0
 51
269.9999969999991
  0
ARC
  5
16304
  8
AM_0
 10
-81.243497332176105
 20
574.45344418258048
 30
0.0
 40
1.0000138999999999
 50
89.691659999999274
 51
270.30834000000073
  0
POLYLINE
  5
16305
  8
AM_0
 66
     1
 10
0.0
 20
0.0
 30
0.0
  0
VERTEX
  5
16306
  8
AM_0
 10
-80.909877332176194
 20
565.79402418258064
 30
0.0
 42
-0.00073721992
  0
VERTEX
  5
16307
  8
AM_0
 10
-80.865727332176064
 20
566.39643418258038
 30
0.0
 42
-0.00074398496
  0
VERTEX
  5
16308
  8
AM_0
 10
-80.819797332176265
 20
566.99870418258035
 30
0.0
 42
-0.00073322625
  0
VERTEX
  5
16309
  8
AM_0
 10
-80.772067332176064
 20
567.60103418258063
 30
0.0
 42
-0.00073594289
  0
VERTEX
  5
1630A
  8
AM_0
 10
-80.722587332176374
 20
568.20302418258063
 30
0.0
 42
-0.00074742568
  0
VERTEX
  5
1630B
  8
AM_0
 10
-80.671317332175974
 20
568.80488418258062
 30
0.0
 42
-0.00073216749
  0
VERTEX
  5
1630C
  8
AM_0
 10
-80.618257332176242
 20
569.40669418258062
 30
0.0
 42
-0.00074184065
  0
VERTEX
  5
1630D
  8
AM_0
 10
-80.563437332176434
 20
570.00822418258065
 30
0.0
 42
-0.00072077528
  0
VERTEX
  5
1630E
  8
AM_0
 10
-80.506857332176025
 20
570.60945418258063
 30
0.0
 42
-0.00074978179
  0
VERTEX
  5
1630F
  8
AM_0
 10
-80.448517332176436
 20
571.21065418258047
 30
0.0
 42
-0.00074288888
  0
VERTEX
  5
16310
  8
AM_0
 10
-80.388367332176188
 20
571.81167418258065
 30
0.0
 42
-0.00072503679
  0
VERTEX
  5
16311
  8
AM_0
 10
-80.32645733217629
 20
572.41241418258051
 30
0.0
 42
-0.00074640584
  0
VERTEX
  5
16312
  8
AM_0
 10
-80.262787332176273
 20
573.0130141825806
 30
0.0
  0
SEQEND
  5
16313
  8
AM_0
  0
POLYLINE
  5
16314
  8
AM_0
 66
     1
 10
0.0
 20
0.0
 30
0.0
  0
VERTEX
  5
16315
  8
AM_0
 10
-81.384067332176116
 20
555.72383418258062
 30
0.0
 42
-0.00076695232
  0
VERTEX
  5
16316
  8
AM_0
 10
-81.369267332176179
 20
556.34159418258037
 30
0.0
 42
-0.00073263044
  0
VERTEX
  5
16317
  8
AM_0
 10
-81.352627332176354
 20
556.95919418258063
 30
0.0
 42
-0.0007652599
  0
VERTEX
  5
16318
  8
AM_0
 10
-81.334137332176454
 20
557.57686418258049
 30
0.0
 42
-0.00075144485
  0
VERTEX
  5
16319
  8
AM_0
 10
-81.313767332176255
 20
558.19446418258065
 30
0.0
 42
-0.00078594403
  0
VERTEX
  5
1631A
  8
AM_0
 10
-81.291517332176298
 20
558.81189418258055
 30
0.0
 42
-0.00073349202
  0
VERTEX
  5
1631B
  8
AM_0
 10
-81.267367332176093
 20
559.42927418258068
 30
0.0
 42
-0.0007358075
  0
VERTEX
  5
1631C
  8
AM_0
 10
-81.241427332176073
 20
560.04667418258055
 30
0.0
 42
-0.00078592699
  0
VERTEX
  5
1631D
  8
AM_0
 10
-81.213597332176107
 20
560.66406418258055
 30
0.0
 42
-0.00074823144
  0
VERTEX
  5
1631E
  8
AM_0
 10
-81.183867332176362
 20
561.28145418258055
 30
0.0
 42
-0.00074896603
  0
VERTEX
  5
1631F
  8
AM_0
 10
-81.152307332176463
 20
561.89858418258063
 30
0.0
 42
-0.00076039765
  0
VERTEX
  5
16320
  8
AM_0
 10
-81.118887332176229
 20
562.51561418258063
 30
0.0
 42
-0.00075616128
  0
VERTEX
  5
16321
  8
AM_0
 10
-81.083587332176265
 20
563.13264418258063
 30
0.0
  0
SEQEND
  5
16322
  8
AM_0
  0
ARC
  5
16323
  8
AM_0
 10
-82.523957332176053
 20
544.4484441825806
 30
0.0
 40
1.2650129999999991
 50
89.735590000000727
 51
270.26442099999832
  0
ARC
  5
16324
  8
AM_0
 10
-81.243497332176105
 20
544.4534441825806
 30
0.0
 40
1.0000138999999999
 50
89.691659999999274
 51
270.30834000000073
  0
POLYLINE
  5
16325
  8
AM_0
 66
     1
 10
0.0
 20
0.0
 30
0.0
  0
VERTEX
  5
16326
  8
AM_0
 10
-81.428127332176288
 20
549.45344418258048
 30
0.0
 42
-0.00039106593
  0
VERTEX
  5
16327
  8
AM_0
 10
-81.430487332176227
 20
549.76458418258062
 30
0.0
 42
-0.00040574899
  0
VERTEX
  5
16328
  8
AM_0
 10
-81.432357332176309
 20
550.07569418258038
 30
0.0
 42
-0.0003534546
  0
VERTEX
  5
16329
  8
AM_0
 10
-81.433747332176196
 20
550.38679418258062
 30
0.0
 42
-0.00034407327
  0
VERTEX
  5
1632A
  8
AM_0
 10
-81.434727332176024
 20
550.69793418258064
 30
0.0
 42
-0.00045699408
  0
VERTEX
  5
1632B
  8
AM_0
 10
-81.435187332176199
 20
551.00904418258062
 30
0.0
 42
-0.00035571853
  0
VERTEX
  5
1632C
  8
AM_0
 10
-81.435147332176314
 20
551.32014418258063
 30
0.0
 42
-0.00038547362
  0
VERTEX
  5
1632D
  8
AM_0
 10
-81.434657332176414
 20
551.63128418258054
 30
0.0
 42
-0.00035501498
  0
VERTEX
  5
1632E
  8
AM_0
 10
-81.433697332176095
 20
551.94238418258044
 30
0.0
 42
-0.00040118614
  0
VERTEX
  5
1632F
  8
AM_0
 10
-81.432277332176056
 20
552.25362418258067
 30
0.0
 42
-0.00038319871
  0
VERTEX
  5
16330
  8
AM_0
 10
-81.430367332176104
 20
552.56475418258037
 30
0.0
 42
-0.00040742136
  0
VERTEX
  5
16331
  8
AM_0
 10
-81.427967332176252
 20
552.87598418258062
 30
0.0
 42
-0.0003578071
  0
VERTEX
  5
16332
  8
AM_0
 10
-81.425077332176045
 20
553.18709418258061
 30
0.0
  0
SEQEND
  5
16333
  8
AM_0
  0
POLYLINE
  5
16334
  8
AM_0
 66
     1
 10
0.0
 20
0.0
 30
0.0
  0
VERTEX
  5
16335
  8
AM_0
 10
-81.428127332176288
 20
549.45344418258048
 30
0.0
 42
0.00039106653
  0
VERTEX
  5
16336
  8
AM_0
 10
-81.430487332176227
 20
549.14231418258055
 30
0.0
 42
0.00040574511
  0
VERTEX
  5
16337
  8
AM_0
 10
-81.432357332176309
 20
548.83120418258045
 30
0.0
 42
0.00035346331
  0
VERTEX
  5
16338
  8
AM_0
 10
-81.433747332176196
 20
548.52009418258035
 30
0.0
 42
0.00034406545
  0
VERTEX
  5
16339
  8
AM_0
 10
-81.434727332176024
 20
548.20895418258044
 30
0.0
 42
0.00045699059
  0
VERTEX
  5
1633A
  8
AM_0
 10
-81.435187332176199
 20
547.89785418258066
 30
0.0
 42
0.00035573431
  0
VERTEX
  5
1633B
  8
AM_0
 10
-81.435147332176314
 20
547.58675418258065
 30
0.0
 42
0.00038545888
  0
VERTEX
  5
1633C
  8
AM_0
 10
-81.434657332176414
 20
547.27561418258063
 30
0.0
 42
0.00035501203
  0
VERTEX
  5
1633D
  8
AM_0
 10
-81.433697332176095
 20
546.96450418258064
 30
0.0
 42
0.00040120778
  0
VERTEX
  5
1633E
  8
AM_0
 10
-81.432277332176056
 20
546.65327418258062
 30
0.0
 42
0.00038317821
  0
VERTEX
  5
1633F
  8
AM_0
 10
-81.430367332176104
 20
546.34214418258045
 30
0.0
 42
0.00040741862
  0
VERTEX
  5
16340
  8
AM_0
 10
-81.427967332176252
 20
546.03091418258055
 30
0.0
 42
0.00035783324
  0
VERTEX
  5
16341
  8
AM_0
 10
-81.425077332176045
 20
545.71980418258045
 30
0.0
  0
SEQEND
  5
16342
  8
AM_0
  0
ARC
  5
16343
  8
AM_0
 10
-82.458097332176337
 20
534.44343418258063
 30
0.0
 40
1.3300049999999981
 50
90.0
 51
269.9999969999991
  0
POLYLINE
  5
16344
  8
AM_0
 66
     1
 10
0.0
 20
0.0
 30
0.0
  0
VERTEX
  5
16345
  8
AM_0
 10
-81.384067332176116
 20
543.18306418258055
 30
0.0
 42
0.00076691987
  0
VERTEX
  5
16346
  8
AM_0
 10
-81.369267332176179
 20
542.56530418258035
 30
0.0
 42
0.00073262795
  0
VERTEX
  5
16347
  8
AM_0
 10
-81.352627332176354
 20
541.94770418258065
 30
0.0
 42
0.0007652954
  0
VERTEX
  5
16348
  8
AM_0
 10
-81.334137332176454
 20
541.33003418258045
 30
0.0
 42
0.00077334627
  0
VERTEX
  5
16349
  8
AM_0
 10
-81.313727332176356
 20
540.71243418258064
 30
0.0
 42
0.00073282897
  0
VERTEX
  5
1634A
  8
AM_0
 10
-81.291467332176182
 20
540.0950141825806
 30
0.0
 42
0.0007571179
  0
VERTEX
  5
1634B
  8
AM_0
 10
-81.267367332176093
 20
539.47749418258036
 30
0.0
 42
0.00073783152
  0
VERTEX
  5
1634C
  8
AM_0
 10
-81.241427332176073
 20
538.8601041825807
 30
0.0
 42
0.0007835518
  0
VERTEX
  5
1634D
  8
AM_0
 10
-81.213597332176107
 20
538.24283418258062
 30
0.0
 42
0.00074826133
  0
VERTEX
  5
1634E
  8
AM_0
 10
-81.183867332176362
 20
537.62544418258062
 30
0.0
 42
0.00074893555
  0
VERTEX
  5
1634F
  8
AM_0
 10
-81.152307332176463
 20
537.00831418258065
 30
0.0
 42
0.00076039841
  0
VERTEX
  5
16350
  8
AM_0
 10
-81.118887332176229
 20
536.39128418258065
 30
0.0
 42
0.00075618789
  0
VERTEX
  5
16351
  8
AM_0
 10
-81.083587332176265
 20
535.77425418258065
 30
0.0
  0
SEQEND
  5
16352
  8
AM_0
  0
ARC
  5
16353
  8
AM_0
 10
-81.243497332176105
 20
534.4534441825806
 30
0.0
 40
1.0000138999999999
 50
89.691659999999274
 51
270.30834000000073
  0
ARC
  5
16354
  8
AM_0
 10
-93.787937332176227
 20
576.45332418258056
 30
0.0
 40
0.9998239899999999
 50
269.98992299999952
 51
0.0100800000047663
  0
LINE
  5
16355
  8
AM_0
 10
-97.788117332176213
 20
597.47346418258076
 30
0.0
 11
-97.788117332176213
 21
554.45344418258037
 31
0.0
  0
LINE
  5
16356
  8
AM_0
 10
-95.998137332176199
 20
597.94346418258067
 30
0.0
 11
-97.238127332176234
 21
597.31346418258056
 31
0.0
  0
LINE
  5
16357
  8
AM_0
 10
-95.788117332176228
 20
598.9534441825806
 30
0.0
 11
-95.788117332176228
 21
598.42341418258059
 31
0.0
  0
LINE
  5
16358
  8
AM_0
 10
-96.018097332176282
 20
599.06343418258075
 30
0.0
 11
-97.288057332176379
 21
598.33345418258057
 31
0.0
  0
ARC
  5
16359
  8
AM_0
 10
-96.79049733217613
 20
597.46883418258062
 30
0.0
 40
0.9976310099999999
 50
119.9207599999976
 51
179.7321900000014
  0
ARC
  5
1635A
  8
AM_0
 10
-95.507417332176431
 20
598.20235418258062
 30
0.0
 40
1.001123999999999
 50
90.612320000001219
 51
120.6721799999973
  0
ARC
  5
1635B
  8
AM_0
 10
-95.542267332176436
 20
597.05415418258053
 30
0.0
 40
0.9993420200000001
 50
90.334539999998398
 51
117.137999999999
  0
ARC
  5
1635C
  8
AM_0
 10
-93.287627332176285
 20
599.70296418258067
 30
0.0
 40
0.49952301
 50
269.9452260000005
 51
0.0547699999986762
  0
ARC
  5
1635D
  8
AM_0
 10
-93.291477332176385
 20
597.55000418258066
 30
0.0
 40
0.5033929900000002
 50
0.384900000001922
 51
89.615089999999398
  0
LINE
  5
1635E
  8
AM_0
 10
-92.788117332176213
 20
599.45344418258048
 30
0.0
 11
-91.788117332176228
 21
599.45344418258048
 31
0.0
  0
LINE
  5
1635F
  8
AM_0
 10
-95.518097332176296
 20
599.2034441825806
 30
0.0
 11
-93.288117332176228
 21
599.2034441825806
 31
0.0
  0
LINE
  5
16360
  8
AM_0
 10
-95.548127332176207
 20
598.05342418258056
 30
0.0
 11
-93.288117332176228
 21
598.05342418258056
 31
0.0
  0
ARC
  5
16361
  8
AM_0
 10
-96.792387332176133
 20
596.42305418258047
 30
0.0
 40
0.9956849800000001
 50
116.5908599999994
 51
179.97886999999989
  0
LINE
  5
16362
  8
AM_0
 10
-96.038177332176076
 20
592.41347418258056
 30
0.0
 11
-97.338167332176056
 21
591.56346418258056
 31
0.0
  0
LINE
  5
16363
  8
AM_0
 10
-95.788117332176228
 20
592.28340418258063
 30
0.0
 11
-95.788117332176228
 21
591.81343418258075
 31
0.0
  0
LINE
  5
16364
  8
AM_0
 10
-96.018097332176282
 20
591.30339418258063
 30
0.0
 11
-97.298067332176345
 21
590.55342418258056
 31
0.0
  0
ARC
  5
16365
  8
AM_0
 10
-96.789027332175976
 20
590.72871418258035
 30
0.0
 40
0.9990889999999998
 50
123.3379099999958
 51
180.3049100000035
  0
LINE
  5
16366
  8
AM_0
 10
-97.298127332176193
 20
590.55345418258071
 30
0.0
 11
-97.318147332176139
 21
590.54347418258055
 31
0.0
  0
ARC
  5
16367
  8
AM_0
 10
-96.789637332176071
 20
589.69417418258058
 30
0.0
 40
0.9984580299999999
 50
120.6134299999993
 51
180.04042000000149
  0
ARC
  5
16368
  8
AM_0
 10
-96.789637332176071
 20
589.69417418258058
 30
0.0
 40
0.9984580299999999
 50
120.6134299999993
 51
180.04042000000149
  0
ARC
  5
16369
  8
AM_0
 10
-95.524747332176119
 20
590.43245418258061
 30
0.0
 40
1.001044999999998
 50
89.620290000000495
 51
119.5281299999975
  0
LINE
  5
1636A
  8
AM_0
 10
-96.008087332176316
 20
595.83345418258068
 30
0.0
 11
-97.258087332176316
 21
595.1734541825806
 31
0.0
  0
LINE
  5
1636B
  8
AM_0
 10
-96.028047332176413
 20
596.9534441825806
 30
0.0
 11
-97.30807733217631
 21
596.18342418258067
 31
0.0
  0
ARC
  5
1636C
  8
AM_0
 10
-96.789337332176316
 20
595.32991418258052
 30
0.0
 40
0.9987969999999998
 50
121.2920499999998
 51
180.37271999999899
  0
ARC
  5
1636D
  8
AM_0
 10
-96.790377332175964
 20
594.29219418258072
 30
0.0
 40
0.9977070099999998
 50
117.95518999999921
 51
179.92597999999589
  0
LINE
  5
1636E
  8
AM_0
 10
-95.788117332176228
 20
596.85347418258061
 30
0.0
 11
-95.788117332176228
 21
596.30342418258056
 31
0.0
  0
ARC
  5
1636F
  8
AM_0
 10
-95.532927332176357
 20
594.95283418258055
 30
0.0
 40
1.0006820000000001
 50
90.29607000000108
 51
118.3493799999965
  0
ARC
  5
16370
  8
AM_0
 10
-95.516697332176193
 20
596.08980418258068
 30
0.0
 40
1.003743999999998
 50
89.508099999999374
 51
120.62887000000249
  0
ARC
  5
16371
  8
AM_0
 10
-95.495327332176259
 20
591.57295418258059
 30
0.0
 40
1.000521999999999
 50
89.58655999999965
 51
122.8538200000005
  0
ARC
  5
16372
  8
AM_0
 10
-93.790557332176434
 20
590.43098418258057
 30
0.0
 40
1.002470999999999
 50
0.1410700000000808
 51
89.858929999999944
  0
ARC
  5
16373
  8
AM_0
 10
-93.791347332176016
 20
590.42671418258067
 30
0.0
 40
1.0032760000000001
 50
0.3818899999953196
 51
25.801899999995221
  0
ARC
  5
16374
  8
AM_0
 10
-93.792207332176119
 20
594.94929418258062
 30
0.0
 40
1.0041199999999999
 50
0.2346099999999662
 51
89.765390000000025
  0
LINE
  5
16375
  8
AM_0
 10
-95.518097332176296
 20
591.43342418258055
 30
0.0
 11
-93.788117332176213
 21
591.43342418258055
 31
0.0
  0
LINE
  5
16376
  8
AM_0
 10
-95.488067332176399
 20
592.57344418258072
 30
0.0
 11
-92.788117332176213
 21
592.57344418258072
 31
0.0
  0
LINE
  5
16377
  8
AM_0
 10
-95.508087332176345
 20
597.09346418258065
 30
0.0
 11
-92.788117332176213
 21
597.09346418258065
 31
0.0
  0
LINE
  5
16378
  8
AM_0
 10
-95.538117332176228
 20
595.95344418258037
 30
0.0
 11
-93.788117332176213
 21
595.95344418258037
 31
0.0
  0
ARC
  5
16379
  8
AM_0
 10
-96.791597332176096
 20
583.62495418258061
 30
0.0
 40
0.9965090199999998
 50
112.8215499999981
 51
180.08625000000339
  0
LINE
  5
1637A
  8
AM_0
 10
-95.978057332176434
 20
585.0634041825806
 30
0.0
 11
-97.178067332175985
 21
584.54338418258067
 31
0.0
  0
LINE
  5
1637B
  8
AM_0
 10
-95.788117332176228
 20
584.84346418258065
 30
0.0
 11
-95.788117332176228
 21
583.78340418258063
 31
0.0
  0
LINE
  5
1637C
  8
AM_0
 10
-95.928127332176302
 20
583.15346418258059
 30
0.0
 11
-97.078097332176213
 21
582.79344418258074
 31
0.0
  0
ARC
  5
1637D
  8
AM_0
 10
-96.791717332176233
 20
581.83906418258061
 30
0.0
 40
0.99638802
 50
106.70335999999961
 51
179.75009000000111
  0
ARC
  5
1637E
  8
AM_0
 10
-95.585117332176253
 20
584.13826418258066
 30
0.0
 40
1.005233
 50
90.170750000000567
 51
113.0136099999997
  0
ARC
  5
1637F
  8
AM_0
 10
-95.647547332176202
 20
582.19075418258046
 30
0.0
 40
1.002699
 50
89.459359999998895
 51
106.2472799999979
  0
ARC
  5
16380
  8
AM_0
 10
-93.487577332176059
 20
585.8428541825806
 30
0.0
 40
0.6994530000000001
 50
269.95517099999921
 51
0.0448299999992585
  0
ARC
  5
16381
  8
AM_0
 10
-93.791477332176399
 20
582.19014418258064
 30
0.0
 40
1.003352
 50
0.1910999999988938
 51
89.808889999999863
  0
LINE
  5
16382
  8
AM_0
 10
-95.588107332176207
 20
585.14339418258044
 30
0.0
 11
-93.488127332176234
 21
585.14339418258044
 31
0.0
  0
LINE
  5
16383
  8
AM_0
 10
-95.63808733217644
 20
583.19343418258063
 30
0.0
 11
-93.788117332176213
 21
583.19343418258063
 31
0.0
  0
ARC
  5
16384
  8
AM_0
 10
-96.792997332176185
 20
554.44856418258064
 30
0.0
 40
0.9950770099999999
 50
179.7158599999994
 51
270.28414000000049
  0
LINE
  5
16385
  8
AM_0
 10
-95.788117332176228
 20
555.06343418258075
 30
0.0
 11
-95.788117332176228
 21
553.90340418258074
 31
0.0
  0
LINE
  5
16386
  8
AM_0
 10
-100.2820138165512
 20
564.67527645797122
 30
0.0
 11
-100.2820138165512
 21
534.23164242476787
 31
0.0
  0
LINE
  5
16387
  8
AM_0
 10
-100.2819832989731
 20
564.67527645797122
 30
0.0
 11
-99.781983298973103
 21
567.44526547164298
 31
0.0
  0
ARC
  5
16388
  8
AM_0
 10
-96.787867332176205
 20
564.45320418258063
 30
0.0
 40
1.000199999999998
 50
90.011459999998721
 51
179.98854000000131
  0
LINE
  5
16389
  8
AM_0
 10
-95.788117332176228
 20
565.06343418258075
 30
0.0
 11
-95.788117332176228
 21
563.84346418258065
 31
0.0
  0
LINE
  5
1638A
  8
AM_0
 10
-99.782013816551228
 20
567.44526547164298
 30
0.0
 11
-99.281983298973131
 21
567.40525692672122
 31
0.0
  0
LINE
  5
1638B
  8
AM_0
 10
-99.288117332176228
 20
569.45347418258075
 30
0.0
 11
-97.788117332176213
 21
569.58348418258061
 31
0.0
  0
LINE
  5
1638C
  8
AM_0
 10
-99.288117332176228
 20
566.73347418258072
 30
0.0
 11
-97.788117332176213
 21
566.73347418258072
 31
0.0
  0
ARC
  5
1638D
  8
AM_0
 10
-96.787867332176205
 20
574.45320418258063
 30
0.0
 40
1.0001959999999981
 50
90.011249999999436
 51
179.98875000000061
  0
ARC
  5
1638E
  8
AM_0
 10
-96.792997332176185
 20
574.44856418258064
 30
0.0
 40
0.9950849999999999
 50
179.71628000000069
 51
270.28371700000059
  0
LINE
  5
1638F
  8
AM_0
 10
-95.788117332176228
 20
575.08345418258057
 30
0.0
 11
-95.788117332176228
 21
573.71345418258045
 31
0.0
  0
ARC
  5
16390
  8
AM_0
 10
-93.787937332176227
 20
566.45332418258056
 30
0.0
 40
0.9998210099999999
 50
269.98971800000169
 51
0.0102800000019698
  0
ARC
  5
16391
  8
AM_0
 10
-93.793057332176062
 20
572.44856418258064
 30
0.0
 40
1.0049469
 50
0.2813699999992813
 51
89.718630000000701
  0
LINE
  5
16392
  8
AM_0
 10
-93.788117332176213
 20
565.4534441825806
 30
0.0
 11
-96.788117332176228
 21
565.4534441825806
 31
0.0
  0
LINE
  5
16393
  8
AM_0
 10
-93.788117332176213
 20
573.4534441825806
 30
0.0
 11
-96.788117332176228
 21
573.4534441825806
 31
0.0
  0
LINE
  5
16394
  8
AM_0
 10
-93.788117332176213
 20
575.45344418258037
 30
0.0
 11
-96.788117332176228
 21
575.45344418258037
 31
0.0
  0
ARC
  5
16395
  8
AM_0
 10
-96.787867332176205
 20
554.45320418258063
 30
0.0
 40
1.0002040000000001
 50
90.011679999999274
 51
179.98834000000321
  0
ARC
  5
16396
  8
AM_0
 10
-96.792997332176185
 20
564.44856418258064
 30
0.0
 40
0.9950810099999999
 50
179.71607999999549
 51
270.283928
  0
LINE
  5
16397
  8
AM_0
 10
-99.288117332176228
 20
564.60347418258061
 30
0.0
 11
-97.788117332176213
 21
564.60347418258061
 31
0.0
  0
ARC
  5
16398
  8
AM_0
 10
-93.787937332176227
 20
556.45332418258056
 30
0.0
 40
0.9998279799999998
 50
269.99016199999983
 51
0.0098400000029741
  0
ARC
  5
16399
  8
AM_0
 10
-93.793057332176062
 20
562.44856418258064
 30
0.0
 40
1.004939
 50
0.2809299999990067
 51
89.719060000000226
  0
LINE
  5
1639A
  8
AM_0
 10
-93.788117332176213
 20
555.4534441825806
 30
0.0
 11
-96.788117332176228
 21
555.4534441825806
 31
0.0
  0
LINE
  5
1639B
  8
AM_0
 10
-93.788117332176213
 20
563.45344418258037
 30
0.0
 11
-96.788117332176228
 21
563.45344418258037
 31
0.0
  0
ARC
  5
1639C
  8
AM_0
 10
-93.793057332176062
 20
542.44856418258064
 30
0.0
 40
1.0049469
 50
0.2813399999993571
 51
89.718649999999656
  0
ARC
  5
1639D
  8
AM_0
 10
-96.792997332176185
 20
544.44856418258064
 30
0.0
 40
0.9950849999999999
 50
179.71631000000031
 51
270.28368899999907
  0
ARC
  5
1639E
  8
AM_0
 10
-96.787867332176205
 20
544.45320418258063
 30
0.0
 40
1.0001959999999981
 50
90.011219999999085
 51
179.9887800000042
  0
LINE
  5
1639F
  8
AM_0
 10
-95.788117332176228
 20
543.84346418258065
 30
0.0
 11
-95.788117332176228
 21
545.00349418258065
 31
0.0
  0
ARC
  5
163A0
  8
AM_0
 10
-93.787937332176227
 20
546.45332418258056
 30
0.0
 40
0.9998249999999999
 50
269.98994999999883
 51
0.0100500000012449
  0
ARC
  5
163A1
  8
AM_0
 10
-93.793057332176062
 20
552.44856418258064
 30
0.0
 40
1.004942999999999
 50
0.2811300000018058
 51
89.718860000000547
  0
LINE
  5
163A2
  8
AM_0
 10
-93.788117332176213
 20
543.4534441825806
 30
0.0
 11
-96.788117332176228
 21
543.4534441825806
 31
0.0
  0
LINE
  5
163A3
  8
AM_0
 10
-93.788117332176213
 20
545.45344418258048
 30
0.0
 11
-96.788117332176228
 21
545.45344418258048
 31
0.0
  0
LINE
  5
163A4
  8
AM_0
 10
-93.788117332176213
 20
553.4534441825806
 30
0.0
 11
-96.788117332176228
 21
553.4534441825806
 31
0.0
  0
ARC
  5
163A5
  8
AM_0
 10
-96.787867332176205
 20
534.45320418258063
 30
0.0
 40
1.000199999999998
 50
90.011430000001596
 51
179.98856999999839
  0
LINE
  5
163A6
  8
AM_0
 10
-95.788117332176228
 20
533.84346418258065
 30
0.0
 11
-95.788117332176228
 21
535.05342418258067
 31
0.0
  0
ARC
  5
163A7
  8
AM_0
 10
-96.792997332176185
 20
534.44856418258064
 30
0.0
 40
0.99508202
 50
179.716090000002
 51
270.28390100000189
  0
LINE
  5
163A8
  8
AM_0
 10
-99.288117332176228
 20
534.30342418258056
 30
0.0
 11
-97.788117332176213
 21
534.30342418258056
 31
0.0
  0
ARC
  5
163A9
  8
AM_0
 10
-93.787937332176227
 20
536.45332418258067
 30
0.0
 40
0.9998210099999999
 50
269.98974500000088
 51
0.0102499999984485
  0
ARC
  5
163AA
  8
AM_0
 10
-93.793057332176062
 20
532.44856418258064
 30
0.0
 40
1.004939
 50
0.2809000000002015
 51
89.719089999999127
  0
LINE
  5
163AB
  8
AM_0
 10
-93.788117332176213
 20
535.4534441825806
 30
0.0
 11
-96.788117332176228
 21
535.4534441825806
 31
0.0
  0
LINE
  5
163AC
  8
AM_0
 10
-93.788117332176213
 20
533.45344418258037
 30
0.0
 11
-96.788117332176228
 21
533.45344418258037
 31
0.0
  0
LINE
  5
163AD
  8
AM_0
 10
-91.788117332176228
 20
496.45344418258043
 30
0.0
 11
-83.788117332176213
 21
496.45344418258043
 31
0.0
  0
LINE
  5
163AE
  8
AM_0
 10
-82.328097332176242
 20
525.89339418258044
 30
0.0
 11
21.24612266782373
 21
525.89339418258044
 31
0.0
  0
LINE
  5
163AF
  8
AM_0
 10
-82.108127332176124
 20
512.73347418258061
 30
0.0
 11
21.03189266782368
 21
512.73347418258061
 31
0.0
  0
LINE
  5
163B0
  8
AM_0
 10
17.5447126678236
 20
525.45344418258037
 30
0.0
 11
-81.428127332176288
 21
525.45344418258037
 31
0.0
  0
LINE
  5
163B1
  8
AM_0
 10
17.551912667823611
 20
515.4534441825806
 30
0.0
 11
-81.428127332176288
 21
515.4534441825806
 31
0.0
  0
LINE
  5
163B2
  8
AM_0
 10
17.551912667823611
 20
513.45344418258037
 30
0.0
 11
-81.428127332176288
 21
513.45344418258037
 31
0.0
  0
LINE
  5
163B3
  8
AM_0
 10
-82.328097332176242
 20
522.96345418258045
 30
0.0
 11
-14.788117332176229
 21
522.96345418258045
 31
0.0
  0
LINE
  5
163B4
  8
AM_0
 10
-82.108127332176124
 20
516.08345418258045
 30
0.0
 11
-14.7680973321763
 21
516.08345418258045
 31
0.0
  0
LINE
  5
163B5
  8
AM_0
 10
-14.788117332176229
 20
523.4534441825806
 30
0.0
 11
-81.428127332176288
 21
523.4534441825806
 31
0.0
  0
LINE
  5
163B6
  8
AM_0
 10
-80.498077332176365
 20
487.56343418258058
 30
0.0
 11
16.341952667823929
 21
487.56343418258058
 31
0.0
  0
LINE
  5
163B7
  8
AM_0
 10
-80.518097332176296
 20
488.47346418258041
 30
0.0
 11
16.341892667823618
 21
488.47346418258041
 31
0.0
  0
LINE
  5
163B8
  8
AM_0
 10
-80.578097332176242
 20
493.17341418258042
 30
0.0
 11
16.341892667823618
 21
493.17341418258042
 31
0.0
  0
LINE
  5
163B9
  8
AM_0
 10
-80.538117332176242
 20
490.3234441825806
 30
0.0
 11
16.341892667823618
 21
490.3234441825806
 31
0.0
  0
ARC
  5
163BA
  8
AM_0
 10
16.337062667823769
 20
489.56819418258061
 30
0.0
 40
2.0047290000000002
 50
270.13832199999979
 51
344.82650400000358
  0
ARC
  5
163BB
  8
AM_0
 10
16.337062667823769
 20
490.47822418258062
 30
0.0
 40
2.0047290000000002
 50
270.13832199999979
 51
344.82650400000358
  0
LINE
  5
163BC
  8
AM_0
 10
3.2118826678237702
 20
522.96345418258045
 30
0.0
 11
21.257602667823839
 21
522.96345418258045
 31
0.0
  0
LINE
  5
163BD
  8
AM_0
 10
3.1919226678236869
 20
516.09346418258065
 30
0.0
 11
21.03189266782368
 21
516.09346418258065
 31
0.0
  0
LINE
  5
163BE
  8
AM_0
 10
17.559052667823771
 20
523.4534441825806
 30
0.0
 11
3.2118826678237702
 21
523.4534441825806
 31
0.0
  0
ARC
  5
163BF
  8
AM_0
 10
22.311882667823909
 20
509.7534641825805
 30
0.0
 40
1.699996899999999
 50
90.000003000000945
 51
179.99998000000451
  0
LINE
  5
163C0
  8
AM_0
 10
24.211882667823769
 20
511.75346418258039
 30
0.0
 11
24.211882667823769
 21
504.1534541825805
 31
0.0
  0
LINE
  5
163C1
  8
AM_0
 10
23.211882667823769
 20
511.75346418258039
 30
0.0
 11
23.211882667823769
 21
504.1534541825805
 31
0.0
  0
LINE
  5
163C2
  8
AM_0
 10
24.211882667823769
 20
517.5135041825805
 30
0.0
 11
32.211882667823772
 21
517.5135041825805
 31
0.0
  0
ARC
  5
163C3
  8
AM_0
 10
17.551852667823759
 20
524.45344418258048
 30
0.0
 40
1.0000255999999981
 50
269.58946899999899
 51
90.410530000000037
  0
ARC
  5
163C4
  8
AM_0
 10
21.251862667823779
 20
524.42341418258036
 30
0.0
 40
1.460011199999999
 50
269.77524999999991
 51
90.224750000000057
  0
ARC
  5
163C5
  8
AM_0
 10
17.551912667823611
 20
514.4534441825806
 30
0.0
 40
1.0
 50
269.9999969999991
 51
90.000010000000998
  0
ARC
  5
163C6
  8
AM_0
 10
21.03189266782368
 20
514.40840418258063
 30
0.0
 40
1.6750020000000001
 50
269.9999969999991
 51
90.000010000000998
  0
LINE
  5
163C7
  8
AM_0
 10
23.211882667823769
 20
511.75346418258039
 30
0.0
 11
24.211882667823769
 21
511.75346418258039
 31
0.0
  0
LINE
  5
163C8
  8
AM_0
 10
23.211882667823769
 20
511.4534441825806
 30
0.0
 11
22.311882667823909
 21
511.4534441825806
 31
0.0
  0
LINE
  5
163C9
  8
AM_0
 10
24.211882667823769
 20
503.4534441825806
 30
0.0
 11
32.211882667823772
 21
503.4534441825806
 31
0.0
  0
LINE
  5
163CA
  8
AM_0
 10
24.211882667823769
 20
493.4534441825806
 30
0.0
 11
32.211882667823772
 21
493.4534441825806
 31
0.0
  0
LINE
  5
163CB
  8
AM_0
 10
22.417632667823849
 20
504.52455418258052
 30
0.0
 11
18.271912667823859
 21
489.04344418258057
 31
0.0
  0
LINE
  5
163CC
  8
AM_0
 10
21.690919991213089
 20
504.5709220109465
 30
0.0
 11
18.271882667823711
 21
491.80339418258058
 31
0.0
  0
LINE
  5
163CD
  8
AM_0
 10
22.156770523720699
 20
504.4605445740213
 30
0.0
 11
18.271882667823711
 21
489.9534441825806
 31
0.0
  0
LINE
  5
163CE
  8
AM_0
 10
21.047266495111611
 20
505.01734298392302
 30
0.0
 11
18.271942667823559
 21
494.65346418258042
 31
0.0
  0
LINE
  5
163CF
  8
AM_0
 10
20.611902667823809
 20
509.7534641825805
 30
0.0
 11
20.611902667823809
 21
506.15345418258062
 31
0.0
  0
ARC
  5
163D0
  8
AM_0
 10
22.311882667823909
 20
506.15345418258062
 30
0.0
 40
1.7000007999999991
 50
180.00001000000091
 51
269.999979999998
  0
LINE
  5
163D1
  8
AM_0
 10
23.211882667823769
 20
504.1534541825805
 30
0.0
 11
24.211882667823769
 21
504.1534541825805
 31
0.0
  0
LINE
  5
163D2
  8
AM_0
 10
24.211882667823769
 20
507.73081418258062
 30
0.0
 11
23.211882667823769
 21
507.15345418258062
 31
0.0
  0
LINE
  5
163D3
  8
AM_0
 10
24.211882667823769
 20
508.73081418258062
 30
0.0
 11
23.211882667823769
 21
508.1534541825805
 31
0.0
  0
LINE
  5
163D4
  8
AM_0
 10
23.211882667823769
 20
504.45344418258043
 30
0.0
 11
22.311882667823909
 21
504.45344418258043
 31
0.0
  0
ARC
  5
163D5
  8
AM_0
 10
16.34201266782377
 20
495.17171418258039
 30
0.0
 40
1.9982919999999991
 50
269.99736799999857
 51
344.96745200000402
  0
ARC
  5
163D6
  8
AM_0
 10
16.337062667823769
 20
492.32820418258058
 30
0.0
 40
2.0047290000000002
 50
270.13832199999979
 51
344.82650400000358
  0
LINE
  5
163D7
  8
AM_0
 10
20.256252627942949
 20
496.45344418258043
 30
0.0
 11
24.211882667823769
 21
496.45344418258043
 31
0.0
  0
CIRCLE
  5
163D8
  8
AM_0
 10
-8.2881173321762294
 20
520.95344418258037
 30
0.0
 40
1.149999999999999
  0
CIRCLE
  5
163D9
  8
AM_0
 10
-8.2881173321762294
 20
520.95344418258037
 30
0.0
 40
1.1000000000000001
  0
CIRCLE
  5
163DA
  8
AM_0
 10
-3.288117332176228
 20
520.95344418258037
 30
0.0
 40
1.0
  0
LINE
  5
163DB
  8
AM_0
 10
1.7118826678237691
 20
521.9534441825806
 30
0.0
 11
1.7118826678237691
 21
516.95344418258037
 31
0.0
  0
LINE
  5
163DC
  8
AM_0
 10
2.1919226678236861
 20
521.9534441825806
 30
0.0
 11
2.1919226678236861
 21
517.09346418258065
 31
0.0
  0
ARC
  5
163DD
  8
AM_0
 10
3.2118826678237702
 20
521.9534441825806
 30
0.0
 40
1.5
 50
90.0
 51
180.00001000000091
  0
ARC
  5
163DE
  8
AM_0
 10
3.2118826678237702
 20
521.9534441825806
 30
0.0
 40
1.02
 50
90.0
 51
180.00001000000091
  0
ARC
  5
163DF
  8
AM_0
 10
3.2118826678237702
 20
516.95344418258037
 30
0.0
 40
1.5
 50
179.999989999999
 51
269.9999969999991
  0
ARC
  5
163E0
  8
AM_0
 10
3.1919226678236869
 20
517.09346418258065
 30
0.0
 40
1.0
 50
179.999989999999
 51
269.9999969999991
  0
LINE
  5
163E1
  8
AM_0
 10
-13.7680973321763
 20
521.9534441825806
 30
0.0
 11
-13.7680973321763
 21
517.09346418258065
 31
0.0
  0
LINE
  5
163E2
  8
AM_0
 10
-13.288117332176229
 20
521.9534441825806
 30
0.0
 11
-13.288117332176229
 21
516.95344418258037
 31
0.0
  0
ARC
  5
163E3
  8
AM_0
 10
-14.788117332176229
 20
521.9534441825806
 30
0.0
 40
1.5
 50
359.99999931675052
 51
90.000010000000998
  0
ARC
  5
163E4
  8
AM_0
 10
-14.788117332176229
 20
521.9534441825806
 30
0.0
 40
1.02
 50
359.999999316757
 51
90.000010000000998
  0
ARC
  5
163E5
  8
AM_0
 10
-14.788117332176229
 20
516.95344418258037
 30
0.0
 40
1.5
 50
269.9999969999991
 51
0.0
  0
ARC
  5
163E6
  8
AM_0
 10
-14.7680973321763
 20
517.09346418258065
 30
0.0
 40
1.0
 50
269.9999969999991
 51
0.0
  0
ARC
  5
163E7
  8
AM_0
 10
-80.523527332176016
 20
490.47017418258059
 30
0.0
 40
1.9967330000000001
 50
188.54611999999599
 51
270.15603300000112
  0
ARC
  5
163E8
  8
AM_0
 10
-80.501617332176053
 20
489.55904418258069
 30
0.0
 40
1.995633
 50
187.93887000000029
 51
270.10029200000088
  0
LINE
  5
163E9
  8
AM_0
 10
-78.428067332175985
 20
512.80342418258056
 30
0.0
 11
-83.788057332176365
 21
501.35344418258057
 31
0.0
  0
POLYLINE
  5
163EA
  8
AM_0
 66
     1
 10
0.0
 20
0.0
 30
0.0
  0
VERTEX
  5
163EB
  8
AM_0
 10
-79.927217332176099
 20
522.97041418258061
 30
0.0
 42
0.00068898283
  0
VERTEX
  5
163EC
  8
AM_0
 10
-79.856337332176338
 20
522.39566418258062
 30
0.0
 42
0.00070644357
  0
VERTEX
  5
163ED
  8
AM_0
 10
-79.783837332176105
 20
521.82097418258047
 30
0.0
 42
0.00069248074
  0
VERTEX
  5
163EE
  8
AM_0
 10
-79.70974733217605
 20
521.24666418258039
 30
0.0
 42
0.0006958566
  0
VERTEX
  5
163EF
  8
AM_0
 10
-79.634067332176116
 20
520.67252418258056
 30
0.0
 42
0.00071687219
  0
VERTEX
  5
163F0
  8
AM_0
 10
-79.556757332176446
 20
520.09852418258038
 30
0.0
 42
0.00069760022
  0
VERTEX
  5
163F1
  8
AM_0
 10
-79.477817332176116
 20
519.52473418258057
 30
0.0
 42
0.00071002302
  0
VERTEX
  5
163F2
  8
AM_0
 10
-79.397277332176202
 20
518.95126418258064
 30
0.0
 42
0.00069954889
  0
VERTEX
  5
163F3
  8
AM_0
 10
-79.315137332176221
 20
518.37816418258035
 30
0.0
 42
0.00071887947
  0
VERTEX
  5
163F4
  8
AM_0
 10
-79.231357332176287
 20
517.80513418258045
 30
0.0
 42
0.00071266929
  0
VERTEX
  5
163F5
  8
AM_0
 10
-79.1459273321762
 20
517.23236418258045
 30
0.0
 42
0.00071614429
  0
VERTEX
  5
163F6
  8
AM_0
 10
-79.058897332176045
 20
516.66002418258063
 30
0.0
 42
0.00072288978
  0
VERTEX
  5
163F7
  8
AM_0
 10
-78.970187332176053
 20
516.08772418258036
 30
0.0
  0
SEQEND
  5
163F8
  8
AM_0
  0
ARC
  5
163F9
  8
AM_0
 10
-82.328097332176242
 20
524.42842418258056
 30
0.0
 40
1.465004
 50
90.0
 51
269.9999969999991
  0
ARC
  5
163FA
  8
AM_0
 10
-81.243497332176105
 20
524.45344418258048
 30
0.0
 40
1.0000138999999999
 50
89.691659999999274
 51
270.30834000000073
  0
ARC
  5
163FB
  8
AM_0
 10
-82.115507332176165
 20
514.40840418258063
 30
0.0
 40
1.6750160000000001
 50
89.746129999999084
 51
270.25385499999868
  0
ARC
  5
163FC
  8
AM_0
 10
-81.243497332176105
 20
514.4534441825806
 30
0.0
 40
1.0000138999999999
 50
89.691659999999274
 51
270.30834000000073
  0
LINE
  5
163FD
  8
AM_0
 10
-83.788057332176365
 20
500.01341418258062
 30
0.0
 11
-82.508087332176331
 21
492.00346418258061
 31
0.0
  0
LINE
  5
163FE
  8
AM_0
 10
-83.788117332176213
 20
501.35338418258073
 30
0.0
 11
-82.548127332176193
 21
494.7933841825805
 31
0.0
  0
LINE
  5
163FF
  8
AM_0
 10
-91.088107332176207
 20
506.26350418258062
 30
0.0
 11
-84.858127332176124
 21
506.26350418258062
 31
0.0
  0
ARC
  5
16400
  8
AM_0
 10
-80.589387332176145
 20
495.16756418258041
 30
0.0
 40
1.994108999999999
 50
190.81223000000119
 51
270.32445200000052
  0
LINE
  5
16401
  8
AM_0
 10
-83.788117332176213
 20
498.66344418258058
 30
0.0
 11
-82.478117332176296
 21
489.28340418258063
 31
0.0
  0
LINE
  5
16402
  8
AM_0
 10
-83.788057332176365
 20
498.66347418258061
 30
0.0
 11
-82.498077332176365
 21
490.17338418258038
 31
0.0
  0
ARC
  5
16403
  8
AM_0
 10
-80.537867332176177
 20
492.3186841825804
 30
0.0
 40
1.9952829999999999
 50
189.09164999999931
 51
269.99379599999992
  0
LINE
  5
16404
  8
AM_0
 10
-99.781983298973103
 20
531.4616228935181
 30
0.0
 11
-99.282013816551228
 21
531.50163143843997
 31
0.0
  0
ARC
  5
16405
  8
AM_0
 10
-96.787867332176205
 20
524.45320418258063
 30
0.0
 40
1.000203
 50
90.011649999998838
 51
179.98835000000449
  0
ARC
  5
16406
  8
AM_0
 10
-96.792997332176185
 20
524.44856418258064
 30
0.0
 40
0.99507803
 50
179.71589000000009
 51
270.28411299999868
  0
LINE
  5
16407
  8
AM_0
 10
-95.788117332176228
 20
523.8234441825806
 30
0.0
 11
-95.788117332176228
 21
525.19343418258063
 31
0.0
  0
LINE
  5
16408
  8
AM_0
 10
-99.288117332176228
 20
532.17341418258059
 30
0.0
 11
-97.788117332176213
 21
532.17341418258059
 31
0.0
  0
LINE
  5
16409
  8
AM_0
 10
-99.288117332176228
 20
529.45347418258063
 30
0.0
 11
-97.788117332176213
 21
529.32347418258064
 31
0.0
  0
ARC
  5
1640A
  8
AM_0
 10
-93.787937332176227
 20
526.45332418258056
 30
0.0
 40
0.9998289899999999
 50
269.99018899999902
 51
0.0098099999995327
  0
ARC
  5
1640B
  8
AM_0
 10
-93.793057332176062
 20
522.44856418258064
 30
0.0
 40
1.004942999999999
 50
0.281110000000071
 51
89.718889999999945
  0
LINE
  5
1640C
  8
AM_0
 10
-93.788117332176213
 20
525.45344418258037
 30
0.0
 11
-96.788117332176228
 21
525.45344418258037
 31
0.0
  0
LINE
  5
1640D
  8
AM_0
 10
-93.788117332176213
 20
523.4534441825806
 30
0.0
 11
-96.788117332176228
 21
523.4534441825806
 31
0.0
  0
LINE
  5
1640E
  8
AM_0
 10
-95.928127332176302
 20
515.75340418258065
 30
0.0
 11
-97.078097332176213
 21
516.10341418258065
 31
0.0
  0
LINE
  5
1640F
  8
AM_0
 10
-95.978117332176282
 20
513.84343418258061
 30
0.0
 11
-97.178067332175985
 21
514.35344418258046
 31
0.0
  0
ARC
  5
16410
  8
AM_0
 10
-96.791717332176233
 20
515.27193418258059
 30
0.0
 40
0.9963999999999998
 50
179.90958000000049
 51
247.1826399999992
  0
LINE
  5
16411
  8
AM_0
 10
-95.788117332176228
 20
514.06343418258064
 30
0.0
 11
-95.788117332176228
 21
515.12349418258054
 31
0.0
  0
ARC
  5
16412
  8
AM_0
 10
-95.648957332176053
 20
516.70613418258063
 30
0.0
 40
0.9927430199999999
 50
253.66792999999831
 51
270.62544500000132
  0
ARC
  5
16413
  8
AM_0
 10
-95.587127332175939
 20
514.75886418258062
 30
0.0
 40
0.9954450099999999
 50
246.87254999999999
 51
269.94309500000031
  0
ARC
  5
16414
  8
AM_0
 10
-96.791837332176414
 20
517.05769418258069
 30
0.0
 40
0.9962710099999999
 50
179.66995
 51
253.30207999999999
  0
ARC
  5
16415
  8
AM_0
 10
-93.492647332176205
 20
513.05891418258045
 30
0.0
 40
0.704566
 50
0.3700900000021967
 51
89.62989999999985
  0
ARC
  5
16416
  8
AM_0
 10
-93.786407332176225
 20
516.71175418258065
 30
0.0
 40
0.9982839799999999
 50
269.9014239999986
 51
0.0985799999998705
  0
LINE
  5
16417
  8
AM_0
 10
-95.588107332176207
 20
513.76350418258062
 30
0.0
 11
-93.488127332176234
 21
513.76350418258062
 31
0.0
  0
LINE
  5
16418
  8
AM_0
 10
-95.63808733217644
 20
515.71345418258045
 30
0.0
 11
-93.788117332176213
 21
515.71345418258045
 31
0.0
  0
ARC
  5
16419
  8
AM_0
 10
-95.526087332176374
 20
500.69929418258062
 30
0.0
 40
0.9959030199999999
 50
240.3928300000006
 51
270.4587330000009
  0
LINE
  5
1641A
  8
AM_0
 10
-96.028167332176153
 20
501.95338418258058
 30
0.0
 11
-97.308137332176145
 21
502.72340418258051
 31
0.0
  0
ARC
  5
1641B
  8
AM_0
 10
-96.792507332176285
 20
502.47371418258058
 30
0.0
 40
0.995579
 50
180.01736
 51
243.4129100000022
  0
LINE
  5
1641C
  8
AM_0
 10
-95.788117332176228
 20
502.05342418258061
 30
0.0
 11
-95.788117332176228
 21
502.60347418258073
 31
0.0
  0
LINE
  5
1641D
  8
AM_0
 10
-96.008087332176316
 20
503.06340418258048
 30
0.0
 11
-97.258087332176316
 21
503.73341418258042
 31
0.0
  0
ARC
  5
1641E
  8
AM_0
 10
-96.793667332176071
 20
503.57442418258057
 30
0.0
 40
0.9944329899999999
 50
180.05949000000089
 51
238.8478700000002
  0
ARC
  5
1641F
  8
AM_0
 10
-96.794887332176202
 20
504.61201418258042
 30
0.0
 40
0.9932109699999999
 50
179.91812999999991
 51
242.20068000000231
  0
ARC
  5
16420
  8
AM_0
 10
-96.794887332176202
 20
501.43550418258059
 30
0.0
 40
0.99319202
 50
180.1204100000019
 51
240.2266200000013
  0
LINE
  5
16421
  8
AM_0
 10
-95.998137332176199
 20
500.95344418258043
 30
0.0
 11
-97.238127332176234
 21
501.58345418258051
 31
0.0
  0
LINE
  5
16422
  8
AM_0
 10
-96.018097332176282
 20
499.83348418258072
 30
0.0
 11
-97.288057332176379
 21
500.57347418258058
 31
0.0
  0
LINE
  5
16423
  8
AM_0
 10
-95.788117332176228
 20
499.95344418258043
 30
0.0
 11
-95.788117332176228
 21
500.48347418258049
 31
0.0
  0
ARC
  5
16424
  8
AM_0
 10
-95.553007332176151
 20
503.94881418258041
 30
0.0
 40
0.99545902
 50
242.79618000000039
 51
270.85870899999998
  0
ARC
  5
16425
  8
AM_0
 10
-95.563327332175987
 20
501.8474941825807
 30
0.0
 40
0.99411702
 50
244.0650199999983
 51
270.8773560000015
  0
ARC
  5
16426
  8
AM_0
 10
-95.519257332176082
 20
502.80769418258069
 30
0.0
 40
0.99427301
 50
239.21908999999829
 51
270.643934
  0
LINE
  5
16427
  8
AM_0
 10
-96.018157332176131
 20
507.60341418258048
 30
0.0
 11
-97.298127332176193
 21
508.35341418258042
 31
0.0
  0
LINE
  5
16428
  8
AM_0
 10
-96.038177332176076
 20
506.49342418258061
 30
0.0
 11
-97.338167332176056
 21
507.3434041825804
 31
0.0
  0
ARC
  5
16429
  8
AM_0
 10
-96.794037332176288
 20
509.21028418258061
 30
0.0
 40
0.99404597
 50
179.81435999999951
 51
239.5317999999981
  0
ARC
  5
1642A
  8
AM_0
 10
-96.79330733217607
 20
508.17586418258043
 30
0.0
 40
0.9948369899999999
 50
179.56214000000179
 51
236.79503999999579
  0
LINE
  5
1642B
  8
AM_0
 10
-95.788117332176228
 20
506.6234941825806
 30
0.0
 11
-95.788117332176228
 21
507.09346418258048
 31
0.0
  0
ARC
  5
1642C
  8
AM_0
 10
-95.508697332176382
 20
508.45991418258041
 30
0.0
 40
0.99648702
 50
239.25623000000209
 51
269.4592790000014
  0
ARC
  5
1642D
  8
AM_0
 10
-95.481477332175984
 20
507.3196641825806
 30
0.0
 40
0.99617702
 50
236.02951000000269
 51
269.61868200000077
  0
ARC
  5
1642E
  8
AM_0
 10
-93.787137332176414
 20
503.95247418258072
 30
0.0
 40
0.9990100299999999
 50
269.9431909999999
 51
0.0568099999987215
  0
ARC
  5
1642F
  8
AM_0
 10
-93.286407332176225
 20
501.35176418258061
 30
0.0
 40
0.4983060100000002
 50
269.80489299999988
 51
0.1951100000021455
  0
ARC
  5
16430
  8
AM_0
 10
-93.790437332176282
 20
508.46577418258062
 30
0.0
 40
1.002353
 50
270.13432700000061
 51
359.86567318000158
  0
LINE
  5
16431
  8
AM_0
 10
-95.538117332176228
 20
502.95344418258071
 30
0.0
 11
-93.788117332176213
 21
502.95344418258071
 31
0.0
  0
LINE
  5
16432
  8
AM_0
 10
-95.548127332176207
 20
500.85347418258073
 30
0.0
 11
-93.288117332176228
 21
500.85347418258073
 31
0.0
  0
LINE
  5
16433
  8
AM_0
 10
-95.508087332176345
 20
501.81343418258058
 30
0.0
 11
-92.788117332176213
 21
501.81343418258058
 31
0.0
  0
LINE
  5
16434
  8
AM_0
 10
-95.488067332176399
 20
506.32344418258037
 30
0.0
 11
-92.788117332176213
 21
506.32344418258037
 31
0.0
  0
LINE
  5
16435
  8
AM_0
 10
-95.518097332176296
 20
507.46345418258062
 30
0.0
 11
-93.788117332176213
 21
507.46345418258062
 31
0.0
  0
ARC
  5
16436
  8
AM_0
 10
-93.292697332176047
 20
499.19881418258058
 30
0.0
 40
0.50463498
 50
0.5238300000003983
 51
89.476169999999527
  0
LINE
  5
16437
  8
AM_0
 10
-92.788117332176213
 20
499.45344418258048
 30
0.0
 11
-91.788117332176228
 21
499.45344418258048
 31
0.0
  0
LINE
  5
16438
  8
AM_0
 10
-95.518097332176296
 20
499.7034441825806
 30
0.0
 11
-93.288117332176228
 21
499.7034441825806
 31
0.0
  0
ARC
  5
1643A
  8
AM_0
 10
146.21188554374791
 20
278.9271292513971
 30
0.0
 40
12.0
 50
109.4712206344888
 51
70.528779365511184
  0
CIRCLE
  5
1643B
  8
AM_0
 10
146.21188554374811
 20
278.92712925139699
 30
0.0
 40
19.999800629214029
  0
LINE
  5
1643C
  8
AM_0
 10
142.21188554374791
 20
293.9271292513971
 30
0.0
 11
150.21188554374791
 21
293.9271292513971
 31
0.0
  0
CIRCLE
  5
1643D
  8
ｽﾝﾎﾟｳｾﾝ
 10
146.211885543748
 20
278.9271292513971
 30
0.0
 40
4.0
  0
LINE
  5
1643E
  8
AM_0
 10
150.21188554374791
 20
286.9271292513971
 30
0.0
 11
142.21188554374791
 21
286.9271292513971
 31
0.0
  0
LINE
  5
1643F
  8
AM_0
 10
142.21188554374791
 20
286.9271292513971
 30
0.0
 11
142.21188554374791
 21
293.9271292513971
 31
0.0
  0
LINE
  5
16440
  8
AM_0
 10
150.21188554374791
 20
293.9271292513971
 30
0.0
 11
150.21188554374791
 21
286.9271292513971
 31
0.0
  0
CIRCLE
  5
1647D
  8
AM_0
 10
146.21188554374791
 20
278.9271292513971
 30
0.0
 40
3.399999999999999
  0
LINE
  5
16494
  8
AM_0
 10
183.71188666133469
 20
598.45346157161578
 30
0.0
 11
108.71188442616091
 21
598.45346157161578
 31
0.0
  0
LINE
  5
16495
  8
AM_0
 10
203.7118719985915
 20
594.4534614524066
 30
0.0
 11
49.711897926614228
 21
594.45346145240615
 31
0.0
  0
LINE
  5
16496
  8
AM_0
 10
183.7118866613348
 20
500.45345865098818
 30
0.0
 11
108.71188442616091
 21
500.45345865098818
 31
0.0
  0
LINE
  5
16497
  8
AM_0
 10
49.711897926614228
 20
504.4534587701973
 30
0.0
 11
203.71187199859139
 21
504.4534587701977
 31
0.0
  0
LINE
  5
16498
  8
AM_0
 10
203.71188725738151
 20
524.45345915762755
 30
0.0
 11
49.711882667824
 21
524.45345915762755
 31
0.0
  0
LINE
  5
16499
  8
ﾁｭｳｼﾝｾﾝ1
 10
-104.2881173321761
 20
549.45342419084216
 30
0.0
 11
208.7118872573817
 21
549.45346764041744
 31
0.0
1001
GENIUS_GENODEF_13
1002
{
1000
HIER
1070
     0
1002
}
1002
{
1000
MANEDIT
1070
     0
1002
}
1002
{
1000
NOSEL
1070
     0
1002
}
1002
{
1000
BEHIND
1070
     0
1002
}
1002
{
1000
REACTOR
1002
}
1001
GENIUS_GENOBJ-N-CEN_13
1002
{
1000
OWNER
1000
GEN
1002
}
  0
LINE
  5
1649A
  8
AM_0
 10
49.711882667824
 20
524.45345915762755
 30
0.0
 11
50.93372330624544
 21
594.45346145240649
 31
0.0
  0
ARC
  5
1649B
  8
AM_0
 10
48.933418657111993
 20
594.45346145240615
 30
0.0
 40
2.0
 50
270.0
 51
359.0000114119764
1001
GENIUS_GENODEF_13
1002
{
1000
HIER
1070
     0
1002
}
1002
{
1000
MANEDIT
1070
     0
1002
}
1002
{
1000
NOSEL
1070
     0
1002
}
1002
{
1000
BEHIND
1070
     0
1002
}
1002
{
1000
OTHER
1070
     0
1002
}
1002
{
1000
REACTOR
1002
}
1001
GENIUS_GENOBJ-N-FIL_13
1002
{
1000
OWNER
1000
GEN
1002
}
  0
LINE
  5
1649F
  8
AM_0
 10
40.849459843338472
 20
604.98553266925285
 30
0.0
 11
40.849475101452917
 21
493.9213548967769
 31
0.0
  0
LINE
  5
164A0
  8
AM_0
 10
32.211882667823772
 20
605.45345419084254
 30
0.0
 11
32.211882667823829
 21
493.45343319084259
 31
0.0
  0
LINE
  5
164A1
  8
AM_0
 10
41.533515776302181
 20
495.10615016006318
 30
0.0
 11
46.915179465816387
 21
525.62710719407801
 31
0.0
1001
GENIUS_GENODEF_13
1002
{
1000
HIER
1070
     0
1002
}
1002
{
1000
MANEDIT
1070
     0
1002
}
1002
{
1000
NOSEL
1070
     0
1002
}
1002
{
1000
BEHIND
1070
     0
1002
}
1002
{
1000
REACTOR
1002
}
1001
GENIUS_GENOBJ-N-CEN_13
1002
{
1000
OWNER
1000
GEN
1002
}
  0
LINE
  5
164A2
  8
AM_0
 10
32.211882667823829
 20
493.45344369084251
 30
0.0
 11
39.563899772233007
 21
493.45344369084251
 31
0.0
  0
ARC
  5
164A3
  8
AM_0
 10
39.563899772233007
 20
495.45344369084228
 30
0.0
 40
2.0
 50
270.0
 51
350.00000821592607
1001
GENIUS_GENOBJ-N-CEN_13
1002
{
1000
OWNER
1000
GEN
1002
}
1001
GENIUS_GENODEF_13
1002
{
1000
HIER
1070
     0
1002
}
1002
{
1000
MANEDIT
1070
     0
1002
}
1002
{
1000
NOSEL
1070
     0
1002
}
1002
{
1000
BEHIND
1070
     0
1002
}
1002
{
1000
OTHER
1070
     0
1002
}
1002
{
1000
REACTOR
1002
}
1001
GENIUS_GENOBJ-N-FIL_13
1002
{
1000
OWNER
1000
GEN
1002
}
  0
LINE
  5
164A4
  8
AM_0
 10
32.211882667823772
 20
517.51598619084245
 30
0.0
 11
40.84947186030189
 21
517.51377119568508
 31
0.0
  0
LINE
  5
164A5
  8
AM_0
 10
32.211882667823829
 20
503.45341819084251
 30
0.0
 11
40.849473791925391
 21
503.4534373336021
 31
0.0
  0
LINE
  5
164A6
  8
AM_0
 10
50.061003768336661
 20
504.45345877019753
 30
0.0
 11
49.711882667824
 21
524.45345915762755
 31
0.0
  0
LINE
  5
164A7
  8
AM_0
 10
48.729185208948081
 20
526.45345915762766
 30
0.0
 11
47.899987243728837
 21
526.45345915762766
 31
0.0
  0
ARC
  5
164A8
  8
AM_0
 10
47.899987243728837
 20
525.45345915762755
 30
0.0
 40
1.0
 50
90.000000000000057
 51
170.0000082159327
1001
GENIUS_GENODEF_13
1002
{
1000
HIER
1070
     0
1002
}
1002
{
1000
MANEDIT
1070
     0
1002
}
1002
{
1000
NOSEL
1070
     0
1002
}
1002
{
1000
BEHIND
1070
     0
1002
}
1002
{
1000
OTHER
1070
     0
1002
}
1002
{
1000
REACTOR
1002
}
1001
GENIUS_GENOBJ-N-FIL_13
1002
{
1000
OWNER
1000
GEN
1002
}
  0
ARC
  5
164A9
  8
AM_0
 10
48.729185208948081
 20
525.45345915762755
 30
0.0
 40
1.0
 50
359.0000114119764
 51
90.000000000000057
1001
GENIUS_GENOBJ-N-FIL_13
1002
{
1000
OWNER
1000
GEN
1002
}
1001
GENIUS_GENODEF_13
1002
{
1000
HIER
1070
     0
1002
}
1002
{
1000
MANEDIT
1070
     0
1002
}
1002
{
1000
NOSEL
1070
     0
1002
}
1002
{
1000
BEHIND
1070
     0
1002
}
1002
{
1000
OTHER
1070
     0
1002
}
1002
{
1000
REACTOR
1002
}
  0
LINE
  5
164AA
  8
AM_0
 10
108.71188442616091
 20
504.45345877019753
 30
0.0
 11
108.71188442616091
 21
500.45345865098818
 31
0.0
  0
LINE
  5
164AB
  8
AM_0
 10
41.533500190036349
 20
603.80074032860944
 30
0.0
 11
43.242916853040619
 21
594.10616481463956
 31
0.0
1001
GENIUS_GENODEF_13
1002
{
1000
HIER
1070
     0
1002
}
1002
{
1000
MANEDIT
1070
     0
1002
}
1002
{
1000
NOSEL
1070
     0
1002
}
1002
{
1000
BEHIND
1070
     0
1002
}
1002
{
1000
REACTOR
1002
}
1001
GENIUS_GENOBJ-N-CEN_13
1002
{
1000
OWNER
1000
GEN
1002
}
  0
LINE
  5
164AC
  8
AM_0
 10
32.211882667823772
 20
581.39339369084223
 30
0.0
 11
40.849463084451642
 21
581.39339369084223
 31
0.0
  0
LINE
  5
164AD
  8
AM_0
 10
32.211882667823772
 20
595.45344369084216
 30
0.0
 11
40.849461152867143
 21
595.45344369084228
 31
0.0
  0
LINE
  5
164AE
  8
AM_0
 10
48.933418657111993
 20
592.45346145240637
 30
0.0
 11
45.21253230926429
 21
592.45346145240637
 31
0.0
  0
ARC
  5
164AF
  8
AM_0
 10
45.21253230926429
 20
594.45346145240649
 30
0.0
 40
2.0
 50
190.00000821593
 51
270.0
1001
GENIUS_GENOBJ-N-CEN_13
1002
{
1000
OWNER
1000
GEN
1002
}
1001
GENIUS_GENODEF_13
1002
{
1000
HIER
1070
     0
1002
}
1002
{
1000
MANEDIT
1070
     0
1002
}
1002
{
1000
NOSEL
1070
     0
1002
}
1002
{
1000
BEHIND
1070
     0
1002
}
1002
{
1000
OTHER
1070
     0
1002
}
1002
{
1000
REACTOR
1002
}
1001
GENIUS_GENOBJ-N-FIL_13
1002
{
1000
OWNER
1000
GEN
1002
}
  0
LINE
  5
164B0
  8
AM_0
 10
32.211882667823772
 20
605.45344369084239
 30
0.0
 11
39.563884733812472
 21
605.45344369084239
 31
0.0
  0
ARC
  5
164B1
  8
AM_0
 10
39.563884733812358
 20
603.45344369084228
 30
0.0
 40
2.0
 50
10.000008215929981
 51
90.000000000000057
1001
GENIUS_GENOBJ-N-CEN_13
1002
{
1000
OWNER
1000
GEN
1002
}
1001
GENIUS_GENOBJ-N-FIL_13
1002
{
1000
OWNER
1000
GEN
1002
}
1001
GENIUS_GENODEF_13
1002
{
1000
HIER
1070
     0
1002
}
1002
{
1000
MANEDIT
1070
     0
1002
}
1002
{
1000
NOSEL
1070
     0
1002
}
1002
{
1000
BEHIND
1070
     0
1002
}
1002
{
1000
OTHER
1070
     0
1002
}
1002
{
1000
REACTOR
1002
}
  0
LINE
  5
164B2
  8
AM_0
 10
108.71188442616091
 20
594.45346145240649
 30
0.0
 11
108.71188442616091
 21
598.45346157161578
 31
0.0
  0
LINE
  5
164B3
  8
ﾁｭｳｼﾝｾﾝ1
 10
146.21188554374791
 20
436.45345789365541
 30
0.0
 11
146.21188554374791
 21
603.45345927777964
 31
0.0
  0
LINE
  5
164B4
  8
AM_0
 10
203.71188725738159
 20
524.45345915762755
 30
0.0
 11
202.4900188757062
 21
594.45346145240649
 31
0.0
  0
LINE
  5
164B8
  8
AM_0
 10
183.7118866613348
 20
504.4534587701977
 30
0.0
 11
183.7118866613348
 21
500.45345865098818
 31
0.0
  0
LINE
  5
164B9
  8
AM_0
 10
203.3627661568691
 20
504.4534587701977
 30
0.0
 11
203.71188725738151
 21
524.45345915762755
 31
0.0
  0
LINE
  5
164BA
  8
AM_0
 10
183.71188666133469
 20
594.45346145240649
 30
0.0
 11
183.71188666133469
 21
598.45346157161578
 31
0.0
  0
LINE
  5
16649
  8
AM_0
 10
166.21168615601059
 20
496.45345612402161
 30
0.0
 11
166.21168615601059
 21
500.4534562432309
 31
0.0
  0
LINE
  5
1664A
  8
AM_0
 10
166.21168615601059
 20
496.45345612402161
 30
0.0
 11
126.2120849639298
 21
496.45345612402161
 31
0.0
  0
LINE
  5
1664B
  8
AM_0
 10
166.21168615601059
 20
496.45345612402161
 30
0.0
 11
161.211885526797
 21
481.45345789365541
 31
0.0
  0
LINE
  5
1664C
  8
AM_0
 10
131.211885526797
 20
481.4534578936553
 30
0.0
 11
161.211885526797
 21
481.45345789365541
 31
0.0
  0
LINE
  5
1664D
  8
AM_0
 10
126.2120849639298
 20
496.45345612402161
 30
0.0
 11
131.211885526797
 21
481.4534578936553
 31
0.0
  0
LINE
  5
1664E
  8
AM_0
 10
126.2120849639298
 20
496.45345612402161
 30
0.0
 11
126.2120849639298
 21
500.4534562432309
 31
0.0
  0
LINE
  5
1664F
  8
0
 10
134.21188551152841
 20
441.45345792792892
 30
0.0
 11
158.21188551152861
 21
441.4534578593823
 31
0.0
  0
LINE
  5
16650
  8
0
 10
134.21188551152861
 20
441.4534578936557
 30
0.0
 11
134.21188551152861
 21
481.4534578936553
 31
0.0
  0
LINE
  5
16651
  8
0
 10
158.21188551152861
 20
441.4534578936557
 30
0.0
 11
158.2118855055156
 21
481.45345789365541
 31
0.0
  0
LINE
  5
16652
  8
0
 10
150.21188554374791
 20
473.45345785036289
 30
0.0
 11
142.211885543748
 21
473.45345785036289
 31
0.0
  0
LINE
  5
16653
  8
AM_0
 10
150.211885543748
 20
441.45345788223108
 30
0.0
 11
150.21188554374791
 21
473.45345785036289
 31
0.0
  0
LINE
  5
16654
  8
AM_0
 10
142.211885543748
 20
441.45345790507992
 30
0.0
 11
142.211885543748
 21
473.45345785036312
 31
0.0
  0
ARC
  5
16655
  8
AM_0
 10
146.211885543748
 20
473.45345785036289
 30
0.0
 40
3.9999999999999432
 50
0.0
 51
180.0
  0
LINE
  5
166A9
  8
AM_0
 10
203.7118719985915
 20
479.4534587701981
 30
0.0
 11
203.7118719985915
 21
504.45345877019753
 31
0.0
  0
LINE
  5
166AB
  8
AM_0
 10
49.711897926614228
 20
504.45345877019753
 30
0.0
 11
49.711897926614228
 21
479.4534587701981
 31
0.0
  0
LINE
  5
166AC
  8
AM_0
 10
54.711897926614228
 20
474.4534587701981
 30
0.0
 11
134.21188551152861
 21
474.4534587701981
 31
0.0
  0
LINE
  5
166AD
  8
AM_0
 10
203.7118719985915
 20
499.95345877019753
 30
0.0
 11
166.21168615601059
 21
499.9534587701977
 31
0.0
  0
ARC
  5
166AE
  8
AM_0
 10
198.7118719985915
 20
479.4534587701981
 30
0.0
 40
5.0
 50
270.0
 51
0.0
1001
GENIUS_GENODEF_13
1002
{
1000
HIER
1070
     0
1002
}
1002
{
1000
MANEDIT
1070
     0
1002
}
1002
{
1000
NOSEL
1070
     0
1002
}
1002
{
1000
BEHIND
1070
     0
1002
}
1002
{
1000
OTHER
1070
     0
1002
}
1002
{
1000
REACTOR
1002
}
1001
GENIUS_GENOBJ-N-FIL_13
1002
{
1000
OWNER
1000
GEN
1002
}
  0
ARC
  5
166AF
  8
AM_0
 10
54.711897926614228
 20
479.4534587701981
 30
0.0
 40
5.0
 50
180.0
 51
270.0
1001
GENIUS_GENODEF_13
1002
{
1000
HIER
1070
     0
1002
}
1002
{
1000
MANEDIT
1070
     0
1002
}
1002
{
1000
NOSEL
1070
     0
1002
}
1002
{
1000
BEHIND
1070
     0
1002
}
1002
{
1000
OTHER
1070
     0
1002
}
1002
{
1000
REACTOR
1002
}
1001
GENIUS_GENOBJ-N-FIL_13
1002
{
1000
OWNER
1000
GEN
1002
}
  0
LINE
  5
166B0
  8
ﾁｭｳｼﾝｾﾝ1
 10
174.2118702849572
 20
472.45346011130192
 30
0.0
 11
174.21187028495731
 21
496.45346011130181
 31
0.0
  0
LINE
  5
166B1
  8
ﾁｭｳｼﾝｾﾝ1
 10
162.21187028495731
 20
484.45346011130181
 30
0.0
 11
186.21187028495731
 21
484.45346011130181
 31
0.0
  0
LINE
  5
166B2
  8
AM_0
 10
106.7118702849567
 20
477.95345877019753
 30
0.0
 11
106.7118702849576
 21
499.95345877019753
 31
0.0
  0
LINE
  5
166B3
  8
AM_0
 10
102.2118702849572
 20
477.95345877019753
 30
0.0
 11
102.2118702849575
 21
499.95345877019753
 31
0.0
  0
LINE
  5
166B4
  8
AM_0
 10
106.7118702849571
 20
493.95345877019753
 30
0.0
 11
102.2118702849573
 21
493.95345877019753
 31
0.0
  0
LINE
  5
166B5
  8
AM_0
 10
106.711870284957
 20
477.95345877019753
 30
0.0
 11
102.2118702849572
 21
477.95345877019753
 31
0.0
  0
CIRCLE
  5
166BB
  8
AM_0
 10
174.21187028495731
 20
484.45346011130181
 30
0.0
 40
5.0
  0
CIRCLE
  5
166BD
  8
AM_0
 10
79.21189964024839
 20
484.45346011130181
 30
0.0
 40
5.0
  0
INSERT
  5
166CB
  8
AM_0
  6
CONTINUOUS
  2
*U5
 10
0.0
 20
0.0
 30
0.0
1001
GENIUS_GENODEF_13
1002
{
1000
HIER
1070
     0
1002
}
1002
{
1000
MANEDIT
1070
     0
1002
}
1002
{
1000
NOSEL
1070
     0
1002
}
1002
{
1000
BEHIND
1070
     0
1002
}
1002
{
1000
OTHER
1070
     0
1002
}
1002
{
1000
REACTOR
1002
}
1001
GENIUS_GENOBJ-N-HTC_13
1002
{
1000
OWNER
1000
GEN
1002
}
1001
GENIUS_GENHATCH_13
1002
{
1000
DATA
1040
0.0
1042
1.0
1000
SOLID
1070
     0
1011
107.6636733258663
1021
0.0
1031
0.0
1021
499.09688412968012
1031
0.0
1002
}
1002
{
1000
UCS
1010
0.0
1020
0.0
1030
0.0
1010
1.0
1020
0.0
1030
0.0
1010
0.0
1020
1.0
1030
0.0
1002
}
1001
ACAD
1002
{
1000
R14_HATCH_DATA
1000
166CB
1011
1.0
1021
0.0
1031
0.0
1021
0.0
1031
0.0
1011
0.0
1021
0.0
1031
0.0
1021
1.0
1031
0.0
1011
0.0
1021
0.0
1031
0.0
1021
0.0
1031
1.0
1040
0.0
1010
0.0
1020
0.0
1030
1.0
1000
SOLID
1070
     1
1070
     0
1071
        2
1071
        1
1071
        3
1070
     1
1040
106.7118411680861
1040
499.95345877019753
1040
109.2118411680861
1040
499.95345877019753
1070
     1
1040
109.2118411680861
1040
499.95345877019753
1040
106.7118411680861
1040
497.45345877019759
1070
     1
1040
106.7118411680861
1040
497.45345877019759
1040
106.7118411680861
1040
499.95345877019753
1071
        0
1071
       33
1071
        1
1070
     1
1040
159.21181492713879
1040
499.9534587701977
1040
5.211840855161852
1040
499.9534587701977
1071
        0
1070
     0
1070
     1
1071
        1
1040
-68.830120182365391
1040
592.38407910088688
1040
0.0
1002
}
  0
LINE
  5
166CC
  8
AM_0
 10
106.7118411680861
 20
497.45345877019759
 30
0.0
 11
109.2118411680861
 21
499.95345877019753
 31
0.0
1001
GENIUS_GENFIL_13
1070
     0
1040
2.5
1040
2.5
1040
20.0
1040
0.0
1002
{
1002
}
1001
GENIUS_GENODEF_13
1002
{
1000
HIER
1070
     0
1002
}
1002
{
1000
MANEDIT
1070
     0
1002
}
1002
{
1000
NOSEL
1070
     0
1002
}
1002
{
1000
BEHIND
1070
     0
1002
}
1002
{
1000
OTHER
1070
     0
1002
}
1002
{
1000
REACTOR
1002
}
1001
GENIUS_GENOBJ-N-CHA_13
1002
{
1000
OWNER
1000
GEN
1002
}
  0
LINE
  5
166CD
  8
AM_0
 10
102.21184116808649
 20
497.45345877019759
 30
0.0
 11
99.711841168086565
 21
499.95345877019753
 31
0.0
1001
GENIUS_GENFIL_13
1070
     0
1040
2.5
1040
2.5
1040
20.0
1040
0.0
1002
{
1002
}
1001
GENIUS_GENODEF_13
1002
{
1000
HIER
1070
     0
1002
}
1002
{
1000
MANEDIT
1070
     0
1002
}
1002
{
1000
NOSEL
1070
     0
1002
}
1002
{
1000
BEHIND
1070
     0
1002
}
1002
{
1000
OTHER
1070
     0
1002
}
1002
{
1000
REACTOR
1002
}
1001
GENIUS_GENOBJ-N-CHA_13
1002
{
1000
OWNER
1000
GEN
1002
}
  0
INSERT
  5
166CE
  8
AM_0
  6
CONTINUOUS
  2
*U6
 10
0.0
 20
0.0
 30
0.0
1001
GENIUS_GENODEF_13
1002
{
1000
HIER
1070
     0
1002
}
1002
{
1000
MANEDIT
1070
     0
1002
}
1002
{
1000
NOSEL
1070
     0
1002
}
1002
{
1000
BEHIND
1070
     0
1002
}
1002
{
1000
OTHER
1070
     0
1002
}
1002
{
1000
REACTOR
1002
}
1001
GENIUS_GENOBJ-N-HTC_13
1002
{
1000
OWNER
1000
GEN
1002
}
1001
GENIUS_GENHATCH_13
1002
{
1000
DATA
1040
0.0
1042
1.0
1000
SOLID
1070
     0
1011
101.26000901030631
1021
0.0
1031
0.0
1021
499.09688412968012
1031
0.0
1002
}
1002
{
1000
UCS
1010
0.0
1020
0.0
1030
0.0
1010
1.0
1020
0.0
1030
0.0
1010
0.0
1020
1.0
1030
0.0
1002
}
1001
ACAD
1002
{
1000
R14_HATCH_DATA
1000
166CE
1011
1.0
1021
0.0
1031
0.0
1021
0.0
1031
0.0
1011
0.0
1021
0.0
1031
0.0
1021
1.0
1031
0.0
1011
0.0
1021
0.0
1031
0.0
1021
0.0
1031
1.0
1040
0.0
1010
0.0
1020
0.0
1030
1.0
1000
SOLID
1070
     1
1070
     0
1071
        2
1071
        1
1071
        3
1070
     1
1040
102.21184116808649
1040
499.95345877019753
1040
99.711841168086565
1040
499.95345877019753
1070
     1
1040
99.711841168086565
1040
499.95345877019753
1040
102.21184116808649
1040
497.45345877019759
1070
     1
1040
102.21184116808649
1040
497.45345877019759
1040
102.21184116808649
1040
499.95345877019753
1071
        0
1071
       33
1071
        1
1070
     1
1040
49.711867409033843
1040
499.9534587701977
1040
203.71184148101079
1040
499.9534587701977
1071
        0
1070
     0
1070
     1
1071
        1
1040
277.75380251853812
1040
592.38407910088688
1040
0.0
1002
}
  0
LINE
  5
166DD
  8
AM_5
 10
107.2118996402473
 20
499.95345877019753
 30
0.0
 11
107.2118996402473
 21
504.45345877019753
 31
0.0
  0
LINE
  5
166DE
  8
AM_5
 10
83.107180026834058
 20
499.95345877019753
 30
0.0
 11
83.107180026834129
 21
504.45345877019753
 31
0.0
  0
LINE
  5
16721
  8
ﾁｭｳｼﾝｾﾝ1
 10
79.211899640248333
 20
472.45346011130192
 30
0.0
 11
79.211899640248447
 21
496.45346011130181
 31
0.0
  0
LINE
  5
16722
  8
ﾁｭｳｼﾝｾﾝ1
 10
67.211899640248447
 20
484.45346011130181
 30
0.0
 11
91.211899640248433
 21
484.45346011130181
 31
0.0
  0
LINE
  5
16723
  8
AM_0
 10
203.7118719985915
 20
619.45347651063662
 30
0.0
 11
203.7118719985915
 21
594.45347651063719
 31
0.0
  0
LINE
  5
16724
  8
AM_0
 10
49.711897926614228
 20
594.45347651063719
 30
0.0
 11
49.711897926614228
 21
619.45347651063662
 31
0.0
  0
LINE
  5
16725
  8
AM_0
 10
54.711897926614228
 20
624.45347651063662
 30
0.0
 11
198.7118719985915
 21
624.45347651063662
 31
0.0
  0
LINE
  5
16726
  8
AM_0
 10
203.7118719985915
 20
598.95347651063719
 30
0.0
 11
49.711897926614228
 21
598.95347651063719
 31
0.0
  0
ARC
  5
16727
  8
AM_0
 10
198.7118719985915
 20
619.45347651063662
 30
0.0
 40
5.0
 50
0.0
 51
90.000000000000057
1001
GENIUS_GENODEF_13
1002
{
1000
HIER
1070
     0
1002
}
1002
{
1000
MANEDIT
1070
     0
1002
}
1002
{
1000
NOSEL
1070
     0
1002
}
1002
{
1000
BEHIND
1070
     0
1002
}
1002
{
1000
OTHER
1070
     0
1002
}
1002
{
1000
REACTOR
1002
}
1001
GENIUS_GENOBJ-N-FIL_13
1002
{
1000
OWNER
1000
GEN
1002
}
  0
ARC
  5
16728
  8
AM_0
 10
54.711897926614228
 20
619.45347651063662
 30
0.0
 40
5.0
 50
90.000000000000057
 51
180.0
1001
GENIUS_GENODEF_13
1002
{
1000
HIER
1070
     0
1002
}
1002
{
1000
MANEDIT
1070
     0
1002
}
1002
{
1000
NOSEL
1070
     0
1002
}
1002
{
1000
BEHIND
1070
     0
1002
}
1002
{
1000
OTHER
1070
     0
1002
}
1002
{
1000
REACTOR
1002
}
1001
GENIUS_GENOBJ-N-FIL_13
1002
{
1000
OWNER
1000
GEN
1002
}
  0
LINE
  5
16729
  8
ﾁｭｳｼﾝｾﾝ1
 10
174.2118702849572
 20
626.45347516953302
 30
0.0
 11
174.21187028495731
 21
602.45347516953302
 31
0.0
  0
LINE
  5
1672A
  8
ﾁｭｳｼﾝｾﾝ1
 10
162.21187028495731
 20
614.45347516953302
 30
0.0
 11
186.21187028495731
 21
614.45347516953302
 31
0.0
  0
LINE
  5
1672B
  8
AM_0
 10
106.7118702849567
 20
620.9534765106373
 30
0.0
 11
106.7118702849576
 21
598.95347651063719
 31
0.0
  0
LINE
  5
1672C
  8
AM_0
 10
102.2118702849572
 20
620.9534765106373
 30
0.0
 11
102.2118702849575
 21
598.95347651063719
 31
0.0
  0
LINE
  5
1672D
  8
AM_0
 10
106.7118702849571
 20
604.9534765106373
 30
0.0
 11
102.2118702849573
 21
604.9534765106373
 31
0.0
  0
LINE
  5
1672E
  8
AM_0
 10
106.711870284957
 20
620.9534765106373
 30
0.0
 11
102.2118702849572
 21
620.9534765106373
 31
0.0
  0
LINE
  5
1672F
  8
AM_0
 10
151.2118677219581
 20
620.9534765106373
 30
0.0
 11
146.71186772195841
 21
620.9534765106373
 31
0.0
  0
LINE
  5
16730
  8
AM_0
 10
151.2118677219581
 20
604.9534765106373
 30
0.0
 11
146.7118677219583
 21
604.9534765106373
 31
0.0
  0
LINE
  5
16731
  8
AM_0
 10
146.71186772195821
 20
620.9534765106373
 30
0.0
 11
146.71186772195821
 21
598.95347651063719
 31
0.0
  0
LINE
  5
16732
  8
AM_0
 10
151.2118677219581
 20
620.9534765106373
 30
0.0
 11
151.2118677219581
 21
598.95347651063719
 31
0.0
  0
CIRCLE
  5
16733
  8
AM_0
 10
174.21187028495731
 20
614.45347516953302
 30
0.0
 40
5.0
  0
CIRCLE
  5
16734
  8
AM_0
 10
79.21189964024839
 20
614.45347516953302
 30
0.0
 40
5.0
  0
INSERT
  5
16735
  8
AM_0
  6
CONTINUOUS
  2
*U7
 10
0.0
 20
0.0
 30
0.0
1001
GENIUS_GENODEF_13
1002
{
1000
HIER
1070
     0
1002
}
1002
{
1000
MANEDIT
1070
     0
1002
}
1002
{
1000
NOSEL
1070
     0
1002
}
1002
{
1000
BEHIND
1070
     0
1002
}
1002
{
1000
OTHER
1070
     0
1002
}
1002
{
1000
REACTOR
1002
}
1001
GENIUS_GENOBJ-N-HTC_13
1002
{
1000
OWNER
1000
GEN
1002
}
1001
GENIUS_GENHATCH_13
1002
{
1000
DATA
1040
0.0
1042
-1.0
1000
SOLID
1070
     0
1011
152.16369987973829
1021
0.0
1031
0.0
1021
599.81005115115465
1031
0.0
1002
}
1002
{
1000
UCS
1010
0.0
1020
0.0
1030
0.0
1010
1.0
1020
0.0
1030
0.0
1010
0.0
1020
1.0
1030
0.0
1002
}
1001
ACAD
1002
{
1000
R14_HATCH_DATA
1000
16735
1011
1.0
1021
0.0
1031
0.0
1021
0.0
1031
0.0
1011
0.0
1021
0.0
1031
0.0
1021
1.0
1031
0.0
1011
0.0
1021
0.0
1031
0.0
1021
0.0
1031
1.0
1040
0.0
1010
0.0
1020
0.0
1030
1.0
1000
SOLID
1070
     1
1070
     0
1071
        2
1071
        1
1071
        3
1070
     1
1040
151.2118677219581
1040
598.95347651063719
1040
153.7118677219581
1040
598.95347651063719
1070
     1
1040
153.7118677219581
1040
598.95347651063719
1040
151.2118677219581
1040
601.4534765106373
1070
     1
1040
151.2118677219581
1040
601.4534765106373
1040
151.2118677219581
1040
598.95347651063719
1071
        0
1071
       33
1071
        1
1070
     1
1040
203.71184148101079
1040
598.95347651063707
1040
49.711867409033829
1040
598.95347651063707
1071
        0
1070
     0
1070
     1
1071
        1
1040
-24.330093628493419
1040
506.52285617994789
1040
0.0
1002
}
  0
LINE
  5
16736
  8
AM_0
 10
151.2118677219581
 20
601.4534765106373
 30
0.0
 11
153.7118677219581
 21
598.95347651063719
 31
0.0
1001
GENIUS_GENFIL_13
1070
     0
1040
2.5
1040
2.5
1040
20.0
1040
0.0
1002
{
1002
}
1001
GENIUS_GENODEF_13
1002
{
1000
HIER
1070
     0
1002
}
1002
{
1000
MANEDIT
1070
     0
1002
}
1002
{
1000
NOSEL
1070
     0
1002
}
1002
{
1000
BEHIND
1070
     0
1002
}
1002
{
1000
OTHER
1070
     0
1002
}
1002
{
1000
REACTOR
1002
}
1001
GENIUS_GENOBJ-N-CHA_13
1002
{
1000
OWNER
1000
GEN
1002
}
  0
LINE
  5
16737
  8
AM_0
 10
146.7118677219585
 20
601.4534765106373
 30
0.0
 11
144.2118677219585
 21
598.95347651063719
 31
0.0
1001
GENIUS_GENFIL_13
1070
     0
1040
2.5
1040
2.5
1040
20.0
1040
0.0
1002
{
1002
}
1001
GENIUS_GENODEF_13
1002
{
1000
HIER
1070
     0
1002
}
1002
{
1000
MANEDIT
1070
     0
1002
}
1002
{
1000
NOSEL
1070
     0
1002
}
1002
{
1000
BEHIND
1070
     0
1002
}
1002
{
1000
OTHER
1070
     0
1002
}
1002
{
1000
REACTOR
1002
}
1001
GENIUS_GENOBJ-N-CHA_13
1002
{
1000
OWNER
1000
GEN
1002
}
  0
INSERT
  5
16738
  8
AM_0
  6
CONTINUOUS
  2
*U8
 10
0.0
 20
0.0
 30
0.0
1001
GENIUS_GENODEF_13
1002
{
1000
HIER
1070
     0
1002
}
1002
{
1000
MANEDIT
1070
     0
1002
}
1002
{
1000
NOSEL
1070
     0
1002
}
1002
{
1000
BEHIND
1070
     0
1002
}
1002
{
1000
OTHER
1070
     0
1002
}
1002
{
1000
REACTOR
1002
}
1001
GENIUS_GENOBJ-N-HTC_13
1002
{
1000
OWNER
1000
GEN
1002
}
1001
GENIUS_GENHATCH_13
1002
{
1000
DATA
1040
0.0
1042
-1.0
1000
SOLID
1070
     0
1011
145.76003556417831
1021
0.0
1031
0.0
1021
599.81005115115465
1031
0.0
1002
}
1002
{
1000
UCS
1010
0.0
1020
0.0
1030
0.0
1010
1.0
1020
0.0
1030
0.0
1010
0.0
1020
1.0
1030
0.0
1002
}
1001
ACAD
1002
{
1000
R14_HATCH_DATA
1000
16738
1011
1.0
1021
0.0
1031
0.0
1021
0.0
1031
0.0
1011
0.0
1021
0.0
1031
0.0
1021
1.0
1031
0.0
1011
0.0
1021
0.0
1031
0.0
1021
0.0
1031
1.0
1040
0.0
1010
0.0
1020
0.0
1030
1.0
1000
SOLID
1070
     1
1070
     0
1071
        2
1071
        1
1071
        3
1070
     1
1040
146.7118677219585
1040
598.95347651063719
1040
144.2118677219585
1040
598.95347651063719
1070
     1
1040
144.2118677219585
1040
598.95347651063719
1040
146.7118677219585
1040
601.4534765106373
1070
     1
1040
146.7118677219585
1040
601.4534765106373
1040
146.7118677219585
1040
598.95347651063719
1071
        0
1071
       33
1071
        1
1070
     1
1040
94.211893962905791
1040
598.95347651063707
1040
248.2118680348828
1040
598.95347651063707
1071
        0
1070
     0
1070
     1
1071
        1
1040
322.2538290724101
1040
506.52285617994789
1040
0.0
1002
}
  0
INSERT
  5
16739
  8
AM_0
  6
CONTINUOUS
  2
*U9
 10
0.0
 20
0.0
 30
0.0
1001
GENIUS_GENODEF_13
1002
{
1000
HIER
1070
     0
1002
}
1002
{
1000
MANEDIT
1070
     0
1002
}
1002
{
1000
NOSEL
1070
     0
1002
}
1002
{
1000
BEHIND
1070
     0
1002
}
1002
{
1000
OTHER
1070
     0
1002
}
1002
{
1000
REACTOR
1002
}
1001
GENIUS_GENOBJ-N-HTC_13
1002
{
1000
OWNER
1000
GEN
1002
}
1001
GENIUS_GENHATCH_13
1002
{
1000
DATA
1040
0.0
1042
-1.0
1000
SOLID
1070
     0
1011
107.6636733258663
1021
0.0
1031
0.0
1021
599.81005115115465
1031
0.0
1002
}
1002
{
1000
UCS
1010
0.0
1020
0.0
1030
0.0
1010
1.0
1020
0.0
1030
0.0
1010
0.0
1020
1.0
1030
0.0
1002
}
1001
ACAD
1002
{
1000
R14_HATCH_DATA
1000
16739
1011
1.0
1021
0.0
1031
0.0
1021
0.0
1031
0.0
1011
0.0
1021
0.0
1031
0.0
1021
1.0
1031
0.0
1011
0.0
1021
0.0
1031
0.0
1021
0.0
1031
1.0
1040
0.0
1010
0.0
1020
0.0
1030
1.0
1000
SOLID
1070
     1
1070
     0
1071
        2
1071
        1
1071
        3
1070
     1
1040
106.7118411680861
1040
598.95347651063719
1040
109.2118411680861
1040
598.95347651063719
1070
     1
1040
109.2118411680861
1040
598.95347651063719
1040
106.7118411680861
1040
601.4534765106373
1070
     1
1040
106.7118411680861
1040
601.4534765106373
1040
106.7118411680861
1040
598.95347651063719
1071
        0
1071
       33
1071
        1
1070
     1
1040
159.21181492713879
1040
598.95347651063707
1040
5.211840855161852
1040
598.95347651063707
1071
        0
1070
     0
1070
     1
1071
        1
1040
-68.830120182365391
1040
506.52285617994789
1040
0.0
1002
}
  0
LINE
  5
1673A
  8
AM_0
 10
106.7118411680861
 20
601.4534765106373
 30
0.0
 11
109.2118411680861
 21
598.95347651063719
 31
0.0
1001
GENIUS_GENFIL_13
1070
     0
1040
2.5
1040
2.5
1040
20.0
1040
0.0
1002
{
1002
}
1001
GENIUS_GENODEF_13
1002
{
1000
HIER
1070
     0
1002
}
1002
{
1000
MANEDIT
1070
     0
1002
}
1002
{
1000
NOSEL
1070
     0
1002
}
1002
{
1000
BEHIND
1070
     0
1002
}
1002
{
1000
OTHER
1070
     0
1002
}
1002
{
1000
REACTOR
1002
}
1001
GENIUS_GENOBJ-N-CHA_13
1002
{
1000
OWNER
1000
GEN
1002
}
  0
LINE
  5
1673B
  8
AM_0
 10
102.21184116808649
 20
601.4534765106373
 30
0.0
 11
99.711841168086565
 21
598.95347651063719
 31
0.0
1001
GENIUS_GENFIL_13
1070
     0
1040
2.5
1040
2.5
1040
20.0
1040
0.0
1002
{
1002
}
1001
GENIUS_GENODEF_13
1002
{
1000
HIER
1070
     0
1002
}
1002
{
1000
MANEDIT
1070
     0
1002
}
1002
{
1000
NOSEL
1070
     0
1002
}
1002
{
1000
BEHIND
1070
     0
1002
}
1002
{
1000
OTHER
1070
     0
1002
}
1002
{
1000
REACTOR
1002
}
1001
GENIUS_GENOBJ-N-CHA_13
1002
{
1000
OWNER
1000
GEN
1002
}
  0
INSERT
  5
1673C
  8
AM_0
  6
CONTINUOUS
  2
*U10
 10
0.0
 20
0.0
 30
0.0
1001
GENIUS_GENODEF_13
1002
{
1000
HIER
1070
     0
1002
}
1002
{
1000
MANEDIT
1070
     0
1002
}
1002
{
1000
NOSEL
1070
     0
1002
}
1002
{
1000
BEHIND
1070
     0
1002
}
1002
{
1000
OTHER
1070
     0
1002
}
1002
{
1000
REACTOR
1002
}
1001
GENIUS_GENOBJ-N-HTC_13
1002
{
1000
OWNER
1000
GEN
1002
}
1001
GENIUS_GENHATCH_13
1002
{
1000
DATA
1040
0.0
1042
-1.0
1000
SOLID
1070
     0
1011
101.26000901030631
1021
0.0
1031
0.0
1021
599.81005115115465
1031
0.0
1002
}
1002
{
1000
UCS
1010
0.0
1020
0.0
1030
0.0
1010
1.0
1020
0.0
1030
0.0
1010
0.0
1020
1.0
1030
0.0
1002
}
1001
ACAD
1002
{
1000
R14_HATCH_DATA
1000
1673C
1011
1.0
1021
0.0
1031
0.0
1021
0.0
1031
0.0
1011
0.0
1021
0.0
1031
0.0
1021
1.0
1031
0.0
1011
0.0
1021
0.0
1031
0.0
1021
0.0
1031
1.0
1040
0.0
1010
0.0
1020
0.0
1030
1.0
1000
SOLID
1070
     1
1070
     0
1071
        2
1071
        1
1071
        3
1070
     1
1040
102.21184116808649
1040
598.95347651063719
1040
99.711841168086565
1040
598.95347651063719
1070
     1
1040
99.711841168086565
1040
598.95347651063719
1040
102.21184116808649
1040
601.4534765106373
1070
     1
1040
102.21184116808649
1040
601.4534765106373
1040
102.21184116808649
1040
598.95347651063719
1071
        0
1071
       33
1071
        1
1070
     1
1040
49.711867409033843
1040
598.95347651063707
1040
203.71184148101079
1040
598.95347651063707
1071
        0
1070
     0
1070
     1
1071
        1
1040
277.75380251853812
1040
506.52285617994789
1040
0.0
1002
}
  0
LINE
  5
1673D
  8
AM_5
 10
107.2118996402473
 20
598.95347651063719
 30
0.0
 11
107.2118996402473
 21
594.45347651063719
 31
0.0
  0
LINE
  5
1673E
  8
AM_5
 10
83.107180026834058
 20
598.95347651063719
 30
0.0
 11
83.107180026834129
 21
594.45347651063719
 31
0.0
  0
LINE
  5
1673F
  8
ﾁｭｳｼﾝｾﾝ1
 10
79.211899640248333
 20
626.45347516953302
 30
0.0
 11
79.211899640248447
 21
602.45347516953302
 31
0.0
  0
LINE
  5
16740
  8
ﾁｭｳｼﾝｾﾝ1
 10
67.211899640248447
 20
614.45347516953302
 30
0.0
 11
91.211899640248433
 21
614.45347516953302
 31
0.0
  0
LINE
  5
16741
  8
AM_0
 10
126.2120849639298
 20
499.9534587701977
 30
0.0
 11
49.711897926614228
 21
499.95345877019753
 31
0.0
  0
LINE
  5
16743
  8
AM_0
 10
158.21188550656791
 20
474.4534587701981
 30
0.0
 11
198.7118719985915
 21
474.4534587701981
 31
0.0
  0
LINE
  5
16744
  8
AM_0
 10
186.71188694445709
 20
600.54347651063733
 30
0.0
 11
186.71188694445709
 21
608.54347651063711
 31
0.0
  0
LINE
  5
16745
  8
AM_0
 10
199.71188694445709
 20
600.54347651063733
 30
0.0
 11
199.71188694445709
 21
608.54347651063711
 31
0.0
  0
LINE
  5
16746
  8
AM_0
 10
184.71188694445709
 20
600.54347651063733
 30
0.0
 11
201.71188694445709
 21
600.54347651063733
 31
0.0
  0
LINE
  5
16747
  8
AM_0
 10
201.71188694445709
 20
600.54347651063733
 30
0.0
 11
201.71188694445709
 21
598.95347651063719
 31
0.0
  0
LINE
  5
16748
  8
AM_0
 10
184.71188694445709
 20
600.54347651063733
 30
0.0
 11
184.71188694445709
 21
598.95347651063719
 31
0.0
  0
LINE
  5
16749
  8
AM_0
 10
186.71188694445709
 20
608.54347651063711
 30
0.0
 11
199.71188694445709
 21
608.54347651063711
 31
0.0
  0
LINE
  5
1674A
  8
AM_0
 10
53.711882980748271
 20
600.54347651063733
 30
0.0
 11
53.711882980748271
 21
608.54347651063711
 31
0.0
  0
LINE
  5
1674B
  8
AM_0
 10
66.711882980748271
 20
600.54347651063733
 30
0.0
 11
66.711882980748271
 21
608.54347651063711
 31
0.0
  0
LINE
  5
1674C
  8
AM_0
 10
51.711882980748271
 20
600.54347651063733
 30
0.0
 11
68.711882980748271
 21
600.54347651063733
 31
0.0
  0
LINE
  5
1674D
  8
AM_0
 10
68.711882980748271
 20
600.54347651063733
 30
0.0
 11
68.711882980748271
 21
598.95347651063719
 31
0.0
  0
LINE
  5
1674E
  8
AM_0
 10
51.711882980748271
 20
600.54347651063733
 30
0.0
 11
51.711882980748271
 21
598.95347651063719
 31
0.0
  0
LINE
  5
1674F
  8
AM_0
 10
53.711882980748271
 20
608.54347651063711
 30
0.0
 11
66.711882980748271
 21
608.54347651063711
 31
0.0
  0
LINE
  5
16760
  8
AM_0
 10
185.71188694445729
 20
491.86345877019761
 30
0.0
 11
200.71188694445729
 21
491.86345877019761
 31
0.0
  0
LINE
  5
16761
  8
AM_0
 10
184.71188694445729
 20
498.36345877019772
 30
0.0
 11
201.7118869444574
 21
498.36345877019721
 31
0.0
  0
LINE
  5
16762
  8
AM_0N
 10
189.2118869444574
 20
491.31027353517402
 30
0.0
 11
197.2118869444574
 21
491.31027353517402
 31
0.0
  0
LINE
  5
16763
  8
AM_0N
 10
197.2118869444574
 20
491.31027353517402
 30
0.0
 11
196.44507444445739
 21
490.54346103517412
 31
0.0
  0
LINE
  5
16764
  8
AM_0
 10
200.71188694445729
 20
491.86345877019761
 30
0.0
 11
200.71188694445721
 21
498.36345877019772
 31
0.0
  0
LINE
  5
16765
  8
AM_0
 10
196.96188694445729
 20
491.86345877019761
 30
0.0
 11
196.96188694445729
 21
498.36345877019721
 31
0.0
  0
LINE
  5
16766
  8
AM_0N
 10
197.2118869444574
 20
491.86345877019761
 30
0.0
 11
197.2118869444574
 21
491.31027353517402
 31
0.0
  0
LINE
  5
16767
  8
AM_0
 10
201.7118869444574
 20
498.36345877019721
 30
0.0
 11
201.7118869444574
 21
499.95345877019753
 31
0.0
  0
LINE
  5
16768
  8
AM_0
 10
189.46188694445729
 20
491.86345877019761
 30
0.0
 11
189.4618869444574
 21
498.36345877019772
 31
0.0
  0
LINE
  5
16769
  8
AM_0N
 10
189.97869944445739
 20
490.54346103517412
 30
0.0
 11
196.44507444445739
 21
490.54346103517412
 31
0.0
  0
LINE
  5
1676A
  8
AM_0N
 10
189.2118869444574
 20
491.86345877019761
 30
0.0
 11
189.2118869444574
 21
491.31027353517402
 31
0.0
  0
LINE
  5
1676B
  8
AM_0N
 10
189.2118869444574
 20
491.31027353517402
 30
0.0
 11
189.97869944445739
 21
490.54346103517412
 31
0.0
  0
LINE
  5
1676C
  8
AM_4N
 10
189.97869944445739
 20
490.54346103517412
 30
0.0
 11
189.97869944445739
 21
491.86345877019761
 31
0.0
  0
LINE
  5
1676D
  8
AM_4N
 10
196.44507444445739
 20
490.54346103517412
 30
0.0
 11
196.44507444445739
 21
491.86345877019761
 31
0.0
  0
LINE
  5
1676E
  8
AM_0
 10
185.71188694445729
 20
491.86345877019761
 30
0.0
 11
185.7118869444574
 21
498.36345877019772
 31
0.0
  0
LINE
  5
1676F
  8
AM_0
 10
184.71188694445729
 20
498.36345877019721
 30
0.0
 11
184.71188694445729
 21
499.95345877019753
 31
0.0
  0
LINE
  5
16770
  8
AM_0
 10
52.711882980748243
 20
491.86345877019761
 30
0.0
 11
67.711882980748243
 21
491.86345877019761
 31
0.0
  0
LINE
  5
16771
  8
AM_0
 10
51.711882980748243
 20
498.36345877019772
 30
0.0
 11
68.711882980748342
 21
498.36345877019721
 31
0.0
  0
LINE
  5
16772
  8
AM_0N
 10
56.2118829807483
 20
491.31027353517402
 30
0.0
 11
64.2118829807483
 21
491.31027353517402
 31
0.0
  0
LINE
  5
16773
  8
AM_0N
 10
64.2118829807483
 20
491.31027353517402
 30
0.0
 11
63.445070480748271
 21
490.54346103517412
 31
0.0
  0
LINE
  5
16774
  8
AM_0
 10
67.711882980748243
 20
491.86345877019761
 30
0.0
 11
67.711882980748129
 21
498.36345877019772
 31
0.0
  0
LINE
  5
16775
  8
AM_0
 10
63.961882980748243
 20
491.86345877019761
 30
0.0
 11
63.961882980748243
 21
498.36345877019721
 31
0.0
  0
LINE
  5
16776
  8
AM_0N
 10
64.2118829807483
 20
491.86345877019761
 30
0.0
 11
64.2118829807483
 21
491.31027353517402
 31
0.0
  0
LINE
  5
16777
  8
AM_0
 10
68.711882980748342
 20
498.36345877019721
 30
0.0
 11
68.711882980748342
 21
499.95345877019753
 31
0.0
  0
LINE
  5
16778
  8
AM_0
 10
56.461882980748243
 20
491.86345877019761
 30
0.0
 11
56.461882980748364
 21
498.36345877019772
 31
0.0
  0
LINE
  5
16779
  8
AM_0N
 10
56.9786954807483
 20
490.54346103517412
 30
0.0
 11
63.445070480748271
 21
490.54346103517412
 31
0.0
  0
LINE
  5
1677A
  8
AM_0N
 10
56.2118829807483
 20
491.86345877019761
 30
0.0
 11
56.2118829807483
 21
491.31027353517402
 31
0.0
  0
LINE
  5
1677B
  8
AM_0N
 10
56.2118829807483
 20
491.31027353517402
 30
0.0
 11
56.9786954807483
 21
490.54346103517412
 31
0.0
  0
LINE
  5
1677C
  8
AM_4N
 10
56.9786954807483
 20
490.54346103517412
 30
0.0
 11
56.9786954807483
 21
491.86345877019761
 31
0.0
  0
LINE
  5
1677D
  8
AM_4N
 10
63.445070480748271
 20
490.54346103517412
 30
0.0
 11
63.445070480748271
 21
491.86345877019761
 31
0.0
  0
LINE
  5
1677E
  8
AM_0
 10
52.711882980748243
 20
491.86345877019761
 30
0.0
 11
52.711882980748364
 21
498.36345877019772
 31
0.0
  0
LINE
  5
1677F
  8
AM_0
 10
51.711882980748243
 20
498.36345877019721
 30
0.0
 11
51.711882980748243
 21
499.95345877019753
 31
0.0
  0
LINE
  5
169AB
  8
AM_0
 10
20.611932667823801
 20
222.72718420823551
 30
0.0
 11
20.611932667823801
 21
219.1271742082354
 31
0.0
  0
LINE
  5
169AC
  8
AM_0
 10
23.211912667823981
 20
224.72718420823551
 30
0.0
 11
23.211912667823981
 21
217.1271742082354
 31
0.0
  0
LINE
  5
169AD
  8
AM_0
 10
24.211912667823981
 20
224.72718420823551
 30
0.0
 11
24.211912667823981
 21
217.1271742082354
 31
0.0
  0
ARC
  5
169AE
  8
AM_0
 10
22.311912667824121
 20
219.1271742082354
 30
0.0
 40
1.7000007999999991
 50
180.00001000000091
 51
269.999979999998
  0
LINE
  5
169AF
  8
AM_0
 10
23.211912667823981
 20
217.42716420823561
 30
0.0
 11
22.311912667824121
 21
217.42716420823561
 31
0.0
  0
LINE
  5
169B0
  8
AM_0
 10
23.211912667823981
 20
217.1271742082354
 30
0.0
 11
24.211912667823981
 21
217.1271742082354
 31
0.0
  0
ARC
  5
169B1
  8
AM_0
 10
22.311912667824121
 20
222.72718420823551
 30
0.0
 40
1.699996899999999
 50
90.00000299999769
 51
179.99998000000451
  0
LINE
  5
169B2
  8
AM_0
 10
23.211912667823981
 20
224.42716420823561
 30
0.0
 11
22.311912667824121
 21
224.42716420823561
 31
0.0
  0
LINE
  5
169B3
  8
AM_0
 10
24.211912667823981
 20
221.70453420823571
 30
0.0
 11
23.211912667823981
 21
221.1271742082354
 31
0.0
  0
LINE
  5
169B4
  8
AM_0
 10
24.211912667823981
 20
220.70453420823571
 30
0.0
 11
23.211912667823981
 21
220.1271742082354
 31
0.0
  0
LINE
  5
169B5
  8
AM_0
 10
23.211912667823981
 20
224.72718420823551
 30
0.0
 11
24.211912667823981
 21
224.72718420823551
 31
0.0
  0
ARC
  5
169B6
  8
AM_0
 10
22.311912667824021
 20
305.7271542082355
 30
0.0
 40
1.7000007999999991
 50
90.000020000001967
 51
179.999989999999
  0
LINE
  5
169B7
  8
AM_0
 10
23.211912667823981
 20
300.12714420823562
 30
0.0
 11
23.211912667823981
 21
307.72715420823562
 31
0.0
  0
LINE
  5
169B8
  8
AM_0
 10
24.211912667823981
 20
300.12714420823562
 30
0.0
 11
24.211912667823981
 21
307.72715420823562
 31
0.0
  0
LINE
  5
169B9
  8
AM_0
 10
20.611932667823801
 20
302.12714420823568
 30
0.0
 11
20.611932667823801
 21
305.72715420823562
 31
0.0
  0
LINE
  5
169BA
  8
AM_0
 10
24.211912667823981
 20
303.14979420823562
 30
0.0
 11
23.211912667823981
 21
303.72715420823562
 31
0.0
  0
LINE
  5
169BB
  8
AM_0
 10
24.211912667823981
 20
304.14979420823562
 30
0.0
 11
23.211912667823981
 21
304.72715420823562
 31
0.0
  0
LINE
  5
169BC
  8
AM_0
 10
23.211912667823981
 20
300.42716420823552
 30
0.0
 11
22.31191266782389
 21
300.42716420823552
 31
0.0
  0
LINE
  5
169BD
  8
AM_0
 10
23.211912667823981
 20
300.12714420823562
 30
0.0
 11
24.211912667823981
 21
300.12714420823562
 31
0.0
  0
ARC
  5
169BE
  8
AM_0
 10
22.311912667824
 20
302.12714420823568
 30
0.0
 40
1.699996899999999
 50
180.00001999999549
 51
269.9999969999958
  0
LINE
  5
169BF
  8
AM_0
 10
23.211912667823981
 20
307.42716420823569
 30
0.0
 11
22.31191266782389
 21
307.42716420823569
 31
0.0
  0
LINE
  5
169C0
  8
AM_0
 10
23.211912667823981
 20
307.72715420823562
 30
0.0
 11
24.211912667823981
 21
307.72715420823562
 31
0.0
  0
LINE
  5
169E8
  8
AM_0
 10
-44.788087332176019
 20
202.54217220823571
 30
0.0
 11
-44.788087332176019
 21
206.14216220823559
 31
0.0
  0
ARC
  5
169E9
  8
AM_0
 10
-46.788517332176177
 20
205.30258220823561
 30
0.0
 40
2.000407899999999
 50
270.0116499999956
 51
359.98835099999928
  0
LINE
  5
169EA
  8
AM_0
 10
-83.788027332176071
 20
211.64214220823561
 30
0.0
 11
-82.498047332176043
 21
203.15215220823561
 31
0.0
  0
LINE
  5
169EB
  8
AM_0
 10
-83.788087332176005
 20
211.64218220823551
 30
0.0
 11
-82.478087332176074
 21
202.26217220823571
 31
0.0
  0
ARC
  5
169EC
  8
AM_0
 10
-80.539677332176197
 20
205.29530220823571
 30
0.0
 40
1.9931281000000001
 50
189.03881999999979
 51
270.04662699999949
  0
LINE
  5
169ED
  8
AM_0
 10
-80.538087332176019
 20
203.3021622082357
 30
0.0
 11
-46.788087332176033
 21
203.3021622082357
 31
0.0
  0
LINE
  5
169EE
  8
AM_0
 10
-80.518067332176074
 20
201.45216220823559
 30
0.0
 11
-46.788087332176033
 21
201.45216220823559
 31
0.0
  0
LINE
  5
169EF
  8
AM_0
 10
-80.498107332176104
 20
200.54215220823571
 30
0.0
 11
-46.788087332176033
 21
200.54215220823571
 31
0.0
  0
ARC
  5
169F0
  8
AM_0
 10
-80.503417332176113
 20
202.5356422082356
 30
0.0
 40
1.9934921000000001
 50
187.88525999999729
 51
270.15390899999858
  0
ARC
  5
169F1
  8
AM_0
 10
-80.525387332176138
 20
203.44673220823569
 30
0.0
 40
1.994588
 50
188.492910000005
 51
270.2092470000041
  0
ARC
  5
169F2
  8
AM_0
 10
-46.789367332176198
 20
202.54345220823569
 30
0.0
 40
2.001287899999999
 50
270.03687399999552
 51
359.9631280009977
  0
ARC
  5
169F3
  8
AM_0
 10
-46.789677332176197
 20
203.45371220823569
 30
0.0
 40
2.0015439999999991
 50
270.04421600000092
 51
359.95578600099913
  0
LINE
  5
169F4
  8
AM_0
 10
-91.788087332176019
 20
209.4271622082357
 30
0.0
 11
-83.788087332176005
 21
209.4271622082357
 31
0.0
  0
LINE
  5
169F5
  8
AM_0
 10
-91.788087332176019
 20
209.43215220823561
 30
0.0
 11
-83.788087332176005
 21
209.43215220823561
 31
0.0
  0
LINE
  5
169F6
  8
AM_0
 10
-91.098087332176078
 20
219.2421722082357
 30
0.0
 11
-84.868107332176123
 21
219.2421722082357
 31
0.0
  0
LINE
  5
169F7
  8
AM_0
 10
-91.788087332176019
 20
315.42716620823569
 30
0.0
 11
-83.788087332176005
 21
315.42716620823569
 31
0.0
  0
LINE
  5
169F8
  8
AM_0
 10
-91.788087332176019
 20
315.43215520823571
 30
0.0
 11
-83.788087332176005
 21
315.43215520823571
 31
0.0
  0
LINE
  5
169F9
  8
AM_0
 10
-91.098087332176078
 20
305.6221662082358
 30
0.0
 11
-84.868107332176123
 21
305.6221662082358
 31
0.0
  0
LINE
  5
169FA
  8
AM_0
 10
-95.788117332176057
 20
268.04042888462618
 30
0.0
 11
-95.788117332176057
 21
266.8795388846263
 31
0.0
  0
ARC
  5
169FB
  8
AM_0
 10
-96.788117332176071
 20
267.42713888462629
 30
0.0
 40
1.0
 50
179.999989999999
 51
269.9999969999958
  0
LINE
  5
169FC
  8
AM_0
 10
-91.788117332176057
 20
209.42715888462621
 30
0.0
 11
-91.788117332176057
 21
315.4271398846264
 31
0.0
  0
LINE
  5
169FD
  8
AM_0
 10
-99.288117332176071
 20
242.42715888462621
 30
0.0
 11
-99.288117332176071
 21
282.42713888462629
 31
0.0
  0
LINE
  5
169FE
  8
AM_0
 10
-92.788117332176057
 20
212.42715888462621
 30
0.0
 11
-92.788117332176057
 21
313.5503778846263
 31
0.0
  0
LINE
  5
169FF
  8
AM_0
 10
-100.282013816551
 20
277.64898116001689
 30
0.0
 11
-100.282013816551
 21
247.20534712681371
 31
0.0
  0
ARC
  5
16A00
  8
AM_0
 10
-93.788117332176057
 20
235.4271488846264
 30
0.0
 40
1.0
 50
0.0
 51
90.0
  0
LINE
  5
16A01
  8
AM_0
 10
-97.788117332176057
 20
214.4107888846263
 30
0.0
 11
-97.788117332176057
 21
257.42715888462618
 31
0.0
  0
LINE
  5
16A02
  8
AM_0
 10
-95.788117332176057
 20
219.59669888462619
 30
0.0
 11
-95.788117332176057
 21
220.06888888462629
 31
0.0
  0
LINE
  5
16A03
  8
AM_0
 10
-96.037867332176134
 20
219.46599888462629
 30
0.0
 11
-97.336457332176124
 21
220.31755888462621
 31
0.0
  0
LINE
  5
16A04
  8
AM_0
 10
-96.020297332176057
 20
212.8120388846263
 30
0.0
 11
-97.288477332176043
 21
213.54498888462621
 31
0.0
  0
LINE
  5
16A05
  8
AM_0
 10
-96.025667332176141
 20
214.92804888462621
 30
0.0
 11
-97.302707332176155
 21
215.69434888462629
 31
0.0
  0
LINE
  5
16A06
  8
AM_0
 10
-96.001437332176124
 20
213.9323388846262
 30
0.0
 11
-97.240687332176094
 21
214.5613588846262
 31
0.0
  0
LINE
  5
16A07
  8
AM_0
 10
-96.007777332176062
 20
216.04198888462619
 30
0.0
 11
-97.256437332176134
 21
216.70384888462621
 31
0.0
  0
ARC
  5
16A08
  8
AM_0
 10
-96.788117332176071
 20
214.4107888846263
 30
0.0
 40
1.0
 50
179.999989999999
 51
239.9736000000039
  0
ARC
  5
16A09
  8
AM_0
 10
-96.788117332176071
 20
215.45308888462631
 30
0.0
 40
1.0
 50
179.999989999999
 51
243.0887399999977
  0
ARC
  5
16A0A
  8
AM_0
 10
-96.788117332176071
 20
216.55183888462619
 30
0.0
 40
1.0
 50
179.999989999999
 51
239.03339999999929
  0
ARC
  5
16A0B
  8
AM_0
 10
-96.788117332176071
 20
217.58743888462641
 30
0.0
 40
1.0
 50
179.999989999999
 51
242.07339999999769
  0
ARC
  5
16A0C
  8
AM_0
 10
-95.519927332176053
 20
213.6777688846264
 30
0.0
 40
1.0
 50
239.9736000000039
 51
269.9999969999958
  0
ARC
  5
16A0D
  8
AM_0
 10
-95.548857332176226
 20
214.82405888462631
 30
0.0
 40
1.0
 50
243.0887399999977
 51
269.9999969999958
  0
ARC
  5
16A0E
  8
AM_0
 10
-95.511077332176114
 20
215.78554888462619
 30
0.0
 40
1.0
 50
239.03339999999929
 51
269.9999969999958
  0
ARC
  5
16A0F
  8
AM_0
 10
-95.539457332176084
 20
216.9255188846264
 30
0.0
 40
1.0
 50
242.07339999999769
 51
269.9999969999958
  0
LINE
  5
16A10
  8
AM_0
 10
-95.788117332176057
 20
215.03059888462619
 30
0.0
 11
-95.788117332176057
 21
215.57667888462629
 31
0.0
  0
LINE
  5
16A11
  8
AM_0
 10
-95.788117332176057
 20
212.9309888846262
 30
0.0
 11
-95.788117332176057
 21
213.45676888462631
 31
0.0
  0
ARC
  5
16A12
  8
AM_0
 10
-93.288117332176057
 20
214.32405888462631
 30
0.0
 40
0.5
 50
269.9999969999958
 51
0.0
  0
ARC
  5
16A13
  8
AM_0
 10
-93.288117332176057
 20
212.1777688846264
 30
0.0
 40
0.5
 50
0.0
 51
90.0
  0
LINE
  5
16A14
  8
AM_0
 10
-95.519927332176053
 20
212.67775888462629
 30
0.0
 11
-93.288117332176057
 21
212.67775888462629
 31
0.0
  0
LINE
  5
16A15
  8
AM_0
 10
-95.511077332176114
 20
214.78555888462631
 30
0.0
 11
-92.788117332176057
 21
214.78555888462631
 31
0.0
  0
LINE
  5
16A16
  8
AM_0
 10
-95.539457332176084
 20
215.92549888462619
 30
0.0
 11
-93.788117332176057
 21
215.92549888462619
 31
0.0
  0
LINE
  5
16A17
  8
AM_0
 10
-95.548857332176127
 20
213.8240788846262
 30
0.0
 11
-93.288117332176057
 21
213.8240788846262
 31
0.0
  0
LINE
  5
16A18
  8
AM_0
 10
-92.788117332176057
 20
212.42715888462621
 30
0.0
 11
-91.788117332176057
 21
212.42715888462621
 31
0.0
  0
ARC
  5
16A19
  8
AM_0
 10
-95.489467332176105
 20
220.3022688846263
 30
0.0
 40
1.0
 50
236.7452700000004
 51
269.9999969999958
  0
LINE
  5
16A1A
  8
AM_0
 10
-95.489467332176105
 20
219.3022688846263
 30
0.0
 11
-92.788117332176057
 21
219.3022688846263
 31
0.0
  0
ARC
  5
16A1B
  8
AM_0
 10
-93.788117332176057
 20
216.9255188846264
 30
0.0
 40
1.0
 50
269.9999969999958
 51
0.0
  0
LINE
  5
16A1C
  8
AM_0
 10
-95.788117332176057
 20
227.0342688846263
 30
0.0
 11
-95.788117332176057
 21
228.0942188846262
 31
0.0
  0
ARC
  5
16A1D
  8
AM_0
 10
-96.788117332176071
 20
228.25241888462639
 30
0.0
 40
1.0
 50
179.999989999999
 51
246.8729700000045
  0
LINE
  5
16A1E
  8
AM_0
 10
-96.022247332176093
 20
220.57936888462621
 30
0.0
 11
-97.293547332176132
 21
221.32403888462619
 31
0.0
  0
LINE
  5
16A1F
  8
AM_0
 10
-95.976287332176071
 20
226.81825888462629
 30
0.0
 11
-97.180877332175996
 21
227.33272888462619
 31
0.0
  0
ARC
  5
16A20
  8
AM_0
 10
-96.788117332176071
 20
222.18690888462629
 30
0.0
 40
1.0
 50
179.999989999999
 51
239.6404999999954
  0
ARC
  5
16A21
  8
AM_0
 10
-96.788117332176071
 20
221.15382888462631
 30
0.0
 40
1.0
 50
179.999989999999
 51
236.7452700000004
  0
ARC
  5
16A22
  8
AM_0
 10
-95.516817332176174
 20
221.4422188846263
 30
0.0
 40
1.0
 50
239.6404999999954
 51
269.9999969999958
  0
ARC
  5
16A23
  8
AM_0
 10
-93.788117332176057
 20
221.4422188846263
 30
0.0
 40
1.0
 50
269.9999969999958
 51
0.0
  0
LINE
  5
16A24
  8
AM_0
 10
-95.516817332176061
 20
220.44223888462619
 30
0.0
 11
-93.788117332176057
 21
220.44223888462619
 31
0.0
  0
ARC
  5
16A25
  8
AM_0
 10
-95.583467332176156
 20
227.73793888462629
 30
0.0
 40
1.0
 50
246.8729700000045
 51
269.9999969999958
  0
ARC
  5
16A26
  8
AM_0
 10
-93.488127332176077
 20
226.0379388846263
 30
0.0
 40
0.6999999900000002
 50
0.0
 51
90.0
  0
LINE
  5
16A27
  8
AM_0
 10
-95.583467332176056
 20
226.73794888462621
 30
0.0
 11
-93.488127332176077
 21
226.73794888462621
 31
0.0
  0
LINE
  5
16A28
  8
AM_0
 10
-95.931797332176075
 20
228.72821888462619
 30
0.0
 11
-97.082117332176054
 21
229.08205888462621
 31
0.0
  0
ARC
  5
16A29
  8
AM_0
 10
-96.788117332176071
 20
230.0378788846262
 30
0.0
 40
1.0
 50
179.999989999999
 51
252.902369999998
  0
ARC
  5
16A2A
  8
AM_0
 10
-95.637787332176131
 20
229.68404888462621
 30
0.0
 40
1.0
 50
252.902369999998
 51
269.9999969999958
  0
ARC
  5
16A2B
  8
AM_0
 10
-93.788117332176057
 20
229.68404888462621
 30
0.0
 40
1.0
 50
269.9999969999958
 51
0.0
  0
LINE
  5
16A2C
  8
AM_0
 10
-95.637787332176131
 20
228.68404888462621
 30
0.0
 11
-93.788117332176057
 21
228.68404888462621
 31
0.0
  0
LINE
  5
16A2D
  8
AM_0
 10
-93.788117332176057
 20
236.42715888462621
 30
0.0
 11
-96.788117332176071
 21
236.42715888462621
 31
0.0
  0
LINE
  5
16A2E
  8
AM_0
 10
-93.788117332176057
 20
238.42714888462629
 30
0.0
 11
-96.788117332176071
 21
238.42714888462629
 31
0.0
  0
ARC
  5
16A2F
  8
AM_0
 10
-96.788117332176071
 20
237.4271488846264
 30
0.0
 40
1.0
 50
179.999989999999
 51
269.9999969999958
  0
ARC
  5
16A30
  8
AM_0
 10
-96.788117332176071
 20
237.4271488846264
 30
0.0
 40
1.0
 50
90.0
 51
180.00001000000091
  0
LINE
  5
16A31
  8
AM_0
 10
-99.288117332176071
 20
242.42715888462621
 30
0.0
 11
-97.788117332176057
 21
242.2959388846262
 31
0.0
  0
LINE
  5
16A32
  8
AM_0
 10
-95.788117332176057
 20
236.80098888462621
 30
0.0
 11
-95.788117332176057
 21
238.1637788846262
 31
0.0
  0
ARC
  5
16A33
  8
AM_0
 10
-93.788117332176057
 20
239.42715888462629
 30
0.0
 40
1.0
 50
269.9999969999958
 51
0.0
  0
LINE
  5
16A34
  8
AM_0
 10
-93.788117332176057
 20
246.42714888462621
 30
0.0
 11
-96.788117332176071
 21
246.42714888462621
 31
0.0
  0
LINE
  5
16A35
  8
AM_0
 10
-93.788117332176057
 20
248.42715888462621
 30
0.0
 11
-96.788117332176071
 21
248.42715888462621
 31
0.0
  0
LINE
  5
16A36
  8
AM_0
 10
-99.288117332176071
 20
247.27711888462619
 30
0.0
 11
-94.610627332176023
 21
247.27711888462619
 31
0.0
  0
ARC
  5
16A37
  8
AM_0
 10
-96.788117332176071
 20
247.42714888462629
 30
0.0
 40
1.0
 50
179.999989999999
 51
269.9999969999958
  0
LINE
  5
16A38
  8
AM_0
 10
-99.288117332176071
 20
245.14517888462629
 30
0.0
 11
-97.788117332176057
 21
245.14517888462629
 31
0.0
  0
LINE
  5
16A39
  8
AM_0
 10
-100.282013816551
 20
247.20531660923561
 30
0.0
 11
-99.782013816551057
 21
244.43532759556371
 31
0.0
  0
LINE
  5
16A3A
  8
AM_0
 10
-99.781983298972946
 20
244.43532759556371
 30
0.0
 11
-99.282013816551071
 21
244.47533614048561
 31
0.0
  0
ARC
  5
16A3B
  8
AM_0
 10
-96.788117332176071
 20
247.42714888462629
 30
0.0
 40
1.0
 50
90.0
 51
180.00001000000091
  0
LINE
  5
16A3C
  8
AM_0
 10
-95.788117332176057
 20
246.82004888462629
 30
0.0
 11
-95.788117332176057
 21
248.03146888462629
 31
0.0
  0
ARC
  5
16A3D
  8
AM_0
 10
-93.788117332176057
 20
245.42715888462629
 30
0.0
 40
1.0
 50
0.0
 51
90.0
  0
ARC
  5
16A3E
  8
AM_0
 10
-93.788117332176057
 20
249.42714888462621
 30
0.0
 40
1.0
 50
269.9999969999958
 51
0.0
  0
ARC
  5
16A3F
  8
AM_0
 10
-93.788117332176057
 20
259.42714888462632
 30
0.0
 40
1.0
 50
269.9999969999958
 51
0.0
  0
LINE
  5
16A40
  8
AM_0
 10
-93.788117332176057
 20
256.42714888462632
 30
0.0
 11
-96.788117332176071
 21
256.42714888462632
 31
0.0
  0
LINE
  5
16A41
  8
AM_0
 10
-93.788117332176057
 20
258.42714888462632
 30
0.0
 11
-96.788117332176071
 21
258.42714888462632
 31
0.0
  0
ARC
  5
16A42
  8
AM_0
 10
-96.788117332176071
 20
257.42715888462618
 30
0.0
 40
1.0
 50
90.0
 51
180.00001000000091
  0
ARC
  5
16A43
  8
AM_0
 10
-96.788117332176071
 20
257.42715888462618
 30
0.0
 40
1.0
 50
179.999989999999
 51
269.9999969999958
  0
LINE
  5
16A44
  8
AM_0
 10
-95.788117332176057
 20
256.8139388846264
 30
0.0
 11
-95.788117332176057
 21
257.97482888462628
 31
0.0
  0
ARC
  5
16A45
  8
AM_0
 10
-93.788117332176057
 20
255.42714888462621
 30
0.0
 40
1.0
 50
0.0
 51
90.0
  0
LINE
  5
16A46
  8
AM_0
 10
-93.788117332176057
 20
266.42715888462612
 30
0.0
 11
-96.788117332176071
 21
266.42715888462612
 31
0.0
  0
ARC
  5
16A47
  8
AM_0
 10
-93.788117332176057
 20
265.42714888462632
 30
0.0
 40
1.0
 50
0.0
 51
90.0
  0
LINE
  5
16A48
  8
AM_0
 10
-97.788117332176057
 20
310.44355788462627
 30
0.0
 11
-97.788117332176057
 21
267.42713888462617
 31
0.0
  0
LINE
  5
16A49
  8
AM_0
 10
-93.788117332176057
 20
268.42714888462609
 30
0.0
 11
-96.788117332176071
 21
268.42714888462609
 31
0.0
  0
ARC
  5
16A4A
  8
AM_0
 10
-96.788117332176071
 20
267.42713888462629
 30
0.0
 40
1.0
 50
90.0
 51
180.00001000000091
  0
ARC
  5
16A4B
  8
AM_0
 10
-93.788117332176057
 20
269.42715888462618
 30
0.0
 40
1.0
 50
269.9999969999958
 51
0.0
  0
LINE
  5
16A4C
  8
AM_0
 10
-93.788117332176057
 20
278.42715888462618
 30
0.0
 11
-96.788117332176071
 21
278.42715888462618
 31
0.0
  0
LINE
  5
16A4D
  8
AM_0
 10
-93.788117332176057
 20
276.42713888462617
 30
0.0
 11
-96.788117332176071
 21
276.42713888462617
 31
0.0
  0
LINE
  5
16A4E
  8
AM_0
 10
-99.288117332176071
 20
277.57717888462628
 30
0.0
 11
-95.994417332176127
 21
277.57717888462628
 31
0.0
  0
ARC
  5
16A4F
  8
AM_0
 10
-96.788117332176071
 20
277.42714888462632
 30
0.0
 40
1.0
 50
90.0
 51
180.00001000000091
  0
LINE
  5
16A50
  8
AM_0
 10
-99.288117332176071
 20
279.70918888462631
 30
0.0
 11
-97.788117332176057
 21
279.70918888462631
 31
0.0
  0
ARC
  5
16A51
  8
AM_0
 10
-96.788117332176071
 20
277.42714888462632
 30
0.0
 40
1.0
 50
179.999989999999
 51
269.9999969999958
  0
LINE
  5
16A52
  8
AM_0
 10
-99.288057332176081
 20
282.42713888462629
 30
0.0
 11
-97.788117332176057
 21
282.5583688846263
 31
0.0
  0
LINE
  5
16A53
  8
AM_0
 10
-99.782013816551057
 20
280.41897017368882
 30
0.0
 11
-99.281983298972932
 21
280.37896162876689
 31
0.0
  0
LINE
  5
16A54
  8
AM_0
 10
-100.2819832989729
 20
277.64898116001689
 30
0.0
 11
-99.781983298972946
 21
280.41897017368882
 31
0.0
  0
LINE
  5
16A55
  8
AM_0
 10
-95.788117332176057
 20
278.03425888462641
 30
0.0
 11
-95.788117332176057
 21
276.8228988846264
 31
0.0
  0
ARC
  5
16A56
  8
AM_0
 10
-93.788117332176057
 20
279.42713888462629
 30
0.0
 40
1.0
 50
269.9999969999958
 51
0.0
  0
ARC
  5
16A57
  8
AM_0
 10
-93.788117332176057
 20
275.42715888462618
 30
0.0
 40
1.0
 50
0.0
 51
90.0
  0
LINE
  5
16A58
  8
AM_0
 10
-93.788117332176057
 20
286.42714888462632
 30
0.0
 11
-96.788117332176071
 21
286.42714888462632
 31
0.0
  0
LINE
  5
16A59
  8
AM_0
 10
-93.788117332176057
 20
288.42713888462629
 30
0.0
 11
-96.788117332176071
 21
288.42713888462629
 31
0.0
  0
ARC
  5
16A5A
  8
AM_0
 10
-96.788117332176071
 20
287.42715888462618
 30
0.0
 40
1.0
 50
179.999989999999
 51
269.9999969999958
  0
ARC
  5
16A5B
  8
AM_0
 10
-96.788117332176071
 20
287.42715888462618
 30
0.0
 40
1.0
 50
90.0
 51
180.00001000000091
  0
ARC
  5
16A5C
  8
AM_0
 10
-93.788117332176057
 20
285.42713888462629
 30
0.0
 40
1.0
 50
0.0
 51
90.0
  0
LINE
  5
16A5D
  8
AM_0
 10
-95.788117332176057
 20
288.0533788846264
 30
0.0
 11
-95.788117332176057
 21
286.69051888462639
 31
0.0
  0
ARC
  5
16A5E
  8
AM_0
 10
-93.788117332176057
 20
289.42714888462632
 30
0.0
 40
1.0
 50
269.9999969999958
 51
0.0
  0
LINE
  5
16A5F
  8
AM_0
 10
-95.931797332176075
 20
296.12608388462638
 30
0.0
 11
-97.082187332176076
 21
295.77223288462631
 31
0.0
  0
LINE
  5
16A60
  8
AM_0
 10
-95.976227332176094
 20
298.03604988462632
 30
0.0
 11
-97.180937332176072
 21
297.52153788462641
 31
0.0
  0
ARC
  5
16A61
  8
AM_0
 10
-96.788117332176071
 20
294.81642188462632
 30
0.0
 40
1.0
 50
107.097630000002
 51
180.00001000000091
  0
ARC
  5
16A62
  8
AM_0
 10
-96.788117332175943
 20
296.60188388462632
 30
0.0
 40
1.0
 50
113.1270199999949
 51
180.00001000000091
  0
ARC
  5
16A63
  8
AM_0
 10
-95.583467332176056
 20
297.11640988462631
 30
0.0
 40
1.0
 50
90.0
 51
113.1270299999954
  0
LINE
  5
16A64
  8
AM_0
 10
-95.788117332176057
 20
297.82003888462629
 30
0.0
 11
-95.788117332176057
 21
296.76008688462628
 31
0.0
  0
ARC
  5
16A65
  8
AM_0
 10
-93.488127332175964
 20
298.81636088462631
 30
0.0
 40
0.6999999900000002
 50
269.9999969999958
 51
0.0
  0
LINE
  5
16A66
  8
AM_0
 10
-95.583467332176056
 20
298.11641788462617
 30
0.0
 11
-93.488127332176077
 21
298.11641788462617
 31
0.0
  0
LINE
  5
16A67
  8
AM_0
 10
-95.637787332176131
 20
296.17030388462638
 30
0.0
 11
-93.788117332176057
 21
296.17030388462638
 31
0.0
  0
ARC
  5
16A68
  8
AM_0
 10
-95.637787332176131
 20
295.17031888462623
 30
0.0
 40
1.0
 50
90.0
 51
107.097630000002
  0
ARC
  5
16A69
  8
AM_0
 10
-93.788117332176057
 20
295.17031888462623
 30
0.0
 40
1.0
 50
0.0
 51
90.0
  0
LINE
  5
16A6A
  8
AM_0
 10
-96.037867332176134
 20
305.38831388462631
 30
0.0
 11
-97.336517332176072
 21
304.53675088462631
 31
0.0
  0
LINE
  5
16A6B
  8
AM_0
 10
-96.022187332176145
 20
304.27497888462631
 30
0.0
 11
-97.293547332176132
 21
303.53029688462641
 31
0.0
  0
ARC
  5
16A6C
  8
AM_0
 10
-96.788117332175943
 20
302.66738988462629
 30
0.0
 40
1.0
 50
120.35951000000119
 51
180.00001000000091
  0
ARC
  5
16A6D
  8
AM_0
 10
-96.788117332175943
 20
302.66738988462629
 30
0.0
 40
1.0
 50
120.35951000000119
 51
180.00001000000091
  0
LINE
  5
16A6E
  8
AM_0
 10
-97.293547332176132
 20
303.53025888462628
 30
0.0
 11
-97.317107332176079
 21
303.51643388462628
 31
0.0
  0
ARC
  5
16A6F
  8
AM_0
 10
-96.788117332175943
 20
303.70051588462633
 30
0.0
 40
1.0
 50
123.25472000000271
 51
180.00001000000091
  0
ARC
  5
16A70
  8
AM_0
 10
-93.788117332175929
 20
303.41207988462628
 30
0.0
 40
1.0
 50
0.0
 51
25.36324000000096
  0
ARC
  5
16A71
  8
AM_0
 10
-95.489467332176005
 20
304.55209388462629
 30
0.0
 40
1.0
 50
90.0
 51
123.2547299999982
  0
ARC
  5
16A72
  8
AM_0
 10
-95.516817332176061
 20
303.41207988462628
 30
0.0
 40
1.0
 50
90.0
 51
120.3595000000044
  0
LINE
  5
16A73
  8
AM_0
 10
-95.788117332176057
 20
305.2575998846263
 30
0.0
 11
-95.788117332176057
 21
304.78548488462638
 31
0.0
  0
LINE
  5
16A74
  8
AM_0
 10
-95.489467332176105
 20
305.55207888462633
 30
0.0
 11
-92.788117332176057
 21
305.55207888462633
 31
0.0
  0
LINE
  5
16A75
  8
AM_0
 10
-95.516817332176061
 20
304.41206388462621
 30
0.0
 11
-93.788117332176057
 21
304.41206388462621
 31
0.0
  0
ARC
  5
16A76
  8
AM_0
 10
-93.788117332175929
 20
303.41207988462628
 30
0.0
 40
1.0
 50
0.0
 51
90.0
  0
LINE
  5
16A77
  8
AM_0
 10
-96.025667332176141
 20
309.9262398846264
 30
0.0
 11
-97.302577332176057
 21
309.15999688462642
 31
0.0
  0
LINE
  5
16A78
  8
AM_0
 10
-96.001497332176072
 20
310.92188288462643
 30
0.0
 11
-97.240757332176145
 21
310.29285488462631
 31
0.0
  0
LINE
  5
16A79
  8
AM_0
 10
-96.007777332176062
 20
308.81234788462632
 30
0.0
 11
-97.256377332176058
 21
308.15048288462629
 31
0.0
  0
LINE
  5
16A7A
  8
AM_0
 10
-96.020357332176133
 20
312.04230588462639
 30
0.0
 11
-97.288547332176137
 21
311.30932688462639
 31
0.0
  0
ARC
  5
16A7B
  8
AM_0
 10
-96.788117332175943
 20
310.44355788462627
 30
0.0
 40
1.0
 50
120.02639000000499
 51
180.00001000000091
  0
ARC
  5
16A7C
  8
AM_0
 10
-96.788117332175943
 20
309.40120788462639
 30
0.0
 40
1.0
 50
116.91125000000299
 51
180.00001000000091
  0
ARC
  5
16A7D
  8
AM_0
 10
-96.788117332175943
 20
307.26692988462639
 30
0.0
 40
1.0
 50
117.92658999999919
 51
180.00001000000091
  0
ARC
  5
16A7E
  8
AM_0
 10
-96.788117332175943
 20
308.30250588462638
 30
0.0
 40
1.0
 50
120.9666000000006
 51
180.00001000000091
  0
LINE
  5
16A7F
  8
AM_0
 10
-95.788117332176057
 20
311.92330188462631
 30
0.0
 11
-95.788117332176057
 21
311.39753788462627
 31
0.0
  0
ARC
  5
16A80
  8
AM_0
 10
-95.548857332176127
 20
310.03024388462632
 30
0.0
 40
1.0
 50
90.0
 51
116.9112600000022
  0
ARC
  5
16A81
  8
AM_0
 10
-95.511077332176001
 20
309.06880288462628
 30
0.0
 40
1.0
 50
90.0
 51
120.9666000000006
  0
ARC
  5
16A82
  8
AM_0
 10
-95.539457332175957
 20
307.92878788462627
 30
0.0
 40
1.0
 50
90.0
 51
117.9266000000024
  0
LINE
  5
16A83
  8
AM_0
 10
-95.788117332176057
 20
309.82370088462631
 30
0.0
 11
-95.788117332176057
 21
309.27767988462631
 31
0.0
  0
ARC
  5
16A84
  8
AM_0
 10
-93.788117332175929
 20
307.92878788462627
 30
0.0
 40
1.0
 50
0.0
 51
90.0
  0
ARC
  5
16A85
  8
AM_0
 10
-93.288117332175958
 20
310.53023588462628
 30
0.0
 40
0.5
 50
0.0
 51
90.0
  0
LINE
  5
16A86
  8
AM_0
 10
-95.511077332176114
 20
310.06880988462638
 30
0.0
 11
-92.788117332176057
 21
310.06880988462638
 31
0.0
  0
LINE
  5
16A87
  8
AM_0
 10
-95.539457332176084
 20
308.92879588462631
 30
0.0
 11
-93.788117332176057
 21
308.92879588462631
 31
0.0
  0
LINE
  5
16A88
  8
AM_0
 10
-95.548857332176127
 20
311.03022788462619
 30
0.0
 11
-93.288117332176057
 21
311.03022788462619
 31
0.0
  0
ARC
  5
16A89
  8
AM_0
 10
-95.519927332175925
 20
311.17652988462629
 30
0.0
 40
1.0
 50
90.0
 51
120.026399999996
  0
ARC
  5
16A8A
  8
AM_0
 10
-93.288117332175958
 20
312.67652988462629
 30
0.0
 40
0.5
 50
269.9999969999958
 51
0.0
  0
LINE
  5
16A8B
  8
AM_0
 10
-95.519927332176053
 20
312.17653688462627
 30
0.0
 11
-93.288117332176057
 21
312.17653688462627
 31
0.0
  0
LINE
  5
16A8C
  8
AM_0
 10
-92.788117332176057
 20
312.4271398846264
 30
0.0
 11
-91.788117332176057
 21
312.4271398846264
 31
0.0
  0
LINE
  5
16A8D
  8
AM_0
 10
-80.588077332176098
 20
318.71216920823571
 30
0.0
 11
16.331882667823951
 21
318.71216920823571
 31
0.0
  0
LINE
  5
16A8E
  8
AM_0
 10
-58.288087332176019
 20
300.65215720823568
 30
0.0
 11
21.46668914126985
 21
300.65215720823568
 31
0.0
  0
LINE
  5
16A8F
  8
AM_0
 10
-58.288087332176019
 20
224.20217220823571
 30
0.0
 11
21.466690886357931
 21
224.20217220823571
 31
0.0
  0
LINE
  5
16A90
  8
AM_0
 10
17.551912667823899
 20
298.42713029867582
 30
0.0
 11
-81.428127332176004
 21
298.42713029867582
 31
0.0
  0
LINE
  5
16A91
  8
AM_0
 10
17.551912667823899
 20
296.42713029867571
 30
0.0
 11
-81.428127332176004
 21
296.42713029867582
 31
0.0
  0
LINE
  5
16A92
  8
AM_0
 10
17.54471266782388
 20
286.42713029867571
 30
0.0
 11
-81.428127332176004
 21
286.42713029867582
 31
0.0
  0
LINE
  5
16A93
  8
AM_0
 10
-82.108127332176082
 20
299.14710029867592
 30
0.0
 11
21.031892667823971
 21
299.14710029867592
 31
0.0
  0
LINE
  5
16A94
  8
AM_0
 10
-82.328097332175957
 20
285.98719029867578
 30
0.0
 11
21.246122667824011
 21
285.98719029867578
 31
0.0
  0
LINE
  5
16A95
  8
AM_0
 10
-82.328097332175957
 20
288.91712029867591
 30
0.0
 11
21.257542667823941
 21
288.9171202986758
 31
0.0
  0
LINE
  5
16A96
  8
AM_0
 10
17.559052667824059
 20
288.42713029867571
 30
0.0
 11
-81.428127332176004
 21
288.42713029867582
 31
0.0
  0
LINE
  5
16A97
  8
AM_0
 10
-82.108127332176082
 20
295.79712029867568
 30
0.0
 11
21.031892667823971
 21
295.79712029867551
 31
0.0
  0
LINE
  5
16A98
  8
AM_0
 10
-82.458097332176067
 20
278.7670902986759
 30
0.0
 11
21.540480624224301
 21
278.76709029867578
 31
0.0
  0
LINE
  5
16A99
  8
AM_0
 10
-82.458097332176067
 20
276.10718029867559
 30
0.0
 11
21.38895512581735
 21
276.10718029867559
 31
0.0
  0
LINE
  5
16A9A
  8
AM_0
 10
-82.518097332176012
 20
268.69715029867558
 30
0.0
 11
21.59800192133094
 21
268.69715029867558
 31
0.0
  0
LINE
  5
16A9B
  8
AM_0
 10
-82.518097332176012
 20
266.16712029867568
 30
0.0
 11
21.434714643833331
 21
266.16712029867591
 31
0.0
  0
LINE
  5
16A9C
  8
AM_0
 10
17.555248961235289
 20
266.42713029867571
 30
0.0
 11
-81.428127332176004
 21
266.42713029867571
 31
0.0
  0
LINE
  5
16A9D
  8
AM_0
 10
17.555248961235289
 20
268.42713029867571
 30
0.0
 11
-81.428127332176004
 21
268.42713029867571
 31
0.0
  0
LINE
  5
16A9E
  8
AM_0
 10
17.555248961231651
 20
276.42713029867571
 30
0.0
 11
-81.428127332176004
 21
276.42713029867571
 31
0.0
  0
LINE
  5
16A9F
  8
AM_0
 10
17.555248961256439
 20
278.42713029867559
 30
0.0
 11
-81.428127332176004
 21
278.42713029867582
 31
0.0
  0
LINE
  5
16AA0
  8
AM_0
 10
17.555245011363581
 20
246.42713194198819
 30
0.0
 11
-81.428131282065806
 21
246.42715637784781
 31
0.0
  0
LINE
  5
16AA1
  8
AM_0
 10
17.555245505075391
 20
248.42713194198819
 30
0.0
 11
-81.428130788329199
 21
248.42715637784781
 31
0.0
  0
LINE
  5
16AA2
  8
AM_0
 10
17.555247480025631
 20
256.42713194198791
 30
0.0
 11
-81.428128813382628
 21
256.4271563778475
 31
0.0
  0
LINE
  5
16AA3
  8
AM_0
 10
17.5552479737621
 20
258.42713194198768
 30
0.0
 11
-81.428128319646035
 21
258.42715637784738
 31
0.0
  0
LINE
  5
16AA4
  8
AM_0
 10
-82.518098255457858
 20
258.68716664692653
 30
0.0
 11
21.434713720548409
 21
258.68714098427051
 31
0.0
  0
LINE
  5
16AA5
  8
AM_0
 10
-82.518098880042075
 20
256.15713664692669
 30
0.0
 11
21.598000373461669
 21
256.15711094396028
 31
0.0
  0
LINE
  5
16AA6
  8
AM_0
 10
-82.458100709343626
 20
248.74710663211471
 30
0.0
 11
21.388951748646608
 21
248.74708099556759
 31
0.0
  0
LINE
  5
16AA7
  8
AM_0
 10
-82.458101365991197
 20
246.0871966321148
 30
0.0
 11
21.540476590406119
 21
246.0871709581607
 31
0.0
  0
LINE
  5
16AA8
  8
AM_0
 10
-82.108135570166056
 20
229.05716654571879
 30
0.0
 11
21.031884429830711
 21
229.05714108371561
 31
0.0
  0
LINE
  5
16AA9
  8
AM_0
 10
17.559046249248009
 20
236.42713194104951
 30
0.0
 11
-81.428133750748984
 21
236.42715637784801
 31
0.0
  0
LINE
  5
16AAA
  8
AM_0
 10
-82.328103871712045
 20
235.9371666000221
 30
0.0
 11
21.257536128284752
 21
235.93714102800939
 31
0.0
  0
LINE
  5
16AAB
  8
AM_0
 10
-82.328103148405162
 20
238.86709660002211
 30
0.0
 11
21.246116851591751
 21
238.86707103082861
 31
0.0
  0
LINE
  5
16AAC
  8
AM_0
 10
-82.108136397170014
 20
225.7071865457188
 30
0.0
 11
21.031883602826841
 21
225.70716108371539
 31
0.0
  0
LINE
  5
16AAD
  8
AM_0
 10
17.544706742984541
 20
238.4271319445896
 30
0.0
 11
-81.428133257012405
 21
238.42715637784801
 31
0.0
  0
LINE
  5
16AAE
  8
AM_0
 10
17.551904274301361
 20
228.42713194281231
 30
0.0
 11
-81.428135725695483
 21
228.42715637784821
 31
0.0
  0
LINE
  5
16AAF
  8
AM_0
 10
17.551903780564771
 20
226.42713194281239
 30
0.0
 11
-81.42813621943219
 21
226.42715637784849
 31
0.0
  0
LINE
  5
16AB0
  8
AM_0
 10
-80.588077332176098
 20
206.14216220823559
 30
0.0
 11
16.331882667823951
 21
206.14216220823559
 31
0.0
  0
LINE
  5
16AB1
  8
ｶｸﾚｾﾝ2
 10
4.7119126678238672
 20
290.9271266583898
 30
0.0
 11
4.7119126678237517
 21
233.92712665838971
 31
0.0
  0
LINE
  5
16AB2
  8
ｶｸﾚｾﾝ2
 10
-75.288087332176246
 20
233.92712665838971
 30
0.0
 11
-75.288087332176119
 21
290.9271266583898
 31
0.0
  0
LINE
  5
16AB3
  8
AM_0
 10
-83.788087332176005
 20
209.43215220823561
 30
0.0
 11
-83.788087332176005
 21
311.87215020823572
 31
0.0
  0
LINE
  5
16AB4
  8
ﾁｭｳｼﾝｾﾝ1
 10
-26.788087332176019
 20
221.80213539353909
 30
0.0
 11
-26.788087332176019
 21
303.05213839353911
 31
0.0
  0
ARC
  5
16AB5
  8
AM_0
 10
-82.523957332176096
 20
267.43213029867582
 30
0.0
 40
1.2650129999999991
 50
89.735579000001692
 51
270.2644100000025
  0
ARC
  5
16AB6
  8
AM_0
 10
-81.243497332176034
 20
267.42713029867582
 30
0.0
 40
1.0000138999999999
 50
89.691659999999274
 51
270.30834000000073
  0
LINE
  5
16AB7
  8
ｶｸﾚｾﾝ2
 10
1.7119126678237531
 20
230.92712665838971
 30
0.0
 11
-72.288087332176246
 21
230.92712665838971
 31
0.0
  0
POLYLINE
  5
16AB8
  8
AM_0
 66
     1
 10
0.0
 20
0.0
 30
0.0
  0
VERTEX
  5
16AB9
  8
AM_0
 10
-79.927223869994009
 20
235.94412600732099
 30
0.0
 42
0.00068898288
  0
VERTEX
  5
16ABA
  8
AM_0
 10
-79.856344011881561
 20
235.36937598982311
 30
0.0
 42
0.00070644354
  0
VERTEX
  5
16ABB
  8
AM_0
 10
-79.78384415375433
 20
234.79468597192511
 30
0.0
 42
0.00069248071
  0
VERTEX
  5
16ABC
  8
AM_0
 10
-79.709754295533344
 20
234.2203759536346
 30
0.0
 42
0.00069585665
  0
VERTEX
  5
16ABD
  8
AM_0
 10
-79.634074437270201
 20
233.64623593495159
 30
0.0
 42
0.00068980191
  0
VERTEX
  5
16ABE
  8
AM_0
 10
-79.55677457897275
 20
233.0722359158687
 30
0.0
 42
0.00072080104
  0
VERTEX
  5
16ABF
  8
AM_0
 10
-79.477884720623123
 20
232.49844589639341
 30
0.0
 42
0.00071002307
  0
VERTEX
  5
16AC0
  8
AM_0
 10
-79.397344862194814
 20
231.92497587651059
 30
0.0
 42
0.00072659056
  0
VERTEX
  5
16AC1
  8
AM_0
 10
-79.315185003675083
 20
231.35187585622791
 30
0.0
 42
0.00069570481
  0
VERTEX
  5
16AC2
  8
AM_0
 10
-79.231365145138057
 20
230.77884583553529
 30
0.0
 42
0.00071266935
  0
VERTEX
  5
16AC3
  8
AM_0
 10
-79.145935286536655
 20
230.20607581444551
 30
0.0
 42
0.00071614426
  0
VERTEX
  5
16AC4
  8
AM_0
 10
-79.058905427829473
 20
229.63373579296049
 30
0.0
 42
0.00072288975
  0
VERTEX
  5
16AC5
  8
AM_0
 10
-78.970195569112207
 20
229.06143577106079
 30
0.0
  0
SEQEND
  5
16AC6
  8
AM_0
  0
LINE
  5
16AC7
  8
AM_0
 10
-58.288147332176088
 20
224.20216220823571
 30
0.0
 11
-78.465577332176053
 21
225.70216220823571
 31
0.0
  0
LINE
  5
16AC8
  8
AM_0
 10
-78.463200115864083
 20
225.7071856458995
 30
0.0
 11
-83.788087332176005
 21
214.33216220823559
 31
0.0
  0
LINE
  5
16AC9
  8
AM_0
 10
-83.788087332176005
 20
214.3321522082357
 30
0.0
 11
-82.548097332175985
 21
207.7721522082357
 31
0.0
  0
LINE
  5
16ACA
  8
AM_0
 10
-83.788087332176005
 20
212.99215220823561
 30
0.0
 11
-82.508117332176084
 21
204.98216220823571
 31
0.0
  0
ARC
  5
16ACB
  8
AM_0
 10
-80.585207332176196
 20
208.13906220823571
 30
0.0
 40
1.9969039999999989
 50
190.58743999999851
 51
269.91652600000037
  0
ARC
  5
16ACC
  8
AM_0
 10
-81.24350597256398
 20
227.42715633226919
 30
0.0
 40
1.0000138999999999
 50
89.691645855481624
 51
270.30832585548308
  0
ARC
  5
16ACD
  8
AM_0
 10
-82.115515983682926
 20
227.38211654754079
 30
0.0
 40
1.6750160000000001
 50
89.746115855482273
 51
270.25384085548518
  0
ARC
  5
16ACE
  8
ｶｸﾚｾﾝ2
 10
-72.288087332176246
 20
233.9271266583898
 30
0.0
 40
3.0
 50
180.0
 51
270.0
  0
POLYLINE
  5
16ACF
  8
AM_0
 66
     1
 10
0.0
 20
0.0
 30
0.0
  0
VERTEX
  5
16AD0
  8
AM_0
 10
-81.384068880130926
 20
256.15677636697058
 30
0.0
 42
0.00076691992
  0
VERTEX
  5
16AD1
  8
AM_0
 10
-81.369269032638954
 20
255.5390063633169
 30
0.0
 42
0.00073262792
  0
VERTEX
  5
16AD2
  8
AM_0
 10
-81.352629185102259
 20
254.92141635920899
 30
0.0
 42
0.00076529537
  0
VERTEX
  5
16AD3
  8
AM_0
 10
-81.334139337585498
 20
254.30374635464449
 30
0.0
 42
0.00075141097
  0
VERTEX
  5
16AD4
  8
AM_0
 10
-81.313769490051286
 20
253.6861463496158
 30
0.0
 42
0.00075841687
  0
VERTEX
  5
16AD5
  8
AM_0
 10
-81.291539642475186
 20
253.06871634412789
 30
0.0
 42
0.00075711788
  0
VERTEX
  5
16AD6
  8
AM_0
 10
-81.267429794918925
 20
252.45120633817589
 30
0.0
 42
0.00075976003
  0
VERTEX
  5
16AD7
  8
AM_0
 10
-81.241439947332864
 20
251.83381633175981
 30
0.0
 42
0.00075797311
  0
VERTEX
  5
16AD8
  8
AM_0
 10
-81.213600099719784
 20
251.21653632488699
 30
0.0
 42
0.0007482613
  0
VERTEX
  5
16AD9
  8
AM_0
 10
-81.183870252131328
 20
250.59915631754771
 30
0.0
 42
0.00074893561
  0
VERTEX
  5
16ADA
  8
AM_0
 10
-81.152310404481213
 20
249.98202630975649
 30
0.0
 42
0.00076039839
  0
VERTEX
  5
16ADB
  8
AM_0
 10
-81.118890556806377
 20
249.36499630150621
 30
0.0
 42
0.00075618786
  0
VERTEX
  5
16ADC
  8
AM_0
 10
-81.083590709133986
 20
248.74795629279171
 30
0.0
  0
SEQEND
  5
16ADD
  8
AM_0
  0
POLYLINE
  5
16ADE
  8
AM_0
 66
     1
 10
0.0
 20
0.0
 30
0.0
  0
VERTEX
  5
16ADF
  8
AM_0
 10
-80.909881366141903
 20
246.08658624990829
 30
0.0
 42
0.0007337051
  0
VERTEX
  5
16AE0
  8
AM_0
 10
-80.86574151486036
 20
245.4841662390115
 30
0.0
 42
0.00075211323
  0
VERTEX
  5
16AE1
  8
AM_0
 10
-80.819801663571411
 20
244.88177622767051
 30
0.0
 42
0.0007297491
  0
VERTEX
  5
16AE2
  8
AM_0
 10
-80.772071812235467
 20
244.2795762158874
 30
0.0
 42
0.00073593041
  0
VERTEX
  5
16AE3
  8
AM_0
 10
-80.722591960847694
 20
243.67758620367249
 30
0.0
 42
0.00074742739
  0
VERTEX
  5
16AE4
  8
AM_0
 10
-80.671322109430307
 20
243.0757161910156
 30
0.0
 42
0.00073217363
  0
VERTEX
  5
16AE5
  8
AM_0
 10
-80.618262257995767
 20
242.47391617791681
 30
0.0
 42
0.00073754168
  0
VERTEX
  5
16AE6
  8
AM_0
 10
-80.563442406496847
 20
241.8723761643835
 30
0.0
 42
0.00073075073
  0
VERTEX
  5
16AE7
  8
AM_0
 10
-80.506862554953614
 20
241.27101615041579
 30
0.0
 42
0.00074550816
  0
VERTEX
  5
16AE8
  8
AM_0
 10
-80.448522703336366
 20
240.6699561360133
 30
0.0
 42
0.00074288416
  0
VERTEX
  5
16AE9
  8
AM_0
 10
-80.388372851709036
 20
240.06893612116411
 30
0.0
 42
0.00072504001
  0
VERTEX
  5
16AEA
  8
AM_0
 10
-80.326463000015224
 20
239.4681861058807
 30
0.0
 42
0.00074640667
  0
VERTEX
  5
16AEB
  8
AM_0
 10
-80.262793148284345
 20
238.8675860901626
 30
0.0
  0
SEQEND
  5
16AEC
  8
AM_0
  0
ARC
  5
16AED
  8
AM_0
 10
-81.243503503880802
 20
237.42715633226879
 30
0.0
 40
1.0000138999999999
 50
89.691645855481624
 51
270.30832585548308
  0
ARC
  5
16AEE
  8
AM_0
 10
-82.328103510057417
 20
237.4021366000222
 30
0.0
 40
1.465004
 50
89.999985855485235
 51
269.99998285548111
  0
ARC
  5
16AEF
  8
AM_0
 10
-81.243501035197596
 20
247.42715633226859
 30
0.0
 40
1.0000138999999999
 50
89.691645855481624
 51
270.30832585548308
  0
ARC
  5
16AF0
  8
AM_0
 10
-82.458101037668712
 20
247.41714663211479
 30
0.0
 40
1.3300049999999981
 50
89.999985855485235
 51
269.99998285548111
  0
POLYLINE
  5
16AF1
  8
AM_0
 66
     1
 10
0.0
 20
0.0
 30
0.0
  0
VERTEX
  5
16AF2
  8
AM_0
 10
-81.428127332172721
 20
262.42715637784738
 30
0.0
 42
0.00039106649
  0
VERTEX
  5
16AF3
  8
AM_0
 10
-81.43048740898098
 20
262.11602637842992
 30
0.0
 42
0.00035488198
  0
VERTEX
  5
16AF4
  8
AM_0
 10
-81.432377485784286
 20
261.80491637889668
 30
0.0
 42
0.00039706113
  0
VERTEX
  5
16AF5
  8
AM_0
 10
-81.433807562587504
 20
261.49380637924969
 30
0.0
 42
0.00038765718
  0
VERTEX
  5
16AF6
  8
AM_0
 10
-81.434737639398122
 20
261.1826663794792
 30
0.0
 42
0.00040613432
  0
VERTEX
  5
16AF7
  8
AM_0
 10
-81.435187716198811
 20
260.87156637959049
 30
0.0
 42
0.00035573434
  0
VERTEX
  5
16AF8
  8
AM_0
 10
-81.435147793001875
 20
260.56045637958039
 30
0.0
 42
0.00038545884
  0
VERTEX
  5
16AF9
  8
AM_0
 10
-81.434657869810167
 20
260.24932637945949
 30
0.0
 42
0.00035501205
  0
VERTEX
  5
16AFA
  8
AM_0
 10
-81.433697946613279
 20
259.93821637922258
 30
0.0
 42
0.00040120779
  0
VERTEX
  5
16AFB
  8
AM_0
 10
-81.432278023446202
 20
259.626986378872
 30
0.0
 42
0.00038317817
  0
VERTEX
  5
16AFC
  8
AM_0
 10
-81.430368100254185
 20
259.3158563784005
 30
0.0
 42
0.00035656084
  0
VERTEX
  5
16AFD
  8
AM_0
 10
-81.427988177089546
 20
259.00461637781291
 30
0.0
 42
0.00040143615
  0
VERTEX
  5
16AFE
  8
AM_0
 10
-81.425138253890296
 20
258.6935163771094
 30
0.0
  0
SEQEND
  5
16AFF
  8
AM_0
  0
ARC
  5
16B00
  8
AM_0
 10
-81.243498566514404
 20
257.42715633226828
 30
0.0
 40
1.0000138999999999
 50
89.691645855481624
 51
270.30832585548308
  0
ARC
  5
16B01
  8
AM_0
 10
-82.523958567748764
 20
257.42215664837329
 30
0.0
 40
1.2650129999999991
 50
89.735575855488435
 51
270.2644068554892
  0
POLYLINE
  5
16B02
  8
AM_0
 66
     1
 10
0.0
 20
0.0
 30
0.0
  0
VERTEX
  5
16B03
  8
AM_0
 10
-81.428127332176004
 20
262.42713029867582
 30
0.0
 42
-0.00039106649
  0
VERTEX
  5
16B04
  8
AM_0
 10
-81.430487332176085
 20
262.73826029867593
 30
0.0
 42
-0.00035488198
  0
VERTEX
  5
16B05
  8
AM_0
 10
-81.432377332176074
 20
263.0493702986758
 30
0.0
 42
-0.00039706113
  0
VERTEX
  5
16B06
  8
AM_0
 10
-81.433807332176116
 20
263.36048029867578
 30
0.0
 42
-0.00038765718
  0
VERTEX
  5
16B07
  8
AM_0
 10
-81.434737332176155
 20
263.67162029867592
 30
0.0
 42
-0.00040613432
  0
VERTEX
  5
16B08
  8
AM_0
 10
-81.435187332176156
 20
263.9827202986757
 30
0.0
 42
-0.00035573434
  0
VERTEX
  5
16B09
  8
AM_0
 10
-81.43514733217603
 20
264.29383029867591
 30
0.0
 42
-0.00038545884
  0
VERTEX
  5
16B0A
  8
AM_0
 10
-81.434657332176116
 20
264.60496029867579
 30
0.0
 42
-0.00035501205
  0
VERTEX
  5
16B0B
  8
AM_0
 10
-81.433697332176052
 20
264.91607029867578
 30
0.0
 42
-0.00040120779
  0
VERTEX
  5
16B0C
  8
AM_0
 10
-81.432277332176113
 20
265.2273002986758
 30
0.0
 42
-0.00038317817
  0
VERTEX
  5
16B0D
  8
AM_0
 10
-81.430367332176047
 20
265.53843029867579
 30
0.0
 42
-0.00035656084
  0
VERTEX
  5
16B0E
  8
AM_0
 10
-81.427987332176144
 20
265.84967029867579
 30
0.0
 42
-0.00040143615
  0
VERTEX
  5
16B0F
  8
AM_0
 10
-81.425137332176064
 20
266.16077029867569
 30
0.0
  0
SEQEND
  5
16B10
  8
AM_0
  0
ARC
  5
16B11
  8
ｶｸﾚｾﾝ2
 10
1.711912667823867
 20
233.9271266583898
 30
0.0
 40
3.0
 50
270.0
 51
0.0
  0
LINE
  5
16B12
  8
ｶｸﾚｾﾝ2
 10
1.711912667823867
 20
293.9271266583898
 30
0.0
 11
-72.288087332176019
 21
293.92712665838991
 31
0.0
  0
ARC
  5
16B13
  8
AM_0
 10
-82.115507332175966
 20
297.47217029867579
 30
0.0
 40
1.6750160000000001
 50
89.746144999997924
 51
270.25387000000092
  0
POLYLINE
  5
16B14
  8
AM_0
 66
     1
 10
0.0
 20
0.0
 30
0.0
  0
VERTEX
  5
16B15
  8
AM_0
 10
-80.909877332176052
 20
278.76770029867589
 30
0.0
 42
-0.0007337051
  0
VERTEX
  5
16B16
  8
AM_0
 10
-80.865737332176082
 20
279.37012029867577
 30
0.0
 42
-0.00075211323
  0
VERTEX
  5
16B17
  8
AM_0
 10
-80.819797332176108
 20
279.9725102986759
 30
0.0
 42
-0.0007297491
  0
VERTEX
  5
16B18
  8
AM_0
 10
-80.772067332176107
 20
280.57471029867588
 30
0.0
 42
-0.00073593041
  0
VERTEX
  5
16B19
  8
AM_0
 10
-80.72258733217609
 20
281.17670029867583
 30
0.0
 42
-0.00074742739
  0
VERTEX
  5
16B1A
  8
AM_0
 10
-80.671317332176045
 20
281.77857029867567
 30
0.0
 42
-0.00073217363
  0
VERTEX
  5
16B1B
  8
AM_0
 10
-80.618257332176086
 20
282.38037029867581
 30
0.0
 42
-0.00073754168
  0
VERTEX
  5
16B1C
  8
AM_0
 10
-80.563437332176136
 20
282.9819102986757
 30
0.0
 42
-0.00073075073
  0
VERTEX
  5
16B1D
  8
AM_0
 10
-80.506857332176068
 20
283.58327029867581
 30
0.0
 42
-0.00074550816
  0
VERTEX
  5
16B1E
  8
AM_0
 10
-80.448517332176166
 20
284.18433029867577
 30
0.0
 42
-0.00074288416
  0
VERTEX
  5
16B1F
  8
AM_0
 10
-80.388367332176117
 20
284.78535029867589
 30
0.0
 42
-0.00072504001
  0
VERTEX
  5
16B20
  8
AM_0
 10
-80.326457332176105
 20
285.3861002986759
 30
0.0
 42
-0.00074640667
  0
VERTEX
  5
16B21
  8
AM_0
 10
-80.262787332176117
 20
285.98670029867583
 30
0.0
  0
SEQEND
  5
16B22
  8
AM_0
  0
POLYLINE
  5
16B23
  8
AM_0
 66
     1
 10
0.0
 20
0.0
 30
0.0
  0
VERTEX
  5
16B24
  8
AM_0
 10
-81.384067332176045
 20
268.69751029867581
 30
0.0
 42
-0.00076691992
  0
VERTEX
  5
16B25
  8
AM_0
 10
-81.369267332176165
 20
269.31528029867582
 30
0.0
 42
-0.00073262792
  0
VERTEX
  5
16B26
  8
AM_0
 10
-81.352627332176098
 20
269.93287029867588
 30
0.0
 42
-0.00076529537
  0
VERTEX
  5
16B27
  8
AM_0
 10
-81.334137332176169
 20
270.55054029867568
 30
0.0
 42
-0.00075141097
  0
VERTEX
  5
16B28
  8
AM_0
 10
-81.313767332176099
 20
271.16814029867578
 30
0.0
 42
-0.00075841687
  0
VERTEX
  5
16B29
  8
AM_0
 10
-81.291537332176063
 20
271.78557029867579
 30
0.0
 42
-0.00075711788
  0
VERTEX
  5
16B2A
  8
AM_0
 10
-81.267427332176112
 20
272.40308029867577
 30
0.0
 42
-0.00075976003
  0
VERTEX
  5
16B2B
  8
AM_0
 10
-81.241437332176119
 20
273.02047029867578
 30
0.0
 42
-0.00075797311
  0
VERTEX
  5
16B2C
  8
AM_0
 10
-81.21359733217605
 20
273.63775029867588
 30
0.0
 42
-0.0007482613
  0
VERTEX
  5
16B2D
  8
AM_0
 10
-81.183867332176078
 20
274.25513029867579
 30
0.0
 42
-0.00074893561
  0
VERTEX
  5
16B2E
  8
AM_0
 10
-81.152307332176207
 20
274.87226029867588
 30
0.0
 42
-0.00076039839
  0
VERTEX
  5
16B2F
  8
AM_0
 10
-81.118887332176087
 20
275.48929029867583
 30
0.0
 42
-0.00075618786
  0
VERTEX
  5
16B30
  8
AM_0
 10
-81.08358733217608
 20
276.10633029867591
 30
0.0
  0
SEQEND
  5
16B31
  8
AM_0
  0
ARC
  5
16B32
  8
AM_0
 10
-82.458097332176067
 20
277.43714029867579
 30
0.0
 40
1.3300049999999981
 50
90.00000299999769
 51
270.0
  0
ARC
  5
16B33
  8
AM_0
 10
-81.243497332176034
 20
277.42713029867582
 30
0.0
 40
1.0000138999999999
 50
89.691659999999274
 51
270.30834000000073
  0
POLYLINE
  5
16B34
  8
AM_0
 66
     1
 10
0.0
 20
0.0
 30
0.0
  0
VERTEX
  5
16B35
  8
AM_0
 10
-79.927217332176042
 20
288.91016029867581
 30
0.0
 42
-0.00068898288
  0
VERTEX
  5
16B36
  8
AM_0
 10
-79.856337332176167
 20
289.4849102986758
 30
0.0
 42
-0.00070644354
  0
VERTEX
  5
16B37
  8
AM_0
 10
-79.783837332176063
 20
290.05960029867589
 30
0.0
 42
-0.00069248071
  0
VERTEX
  5
16B38
  8
AM_0
 10
-79.709747332176107
 20
290.6339102986758
 30
0.0
 42
-0.00069585665
  0
VERTEX
  5
16B39
  8
AM_0
 10
-79.634067332176059
 20
291.20805029867591
 30
0.0
 42
-0.00068980191
  0
VERTEX
  5
16B3A
  8
AM_0
 10
-79.556767332176165
 20
291.78205029867581
 30
0.0
 42
-0.00072080104
  0
VERTEX
  5
16B3B
  8
AM_0
 10
-79.477877332176021
 20
292.35584029867567
 30
0.0
 42
-0.00071002307
  0
VERTEX
  5
16B3C
  8
AM_0
 10
-79.397337332176107
 20
292.92931029867577
 30
0.0
 42
-0.00072659056
  0
VERTEX
  5
16B3D
  8
AM_0
 10
-79.315177332176063
 20
293.50241029867578
 30
0.0
 42
-0.00069570481
  0
VERTEX
  5
16B3E
  8
AM_0
 10
-79.231357332176117
 20
294.07544029867591
 30
0.0
 42
-0.00071266935
  0
VERTEX
  5
16B3F
  8
AM_0
 10
-79.145927332176015
 20
294.64821029867591
 30
0.0
 42
-0.00071614426
  0
VERTEX
  5
16B40
  8
AM_0
 10
-79.058897332176116
 20
295.22055029867579
 30
0.0
 42
-0.00072288975
  0
VERTEX
  5
16B41
  8
AM_0
 10
-78.970187332176124
 20
295.79285029867577
 30
0.0
  0
SEQEND
  5
16B42
  8
AM_0
  0
ARC
  5
16B43
  8
AM_0
 10
-81.243497332176034
 20
287.42713029867582
 30
0.0
 40
1.0000138999999999
 50
89.691659999999274
 51
270.30834000000073
  0
ARC
  5
16B44
  8
AM_0
 10
-82.328097332176071
 20
287.45215029867592
 30
0.0
 40
1.465004
 50
90.00000299999769
 51
270.0
  0
ARC
  5
16B45
  8
AM_0
 10
-81.243497332175934
 20
297.42713029867582
 30
0.0
 40
1.0000138999999999
 50
89.691659999999274
 51
270.30834000000073
  0
ARC
  5
16B46
  8
ｶｸﾚｾﾝ2
 10
-72.288087332176246
 20
290.9271266583898
 30
0.0
 40
3.0
 50
90.0
 51
180.0
  0
LINE
  5
16B47
  8
AM_0
 10
-80.538087332176019
 20
321.5621602082357
 30
0.0
 11
-46.788087332176033
 21
321.5621602082357
 31
0.0
  0
LINE
  5
16B48
  8
AM_0
 10
-80.518067332176074
 20
323.40216420823572
 30
0.0
 11
-46.788087332176033
 21
323.40216420823572
 31
0.0
  0
LINE
  5
16B49
  8
AM_0
 10
-80.498107332176104
 20
324.3221552082357
 30
0.0
 11
-46.788087332176033
 21
324.3221552082357
 31
0.0
  0
LINE
  5
16B4A
  8
AM_0
 10
-58.288087332176019
 20
300.65215720823568
 30
0.0
 11
-78.460937332176059
 21
299.15215720823579
 31
0.0
  0
LINE
  5
16B4B
  8
AM_0
 10
-83.788087332176005
 20
310.52217520823569
 30
0.0
 11
-82.548097332175985
 21
317.0821722082357
 31
0.0
  0
LINE
  5
16B4C
  8
AM_0
 10
-83.788087332176005
 20
311.8721662082358
 30
0.0
 11
-82.508117332176084
 21
319.87215820823559
 31
0.0
  0
LINE
  5
16B4D
  8
AM_0
 10
-83.788027332176071
 20
313.2121622082359
 30
0.0
 11
-82.498047332176043
 21
321.7121542082358
 31
0.0
  0
LINE
  5
16B4E
  8
AM_0
 10
-83.788087332176005
 20
313.21213920823573
 30
0.0
 11
-82.478087332176074
 21
322.59214420823571
 31
0.0
  0
LINE
  5
16B4F
  8
AM_0
 10
-78.45853999289227
 20
299.14710029867598
 30
0.0
 11
-83.788147332175981
 21
310.52213720823568
 31
0.0
  0
ARC
  5
16B50
  8
AM_0
 10
-80.495967332176065
 20
322.3216822082357
 30
0.0
 40
2.0004758999999992
 50
90.060309999997415
 51
172.22953999999879
  0
ARC
  5
16B51
  8
AM_0
 10
-80.524537332176024
 20
321.4048272082357
 30
0.0
 40
1.9973480999999991
 50
89.815320000002416
 51
171.14853000000019
  0
ARC
  5
16B52
  8
AM_0
 10
-80.532107332176111
 20
319.56198520823568
 30
0.0
 40
2.0001840999999998
 50
90.171470000000838
 51
171.07899999999771
  0
ARC
  5
16B53
  8
AM_0
 10
-80.583437332176018
 20
316.7131612082357
 30
0.0
 40
1.9990078999999989
 50
90.133450000003563
 51
169.362590000003
  0
ARC
  5
16B54
  8
AM_0
 10
-46.796077332176068
 20
322.31415220823561
 30
0.0
 40
2.0080360999999991
 50
0.2287899999993925
 51
89.771210000000579
  0
ARC
  5
16B55
  8
AM_0
 10
-46.791377332176097
 20
321.39887620823561
 30
0.0
 40
2.003279899999999
 50
0.0937899999971492
 51
89.906210000002858
  0
ARC
  5
16B56
  8
AM_0
 10
-46.795287332176031
 20
319.55498120823557
 30
0.0
 40
2.0071799999999991
 50
0.2046199999977194
 51
89.795380000002282
  0
LINE
  5
16B57
  8
AM_0
 10
-44.788087332176019
 20
322.32216220823568
 30
0.0
 11
-44.788087332176019
 21
318.71216920823571
 31
0.0
  0
ARC
  5
16B58
  8
ｶｸﾚｾﾝ2
 10
1.711912667823867
 20
290.9271266583898
 30
0.0
 40
3.0
 50
0.0
 51
90.0
  0
LINE
  5
16B59
  8
AM_0
 10
24.211912667823981
 20
206.4271622082357
 30
0.0
 11
24.211912667823981
 21
318.42716620823558
 31
0.0
  0
ARC
  5
16B5A
  8
AM_0
 10
21.438809067823971
 20
267.43714029867567
 30
0.0
 40
1.2700266
 50
269.62932000000001
 51
90.370669999998213
  0
ARC
  5
16B5B
  8
AM_0
 10
17.551872567823921
 20
267.42713029867571
 30
0.0
 40
1.000005699999998
 50
269.999989999999
 51
90.00000299999769
  0
LINE
  5
16B5C
  8
AM_0
 10
24.211912667823981
 20
206.4271622082357
 30
0.0
 11
32.211882667823829
 21
206.42716220823559
 31
0.0
  0
LINE
  5
16B5D
  8
AM_0
 10
24.211912667823981
 20
230.48715220823561
 30
0.0
 11
32.211882667823829
 21
230.48715220823561
 31
0.0
  0
LINE
  5
16B5E
  8
AM_0
 10
24.211912667823981
 20
216.4271622082357
 30
0.0
 11
32.211882667823829
 21
216.4271622082357
 31
0.0
  0
LINE
  5
16B5F
  8
AM_0
 10
21.04369740444838
 20
217.99508200097429
 30
0.0
 11
18.261932667823881
 21
207.6321522082356
 31
0.0
  0
ARC
  5
16B60
  8
AM_0
 10
16.329102667823921
 20
208.14076220823571
 30
0.0
 40
1.9986041000000001
 50
270.08048399999888
 51
345.25728400000042
  0
LINE
  5
16B61
  8
AM_0
 10
18.751892667823991
 20
209.43215220823561
 30
0.0
 11
24.211912667823981
 21
209.43215220823561
 31
0.0
  0
ARC
  5
16B62
  8
AM_0
 10
17.551904027433
 20
227.42713194281239
 30
0.0
 40
1.0
 50
269.99998285548111
 51
89.999995855486247
  0
ARC
  5
16B63
  8
AM_0
 10
21.03186384855417
 20
227.38211508372129
 30
0.0
 40
1.675026000120903
 50
270.0006727121953
 51
89.999295998823115
  0
ARC
  5
16B64
  8
AM_0
 10
17.5518688647993
 20
247.42713194282169
 30
0.0
 40
1.000005699999998
 50
269.99998285548111
 51
89.999995855486247
  0
ARC
  5
16B65
  8
AM_0
 10
17.551846496116241
 20
237.427131942827
 30
0.0
 40
1.0000255999999981
 50
269.58945485548259
 51
90.410515855490289
  0
ARC
  5
16B66
  8
AM_0
 10
21.251856488702629
 20
237.39710102941191
 30
0.0
 40
1.460011199999999
 50
269.7752358554838
 51
90.224735855484013
  0
ARC
  5
16B67
  8
AM_0
 10
21.376855361093821
 20
247.41212099855369
 30
0.0
 40
1.3350147999999999
 50
269.73042985548369
 51
90.269555855485152
  0
ARC
  5
16B68
  8
AM_0
 10
17.551871333482609
 20
257.42713194282129
 30
0.0
 40
1.000005699999998
 50
269.99998285548111
 51
89.999995855486247
  0
ARC
  5
16B69
  8
AM_0
 10
21.438807831011331
 20
257.41712098325991
 30
0.0
 40
1.2700266
 50
269.62931585548409
 51
90.370665855488923
  0
ARC
  5
16B6A
  8
AM_0
 10
21.031872500058292
 20
297.472146298675
 30
0.0
 40
1.675026000120903
 50
270.00068985666218
 51
89.999313143289925
  0
LINE
  5
16B6B
  8
AM_0
 10
24.211912667823981
 20
294.36715320823561
 30
0.0
 11
32.211882667823829
 21
294.36715320823561
 31
0.0
  0
ARC
  5
16B6C
  8
AM_0
 10
17.551872567823921
 20
277.42713029867571
 30
0.0
 40
1.000005699999998
 50
269.999989999999
 51
90.00000299999769
  0
ARC
  5
16B6D
  8
AM_0
 10
21.37685906782394
 20
277.44214029867572
 30
0.0
 40
1.3350147999999999
 50
269.7304299999999
 51
90.269556000001415
  0
ARC
  5
16B6E
  8
AM_0
 10
17.55185266782393
 20
287.42713029867571
 30
0.0
 40
1.0000255999999981
 50
269.5894700000033
 51
90.410530999997775
  0
ARC
  5
16B6F
  8
AM_0
 10
17.551912667824009
 20
297.42713029867571
 30
0.0
 40
1.0
 50
269.999989999999
 51
90.00000299999769
  0
ARC
  5
16B70
  8
AM_0
 10
21.251862667823961
 20
287.4571602986756
 30
0.0
 40
1.460011199999999
 50
269.7752500000031
 51
90.224749999996845
  0
LINE
  5
16B71
  8
AM_0
 10
24.211912667823981
 20
318.42716620823558
 30
0.0
 11
32.211882667823829
 21
318.42716620823558
 31
0.0
  0
LINE
  5
16B72
  8
AM_0
 10
24.211912667823981
 20
308.42715820823571
 30
0.0
 11
32.211882667823829
 21
308.42715820823571
 31
0.0
  0
LINE
  5
16B73
  8
AM_0
 10
21.04543081092811
 20
306.86118525990679
 30
0.0
 11
18.261902667823961
 21
317.23215120823562
 31
0.0
  0
ARC
  5
16B74
  8
AM_0
 10
16.329042667823948
 20
316.7100262082356
 30
0.0
 40
2.0021281000000002
 50
15.11669999999428
 51
89.918480000000088
  0
LINE
  5
16B75
  8
AM_0
 10
18.751892667823991
 20
315.43215520823571
 30
0.0
 11
24.211912667823981
 21
315.43215520823571
 31
0.0
  0
TEXT
  5
16D91
  8
AM_0
 10
308.78664492529288
 20
553.65563837149443
 30
0.0
 40
10.0
  1
VC01-080KML~VC01-240KML
1001
ACAD
1000
MTEXTBEGIN
1070
    73
1070
     1
1070
    44
1040
1.0
1070
    74
1070
     0
1000
MTEXTEND
  0
VIEWPORT
  5
89
 67
     1
  8
0
 10
210.0
 20
148.5
 30
0.0
 40
420.0
 41
297.0
 68
     1
 69
     1
1001
ACAD
1000
MVIEW
1002
{
1070
    16
1010
0.0
1020
0.0
1030
0.0
1010
0.0
1020
0.0
1030
1.0
1040
0.0
1040
297.0
1040
221.70154043645701
1040
148.5
1040
50.0
1040
0.0
1040
0.0
1070
     0
1070
   100
1070
     1
1070
     1
1070
     0
1070
     0
1070
     0
1070
     0
1040
0.0
1040
0.0
1040
0.0
1040
10.0
1040
10.0
1040
10.0
1040
10.0
1070
     0
1002
{
1002
}
1002
}
1001
GENIUS_GENOREF_13
1005
1B94
1001
GENIUS_GENSCREG_15
1000
PF
1040
1.0
1000
DF
1040
1.0
1000
MIN
1011
0.0
1021
0.0
1031
0.0
1021
0.0
1031
0.0
1000
MAX
1011
420.0
1021
0.0
1031
0.0
1021
297.0
1031
0.0
1000
FLAGS
1070
     4
  0
ENDSEC
  0
EOF
