  0
SECTION
  2
HEADER
  9
$ACADVER
  1
AC1009
  9
$INSBASE
 10
0.0
 20
0.0
 30
0.0
  9
$EXTMIN
 10
-288.95490008627621
 20
185.32741450052089
 30
-0.0015258207003583
  9
$EXTMAX
 10
353.88472691501238
 20
631.84664252522202
 30
0.0000000349246037
  9
$LIMMIN
 10
0.0
 20
0.0
  9
$LIMMAX
 10
853.5
 20
555.00000000000011
  9
$ORTHOMODE
 70
     0
  9
$REGENMODE
 70
     1
  9
$FILLMODE
 70
     1
  9
$QTEXTMODE
 70
     0
  9
$MIRRTEXT
 70
     1
  9
$DRAGMODE
 70
     2
  9
$LTSCALE
 40
3.0
  9
$OSMODE
 70
   551
  9
$ATTMODE
 70
     1
  9
$TEXTSIZE
 40
2.5
  9
$TRACEWID
 40
1.0
  9
$TEXTSTYLE
  7
STANDARD
  9
$CLAYER
  8
AM_0
  9
$CELTYPE
  6
BYLAYER
  9
$CECOLOR
 62
   256
  9
$DIMSCALE
 40
3.0
  9
$DIMASZ
 40
2.5
  9
$DIMEXO
 40
1.0
  9
$DIMDLI
 40
7.0
  9
$DIMRND
 40
0.0
  9
$DIMDLE
 40
0.0
  9
$DIMEXE
 40
1.0
  9
$DIMTP
 40
0.1
  9
$DIMTM
 40
0.1000000001
  9
$DIMTXT
 40
2.5
  9
$DIMCEN
 40
0.0
  9
$DIMTSZ
 40
0.0
  9
$DIMTOL
 70
     0
  9
$DIMLIM
 70
     0
  9
$DIMTIH
 70
     0
  9
$DIMTOH
 70
     0
  9
$DIMSE1
 70
     0
  9
$DIMSE2
 70
     0
  9
$DIMTAD
 70
     3
  9
$DIMZIN
 70
     8
  9
$DIMBLK
  1

  9
$DIMASO
 70
     1
  9
$DIMSHO
 70
     1
  9
$DIMPOST
  1

  9
$DIMAPOST
  1
"
  9
$DIMALT
 70
     0
  9
$DIMALTD
 70
     2
  9
$DIMALTF
 40
0.0393701
  9
$DIMLFAC
 40
1.0
  9
$DIMTOFL
 70
     1
  9
$DIMTVP
 40
0.0
  9
$DIMTIX
 70
     0
  9
$DIMSOXD
 70
     0
  9
$DIMSAH
 70
     0
  9
$DIMBLK1
  1

  9
$DIMBLK2
  1

  9
$DIMSTYLE
  2
AM_JIS
  9
$DIMCLRD
 70
   256
  9
$DIMCLRE
 70
   256
  9
$DIMCLRT
 70
     4
  9
$DIMTFAC
 40
0.71
  9
$DIMGAP
 40
1.0
  9
$LUNITS
 70
     2
  9
$LUPREC
 70
     2
  9
$SKETCHINC
 40
1.0
  9
$FILLETRAD
 40
2.0
  9
$AUNITS
 70
     0
  9
$AUPREC
 70
     3
  9
$MENU
  1
.
  9
$ELEVATION
 40
0.0
  9
$PELEVATION
 40
0.0
  9
$THICKNESS
 40
0.0
  9
$LIMCHECK
 70
     0
  9
$BLIPMODE
 70
     0
  9
$CHAMFERA
 40
7.5
  9
$CHAMFERB
 40
7.5
  9
$SKPOLY
 70
     0
  9
$TDCREATE
 40
2452753.643349607
  9
$TDUPDATE
 40
2458543.4543752428
  9
$TDINDWG
 40
0.3471653704
  9
$TDUSRTIMER
 40
0.3471651736
  9
$USRTIMER
 70
     1
  9
$ANGBASE
 50
0.0
  9
$ANGDIR
 70
     0
  9
$PDMODE
 70
     0
  9
$PDSIZE
 40
0.0
  9
$PLINEWID
 40
0.0
  9
$COORDS
 70
     1
  9
$SPLFRAME
 70
     0
  9
$SPLINETYPE
 70
     6
  9
$SPLINESEGS
 70
     8
  9
$ATTDIA
 70
     1
  9
$ATTREQ
 70
     1
  9
$HANDLING
 70
     1
  9
$HANDSEED
  5
17D08
  9
$SURFTAB1
 70
     6
  9
$SURFTAB2
 70
     6
  9
$SURFTYPE
 70
     6
  9
$SURFU
 70
     6
  9
$SURFV
 70
     6
  9
$UCSNAME
  2

  9
$UCSORG
 10
0.0
 20
0.0
 30
0.0
  9
$UCSXDIR
 10
1.0
 20
0.0
 30
0.0
  9
$UCSYDIR
 10
0.0
 20
1.0
 30
0.0
  9
$PUCSNAME
  2

  9
$PUCSORG
 10
0.0
 20
0.0
 30
0.0
  9
$PUCSXDIR
 10
1.0
 20
0.0
 30
0.0
  9
$PUCSYDIR
 10
0.0
 20
1.0
 30
0.0
  9
$USERI1
 70
     0
  9
$USERI2
 70
     0
  9
$USERI3
 70
     0
  9
$USERI4
 70
     0
  9
$USERI5
 70
     0
  9
$USERR1
 40
0.0
  9
$USERR2
 40
0.0
  9
$USERR3
 40
0.0
  9
$USERR4
 40
0.0
  9
$USERR5
 40
0.0
  9
$WORLDVIEW
 70
     1
  9
$SHADEDGE
 70
     3
  9
$SHADEDIF
 70
    70
  9
$TILEMODE
 70
     1
  9
$MAXACTVP
 70
    48
  9
$PLIMCHECK
 70
     0
  9
$PEXTMIN
 10
1.0000000000000000E+020
 20
1.0000000000000000E+020
 30
1.0000000000000000E+020
  9
$PEXTMAX
 10
-1.0000000000000000E+020
 20
-1.0000000000000000E+020
 30
-1.0000000000000000E+020
  9
$PLIMMIN
 10
0.0
 20
0.0
  9
$PLIMMAX
 10
420.0
 20
297.0
  9
$UNITMODE
 70
     0
  9
$VISRETAIN
 70
     1
  9
$PLINEGEN
 70
     0
  9
$PSLTSCALE
 70
     1
  0
ENDSEC
  0
SECTION
  2
TABLES
  0
TABLE
  2
VPORT
 70
     1
  0
VPORT
  2
*ACTIVE
 70
     0
 10
0.0
 20
0.0
 11
1.0
 21
1.0
 12
32.464913414368077
 22
408.58702851287148
 13
0.0
 23
0.0
 14
7.5
 24
7.5
 15
30.0
 25
30.0
 16
0.0
 26
0.0
 36
1.0
 17
0.0
 27
0.0
 37
0.0
 40
449.58457741617502
 41
1.7571592210767459
 42
50.0
 43
0.0
 44
0.0
 50
0.0
 51
0.0
 71
    16
 72
   100
 73
     1
 74
     1
 75
     0
 76
     0
 77
     0
 78
     0
  0
ENDTAB
  0
TABLE
  2
LTYPE
 70
    21
  0
LTYPE
  2
CONTINUOUS
 70
     0
  3
Solid line
 72
    65
 73
     0
 40
0.0
  0
LTYPE
  2
PHANTOM2
 70
     0
  3
Phantom (.5x) ___ _ _ ___ _ _ ___ _ _ ___ _ _
 72
    65
 73
     6
 40
31.75
 49
15.875
 49
-3.174999999999998
 49
3.174999999999998
 49
-3.174999999999998
 49
3.174999999999998
 49
-3.174999999999998
  0
LTYPE
  2
CENTER
 70
     0
  3
Center ____ _ ____ _ ____ _ ____ _ ____ _ ____
 72
    65
 73
     4
 40
50.799999999999997
 49
31.75
 49
-6.3499999999999979
 49
6.3499999999999979
 49
-6.3499999999999979
  0
LTYPE
  2
ACANSTGBM
 70
     0
  3
__ . . __ . .
 72
    65
 73
     6
 40
9.0
 49
4.0
 49
-1.0
 49
1.0
 49
-1.0
 49
1.0
 49
-1.0
  0
LTYPE
  2
ACANSTGLM
 70
     0
  3
_ _ _ _ _
 72
    65
 73
     2
 40
3.0
 49
2.0
 49
-1.0
  0
LTYPE
  2
GEN3B
 70
     0
  3
 - - - - -
 72
    65
 73
     2
 40
1.0
 49
0.5
 49
-0.5
  0
LTYPE
  2
GEN7A
 70
     0
  3
__ . __ . __
 72
    65
 73
     4
 40
7.375
 49
4.75
 49
-0.875
 49
0.875
 49
-0.875
  0
LTYPE
  2
AM_ISO02W050
 70
     0
  3
__ __ __ __ __ __ __ __ __ __ __ __ __ __ __
 72
    65
 73
     2
 40
7.5
 49
6.0
 49
-1.5
  0
LTYPE
  2
AM_ISO08W050
 70
     0
  3
____ . ____ . ____ . ____ . ____ . ____ . ____
 72
    65
 73
     4
 40
18.0
 49
12.0
 49
-1.5
 49
3.0
 49
-1.5
  0
LTYPE
  2
AM_ISO09W050
 70
     0
  3
_____ . . _____ . . _____ . . ____ .. ____
 72
    65
 73
     6
 40
22.5
 49
12.0
 49
-1.5
 49
3.0
 49
-1.5
 49
3.0
 49
-1.5
  0
LTYPE
  2
AMCONSTR
 70
     0
  3
_______________________
 72
    65
 73
     2
 40
9999.0
 49
9999.0
 49
0.0
  0
LTYPE
  2
AM_ISO02W050X2
 70
     0
  3
 _ _ _ _ _ _ _ _ _ _ _ _
 72
    65
 73
     2
 40
3.75
 49
3.0
 49
-0.75
  0
LTYPE
  2
AM_ISO08W050X2
 70
     0
  3
__ . __ . __ . __ . __ . __
 72
    65
 73
     4
 40
9.0
 49
6.0
 49
-0.75
 49
1.5
 49
-0.75
  0
LTYPE
  2
AMZIGZAG
 70
     0
  3
/\/-/\/-/\/-/\/-/\/-/\/
 72
    65
 73
     2
 40
11.0001
 49
0.0001
 49
-11.0
  0
LTYPE
  2
ACJISTGB
 70
     0
  3
__ . . __ . .
 72
    65
 73
     6
 40
9.0
 49
4.0
 49
-1.0
 49
1.0
 49
-1.0
 49
1.0
 49
-1.0
  0
LTYPE
  2
ACJISTGL
 70
     0
  3
_ _ _ _ _
 72
    65
 73
     2
 40
3.0
 49
2.0
 49
-1.0
  0
LTYPE
  2
ACISOWELD
 70
     0
  3
_ _ _ _ _
 72
    65
 73
     2
 40
2.0
 49
2.0
 49
-1.0
  0
LTYPE
  2
ACISOTGB
 70
     0
  3
__ . . __ . .
 72
    65
 73
     6
 40
9.0
 49
4.0
 49
-1.0
 49
1.0
 49
-1.0
 49
1.0
 49
-1.0
  0
LTYPE
  2
ACISOTGL
 70
     0
  3
_ _ _ _ _
 72
    65
 73
     2
 40
3.0
 49
2.0
 49
-1.0
  0
LTYPE
  2
HIDDEN
 70
     0
  3
Hidden __ __ __ __ __ __ __ __ __ __ __ __ __ _
 72
    65
 73
     2
 40
9.5249999999999968
 49
6.3499999999999979
 49
-3.174999999999998
  0
ENDTAB
  0
TABLE
  2
LAYER
 70
     9
  0
LAYER
  2
0
 70
     0
 62
     7
  6
CONTINUOUS
  0
LAYER
  2
ｽﾝﾎﾟｳｾﾝ
 70
     0
 62
     2
  6
CONTINUOUS
  0
LAYER
  2
DEFPOINTS
 70
     0
 62
     7
  6
CONTINUOUS
  0
LAYER
  2
ｶｸﾚｾﾝ2
 70
     0
 62
     3
  6
GEN3B
  0
LAYER
  2
ﾁｭｳｼﾝｾﾝ1
 70
     0
 62
     1
  6
GEN7A
  0
LAYER
  2
AM_0
 70
     0
 62
     7
  6
CONTINUOUS
  0
LAYER
  2
AM_0N
 70
     0
 62
     7
  6
CONTINUOUS
  0
LAYER
  2
AM_5
 70
     0
 62
     2
  6
CONTINUOUS
  0
LAYER
  2
AM_4N
 70
     0
 62
     2
  6
CONTINUOUS
  0
ENDTAB
  0
TABLE
  2
STYLE
 70
     8
  0
STYLE
  2
STANDARD
 70
     0
 40
0.0
 41
0.8299999999999999
 50
0.0
 71
     0
 42
2.5
  3
txt.shx
  4
bigfont.shx
  0
STYLE
  2
ACANSTS
 70
     0
 40
1.0
 41
1.0
 50
0.0
 71
     0
 42
2.5
  3
romans.shx
  4
bigfont.shx
  0
STYLE
  2
ACANSGDT
 70
     0
 40
0.0
 41
1.0
 50
0.0
 71
     0
 42
2.5
  3
amgdtans.shx
  4

  0
STYLE
  2

 70
     1
 40
0.0
 41
1.0
 50
0.0
 71
     0
 42
2.5
  3
ltypeshp.shx
  4

  0
STYLE
  2
ACJISTS
 70
     0
 40
1.0
 41
1.0
 50
0.0
 71
     0
 42
2.5
  3
isocp.shx
  4
bigfont.shx
  0
STYLE
  2
ACJISGDT
 70
     0
 40
0.0
 41
1.0
 50
0.0
 71
     0
 42
2.5
  3
amgdt.shx
  4

  0
STYLE
  2
ACISOTS
 70
     0
 40
3.0
 41
1.0
 50
0.0
 71
     0
 42
2.5
  3
isocp.shx
  4
extfont.shx
  0
STYLE
  2
ACISOGDT
 70
     0
 40
0.0
 41
1.0
 50
0.0
 71
     0
 42
2.5
  3
amgdt.shx
  4

  0
ENDTAB
  0
TABLE
  2
VIEW
 70
    12
  0
VIEW
  2
GEN1
 70
     0
 40
95.824742268041234
 10
71.5
 20
137.08762886597941
 41
143.0
 11
0.0
 21
0.0
 31
1.0
 12
0.0
 22
0.0
 32
0.0
 42
50.0
 43
0.0
 44
0.0
 50
0.0
 71
     0
  0
VIEW
  2
GEN2
 70
     0
 40
95.824742268041234
 10
214.5
 20
137.08762886597941
 41
143.0
 11
0.0
 21
0.0
 31
1.0
 12
0.0
 22
0.0
 32
0.0
 42
50.0
 43
0.0
 44
0.0
 50
0.0
 71
     0
  0
VIEW
  2
GEN3
 70
     0
 40
95.824742268041234
 10
71.5
 20
47.912371134020603
 41
143.0
 11
0.0
 21
0.0
 31
1.0
 12
0.0
 22
0.0
 32
0.0
 42
50.0
 43
0.0
 44
0.0
 50
0.0
 71
     0
  0
VIEW
  2
GEN4
 70
     0
 40
95.824742268041234
 10
214.5
 20
47.912371134020603
 41
143.0
 11
0.0
 21
0.0
 31
1.0
 12
0.0
 22
0.0
 32
0.0
 42
50.0
 43
0.0
 44
0.0
 50
0.0
 71
     0
  0
VIEW
  2
GEN5
 70
     0
 40
95.824742268041234
 10
143.0
 20
92.500000000000057
 41
143.0
 11
0.0
 21
0.0
 31
1.0
 12
0.0
 22
0.0
 32
0.0
 42
50.0
 43
0.0
 44
0.0
 50
0.0
 71
     0
  0
VIEW
  2
GEN6
 70
     0
 40
191.64756804123709
 10
143.0
 20
92.5
 41
285.99714
 11
0.0
 21
0.0
 31
1.0
 12
0.0
 22
0.0
 32
0.0
 42
50.0
 43
0.0
 44
0.0
 50
0.0
 71
     0
  0
VIEW
  2
AM_VIEW1
 70
     0
 40
277.50000000000011
 10
249.64779005524869
 20
416.25000000000011
 41
499.29558011049721
 11
0.0
 21
0.0
 31
1.0
 12
0.0
 22
0.0
 32
0.0
 42
50.0
 43
0.0
 44
0.0
 50
0.0
 71
    16
  0
VIEW
  2
AM_VIEW2
 70
     0
 40
277.50000000000011
 10
603.85220994475117
 20
416.25000000000011
 41
499.29558011049721
 11
0.0
 21
0.0
 31
1.0
 12
0.0
 22
0.0
 32
0.0
 42
50.0
 43
0.0
 44
0.0
 50
0.0
 71
    16
  0
VIEW
  2
AM_VIEW3
 70
     0
 40
277.50000000000011
 10
249.64779005524869
 20
138.75
 41
499.29558011049721
 11
0.0
 21
0.0
 31
1.0
 12
0.0
 22
0.0
 32
0.0
 42
50.0
 43
0.0
 44
0.0
 50
0.0
 71
    16
  0
VIEW
  2
AM_VIEW4
 70
     0
 40
277.50000000000011
 10
603.85220994475117
 20
138.75
 41
499.29558011049721
 11
0.0
 21
0.0
 31
1.0
 12
0.0
 22
0.0
 32
0.0
 42
50.0
 43
0.0
 44
0.0
 50
0.0
 71
    16
  0
VIEW
  2
AM_VIEW5
 70
     0
 40
277.50000000000011
 10
426.75
 20
277.50000000000011
 41
499.2955801104971
 11
0.0
 21
0.0
 31
1.0
 12
0.0
 22
0.0
 32
0.0
 42
50.0
 43
0.0
 44
0.0
 50
0.0
 71
    16
  0
VIEW
  2
AM_VIEW6
 70
     0
 40
554.99445000000014
 10
426.75
 20
277.5
 41
998.5811743093924
 11
0.0
 21
0.0
 31
1.0
 12
0.0
 22
0.0
 32
0.0
 42
50.0
 43
0.0
 44
0.0
 50
0.0
 71
    16
  0
ENDTAB
  0
TABLE
  2
UCS
 70
     0
  0
ENDTAB
  0
TABLE
  2
APPID
 70
    96
  0
APPID
  2
ACAD
 70
     0
  0
APPID
  2
MCAD_NO_VIS
 70
     0
  0
APPID
  2
ACAD_TEMP_GRAPHIC
 70
     0
  0
APPID
  2
AD_DRAW
 70
     0
  0
APPID
  2
DESIGNERASSEMBLIES
 70
     0
  0
APPID
  2
ASURF_PCURVE_APPNAME
 70
     0
  0
APPID
  2
GENIUS_GE3SECT_13
 70
     0
  0
APPID
  2
GENIUS_GENCFG_13
 70
     0
  0
APPID
  2
GENIUS_GE3CFG0_13
 70
     0
  0
APPID
  2
GENIUS_GENCFG0_13
 70
     0
  0
APPID
  2
GENIUS_GENCFG1_13
 70
     0
  0
APPID
  2
GENIUS_GENCFG2_13
 70
     0
  0
APPID
  2
GENIUS_GENCFG3_13
 70
     0
  0
APPID
  2
GENIUS_GENCFG4_13
 70
     0
  0
APPID
  2
GENIUS_GEVCFG0_13
 70
     0
  0
APPID
  2
GENIUS_GENOENT_13
 70
     0
  0
APPID
  2
GENIUS_GENREC_14
 70
     0
  0
APPID
  2
GENIUS_GENODEF_13
 70
     0
  0
APPID
  2
GENIUS_GENOBJ-N-REC_13
 70
     0
  0
APPID
  2
GENIUS_GENHINW_13
 70
     0
  0
APPID
  2
GENIUS_FIRSTVISTXT_14
 70
     0
  0
APPID
  2
GENIUS_GENOBJ-N-LEADER_13
 70
     0
  0
APPID
  2
GENIUS_GENOREF_13
 70
     0
  0
APPID
  2
GENIUS_GENOLIS_13
 70
     0
  0
APPID
  2
GEV_VCCNULL_SWITCH_OFF
 70
     0
  0
APPID
  2
GENIUS_GENDTOL_13
 70
     0
  0
APPID
  2
GENIUS_GEFCFG0_13
 70
     0
  0
APPID
  2
GENIUS_GENOBJ-N-TIT_13
 70
     0
  0
APPID
  2
GENIUS_GENTITLE_13
 70
     0
  0
APPID
  2
GENIUS_GENZVEED_13
 70
     0
  0
APPID
  2
GENIUS_GENOBJ-N-SDF_13
 70
     0
  0
APPID
  2
GENIUS_GENSCREG_13
 70
     0
  0
APPID
  2
GENIUS_DUMCFG0_13
 70
     0
  0
APPID
  2
GEVID936201362
 70
     0
  0
APPID
  2
GEVDC
 70
     0
  0
APPID
  2
GEVCON
 70
     0
  0
APPID
  2
VCC
 70
     0
  0
APPID
  2
GEVPT
 70
     0
  0
APPID
  2
GEVIT
 70
     0
  0
APPID
  2
GENBH
 70
     0
  0
APPID
  2
GEVMK
 70
     0
  0
APPID
  2
GENIUS_GENBH_13
 70
     0
  0
APPID
  2
GENIUS_GENOBJ-NBEHI-BHF_13
 70
     0
  0
APPID
  2
GENIUS_GENOBJ-NBEHI-BHB_13
 70
     0
  0
APPID
  2
GENIUS_GENOBJ-F-DESC_13
 70
     0
  0
APPID
  2
GENIUS_GEFDESC_14
 70
     0
  0
APPID
  2
GENIUS_GENOBJ-F-PART_13
 70
     0
  0
APPID
  2
GENIUS_GEFSTDP_13
 70
     0
  0
APPID
  2
GENIUS_GEFPARTINS_13
 70
     0
  0
APPID
  2
GENIUS_GENTRA_14
 70
     0
  0
APPID
  2
GENIUS_GENINF13_13
 70
     0
  0
APPID
  2
GENIUS_GENOBJ-N-INFOPT_13
 70
     0
  0
APPID
  2
GENIUS_GENOBJ-N-RSSYM_13
 70
     0
  0
APPID
  2
GENIUS_GENSYMENT_13
 70
     0
  0
APPID
  2
GENIUS_GENSCSYM_13
 70
     0
  0
APPID
  2
GENIUS_GEFINFNAM_13
 70
     0
  0
APPID
  2
GENIUS_GENSCREG_15
 70
     0
  0
APPID
  2
GENIUS_GENOBJ-N-CEN_13
 70
     0
  0
APPID
  2
GENIUS_GENOBJ-N-CRS_13
 70
     0
  0
APPID
  2
GENIUS_GENOBJ-N-CRC_13
 70
     0
  0
APPID
  2
GENIUS_GENCRC_14
 70
     0
  0
APPID
  2
GEVID942827039
 70
     0
  0
APPID
  2
GEVID942827040
 70
     0
  0
APPID
  2
GEVID942827041
 70
     0
  0
APPID
  2
GENIUS_GENOBJ-F-SCPASSM_13
 70
     0
  0
APPID
  2
GENIUS_GENDIMSH_14
 70
     0
  0
APPID
  2
GENIUS_GENFIL_13
 70
     0
  0
APPID
  2
GENIUS_GENOBJ-N-CHA_13
 70
     0
  0
APPID
  2
GENIUS_GENOBJ-N-FIL_13
 70
     0
  0
APPID
  2
GEVID942827042
 70
     0
  0
APPID
  2
GEVID946020473
 70
     0
  0
APPID
  2
GEVID946020474
 70
     0
  0
APPID
  2
GEVID946020475
 70
     0
  0
APPID
  2
GENIUS_GENOBJ-N-HTC_13
 70
     0
  0
APPID
  2
GENIUS_GENHATCH_13
 70
     0
  0
APPID
  2
GEVID948854295
 70
     0
  0
APPID
  2
GEVID939402019
 70
     0
  0
APPID
  2
GEVID952919491
 70
     0
  0
APPID
  2
GEVID952919492
 70
     0
  0
APPID
  2
GENIUS_GEFWELD_13
 70
     0
  0
APPID
  2
GENIUS_GENOBJ-F-WELS_13
 70
     0
  0
APPID
  2
GEVID952919493
 70
     0
  0
APPID
  2
GENIUS_GENOBJ-N-RSBK_13
 70
     0
  0
APPID
  2
GENIUS_GENOBJ-N-LIB_13
 70
     0
  0
APPID
  2
GENIUS_GENSCALE_13
 70
     0
  0
APPID
  2
GEVID986376691
 70
     0
  0
APPID
  2
ACATTRIBSERVICES
 70
     0
  0
APPID
  2
DCO15
 70
     0
  0
APPID
  2
ACADM_DIM_EDIT
 70
     0
  0
APPID
  2
AMDT_DM_ADJ
 70
     0
  0
APPID
  2
ACAD_MLEADERVER
 70
     0
  0
APPID
  2
ACAD_DSTYLE_DIMBREAK
 70
     0
  0
APPID
  2
ACAD_DSTYLE_DIMJAG
 70
     0
  0
APPID
  2
ACAD_NAV_VCDISPLAY
 70
     0
  0
APPID
  2
ACADANNOPO
 70
     0
  0
APPID
  2
ACAD_EXEMPT_FROM_CAD_STANDARDS
 70
     0
  0
ENDTAB
  0
TABLE
  2
DIMSTYLE
 70
    15
  0
DIMSTYLE
  2
STANDARD
 70
     0
  3

  4

  5

  6

  7

 40
1.0
 41
0.18
 42
0.0625
 43
0.38
 44
0.18
 45
0.0
 46
0.0
 47
0.0
 48
0.0
140
0.18
141
0.09
142
0.0
143
25.399999999999999
144
1.0
145
0.0
146
1.0
147
0.09
 71
     0
 72
     0
 73
     1
 74
     1
 75
     0
 76
     0
 77
     0
 78
     0
170
     0
171
     2
172
     0
173
     0
174
     0
175
     0
176
     0
177
     0
178
     0
  0
DIMSTYLE
  2
AM_JIS
 70
     0
  3

  4
"
  5

  6

  7

 40
1.0
 41
2.5
 42
1.0
 43
7.0
 44
1.0
 45
0.0
 46
0.0
 47
0.1
 48
0.1000000001
140
2.5
141
0.0
142
0.0
143
0.0393701
144
1.0
145
0.0
146
0.71
147
1.0
 71
     0
 72
     0
 73
     0
 74
     0
 75
     0
 76
     0
 77
     3
 78
     8
170
     0
171
     2
172
     1
173
     0
174
     0
175
     0
176
   256
177
   256
178
     4
  0
DIMSTYLE
  2
AM_JIS$3
 70
     0
  3

  4
"
  5

  6

  7

 40
1.0
 41
2.5
 42
1.0
 43
7.0
 44
1.0
 45
0.0
 46
0.0
 47
0.1
 48
0.1000000001
140
2.5
141
0.0
142
0.0
143
0.0393701
144
1.0
145
0.0
146
0.71
147
1.0
 71
     0
 72
     0
 73
     0
 74
     1
 75
     0
 76
     0
 77
     3
 78
     8
170
     0
171
     2
172
     0
173
     0
174
     0
175
     0
176
   256
177
   256
178
     4
  0
DIMSTYLE
  2
AM_JIS$4
 70
     0
  3

  4
"
  5

  6

  7

 40
1.0
 41
2.5
 42
1.0
 43
7.0
 44
1.0
 45
0.0
 46
0.0
 47
0.1
 48
0.1000000001
140
2.5
141
0.0
142
0.0
143
0.0393701
144
1.0
145
0.0
146
0.71
147
1.0
 71
     0
 72
     0
 73
     0
 74
     0
 75
     0
 76
     0
 77
     3
 78
     8
170
     0
171
     2
172
     0
173
     0
174
     0
175
     0
176
   256
177
   256
178
     4
  0
DIMSTYLE
  2
AM_JIS$6
 70
     0
  3

  4
"
  5

  6

  7

 40
1.0
 41
2.5
 42
1.0
 43
7.0
 44
1.0
 45
0.0
 46
0.0
 47
0.1
 48
0.1000000001
140
2.5
141
0.0
142
0.0
143
0.0393701
144
1.0
145
0.0
146
0.71
147
1.0
 71
     0
 72
     0
 73
     0
 74
     0
 75
     0
 76
     0
 77
     0
 78
     8
170
     0
171
     2
172
     1
173
     0
174
     0
175
     0
176
   256
177
   256
178
     4
  0
DIMSTYLE
  2
AM_JIS$7
 70
     0
  3

  4
"
  5

  6

  7

 40
1.0
 41
2.5
 42
1.0
 43
7.0
 44
1.0
 45
0.0
 46
0.0
 47
0.1
 48
0.1000000001
140
2.5
141
0.0
142
0.0
143
0.0393701
144
1.0
145
0.0
146
0.71
147
1.0
 71
     0
 72
     0
 73
     0
 74
     0
 75
     0
 76
     0
 77
     3
 78
     8
170
     0
171
     2
172
     1
173
     0
174
     0
175
     0
176
   256
177
   256
178
     4
  0
DIMSTYLE
  2
AM_JIS$SF
 70
     0
  3

  4
"
  5
OPEN30
  6
OPEN30
  7
OPEN30
 40
1.0
 41
2.5
 42
1.0
 43
10.0
 44
1.0
 45
0.0
 46
0.0
 47
0.1
 48
0.1
140
3.5
141
0.0
142
0.0
143
0.0393701
144
1.0
145
0.0
146
0.71
147
1.5
 71
     0
 72
     0
 73
     0
 74
     0
 75
     1
 76
     1
 77
     3
 78
     8
170
     0
171
     2
172
     1
173
     0
174
     0
175
     0
176
   256
177
   256
178
     4
  0
DIMSTYLE
  2
AM_JIS$SH
 70
     0
  3

  4
"
  5

  6
NONE
  7

 40
1.0
 41
2.5
 42
1.0
 43
10.0
 44
1.0
 45
0.0
 46
0.0
 47
0.1
 48
0.1
140
3.5
141
0.0
142
0.0
143
0.0393701
144
1.0
145
0.0
146
0.71
147
1.5
 71
     0
 72
     0
 73
     0
 74
     0
 75
     1
 76
     0
 77
     3
 78
     8
170
     0
171
     2
172
     1
173
     1
174
     0
175
     0
176
   256
177
   256
178
     4
  0
DIMSTYLE
  2
AM_ISO
 70
     0
  3

  4
"
  5

  6

  7

 40
1.0
 41
2.5
 42
1.0
 43
10.0
 44
1.0
 45
0.0
 46
0.0
 47
0.0
 48
0.000000001
140
3.0
141
0.0
142
0.0
143
0.0393701
144
1.0
145
0.0
146
0.71
147
1.299999999999998
 71
     1
 72
     0
 73
     0
 74
     0
 75
     0
 76
     0
 77
     1
 78
     8
170
     0
171
     2
172
     1
173
     0
174
     0
175
     0
176
   256
177
   256
178
     4
  0
DIMSTYLE
  2
AM_ISO$3
 70
     0
  3

  4
"
  5

  6

  7

 40
1.0
 41
2.5
 42
1.0
 43
10.0
 44
1.0
 45
0.0
 46
0.0
 47
0.0
 48
0.000000001
140
2.5
141
0.0
142
0.0
143
0.0393701
144
1.0
145
0.0
146
0.71
147
1.299999999999998
 71
     1
 72
     0
 73
     0
 74
     1
 75
     0
 76
     0
 77
     1
 78
     8
170
     0
171
     2
172
     0
173
     0
174
     0
175
     0
176
   256
177
   256
178
     4
  0
DIMSTYLE
  2
AM_ISO$4
 70
     0
  3

  4
"
  5

  6

  7

 40
1.0
 41
2.5
 42
1.0
 43
10.0
 44
1.0
 45
0.0
 46
0.0
 47
0.0
 48
0.000000001
140
2.5
141
0.0
142
0.0
143
0.0393701
144
1.0
145
0.0
146
0.71
147
1.299999999999998
 71
     1
 72
     0
 73
     0
 74
     1
 75
     0
 76
     0
 77
     1
 78
     8
170
     0
171
     2
172
     0
173
     0
174
     0
175
     0
176
   256
177
   256
178
     4
  0
DIMSTYLE
  2
AM_ISO$6
 70
     0
  3

  4
"
  5

  6

  7

 40
1.0
 41
2.5
 42
1.0
 43
10.0
 44
1.0
 45
0.0
 46
0.0
 47
0.0
 48
0.000000001
140
2.5
141
0.0
142
0.0
143
0.0393701
144
1.0
145
0.0
146
0.71
147
1.299999999999998
 71
     1
 72
     0
 73
     0
 74
     0
 75
     0
 76
     0
 77
     0
 78
     8
170
     0
171
     2
172
     1
173
     0
174
     0
175
     0
176
   256
177
   256
178
     4
  0
DIMSTYLE
  2
AM_ISO$7
 70
     0
  3

  4
"
  5

  6

  7

 40
1.0
 41
2.5
 42
1.0
 43
10.0
 44
1.0
 45
0.0
 46
0.0
 47
0.0
 48
0.000000001
140
2.5
141
0.0
142
0.0
143
0.0393701
144
1.0
145
0.0
146
0.71
147
1.299999999999998
 71
     1
 72
     0
 73
     0
 74
     0
 75
     0
 76
     0
 77
     1
 78
     8
170
     0
171
     2
172
     1
173
     0
174
     0
175
     0
176
   256
177
   256
178
     4
  0
DIMSTYLE
  2
AM_ISO$SF
 70
     0
  3

  4
"
  5

  6

  7

 40
1.0
 41
2.5
 42
1.0
 43
10.0
 44
1.0
 45
0.0
 46
0.0
 47
0.1
 48
0.1
140
3.5
141
0.0
142
0.0
143
0.0393701
144
1.0
145
0.0
146
0.71
147
1.5
 71
     0
 72
     0
 73
     0
 74
     0
 75
     1
 76
     1
 77
     1
 78
     8
170
     0
171
     2
172
     1
173
     0
174
     0
175
     0
176
   256
177
   256
178
     4
  0
DIMSTYLE
  2
AM_ISO$SH
 70
     0
  3

  4
"
  5

  6
GENAXEH
  7

 40
1.0
 41
2.5
 42
1.0
 43
10.0
 44
1.0
 45
0.0
 46
0.0
 47
0.1
 48
0.1
140
3.5
141
0.0
142
0.0
143
0.0393701
144
2.0
145
0.0
146
0.71
147
1.5
 71
     0
 72
     0
 73
     0
 74
     0
 75
     1
 76
     1
 77
     1
 78
     8
170
     0
171
     2
172
     1
173
     1
174
     0
175
     0
176
   256
177
   256
178
     4
  0
ENDTAB
  0
ENDSEC
  0
SECTION
  2
BLOCKS
  0
BLOCK
  8
0
  2
$MODEL_SPACE
 70
     0
 10
0.0
 20
0.0
 30
0.0
  3
$MODEL_SPACE
  1

  0
ENDBLK
  5
1A
  8
0
  0
BLOCK
 67
     1
  8
0
  2
$PAPER_SPACE
 70
     0
 10
0.0
 20
0.0
 30
0.0
  3
$PAPER_SPACE
  1

  0
ENDBLK
  5
17
 67
     1
  8
0
  0
BLOCK
  8
0
  2
_OPEN30
 70
     0
 10
0.0
 20
0.0
 30
0.0
  3
_OPEN30
  1

  0
LINE
  5
21C5
  8
0
 62
     0
 10
-1.0
 20
0.26794919
 30
0.0
 11
0.0
 21
0.0
 31
0.0
  0
LINE
  5
21C6
  8
0
 62
     0
 10
0.0
 20
0.0
 30
0.0
 11
-1.0
 21
-0.26794919
 31
0.0
  0
LINE
  5
21C7
  8
0
 62
     0
 10
0.0
 20
0.0
 30
0.0
 11
-1.0
 21
0.0
 31
0.0
  0
ENDBLK
  5
21C9
  8
0
  0
BLOCK
  8
0
  2
GENAXEH
 70
     0
 10
0.0
 20
0.0
 30
0.0
  3
GENAXEH
  1

  0
LINE
  5
21D0
  8
0
 10
-1.0
 20
0.0
 30
0.0
 11
1.0
 21
0.0
 31
0.0
  0
ENDBLK
  5
21D2
  8
0
  0
BLOCK
  8
0
  2
_NONE
 70
     0
 10
0.0
 20
0.0
 30
0.0
  3
_NONE
  1

  0
ENDBLK
  5
8193
  8
0
  0
BLOCK
  8
0
  2
*U5
 70
     1
 10
0.0
 20
0.0
 30
0.0
  3
*U5
  1

  0
SOLID
  5
17715
  8
AM_0
  6
CONTINUOUS
 10
67.405312309464676
 20
489.82737631090203
 30
0.0
 11
64.905312309464676
 21
489.82737631090203
 31
0.0
 12
67.405312309464676
 22
487.3273763109022
 32
0.0
 13
67.405312309464676
 23
487.3273763109022
 33
0.0
210
0.0
220
0.0
230
-1.0
  0
LINE
  5
17716
  8
AM_0
  6
CONTINUOUS
 10
-64.905312309464676
 20
489.82737631090203
 30
0.0
 11
-67.405312309464676
 21
487.3273763109022
 31
0.0
  0
LINE
  5
17717
  8
AM_0
  6
CONTINUOUS
 10
-67.405312309464676
 20
487.3273763109022
 30
0.0
 11
-67.405312309464676
 21
489.82737631090203
 31
0.0
  0
ENDBLK
  5
17719
  8
0
  0
BLOCK
  8
0
  2
*U6
 70
     1
 10
0.0
 20
0.0
 30
0.0
  3
*U6
  1

  0
SOLID
  5
1771B
  8
AM_0
  6
CONTINUOUS
 10
74.405312309464236
 20
489.82737631090203
 30
0.0
 11
71.905312309464236
 21
489.82737631090203
 31
0.0
 12
71.905312309464236
 22
487.3273763109022
 32
0.0
 13
71.905312309464236
 23
487.3273763109022
 33
0.0
210
0.0
220
0.0
230
-1.0
  0
LINE
  5
1771C
  8
AM_0
  6
CONTINUOUS
 10
-71.905312309464236
 20
489.82737631090203
 30
0.0
 11
-71.905312309464236
 21
487.3273763109022
 31
0.0
  0
LINE
  5
1771D
  8
AM_0
  6
CONTINUOUS
 10
-71.905312309464236
 20
487.3273763109022
 30
0.0
 11
-74.405312309464236
 21
489.82737631090203
 31
0.0
  0
ENDBLK
  5
1771F
  8
0
  0
BLOCK
  8
0
  2
*U7
 70
     1
 10
0.0
 20
0.0
 30
0.0
  3
*U7
  1

  0
SOLID
  5
17721
  8
AM_0
  6
CONTINUOUS
 10
22.905285755592711
 20
591.32739405134191
 30
0.0
 11
20.405285755592711
 21
588.82739405134191
 31
0.0
 12
22.905285755592711
 22
588.82739405134191
 32
0.0
 13
22.905285755592711
 23
588.82739405134191
 33
0.0
210
0.0
220
0.0
230
-1.0
  0
LINE
  5
17722
  8
AM_0
  6
CONTINUOUS
 10
-22.905285755592711
 20
591.32739405134191
 30
0.0
 11
-20.405285755592711
 21
588.82739405134191
 31
0.0
  0
LINE
  5
17723
  8
AM_0
  6
CONTINUOUS
 10
-22.905285755592711
 20
588.82739405134191
 30
0.0
 11
-22.905285755592711
 21
591.32739405134191
 31
0.0
  0
ENDBLK
  5
17725
  8
0
  0
BLOCK
  8
0
  2
*U8
 70
     1
 10
0.0
 20
0.0
 30
0.0
  3
*U8
  1

  0
SOLID
  5
17727
  8
AM_0
  6
CONTINUOUS
 10
27.40528575559226
 20
591.32739405134191
 30
0.0
 11
27.40528575559226
 21
588.82739405134191
 31
0.0
 12
29.90528575559226
 22
588.82739405134191
 32
0.0
 13
29.90528575559226
 23
588.82739405134191
 33
0.0
210
0.0
220
0.0
230
-1.0
  0
LINE
  5
17728
  8
AM_0
  6
CONTINUOUS
 10
-27.40528575559226
 20
591.32739405134191
 30
0.0
 11
-27.40528575559226
 21
588.82739405134191
 31
0.0
  0
LINE
  5
17729
  8
AM_0
  6
CONTINUOUS
 10
-29.90528575559226
 20
588.82739405134191
 30
0.0
 11
-27.40528575559226
 21
591.32739405134191
 31
0.0
  0
ENDBLK
  5
1772B
  8
0
  0
BLOCK
  8
0
  2
*U9
 70
     1
 10
0.0
 20
0.0
 30
0.0
  3
*U9
  1

  0
SOLID
  5
1772D
  8
AM_0
  6
CONTINUOUS
 10
67.405312309464676
 20
591.32739405134191
 30
0.0
 11
64.905312309464676
 21
588.82739405134191
 31
0.0
 12
67.405312309464676
 22
588.82739405134191
 32
0.0
 13
67.405312309464676
 23
588.82739405134191
 33
0.0
210
0.0
220
0.0
230
-1.0
  0
LINE
  5
1772E
  8
AM_0
  6
CONTINUOUS
 10
-67.405312309464676
 20
591.32739405134191
 30
0.0
 11
-64.905312309464676
 21
588.82739405134191
 31
0.0
  0
LINE
  5
1772F
  8
AM_0
  6
CONTINUOUS
 10
-67.405312309464676
 20
588.82739405134191
 30
0.0
 11
-67.405312309464676
 21
591.32739405134191
 31
0.0
  0
ENDBLK
  5
17731
  8
0
  0
BLOCK
  8
0
  2
*U10
 70
     1
 10
0.0
 20
0.0
 30
0.0
  3
*U10
  1

  0
SOLID
  5
17733
  8
AM_0
  6
CONTINUOUS
 10
71.905312309464236
 20
591.32739405134191
 30
0.0
 11
71.905312309464236
 21
588.82739405134191
 31
0.0
 12
74.405312309464236
 22
588.82739405134191
 32
0.0
 13
74.405312309464236
 23
588.82739405134191
 33
0.0
210
0.0
220
0.0
230
-1.0
  0
LINE
  5
17734
  8
AM_0
  6
CONTINUOUS
 10
-71.905312309464236
 20
591.32739405134191
 30
0.0
 11
-71.905312309464236
 21
588.82739405134191
 31
0.0
  0
LINE
  5
17735
  8
AM_0
  6
CONTINUOUS
 10
-74.405312309464236
 20
588.82739405134191
 30
0.0
 11
-71.905312309464236
 21
591.32739405134191
 31
0.0
  0
ENDBLK
  5
17737
  8
0
  0
ENDSEC
  0
SECTION
  2
ENTITIES
  0
POINT
  5
1B94
  8
0
 10
0.0
 20
0.0
 30
0.0
1001
GENIUS_GENODEF_13
1002
{
1000
HIER
1070
     1
1002
}
1002
{
1000
MANEDIT
1070
     0
1002
}
1002
{
1000
NOSEL
1070
     0
1002
}
1002
{
1000
BEHIND
1070
     0
1002
}
1002
{
1000
REACTOR
1002
}
1001
GENIUS_GENOBJ-N-SDF_13
1002
{
1000
OWNER
1000
GEN
1002
}
1001
GENIUS_GENOENT_13
1002
{
1000
MYREF
1005
1B94
1002
}
1002
{
1000
GRP
1005
0
1002
}
1001
GENIUS_GENOLIS_13
1002
{
1000
ENT
1005
89
1002
}
  0
LINE
  5
14C09
  8
AM_0
 10
219.75603115382179
 20
220.34108455478119
 30
0.0
 11
219.75603115382179
 21
340.34108813105979
 31
0.0
  0
LINE
  5
14C0A
  8
AM_0
 10
199.7560307663916
 20
339.99196703054707
 30
0.0
 11
199.7560307663916
 21
202.84158134293531
 31
0.0
  0
LINE
  5
14C0B
  8
AM_0
 10
289.75603344860059
 20
202.84158134293531
 30
0.0
 11
289.75603344860059
 21
339.11924749263818
 31
0.0
  0
LINE
  5
14C0C
  8
AM_0
 10
293.75603356780988
 20
242.8410852253335
 30
0.0
 11
293.75603356780988
 21
317.84108746050742
 31
0.0
  0
LINE
  5
14C0D
  8
AM_0
 10
195.75603064718231
 20
242.8410852253335
 30
0.0
 11
195.75603064718231
 21
317.84108746050742
 31
0.0
  0
LINE
  5
14C0E
  8
ﾁｭｳｼﾝｾﾝ1
 10
244.75603210749611
 20
344.48716189474231
 30
0.0
 11
244.75603210749611
 21
195.3494100579446
 31
0.0
  0
LINE
  5
14C0F
  8
AM_0
 10
176.75603229760691
 20
265.34108630974691
 30
0.0
 11
176.75603229760691
 21
295.3410863097468
 31
0.0
  0
LINE
  5
14C10
  8
AM_0
 10
191.756030527973
 20
300.34088693896092
 30
0.0
 11
191.756030527973
 21
260.34128574687998
 31
0.0
  0
LINE
  5
14C11
  8
0
 10
136.75603233188031
 20
268.3410862944786
 30
0.0
 11
136.75603225476539
 21
295.3410862944786
 31
0.0
  0
ARC
  5
14C17
  8
AM_0
 10
244.75603210749611
 20
280.34108615292052
 30
0.0
 40
56.5
 50
330.14139424207468
 51
29.85860575792525
  0
LINE
  5
14C19
  8
AM_0
 10
191.756030527973
 20
260.34128574687998
 30
0.0
 11
195.75603064718231
 21
260.34128574687998
 31
0.0
  0
LINE
  5
14C1A
  8
AM_0
 10
186.58972767563449
 20
256.38327207596461
 30
0.0
 11
193.4750780493759
 21
256.62371380923599
 31
0.0
  0
LINE
  5
14C1B
  8
AM_0
 10
186.6060624099573
 20
254.31447542696111
 30
0.0
 11
194.75633751006299
 21
254.02986154889589
 31
0.0
  0
LINE
  5
14C1D
  8
AM_0
 10
189.42207683032601
 20
246.3875520193173
 30
0.0
 11
195.75603064718231
 21
246.6087385605266
 31
0.0
  0
LINE
  5
14C1E
  8
AM_0
 10
189.44616073466611
 20
244.31698633021131
 30
0.0
 11
195.75603064718231
 21
244.09664081747371
 31
0.0
  0
ARC
  5
14C1F
  8
AM_0
 10
244.75603210749611
 20
280.34108615292052
 30
0.0
 40
56.5
 50
200.73086842714579
 51
209.8586057579252
  0
LINE
  5
14C20
  8
AM_0
 10
295.84603344860028
 20
237.34157986772021
 30
0.0
 11
303.84603344860028
 21
237.34157986772021
 31
0.0
  0
LINE
  5
14C21
  8
AM_0
 10
295.84603344860028
 20
224.3415798677203
 30
0.0
 11
303.84603344860028
 21
224.3415798677203
 31
0.0
  0
LINE
  5
14C22
  8
AM_0
 10
299.2560334486007
 20
220.34158000183089
 30
0.0
 11
294.2560334486007
 21
220.34158000183089
 31
0.0
  0
LINE
  5
14C23
  8
AM_0
 10
299.95704223427259
 20
199.84158134293509
 30
0.0
 11
294.2560334486007
 21
205.54259012860749
 31
0.0
  0
LINE
  5
14C24
  8
AM_0
 10
319.75603344859968
 20
195.34158134293531
 30
0.0
 11
297.25603344860019
 21
195.34158134293531
 31
0.0
  0
LINE
  5
14C25
  8
AM_0
 10
319.75603344859968
 20
199.84158134293509
 30
0.0
 11
297.25603344860059
 21
199.84158134293509
 31
0.0
  0
LINE
  5
14C28
  8
ﾁｭｳｼﾝｾﾝ1
 10
339.3283788290662
 20
280.34108634292039
 30
0.0
 11
132.75134342601291
 21
280.34108634292039
 31
0.0
  0
ARC
  5
14EE5
  8
AM_0
 10
297.25603344860059
 20
202.84158134293531
 30
0.0
 40
3.0
 50
180.0
 51
270.0
1001
GENIUS_GENOBJ-N-FIL_13
1002
{
1000
OWNER
1000
GEN
1002
}
1001
GENIUS_GENODEF_13
1002
{
1000
HIER
1070
     0
1002
}
1002
{
1000
MANEDIT
1070
     0
1002
}
1002
{
1000
NOSEL
1070
     0
1002
}
1002
{
1000
BEHIND
1070
     0
1002
}
1002
{
1000
OTHER
1070
     0
1002
}
1002
{
1000
REACTOR
1002
}
  0
ARC
  5
14EE6
  8
AM_0
 10
192.2560307663916
 20
202.84158134293531
 30
0.0
 40
3.0
 50
270.0
 51
0.0
1001
GENIUS_GENOBJ-N-FIL_13
1002
{
1000
OWNER
1000
GEN
1002
}
1001
GENIUS_GENODEF_13
1002
{
1000
HIER
1070
     0
1002
}
1002
{
1000
MANEDIT
1070
     0
1002
}
1002
{
1000
NOSEL
1070
     0
1002
}
1002
{
1000
BEHIND
1070
     0
1002
}
1002
{
1000
OTHER
1070
     0
1002
}
1002
{
1000
REACTOR
1002
}
  0
LINE
  5
14EE7
  8
AM_0
 10
189.5550219807196
 20
199.84158134293509
 30
0.0
 11
195.2560307663916
 21
205.54259012860749
 31
0.0
  0
LINE
  5
14EE8
  8
AM_0
 10
174.75603210749611
 20
199.84158134293509
 30
0.0
 11
174.75603210749611
 21
204.8415813429352
 31
0.0
  0
LINE
  5
14EE9
  8
ﾁｭｳｼﾝｾﾝ1
 10
179.75603210749611
 20
209.8415813429352
 30
0.0
 11
179.75603210749611
 21
185.34158134293531
 31
0.0
  0
ARC
  5
14EEA
  8
AM_0
 10
192.25603076639209
 20
202.84158134293531
 30
0.0
 40
7.5
 50
270.0
 51
0.0
1001
GENIUS_GENOBJ-N-FIL_13
1002
{
1000
OWNER
1000
GEN
1002
}
1001
GENIUS_GENODEF_13
1002
{
1000
HIER
1070
     0
1002
}
1002
{
1000
MANEDIT
1070
     0
1002
}
1002
{
1000
NOSEL
1070
     0
1002
}
1002
{
1000
BEHIND
1070
     0
1002
}
1002
{
1000
OTHER
1070
     0
1002
}
1002
{
1000
REACTOR
1002
}
  0
ARC
  5
14EEB
  8
AM_0
 10
297.25603344860019
 20
202.84158134293531
 30
0.0
 40
7.5
 50
180.0
 51
270.0
1001
GENIUS_GENOBJ-N-FIL_13
1002
{
1000
OWNER
1000
GEN
1002
}
1001
GENIUS_GENODEF_13
1002
{
1000
HIER
1070
     0
1002
}
1002
{
1000
MANEDIT
1070
     0
1002
}
1002
{
1000
NOSEL
1070
     0
1002
}
1002
{
1000
BEHIND
1070
     0
1002
}
1002
{
1000
OTHER
1070
     0
1002
}
1002
{
1000
REACTOR
1002
}
  0
LINE
  5
14EED
  8
AM_0
 10
169.75603076639251
 20
199.84158134293509
 30
0.0
 11
192.2560307663916
 21
199.84158134293509
 31
0.0
  0
LINE
  5
14EEE
  8
AM_0
 10
169.7560307663926
 20
195.34158134293531
 30
0.0
 11
192.25603076639209
 21
195.34158134293531
 31
0.0
  0
LINE
  5
14EEF
  8
AM_0
 10
169.75603076639251
 20
199.84158134293509
 30
0.0
 11
169.75603076639251
 21
195.34158134293531
 31
0.0
  0
LINE
  5
14EF0
  8
ｶｸﾚｾﾝ2
 10
174.75603210749611
 20
195.34158134293531
 30
0.0
 11
174.75603210749611
 21
199.8415813429352
 31
0.0
  0
LINE
  5
14EF1
  8
ｶｸﾚｾﾝ2
 10
184.75603210749611
 20
195.34158134293531
 30
0.0
 11
184.75603210749611
 21
199.8415813429352
 31
0.0
  0
LINE
  5
14EF2
  8
AM_0
 10
219.75603115382179
 20
220.3410845547811
 30
0.0
 11
289.75603344860059
 21
221.56295293645641
 31
0.0
  0
ARC
  5
14EF3
  8
AM_0
 10
301.75603210749608
 20
245.3753973781136
 30
0.0
 40
1.0
 50
0.000000000000007
 51
88.000000000002785
1001
GENIUS_GENODEF_13
1002
{
1000
HIER
1070
     0
1002
}
1002
{
1000
MANEDIT
1070
     0
1002
}
1002
{
1000
NOSEL
1070
     0
1002
}
1002
{
1000
BEHIND
1070
     0
1002
}
1002
{
1000
REACTOR
1002
}
1001
GENIUS_GENOBJ-N-FIL_13
1002
{
1000
OWNER
1000
GEN
1002
}
  0
LINE
  5
14EF5
  8
AM_0
 10
199.7560307663916
 20
242.8410852253335
 30
0.0
 11
195.75603064718231
 21
242.8410852253335
 31
0.0
  0
LINE
  5
14EF6
  8
AM_0
 10
195.2560307663916
 20
242.3415798677207
 30
0.0
 11
199.75603076639209
 21
242.3415798677207
 31
0.0
  0
LINE
  5
14EF7
  8
AM_0
 10
195.2560307663916
 20
242.3415798677207
 30
0.0
 11
195.2560307663916
 21
202.84158134293531
 31
0.0
  0
LINE
  5
14EF8
  8
AM_0
 10
187.16603076639191
 20
238.3415798677203
 30
0.0
 11
187.16603076639191
 21
223.3415798677203
 31
0.0
  0
LINE
  5
14EF9
  8
AM_0
 10
193.66603076639191
 20
239.3415798677203
 30
0.0
 11
193.66603076639149
 21
222.3415798677201
 31
0.0
  0
LINE
  5
14EFA
  8
AM_0
 10
174.75603210749611
 20
204.84158134293531
 30
0.0
 11
190.2560307663916
 21
220.34158000183089
 31
0.0
  0
LINE
  5
14EFB
  8
AM_0
 10
187.16603076639191
 20
223.3415798677203
 30
0.0
 11
193.66603076639191
 21
223.34157986772041
 31
0.0
  0
LINE
  5
14EFC
  8
AM_0
 10
190.2560307663916
 20
220.34158000183089
 30
0.0
 11
195.2560307663916
 21
220.34158000183089
 31
0.0
  0
LINE
  5
14EFD
  8
AM_0
 10
193.66603076639149
 20
222.3415798677201
 30
0.0
 11
195.2560307663918
 21
222.3415798677201
 31
0.0
  0
LINE
  5
14EFF
  8
AM_0N
 10
186.61284553136829
 20
234.84157986772021
 30
0.0
 11
185.84603303136831
 21
234.0747673677202
 31
0.0
1001
GENIUS_GENOREF_13
1005
0
  0
LINE
  5
14F00
  8
AM_0N
 10
186.61284553136829
 20
234.84157986772021
 30
0.0
 11
186.61284553136829
 21
226.84157986772021
 31
0.0
1001
GENIUS_GENOREF_13
1005
0
  0
LINE
  5
14F01
  8
AM_0
 10
187.16603076639191
 20
227.0915798677203
 30
0.0
 11
193.66603076639149
 21
227.0915798677203
 31
0.0
  0
LINE
  5
14F02
  8
AM_0
 10
187.16603076639191
 20
234.5915798677203
 30
0.0
 11
193.66603076639191
 21
234.5915798677201
 31
0.0
  0
LINE
  5
14F03
  8
AM_0N
 10
185.84603303136831
 20
234.0747673677202
 30
0.0
 11
185.84603303136831
 21
227.6083923677202
 31
0.0
1001
GENIUS_GENOREF_13
1005
0
  0
LINE
  5
14F04
  8
AM_4N
 10
185.84603303136831
 20
234.0747673677202
 30
0.0
 11
187.16603076639191
 21
234.0747673677202
 31
0.0
1001
GENIUS_GENOREF_13
1005
0
  0
LINE
  5
14F05
  8
AM_4N
 10
185.84603303136831
 20
227.6083923677202
 30
0.0
 11
187.16603076639191
 21
227.6083923677202
 31
0.0
1001
GENIUS_GENOREF_13
1005
0
  0
LINE
  5
14F06
  8
AM_0N
 10
187.16603076639191
 20
226.84157986772021
 30
0.0
 11
186.61284553136829
 21
226.84157986772021
 31
0.0
1001
GENIUS_GENOREF_13
1005
0
  0
LINE
  5
14F07
  8
AM_0N
 10
186.61284553136829
 20
226.84157986772021
 30
0.0
 11
185.84603303136831
 21
227.6083923677202
 31
0.0
1001
GENIUS_GENOREF_13
1005
0
  0
LINE
  5
14F08
  8
AM_0
 10
187.16603076639191
 20
238.3415798677203
 30
0.0
 11
193.66603076639191
 21
238.3415798677201
 31
0.0
  0
LINE
  5
14F09
  8
AM_0
 10
301.7909316041987
 20
244.3073841007085
 30
0.0
 11
293.75603356780988
 21
244.02679927848999
 31
0.0
  0
ARC
  5
14F0A
  8
AM_0
 10
301.75603210749608
 20
245.3067749277275
 30
0.0
 40
1.0
 50
272.00000000000369
 51
0.0000000000130346
1001
GENIUS_GENODEF_13
1002
{
1000
HIER
1070
     0
1002
}
1002
{
1000
MANEDIT
1070
     0
1002
}
1002
{
1000
NOSEL
1070
     0
1002
}
1002
{
1000
BEHIND
1070
     0
1002
}
1002
{
1000
REACTOR
1002
}
1001
GENIUS_GENOBJ-N-FIL_13
1002
{
1000
OWNER
1000
GEN
1002
}
  0
LINE
  5
14F0B
  8
AM_0
 10
302.75603210749608
 20
245.37539737811349
 30
0.0
 11
302.75603210749608
 21
245.30677492772739
 31
0.0
  0
LINE
  5
14F0C
  8
AM_0N
 10
187.16603076639191
 20
234.84157986772021
 30
0.0
 11
186.61284553136829
 21
234.84157986772021
 31
0.0
1001
GENIUS_GENOREF_13
1005
0
  0
LINE
  5
14F0E
  8
AM_0
 10
193.66603076639149
 20
239.3415798677203
 30
0.0
 11
195.2560307663918
 21
239.3415798677203
 31
0.0
  0
LINE
  5
14F0F
  8
AM_0
 10
199.7560307663916
 20
220.69020565529371
 30
0.0
 11
219.75603115382179
 21
220.34108455478119
 31
0.0
  0
LINE
  5
14F10
  8
AM_0
 10
230.7944741614028
 20
220.3283448175747
 30
0.0
 11
230.8016519140142
 21
220.5338887593584
 31
0.0
  0
ARC
  5
14F11
  8
AM_0
 10
229.7261755784491
 20
220.3727264666509
 30
0.0
 40
1.0
 50
181.99999999999071
 51
262.14682191119419
1001
GENIUS_GENODEF_13
1002
{
1000
HIER
1070
     0
1002
}
1002
{
1000
MANEDIT
1070
     0
1002
}
1002
{
1000
NOSEL
1070
     0
1002
}
1002
{
1000
BEHIND
1070
     0
1002
}
1002
{
1000
REACTOR
1002
}
1001
GENIUS_GENOBJ-N-FIL_13
1002
{
1000
OWNER
1000
GEN
1002
}
  0
ARC
  5
14F12
  8
AM_0
 10
244.75603210749611
 20
329.34108615292052
 30
0.0
 40
111.0
 50
262.14682191118692
 51
262.1830521683051
  0
LINE
  5
14F13
  8
AM_0
 10
228.72678475142999
 20
220.33782696994831
 30
0.0
 11
228.72120626098169
 21
220.49757403535989
 31
0.0
  0
ARC
  5
14F14
  8
AM_0
 10
229.79508333438369
 20
220.36324431427741
 30
0.0
 40
1.0
 50
262.1830521683051
 51
357.99999999999642
1001
GENIUS_GENODEF_13
1002
{
1000
HIER
1070
     0
1002
}
1002
{
1000
MANEDIT
1070
     0
1002
}
1002
{
1000
NOSEL
1070
     0
1002
}
1002
{
1000
BEHIND
1070
     0
1002
}
1002
{
1000
REACTOR
1002
}
1001
GENIUS_GENOBJ-N-FIL_13
1002
{
1000
OWNER
1000
GEN
1002
}
  0
ARC
  5
14F18
  8
AM_0
 10
300.71539622948688
 20
248.37853520894259
 30
0.0
 40
1.9655366667591301
 50
93.15847022607494
 51
269.35044678893439
  0
LINE
  5
14F19
  8
AM_0
 10
301.79093160419848
 20
246.3747882051324
 30
0.0
 11
293.75603356780988
 21
246.65537302735081
 31
0.0
  0
ARC
  5
14F1C
  8
AM_0
 10
239.7233654556166
 20
219.45627252350641
 30
0.0
 40
1.0
 50
181.99999999999071
 51
267.37771591204699
1001
GENIUS_GENODEF_13
1002
{
1000
HIER
1070
     0
1002
}
1002
{
1000
MANEDIT
1070
     0
1002
}
1002
{
1000
NOSEL
1070
     0
1002
}
1002
{
1000
BEHIND
1070
     0
1002
}
1002
{
1000
REACTOR
1002
}
1001
GENIUS_GENOBJ-N-FIL_13
1002
{
1000
OWNER
1000
GEN
1002
}
  0
LINE
  5
14F1D
  8
AM_0
 10
238.72397462859769
 20
219.42137302680379
 30
0.0
 11
238.68032227032069
 21
220.6714130148217
 31
0.0
  0
ARC
  5
14F1E
  8
AM_0
 10
239.79173948973289
 20
219.4531623450462
 30
0.0
 40
1.0
 50
267.41336677122672
 51
357.99999999999642
1001
GENIUS_GENODEF_13
1002
{
1000
HIER
1070
     0
1002
}
1002
{
1000
MANEDIT
1070
     0
1002
}
1002
{
1000
NOSEL
1070
     0
1002
}
1002
{
1000
BEHIND
1070
     0
1002
}
1002
{
1000
REACTOR
1002
}
1001
GENIUS_GENOBJ-N-FIL_13
1002
{
1000
OWNER
1000
GEN
1002
}
  0
ARC
  5
14F1F
  8
AM_0
 10
244.75603210749611
 20
329.34108615292052
 30
0.0
 40
111.0
 50
267.37771591204699
 51
267.41336677122672
  0
LINE
  5
14F20
  8
AM_0
 10
240.79113031675209
 20
219.41826284834329
 30
0.0
 11
240.83620540596661
 21
220.70904451984561
 31
0.0
  0
ARC
  5
14F21
  8
AM_0
 10
249.78869875937559
 20
219.45627252350641
 30
0.0
 40
1.0
 50
272.62228408795301
 51
357.99999999999642
1001
GENIUS_GENODEF_13
1002
{
1000
HIER
1070
     0
1002
}
1002
{
1000
MANEDIT
1070
     0
1002
}
1002
{
1000
NOSEL
1070
     0
1002
}
1002
{
1000
BEHIND
1070
     0
1002
}
1002
{
1000
REACTOR
1002
}
1001
GENIUS_GENOBJ-N-FIL_13
1002
{
1000
OWNER
1000
GEN
1002
}
  0
ARC
  5
14F22
  8
AM_0
 10
244.75603210749611
 20
329.34108615292052
 30
0.0
 40
111.0
 50
272.58663322877328
 51
272.62228408795301
  0
ARC
  5
14F23
  8
AM_0
 10
249.72032472525959
 20
219.4531623450462
 30
0.0
 40
1.0
 50
182.00000000000369
 51
272.58663322877328
1001
GENIUS_GENODEF_13
1002
{
1000
HIER
1070
     0
1002
}
1002
{
1000
MANEDIT
1070
     0
1002
}
1002
{
1000
NOSEL
1070
     0
1002
}
1002
{
1000
BEHIND
1070
     0
1002
}
1002
{
1000
REACTOR
1002
}
1001
GENIUS_GENOBJ-N-FIL_13
1002
{
1000
OWNER
1000
GEN
1002
}
  0
LINE
  5
14F24
  8
AM_0
 10
248.7209338982407
 20
219.41826284834329
 30
0.0
 11
248.67108305010069
 21
220.84580436204311
 31
0.0
  0
LINE
  5
14F25
  8
AM_0
 10
250.78808958639479
 20
219.42137302680379
 30
0.0
 11
250.83915337453749
 21
220.88364859764081
 31
0.0
  0
ARC
  5
14F26
  8
AM_0
 10
259.71698088060879
 20
220.36324431427741
 30
0.0
 40
1.0
 50
181.99999999999071
 51
277.81694783169502
1001
GENIUS_GENODEF_13
1002
{
1000
HIER
1070
     0
1002
}
1002
{
1000
MANEDIT
1070
     0
1002
}
1002
{
1000
NOSEL
1070
     0
1002
}
1002
{
1000
BEHIND
1070
     0
1002
}
1002
{
1000
REACTOR
1002
}
1001
GENIUS_GENOBJ-N-FIL_13
1002
{
1000
OWNER
1000
GEN
1002
}
  0
ARC
  5
14F27
  8
AM_0
 10
244.75603210749611
 20
329.34108615292052
 30
0.0
 40
111.0
 50
277.81694783169502
 51
277.85317808881319
  0
ARC
  5
14F28
  8
AM_0
 10
259.7858886365434
 20
220.3727264666509
 30
0.0
 40
1.0
 50
277.85317808880581
 51
357.99999999999642
1001
GENIUS_GENODEF_13
1002
{
1000
HIER
1070
     0
1002
}
1002
{
1000
MANEDIT
1070
     0
1002
}
1002
{
1000
NOSEL
1070
     0
1002
}
1002
{
1000
BEHIND
1070
     0
1002
}
1002
{
1000
REACTOR
1002
}
1001
GENIUS_GENOBJ-N-FIL_13
1002
{
1000
OWNER
1000
GEN
1002
}
  0
LINE
  5
14F29
  8
AM_0
 10
260.78527946356229
 20
220.33782696994831
 30
0.0
 11
260.81041797092291
 21
221.05769963387269
 31
0.0
  0
LINE
  5
14F2A
  8
AM_0
 10
258.7175900535899
 20
220.3283448175747
 30
0.0
 11
258.69341084636619
 21
221.0207467198087
 31
0.0
  0
LINE
  5
14F2B
  8
AM_0
 10
294.2560334486007
 20
242.3415798677207
 30
0.0
 11
294.2560334486007
 21
202.84158134293531
 31
0.0
  0
LINE
  5
14F2C
  8
AM_0
 10
295.84603344860028
 20
239.3415798677203
 30
0.0
 11
295.84603344860028
 21
222.3415798677201
 31
0.0
  0
LINE
  5
14F2E
  8
AM_0
 10
295.84603344860028
 20
222.3415798677201
 30
0.0
 11
294.2560334486007
 21
222.3415798677201
 31
0.0
  0
LINE
  5
14F2F
  8
AM_0
 10
289.75603344860059
 20
242.8410852253335
 30
0.0
 11
293.75603356780988
 21
242.8410852253335
 31
0.0
  0
LINE
  5
14F30
  8
AM_0
 10
294.2560334486007
 20
242.3415798677207
 30
0.0
 11
289.75603344860019
 21
242.3415798677207
 31
0.0
  0
LINE
  5
14F31
  8
AM_0
 10
295.84603344860028
 20
239.3415798677203
 30
0.0
 11
294.2560334486007
 21
239.3415798677203
 31
0.0
  0
LINE
  5
14F32
  8
AM_0
 10
314.7560321074962
 20
199.84158134293509
 30
0.0
 11
314.7560321074962
 21
204.8415813429352
 31
0.0
  0
LINE
  5
14F35
  8
ﾁｭｳｼﾝｾﾝ1
 10
309.75603210749608
 20
209.8415813429352
 30
0.0
 11
309.75603210749608
 21
185.34158134293531
 31
0.0
  0
LINE
  5
14F37
  8
ｶｸﾚｾﾝ2
 10
304.75603210749608
 20
195.34158134293531
 30
0.0
 11
304.75603210749608
 21
199.8415813429352
 31
0.0
  0
LINE
  5
14F38
  8
ｶｸﾚｾﾝ2
 10
314.7560321074962
 20
195.34158134293531
 30
0.0
 11
314.7560321074962
 21
199.8415813429352
 31
0.0
  0
LINE
  5
14F39
  8
AM_0
 10
319.75603344859968
 20
199.84158134293509
 30
0.0
 11
319.75603344859968
 21
195.34158134293531
 31
0.0
  0
ARC
  5
14F3A
  8
AM_0
 10
189.4569763270288
 20
245.38816119229821
 30
0.0
 40
1.0
 50
91.999999999997215
 51
198.52714231446831
1001
GENIUS_GENODEF_13
1002
{
1000
HIER
1070
     0
1002
}
1002
{
1000
MANEDIT
1070
     0
1002
}
1002
{
1000
NOSEL
1070
     0
1002
}
1002
{
1000
BEHIND
1070
     0
1002
}
1002
{
1000
REACTOR
1002
}
1001
GENIUS_GENOBJ-N-FIL_13
1002
{
1000
OWNER
1000
GEN
1002
}
  0
LINE
  5
14F3C
  8
AM_0
 10
314.7560321074962
 20
204.84158134293531
 30
0.0
 11
299.2560334486007
 21
220.34158000183089
 31
0.0
  0
LINE
  5
14F3D
  8
AM_0
 10
303.84603344860028
 20
237.34157986772021
 30
0.0
 11
303.84603344860028
 21
224.3415798677203
 31
0.0
  0
ARC
  5
14F3E
  8
AM_0
 10
189.48106023136859
 20
245.31637715723079
 30
0.0
 40
1.0
 50
198.56658080189669
 51
267.99999999999619
1001
GENIUS_GENODEF_13
1002
{
1000
HIER
1070
     0
1002
}
1002
{
1000
MANEDIT
1070
     0
1002
}
1002
{
1000
NOSEL
1070
     0
1002
}
1002
{
1000
BEHIND
1070
     0
1002
}
1002
{
1000
REACTOR
1002
}
1001
GENIUS_GENOBJ-N-FIL_13
1002
{
1000
OWNER
1000
GEN
1002
}
  0
ARC
  5
14F3F
  8
AM_0
 10
293.75603210749608
 20
280.34108615292052
 30
0.0
 40
111.0
 50
198.52714231446831
 51
198.56658080189669
  0
LINE
  5
14F40
  8
0
 10
136.75603229760671
 20
268.3410862944786
 30
0.0
 11
176.75603229760691
 21
268.3410862944786
 31
0.0
  0
ARC
  5
14F41
  8
AM_0
 10
186.62462717233731
 20
255.3838812489457
 30
0.0
 40
1.0
 50
92.000000000003695
 51
193.1136701432921
1001
GENIUS_GENODEF_13
1002
{
1000
HIER
1070
     0
1002
}
1002
{
1000
MANEDIT
1070
     0
1002
}
1002
{
1000
NOSEL
1070
     0
1002
}
1002
{
1000
BEHIND
1070
     0
1002
}
1002
{
1000
REACTOR
1002
}
1001
GENIUS_GENOBJ-N-FIL_13
1002
{
1000
OWNER
1000
GEN
1002
}
  0
ARC
  5
14F43
  8
AM_0
 10
186.64096190665981
 20
255.31386625398019
 30
0.0
 40
1.0
 50
193.15111826065561
 51
268.0000000000029
1001
GENIUS_GENODEF_13
1002
{
1000
HIER
1070
     0
1002
}
1002
{
1000
MANEDIT
1070
     0
1002
}
1002
{
1000
NOSEL
1070
     0
1002
}
1002
{
1000
BEHIND
1070
     0
1002
}
1002
{
1000
REACTOR
1002
}
1001
GENIUS_GENOBJ-N-FIL_13
1002
{
1000
OWNER
1000
GEN
1002
}
  0
ARC
  5
14F44
  8
AM_0
 10
293.75603210749608
 20
280.34108615292052
 30
0.0
 40
111.0
 50
193.1136701432921
 51
193.15111826065561
  0
LINE
  5
14F45
  8
0
 10
176.75603229760691
 20
265.34108630974691
 30
0.0
 11
191.756030527973
 21
260.34128574687998
 31
0.0
  0
LINE
  5
14F48
  8
AM_0
 10
189.44616073466611
 20
316.36518597562957
 30
0.0
 11
195.75603064718231
 21
316.58553148836751
 31
0.0
  0
LINE
  5
14F49
  8
AM_0
 10
189.42207683032601
 20
314.29462028652358
 30
0.0
 11
195.75603064718231
 21
314.07343374531388
 31
0.0
  0
LINE
  5
14F4A
  8
AM_0
 10
186.6060624099573
 20
306.36769687887971
 30
0.0
 11
194.6516075200241
 21
306.64865350510388
 31
0.0
  0
LINE
  5
14F4B
  8
AM_0
 10
186.58972767563449
 20
304.29890022987632
 30
0.0
 11
193.4750780493759
 21
304.05845849660489
 31
0.0
  0
LINE
  5
14F4C
  8
AM_0
 10
191.756030527973
 20
300.34088693896092
 30
0.0
 11
195.75603064718231
 21
300.34088693896092
 31
0.0
  0
ARC
  5
14F4D
  8
AM_0
 10
244.75603210749611
 20
280.34108615292052
 30
0.0
 40
56.5
 50
150.14139424207471
 51
159.26913116082179
  0
LINE
  5
15251
  8
AM_0
 10
219.75603115382179
 20
340.34108813105968
 30
0.0
 11
289.75603344860059
 21
339.11924749263818
 31
0.0
  0
LINE
  5
15252
  8
AM_0
 10
199.7560307663916
 20
317.84108746050742
 30
0.0
 11
195.75603064718231
 21
317.84108746050742
 31
0.0
  0
ARC
  5
15253
  8
AM_0
 10
300.71539622948688
 20
312.30363709689851
 30
0.0
 40
1.9655366667591301
 50
90.64955321107206
 51
266.84152977392512
  0
LINE
  5
15258
  8
AM_0
 10
301.79093160419848
 20
314.30738410070848
 30
0.0
 11
293.75603356780988
 21
314.0267992784901
 31
0.0
  0
LINE
  5
15259
  8
AM_0
 10
301.7909316041987
 20
316.37478820513252
 30
0.0
 11
293.75603356780988
 21
316.655373027351
 31
0.0
  0
ARC
  5
1525A
  8
AM_0
 10
301.75603210749608
 20
315.30677492772747
 30
0.0
 40
1.0
 50
272.00000000000369
 51
0.0000000000130346
1001
GENIUS_GENODEF_13
1002
{
1000
HIER
1070
     0
1002
}
1002
{
1000
MANEDIT
1070
     0
1002
}
1002
{
1000
NOSEL
1070
     0
1002
}
1002
{
1000
BEHIND
1070
     0
1002
}
1002
{
1000
REACTOR
1002
}
1001
GENIUS_GENOBJ-N-FIL_13
1002
{
1000
OWNER
1000
GEN
1002
}
  0
ARC
  5
1525B
  8
AM_0
 10
301.75603210749608
 20
315.37539737811358
 30
0.0
 40
1.0
 50
0.000000000000007
 51
88.000000000002785
1001
GENIUS_GENODEF_13
1002
{
1000
HIER
1070
     0
1002
}
1002
{
1000
MANEDIT
1070
     0
1002
}
1002
{
1000
NOSEL
1070
     0
1002
}
1002
{
1000
BEHIND
1070
     0
1002
}
1002
{
1000
REACTOR
1002
}
1001
GENIUS_GENOBJ-N-FIL_13
1002
{
1000
OWNER
1000
GEN
1002
}
  0
LINE
  5
1525C
  8
AM_0
 10
302.75603210749608
 20
315.30677492772742
 30
0.0
 11
302.75603210749608
 21
315.37539737811352
 31
0.0
  0
ARC
  5
1525D
  8
AM_0
 10
203.75603210749611
 20
321.34108615292052
 30
0.0
 40
5.0
 50
143.130127967373
 51
180.0
1001
GENIUS_GENOBJ-N-CEN_13
1002
{
1000
OWNER
1000
GEN
1002
}
1001
GENIUS_GENODEF_13
1002
{
1000
HIER
1070
     0
1002
}
1002
{
1000
MANEDIT
1070
     0
1002
}
1002
{
1000
NOSEL
1070
     0
1002
}
1002
{
1000
BEHIND
1070
     0
1002
}
1002
{
1000
REACTOR
1002
}
1001
GENIUS_GENOBJ-N-FIL_13
1002
{
1000
OWNER
1000
GEN
1002
}
  0
LINE
  5
1525E
  8
AM_0
 10
198.75603210749611
 20
321.34108615292052
 30
0.0
 11
198.75603210749611
 21
317.84108746050742
 31
0.0
  0
LINE
  5
1525F
  8
AM_0
 10
199.7560307663916
 20
339.99196703054707
 30
0.0
 11
219.75603115382179
 21
340.34108813105968
 31
0.0
  0
LINE
  5
15260
  8
AM_0
 10
230.7944741614028
 20
340.35382748826618
 30
0.0
 11
230.8016517477692
 21
340.14828830711917
 31
0.0
  0
ARC
  5
15261
  8
AM_0
 10
229.7261755784491
 20
340.30944583919018
 30
0.0
 40
1.0
 50
97.853178088805777
 51
177.99999999999619
1001
GENIUS_GENODEF_13
1002
{
1000
HIER
1070
     0
1002
}
1002
{
1000
MANEDIT
1070
     0
1002
}
1002
{
1000
NOSEL
1070
     0
1002
}
1002
{
1000
BEHIND
1070
     0
1002
}
1002
{
1000
REACTOR
1002
}
1001
GENIUS_GENOBJ-N-FIL_13
1002
{
1000
OWNER
1000
GEN
1002
}
  0
ARC
  5
15262
  8
AM_0
 10
244.75603210749611
 20
231.3410861529205
 30
0.0
 40
111.0
 50
97.816947831694947
 51
97.853178088813095
  0
LINE
  5
15263
  8
AM_0
 10
228.72678475142999
 20
340.34434533589268
 30
0.0
 11
228.721206398248
 21
340.18460220127241
 31
0.0
  0
ARC
  5
15264
  8
AM_0
 10
229.79508333438369
 20
340.31892799156373
 30
0.0
 40
1.0
 50
2.000000000003725
 51
97.816947831694947
1001
GENIUS_GENODEF_13
1002
{
1000
HIER
1070
     0
1002
}
1002
{
1000
MANEDIT
1070
     0
1002
}
1002
{
1000
NOSEL
1070
     0
1002
}
1002
{
1000
BEHIND
1070
     0
1002
}
1002
{
1000
REACTOR
1002
}
1001
GENIUS_GENOBJ-N-FIL_13
1002
{
1000
OWNER
1000
GEN
1002
}
  0
ARC
  5
15265
  8
AM_0
 10
285.75603210749608
 20
321.34108615292052
 30
0.0
 40
5.0
 50
0.0
 51
36.869872032632017
1001
GENIUS_GENOBJ-N-CEN_13
1002
{
1000
OWNER
1000
GEN
1002
}
1001
GENIUS_GENODEF_13
1002
{
1000
HIER
1070
     0
1002
}
1002
{
1000
MANEDIT
1070
     0
1002
}
1002
{
1000
NOSEL
1070
     0
1002
}
1002
{
1000
BEHIND
1070
     0
1002
}
1002
{
1000
REACTOR
1002
}
1001
GENIUS_GENOBJ-N-FIL_13
1002
{
1000
OWNER
1000
GEN
1002
}
  0
LINE
  5
15266
  8
AM_0
 10
289.75603344860059
 20
317.84108746050742
 30
0.0
 11
293.75603356780988
 21
317.84108746050742
 31
0.0
  0
LINE
  5
15267
  8
AM_0
 10
290.75603210749608
 20
321.34108615292052
 30
0.0
 11
290.75603210749608
 21
317.84108746050742
 31
0.0
  0
ARC
  5
15268
  8
AM_0
 10
239.7233654556166
 20
341.22589978233469
 30
0.0
 40
1.0
 50
92.622284087953005
 51
177.99999999999619
1001
GENIUS_GENODEF_13
1002
{
1000
HIER
1070
     0
1002
}
1002
{
1000
MANEDIT
1070
     0
1002
}
1002
{
1000
NOSEL
1070
     0
1002
}
1002
{
1000
BEHIND
1070
     0
1002
}
1002
{
1000
REACTOR
1002
}
1001
GENIUS_GENOBJ-N-FIL_13
1002
{
1000
OWNER
1000
GEN
1002
}
  0
LINE
  5
15269
  8
AM_0
 10
238.72397462859769
 20
341.2607992790372
 30
0.0
 11
238.68032254533949
 21
340.01076716652432
 31
0.0
  0
ARC
  5
1526A
  8
AM_0
 10
239.79173948973289
 20
341.22900996079483
 30
0.0
 40
1.0
 50
2.000000000003725
 51
92.586633228773294
1001
GENIUS_GENODEF_13
1002
{
1000
HIER
1070
     0
1002
}
1002
{
1000
MANEDIT
1070
     0
1002
}
1002
{
1000
NOSEL
1070
     0
1002
}
1002
{
1000
BEHIND
1070
     0
1002
}
1002
{
1000
REACTOR
1002
}
1001
GENIUS_GENOBJ-N-FIL_13
1002
{
1000
OWNER
1000
GEN
1002
}
  0
ARC
  5
1526B
  8
AM_0
 10
244.75603210749611
 20
231.3410861529205
 30
0.0
 40
111.0
 50
92.586633228773294
 51
92.622284087953005
  0
LINE
  5
1526C
  8
AM_0
 10
240.79113031675209
 20
341.26390945749762
 30
0.0
 11
240.8362051007563
 21
339.9731365260742
 31
0.0
  0
ARC
  5
1526D
  8
AM_0
 10
249.78869875937559
 20
341.22589978233469
 30
0.0
 40
1.0
 50
2.000000000003725
 51
87.37771591204698
1001
GENIUS_GENODEF_13
1002
{
1000
HIER
1070
     0
1002
}
1002
{
1000
MANEDIT
1070
     0
1002
}
1002
{
1000
NOSEL
1070
     0
1002
}
1002
{
1000
BEHIND
1070
     0
1002
}
1002
{
1000
REACTOR
1002
}
1001
GENIUS_GENOBJ-N-FIL_13
1002
{
1000
OWNER
1000
GEN
1002
}
  0
ARC
  5
1526E
  8
AM_0
 10
249.72032472525959
 20
341.22900996079483
 30
0.0
 40
1.0
 50
87.413366771226706
 51
177.99999999999619
1001
GENIUS_GENODEF_13
1002
{
1000
HIER
1070
     0
1002
}
1002
{
1000
MANEDIT
1070
     0
1002
}
1002
{
1000
NOSEL
1070
     0
1002
}
1002
{
1000
BEHIND
1070
     0
1002
}
1002
{
1000
REACTOR
1002
}
1001
GENIUS_GENOBJ-N-FIL_13
1002
{
1000
OWNER
1000
GEN
1002
}
  0
ARC
  5
1526F
  8
AM_0
 10
244.75603210749611
 20
231.3410861529205
 30
0.0
 40
111.0
 50
87.37771591204698
 51
87.413366771226706
  0
LINE
  5
15270
  8
AM_0
 10
248.7209338982407
 20
341.26390945749762
 30
0.0
 11
248.67108346330949
 21
339.83637977655081
 31
0.0
  0
LINE
  5
15271
  8
AM_0
 10
250.78808958639479
 20
341.2607992790372
 30
0.0
 11
250.83915293079971
 21
339.79853641518719
 31
0.0
  0
ARC
  5
15272
  8
AM_0
 10
259.71698088060879
 20
340.31892799156361
 30
0.0
 40
1.0
 50
82.183052168305053
 51
177.99999999999619
1001
GENIUS_GENODEF_13
1002
{
1000
HIER
1070
     0
1002
}
1002
{
1000
MANEDIT
1070
     0
1002
}
1002
{
1000
NOSEL
1070
     0
1002
}
1002
{
1000
BEHIND
1070
     0
1002
}
1002
{
1000
REACTOR
1002
}
1001
GENIUS_GENOBJ-N-FIL_13
1002
{
1000
OWNER
1000
GEN
1002
}
  0
ARC
  5
15273
  8
AM_0
 10
259.7858886365434
 20
340.30944583919012
 30
0.0
 40
1.0
 50
2.000000000003725
 51
82.146821911194223
1001
GENIUS_GENODEF_13
1002
{
1000
HIER
1070
     0
1002
}
1002
{
1000
MANEDIT
1070
     0
1002
}
1002
{
1000
NOSEL
1070
     0
1002
}
1002
{
1000
BEHIND
1070
     0
1002
}
1002
{
1000
REACTOR
1002
}
1001
GENIUS_GENOBJ-N-FIL_13
1002
{
1000
OWNER
1000
GEN
1002
}
  0
ARC
  5
15274
  8
AM_0
 10
244.75603210749611
 20
231.3410861529205
 30
0.0
 40
111.0
 50
82.146821911186876
 51
82.183052168305053
  0
LINE
  5
15275
  8
AM_0
 10
260.78527946356229
 20
340.34434533589268
 30
0.0
 11
260.81041738909641
 21
339.62448933329858
 31
0.0
  0
LINE
  5
15276
  8
AM_0
 10
258.7175900535899
 20
340.35382748826618
 30
0.0
 11
258.69341139820187
 21
339.66144138853667
 31
0.0
  0
LINE
  5
15278
  8
0
 10
136.75603229760671
 20
295.3410862944786
 30
0.0
 11
168.7560322547651
 21
295.3410862944786
 31
0.0
  0
LINE
  5
15279
  8
0
 10
136.75603229760671
 20
292.3410862944786
 30
0.0
 11
176.75603229760691
 21
292.3410862884657
 31
0.0
  0
LINE
  5
1527B
  8
0
 10
176.75603229760691
 20
295.3410863097468
 30
0.0
 11
191.756030527973
 21
300.34088693896092
 31
0.0
  0
ARC
  5
1527C
  8
AM_0
 10
186.64096190665981
 20
305.36830605186083
 30
0.0
 40
1.0
 50
91.999999999997215
 51
166.84888173934431
1001
GENIUS_GENODEF_13
1002
{
1000
HIER
1070
     0
1002
}
1002
{
1000
MANEDIT
1070
     0
1002
}
1002
{
1000
NOSEL
1070
     0
1002
}
1002
{
1000
BEHIND
1070
     0
1002
}
1002
{
1000
REACTOR
1002
}
1001
GENIUS_GENOBJ-N-FIL_13
1002
{
1000
OWNER
1000
GEN
1002
}
  0
ARC
  5
1527D
  8
AM_0
 10
186.62462717233731
 20
305.29829105689532
 30
0.0
 40
1.0
 50
166.8863298567079
 51
267.99999999999619
1001
GENIUS_GENODEF_13
1002
{
1000
HIER
1070
     0
1002
}
1002
{
1000
MANEDIT
1070
     0
1002
}
1002
{
1000
NOSEL
1070
     0
1002
}
1002
{
1000
BEHIND
1070
     0
1002
}
1002
{
1000
REACTOR
1002
}
1001
GENIUS_GENOBJ-N-FIL_13
1002
{
1000
OWNER
1000
GEN
1002
}
  0
ARC
  5
1527E
  8
AM_0
 10
293.75603210749608
 20
280.34108615292052
 30
0.0
 40
111.0
 50
166.84888173934431
 51
166.8863298567079
  0
LINE
  5
1527F
  8
0
 10
168.7560322547651
 20
295.3410862944786
 30
0.0
 11
168.75603225431399
 21
292.3410862896684
 31
0.0
  0
ARC
  5
15280
  8
AM_0
 10
189.4569763270288
 20
315.29401111354281
 30
0.0
 40
1.0
 50
161.47285768553169
 51
268.0000000000029
1001
GENIUS_GENODEF_13
1002
{
1000
HIER
1070
     0
1002
}
1002
{
1000
MANEDIT
1070
     0
1002
}
1002
{
1000
NOSEL
1070
     0
1002
}
1002
{
1000
BEHIND
1070
     0
1002
}
1002
{
1000
REACTOR
1002
}
1001
GENIUS_GENOBJ-N-FIL_13
1002
{
1000
OWNER
1000
GEN
1002
}
  0
ARC
  5
15281
  8
AM_0
 10
189.48106023136859
 20
315.36579514861018
 30
0.0
 40
1.0
 50
92.000000000003695
 51
161.43341919810311
1001
GENIUS_GENODEF_13
1002
{
1000
HIER
1070
     0
1002
}
1002
{
1000
MANEDIT
1070
     0
1002
}
1002
{
1000
NOSEL
1070
     0
1002
}
1002
{
1000
BEHIND
1070
     0
1002
}
1002
{
1000
REACTOR
1002
}
1001
GENIUS_GENOBJ-N-FIL_13
1002
{
1000
OWNER
1000
GEN
1002
}
  0
ARC
  5
15282
  8
AM_0
 10
293.75603210749608
 20
280.34108615292052
 30
0.0
 40
111.0
 50
161.43341919810311
 51
161.47285768553169
  0
LINE
  5
1584A
  8
AM_0
 10
310.7653721074962
 20
310.34108634292022
 30
0.0
 11
293.75603356780988
 21
310.34108634292022
 31
0.0
  0
LINE
  5
1584B
  8
AM_0
 10
310.7653721074962
 20
250.3410863429209
 30
0.0
 11
293.75603356780988
 21
250.3410863429209
 31
0.0
  0
LINE
  5
1584C
  8
AM_0
 10
334.26513710749617
 20
251.3410863429209
 30
0.0
 11
334.26513710749617
 21
309.34108634292022
 31
0.0
  0
LINE
  5
1584D
  8
AM_0
 10
337.26510710749608
 20
262.5410963429207
 30
0.0
 11
337.26510710749608
 21
298.15108634292022
 31
0.0
  0
LINE
  5
1584E
  8
AM_0
 10
313.765342107496
 20
313.84108634292022
 30
0.0
 11
313.765342107496
 21
246.8410863429209
 31
0.0
  0
LINE
  5
1584F
  8
AM_0
 10
317.26530710749603
 20
311.84108634292022
 30
0.0
 11
317.26530710749603
 21
248.8410863429209
 31
0.0
  0
LINE
  5
15850
  8
AM_0
 10
310.7653721074962
 20
311.84108634292022
 30
0.0
 11
310.7653721074962
 21
248.8410863429209
 31
0.0
  0
LINE
  5
15851
  8
AM_0
 10
328.76519210749598
 20
248.8410863429209
 30
0.0
 11
317.26530710749603
 21
248.8410863429209
 31
0.0
  0
LINE
  5
15852
  8
AM_0
 10
333.26514710749598
 20
250.3410863429209
 30
0.0
 11
317.26530710749603
 21
250.3410863429209
 31
0.0
  0
LINE
  5
15853
  8
AM_0
 10
313.765342107496
 20
246.8410863429209
 30
0.0
 11
328.76519210749598
 21
246.8410863429209
 31
0.0
  0
LINE
  5
15854
  8
AM_0
 10
317.26530710749603
 20
248.8410863429209
 30
0.0
 11
310.7653721074962
 21
248.8410863429209
 31
0.0
  0
LINE
  5
15855
  8
AM_0
 10
328.76519210749598
 20
248.8410863429209
 30
0.0
 11
328.76519210749598
 21
246.8410863429209
 31
0.0
  0
LINE
  5
15856
  8
AM_0
 10
329.76518210749617
 20
249.8410863429209
 30
0.0
 11
329.76518210749617
 21
250.3410863429209
 31
0.0
  0
POLYLINE
  5
15857
  8
AM_0
 10
334.26513710749595
 20
251.34108651745385
 30
0.0
 66
     1
 70
     8
  0
VERTEX
  8
AM_0
  5
17772
 10
334.265
 20
251.341
 30
0.000000
  70
    32
  0
VERTEX
  8
AM_0
  5
17773
 10
334.265
 20
251.329
 30
0.000000
  70
    32
  0
VERTEX
  8
AM_0
  5
17774
 10
334.265
 20
251.317
 30
0.000000
  70
    32
  0
VERTEX
  8
AM_0
  5
17775
 10
334.264
 20
251.304
 30
0.000000
  70
    32
  0
VERTEX
  8
AM_0
  5
17776
 10
334.264
 20
251.292
 30
0.000000
  70
    32
  0
VERTEX
  8
AM_0
  5
17777
 10
334.263
 20
251.280
 30
0.000000
  70
    32
  0
VERTEX
  8
AM_0
  5
17778
 10
334.262
 20
251.268
 30
0.000000
  70
    32
  0
VERTEX
  8
AM_0
  5
17779
 10
334.261
 20
251.255
 30
0.000000
  70
    32
  0
VERTEX
  8
AM_0
  5
1777A
 10
334.260
 20
251.243
 30
0.000000
  70
    32
  0
VERTEX
  8
AM_0
  5
1777B
 10
334.259
 20
251.231
 30
0.000000
  70
    32
  0
VERTEX
  8
AM_0
  5
1777C
 10
334.258
 20
251.219
 30
0.000000
  70
    32
  0
VERTEX
  8
AM_0
  5
1777D
 10
334.256
 20
251.207
 30
0.000000
  70
    32
  0
VERTEX
  8
AM_0
  5
1777E
 10
334.254
 20
251.194
 30
0.000000
  70
    32
  0
VERTEX
  8
AM_0
  5
1777F
 10
334.252
 20
251.182
 30
0.000000
  70
    32
  0
VERTEX
  8
AM_0
  5
17780
 10
334.250
 20
251.170
 30
0.000000
  70
    32
  0
VERTEX
  8
AM_0
  5
17781
 10
334.248
 20
251.158
 30
0.000000
  70
    32
  0
VERTEX
  8
AM_0
  5
17782
 10
334.246
 20
251.146
 30
0.000000
  70
    32
  0
VERTEX
  8
AM_0
  5
17783
 10
334.243
 20
251.134
 30
0.000000
  70
    32
  0
VERTEX
  8
AM_0
  5
17784
 10
334.241
 20
251.122
 30
0.000000
  70
    32
  0
VERTEX
  8
AM_0
  5
17785
 10
334.238
 20
251.110
 30
0.000000
  70
    32
  0
VERTEX
  8
AM_0
  5
17786
 10
334.235
 20
251.098
 30
0.000000
  70
    32
  0
VERTEX
  8
AM_0
  5
17787
 10
334.232
 20
251.086
 30
0.000000
  70
    32
  0
VERTEX
  8
AM_0
  5
17788
 10
334.229
 20
251.074
 30
0.000000
  70
    32
  0
VERTEX
  8
AM_0
  5
17789
 10
334.226
 20
251.063
 30
0.000000
  70
    32
  0
VERTEX
  8
AM_0
  5
1778A
 10
334.222
 20
251.051
 30
0.000000
  70
    32
  0
VERTEX
  8
AM_0
  5
1778B
 10
334.218
 20
251.039
 30
0.000000
  70
    32
  0
VERTEX
  8
AM_0
  5
1778C
 10
334.215
 20
251.027
 30
0.000000
  70
    32
  0
VERTEX
  8
AM_0
  5
1778D
 10
334.211
 20
251.016
 30
0.000000
  70
    32
  0
VERTEX
  8
AM_0
  5
1778E
 10
334.207
 20
251.004
 30
0.000000
  70
    32
  0
VERTEX
  8
AM_0
  5
1778F
 10
334.202
 20
250.993
 30
0.000000
  70
    32
  0
VERTEX
  8
AM_0
  5
17790
 10
334.198
 20
250.981
 30
0.000000
  70
    32
  0
VERTEX
  8
AM_0
  5
17791
 10
334.194
 20
250.970
 30
0.000000
  70
    32
  0
VERTEX
  8
AM_0
  5
17792
 10
334.189
 20
250.958
 30
0.000000
  70
    32
  0
VERTEX
  8
AM_0
  5
17793
 10
334.184
 20
250.947
 30
0.000000
  70
    32
  0
VERTEX
  8
AM_0
  5
17794
 10
334.179
 20
250.936
 30
0.000000
  70
    32
  0
VERTEX
  8
AM_0
  5
17795
 10
334.174
 20
250.925
 30
0.000000
  70
    32
  0
VERTEX
  8
AM_0
  5
17796
 10
334.169
 20
250.914
 30
0.000000
  70
    32
  0
VERTEX
  8
AM_0
  5
17797
 10
334.164
 20
250.902
 30
0.000000
  70
    32
  0
VERTEX
  8
AM_0
  5
17798
 10
334.158
 20
250.891
 30
0.000000
  70
    32
  0
VERTEX
  8
AM_0
  5
17799
 10
334.153
 20
250.881
 30
0.000000
  70
    32
  0
VERTEX
  8
AM_0
  5
1779A
 10
334.147
 20
250.870
 30
0.000000
  70
    32
  0
VERTEX
  8
AM_0
  5
1779B
 10
334.141
 20
250.859
 30
0.000000
  70
    32
  0
VERTEX
  8
AM_0
  5
1779C
 10
334.135
 20
250.848
 30
0.000000
  70
    32
  0
VERTEX
  8
AM_0
  5
1779D
 10
334.129
 20
250.838
 30
0.000000
  70
    32
  0
VERTEX
  8
AM_0
  5
1779E
 10
334.123
 20
250.827
 30
0.000000
  70
    32
  0
VERTEX
  8
AM_0
  5
1779F
 10
334.116
 20
250.816
 30
0.000000
  70
    32
  0
VERTEX
  8
AM_0
  5
177A0
 10
334.110
 20
250.806
 30
0.000000
  70
    32
  0
VERTEX
  8
AM_0
  5
177A1
 10
334.103
 20
250.796
 30
0.000000
  70
    32
  0
VERTEX
  8
AM_0
  5
177A2
 10
334.097
 20
250.786
 30
0.000000
  70
    32
  0
VERTEX
  8
AM_0
  5
177A3
 10
334.090
 20
250.775
 30
0.000000
  70
    32
  0
VERTEX
  8
AM_0
  5
177A4
 10
334.083
 20
250.765
 30
0.000000
  70
    32
  0
VERTEX
  8
AM_0
  5
177A5
 10
334.076
 20
250.755
 30
0.000000
  70
    32
  0
VERTEX
  8
AM_0
  5
177A6
 10
334.068
 20
250.745
 30
0.000000
  70
    32
  0
VERTEX
  8
AM_0
  5
177A7
 10
334.061
 20
250.736
 30
0.000000
  70
    32
  0
VERTEX
  8
AM_0
  5
177A8
 10
334.053
 20
250.726
 30
0.000000
  70
    32
  0
VERTEX
  8
AM_0
  5
177A9
 10
334.046
 20
250.716
 30
0.000000
  70
    32
  0
VERTEX
  8
AM_0
  5
177AA
 10
334.038
 20
250.707
 30
0.000000
  70
    32
  0
VERTEX
  8
AM_0
  5
177AB
 10
334.030
 20
250.697
 30
0.000000
  70
    32
  0
VERTEX
  8
AM_0
  5
177AC
 10
334.022
 20
250.688
 30
0.000000
  70
    32
  0
VERTEX
  8
AM_0
  5
177AD
 10
334.014
 20
250.679
 30
0.000000
  70
    32
  0
VERTEX
  8
AM_0
  5
177AE
 10
334.006
 20
250.670
 30
0.000000
  70
    32
  0
VERTEX
  8
AM_0
  5
177AF
 10
333.998
 20
250.660
 30
0.000000
  70
    32
  0
VERTEX
  8
AM_0
  5
177B0
 10
333.989
 20
250.652
 30
0.000000
  70
    32
  0
VERTEX
  8
AM_0
  5
177B1
 10
333.981
 20
250.643
 30
0.000000
  70
    32
  0
VERTEX
  8
AM_0
  5
177B2
 10
333.972
 20
250.634
 30
0.000000
  70
    32
  0
VERTEX
  8
AM_0
  5
177B3
 10
333.964
 20
250.625
 30
0.000000
  70
    32
  0
VERTEX
  8
AM_0
  5
177B4
 10
333.955
 20
250.617
 30
0.000000
  70
    32
  0
VERTEX
  8
AM_0
  5
177B5
 10
333.946
 20
250.608
 30
0.000000
  70
    32
  0
VERTEX
  8
AM_0
  5
177B6
 10
333.937
 20
250.600
 30
0.000000
  70
    32
  0
VERTEX
  8
AM_0
  5
177B7
 10
333.928
 20
250.592
 30
0.000000
  70
    32
  0
VERTEX
  8
AM_0
  5
177B8
 10
333.918
 20
250.584
 30
0.000000
  70
    32
  0
VERTEX
  8
AM_0
  5
177B9
 10
333.909
 20
250.576
 30
0.000000
  70
    32
  0
VERTEX
  8
AM_0
  5
177BA
 10
333.900
 20
250.568
 30
0.000000
  70
    32
  0
VERTEX
  8
AM_0
  5
177BB
 10
333.890
 20
250.560
 30
0.000000
  70
    32
  0
VERTEX
  8
AM_0
  5
177BC
 10
333.880
 20
250.553
 30
0.000000
  70
    32
  0
VERTEX
  8
AM_0
  5
177BD
 10
333.871
 20
250.545
 30
0.000000
  70
    32
  0
VERTEX
  8
AM_0
  5
177BE
 10
333.861
 20
250.538
 30
0.000000
  70
    32
  0
VERTEX
  8
AM_0
  5
177BF
 10
333.851
 20
250.531
 30
0.000000
  70
    32
  0
VERTEX
  8
AM_0
  5
177C0
 10
333.841
 20
250.524
 30
0.000000
  70
    32
  0
VERTEX
  8
AM_0
  5
177C1
 10
333.831
 20
250.516
 30
0.000000
  70
    32
  0
VERTEX
  8
AM_0
  5
177C2
 10
333.821
 20
250.510
 30
0.000000
  70
    32
  0
VERTEX
  8
AM_0
  5
177C3
 10
333.810
 20
250.503
 30
0.000000
  70
    32
  0
VERTEX
  8
AM_0
  5
177C4
 10
333.800
 20
250.496
 30
0.000000
  70
    32
  0
VERTEX
  8
AM_0
  5
177C5
 10
333.790
 20
250.490
 30
0.000000
  70
    32
  0
VERTEX
  8
AM_0
  5
177C6
 10
333.779
 20
250.483
 30
0.000000
  70
    32
  0
VERTEX
  8
AM_0
  5
177C7
 10
333.769
 20
250.477
 30
0.000000
  70
    32
  0
VERTEX
  8
AM_0
  5
177C8
 10
333.758
 20
250.471
 30
0.000000
  70
    32
  0
VERTEX
  8
AM_0
  5
177C9
 10
333.747
 20
250.465
 30
0.000000
  70
    32
  0
VERTEX
  8
AM_0
  5
177CA
 10
333.737
 20
250.459
 30
0.000000
  70
    32
  0
VERTEX
  8
AM_0
  5
177CB
 10
333.726
 20
250.453
 30
0.000000
  70
    32
  0
VERTEX
  8
AM_0
  5
177CC
 10
333.715
 20
250.448
 30
0.000000
  70
    32
  0
VERTEX
  8
AM_0
  5
177CD
 10
333.704
 20
250.442
 30
0.000000
  70
    32
  0
VERTEX
  8
AM_0
  5
177CE
 10
333.693
 20
250.437
 30
0.000000
  70
    32
  0
VERTEX
  8
AM_0
  5
177CF
 10
333.682
 20
250.432
 30
0.000000
  70
    32
  0
VERTEX
  8
AM_0
  5
177D0
 10
333.670
 20
250.427
 30
0.000000
  70
    32
  0
VERTEX
  8
AM_0
  5
177D1
 10
333.659
 20
250.422
 30
0.000000
  70
    32
  0
VERTEX
  8
AM_0
  5
177D2
 10
333.648
 20
250.417
 30
0.000000
  70
    32
  0
VERTEX
  8
AM_0
  5
177D3
 10
333.636
 20
250.413
 30
0.000000
  70
    32
  0
VERTEX
  8
AM_0
  5
177D4
 10
333.625
 20
250.408
 30
0.000000
  70
    32
  0
VERTEX
  8
AM_0
  5
177D5
 10
333.614
 20
250.404
 30
0.000000
  70
    32
  0
VERTEX
  8
AM_0
  5
177D6
 10
333.602
 20
250.400
 30
0.000000
  70
    32
  0
VERTEX
  8
AM_0
  5
177D7
 10
333.590
 20
250.395
 30
0.000000
  70
    32
  0
VERTEX
  8
AM_0
  5
177D8
 10
333.579
 20
250.392
 30
0.000000
  70
    32
  0
VERTEX
  8
AM_0
  5
177D9
 10
333.567
 20
250.388
 30
0.000000
  70
    32
  0
VERTEX
  8
AM_0
  5
177DA
 10
333.555
 20
250.384
 30
0.000000
  70
    32
  0
VERTEX
  8
AM_0
  5
177DB
 10
333.544
 20
250.381
 30
0.000000
  70
    32
  0
VERTEX
  8
AM_0
  5
177DC
 10
333.532
 20
250.377
 30
0.000000
  70
    32
  0
VERTEX
  8
AM_0
  5
177DD
 10
333.520
 20
250.374
 30
0.000000
  70
    32
  0
VERTEX
  8
AM_0
  5
177DE
 10
333.508
 20
250.371
 30
0.000000
  70
    32
  0
VERTEX
  8
AM_0
  5
177DF
 10
333.496
 20
250.368
 30
0.000000
  70
    32
  0
VERTEX
  8
AM_0
  5
177E0
 10
333.484
 20
250.365
 30
0.000000
  70
    32
  0
VERTEX
  8
AM_0
  5
177E1
 10
333.472
 20
250.363
 30
0.000000
  70
    32
  0
VERTEX
  8
AM_0
  5
177E2
 10
333.460
 20
250.360
 30
0.000000
  70
    32
  0
VERTEX
  8
AM_0
  5
177E3
 10
333.448
 20
250.358
 30
0.000000
  70
    32
  0
VERTEX
  8
AM_0
  5
177E4
 10
333.436
 20
250.356
 30
0.000000
  70
    32
  0
VERTEX
  8
AM_0
  5
177E5
 10
333.424
 20
250.354
 30
0.000000
  70
    32
  0
VERTEX
  8
AM_0
  5
177E6
 10
333.412
 20
250.352
 30
0.000000
  70
    32
  0
VERTEX
  8
AM_0
  5
177E7
 10
333.400
 20
250.350
 30
0.000000
  70
    32
  0
VERTEX
  8
AM_0
  5
177E8
 10
333.388
 20
250.349
 30
0.000000
  70
    32
  0
VERTEX
  8
AM_0
  5
177E9
 10
333.375
 20
250.347
 30
0.000000
  70
    32
  0
VERTEX
  8
AM_0
  5
177EA
 10
333.363
 20
250.346
 30
0.000000
  70
    32
  0
VERTEX
  8
AM_0
  5
177EB
 10
333.351
 20
250.345
 30
0.000000
  70
    32
  0
VERTEX
  8
AM_0
  5
177EC
 10
333.339
 20
250.344
 30
0.000000
  70
    32
  0
VERTEX
  8
AM_0
  5
177ED
 10
333.326
 20
250.343
 30
0.000000
  70
    32
  0
VERTEX
  8
AM_0
  5
177EE
 10
333.314
 20
250.342
 30
0.000000
  70
    32
  0
VERTEX
  8
AM_0
  5
177EF
 10
333.302
 20
250.342
 30
0.000000
  70
    32
  0
VERTEX
  8
AM_0
  5
177F0
 10
333.290
 20
250.341
 30
0.000000
  70
    32
  0
VERTEX
  8
AM_0
  5
177F1
 10
333.277
 20
250.341
 30
0.000000
  70
    32
  0
VERTEX
  8
AM_0
  5
177F2
 10
333.265
 20
250.341
 30
0.000000
  70
    32
  0
SEQEND
  8
AM_0
  5
177F3
  0
POLYLINE
  5
15858
  8
AM_0
 10
329.765182107496
 20
249.84108651745404
 30
0.0
 66
     1
 70
     8
  0
VERTEX
  8
AM_0
  5
177F4
 10
329.765
 20
249.841
 30
0.000000
  70
    32
  0
VERTEX
  8
AM_0
  5
177F5
 10
329.765
 20
249.829
 30
0.000000
  70
    32
  0
VERTEX
  8
AM_0
  5
177F6
 10
329.765
 20
249.817
 30
0.000000
  70
    32
  0
VERTEX
  8
AM_0
  5
177F7
 10
329.765
 20
249.804
 30
0.000000
  70
    32
  0
VERTEX
  8
AM_0
  5
177F8
 10
329.764
 20
249.792
 30
0.000000
  70
    32
  0
VERTEX
  8
AM_0
  5
177F9
 10
329.763
 20
249.780
 30
0.000000
  70
    32
  0
VERTEX
  8
AM_0
  5
177FA
 10
329.762
 20
249.768
 30
0.000000
  70
    32
  0
VERTEX
  8
AM_0
  5
177FB
 10
329.761
 20
249.755
 30
0.000000
  70
    32
  0
VERTEX
  8
AM_0
  5
177FC
 10
329.760
 20
249.743
 30
0.000000
  70
    32
  0
VERTEX
  8
AM_0
  5
177FD
 10
329.759
 20
249.731
 30
0.000000
  70
    32
  0
VERTEX
  8
AM_0
  5
177FE
 10
329.758
 20
249.719
 30
0.000000
  70
    32
  0
VERTEX
  8
AM_0
  5
177FF
 10
329.756
 20
249.707
 30
0.000000
  70
    32
  0
VERTEX
  8
AM_0
  5
17800
 10
329.754
 20
249.694
 30
0.000000
  70
    32
  0
VERTEX
  8
AM_0
  5
17801
 10
329.752
 20
249.682
 30
0.000000
  70
    32
  0
VERTEX
  8
AM_0
  5
17802
 10
329.750
 20
249.670
 30
0.000000
  70
    32
  0
VERTEX
  8
AM_0
  5
17803
 10
329.748
 20
249.658
 30
0.000000
  70
    32
  0
VERTEX
  8
AM_0
  5
17804
 10
329.746
 20
249.646
 30
0.000000
  70
    32
  0
VERTEX
  8
AM_0
  5
17805
 10
329.743
 20
249.634
 30
0.000000
  70
    32
  0
VERTEX
  8
AM_0
  5
17806
 10
329.741
 20
249.622
 30
0.000000
  70
    32
  0
VERTEX
  8
AM_0
  5
17807
 10
329.738
 20
249.610
 30
0.000000
  70
    32
  0
VERTEX
  8
AM_0
  5
17808
 10
329.735
 20
249.598
 30
0.000000
  70
    32
  0
VERTEX
  8
AM_0
  5
17809
 10
329.732
 20
249.586
 30
0.000000
  70
    32
  0
VERTEX
  8
AM_0
  5
1780A
 10
329.729
 20
249.574
 30
0.000000
  70
    32
  0
VERTEX
  8
AM_0
  5
1780B
 10
329.726
 20
249.563
 30
0.000000
  70
    32
  0
VERTEX
  8
AM_0
  5
1780C
 10
329.722
 20
249.551
 30
0.000000
  70
    32
  0
VERTEX
  8
AM_0
  5
1780D
 10
329.718
 20
249.539
 30
0.000000
  70
    32
  0
VERTEX
  8
AM_0
  5
1780E
 10
329.715
 20
249.527
 30
0.000000
  70
    32
  0
VERTEX
  8
AM_0
  5
1780F
 10
329.711
 20
249.516
 30
0.000000
  70
    32
  0
VERTEX
  8
AM_0
  5
17810
 10
329.707
 20
249.504
 30
0.000000
  70
    32
  0
VERTEX
  8
AM_0
  5
17811
 10
329.703
 20
249.493
 30
0.000000
  70
    32
  0
VERTEX
  8
AM_0
  5
17812
 10
329.698
 20
249.481
 30
0.000000
  70
    32
  0
VERTEX
  8
AM_0
  5
17813
 10
329.694
 20
249.470
 30
0.000000
  70
    32
  0
VERTEX
  8
AM_0
  5
17814
 10
329.689
 20
249.458
 30
0.000000
  70
    32
  0
VERTEX
  8
AM_0
  5
17815
 10
329.684
 20
249.447
 30
0.000000
  70
    32
  0
VERTEX
  8
AM_0
  5
17816
 10
329.679
 20
249.436
 30
0.000000
  70
    32
  0
VERTEX
  8
AM_0
  5
17817
 10
329.674
 20
249.425
 30
0.000000
  70
    32
  0
VERTEX
  8
AM_0
  5
17818
 10
329.669
 20
249.414
 30
0.000000
  70
    32
  0
VERTEX
  8
AM_0
  5
17819
 10
329.664
 20
249.402
 30
0.000000
  70
    32
  0
VERTEX
  8
AM_0
  5
1781A
 10
329.658
 20
249.391
 30
0.000000
  70
    32
  0
VERTEX
  8
AM_0
  5
1781B
 10
329.653
 20
249.381
 30
0.000000
  70
    32
  0
VERTEX
  8
AM_0
  5
1781C
 10
329.647
 20
249.370
 30
0.000000
  70
    32
  0
VERTEX
  8
AM_0
  5
1781D
 10
329.641
 20
249.359
 30
0.000000
  70
    32
  0
VERTEX
  8
AM_0
  5
1781E
 10
329.635
 20
249.348
 30
0.000000
  70
    32
  0
VERTEX
  8
AM_0
  5
1781F
 10
329.629
 20
249.338
 30
0.000000
  70
    32
  0
VERTEX
  8
AM_0
  5
17820
 10
329.623
 20
249.327
 30
0.000000
  70
    32
  0
VERTEX
  8
AM_0
  5
17821
 10
329.617
 20
249.316
 30
0.000000
  70
    32
  0
VERTEX
  8
AM_0
  5
17822
 10
329.610
 20
249.306
 30
0.000000
  70
    32
  0
VERTEX
  8
AM_0
  5
17823
 10
329.603
 20
249.296
 30
0.000000
  70
    32
  0
VERTEX
  8
AM_0
  5
17824
 10
329.597
 20
249.286
 30
0.000000
  70
    32
  0
VERTEX
  8
AM_0
  5
17825
 10
329.590
 20
249.275
 30
0.000000
  70
    32
  0
VERTEX
  8
AM_0
  5
17826
 10
329.583
 20
249.265
 30
0.000000
  70
    32
  0
VERTEX
  8
AM_0
  5
17827
 10
329.576
 20
249.255
 30
0.000000
  70
    32
  0
VERTEX
  8
AM_0
  5
17828
 10
329.568
 20
249.245
 30
0.000000
  70
    32
  0
VERTEX
  8
AM_0
  5
17829
 10
329.561
 20
249.236
 30
0.000000
  70
    32
  0
VERTEX
  8
AM_0
  5
1782A
 10
329.554
 20
249.226
 30
0.000000
  70
    32
  0
VERTEX
  8
AM_0
  5
1782B
 10
329.546
 20
249.216
 30
0.000000
  70
    32
  0
VERTEX
  8
AM_0
  5
1782C
 10
329.538
 20
249.207
 30
0.000000
  70
    32
  0
VERTEX
  8
AM_0
  5
1782D
 10
329.530
 20
249.197
 30
0.000000
  70
    32
  0
VERTEX
  8
AM_0
  5
1782E
 10
329.522
 20
249.188
 30
0.000000
  70
    32
  0
VERTEX
  8
AM_0
  5
1782F
 10
329.514
 20
249.179
 30
0.000000
  70
    32
  0
VERTEX
  8
AM_0
  5
17830
 10
329.506
 20
249.170
 30
0.000000
  70
    32
  0
VERTEX
  8
AM_0
  5
17831
 10
329.498
 20
249.160
 30
0.000000
  70
    32
  0
VERTEX
  8
AM_0
  5
17832
 10
329.489
 20
249.152
 30
0.000000
  70
    32
  0
VERTEX
  8
AM_0
  5
17833
 10
329.481
 20
249.143
 30
0.000000
  70
    32
  0
VERTEX
  8
AM_0
  5
17834
 10
329.472
 20
249.134
 30
0.000000
  70
    32
  0
VERTEX
  8
AM_0
  5
17835
 10
329.464
 20
249.125
 30
0.000000
  70
    32
  0
VERTEX
  8
AM_0
  5
17836
 10
329.455
 20
249.117
 30
0.000000
  70
    32
  0
VERTEX
  8
AM_0
  5
17837
 10
329.446
 20
249.108
 30
0.000000
  70
    32
  0
VERTEX
  8
AM_0
  5
17838
 10
329.437
 20
249.100
 30
0.000000
  70
    32
  0
VERTEX
  8
AM_0
  5
17839
 10
329.428
 20
249.092
 30
0.000000
  70
    32
  0
VERTEX
  8
AM_0
  5
1783A
 10
329.418
 20
249.084
 30
0.000000
  70
    32
  0
VERTEX
  8
AM_0
  5
1783B
 10
329.409
 20
249.076
 30
0.000000
  70
    32
  0
VERTEX
  8
AM_0
  5
1783C
 10
329.400
 20
249.068
 30
0.000000
  70
    32
  0
VERTEX
  8
AM_0
  5
1783D
 10
329.390
 20
249.060
 30
0.000000
  70
    32
  0
VERTEX
  8
AM_0
  5
1783E
 10
329.380
 20
249.053
 30
0.000000
  70
    32
  0
VERTEX
  8
AM_0
  5
1783F
 10
329.371
 20
249.045
 30
0.000000
  70
    32
  0
VERTEX
  8
AM_0
  5
17840
 10
329.361
 20
249.038
 30
0.000000
  70
    32
  0
VERTEX
  8
AM_0
  5
17841
 10
329.351
 20
249.031
 30
0.000000
  70
    32
  0
VERTEX
  8
AM_0
  5
17842
 10
329.341
 20
249.024
 30
0.000000
  70
    32
  0
VERTEX
  8
AM_0
  5
17843
 10
329.331
 20
249.016
 30
0.000000
  70
    32
  0
VERTEX
  8
AM_0
  5
17844
 10
329.321
 20
249.010
 30
0.000000
  70
    32
  0
VERTEX
  8
AM_0
  5
17845
 10
329.311
 20
249.003
 30
0.000000
  70
    32
  0
VERTEX
  8
AM_0
  5
17846
 10
329.300
 20
248.996
 30
0.000000
  70
    32
  0
VERTEX
  8
AM_0
  5
17847
 10
329.290
 20
248.990
 30
0.000000
  70
    32
  0
VERTEX
  8
AM_0
  5
17848
 10
329.279
 20
248.983
 30
0.000000
  70
    32
  0
VERTEX
  8
AM_0
  5
17849
 10
329.269
 20
248.977
 30
0.000000
  70
    32
  0
VERTEX
  8
AM_0
  5
1784A
 10
329.258
 20
248.971
 30
0.000000
  70
    32
  0
VERTEX
  8
AM_0
  5
1784B
 10
329.247
 20
248.965
 30
0.000000
  70
    32
  0
VERTEX
  8
AM_0
  5
1784C
 10
329.237
 20
248.959
 30
0.000000
  70
    32
  0
VERTEX
  8
AM_0
  5
1784D
 10
329.226
 20
248.953
 30
0.000000
  70
    32
  0
VERTEX
  8
AM_0
  5
1784E
 10
329.215
 20
248.948
 30
0.000000
  70
    32
  0
VERTEX
  8
AM_0
  5
1784F
 10
329.204
 20
248.942
 30
0.000000
  70
    32
  0
VERTEX
  8
AM_0
  5
17850
 10
329.193
 20
248.937
 30
0.000000
  70
    32
  0
VERTEX
  8
AM_0
  5
17851
 10
329.182
 20
248.932
 30
0.000000
  70
    32
  0
VERTEX
  8
AM_0
  5
17852
 10
329.170
 20
248.927
 30
0.000000
  70
    32
  0
VERTEX
  8
AM_0
  5
17853
 10
329.159
 20
248.922
 30
0.000000
  70
    32
  0
VERTEX
  8
AM_0
  5
17854
 10
329.148
 20
248.917
 30
0.000000
  70
    32
  0
VERTEX
  8
AM_0
  5
17855
 10
329.137
 20
248.913
 30
0.000000
  70
    32
  0
VERTEX
  8
AM_0
  5
17856
 10
329.125
 20
248.908
 30
0.000000
  70
    32
  0
VERTEX
  8
AM_0
  5
17857
 10
329.114
 20
248.904
 30
0.000000
  70
    32
  0
VERTEX
  8
AM_0
  5
17858
 10
329.102
 20
248.900
 30
0.000000
  70
    32
  0
VERTEX
  8
AM_0
  5
17859
 10
329.090
 20
248.895
 30
0.000000
  70
    32
  0
VERTEX
  8
AM_0
  5
1785A
 10
329.079
 20
248.892
 30
0.000000
  70
    32
  0
VERTEX
  8
AM_0
  5
1785B
 10
329.067
 20
248.888
 30
0.000000
  70
    32
  0
VERTEX
  8
AM_0
  5
1785C
 10
329.055
 20
248.884
 30
0.000000
  70
    32
  0
VERTEX
  8
AM_0
  5
1785D
 10
329.044
 20
248.881
 30
0.000000
  70
    32
  0
VERTEX
  8
AM_0
  5
1785E
 10
329.032
 20
248.877
 30
0.000000
  70
    32
  0
VERTEX
  8
AM_0
  5
1785F
 10
329.020
 20
248.874
 30
0.000000
  70
    32
  0
VERTEX
  8
AM_0
  5
17860
 10
329.008
 20
248.871
 30
0.000000
  70
    32
  0
VERTEX
  8
AM_0
  5
17861
 10
328.996
 20
248.868
 30
0.000000
  70
    32
  0
VERTEX
  8
AM_0
  5
17862
 10
328.984
 20
248.865
 30
0.000000
  70
    32
  0
VERTEX
  8
AM_0
  5
17863
 10
328.972
 20
248.863
 30
0.000000
  70
    32
  0
VERTEX
  8
AM_0
  5
17864
 10
328.960
 20
248.860
 30
0.000000
  70
    32
  0
VERTEX
  8
AM_0
  5
17865
 10
328.948
 20
248.858
 30
0.000000
  70
    32
  0
VERTEX
  8
AM_0
  5
17866
 10
328.936
 20
248.856
 30
0.000000
  70
    32
  0
VERTEX
  8
AM_0
  5
17867
 10
328.924
 20
248.854
 30
0.000000
  70
    32
  0
VERTEX
  8
AM_0
  5
17868
 10
328.912
 20
248.852
 30
0.000000
  70
    32
  0
VERTEX
  8
AM_0
  5
17869
 10
328.900
 20
248.850
 30
0.000000
  70
    32
  0
VERTEX
  8
AM_0
  5
1786A
 10
328.888
 20
248.849
 30
0.000000
  70
    32
  0
VERTEX
  8
AM_0
  5
1786B
 10
328.875
 20
248.847
 30
0.000000
  70
    32
  0
VERTEX
  8
AM_0
  5
1786C
 10
328.863
 20
248.846
 30
0.000000
  70
    32
  0
VERTEX
  8
AM_0
  5
1786D
 10
328.851
 20
248.845
 30
0.000000
  70
    32
  0
VERTEX
  8
AM_0
  5
1786E
 10
328.839
 20
248.844
 30
0.000000
  70
    32
  0
VERTEX
  8
AM_0
  5
1786F
 10
328.827
 20
248.843
 30
0.000000
  70
    32
  0
VERTEX
  8
AM_0
  5
17870
 10
328.814
 20
248.842
 30
0.000000
  70
    32
  0
VERTEX
  8
AM_0
  5
17871
 10
328.802
 20
248.842
 30
0.000000
  70
    32
  0
VERTEX
  8
AM_0
  5
17872
 10
328.790
 20
248.841
 30
0.000000
  70
    32
  0
VERTEX
  8
AM_0
  5
17873
 10
328.777
 20
248.841
 30
0.000000
  70
    32
  0
VERTEX
  8
AM_0
  5
17874
 10
328.765
 20
248.841
 30
0.000000
  70
    32
  0
SEQEND
  8
AM_0
  5
17875
  0
LINE
  5
15859
  8
AM_0
 10
334.26513710749617
 20
257.34111634292083
 30
0.0
 11
337.26510710749608
 21
262.5410963429207
 31
0.0
  0
LINE
  5
1585A
  8
AM_0
 10
334.26513710749617
 20
303.34108634292022
 30
0.0
 11
337.26511710739601
 21
298.15108634292022
 31
0.0
  0
LINE
  5
1585B
  8
AM_0
 10
328.76519210749598
 20
311.84108634292022
 30
0.0
 11
317.26530710749603
 21
311.84108634292022
 31
0.0
  0
LINE
  5
1585C
  8
AM_0
 10
333.26514710749598
 20
310.34108634292022
 30
0.0
 11
317.26530710749603
 21
310.34108634292022
 31
0.0
  0
LINE
  5
1585D
  8
AM_0
 10
313.765342107496
 20
313.84108634292022
 30
0.0
 11
328.76519210749598
 21
313.84108634292022
 31
0.0
  0
LINE
  5
1585E
  8
AM_0
 10
310.7653721074962
 20
311.84108634292022
 30
0.0
 11
317.26530710749603
 21
311.84108634292022
 31
0.0
  0
LINE
  5
1585F
  8
AM_0
 10
328.76519210749598
 20
311.84108634292022
 30
0.0
 11
328.76519210749598
 21
313.84108634292022
 31
0.0
  0
LINE
  5
15860
  8
AM_0
 10
329.76518210749617
 20
310.34108634292022
 30
0.0
 11
329.76518210749617
 21
310.84108634292022
 31
0.0
  0
POLYLINE
  5
15861
  8
AM_0
 10
333.26514715985525
 20
310.34108634292051
 30
0.0
 66
     1
 70
     8
  0
VERTEX
  8
AM_0
  5
17876
 10
333.265
 20
310.341
 30
0.000000
  70
    32
  0
VERTEX
  8
AM_0
  5
17877
 10
333.277
 20
310.341
 30
0.000000
  70
    32
  0
VERTEX
  8
AM_0
  5
17878
 10
333.290
 20
310.341
 30
0.000000
  70
    32
  0
VERTEX
  8
AM_0
  5
17879
 10
333.302
 20
310.340
 30
0.000000
  70
    32
  0
VERTEX
  8
AM_0
  5
1787A
 10
333.314
 20
310.340
 30
0.000000
  70
    32
  0
VERTEX
  8
AM_0
  5
1787B
 10
333.326
 20
310.339
 30
0.000000
  70
    32
  0
VERTEX
  8
AM_0
  5
1787C
 10
333.339
 20
310.338
 30
0.000000
  70
    32
  0
VERTEX
  8
AM_0
  5
1787D
 10
333.351
 20
310.337
 30
0.000000
  70
    32
  0
VERTEX
  8
AM_0
  5
1787E
 10
333.363
 20
310.336
 30
0.000000
  70
    32
  0
VERTEX
  8
AM_0
  5
1787F
 10
333.375
 20
310.335
 30
0.000000
  70
    32
  0
VERTEX
  8
AM_0
  5
17880
 10
333.388
 20
310.334
 30
0.000000
  70
    32
  0
VERTEX
  8
AM_0
  5
17881
 10
333.400
 20
310.332
 30
0.000000
  70
    32
  0
VERTEX
  8
AM_0
  5
17882
 10
333.412
 20
310.330
 30
0.000000
  70
    32
  0
VERTEX
  8
AM_0
  5
17883
 10
333.424
 20
310.328
 30
0.000000
  70
    32
  0
VERTEX
  8
AM_0
  5
17884
 10
333.436
 20
310.326
 30
0.000000
  70
    32
  0
VERTEX
  8
AM_0
  5
17885
 10
333.448
 20
310.324
 30
0.000000
  70
    32
  0
VERTEX
  8
AM_0
  5
17886
 10
333.460
 20
310.322
 30
0.000000
  70
    32
  0
VERTEX
  8
AM_0
  5
17887
 10
333.472
 20
310.319
 30
0.000000
  70
    32
  0
VERTEX
  8
AM_0
  5
17888
 10
333.484
 20
310.317
 30
0.000000
  70
    32
  0
VERTEX
  8
AM_0
  5
17889
 10
333.496
 20
310.314
 30
0.000000
  70
    32
  0
VERTEX
  8
AM_0
  5
1788A
 10
333.508
 20
310.311
 30
0.000000
  70
    32
  0
VERTEX
  8
AM_0
  5
1788B
 10
333.520
 20
310.308
 30
0.000000
  70
    32
  0
VERTEX
  8
AM_0
  5
1788C
 10
333.532
 20
310.305
 30
0.000000
  70
    32
  0
VERTEX
  8
AM_0
  5
1788D
 10
333.544
 20
310.302
 30
0.000000
  70
    32
  0
VERTEX
  8
AM_0
  5
1788E
 10
333.555
 20
310.298
 30
0.000000
  70
    32
  0
VERTEX
  8
AM_0
  5
1788F
 10
333.567
 20
310.294
 30
0.000000
  70
    32
  0
VERTEX
  8
AM_0
  5
17890
 10
333.579
 20
310.291
 30
0.000000
  70
    32
  0
VERTEX
  8
AM_0
  5
17891
 10
333.590
 20
310.287
 30
0.000000
  70
    32
  0
VERTEX
  8
AM_0
  5
17892
 10
333.602
 20
310.283
 30
0.000000
  70
    32
  0
VERTEX
  8
AM_0
  5
17893
 10
333.614
 20
310.278
 30
0.000000
  70
    32
  0
VERTEX
  8
AM_0
  5
17894
 10
333.625
 20
310.274
 30
0.000000
  70
    32
  0
VERTEX
  8
AM_0
  5
17895
 10
333.636
 20
310.270
 30
0.000000
  70
    32
  0
VERTEX
  8
AM_0
  5
17896
 10
333.648
 20
310.265
 30
0.000000
  70
    32
  0
VERTEX
  8
AM_0
  5
17897
 10
333.659
 20
310.260
 30
0.000000
  70
    32
  0
VERTEX
  8
AM_0
  5
17898
 10
333.670
 20
310.255
 30
0.000000
  70
    32
  0
VERTEX
  8
AM_0
  5
17899
 10
333.682
 20
310.250
 30
0.000000
  70
    32
  0
VERTEX
  8
AM_0
  5
1789A
 10
333.693
 20
310.245
 30
0.000000
  70
    32
  0
VERTEX
  8
AM_0
  5
1789B
 10
333.704
 20
310.240
 30
0.000000
  70
    32
  0
VERTEX
  8
AM_0
  5
1789C
 10
333.715
 20
310.234
 30
0.000000
  70
    32
  0
VERTEX
  8
AM_0
  5
1789D
 10
333.726
 20
310.229
 30
0.000000
  70
    32
  0
VERTEX
  8
AM_0
  5
1789E
 10
333.737
 20
310.223
 30
0.000000
  70
    32
  0
VERTEX
  8
AM_0
  5
1789F
 10
333.747
 20
310.217
 30
0.000000
  70
    32
  0
VERTEX
  8
AM_0
  5
178A0
 10
333.758
 20
310.211
 30
0.000000
  70
    32
  0
VERTEX
  8
AM_0
  5
178A1
 10
333.769
 20
310.205
 30
0.000000
  70
    32
  0
VERTEX
  8
AM_0
  5
178A2
 10
333.779
 20
310.199
 30
0.000000
  70
    32
  0
VERTEX
  8
AM_0
  5
178A3
 10
333.790
 20
310.192
 30
0.000000
  70
    32
  0
VERTEX
  8
AM_0
  5
178A4
 10
333.800
 20
310.186
 30
0.000000
  70
    32
  0
VERTEX
  8
AM_0
  5
178A5
 10
333.810
 20
310.179
 30
0.000000
  70
    32
  0
VERTEX
  8
AM_0
  5
178A6
 10
333.821
 20
310.173
 30
0.000000
  70
    32
  0
VERTEX
  8
AM_0
  5
178A7
 10
333.831
 20
310.166
 30
0.000000
  70
    32
  0
VERTEX
  8
AM_0
  5
178A8
 10
333.841
 20
310.159
 30
0.000000
  70
    32
  0
VERTEX
  8
AM_0
  5
178A9
 10
333.851
 20
310.152
 30
0.000000
  70
    32
  0
VERTEX
  8
AM_0
  5
178AA
 10
333.861
 20
310.144
 30
0.000000
  70
    32
  0
VERTEX
  8
AM_0
  5
178AB
 10
333.871
 20
310.137
 30
0.000000
  70
    32
  0
VERTEX
  8
AM_0
  5
178AC
 10
333.880
 20
310.129
 30
0.000000
  70
    32
  0
VERTEX
  8
AM_0
  5
178AD
 10
333.890
 20
310.122
 30
0.000000
  70
    32
  0
VERTEX
  8
AM_0
  5
178AE
 10
333.900
 20
310.114
 30
0.000000
  70
    32
  0
VERTEX
  8
AM_0
  5
178AF
 10
333.909
 20
310.106
 30
0.000000
  70
    32
  0
VERTEX
  8
AM_0
  5
178B0
 10
333.918
 20
310.098
 30
0.000000
  70
    32
  0
VERTEX
  8
AM_0
  5
178B1
 10
333.928
 20
310.090
 30
0.000000
  70
    32
  0
VERTEX
  8
AM_0
  5
178B2
 10
333.937
 20
310.082
 30
0.000000
  70
    32
  0
VERTEX
  8
AM_0
  5
178B3
 10
333.946
 20
310.074
 30
0.000000
  70
    32
  0
VERTEX
  8
AM_0
  5
178B4
 10
333.955
 20
310.065
 30
0.000000
  70
    32
  0
VERTEX
  8
AM_0
  5
178B5
 10
333.964
 20
310.057
 30
0.000000
  70
    32
  0
VERTEX
  8
AM_0
  5
178B6
 10
333.972
 20
310.048
 30
0.000000
  70
    32
  0
VERTEX
  8
AM_0
  5
178B7
 10
333.981
 20
310.039
 30
0.000000
  70
    32
  0
VERTEX
  8
AM_0
  5
178B8
 10
333.989
 20
310.031
 30
0.000000
  70
    32
  0
VERTEX
  8
AM_0
  5
178B9
 10
333.998
 20
310.022
 30
0.000000
  70
    32
  0
VERTEX
  8
AM_0
  5
178BA
 10
334.006
 20
310.013
 30
0.000000
  70
    32
  0
VERTEX
  8
AM_0
  5
178BB
 10
334.014
 20
310.004
 30
0.000000
  70
    32
  0
VERTEX
  8
AM_0
  5
178BC
 10
334.022
 20
309.994
 30
0.000000
  70
    32
  0
VERTEX
  8
AM_0
  5
178BD
 10
334.030
 20
309.985
 30
0.000000
  70
    32
  0
VERTEX
  8
AM_0
  5
178BE
 10
334.038
 20
309.975
 30
0.000000
  70
    32
  0
VERTEX
  8
AM_0
  5
178BF
 10
334.046
 20
309.966
 30
0.000000
  70
    32
  0
VERTEX
  8
AM_0
  5
178C0
 10
334.053
 20
309.956
 30
0.000000
  70
    32
  0
VERTEX
  8
AM_0
  5
178C1
 10
334.061
 20
309.947
 30
0.000000
  70
    32
  0
VERTEX
  8
AM_0
  5
178C2
 10
334.068
 20
309.937
 30
0.000000
  70
    32
  0
VERTEX
  8
AM_0
  5
178C3
 10
334.076
 20
309.927
 30
0.000000
  70
    32
  0
VERTEX
  8
AM_0
  5
178C4
 10
334.083
 20
309.917
 30
0.000000
  70
    32
  0
VERTEX
  8
AM_0
  5
178C5
 10
334.090
 20
309.907
 30
0.000000
  70
    32
  0
VERTEX
  8
AM_0
  5
178C6
 10
334.097
 20
309.897
 30
0.000000
  70
    32
  0
VERTEX
  8
AM_0
  5
178C7
 10
334.103
 20
309.886
 30
0.000000
  70
    32
  0
VERTEX
  8
AM_0
  5
178C8
 10
334.110
 20
309.876
 30
0.000000
  70
    32
  0
VERTEX
  8
AM_0
  5
178C9
 10
334.116
 20
309.866
 30
0.000000
  70
    32
  0
VERTEX
  8
AM_0
  5
178CA
 10
334.123
 20
309.855
 30
0.000000
  70
    32
  0
VERTEX
  8
AM_0
  5
178CB
 10
334.129
 20
309.845
 30
0.000000
  70
    32
  0
VERTEX
  8
AM_0
  5
178CC
 10
334.135
 20
309.834
 30
0.000000
  70
    32
  0
VERTEX
  8
AM_0
  5
178CD
 10
334.141
 20
309.823
 30
0.000000
  70
    32
  0
VERTEX
  8
AM_0
  5
178CE
 10
334.147
 20
309.812
 30
0.000000
  70
    32
  0
VERTEX
  8
AM_0
  5
178CF
 10
334.153
 20
309.802
 30
0.000000
  70
    32
  0
VERTEX
  8
AM_0
  5
178D0
 10
334.158
 20
309.791
 30
0.000000
  70
    32
  0
VERTEX
  8
AM_0
  5
178D1
 10
334.164
 20
309.780
 30
0.000000
  70
    32
  0
VERTEX
  8
AM_0
  5
178D2
 10
334.169
 20
309.769
 30
0.000000
  70
    32
  0
VERTEX
  8
AM_0
  5
178D3
 10
334.174
 20
309.758
 30
0.000000
  70
    32
  0
VERTEX
  8
AM_0
  5
178D4
 10
334.179
 20
309.746
 30
0.000000
  70
    32
  0
VERTEX
  8
AM_0
  5
178D5
 10
334.184
 20
309.735
 30
0.000000
  70
    32
  0
VERTEX
  8
AM_0
  5
178D6
 10
334.189
 20
309.724
 30
0.000000
  70
    32
  0
VERTEX
  8
AM_0
  5
178D7
 10
334.194
 20
309.712
 30
0.000000
  70
    32
  0
VERTEX
  8
AM_0
  5
178D8
 10
334.198
 20
309.701
 30
0.000000
  70
    32
  0
VERTEX
  8
AM_0
  5
178D9
 10
334.202
 20
309.690
 30
0.000000
  70
    32
  0
VERTEX
  8
AM_0
  5
178DA
 10
334.207
 20
309.678
 30
0.000000
  70
    32
  0
VERTEX
  8
AM_0
  5
178DB
 10
334.211
 20
309.666
 30
0.000000
  70
    32
  0
VERTEX
  8
AM_0
  5
178DC
 10
334.215
 20
309.655
 30
0.000000
  70
    32
  0
VERTEX
  8
AM_0
  5
178DD
 10
334.218
 20
309.643
 30
0.000000
  70
    32
  0
VERTEX
  8
AM_0
  5
178DE
 10
334.222
 20
309.631
 30
0.000000
  70
    32
  0
VERTEX
  8
AM_0
  5
178DF
 10
334.226
 20
309.620
 30
0.000000
  70
    32
  0
VERTEX
  8
AM_0
  5
178E0
 10
334.229
 20
309.608
 30
0.000000
  70
    32
  0
VERTEX
  8
AM_0
  5
178E1
 10
334.232
 20
309.596
 30
0.000000
  70
    32
  0
VERTEX
  8
AM_0
  5
178E2
 10
334.235
 20
309.584
 30
0.000000
  70
    32
  0
VERTEX
  8
AM_0
  5
178E3
 10
334.238
 20
309.572
 30
0.000000
  70
    32
  0
VERTEX
  8
AM_0
  5
178E4
 10
334.241
 20
309.560
 30
0.000000
  70
    32
  0
VERTEX
  8
AM_0
  5
178E5
 10
334.243
 20
309.548
 30
0.000000
  70
    32
  0
VERTEX
  8
AM_0
  5
178E6
 10
334.246
 20
309.536
 30
0.000000
  70
    32
  0
VERTEX
  8
AM_0
  5
178E7
 10
334.248
 20
309.524
 30
0.000000
  70
    32
  0
VERTEX
  8
AM_0
  5
178E8
 10
334.250
 20
309.512
 30
0.000000
  70
    32
  0
VERTEX
  8
AM_0
  5
178E9
 10
334.252
 20
309.500
 30
0.000000
  70
    32
  0
VERTEX
  8
AM_0
  5
178EA
 10
334.254
 20
309.488
 30
0.000000
  70
    32
  0
VERTEX
  8
AM_0
  5
178EB
 10
334.256
 20
309.476
 30
0.000000
  70
    32
  0
VERTEX
  8
AM_0
  5
178EC
 10
334.258
 20
309.463
 30
0.000000
  70
    32
  0
VERTEX
  8
AM_0
  5
178ED
 10
334.259
 20
309.451
 30
0.000000
  70
    32
  0
VERTEX
  8
AM_0
  5
178EE
 10
334.260
 20
309.439
 30
0.000000
  70
    32
  0
VERTEX
  8
AM_0
  5
178EF
 10
334.261
 20
309.427
 30
0.000000
  70
    32
  0
VERTEX
  8
AM_0
  5
178F0
 10
334.262
 20
309.415
 30
0.000000
  70
    32
  0
VERTEX
  8
AM_0
  5
178F1
 10
334.263
 20
309.402
 30
0.000000
  70
    32
  0
VERTEX
  8
AM_0
  5
178F2
 10
334.264
 20
309.390
 30
0.000000
  70
    32
  0
VERTEX
  8
AM_0
  5
178F3
 10
334.264
 20
309.378
 30
0.000000
  70
    32
  0
VERTEX
  8
AM_0
  5
178F4
 10
334.265
 20
309.366
 30
0.000000
  70
    32
  0
VERTEX
  8
AM_0
  5
178F5
 10
334.265
 20
309.353
 30
0.000000
  70
    32
  0
VERTEX
  8
AM_0
  5
178F6
 10
334.265
 20
309.341
 30
0.000000
  70
    32
  0
SEQEND
  8
AM_0
  5
178F7
  0
POLYLINE
  5
15862
  8
AM_0
 10
328.7651921598553
 20
311.84108634292022
 30
0.0
 66
     1
 70
     8
  0
VERTEX
  8
AM_0
  5
178F8
 10
328.765
 20
311.841
 30
0.000000
  70
    32
  0
VERTEX
  8
AM_0
  5
178F9
 10
328.777
 20
311.841
 30
0.000000
  70
    32
  0
VERTEX
  8
AM_0
  5
178FA
 10
328.790
 20
311.841
 30
0.000000
  70
    32
  0
VERTEX
  8
AM_0
  5
178FB
 10
328.802
 20
311.840
 30
0.000000
  70
    32
  0
VERTEX
  8
AM_0
  5
178FC
 10
328.814
 20
311.840
 30
0.000000
  70
    32
  0
VERTEX
  8
AM_0
  5
178FD
 10
328.827
 20
311.839
 30
0.000000
  70
    32
  0
VERTEX
  8
AM_0
  5
178FE
 10
328.839
 20
311.838
 30
0.000000
  70
    32
  0
VERTEX
  8
AM_0
  5
178FF
 10
328.851
 20
311.837
 30
0.000000
  70
    32
  0
VERTEX
  8
AM_0
  5
17900
 10
328.863
 20
311.836
 30
0.000000
  70
    32
  0
VERTEX
  8
AM_0
  5
17901
 10
328.875
 20
311.835
 30
0.000000
  70
    32
  0
VERTEX
  8
AM_0
  5
17902
 10
328.888
 20
311.834
 30
0.000000
  70
    32
  0
VERTEX
  8
AM_0
  5
17903
 10
328.900
 20
311.832
 30
0.000000
  70
    32
  0
VERTEX
  8
AM_0
  5
17904
 10
328.912
 20
311.830
 30
0.000000
  70
    32
  0
VERTEX
  8
AM_0
  5
17905
 10
328.924
 20
311.828
 30
0.000000
  70
    32
  0
VERTEX
  8
AM_0
  5
17906
 10
328.936
 20
311.826
 30
0.000000
  70
    32
  0
VERTEX
  8
AM_0
  5
17907
 10
328.948
 20
311.824
 30
0.000000
  70
    32
  0
VERTEX
  8
AM_0
  5
17908
 10
328.960
 20
311.822
 30
0.000000
  70
    32
  0
VERTEX
  8
AM_0
  5
17909
 10
328.972
 20
311.819
 30
0.000000
  70
    32
  0
VERTEX
  8
AM_0
  5
1790A
 10
328.984
 20
311.817
 30
0.000000
  70
    32
  0
VERTEX
  8
AM_0
  5
1790B
 10
328.996
 20
311.814
 30
0.000000
  70
    32
  0
VERTEX
  8
AM_0
  5
1790C
 10
329.008
 20
311.811
 30
0.000000
  70
    32
  0
VERTEX
  8
AM_0
  5
1790D
 10
329.020
 20
311.808
 30
0.000000
  70
    32
  0
VERTEX
  8
AM_0
  5
1790E
 10
329.032
 20
311.805
 30
0.000000
  70
    32
  0
VERTEX
  8
AM_0
  5
1790F
 10
329.044
 20
311.802
 30
0.000000
  70
    32
  0
VERTEX
  8
AM_0
  5
17910
 10
329.055
 20
311.798
 30
0.000000
  70
    32
  0
VERTEX
  8
AM_0
  5
17911
 10
329.067
 20
311.794
 30
0.000000
  70
    32
  0
VERTEX
  8
AM_0
  5
17912
 10
329.079
 20
311.791
 30
0.000000
  70
    32
  0
VERTEX
  8
AM_0
  5
17913
 10
329.090
 20
311.787
 30
0.000000
  70
    32
  0
VERTEX
  8
AM_0
  5
17914
 10
329.102
 20
311.783
 30
0.000000
  70
    32
  0
VERTEX
  8
AM_0
  5
17915
 10
329.114
 20
311.778
 30
0.000000
  70
    32
  0
VERTEX
  8
AM_0
  5
17916
 10
329.125
 20
311.774
 30
0.000000
  70
    32
  0
VERTEX
  8
AM_0
  5
17917
 10
329.137
 20
311.770
 30
0.000000
  70
    32
  0
VERTEX
  8
AM_0
  5
17918
 10
329.148
 20
311.765
 30
0.000000
  70
    32
  0
VERTEX
  8
AM_0
  5
17919
 10
329.159
 20
311.760
 30
0.000000
  70
    32
  0
VERTEX
  8
AM_0
  5
1791A
 10
329.170
 20
311.755
 30
0.000000
  70
    32
  0
VERTEX
  8
AM_0
  5
1791B
 10
329.182
 20
311.750
 30
0.000000
  70
    32
  0
VERTEX
  8
AM_0
  5
1791C
 10
329.193
 20
311.745
 30
0.000000
  70
    32
  0
VERTEX
  8
AM_0
  5
1791D
 10
329.204
 20
311.740
 30
0.000000
  70
    32
  0
VERTEX
  8
AM_0
  5
1791E
 10
329.215
 20
311.734
 30
0.000000
  70
    32
  0
VERTEX
  8
AM_0
  5
1791F
 10
329.226
 20
311.729
 30
0.000000
  70
    32
  0
VERTEX
  8
AM_0
  5
17920
 10
329.237
 20
311.723
 30
0.000000
  70
    32
  0
VERTEX
  8
AM_0
  5
17921
 10
329.247
 20
311.717
 30
0.000000
  70
    32
  0
VERTEX
  8
AM_0
  5
17922
 10
329.258
 20
311.711
 30
0.000000
  70
    32
  0
VERTEX
  8
AM_0
  5
17923
 10
329.269
 20
311.705
 30
0.000000
  70
    32
  0
VERTEX
  8
AM_0
  5
17924
 10
329.279
 20
311.699
 30
0.000000
  70
    32
  0
VERTEX
  8
AM_0
  5
17925
 10
329.290
 20
311.692
 30
0.000000
  70
    32
  0
VERTEX
  8
AM_0
  5
17926
 10
329.300
 20
311.686
 30
0.000000
  70
    32
  0
VERTEX
  8
AM_0
  5
17927
 10
329.311
 20
311.679
 30
0.000000
  70
    32
  0
VERTEX
  8
AM_0
  5
17928
 10
329.321
 20
311.673
 30
0.000000
  70
    32
  0
VERTEX
  8
AM_0
  5
17929
 10
329.331
 20
311.666
 30
0.000000
  70
    32
  0
VERTEX
  8
AM_0
  5
1792A
 10
329.341
 20
311.659
 30
0.000000
  70
    32
  0
VERTEX
  8
AM_0
  5
1792B
 10
329.351
 20
311.652
 30
0.000000
  70
    32
  0
VERTEX
  8
AM_0
  5
1792C
 10
329.361
 20
311.644
 30
0.000000
  70
    32
  0
VERTEX
  8
AM_0
  5
1792D
 10
329.371
 20
311.637
 30
0.000000
  70
    32
  0
VERTEX
  8
AM_0
  5
1792E
 10
329.380
 20
311.629
 30
0.000000
  70
    32
  0
VERTEX
  8
AM_0
  5
1792F
 10
329.390
 20
311.622
 30
0.000000
  70
    32
  0
VERTEX
  8
AM_0
  5
17930
 10
329.400
 20
311.614
 30
0.000000
  70
    32
  0
VERTEX
  8
AM_0
  5
17931
 10
329.409
 20
311.606
 30
0.000000
  70
    32
  0
VERTEX
  8
AM_0
  5
17932
 10
329.418
 20
311.598
 30
0.000000
  70
    32
  0
VERTEX
  8
AM_0
  5
17933
 10
329.428
 20
311.590
 30
0.000000
  70
    32
  0
VERTEX
  8
AM_0
  5
17934
 10
329.437
 20
311.582
 30
0.000000
  70
    32
  0
VERTEX
  8
AM_0
  5
17935
 10
329.446
 20
311.574
 30
0.000000
  70
    32
  0
VERTEX
  8
AM_0
  5
17936
 10
329.455
 20
311.565
 30
0.000000
  70
    32
  0
VERTEX
  8
AM_0
  5
17937
 10
329.464
 20
311.557
 30
0.000000
  70
    32
  0
VERTEX
  8
AM_0
  5
17938
 10
329.472
 20
311.548
 30
0.000000
  70
    32
  0
VERTEX
  8
AM_0
  5
17939
 10
329.481
 20
311.539
 30
0.000000
  70
    32
  0
VERTEX
  8
AM_0
  5
1793A
 10
329.489
 20
311.531
 30
0.000000
  70
    32
  0
VERTEX
  8
AM_0
  5
1793B
 10
329.498
 20
311.522
 30
0.000000
  70
    32
  0
VERTEX
  8
AM_0
  5
1793C
 10
329.506
 20
311.513
 30
0.000000
  70
    32
  0
VERTEX
  8
AM_0
  5
1793D
 10
329.514
 20
311.504
 30
0.000000
  70
    32
  0
VERTEX
  8
AM_0
  5
1793E
 10
329.522
 20
311.494
 30
0.000000
  70
    32
  0
VERTEX
  8
AM_0
  5
1793F
 10
329.530
 20
311.485
 30
0.000000
  70
    32
  0
VERTEX
  8
AM_0
  5
17940
 10
329.538
 20
311.475
 30
0.000000
  70
    32
  0
VERTEX
  8
AM_0
  5
17941
 10
329.546
 20
311.466
 30
0.000000
  70
    32
  0
VERTEX
  8
AM_0
  5
17942
 10
329.554
 20
311.456
 30
0.000000
  70
    32
  0
VERTEX
  8
AM_0
  5
17943
 10
329.561
 20
311.447
 30
0.000000
  70
    32
  0
VERTEX
  8
AM_0
  5
17944
 10
329.568
 20
311.437
 30
0.000000
  70
    32
  0
VERTEX
  8
AM_0
  5
17945
 10
329.576
 20
311.427
 30
0.000000
  70
    32
  0
VERTEX
  8
AM_0
  5
17946
 10
329.583
 20
311.417
 30
0.000000
  70
    32
  0
VERTEX
  8
AM_0
  5
17947
 10
329.590
 20
311.407
 30
0.000000
  70
    32
  0
VERTEX
  8
AM_0
  5
17948
 10
329.597
 20
311.397
 30
0.000000
  70
    32
  0
VERTEX
  8
AM_0
  5
17949
 10
329.603
 20
311.386
 30
0.000000
  70
    32
  0
VERTEX
  8
AM_0
  5
1794A
 10
329.610
 20
311.376
 30
0.000000
  70
    32
  0
VERTEX
  8
AM_0
  5
1794B
 10
329.617
 20
311.366
 30
0.000000
  70
    32
  0
VERTEX
  8
AM_0
  5
1794C
 10
329.623
 20
311.355
 30
0.000000
  70
    32
  0
VERTEX
  8
AM_0
  5
1794D
 10
329.629
 20
311.345
 30
0.000000
  70
    32
  0
VERTEX
  8
AM_0
  5
1794E
 10
329.635
 20
311.334
 30
0.000000
  70
    32
  0
VERTEX
  8
AM_0
  5
1794F
 10
329.641
 20
311.323
 30
0.000000
  70
    32
  0
VERTEX
  8
AM_0
  5
17950
 10
329.647
 20
311.312
 30
0.000000
  70
    32
  0
VERTEX
  8
AM_0
  5
17951
 10
329.653
 20
311.302
 30
0.000000
  70
    32
  0
VERTEX
  8
AM_0
  5
17952
 10
329.658
 20
311.291
 30
0.000000
  70
    32
  0
VERTEX
  8
AM_0
  5
17953
 10
329.664
 20
311.280
 30
0.000000
  70
    32
  0
VERTEX
  8
AM_0
  5
17954
 10
329.669
 20
311.269
 30
0.000000
  70
    32
  0
VERTEX
  8
AM_0
  5
17955
 10
329.674
 20
311.258
 30
0.000000
  70
    32
  0
VERTEX
  8
AM_0
  5
17956
 10
329.679
 20
311.246
 30
0.000000
  70
    32
  0
VERTEX
  8
AM_0
  5
17957
 10
329.684
 20
311.235
 30
0.000000
  70
    32
  0
VERTEX
  8
AM_0
  5
17958
 10
329.689
 20
311.224
 30
0.000000
  70
    32
  0
VERTEX
  8
AM_0
  5
17959
 10
329.694
 20
311.212
 30
0.000000
  70
    32
  0
VERTEX
  8
AM_0
  5
1795A
 10
329.698
 20
311.201
 30
0.000000
  70
    32
  0
VERTEX
  8
AM_0
  5
1795B
 10
329.703
 20
311.190
 30
0.000000
  70
    32
  0
VERTEX
  8
AM_0
  5
1795C
 10
329.707
 20
311.178
 30
0.000000
  70
    32
  0
VERTEX
  8
AM_0
  5
1795D
 10
329.711
 20
311.166
 30
0.000000
  70
    32
  0
VERTEX
  8
AM_0
  5
1795E
 10
329.715
 20
311.155
 30
0.000000
  70
    32
  0
VERTEX
  8
AM_0
  5
1795F
 10
329.718
 20
311.143
 30
0.000000
  70
    32
  0
VERTEX
  8
AM_0
  5
17960
 10
329.722
 20
311.131
 30
0.000000
  70
    32
  0
VERTEX
  8
AM_0
  5
17961
 10
329.726
 20
311.120
 30
0.000000
  70
    32
  0
VERTEX
  8
AM_0
  5
17962
 10
329.729
 20
311.108
 30
0.000000
  70
    32
  0
VERTEX
  8
AM_0
  5
17963
 10
329.732
 20
311.096
 30
0.000000
  70
    32
  0
VERTEX
  8
AM_0
  5
17964
 10
329.735
 20
311.084
 30
0.000000
  70
    32
  0
VERTEX
  8
AM_0
  5
17965
 10
329.738
 20
311.072
 30
0.000000
  70
    32
  0
VERTEX
  8
AM_0
  5
17966
 10
329.741
 20
311.060
 30
0.000000
  70
    32
  0
VERTEX
  8
AM_0
  5
17967
 10
329.743
 20
311.048
 30
0.000000
  70
    32
  0
VERTEX
  8
AM_0
  5
17968
 10
329.746
 20
311.036
 30
0.000000
  70
    32
  0
VERTEX
  8
AM_0
  5
17969
 10
329.748
 20
311.024
 30
0.000000
  70
    32
  0
VERTEX
  8
AM_0
  5
1796A
 10
329.750
 20
311.012
 30
0.000000
  70
    32
  0
VERTEX
  8
AM_0
  5
1796B
 10
329.752
 20
311.000
 30
0.000000
  70
    32
  0
VERTEX
  8
AM_0
  5
1796C
 10
329.754
 20
310.988
 30
0.000000
  70
    32
  0
VERTEX
  8
AM_0
  5
1796D
 10
329.756
 20
310.976
 30
0.000000
  70
    32
  0
VERTEX
  8
AM_0
  5
1796E
 10
329.758
 20
310.963
 30
0.000000
  70
    32
  0
VERTEX
  8
AM_0
  5
1796F
 10
329.759
 20
310.951
 30
0.000000
  70
    32
  0
VERTEX
  8
AM_0
  5
17970
 10
329.760
 20
310.939
 30
0.000000
  70
    32
  0
VERTEX
  8
AM_0
  5
17971
 10
329.761
 20
310.927
 30
0.000000
  70
    32
  0
VERTEX
  8
AM_0
  5
17972
 10
329.762
 20
310.915
 30
0.000000
  70
    32
  0
VERTEX
  8
AM_0
  5
17973
 10
329.763
 20
310.902
 30
0.000000
  70
    32
  0
VERTEX
  8
AM_0
  5
17974
 10
329.764
 20
310.890
 30
0.000000
  70
    32
  0
VERTEX
  8
AM_0
  5
17975
 10
329.765
 20
310.878
 30
0.000000
  70
    32
  0
VERTEX
  8
AM_0
  5
17976
 10
329.765
 20
310.866
 30
0.000000
  70
    32
  0
VERTEX
  8
AM_0
  5
17977
 10
329.765
 20
310.853
 30
0.000000
  70
    32
  0
VERTEX
  8
AM_0
  5
17978
 10
329.765
 20
310.841
 30
0.000000
  70
    32
  0
SEQEND
  8
AM_0
  5
17979
  0
LINE
  5
16967
  8
AM_0
 10
-97.702844838099736
 20
334.34108634292028
 30
0.0
 11
-11.92798827071692
 21
334.34108634292028
 31
0.0
  0
ARC
  5
16968
  8
AM_0
 10
-27.905267933802861
 20
280.34108634292039
 30
0.0
 40
45.0
 50
270.0
 51
302.3887116371564
  0
LINE
  5
1696B
  8
AM_0
 10
-114.4052399941239
 20
340.34048813104181
 30
0.0
 11
19.594733481807001
 21
340.34048813104181
 31
0.0
  0
LINE
  5
1696C
  8
AM_0
 10
29.594703262249709
 20
195.34158134293509
 30
0.0
 11
-124.4052708097275
 21
195.34158134293531
 31
0.0
  0
LINE
  5
1696D
  8
AM_0
 10
29.594703262249649
 20
199.84158134293509
 30
0.0
 11
-124.4052708097274
 21
199.84158134293509
 31
0.0
  0
LINE
  5
1696E
  8
ﾁｭｳｼﾝｾﾝ1
 10
34.594733779830108
 20
280.34108634292039
 30
0.0
 11
-288.91833114395632
 21
280.34108634292039
 31
0.0
  0
LINE
  5
1696F
  8
AM_0
 10
-118.4052679338028
 20
298.8183736354008
 30
0.0
 11
-118.4052679338028
 21
261.86379905043992
 31
0.0
  0
LINE
  5
16970
  8
AM_0
 10
-124.405240292147
 20
330.34058783302157
 30
0.0
 11
-124.405240292147
 21
195.34158134293531
 31
0.0
  0
LINE
  5
16971
  8
ﾁｭｳｼﾝｾﾝ1
 10
-27.905267933802861
 20
345.34048813104181
 30
0.0
 11
-27.905267933802861
 21
185.34158134293509
 31
0.0
  0
LINE
  5
16972
  8
AM_0
 10
-150.4013097745686
 20
336.34112402289861
 30
0.0
 11
-150.4013097745686
 21
224.3410486629422
 31
0.0
  0
LINE
  5
16973
  8
0
  6
CONTINUOUS
 62
     7
 10
-141.4091097745688
 20
334.84053134302007
 30
0.0
 11
-141.4091097745688
 21
225.8416413428204
 31
0.0
  0
LINE
  5
16974
  8
0
  6
CONTINUOUS
 62
     7
 10
-150.4013097745686
 20
248.40122116719721
 30
0.0
 11
-141.4091097745688
 21
248.40122116719701
 31
0.0
  0
LINE
  5
16975
  8
0
  6
CONTINUOUS
 62
     7
 10
-150.4013097745686
 20
234.34154544800441
 30
0.0
 11
-141.4091097745688
 21
234.34154544800441
 31
0.0
  0
LINE
  5
16976
  8
0
  6
CONTINUOUS
 62
     7
 10
-150.4013097745686
 20
224.3410486629422
 30
0.0
 11
-142.5320832051508
 21
224.3410486629422
 31
0.0
  0
LINE
  5
16977
  8
AM_0
 10
-22.905270496802981
 20
220.34168455479889
 30
0.0
 11
-22.905270496803151
 21
199.84158134293509
 31
0.0
  0
LINE
  5
16978
  8
AM_0
 10
-27.405270496802991
 20
220.34168455479889
 30
0.0
 11
-27.405270496802991
 21
199.84158134293509
 31
0.0
  0
LINE
  5
16979
  8
AM_0
 10
-67.405267933804382
 20
220.34168455479889
 30
0.0
 11
-67.405267933803643
 21
199.84158134293509
 31
0.0
  0
LINE
  5
1697A
  8
AM_0
 10
-71.905267933803941
 20
220.34168455479889
 30
0.0
 11
-71.9052679338037
 21
199.84158134293509
 31
0.0
  0
LINE
  5
1697B
  8
ﾁｭｳｼﾝｾﾝ1
 10
-94.905267933803657
 20
209.8415813429352
 30
0.0
 11
-94.905267933803657
 21
185.34158134293531
 31
0.0
  0
LINE
  5
1697C
  8
ｶｸﾚｾﾝ2
 10
-99.905267933803771
 20
195.34158134293531
 30
0.0
 11
-99.905267933803771
 21
199.84158134293509
 31
0.0
  0
LINE
  5
1697D
  8
ｶｸﾚｾﾝ2
 10
-89.905267933803543
 20
195.34158134293531
 30
0.0
 11
-89.905267933803543
 21
199.84158134293509
 31
0.0
  0
ARC
  5
1697E
  8
AM_0
 10
-66.90529961367497
 20
280.34108634292039
 30
0.0
 40
45.0
 50
237.6112883628436
 51
270.0
  0
LINE
  5
1697F
  8
AM_0
 10
-104.6997681581006
 20
242.3415798677201
 30
0.0
 11
-105.5842077531387
 21
247.40564246474651
 31
0.0
  0
LINE
  5
16980
  8
AM_0
 10
-114.51851658785471
 20
245.34109015761771
 30
0.0
 11
-115.961892260829
 21
247.8410901576178
 31
0.0
1001
GENIUS_GENOREF_13
1005
0
  0
LINE
  5
16981
  8
AM_0
 10
-118.8486436067767
 20
247.8410901576178
 30
0.0
 11
-120.292019279751
 21
245.34109015761771
 31
0.0
1001
GENIUS_GENOREF_13
1005
0
  0
CIRCLE
  5
16982
  8
AM_0
 10
-117.4052679338028
 20
245.34109015761771
 30
0.0
 40
2.886751345948126
1001
GENIUS_GENOREF_13
1005
0
  0
ARC
  5
16983
  8
AM_0
 10
-117.4052679338028
 20
245.34109015761771
 30
0.0
 40
6.0
 50
330.00539967970087
 51
90.000005008956919
  0
ARC
  5
16984
  8
AM_0
 10
-117.4052679338028
 20
245.34109015761771
 30
0.0
 40
5.0000000000000124
 50
323.13711661267348
 51
221.50833602839509
1001
GENIUS_GENOREF_13
1005
0
  0
LINE
  5
16985
  8
AM_0
 10
-91.010019227087014
 20
242.3415798677201
 30
0.0
 11
-119.405240292147
 21
242.3415798677201
 31
0.0
  0
CIRCLE
  5
16986
  8
AM_5
 10
-113.9052399792227
 20
230.84157986772021
 30
0.0
 40
2.9999999999999978
  0
CIRCLE
  5
16988
  8
AM_0
 10
-113.9052399792227
 20
230.84157986772021
 30
0.0
 40
3.9999999999999978
  0
POLYLINE
  5
16989
  8
AM_0
 66
     1
 10
0.0
 20
0.0
 30
0.0
 70
     1
  0
VERTEX
  5
17706
  8
AM_0
 10
-120.400430507606
 20
234.59157986772021
 30
0.0
  0
VERTEX
  5
17707
  8
AM_0
 10
-120.4004305076058
 20
227.09157986772021
 30
0.0
  0
VERTEX
  5
17708
  8
AM_0
 10
-113.9052399792227
 20
223.34157986772021
 30
0.0
  0
VERTEX
  5
17709
  8
AM_0
 10
-107.4100494508394
 20
227.09157986772021
 30
0.0
  0
VERTEX
  5
1770A
  8
AM_0
 10
-107.4100494508394
 20
234.59157986772021
 30
0.0
  0
VERTEX
  5
1770B
  8
AM_0
 10
-113.9052399792227
 20
238.34157986772021
 30
0.0
  0
SEQEND
  5
1770C
  8
AM_0
  0
CIRCLE
  5
1698A
  8
AM_0
 10
-113.9052399792227
 20
230.84157986772021
 30
0.0
 40
7.9999999999999956
  0
LINE
  5
1698C
  8
0
  6
CONTINUOUS
 62
     7
 10
-139.4091097745688
 20
225.8416413428204
 30
0.0
 11
-124.405240292147
 21
225.84164134282071
 31
0.0
  0
LINE
  5
1698D
  8
0
  6
CONTINUOUS
 62
     7
 10
-126.4052402921471
 20
231.97874752731769
 30
0.0
 11
-139.409109774569
 21
231.97874752731769
 31
0.0
  0
ARC
  5
16990
  8
AM_0
 10
-119.405240292147
 20
237.3415798677201
 30
0.0
 40
5.0
 50
90.0
 51
180.0
1001
GENIUS_GENOBJ-N-FIL_13
1002
{
1000
OWNER
1000
GEN
1002
}
1001
GENIUS_GENODEF_13
1002
{
1000
HIER
1070
     0
1002
}
1002
{
1000
MANEDIT
1070
     0
1002
}
1002
{
1000
NOSEL
1070
     0
1002
}
1002
{
1000
BEHIND
1070
     0
1002
}
1002
{
1000
OTHER
1070
     0
1002
}
1002
{
1000
REACTOR
1002
}
  0
LINE
  5
16991
  8
AM_0
 10
-115.9618922608288
 20
242.84109015761771
 30
0.0
 11
-114.51851658785471
 21
245.34109015761771
 31
0.0
1001
GENIUS_GENOREF_13
1005
0
  0
LINE
  5
16992
  8
AM_0
 10
-120.292019279751
 20
245.34109015761771
 30
0.0
 11
-118.8486436067769
 21
242.84109015761771
 31
0.0
1001
GENIUS_GENOREF_13
1005
0
  0
LINE
  5
16993
  8
AM_0
 10
-118.8486436067769
 20
242.84109015761771
 30
0.0
 11
-115.9618922608288
 21
242.84109015761771
 31
0.0
1001
GENIUS_GENOREF_13
1005
0
  0
ARC
  5
16994
  8
AM_0
 10
-117.4052679338028
 20
245.34109015761771
 30
0.0
 40
11.999999999999989
 50
9.9068094049906783
 51
76.391044332999627
  0
ARC
  5
16995
  8
AM_0
 10
-113.4052679338028
 20
261.86379905043992
 30
0.0
 40
5.0000000000000044
 50
179.99999749551819
 51
256.39103932404521
  0
LINE
  5
16996
  8
AM_0
 10
-122.40527556319731
 20
251.3410901576176
 30
0.0
 11
-117.4052679338028
 21
251.3410901576176
 31
0.0
  0
ARC
  5
16997
  8
AM_0
 10
-122.40527556319741
 20
253.34108634292039
 30
0.0
 40
2.0000000000000022
 50
179.99999749551819
 51
270.0
  0
LINE
  5
16998
  8
AM_0
 10
-115.961892260829
 20
247.8410901576178
 30
0.0
 11
-118.8486436067767
 21
247.8410901576178
 31
0.0
1001
GENIUS_GENOREF_13
1005
0
  0
LINE
  5
16999
  8
AM_0
 10
-66.90529961367497
 20
235.34108634292039
 30
0.0
 11
-27.905267933802861
 21
235.34108634292039
 31
0.0
  0
LINE
  5
1699A
  8
AM_0
 10
-67.405267933804112
 20
204.84158134293531
 30
0.0
 11
-71.905267933803898
 21
204.84158134293531
 31
0.0
  0
LINE
  5
1699B
  8
AM_0
 10
-67.405267933804168
 20
220.34168455479889
 30
0.0
 11
-71.905267933803941
 21
220.34168455479889
 31
0.0
  0
LINE
  5
1699C
  8
AM_0
 10
-22.905270496803151
 20
204.8415813429352
 30
0.0
 11
-27.405270496802931
 21
204.8415813429352
 31
0.0
  0
LINE
  5
1699D
  8
AM_0
 10
-22.905270496802981
 20
220.34168455479889
 30
0.0
 11
-27.405270496802761
 21
220.34168455479889
 31
0.0
  0
LINE
  5
1699F
  8
0
  6
CONTINUOUS
 62
     7
 10
-141.4091097745688
 20
326.34062048621399
 30
0.0
 11
-150.4013097745686
 21
326.34062048621382
 31
0.0
  0
LINE
  5
169A0
  8
0
  6
CONTINUOUS
 62
     7
 10
-141.4091097745688
 20
312.28071694342049
 30
0.0
 11
-150.4013097745686
 21
312.28071694342032
 31
0.0
  0
ARC
  5
169A1
  8
AM_0
 10
-97.702844838099637
 20
329.34108634292039
 30
0.0
 40
4.9999999999999911
 50
90.000005008956919
 51
170.09319378272889
  0
POLYLINE
  5
169A2
  8
AM_0
 10
-109.40523984511228
 20
329.84059281812051
 30
0.0
 66
     1
 70
     8
  0
VERTEX
  8
AM_0
  5
1797A
 10
-109.405
 20
329.841
 30
0.000000
  70
    32
  0
VERTEX
  8
AM_0
  5
1797B
 10
-109.411
 20
330.061
 30
0.000000
  70
    32
  0
VERTEX
  8
AM_0
  5
1797C
 10
-109.427
 20
330.282
 30
0.000000
  70
    32
  0
VERTEX
  8
AM_0
  5
1797D
 10
-109.454
 20
330.501
 30
0.000000
  70
    32
  0
VERTEX
  8
AM_0
  5
1797E
 10
-109.492
 20
330.718
 30
0.000000
  70
    32
  0
VERTEX
  8
AM_0
  5
1797F
 10
-109.540
 20
330.934
 30
0.000000
  70
    32
  0
VERTEX
  8
AM_0
  5
17980
 10
-109.599
 20
331.147
 30
0.000000
  70
    32
  0
VERTEX
  8
AM_0
  5
17981
 10
-109.668
 20
331.357
 30
0.000000
  70
    32
  0
VERTEX
  8
AM_0
  5
17982
 10
-109.748
 20
331.563
 30
0.000000
  70
    32
  0
VERTEX
  8
AM_0
  5
17983
 10
-109.837
 20
331.765
 30
0.000000
  70
    32
  0
VERTEX
  8
AM_0
  5
17984
 10
-109.937
 20
331.962
 30
0.000000
  70
    32
  0
VERTEX
  8
AM_0
  5
17985
 10
-110.045
 20
332.154
 30
0.000000
  70
    32
  0
VERTEX
  8
AM_0
  5
17986
 10
-110.164
 20
332.341
 30
0.000000
  70
    32
  0
VERTEX
  8
AM_0
  5
17987
 10
-110.291
 20
332.521
 30
0.000000
  70
    32
  0
VERTEX
  8
AM_0
  5
17988
 10
-110.427
 20
332.695
 30
0.000000
  70
    32
  0
VERTEX
  8
AM_0
  5
17989
 10
-110.571
 20
332.863
 30
0.000000
  70
    32
  0
VERTEX
  8
AM_0
  5
1798A
 10
-110.723
 20
333.023
 30
0.000000
  70
    32
  0
VERTEX
  8
AM_0
  5
1798B
 10
-110.883
 20
333.175
 30
0.000000
  70
    32
  0
VERTEX
  8
AM_0
  5
1798C
 10
-111.050
 20
333.319
 30
0.000000
  70
    32
  0
VERTEX
  8
AM_0
  5
1798D
 10
-111.225
 20
333.455
 30
0.000000
  70
    32
  0
VERTEX
  8
AM_0
  5
1798E
 10
-111.405
 20
333.582
 30
0.000000
  70
    32
  0
VERTEX
  8
AM_0
  5
1798F
 10
-111.592
 20
333.700
 30
0.000000
  70
    32
  0
VERTEX
  8
AM_0
  5
17990
 10
-111.784
 20
333.809
 30
0.000000
  70
    32
  0
VERTEX
  8
AM_0
  5
17991
 10
-111.981
 20
333.909
 30
0.000000
  70
    32
  0
VERTEX
  8
AM_0
  5
17992
 10
-112.183
 20
333.998
 30
0.000000
  70
    32
  0
VERTEX
  8
AM_0
  5
17993
 10
-112.389
 20
334.077
 30
0.000000
  70
    32
  0
VERTEX
  8
AM_0
  5
17994
 10
-112.599
 20
334.147
 30
0.000000
  70
    32
  0
VERTEX
  8
AM_0
  5
17995
 10
-112.812
 20
334.206
 30
0.000000
  70
    32
  0
VERTEX
  8
AM_0
  5
17996
 10
-113.027
 20
334.254
 30
0.000000
  70
    32
  0
VERTEX
  8
AM_0
  5
17997
 10
-113.245
 20
334.292
 30
0.000000
  70
    32
  0
VERTEX
  8
AM_0
  5
17998
 10
-113.464
 20
334.319
 30
0.000000
  70
    32
  0
VERTEX
  8
AM_0
  5
17999
 10
-113.684
 20
334.335
 30
0.000000
  70
    32
  0
VERTEX
  8
AM_0
  5
1799A
 10
-113.905
 20
334.341
 30
0.000000
  70
    32
  0
VERTEX
  8
AM_0
  5
1799B
 10
-114.126
 20
334.335
 30
0.000000
  70
    32
  0
VERTEX
  8
AM_0
  5
1799C
 10
-114.346
 20
334.319
 30
0.000000
  70
    32
  0
VERTEX
  8
AM_0
  5
1799D
 10
-114.566
 20
334.292
 30
0.000000
  70
    32
  0
VERTEX
  8
AM_0
  5
1799E
 10
-114.783
 20
334.254
 30
0.000000
  70
    32
  0
VERTEX
  8
AM_0
  5
1799F
 10
-114.999
 20
334.206
 30
0.000000
  70
    32
  0
VERTEX
  8
AM_0
  5
179A0
 10
-115.212
 20
334.147
 30
0.000000
  70
    32
  0
VERTEX
  8
AM_0
  5
179A1
 10
-115.421
 20
334.077
 30
0.000000
  70
    32
  0
VERTEX
  8
AM_0
  5
179A2
 10
-115.627
 20
333.998
 30
0.000000
  70
    32
  0
VERTEX
  8
AM_0
  5
179A3
 10
-115.829
 20
333.909
 30
0.000000
  70
    32
  0
VERTEX
  8
AM_0
  5
179A4
 10
-116.027
 20
333.809
 30
0.000000
  70
    32
  0
VERTEX
  8
AM_0
  5
179A5
 10
-116.219
 20
333.700
 30
0.000000
  70
    32
  0
VERTEX
  8
AM_0
  5
179A6
 10
-116.405
 20
333.582
 30
0.000000
  70
    32
  0
VERTEX
  8
AM_0
  5
179A7
 10
-116.586
 20
333.455
 30
0.000000
  70
    32
  0
VERTEX
  8
AM_0
  5
179A8
 10
-116.760
 20
333.319
 30
0.000000
  70
    32
  0
VERTEX
  8
AM_0
  5
179A9
 10
-116.927
 20
333.175
 30
0.000000
  70
    32
  0
VERTEX
  8
AM_0
  5
179AA
 10
-117.087
 20
333.023
 30
0.000000
  70
    32
  0
VERTEX
  8
AM_0
  5
179AB
 10
-117.240
 20
332.863
 30
0.000000
  70
    32
  0
VERTEX
  8
AM_0
  5
179AC
 10
-117.384
 20
332.695
 30
0.000000
  70
    32
  0
VERTEX
  8
AM_0
  5
179AD
 10
-117.520
 20
332.521
 30
0.000000
  70
    32
  0
VERTEX
  8
AM_0
  5
179AE
 10
-117.647
 20
332.341
 30
0.000000
  70
    32
  0
VERTEX
  8
AM_0
  5
179AF
 10
-117.765
 20
332.154
 30
0.000000
  70
    32
  0
VERTEX
  8
AM_0
  5
179B0
 10
-117.874
 20
331.962
 30
0.000000
  70
    32
  0
VERTEX
  8
AM_0
  5
179B1
 10
-117.973
 20
331.765
 30
0.000000
  70
    32
  0
VERTEX
  8
AM_0
  5
179B2
 10
-118.063
 20
331.563
 30
0.000000
  70
    32
  0
VERTEX
  8
AM_0
  5
179B3
 10
-118.142
 20
331.357
 30
0.000000
  70
    32
  0
VERTEX
  8
AM_0
  5
179B4
 10
-118.211
 20
331.147
 30
0.000000
  70
    32
  0
VERTEX
  8
AM_0
  5
179B5
 10
-118.270
 20
330.934
 30
0.000000
  70
    32
  0
VERTEX
  8
AM_0
  5
179B6
 10
-118.319
 20
330.718
 30
0.000000
  70
    32
  0
VERTEX
  8
AM_0
  5
179B7
 10
-118.357
 20
330.501
 30
0.000000
  70
    32
  0
VERTEX
  8
AM_0
  5
179B8
 10
-118.384
 20
330.282
 30
0.000000
  70
    32
  0
VERTEX
  8
AM_0
  5
179B9
 10
-118.400
 20
330.061
 30
0.000000
  70
    32
  0
VERTEX
  8
AM_0
  5
179BA
 10
-118.405
 20
329.841
 30
0.000000
  70
    32
  0
VERTEX
  8
AM_0
  5
179BB
 10
-118.400
 20
329.620
 30
0.000000
  70
    32
  0
VERTEX
  8
AM_0
  5
179BC
 10
-118.384
 20
329.400
 30
0.000000
  70
    32
  0
VERTEX
  8
AM_0
  5
179BD
 10
-118.357
 20
329.180
 30
0.000000
  70
    32
  0
VERTEX
  8
AM_0
  5
179BE
 10
-118.319
 20
328.963
 30
0.000000
  70
    32
  0
VERTEX
  8
AM_0
  5
179BF
 10
-118.270
 20
328.747
 30
0.000000
  70
    32
  0
VERTEX
  8
AM_0
  5
179C0
 10
-118.211
 20
328.534
 30
0.000000
  70
    32
  0
VERTEX
  8
AM_0
  5
179C1
 10
-118.142
 20
328.325
 30
0.000000
  70
    32
  0
VERTEX
  8
AM_0
  5
179C2
 10
-118.063
 20
328.119
 30
0.000000
  70
    32
  0
VERTEX
  8
AM_0
  5
179C3
 10
-117.973
 20
327.917
 30
0.000000
  70
    32
  0
VERTEX
  8
AM_0
  5
179C4
 10
-117.874
 20
327.719
 30
0.000000
  70
    32
  0
VERTEX
  8
AM_0
  5
179C5
 10
-117.765
 20
327.527
 30
0.000000
  70
    32
  0
VERTEX
  8
AM_0
  5
179C6
 10
-117.647
 20
327.341
 30
0.000000
  70
    32
  0
VERTEX
  8
AM_0
  5
179C7
 10
-117.520
 20
327.160
 30
0.000000
  70
    32
  0
VERTEX
  8
AM_0
  5
179C8
 10
-117.384
 20
326.986
 30
0.000000
  70
    32
  0
VERTEX
  8
AM_0
  5
179C9
 10
-117.240
 20
326.819
 30
0.000000
  70
    32
  0
VERTEX
  8
AM_0
  5
179CA
 10
-117.087
 20
326.659
 30
0.000000
  70
    32
  0
VERTEX
  8
AM_0
  5
179CB
 10
-116.927
 20
326.506
 30
0.000000
  70
    32
  0
VERTEX
  8
AM_0
  5
179CC
 10
-116.760
 20
326.362
 30
0.000000
  70
    32
  0
VERTEX
  8
AM_0
  5
179CD
 10
-116.586
 20
326.226
 30
0.000000
  70
    32
  0
VERTEX
  8
AM_0
  5
179CE
 10
-116.405
 20
326.099
 30
0.000000
  70
    32
  0
VERTEX
  8
AM_0
  5
179CF
 10
-116.219
 20
325.981
 30
0.000000
  70
    32
  0
VERTEX
  8
AM_0
  5
179D0
 10
-116.027
 20
325.872
 30
0.000000
  70
    32
  0
VERTEX
  8
AM_0
  5
179D1
 10
-115.829
 20
325.773
 30
0.000000
  70
    32
  0
VERTEX
  8
AM_0
  5
179D2
 10
-115.627
 20
325.683
 30
0.000000
  70
    32
  0
VERTEX
  8
AM_0
  5
179D3
 10
-115.421
 20
325.604
 30
0.000000
  70
    32
  0
VERTEX
  8
AM_0
  5
179D4
 10
-115.212
 20
325.534
 30
0.000000
  70
    32
  0
VERTEX
  8
AM_0
  5
179D5
 10
-114.999
 20
325.475
 30
0.000000
  70
    32
  0
VERTEX
  8
AM_0
  5
179D6
 10
-114.783
 20
325.427
 30
0.000000
  70
    32
  0
VERTEX
  8
AM_0
  5
179D7
 10
-114.566
 20
325.389
 30
0.000000
  70
    32
  0
VERTEX
  8
AM_0
  5
179D8
 10
-114.346
 20
325.362
 30
0.000000
  70
    32
  0
VERTEX
  8
AM_0
  5
179D9
 10
-114.126
 20
325.346
 30
0.000000
  70
    32
  0
VERTEX
  8
AM_0
  5
179DA
 10
-113.905
 20
325.341
 30
0.000000
  70
    32
  0
VERTEX
  8
AM_0
  5
179DB
 10
-113.684
 20
325.346
 30
0.000000
  70
    32
  0
VERTEX
  8
AM_0
  5
179DC
 10
-113.464
 20
325.362
 30
0.000000
  70
    32
  0
VERTEX
  8
AM_0
  5
179DD
 10
-113.245
 20
325.389
 30
0.000000
  70
    32
  0
VERTEX
  8
AM_0
  5
179DE
 10
-113.027
 20
325.427
 30
0.000000
  70
    32
  0
VERTEX
  8
AM_0
  5
179DF
 10
-112.812
 20
325.475
 30
0.000000
  70
    32
  0
VERTEX
  8
AM_0
  5
179E0
 10
-112.599
 20
325.534
 30
0.000000
  70
    32
  0
VERTEX
  8
AM_0
  5
179E1
 10
-112.389
 20
325.604
 30
0.000000
  70
    32
  0
VERTEX
  8
AM_0
  5
179E2
 10
-112.183
 20
325.683
 30
0.000000
  70
    32
  0
VERTEX
  8
AM_0
  5
179E3
 10
-111.981
 20
325.773
 30
0.000000
  70
    32
  0
VERTEX
  8
AM_0
  5
179E4
 10
-111.784
 20
325.872
 30
0.000000
  70
    32
  0
VERTEX
  8
AM_0
  5
179E5
 10
-111.592
 20
325.981
 30
0.000000
  70
    32
  0
VERTEX
  8
AM_0
  5
179E6
 10
-111.405
 20
326.099
 30
0.000000
  70
    32
  0
VERTEX
  8
AM_0
  5
179E7
 10
-111.225
 20
326.226
 30
0.000000
  70
    32
  0
VERTEX
  8
AM_0
  5
179E8
 10
-111.050
 20
326.362
 30
0.000000
  70
    32
  0
VERTEX
  8
AM_0
  5
179E9
 10
-110.883
 20
326.506
 30
0.000000
  70
    32
  0
VERTEX
  8
AM_0
  5
179EA
 10
-110.723
 20
326.659
 30
0.000000
  70
    32
  0
VERTEX
  8
AM_0
  5
179EB
 10
-110.571
 20
326.819
 30
0.000000
  70
    32
  0
VERTEX
  8
AM_0
  5
179EC
 10
-110.427
 20
326.986
 30
0.000000
  70
    32
  0
VERTEX
  8
AM_0
  5
179ED
 10
-110.291
 20
327.160
 30
0.000000
  70
    32
  0
VERTEX
  8
AM_0
  5
179EE
 10
-110.164
 20
327.341
 30
0.000000
  70
    32
  0
VERTEX
  8
AM_0
  5
179EF
 10
-110.045
 20
327.527
 30
0.000000
  70
    32
  0
VERTEX
  8
AM_0
  5
179F0
 10
-109.937
 20
327.719
 30
0.000000
  70
    32
  0
VERTEX
  8
AM_0
  5
179F1
 10
-109.837
 20
327.917
 30
0.000000
  70
    32
  0
VERTEX
  8
AM_0
  5
179F2
 10
-109.748
 20
328.119
 30
0.000000
  70
    32
  0
VERTEX
  8
AM_0
  5
179F3
 10
-109.668
 20
328.325
 30
0.000000
  70
    32
  0
VERTEX
  8
AM_0
  5
179F4
 10
-109.599
 20
328.534
 30
0.000000
  70
    32
  0
VERTEX
  8
AM_0
  5
179F5
 10
-109.540
 20
328.747
 30
0.000000
  70
    32
  0
VERTEX
  8
AM_0
  5
179F6
 10
-109.492
 20
328.963
 30
0.000000
  70
    32
  0
VERTEX
  8
AM_0
  5
179F7
 10
-109.454
 20
329.180
 30
0.000000
  70
    32
  0
VERTEX
  8
AM_0
  5
179F8
 10
-109.427
 20
329.400
 30
0.000000
  70
    32
  0
VERTEX
  8
AM_0
  5
179F9
 10
-109.411
 20
329.620
 30
0.000000
  70
    32
  0
VERTEX
  8
AM_0
  5
179FA
 10
-109.405
 20
329.841
 30
0.000000
  70
    32
  0
SEQEND
  8
AM_0
  5
179FB
  0
POLYLINE
  5
169A3
  8
AM_0
 10
-114.4052404312373
 20
340.34048813104181
 30
0.0
 66
     1
 70
     8
  0
VERTEX
  8
AM_0
  5
179FC
 10
-114.405
 20
340.340
 30
0.000000
  70
    32
  0
VERTEX
  8
AM_0
  5
179FD
 10
-114.528
 20
340.340
 30
0.000000
  70
    32
  0
VERTEX
  8
AM_0
  5
179FE
 10
-114.651
 20
340.337
 30
0.000000
  70
    32
  0
VERTEX
  8
AM_0
  5
179FF
 10
-114.773
 20
340.334
 30
0.000000
  70
    32
  0
VERTEX
  8
AM_0
  5
17A00
 10
-114.896
 20
340.328
 30
0.000000
  70
    32
  0
VERTEX
  8
AM_0
  5
17A01
 10
-115.018
 20
340.322
 30
0.000000
  70
    32
  0
VERTEX
  8
AM_0
  5
17A02
 10
-115.141
 20
340.313
 30
0.000000
  70
    32
  0
VERTEX
  8
AM_0
  5
17A03
 10
-115.263
 20
340.304
 30
0.000000
  70
    32
  0
VERTEX
  8
AM_0
  5
17A04
 10
-115.385
 20
340.292
 30
0.000000
  70
    32
  0
VERTEX
  8
AM_0
  5
17A05
 10
-115.507
 20
340.280
 30
0.000000
  70
    32
  0
VERTEX
  8
AM_0
  5
17A06
 10
-115.629
 20
340.265
 30
0.000000
  70
    32
  0
VERTEX
  8
AM_0
  5
17A07
 10
-115.751
 20
340.250
 30
0.000000
  70
    32
  0
VERTEX
  8
AM_0
  5
17A08
 10
-115.873
 20
340.232
 30
0.000000
  70
    32
  0
VERTEX
  8
AM_0
  5
17A09
 10
-115.994
 20
340.214
 30
0.000000
  70
    32
  0
VERTEX
  8
AM_0
  5
17A0A
 10
-116.115
 20
340.193
 30
0.000000
  70
    32
  0
VERTEX
  8
AM_0
  5
17A0B
 10
-116.236
 20
340.172
 30
0.000000
  70
    32
  0
VERTEX
  8
AM_0
  5
17A0C
 10
-116.356
 20
340.148
 30
0.000000
  70
    32
  0
VERTEX
  8
AM_0
  5
17A0D
 10
-116.476
 20
340.124
 30
0.000000
  70
    32
  0
VERTEX
  8
AM_0
  5
17A0E
 10
-116.596
 20
340.098
 30
0.000000
  70
    32
  0
VERTEX
  8
AM_0
  5
17A0F
 10
-116.716
 20
340.070
 30
0.000000
  70
    32
  0
VERTEX
  8
AM_0
  5
17A10
 10
-116.835
 20
340.041
 30
0.000000
  70
    32
  0
VERTEX
  8
AM_0
  5
17A11
 10
-116.954
 20
340.010
 30
0.000000
  70
    32
  0
VERTEX
  8
AM_0
  5
17A12
 10
-117.072
 20
339.978
 30
0.000000
  70
    32
  0
VERTEX
  8
AM_0
  5
17A13
 10
-117.190
 20
339.945
 30
0.000000
  70
    32
  0
VERTEX
  8
AM_0
  5
17A14
 10
-117.308
 20
339.910
 30
0.000000
  70
    32
  0
VERTEX
  8
AM_0
  5
17A15
 10
-117.425
 20
339.874
 30
0.000000
  70
    32
  0
VERTEX
  8
AM_0
  5
17A16
 10
-117.542
 20
339.836
 30
0.000000
  70
    32
  0
VERTEX
  8
AM_0
  5
17A17
 10
-117.658
 20
339.797
 30
0.000000
  70
    32
  0
VERTEX
  8
AM_0
  5
17A18
 10
-117.774
 20
339.756
 30
0.000000
  70
    32
  0
VERTEX
  8
AM_0
  5
17A19
 10
-117.889
 20
339.714
 30
0.000000
  70
    32
  0
VERTEX
  8
AM_0
  5
17A1A
 10
-118.004
 20
339.670
 30
0.000000
  70
    32
  0
VERTEX
  8
AM_0
  5
17A1B
 10
-118.118
 20
339.626
 30
0.000000
  70
    32
  0
VERTEX
  8
AM_0
  5
17A1C
 10
-118.232
 20
339.579
 30
0.000000
  70
    32
  0
VERTEX
  8
AM_0
  5
17A1D
 10
-118.345
 20
339.532
 30
0.000000
  70
    32
  0
VERTEX
  8
AM_0
  5
17A1E
 10
-118.458
 20
339.483
 30
0.000000
  70
    32
  0
VERTEX
  8
AM_0
  5
17A1F
 10
-118.570
 20
339.432
 30
0.000000
  70
    32
  0
VERTEX
  8
AM_0
  5
17A20
 10
-118.681
 20
339.380
 30
0.000000
  70
    32
  0
VERTEX
  8
AM_0
  5
17A21
 10
-118.791
 20
339.327
 30
0.000000
  70
    32
  0
VERTEX
  8
AM_0
  5
17A22
 10
-118.901
 20
339.273
 30
0.000000
  70
    32
  0
VERTEX
  8
AM_0
  5
17A23
 10
-119.011
 20
339.217
 30
0.000000
  70
    32
  0
VERTEX
  8
AM_0
  5
17A24
 10
-119.119
 20
339.160
 30
0.000000
  70
    32
  0
VERTEX
  8
AM_0
  5
17A25
 10
-119.227
 20
339.101
 30
0.000000
  70
    32
  0
VERTEX
  8
AM_0
  5
17A26
 10
-119.334
 20
339.041
 30
0.000000
  70
    32
  0
VERTEX
  8
AM_0
  5
17A27
 10
-119.441
 20
338.980
 30
0.000000
  70
    32
  0
VERTEX
  8
AM_0
  5
17A28
 10
-119.546
 20
338.918
 30
0.000000
  70
    32
  0
VERTEX
  8
AM_0
  5
17A29
 10
-119.651
 20
338.854
 30
0.000000
  70
    32
  0
VERTEX
  8
AM_0
  5
17A2A
 10
-119.755
 20
338.789
 30
0.000000
  70
    32
  0
VERTEX
  8
AM_0
  5
17A2B
 10
-119.858
 20
338.723
 30
0.000000
  70
    32
  0
VERTEX
  8
AM_0
  5
17A2C
 10
-119.961
 20
338.655
 30
0.000000
  70
    32
  0
VERTEX
  8
AM_0
  5
17A2D
 10
-120.063
 20
338.586
 30
0.000000
  70
    32
  0
VERTEX
  8
AM_0
  5
17A2E
 10
-120.163
 20
338.516
 30
0.000000
  70
    32
  0
VERTEX
  8
AM_0
  5
17A2F
 10
-120.263
 20
338.445
 30
0.000000
  70
    32
  0
VERTEX
  8
AM_0
  5
17A30
 10
-120.362
 20
338.373
 30
0.000000
  70
    32
  0
VERTEX
  8
AM_0
  5
17A31
 10
-120.460
 20
338.299
 30
0.000000
  70
    32
  0
VERTEX
  8
AM_0
  5
17A32
 10
-120.558
 20
338.224
 30
0.000000
  70
    32
  0
VERTEX
  8
AM_0
  5
17A33
 10
-120.654
 20
338.148
 30
0.000000
  70
    32
  0
VERTEX
  8
AM_0
  5
17A34
 10
-120.749
 20
338.071
 30
0.000000
  70
    32
  0
VERTEX
  8
AM_0
  5
17A35
 10
-120.844
 20
337.992
 30
0.000000
  70
    32
  0
VERTEX
  8
AM_0
  5
17A36
 10
-120.937
 20
337.913
 30
0.000000
  70
    32
  0
VERTEX
  8
AM_0
  5
17A37
 10
-121.029
 20
337.832
 30
0.000000
  70
    32
  0
VERTEX
  8
AM_0
  5
17A38
 10
-121.121
 20
337.750
 30
0.000000
  70
    32
  0
VERTEX
  8
AM_0
  5
17A39
 10
-121.211
 20
337.667
 30
0.000000
  70
    32
  0
VERTEX
  8
AM_0
  5
17A3A
 10
-121.301
 20
337.583
 30
0.000000
  70
    32
  0
VERTEX
  8
AM_0
  5
17A3B
 10
-121.389
 20
337.498
 30
0.000000
  70
    32
  0
VERTEX
  8
AM_0
  5
17A3C
 10
-121.476
 20
337.412
 30
0.000000
  70
    32
  0
VERTEX
  8
AM_0
  5
17A3D
 10
-121.563
 20
337.324
 30
0.000000
  70
    32
  0
VERTEX
  8
AM_0
  5
17A3E
 10
-121.648
 20
337.236
 30
0.000000
  70
    32
  0
VERTEX
  8
AM_0
  5
17A3F
 10
-121.732
 20
337.147
 30
0.000000
  70
    32
  0
VERTEX
  8
AM_0
  5
17A40
 10
-121.815
 20
337.056
 30
0.000000
  70
    32
  0
VERTEX
  8
AM_0
  5
17A41
 10
-121.897
 20
336.965
 30
0.000000
  70
    32
  0
VERTEX
  8
AM_0
  5
17A42
 10
-121.977
 20
336.872
 30
0.000000
  70
    32
  0
VERTEX
  8
AM_0
  5
17A43
 10
-122.057
 20
336.779
 30
0.000000
  70
    32
  0
VERTEX
  8
AM_0
  5
17A44
 10
-122.135
 20
336.684
 30
0.000000
  70
    32
  0
VERTEX
  8
AM_0
  5
17A45
 10
-122.213
 20
336.589
 30
0.000000
  70
    32
  0
VERTEX
  8
AM_0
  5
17A46
 10
-122.289
 20
336.493
 30
0.000000
  70
    32
  0
VERTEX
  8
AM_0
  5
17A47
 10
-122.364
 20
336.396
 30
0.000000
  70
    32
  0
VERTEX
  8
AM_0
  5
17A48
 10
-122.437
 20
336.298
 30
0.000000
  70
    32
  0
VERTEX
  8
AM_0
  5
17A49
 10
-122.510
 20
336.199
 30
0.000000
  70
    32
  0
VERTEX
  8
AM_0
  5
17A4A
 10
-122.581
 20
336.099
 30
0.000000
  70
    32
  0
VERTEX
  8
AM_0
  5
17A4B
 10
-122.651
 20
335.998
 30
0.000000
  70
    32
  0
VERTEX
  8
AM_0
  5
17A4C
 10
-122.720
 20
335.896
 30
0.000000
  70
    32
  0
VERTEX
  8
AM_0
  5
17A4D
 10
-122.787
 20
335.794
 30
0.000000
  70
    32
  0
VERTEX
  8
AM_0
  5
17A4E
 10
-122.854
 20
335.691
 30
0.000000
  70
    32
  0
VERTEX
  8
AM_0
  5
17A4F
 10
-122.919
 20
335.586
 30
0.000000
  70
    32
  0
VERTEX
  8
AM_0
  5
17A50
 10
-122.983
 20
335.482
 30
0.000000
  70
    32
  0
VERTEX
  8
AM_0
  5
17A51
 10
-123.045
 20
335.376
 30
0.000000
  70
    32
  0
VERTEX
  8
AM_0
  5
17A52
 10
-123.106
 20
335.270
 30
0.000000
  70
    32
  0
VERTEX
  8
AM_0
  5
17A53
 10
-123.166
 20
335.162
 30
0.000000
  70
    32
  0
VERTEX
  8
AM_0
  5
17A54
 10
-123.224
 20
335.055
 30
0.000000
  70
    32
  0
VERTEX
  8
AM_0
  5
17A55
 10
-123.282
 20
334.946
 30
0.000000
  70
    32
  0
VERTEX
  8
AM_0
  5
17A56
 10
-123.337
 20
334.837
 30
0.000000
  70
    32
  0
VERTEX
  8
AM_0
  5
17A57
 10
-123.392
 20
334.727
 30
0.000000
  70
    32
  0
VERTEX
  8
AM_0
  5
17A58
 10
-123.445
 20
334.616
 30
0.000000
  70
    32
  0
VERTEX
  8
AM_0
  5
17A59
 10
-123.497
 20
334.505
 30
0.000000
  70
    32
  0
VERTEX
  8
AM_0
  5
17A5A
 10
-123.547
 20
334.393
 30
0.000000
  70
    32
  0
VERTEX
  8
AM_0
  5
17A5B
 10
-123.596
 20
334.280
 30
0.000000
  70
    32
  0
VERTEX
  8
AM_0
  5
17A5C
 10
-123.644
 20
334.167
 30
0.000000
  70
    32
  0
VERTEX
  8
AM_0
  5
17A5D
 10
-123.690
 20
334.054
 30
0.000000
  70
    32
  0
VERTEX
  8
AM_0
  5
17A5E
 10
-123.735
 20
333.940
 30
0.000000
  70
    32
  0
VERTEX
  8
AM_0
  5
17A5F
 10
-123.779
 20
333.825
 30
0.000000
  70
    32
  0
VERTEX
  8
AM_0
  5
17A60
 10
-123.821
 20
333.709
 30
0.000000
  70
    32
  0
VERTEX
  8
AM_0
  5
17A61
 10
-123.861
 20
333.594
 30
0.000000
  70
    32
  0
VERTEX
  8
AM_0
  5
17A62
 10
-123.901
 20
333.477
 30
0.000000
  70
    32
  0
VERTEX
  8
AM_0
  5
17A63
 10
-123.938
 20
333.361
 30
0.000000
  70
    32
  0
VERTEX
  8
AM_0
  5
17A64
 10
-123.975
 20
333.243
 30
0.000000
  70
    32
  0
VERTEX
  8
AM_0
  5
17A65
 10
-124.010
 20
333.126
 30
0.000000
  70
    32
  0
VERTEX
  8
AM_0
  5
17A66
 10
-124.043
 20
333.008
 30
0.000000
  70
    32
  0
VERTEX
  8
AM_0
  5
17A67
 10
-124.075
 20
332.889
 30
0.000000
  70
    32
  0
VERTEX
  8
AM_0
  5
17A68
 10
-124.106
 20
332.770
 30
0.000000
  70
    32
  0
VERTEX
  8
AM_0
  5
17A69
 10
-124.135
 20
332.651
 30
0.000000
  70
    32
  0
VERTEX
  8
AM_0
  5
17A6A
 10
-124.162
 20
332.532
 30
0.000000
  70
    32
  0
VERTEX
  8
AM_0
  5
17A6B
 10
-124.188
 20
332.412
 30
0.000000
  70
    32
  0
VERTEX
  8
AM_0
  5
17A6C
 10
-124.213
 20
332.291
 30
0.000000
  70
    32
  0
VERTEX
  8
AM_0
  5
17A6D
 10
-124.236
 20
332.171
 30
0.000000
  70
    32
  0
VERTEX
  8
AM_0
  5
17A6E
 10
-124.258
 20
332.050
 30
0.000000
  70
    32
  0
VERTEX
  8
AM_0
  5
17A6F
 10
-124.278
 20
331.929
 30
0.000000
  70
    32
  0
VERTEX
  8
AM_0
  5
17A70
 10
-124.297
 20
331.808
 30
0.000000
  70
    32
  0
VERTEX
  8
AM_0
  5
17A71
 10
-124.314
 20
331.686
 30
0.000000
  70
    32
  0
VERTEX
  8
AM_0
  5
17A72
 10
-124.330
 20
331.565
 30
0.000000
  70
    32
  0
VERTEX
  8
AM_0
  5
17A73
 10
-124.344
 20
331.443
 30
0.000000
  70
    32
  0
VERTEX
  8
AM_0
  5
17A74
 10
-124.357
 20
331.321
 30
0.000000
  70
    32
  0
VERTEX
  8
AM_0
  5
17A75
 10
-124.368
 20
331.199
 30
0.000000
  70
    32
  0
VERTEX
  8
AM_0
  5
17A76
 10
-124.378
 20
331.076
 30
0.000000
  70
    32
  0
VERTEX
  8
AM_0
  5
17A77
 10
-124.386
 20
330.954
 30
0.000000
  70
    32
  0
VERTEX
  8
AM_0
  5
17A78
 10
-124.393
 20
330.831
 30
0.000000
  70
    32
  0
VERTEX
  8
AM_0
  5
17A79
 10
-124.398
 20
330.709
 30
0.000000
  70
    32
  0
VERTEX
  8
AM_0
  5
17A7A
 10
-124.402
 20
330.586
 30
0.000000
  70
    32
  0
VERTEX
  8
AM_0
  5
17A7B
 10
-124.404
 20
330.463
 30
0.000000
  70
    32
  0
VERTEX
  8
AM_0
  5
17A7C
 10
-124.405
 20
330.341
 30
0.000000
  70
    32
  0
SEQEND
  8
AM_0
  5
17A7D
  0
CIRCLE
  5
169A6
  8
AM_0
 10
-117.4052679338027
 20
315.34108634292039
 30
0.0
 40
5.0
1001
GENIUS_GENOREF_13
1005
0
  0
ARC
  5
169A7
  8
AM_0
 10
-117.4052679338027
 20
315.34108634292039
 30
0.0
 40
6.0
 50
270.0
 51
90.000005008956919
  0
ARC
  5
169A8
  8
AM_0
 10
-117.4052679338027
 20
315.34108634292039
 30
0.0
 40
12.0
 50
283.60896067595479
 51
350.09318877377638
  0
ARC
  5
169A9
  8
AM_0
 10
-113.4052679338027
 20
298.81837363540092
 30
0.0
 40
5.0
 50
103.6089556670003
 51
179.99999749551819
  0
LINE
  5
169AA
  8
AM_0
 10
-122.40527556319731
 20
309.34108634292028
 30
0.0
 11
-117.4052679338028
 21
309.34108634292028
 31
0.0
  0
ARC
  5
169AB
  8
AM_0
 10
-122.40527556319731
 20
307.34108634292039
 30
0.0
 40
1.9999999999999929
 50
90.000005008950424
 51
180.000000683243
  0
LINE
  5
169AC
  8
0
  6
CONTINUOUS
 62
     7
 10
-126.4052402921471
 20
328.70342515852292
 30
0.0
 11
-139.409109774569
 21
328.70342515852292
 31
0.0
  0
ARC
  5
169AD
  8
AM_0
 10
-122.40527556319731
 20
323.34108634292039
 30
0.0
 40
2.0000000000000022
 50
179.99999749551819
 51
270.0
  0
LINE
  5
169AE
  8
AM_0
 10
-122.40527556319731
 20
321.34108634292028
 30
0.0
 11
-117.4052679338028
 21
321.34108634292028
 31
0.0
  0
LINE
  5
169AF
  8
AM_0
 10
-114.51851658785461
 20
315.34108634292039
 30
0.0
 11
-115.9618922608289
 21
317.84108634292051
 31
0.0
1001
GENIUS_GENOREF_13
1005
0
  0
LINE
  5
169B0
  8
AM_0
 10
-118.84864360677641
 20
317.84108634292051
 30
0.0
 11
-120.2920192797509
 21
315.34108634292039
 31
0.0
1001
GENIUS_GENOREF_13
1005
0
  0
LINE
  5
169B1
  8
AM_0
 10
-115.9618922608289
 20
317.84108634292051
 30
0.0
 11
-118.84864360677641
 21
317.84108634292051
 31
0.0
1001
GENIUS_GENOREF_13
1005
0
  0
LINE
  5
169B2
  8
AM_0
 10
-118.8486436067768
 20
312.84108634292039
 30
0.0
 11
-115.96189226082861
 21
312.84108634292039
 31
0.0
1001
GENIUS_GENOREF_13
1005
0
  0
LINE
  5
169B3
  8
AM_0
 10
-115.96189226082861
 20
312.84108634292039
 30
0.0
 11
-114.51851658785461
 21
315.34108634292039
 31
0.0
1001
GENIUS_GENOREF_13
1005
0
  0
LINE
  5
169B4
  8
AM_0
 10
-120.2920192797509
 20
315.34108634292039
 30
0.0
 11
-118.8486436067768
 21
312.84108634292039
 31
0.0
1001
GENIUS_GENOREF_13
1005
0
  0
CIRCLE
  5
169B5
  8
AM_0
 10
-117.4052679338027
 20
315.34108634292039
 30
0.0
 40
2.886751345948126
1001
GENIUS_GENOREF_13
1005
0
  0
LINE
  5
169B6
  8
AM_0
 10
-102.6282903947403
 20
330.20131583510789
 30
0.0
 11
-105.5842077531387
 21
313.27653403579143
 31
0.0
  0
LINE
  5
169B7
  8
0
  6
CONTINUOUS
 62
     7
 10
-139.409109774569
 20
334.84053134302007
 30
0.0
 11
-124.492367236917
 21
334.84053134302042
 31
0.0
  0
POLYLINE
  5
169BA
  8
0
  6
CONTINUOUS
 62
     7
 10
-124.492367236917
 20
334.84053134302019
 30
0.0
 66
     1
 70
     8
  0
VERTEX
  8
0
  5
17A7E
 10
-124.492
 20
334.841
 30
0.000000
  70
    32
  0
VERTEX
  8
0
  5
17A7F
 10
-124.477
 20
334.841
 30
0.000000
  70
    32
  0
VERTEX
  8
0
  5
17A80
 10
-124.461
 20
334.841
 30
0.000000
  70
    32
  0
VERTEX
  8
0
  5
17A81
 10
-124.446
 20
334.841
 30
0.000000
  70
    32
  0
VERTEX
  8
0
  5
17A82
 10
-124.430
 20
334.842
 30
0.000000
  70
    32
  0
VERTEX
  8
0
  5
17A83
 10
-124.414
 20
334.842
 30
0.000000
  70
    32
  0
VERTEX
  8
0
  5
17A84
 10
-124.399
 20
334.843
 30
0.000000
  70
    32
  0
VERTEX
  8
0
  5
17A85
 10
-124.383
 20
334.844
 30
0.000000
  70
    32
  0
VERTEX
  8
0
  5
17A86
 10
-124.368
 20
334.844
 30
0.000000
  70
    32
  0
VERTEX
  8
0
  5
17A87
 10
-124.352
 20
334.845
 30
0.000000
  70
    32
  0
VERTEX
  8
0
  5
17A88
 10
-124.337
 20
334.847
 30
0.000000
  70
    32
  0
VERTEX
  8
0
  5
17A89
 10
-124.321
 20
334.848
 30
0.000000
  70
    32
  0
VERTEX
  8
0
  5
17A8A
 10
-124.305
 20
334.849
 30
0.000000
  70
    32
  0
VERTEX
  8
0
  5
17A8B
 10
-124.290
 20
334.851
 30
0.000000
  70
    32
  0
VERTEX
  8
0
  5
17A8C
 10
-124.274
 20
334.852
 30
0.000000
  70
    32
  0
VERTEX
  8
0
  5
17A8D
 10
-124.259
 20
334.854
 30
0.000000
  70
    32
  0
VERTEX
  8
0
  5
17A8E
 10
-124.243
 20
334.856
 30
0.000000
  70
    32
  0
VERTEX
  8
0
  5
17A8F
 10
-124.228
 20
334.858
 30
0.000000
  70
    32
  0
VERTEX
  8
0
  5
17A90
 10
-124.212
 20
334.860
 30
0.000000
  70
    32
  0
VERTEX
  8
0
  5
17A91
 10
-124.197
 20
334.862
 30
0.000000
  70
    32
  0
VERTEX
  8
0
  5
17A92
 10
-124.182
 20
334.865
 30
0.000000
  70
    32
  0
VERTEX
  8
0
  5
17A93
 10
-124.166
 20
334.867
 30
0.000000
  70
    32
  0
VERTEX
  8
0
  5
17A94
 10
-124.151
 20
334.870
 30
0.000000
  70
    32
  0
VERTEX
  8
0
  5
17A95
 10
-124.135
 20
334.873
 30
0.000000
  70
    32
  0
VERTEX
  8
0
  5
17A96
 10
-124.120
 20
334.875
 30
0.000000
  70
    32
  0
VERTEX
  8
0
  5
17A97
 10
-124.105
 20
334.878
 30
0.000000
  70
    32
  0
VERTEX
  8
0
  5
17A98
 10
-124.090
 20
334.882
 30
0.000000
  70
    32
  0
VERTEX
  8
0
  5
17A99
 10
-124.074
 20
334.885
 30
0.000000
  70
    32
  0
VERTEX
  8
0
  5
17A9A
 10
-124.059
 20
334.888
 30
0.000000
  70
    32
  0
VERTEX
  8
0
  5
17A9B
 10
-124.044
 20
334.891
 30
0.000000
  70
    32
  0
VERTEX
  8
0
  5
17A9C
 10
-124.029
 20
334.895
 30
0.000000
  70
    32
  0
VERTEX
  8
0
  5
17A9D
 10
-124.013
 20
334.899
 30
0.000000
  70
    32
  0
VERTEX
  8
0
  5
17A9E
 10
-123.998
 20
334.903
 30
0.000000
  70
    32
  0
VERTEX
  8
0
  5
17A9F
 10
-123.983
 20
334.906
 30
0.000000
  70
    32
  0
VERTEX
  8
0
  5
17AA0
 10
-123.968
 20
334.910
 30
0.000000
  70
    32
  0
VERTEX
  8
0
  5
17AA1
 10
-123.953
 20
334.915
 30
0.000000
  70
    32
  0
VERTEX
  8
0
  5
17AA2
 10
-123.938
 20
334.919
 30
0.000000
  70
    32
  0
VERTEX
  8
0
  5
17AA3
 10
-123.923
 20
334.923
 30
0.000000
  70
    32
  0
VERTEX
  8
0
  5
17AA4
 10
-123.908
 20
334.928
 30
0.000000
  70
    32
  0
VERTEX
  8
0
  5
17AA5
 10
-123.893
 20
334.932
 30
0.000000
  70
    32
  0
VERTEX
  8
0
  5
17AA6
 10
-123.878
 20
334.937
 30
0.000000
  70
    32
  0
VERTEX
  8
0
  5
17AA7
 10
-123.864
 20
334.942
 30
0.000000
  70
    32
  0
VERTEX
  8
0
  5
17AA8
 10
-123.849
 20
334.947
 30
0.000000
  70
    32
  0
VERTEX
  8
0
  5
17AA9
 10
-123.834
 20
334.952
 30
0.000000
  70
    32
  0
VERTEX
  8
0
  5
17AAA
 10
-123.819
 20
334.957
 30
0.000000
  70
    32
  0
VERTEX
  8
0
  5
17AAB
 10
-123.805
 20
334.962
 30
0.000000
  70
    32
  0
VERTEX
  8
0
  5
17AAC
 10
-123.790
 20
334.968
 30
0.000000
  70
    32
  0
VERTEX
  8
0
  5
17AAD
 10
-123.775
 20
334.973
 30
0.000000
  70
    32
  0
VERTEX
  8
0
  5
17AAE
 10
-123.761
 20
334.979
 30
0.000000
  70
    32
  0
VERTEX
  8
0
  5
17AAF
 10
-123.746
 20
334.985
 30
0.000000
  70
    32
  0
VERTEX
  8
0
  5
17AB0
 10
-123.732
 20
334.991
 30
0.000000
  70
    32
  0
VERTEX
  8
0
  5
17AB1
 10
-123.718
 20
334.997
 30
0.000000
  70
    32
  0
VERTEX
  8
0
  5
17AB2
 10
-123.703
 20
335.003
 30
0.000000
  70
    32
  0
VERTEX
  8
0
  5
17AB3
 10
-123.689
 20
335.009
 30
0.000000
  70
    32
  0
VERTEX
  8
0
  5
17AB4
 10
-123.675
 20
335.015
 30
0.000000
  70
    32
  0
VERTEX
  8
0
  5
17AB5
 10
-123.660
 20
335.022
 30
0.000000
  70
    32
  0
VERTEX
  8
0
  5
17AB6
 10
-123.646
 20
335.028
 30
0.000000
  70
    32
  0
VERTEX
  8
0
  5
17AB7
 10
-123.632
 20
335.035
 30
0.000000
  70
    32
  0
VERTEX
  8
0
  5
17AB8
 10
-123.618
 20
335.042
 30
0.000000
  70
    32
  0
VERTEX
  8
0
  5
17AB9
 10
-123.604
 20
335.049
 30
0.000000
  70
    32
  0
VERTEX
  8
0
  5
17ABA
 10
-123.590
 20
335.056
 30
0.000000
  70
    32
  0
VERTEX
  8
0
  5
17ABB
 10
-123.576
 20
335.063
 30
0.000000
  70
    32
  0
VERTEX
  8
0
  5
17ABC
 10
-123.562
 20
335.070
 30
0.000000
  70
    32
  0
VERTEX
  8
0
  5
17ABD
 10
-123.549
 20
335.077
 30
0.000000
  70
    32
  0
VERTEX
  8
0
  5
17ABE
 10
-123.535
 20
335.085
 30
0.000000
  70
    32
  0
VERTEX
  8
0
  5
17ABF
 10
-123.521
 20
335.092
 30
0.000000
  70
    32
  0
VERTEX
  8
0
  5
17AC0
 10
-123.508
 20
335.100
 30
0.000000
  70
    32
  0
VERTEX
  8
0
  5
17AC1
 10
-123.494
 20
335.107
 30
0.000000
  70
    32
  0
VERTEX
  8
0
  5
17AC2
 10
-123.481
 20
335.115
 30
0.000000
  70
    32
  0
VERTEX
  8
0
  5
17AC3
 10
-123.467
 20
335.123
 30
0.000000
  70
    32
  0
VERTEX
  8
0
  5
17AC4
 10
-123.454
 20
335.131
 30
0.000000
  70
    32
  0
VERTEX
  8
0
  5
17AC5
 10
-123.441
 20
335.139
 30
0.000000
  70
    32
  0
VERTEX
  8
0
  5
17AC6
 10
-123.427
 20
335.148
 30
0.000000
  70
    32
  0
VERTEX
  8
0
  5
17AC7
 10
-123.414
 20
335.156
 30
0.000000
  70
    32
  0
VERTEX
  8
0
  5
17AC8
 10
-123.401
 20
335.165
 30
0.000000
  70
    32
  0
VERTEX
  8
0
  5
17AC9
 10
-123.388
 20
335.173
 30
0.000000
  70
    32
  0
VERTEX
  8
0
  5
17ACA
 10
-123.375
 20
335.182
 30
0.000000
  70
    32
  0
VERTEX
  8
0
  5
17ACB
 10
-123.362
 20
335.191
 30
0.000000
  70
    32
  0
VERTEX
  8
0
  5
17ACC
 10
-123.349
 20
335.199
 30
0.000000
  70
    32
  0
VERTEX
  8
0
  5
17ACD
 10
-123.337
 20
335.208
 30
0.000000
  70
    32
  0
VERTEX
  8
0
  5
17ACE
 10
-123.324
 20
335.217
 30
0.000000
  70
    32
  0
VERTEX
  8
0
  5
17ACF
 10
-123.311
 20
335.227
 30
0.000000
  70
    32
  0
VERTEX
  8
0
  5
17AD0
 10
-123.299
 20
335.236
 30
0.000000
  70
    32
  0
VERTEX
  8
0
  5
17AD1
 10
-123.286
 20
335.245
 30
0.000000
  70
    32
  0
VERTEX
  8
0
  5
17AD2
 10
-123.274
 20
335.255
 30
0.000000
  70
    32
  0
VERTEX
  8
0
  5
17AD3
 10
-123.261
 20
335.264
 30
0.000000
  70
    32
  0
VERTEX
  8
0
  5
17AD4
 10
-123.249
 20
335.274
 30
0.000000
  70
    32
  0
VERTEX
  8
0
  5
17AD5
 10
-123.237
 20
335.284
 30
0.000000
  70
    32
  0
VERTEX
  8
0
  5
17AD6
 10
-123.225
 20
335.293
 30
0.000000
  70
    32
  0
VERTEX
  8
0
  5
17AD7
 10
-123.213
 20
335.303
 30
0.000000
  70
    32
  0
VERTEX
  8
0
  5
17AD8
 10
-123.201
 20
335.313
 30
0.000000
  70
    32
  0
VERTEX
  8
0
  5
17AD9
 10
-123.189
 20
335.324
 30
0.000000
  70
    32
  0
VERTEX
  8
0
  5
17ADA
 10
-123.177
 20
335.334
 30
0.000000
  70
    32
  0
VERTEX
  8
0
  5
17ADB
 10
-123.166
 20
335.344
 30
0.000000
  70
    32
  0
VERTEX
  8
0
  5
17ADC
 10
-123.154
 20
335.354
 30
0.000000
  70
    32
  0
VERTEX
  8
0
  5
17ADD
 10
-123.142
 20
335.365
 30
0.000000
  70
    32
  0
VERTEX
  8
0
  5
17ADE
 10
-123.131
 20
335.375
 30
0.000000
  70
    32
  0
VERTEX
  8
0
  5
17ADF
 10
-123.119
 20
335.386
 30
0.000000
  70
    32
  0
VERTEX
  8
0
  5
17AE0
 10
-123.108
 20
335.397
 30
0.000000
  70
    32
  0
VERTEX
  8
0
  5
17AE1
 10
-123.097
 20
335.408
 30
0.000000
  70
    32
  0
VERTEX
  8
0
  5
17AE2
 10
-123.086
 20
335.419
 30
0.000000
  70
    32
  0
VERTEX
  8
0
  5
17AE3
 10
-123.075
 20
335.430
 30
0.000000
  70
    32
  0
VERTEX
  8
0
  5
17AE4
 10
-123.064
 20
335.441
 30
0.000000
  70
    32
  0
VERTEX
  8
0
  5
17AE5
 10
-123.053
 20
335.452
 30
0.000000
  70
    32
  0
VERTEX
  8
0
  5
17AE6
 10
-123.042
 20
335.463
 30
0.000000
  70
    32
  0
VERTEX
  8
0
  5
17AE7
 10
-123.031
 20
335.475
 30
0.000000
  70
    32
  0
VERTEX
  8
0
  5
17AE8
 10
-123.021
 20
335.486
 30
0.000000
  70
    32
  0
VERTEX
  8
0
  5
17AE9
 10
-123.010
 20
335.498
 30
0.000000
  70
    32
  0
VERTEX
  8
0
  5
17AEA
 10
-123.000
 20
335.509
 30
0.000000
  70
    32
  0
VERTEX
  8
0
  5
17AEB
 10
-122.990
 20
335.521
 30
0.000000
  70
    32
  0
VERTEX
  8
0
  5
17AEC
 10
-122.979
 20
335.533
 30
0.000000
  70
    32
  0
VERTEX
  8
0
  5
17AED
 10
-122.969
 20
335.544
 30
0.000000
  70
    32
  0
VERTEX
  8
0
  5
17AEE
 10
-122.959
 20
335.556
 30
0.000000
  70
    32
  0
VERTEX
  8
0
  5
17AEF
 10
-122.949
 20
335.568
 30
0.000000
  70
    32
  0
VERTEX
  8
0
  5
17AF0
 10
-122.939
 20
335.580
 30
0.000000
  70
    32
  0
VERTEX
  8
0
  5
17AF1
 10
-122.929
 20
335.593
 30
0.000000
  70
    32
  0
VERTEX
  8
0
  5
17AF2
 10
-122.920
 20
335.605
 30
0.000000
  70
    32
  0
VERTEX
  8
0
  5
17AF3
 10
-122.910
 20
335.617
 30
0.000000
  70
    32
  0
VERTEX
  8
0
  5
17AF4
 10
-122.901
 20
335.629
 30
0.000000
  70
    32
  0
VERTEX
  8
0
  5
17AF5
 10
-122.891
 20
335.642
 30
0.000000
  70
    32
  0
VERTEX
  8
0
  5
17AF6
 10
-122.882
 20
335.654
 30
0.000000
  70
    32
  0
VERTEX
  8
0
  5
17AF7
 10
-122.873
 20
335.667
 30
0.000000
  70
    32
  0
VERTEX
  8
0
  5
17AF8
 10
-122.864
 20
335.680
 30
0.000000
  70
    32
  0
VERTEX
  8
0
  5
17AF9
 10
-122.855
 20
335.692
 30
0.000000
  70
    32
  0
VERTEX
  8
0
  5
17AFA
 10
-122.846
 20
335.705
 30
0.000000
  70
    32
  0
VERTEX
  8
0
  5
17AFB
 10
-122.837
 20
335.718
 30
0.000000
  70
    32
  0
VERTEX
  8
0
  5
17AFC
 10
-122.828
 20
335.731
 30
0.000000
  70
    32
  0
VERTEX
  8
0
  5
17AFD
 10
-122.820
 20
335.744
 30
0.000000
  70
    32
  0
VERTEX
  8
0
  5
17AFE
 10
-122.811
 20
335.757
 30
0.000000
  70
    32
  0
SEQEND
  8
0
  5
17AFF
  0
LINE
  5
169BB
  8
AM_0
 10
29.594733779830111
 20
330.34058783302157
 30
0.0
 11
29.594733779830278
 21
195.34158134293509
 31
0.0
  0
LINE
  5
169BC
  8
AM_0
 10
23.59471680740808
 20
313.63865561782268
 30
0.0
 11
23.59471680740808
 21
247.04352088271531
 31
0.0
  0
LINE
  5
169BD
  8
ﾁｭｳｼﾝｾﾝ1
 10
0.0947320661960589
 20
209.84158134293509
 30
0.0
 11
0.0947320661960589
 21
185.34158134293509
 31
0.0
  0
LINE
  5
169BE
  8
ｶｸﾚｾﾝ2
 10
-4.9052679338039971
 20
195.34158134293509
 30
0.0
 11
-4.9052679338039971
 21
199.84158134293509
 31
0.0
  0
LINE
  5
169BF
  8
ｶｸﾚｾﾝ2
 10
5.094732066196114
 20
195.34158134293509
 30
0.0
 11
5.094732066196114
 21
199.84158134293509
 31
0.0
  0
ARC
  5
169C0
  8
AM_0
 10
18.594716807408069
 20
247.04352088271531
 30
0.0
 40
5.0
 50
289.88314745317382
 51
0.0000025044687019
  0
LINE
  5
169C1
  8
AM_0
 10
-3.800548320390817
 20
242.3415798677201
 30
0.0
 11
24.594733779830278
 21
242.34157986772021
 31
0.0
  0
CIRCLE
  5
169C2
  8
AM_5
 10
19.094733466905719
 20
230.84157986772021
 30
0.0
 40
2.9999999999999978
  0
CIRCLE
  5
169C4
  8
AM_0
 10
19.094733466905719
 20
230.84157986772021
 30
0.0
 40
3.9999999999999978
  0
POLYLINE
  5
169C5
  8
AM_0
 66
     1
 10
0.0
 20
0.0
 30
0.0
 70
     1
  0
VERTEX
  5
1770D
  8
AM_0
 10
12.599542938522401
 20
234.59157986772021
 30
0.0
  0
VERTEX
  5
1770E
  8
AM_0
 10
12.59954293852263
 20
227.09157986772021
 30
0.0
  0
VERTEX
  5
1770F
  8
AM_0
 10
19.094733466905719
 20
223.34157986772021
 30
0.0
  0
VERTEX
  5
17710
  8
AM_0
 10
25.589923995289041
 20
227.09157986772021
 30
0.0
  0
VERTEX
  5
17711
  8
AM_0
 10
25.589923995289041
 20
234.59157986772021
 30
0.0
  0
VERTEX
  5
17712
  8
AM_0
 10
19.094733466905719
 20
238.34157986772021
 30
0.0
  0
SEQEND
  5
17713
  8
AM_0
  0
CIRCLE
  5
169C6
  8
AM_0
 10
19.094733466905719
 20
230.84157986772021
 30
0.0
 40
7.9999999999999956
  0
ARC
  5
169C8
  8
AM_0
 10
24.594733779830278
 20
237.34157986772021
 30
0.0
 40
5.0
 50
0.0
 51
90.0
1001
GENIUS_GENOBJ-N-FIL_13
1002
{
1000
OWNER
1000
GEN
1002
}
1001
GENIUS_GENODEF_13
1002
{
1000
HIER
1070
     0
1002
}
1002
{
1000
MANEDIT
1070
     0
1002
}
1002
{
1000
NOSEL
1070
     0
1002
}
1002
{
1000
BEHIND
1070
     0
1002
}
1002
{
1000
OTHER
1070
     0
1002
}
1002
{
1000
REACTOR
1002
}
  0
POLYLINE
  5
169C9
  8
AM_0
 10
23.594733601016166
 20
329.84059281812051
 30
0.0
 66
     1
 70
     8
  0
VERTEX
  8
AM_0
  5
17B00
 10
23.5947
 20
329.841
 30
0.000000
  70
    32
  0
VERTEX
  8
AM_0
  5
17B01
 10
23.5893
 20
330.061
 30
0.000000
  70
    32
  0
VERTEX
  8
AM_0
  5
17B02
 10
23.5731
 20
330.282
 30
0.000000
  70
    32
  0
VERTEX
  8
AM_0
  5
17B03
 10
23.5460
 20
330.501
 30
0.000000
  70
    32
  0
VERTEX
  8
AM_0
  5
17B04
 10
23.5083
 20
330.718
 30
0.000000
  70
    32
  0
VERTEX
  8
AM_0
  5
17B05
 10
23.4599
 20
330.934
 30
0.000000
  70
    32
  0
VERTEX
  8
AM_0
  5
17B06
 10
23.4010
 20
331.147
 30
0.000000
  70
    32
  0
VERTEX
  8
AM_0
  5
17B07
 10
23.3317
 20
331.357
 30
0.000000
  70
    32
  0
VERTEX
  8
AM_0
  5
17B08
 10
23.2522
 20
331.563
 30
0.000000
  70
    32
  0
VERTEX
  8
AM_0
  5
17B09
 10
23.1627
 20
331.765
 30
0.000000
  70
    32
  0
VERTEX
  8
AM_0
  5
17B0A
 10
23.0634
 20
331.962
 30
0.000000
  70
    32
  0
VERTEX
  8
AM_0
  5
17B0B
 10
22.9545
 20
332.154
 30
0.000000
  70
    32
  0
VERTEX
  8
AM_0
  5
17B0C
 10
22.8363
 20
332.341
 30
0.000000
  70
    32
  0
VERTEX
  8
AM_0
  5
17B0D
 10
22.7092
 20
332.521
 30
0.000000
  70
    32
  0
VERTEX
  8
AM_0
  5
17B0E
 10
22.5733
 20
332.695
 30
0.000000
  70
    32
  0
VERTEX
  8
AM_0
  5
17B0F
 10
22.4290
 20
332.863
 30
0.000000
  70
    32
  0
VERTEX
  8
AM_0
  5
17B10
 10
22.2767
 20
333.023
 30
0.000000
  70
    32
  0
VERTEX
  8
AM_0
  5
17B11
 10
22.1167
 20
333.175
 30
0.000000
  70
    32
  0
VERTEX
  8
AM_0
  5
17B12
 10
21.9495
 20
333.319
 30
0.000000
  70
    32
  0
VERTEX
  8
AM_0
  5
17B13
 10
21.7754
 20
333.455
 30
0.000000
  70
    32
  0
VERTEX
  8
AM_0
  5
17B14
 10
21.5948
 20
333.582
 30
0.000000
  70
    32
  0
VERTEX
  8
AM_0
  5
17B15
 10
21.4082
 20
333.700
 30
0.000000
  70
    32
  0
VERTEX
  8
AM_0
  5
17B16
 10
21.2160
 20
333.809
 30
0.000000
  70
    32
  0
VERTEX
  8
AM_0
  5
17B17
 10
21.0187
 20
333.909
 30
0.000000
  70
    32
  0
VERTEX
  8
AM_0
  5
17B18
 10
20.8168
 20
333.998
 30
0.000000
  70
    32
  0
VERTEX
  8
AM_0
  5
17B19
 10
20.6107
 20
334.077
 30
0.000000
  70
    32
  0
VERTEX
  8
AM_0
  5
17B1A
 10
20.4010
 20
334.147
 30
0.000000
  70
    32
  0
VERTEX
  8
AM_0
  5
17B1B
 10
20.1881
 20
334.206
 30
0.000000
  70
    32
  0
VERTEX
  8
AM_0
  5
17B1C
 10
19.9726
 20
334.254
 30
0.000000
  70
    32
  0
VERTEX
  8
AM_0
  5
17B1D
 10
19.7550
 20
334.292
 30
0.000000
  70
    32
  0
VERTEX
  8
AM_0
  5
17B1E
 10
19.5358
 20
334.319
 30
0.000000
  70
    32
  0
VERTEX
  8
AM_0
  5
17B1F
 10
19.3155
 20
334.335
 30
0.000000
  70
    32
  0
VERTEX
  8
AM_0
  5
17B20
 10
19.0947
 20
334.341
 30
0.000000
  70
    32
  0
VERTEX
  8
AM_0
  5
17B21
 10
18.8739
 20
334.335
 30
0.000000
  70
    32
  0
VERTEX
  8
AM_0
  5
17B22
 10
18.6537
 20
334.319
 30
0.000000
  70
    32
  0
VERTEX
  8
AM_0
  5
17B23
 10
18.4344
 20
334.292
 30
0.000000
  70
    32
  0
VERTEX
  8
AM_0
  5
17B24
 10
18.2168
 20
334.254
 30
0.000000
  70
    32
  0
VERTEX
  8
AM_0
  5
17B25
 10
18.0013
 20
334.206
 30
0.000000
  70
    32
  0
VERTEX
  8
AM_0
  5
17B26
 10
17.7885
 20
334.147
 30
0.000000
  70
    32
  0
VERTEX
  8
AM_0
  5
17B27
 10
17.5787
 20
334.077
 30
0.000000
  70
    32
  0
VERTEX
  8
AM_0
  5
17B28
 10
17.3727
 20
333.998
 30
0.000000
  70
    32
  0
VERTEX
  8
AM_0
  5
17B29
 10
17.1707
 20
333.909
 30
0.000000
  70
    32
  0
VERTEX
  8
AM_0
  5
17B2A
 10
16.9734
 20
333.809
 30
0.000000
  70
    32
  0
VERTEX
  8
AM_0
  5
17B2B
 10
16.7813
 20
333.700
 30
0.000000
  70
    32
  0
VERTEX
  8
AM_0
  5
17B2C
 10
16.5947
 20
333.582
 30
0.000000
  70
    32
  0
VERTEX
  8
AM_0
  5
17B2D
 10
16.4141
 20
333.455
 30
0.000000
  70
    32
  0
VERTEX
  8
AM_0
  5
17B2E
 10
16.2400
 20
333.319
 30
0.000000
  70
    32
  0
VERTEX
  8
AM_0
  5
17B2F
 10
16.0727
 20
333.175
 30
0.000000
  70
    32
  0
VERTEX
  8
AM_0
  5
17B30
 10
15.9128
 20
333.023
 30
0.000000
  70
    32
  0
VERTEX
  8
AM_0
  5
17B31
 10
15.7605
 20
332.863
 30
0.000000
  70
    32
  0
VERTEX
  8
AM_0
  5
17B32
 10
15.6162
 20
332.695
 30
0.000000
  70
    32
  0
VERTEX
  8
AM_0
  5
17B33
 10
15.4803
 20
332.521
 30
0.000000
  70
    32
  0
VERTEX
  8
AM_0
  5
17B34
 10
15.3531
 20
332.341
 30
0.000000
  70
    32
  0
VERTEX
  8
AM_0
  5
17B35
 10
15.2350
 20
332.154
 30
0.000000
  70
    32
  0
VERTEX
  8
AM_0
  5
17B36
 10
15.1261
 20
331.962
 30
0.000000
  70
    32
  0
VERTEX
  8
AM_0
  5
17B37
 10
15.0268
 20
331.765
 30
0.000000
  70
    32
  0
VERTEX
  8
AM_0
  5
17B38
 10
14.9373
 20
331.563
 30
0.000000
  70
    32
  0
VERTEX
  8
AM_0
  5
17B39
 10
14.8578
 20
331.357
 30
0.000000
  70
    32
  0
VERTEX
  8
AM_0
  5
17B3A
 10
14.7885
 20
331.147
 30
0.000000
  70
    32
  0
VERTEX
  8
AM_0
  5
17B3B
 10
14.7296
 20
330.934
 30
0.000000
  70
    32
  0
VERTEX
  8
AM_0
  5
17B3C
 10
14.6812
 20
330.718
 30
0.000000
  70
    32
  0
VERTEX
  8
AM_0
  5
17B3D
 10
14.6434
 20
330.501
 30
0.000000
  70
    32
  0
VERTEX
  8
AM_0
  5
17B3E
 10
14.6164
 20
330.282
 30
0.000000
  70
    32
  0
VERTEX
  8
AM_0
  5
17B3F
 10
14.6002
 20
330.061
 30
0.000000
  70
    32
  0
VERTEX
  8
AM_0
  5
17B40
 10
14.5947
 20
329.841
 30
0.000000
  70
    32
  0
VERTEX
  8
AM_0
  5
17B41
 10
14.6002
 20
329.620
 30
0.000000
  70
    32
  0
VERTEX
  8
AM_0
  5
17B42
 10
14.6164
 20
329.400
 30
0.000000
  70
    32
  0
VERTEX
  8
AM_0
  5
17B43
 10
14.6434
 20
329.180
 30
0.000000
  70
    32
  0
VERTEX
  8
AM_0
  5
17B44
 10
14.6812
 20
328.963
 30
0.000000
  70
    32
  0
VERTEX
  8
AM_0
  5
17B45
 10
14.7296
 20
328.747
 30
0.000000
  70
    32
  0
VERTEX
  8
AM_0
  5
17B46
 10
14.7885
 20
328.534
 30
0.000000
  70
    32
  0
VERTEX
  8
AM_0
  5
17B47
 10
14.8578
 20
328.325
 30
0.000000
  70
    32
  0
VERTEX
  8
AM_0
  5
17B48
 10
14.9373
 20
328.119
 30
0.000000
  70
    32
  0
VERTEX
  8
AM_0
  5
17B49
 10
15.0268
 20
327.917
 30
0.000000
  70
    32
  0
VERTEX
  8
AM_0
  5
17B4A
 10
15.1261
 20
327.719
 30
0.000000
  70
    32
  0
VERTEX
  8
AM_0
  5
17B4B
 10
15.2350
 20
327.527
 30
0.000000
  70
    32
  0
VERTEX
  8
AM_0
  5
17B4C
 10
15.3531
 20
327.341
 30
0.000000
  70
    32
  0
VERTEX
  8
AM_0
  5
17B4D
 10
15.4803
 20
327.160
 30
0.000000
  70
    32
  0
VERTEX
  8
AM_0
  5
17B4E
 10
15.6162
 20
326.986
 30
0.000000
  70
    32
  0
VERTEX
  8
AM_0
  5
17B4F
 10
15.7605
 20
326.819
 30
0.000000
  70
    32
  0
VERTEX
  8
AM_0
  5
17B50
 10
15.9128
 20
326.659
 30
0.000000
  70
    32
  0
VERTEX
  8
AM_0
  5
17B51
 10
16.0727
 20
326.506
 30
0.000000
  70
    32
  0
VERTEX
  8
AM_0
  5
17B52
 10
16.2400
 20
326.362
 30
0.000000
  70
    32
  0
VERTEX
  8
AM_0
  5
17B53
 10
16.4141
 20
326.226
 30
0.000000
  70
    32
  0
VERTEX
  8
AM_0
  5
17B54
 10
16.5947
 20
326.099
 30
0.000000
  70
    32
  0
VERTEX
  8
AM_0
  5
17B55
 10
16.7813
 20
325.981
 30
0.000000
  70
    32
  0
VERTEX
  8
AM_0
  5
17B56
 10
16.9734
 20
325.872
 30
0.000000
  70
    32
  0
VERTEX
  8
AM_0
  5
17B57
 10
17.1707
 20
325.773
 30
0.000000
  70
    32
  0
VERTEX
  8
AM_0
  5
17B58
 10
17.3727
 20
325.683
 30
0.000000
  70
    32
  0
VERTEX
  8
AM_0
  5
17B59
 10
17.5787
 20
325.604
 30
0.000000
  70
    32
  0
VERTEX
  8
AM_0
  5
17B5A
 10
17.7885
 20
325.534
 30
0.000000
  70
    32
  0
VERTEX
  8
AM_0
  5
17B5B
 10
18.0013
 20
325.475
 30
0.000000
  70
    32
  0
VERTEX
  8
AM_0
  5
17B5C
 10
18.2168
 20
325.427
 30
0.000000
  70
    32
  0
VERTEX
  8
AM_0
  5
17B5D
 10
18.4344
 20
325.389
 30
0.000000
  70
    32
  0
VERTEX
  8
AM_0
  5
17B5E
 10
18.6537
 20
325.362
 30
0.000000
  70
    32
  0
VERTEX
  8
AM_0
  5
17B5F
 10
18.8739
 20
325.346
 30
0.000000
  70
    32
  0
VERTEX
  8
AM_0
  5
17B60
 10
19.0947
 20
325.341
 30
0.000000
  70
    32
  0
VERTEX
  8
AM_0
  5
17B61
 10
19.3155
 20
325.346
 30
0.000000
  70
    32
  0
VERTEX
  8
AM_0
  5
17B62
 10
19.5358
 20
325.362
 30
0.000000
  70
    32
  0
VERTEX
  8
AM_0
  5
17B63
 10
19.7550
 20
325.389
 30
0.000000
  70
    32
  0
VERTEX
  8
AM_0
  5
17B64
 10
19.9726
 20
325.427
 30
0.000000
  70
    32
  0
VERTEX
  8
AM_0
  5
17B65
 10
20.1881
 20
325.475
 30
0.000000
  70
    32
  0
VERTEX
  8
AM_0
  5
17B66
 10
20.4010
 20
325.534
 30
0.000000
  70
    32
  0
VERTEX
  8
AM_0
  5
17B67
 10
20.6107
 20
325.604
 30
0.000000
  70
    32
  0
VERTEX
  8
AM_0
  5
17B68
 10
20.8168
 20
325.683
 30
0.000000
  70
    32
  0
VERTEX
  8
AM_0
  5
17B69
 10
21.0187
 20
325.773
 30
0.000000
  70
    32
  0
VERTEX
  8
AM_0
  5
17B6A
 10
21.2160
 20
325.872
 30
0.000000
  70
    32
  0
VERTEX
  8
AM_0
  5
17B6B
 10
21.4082
 20
325.981
 30
0.000000
  70
    32
  0
VERTEX
  8
AM_0
  5
17B6C
 10
21.5948
 20
326.099
 30
0.000000
  70
    32
  0
VERTEX
  8
AM_0
  5
17B6D
 10
21.7754
 20
326.226
 30
0.000000
  70
    32
  0
VERTEX
  8
AM_0
  5
17B6E
 10
21.9495
 20
326.362
 30
0.000000
  70
    32
  0
VERTEX
  8
AM_0
  5
17B6F
 10
22.1167
 20
326.506
 30
0.000000
  70
    32
  0
VERTEX
  8
AM_0
  5
17B70
 10
22.2767
 20
326.659
 30
0.000000
  70
    32
  0
VERTEX
  8
AM_0
  5
17B71
 10
22.4290
 20
326.819
 30
0.000000
  70
    32
  0
VERTEX
  8
AM_0
  5
17B72
 10
22.5733
 20
326.986
 30
0.000000
  70
    32
  0
VERTEX
  8
AM_0
  5
17B73
 10
22.7092
 20
327.160
 30
0.000000
  70
    32
  0
VERTEX
  8
AM_0
  5
17B74
 10
22.8363
 20
327.341
 30
0.000000
  70
    32
  0
VERTEX
  8
AM_0
  5
17B75
 10
22.9545
 20
327.527
 30
0.000000
  70
    32
  0
VERTEX
  8
AM_0
  5
17B76
 10
23.0634
 20
327.719
 30
0.000000
  70
    32
  0
VERTEX
  8
AM_0
  5
17B77
 10
23.1627
 20
327.917
 30
0.000000
  70
    32
  0
VERTEX
  8
AM_0
  5
17B78
 10
23.2522
 20
328.119
 30
0.000000
  70
    32
  0
VERTEX
  8
AM_0
  5
17B79
 10
23.3317
 20
328.325
 30
0.000000
  70
    32
  0
VERTEX
  8
AM_0
  5
17B7A
 10
23.4010
 20
328.534
 30
0.000000
  70
    32
  0
VERTEX
  8
AM_0
  5
17B7B
 10
23.4599
 20
328.747
 30
0.000000
  70
    32
  0
VERTEX
  8
AM_0
  5
17B7C
 10
23.5083
 20
328.963
 30
0.000000
  70
    32
  0
VERTEX
  8
AM_0
  5
17B7D
 10
23.5460
 20
329.180
 30
0.000000
  70
    32
  0
VERTEX
  8
AM_0
  5
17B7E
 10
23.5731
 20
329.400
 30
0.000000
  70
    32
  0
VERTEX
  8
AM_0
  5
17B7F
 10
23.5893
 20
329.620
 30
0.000000
  70
    32
  0
VERTEX
  8
AM_0
  5
17B80
 10
23.5947
 20
329.841
 30
0.000000
  70
    32
  0
SEQEND
  8
AM_0
  5
17B81
  0
LINE
  5
169CA
  8
AM_0
 10
6.0381077391712088
 20
330.84108634292028
 30
0.0
 11
7.4814834121452796
 21
333.34108634292028
 31
0.0
1001
GENIUS_GENOREF_13
1005
0
  0
LINE
  5
169CB
  8
AM_0
 10
1.7079807202489961
 20
333.34108634292028
 30
0.0
 11
3.1513563932230682
 21
330.84108634292028
 31
0.0
1001
GENIUS_GENOREF_13
1005
0
  0
CIRCLE
  5
169CC
  8
AM_0
 10
4.594732066197138
 20
333.34108634292028
 30
0.0
 40
2.886751345948126
1001
GENIUS_GENOREF_13
1005
0
  0
CIRCLE
  5
169CD
  8
AM_0
 10
4.594732066197138
 20
333.34108634292028
 30
0.0
 40
5.0
1001
GENIUS_GENOREF_13
1005
0
  0
ARC
  5
169CE
  8
AM_0
 10
4.594732066197138
 20
333.34108634292028
 30
0.0
 40
6.0000000000000062
 50
179.99999749551819
 51
0.0000025044687019
  0
POLYLINE
  5
169CF
  8
AM_0
 10
29.594733779830111
 20
330.34058783302157
 30
0.0
 66
     1
 70
     8
  0
VERTEX
  8
AM_0
  5
17B82
 10
29.5947
 20
330.341
 30
0.000000
  70
    32
  0
VERTEX
  8
AM_0
  5
17B83
 10
29.5940
 20
330.463
 30
0.000000
  70
    32
  0
VERTEX
  8
AM_0
  5
17B84
 10
29.5917
 20
330.586
 30
0.000000
  70
    32
  0
VERTEX
  8
AM_0
  5
17B85
 10
29.5880
 20
330.709
 30
0.000000
  70
    32
  0
VERTEX
  8
AM_0
  5
17B86
 10
29.5827
 20
330.831
 30
0.000000
  70
    32
  0
VERTEX
  8
AM_0
  5
17B87
 10
29.5759
 20
330.954
 30
0.000000
  70
    32
  0
VERTEX
  8
AM_0
  5
17B88
 10
29.5676
 20
331.076
 30
0.000000
  70
    32
  0
VERTEX
  8
AM_0
  5
17B89
 10
29.5579
 20
331.199
 30
0.000000
  70
    32
  0
VERTEX
  8
AM_0
  5
17B8A
 10
29.5466
 20
331.321
 30
0.000000
  70
    32
  0
VERTEX
  8
AM_0
  5
17B8B
 10
29.5338
 20
331.443
 30
0.000000
  70
    32
  0
VERTEX
  8
AM_0
  5
17B8C
 10
29.5195
 20
331.565
 30
0.000000
  70
    32
  0
VERTEX
  8
AM_0
  5
17B8D
 10
29.5038
 20
331.686
 30
0.000000
  70
    32
  0
VERTEX
  8
AM_0
  5
17B8E
 10
29.4865
 20
331.808
 30
0.000000
  70
    32
  0
VERTEX
  8
AM_0
  5
17B8F
 10
29.4677
 20
331.929
 30
0.000000
  70
    32
  0
VERTEX
  8
AM_0
  5
17B90
 10
29.4475
 20
332.050
 30
0.000000
  70
    32
  0
VERTEX
  8
AM_0
  5
17B91
 10
29.4258
 20
332.171
 30
0.000000
  70
    32
  0
VERTEX
  8
AM_0
  5
17B92
 10
29.4026
 20
332.291
 30
0.000000
  70
    32
  0
VERTEX
  8
AM_0
  5
17B93
 10
29.3779
 20
332.412
 30
0.000000
  70
    32
  0
VERTEX
  8
AM_0
  5
17B94
 10
29.3518
 20
332.532
 30
0.000000
  70
    32
  0
VERTEX
  8
AM_0
  5
17B95
 10
29.3241
 20
332.651
 30
0.000000
  70
    32
  0
VERTEX
  8
AM_0
  5
17B96
 10
29.2950
 20
332.770
 30
0.000000
  70
    32
  0
VERTEX
  8
AM_0
  5
17B97
 10
29.2645
 20
332.889
 30
0.000000
  70
    32
  0
VERTEX
  8
AM_0
  5
17B98
 10
29.2325
 20
333.008
 30
0.000000
  70
    32
  0
VERTEX
  8
AM_0
  5
17B99
 10
29.1990
 20
333.126
 30
0.000000
  70
    32
  0
VERTEX
  8
AM_0
  5
17B9A
 10
29.1641
 20
333.243
 30
0.000000
  70
    32
  0
VERTEX
  8
AM_0
  5
17B9B
 10
29.1278
 20
333.361
 30
0.000000
  70
    32
  0
VERTEX
  8
AM_0
  5
17B9C
 10
29.0900
 20
333.477
 30
0.000000
  70
    32
  0
VERTEX
  8
AM_0
  5
17B9D
 10
29.0508
 20
333.594
 30
0.000000
  70
    32
  0
VERTEX
  8
AM_0
  5
17B9E
 10
29.0102
 20
333.709
 30
0.000000
  70
    32
  0
VERTEX
  8
AM_0
  5
17B9F
 10
28.9681
 20
333.825
 30
0.000000
  70
    32
  0
VERTEX
  8
AM_0
  5
17BA0
 10
28.9247
 20
333.940
 30
0.000000
  70
    32
  0
VERTEX
  8
AM_0
  5
17BA1
 10
28.8798
 20
334.054
 30
0.000000
  70
    32
  0
VERTEX
  8
AM_0
  5
17BA2
 10
28.8335
 20
334.167
 30
0.000000
  70
    32
  0
VERTEX
  8
AM_0
  5
17BA3
 10
28.7859
 20
334.280
 30
0.000000
  70
    32
  0
VERTEX
  8
AM_0
  5
17BA4
 10
28.7368
 20
334.393
 30
0.000000
  70
    32
  0
VERTEX
  8
AM_0
  5
17BA5
 10
28.6864
 20
334.505
 30
0.000000
  70
    32
  0
VERTEX
  8
AM_0
  5
17BA6
 10
28.6346
 20
334.616
 30
0.000000
  70
    32
  0
VERTEX
  8
AM_0
  5
17BA7
 10
28.5815
 20
334.727
 30
0.000000
  70
    32
  0
VERTEX
  8
AM_0
  5
17BA8
 10
28.5270
 20
334.837
 30
0.000000
  70
    32
  0
VERTEX
  8
AM_0
  5
17BA9
 10
28.4711
 20
334.946
 30
0.000000
  70
    32
  0
VERTEX
  8
AM_0
  5
17BAA
 10
28.4139
 20
335.055
 30
0.000000
  70
    32
  0
VERTEX
  8
AM_0
  5
17BAB
 10
28.3554
 20
335.162
 30
0.000000
  70
    32
  0
VERTEX
  8
AM_0
  5
17BAC
 10
28.2956
 20
335.270
 30
0.000000
  70
    32
  0
VERTEX
  8
AM_0
  5
17BAD
 10
28.2345
 20
335.376
 30
0.000000
  70
    32
  0
VERTEX
  8
AM_0
  5
17BAE
 10
28.1720
 20
335.482
 30
0.000000
  70
    32
  0
VERTEX
  8
AM_0
  5
17BAF
 10
28.1083
 20
335.586
 30
0.000000
  70
    32
  0
VERTEX
  8
AM_0
  5
17BB0
 10
28.0433
 20
335.691
 30
0.000000
  70
    32
  0
VERTEX
  8
AM_0
  5
17BB1
 10
27.9770
 20
335.794
 30
0.000000
  70
    32
  0
VERTEX
  8
AM_0
  5
17BB2
 10
27.9094
 20
335.896
 30
0.000000
  70
    32
  0
VERTEX
  8
AM_0
  5
17BB3
 10
27.8406
 20
335.998
 30
0.000000
  70
    32
  0
VERTEX
  8
AM_0
  5
17BB4
 10
27.7706
 20
336.099
 30
0.000000
  70
    32
  0
VERTEX
  8
AM_0
  5
17BB5
 10
27.6993
 20
336.199
 30
0.000000
  70
    32
  0
VERTEX
  8
AM_0
  5
17BB6
 10
27.6268
 20
336.298
 30
0.000000
  70
    32
  0
VERTEX
  8
AM_0
  5
17BB7
 10
27.5531
 20
336.396
 30
0.000000
  70
    32
  0
VERTEX
  8
AM_0
  5
17BB8
 10
27.4782
 20
336.493
 30
0.000000
  70
    32
  0
VERTEX
  8
AM_0
  5
17BB9
 10
27.4021
 20
336.589
 30
0.000000
  70
    32
  0
VERTEX
  8
AM_0
  5
17BBA
 10
27.3248
 20
336.684
 30
0.000000
  70
    32
  0
VERTEX
  8
AM_0
  5
17BBB
 10
27.2464
 20
336.779
 30
0.000000
  70
    32
  0
VERTEX
  8
AM_0
  5
17BBC
 10
27.1668
 20
336.872
 30
0.000000
  70
    32
  0
VERTEX
  8
AM_0
  5
17BBD
 10
27.0861
 20
336.965
 30
0.000000
  70
    32
  0
VERTEX
  8
AM_0
  5
17BBE
 10
27.0042
 20
337.056
 30
0.000000
  70
    32
  0
VERTEX
  8
AM_0
  5
17BBF
 10
26.9213
 20
337.147
 30
0.000000
  70
    32
  0
VERTEX
  8
AM_0
  5
17BC0
 10
26.8372
 20
337.236
 30
0.000000
  70
    32
  0
VERTEX
  8
AM_0
  5
17BC1
 10
26.7520
 20
337.324
 30
0.000000
  70
    32
  0
VERTEX
  8
AM_0
  5
17BC2
 10
26.6658
 20
337.412
 30
0.000000
  70
    32
  0
VERTEX
  8
AM_0
  5
17BC3
 10
26.5785
 20
337.498
 30
0.000000
  70
    32
  0
VERTEX
  8
AM_0
  5
17BC4
 10
26.4901
 20
337.583
 30
0.000000
  70
    32
  0
VERTEX
  8
AM_0
  5
17BC5
 10
26.4007
 20
337.667
 30
0.000000
  70
    32
  0
VERTEX
  8
AM_0
  5
17BC6
 10
26.3103
 20
337.750
 30
0.000000
  70
    32
  0
VERTEX
  8
AM_0
  5
17BC7
 10
26.2189
 20
337.832
 30
0.000000
  70
    32
  0
VERTEX
  8
AM_0
  5
17BC8
 10
26.1265
 20
337.913
 30
0.000000
  70
    32
  0
VERTEX
  8
AM_0
  5
17BC9
 10
26.0330
 20
337.992
 30
0.000000
  70
    32
  0
VERTEX
  8
AM_0
  5
17BCA
 10
25.9387
 20
338.071
 30
0.000000
  70
    32
  0
VERTEX
  8
AM_0
  5
17BCB
 10
25.8433
 20
338.148
 30
0.000000
  70
    32
  0
VERTEX
  8
AM_0
  5
17BCC
 10
25.7470
 20
338.224
 30
0.000000
  70
    32
  0
VERTEX
  8
AM_0
  5
17BCD
 10
25.6498
 20
338.299
 30
0.000000
  70
    32
  0
VERTEX
  8
AM_0
  5
17BCE
 10
25.5517
 20
338.373
 30
0.000000
  70
    32
  0
VERTEX
  8
AM_0
  5
17BCF
 10
25.4527
 20
338.445
 30
0.000000
  70
    32
  0
VERTEX
  8
AM_0
  5
17BD0
 10
25.3528
 20
338.516
 30
0.000000
  70
    32
  0
VERTEX
  8
AM_0
  5
17BD1
 10
25.2521
 20
338.586
 30
0.000000
  70
    32
  0
VERTEX
  8
AM_0
  5
17BD2
 10
25.1504
 20
338.655
 30
0.000000
  70
    32
  0
VERTEX
  8
AM_0
  5
17BD3
 10
25.0480
 20
338.723
 30
0.000000
  70
    32
  0
VERTEX
  8
AM_0
  5
17BD4
 10
24.9447
 20
338.789
 30
0.000000
  70
    32
  0
VERTEX
  8
AM_0
  5
17BD5
 10
24.8406
 20
338.854
 30
0.000000
  70
    32
  0
VERTEX
  8
AM_0
  5
17BD6
 10
24.7358
 20
338.918
 30
0.000000
  70
    32
  0
VERTEX
  8
AM_0
  5
17BD7
 10
24.6301
 20
338.980
 30
0.000000
  70
    32
  0
VERTEX
  8
AM_0
  5
17BD8
 10
24.5237
 20
339.041
 30
0.000000
  70
    32
  0
VERTEX
  8
AM_0
  5
17BD9
 10
24.4166
 20
339.101
 30
0.000000
  70
    32
  0
VERTEX
  8
AM_0
  5
17BDA
 10
24.3087
 20
339.160
 30
0.000000
  70
    32
  0
VERTEX
  8
AM_0
  5
17BDB
 10
24.2001
 20
339.217
 30
0.000000
  70
    32
  0
VERTEX
  8
AM_0
  5
17BDC
 10
24.0908
 20
339.273
 30
0.000000
  70
    32
  0
VERTEX
  8
AM_0
  5
17BDD
 10
23.9809
 20
339.327
 30
0.000000
  70
    32
  0
VERTEX
  8
AM_0
  5
17BDE
 10
23.8703
 20
339.380
 30
0.000000
  70
    32
  0
VERTEX
  8
AM_0
  5
17BDF
 10
23.7590
 20
339.432
 30
0.000000
  70
    32
  0
VERTEX
  8
AM_0
  5
17BE0
 10
23.6471
 20
339.483
 30
0.000000
  70
    32
  0
VERTEX
  8
AM_0
  5
17BE1
 10
23.5347
 20
339.532
 30
0.000000
  70
    32
  0
VERTEX
  8
AM_0
  5
17BE2
 10
23.4216
 20
339.579
 30
0.000000
  70
    32
  0
VERTEX
  8
AM_0
  5
17BE3
 10
23.3079
 20
339.626
 30
0.000000
  70
    32
  0
VERTEX
  8
AM_0
  5
17BE4
 10
23.1937
 20
339.670
 30
0.000000
  70
    32
  0
VERTEX
  8
AM_0
  5
17BE5
 10
23.0789
 20
339.714
 30
0.000000
  70
    32
  0
VERTEX
  8
AM_0
  5
17BE6
 10
22.9636
 20
339.756
 30
0.000000
  70
    32
  0
VERTEX
  8
AM_0
  5
17BE7
 10
22.8478
 20
339.797
 30
0.000000
  70
    32
  0
VERTEX
  8
AM_0
  5
17BE8
 10
22.7316
 20
339.836
 30
0.000000
  70
    32
  0
VERTEX
  8
AM_0
  5
17BE9
 10
22.6148
 20
339.874
 30
0.000000
  70
    32
  0
VERTEX
  8
AM_0
  5
17BEA
 10
22.4976
 20
339.910
 30
0.000000
  70
    32
  0
VERTEX
  8
AM_0
  5
17BEB
 10
22.3799
 20
339.945
 30
0.000000
  70
    32
  0
VERTEX
  8
AM_0
  5
17BEC
 10
22.2619
 20
339.978
 30
0.000000
  70
    32
  0
VERTEX
  8
AM_0
  5
17BED
 10
22.1434
 20
340.010
 30
0.000000
  70
    32
  0
VERTEX
  8
AM_0
  5
17BEE
 10
22.0245
 20
340.041
 30
0.000000
  70
    32
  0
VERTEX
  8
AM_0
  5
17BEF
 10
21.9053
 20
340.070
 30
0.000000
  70
    32
  0
VERTEX
  8
AM_0
  5
17BF0
 10
21.7857
 20
340.098
 30
0.000000
  70
    32
  0
VERTEX
  8
AM_0
  5
17BF1
 10
21.6658
 20
340.124
 30
0.000000
  70
    32
  0
VERTEX
  8
AM_0
  5
17BF2
 10
21.5456
 20
340.148
 30
0.000000
  70
    32
  0
VERTEX
  8
AM_0
  5
17BF3
 10
21.4251
 20
340.172
 30
0.000000
  70
    32
  0
VERTEX
  8
AM_0
  5
17BF4
 10
21.3044
 20
340.193
 30
0.000000
  70
    32
  0
VERTEX
  8
AM_0
  5
17BF5
 10
21.1833
 20
340.214
 30
0.000000
  70
    32
  0
VERTEX
  8
AM_0
  5
17BF6
 10
21.0620
 20
340.232
 30
0.000000
  70
    32
  0
VERTEX
  8
AM_0
  5
17BF7
 10
20.9405
 20
340.250
 30
0.000000
  70
    32
  0
VERTEX
  8
AM_0
  5
17BF8
 10
20.8188
 20
340.265
 30
0.000000
  70
    32
  0
VERTEX
  8
AM_0
  5
17BF9
 10
20.6970
 20
340.280
 30
0.000000
  70
    32
  0
VERTEX
  8
AM_0
  5
17BFA
 10
20.5749
 20
340.292
 30
0.000000
  70
    32
  0
VERTEX
  8
AM_0
  5
17BFB
 10
20.4527
 20
340.304
 30
0.000000
  70
    32
  0
VERTEX
  8
AM_0
  5
17BFC
 10
20.3304
 20
340.313
 30
0.000000
  70
    32
  0
VERTEX
  8
AM_0
  5
17BFD
 10
20.2079
 20
340.322
 30
0.000000
  70
    32
  0
VERTEX
  8
AM_0
  5
17BFE
 10
20.0854
 20
340.328
 30
0.000000
  70
    32
  0
VERTEX
  8
AM_0
  5
17BFF
 10
19.9628
 20
340.334
 30
0.000000
  70
    32
  0
VERTEX
  8
AM_0
  5
17C00
 10
19.8401
 20
340.337
 30
0.000000
  70
    32
  0
VERTEX
  8
AM_0
  5
17C01
 10
19.7174
 20
340.340
 30
0.000000
  70
    32
  0
VERTEX
  8
AM_0
  5
17C02
 10
19.5947
 20
340.340
 30
0.000000
  70
    32
  0
SEQEND
  8
AM_0
  5
17C03
  0
ARC
  5
169D1
  8
AM_0
 10
-11.92798827071692
 20
329.34108634292028
 30
0.0
 40
5.0
 50
13.60896318042885
 51
90.000005008956919
  0
ARC
  5
169D3
  8
AM_0
 10
18.594716807408069
 20
313.63865561782268
 30
0.0
 40
5.0000000000000044
 50
0.0000025044687019
 51
80.093184448073799
  0
LINE
  5
169D4
  8
AM_0
 10
3.1513563932230682
 20
330.84108634292028
 30
0.0
 11
6.0381077391712088
 21
330.84108634292028
 31
0.0
1001
GENIUS_GENOREF_13
1005
0
  0
LINE
  5
169D5
  8
AM_0
 10
19.454946299595569
 20
318.56409354506877
 30
0.0
 11
2.5301721296739279
 21
321.52002616225627
 31
0.0
  0
ARC
  5
169D6
  8
AM_0
 10
4.594732066197138
 20
333.34108634292028
 30
0.0
 40
12.0
 50
193.60895817146729
 51
260.09318968439248
  0
LINE
  5
169D7
  8
AM_0
 10
6.0381077391709832
 20
335.84108634292051
 30
0.0
 11
3.151356393223351
 21
335.84108634292051
 31
0.0
1001
GENIUS_GENOREF_13
1005
0
  0
ARC
  5
169D8
  8
AM_0
 10
-3.4052679338028611
 20
338.34108634292028
 30
0.0
 40
2.0000000000000022
 50
0.0000025044687019
 51
90.000005008950424
  0
LINE
  5
169D9
  8
AM_0
 10
3.151356393223351
 20
335.84108634292051
 30
0.0
 11
1.7079807202489961
 21
333.34108634292028
 31
0.0
1001
GENIUS_GENOREF_13
1005
0
  0
LINE
  5
169DA
  8
AM_0
 10
-1.4052679338028611
 20
338.34108634292028
 30
0.0
 11
-1.4052679338028611
 21
333.34108634292028
 31
0.0
  0
ARC
  5
169DB
  8
AM_0
 10
12.594716807408069
 20
338.34108634292028
 30
0.0
 40
2.0000000000000062
 50
90.000005008956919
 51
180.000000683243
  0
LINE
  5
169DC
  8
AM_0
 10
10.594716807408069
 20
338.34108634292028
 30
0.0
 11
10.594716807408069
 21
333.34108634292028
 31
0.0
  0
LINE
  5
169DD
  8
AM_0
 10
7.4814834121452796
 20
333.34108634292028
 30
0.0
 11
6.0381077391709832
 21
335.84108634292051
 31
0.0
1001
GENIUS_GENOREF_13
1005
0
  0
POLYLINE
  5
16F73
  8
AM_0
 66
     1
 10
0.0
 20
0.0
 30
0.0
  0
VERTEX
  5
16F74
  8
AM_0
 10
-262.54040978426281
 20
512.84432921331529
 30
0.0
 42
0.00068898283
  0
VERTEX
  5
16F75
  8
AM_0
 10
-262.4695297842631
 20
512.2695792133153
 30
0.0
 42
0.00070644357
  0
VERTEX
  5
16F76
  8
AM_0
 10
-262.39702978426283
 20
511.69488921331521
 30
0.0
 42
0.00069248074
  0
VERTEX
  5
16F77
  8
AM_0
 10
-262.32293978426321
 20
511.1205792133153
 30
0.0
 42
0.0006958566
  0
VERTEX
  5
16F78
  8
AM_0
 10
-262.24725978426278
 20
510.5464392133153
 30
0.0
 42
0.00071687219
  0
VERTEX
  5
16F79
  8
AM_0
 10
-262.16994978426322
 20
509.97243921331523
 30
0.0
 42
0.00069760022
  0
VERTEX
  5
16F7A
  8
AM_0
 10
-262.09100978426278
 20
509.39864921331531
 30
0.0
 42
0.00071002302
  0
VERTEX
  5
16F7B
  8
AM_0
 10
-262.01046978426291
 20
508.82517921331538
 30
0.0
 42
0.00069954889
  0
VERTEX
  5
16F7C
  8
AM_0
 10
-261.92832978426293
 20
508.2520792133152
 30
0.0
 42
0.00071887947
  0
VERTEX
  5
16F7D
  8
AM_0
 10
-261.84454978426299
 20
507.67904921331518
 30
0.0
 42
0.00071266929
  0
VERTEX
  5
16F7E
  8
AM_0
 10
-261.75911978426291
 20
507.10627921331542
 30
0.0
 42
0.00071614429
  0
VERTEX
  5
16F7F
  8
AM_0
 10
-261.67208978426322
 20
506.53393921331531
 30
0.0
 42
0.00072288978
  0
VERTEX
  5
16F80
  8
AM_0
 10
-261.58337978426317
 20
505.96163921331521
 30
0.0
  0
SEQEND
  5
16F81
  8
AM_0
  0
LINE
  5
16F82
  8
AM_0
 10
-180.42126978426319
 20
511.82735921331528
 30
0.0
 11
-180.42126978426319
 21
506.96737921331533
 31
0.0
  0
LINE
  5
16F83
  8
AM_0
 10
-180.90130978426311
 20
511.82735921331528
 30
0.0
 11
-180.90130978426311
 21
506.82735921331522
 31
0.0
  0
LINE
  5
16F84
  8
AM_0
 10
-196.38128978426309
 20
511.82735921331528
 30
0.0
 11
-196.38128978426309
 21
506.96737921331533
 31
0.0
  0
LINE
  5
16F85
  8
AM_0
 10
-195.90130978426299
 20
511.82735921331528
 30
0.0
 11
-195.90130978426299
 21
506.82735921331522
 31
0.0
  0
LINE
  5
16F86
  8
AM_0
 10
-266.40130978426311
 20
486.32735921331522
 30
0.0
 11
-266.40130978426288
 21
592.32735921331539
 31
0.0
  0
LINE
  5
16F87
  8
AM_0
 10
-158.40130978426311
 20
482.82793421321543
 30
0.0
 11
-158.40130978426311
 21
595.82678421341507
 31
0.0
  0
LINE
  5
16F88
  8
AM_0
 10
-280.40130978426311
 20
491.30733921331552
 30
0.0
 11
-280.40130978426311
 21
534.32735921331539
 31
0.0
  0
LINE
  5
16F89
  8
AM_0
 10
-274.40130978426311
 20
486.32735921331522
 30
0.0
 11
-274.40130978426288
 21
592.32735921331539
 31
0.0
  0
LINE
  5
16F8A
  8
AM_0
 10
-275.40130978426299
 20
489.32735921331522
 30
0.0
 11
-275.40130978426299
 21
589.32735921331516
 31
0.0
  0
ARC
  5
16F8C
  8
AM_0
 10
-276.40112978426288
 20
516.32723921331535
 30
0.0
 40
0.9998289899999999
 50
269.99018899999902
 51
0.0098099999995327
  0
ARC
  5
16F8D
  8
AM_0
 10
-276.4062497842632
 20
512.32247921331532
 30
0.0
 40
1.004942999999999
 50
0.281110000000071
 51
89.718889999999945
  0
ARC
  5
16F8E
  8
AM_0
 10
-276.40112978426288
 20
526.32723921331547
 30
0.0
 40
0.9998210099999999
 50
269.98974500000088
 51
0.0102499999985284
  0
ARC
  5
16F8F
  8
AM_0
 10
-276.4062497842632
 20
522.32247921331521
 30
0.0
 40
1.004939
 50
0.2809000000002015
 51
89.719089999995859
  0
ARC
  5
16F90
  8
AM_0
 10
-276.40112978426288
 20
536.32723921331535
 30
0.0
 40
0.9998249999999999
 50
269.98994999999883
 51
0.0100500000012449
  0
ARC
  5
16F91
  8
AM_0
 10
-276.40112978426288
 20
546.32723921331547
 30
0.0
 40
0.9998279799999998
 50
269.99016199999983
 51
0.0098400000029741
  0
ARC
  5
16F92
  8
AM_0
 10
-276.4062497842632
 20
552.32247921331532
 30
0.0
 40
1.004939
 50
0.2809299999990067
 51
89.719059999997029
  0
ARC
  5
16F93
  8
AM_0
 10
-276.4062497842632
 20
542.32247921331532
 30
0.0
 40
1.004942999999999
 50
0.2811300000018058
 51
89.718860000000547
  0
ARC
  5
16F94
  8
AM_0
 10
-276.40112978426288
 20
556.32723921331535
 30
0.0
 40
0.9998210099999999
 50
269.98971800000169
 51
0.0102800000019698
  0
ARC
  5
16F95
  8
AM_0
 10
-276.4062497842632
 20
562.32247921331532
 30
0.0
 40
1.0049469
 50
0.2813699999992813
 51
89.718630000000701
  0
ARC
  5
16F96
  8
AM_0
 10
-276.40112978426288
 20
566.32723921331535
 30
0.0
 40
0.9998239899999999
 50
269.98992299999952
 51
0.0100800000047663
  0
ARC
  5
16F97
  8
AM_0
 10
-276.10076978426321
 20
575.71676921331539
 30
0.0
 40
0.6994530000000001
 50
269.95517100000251
 51
0.0448299999992585
  0
ARC
  5
16F98
  8
AM_0
 10
-276.40466978426309
 20
572.06405921331532
 30
0.0
 40
1.003352
 50
0.1910999999988938
 51
89.808890000003075
  0
ARC
  5
16F99
  8
AM_0
 10
-276.4037497842632
 20
580.30489921331525
 30
0.0
 40
1.002470999999999
 50
0.1410700000000808
 51
89.858929999999944
  0
LINE
  5
16F9A
  8
AM_0
 10
-278.10125978426322
 20
582.44735921331539
 30
0.0
 11
-275.40130978426299
 21
582.44735921331539
 31
0.0
  0
ARC
  5
16F9B
  8
AM_0
 10
-276.4053997842633
 20
584.82320921331518
 30
0.0
 40
1.0041199999999999
 50
0.2346099999999662
 51
89.765390000000025
  0
ARC
  5
16F9C
  8
AM_0
 10
-275.90466978426309
 20
587.42391921331534
 30
0.0
 40
0.5033929900000002
 50
0.3849000000018421
 51
89.615089999999398
  0
LINE
  5
16F9D
  8
AM_0
 10
-278.12127978426309
 20
586.96737921331533
 30
0.0
 11
-275.40130978426299
 21
586.96737921331533
 31
0.0
  0
ARC
  5
16F9E
  8
AM_0
 10
-275.90081978426298
 20
589.57687921331535
 30
0.0
 40
0.49952301
 50
269.9452260000005
 51
0.0547699999986762
  0
ARC
  5
16F9F
  8
AM_0
 10
-276.4062497842632
 20
532.32247921331532
 30
0.0
 40
1.0049469
 50
0.2813399999993571
 51
89.718650000002825
  0
LINE
  5
16FA0
  8
AM_0
 10
-266.40130978426311
 20
590.1072992133154
 30
0.0
 11
-265.39202978426317
 21
596.75747921331515
 31
0.0
  0
LINE
  5
16FA1
  8
AM_0
 10
-266.40130978426311
 20
588.76739921331523
 30
0.0
 11
-265.12127978426298
 21
596.76730921331523
 31
0.0
  0
LINE
  5
16FA2
  8
AM_0
 10
-266.4012497842632
 20
590.10732921331532
 30
0.0
 11
-265.47582978426311
 21
596.73391921331518
 31
0.0
  0
ARC
  5
16FA3
  8
AM_0
 10
-263.19640978426321
 20
593.60812921331535
 30
0.0
 40
1.9992490000000001
 50
89.852569999998622
 51
169.35689999999889
  0
ARC
  5
16FA4
  8
AM_0
 10
-166.27612978426311
 20
593.60262921331537
 30
0.0
 40
2.0047290000000002
 50
15.173499999998089
 51
89.8616799999958
  0
LINE
  5
16FA5
  8
AM_0
 10
-159.40130978426311
 20
592.32735921331539
 30
0.0
 11
-165.12704978426319
 21
601.14425921331519
 31
0.0
  0
LINE
  5
16FA6
  8
AM_0
 10
-191.59730978426319
 20
631.82735921331516
 30
0.0
 11
-227.20530978426311
 21
631.82735921331516
 31
0.0
  0
LINE
  5
16FA7
  8
AM_0
 10
-257.90130978426328
 20
608.82735921331539
 30
0.0
 11
-177.9013097842633
 21
608.82735921331539
 31
0.0
  0
LINE
  5
16FA8
  8
AM_0
 10
-177.9013097842633
 20
605.32735921331528
 30
0.0
 11
-257.90130978426328
 21
605.32735921331528
 31
0.0
  0
LINE
  5
16FA9
  8
AM_0
 10
-263.19128978426289
 20
595.60738921331529
 30
0.0
 11
-166.27129978426319
 21
595.60738921331529
 31
0.0
  0
LINE
  5
16FAA
  8
AM_0
 10
-180.4013097842633
 20
628.82735921331539
 30
0.0
 11
-255.4013097842633
 21
628.82735921331539
 31
0.0
  0
LINE
  5
16FAB
  8
AM_0
 10
-177.9013097842633
 20
612.32735921331539
 30
0.0
 11
-235.4013097842633
 21
612.32735921331539
 31
0.0
  0
LINE
  5
16FAC
  8
AM_0
 10
-177.82221097632689
 20
601.82735921331516
 30
0.0
 11
-166.3850697842631
 21
601.82735921331516
 31
0.0
  0
LINE
  5
16FAD
  8
AM_0
 10
-158.40130978426279
 20
595.82678421341541
 30
0.0
 11
-150.40130978426311
 21
595.82678421341541
 31
0.0
  0
ARC
  5
16FAE
  8
AM_0
 10
-166.3850697842631
 20
600.32735921331539
 30
0.0
 40
1.5
 50
33.000000000001492
 51
90.000010000000998
  0
LINE
  5
16FAF
  8
AM_0
 10
-179.4013097842633
 20
612.32735921331539
 30
0.0
 11
-179.4013097842633
 21
627.82735921331516
 31
0.0
  0
ARC
  5
16FB0
  8
AM_0
 10
-180.4013097842633
 20
627.8273592133155
 30
0.0
 40
1.0
 50
0.0
 51
90.0
  0
LINE
  5
16FB1
  8
AM_0
 10
-186.4013097842633
 20
628.82735921331539
 30
0.0
 11
-191.59730978426319
 21
631.82735921331516
 31
0.0
  0
LINE
  5
16FB2
  8
AM_0
 10
-179.37509437057551
 20
605.32735921331528
 30
0.0
 11
-179.12058057050771
 21
595.60738921331529
 31
0.0
  0
LINE
  5
16FB3
  8
AM_0
 10
-177.9013097842633
 20
605.32735921331528
 30
0.0
 11
-177.9013097842633
 21
612.32735921331539
 31
0.0
  0
ARC
  5
16FB4
  8
AM_0
 10
-177.82221097632689
 20
603.32735921331539
 30
0.0
 40
1.5
 50
181.49992594324999
 51
270.0
1001
GENIUS_GENODEF_13
1002
{
1000
HIER
1070
     0
1002
}
1002
{
1000
MANEDIT
1070
     0
1002
}
1002
{
1000
NOSEL
1070
     0
1002
}
1002
{
1000
BEHIND
1070
     0
1002
}
1002
{
1000
REACTOR
1002
}
1001
GENIUS_GENOBJ-N-FIL_13
1002
{
1000
OWNER
1000
GEN
1002
}
  0
LINE
  5
16FB5
  8
AM_0
 10
-263.49505978426288
 20
598.45736921331525
 30
0.0
 11
-241.06859696291141
 21
598.45736921331525
 31
0.0
  0
ARC
  5
16FB6
  8
AM_0
 10
-243.9013097842633
 20
617.32735921331539
 30
0.0
 40
7.4999999999999956
 50
0.0
 51
90.0
  0
ARC
  5
16FB7
  8
AM_0
 10
-244.9013097842633
 20
616.32735921331539
 30
0.0
 40
7.5000000000000018
 50
0.0
 51
180.0
  0
ARC
  5
16FB8
  8
AM_0
 10
-244.9013097842633
 20
616.32735921331539
 30
0.0
 40
3.999999999999996
 50
0.0
 51
180.0
  0
LINE
  5
16FB9
  8
AM_0
 10
-240.9013097842633
 20
608.82735921331539
 30
0.0
 11
-240.9013097842633
 21
616.32735921331539
 31
0.0
  0
LINE
  5
16FBA
  8
AM_0
 10
-237.4013097842633
 20
616.32735921331539
 30
0.0
 11
-237.4013097842633
 21
608.82735921331539
 31
0.0
  0
LINE
  5
16FBB
  8
AM_0
 10
-236.4013097842633
 20
617.32735921331539
 30
0.0
 11
-236.4013097842633
 21
613.32735921331539
 31
0.0
  0
LINE
  5
16FBC
  8
AM_0
 10
-227.20530978426311
 20
631.82735921331516
 30
0.0
 11
-232.39408529446621
 21
628.82735921331539
 31
0.0
  0
LINE
  5
16FBD
  8
AM_0
 10
-239.42749085836701
 20
605.32735921331528
 30
0.0
 11
-239.6819701132265
 21
595.60738921331529
 31
0.0
  0
ARC
  5
16FBE
  8
AM_0
 10
-235.4013097842633
 20
613.32735921331539
 30
0.0
 40
1.0
 50
180.0
 51
270.0
  0
ARC
  5
16FBF
  8
AM_0
 10
-241.0685969629115
 20
599.95736921331536
 30
0.0
 40
1.5
 50
270.0
 51
358.50027754901231
1001
GENIUS_GENODEF_13
1002
{
1000
HIER
1070
     0
1002
}
1002
{
1000
MANEDIT
1070
     0
1002
}
1002
{
1000
NOSEL
1070
     0
1002
}
1002
{
1000
BEHIND
1070
     0
1002
}
1002
{
1000
REACTOR
1002
}
1001
GENIUS_GENOBJ-N-FIL_13
1002
{
1000
OWNER
1000
GEN
1002
}
  0
LINE
  5
16FC0
  8
AM_0
 10
-248.9013097842633
 20
608.82735921331539
 30
0.0
 11
-248.9013097842633
 21
616.32735921331539
 31
0.0
  0
LINE
  5
16FC1
  8
AM_0
 10
-253.4013097842633
 20
613.32735921331539
 30
0.0
 11
-253.4013097842633
 21
617.32735921331539
 31
0.0
  0
LINE
  5
16FC2
  8
AM_0
 10
-252.4013097842633
 20
608.82735921331539
 30
0.0
 11
-252.4013097842633
 21
616.32735921331539
 31
0.0
  0
LINE
  5
16FC3
  8
AM_0
 10
-256.40130978426328
 20
612.32735921331539
 30
0.0
 11
-256.40130978426328
 21
627.82735921331516
 31
0.0
  0
LINE
  5
16FC4
  8
AM_0
 10
-257.90130978426328
 20
605.32735921331528
 30
0.0
 11
-257.90130978426328
 21
624.82735921331539
 31
0.0
  0
ARC
  5
16FC5
  8
AM_0
 10
-255.4013097842633
 20
627.82735921331516
 30
0.0
 40
1.0
 50
90.0
 51
180.0
  0
ARC
  5
16FC6
  8
AM_0
 10
-245.9013097842633
 20
617.32735921331539
 30
0.0
 40
7.499999999999992
 50
90.0
 51
180.0
  0
LINE
  5
16FC7
  8
AM_0
 10
-243.9013097842633
 20
624.82735921331539
 30
0.0
 11
-245.9013097842633
 21
624.82735921331539
 31
0.0
  0
LINE
  5
16FC8
  8
AM_0
 10
-257.90130978426328
 20
624.82735921331539
 30
0.0
 11
-256.40130978426328
 21
624.82735921331539
 31
0.0
  0
ARC
  5
16FC9
  8
AM_0
 10
-254.4013097842633
 20
613.32735921331539
 30
0.0
 40
1.0
 50
270.0
 51
0.0
  0
LINE
  5
16FCA
  8
AM_0
 10
-257.90130978426328
 20
612.32735921331539
 30
0.0
 11
-254.4013097842633
 21
612.32735921331539
 31
0.0
  0
ARC
  5
16FCB
  8
AM_0
 10
-263.49505978426288
 20
596.45736921331536
 30
0.0
 40
2.0
 50
90.000010000000998
 51
172.04955999999649
  0
ARC
  5
16FCC
  8
AM_0
 10
-263.414679784263
 20
596.45736921331536
 30
0.0
 40
2.0
 50
90.000010000000998
 51
171.3703800000024
  0
ARC
  5
16FCD
  8
AM_0
 10
-263.14507978426298
 20
596.45699921331538
 30
0.0
 40
2.000420099999999
 50
90.177290000003907
 51
171.0731799999985
  0
LINE
  5
16FCE
  8
AM_0
 10
-197.40130978426311
 20
513.32735921331539
 30
0.0
 11
-264.04131978426301
 21
513.32735921331539
 31
0.0
  0
LINE
  5
16FCF
  8
AM_0
 10
-264.94128978426312
 20
512.83736921331524
 30
0.0
 11
-197.40130978426311
 21
512.83736921331524
 31
0.0
  0
LINE
  5
16FD0
  8
AM_0
 10
-165.0684797842633
 20
515.32735921331516
 30
0.0
 11
-264.04131978426301
 21
515.32735921331516
 31
0.0
  0
LINE
  5
16FD1
  8
AM_0
 10
-264.94128978426312
 20
515.76730921331523
 30
0.0
 11
-161.36706978426309
 21
515.76730921331523
 31
0.0
  0
LINE
  5
16FD2
  8
AM_0
 10
-197.40130978426311
 20
565.32735921331516
 30
0.0
 11
-264.04131978426301
 21
565.32735921331516
 31
0.0
  0
LINE
  5
16FD3
  8
AM_0
 10
-264.94128978426312
 20
565.81734921331531
 30
0.0
 11
-197.40130978426311
 21
565.81734921331531
 31
0.0
  0
LINE
  5
16FD4
  8
AM_0
 10
-264.72131978426302
 20
572.69735921331539
 30
0.0
 11
-197.38128978426309
 21
572.69735921331539
 31
0.0
  0
LINE
  5
16FD5
  8
AM_0
 10
-165.0684797842633
 20
563.32735921331539
 30
0.0
 11
-264.04131978426301
 21
563.32735921331539
 31
0.0
  0
LINE
  5
16FD6
  8
AM_0
 10
-264.94128978426312
 20
562.88741921331518
 30
0.0
 11
-161.36706978426309
 21
562.88741921331518
 31
0.0
  0
LINE
  5
16FD7
  8
AM_0
 10
-209.40130978426311
 20
576.04732921331538
 30
0.0
 11
-161.58129978426319
 21
576.04732921331538
 31
0.0
  0
LINE
  5
16FD8
  8
AM_0
 10
-165.06127978426309
 20
573.32735921331516
 30
0.0
 11
-209.40130978426311
 21
573.32735921331516
 31
0.0
  0
LINE
  5
16FD9
  8
AM_0
 10
-165.06127978426309
 20
575.32735921331539
 30
0.0
 11
-209.40130978426311
 21
575.32735921331539
 31
0.0
  0
LINE
  5
16FDA
  8
AM_0
 10
-165.0684797842633
 20
565.32735921331516
 30
0.0
 11
-179.40130978426299
 21
565.32735921331516
 31
0.0
  0
LINE
  5
16FDB
  8
AM_0
 10
-161.58129978426319
 20
572.69735921331539
 30
0.0
 11
-179.42126978426319
 21
572.69735921331539
 31
0.0
  0
LINE
  5
16FDC
  8
AM_0
 10
-179.40130978426299
 20
565.80733921331534
 30
0.0
 11
-161.36706978426309
 21
565.80733921331534
 31
0.0
  0
ARC
  5
16FDD
  8
AM_0
 10
-161.58129978426319
 20
574.37240921331534
 30
0.0
 40
1.6750020000000001
 50
269.99999700000228
 51
90.000010000000998
  0
LINE
  5
16FDE
  8
AM_0
 10
-158.40130978426311
 20
580.04998921331514
 30
0.0
 11
-159.40130978426311
 21
580.62734921331526
 31
0.0
  0
LINE
  5
16FDF
  8
AM_0
 10
-158.40130978426311
 20
581.04998921331537
 30
0.0
 11
-159.40130978426311
 21
581.62734921331548
 31
0.0
  0
LINE
  5
16FE0
  8
AM_0
 10
-159.40130978426311
 20
577.02733921331526
 30
0.0
 11
-158.40130978426311
 21
577.02733921331526
 31
0.0
  0
LINE
  5
16FE1
  8
AM_0
 10
-159.40130978426311
 20
584.62734921331526
 30
0.0
 11
-158.40130978426311
 21
584.62734921331526
 31
0.0
  0
LINE
  5
16FE2
  8
AM_0
 10
-163.85925978426309
 20
592.32735921331539
 30
0.0
 11
-158.40130978426311
 21
592.32735921331539
 31
0.0
  0
LINE
  5
16FE3
  8
AM_0
 10
-158.40130978426311
 20
577.02733921331526
 30
0.0
 11
-158.40130978426311
 21
584.62734921331526
 31
0.0
  0
LINE
  5
16FE4
  8
AM_0
 10
-158.40130978426279
 20
585.32735921331516
 30
0.0
 11
-150.40130978426311
 21
585.32688222102024
 31
0.0
  0
ARC
  5
16FE5
  8
AM_0
 10
-160.3013097842628
 20
582.6273492133156
 30
0.0
 40
1.7000007999999991
 50
90.000020000001967
 51
179.999989999999
  0
LINE
  5
16FE6
  8
AM_0
 10
-159.40130978426311
 20
577.02733921331526
 30
0.0
 11
-159.40130978426311
 21
584.62734921331526
 31
0.0
  0
LINE
  5
16FE7
  8
AM_0
 10
-159.40130978426311
 20
584.32735921331539
 30
0.0
 11
-160.3013097842628
 21
584.32735921331539
 31
0.0
  0
LINE
  5
16FE8
  8
AM_0
 10
-161.56594210471411
 20
583.76344243751453
 30
0.0
 11
-164.3413097842631
 21
594.12734921331526
 31
0.0
  0
ARC
  5
16FE9
  8
AM_0
 10
-165.06127978426309
 20
574.32735921331539
 30
0.0
 40
1.0
 50
269.99999700000228
 51
90.000010000000998
  0
ARC
  5
16FEA
  8
AM_0
 10
-160.3013097842628
 20
579.02733921331549
 30
0.0
 40
1.699996899999999
 50
180.00001999999549
 51
269.99999700000228
  0
LINE
  5
16FEB
  8
AM_0
 10
-162.00128978426321
 20
579.02733921331549
 30
0.0
 11
-162.00128978426321
 21
582.6273492133156
 31
0.0
  0
LINE
  5
16FEC
  8
AM_0
 10
-159.40130978426311
 20
577.32735921331516
 30
0.0
 11
-160.3013097842628
 21
577.32735921331516
 31
0.0
  0
LINE
  5
16FED
  8
AM_0
 10
-158.40130978426279
 20
571.26729921331525
 30
0.0
 11
-150.40130978426311
 21
571.26722147380667
 31
0.0
  0
ARC
  5
16FEE
  8
AM_0
 10
-165.06133978426311
 20
564.32735921331516
 30
0.0
 40
1.0000255999999981
 50
269.58946900000223
 51
90.41052999999674
  0
ARC
  5
16FEF
  8
AM_0
 10
-161.36132978426309
 20
564.35738921331529
 30
0.0
 40
1.460011199999999
 50
269.7752500000031
 51
90.224750000003326
  0
ARC
  5
16FF0
  8
AM_0
 10
-179.40130978426299
 20
571.82735921331539
 30
0.0
 40
1.5
 50
90.0
 51
180.00001000000091
  0
ARC
  5
16FF1
  8
AM_0
 10
-179.42126978426319
 20
571.68734921331531
 30
0.0
 40
1.0
 50
90.0
 51
180.00001000000091
  0
ARC
  5
16FF2
  8
AM_0
 10
-197.40130978426311
 20
571.82735921331539
 30
0.0
 40
1.5
 50
359.99999931675052
 51
90.000010000000998
  0
ARC
  5
16FF3
  8
AM_0
 10
-197.38128978426309
 20
571.68734921331531
 30
0.0
 40
1.0
 50
359.99999931675052
 51
90.000010000000998
  0
LINE
  5
16FF4
  8
AM_0
 10
-180.42126978426319
 20
566.82735921331539
 30
0.0
 11
-180.42126978426319
 21
571.68734921331531
 31
0.0
  0
LINE
  5
16FF5
  8
AM_0
 10
-180.90130978426311
 20
566.82735921331539
 30
0.0
 11
-180.90130978426311
 21
571.82735921331539
 31
0.0
  0
ARC
  5
16FF6
  8
AM_0
 10
-179.40130978426299
 20
566.82735921331539
 30
0.0
 40
1.02
 50
179.999989999999
 51
269.99999700000228
  0
ARC
  5
16FF7
  8
AM_0
 10
-179.40130978426299
 20
566.82735921331539
 30
0.0
 40
1.5
 50
179.999989999999
 51
269.99999700000228
  0
CIRCLE
  5
16FF8
  8
AM_0
 10
-190.90130978426299
 20
567.82735921331528
 30
0.0
 40
1.149999999999999
  0
CIRCLE
  5
16FF9
  8
AM_0
 10
-190.90130978426299
 20
567.82735921331528
 30
0.0
 40
1.1000000000000001
  0
CIRCLE
  5
16FFA
  8
AM_0
 10
-185.90130978426311
 20
567.82735921331528
 30
0.0
 40
1.0
  0
LINE
  5
16FFB
  8
AM_0
 10
-196.38128978426309
 20
566.82735921331539
 30
0.0
 11
-196.38128978426309
 21
571.68734921331531
 31
0.0
  0
LINE
  5
16FFC
  8
AM_0
 10
-195.90130978426299
 20
566.82735921331539
 30
0.0
 11
-195.90130978426299
 21
571.82735921331539
 31
0.0
  0
ARC
  5
16FFD
  8
AM_0
 10
-197.40130978426311
 20
566.82735921331539
 30
0.0
 40
1.02
 50
269.99999700000228
 51
0.0
  0
ARC
  5
16FFE
  8
AM_0
 10
-197.40130978426311
 20
566.82735921331539
 30
0.0
 40
1.5
 50
269.99999700000228
 51
0.0
  0
LINE
  5
16FFF
  8
AM_0
 10
-165.0541397842631
 20
513.32735921331539
 30
0.0
 11
-179.40130978426299
 21
513.32735921331539
 31
0.0
  0
LINE
  5
17000
  8
AM_0
 10
-179.40130978426299
 20
512.83736921331524
 30
0.0
 11
-161.355589784263
 21
512.83736921331524
 31
0.0
  0
ARC
  5
17001
  8
AM_0
 10
-165.06133978426311
 20
514.32735921331516
 30
0.0
 40
1.0000255999999981
 50
269.58946900000223
 51
90.41052999999674
  0
ARC
  5
17002
  8
AM_0
 10
-161.36132978426309
 20
514.29732921331515
 30
0.0
 40
1.460011199999999
 50
269.7752500000031
 51
90.224750000003326
  0
ARC
  5
17003
  8
AM_0
 10
-179.40130978426299
 20
511.82735921331528
 30
0.0
 40
1.02
 50
90.0
 51
180.00001000000091
  0
ARC
  5
17004
  8
AM_0
 10
-179.40130978426299
 20
511.82735921331528
 30
0.0
 40
1.5
 50
90.0
 51
180.00001000000091
  0
CIRCLE
  5
17005
  8
AM_0
 10
-190.90130978426299
 20
510.82735921331522
 30
0.0
 40
1.1000000000000001
  0
CIRCLE
  5
17006
  8
AM_0
 10
-190.90130978426299
 20
510.82735921331522
 30
0.0
 40
1.149999999999999
  0
CIRCLE
  5
17007
  8
AM_0
 10
-185.90130978426311
 20
510.82735921331522
 30
0.0
 40
1.0
  0
ARC
  5
17008
  8
AM_0
 10
-197.40130978426311
 20
511.82735921331528
 30
0.0
 40
1.02
 50
359.999999316757
 51
90.000010000000998
  0
ARC
  5
17009
  8
AM_0
 10
-197.40130978426311
 20
511.82735921331528
 30
0.0
 40
1.5
 50
359.99999931675052
 51
90.000010000000998
  0
POLYLINE
  5
1700A
  8
AM_0
 66
     1
 10
0.0
 20
0.0
 30
0.0
  0
VERTEX
  5
1700B
  8
AM_0
 10
-263.99725978426278
 20
545.59774921331541
 30
0.0
 42
-0.00076695232
  0
VERTEX
  5
1700C
  8
AM_0
 10
-263.98245978426291
 20
546.21550921331516
 30
0.0
 42
-0.00073263044
  0
VERTEX
  5
1700D
  8
AM_0
 10
-263.96581978426309
 20
546.83310921331531
 30
0.0
 42
-0.0007652599
  0
VERTEX
  5
1700E
  8
AM_0
 10
-263.94732978426322
 20
547.45077921331517
 30
0.0
 42
-0.00075144485
  0
VERTEX
  5
1700F
  8
AM_0
 10
-263.92695978426298
 20
548.06837921331532
 30
0.0
 42
-0.00078594403
  0
VERTEX
  5
17010
  8
AM_0
 10
-263.90470978426299
 20
548.68580921331522
 30
0.0
 42
-0.00073349202
  0
VERTEX
  5
17011
  8
AM_0
 10
-263.88055978426331
 20
549.30318921331548
 30
0.0
 42
-0.0007358075
  0
VERTEX
  5
17012
  8
AM_0
 10
-263.85461978426281
 20
549.92058921331534
 30
0.0
 42
-0.00078592699
  0
VERTEX
  5
17013
  8
AM_0
 10
-263.82678978426281
 20
550.53797921331534
 30
0.0
 42
-0.00074823144
  0
VERTEX
  5
17014
  8
AM_0
 10
-263.79705978426313
 20
551.15536921331534
 30
0.0
 42
-0.00074896603
  0
VERTEX
  5
17015
  8
AM_0
 10
-263.76549978426323
 20
551.7724992133152
 30
0.0
 42
-0.00076039765
  0
VERTEX
  5
17016
  8
AM_0
 10
-263.73207978426302
 20
552.38952921331531
 30
0.0
 42
-0.00075616128
  0
VERTEX
  5
17017
  8
AM_0
 10
-263.69677978426301
 20
553.00655921331531
 30
0.0
  0
SEQEND
  5
17018
  8
AM_0
  0
LINE
  5
17019
  8
AM_0
 10
-264.72131978426302
 20
576.04732921331538
 30
0.0
 11
-209.40130978426311
 21
576.04732921331538
 31
0.0
  0
LINE
  5
1701A
  8
AM_0
 10
-209.40130978426311
 20
573.32735921331516
 30
0.0
 11
-264.04131978426301
 21
573.32735921331516
 31
0.0
  0
LINE
  5
1701B
  8
AM_0
 10
-209.40130978426311
 20
575.32735921331539
 30
0.0
 11
-264.04131978426301
 21
575.32735921331539
 31
0.0
  0
LINE
  5
1701C
  8
AM_0
 10
-265.07128978426317
 20
553.00741921331519
 30
0.0
 11
-228.7426197842631
 21
553.00741921331519
 31
0.0
  0
LINE
  5
1701D
  8
AM_0
 10
-229.962589784263
 20
553.32735921331539
 30
0.0
 11
-264.04131978426301
 21
553.32735921331539
 31
0.0
  0
LINE
  5
1701E
  8
AM_0
 10
-229.962589784263
 20
555.32735921331528
 30
0.0
 11
-264.04131978426301
 21
555.32735921331528
 31
0.0
  0
LINE
  5
1701F
  8
AM_0
 10
-265.07128978426317
 20
555.66732921331538
 30
0.0
 11
-228.73003978426331
 21
555.66732921331538
 31
0.0
  0
ARC
  5
17020
  8
AM_0
 10
-228.73632978426309
 20
554.33736921331524
 30
0.0
 40
1.3300148000000001
 50
269.72943299999889
 51
90.270580000001416
  0
ARC
  5
17021
  8
AM_0
 10
-229.962589784263
 20
554.32735921331539
 30
0.0
 40
1.000005699999998
 50
269.99999700000228
 51
90.000010000000998
  0
ARC
  5
17022
  8
AM_0
 10
-264.72814978426311
 20
574.37240921331534
 30
0.0
 40
1.675014
 50
89.766490000000559
 51
270.23350100000317
  0
LINE
  5
17023
  8
AM_0
 10
-261.04131978426301
 20
575.9773892133154
 30
0.0
 11
-266.4012497842632
 21
587.41729921331523
 31
0.0
  0
LINE
  5
17024
  8
AM_0
 10
-274.40130978426288
 20
592.32735921331539
 30
0.0
 11
-266.40130978426288
 21
592.32735921331539
 31
0.0
  0
LINE
  5
17025
  8
AM_0
 10
-266.40130978426311
 20
587.41738921331535
 30
0.0
 11
-265.16125978426311
 21
593.97738921331518
 31
0.0
  0
LINE
  5
17026
  8
AM_0
 10
-275.40130978426299
 20
589.32735921331516
 30
0.0
 11
-274.40130978426311
 21
589.32735921331516
 31
0.0
  0
ARC
  5
17027
  8
AM_0
 10
-263.85668978426281
 20
574.32735921331539
 30
0.0
 40
1.0000138999999999
 50
89.691659999999274
 51
270.30834000000073
  0
ARC
  5
17028
  8
AM_0
 10
-276.40453978426319
 20
580.30062921331535
 30
0.0
 40
1.0032760000000001
 50
0.3818899999953196
 51
25.801899999995051
  0
LINE
  5
17029
  8
AM_0
 10
-273.70129978426303
 20
582.51730921331523
 30
0.0
 11
-267.4713197842629
 21
582.51730921331523
 31
0.0
  0
POLYLINE
  5
1702A
  8
AM_0
 66
     1
 10
0.0
 20
0.0
 30
0.0
  0
VERTEX
  5
1702B
  8
AM_0
 10
-263.52306978426287
 20
555.66793921331532
 30
0.0
 42
-0.00073721992
  0
VERTEX
  5
1702C
  8
AM_0
 10
-263.47891978426321
 20
556.27034921331517
 30
0.0
 42
-0.00074398496
  0
VERTEX
  5
1702D
  8
AM_0
 10
-263.43298978426299
 20
556.87261921331515
 30
0.0
 42
-0.00073322625
  0
VERTEX
  5
1702E
  8
AM_0
 10
-263.38525978426321
 20
557.47494921331531
 30
0.0
 42
-0.00073594289
  0
VERTEX
  5
1702F
  8
AM_0
 10
-263.33577978426308
 20
558.07693921331531
 30
0.0
 42
-0.00074742568
  0
VERTEX
  5
17030
  8
AM_0
 10
-263.28450978426309
 20
558.67879921331519
 30
0.0
 42
-0.00073216749
  0
VERTEX
  5
17031
  8
AM_0
 10
-263.23144978426302
 20
559.2806092133153
 30
0.0
 42
-0.00074184065
  0
VERTEX
  5
17032
  8
AM_0
 10
-263.17662978426313
 20
559.88213921331533
 30
0.0
 42
-0.00072077528
  0
VERTEX
  5
17033
  8
AM_0
 10
-263.12004978426319
 20
560.48336921331531
 30
0.0
 42
-0.00074978179
  0
VERTEX
  5
17034
  8
AM_0
 10
-263.06170978426309
 20
561.08456921331515
 30
0.0
 42
-0.00074288888
  0
VERTEX
  5
17035
  8
AM_0
 10
-263.00155978426289
 20
561.68558921331532
 30
0.0
 42
-0.00072503679
  0
VERTEX
  5
17036
  8
AM_0
 10
-262.939649784263
 20
562.28632921331518
 30
0.0
 42
-0.00074640584
  0
VERTEX
  5
17037
  8
AM_0
 10
-262.875979784263
 20
562.8869292133154
 30
0.0
  0
SEQEND
  5
17038
  8
AM_0
  0
ARC
  5
17039
  8
AM_0
 10
-264.94128978426289
 20
564.3523892133154
 30
0.0
 40
1.465004
 50
90.0
 51
269.99999700000228
  0
POLYLINE
  5
1703A
  8
AM_0
 66
     1
 10
0.0
 20
0.0
 30
0.0
  0
VERTEX
  5
1703B
  8
AM_0
 10
-262.54040978426281
 20
565.81039921331524
 30
0.0
 42
-0.0006890001
  0
VERTEX
  5
1703C
  8
AM_0
 10
-262.4695297842631
 20
566.38514921331523
 30
0.0
 42
-0.00070644651
  0
VERTEX
  5
1703D
  8
AM_0
 10
-262.39702978426283
 20
566.95982921331517
 30
0.0
 42
-0.0006924559
  0
VERTEX
  5
1703E
  8
AM_0
 10
-262.32293978426321
 20
567.53414921331523
 30
0.0
 42
-0.00069587797
  0
VERTEX
  5
1703F
  8
AM_0
 10
-262.24725978426278
 20
568.10828921331529
 30
0.0
 42
-0.00071687041
  0
VERTEX
  5
17040
  8
AM_0
 10
-262.16994978426322
 20
568.68228921331547
 30
0.0
 42
-0.00069759113
  0
VERTEX
  5
17041
  8
AM_0
 10
-262.09100978426278
 20
569.25607921331539
 30
0.0
 42
-0.00071003142
  0
VERTEX
  5
17042
  8
AM_0
 10
-262.01046978426291
 20
569.82954921331532
 30
0.0
 42
-0.00069954544
  0
VERTEX
  5
17043
  8
AM_0
 10
-261.92832978426293
 20
570.40264921331516
 30
0.0
 42
-0.0007188852
  0
VERTEX
  5
17044
  8
AM_0
 10
-261.84454978426299
 20
570.9756792133154
 30
0.0
 42
-0.00071266165
  0
VERTEX
  5
17045
  8
AM_0
 10
-261.75911978426291
 20
571.54843921331531
 30
0.0
 42
-0.00071614577
  0
VERTEX
  5
17046
  8
AM_0
 10
-261.67208978426322
 20
572.12078921331533
 30
0.0
 42
-0.00072290806
  0
VERTEX
  5
17047
  8
AM_0
 10
-261.58337978426317
 20
572.69308921331515
 30
0.0
  0
SEQEND
  5
17048
  8
AM_0
  0
ARC
  5
17049
  8
AM_0
 10
-263.85668978426281
 20
564.32735921331516
 30
0.0
 40
1.0000138999999999
 50
89.691659999999274
 51
270.30834000000073
  0
ARC
  5
1704A
  8
AM_0
 10
-265.071289784263
 20
554.33736921331524
 30
0.0
 40
1.3300049999999981
 50
90.0
 51
269.99999700000228
  0
ARC
  5
1704B
  8
AM_0
 10
-263.85668978426281
 20
554.32735921331539
 30
0.0
 40
1.0000138999999999
 50
89.691659999999274
 51
270.30834000000073
  0
LINE
  5
1704C
  8
AM_0
 10
-229.962589784263
 20
523.32735921331516
 30
0.0
 11
-264.04131978426301
 21
523.32735921331516
 31
0.0
  0
LINE
  5
1704D
  8
AM_0
 10
-265.07128978426317
 20
522.98739921331514
 30
0.0
 11
-228.7426197842631
 21
522.98739921331514
 31
0.0
  0
LINE
  5
1704E
  8
AM_0
 10
-229.962589784263
 20
525.32735921331539
 30
0.0
 11
-264.04131978426301
 21
525.32735921331539
 31
0.0
  0
LINE
  5
1704F
  8
AM_0
 10
-265.07128978426317
 20
525.64730921331522
 30
0.0
 11
-228.7426197842631
 21
525.64730921331522
 31
0.0
  0
LINE
  5
17050
  8
AM_0
 10
-229.962589784263
 20
545.32735921331539
 30
0.0
 11
-264.04131978426301
 21
545.32735921331539
 31
0.0
  0
LINE
  5
17051
  8
AM_0
 10
-265.13128978426312
 20
545.59737921331532
 30
0.0
 11
-228.6826197842629
 21
545.59737921331532
 31
0.0
  0
LINE
  5
17052
  8
AM_0
 10
-229.962589784263
 20
533.32735921331539
 30
0.0
 11
-264.04131978426301
 21
533.32735921331539
 31
0.0
  0
LINE
  5
17053
  8
AM_0
 10
-229.962589784263
 20
535.32735921331516
 30
0.0
 11
-264.04131978426301
 21
535.32735921331516
 31
0.0
  0
LINE
  5
17054
  8
AM_0
 10
-265.13128978426312
 20
533.05733921331534
 30
0.0
 11
-228.6826197842629
 21
533.05733921331534
 31
0.0
  0
LINE
  5
17055
  8
AM_0
 10
-265.13128978426312
 20
535.58736921331524
 30
0.0
 11
-228.6826197842629
 21
535.58736921331524
 31
0.0
  0
LINE
  5
17056
  8
AM_0
 10
-265.13128978426312
 20
543.05733921331534
 30
0.0
 11
-228.6826197842629
 21
543.05733921331534
 31
0.0
  0
LINE
  5
17057
  8
AM_0
 10
-229.962589784263
 20
543.32735921331516
 30
0.0
 11
-264.04131978426301
 21
543.32735921331516
 31
0.0
  0
ARC
  5
17058
  8
AM_0
 10
-228.67437978426329
 20
544.32735921331516
 30
0.0
 40
1.2700266
 50
269.6293300000018
 51
90.370680000000107
  0
ARC
  5
17059
  8
AM_0
 10
-229.962589784263
 20
544.32735921331516
 30
0.0
 40
1.000005699999998
 50
269.99999700000228
 51
90.000010000000998
  0
ARC
  5
1705A
  8
AM_0
 10
-228.67437978426329
 20
534.31734921331531
 30
0.0
 40
1.2700266
 50
269.6293300000018
 51
90.370680000000107
  0
ARC
  5
1705B
  8
AM_0
 10
-229.962589784263
 20
534.32735921331539
 30
0.0
 40
1.000005699999998
 50
269.99999700000228
 51
90.000010000000998
  0
ARC
  5
1705C
  8
AM_0
 10
-228.73632978426309
 20
524.31234921331531
 30
0.0
 40
1.3350147999999999
 50
269.73044399999861
 51
90.269570000000087
  0
ARC
  5
1705D
  8
AM_0
 10
-229.962589784263
 20
524.32735921331539
 30
0.0
 40
1.000005699999998
 50
269.99999700000228
 51
90.000010000000998
  0
POLYLINE
  5
1705E
  8
AM_0
 66
     1
 10
0.0
 20
0.0
 30
0.0
  0
VERTEX
  5
1705F
  8
AM_0
 10
-263.99725978426278
 20
533.05697921331534
 30
0.0
 42
0.00076691987
  0
VERTEX
  5
17060
  8
AM_0
 10
-263.98245978426291
 20
532.43921921331525
 30
0.0
 42
0.00073262795
  0
VERTEX
  5
17061
  8
AM_0
 10
-263.96581978426309
 20
531.82161921331533
 30
0.0
 42
0.0007652954
  0
VERTEX
  5
17062
  8
AM_0
 10
-263.94732978426322
 20
531.20394921331524
 30
0.0
 42
0.00077334627
  0
VERTEX
  5
17063
  8
AM_0
 10
-263.92691978426308
 20
530.58634921331532
 30
0.0
 42
0.00073282897
  0
VERTEX
  5
17064
  8
AM_0
 10
-263.904659784263
 20
529.96892921331528
 30
0.0
 42
0.0007571179
  0
VERTEX
  5
17065
  8
AM_0
 10
-263.88055978426331
 20
529.35140921331515
 30
0.0
 42
0.00073783152
  0
VERTEX
  5
17066
  8
AM_0
 10
-263.85461978426281
 20
528.73401921331538
 30
0.0
 42
0.0007835518
  0
VERTEX
  5
17067
  8
AM_0
 10
-263.82678978426281
 20
528.11674921331519
 30
0.0
 42
0.00074826133
  0
VERTEX
  5
17068
  8
AM_0
 10
-263.79705978426313
 20
527.4993592133153
 30
0.0
 42
0.00074893555
  0
VERTEX
  5
17069
  8
AM_0
 10
-263.76549978426323
 20
526.88222921331533
 30
0.0
 42
0.00076039841
  0
VERTEX
  5
1706A
  8
AM_0
 10
-263.73207978426302
 20
526.26519921331533
 30
0.0
 42
0.00075618789
  0
VERTEX
  5
1706B
  8
AM_0
 10
-263.69677978426301
 20
525.64816921331533
 30
0.0
  0
SEQEND
  5
1706C
  8
AM_0
  0
POLYLINE
  5
1706D
  8
AM_0
 66
     1
 10
0.0
 20
0.0
 30
0.0
  0
VERTEX
  5
1706E
  8
AM_0
 10
-264.04131978426301
 20
539.32735921331516
 30
0.0
 42
-0.00039106593
  0
VERTEX
  5
1706F
  8
AM_0
 10
-264.04367978426291
 20
539.63849921331519
 30
0.0
 42
-0.00040574899
  0
VERTEX
  5
17070
  8
AM_0
 10
-264.04554978426302
 20
539.9496092133154
 30
0.0
 42
-0.0003534546
  0
VERTEX
  5
17071
  8
AM_0
 10
-264.04693978426292
 20
540.26070921331541
 30
0.0
 42
-0.00034407327
  0
VERTEX
  5
17072
  8
AM_0
 10
-264.04791978426317
 20
540.57184921331532
 30
0.0
 42
-0.00045699408
  0
VERTEX
  5
17073
  8
AM_0
 10
-264.04837978426292
 20
540.8829592133153
 30
0.0
 42
-0.00035571853
  0
VERTEX
  5
17074
  8
AM_0
 10
-264.04833978426302
 20
541.19405921331531
 30
0.0
 42
-0.00038547362
  0
VERTEX
  5
17075
  8
AM_0
 10
-264.04784978426312
 20
541.50519921331522
 30
0.0
 42
-0.00035501498
  0
VERTEX
  5
17076
  8
AM_0
 10
-264.04688978426282
 20
541.81629921331523
 30
0.0
 42
-0.00040118614
  0
VERTEX
  5
17077
  8
AM_0
 10
-264.04546978426322
 20
542.12753921331534
 30
0.0
 42
-0.00038319871
  0
VERTEX
  5
17078
  8
AM_0
 10
-264.04355978426281
 20
542.43866921331517
 30
0.0
 42
-0.00040742136
  0
VERTEX
  5
17079
  8
AM_0
 10
-264.0411597842629
 20
542.7498992133153
 30
0.0
 42
-0.0003578071
  0
VERTEX
  5
1707A
  8
AM_0
 10
-264.03826978426321
 20
543.0610092133154
 30
0.0
  0
SEQEND
  5
1707B
  8
AM_0
  0
ARC
  5
1707C
  8
AM_0
 10
-265.13714978426322
 20
544.32735921331516
 30
0.0
 40
1.2700129999999981
 50
89.736630000000844
 51
270.26338300000492
  0
ARC
  5
1707D
  8
AM_0
 10
-263.85668978426281
 20
544.32735921331516
 30
0.0
 40
1.0000138999999999
 50
89.691659999999274
 51
270.30834000000073
  0
ARC
  5
1707E
  8
AM_0
 10
-265.13714978426322
 20
534.32235921331539
 30
0.0
 40
1.2650129999999991
 50
89.735589999997515
 51
270.26442099999832
  0
POLYLINE
  5
1707F
  8
AM_0
 66
     1
 10
0.0
 20
0.0
 30
0.0
  0
VERTEX
  5
17080
  8
AM_0
 10
-264.04131978426301
 20
539.32735921331516
 30
0.0
 42
0.00039106653
  0
VERTEX
  5
17081
  8
AM_0
 10
-264.04367978426291
 20
539.01622921331534
 30
0.0
 42
0.00040574511
  0
VERTEX
  5
17082
  8
AM_0
 10
-264.04554978426302
 20
538.70511921331524
 30
0.0
 42
0.00035346331
  0
VERTEX
  5
17083
  8
AM_0
 10
-264.04693978426292
 20
538.39400921331514
 30
0.0
 42
0.00034406545
  0
VERTEX
  5
17084
  8
AM_0
 10
-264.04791978426317
 20
538.08286921331523
 30
0.0
 42
0.00045699059
  0
VERTEX
  5
17085
  8
AM_0
 10
-264.04837978426292
 20
537.77176921331534
 30
0.0
 42
0.00035573431
  0
VERTEX
  5
17086
  8
AM_0
 10
-264.04833978426302
 20
537.46066921331533
 30
0.0
 42
0.00038545888
  0
VERTEX
  5
17087
  8
AM_0
 10
-264.04784978426312
 20
537.1495292133153
 30
0.0
 42
0.00035501203
  0
VERTEX
  5
17088
  8
AM_0
 10
-264.04688978426282
 20
536.83841921331532
 30
0.0
 42
0.00040120778
  0
VERTEX
  5
17089
  8
AM_0
 10
-264.04546978426322
 20
536.5271892133153
 30
0.0
 42
0.00038317821
  0
VERTEX
  5
1708A
  8
AM_0
 10
-264.04355978426281
 20
536.21605921331525
 30
0.0
 42
0.00040741862
  0
VERTEX
  5
1708B
  8
AM_0
 10
-264.0411597842629
 20
535.90482921331534
 30
0.0
 42
0.00035783324
  0
VERTEX
  5
1708C
  8
AM_0
 10
-264.03826978426321
 20
535.59371921331524
 30
0.0
  0
SEQEND
  5
1708D
  8
AM_0
  0
ARC
  5
1708E
  8
AM_0
 10
-263.85668978426281
 20
534.32735921331539
 30
0.0
 40
1.0000138999999999
 50
89.691659999999274
 51
270.30834000000073
  0
POLYLINE
  5
1708F
  8
AM_0
 66
     1
 10
0.0
 20
0.0
 30
0.0
  0
VERTEX
  5
17090
  8
AM_0
 10
-263.52306978426287
 20
522.98678921331532
 30
0.0
 42
0.0007337051
  0
VERTEX
  5
17091
  8
AM_0
 10
-263.47892978426302
 20
522.38437921331547
 30
0.0
 42
0.00075211323
  0
VERTEX
  5
17092
  8
AM_0
 10
-263.43298978426299
 20
521.78197921331537
 30
0.0
 42
0.0007297491
  0
VERTEX
  5
17093
  8
AM_0
 10
-263.38525978426321
 20
521.17977921331533
 30
0.0
 42
0.00073593041
  0
VERTEX
  5
17094
  8
AM_0
 10
-263.33577978426308
 20
520.57778921331533
 30
0.0
 42
0.00074742739
  0
VERTEX
  5
17095
  8
AM_0
 10
-263.28450978426309
 20
519.97592921331534
 30
0.0
 42
0.00073217363
  0
VERTEX
  5
17096
  8
AM_0
 10
-263.23144978426302
 20
519.37411921331534
 30
0.0
 42
0.00073754168
  0
VERTEX
  5
17097
  8
AM_0
 10
-263.17662978426313
 20
518.77257921331534
 30
0.0
 42
0.00073075073
  0
VERTEX
  5
17098
  8
AM_0
 10
-263.12004978426319
 20
518.17122921331531
 30
0.0
 42
0.00074550816
  0
VERTEX
  5
17099
  8
AM_0
 10
-263.06170978426309
 20
517.57015921331538
 30
0.0
 42
0.00074288416
  0
VERTEX
  5
1709A
  8
AM_0
 10
-263.00155978426289
 20
516.9691392133152
 30
0.0
 42
0.00072504001
  0
VERTEX
  5
1709B
  8
AM_0
 10
-262.939649784263
 20
516.36839921331523
 30
0.0
 42
0.00074640667
  0
VERTEX
  5
1709C
  8
AM_0
 10
-262.875979784263
 20
515.76778921331515
 30
0.0
  0
SEQEND
  5
1709D
  8
AM_0
  0
ARC
  5
1709E
  8
AM_0
 10
-265.071289784263
 20
524.31734921331531
 30
0.0
 40
1.3300049999999981
 50
90.0
 51
269.99999700000228
  0
ARC
  5
1709F
  8
AM_0
 10
-263.85668978426281
 20
524.32735921331539
 30
0.0
 40
1.0000138999999999
 50
89.691659999999274
 51
270.30834000000073
  0
ARC
  5
170A0
  8
AM_0
 10
-264.94128978426289
 20
514.30233921331535
 30
0.0
 40
1.465004
 50
90.0
 51
269.99999700000228
  0
ARC
  5
170A1
  8
AM_0
 10
-263.85668978426281
 20
514.32735921331516
 30
0.0
 40
1.0000138999999999
 50
89.691659999999274
 51
270.30834000000073
  0
LINE
  5
170A2
  8
AM_0
 10
-280.40130978426311
 20
587.34737921331532
 30
0.0
 11
-280.40130978426311
 21
544.32735921331516
 31
0.0
  0
LINE
  5
170A3
  8
AM_0
 10
-282.89520626863811
 20
554.54919148870601
 30
0.0
 11
-282.89520626863811
 21
524.10555745550266
 31
0.0
  0
LINE
  5
170A4
  8
AM_0
 10
-281.90130978426299
 20
519.32735921331516
 30
0.0
 11
-281.90130978426299
 21
559.32735921331539
 31
0.0
  0
LINE
  5
170A5
  8
AM_0
 10
-278.54131978426312
 20
573.02737921331538
 30
0.0
 11
-279.69128978426312
 21
572.66735921331531
 31
0.0
  0
ARC
  5
170A6
  8
AM_0
 10
-279.40490978426288
 20
571.71297921331541
 30
0.0
 40
0.99638802
 50
106.70335999999961
 51
179.75009000000111
  0
ARC
  5
170A7
  8
AM_0
 10
-278.14611978426308
 20
584.82674921331522
 30
0.0
 40
1.0006820000000001
 50
90.296070000004363
 51
118.3493799999972
  0
LINE
  5
170A8
  8
AM_0
 10
-278.62127978426309
 20
585.70736921331536
 30
0.0
 11
-279.87127978426321
 21
585.04736921331539
 31
0.0
  0
LINE
  5
170A9
  8
AM_0
 10
-278.15130978426299
 20
585.82735921331516
 30
0.0
 11
-276.40130978426311
 21
585.82735921331516
 31
0.0
  0
ARC
  5
170AA
  8
AM_0
 10
-278.1554597842632
 20
586.92806921331533
 30
0.0
 40
0.9993420200000001
 50
90.334539999995144
 51
117.13799999999711
  0
ARC
  5
170AB
  8
AM_0
 10
-278.1298897842629
 20
585.96371921331536
 30
0.0
 40
1.003743999999998
 50
89.508099999999374
 51
120.6288700000047
  0
ARC
  5
170AC
  8
AM_0
 10
-278.12060978426308
 20
588.0762692133153
 30
0.0
 40
1.001123999999999
 50
90.612319999997965
 51
120.67217999999789
  0
LINE
  5
170AD
  8
AM_0
 10
-278.61132978426298
 20
587.81737921331535
 30
0.0
 11
-279.85131978426301
 21
587.18737921331535
 31
0.0
  0
LINE
  5
170AE
  8
AM_0
 10
-278.63128978426312
 20
588.9373492133152
 30
0.0
 11
-279.9012497842632
 21
588.20736921331525
 31
0.0
  0
LINE
  5
170AF
  8
AM_0
 10
-278.40130978426311
 20
588.82735921331528
 30
0.0
 11
-278.40130978426311
 21
588.29732921331527
 31
0.0
  0
LINE
  5
170B0
  8
AM_0
 10
-278.16131978426301
 20
587.92733921331535
 30
0.0
 11
-275.90130978426299
 21
587.92733921331535
 31
0.0
  0
LINE
  5
170B1
  8
AM_0
 10
-278.13128978426312
 20
589.07735921331539
 30
0.0
 11
-275.90130978426299
 21
589.07735921331539
 31
0.0
  0
LINE
  5
170B2
  8
AM_0
 10
-278.40130978426311
 20
586.72738921331529
 30
0.0
 11
-278.40130978426311
 21
586.17733921331535
 31
0.0
  0
LINE
  5
170B3
  8
AM_0
 10
-278.64123978426318
 20
586.82735921331539
 30
0.0
 11
-279.92126978426307
 21
586.05733921331534
 31
0.0
  0
ARC
  5
170B4
  8
AM_0
 10
-279.4055797842629
 20
586.29696921331526
 30
0.0
 40
0.9956849800000001
 50
116.59085999999959
 51
179.97886999999989
  0
ARC
  5
170B5
  8
AM_0
 10
-279.40368978426278
 20
587.3427492133153
 30
0.0
 40
0.9976310099999999
 50
119.92075999999599
 51
179.7321900000014
  0
ARC
  5
170B6
  8
AM_0
 10
-279.40252978426298
 20
585.20382921331532
 30
0.0
 40
0.9987969999999998
 50
121.29205000000201
 51
180.37271999999899
  0
ARC
  5
170B7
  8
AM_0
 10
-279.40356978426308
 20
584.16610921331517
 30
0.0
 40
0.9977070099999998
 50
117.95518999999921
 51
179.92597999999589
  0
ARC
  5
170B8
  8
AM_0
 10
-278.26073978426291
 20
572.06466921331526
 30
0.0
 40
1.002699
 50
89.459359999998895
 51
106.2472799999978
  0
ARC
  5
170B9
  8
AM_0
 10
-278.19830978426302
 20
574.01217921331533
 30
0.0
 40
1.005233
 50
90.170750000000567
 51
113.0136100000026
  0
LINE
  5
170BA
  8
AM_0
 10
-278.40130978426311
 20
574.71737921331521
 30
0.0
 11
-278.40130978426311
 21
573.65731921331519
 31
0.0
  0
LINE
  5
170BB
  8
AM_0
 10
-278.59124978426331
 20
574.93731921331539
 30
0.0
 11
-279.79125978426327
 21
574.41729921331523
 31
0.0
  0
LINE
  5
170BC
  8
AM_0
 10
-278.2512797842632
 20
573.06734921331531
 30
0.0
 11
-276.40130978426311
 21
573.06734921331531
 31
0.0
  0
LINE
  5
170BD
  8
AM_0
 10
-278.20129978426303
 20
575.01730921331512
 30
0.0
 11
-276.10131978426313
 21
575.01730921331512
 31
0.0
  0
ARC
  5
170BE
  8
AM_0
 10
-279.40478978426279
 20
573.49886921331517
 30
0.0
 40
0.9965090199999998
 50
112.8215500000059
 51
180.08625000000339
  0
ARC
  5
170BF
  8
AM_0
 10
-278.13793978426281
 20
580.30636921331541
 30
0.0
 40
1.001044999999998
 50
89.620290000000495
 51
119.5281299999957
  0
ARC
  5
170C0
  8
AM_0
 10
-278.10851978426302
 20
581.44686921331538
 30
0.0
 40
1.000521999999999
 50
89.586560000002933
 51
122.853819999998
  0
LINE
  5
170C1
  8
AM_0
 10
-278.40130978426311
 20
582.15731921331519
 30
0.0
 11
-278.40130978426311
 21
581.68734921331531
 31
0.0
  0
LINE
  5
170C2
  8
AM_0
 10
-279.91131978426301
 20
580.42736921331516
 30
0.0
 11
-279.931339784263
 21
580.41738921331535
 31
0.0
  0
LINE
  5
170C3
  8
AM_0
 10
-278.63128978426312
 20
581.17730921331531
 30
0.0
 11
-279.91125978426322
 21
580.42733921331535
 31
0.0
  0
LINE
  5
170C4
  8
AM_0
 10
-278.6513697842629
 20
582.28738921331535
 30
0.0
 11
-279.95135978426327
 21
581.43737921331535
 31
0.0
  0
LINE
  5
170C5
  8
AM_0
 10
-278.13128978426312
 20
581.30733921331534
 30
0.0
 11
-276.40130978426311
 21
581.30733921331534
 31
0.0
  0
ARC
  5
170C6
  8
AM_0
 10
-279.40282978426319
 20
579.56808921331526
 30
0.0
 40
0.9984580299999999
 50
120.61342999999739
 51
180.04042000000149
  0
ARC
  5
170C7
  8
AM_0
 10
-279.40282978426319
 20
579.56808921331526
 30
0.0
 40
0.9984580299999999
 50
120.61342999999739
 51
180.04042000000149
  0
ARC
  5
170C8
  8
AM_0
 10
-279.4022197842632
 20
580.60262921331525
 30
0.0
 40
0.9990889999999998
 50
123.3379099999962
 51
180.3049100000035
  0
LINE
  5
170C9
  8
AM_0
 10
-276.40130978426311
 20
563.32735921331539
 30
0.0
 11
-279.40130978426299
 21
563.32735921331539
 31
0.0
  0
LINE
  5
170CA
  8
AM_0
 10
-276.40130978426311
 20
565.32735921331516
 30
0.0
 11
-279.40130978426299
 21
565.32735921331516
 31
0.0
  0
LINE
  5
170CB
  8
AM_0
 10
-278.40130978426311
 20
564.95736921331525
 30
0.0
 11
-278.40130978426311
 21
563.58736921331524
 31
0.0
  0
ARC
  5
170CC
  8
AM_0
 10
-279.40105978426288
 20
564.32711921331531
 30
0.0
 40
1.0001959999999981
 50
90.011249999999436
 51
179.98875000000061
  0
ARC
  5
170CD
  8
AM_0
 10
-279.40618978426301
 20
564.32247921331521
 30
0.0
 40
0.9950849999999999
 50
179.71628000000069
 51
270.2837169999973
  0
LINE
  5
170CE
  8
AM_0
 10
-276.40130978426311
 20
553.32735921331539
 30
0.0
 11
-279.40130978426299
 21
553.32735921331539
 31
0.0
  0
LINE
  5
170CF
  8
AM_0
 10
-282.39520626863799
 20
557.31918050237766
 30
0.0
 11
-281.89517575105992
 21
557.27917195745601
 31
0.0
  0
LINE
  5
170D0
  8
AM_0
 10
-281.90130978426299
 20
554.4773892133154
 30
0.0
 11
-280.40130978426311
 21
554.4773892133154
 31
0.0
  0
LINE
  5
170D1
  8
AM_0
 10
-281.90130978426299
 20
556.6073892133154
 30
0.0
 11
-280.40130978426311
 21
556.6073892133154
 31
0.0
  0
LINE
  5
170D2
  8
AM_0
 10
-281.90130978426299
 20
559.32738921331531
 30
0.0
 11
-280.40130978426311
 21
559.45739921331517
 31
0.0
  0
LINE
  5
170D3
  8
AM_0
 10
-282.89517575105992
 20
554.54919148870601
 30
0.0
 11
-282.39517575105992
 21
557.31918050237766
 31
0.0
  0
LINE
  5
170D4
  8
AM_0
 10
-276.40130978426311
 20
555.32735921331528
 30
0.0
 11
-279.40130978426299
 21
555.32735921331528
 31
0.0
  0
ARC
  5
170D5
  8
AM_0
 10
-279.40105978426288
 20
554.32711921331531
 30
0.0
 40
1.000199999999998
 50
90.011459999998721
 51
179.98854000000131
  0
LINE
  5
170D6
  8
AM_0
 10
-278.40130978426311
 20
554.93734921331531
 30
0.0
 11
-278.40130978426311
 21
553.71737921331521
 31
0.0
  0
ARC
  5
170D7
  8
AM_0
 10
-279.40618978426301
 20
554.32247921331532
 30
0.0
 40
0.9950810099999999
 50
179.71607999999549
 51
270.28392800000307
  0
LINE
  5
170D8
  8
AM_0
 10
-276.40130978426311
 20
543.32735921331516
 30
0.0
 11
-279.40130978426299
 21
543.32735921331516
 31
0.0
  0
LINE
  5
170D9
  8
AM_0
 10
-276.40130978426311
 20
545.32735921331539
 30
0.0
 11
-279.40130978426299
 21
545.32735921331539
 31
0.0
  0
LINE
  5
170DA
  8
AM_0
 10
-278.40130978426311
 20
544.93734921331531
 30
0.0
 11
-278.40130978426311
 21
543.7773192133152
 31
0.0
  0
ARC
  5
170DB
  8
AM_0
 10
-279.40618978426301
 20
544.32247921331532
 30
0.0
 40
0.9950770099999999
 50
179.7158599999994
 51
270.28414000000049
  0
ARC
  5
170DC
  8
AM_0
 10
-279.40105978426288
 20
544.32711921331531
 30
0.0
 40
1.0002040000000001
 50
90.011679999999274
 51
179.98834000000321
  0
LINE
  5
170DD
  8
AM_0
 10
-276.40130978426311
 20
535.32735921331516
 30
0.0
 11
-279.40130978426299
 21
535.32735921331516
 31
0.0
  0
LINE
  5
170DE
  8
AM_0
 10
-276.40130978426311
 20
533.32735921331539
 30
0.0
 11
-279.40130978426299
 21
533.32735921331539
 31
0.0
  0
LINE
  5
170DF
  8
AM_0
 10
-278.40130978426311
 20
533.71737921331533
 30
0.0
 11
-278.40130978426311
 21
534.87740921331533
 31
0.0
  0
ARC
  5
170E0
  8
AM_0
 10
-279.40105978426288
 20
534.32711921331531
 30
0.0
 40
1.0001959999999981
 50
90.011220000002353
 51
179.9887800000042
  0
ARC
  5
170E1
  8
AM_0
 10
-279.40618978426301
 20
534.32247921331532
 30
0.0
 40
0.9950849999999999
 50
179.71631000000019
 51
270.28368899999907
  0
LINE
  5
170E2
  8
AM_0
 10
-282.39517575105992
 20
521.33553792425278
 30
0.0
 11
-281.89520626863799
 21
521.37554646917476
 31
0.0
  0
LINE
  5
170E3
  8
AM_0
 10
-281.90130978426299
 20
519.32738921331531
 30
0.0
 11
-280.40130978426311
 21
519.19738921331532
 31
0.0
  0
LINE
  5
170E4
  8
AM_0
 10
-281.90130978426299
 20
522.04732921331538
 30
0.0
 11
-280.40130978426311
 21
522.04732921331538
 31
0.0
  0
LINE
  5
170E5
  8
AM_0
 10
-281.90130978426299
 20
524.17733921331535
 30
0.0
 11
-280.40130978426311
 21
524.17733921331535
 31
0.0
  0
LINE
  5
170E6
  8
AM_0
 10
-282.89520626863811
 20
524.10552693792476
 30
0.0
 11
-282.39520626863799
 21
521.33553792425278
 31
0.0
  0
LINE
  5
170E7
  8
AM_0
 10
-276.40130978426311
 20
523.32735921331516
 30
0.0
 11
-279.40130978426299
 21
523.32735921331516
 31
0.0
  0
LINE
  5
170E8
  8
AM_0
 10
-276.40130978426311
 20
525.32735921331539
 30
0.0
 11
-279.40130978426299
 21
525.32735921331539
 31
0.0
  0
LINE
  5
170E9
  8
AM_0
 10
-278.40130978426311
 20
523.71737921331533
 30
0.0
 11
-278.40130978426311
 21
524.92733921331535
 31
0.0
  0
ARC
  5
170EA
  8
AM_0
 10
-279.40105978426288
 20
524.3271192133152
 30
0.0
 40
1.000199999999998
 50
90.011430000001596
 51
179.98856999999839
  0
ARC
  5
170EB
  8
AM_0
 10
-279.40618978426301
 20
524.32247921331532
 30
0.0
 40
0.99508202
 50
179.716090000002
 51
270.28390099999859
  0
LINE
  5
170EC
  8
AM_0
 10
-276.40130978426311
 20
513.32735921331539
 30
0.0
 11
-279.40130978426299
 21
513.32735921331539
 31
0.0
  0
LINE
  5
170ED
  8
AM_0
 10
-276.40130978426311
 20
515.32735921331516
 30
0.0
 11
-279.40130978426299
 21
515.32735921331516
 31
0.0
  0
LINE
  5
170EE
  8
AM_0
 10
-278.40130978426311
 20
513.69735921331539
 30
0.0
 11
-278.40130978426311
 21
515.06734921331531
 31
0.0
  0
ARC
  5
170EF
  8
AM_0
 10
-279.40105978426288
 20
514.32711921331531
 30
0.0
 40
1.000203
 50
90.011649999995655
 51
179.98835000000449
  0
ARC
  5
170F0
  8
AM_0
 10
-279.40618978426301
 20
514.32247921331521
 30
0.0
 40
0.99507803
 50
179.71589000000009
 51
270.28411300000192
  0
ARC
  5
170F1
  8
AM_0
 10
-275.90588978426319
 20
489.07272921331543
 30
0.0
 40
0.50463498
 50
0.5238300000003983
 51
89.476169999999527
  0
LINE
  5
170F2
  8
AM_0
 10
-278.10125978426322
 20
496.19735921331528
 30
0.0
 11
-275.40130978426299
 21
496.19735921331528
 31
0.0
  0
ARC
  5
170F3
  8
AM_0
 10
-276.40032978426308
 20
493.82638921331528
 30
0.0
 40
0.9990100299999999
 50
269.9431910000032
 51
0.0568099999987215
  0
LINE
  5
170F4
  8
AM_0
 10
-278.12127978426309
 20
491.68734921331531
 30
0.0
 11
-275.40130978426299
 21
491.68734921331531
 31
0.0
  0
ARC
  5
170F5
  8
AM_0
 10
-275.89959978426288
 20
491.22567921331529
 30
0.0
 40
0.4983060100000002
 50
269.80489299999988
 51
0.1951100000021455
  0
ARC
  5
170F6
  8
AM_0
 10
-276.40362978426299
 20
498.3396892133153
 30
0.0
 40
1.002353
 50
270.13432700000061
 51
359.86567318000158
  0
ARC
  5
170F7
  8
AM_0
 10
-276.10583978426291
 20
502.93282921331519
 30
0.0
 40
0.704566
 50
0.3700900000021967
 51
89.629900000003218
  0
ARC
  5
170F8
  8
AM_0
 10
-276.39959978426288
 20
506.58566921331533
 30
0.0
 40
0.9982839799999999
 50
269.9014239999986
 51
0.0985799999998705
  0
LINE
  5
170F9
  8
AM_0
 10
-264.72131978426302
 20
505.95736921331519
 30
0.0
 11
-197.38128978426309
 21
505.95736921331519
 31
0.0
  0
LINE
  5
170FA
  8
AM_0
 10
-263.15130978426288
 20
480.19735921331528
 30
0.0
 11
-166.27129978426319
 21
480.19735921331528
 31
0.0
  0
LINE
  5
170FB
  8
AM_0
 10
-263.19128978426289
 20
483.04732921331521
 30
0.0
 11
-166.27129978426319
 21
483.04732921331521
 31
0.0
  0
LINE
  5
170FC
  8
AM_0
 10
-263.131289784263
 20
478.34737921331521
 30
0.0
 11
-166.27129978426319
 21
478.34737921331521
 31
0.0
  0
LINE
  5
170FD
  8
AM_0
 10
-263.11126978426307
 20
477.43734921331531
 30
0.0
 11
-166.271239784263
 21
477.43734921331531
 31
0.0
  0
LINE
  5
170FE
  8
AM_0
 10
-165.06127978426309
 20
503.32735921331528
 30
0.0
 11
-264.04131978426301
 21
503.32735921331528
 31
0.0
  0
LINE
  5
170FF
  8
AM_0
 10
-165.06127978426309
 20
505.32735921331528
 30
0.0
 11
-264.04131978426301
 21
505.32735921331528
 31
0.0
  0
LINE
  5
17100
  8
AM_0
 10
-264.72131978426302
 20
502.60738921331529
 30
0.0
 11
-161.58129978426319
 21
502.60738921331529
 31
0.0
  0
LINE
  5
17101
  8
AM_0
 10
-179.42126978426319
 20
505.96737921331521
 30
0.0
 11
-161.58129978426319
 21
505.96737921331521
 31
0.0
  0
LINE
  5
17102
  8
AM_0
 10
-161.56592595697541
 20
494.89125801465769
 30
0.0
 11
-164.34124978426331
 21
484.52737921331533
 31
0.0
  0
LINE
  5
17103
  8
AM_0
 10
-160.4564219283663
 20
494.33445960475609
 30
0.0
 11
-164.3413097842631
 21
479.82735921331528
 31
0.0
  0
LINE
  5
17104
  8
AM_0
 10
-160.9222724608739
 20
494.44483704168141
 30
0.0
 11
-164.3413097842631
 21
481.67730921331531
 31
0.0
  0
LINE
  5
17105
  8
AM_0
 10
-160.195559784263
 20
494.3984692133152
 30
0.0
 11
-164.34127978426321
 21
478.91735921331519
 31
0.0
  0
LINE
  5
17106
  8
AM_0
 10
-162.35693982414401
 20
486.32735921331522
 30
0.0
 11
-158.40130978426311
 21
486.32735921331522
 31
0.0
  0
LINE
  5
17107
  8
AM_0
 10
-159.40130978426311
 20
494.02736921331518
 30
0.0
 11
-158.40130978426311
 21
494.02736921331518
 31
0.0
  0
LINE
  5
17108
  8
AM_0
 10
-158.40130978426311
 20
498.6047292133153
 30
0.0
 11
-159.40130978426311
 21
498.02736921331518
 31
0.0
  0
LINE
  5
17109
  8
AM_0
 10
-158.40130978426311
 20
497.6047292133153
 30
0.0
 11
-159.40130978426311
 21
497.02736921331541
 31
0.0
  0
LINE
  5
1710A
  8
AM_0
 10
-159.40130978426311
 20
501.62737921331529
 30
0.0
 11
-158.40130978426311
 21
501.62737921331529
 31
0.0
  0
LINE
  5
1710B
  8
AM_0
 10
-158.40130978426311
 20
501.62737921331529
 30
0.0
 11
-158.40130978426311
 21
494.02736921331518
 31
0.0
  0
LINE
  5
1710C
  8
AM_0
 10
-158.40130978426279
 20
507.38741921331518
 30
0.0
 11
-150.40130978426311
 21
507.38774066734152
 31
0.0
  0
LINE
  5
1710D
  8
AM_0
 10
-158.40130978426279
 20
493.32735921331522
 30
0.0
 11
-150.40130978426311
 21
493.32735921331522
 31
0.0
  0
LINE
  5
1710E
  8
AM_0
 10
-162.00128978426321
 20
499.62737921331529
 30
0.0
 11
-162.00128978426321
 21
496.0273692133153
 31
0.0
  0
LINE
  5
1710F
  8
AM_0
 10
-159.40130978426311
 20
501.62737921331529
 30
0.0
 11
-159.40130978426311
 21
494.02736921331518
 31
0.0
  0
ARC
  5
17110
  8
AM_0
 10
-165.06127978426309
 20
504.32735921331528
 30
0.0
 40
1.0
 50
269.99999700000228
 51
90.000010000000998
  0
ARC
  5
17111
  8
AM_0
 10
-161.58129978426319
 20
504.28231921331542
 30
0.0
 40
1.6750020000000001
 50
269.99999700000228
 51
90.000010000000998
  0
LINE
  5
17112
  8
AM_0
 10
-159.40130978426311
 20
501.32735921331528
 30
0.0
 11
-160.30130978426311
 21
501.32735921331528
 31
0.0
  0
ARC
  5
17113
  8
AM_0
 10
-160.30130978426311
 20
499.62737921331529
 30
0.0
 40
1.699996899999999
 50
90.000003000004213
 51
179.99998000000451
  0
ARC
  5
17114
  8
AM_0
 10
-160.30130978426311
 20
496.0273692133153
 30
0.0
 40
1.7000007999999991
 50
180.00001000000091
 51
269.999979999998
  0
LINE
  5
17115
  8
AM_0
 10
-159.40130978426311
 20
494.32735921331522
 30
0.0
 11
-160.30130978426311
 21
494.32735921331522
 31
0.0
  0
LINE
  5
17116
  8
AM_0
 10
-158.40130978426279
 20
482.82793421321543
 30
0.0
 11
-150.40130978426311
 21
482.82793421321543
 31
0.0
  0
ARC
  5
17117
  8
AM_0
 10
-166.27612978426311
 20
482.20211921331543
 30
0.0
 40
2.0047290000000002
 50
270.13832199999979
 51
344.82650400000352
  0
ARC
  5
17118
  8
AM_0
 10
-166.2711797842631
 20
485.04562921331518
 30
0.0
 40
1.9982919999999991
 50
269.99736799999857
 51
344.9674520000039
  0
ARC
  5
17119
  8
AM_0
 10
-166.27612978426311
 20
480.35213921331552
 30
0.0
 40
2.0047290000000002
 50
270.13832199999979
 51
344.82650400000352
  0
ARC
  5
1711A
  8
AM_0
 10
-166.27612978426311
 20
479.44210921331552
 30
0.0
 40
2.0047290000000002
 50
270.13832199999979
 51
344.82650400000352
  0
ARC
  5
1711B
  8
AM_0
 10
-179.42126978426319
 20
506.96737921331533
 30
0.0
 40
1.0
 50
179.999989999999
 51
269.99999700000228
  0
ARC
  5
1711C
  8
AM_0
 10
-179.40130978426299
 20
506.82735921331522
 30
0.0
 40
1.5
 50
179.999989999999
 51
269.99999700000228
  0
ARC
  5
1711D
  8
AM_0
 10
-197.38128978426309
 20
506.96737921331533
 30
0.0
 40
1.0
 50
269.99999700000228
 51
0.0
  0
ARC
  5
1711E
  8
AM_0
 10
-197.40130978426311
 20
506.82735921331522
 30
0.0
 40
1.5
 50
269.99999700000228
 51
0.0
  0
LINE
  5
1711F
  8
AM_0
 10
-266.4012497842632
 20
488.53738921331529
 30
0.0
 11
-265.11126978426319
 21
480.04729921331523
 31
0.0
  0
LINE
  5
17120
  8
AM_0
 10
-266.40130978426311
 20
488.53735921331531
 30
0.0
 11
-265.0913097842631
 21
479.1573192133153
 31
0.0
  0
LINE
  5
17121
  8
AM_0
 10
-266.4012497842632
 20
489.8873292133153
 30
0.0
 11
-265.12127978426321
 21
481.87737921331529
 31
0.0
  0
LINE
  5
17122
  8
AM_0
 10
-266.40130978426311
 20
491.22729921331529
 30
0.0
 11
-265.16131978426301
 21
484.66729921331529
 31
0.0
  0
LINE
  5
17123
  8
AM_0
 10
-261.04125978426322
 20
502.67733921331529
 30
0.0
 11
-266.4012497842632
 21
491.22735921331531
 31
0.0
  0
ARC
  5
17124
  8
AM_0
 10
-264.72869978426291
 20
504.28231921331542
 30
0.0
 40
1.6750160000000001
 50
89.746129999999084
 51
270.2538549999955
  0
ARC
  5
17125
  8
AM_0
 10
-263.85668978426281
 20
504.32735921331528
 30
0.0
 40
1.0000138999999999
 50
89.691659999999274
 51
270.30834000000073
  0
LINE
  5
17126
  8
AM_0
 10
-274.40130978426311
 20
486.32735921331522
 30
0.0
 11
-266.40130978426311
 21
486.32735921331522
 31
0.0
  0
LINE
  5
17127
  8
AM_0
 10
-275.40130978426299
 20
489.32735921331522
 30
0.0
 11
-274.40130978426311
 21
489.32735921331522
 31
0.0
  0
LINE
  5
17128
  8
AM_0
 10
-273.70129978426303
 20
496.13741921331541
 30
0.0
 11
-267.4713197842629
 21
496.13741921331541
 31
0.0
  0
ARC
  5
17129
  8
AM_0
 10
-263.11480978426317
 20
479.43295921331548
 30
0.0
 40
1.995633
 50
187.93887000000041
 51
270.10029199999769
  0
ARC
  5
1712A
  8
AM_0
 10
-263.13671978426322
 20
480.34408921331533
 30
0.0
 40
1.9967330000000001
 50
188.54611999999611
 51
270.15603300000112
  0
ARC
  5
1712B
  8
AM_0
 10
-263.20257978426292
 20
485.0414792133152
 30
0.0
 40
1.994108999999999
 50
190.81223000000111
 51
270.32445199999722
  0
ARC
  5
1712C
  8
AM_0
 10
-263.151059784263
 20
482.19259921331519
 30
0.0
 40
1.9952829999999999
 50
189.09164999999931
 51
269.99379600000321
  0
LINE
  5
1712D
  8
AM_0
 10
-278.40130978426311
 20
496.49740921331528
 30
0.0
 11
-278.40130978426311
 21
496.96737921331533
 31
0.0
  0
LINE
  5
1712E
  8
AM_0
 10
-278.6513697842629
 20
496.36733921331529
 30
0.0
 11
-279.95135978426327
 21
497.21731921331519
 31
0.0
  0
ARC
  5
1712F
  8
AM_0
 10
-278.12188978426309
 20
498.33382921331531
 30
0.0
 40
0.99648702
 50
239.25623000000411
 51
269.45927899999811
  0
LINE
  5
17130
  8
AM_0
 10
-278.63134978426302
 20
497.47732921331527
 30
0.0
 11
-279.91131978426301
 21
498.22732921331522
 31
0.0
  0
LINE
  5
17131
  8
AM_0
 10
-278.13128978426312
 20
497.3373692133153
 30
0.0
 11
-276.40130978426311
 21
497.3373692133153
 31
0.0
  0
ARC
  5
17132
  8
AM_0
 10
-278.20031978426312
 20
504.6327792133153
 30
0.0
 40
0.9954450099999999
 50
246.8725500000032
 51
269.94309500000361
  0
ARC
  5
17133
  8
AM_0
 10
-278.26214978426322
 20
506.58004921331542
 30
0.0
 40
0.9927430199999999
 50
253.66792999999791
 51
270.6254450000045
  0
LINE
  5
17134
  8
AM_0
 10
-278.40130978426311
 20
503.93734921331537
 30
0.0
 11
-278.40130978426311
 21
504.99740921331528
 31
0.0
  0
LINE
  5
17135
  8
AM_0
 10
-278.5913097842631
 20
503.71734921331529
 30
0.0
 11
-279.79125978426327
 21
504.2273592133152
 31
0.0
  0
LINE
  5
17136
  8
AM_0
 10
-278.54131978426312
 20
505.62731921331527
 30
0.0
 11
-279.69128978426312
 21
505.97732921331527
 31
0.0
  0
LINE
  5
17137
  8
AM_0
 10
-278.20129978426303
 20
503.6374192133153
 30
0.0
 11
-276.10131978426313
 21
503.6374192133153
 31
0.0
  0
LINE
  5
17138
  8
AM_0
 10
-278.2512797842632
 20
505.5873692133153
 30
0.0
 11
-276.40130978426311
 21
505.5873692133153
 31
0.0
  0
ARC
  5
17139
  8
AM_0
 10
-279.40490978426288
 20
505.14584921331527
 30
0.0
 40
0.9963999999999998
 50
179.90958000000049
 51
247.182639999999
  0
ARC
  5
1713A
  8
AM_0
 10
-279.40502978426309
 20
506.93160921331543
 30
0.0
 40
0.9962710099999999
 50
179.66995
 51
253.30208000000019
  0
ARC
  5
1713B
  8
AM_0
 10
-279.407229784263
 20
499.08419921331529
 30
0.0
 40
0.99404597
 50
179.81435999999951
 51
239.5317999999983
  0
ARC
  5
1713C
  8
AM_0
 10
-279.4064997842633
 20
498.04977921331522
 30
0.0
 40
0.9948369899999999
 50
179.56214000000179
 51
236.7950399999942
  0
ARC
  5
1713D
  8
AM_0
 10
-278.09466978426309
 20
497.19357921331527
 30
0.0
 40
0.99617702
 50
236.02951000000269
 51
269.61868200000401
  0
ARC
  5
1713E
  8
AM_0
 10
-278.13244978426331
 20
492.68160921331543
 30
0.0
 40
0.99427301
 50
239.21909000000039
 51
270.64393399999682
  0
ARC
  5
1713F
  8
AM_0
 10
-278.17651978426318
 20
491.72140921331533
 30
0.0
 40
0.99411702
 50
244.06501999999631
 51
270.8773560000015
  0
ARC
  5
17140
  8
AM_0
 10
-278.16619978426291
 20
493.8227292133152
 30
0.0
 40
0.99545902
 50
242.79618000000099
 51
270.85870899999998
  0
ARC
  5
17141
  8
AM_0
 10
-278.13927978426312
 20
490.57320921331529
 30
0.0
 40
0.9959030199999999
 50
240.39282999999901
 51
270.4587330000009
  0
LINE
  5
17142
  8
AM_0
 10
-278.40130978426311
 20
489.82735921331522
 30
0.0
 11
-278.40130978426311
 21
490.35738921331517
 31
0.0
  0
LINE
  5
17143
  8
AM_0
 10
-278.63128978426312
 20
489.70739921331528
 30
0.0
 11
-279.9012497842632
 21
490.44738921331532
 31
0.0
  0
LINE
  5
17144
  8
AM_0
 10
-278.40130978426311
 20
491.92733921331529
 30
0.0
 11
-278.40130978426311
 21
492.47738921331529
 31
0.0
  0
LINE
  5
17145
  8
AM_0
 10
-278.61132978426298
 20
490.82735921331528
 30
0.0
 11
-279.85131978426301
 21
491.4573692133153
 31
0.0
  0
LINE
  5
17146
  8
AM_0
 10
-278.64135978426287
 20
491.82729921331531
 30
0.0
 11
-279.92132978426298
 21
492.59731921331519
 31
0.0
  0
LINE
  5
17147
  8
AM_0
 10
-278.62127978426309
 20
492.93731921331522
 30
0.0
 11
-279.87127978426321
 21
493.60732921331521
 31
0.0
  0
LINE
  5
17148
  8
AM_0
 10
-278.13128978426312
 20
489.57735921331528
 30
0.0
 11
-275.90130978426299
 21
489.57735921331528
 31
0.0
  0
LINE
  5
17149
  8
AM_0
 10
-278.16131978426301
 20
490.7273892133154
 30
0.0
 11
-275.90130978426299
 21
490.7273892133154
 31
0.0
  0
LINE
  5
1714A
  8
AM_0
 10
-278.15130978426299
 20
492.82735921331528
 30
0.0
 11
-276.40130978426311
 21
492.82735921331528
 31
0.0
  0
ARC
  5
1714B
  8
AM_0
 10
-279.4080797842629
 20
494.48592921331522
 30
0.0
 40
0.9932109699999999
 50
179.91812999999991
 51
242.20067999999449
  0
ARC
  5
1714C
  8
AM_0
 10
-279.40569978426299
 20
492.34762921331537
 30
0.0
 40
0.995579
 50
180.01736
 51
243.4129100000022
  0
ARC
  5
1714D
  8
AM_0
 10
-279.40685978426319
 20
493.44833921331531
 30
0.0
 40
0.9944329899999999
 50
180.05949000000089
 51
238.8478700000025
  0
ARC
  5
1714E
  8
AM_0
 10
-279.4080797842629
 20
491.30941921331532
 30
0.0
 40
0.99319202
 50
180.1204100000019
 51
240.22662000000309
  0
POLYLINE
  5
1714F
  8
AM_0
 10
9.5947331837837808
 20
280.34108634292022
 30
0.0
 66
     1
 70
     8
  0
VERTEX
  8
AM_0
  5
17C04
 10
9.59473
 20
280.341
 30
0.000000
  70
    32
  0
VERTEX
  8
AM_0
  5
17C05
 10
9.54956
 20
278.501
 30
0.000000
  70
    32
  0
VERTEX
  8
AM_0
  5
17C06
 10
9.41416
 20
276.665
 30
0.000000
  70
    32
  0
VERTEX
  8
AM_0
  5
17C07
 10
9.18885
 20
274.839
 30
0.000000
  70
    32
  0
VERTEX
  8
AM_0
  5
17C08
 10
8.87418
 20
273.025
 30
0.000000
  70
    32
  0
VERTEX
  8
AM_0
  5
17C09
 10
8.47091
 20
271.229
 30
0.000000
  70
    32
  0
VERTEX
  8
AM_0
  5
17C0A
 10
7.98000
 20
269.456
 30
0.000000
  70
    32
  0
VERTEX
  8
AM_0
  5
17C0B
 10
7.40264
 20
267.708
 30
0.000000
  70
    32
  0
VERTEX
  8
AM_0
  5
17C0C
 10
6.74022
 20
265.991
 30
0.000000
  70
    32
  0
VERTEX
  8
AM_0
  5
17C0D
 10
5.99433
 20
264.308
 30
0.000000
  70
    32
  0
VERTEX
  8
AM_0
  5
17C0E
 10
5.16678
 20
262.664
 30
0.000000
  70
    32
  0
VERTEX
  8
AM_0
  5
17C0F
 10
4.25956
 20
261.062
 30
0.000000
  70
    32
  0
VERTEX
  8
AM_0
  5
17C10
 10
3.27484
 20
259.507
 30
0.000000
  70
    32
  0
VERTEX
  8
AM_0
  5
17C11
 10
2.21502
 20
258.003
 30
0.000000
  70
    32
  0
VERTEX
  8
AM_0
  5
17C12
 10
1.08262
 20
256.552
 30
0.000000
  70
    32
  0
VERTEX
  8
AM_0
  5
17C13
 10
-0.119600
 20
255.158
 30
0.000000
  70
    32
  0
VERTEX
  8
AM_0
  5
17C14
 10
-1.38876
 20
253.825
 30
0.000000
  70
    32
  0
VERTEX
  8
AM_0
  5
17C15
 10
-2.72181
 20
252.556
 30
0.000000
  70
    32
  0
VERTEX
  8
AM_0
  5
17C16
 10
-4.11552
 20
251.353
 30
0.000000
  70
    32
  0
VERTEX
  8
AM_0
  5
17C17
 10
-5.56654
 20
250.221
 30
0.000000
  70
    32
  0
VERTEX
  8
AM_0
  5
17C18
 10
-7.07138
 20
249.161
 30
0.000000
  70
    32
  0
VERTEX
  8
AM_0
  5
17C19
 10
-8.62641
 20
248.177
 30
0.000000
  70
    32
  0
VERTEX
  8
AM_0
  5
17C1A
 10
-10.2279
 20
247.269
 30
0.000000
  70
    32
  0
VERTEX
  8
AM_0
  5
17C1B
 10
-11.8720
 20
246.442
 30
0.000000
  70
    32
  0
VERTEX
  8
AM_0
  5
17C1C
 10
-13.5546
 20
245.696
 30
0.000000
  70
    32
  0
VERTEX
  8
AM_0
  5
17C1D
 10
-15.2719
 20
245.034
 30
0.000000
  70
    32
  0
VERTEX
  8
AM_0
  5
17C1E
 10
-17.0196
 20
244.456
 30
0.000000
  70
    32
  0
VERTEX
  8
AM_0
  5
17C1F
 10
-18.7935
 20
243.965
 30
0.000000
  70
    32
  0
VERTEX
  8
AM_0
  5
17C20
 10
-20.5894
 20
243.562
 30
0.000000
  70
    32
  0
VERTEX
  8
AM_0
  5
17C21
 10
-22.4029
 20
243.247
 30
0.000000
  70
    32
  0
VERTEX
  8
AM_0
  5
17C22
 10
-24.2296
 20
243.022
 30
0.000000
  70
    32
  0
VERTEX
  8
AM_0
  5
17C23
 10
-26.0652
 20
242.887
 30
0.000000
  70
    32
  0
VERTEX
  8
AM_0
  5
17C24
 10
-27.9053
 20
242.841
 30
0.000000
  70
    32
  0
VERTEX
  8
AM_0
  5
17C25
 10
-29.7453
 20
242.887
 30
0.000000
  70
    32
  0
VERTEX
  8
AM_0
  5
17C26
 10
-31.5809
 20
243.022
 30
0.000000
  70
    32
  0
VERTEX
  8
AM_0
  5
17C27
 10
-33.4077
 20
243.247
 30
0.000000
  70
    32
  0
VERTEX
  8
AM_0
  5
17C28
 10
-35.2212
 20
243.562
 30
0.000000
  70
    32
  0
VERTEX
  8
AM_0
  5
17C29
 10
-37.0170
 20
243.965
 30
0.000000
  70
    32
  0
VERTEX
  8
AM_0
  5
17C2A
 10
-38.7909
 20
244.456
 30
0.000000
  70
    32
  0
VERTEX
  8
AM_0
  5
17C2B
 10
-40.5386
 20
245.034
 30
0.000000
  70
    32
  0
VERTEX
  8
AM_0
  5
17C2C
 10
-42.2559
 20
245.696
 30
0.000000
  70
    32
  0
VERTEX
  8
AM_0
  5
17C2D
 10
-43.9386
 20
246.442
 30
0.000000
  70
    32
  0
VERTEX
  8
AM_0
  5
17C2E
 10
-45.5826
 20
247.269
 30
0.000000
  70
    32
  0
VERTEX
  8
AM_0
  5
17C2F
 10
-47.1841
 20
248.177
 30
0.000000
  70
    32
  0
VERTEX
  8
AM_0
  5
17C30
 10
-48.7392
 20
249.161
 30
0.000000
  70
    32
  0
VERTEX
  8
AM_0
  5
17C31
 10
-50.2440
 20
250.221
 30
0.000000
  70
    32
  0
VERTEX
  8
AM_0
  5
17C32
 10
-51.6950
 20
251.353
 30
0.000000
  70
    32
  0
VERTEX
  8
AM_0
  5
17C33
 10
-53.0887
 20
252.556
 30
0.000000
  70
    32
  0
VERTEX
  8
AM_0
  5
17C34
 10
-54.4218
 20
253.825
 30
0.000000
  70
    32
  0
VERTEX
  8
AM_0
  5
17C35
 10
-55.6909
 20
255.158
 30
0.000000
  70
    32
  0
VERTEX
  8
AM_0
  5
17C36
 10
-56.8932
 20
256.552
 30
0.000000
  70
    32
  0
VERTEX
  8
AM_0
  5
17C37
 10
-58.0256
 20
258.003
 30
0.000000
  70
    32
  0
VERTEX
  8
AM_0
  5
17C38
 10
-59.0854
 20
259.507
 30
0.000000
  70
    32
  0
VERTEX
  8
AM_0
  5
17C39
 10
-60.0701
 20
261.062
 30
0.000000
  70
    32
  0
VERTEX
  8
AM_0
  5
17C3A
 10
-60.9773
 20
262.664
 30
0.000000
  70
    32
  0
VERTEX
  8
AM_0
  5
17C3B
 10
-61.8049
 20
264.308
 30
0.000000
  70
    32
  0
VERTEX
  8
AM_0
  5
17C3C
 10
-62.5508
 20
265.991
 30
0.000000
  70
    32
  0
VERTEX
  8
AM_0
  5
17C3D
 10
-63.2132
 20
267.708
 30
0.000000
  70
    32
  0
VERTEX
  8
AM_0
  5
17C3E
 10
-63.7905
 20
269.456
 30
0.000000
  70
    32
  0
VERTEX
  8
AM_0
  5
17C3F
 10
-64.2814
 20
271.229
 30
0.000000
  70
    32
  0
VERTEX
  8
AM_0
  5
17C40
 10
-64.6847
 20
273.025
 30
0.000000
  70
    32
  0
VERTEX
  8
AM_0
  5
17C41
 10
-64.9994
 20
274.839
 30
0.000000
  70
    32
  0
VERTEX
  8
AM_0
  5
17C42
 10
-65.2247
 20
276.665
 30
0.000000
  70
    32
  0
VERTEX
  8
AM_0
  5
17C43
 10
-65.3601
 20
278.501
 30
0.000000
  70
    32
  0
VERTEX
  8
AM_0
  5
17C44
 10
-65.4053
 20
280.341
 30
0.000000
  70
    32
  0
VERTEX
  8
AM_0
  5
17C45
 10
-65.3601
 20
282.181
 30
0.000000
  70
    32
  0
VERTEX
  8
AM_0
  5
17C46
 10
-65.2247
 20
284.017
 30
0.000000
  70
    32
  0
VERTEX
  8
AM_0
  5
17C47
 10
-64.9994
 20
285.843
 30
0.000000
  70
    32
  0
VERTEX
  8
AM_0
  5
17C48
 10
-64.6847
 20
287.657
 30
0.000000
  70
    32
  0
VERTEX
  8
AM_0
  5
17C49
 10
-64.2814
 20
289.453
 30
0.000000
  70
    32
  0
VERTEX
  8
AM_0
  5
17C4A
 10
-63.7905
 20
291.227
 30
0.000000
  70
    32
  0
VERTEX
  8
AM_0
  5
17C4B
 10
-63.2132
 20
292.974
 30
0.000000
  70
    32
  0
VERTEX
  8
AM_0
  5
17C4C
 10
-62.5508
 20
294.692
 30
0.000000
  70
    32
  0
VERTEX
  8
AM_0
  5
17C4D
 10
-61.8049
 20
296.374
 30
0.000000
  70
    32
  0
VERTEX
  8
AM_0
  5
17C4E
 10
-60.9773
 20
298.018
 30
0.000000
  70
    32
  0
VERTEX
  8
AM_0
  5
17C4F
 10
-60.0701
 20
299.620
 30
0.000000
  70
    32
  0
VERTEX
  8
AM_0
  5
17C50
 10
-59.0854
 20
301.175
 30
0.000000
  70
    32
  0
VERTEX
  8
AM_0
  5
17C51
 10
-58.0256
 20
302.680
 30
0.000000
  70
    32
  0
VERTEX
  8
AM_0
  5
17C52
 10
-56.8932
 20
304.131
 30
0.000000
  70
    32
  0
VERTEX
  8
AM_0
  5
17C53
 10
-55.6909
 20
305.524
 30
0.000000
  70
    32
  0
VERTEX
  8
AM_0
  5
17C54
 10
-54.4218
 20
306.857
 30
0.000000
  70
    32
  0
VERTEX
  8
AM_0
  5
17C55
 10
-53.0887
 20
308.126
 30
0.000000
  70
    32
  0
VERTEX
  8
AM_0
  5
17C56
 10
-51.6950
 20
309.329
 30
0.000000
  70
    32
  0
VERTEX
  8
AM_0
  5
17C57
 10
-50.2440
 20
310.461
 30
0.000000
  70
    32
  0
VERTEX
  8
AM_0
  5
17C58
 10
-48.7392
 20
311.521
 30
0.000000
  70
    32
  0
VERTEX
  8
AM_0
  5
17C59
 10
-47.1841
 20
312.506
 30
0.000000
  70
    32
  0
VERTEX
  8
AM_0
  5
17C5A
 10
-45.5826
 20
313.413
 30
0.000000
  70
    32
  0
VERTEX
  8
AM_0
  5
17C5B
 10
-43.9386
 20
314.240
 30
0.000000
  70
    32
  0
VERTEX
  8
AM_0
  5
17C5C
 10
-42.2559
 20
314.986
 30
0.000000
  70
    32
  0
VERTEX
  8
AM_0
  5
17C5D
 10
-40.5386
 20
315.649
 30
0.000000
  70
    32
  0
VERTEX
  8
AM_0
  5
17C5E
 10
-38.7909
 20
316.226
 30
0.000000
  70
    32
  0
VERTEX
  8
AM_0
  5
17C5F
 10
-37.0170
 20
316.717
 30
0.000000
  70
    32
  0
VERTEX
  8
AM_0
  5
17C60
 10
-35.2212
 20
317.120
 30
0.000000
  70
    32
  0
VERTEX
  8
AM_0
  5
17C61
 10
-33.4077
 20
317.435
 30
0.000000
  70
    32
  0
VERTEX
  8
AM_0
  5
17C62
 10
-31.5809
 20
317.660
 30
0.000000
  70
    32
  0
VERTEX
  8
AM_0
  5
17C63
 10
-29.7453
 20
317.796
 30
0.000000
  70
    32
  0
VERTEX
  8
AM_0
  5
17C64
 10
-27.9053
 20
317.841
 30
0.000000
  70
    32
  0
VERTEX
  8
AM_0
  5
17C65
 10
-26.0652
 20
317.796
 30
0.000000
  70
    32
  0
VERTEX
  8
AM_0
  5
17C66
 10
-24.2296
 20
317.660
 30
0.000000
  70
    32
  0
VERTEX
  8
AM_0
  5
17C67
 10
-22.4029
 20
317.435
 30
0.000000
  70
    32
  0
VERTEX
  8
AM_0
  5
17C68
 10
-20.5894
 20
317.120
 30
0.000000
  70
    32
  0
VERTEX
  8
AM_0
  5
17C69
 10
-18.7935
 20
316.717
 30
0.000000
  70
    32
  0
VERTEX
  8
AM_0
  5
17C6A
 10
-17.0196
 20
316.226
 30
0.000000
  70
    32
  0
VERTEX
  8
AM_0
  5
17C6B
 10
-15.2719
 20
315.649
 30
0.000000
  70
    32
  0
VERTEX
  8
AM_0
  5
17C6C
 10
-13.5546
 20
314.986
 30
0.000000
  70
    32
  0
VERTEX
  8
AM_0
  5
17C6D
 10
-11.8720
 20
314.240
 30
0.000000
  70
    32
  0
VERTEX
  8
AM_0
  5
17C6E
 10
-10.2279
 20
313.413
 30
0.000000
  70
    32
  0
VERTEX
  8
AM_0
  5
17C6F
 10
-8.62641
 20
312.506
 30
0.000000
  70
    32
  0
VERTEX
  8
AM_0
  5
17C70
 10
-7.07138
 20
311.521
 30
0.000000
  70
    32
  0
VERTEX
  8
AM_0
  5
17C71
 10
-5.56654
 20
310.461
 30
0.000000
  70
    32
  0
VERTEX
  8
AM_0
  5
17C72
 10
-4.11552
 20
309.329
 30
0.000000
  70
    32
  0
VERTEX
  8
AM_0
  5
17C73
 10
-2.72181
 20
308.126
 30
0.000000
  70
    32
  0
VERTEX
  8
AM_0
  5
17C74
 10
-1.38876
 20
306.857
 30
0.000000
  70
    32
  0
VERTEX
  8
AM_0
  5
17C75
 10
-0.119600
 20
305.524
 30
0.000000
  70
    32
  0
VERTEX
  8
AM_0
  5
17C76
 10
1.08262
 20
304.131
 30
0.000000
  70
    32
  0
VERTEX
  8
AM_0
  5
17C77
 10
2.21502
 20
302.680
 30
0.000000
  70
    32
  0
VERTEX
  8
AM_0
  5
17C78
 10
3.27484
 20
301.175
 30
0.000000
  70
    32
  0
VERTEX
  8
AM_0
  5
17C79
 10
4.25956
 20
299.620
 30
0.000000
  70
    32
  0
VERTEX
  8
AM_0
  5
17C7A
 10
5.16678
 20
298.018
 30
0.000000
  70
    32
  0
VERTEX
  8
AM_0
  5
17C7B
 10
5.99433
 20
296.374
 30
0.000000
  70
    32
  0
VERTEX
  8
AM_0
  5
17C7C
 10
6.74022
 20
294.692
 30
0.000000
  70
    32
  0
VERTEX
  8
AM_0
  5
17C7D
 10
7.40264
 20
292.974
 30
0.000000
  70
    32
  0
VERTEX
  8
AM_0
  5
17C7E
 10
7.98000
 20
291.227
 30
0.000000
  70
    32
  0
VERTEX
  8
AM_0
  5
17C7F
 10
8.47091
 20
289.453
 30
0.000000
  70
    32
  0
VERTEX
  8
AM_0
  5
17C80
 10
8.87418
 20
287.657
 30
0.000000
  70
    32
  0
VERTEX
  8
AM_0
  5
17C81
 10
9.18885
 20
285.843
 30
0.000000
  70
    32
  0
VERTEX
  8
AM_0
  5
17C82
 10
9.41416
 20
284.017
 30
0.000000
  70
    32
  0
VERTEX
  8
AM_0
  5
17C83
 10
9.54956
 20
282.181
 30
0.000000
  70
    32
  0
VERTEX
  8
AM_0
  5
17C84
 10
9.59473
 20
280.341
 30
0.000000
  70
    32
  0
SEQEND
  8
AM_0
  5
17C85
  0
POLYLINE
  5
1715F
  8
AM_0
 10
-7.9052673377568397
 20
280.34108634292039
 30
0.0
 66
     1
 70
     8
  0
VERTEX
  8
AM_0
  5
17C86
 10
-7.90527
 20
280.341
 30
0.000000
  70
    32
  0
VERTEX
  8
AM_0
  5
17C87
 10
-7.92936
 20
279.360
 30
0.000000
  70
    32
  0
VERTEX
  8
AM_0
  5
17C88
 10
-8.00157
 20
278.381
 30
0.000000
  70
    32
  0
VERTEX
  8
AM_0
  5
17C89
 10
-8.12174
 20
277.407
 30
0.000000
  70
    32
  0
VERTEX
  8
AM_0
  5
17C8A
 10
-8.28956
 20
276.439
 30
0.000000
  70
    32
  0
VERTEX
  8
AM_0
  5
17C8B
 10
-8.50464
 20
275.482
 30
0.000000
  70
    32
  0
VERTEX
  8
AM_0
  5
17C8C
 10
-8.76646
 20
274.535
 30
0.000000
  70
    32
  0
VERTEX
  8
AM_0
  5
17C8D
 10
-9.07439
 20
273.603
 30
0.000000
  70
    32
  0
VERTEX
  8
AM_0
  5
17C8E
 10
-9.42768
 20
272.687
 30
0.000000
  70
    32
  0
VERTEX
  8
AM_0
  5
17C8F
 10
-9.82548
 20
271.790
 30
0.000000
  70
    32
  0
VERTEX
  8
AM_0
  5
17C90
 10
-10.2668
 20
270.913
 30
0.000000
  70
    32
  0
VERTEX
  8
AM_0
  5
17C91
 10
-10.7507
 20
270.059
 30
0.000000
  70
    32
  0
VERTEX
  8
AM_0
  5
17C92
 10
-11.2759
 20
269.230
 30
0.000000
  70
    32
  0
VERTEX
  8
AM_0
  5
17C93
 10
-11.8411
 20
268.427
 30
0.000000
  70
    32
  0
VERTEX
  8
AM_0
  5
17C94
 10
-12.4451
 20
267.653
 30
0.000000
  70
    32
  0
VERTEX
  8
AM_0
  5
17C95
 10
-13.0862
 20
266.910
 30
0.000000
  70
    32
  0
VERTEX
  8
AM_0
  5
17C96
 10
-13.7631
 20
266.199
 30
0.000000
  70
    32
  0
VERTEX
  8
AM_0
  5
17C97
 10
-14.4741
 20
265.522
 30
0.000000
  70
    32
  0
VERTEX
  8
AM_0
  5
17C98
 10
-15.2174
 20
264.881
 30
0.000000
  70
    32
  0
VERTEX
  8
AM_0
  5
17C99
 10
-15.9913
 20
264.277
 30
0.000000
  70
    32
  0
VERTEX
  8
AM_0
  5
17C9A
 10
-16.7939
 20
263.712
 30
0.000000
  70
    32
  0
VERTEX
  8
AM_0
  5
17C9B
 10
-17.6232
 20
263.187
 30
0.000000
  70
    32
  0
VERTEX
  8
AM_0
  5
17C9C
 10
-18.4773
 20
262.703
 30
0.000000
  70
    32
  0
VERTEX
  8
AM_0
  5
17C9D
 10
-19.3542
 20
262.261
 30
0.000000
  70
    32
  0
VERTEX
  8
AM_0
  5
17C9E
 10
-20.2516
 20
261.864
 30
0.000000
  70
    32
  0
VERTEX
  8
AM_0
  5
17C9F
 10
-21.1675
 20
261.510
 30
0.000000
  70
    32
  0
VERTEX
  8
AM_0
  5
17CA0
 10
-22.0996
 20
261.202
 30
0.000000
  70
    32
  0
VERTEX
  8
AM_0
  5
17CA1
 10
-23.0457
 20
260.941
 30
0.000000
  70
    32
  0
VERTEX
  8
AM_0
  5
17CA2
 10
-24.0035
 20
260.726
 30
0.000000
  70
    32
  0
VERTEX
  8
AM_0
  5
17CA3
 10
-24.9707
 20
260.558
 30
0.000000
  70
    32
  0
VERTEX
  8
AM_0
  5
17CA4
 10
-25.9449
 20
260.438
 30
0.000000
  70
    32
  0
VERTEX
  8
AM_0
  5
17CA5
 10
-26.9239
 20
260.365
 30
0.000000
  70
    32
  0
VERTEX
  8
AM_0
  5
17CA6
 10
-27.9053
 20
260.341
 30
0.000000
  70
    32
  0
VERTEX
  8
AM_0
  5
17CA7
 10
-28.8866
 20
260.365
 30
0.000000
  70
    32
  0
VERTEX
  8
AM_0
  5
17CA8
 10
-29.8656
 20
260.438
 30
0.000000
  70
    32
  0
VERTEX
  8
AM_0
  5
17CA9
 10
-30.8399
 20
260.558
 30
0.000000
  70
    32
  0
VERTEX
  8
AM_0
  5
17CAA
 10
-31.8071
 20
260.726
 30
0.000000
  70
    32
  0
VERTEX
  8
AM_0
  5
17CAB
 10
-32.7649
 20
260.941
 30
0.000000
  70
    32
  0
VERTEX
  8
AM_0
  5
17CAC
 10
-33.7110
 20
261.202
 30
0.000000
  70
    32
  0
VERTEX
  8
AM_0
  5
17CAD
 10
-34.6431
 20
261.510
 30
0.000000
  70
    32
  0
VERTEX
  8
AM_0
  5
17CAE
 10
-35.5589
 20
261.864
 30
0.000000
  70
    32
  0
VERTEX
  8
AM_0
  5
17CAF
 10
-36.4564
 20
262.261
 30
0.000000
  70
    32
  0
VERTEX
  8
AM_0
  5
17CB0
 10
-37.3332
 20
262.703
 30
0.000000
  70
    32
  0
VERTEX
  8
AM_0
  5
17CB1
 10
-38.1873
 20
263.187
 30
0.000000
  70
    32
  0
VERTEX
  8
AM_0
  5
17CB2
 10
-39.0167
 20
263.712
 30
0.000000
  70
    32
  0
VERTEX
  8
AM_0
  5
17CB3
 10
-39.8193
 20
264.277
 30
0.000000
  70
    32
  0
VERTEX
  8
AM_0
  5
17CB4
 10
-40.5931
 20
264.881
 30
0.000000
  70
    32
  0
VERTEX
  8
AM_0
  5
17CB5
 10
-41.3364
 20
265.522
 30
0.000000
  70
    32
  0
VERTEX
  8
AM_0
  5
17CB6
 10
-42.0474
 20
266.199
 30
0.000000
  70
    32
  0
VERTEX
  8
AM_0
  5
17CB7
 10
-42.7243
 20
266.910
 30
0.000000
  70
    32
  0
VERTEX
  8
AM_0
  5
17CB8
 10
-43.3655
 20
267.653
 30
0.000000
  70
    32
  0
VERTEX
  8
AM_0
  5
17CB9
 10
-43.9694
 20
268.427
 30
0.000000
  70
    32
  0
VERTEX
  8
AM_0
  5
17CBA
 10
-44.5347
 20
269.230
 30
0.000000
  70
    32
  0
VERTEX
  8
AM_0
  5
17CBB
 10
-45.0598
 20
270.059
 30
0.000000
  70
    32
  0
VERTEX
  8
AM_0
  5
17CBC
 10
-45.5437
 20
270.913
 30
0.000000
  70
    32
  0
VERTEX
  8
AM_0
  5
17CBD
 10
-45.9851
 20
271.790
 30
0.000000
  70
    32
  0
VERTEX
  8
AM_0
  5
17CBE
 10
-46.3829
 20
272.687
 30
0.000000
  70
    32
  0
VERTEX
  8
AM_0
  5
17CBF
 10
-46.7361
 20
273.603
 30
0.000000
  70
    32
  0
VERTEX
  8
AM_0
  5
17CC0
 10
-47.0441
 20
274.535
 30
0.000000
  70
    32
  0
VERTEX
  8
AM_0
  5
17CC1
 10
-47.3059
 20
275.482
 30
0.000000
  70
    32
  0
VERTEX
  8
AM_0
  5
17CC2
 10
-47.5210
 20
276.439
 30
0.000000
  70
    32
  0
VERTEX
  8
AM_0
  5
17CC3
 10
-47.6888
 20
277.407
 30
0.000000
  70
    32
  0
VERTEX
  8
AM_0
  5
17CC4
 10
-47.8090
 20
278.381
 30
0.000000
  70
    32
  0
VERTEX
  8
AM_0
  5
17CC5
 10
-47.8812
 20
279.360
 30
0.000000
  70
    32
  0
VERTEX
  8
AM_0
  5
17CC6
 10
-47.9053
 20
280.341
 30
0.000000
  70
    32
  0
VERTEX
  8
AM_0
  5
17CC7
 10
-47.8812
 20
281.322
 30
0.000000
  70
    32
  0
VERTEX
  8
AM_0
  5
17CC8
 10
-47.8090
 20
282.301
 30
0.000000
  70
    32
  0
VERTEX
  8
AM_0
  5
17CC9
 10
-47.6888
 20
283.276
 30
0.000000
  70
    32
  0
VERTEX
  8
AM_0
  5
17CCA
 10
-47.5210
 20
284.243
 30
0.000000
  70
    32
  0
VERTEX
  8
AM_0
  5
17CCB
 10
-47.3059
 20
285.201
 30
0.000000
  70
    32
  0
VERTEX
  8
AM_0
  5
17CCC
 10
-47.0441
 20
286.147
 30
0.000000
  70
    32
  0
VERTEX
  8
AM_0
  5
17CCD
 10
-46.7361
 20
287.079
 30
0.000000
  70
    32
  0
VERTEX
  8
AM_0
  5
17CCE
 10
-46.3829
 20
287.995
 30
0.000000
  70
    32
  0
VERTEX
  8
AM_0
  5
17CCF
 10
-45.9851
 20
288.892
 30
0.000000
  70
    32
  0
VERTEX
  8
AM_0
  5
17CD0
 10
-45.5437
 20
289.769
 30
0.000000
  70
    32
  0
VERTEX
  8
AM_0
  5
17CD1
 10
-45.0598
 20
290.623
 30
0.000000
  70
    32
  0
VERTEX
  8
AM_0
  5
17CD2
 10
-44.5347
 20
291.452
 30
0.000000
  70
    32
  0
VERTEX
  8
AM_0
  5
17CD3
 10
-43.9694
 20
292.255
 30
0.000000
  70
    32
  0
VERTEX
  8
AM_0
  5
17CD4
 10
-43.3655
 20
293.029
 30
0.000000
  70
    32
  0
VERTEX
  8
AM_0
  5
17CD5
 10
-42.7243
 20
293.772
 30
0.000000
  70
    32
  0
VERTEX
  8
AM_0
  5
17CD6
 10
-42.0474
 20
294.483
 30
0.000000
  70
    32
  0
VERTEX
  8
AM_0
  5
17CD7
 10
-41.3364
 20
295.160
 30
0.000000
  70
    32
  0
VERTEX
  8
AM_0
  5
17CD8
 10
-40.5931
 20
295.801
 30
0.000000
  70
    32
  0
VERTEX
  8
AM_0
  5
17CD9
 10
-39.8193
 20
296.405
 30
0.000000
  70
    32
  0
VERTEX
  8
AM_0
  5
17CDA
 10
-39.0167
 20
296.970
 30
0.000000
  70
    32
  0
VERTEX
  8
AM_0
  5
17CDB
 10
-38.1873
 20
297.495
 30
0.000000
  70
    32
  0
VERTEX
  8
AM_0
  5
17CDC
 10
-37.3332
 20
297.979
 30
0.000000
  70
    32
  0
VERTEX
  8
AM_0
  5
17CDD
 10
-36.4564
 20
298.421
 30
0.000000
  70
    32
  0
VERTEX
  8
AM_0
  5
17CDE
 10
-35.5589
 20
298.818
 30
0.000000
  70
    32
  0
VERTEX
  8
AM_0
  5
17CDF
 10
-34.6431
 20
299.172
 30
0.000000
  70
    32
  0
VERTEX
  8
AM_0
  5
17CE0
 10
-33.7110
 20
299.480
 30
0.000000
  70
    32
  0
VERTEX
  8
AM_0
  5
17CE1
 10
-32.7649
 20
299.742
 30
0.000000
  70
    32
  0
VERTEX
  8
AM_0
  5
17CE2
 10
-31.8071
 20
299.957
 30
0.000000
  70
    32
  0
VERTEX
  8
AM_0
  5
17CE3
 10
-30.8399
 20
300.124
 30
0.000000
  70
    32
  0
VERTEX
  8
AM_0
  5
17CE4
 10
-29.8656
 20
300.245
 30
0.000000
  70
    32
  0
VERTEX
  8
AM_0
  5
17CE5
 10
-28.8866
 20
300.317
 30
0.000000
  70
    32
  0
VERTEX
  8
AM_0
  5
17CE6
 10
-27.9053
 20
300.341
 30
0.000000
  70
    32
  0
VERTEX
  8
AM_0
  5
17CE7
 10
-26.9239
 20
300.317
 30
0.000000
  70
    32
  0
VERTEX
  8
AM_0
  5
17CE8
 10
-25.9449
 20
300.245
 30
0.000000
  70
    32
  0
VERTEX
  8
AM_0
  5
17CE9
 10
-24.9707
 20
300.124
 30
0.000000
  70
    32
  0
VERTEX
  8
AM_0
  5
17CEA
 10
-24.0035
 20
299.957
 30
0.000000
  70
    32
  0
VERTEX
  8
AM_0
  5
17CEB
 10
-23.0457
 20
299.742
 30
0.000000
  70
    32
  0
VERTEX
  8
AM_0
  5
17CEC
 10
-22.0996
 20
299.480
 30
0.000000
  70
    32
  0
VERTEX
  8
AM_0
  5
17CED
 10
-21.1675
 20
299.172
 30
0.000000
  70
    32
  0
VERTEX
  8
AM_0
  5
17CEE
 10
-20.2516
 20
298.818
 30
0.000000
  70
    32
  0
VERTEX
  8
AM_0
  5
17CEF
 10
-19.3542
 20
298.421
 30
0.000000
  70
    32
  0
VERTEX
  8
AM_0
  5
17CF0
 10
-18.4773
 20
297.979
 30
0.000000
  70
    32
  0
VERTEX
  8
AM_0
  5
17CF1
 10
-17.6232
 20
297.495
 30
0.000000
  70
    32
  0
VERTEX
  8
AM_0
  5
17CF2
 10
-16.7939
 20
296.970
 30
0.000000
  70
    32
  0
VERTEX
  8
AM_0
  5
17CF3
 10
-15.9913
 20
296.405
 30
0.000000
  70
    32
  0
VERTEX
  8
AM_0
  5
17CF4
 10
-15.2174
 20
295.801
 30
0.000000
  70
    32
  0
VERTEX
  8
AM_0
  5
17CF5
 10
-14.4741
 20
295.160
 30
0.000000
  70
    32
  0
VERTEX
  8
AM_0
  5
17CF6
 10
-13.7631
 20
294.483
 30
0.000000
  70
    32
  0
VERTEX
  8
AM_0
  5
17CF7
 10
-13.0862
 20
293.772
 30
0.000000
  70
    32
  0
VERTEX
  8
AM_0
  5
17CF8
 10
-12.4451
 20
293.029
 30
0.000000
  70
    32
  0
VERTEX
  8
AM_0
  5
17CF9
 10
-11.8411
 20
292.255
 30
0.000000
  70
    32
  0
VERTEX
  8
AM_0
  5
17CFA
 10
-11.2759
 20
291.452
 30
0.000000
  70
    32
  0
VERTEX
  8
AM_0
  5
17CFB
 10
-10.7507
 20
290.623
 30
0.000000
  70
    32
  0
VERTEX
  8
AM_0
  5
17CFC
 10
-10.2668
 20
289.769
 30
0.000000
  70
    32
  0
VERTEX
  8
AM_0
  5
17CFD
 10
-9.82548
 20
288.892
 30
0.000000
  70
    32
  0
VERTEX
  8
AM_0
  5
17CFE
 10
-9.42768
 20
287.995
 30
0.000000
  70
    32
  0
VERTEX
  8
AM_0
  5
17CFF
 10
-9.07439
 20
287.079
 30
0.000000
  70
    32
  0
VERTEX
  8
AM_0
  5
17D00
 10
-8.76646
 20
286.147
 30
0.000000
  70
    32
  0
VERTEX
  8
AM_0
  5
17D01
 10
-8.50464
 20
285.201
 30
0.000000
  70
    32
  0
VERTEX
  8
AM_0
  5
17D02
 10
-8.28956
 20
284.243
 30
0.000000
  70
    32
  0
VERTEX
  8
AM_0
  5
17D03
 10
-8.12174
 20
283.276
 30
0.000000
  70
    32
  0
VERTEX
  8
AM_0
  5
17D04
 10
-8.00157
 20
282.301
 30
0.000000
  70
    32
  0
VERTEX
  8
AM_0
  5
17D05
 10
-7.92936
 20
281.322
 30
0.000000
  70
    32
  0
VERTEX
  8
AM_0
  5
17D06
 10
-7.90527
 20
280.341
 30
0.000000
  70
    32
  0
SEQEND
  8
AM_0
  5
17D07
  0
ARC
  5
17167
  8
AM_0
 10
-27.905267933802861
 20
280.34108634292022
 30
0.0
 40
12.0
 50
109.47122063448811
 51
70.528779365511809
  0
LINE
  5
17168
  8
AM_0
 10
-31.905267933802861
 20
288.34108634292011
 30
0.0
 11
-31.905267933802861
 21
295.34108634292022
 31
0.0
  0
LINE
  5
17169
  8
AM_0
 10
-23.905267933802861
 20
295.34108634292022
 30
0.0
 11
-23.905267933802861
 21
288.34108634292011
 31
0.0
  0
CIRCLE
  5
1716A
  8
ｽﾝﾎﾟｳｾﾝ
 10
-27.905267933802861
 20
280.34108634292022
 30
0.0
 40
4.0
  0
LINE
  5
1716B
  8
AM_0
 10
-23.905267933802861
 20
288.34108634292011
 30
0.0
 11
-31.905267933802861
 21
288.34108634292011
 31
0.0
  0
LINE
  5
1716C
  8
AM_0
 10
-31.905267933802861
 20
295.34108634292022
 30
0.0
 11
-23.905267933802861
 21
295.34108634292022
 31
0.0
  0
CIRCLE
  5
171B9
  8
AM_0
 10
-27.905267933802861
 20
280.34108634292028
 30
0.0
 40
3.399999999999999
  0
LINE
  5
171BA
  8
AM_0
 10
-124.4052555509366
 20
584.32737842457016
 30
0.0
 11
29.594718521040651
 21
584.32737842457004
 31
0.0
  0
LINE
  5
171BB
  8
AM_0
 10
-124.4052555509366
 20
494.32737574236199
 30
0.0
 11
29.594718521040679
 21
494.32737574236199
 31
0.0
  0
LINE
  5
171BC
  8
AM_0
 10
-124.4052403018416
 20
514.32737633840804
 30
0.0
 11
29.594733770135552
 21
514.3273763384085
 31
0.0
  0
LINE
  5
171BD
  8
ﾁｭｳｼﾝｾﾝ1
 10
-286.90130978426311
 20
539.32733994471675
 30
0.0
 11
34.158369308210752
 21
539.32738526610922
 31
0.0
1001
GENIUS_GENODEF_13
1002
{
1000
HIER
1070
     0
1002
}
1002
{
1000
MANEDIT
1070
     0
1002
}
1002
{
1000
NOSEL
1070
     0
1002
}
1002
{
1000
BEHIND
1070
     0
1002
}
1002
{
1000
REACTOR
1002
}
1001
GENIUS_GENOBJ-N-CEN_13
1002
{
1000
OWNER
1000
GEN
1002
}
  0
LINE
  5
171BE
  8
AM_0
 10
-141.40910978426339
 20
595.32426476718274
 30
0.0
 11
-141.40910978426339
 21
483.33045531773161
 31
0.0
  0
LINE
  5
171BF
  8
AM_0
 10
-124.40524030190581
 20
514.32737633840804
 30
0.0
 11
-123.1833896910868
 21
584.32737842457016
 31
0.0
  0
LINE
  5
171C3
  8
AM_0
 10
-150.40130978426311
 20
595.32736994471668
 30
0.0
 11
-150.40130978426311
 21
483.32734894471662
 31
0.0
  0
LINE
  5
171C4
  8
AM_0
 10
-139.55069558818491
 20
484.98006541192939
 30
0.0
 11
-134.31473951395739
 21
514.67467241570751
 31
0.0
1001
GENIUS_GENODEF_13
1002
{
1000
HIER
1070
     0
1002
}
1002
{
1000
MANEDIT
1070
     0
1002
}
1002
{
1000
NOSEL
1070
     0
1002
}
1002
{
1000
BEHIND
1070
     0
1002
}
1002
{
1000
REACTOR
1002
}
1001
GENIUS_GENOBJ-N-CEN_13
1002
{
1000
OWNER
1000
GEN
1002
}
  0
LINE
  5
171C5
  8
AM_0
 10
-150.40129397413111
 20
483.32735898191589
 30
0.0
 11
-141.5203105785867
 21
483.32736148922879
 31
0.0
  0
ARC
  5
171C6
  8
AM_0
 10
-141.52031114323421
 20
485.32736148922868
 30
0.0
 40
2.0
 50
270.0000161759628
 51
350.00000808797978
1001
GENIUS_GENOBJ-N-CEN_13
1002
{
1000
OWNER
1000
GEN
1002
}
1001
GENIUS_GENOBJ-N-FIL_13
1002
{
1000
OWNER
1000
GEN
1002
}
1001
GENIUS_GENODEF_13
1002
{
1000
HIER
1070
     0
1002
}
1002
{
1000
MANEDIT
1070
     0
1002
}
1002
{
1000
NOSEL
1070
     0
1002
}
1002
{
1000
BEHIND
1070
     0
1002
}
1002
{
1000
OTHER
1070
     0
1002
}
1002
{
1000
REACTOR
1002
}
  0
LINE
  5
171C7
  8
AM_0
 10
-150.40130978426311
 20
507.38990194471671
 30
0.0
 11
-141.40910978426339
 21
507.3875960143219
 31
0.0
  0
LINE
  5
171C8
  8
AM_0
 10
-150.40130978426311
 20
493.32733394471649
 30
0.0
 11
-141.40910978426339
 21
493.32735387336572
 31
0.0
  0
LINE
  5
171C9
  8
AM_0
 10
-124.056122688898
 20
494.32737574236182
 30
0.0
 11
-124.4052403018416
 21
514.32737633840804
 31
0.0
  0
ARC
  5
171CA
  8
AM_0
 10
-132.345123958908
 20
514.3273763384085
 30
0.0
 40
2.0
 50
90.000000000000057
 51
170.00000808797981
1001
GENIUS_GENOBJ-N-FIL_13
1002
{
1000
OWNER
1000
GEN
1002
}
1001
GENIUS_GENODEF_13
1002
{
1000
HIER
1070
     0
1002
}
1002
{
1000
MANEDIT
1070
     0
1002
}
1002
{
1000
NOSEL
1070
     0
1002
}
1002
{
1000
BEHIND
1070
     0
1002
}
1002
{
1000
OTHER
1070
     0
1002
}
1002
{
1000
REACTOR
1002
}
  0
LINE
  5
171CB
  8
AM_0
 10
-132.345123958908
 20
516.32737633840804
 30
0.0
 11
-125.387937620754
 21
516.32737633840804
 31
0.0
  0
ARC
  5
171CC
  8
AM_0
 10
-125.387937620754
 20
515.3273763384085
 30
0.0
 40
1.0
 50
359.0000032489653
 51
90.000000000000057
1001
GENIUS_GENOBJ-N-FIL_13
1002
{
1000
OWNER
1000
GEN
1002
}
1001
GENIUS_GENODEF_13
1002
{
1000
HIER
1070
     0
1002
}
1002
{
1000
MANEDIT
1070
     0
1002
}
1002
{
1000
NOSEL
1070
     0
1002
}
1002
{
1000
BEHIND
1070
     0
1002
}
1002
{
1000
OTHER
1070
     0
1002
}
1002
{
1000
REACTOR
1002
}
  0
LINE
  5
171CD
  8
AM_0
 10
-139.5507109317191
 20
593.67465607808538
 30
0.0
 11
-137.84129450740599
 21
583.98008179120131
 31
0.0
1001
GENIUS_GENODEF_13
1002
{
1000
HIER
1070
     0
1002
}
1002
{
1000
MANEDIT
1070
     0
1002
}
1002
{
1000
NOSEL
1070
     0
1002
}
1002
{
1000
BEHIND
1070
     0
1002
}
1002
{
1000
REACTOR
1002
}
1001
GENIUS_GENOBJ-N-CEN_13
1002
{
1000
OWNER
1000
GEN
1002
}
  0
LINE
  5
171CE
  8
AM_0
 10
-150.40130978426311
 20
571.26730944471672
 30
0.0
 11
-141.40910978426339
 21
571.26730944471672
 31
0.0
  0
LINE
  5
171CF
  8
AM_0
 10
-135.87167905040661
 20
582.32737842457016
 30
0.0
 11
-125.1836943451947
 21
582.32737842457016
 31
0.0
  0
ARC
  5
171D0
  8
AM_0
 10
-135.8716790504067
 20
584.32737842456982
 30
0.0
 40
2.0
 50
190.0000080879837
 51
270.0
1001
GENIUS_GENOBJ-N-CEN_13
1002
{
1000
OWNER
1000
GEN
1002
}
1001
GENIUS_GENODEF_13
1002
{
1000
HIER
1070
     0
1002
}
1002
{
1000
MANEDIT
1070
     0
1002
}
1002
{
1000
NOSEL
1070
     0
1002
}
1002
{
1000
BEHIND
1070
     0
1002
}
1002
{
1000
OTHER
1070
     0
1002
}
1002
{
1000
REACTOR
1002
}
1001
GENIUS_GENOBJ-N-FIL_13
1002
{
1000
OWNER
1000
GEN
1002
}
  0
ARC
  5
171D1
  8
AM_0
 10
-125.18369434519479
 20
584.32737842456982
 30
0.0
 40
2.0
 50
270.0
 51
359.00000324901742
1001
GENIUS_GENODEF_13
1002
{
1000
HIER
1070
     0
1002
}
1002
{
1000
MANEDIT
1070
     0
1002
}
1002
{
1000
NOSEL
1070
     0
1002
}
1002
{
1000
BEHIND
1070
     0
1002
}
1002
{
1000
OTHER
1070
     0
1002
}
1002
{
1000
REACTOR
1002
}
1001
GENIUS_GENOBJ-N-FIL_13
1002
{
1000
OWNER
1000
GEN
1002
}
  0
LINE
  5
171D2
  8
AM_0
 10
-150.40130978426311
 20
585.32735944471665
 30
0.0
 11
-141.40910978426339
 21
585.32735944471665
 31
0.0
  0
LINE
  5
171D3
  8
AM_0
 10
-150.40130978426311
 20
595.32735944471665
 30
0.0
 11
-141.52032638871839
 21
595.32735944471665
 31
0.0
  0
ARC
  5
171D4
  8
AM_0
 10
-141.5203263887185
 20
593.32735944471654
 30
0.0
 40
2.0
 50
10.000008087983741
 51
90.000000000000057
1001
GENIUS_GENOBJ-N-CEN_13
1002
{
1000
OWNER
1000
GEN
1002
}
1001
GENIUS_GENOBJ-N-FIL_13
1002
{
1000
OWNER
1000
GEN
1002
}
1001
GENIUS_GENODEF_13
1002
{
1000
HIER
1070
     0
1002
}
1002
{
1000
MANEDIT
1070
     0
1002
}
1002
{
1000
NOSEL
1070
     0
1002
}
1002
{
1000
BEHIND
1070
     0
1002
}
1002
{
1000
OTHER
1070
     0
1002
}
1002
{
1000
REACTOR
1002
}
  0
LINE
  5
171D5
  8
ﾁｭｳｼﾝｾﾝ1
 10
-27.905267924108369
 20
593.32737738702428
 30
0.0
 11
-27.90526795408968
 21
426.32737588368332
 31
0.0
  0
LINE
  5
171D6
  8
AM_0
 10
29.594733770135552
 20
514.3273763384085
 30
0.0
 11
28.372913676654608
 21
584.32737842457016
 31
0.0
  0
LINE
  5
171DA
  8
AM_0
 10
9.5943581740784207
 20
490.32737562315299
 30
0.0
 11
-65.404894061073435
 21
490.32737562315259
 31
0.0
  0
LINE
  5
171DB
  8
AM_0
 10
-65.404894061073435
 20
494.32737574236182
 30
0.0
 11
-65.404894061073435
 21
490.32737562315259
 31
0.0
  0
LINE
  5
171DC
  8
AM_0
 10
9.5943581740784207
 20
494.32737574236199
 30
0.0
 11
9.5943581740784207
 21
490.32737562315299
 31
0.0
  0
LINE
  5
171DD
  8
AM_0
 10
29.245646674465981
 20
494.32737574236199
 30
0.0
 11
29.594733770135552
 21
514.3273763384085
 31
0.0
  0
LINE
  5
171DE
  8
AM_0
 10
9.5943581740784207
 20
588.32737854377933
 30
0.0
 11
-65.404894061073321
 21
588.32737854377933
 31
0.0
  0
LINE
  5
171DF
  8
AM_0
 10
-65.404894061073321
 20
588.32737854377933
 30
0.0
 11
-65.404894061073321
 21
584.32737842457016
 31
0.0
  0
LINE
  5
171E0
  8
AM_0
 10
9.5943581740784207
 20
588.32737854377933
 30
0.0
 11
9.5943581740784207
 21
584.32737842457016
 31
0.0
  0
LINE
  5
171E1
  8
AM_0
 10
-161.5695021205766
 20
324.77315925518951
 30
0.0
 11
-164.3512597745688
 21
335.13606266294232
 31
0.0
  0
LINE
  5
171E2
  8
AM_0
 10
-158.40127977456859
 20
336.34105266294222
 30
0.0
 11
-158.40127977456859
 21
224.3410486629422
 31
0.0
  0
LINE
  5
171E3
  8
AM_0
 10
-266.40127977456859
 20
329.77606266294242
 30
0.0
 11
-265.12130977456877
 21
337.78605266294238
 31
0.0
  0
LINE
  5
171E4
  8
AM_0
 10
-266.40127977456859
 20
328.43606266294222
 30
0.0
 11
-265.16128977456867
 21
334.99606266294211
 31
0.0
  0
LINE
  5
171E5
  8
AM_0
 10
-266.40127977456859
 20
333.33606266294231
 30
0.0
 11
-266.40127977456859
 21
230.89606466294219
 31
0.0
  0
LINE
  5
171E6
  8
AM_0
 10
-274.40130977456857
 20
333.34105598655168
 30
0.0
 11
-274.40130977456857
 21
227.34107498655149
 31
0.0
  0
LINE
  5
171E7
  8
AM_0
 10
-266.40127977456859
 20
331.12603266294229
 30
0.0
 11
-265.09127977456882
 21
340.50604266294238
 31
0.0
  0
LINE
  5
171E8
  8
AM_0
 10
-266.40121977456869
 20
331.12607266294231
 30
0.0
 11
-265.11123977456867
 21
339.61606266294228
 31
0.0
  0
LINE
  5
171E9
  8
AM_0
 10
-274.40127977456859
 20
333.33606266294231
 30
0.0
 11
-266.40127977456859
 21
333.33606266294231
 31
0.0
  0
LINE
  5
171EA
  8
AM_0
 10
-274.40127977456859
 20
333.34105266294222
 30
0.0
 11
-266.40127977456859
 21
333.34105266294222
 31
0.0
  0
LINE
  5
171EB
  8
AM_0
 10
-263.2012697745688
 20
336.6260526629423
 30
0.0
 11
-166.28130977456871
 21
336.6260526629423
 31
0.0
  0
LINE
  5
171EC
  8
AM_0
 10
-263.11129977456881
 20
342.22606266294218
 30
0.0
 11
-229.40127977456871
 21
342.22606266294218
 31
0.0
  0
LINE
  5
171ED
  8
AM_0
 10
-263.13125977456878
 20
341.31605266294241
 30
0.0
 11
-229.40127977456871
 21
341.31605266294241
 31
0.0
  0
LINE
  5
171EE
  8
AM_0
 10
-263.15127977456871
 20
339.46605266294222
 30
0.0
 11
-229.40127977456871
 21
339.46605266294222
 31
0.0
  0
ARC
  5
171EF
  8
AM_0
 10
-263.13857977456871
 20
339.32148266294229
 30
0.0
 40
1.994588
 50
89.790752999999157
 51
171.50708999999461
  0
ARC
  5
171F0
  8
AM_0
 10
-263.11660977456859
 20
340.2325726629424
 30
0.0
 40
1.9934921000000001
 50
89.846091000001437
 51
172.1147400000026
  0
ARC
  5
171F1
  8
AM_0
 10
-263.19839977456883
 20
334.62915266294237
 30
0.0
 40
1.9969039999999989
 50
90.083473999999654
 51
169.41256000000129
  0
ARC
  5
171F2
  8
AM_0
 10
-263.1528697745689
 20
337.47291266294218
 30
0.0
 40
1.9931281000000001
 50
89.953373000000497
 51
170.9611800000003
  0
ARC
  5
171F3
  8
AM_0
 10
-229.40286977456881
 20
339.31450266294217
 30
0.0
 40
2.0015439999999991
 50
0.0442139990008809
 51
89.955783999999113
  0
LINE
  5
171F4
  8
AM_0
 10
-227.40127977456871
 20
340.22604266294218
 30
0.0
 11
-227.40127977456871
 21
336.6260526629423
 31
0.0
  0
ARC
  5
171F5
  8
AM_0
 10
-229.4025597745688
 20
340.22476266294228
 30
0.0
 40
2.001287899999999
 50
0.0368719990022313
 51
89.963126000001225
  0
ARC
  5
171F6
  8
AM_0
 10
-229.40170977456879
 20
337.46563266294243
 30
0.0
 40
2.000407899999999
 50
0.0116490000007068
 51
89.988350000001176
  0
LINE
  5
171F7
  8
AM_0
 10
-163.86129977456869
 20
333.33606266294231
 30
0.0
 11
-158.40127977456859
 21
333.33606266294231
 31
0.0
  0
ARC
  5
171F8
  8
AM_0
 10
-166.2840897745688
 20
334.62745266294218
 30
0.0
 40
1.9986041000000001
 50
14.7427159999993
 51
89.919516000001167
  0
LINE
  5
171F9
  8
AM_0
 10
-158.40127977456859
 20
336.34105266294222
 30
0.0
 11
-150.4013097745686
 21
336.34105266294222
 31
0.0
  0
LINE
  5
171FA
  8
AM_0
 10
-273.71127977456871
 20
237.14604866294209
 30
0.0
 11
-267.48129977456881
 21
237.14604866294209
 31
0.0
  0
LINE
  5
171FB
  8
AM_0
 10
-274.40127977456859
 20
227.3360596629422
 30
0.0
 11
-266.40127977456859
 21
227.3360596629422
 31
0.0
  0
LINE
  5
171FC
  8
AM_0
 10
-274.40127977456859
 20
227.3410486629422
 30
0.0
 11
-266.40127977456859
 21
227.3410486629422
 31
0.0
  0
LINE
  5
171FD
  8
AM_0
 10
-273.71127977456871
 20
323.52604266294219
 30
0.0
 11
-267.48129977456881
 21
323.52604266294242
 31
0.0
  0
ARC
  5
171FE
  8
AM_0
 10
-276.40130977456869
 20
267.34105598655168
 30
0.0
 40
1.0
 50
270.0
 51
0.0
  0
LINE
  5
171FF
  8
AM_0
 10
-280.40130977456857
 20
232.32465698655179
 30
0.0
 11
-280.40130977456857
 21
275.34107598655157
 31
0.0
  0
LINE
  5
17200
  8
AM_0
 10
-282.89520625894357
 20
265.11923371116097
 30
0.0
 11
-282.89520625894357
 21
295.5628677443641
 31
0.0
  0
LINE
  5
17201
  8
AM_0
 10
-275.40130977456857
 20
330.34105598655168
 30
0.0
 11
-275.40130977456857
 21
229.21783698655179
 31
0.0
  0
LINE
  5
17202
  8
AM_0
 10
-281.90130977456857
 20
300.34105598655168
 30
0.0
 11
-281.90130977456857
 21
260.34107598655157
 31
0.0
  0
LINE
  5
17203
  8
AM_0
 10
-280.40130977456857
 20
328.35742598655168
 30
0.0
 11
-280.40130977456857
 21
285.34105598655168
 31
0.0
  0
LINE
  5
17204
  8
AM_0
 10
-278.58947977456882
 20
315.94995598655157
 30
0.0
 11
-279.79406977456858
 21
315.43548598655161
 31
0.0
  0
LINE
  5
17205
  8
AM_0
 10
-278.40130977456857
 20
315.73394598655148
 30
0.0
 11
-278.40130977456857
 21
314.67399598655169
 31
0.0
  0
ARC
  5
17206
  8
AM_0
 10
-276.40130977456869
 20
325.84269598655158
 30
0.0
 40
1.0
 50
0.0
 51
90.000003000000945
  0
LINE
  5
17207
  8
AM_0
 10
-278.1620497745688
 20
328.94413598655183
 30
0.0
 11
-275.90130977456857
 21
328.94413598655183
 31
0.0
  0
LINE
  5
17208
  8
AM_0
 10
-278.12426977456869
 20
327.98265598655161
 30
0.0
 11
-275.40130977456857
 21
327.98265598655161
 31
0.0
  0
LINE
  5
17209
  8
AM_0
 10
-278.13311977456863
 20
330.0904559865516
 30
0.0
 11
-275.90130977456857
 21
330.0904559865516
 31
0.0
  0
LINE
  5
1720A
  8
AM_0
 10
-278.15264977456872
 20
326.84271598655181
 30
0.0
 11
-276.40130977456857
 21
326.84271598655181
 31
0.0
  0
LINE
  5
1720B
  8
AM_0
 10
-278.40130977456857
 20
329.8372259865518
 30
0.0
 11
-278.40130977456857
 21
329.31144598655158
 31
0.0
  0
LINE
  5
1720C
  8
AM_0
 10
-278.40130977456857
 20
327.7376159865517
 30
0.0
 11
-278.40130977456857
 21
327.19153598655151
 31
0.0
  0
ARC
  5
1720D
  8
AM_0
 10
-278.15264977456877
 20
325.84269598655158
 30
0.0
 40
1.0
 50
90.000003000000945
 51
117.9265999999982
  0
ARC
  5
1720E
  8
AM_0
 10
-278.1242697745688
 20
326.98266598655169
 30
0.0
 40
1.0
 50
90.000003000000945
 51
120.9666000000018
  0
ARC
  5
1720F
  8
AM_0
 10
-278.1620497745688
 20
327.94415598655172
 30
0.0
 40
1.0
 50
90.000003000000945
 51
116.9112599999988
  0
ARC
  5
17210
  8
AM_0
 10
-278.1331197745688
 20
329.09044598655157
 30
0.0
 40
1.0
 50
90.000003000000945
 51
120.0263999999992
  0
ARC
  5
17211
  8
AM_0
 10
-279.4013097745688
 20
325.18077598655162
 30
0.0
 40
1.0
 50
117.9265999999982
 51
180.00001000000091
  0
ARC
  5
17212
  8
AM_0
 10
-279.4013097745688
 20
326.2163759865515
 30
0.0
 40
1.0
 50
120.9666000000018
 51
180.00001000000091
  0
ARC
  5
17213
  8
AM_0
 10
-279.4013097745688
 20
327.31512598655172
 30
0.0
 40
1.0
 50
116.9112599999988
 51
180.00001000000091
  0
ARC
  5
17214
  8
AM_0
 10
-279.4013097745688
 20
328.35742598655168
 30
0.0
 40
1.0
 50
120.0263999999992
 51
180.00001000000091
  0
LINE
  5
17215
  8
AM_0
 10
-278.62096977456861
 20
326.7262259865517
 30
0.0
 11
-279.86962977456881
 21
326.06436598655182
 31
0.0
  0
LINE
  5
17216
  8
AM_0
 10
-278.6146297745687
 20
328.8358759865518
 30
0.0
 11
-279.85387977456878
 21
328.20685598655172
 31
0.0
  0
LINE
  5
17217
  8
AM_0
 10
-278.63885977456869
 20
327.84016598655171
 30
0.0
 11
-279.9158997745688
 21
327.07386598655171
 31
0.0
  0
LINE
  5
17218
  8
AM_0
 10
-278.6334897745686
 20
329.95617598655161
 30
0.0
 11
-279.90166977456857
 21
329.22322598655182
 31
0.0
  0
LINE
  5
17219
  8
AM_0
 10
-275.40130977456857
 20
330.34105598655168
 30
0.0
 11
-274.40130977456857
 21
330.34105598655168
 31
0.0
  0
ARC
  5
1721A
  8
AM_0
 10
-275.90130977456869
 20
330.59044598655157
 30
0.0
 40
0.5
 50
270.0
 51
0.0
  0
ARC
  5
1721B
  8
AM_0
 10
-275.90130977456869
 20
328.44415598655172
 30
0.0
 40
0.5
 50
0.0
 51
90.000003000000945
  0
LINE
  5
1721C
  8
AM_0
 10
-278.19665977456867
 20
316.03026598655168
 30
0.0
 11
-276.10131977456871
 21
316.03026598655168
 31
0.0
  0
ARC
  5
1721D
  8
AM_0
 10
-276.40130977456869
 20
321.32599598655179
 30
0.0
 40
1.0
 50
0.0
 51
90.000003000000945
  0
LINE
  5
1721E
  8
AM_0
 10
-278.10265977456868
 20
323.4659459865515
 30
0.0
 11
-275.40130977456857
 21
323.4659459865515
 31
0.0
  0
ARC
  5
1721F
  8
AM_0
 10
-278.19665977456867
 20
315.03027598655171
 30
0.0
 40
1.0
 50
90.000003000000945
 51
113.1270299999984
  0
LINE
  5
17220
  8
AM_0
 10
-278.13000977456869
 20
322.3259759865519
 30
0.0
 11
-276.40130977456857
 21
322.3259759865519
 31
0.0
  0
ARC
  5
17221
  8
AM_0
 10
-278.13000977456869
 20
321.32599598655179
 30
0.0
 40
1.0
 50
90.000003000000945
 51
120.3595000000018
  0
ARC
  5
17222
  8
AM_0
 10
-279.4013097745688
 20
321.61438598655172
 30
0.0
 40
1.0
 50
123.2547299999983
 51
180.00001000000091
  0
ARC
  5
17223
  8
AM_0
 10
-279.4013097745688
 20
320.58130598655168
 30
0.0
 40
1.0
 50
120.3595000000018
 51
180.00001000000091
  0
LINE
  5
17224
  8
AM_0
 10
-278.63543977456868
 20
322.18884598655171
 30
0.0
 11
-279.90673977456879
 21
321.44417598655173
 31
0.0
  0
ARC
  5
17225
  8
AM_0
 10
-278.10265977456891
 20
322.4659459865515
 30
0.0
 40
1.0
 50
90.000003000000945
 51
123.2547299999983
  0
LINE
  5
17226
  8
AM_0
 10
-278.65105977456881
 20
323.30221598655169
 30
0.0
 11
-279.94964977456868
 21
322.45065598655168
 31
0.0
  0
LINE
  5
17227
  8
AM_0
 10
-278.40130977456857
 20
323.17151598655158
 30
0.0
 11
-278.40130977456857
 21
322.69932598655163
 31
0.0
  0
ARC
  5
17228
  8
AM_0
 10
-276.10131977456871
 20
316.73027598655148
 30
0.0
 40
0.6999999900000002
 50
270.0
 51
0.0
  0
ARC
  5
17229
  8
AM_0
 10
-276.40130977456869
 20
313.0841659865518
 30
0.0
 40
1.0
 50
0.0
 51
90.000003000000945
  0
LINE
  5
1722A
  8
AM_0
 10
-278.25097977456869
 20
314.0841659865518
 30
0.0
 11
-276.40130977456857
 21
314.0841659865518
 31
0.0
  0
ARC
  5
1722B
  8
AM_0
 10
-278.2509797745688
 20
313.0841659865518
 30
0.0
 40
1.0
 50
90.000003000000945
 51
107.0976299999989
  0
ARC
  5
1722C
  8
AM_0
 10
-279.4013097745688
 20
312.73033598655178
 30
0.0
 40
1.0
 50
107.0976299999989
 51
180.00001000000091
  0
LINE
  5
1722D
  8
AM_0
 10
-278.54498977456882
 20
314.03999598655167
 30
0.0
 11
-279.69530977456873
 21
313.68615598655168
 31
0.0
  0
ARC
  5
1722E
  8
AM_0
 10
-279.4013097745688
 20
314.51579598655161
 30
0.0
 40
1.0
 50
113.1270299999984
 51
180.00001000000091
  0
ARC
  5
1722F
  8
AM_0
 10
-276.40130977456869
 20
303.34105598655168
 30
0.0
 40
1.0
 50
0.0
 51
90.000003000000945
  0
ARC
  5
17230
  8
AM_0
 10
-276.40130977456869
 20
307.3410659865516
 30
0.0
 40
1.0
 50
270.0
 51
0.0
  0
LINE
  5
17231
  8
AM_0
 10
-278.40130977456857
 20
305.96722598655168
 30
0.0
 11
-278.40130977456857
 21
304.60443598655178
 31
0.0
  0
LINE
  5
17232
  8
AM_0
 10
-281.90130977456857
 20
300.34105598655168
 30
0.0
 11
-280.40130977456857
 21
300.47227598655172
 31
0.0
  0
ARC
  5
17233
  8
AM_0
 10
-279.4013097745688
 20
305.3410659865516
 30
0.0
 40
1.0
 50
179.999989999999
 51
270.0
  0
ARC
  5
17234
  8
AM_0
 10
-279.4013097745688
 20
305.3410659865516
 30
0.0
 40
1.0
 50
90.000003000000945
 51
180.00001000000091
  0
LINE
  5
17235
  8
AM_0
 10
-276.40130977456857
 20
304.34106598655171
 30
0.0
 11
-279.40130977456857
 21
304.34106598655171
 31
0.0
  0
LINE
  5
17236
  8
AM_0
 10
-276.40130977456857
 20
306.34105598655168
 30
0.0
 11
-279.40130977456857
 21
306.34105598655168
 31
0.0
  0
LINE
  5
17237
  8
AM_0
 10
-282.39517574136551
 20
298.33288727561421
 30
0.0
 11
-281.89520625894357
 21
298.29287873069228
 31
0.0
  0
LINE
  5
17238
  8
AM_0
 10
-282.89520625894357
 20
295.56289826194228
 30
0.0
 11
-282.39520625894357
 21
298.33288727561421
 31
0.0
  0
ARC
  5
17239
  8
AM_0
 10
-276.40130977456869
 20
293.34106598655171
 30
0.0
 40
1.0
 50
0.0
 51
90.000003000000945
  0
ARC
  5
1723A
  8
AM_0
 10
-276.40130977456869
 20
297.34105598655168
 30
0.0
 40
1.0
 50
270.0
 51
0.0
  0
LINE
  5
1723B
  8
AM_0
 10
-278.40130977456857
 20
295.9481659865516
 30
0.0
 11
-278.40130977456857
 21
294.73674598655168
 31
0.0
  0
ARC
  5
1723C
  8
AM_0
 10
-279.4013097745688
 20
295.34106598655171
 30
0.0
 40
1.0
 50
179.999989999999
 51
270.0
  0
LINE
  5
1723D
  8
AM_0
 10
-281.90130977456857
 20
297.62303598655171
 30
0.0
 11
-280.40130977456857
 21
297.62303598655171
 31
0.0
  0
ARC
  5
1723E
  8
AM_0
 10
-279.4013097745688
 20
295.34106598655171
 30
0.0
 40
1.0
 50
90.000003000000945
 51
180.00001000000091
  0
LINE
  5
1723F
  8
AM_0
 10
-281.90130977456857
 20
295.49109598655173
 30
0.0
 11
-277.2238197745686
 21
295.49109598655173
 31
0.0
  0
LINE
  5
17240
  8
AM_0
 10
-276.40130977456857
 20
294.34105598655168
 30
0.0
 11
-279.40130977456857
 21
294.34105598655168
 31
0.0
  0
LINE
  5
17241
  8
AM_0
 10
-276.40130977456857
 20
296.3410659865516
 30
0.0
 11
-279.40130977456857
 21
296.3410659865516
 31
0.0
  0
ARC
  5
17242
  8
AM_0
 10
-276.40130977456869
 20
287.34106598655171
 30
0.0
 40
1.0
 50
270.0
 51
0.0
  0
ARC
  5
17243
  8
AM_0
 10
-276.40130977456869
 20
283.34106598655171
 30
0.0
 40
1.0
 50
0.0
 51
90.000003000000945
  0
LINE
  5
17244
  8
AM_0
 10
-278.40130977456857
 20
285.95427598655169
 30
0.0
 11
-278.40130977456857
 21
284.79338598655153
 31
0.0
  0
ARC
  5
17245
  8
AM_0
 10
-279.4013097745688
 20
285.34105598655168
 30
0.0
 40
1.0
 50
90.000003000000945
 51
180.00001000000091
  0
ARC
  5
17246
  8
AM_0
 10
-279.4013097745688
 20
285.34105598655168
 30
0.0
 40
1.0
 50
179.999989999999
 51
270.0
  0
LINE
  5
17247
  8
AM_0
 10
-276.40130977456857
 20
284.3410659865516
 30
0.0
 11
-279.40130977456857
 21
284.3410659865516
 31
0.0
  0
LINE
  5
17248
  8
AM_0
 10
-276.40130977456857
 20
286.3410659865516
 30
0.0
 11
-279.40130977456857
 21
286.3410659865516
 31
0.0
  0
ARC
  5
17249
  8
AM_0
 10
-279.4013097745688
 20
275.34107598655157
 30
0.0
 40
1.0
 50
179.999989999999
 51
270.0
  0
LINE
  5
1724A
  8
AM_0
 10
-278.40130977456857
 20
274.72778598655162
 30
0.0
 11
-278.40130977456857
 21
275.88867598655179
 31
0.0
  0
ARC
  5
1724B
  8
AM_0
 10
-276.40130977456869
 20
277.34106598655171
 30
0.0
 40
1.0
 50
270.0
 51
0.0
  0
LINE
  5
1724C
  8
AM_0
 10
-276.40130977456857
 20
276.34105598655168
 30
0.0
 11
-279.40130977456857
 21
276.34105598655168
 31
0.0
  0
ARC
  5
1724D
  8
AM_0
 10
-279.4013097745688
 20
275.34107598655157
 30
0.0
 40
1.0
 50
90.000003000000945
 51
180.00001000000091
  0
ARC
  5
1724E
  8
AM_0
 10
-276.40130977456869
 20
273.34105598655168
 30
0.0
 40
1.0
 50
0.0
 51
90.000003000000945
  0
LINE
  5
1724F
  8
AM_0
 10
-276.40130977456857
 20
274.34106598655171
 30
0.0
 11
-279.40130977456857
 21
274.34106598655171
 31
0.0
  0
ARC
  5
17250
  8
AM_0
 10
-276.40130977456857
 20
234.83942698655159
 30
0.0
 40
1.0
 50
270.0
 51
0.0
  0
ARC
  5
17251
  8
AM_0
 10
-279.40130977456857
 20
234.4657089865517
 30
0.0
 40
1.0
 50
179.999989999999
 51
239.03339999999821
  0
LINE
  5
17252
  8
AM_0
 10
-278.62096977456861
 20
233.9558669865518
 30
0.0
 11
-279.86956977456867
 21
234.6177319865516
 31
0.0
  0
LINE
  5
17253
  8
AM_0
 10
-282.39520625894357
 20
262.3492446974891
 30
0.0
 11
-281.89517574136551
 21
262.38925324241097
 31
0.0
  0
LINE
  5
17254
  8
AM_0
 10
-282.89517574136551
 20
265.11923371116097
 30
0.0
 11
-282.39517574136551
 21
262.3492446974891
 31
0.0
  0
ARC
  5
17255
  8
AM_0
 10
-276.40130977456869
 20
263.34107598655157
 30
0.0
 40
1.0
 50
0.0
 51
90.000003000000945
  0
LINE
  5
17256
  8
AM_0
 10
-278.40130977456857
 20
264.73395598655179
 30
0.0
 11
-278.40130977456857
 21
265.94531598655152
 31
0.0
  0
LINE
  5
17257
  8
AM_0
 10
-281.90124977456878
 20
260.34107598655157
 30
0.0
 11
-280.40130977456857
 21
260.20984598655173
 31
0.0
  0
ARC
  5
17258
  8
AM_0
 10
-279.4013097745688
 20
265.3410659865516
 30
0.0
 40
1.0
 50
90.000003000000945
 51
180.00001000000091
  0
LINE
  5
17259
  8
AM_0
 10
-281.90130977456857
 20
263.0590259865516
 30
0.0
 11
-280.40130977456857
 21
263.0590259865516
 31
0.0
  0
ARC
  5
1725A
  8
AM_0
 10
-279.4013097745688
 20
265.3410659865516
 30
0.0
 40
1.0
 50
179.999989999999
 51
270.0
  0
LINE
  5
1725B
  8
AM_0
 10
-281.90130977456857
 20
265.19103598655158
 30
0.0
 11
-278.60760977456869
 21
265.19103598655158
 31
0.0
  0
LINE
  5
1725C
  8
AM_0
 10
-276.40130977456857
 20
266.34107598655169
 30
0.0
 11
-279.40130977456857
 21
266.34107598655169
 31
0.0
  0
LINE
  5
1725D
  8
AM_0
 10
-276.40130977456857
 20
264.34105598655168
 30
0.0
 11
-279.40130977456857
 21
264.34105598655168
 31
0.0
  0
ARC
  5
1725E
  8
AM_0
 10
-276.40130977456869
 20
253.3410659865516
 30
0.0
 40
1.0
 50
0.0
 51
90.000003000000945
  0
ARC
  5
1725F
  8
AM_0
 10
-276.40130977456869
 20
257.34107598655157
 30
0.0
 40
1.0
 50
270.0
 51
0.0
  0
LINE
  5
17260
  8
AM_0
 10
-278.40130977456857
 20
254.7148359865518
 30
0.0
 11
-278.40130977456857
 21
256.07769598655148
 31
0.0
  0
ARC
  5
17261
  8
AM_0
 10
-279.4013097745688
 20
255.34105598655171
 30
0.0
 40
1.0
 50
179.999989999999
 51
270.0
  0
ARC
  5
17262
  8
AM_0
 10
-279.4013097745688
 20
255.34105598655171
 30
0.0
 40
1.0
 50
90.000003000000945
 51
180.00001000000091
  0
LINE
  5
17263
  8
AM_0
 10
-276.40130977456857
 20
254.3410759865516
 30
0.0
 11
-279.40130977456857
 21
254.3410759865516
 31
0.0
  0
LINE
  5
17264
  8
AM_0
 10
-276.40130977456857
 20
256.34106598655171
 30
0.0
 11
-279.40130977456857
 21
256.34106598655171
 31
0.0
  0
ARC
  5
17265
  8
AM_0
 10
-276.40130977456857
 20
247.59789598655169
 30
0.0
 40
1.0
 50
270.0
 51
0.0
  0
LINE
  5
17266
  8
AM_0
 10
-278.19665977456867
 20
244.65179698655169
 30
0.0
 11
-276.10131977456871
 21
244.65179698655169
 31
0.0
  0
ARC
  5
17267
  8
AM_0
 10
-278.25097977456869
 20
247.59789598655169
 30
0.0
 40
1.0
 50
252.9023700000009
 51
270.0
  0
LINE
  5
17268
  8
AM_0
 10
-278.25097977456869
 20
246.59791098655151
 30
0.0
 11
-276.40130977456857
 21
246.59791098655151
 31
0.0
  0
LINE
  5
17269
  8
AM_0
 10
-278.40130977456857
 20
244.9481759865516
 30
0.0
 11
-278.40130977456857
 21
246.00812798655161
 31
0.0
  0
ARC
  5
1726A
  8
AM_0
 10
-278.19665977456862
 20
245.6518049865517
 30
0.0
 40
1.0
 50
246.8729700000016
 51
270.0
  0
ARC
  5
1726B
  8
AM_0
 10
-279.40130977456857
 20
246.1663309865516
 30
0.0
 40
1.0
 50
179.999989999999
 51
246.872980000002
  0
ARC
  5
1726C
  8
AM_0
 10
-279.40130977456857
 20
247.95179298655171
 30
0.0
 40
1.0
 50
179.999989999999
 51
252.9023700000009
  0
LINE
  5
1726D
  8
AM_0
 10
-278.58941977456868
 20
244.7321649865516
 30
0.0
 11
-279.79412977456872
 21
245.24667698655179
 31
0.0
  0
LINE
  5
1726E
  8
AM_0
 10
-278.54498977456882
 20
246.64213098655179
 30
0.0
 11
-279.69537977456878
 21
246.99598198655161
 31
0.0
  0
ARC
  5
1726F
  8
AM_0
 10
-276.10131977456871
 20
243.95185398655161
 30
0.0
 40
0.6999999900000002
 50
0.0
 51
90.000003000000945
  0
ARC
  5
17270
  8
AM_0
 10
-276.40130977456857
 20
239.35613498655169
 30
0.0
 40
1.0
 50
270.0
 51
0.0
  0
LINE
  5
17271
  8
AM_0
 10
-278.10265977456868
 20
237.21613598655171
 30
0.0
 11
-275.40130977456857
 21
237.21613598655171
 31
0.0
  0
ARC
  5
17272
  8
AM_0
 10
-279.40130977456857
 20
235.5012849865515
 30
0.0
 40
1.0
 50
179.999989999999
 51
242.07341000000139
  0
LINE
  5
17273
  8
AM_0
 10
-278.13000977456869
 20
238.35615098655171
 30
0.0
 11
-276.40130977456857
 21
238.35615098655171
 31
0.0
  0
LINE
  5
17274
  8
AM_0
 10
-278.40130977456857
 20
237.51061498655159
 30
0.0
 11
-278.40130977456857
 21
237.98272998655159
 31
0.0
  0
ARC
  5
17275
  8
AM_0
 10
-278.13000977456858
 20
239.35613498655169
 30
0.0
 40
1.0
 50
239.6404999999981
 51
270.0
  0
ARC
  5
17276
  8
AM_0
 10
-278.10265977456868
 20
238.2161209865516
 30
0.0
 40
1.0
 50
236.7452700000018
 51
270.0
  0
ARC
  5
17277
  8
AM_0
 10
-279.40130977456857
 20
239.0676989865517
 30
0.0
 40
1.0
 50
179.999989999999
 51
236.74528000000149
  0
LINE
  5
17278
  8
AM_0
 10
-279.90673977456879
 20
239.2379559865517
 30
0.0
 11
-279.9302997745686
 21
239.25178098655161
 31
0.0
  0
ARC
  5
17279
  8
AM_0
 10
-279.40130977456857
 20
240.10082498655169
 30
0.0
 40
1.0
 50
179.999989999999
 51
239.64048999999781
  0
ARC
  5
1727A
  8
AM_0
 10
-279.40130977456857
 20
240.10082498655169
 30
0.0
 40
1.0
 50
179.999989999999
 51
239.64048999999781
  0
LINE
  5
1727B
  8
AM_0
 10
-278.63537977456878
 20
238.4932359865515
 30
0.0
 11
-279.90673977456879
 21
239.23791798655151
 31
0.0
  0
LINE
  5
1727C
  8
AM_0
 10
-278.65105977456881
 20
237.37990098655149
 30
0.0
 11
-279.94970977456882
 21
238.23146398655169
 31
0.0
  0
ARC
  5
1727D
  8
AM_0
 10
-276.40130977456857
 20
239.35613498655169
 30
0.0
 40
1.0
 50
334.6367599999997
 51
0.0
  0
LINE
  5
1727E
  8
AM_0
 10
-278.13311977456863
 20
230.5916779865515
 30
0.0
 11
-275.90130977456857
 21
230.5916779865515
 31
0.0
  0
LINE
  5
1727F
  8
AM_0
 10
-278.1620497745688
 20
231.7379869865517
 30
0.0
 11
-275.90130977456857
 21
231.7379869865517
 31
0.0
  0
LINE
  5
17280
  8
AM_0
 10
-278.12426977456869
 20
232.69940498655151
 30
0.0
 11
-275.40130977456857
 21
232.69940498655151
 31
0.0
  0
ARC
  5
17281
  8
AM_0
 10
-278.13311977456863
 20
231.5916849865516
 30
0.0
 40
1.0
 50
239.9736000000008
 51
270.0
  0
LINE
  5
17282
  8
AM_0
 10
-278.15264977456872
 20
233.83941898655161
 30
0.0
 11
-276.40130977456857
 21
233.83941898655161
 31
0.0
  0
LINE
  5
17283
  8
AM_0
 10
-278.40130977456857
 20
232.9445139865515
 30
0.0
 11
-278.40130977456857
 21
233.49053498655161
 31
0.0
  0
ARC
  5
17284
  8
AM_0
 10
-278.15264977456872
 20
234.83942698655159
 30
0.0
 40
1.0
 50
242.0734000000019
 51
270.0
  0
ARC
  5
17285
  8
AM_0
 10
-278.12426977456869
 20
233.69941198655161
 30
0.0
 40
1.0
 50
239.03339999999821
 51
270.0
  0
ARC
  5
17286
  8
AM_0
 10
-278.16204977456869
 20
232.73797098655169
 30
0.0
 40
1.0
 50
243.08874000000111
 51
270.0
  0
LINE
  5
17287
  8
AM_0
 10
-278.40130977456857
 20
230.84491298655161
 30
0.0
 11
-278.40130977456857
 21
231.37067698655159
 31
0.0
  0
ARC
  5
17288
  8
AM_0
 10
-279.40130977456857
 20
233.3670069865515
 30
0.0
 40
1.0
 50
179.999989999999
 51
243.08874999999929
  0
ARC
  5
17289
  8
AM_0
 10
-279.40130977456857
 20
232.32465698655179
 30
0.0
 40
1.0
 50
179.999989999999
 51
239.97360999999799
  0
LINE
  5
1728A
  8
AM_0
 10
-278.63354977456868
 20
230.7259089865515
 30
0.0
 11
-279.90173977456868
 21
231.45888798655179
 31
0.0
  0
LINE
  5
1728B
  8
AM_0
 10
-278.61468977456877
 20
231.8463319865518
 30
0.0
 11
-279.85394977456878
 21
232.47535998655161
 31
0.0
  0
LINE
  5
1728C
  8
AM_0
 10
-278.63885977456869
 20
232.84197498655149
 30
0.0
 11
-279.91576977456879
 21
233.60821798655161
 31
0.0
  0
LINE
  5
1728D
  8
AM_0
 10
-275.40130977456857
 20
230.34107498655149
 30
0.0
 11
-274.40130977456857
 21
230.34107498655149
 31
0.0
  0
ARC
  5
1728E
  8
AM_0
 10
-275.90130977456857
 20
230.0916849865516
 30
0.0
 40
0.5
 50
0.0
 51
90.000003000000945
  0
ARC
  5
1728F
  8
AM_0
 10
-275.90130977456857
 20
232.2379789865517
 30
0.0
 40
0.5
 50
270.0
 51
0.0
  0
LINE
  5
17290
  8
AM_0
 10
-165.06128866182789
 20
316.34108292836538
 30
0.0
 11
-264.04132866182488
 21
316.3410584933294
 31
0.0
  0
LINE
  5
17291
  8
AM_0
 10
-165.06128816809121
 20
314.34108292836572
 30
0.0
 11
-264.04132816808823
 21
314.34105849332963
 31
0.0
  0
LINE
  5
17292
  8
AM_0
 10
-165.06848569940809
 20
304.34108292658851
 30
0.0
 11
-264.04132569940498
 21
304.3410584933298
 31
0.0
  0
LINE
  5
17293
  8
AM_0
 10
-264.72132883956272
 20
317.06102832545912
 30
0.0
 11
-161.58130883956579
 21
317.06105378746241
 31
0.0
  0
LINE
  5
17294
  8
AM_0
 10
-264.94129559079772
 20
303.90111827115578
 30
0.0
 11
-161.36707559080091
 21
303.90114384034922
 31
0.0
  0
LINE
  5
17295
  8
AM_0
 10
-264.94129631410459
 20
306.83104827115579
 30
0.0
 11
-161.3556563141079
 21
306.8310738431685
 31
0.0
  0
LINE
  5
17296
  8
AM_0
 10
-165.05414619314459
 20
306.34108293012849
 30
0.0
 11
-264.04132619314157
 21
306.3410584933298
 31
0.0
  0
LINE
  5
17297
  8
AM_0
 10
-264.72132801255867
 20
313.71104832545922
 30
0.0
 11
-161.58130801256189
 21
313.71107378746223
 31
0.0
  0
LINE
  5
17298
  8
AM_0
 10
-265.07129380838381
 20
296.68101823906312
 30
0.0
 11
-161.07271585198649
 21
296.68104391301711
 31
0.0
  0
LINE
  5
17299
  8
AM_0
 10
-265.07129315173631
 20
294.02110823906332
 30
0.0
 11
-161.224240693746
 21
294.02113387561019
 31
0.0
  0
LINE
  5
1729A
  8
AM_0
 10
-265.13129132243478
 20
286.61107822425151
 30
0.0
 11
-161.01519206893099
 21
286.6111039272177
 31
0.0
  0
LINE
  5
1729B
  8
AM_0
 10
-265.13129069785037
 20
284.0810482242515
 30
0.0
 11
-161.17847872184419
 21
284.0810738869074
 31
0.0
  0
LINE
  5
1729C
  8
AM_0
 10
-165.05794446863041
 20
284.34108292919012
 30
0.0
 11
-264.04132076203871
 21
284.34105849333048
 31
0.0
  0
LINE
  5
1729D
  8
AM_0
 10
-165.057944962367
 20
286.34108292919012
 30
0.0
 11
-264.0413212557753
 21
286.34105849333048
 31
0.0
  0
LINE
  5
1729E
  8
AM_0
 10
-165.0579469373173
 20
294.34108292918972
 30
0.0
 11
-264.04132323072179
 21
294.34105849333031
 31
0.0
  0
LINE
  5
1729F
  8
AM_0
 10
-165.05794743102899
 20
296.34108292918972
 30
0.0
 11
-264.04132372445849
 21
296.34105849333008
 31
0.0
  0
LINE
  5
172A0
  8
AM_0
 10
-165.05794348113619
 20
264.3410845725021
 30
0.0
 11
-264.04131977456859
 21
264.3410845725021
 31
0.0
  0
LINE
  5
172A1
  8
AM_0
 10
-165.057943481161
 20
266.3410845725021
 30
0.0
 11
-264.04131977456859
 21
266.3410845725021
 31
0.0
  0
LINE
  5
172A2
  8
AM_0
 10
-165.05794348115739
 20
274.3410845725021
 30
0.0
 11
-264.04131977456859
 21
274.3410845725021
 31
0.0
  0
LINE
  5
172A3
  8
AM_0
 10
-165.05794348115739
 20
276.3410845725021
 30
0.0
 11
-264.04131977456859
 21
276.3410845725021
 31
0.0
  0
LINE
  5
172A4
  8
AM_0
 10
-265.1312897745687
 20
276.60109457250218
 30
0.0
 11
-161.1784777985593
 21
276.60109457250218
 31
0.0
  0
LINE
  5
172A5
  8
AM_0
 10
-265.1312897745687
 20
274.07106457250228
 30
0.0
 11
-161.0151905210617
 21
274.07106457250228
 31
0.0
  0
LINE
  5
172A6
  8
AM_0
 10
-265.0712897745687
 20
266.66103457250227
 30
0.0
 11
-161.22423731657531
 21
266.66103457250227
 31
0.0
  0
LINE
  5
172A7
  8
AM_0
 10
-265.0712897745687
 20
264.00112457250219
 30
0.0
 11
-161.07271181816799
 21
264.00112457250219
 31
0.0
  0
LINE
  5
172A8
  8
AM_0
 10
-264.72131977456871
 20
246.9710945725023
 30
0.0
 11
-161.58129977456869
 21
246.9710945725023
 31
0.0
  0
LINE
  5
172A9
  8
AM_0
 10
-165.0541397745686
 20
254.34108457250201
 30
0.0
 11
-264.04131977456859
 21
254.34108457250201
 31
0.0
  0
LINE
  5
172AA
  8
AM_0
 10
-264.9412897745687
 20
253.85109457250201
 30
0.0
 11
-161.3556497745686
 21
253.85109457250201
 31
0.0
  0
LINE
  5
172AB
  8
AM_0
 10
-264.9412897745687
 20
256.78102457250219
 30
0.0
 11
-161.36706977456859
 21
256.78102457250219
 31
0.0
  0
LINE
  5
172AC
  8
AM_0
 10
-264.72131977456871
 20
243.62111457250191
 30
0.0
 11
-161.58129977456869
 21
243.62111457250191
 31
0.0
  0
LINE
  5
172AD
  8
AM_0
 10
-165.06847977456869
 20
256.34108457250198
 30
0.0
 11
-264.04131977456859
 21
256.34108457250198
 31
0.0
  0
LINE
  5
172AE
  8
AM_0
 10
-165.0612797745687
 20
246.34108457250201
 30
0.0
 11
-264.04131977456859
 21
246.34108457250201
 31
0.0
  0
LINE
  5
172AF
  8
AM_0
 10
-165.0612797745687
 20
244.34108457250201
 30
0.0
 11
-264.04131977456859
 21
244.34108457250201
 31
0.0
  0
LINE
  5
172B0
  8
AM_0
 10
-240.90127977456871
 20
318.56604266294238
 30
0.0
 11
-161.1464416629768
 21
318.5660426629421
 31
0.0
  0
LINE
  5
172B1
  8
AM_0
 10
-240.90127977456871
 20
242.11605766294221
 30
0.0
 11
-161.14656318837919
 21
242.11605766294221
 31
0.0
  0
LINE
  5
172B2
  8
AM_0
 10
-263.2012697745688
 20
224.0560456629423
 30
0.0
 11
-166.28130977456871
 21
224.0560456629423
 31
0.0
  0
POLYLINE
  5
172B3
  8
AM_0
 66
     1
 10
0.0
 20
0.0
 30
0.0
  0
VERTEX
  5
172B4
  8
AM_0
 10
-263.99725977456859
 20
274.07070457250211
 30
0.0
 42
0.00076691992
  0
VERTEX
  5
172B5
  8
AM_0
 10
-263.98245977456872
 20
273.45293457250222
 30
0.0
 42
0.00073262792
  0
VERTEX
  5
172B6
  8
AM_0
 10
-263.96581977456867
 20
272.83534457250192
 30
0.0
 42
0.00076529537
  0
VERTEX
  5
172B7
  8
AM_0
 10
-263.94732977456869
 20
272.2176745725024
 30
0.0
 42
0.00075141097
  0
VERTEX
  5
172B8
  8
AM_0
 10
-263.9269597745689
 20
271.60007457250219
 30
0.0
 42
0.00075841687
  0
VERTEX
  5
172B9
  8
AM_0
 10
-263.90472977456869
 20
270.98264457250201
 30
0.0
 42
0.00075711788
  0
VERTEX
  5
172BA
  8
AM_0
 10
-263.88061977456869
 20
270.36513457250197
 30
0.0
 42
0.00075976003
  0
VERTEX
  5
172BB
  8
AM_0
 10
-263.85462977456882
 20
269.74774457250209
 30
0.0
 42
0.00075797311
  0
VERTEX
  5
172BC
  8
AM_0
 10
-263.82678977456862
 20
269.13046457250221
 30
0.0
 42
0.0007482613
  0
VERTEX
  5
172BD
  8
AM_0
 10
-263.7970597745686
 20
268.51308457250201
 30
0.0
 42
0.00074893561
  0
VERTEX
  5
172BE
  8
AM_0
 10
-263.76549977456881
 20
267.89595457250192
 30
0.0
 42
0.00076039839
  0
VERTEX
  5
172BF
  8
AM_0
 10
-263.73207977456877
 20
267.27892457250198
 30
0.0
 42
0.00075618786
  0
VERTEX
  5
172C0
  8
AM_0
 10
-263.69677977456882
 20
266.66188457250189
 30
0.0
  0
SEQEND
  5
172C1
  8
AM_0
  0
LINE
  5
172C2
  8
ﾁｭｳｼﾝｾﾝ1
 10
-209.40127977456871
 20
320.96607947763891
 30
0.0
 11
-209.40127977456871
 21
239.71607647763901
 31
0.0
  0
LINE
  5
172C3
  8
ｶｸﾚｾﾝ2
 10
-257.90127977456882
 20
308.84108821278818
 30
0.0
 11
-257.90127977456859
 21
251.84108821278821
 31
0.0
  0
LINE
  5
172C4
  8
ｶｸﾚｾﾝ2
 10
-177.90127977456871
 20
251.84108821278821
 30
0.0
 11
-177.90127977456891
 21
308.84108821278818
 31
0.0
  0
LINE
  5
172C5
  8
ｶｸﾚｾﾝ2
 10
-180.90127977456891
 20
311.84108821278818
 30
0.0
 11
-254.90127977456879
 21
311.84108821278818
 31
0.0
  0
POLYLINE
  5
172C6
  8
AM_0
 66
     1
 10
0.0
 20
0.0
 30
0.0
  0
VERTEX
  5
172C7
  8
AM_0
 10
-263.52307380853449
 20
296.68162862126968
 30
0.0
 42
-0.0007337051
  0
VERTEX
  5
172C8
  8
AM_0
 10
-263.47893395725288
 20
297.2840486321665
 30
0.0
 42
-0.00075211323
  0
VERTEX
  5
172C9
  8
AM_0
 10
-263.43299410596399
 20
297.88643864350752
 30
0.0
 42
-0.0007297491
  0
VERTEX
  5
172CA
  8
AM_0
 10
-263.38526425462811
 20
298.48863865529069
 30
0.0
 42
-0.00073593041
  0
VERTEX
  5
172CB
  8
AM_0
 10
-263.33578440324032
 20
299.09062866750531
 30
0.0
 42
-0.00074742739
  0
VERTEX
  5
172CC
  8
AM_0
 10
-263.28451455182289
 20
299.69249868016232
 30
0.0
 42
-0.00073217363
  0
VERTEX
  5
172CD
  8
AM_0
 10
-263.23145470038833
 20
300.29429869326123
 30
0.0
 42
-0.00073754168
  0
VERTEX
  5
172CE
  8
AM_0
 10
-263.17663484888948
 20
300.89583870679451
 30
0.0
 42
-0.00073075073
  0
VERTEX
  5
172CF
  8
AM_0
 10
-263.12005499734619
 20
301.49719872076219
 30
0.0
 42
-0.00074550816
  0
VERTEX
  5
172D0
  8
AM_0
 10
-263.06171514572901
 20
302.09825873516451
 30
0.0
 42
-0.00074288416
  0
VERTEX
  5
172D1
  8
AM_0
 10
-263.00156529410168
 20
302.69927875001389
 30
0.0
 42
-0.00072504001
  0
VERTEX
  5
172D2
  8
AM_0
 10
-262.93965544240791
 20
303.30002876529733
 30
0.0
 42
-0.00074640667
  0
VERTEX
  5
172D3
  8
AM_0
 10
-262.87598559067692
 20
303.9006287810152
 30
0.0
  0
SEQEND
  5
172D4
  8
AM_0
  0
LINE
  5
172D5
  8
AM_0
 10
-240.90133977456861
 20
318.56605266294241
 30
0.0
 11
-261.0787697745688
 21
317.0660526629423
 31
0.0
  0
ARC
  5
172D6
  8
AM_0
 10
-264.72870842607563
 20
315.38609832363721
 30
0.0
 40
1.6750160000000001
 50
89.746159144514777
 51
270.25388414451447
  0
ARC
  5
172D7
  8
AM_0
 10
-263.85669841495661
 20
315.34105853890873
 30
0.0
 40
1.0000138999999999
 50
89.691674144513684
 51
270.30835414451508
  0
LINE
  5
172D8
  8
AM_0
 10
-261.0763925582566
 20
317.06102922527828
 30
0.0
 11
-266.40127977456859
 21
328.4360526629423
 31
0.0
  0
ARC
  5
172D9
  8
ｶｸﾚｾﾝ2
 10
-254.90127977456891
 20
308.84108821278818
 30
0.0
 40
3.0
 50
90.000000000000057
 51
180.0
  0
POLYLINE
  5
172DA
  8
AM_0
 66
     1
 10
0.0
 20
0.0
 30
0.0
  0
VERTEX
  5
172DB
  8
AM_0
 10
-262.54041631238658
 20
306.82408886385701
 30
0.0
 42
-0.00068898288
  0
VERTEX
  5
172DC
  8
AM_0
 10
-262.46953645427431
 20
307.398838881355
 30
0.0
 42
-0.00070644354
  0
VERTEX
  5
172DD
  8
AM_0
 10
-262.3970365961469
 20
307.97352889925281
 30
0.0
 42
-0.00069248071
  0
VERTEX
  5
172DE
  8
AM_0
 10
-262.32294673792592
 20
308.54783891754317
 30
0.0
 42
-0.00069585665
  0
VERTEX
  5
172DF
  8
AM_0
 10
-262.2472668796629
 20
309.12197893622618
 30
0.0
 42
-0.00068980191
  0
VERTEX
  5
172E0
  8
AM_0
 10
-262.16996702136532
 20
309.69597895530927
 30
0.0
 42
-0.00072080104
  0
VERTEX
  5
172E1
  8
AM_0
 10
-262.09107716301583
 20
310.2697689747846
 30
0.0
 42
-0.00071002307
  0
VERTEX
  5
172E2
  8
AM_0
 10
-262.01053730458739
 20
310.84323899466727
 30
0.0
 42
-0.00072659056
  0
VERTEX
  5
172E3
  8
AM_0
 10
-261.92837744606771
 20
311.41633901495021
 30
0.0
 42
-0.00069570481
  0
VERTEX
  5
172E4
  8
AM_0
 10
-261.84455758753057
 20
311.98936903564248
 30
0.0
 42
-0.00071266935
  0
VERTEX
  5
172E5
  8
AM_0
 10
-261.75912772892929
 20
312.56213905673252
 30
0.0
 42
-0.00071614426
  0
VERTEX
  5
172E6
  8
AM_0
 10
-261.67209787022199
 20
313.13447907821723
 30
0.0
 42
-0.00072288975
  0
VERTEX
  5
172E7
  8
AM_0
 10
-261.58338801150478
 20
313.70677910011722
 30
0.0
  0
SEQEND
  5
172E8
  8
AM_0
  0
ARC
  5
172E9
  8
AM_0
 10
-263.85669594627348
 20
305.34105853890918
 30
0.0
 40
1.0000138999999999
 50
89.691674144513684
 51
270.30835414451508
  0
ARC
  5
172EA
  8
AM_0
 10
-264.94129595244999
 20
305.3660782711558
 30
0.0
 40
1.465004
 50
90.000017144515695
 51
270.00001414451481
  0
POLYLINE
  5
172EB
  8
AM_0
 66
     1
 10
0.0
 20
0.0
 30
0.0
  0
VERTEX
  5
172EC
  8
AM_0
 10
-264.04131977456541
 20
280.34105849333082
 30
0.0
 42
-0.00039106649
  0
VERTEX
  5
172ED
  8
AM_0
 10
-264.04367985137372
 20
280.65218849274811
 30
0.0
 42
-0.00035488198
  0
VERTEX
  5
172EE
  8
AM_0
 10
-264.04556992817692
 20
280.96329849228141
 30
0.0
 42
-0.00039706113
  0
VERTEX
  5
172EF
  8
AM_0
 10
-264.04700000498008
 20
281.2744084919284
 30
0.0
 42
-0.00038765718
  0
VERTEX
  5
172F0
  8
AM_0
 10
-264.0479300817907
 20
281.58554849169872
 30
0.0
 42
-0.00040613432
  0
VERTEX
  5
172F1
  8
AM_0
 10
-264.0483801585915
 20
281.8966484915876
 30
0.0
 42
-0.00035573434
  0
VERTEX
  5
172F2
  8
AM_0
 10
-264.04834023539462
 20
282.20775849159747
 30
0.0
 42
-0.00038545884
  0
VERTEX
  5
172F3
  8
AM_0
 10
-264.04785031220268
 20
282.51888849171831
 30
0.0
 42
-0.00035501205
  0
VERTEX
  5
172F4
  8
AM_0
 10
-264.04689038900591
 20
282.82999849195528
 30
0.0
 42
-0.00040120779
  0
VERTEX
  5
172F5
  8
AM_0
 10
-264.04547046583878
 20
283.14122849230591
 30
0.0
 42
-0.00038317817
  0
VERTEX
  5
172F6
  8
AM_0
 10
-264.0435605426469
 20
283.45235849277742
 30
0.0
 42
-0.00035656084
  0
VERTEX
  5
172F7
  8
AM_0
 10
-264.0411806194823
 20
283.7635984933649
 30
0.0
 42
-0.00040143615
  0
VERTEX
  5
172F8
  8
AM_0
 10
-264.0383306962828
 20
284.07469849406851
 30
0.0
  0
SEQEND
  5
172F9
  8
AM_0
  0
POLYLINE
  5
172FA
  8
AM_0
 66
     1
 10
0.0
 20
0.0
 30
0.0
  0
VERTEX
  5
172FB
  8
AM_0
 10
-263.99726132252363
 20
286.61143850420729
 30
0.0
 42
-0.00076691992
  0
VERTEX
  5
172FC
  8
AM_0
 10
-263.98246147503158
 20
287.22920850786119
 30
0.0
 42
-0.00073262792
  0
VERTEX
  5
172FD
  8
AM_0
 10
-263.96582162749502
 20
287.8467985119691
 30
0.0
 42
-0.00076529537
  0
VERTEX
  5
172FE
  8
AM_0
 10
-263.94733177997819
 20
288.46446851653349
 30
0.0
 42
-0.00075141097
  0
VERTEX
  5
172FF
  8
AM_0
 10
-263.92696193244399
 20
289.08206852156212
 30
0.0
 42
-0.00075841687
  0
VERTEX
  5
17300
  8
AM_0
 10
-263.90473208486787
 20
289.69949852705003
 30
0.0
 42
-0.00075711788
  0
VERTEX
  5
17301
  8
AM_0
 10
-263.88062223731151
 20
290.31700853300202
 30
0.0
 42
-0.00075976003
  0
VERTEX
  5
17302
  8
AM_0
 10
-263.85463238972551
 20
290.93439853941788
 30
0.0
 42
-0.00075797311
  0
VERTEX
  5
17303
  8
AM_0
 10
-263.8267925421124
 20
291.55167854629087
 30
0.0
 42
-0.0007482613
  0
VERTEX
  5
17304
  8
AM_0
 10
-263.7970626945239
 20
292.16905855363018
 30
0.0
 42
-0.00074893561
  0
VERTEX
  5
17305
  8
AM_0
 10
-263.76550284687391
 20
292.78618856142151
 30
0.0
 42
-0.00076039839
  0
VERTEX
  5
17306
  8
AM_0
 10
-263.73208299919901
 20
293.40321856967159
 30
0.0
 42
-0.00075618786
  0
VERTEX
  5
17307
  8
AM_0
 10
-263.69678315152657
 20
294.02025857838629
 30
0.0
  0
SEQEND
  5
17308
  8
AM_0
  0
ARC
  5
17309
  8
AM_0
 10
-263.85669347759011
 20
295.34105853890929
 30
0.0
 40
1.0000138999999999
 50
89.691674144513684
 51
270.30835414451508
  0
ARC
  5
1730A
  8
AM_0
 10
-265.0712934800614
 20
295.35106823906312
 30
0.0
 40
1.3300049999999981
 50
90.000017144515695
 51
270.00001414451481
  0
ARC
  5
1730B
  8
AM_0
 10
-265.13715101014151
 20
285.3460582228048
 30
0.0
 40
1.2650129999999991
 50
89.735593144510801
 51
270.26442414451151
  0
ARC
  5
1730C
  8
AM_0
 10
-263.85669100890709
 20
285.34105853890969
 30
0.0
 40
1.0000138999999999
 50
89.691674144513684
 51
270.30835414451508
  0
ARC
  5
1730D
  8
AM_0
 10
-263.85668977456862
 20
275.34108457250198
 30
0.0
 40
1.0000138999999999
 50
89.691659999999274
 51
270.30834000000073
  0
ARC
  5
1730E
  8
AM_0
 10
-265.1371497745688
 20
275.33608457250227
 30
0.0
 40
1.2650129999999991
 50
89.735590000000784
 51
270.26442100000139
  0
POLYLINE
  5
1730F
  8
AM_0
 66
     1
 10
0.0
 20
0.0
 30
0.0
  0
VERTEX
  5
17310
  8
AM_0
 10
-264.04131977456859
 20
280.34108457250198
 30
0.0
 42
0.00039106649
  0
VERTEX
  5
17311
  8
AM_0
 10
-264.04367977456877
 20
280.02995457250188
 30
0.0
 42
0.00035488198
  0
VERTEX
  5
17312
  8
AM_0
 10
-264.04556977456889
 20
279.71884457250229
 30
0.0
 42
0.00039706113
  0
VERTEX
  5
17313
  8
AM_0
 10
-264.0469997745688
 20
279.40773457250219
 30
0.0
 42
0.00038765718
  0
VERTEX
  5
17314
  8
AM_0
 10
-264.04792977456867
 20
279.09659457250189
 30
0.0
 42
0.00040613432
  0
VERTEX
  5
17315
  8
AM_0
 10
-264.04837977456867
 20
278.78549457250199
 30
0.0
 42
0.00035573434
  0
VERTEX
  5
17316
  8
AM_0
 10
-264.0483397745686
 20
278.47438457250189
 30
0.0
 42
0.00038545884
  0
VERTEX
  5
17317
  8
AM_0
 10
-264.04784977456859
 20
278.1632545725023
 30
0.0
 42
0.00035501205
  0
VERTEX
  5
17318
  8
AM_0
 10
-264.04688977456863
 20
277.85214457250231
 30
0.0
 42
0.00040120779
  0
VERTEX
  5
17319
  8
AM_0
 10
-264.0454697745688
 20
277.540914572502
 30
0.0
 42
0.00038317817
  0
VERTEX
  5
1731A
  8
AM_0
 10
-264.04355977456862
 20
277.22978457250201
 30
0.0
 42
0.00035656084
  0
VERTEX
  5
1731B
  8
AM_0
 10
-264.04117977456872
 20
276.91854457250201
 30
0.0
 42
0.00040143615
  0
VERTEX
  5
1731C
  8
AM_0
 10
-264.03832977456858
 20
276.60744457250212
 30
0.0
  0
SEQEND
  5
1731D
  8
AM_0
  0
ARC
  5
1731E
  8
ｶｸﾚｾﾝ2
 10
-180.90127977456879
 20
308.84108821278818
 30
0.0
 40
3.0
 50
0.0
 51
90.000000000000057
  0
LINE
  5
1731F
  8
ｶｸﾚｾﾝ2
 10
-180.90127977456871
 20
248.84108821278821
 30
0.0
 11
-254.90127977456871
 21
248.84108821278821
 31
0.0
  0
LINE
  5
17320
  8
AM_0
 10
-261.07173243528501
 20
243.62111457250191
 30
0.0
 11
-266.40133977456873
 21
232.24607766294221
 31
0.0
  0
LINE
  5
17321
  8
AM_0
 10
-240.90127977456871
 20
242.11605766294221
 30
0.0
 11
-261.0741297745688
 21
243.61605766294221
 31
0.0
  0
ARC
  5
17322
  8
ｶｸﾚｾﾝ2
 10
-254.90127977456891
 20
251.84108821278821
 30
0.0
 40
3.0
 50
180.0
 51
270.0
  0
POLYLINE
  5
17323
  8
AM_0
 66
     1
 10
0.0
 20
0.0
 30
0.0
  0
VERTEX
  5
17324
  8
AM_0
 10
-262.54040977456862
 20
253.85805457250211
 30
0.0
 42
0.00068898288
  0
VERTEX
  5
17325
  8
AM_0
 10
-262.4695297745688
 20
253.28330457250229
 30
0.0
 42
0.00070644354
  0
VERTEX
  5
17326
  8
AM_0
 10
-262.39702977456858
 20
252.708614572502
 30
0.0
 42
0.00069248071
  0
VERTEX
  5
17327
  8
AM_0
 10
-262.32293977456891
 20
252.134304572502
 30
0.0
 42
0.00069585665
  0
VERTEX
  5
17328
  8
AM_0
 10
-262.24725977456859
 20
251.56016457250229
 30
0.0
 42
0.00068980191
  0
VERTEX
  5
17329
  8
AM_0
 10
-262.16995977456872
 20
250.98616457250219
 30
0.0
 42
0.00072080104
  0
VERTEX
  5
1732A
  8
AM_0
 10
-262.09106977456872
 20
250.4123745725023
 30
0.0
 42
0.00071002307
  0
VERTEX
  5
1732B
  8
AM_0
 10
-262.01052977456891
 20
249.838904572502
 30
0.0
 42
0.00072659056
  0
VERTEX
  5
1732C
  8
AM_0
 10
-261.92836977456858
 20
249.26580457250199
 30
0.0
 42
0.00069570481
  0
VERTEX
  5
1732D
  8
AM_0
 10
-261.84454977456869
 20
248.692774572502
 30
0.0
 42
0.00071266935
  0
VERTEX
  5
1732E
  8
AM_0
 10
-261.7591197745686
 20
248.12000457250221
 30
0.0
 42
0.00071614426
  0
VERTEX
  5
1732F
  8
AM_0
 10
-261.67208977456869
 20
247.54766457250199
 30
0.0
 42
0.00072288975
  0
VERTEX
  5
17330
  8
AM_0
 10
-261.5833797745687
 20
246.9753645725022
 30
0.0
  0
SEQEND
  5
17331
  8
AM_0
  0
POLYLINE
  5
17332
  8
AM_0
 66
     1
 10
0.0
 20
0.0
 30
0.0
  0
VERTEX
  5
17333
  8
AM_0
 10
-263.52306977456868
 20
264.00051457250208
 30
0.0
 42
0.0007337051
  0
VERTEX
  5
17334
  8
AM_0
 10
-263.47892977456883
 20
263.39809457250198
 30
0.0
 42
0.00075211323
  0
VERTEX
  5
17335
  8
AM_0
 10
-263.43298977456891
 20
262.79570457250202
 30
0.0
 42
0.0007297491
  0
VERTEX
  5
17336
  8
AM_0
 10
-263.38525977456891
 20
262.19350457250221
 30
0.0
 42
0.00073593041
  0
VERTEX
  5
17337
  8
AM_0
 10
-263.33577977456872
 20
261.59151457250198
 30
0.0
 42
0.00074742739
  0
VERTEX
  5
17338
  8
AM_0
 10
-263.28450977456868
 20
260.98964457250207
 30
0.0
 42
0.00073217363
  0
VERTEX
  5
17339
  8
AM_0
 10
-263.23144977456877
 20
260.38784457250222
 30
0.0
 42
0.00073754168
  0
VERTEX
  5
1733A
  8
AM_0
 10
-263.17662977456871
 20
259.78630457250199
 30
0.0
 42
0.00073075073
  0
VERTEX
  5
1733B
  8
AM_0
 10
-263.12004977456871
 20
259.18494457250239
 30
0.0
 42
0.00074550816
  0
VERTEX
  5
1733C
  8
AM_0
 10
-263.06170977456873
 20
258.58388457250197
 30
0.0
 42
0.00074288416
  0
VERTEX
  5
1733D
  8
AM_0
 10
-263.00155977456859
 20
257.98286457250191
 30
0.0
 42
0.00072504001
  0
VERTEX
  5
1733E
  8
AM_0
 10
-262.93964977456881
 20
257.3821145725023
 30
0.0
 42
0.00074640667
  0
VERTEX
  5
1733F
  8
AM_0
 10
-262.8759797745688
 20
256.78151457250209
 30
0.0
  0
SEQEND
  5
17340
  8
AM_0
  0
ARC
  5
17341
  8
AM_0
 10
-263.85668977456862
 20
265.34108457250198
 30
0.0
 40
1.0000138999999999
 50
89.691659999999274
 51
270.30834000000073
  0
ARC
  5
17342
  8
AM_0
 10
-265.0712897745687
 20
265.33107457250202
 30
0.0
 40
1.3300049999999981
 50
90.000000000000057
 51
269.9999969999991
  0
ARC
  5
17343
  8
AM_0
 10
-263.85668977456862
 20
255.34108457250201
 30
0.0
 40
1.0000138999999999
 50
89.691659999999274
 51
270.30834000000073
  0
ARC
  5
17344
  8
AM_0
 10
-264.9412897745687
 20
255.31606457250189
 30
0.0
 40
1.465004
 50
90.000000000000057
 51
269.9999969999991
  0
ARC
  5
17345
  8
AM_0
 10
-263.85668977456851
 20
245.34108457250201
 30
0.0
 40
1.0000138999999999
 50
89.691659999999274
 51
270.30834000000073
  0
ARC
  5
17346
  8
AM_0
 10
-264.7286997745685
 20
245.29604457250201
 30
0.0
 40
1.6750160000000001
 50
89.74612999999907
 51
270.25385499999868
  0
LINE
  5
17347
  8
AM_0
 10
-263.11129977456881
 20
218.4460596629423
 30
0.0
 11
-229.40127977456871
 21
218.4460596629423
 31
0.0
  0
LINE
  5
17348
  8
AM_0
 10
-263.13125977456878
 20
219.36605066294209
 30
0.0
 11
-229.40127977456871
 21
219.36605066294209
 31
0.0
  0
LINE
  5
17349
  8
AM_0
 10
-263.15127977456871
 20
221.20605466294219
 30
0.0
 11
-229.40127977456871
 21
221.20605466294219
 31
0.0
  0
LINE
  5
1734A
  8
AM_0
 10
-266.40127977456859
 20
229.55607566294239
 30
0.0
 11
-265.09127977456882
 21
220.17607066294241
 31
0.0
  0
LINE
  5
1734B
  8
AM_0
 10
-266.40121977456869
 20
229.55605266294239
 30
0.0
 11
-265.11123977456867
 21
221.0560606629424
 31
0.0
  0
LINE
  5
1734C
  8
AM_0
 10
-266.40127977456859
 20
230.89604866294209
 30
0.0
 11
-265.12130977456877
 21
222.8960566629423
 31
0.0
  0
LINE
  5
1734D
  8
AM_0
 10
-266.40127977456859
 20
232.24603966294211
 30
0.0
 11
-265.16128977456867
 21
225.68604266294221
 31
0.0
  0
ARC
  5
1734E
  8
AM_0
 10
-263.19662977456858
 20
226.0550536629423
 30
0.0
 40
1.9990078999999989
 50
190.637409999997
 51
269.86654999999968
  0
ARC
  5
1734F
  8
AM_0
 10
-263.14529977456868
 20
223.20622966294241
 30
0.0
 40
2.0001840999999998
 50
188.92100000000249
 51
269.8285299999992
  0
ARC
  5
17350
  8
AM_0
 10
-263.13772977456858
 20
221.3633876629423
 30
0.0
 40
1.9973480999999991
 50
188.85146999999961
 51
270.18468000000092
  0
ARC
  5
17351
  8
AM_0
 10
-263.10915977456858
 20
220.44653266294239
 30
0.0
 40
2.0004758999999992
 50
187.77046000000081
 51
269.93968999999942
  0
LINE
  5
17352
  8
AM_0
 10
-227.40127977456871
 20
220.44605266294221
 30
0.0
 11
-227.40127977456871
 21
224.0560456629423
 31
0.0
  0
ARC
  5
17353
  8
AM_0
 10
-229.4084797745686
 20
223.2132336629424
 30
0.0
 40
2.0071799999999991
 50
270.204620000001
 51
359.7953800000023
  0
ARC
  5
17354
  8
AM_0
 10
-229.4045697745687
 20
221.3693386629424
 30
0.0
 40
2.003279899999999
 50
270.0937900000003
 51
359.90621000000277
  0
ARC
  5
17355
  8
AM_0
 10
-229.40926977456871
 20
220.45406266294231
 30
0.0
 40
2.0080360999999991
 50
270.22878999999938
 51
359.77121000000062
  0
ARC
  5
17356
  8
ｶｸﾚｾﾝ2
 10
-180.90127977456879
 20
251.84108821278821
 30
0.0
 40
3.0
 50
270.0
 51
0.0
  0
ARC
  5
17357
  8
AM_0
 10
-161.58132859383849
 20
315.38609978745671
 30
0.0
 40
1.675026000120903
 50
270.00070400118022
 51
89.999327287804704
  0
ARC
  5
17358
  8
AM_0
 10
-165.06128841495971
 20
315.34108292836572
 30
0.0
 40
1.0
 50
270.00000414451381
 51
90.000017144515695
  0
LINE
  5
17359
  8
AM_0
 10
-158.40127977456859
 20
326.34105266294222
 30
0.0
 11
-150.4013097745686
 21
326.34105266294222
 31
0.0
  0
ARC
  5
1735A
  8
AM_0
 10
-165.06134594627639
 20
305.34108292835111
 30
0.0
 40
1.0000255999999981
 50
269.58948414451299
 51
90.410545144514145
  0
ARC
  5
1735B
  8
AM_0
 10
-161.36133595369
 20
305.3711138417662
 30
0.0
 40
1.460011199999999
 50
269.77526414451268
 51
90.224764144512903
  0
LINE
  5
1735C
  8
AM_0
 10
-158.40127977456859
 20
312.28106266294219
 30
0.0
 11
-150.4013097745686
 21
312.28106266294219
 31
0.0
  0
ARC
  5
1735D
  8
AM_0
 10
-165.06132357759321
 20
295.34108292835629
 30
0.0
 40
1.000005699999998
 50
270.00000414451381
 51
90.000017144515695
  0
ARC
  5
1735E
  8
AM_0
 10
-161.23633708129881
 20
295.35609387262429
 30
0.0
 40
1.3350147999999999
 50
269.73044414451482
 51
90.269570144516337
  0
ARC
  5
1735F
  8
AM_0
 10
-165.06132110890999
 20
285.34108292835663
 30
0.0
 40
1.000005699999998
 50
270.00000414451381
 51
90.000017144515695
  0
ARC
  5
17360
  8
AM_0
 10
-161.1743846113813
 20
285.35109388791801
 30
0.0
 40
1.2700266
 50
269.6293341445143
 51
90.370684144515835
  0
ARC
  5
17361
  8
AM_0
 10
-165.0613198745686
 20
275.34108457250221
 30
0.0
 40
1.000005699999998
 50
269.9999969999991
 51
90.000010000001026
  0
ARC
  5
17362
  8
AM_0
 10
-161.17438337456869
 20
275.33107457250219
 30
0.0
 40
1.2700266
 50
269.62932999999862
 51
90.370680000000064
  0
LINE
  5
17363
  8
AM_0
 10
-161.56775454454541
 20
235.90705601596071
 30
0.0
 11
-164.3512897745687
 21
225.53606366294221
 31
0.0
  0
ARC
  5
17364
  8
AM_0
 10
-165.0613198745686
 20
265.34108457250221
 30
0.0
 40
1.000005699999998
 50
269.9999969999991
 51
90.000010000001026
  0
ARC
  5
17365
  8
AM_0
 10
-161.23633337456869
 20
265.32607457250242
 30
0.0
 40
1.3350147999999999
 50
269.73044399999861
 51
90.26957000000013
  0
ARC
  5
17366
  8
AM_0
 10
-165.06133977456869
 20
255.34108457250221
 30
0.0
 40
1.0000255999999981
 50
269.58946899999899
 51
90.410530000000051
  0
ARC
  5
17367
  8
AM_0
 10
-161.3613297745687
 20
255.31105457250229
 30
0.0
 40
1.460011199999999
 50
269.77524999999991
 51
90.224750000000114
  0
ARC
  5
17368
  8
AM_0
 10
-165.0612797745685
 20
245.34108457250221
 30
0.0
 40
1.0
 50
269.9999969999991
 51
90.000010000001026
  0
ARC
  5
17369
  8
AM_0
 10
-161.58131994233429
 20
245.29606857250289
 30
0.0
 40
1.675026000120903
 50
270.0006868567101
 51
89.999310143334597
  0
LINE
  5
1736A
  8
AM_0
 10
-158.40127977456859
 20
248.40106166294231
 30
0.0
 11
-150.4013097745686
 21
248.40106166294231
 31
0.0
  0
LINE
  5
1736B
  8
AM_0
 10
-158.40127977456859
 20
234.34105666294221
 30
0.0
 11
-150.4013097745686
 21
234.34105666294221
 31
0.0
  0
LINE
  5
1736C
  8
AM_0
 10
-163.86129977456869
 20
227.3360596629422
 30
0.0
 11
-158.40127977456859
 21
227.3360596629422
 31
0.0
  0
ARC
  5
1736D
  8
AM_0
 10
-166.2841497745687
 20
226.0581886629424
 30
0.0
 40
2.0021281000000002
 50
270.0815199999999
 51
344.88330000000519
  0
LINE
  5
1736E
  8
AM_0
 10
-158.40127977456859
 20
224.3410486629422
 30
0.0
 11
-150.4013097745686
 21
224.3410486629422
 31
0.0
  0
LINE
  5
1736F
  8
0
 10
-39.90526795408968
 20
431.32737586654667
 30
0.0
 11
-39.905267954089481
 21
471.32737586654628
 31
0.0
  0
LINE
  5
17370
  8
0
 10
-15.905267954089741
 20
431.32737586654667
 30
0.0
 11
-15.905267960102419
 21
471.32737586654628
 31
0.0
  0
LINE
  5
17371
  8
0
 10
-39.90526795408968
 20
431.32737590081979
 30
0.0
 11
-15.905267954089741
 21
431.32737586654667
 31
0.0
  0
LINE
  5
17372
  8
AM_0
 10
-7.905467309607431
 20
486.32737409691259
 30
0.0
 11
-47.905068501688319
 21
486.32737409691259
 31
0.0
  0
LINE
  5
17373
  8
AM_0
 10
-42.905267938821567
 20
471.32737586654628
 30
0.0
 11
-12.905267938821609
 21
471.32737586654628
 31
0.0
  0
LINE
  5
17374
  8
0
 10
-42.905267938821567
 20
471.32737586654628
 30
0.0
 11
-47.905068501688319
 21
486.32737409691259
 31
0.0
  0
LINE
  5
17375
  8
AM_0
 10
-47.905068501688319
 20
486.32737409691259
 30
0.0
 11
-47.905068501688319
 21
490.32737421612188
 31
0.0
  0
LINE
  5
17376
  8
0
 10
-12.905267938821609
 20
471.32737586654628
 30
0.0
 11
-7.905467309607431
 21
486.32737409691259
 31
0.0
  0
LINE
  5
17377
  8
0
 10
-23.905267924108038
 20
463.32737582205169
 30
0.0
 11
-31.905267924108038
 21
463.3273758208494
 31
0.0
  0
LINE
  5
17378
  8
AM_0
 10
-7.905467309607431
 20
486.32737409691259
 30
0.0
 11
-7.905467309607431
 21
490.32737421612188
 31
0.0
  0
LINE
  5
17379
  8
AM_0
 10
-23.905267924108021
 20
431.32737587797112
 30
0.0
 11
-23.905267924108038
 21
463.32737582205169
 31
0.0
  0
LINE
  5
1737A
  8
AM_0
 10
-31.90526792410807
 20
431.32737588939551
 30
0.0
 11
-31.905267924108038
 21
463.3273758208494
 31
0.0
  0
ARC
  5
1737B
  8
AM_0
 10
-27.90526794744714
 20
463.32737582145057
 30
0.0
 40
3.999999976660888
 50
0.0000000086112259
 51
180.00000000861121
  0
ARC
  5
1737C
  8
AM_0
 10
-160.3012797745686
 20
320.04106498222808
 30
0.0
 40
1.699996899999999
 50
180.00001999999549
 51
269.99999700000228
  0
ARC
  5
1737D
  8
AM_0
 10
-160.3012797745686
 20
323.64107498222819
 30
0.0
 40
1.7000007999999991
 50
90.000020000002039
 51
179.999989999999
  0
LINE
  5
1737E
  8
AM_0
 10
-162.00125977456861
 20
320.04106498222808
 30
0.0
 11
-162.00125977456861
 21
323.64107498222819
 31
0.0
  0
LINE
  5
1737F
  8
AM_0
 10
-158.40127977456859
 20
321.06371498222802
 30
0.0
 11
-159.40127977456871
 21
321.64107498222819
 31
0.0
  0
LINE
  5
17380
  8
AM_0
 10
-159.40127977456871
 20
318.34108498222798
 30
0.0
 11
-160.3012797745686
 21
318.34108498222798
 31
0.0
  0
LINE
  5
17381
  8
AM_0
 10
-159.40127977456871
 20
325.3410849822281
 30
0.0
 11
-160.3012797745686
 21
325.3410849822281
 31
0.0
  0
LINE
  5
17382
  8
AM_0
 10
-158.40127977456859
 20
322.06371498222802
 30
0.0
 11
-159.40127977456871
 21
322.64107498222819
 31
0.0
  0
LINE
  5
17383
  8
AM_0
 10
-159.40127977456871
 20
318.04106498222808
 30
0.0
 11
-158.40127977456859
 21
318.04106498222808
 31
0.0
  0
LINE
  5
17384
  8
AM_0
 10
-159.40127977456871
 20
325.64107498222819
 30
0.0
 11
-158.40127977456859
 21
325.64107498222819
 31
0.0
  0
LINE
  5
17385
  8
AM_0
 10
-159.40127977456871
 20
318.04106498222808
 30
0.0
 11
-159.40127977456871
 21
325.64107498222819
 31
0.0
  0
LINE
  5
17386
  8
AM_0
 10
-158.40127977456859
 20
318.04106498222808
 30
0.0
 11
-158.40127977456859
 21
325.64107498222819
 31
0.0
  0
ARC
  5
17387
  8
AM_0
 10
-160.30127977456871
 20
240.64110498222789
 30
0.0
 40
1.699996899999999
 50
90.000003000004199
 51
179.99998000000451
  0
LINE
  5
17388
  8
AM_0
 10
-159.40127977456871
 20
242.64110498222809
 30
0.0
 11
-159.40127977456871
 21
235.041094982228
 31
0.0
  0
LINE
  5
17389
  8
AM_0
 10
-158.40127977456859
 20
242.64110498222809
 30
0.0
 11
-158.40127977456859
 21
235.041094982228
 31
0.0
  0
LINE
  5
1738A
  8
AM_0
 10
-159.40127977456871
 20
242.34108498222821
 30
0.0
 11
-160.3012797745688
 21
242.34108498222821
 31
0.0
  0
LINE
  5
1738B
  8
AM_0
 10
-159.40127977456871
 20
242.64110498222809
 30
0.0
 11
-158.40127977456859
 21
242.64110498222809
 31
0.0
  0
ARC
  5
1738C
  8
AM_0
 10
-160.30127977456871
 20
237.041094982228
 30
0.0
 40
1.7000007999999991
 50
180.00001000000091
 51
269.999979999998
  0
LINE
  5
1738D
  8
AM_0
 10
-162.00125977456861
 20
240.64110498222789
 30
0.0
 11
-162.00125977456861
 21
237.041094982228
 31
0.0
  0
LINE
  5
1738E
  8
AM_0
 10
-159.40127977456871
 20
235.041094982228
 30
0.0
 11
-158.40127977456859
 21
235.041094982228
 31
0.0
  0
LINE
  5
1738F
  8
AM_0
 10
-159.40127977456871
 20
235.34108498222801
 30
0.0
 11
-160.3012797745688
 21
235.34108498222801
 31
0.0
  0
LINE
  5
17390
  8
AM_0
 10
-158.40127977456859
 20
239.618454982228
 30
0.0
 11
-159.40127977456871
 21
239.041094982228
 31
0.0
  0
LINE
  5
17391
  8
AM_0
 10
-158.40127977456859
 20
238.618454982228
 30
0.0
 11
-159.40127977456871
 21
238.041094982228
 31
0.0
  0
ARC
  5
1739B
  8
AM_0
 10
-139.4091097745688
 20
223.8416413428204
 30
0.0
 40
2.0
 50
90.000000000000881
 51
141.328687001855
1001
GENIUS_GENOBJ-N-FIL_13
1002
{
1000
OWNER
1000
GEN
1002
}
1001
GENIUS_GENODEF_13
1002
{
1000
HIER
1070
     0
1002
}
1002
{
1000
MANEDIT
1070
     0
1002
}
1002
{
1000
NOSEL
1070
     0
1002
}
1002
{
1000
BEHIND
1070
     0
1002
}
1002
{
1000
OTHER
1070
     0
1002
}
1002
{
1000
REACTOR
1002
}
  0
ARC
  5
1739E
  8
AM_0
 10
-142.5320832051508
 20
226.3410486629422
 30
0.0
 40
2.0
 50
270.0
 51
321.32868700185452
1001
GENIUS_GENODEF_13
1002
{
1000
HIER
1070
     0
1002
}
1002
{
1000
MANEDIT
1070
     0
1002
}
1002
{
1000
NOSEL
1070
     0
1002
}
1002
{
1000
BEHIND
1070
     0
1002
}
1002
{
1000
OTHER
1070
     0
1002
}
1002
{
1000
REACTOR
1002
}
1001
GENIUS_GENOBJ-N-FIL_13
1002
{
1000
OWNER
1000
GEN
1002
}
  0
LINE
  5
1739F
  8
0
  6
CONTINUOUS
 62
     7
 10
-150.4013097745686
 20
336.34112402289861
 30
0.0
 11
-142.5320832051508
 21
336.3411240228985
 31
0.0
  0
ARC
  5
173A0
  8
AM_0
 10
-139.4091097745688
 20
336.84053134302042
 30
0.0
 40
2.0
 50
218.671312998145
 51
269.9999999999992
1001
GENIUS_GENOBJ-N-FIL_13
1002
{
1000
OWNER
1000
GEN
1002
}
1001
GENIUS_GENODEF_13
1002
{
1000
HIER
1070
     0
1002
}
1002
{
1000
MANEDIT
1070
     0
1002
}
1002
{
1000
NOSEL
1070
     0
1002
}
1002
{
1000
BEHIND
1070
     0
1002
}
1002
{
1000
OTHER
1070
     0
1002
}
1002
{
1000
REACTOR
1002
}
  0
ARC
  5
173A1
  8
AM_0
 10
-142.5320832051508
 20
334.34112402289861
 30
0.0
 40
2.0
 50
38.671312998145531
 51
90.000000000000057
1001
GENIUS_GENODEF_13
1002
{
1000
HIER
1070
     0
1002
}
1002
{
1000
MANEDIT
1070
     0
1002
}
1002
{
1000
NOSEL
1070
     0
1002
}
1002
{
1000
BEHIND
1070
     0
1002
}
1002
{
1000
OTHER
1070
     0
1002
}
1002
{
1000
REACTOR
1002
}
1001
GENIUS_GENOBJ-N-FIL_13
1002
{
1000
OWNER
1000
GEN
1002
}
  0
LINE
  5
17415
  8
AM_0
 10
29.594718521040679
 20
469.32737631090271
 30
0.0
 11
29.594718521040679
 21
494.32737631090203
 31
0.0
  0
LINE
  5
17416
  8
AM_0
 10
-124.4052555509366
 20
494.32737631090203
 30
0.0
 11
-124.4052555509366
 21
469.32737631090271
 31
0.0
  0
LINE
  5
17417
  8
AM_0
 10
-119.4052555509366
 20
464.32737631090288
 30
0.0
 11
-39.905267966022222
 21
464.32737631090288
 31
0.0
  0
LINE
  5
17418
  8
AM_0
 10
-15.905267970982839
 20
464.32737631090288
 30
0.0
 11
24.594718521040679
 21
464.32737631090288
 31
0.0
  0
LINE
  5
17419
  8
AM_0
 10
29.594718521040679
 20
489.82737631090203
 30
0.0
 11
-7.9054673215400566
 21
489.82737631090231
 31
0.0
  0
LINE
  5
1741A
  8
AM_0
 10
-47.905068513621018
 20
489.82737631090231
 30
0.0
 11
-124.4052555509366
 21
489.82737631090203
 31
0.0
  0
ARC
  5
1741B
  8
AM_0
 10
24.594718521040679
 20
469.32737631090271
 30
0.0
 40
5.0
 50
270.0
 51
0.0
1001
GENIUS_GENODEF_13
1002
{
1000
HIER
1070
     0
1002
}
1002
{
1000
MANEDIT
1070
     0
1002
}
1002
{
1000
NOSEL
1070
     0
1002
}
1002
{
1000
BEHIND
1070
     0
1002
}
1002
{
1000
OTHER
1070
     0
1002
}
1002
{
1000
REACTOR
1002
}
1001
GENIUS_GENOBJ-N-FIL_13
1002
{
1000
OWNER
1000
GEN
1002
}
  0
ARC
  5
1741C
  8
AM_0
 10
-119.4052555509366
 20
469.32737631090271
 30
0.0
 40
5.0
 50
180.0
 51
270.0
1001
GENIUS_GENODEF_13
1002
{
1000
HIER
1070
     0
1002
}
1002
{
1000
MANEDIT
1070
     0
1002
}
1002
{
1000
NOSEL
1070
     0
1002
}
1002
{
1000
BEHIND
1070
     0
1002
}
1002
{
1000
OTHER
1070
     0
1002
}
1002
{
1000
REACTOR
1002
}
1001
GENIUS_GENOBJ-N-FIL_13
1002
{
1000
OWNER
1000
GEN
1002
}
  0
LINE
  5
1741D
  8
ﾁｭｳｼﾝｾﾝ1
 10
0.0947168074063853
 20
462.32737765200631
 30
0.0
 11
0.094716807406499
 21
486.32737765200631
 31
0.0
  0
LINE
  5
1741E
  8
ﾁｭｳｼﾝｾﾝ1
 10
-11.905283192593499
 20
474.32737765200631
 30
0.0
 11
12.09471680740651
 21
474.32737765200631
 31
0.0
  0
LINE
  5
1741F
  8
AM_0
 10
-67.405283192594084
 20
467.8273763109022
 30
0.0
 11
-67.405283192593231
 21
489.82737631090203
 31
0.0
  0
LINE
  5
17420
  8
AM_0
 10
-71.905283192593629
 20
467.8273763109022
 30
0.0
 11
-71.905283192593345
 21
489.82737631090203
 31
0.0
  0
LINE
  5
17421
  8
AM_0
 10
-67.405283192593686
 20
483.82737631090208
 30
0.0
 11
-71.905283192593444
 21
483.82737631090208
 31
0.0
  0
LINE
  5
17422
  8
AM_0
 10
-67.405283192593799
 20
467.8273763109022
 30
0.0
 11
-71.905283192593572
 21
467.8273763109022
 31
0.0
  0
CIRCLE
  5
17423
  8
AM_0
 10
0.094716807406499
 20
474.32737765200631
 30
0.0
 40
5.0
  0
CIRCLE
  5
17424
  8
AM_0
 10
-94.905253837302425
 20
474.32737765200631
 30
0.0
 40
5.0
  0
INSERT
  5
17425
  8
AM_0
  6
CONTINUOUS
  2
*U5
 10
0.0
 20
0.0
 30
0.0
1001
GENIUS_GENODEF_13
1002
{
1000
HIER
1070
     0
1002
}
1002
{
1000
MANEDIT
1070
     0
1002
}
1002
{
1000
NOSEL
1070
     0
1002
}
1002
{
1000
BEHIND
1070
     0
1002
}
1002
{
1000
OTHER
1070
     0
1002
}
1002
{
1000
REACTOR
1002
}
1001
GENIUS_GENOBJ-N-HTC_13
1002
{
1000
OWNER
1000
GEN
1002
}
1001
GENIUS_GENHATCH_13
1002
{
1000
DATA
1040
0.0
1042
1.0
1000
SOLID
1070
     0
1011
-66.453480151684431
1021
0.0
1031
0.0
1021
488.97080167038479
1031
0.0
1002
}
1002
{
1000
UCS
1010
0.0
1020
0.0
1030
0.0
1010
1.0
1020
0.0
1030
0.0
1010
0.0
1020
1.0
1030
0.0
1002
}
1001
ACAD
1002
{
1000
R14_HATCH_DATA
1000
17425
1011
1.0
1021
0.0
1031
0.0
1021
0.0
1031
0.0
1011
0.0
1021
0.0
1031
0.0
1021
1.0
1031
0.0
1011
0.0
1021
0.0
1031
0.0
1021
0.0
1031
1.0
1040
0.0
1010
0.0
1020
0.0
1030
1.0
1000
SOLID
1070
     1
1070
     0
1071
        2
1071
        1
1071
        3
1070
     1
1040
-67.405312309464676
1040
489.82737631090203
1040
-64.905312309464676
1040
489.82737631090203
1070
     1
1040
-64.905312309464676
1040
489.82737631090203
1040
-67.405312309464676
1040
487.3273763109022
1070
     1
1040
-67.405312309464676
1040
487.3273763109022
1040
-67.405312309464676
1040
489.82737631090208
1071
        0
1071
       33
1071
        1
1070
     1
1040
-14.90533855041193
1040
489.82737631090231
1040
-168.90531262238889
1040
489.82737631090231
1071
        0
1070
     0
1070
     1
1071
        1
1040
-242.94727365991619
1040
582.25799664159126
1040
0.0
1002
}
  0
LINE
  5
17426
  8
AM_0
 10
-67.405312309464705
 20
487.3273763109022
 30
0.0
 11
-64.905312309464705
 21
489.82737631090203
 31
0.0
1001
GENIUS_GENFIL_13
1070
     0
1040
2.5
1040
2.5
1040
20.0
1040
0.0
1002
{
1002
}
1001
GENIUS_GENODEF_13
1002
{
1000
HIER
1070
     0
1002
}
1002
{
1000
MANEDIT
1070
     0
1002
}
1002
{
1000
NOSEL
1070
     0
1002
}
1002
{
1000
BEHIND
1070
     0
1002
}
1002
{
1000
OTHER
1070
     0
1002
}
1002
{
1000
REACTOR
1002
}
1001
GENIUS_GENOBJ-N-CHA_13
1002
{
1000
OWNER
1000
GEN
1002
}
  0
LINE
  5
17427
  8
AM_0
 10
-71.90531230946425
 20
487.3273763109022
 30
0.0
 11
-74.40531230946425
 21
489.82737631090203
 31
0.0
1001
GENIUS_GENFIL_13
1070
     0
1040
2.5
1040
2.5
1040
20.0
1040
0.0
1002
{
1002
}
1001
GENIUS_GENODEF_13
1002
{
1000
HIER
1070
     0
1002
}
1002
{
1000
MANEDIT
1070
     0
1002
}
1002
{
1000
NOSEL
1070
     0
1002
}
1002
{
1000
BEHIND
1070
     0
1002
}
1002
{
1000
OTHER
1070
     0
1002
}
1002
{
1000
REACTOR
1002
}
1001
GENIUS_GENOBJ-N-CHA_13
1002
{
1000
OWNER
1000
GEN
1002
}
  0
INSERT
  5
17428
  8
AM_0
  6
CONTINUOUS
  2
*U6
 10
0.0
 20
0.0
 30
0.0
1001
GENIUS_GENODEF_13
1002
{
1000
HIER
1070
     0
1002
}
1002
{
1000
MANEDIT
1070
     0
1002
}
1002
{
1000
NOSEL
1070
     0
1002
}
1002
{
1000
BEHIND
1070
     0
1002
}
1002
{
1000
OTHER
1070
     0
1002
}
1002
{
1000
REACTOR
1002
}
1001
GENIUS_GENOBJ-N-HTC_13
1002
{
1000
OWNER
1000
GEN
1002
}
1001
GENIUS_GENHATCH_13
1002
{
1000
DATA
1040
0.0
1042
1.0
1000
SOLID
1070
     0
1011
-72.857144467244481
1021
0.0
1031
0.0
1021
488.97080167038479
1031
0.0
1002
}
1002
{
1000
UCS
1010
0.0
1020
0.0
1030
0.0
1010
1.0
1020
0.0
1030
0.0
1010
0.0
1020
1.0
1030
0.0
1002
}
1001
ACAD
1002
{
1000
R14_HATCH_DATA
1000
17428
1011
1.0
1021
0.0
1031
0.0
1021
0.0
1031
0.0
1011
0.0
1021
0.0
1031
0.0
1021
1.0
1031
0.0
1011
0.0
1021
0.0
1031
0.0
1021
0.0
1031
1.0
1040
0.0
1010
0.0
1020
0.0
1030
1.0
1000
SOLID
1070
     1
1070
     0
1071
        2
1071
        1
1071
        3
1070
     1
1040
-71.905312309464236
1040
489.82737631090203
1040
-74.405312309464236
1040
489.82737631090203
1070
     1
1040
-74.405312309464236
1040
489.82737631090203
1040
-71.905312309464236
1040
487.3273763109022
1070
     1
1040
-71.905312309464236
1040
487.3273763109022
1040
-71.905312309464236
1040
489.82737631090208
1071
        0
1071
       33
1071
        1
1070
     1
1040
-124.405286068517
1040
489.82737631090231
1040
29.59468800346005
1040
489.82737631090231
1071
        0
1070
     0
1070
     1
1071
        1
1040
103.63664904098729
1040
582.25799664159126
1040
0.0
1002
}
  0
LINE
  5
17429
  8
AM_5
 10
-66.905253837303519
 20
489.82737631090203
 30
0.0
 11
-66.905253837303519
 21
494.32737631090203
 31
0.0
  0
LINE
  5
1742A
  8
AM_5
 10
-91.009973450716757
 20
489.82737631090203
 30
0.0
 11
-91.0099734507167
 21
494.32737631090203
 31
0.0
  0
LINE
  5
1742B
  8
ﾁｭｳｼﾝｾﾝ1
 10
-94.905253837302496
 20
462.32737765200631
 30
0.0
 11
-94.905253837302382
 21
486.32737765200631
 31
0.0
  0
LINE
  5
1742C
  8
ﾁｭｳｼﾝｾﾝ1
 10
-106.9052538373024
 20
474.32737765200631
 30
0.0
 11
-82.905253837302396
 21
474.32737765200631
 31
0.0
  0
LINE
  5
1742D
  8
AM_0
 10
29.594718521040679
 20
609.32739405134123
 30
0.0
 11
29.594718521040679
 21
584.32739405134191
 31
0.0
  0
LINE
  5
1742E
  8
AM_0
 10
-124.4052555509366
 20
584.32739405134191
 30
0.0
 11
-124.4052555509366
 21
609.32739405134123
 31
0.0
  0
LINE
  5
1742F
  8
AM_0
 10
-119.4052555509366
 20
614.32739405134123
 30
0.0
 11
24.594718521040679
 21
614.32739405134123
 31
0.0
  0
LINE
  5
17430
  8
AM_0
 10
29.594718521040679
 20
588.82739405134191
 30
0.0
 11
-124.4052555509366
 21
588.82739405134191
 31
0.0
  0
ARC
  5
17431
  8
AM_0
 10
24.594718521040679
 20
609.32739405134123
 30
0.0
 40
5.0
 50
0.0
 51
90.0
1001
GENIUS_GENODEF_13
1002
{
1000
HIER
1070
     0
1002
}
1002
{
1000
MANEDIT
1070
     0
1002
}
1002
{
1000
NOSEL
1070
     0
1002
}
1002
{
1000
BEHIND
1070
     0
1002
}
1002
{
1000
OTHER
1070
     0
1002
}
1002
{
1000
REACTOR
1002
}
1001
GENIUS_GENOBJ-N-FIL_13
1002
{
1000
OWNER
1000
GEN
1002
}
  0
ARC
  5
17432
  8
AM_0
 10
-119.4052555509366
 20
609.32739405134123
 30
0.0
 40
5.0
 50
90.0
 51
180.0
1001
GENIUS_GENODEF_13
1002
{
1000
HIER
1070
     0
1002
}
1002
{
1000
MANEDIT
1070
     0
1002
}
1002
{
1000
NOSEL
1070
     0
1002
}
1002
{
1000
BEHIND
1070
     0
1002
}
1002
{
1000
OTHER
1070
     0
1002
}
1002
{
1000
REACTOR
1002
}
1001
GENIUS_GENOBJ-N-FIL_13
1002
{
1000
OWNER
1000
GEN
1002
}
  0
LINE
  5
17433
  8
ﾁｭｳｼﾝｾﾝ1
 10
0.0947168074063853
 20
616.32739271023763
 30
0.0
 11
0.094716807406499
 21
592.32739271023763
 31
0.0
  0
LINE
  5
17434
  8
ﾁｭｳｼﾝｾﾝ1
 10
-11.905283192593499
 20
604.32739271023763
 30
0.0
 11
12.09471680740651
 21
604.32739271023763
 31
0.0
  0
LINE
  5
17435
  8
AM_0
 10
-67.405283192594084
 20
610.82739405134191
 30
0.0
 11
-67.405283192593231
 21
588.82739405134191
 31
0.0
  0
LINE
  5
17436
  8
AM_0
 10
-71.905283192593629
 20
610.82739405134191
 30
0.0
 11
-71.905283192593345
 21
588.82739405134191
 31
0.0
  0
LINE
  5
17437
  8
AM_0
 10
-67.405283192593686
 20
594.82739405134191
 30
0.0
 11
-71.905283192593444
 21
594.82739405134191
 31
0.0
  0
LINE
  5
17438
  8
AM_0
 10
-67.405283192593799
 20
610.82739405134191
 30
0.0
 11
-71.905283192593572
 21
610.82739405134191
 31
0.0
  0
LINE
  5
17439
  8
AM_0
 10
-22.905285755592601
 20
610.82739405134191
 30
0.0
 11
-27.40528575559237
 21
610.82739405134191
 31
0.0
  0
LINE
  5
1743A
  8
AM_0
 10
-22.905285755592711
 20
594.82739405134191
 30
0.0
 11
-27.405285755592491
 21
594.82739405134191
 31
0.0
  0
LINE
  5
1743B
  8
AM_0
 10
-27.405285755592601
 20
610.82739405134191
 30
0.0
 11
-27.405285755592601
 21
588.82739405134191
 31
0.0
  0
LINE
  5
1743C
  8
AM_0
 10
-22.905285755592601
 20
610.82739405134191
 30
0.0
 11
-22.905285755592711
 21
588.82739405134191
 31
0.0
  0
CIRCLE
  5
1743D
  8
AM_0
 10
0.094716807406499
 20
604.32739271023763
 30
0.0
 40
5.0
  0
CIRCLE
  5
1743E
  8
AM_0
 10
-94.905253837302425
 20
604.32739271023763
 30
0.0
 40
5.0
  0
INSERT
  5
1743F
  8
AM_0
  6
CONTINUOUS
  2
*U7
 10
0.0
 20
0.0
 30
0.0
1001
GENIUS_GENODEF_13
1002
{
1000
HIER
1070
     0
1002
}
1002
{
1000
MANEDIT
1070
     0
1002
}
1002
{
1000
NOSEL
1070
     0
1002
}
1002
{
1000
BEHIND
1070
     0
1002
}
1002
{
1000
OTHER
1070
     0
1002
}
1002
{
1000
REACTOR
1002
}
1001
GENIUS_GENOBJ-N-HTC_13
1002
{
1000
OWNER
1000
GEN
1002
}
1001
GENIUS_GENHATCH_13
1002
{
1000
DATA
1040
0.0
1042
-1.0
1000
SOLID
1070
     0
1011
-21.953453597812469
1021
0.0
1031
0.0
1021
589.68396869185926
1031
0.0
1002
}
1002
{
1000
UCS
1010
0.0
1020
0.0
1030
0.0
1010
1.0
1020
0.0
1030
0.0
1010
0.0
1020
1.0
1030
0.0
1002
}
1001
ACAD
1002
{
1000
R14_HATCH_DATA
1000
1743F
1011
1.0
1021
0.0
1031
0.0
1021
0.0
1031
0.0
1011
0.0
1021
0.0
1031
0.0
1021
1.0
1031
0.0
1011
0.0
1021
0.0
1031
0.0
1021
0.0
1031
1.0
1040
0.0
1010
0.0
1020
0.0
1030
1.0
1000
SOLID
1070
     1
1070
     0
1071
        2
1071
        1
1071
        3
1070
     1
1040
-22.905285755592711
1040
588.82739405134191
1040
-20.405285755592711
1040
588.82739405134191
1070
     1
1040
-20.405285755592711
1040
588.82739405134191
1040
-22.905285755592711
1040
591.32739405134191
1070
     1
1040
-22.905285755592711
1040
591.32739405134191
1040
-22.905285755592711
1040
588.82739405134191
1071
        0
1071
       33
1071
        1
1070
     1
1040
29.594688003460039
1040
588.8273940513418
1040
-124.405286068517
1040
588.8273940513418
1071
        0
1070
     0
1070
     1
1071
        1
1040
-198.44724710604419
1040
496.39677372065262
1040
0.0
1002
}
  0
LINE
  5
17440
  8
AM_0
 10
-22.905285755592711
 20
591.32739405134191
 30
0.0
 11
-20.405285755592711
 21
588.82739405134191
 31
0.0
1001
GENIUS_GENFIL_13
1070
     0
1040
2.5
1040
2.5
1040
20.0
1040
0.0
1002
{
1002
}
1001
GENIUS_GENODEF_13
1002
{
1000
HIER
1070
     0
1002
}
1002
{
1000
MANEDIT
1070
     0
1002
}
1002
{
1000
NOSEL
1070
     0
1002
}
1002
{
1000
BEHIND
1070
     0
1002
}
1002
{
1000
OTHER
1070
     0
1002
}
1002
{
1000
REACTOR
1002
}
1001
GENIUS_GENOBJ-N-CHA_13
1002
{
1000
OWNER
1000
GEN
1002
}
  0
LINE
  5
17441
  8
AM_0
 10
-27.40528575559226
 20
591.32739405134191
 30
0.0
 11
-29.90528575559226
 21
588.82739405134191
 31
0.0
1001
GENIUS_GENFIL_13
1070
     0
1040
2.5
1040
2.5
1040
20.0
1040
0.0
1002
{
1002
}
1001
GENIUS_GENODEF_13
1002
{
1000
HIER
1070
     0
1002
}
1002
{
1000
MANEDIT
1070
     0
1002
}
1002
{
1000
NOSEL
1070
     0
1002
}
1002
{
1000
BEHIND
1070
     0
1002
}
1002
{
1000
OTHER
1070
     0
1002
}
1002
{
1000
REACTOR
1002
}
1001
GENIUS_GENOBJ-N-CHA_13
1002
{
1000
OWNER
1000
GEN
1002
}
  0
INSERT
  5
17442
  8
AM_0
  6
CONTINUOUS
  2
*U8
 10
0.0
 20
0.0
 30
0.0
1001
GENIUS_GENODEF_13
1002
{
1000
HIER
1070
     0
1002
}
1002
{
1000
MANEDIT
1070
     0
1002
}
1002
{
1000
NOSEL
1070
     0
1002
}
1002
{
1000
BEHIND
1070
     0
1002
}
1002
{
1000
OTHER
1070
     0
1002
}
1002
{
1000
REACTOR
1002
}
1001
GENIUS_GENOBJ-N-HTC_13
1002
{
1000
OWNER
1000
GEN
1002
}
1001
GENIUS_GENHATCH_13
1002
{
1000
DATA
1040
0.0
1042
-1.0
1000
SOLID
1070
     0
1011
-28.357117913372502
1021
0.0
1031
0.0
1021
589.68396869185926
1031
0.0
1002
}
1002
{
1000
UCS
1010
0.0
1020
0.0
1030
0.0
1010
1.0
1020
0.0
1030
0.0
1010
0.0
1020
1.0
1030
0.0
1002
}
1001
ACAD
1002
{
1000
R14_HATCH_DATA
1000
17442
1011
1.0
1021
0.0
1031
0.0
1021
0.0
1031
0.0
1011
0.0
1021
0.0
1031
0.0
1021
1.0
1031
0.0
1011
0.0
1021
0.0
1031
0.0
1021
0.0
1031
1.0
1040
0.0
1010
0.0
1020
0.0
1030
1.0
1000
SOLID
1070
     1
1070
     0
1071
        2
1071
        1
1071
        3
1070
     1
1040
-27.40528575559226
1040
588.82739405134191
1040
-29.90528575559226
1040
588.82739405134191
1070
     1
1040
-29.90528575559226
1040
588.82739405134191
1040
-27.40528575559226
1040
591.32739405134191
1070
     1
1040
-27.40528575559226
1040
591.32739405134191
1040
-27.40528575559226
1040
588.82739405134191
1071
        0
1071
       33
1071
        1
1070
     1
1040
-79.90525951464501
1040
588.8273940513418
1040
74.094714557332011
1040
588.8273940513418
1071
        0
1070
     0
1070
     1
1071
        1
1040
148.1366755948593
1040
496.39677372065262
1040
0.0
1002
}
  0
INSERT
  5
17443
  8
AM_0
  6
CONTINUOUS
  2
*U9
 10
0.0
 20
0.0
 30
0.0
1001
GENIUS_GENODEF_13
1002
{
1000
HIER
1070
     0
1002
}
1002
{
1000
MANEDIT
1070
     0
1002
}
1002
{
1000
NOSEL
1070
     0
1002
}
1002
{
1000
BEHIND
1070
     0
1002
}
1002
{
1000
OTHER
1070
     0
1002
}
1002
{
1000
REACTOR
1002
}
1001
GENIUS_GENOBJ-N-HTC_13
1002
{
1000
OWNER
1000
GEN
1002
}
1001
GENIUS_GENHATCH_13
1002
{
1000
DATA
1040
0.0
1042
-1.0
1000
SOLID
1070
     0
1011
-66.453480151684431
1021
0.0
1031
0.0
1021
589.68396869185926
1031
0.0
1002
}
1002
{
1000
UCS
1010
0.0
1020
0.0
1030
0.0
1010
1.0
1020
0.0
1030
0.0
1010
0.0
1020
1.0
1030
0.0
1002
}
1001
ACAD
1002
{
1000
R14_HATCH_DATA
1000
17443
1011
1.0
1021
0.0
1031
0.0
1021
0.0
1031
0.0
1011
0.0
1021
0.0
1031
0.0
1021
1.0
1031
0.0
1011
0.0
1021
0.0
1031
0.0
1021
0.0
1031
1.0
1040
0.0
1010
0.0
1020
0.0
1030
1.0
1000
SOLID
1070
     1
1070
     0
1071
        2
1071
        1
1071
        3
1070
     1
1040
-67.405312309464676
1040
588.82739405134191
1040
-64.905312309464676
1040
588.82739405134191
1070
     1
1040
-64.905312309464676
1040
588.82739405134191
1040
-67.405312309464676
1040
591.32739405134191
1070
     1
1040
-67.405312309464676
1040
591.32739405134191
1040
-67.405312309464676
1040
588.82739405134191
1071
        0
1071
       33
1071
        1
1070
     1
1040
-14.90533855041193
1040
588.8273940513418
1040
-168.90531262238889
1040
588.8273940513418
1071
        0
1070
     0
1070
     1
1071
        1
1040
-242.94727365991619
1040
496.39677372065262
1040
0.0
1002
}
  0
LINE
  5
17444
  8
AM_0
 10
-67.405312309464705
 20
591.32739405134191
 30
0.0
 11
-64.905312309464705
 21
588.82739405134191
 31
0.0
1001
GENIUS_GENFIL_13
1070
     0
1040
2.5
1040
2.5
1040
20.0
1040
0.0
1002
{
1002
}
1001
GENIUS_GENODEF_13
1002
{
1000
HIER
1070
     0
1002
}
1002
{
1000
MANEDIT
1070
     0
1002
}
1002
{
1000
NOSEL
1070
     0
1002
}
1002
{
1000
BEHIND
1070
     0
1002
}
1002
{
1000
OTHER
1070
     0
1002
}
1002
{
1000
REACTOR
1002
}
1001
GENIUS_GENOBJ-N-CHA_13
1002
{
1000
OWNER
1000
GEN
1002
}
  0
LINE
  5
17445
  8
AM_0
 10
-71.90531230946425
 20
591.32739405134191
 30
0.0
 11
-74.40531230946425
 21
588.82739405134191
 31
0.0
1001
GENIUS_GENFIL_13
1070
     0
1040
2.5
1040
2.5
1040
20.0
1040
0.0
1002
{
1002
}
1001
GENIUS_GENODEF_13
1002
{
1000
HIER
1070
     0
1002
}
1002
{
1000
MANEDIT
1070
     0
1002
}
1002
{
1000
NOSEL
1070
     0
1002
}
1002
{
1000
BEHIND
1070
     0
1002
}
1002
{
1000
OTHER
1070
     0
1002
}
1002
{
1000
REACTOR
1002
}
1001
GENIUS_GENOBJ-N-CHA_13
1002
{
1000
OWNER
1000
GEN
1002
}
  0
INSERT
  5
17446
  8
AM_0
  6
CONTINUOUS
  2
*U10
 10
0.0
 20
0.0
 30
0.0
1001
GENIUS_GENODEF_13
1002
{
1000
HIER
1070
     0
1002
}
1002
{
1000
MANEDIT
1070
     0
1002
}
1002
{
1000
NOSEL
1070
     0
1002
}
1002
{
1000
BEHIND
1070
     0
1002
}
1002
{
1000
OTHER
1070
     0
1002
}
1002
{
1000
REACTOR
1002
}
1001
GENIUS_GENOBJ-N-HTC_13
1002
{
1000
OWNER
1000
GEN
1002
}
1001
GENIUS_GENHATCH_13
1002
{
1000
DATA
1040
0.0
1042
-1.0
1000
SOLID
1070
     0
1011
-72.857144467244481
1021
0.0
1031
0.0
1021
589.68396869185926
1031
0.0
1002
}
1002
{
1000
UCS
1010
0.0
1020
0.0
1030
0.0
1010
1.0
1020
0.0
1030
0.0
1010
0.0
1020
1.0
1030
0.0
1002
}
1001
ACAD
1002
{
1000
R14_HATCH_DATA
1000
17446
1011
1.0
1021
0.0
1031
0.0
1021
0.0
1031
0.0
1011
0.0
1021
0.0
1031
0.0
1021
1.0
1031
0.0
1011
0.0
1021
0.0
1031
0.0
1021
0.0
1031
1.0
1040
0.0
1010
0.0
1020
0.0
1030
1.0
1000
SOLID
1070
     1
1070
     0
1071
        2
1071
        1
1071
        3
1070
     1
1040
-71.905312309464236
1040
588.82739405134191
1040
-74.405312309464236
1040
588.82739405134191
1070
     1
1040
-74.405312309464236
1040
588.82739405134191
1040
-71.905312309464236
1040
591.32739405134191
1070
     1
1040
-71.905312309464236
1040
591.32739405134191
1040
-71.905312309464236
1040
588.82739405134191
1071
        0
1071
       33
1071
        1
1070
     1
1040
-124.405286068517
1040
588.8273940513418
1040
29.59468800346005
1040
588.8273940513418
1071
        0
1070
     0
1070
     1
1071
        1
1040
103.63664904098729
1040
496.39677372065262
1040
0.0
1002
}
  0
LINE
  5
17447
  8
AM_5
 10
-66.905253837303519
 20
588.82739405134191
 30
0.0
 11
-66.905253837303519
 21
584.32739405134191
 31
0.0
  0
LINE
  5
17448
  8
AM_5
 10
-91.009973450716757
 20
588.82739405134191
 30
0.0
 11
-91.0099734507167
 21
584.32739405134191
 31
0.0
  0
LINE
  5
17449
  8
ﾁｭｳｼﾝｾﾝ1
 10
-94.905253837302496
 20
616.32739271023763
 30
0.0
 11
-94.905253837302382
 21
592.32739271023763
 31
0.0
  0
LINE
  5
1744A
  8
ﾁｭｳｼﾝｾﾝ1
 10
-106.9052538373024
 20
604.32739271023763
 30
0.0
 11
-82.905253837302396
 21
604.32739271023763
 31
0.0
  0
LINE
  5
1744B
  8
AM_0
 10
12.59473346690635
 20
590.41739405134183
 30
0.0
 11
12.59473346690635
 21
598.41739405134183
 31
0.0
  0
LINE
  5
1744C
  8
AM_0
 10
25.594733466906352
 20
590.41739405134183
 30
0.0
 11
25.594733466906352
 21
598.41739405134183
 31
0.0
  0
LINE
  5
1744D
  8
AM_0
 10
10.594733466906341
 20
590.41739405134183
 30
0.0
 11
27.594733466906352
 21
590.41739405134183
 31
0.0
  0
LINE
  5
1744E
  8
AM_0
 10
27.594733466906352
 20
590.41739405134183
 30
0.0
 11
27.594733466906352
 21
588.82739405134191
 31
0.0
  0
LINE
  5
1744F
  8
AM_0
 10
10.594733466906341
 20
590.41739405134183
 30
0.0
 11
10.594733466906341
 21
588.82739405134191
 31
0.0
  0
LINE
  5
17450
  8
AM_0
 10
12.59473346690635
 20
598.41739405134183
 30
0.0
 11
25.594733466906352
 21
598.41739405134183
 31
0.0
  0
LINE
  5
17451
  8
AM_0
 10
-120.4052704968025
 20
590.41739405134183
 30
0.0
 11
-120.4052704968025
 21
598.41739405134183
 31
0.0
  0
LINE
  5
17452
  8
AM_0
 10
-107.4052704968025
 20
590.41739405134183
 30
0.0
 11
-107.4052704968025
 21
598.41739405134183
 31
0.0
  0
LINE
  5
17453
  8
AM_0
 10
-122.4052704968025
 20
590.41739405134183
 30
0.0
 11
-105.4052704968025
 21
590.41739405134183
 31
0.0
  0
LINE
  5
17454
  8
AM_0
 10
-105.4052704968025
 20
590.41739405134183
 30
0.0
 11
-105.4052704968025
 21
588.82739405134191
 31
0.0
  0
LINE
  5
17455
  8
AM_0
 10
-122.4052704968025
 20
590.41739405134183
 30
0.0
 11
-122.4052704968025
 21
588.82739405134191
 31
0.0
  0
LINE
  5
17456
  8
AM_0
 10
-120.4052704968025
 20
598.41739405134183
 30
0.0
 11
-107.4052704968025
 21
598.41739405134183
 31
0.0
  0
LINE
  5
17457
  8
AM_0
 10
11.59473346690655
 20
481.73737631090228
 30
0.0
 11
26.59473346690655
 21
481.73737631090228
 31
0.0
  0
LINE
  5
17458
  8
AM_0
 10
10.59473346690654
 20
488.23737631090211
 30
0.0
 11
27.594733466906661
 21
488.23737631090182
 31
0.0
  0
LINE
  5
17459
  8
AM_0N
 10
15.0947334669066
 20
481.18419107587857
 30
0.0
 11
23.0947334669066
 21
481.18419107587857
 31
0.0
  0
LINE
  5
1745A
  8
AM_0N
 10
23.0947334669066
 20
481.18419107587857
 30
0.0
 11
22.327920966906589
 21
480.41737857587862
 31
0.0
  0
LINE
  5
1745B
  8
AM_0
 10
26.59473346690655
 20
481.73737631090228
 30
0.0
 11
26.59473346690643
 21
488.23737631090211
 31
0.0
  0
LINE
  5
1745C
  8
AM_0
 10
22.84473346690655
 20
481.73737631090228
 30
0.0
 11
22.84473346690655
 21
488.23737631090182
 31
0.0
  0
LINE
  5
1745D
  8
AM_0N
 10
23.0947334669066
 20
481.73737631090228
 30
0.0
 11
23.0947334669066
 21
481.18419107587857
 31
0.0
  0
LINE
  5
1745E
  8
AM_0
 10
27.594733466906661
 20
488.23737631090182
 30
0.0
 11
27.594733466906661
 21
489.82737631090203
 31
0.0
  0
LINE
  5
1745F
  8
AM_0
 10
15.34473346690655
 20
481.73737631090228
 30
0.0
 11
15.344733466906661
 21
488.23737631090211
 31
0.0
  0
LINE
  5
17460
  8
AM_0N
 10
15.86154596690662
 20
480.41737857587862
 30
0.0
 11
22.327920966906589
 21
480.41737857587862
 31
0.0
  0
LINE
  5
17461
  8
AM_0N
 10
15.0947334669066
 20
481.73737631090228
 30
0.0
 11
15.0947334669066
 21
481.18419107587857
 31
0.0
  0
LINE
  5
17462
  8
AM_0N
 10
15.0947334669066
 20
481.18419107587857
 30
0.0
 11
15.86154596690662
 21
480.41737857587862
 31
0.0
  0
LINE
  5
17463
  8
AM_4N
 10
15.86154596690662
 20
480.41737857587862
 30
0.0
 11
15.86154596690662
 21
481.73737631090228
 31
0.0
  0
LINE
  5
17464
  8
AM_4N
 10
22.327920966906589
 20
480.41737857587862
 30
0.0
 11
22.327920966906589
 21
481.73737631090228
 31
0.0
  0
LINE
  5
17465
  8
AM_0
 10
11.59473346690655
 20
481.73737631090228
 30
0.0
 11
11.594733466906661
 21
488.23737631090211
 31
0.0
  0
LINE
  5
17466
  8
AM_0
 10
10.59473346690654
 20
488.23737631090182
 30
0.0
 11
10.59473346690654
 21
489.82737631090203
 31
0.0
  0
LINE
  5
17467
  8
AM_0
 10
-121.4052704968026
 20
481.73737631090228
 30
0.0
 11
-106.4052704968026
 21
481.73737631090228
 31
0.0
  0
LINE
  5
17468
  8
AM_0
 10
-122.4052704968026
 20
488.23737631090211
 30
0.0
 11
-105.4052704968025
 21
488.23737631090182
 31
0.0
  0
LINE
  5
17469
  8
AM_0N
 10
-117.9052704968025
 20
481.18419107587857
 30
0.0
 11
-109.9052704968025
 21
481.18419107587857
 31
0.0
  0
LINE
  5
1746A
  8
AM_0N
 10
-109.9052704968025
 20
481.18419107587857
 30
0.0
 11
-110.6720829968025
 21
480.41737857587862
 31
0.0
  0
LINE
  5
1746B
  8
AM_0
 10
-106.4052704968026
 20
481.73737631090228
 30
0.0
 11
-106.4052704968027
 21
488.23737631090211
 31
0.0
  0
LINE
  5
1746C
  8
AM_0
 10
-110.1552704968026
 20
481.73737631090228
 30
0.0
 11
-110.1552704968026
 21
488.23737631090182
 31
0.0
  0
LINE
  5
1746D
  8
AM_0N
 10
-109.9052704968025
 20
481.73737631090228
 30
0.0
 11
-109.9052704968025
 21
481.18419107587857
 31
0.0
  0
LINE
  5
1746E
  8
AM_0
 10
-105.4052704968025
 20
488.23737631090182
 30
0.0
 11
-105.4052704968025
 21
489.82737631090203
 31
0.0
  0
LINE
  5
1746F
  8
AM_0
 10
-117.6552704968026
 20
481.73737631090228
 30
0.0
 11
-117.6552704968024
 21
488.23737631090211
 31
0.0
  0
LINE
  5
17470
  8
AM_0N
 10
-117.1384579968025
 20
480.41737857587862
 30
0.0
 11
-110.6720829968025
 21
480.41737857587862
 31
0.0
  0
LINE
  5
17471
  8
AM_0N
 10
-117.9052704968025
 20
481.73737631090228
 30
0.0
 11
-117.9052704968025
 21
481.18419107587857
 31
0.0
  0
LINE
  5
17472
  8
AM_0N
 10
-117.9052704968025
 20
481.18419107587857
 30
0.0
 11
-117.1384579968025
 21
480.41737857587862
 31
0.0
  0
LINE
  5
17473
  8
AM_4N
 10
-117.1384579968025
 20
480.41737857587862
 30
0.0
 11
-117.1384579968025
 21
481.73737631090228
 31
0.0
  0
LINE
  5
17474
  8
AM_4N
 10
-110.6720829968025
 20
480.41737857587862
 30
0.0
 11
-110.6720829968025
 21
481.73737631090228
 31
0.0
  0
LINE
  5
17475
  8
AM_0
 10
-121.4052704968026
 20
481.73737631090228
 30
0.0
 11
-121.4052704968024
 21
488.23737631090211
 31
0.0
  0
LINE
  5
17476
  8
AM_0
 10
-122.4052704968026
 20
488.23737631090182
 30
0.0
 11
-122.4052704968026
 21
489.82737631090203
 31
0.0
  0
TEXT
  5
176E3
  8
AM_0
 10
130.5503619957353
 20
536.1129904629729
 30
0.0
 40
10.0
  1
VC02-007KML~VC02-060KML
1001
ACAD
1000
MTEXTBEGIN
1070
    73
1070
     1
1070
    44
1040
1.0
1070
    74
1070
     0
1000
MTEXTEND
  0
VIEWPORT
  5
89
 67
     1
  8
0
 10
210.0
 20
148.5
 30
0.0
 40
420.0
 41
297.0
 68
     1
 69
     1
1001
ACAD
1000
MVIEW
1002
{
1070
    16
1010
0.0
1020
0.0
1030
0.0
1010
0.0
1020
0.0
1030
1.0
1040
0.0
1040
297.0
1040
221.70154043645701
1040
148.5
1040
50.0
1040
0.0
1040
0.0
1070
     0
1070
   100
1070
     1
1070
     1
1070
     0
1070
     0
1070
     0
1070
     0
1040
0.0
1040
0.0
1040
0.0
1040
10.0
1040
10.0
1040
10.0
1040
10.0
1070
     0
1002
{
1002
}
1002
}
1001
GENIUS_GENOREF_13
1005
1B94
1001
GENIUS_GENSCREG_15
1000
PF
1040
1.0
1000
DF
1040
1.0
1000
MIN
1011
0.0
1021
0.0
1031
0.0
1021
0.0
1031
0.0
1000
MAX
1011
420.0
1021
0.0
1031
0.0
1021
297.0
1031
0.0
1000
FLAGS
1070
     4
  0
ENDSEC
  0
EOF
