  0
SECTION
  2
HEADER
  9
$ACADVER
  1
AC1009
  9
$INSBASE
 10
0.0
 20
0.0
 30
0.0
  9
$EXTMIN
 10
-371.89210419639357
 20
179.7834301254133
 30
-0.0015258207003583
  9
$EXTMAX
 10
334.21630440780842
 20
642.17606056722434
 30
0.0000000349246037
  9
$LIMMIN
 10
0.0
 20
0.0
  9
$LIMMAX
 10
853.5
 20
555.00000000000011
  9
$ORTHOMODE
 70
     0
  9
$REGENMODE
 70
     1
  9
$FILLMODE
 70
     1
  9
$QTEXTMODE
 70
     0
  9
$MIRRTEXT
 70
     1
  9
$DRAGMODE
 70
     2
  9
$LTSCALE
 40
3.0
  9
$OSMODE
 70
   551
  9
$ATTMODE
 70
     1
  9
$TEXTSIZE
 40
2.5
  9
$TRACEWID
 40
1.0
  9
$TEXTSTYLE
  7
STANDARD
  9
$CLAYER
  8
AM_0
  9
$CELTYPE
  6
BYLAYER
  9
$CECOLOR
 62
   256
  9
$DIMSCALE
 40
3.0
  9
$DIMASZ
 40
2.5
  9
$DIMEXO
 40
1.0
  9
$DIMDLI
 40
7.0
  9
$DIMRND
 40
0.0
  9
$DIMDLE
 40
0.0
  9
$DIMEXE
 40
1.0
  9
$DIMTP
 40
0.1
  9
$DIMTM
 40
0.1000000001
  9
$DIMTXT
 40
2.5
  9
$DIMCEN
 40
0.0
  9
$DIMTSZ
 40
0.0
  9
$DIMTOL
 70
     0
  9
$DIMLIM
 70
     0
  9
$DIMTIH
 70
     0
  9
$DIMTOH
 70
     0
  9
$DIMSE1
 70
     0
  9
$DIMSE2
 70
     0
  9
$DIMTAD
 70
     3
  9
$DIMZIN
 70
     8
  9
$DIMBLK
  1

  9
$DIMASO
 70
     1
  9
$DIMSHO
 70
     1
  9
$DIMPOST
  1

  9
$DIMAPOST
  1
"
  9
$DIMALT
 70
     0
  9
$DIMALTD
 70
     2
  9
$DIMALTF
 40
0.0393701
  9
$DIMLFAC
 40
1.0
  9
$DIMTOFL
 70
     1
  9
$DIMTVP
 40
0.0
  9
$DIMTIX
 70
     0
  9
$DIMSOXD
 70
     0
  9
$DIMSAH
 70
     0
  9
$DIMBLK1
  1

  9
$DIMBLK2
  1

  9
$DIMSTYLE
  2
AM_JIS
  9
$DIMCLRD
 70
   256
  9
$DIMCLRE
 70
   256
  9
$DIMCLRT
 70
     4
  9
$DIMTFAC
 40
0.71
  9
$DIMGAP
 40
1.0
  9
$LUNITS
 70
     2
  9
$LUPREC
 70
     2
  9
$SKETCHINC
 40
1.0
  9
$FILLETRAD
 40
7.5
  9
$AUNITS
 70
     0
  9
$AUPREC
 70
     3
  9
$MENU
  1
.
  9
$ELEVATION
 40
0.0
  9
$PELEVATION
 40
0.0
  9
$THICKNESS
 40
0.0
  9
$LIMCHECK
 70
     0
  9
$BLIPMODE
 70
     0
  9
$CHAMFERA
 40
7.5
  9
$CHAMFERB
 40
7.5
  9
$SKPOLY
 70
     0
  9
$TDCREATE
 40
2452753.643349607
  9
$TDUPDATE
 40
2458543.4552701269
  9
$TDINDWG
 40
0.5104214699
  9
$TDUSRTIMER
 40
0.5104212731
  9
$USRTIMER
 70
     1
  9
$ANGBASE
 50
0.0
  9
$ANGDIR
 70
     0
  9
$PDMODE
 70
     0
  9
$PDSIZE
 40
0.0
  9
$PLINEWID
 40
0.0
  9
$COORDS
 70
     1
  9
$SPLFRAME
 70
     0
  9
$SPLINETYPE
 70
     6
  9
$SPLINESEGS
 70
     8
  9
$ATTDIA
 70
     1
  9
$ATTREQ
 70
     1
  9
$HANDLING
 70
     1
  9
$HANDSEED
  5
1FE70
  9
$SURFTAB1
 70
     6
  9
$SURFTAB2
 70
     6
  9
$SURFTYPE
 70
     6
  9
$SURFU
 70
     6
  9
$SURFV
 70
     6
  9
$UCSNAME
  2

  9
$UCSORG
 10
0.0
 20
0.0
 30
0.0
  9
$UCSXDIR
 10
1.0
 20
0.0
 30
0.0
  9
$UCSYDIR
 10
0.0
 20
1.0
 30
0.0
  9
$PUCSNAME
  2

  9
$PUCSORG
 10
0.0
 20
0.0
 30
0.0
  9
$PUCSXDIR
 10
1.0
 20
0.0
 30
0.0
  9
$PUCSYDIR
 10
0.0
 20
1.0
 30
0.0
  9
$USERI1
 70
     0
  9
$USERI2
 70
     0
  9
$USERI3
 70
     0
  9
$USERI4
 70
     0
  9
$USERI5
 70
     0
  9
$USERR1
 40
0.0
  9
$USERR2
 40
0.0
  9
$USERR3
 40
0.0
  9
$USERR4
 40
0.0
  9
$USERR5
 40
0.0
  9
$WORLDVIEW
 70
     1
  9
$SHADEDGE
 70
     3
  9
$SHADEDIF
 70
    70
  9
$TILEMODE
 70
     1
  9
$MAXACTVP
 70
    48
  9
$PLIMCHECK
 70
     0
  9
$PEXTMIN
 10
1.0000000000000000E+020
 20
1.0000000000000000E+020
 30
1.0000000000000000E+020
  9
$PEXTMAX
 10
-1.0000000000000000E+020
 20
-1.0000000000000000E+020
 30
-1.0000000000000000E+020
  9
$PLIMMIN
 10
0.0
 20
0.0
  9
$PLIMMAX
 10
420.0
 20
297.0
  9
$UNITMODE
 70
     0
  9
$VISRETAIN
 70
     1
  9
$PLINEGEN
 70
     0
  9
$PSLTSCALE
 70
     1
  0
ENDSEC
  0
SECTION
  2
TABLES
  0
TABLE
  2
VPORT
 70
     1
  0
VPORT
  2
*ACTIVE
 70
     0
 10
0.0
 20
0.0
 11
1.0
 21
1.0
 12
-18.837899894292601
 22
410.97974534631879
 13
0.0
 23
0.0
 14
7.5
 24
7.5
 15
30.0
 25
30.0
 16
0.0
 26
0.0
 36
1.0
 17
0.0
 27
0.0
 37
0.0
 40
465.56695055926042
 41
1.7571592210767459
 42
50.0
 43
0.0
 44
0.0
 50
0.0
 51
0.0
 71
    16
 72
   100
 73
     1
 74
     1
 75
     0
 76
     0
 77
     0
 78
     0
  0
ENDTAB
  0
TABLE
  2
LTYPE
 70
    21
  0
LTYPE
  2
CONTINUOUS
 70
     0
  3
Solid line
 72
    65
 73
     0
 40
0.0
  0
LTYPE
  2
PHANTOM2
 70
     0
  3
Phantom (.5x) ___ _ _ ___ _ _ ___ _ _ ___ _ _
 72
    65
 73
     6
 40
31.75
 49
15.875
 49
-3.174999999999998
 49
3.174999999999998
 49
-3.174999999999998
 49
3.174999999999998
 49
-3.174999999999998
  0
LTYPE
  2
CENTER
 70
     0
  3
Center ____ _ ____ _ ____ _ ____ _ ____ _ ____
 72
    65
 73
     4
 40
50.799999999999997
 49
31.75
 49
-6.3499999999999979
 49
6.3499999999999979
 49
-6.3499999999999979
  0
LTYPE
  2
ACANSTGBM
 70
     0
  3
__ . . __ . .
 72
    65
 73
     6
 40
9.0
 49
4.0
 49
-1.0
 49
1.0
 49
-1.0
 49
1.0
 49
-1.0
  0
LTYPE
  2
ACANSTGLM
 70
     0
  3
_ _ _ _ _
 72
    65
 73
     2
 40
3.0
 49
2.0
 49
-1.0
  0
LTYPE
  2
GEN3B
 70
     0
  3
 - - - - -
 72
    65
 73
     2
 40
1.0
 49
0.5
 49
-0.5
  0
LTYPE
  2
GEN7A
 70
     0
  3
__ . __ . __
 72
    65
 73
     4
 40
7.375
 49
4.75
 49
-0.875
 49
0.875
 49
-0.875
  0
LTYPE
  2
AM_ISO02W050
 70
     0
  3
__ __ __ __ __ __ __ __ __ __ __ __ __ __ __
 72
    65
 73
     2
 40
7.5
 49
6.0
 49
-1.5
  0
LTYPE
  2
AM_ISO08W050
 70
     0
  3
____ . ____ . ____ . ____ . ____ . ____ . ____
 72
    65
 73
     4
 40
18.0
 49
12.0
 49
-1.5
 49
3.0
 49
-1.5
  0
LTYPE
  2
AM_ISO09W050
 70
     0
  3
_____ . . _____ . . _____ . . ____ .. ____
 72
    65
 73
     6
 40
22.5
 49
12.0
 49
-1.5
 49
3.0
 49
-1.5
 49
3.0
 49
-1.5
  0
LTYPE
  2
AMCONSTR
 70
     0
  3
_______________________
 72
    65
 73
     2
 40
9999.0
 49
9999.0
 49
0.0
  0
LTYPE
  2
AM_ISO02W050X2
 70
     0
  3
 _ _ _ _ _ _ _ _ _ _ _ _
 72
    65
 73
     2
 40
3.75
 49
3.0
 49
-0.75
  0
LTYPE
  2
AM_ISO08W050X2
 70
     0
  3
__ . __ . __ . __ . __ . __
 72
    65
 73
     4
 40
9.0
 49
6.0
 49
-0.75
 49
1.5
 49
-0.75
  0
LTYPE
  2
AMZIGZAG
 70
     0
  3
/\/-/\/-/\/-/\/-/\/-/\/
 72
    65
 73
     2
 40
11.0001
 49
0.0001
 49
-11.0
  0
LTYPE
  2
ACJISTGB
 70
     0
  3
__ . . __ . .
 72
    65
 73
     6
 40
9.0
 49
4.0
 49
-1.0
 49
1.0
 49
-1.0
 49
1.0
 49
-1.0
  0
LTYPE
  2
ACJISTGL
 70
     0
  3
_ _ _ _ _
 72
    65
 73
     2
 40
3.0
 49
2.0
 49
-1.0
  0
LTYPE
  2
ACISOWELD
 70
     0
  3
_ _ _ _ _
 72
    65
 73
     2
 40
2.0
 49
2.0
 49
-1.0
  0
LTYPE
  2
ACISOTGB
 70
     0
  3
__ . . __ . .
 72
    65
 73
     6
 40
9.0
 49
4.0
 49
-1.0
 49
1.0
 49
-1.0
 49
1.0
 49
-1.0
  0
LTYPE
  2
ACISOTGL
 70
     0
  3
_ _ _ _ _
 72
    65
 73
     2
 40
3.0
 49
2.0
 49
-1.0
  0
LTYPE
  2
HIDDEN
 70
     0
  3
Hidden __ __ __ __ __ __ __ __ __ __ __ __ __ _
 72
    65
 73
     2
 40
9.5249999999999968
 49
6.3499999999999979
 49
-3.174999999999998
  0
ENDTAB
  0
TABLE
  2
LAYER
 70
     9
  0
LAYER
  2
0
 70
     0
 62
     7
  6
CONTINUOUS
  0
LAYER
  2
ｽﾝﾎﾟｳｾﾝ
 70
     0
 62
     2
  6
CONTINUOUS
  0
LAYER
  2
DEFPOINTS
 70
     0
 62
     7
  6
CONTINUOUS
  0
LAYER
  2
ｶｸﾚｾﾝ2
 70
     0
 62
     3
  6
GEN3B
  0
LAYER
  2
ﾁｭｳｼﾝｾﾝ1
 70
     0
 62
     1
  6
GEN7A
  0
LAYER
  2
AM_0
 70
     0
 62
     7
  6
CONTINUOUS
  0
LAYER
  2
AM_0N
 70
     0
 62
     7
  6
CONTINUOUS
  0
LAYER
  2
AM_5
 70
     0
 62
     2
  6
CONTINUOUS
  0
LAYER
  2
AM_4N
 70
     0
 62
     2
  6
CONTINUOUS
  0
ENDTAB
  0
TABLE
  2
STYLE
 70
     8
  0
STYLE
  2
STANDARD
 70
     0
 40
0.0
 41
0.8299999999999999
 50
0.0
 71
     0
 42
2.5
  3
txt.shx
  4
bigfont.shx
  0
STYLE
  2
ACANSTS
 70
     0
 40
1.0
 41
1.0
 50
0.0
 71
     0
 42
2.5
  3
romans.shx
  4
bigfont.shx
  0
STYLE
  2
ACANSGDT
 70
     0
 40
0.0
 41
1.0
 50
0.0
 71
     0
 42
2.5
  3
amgdtans.shx
  4

  0
STYLE
  2

 70
     1
 40
0.0
 41
1.0
 50
0.0
 71
     0
 42
2.5
  3
ltypeshp.shx
  4

  0
STYLE
  2
ACJISTS
 70
     0
 40
1.0
 41
1.0
 50
0.0
 71
     0
 42
2.5
  3
isocp.shx
  4
bigfont.shx
  0
STYLE
  2
ACJISGDT
 70
     0
 40
0.0
 41
1.0
 50
0.0
 71
     0
 42
2.5
  3
amgdt.shx
  4

  0
STYLE
  2
ACISOTS
 70
     0
 40
3.0
 41
1.0
 50
0.0
 71
     0
 42
2.5
  3
isocp.shx
  4
extfont.shx
  0
STYLE
  2
ACISOGDT
 70
     0
 40
0.0
 41
1.0
 50
0.0
 71
     0
 42
2.5
  3
amgdt.shx
  4

  0
ENDTAB
  0
TABLE
  2
VIEW
 70
    12
  0
VIEW
  2
GEN1
 70
     0
 40
95.824742268041234
 10
71.5
 20
137.08762886597941
 41
143.0
 11
0.0
 21
0.0
 31
1.0
 12
0.0
 22
0.0
 32
0.0
 42
50.0
 43
0.0
 44
0.0
 50
0.0
 71
     0
  0
VIEW
  2
GEN2
 70
     0
 40
95.824742268041234
 10
214.5
 20
137.08762886597941
 41
143.0
 11
0.0
 21
0.0
 31
1.0
 12
0.0
 22
0.0
 32
0.0
 42
50.0
 43
0.0
 44
0.0
 50
0.0
 71
     0
  0
VIEW
  2
GEN3
 70
     0
 40
95.824742268041234
 10
71.5
 20
47.912371134020603
 41
143.0
 11
0.0
 21
0.0
 31
1.0
 12
0.0
 22
0.0
 32
0.0
 42
50.0
 43
0.0
 44
0.0
 50
0.0
 71
     0
  0
VIEW
  2
GEN4
 70
     0
 40
95.824742268041234
 10
214.5
 20
47.912371134020603
 41
143.0
 11
0.0
 21
0.0
 31
1.0
 12
0.0
 22
0.0
 32
0.0
 42
50.0
 43
0.0
 44
0.0
 50
0.0
 71
     0
  0
VIEW
  2
GEN5
 70
     0
 40
95.824742268041234
 10
143.0
 20
92.500000000000057
 41
143.0
 11
0.0
 21
0.0
 31
1.0
 12
0.0
 22
0.0
 32
0.0
 42
50.0
 43
0.0
 44
0.0
 50
0.0
 71
     0
  0
VIEW
  2
GEN6
 70
     0
 40
191.64756804123709
 10
143.0
 20
92.5
 41
285.99714
 11
0.0
 21
0.0
 31
1.0
 12
0.0
 22
0.0
 32
0.0
 42
50.0
 43
0.0
 44
0.0
 50
0.0
 71
     0
  0
VIEW
  2
AM_VIEW1
 70
     0
 40
277.50000000000011
 10
249.64779005524869
 20
416.25000000000011
 41
499.29558011049721
 11
0.0
 21
0.0
 31
1.0
 12
0.0
 22
0.0
 32
0.0
 42
50.0
 43
0.0
 44
0.0
 50
0.0
 71
    16
  0
VIEW
  2
AM_VIEW2
 70
     0
 40
277.50000000000011
 10
603.85220994475117
 20
416.25000000000011
 41
499.29558011049721
 11
0.0
 21
0.0
 31
1.0
 12
0.0
 22
0.0
 32
0.0
 42
50.0
 43
0.0
 44
0.0
 50
0.0
 71
    16
  0
VIEW
  2
AM_VIEW3
 70
     0
 40
277.50000000000011
 10
249.64779005524869
 20
138.75
 41
499.29558011049721
 11
0.0
 21
0.0
 31
1.0
 12
0.0
 22
0.0
 32
0.0
 42
50.0
 43
0.0
 44
0.0
 50
0.0
 71
    16
  0
VIEW
  2
AM_VIEW4
 70
     0
 40
277.50000000000011
 10
603.85220994475117
 20
138.75
 41
499.29558011049721
 11
0.0
 21
0.0
 31
1.0
 12
0.0
 22
0.0
 32
0.0
 42
50.0
 43
0.0
 44
0.0
 50
0.0
 71
    16
  0
VIEW
  2
AM_VIEW5
 70
     0
 40
277.50000000000011
 10
426.75
 20
277.50000000000011
 41
499.2955801104971
 11
0.0
 21
0.0
 31
1.0
 12
0.0
 22
0.0
 32
0.0
 42
50.0
 43
0.0
 44
0.0
 50
0.0
 71
    16
  0
VIEW
  2
AM_VIEW6
 70
     0
 40
554.99445000000014
 10
426.75
 20
277.5
 41
998.5811743093924
 11
0.0
 21
0.0
 31
1.0
 12
0.0
 22
0.0
 32
0.0
 42
50.0
 43
0.0
 44
0.0
 50
0.0
 71
    16
  0
ENDTAB
  0
TABLE
  2
UCS
 70
     0
  0
ENDTAB
  0
TABLE
  2
APPID
 70
    96
  0
APPID
  2
ACAD
 70
     0
  0
APPID
  2
MCAD_NO_VIS
 70
     0
  0
APPID
  2
ACAD_TEMP_GRAPHIC
 70
     0
  0
APPID
  2
AD_DRAW
 70
     0
  0
APPID
  2
DESIGNERASSEMBLIES
 70
     0
  0
APPID
  2
ASURF_PCURVE_APPNAME
 70
     0
  0
APPID
  2
GENIUS_GE3SECT_13
 70
     0
  0
APPID
  2
GENIUS_GENCFG_13
 70
     0
  0
APPID
  2
GENIUS_GE3CFG0_13
 70
     0
  0
APPID
  2
GENIUS_GENCFG0_13
 70
     0
  0
APPID
  2
GENIUS_GENCFG1_13
 70
     0
  0
APPID
  2
GENIUS_GENCFG2_13
 70
     0
  0
APPID
  2
GENIUS_GENCFG3_13
 70
     0
  0
APPID
  2
GENIUS_GENCFG4_13
 70
     0
  0
APPID
  2
GENIUS_GEVCFG0_13
 70
     0
  0
APPID
  2
GENIUS_GENOENT_13
 70
     0
  0
APPID
  2
GENIUS_GENREC_14
 70
     0
  0
APPID
  2
GENIUS_GENODEF_13
 70
     0
  0
APPID
  2
GENIUS_GENOBJ-N-REC_13
 70
     0
  0
APPID
  2
GENIUS_GENHINW_13
 70
     0
  0
APPID
  2
GENIUS_FIRSTVISTXT_14
 70
     0
  0
APPID
  2
GENIUS_GENOBJ-N-LEADER_13
 70
     0
  0
APPID
  2
GENIUS_GENOREF_13
 70
     0
  0
APPID
  2
GENIUS_GENOLIS_13
 70
     0
  0
APPID
  2
GEV_VCCNULL_SWITCH_OFF
 70
     0
  0
APPID
  2
GENIUS_GENDTOL_13
 70
     0
  0
APPID
  2
GENIUS_GEFCFG0_13
 70
     0
  0
APPID
  2
GENIUS_GENOBJ-N-TIT_13
 70
     0
  0
APPID
  2
GENIUS_GENTITLE_13
 70
     0
  0
APPID
  2
GENIUS_GENZVEED_13
 70
     0
  0
APPID
  2
GENIUS_GENOBJ-N-SDF_13
 70
     0
  0
APPID
  2
GENIUS_GENSCREG_13
 70
     0
  0
APPID
  2
GENIUS_DUMCFG0_13
 70
     0
  0
APPID
  2
GEVID936201362
 70
     0
  0
APPID
  2
GEVDC
 70
     0
  0
APPID
  2
GEVCON
 70
     0
  0
APPID
  2
VCC
 70
     0
  0
APPID
  2
GEVPT
 70
     0
  0
APPID
  2
GEVIT
 70
     0
  0
APPID
  2
GENBH
 70
     0
  0
APPID
  2
GEVMK
 70
     0
  0
APPID
  2
GENIUS_GENBH_13
 70
     0
  0
APPID
  2
GENIUS_GENOBJ-NBEHI-BHF_13
 70
     0
  0
APPID
  2
GENIUS_GENOBJ-NBEHI-BHB_13
 70
     0
  0
APPID
  2
GENIUS_GENOBJ-F-DESC_13
 70
     0
  0
APPID
  2
GENIUS_GEFDESC_14
 70
     0
  0
APPID
  2
GENIUS_GENOBJ-F-PART_13
 70
     0
  0
APPID
  2
GENIUS_GEFSTDP_13
 70
     0
  0
APPID
  2
GENIUS_GEFPARTINS_13
 70
     0
  0
APPID
  2
GENIUS_GENTRA_14
 70
     0
  0
APPID
  2
GENIUS_GENINF13_13
 70
     0
  0
APPID
  2
GENIUS_GENOBJ-N-INFOPT_13
 70
     0
  0
APPID
  2
GENIUS_GENOBJ-N-RSSYM_13
 70
     0
  0
APPID
  2
GENIUS_GENSYMENT_13
 70
     0
  0
APPID
  2
GENIUS_GENSCSYM_13
 70
     0
  0
APPID
  2
GENIUS_GEFINFNAM_13
 70
     0
  0
APPID
  2
GENIUS_GENSCREG_15
 70
     0
  0
APPID
  2
GENIUS_GENOBJ-N-CEN_13
 70
     0
  0
APPID
  2
GENIUS_GENOBJ-N-CRS_13
 70
     0
  0
APPID
  2
GENIUS_GENOBJ-N-CRC_13
 70
     0
  0
APPID
  2
GENIUS_GENCRC_14
 70
     0
  0
APPID
  2
GEVID942827039
 70
     0
  0
APPID
  2
GEVID942827040
 70
     0
  0
APPID
  2
GEVID942827041
 70
     0
  0
APPID
  2
GENIUS_GENOBJ-F-SCPASSM_13
 70
     0
  0
APPID
  2
GENIUS_GENDIMSH_14
 70
     0
  0
APPID
  2
GENIUS_GENFIL_13
 70
     0
  0
APPID
  2
GENIUS_GENOBJ-N-CHA_13
 70
     0
  0
APPID
  2
GENIUS_GENOBJ-N-FIL_13
 70
     0
  0
APPID
  2
GEVID942827042
 70
     0
  0
APPID
  2
GEVID946020473
 70
     0
  0
APPID
  2
GEVID946020474
 70
     0
  0
APPID
  2
GEVID946020475
 70
     0
  0
APPID
  2
GENIUS_GENOBJ-N-HTC_13
 70
     0
  0
APPID
  2
GENIUS_GENHATCH_13
 70
     0
  0
APPID
  2
GEVID948854295
 70
     0
  0
APPID
  2
GEVID939402019
 70
     0
  0
APPID
  2
GEVID952919491
 70
     0
  0
APPID
  2
GEVID952919492
 70
     0
  0
APPID
  2
GENIUS_GEFWELD_13
 70
     0
  0
APPID
  2
GENIUS_GENOBJ-F-WELS_13
 70
     0
  0
APPID
  2
GEVID952919493
 70
     0
  0
APPID
  2
GENIUS_GENOBJ-N-RSBK_13
 70
     0
  0
APPID
  2
GENIUS_GENOBJ-N-LIB_13
 70
     0
  0
APPID
  2
GENIUS_GENSCALE_13
 70
     0
  0
APPID
  2
GEVID986376691
 70
     0
  0
APPID
  2
ACATTRIBSERVICES
 70
     0
  0
APPID
  2
DCO15
 70
     0
  0
APPID
  2
ACADM_DIM_EDIT
 70
     0
  0
APPID
  2
AMDT_DM_ADJ
 70
     0
  0
APPID
  2
ACAD_MLEADERVER
 70
     0
  0
APPID
  2
ACAD_DSTYLE_DIMBREAK
 70
     0
  0
APPID
  2
ACAD_DSTYLE_DIMJAG
 70
     0
  0
APPID
  2
ACAD_NAV_VCDISPLAY
 70
     0
  0
APPID
  2
ACADANNOPO
 70
     0
  0
APPID
  2
ACAD_EXEMPT_FROM_CAD_STANDARDS
 70
     0
  0
ENDTAB
  0
TABLE
  2
DIMSTYLE
 70
    15
  0
DIMSTYLE
  2
STANDARD
 70
     0
  3

  4

  5

  6

  7

 40
1.0
 41
0.18
 42
0.0625
 43
0.38
 44
0.18
 45
0.0
 46
0.0
 47
0.0
 48
0.0
140
0.18
141
0.09
142
0.0
143
25.399999999999999
144
1.0
145
0.0
146
1.0
147
0.09
 71
     0
 72
     0
 73
     1
 74
     1
 75
     0
 76
     0
 77
     0
 78
     0
170
     0
171
     2
172
     0
173
     0
174
     0
175
     0
176
     0
177
     0
178
     0
  0
DIMSTYLE
  2
AM_JIS
 70
     0
  3

  4
"
  5

  6

  7

 40
1.0
 41
2.5
 42
1.0
 43
7.0
 44
1.0
 45
0.0
 46
0.0
 47
0.1
 48
0.1000000001
140
2.5
141
0.0
142
0.0
143
0.0393701
144
1.0
145
0.0
146
0.71
147
1.0
 71
     0
 72
     0
 73
     0
 74
     0
 75
     0
 76
     0
 77
     3
 78
     8
170
     0
171
     2
172
     1
173
     0
174
     0
175
     0
176
   256
177
   256
178
     4
  0
DIMSTYLE
  2
AM_JIS$3
 70
     0
  3

  4
"
  5

  6

  7

 40
1.0
 41
2.5
 42
1.0
 43
7.0
 44
1.0
 45
0.0
 46
0.0
 47
0.1
 48
0.1000000001
140
2.5
141
0.0
142
0.0
143
0.0393701
144
1.0
145
0.0
146
0.71
147
1.0
 71
     0
 72
     0
 73
     0
 74
     1
 75
     0
 76
     0
 77
     3
 78
     8
170
     0
171
     2
172
     0
173
     0
174
     0
175
     0
176
   256
177
   256
178
     4
  0
DIMSTYLE
  2
AM_JIS$4
 70
     0
  3

  4
"
  5

  6

  7

 40
1.0
 41
2.5
 42
1.0
 43
7.0
 44
1.0
 45
0.0
 46
0.0
 47
0.1
 48
0.1000000001
140
2.5
141
0.0
142
0.0
143
0.0393701
144
1.0
145
0.0
146
0.71
147
1.0
 71
     0
 72
     0
 73
     0
 74
     0
 75
     0
 76
     0
 77
     3
 78
     8
170
     0
171
     2
172
     0
173
     0
174
     0
175
     0
176
   256
177
   256
178
     4
  0
DIMSTYLE
  2
AM_JIS$6
 70
     0
  3

  4
"
  5

  6

  7

 40
1.0
 41
2.5
 42
1.0
 43
7.0
 44
1.0
 45
0.0
 46
0.0
 47
0.1
 48
0.1000000001
140
2.5
141
0.0
142
0.0
143
0.0393701
144
1.0
145
0.0
146
0.71
147
1.0
 71
     0
 72
     0
 73
     0
 74
     0
 75
     0
 76
     0
 77
     0
 78
     8
170
     0
171
     2
172
     1
173
     0
174
     0
175
     0
176
   256
177
   256
178
     4
  0
DIMSTYLE
  2
AM_JIS$7
 70
     0
  3

  4
"
  5

  6

  7

 40
1.0
 41
2.5
 42
1.0
 43
7.0
 44
1.0
 45
0.0
 46
0.0
 47
0.1
 48
0.1000000001
140
2.5
141
0.0
142
0.0
143
0.0393701
144
1.0
145
0.0
146
0.71
147
1.0
 71
     0
 72
     0
 73
     0
 74
     0
 75
     0
 76
     0
 77
     3
 78
     8
170
     0
171
     2
172
     1
173
     0
174
     0
175
     0
176
   256
177
   256
178
     4
  0
DIMSTYLE
  2
AM_JIS$SF
 70
     0
  3

  4
"
  5
OPEN30
  6
OPEN30
  7
OPEN30
 40
1.0
 41
2.5
 42
1.0
 43
10.0
 44
1.0
 45
0.0
 46
0.0
 47
0.1
 48
0.1
140
3.5
141
0.0
142
0.0
143
0.0393701
144
1.0
145
0.0
146
0.71
147
1.5
 71
     0
 72
     0
 73
     0
 74
     0
 75
     1
 76
     1
 77
     3
 78
     8
170
     0
171
     2
172
     1
173
     0
174
     0
175
     0
176
   256
177
   256
178
     4
  0
DIMSTYLE
  2
AM_JIS$SH
 70
     0
  3

  4
"
  5

  6
NONE
  7

 40
1.0
 41
2.5
 42
1.0
 43
10.0
 44
1.0
 45
0.0
 46
0.0
 47
0.1
 48
0.1
140
3.5
141
0.0
142
0.0
143
0.0393701
144
1.0
145
0.0
146
0.71
147
1.5
 71
     0
 72
     0
 73
     0
 74
     0
 75
     1
 76
     0
 77
     3
 78
     8
170
     0
171
     2
172
     1
173
     1
174
     0
175
     0
176
   256
177
   256
178
     4
  0
DIMSTYLE
  2
AM_ISO
 70
     0
  3

  4
"
  5

  6

  7

 40
1.0
 41
2.5
 42
1.0
 43
10.0
 44
1.0
 45
0.0
 46
0.0
 47
0.0
 48
0.000000001
140
3.0
141
0.0
142
0.0
143
0.0393701
144
1.0
145
0.0
146
0.71
147
1.299999999999998
 71
     1
 72
     0
 73
     0
 74
     0
 75
     0
 76
     0
 77
     1
 78
     8
170
     0
171
     2
172
     1
173
     0
174
     0
175
     0
176
   256
177
   256
178
     4
  0
DIMSTYLE
  2
AM_ISO$3
 70
     0
  3

  4
"
  5

  6

  7

 40
1.0
 41
2.5
 42
1.0
 43
10.0
 44
1.0
 45
0.0
 46
0.0
 47
0.0
 48
0.000000001
140
2.5
141
0.0
142
0.0
143
0.0393701
144
1.0
145
0.0
146
0.71
147
1.299999999999998
 71
     1
 72
     0
 73
     0
 74
     1
 75
     0
 76
     0
 77
     1
 78
     8
170
     0
171
     2
172
     0
173
     0
174
     0
175
     0
176
   256
177
   256
178
     4
  0
DIMSTYLE
  2
AM_ISO$4
 70
     0
  3

  4
"
  5

  6

  7

 40
1.0
 41
2.5
 42
1.0
 43
10.0
 44
1.0
 45
0.0
 46
0.0
 47
0.0
 48
0.000000001
140
2.5
141
0.0
142
0.0
143
0.0393701
144
1.0
145
0.0
146
0.71
147
1.299999999999998
 71
     1
 72
     0
 73
     0
 74
     1
 75
     0
 76
     0
 77
     1
 78
     8
170
     0
171
     2
172
     0
173
     0
174
     0
175
     0
176
   256
177
   256
178
     4
  0
DIMSTYLE
  2
AM_ISO$6
 70
     0
  3

  4
"
  5

  6

  7

 40
1.0
 41
2.5
 42
1.0
 43
10.0
 44
1.0
 45
0.0
 46
0.0
 47
0.0
 48
0.000000001
140
2.5
141
0.0
142
0.0
143
0.0393701
144
1.0
145
0.0
146
0.71
147
1.299999999999998
 71
     1
 72
     0
 73
     0
 74
     0
 75
     0
 76
     0
 77
     0
 78
     8
170
     0
171
     2
172
     1
173
     0
174
     0
175
     0
176
   256
177
   256
178
     4
  0
DIMSTYLE
  2
AM_ISO$7
 70
     0
  3

  4
"
  5

  6

  7

 40
1.0
 41
2.5
 42
1.0
 43
10.0
 44
1.0
 45
0.0
 46
0.0
 47
0.0
 48
0.000000001
140
2.5
141
0.0
142
0.0
143
0.0393701
144
1.0
145
0.0
146
0.71
147
1.299999999999998
 71
     1
 72
     0
 73
     0
 74
     0
 75
     0
 76
     0
 77
     1
 78
     8
170
     0
171
     2
172
     1
173
     0
174
     0
175
     0
176
   256
177
   256
178
     4
  0
DIMSTYLE
  2
AM_ISO$SF
 70
     0
  3

  4
"
  5

  6

  7

 40
1.0
 41
2.5
 42
1.0
 43
10.0
 44
1.0
 45
0.0
 46
0.0
 47
0.1
 48
0.1
140
3.5
141
0.0
142
0.0
143
0.0393701
144
1.0
145
0.0
146
0.71
147
1.5
 71
     0
 72
     0
 73
     0
 74
     0
 75
     1
 76
     1
 77
     1
 78
     8
170
     0
171
     2
172
     1
173
     0
174
     0
175
     0
176
   256
177
   256
178
     4
  0
DIMSTYLE
  2
AM_ISO$SH
 70
     0
  3

  4
"
  5

  6
GENAXEH
  7

 40
1.0
 41
2.5
 42
1.0
 43
10.0
 44
1.0
 45
0.0
 46
0.0
 47
0.1
 48
0.1
140
3.5
141
0.0
142
0.0
143
0.0393701
144
2.0
145
0.0
146
0.71
147
1.5
 71
     0
 72
     0
 73
     0
 74
     0
 75
     1
 76
     1
 77
     1
 78
     8
170
     0
171
     2
172
     1
173
     1
174
     0
175
     0
176
   256
177
   256
178
     4
  0
ENDTAB
  0
ENDSEC
  0
SECTION
  2
BLOCKS
  0
BLOCK
  8
0
  2
$MODEL_SPACE
 70
     0
 10
0.0
 20
0.0
 30
0.0
  3
$MODEL_SPACE
  1

  0
ENDBLK
  5
1A
  8
0
  0
BLOCK
 67
     1
  8
0
  2
$PAPER_SPACE
 70
     0
 10
0.0
 20
0.0
 30
0.0
  3
$PAPER_SPACE
  1

  0
ENDBLK
  5
17
 67
     1
  8
0
  0
BLOCK
  8
0
  2
_OPEN30
 70
     0
 10
0.0
 20
0.0
 30
0.0
  3
_OPEN30
  1

  0
LINE
  5
21C5
  8
0
 62
     0
 10
-1.0
 20
0.26794919
 30
0.0
 11
0.0
 21
0.0
 31
0.0
  0
LINE
  5
21C6
  8
0
 62
     0
 10
0.0
 20
0.0
 30
0.0
 11
-1.0
 21
-0.26794919
 31
0.0
  0
LINE
  5
21C7
  8
0
 62
     0
 10
0.0
 20
0.0
 30
0.0
 11
-1.0
 21
0.0
 31
0.0
  0
ENDBLK
  5
21C9
  8
0
  0
BLOCK
  8
0
  2
GENAXEH
 70
     0
 10
0.0
 20
0.0
 30
0.0
  3
GENAXEH
  1

  0
LINE
  5
21D0
  8
0
 10
-1.0
 20
0.0
 30
0.0
 11
1.0
 21
0.0
 31
0.0
  0
ENDBLK
  5
21D2
  8
0
  0
BLOCK
  8
0
  2
_NONE
 70
     0
 10
0.0
 20
0.0
 30
0.0
  3
_NONE
  1

  0
ENDBLK
  5
8193
  8
0
  0
BLOCK
  8
0
  2
*U5
 70
     1
 10
0.0
 20
0.0
 30
0.0
  3
*U5
  1

  0
SOLID
  5
1FC17
  8
AM_0
  6
CONTINUOUS
 10
116.73397231411781
 20
488.65646228091629
 30
0.0
 11
112.73397231411781
 21
488.65646228091629
 31
0.0
 12
116.73397231411781
 22
484.65646228091629
 32
0.0
 13
116.73397231411781
 23
484.65646228091629
 33
0.0
210
0.0
220
0.0
230
-1.0
  0
LINE
  5
1FC18
  8
AM_0
  6
CONTINUOUS
 10
-112.73397231411781
 20
488.65646228091629
 30
0.0
 11
-116.73397231411781
 21
484.65646228091629
 31
0.0
  0
LINE
  5
1FC19
  8
AM_0
  6
CONTINUOUS
 10
-116.73397231411781
 20
484.65646228091629
 30
0.0
 11
-116.73397231411781
 21
488.65646228091629
 31
0.0
  0
ENDBLK
  5
1FC1B
  8
0
  0
BLOCK
  8
0
  2
*U6
 70
     1
 10
0.0
 20
0.0
 30
0.0
  3
*U6
  1

  0
SOLID
  5
1FC1D
  8
AM_0
  6
CONTINUOUS
 10
125.23397231411781
 20
488.65646228091629
 30
0.0
 11
121.23397231411781
 21
488.65646228091629
 31
0.0
 12
121.23397231411781
 22
484.65646228091629
 32
0.0
 13
121.23397231411781
 23
484.65646228091629
 33
0.0
210
0.0
220
0.0
230
-1.0
  0
LINE
  5
1FC1E
  8
AM_0
  6
CONTINUOUS
 10
-121.23397231411781
 20
488.65646228091629
 30
0.0
 11
-121.23397231411781
 21
484.65646228091629
 31
0.0
  0
LINE
  5
1FC1F
  8
AM_0
  6
CONTINUOUS
 10
-121.23397231411781
 20
484.65646228091629
 30
0.0
 11
-125.23397231411781
 21
488.65646228091629
 31
0.0
  0
ENDBLK
  5
1FC21
  8
0
  0
BLOCK
  8
0
  2
*U7
 70
     1
 10
0.0
 20
0.0
 30
0.0
  3
*U7
  1

  0
SOLID
  5
1FC23
  8
AM_0
  6
CONTINUOUS
 10
116.73397231411781
 20
599.65648121283937
 30
0.0
 11
112.73397231411781
 21
595.65648121283937
 31
0.0
 12
116.73397231411781
 22
595.65648121283937
 32
0.0
 13
116.73397231411781
 23
595.65648121283937
 33
0.0
210
0.0
220
0.0
230
-1.0
  0
LINE
  5
1FC24
  8
AM_0
  6
CONTINUOUS
 10
-116.73397231411781
 20
599.65648121283937
 30
0.0
 11
-112.73397231411781
 21
595.65648121283937
 31
0.0
  0
LINE
  5
1FC25
  8
AM_0
  6
CONTINUOUS
 10
-116.73397231411781
 20
595.65648121283937
 30
0.0
 11
-116.73397231411781
 21
599.65648121283937
 31
0.0
  0
ENDBLK
  5
1FC27
  8
0
  0
BLOCK
  8
0
  2
*U8
 70
     1
 10
0.0
 20
0.0
 30
0.0
  3
*U8
  1

  0
SOLID
  5
1FC29
  8
AM_0
  6
CONTINUOUS
 10
121.23397231411781
 20
599.65648121283937
 30
0.0
 11
121.23397231411781
 21
595.65648121283937
 31
0.0
 12
125.23397231411781
 22
595.65648121283937
 32
0.0
 13
125.23397231411781
 23
595.65648121283937
 33
0.0
210
0.0
220
0.0
230
-1.0
  0
LINE
  5
1FC2A
  8
AM_0
  6
CONTINUOUS
 10
-121.23397231411781
 20
599.65648121283937
 30
0.0
 11
-121.23397231411781
 21
595.65648121283937
 31
0.0
  0
LINE
  5
1FC2B
  8
AM_0
  6
CONTINUOUS
 10
-125.23397231411781
 20
595.65648121283937
 30
0.0
 11
-121.23397231411781
 21
599.65648121283937
 31
0.0
  0
ENDBLK
  5
1FC2D
  8
0
  0
ENDSEC
  0
SECTION
  2
ENTITIES
  0
POINT
  5
1B94
  8
0
 10
0.0
 20
0.0
 30
0.0
1001
GENIUS_GENODEF_13
1002
{
1000
HIER
1070
     1
1002
}
1002
{
1000
MANEDIT
1070
     0
1002
}
1002
{
1000
NOSEL
1070
     0
1002
}
1002
{
1000
BEHIND
1070
     0
1002
}
1002
{
1000
REACTOR
1002
}
1001
GENIUS_GENOBJ-N-SDF_13
1002
{
1000
OWNER
1000
GEN
1002
}
1001
GENIUS_GENOENT_13
1002
{
1000
MYREF
1005
1B94
1002
}
1002
{
1000
GRP
1005
0
1002
}
1001
GENIUS_GENOLIS_13
1002
{
1000
ENT
1005
89
1002
}
  0
ARC
  5
1C8BF
  8
AM_0
 10
230.21991471237899
 20
274.3430187907947
 30
0.0
 40
63.989566999999987
 50
359.97617360441342
 51
34.083551417677
  0
LINE
  5
1C8C6
  8
AM_0
 10
177.21741555646111
 20
311.81179199743468
 30
0.0
 11
177.21741555646111
 21
236.8125397622826
 31
0.0
  0
LINE
  5
1C8C7
  8
AM_0
 10
283.21742623890231
 20
311.81179199743468
 30
0.0
 11
283.21742623890231
 21
236.8125397622826
 31
0.0
  0
LINE
  5
1C8C8
  8
AM_0
 10
279.21743375308762
 20
199.3121658798589
 30
0.0
 11
279.21743375308739
 21
336.95006064852993
 31
0.0
  0
LINE
  5
1C8C9
  8
AM_0
 10
181.21742330106491
 20
337.96244069151879
 30
0.0
 11
181.21742330106471
 21
199.3121658798589
 31
0.0
  0
LINE
  5
1C8CA
  8
AM_0
 10
201.2174238771116
 20
210.31280397252931
 30
0.0
 11
201.2174238771116
 21
338.31152778718831
 31
0.0
  0
LINE
  5
1C8CB
  8
ﾁｭｳｼﾝｾﾝ1
 10
230.21742471237889
 20
343.57916428473419
 30
0.0
 11
230.21742471237889
 21
192.8021710330334
 31
0.0
  0
LINE
  5
1C8CD
  8
0
 10
162.21041867639411
 20
291.81216587985858
 30
0.0
 11
162.21041867639411
 21
256.81216587985853
 31
0.0
  0
LINE
  5
1C8CE
  8
AM_0
 10
120.2104186763941
 20
260.31216587985841
 30
0.0
 11
120.2104186763941
 21
291.31216587985853
 31
0.0
  0
LINE
  5
1C8CF
  8
AM_0
 10
173.21742306664629
 20
296.81216655041089
 30
0.0
 11
173.21742306664629
 21
251.81216520930639
 31
0.0
  0
LINE
  5
1C8D3
  8
ﾁｭｳｼﾝｾﾝ1
 10
113.75753809041871
 20
274.31216587985892
 30
0.0
 11
333.61659383725839
 21
274.30550555718912
 31
0.0
  0
LINE
  5
1C8D6
  8
AM_0
 10
201.2174238771116
 20
210.31280397252951
 30
0.0
 11
279.21743375308739
 21
211.67427111118789
 31
0.0
  0
LINE
  5
1CBAB
  8
AM_0
 10
145.2174247123786
 20
203.81216587985881
 30
0.0
 11
145.21742471237869
 21
193.81216587985881
 31
0.0
  0
LINE
  5
1CBAC
  8
ﾁｭｳｼﾝｾﾝ1
 10
152.7174247123788
 20
202.3121658798589
 30
0.0
 11
152.7174247123788
 21
180.81216587985881
 31
0.0
  0
ARC
  5
1CBAD
  8
AM_0
 10
171.2174233010648
 20
199.3121658798589
 30
0.0
 40
10.0
 50
270.0
 51
0.0
1001
GENIUS_GENODEF_13
1002
{
1000
HIER
1070
     0
1002
}
1002
{
1000
MANEDIT
1070
     0
1002
}
1002
{
1000
NOSEL
1070
     0
1002
}
1002
{
1000
BEHIND
1070
     0
1002
}
1002
{
1000
OTHER
1070
     0
1002
}
1002
{
1000
REACTOR
1002
}
1001
GENIUS_GENOBJ-N-FIL_13
1002
{
1000
OWNER
1000
GEN
1002
}
  0
LINE
  5
1CBAE
  8
AM_0
 10
170.57276377170609
 20
193.81216587985881
 30
0.0
 11
176.7174156716701
 21
199.9568177798229
 31
0.0
  0
ARC
  5
1CBAF
  8
AM_0
 10
171.7174156716701
 20
198.81216587985881
 30
0.0
 40
5.0
 50
270.0
 51
0.0
1001
GENIUS_GENOBJ-N-FIL_13
1002
{
1000
OWNER
1000
GEN
1002
}
1001
GENIUS_GENODEF_13
1002
{
1000
HIER
1070
     0
1002
}
1002
{
1000
MANEDIT
1070
     0
1002
}
1002
{
1000
NOSEL
1070
     0
1002
}
1002
{
1000
BEHIND
1070
     0
1002
}
1002
{
1000
OTHER
1070
     0
1002
}
1002
{
1000
REACTOR
1002
}
  0
LINE
  5
1CBB1
  8
AM_0
 10
137.71742471237869
 20
193.81216587985881
 30
0.0
 11
171.7174156716701
 21
193.81216587985881
 31
0.0
  0
LINE
  5
1CBB2
  8
AM_0
 10
137.71742471237869
 20
189.31216587985881
 30
0.0
 11
171.2174233010648
 21
189.31216587985881
 31
0.0
  0
LINE
  5
1CBB3
  8
AM_0
 10
137.71742471237869
 20
193.81216587985881
 30
0.0
 11
137.71742471237869
 21
189.31216587985881
 31
0.0
  0
LINE
  5
1CBB4
  8
ｶｸﾚｾﾝ2
 10
146.7174247123788
 20
193.81216587985881
 30
0.0
 11
146.71742471237889
 21
189.31216587985881
 31
0.0
  0
LINE
  5
1CBB5
  8
ｶｸﾚｾﾝ2
 10
158.71742471237889
 20
193.81216587985881
 30
0.0
 11
158.717424712379
 21
189.31216587985881
 31
0.0
  0
ARC
  5
1CBB8
  8
AM_0
 10
230.21991471237899
 20
274.3430187907947
 30
0.0
 40
63.989566999999987
 50
325.91644858232303
 51
359.97617360441342
  0
LINE
  5
1CBB9
  8
AM_0
 10
182.21742330006501
 20
233.3125858798588
 30
0.0
 11
182.21742330006521
 21
241.3124858798588
 31
0.0
  0
LINE
  5
1CBBA
  8
AM_0
 10
188.21742329406499
 20
243.31247587985891
 30
0.0
 11
188.21742329406499
 21
231.3125958798588
 31
0.0
  0
LINE
  5
1CBBB
  8
AM_0
 10
174.7174156716701
 20
227.2214343301533
 30
0.0
 11
167.4780746513274
 21
227.2214343301533
 31
0.0
1001
GENIUS_GENOREF_13
1005
0
  0
LINE
  5
1CBBC
  8
AM_0
 10
174.7174156716701
 20
232.1301843301533
 30
0.0
 11
167.4780746513274
 21
232.1301843301533
 31
0.0
1001
GENIUS_GENOREF_13
1005
0
  0
LINE
  5
1CBBD
  8
AM_0
 10
174.7174156716701
 20
217.40393433015331
 30
0.0
 11
167.4780746513274
 21
217.40393433015331
 31
0.0
1001
GENIUS_GENOREF_13
1005
0
  0
LINE
  5
1CBBE
  8
AM_0
 10
174.7174156716701
 20
212.49518433015331
 30
0.0
 11
167.4780746513274
 21
212.49518433015331
 31
0.0
1001
GENIUS_GENOREF_13
1005
0
  0
LINE
  5
1CBBF
  8
AM_0
 10
166.7174156716701
 20
213.8126843301533
 30
0.0
 11
166.7174156716701
 21
230.8126843301533
 31
0.0
1001
GENIUS_GENOREF_13
1005
0
  0
ARC
  5
1CBC0
  8
AM_0
 10
171.0574411630754
 20
214.94955933015331
 30
0.0
 40
4.3400254914053003
 50
145.5615305952663
 51
214.43846940473361
1001
GENIUS_GENOREF_13
1005
0
  0
LINE
  5
1CBC1
  8
AM_0
 10
145.2174247123786
 20
203.81216587985881
 30
0.0
 11
165.71743375308759
 21
224.312174920568
 31
0.0
  0
LINE
  5
1CBC2
  8
AM_0
 10
167.4780746513274
 20
212.49518433015331
 30
0.0
 11
166.7174156716701
 21
213.8126843301533
 31
0.0
1001
GENIUS_GENOREF_13
1005
0
  0
ARC
  5
1CBC3
  8
AM_0
 10
182.93652916780511
 20
222.3126843301533
 30
0.0
 40
16.219113496135169
 50
162.38303115960881
 51
197.61696884039111
1001
GENIUS_GENOREF_13
1005
0
  0
LINE
  5
1CBC4
  8
AM_0N
 10
166.63760875308759
 20
227.3126843301533
 30
0.0
 11
166.63760875308759
 21
217.3126843301533
 31
0.0
1001
GENIUS_GENOREF_13
1005
0
  0
LINE
  5
1CBC5
  8
AM_0N
 10
166.63760875308759
 20
227.3126843301533
 30
0.0
 11
165.71743375308759
 21
226.3925093301533
 31
0.0
1001
GENIUS_GENOREF_13
1005
0
  0
LINE
  5
1CBC6
  8
AM_0N
 10
165.71743375308759
 20
226.3925093301533
 30
0.0
 11
165.71743375308759
 21
218.2328593301533
 31
0.0
1001
GENIUS_GENOREF_13
1005
0
  0
LINE
  5
1CBC7
  8
AM_0N
 10
166.71741567167001
 20
217.3126843301533
 30
0.0
 11
166.63760875308759
 21
217.3126843301533
 31
0.0
1001
GENIUS_GENOREF_13
1005
0
  0
LINE
  5
1CBC8
  8
AM_0N
 10
166.63760875308759
 20
217.3126843301533
 30
0.0
 11
165.71743375308759
 21
218.2328593301533
 31
0.0
1001
GENIUS_GENOREF_13
1005
0
  0
LINE
  5
1CBC9
  8
AM_4N
 10
165.71743375308759
 20
218.2328593301533
 30
0.0
 11
166.7174156716701
 21
218.2328593301533
 31
0.0
1001
GENIUS_GENOREF_13
1005
0
  0
LINE
  5
1CBCA
  8
AM_4N
 10
165.71743375308759
 20
226.3925093301533
 30
0.0
 11
166.7174156716701
 21
226.3925093301533
 31
0.0
1001
GENIUS_GENOREF_13
1005
0
  0
LINE
  5
1CBCB
  8
AM_0
 10
167.4780746513274
 20
232.1301843301533
 30
0.0
 11
166.7174156716701
 21
230.8126843301533
 31
0.0
1001
GENIUS_GENOREF_13
1005
0
  0
ARC
  5
1CBCC
  8
AM_0
 10
171.0574411630754
 20
229.6758093301533
 30
0.0
 40
4.3400254914053003
 50
154.4384694047331
 51
214.43846940473361
1001
GENIUS_GENOREF_13
1005
0
  0
LINE
  5
1CBCD
  8
AM_0N
 10
166.71741567167001
 20
227.3126843301533
 30
0.0
 11
166.63760875308759
 21
227.3126843301533
 31
0.0
1001
GENIUS_GENOREF_13
1005
0
  0
LINE
  5
1CBCE
  8
AM_0
 10
176.7174156716701
 20
198.81216587985881
 30
0.0
 11
176.71741567167001
 21
234.3121658798589
 31
0.0
  0
LINE
  5
1CBCF
  8
AM_0
 10
174.7174156716701
 20
211.8126843301533
 30
0.0
 11
174.7174156716701
 21
232.8126843301533
 31
0.0
  0
LINE
  5
1CBD0
  8
AM_0
 10
181.21742330106491
 20
210.6618910681992
 30
0.0
 11
201.2174238771116
 21
210.31280397252951
 31
0.0
  0
LINE
  5
1CBD1
  8
AM_0
 10
176.7174156716701
 20
211.8126843301533
 30
0.0
 11
174.7174156716701
 21
211.8126843301533
 31
0.0
  0
LINE
  5
1CBD2
  8
AM_0
 10
181.21742330106491
 20
231.3125958798588
 30
0.0
 11
188.21742329406499
 21
231.3125958798588
 31
0.0
  0
LINE
  5
1CBD3
  8
AM_0
 10
188.21742329406499
 20
232.3125858798588
 30
0.0
 11
183.21742330006501
 21
232.3125858798588
 31
0.0
  0
LINE
  5
1CBD4
  8
AM_0
 10
176.71741567167001
 20
234.3121658798589
 30
0.0
 11
181.2174156716701
 21
234.31216587985881
 31
0.0
  0
LINE
  5
1CBD5
  8
AM_0
 10
177.21741555646111
 20
236.8125397622826
 30
0.0
 11
181.21741567167041
 21
236.8125397622826
 31
0.0
  0
LINE
  5
1CBD6
  8
AM_0
 10
174.7174156716701
 20
232.8126843301533
 30
0.0
 11
176.7174156716701
 21
232.8126843301533
 31
0.0
  0
ARC
  5
1CBD7
  8
AM_0
 10
183.21742330006501
 20
233.3125858798588
 30
0.0
 40
1.0
 50
180.0
 51
270.0
1001
GENIUS_GENODEF_13
1002
{
1000
HIER
1070
     0
1002
}
1002
{
1000
MANEDIT
1070
     0
1002
}
1002
{
1000
NOSEL
1070
     0
1002
}
1002
{
1000
BEHIND
1070
     0
1002
}
1002
{
1000
OTHER
1070
     0
1002
}
1002
{
1000
REACTOR
1002
}
1001
GENIUS_GENOBJ-N-FIL_13
1002
{
1000
OWNER
1000
GEN
1002
}
  0
LINE
  5
1CBE1
  8
AM_0
 10
181.21742330106491
 20
243.31247587985891
 30
0.0
 11
188.21742329406499
 21
243.31247587985891
 31
0.0
  0
LINE
  5
1CBE2
  8
AM_0
 10
183.21742330006521
 20
242.31248587985891
 30
0.0
 11
188.21742329406499
 21
242.31248587985891
 31
0.0
  0
ARC
  5
1CBE3
  8
AM_0
 10
183.21742330006521
 20
241.3124858798588
 30
0.0
 40
1.0
 50
90.0
 51
180.0
1001
GENIUS_GENODEF_13
1002
{
1000
HIER
1070
     0
1002
}
1002
{
1000
MANEDIT
1070
     0
1002
}
1002
{
1000
NOSEL
1070
     0
1002
}
1002
{
1000
BEHIND
1070
     0
1002
}
1002
{
1000
OTHER
1070
     0
1002
}
1002
{
1000
REACTOR
1002
}
1001
GENIUS_GENOBJ-N-FIL_13
1002
{
1000
OWNER
1000
GEN
1002
}
  0
ARC
  5
1CBE5
  8
AM_0
 10
230.20742471237901
 20
274.29949879079493
 30
0.0
 40
64.003665999999996
 50
263.60293419190413
 51
278.39702454108073
  0
LINE
  5
1CBE6
  8
AM_0
 10
216.23599600899431
 20
210.57494871404481
 30
0.0
 11
216.2174247123792
 21
210.0363787907948
 31
0.0
  0
LINE
  5
1CBE7
  8
AM_0
 10
214.1997133558904
 20
210.5394060016576
 30
0.0
 11
214.21742471237869
 21
210.03640879079521
 31
0.0
  0
ARC
  5
1CBE8
  8
AM_0
 10
215.21752471237889
 20
210.05636879079509
 30
0.0
 40
1.000099699999998
 50
179.99821999998991
 51
358.8559099999971
  0
ARC
  5
1CBE9
  8
AM_0
 10
225.21756471237899
 20
209.38348879079521
 30
0.0
 40
1.000225199999998
 50
179.26081999999141
 51
358.4476500000012
  0
LINE
  5
1CBEA
  8
AM_0
 10
226.2457757347633
 20
210.4762770872197
 30
0.0
 11
226.21742471237889
 21
209.35641879079489
 31
0.0
  0
LINE
  5
1CBEB
  8
AM_0
 10
224.1732227515329
 20
210.63826828834161
 30
0.0
 11
224.21742471237889
 21
209.35641879079489
 31
0.0
  0
ARC
  5
1CBEC
  8
AM_0
 10
235.21728471237881
 20
209.38333879079519
 30
0.0
 40
1.000223999999998
 50
181.54276079999551
 51
0.7487699999954799
  0
LINE
  5
1CBED
  8
AM_0
 10
234.17482795013819
 20
210.47811772872359
 30
0.0
 11
234.21742471237889
 21
209.35638879079519
 31
0.0
  0
LINE
  5
1CBEE
  8
AM_0
 10
236.26176334923659
 20
210.64244620779559
 30
0.0
 11
236.21742471237889
 21
209.35641879079489
 31
0.0
  0
ARC
  5
1CBEF
  8
AM_0
 10
245.21733471237889
 20
210.05627879079509
 30
0.0
 40
1.0000987999999991
 50
181.1393037999992
 51
0.006579999999261
  0
LINE
  5
1CBF0
  8
AM_0
 10
244.18203314944739
 20
211.0627385397506
 30
0.0
 11
244.21742471237869
 21
210.0363787907948
 31
0.0
  0
LINE
  5
1CBF1
  8
AM_0
 10
246.25483769534759
 20
211.0989187309915
 30
0.0
 11
246.2174247123792
 21
210.0363787907948
 31
0.0
  0
ARC
  5
1CBF2
  8
AM_0
 10
289.21743375308751
 20
199.3121658798589
 30
0.0
 40
10.0
 50
180.0
 51
270.0
1001
GENIUS_GENOBJ-N-FIL_13
1002
{
1000
OWNER
1000
GEN
1002
}
1001
GENIUS_GENODEF_13
1002
{
1000
HIER
1070
     0
1002
}
1002
{
1000
MANEDIT
1070
     0
1002
}
1002
{
1000
NOSEL
1070
     0
1002
}
1002
{
1000
BEHIND
1070
     0
1002
}
1002
{
1000
OTHER
1070
     0
1002
}
1002
{
1000
REACTOR
1002
}
  0
LINE
  5
1CBF5
  8
AM_0
 10
315.21742471237911
 20
203.81216587985881
 30
0.0
 11
315.21742471237889
 21
193.81216587985881
 31
0.0
  0
LINE
  5
1CBF6
  8
ﾁｭｳｼﾝｾﾝ1
 10
307.71742471237877
 20
202.3121658798589
 30
0.0
 11
307.71742471237877
 21
180.81216587985881
 31
0.0
  0
LINE
  5
1CBF7
  8
AM_0
 10
289.86208565305151
 20
193.81216587985881
 30
0.0
 11
283.71743375308762
 21
199.9568177798229
 31
0.0
  0
ARC
  5
1CBF8
  8
AM_0
 10
288.71743375308762
 20
198.81216587985881
 30
0.0
 40
5.0
 50
180.0
 51
270.0
1001
GENIUS_GENOBJ-N-FIL_13
1002
{
1000
OWNER
1000
GEN
1002
}
1001
GENIUS_GENODEF_13
1002
{
1000
HIER
1070
     0
1002
}
1002
{
1000
MANEDIT
1070
     0
1002
}
1002
{
1000
NOSEL
1070
     0
1002
}
1002
{
1000
BEHIND
1070
     0
1002
}
1002
{
1000
OTHER
1070
     0
1002
}
1002
{
1000
REACTOR
1002
}
  0
LINE
  5
1CBFA
  8
AM_0
 10
322.717424712379
 20
193.81216587985881
 30
0.0
 11
288.71743375308762
 21
193.81216587985881
 31
0.0
  0
LINE
  5
1CBFB
  8
AM_0
 10
322.717424712379
 20
189.3121658798587
 30
0.0
 11
289.21743375308751
 21
189.31216587985881
 31
0.0
  0
LINE
  5
1CBFC
  8
ｶｸﾚｾﾝ2
 10
301.71742471237872
 20
193.81216587985881
 30
0.0
 11
301.7174247123786
 21
189.31216587985881
 31
0.0
  0
LINE
  5
1CBFD
  8
ｶｸﾚｾﾝ2
 10
313.71742471237877
 20
193.81216587985881
 30
0.0
 11
313.71742471237872
 21
189.31216587985881
 31
0.0
  0
LINE
  5
1CBFE
  8
AM_0
 10
322.717424712379
 20
193.81216587985881
 30
0.0
 11
322.717424712379
 21
189.31216587985881
 31
0.0
  0
LINE
  5
1CBFF
  8
0
 10
120.2104186763941
 20
260.31216587985858
 30
0.0
 11
162.21041867639411
 21
260.31216587985858
 31
0.0
  0
LINE
  5
1CC02
  8
AM_0
 10
315.21742471237911
 20
203.81216587985881
 30
0.0
 11
295.71743375308762
 21
223.31215683915059
 31
0.0
  0
LINE
  5
1CC03
  8
AM_0
 10
283.71743375308762
 20
198.81216587985881
 30
0.0
 11
283.71743375308768
 21
234.3121658798589
 31
0.0
  0
LINE
  5
1CC04
  8
AM_0
 10
295.71743375308762
 20
215.3126843301533
 30
0.0
 11
295.71743375308762
 21
229.3126843301533
 31
0.0
1001
GENIUS_GENOREF_13
1005
0
  0
LINE
  5
1CC05
  8
AM_0
 10
285.71743375308762
 20
211.8126843301533
 30
0.0
 11
285.71743375308762
 21
232.8126843301533
 31
0.0
1001
GENIUS_GENOREF_13
1005
0
  0
LINE
  5
1CC06
  8
AM_0
 10
294.71743375308762
 20
214.3126843301533
 30
0.0
 11
285.71743375308762
 21
214.3126843301533
 31
0.0
1001
GENIUS_GENOREF_13
1005
0
  0
LINE
  5
1CC07
  8
AM_0
 10
283.71743375308762
 20
211.8126843301533
 30
0.0
 11
285.71743375308762
 21
211.8126843301533
 31
0.0
1001
GENIUS_GENOREF_13
1005
0
  0
ARC
  5
1CC08
  8
AM_0
 10
294.71743375308762
 20
215.3126843301533
 30
0.0
 40
1.0
 50
270.0
 51
0.0
1001
GENIUS_GENOREF_13
1005
0
  0
LINE
  5
1CC09
  8
AM_0
 10
294.71743375308762
 20
230.3126843301533
 30
0.0
 11
285.71743375308762
 21
230.3126843301533
 31
0.0
1001
GENIUS_GENOREF_13
1005
0
  0
LINE
  5
1CC0A
  8
AM_0
 10
285.71743375308762
 20
232.8126843301533
 30
0.0
 11
283.71743375308762
 21
232.8126843301533
 31
0.0
1001
GENIUS_GENOREF_13
1005
0
  0
LINE
  5
1CC0B
  8
AM_0
 10
283.71743375308768
 20
234.3121658798589
 30
0.0
 11
279.21743375308762
 21
234.31216587985881
 31
0.0
  0
LINE
  5
1CC0C
  8
AM_0
 10
283.21742623890231
 20
236.8125397622826
 30
0.0
 11
279.21742612369292
 21
236.8125397622826
 31
0.0
  0
ARC
  5
1CC0D
  8
AM_0
 10
294.71743375308762
 20
229.3126843301533
 30
0.0
 40
1.0
 50
0.0
 51
90.0
1001
GENIUS_GENOREF_13
1005
0
  0
ARC
  5
1CC0E
  8
AM_0
 10
230.22377471237931
 20
274.32644879079493
 30
0.0
 40
64.006351000000123
 50
199.08998754922561
 51
214.09164673986601
  0
LINE
  5
1CC0F
  8
AM_0
 10
173.21742306664629
 20
251.81216520930639
 30
0.0
 11
177.21742318585561
 21
251.81216520930639
 31
0.0
  0
LINE
  5
1CC10
  8
AM_0
 10
177.21742318585561
 20
238.04291909725131
 30
0.0
 11
169.33742471237881
 21
238.3121628798589
 31
0.0
  0
LINE
  5
1CC11
  8
AM_0
 10
175.85407518238461
 20
240.5514766760277
 30
0.0
 11
169.33742471237881
 21
240.3121628798589
 31
0.0
  0
ARC
  5
1CC13
  8
AM_0
 10
167.3339757123789
 20
249.31242987985891
 30
0.0
 40
1.0004024999999981
 50
92.093791999999979
 51
269.05209000000008
  0
ARC
  5
1CC15
  8
AM_0
 10
169.39083371237891
 20
239.31283387985891
 30
0.0
 40
1.0007581000000001
 50
93.059355000007884
 51
269.23217000000619
  0
LINE
  5
1CC16
  8
AM_0
 10
171.8060350087176
 20
248.1696015753821
 30
0.0
 11
167.29742371237899
 21
248.3121628798589
 31
0.0
  0
LINE
  5
1CC17
  8
0
 10
162.21041867639411
 20
256.81216587985853
 30
0.0
 11
173.21742306664629
 21
251.81216520930639
 31
0.0
  0
LINE
  5
1CC19
  8
AM_0
 10
170.83684853004391
 20
250.45165105449871
 30
0.0
 11
167.29742371237899
 21
250.3121628798589
 31
0.0
  0
LINE
  5
1CC1C
  8
AM_0
 10
201.2174238771116
 20
338.31152778718842
 30
0.0
 11
279.21743375308739
 21
336.9500301312562
 31
0.0
  0
ARC
  5
1CF1E
  8
AM_0
 10
183.70052471237889
 20
320.81639879079512
 30
0.0
 40
5.0
 50
119.7766504456819
 51
180.0
1001
GENIUS_GENODEF_13
1002
{
1000
HIER
1070
     0
1002
}
1002
{
1000
MANEDIT
1070
     0
1002
}
1002
{
1000
NOSEL
1070
     0
1002
}
1002
{
1000
BEHIND
1070
     0
1002
}
1002
{
1000
OTHER
1070
     0
1002
}
1002
{
1000
REACTOR
1002
}
1001
GENIUS_GENOBJ-N-FIL_13
1002
{
1000
OWNER
1000
GEN
1002
}
  0
LINE
  5
1CF29
  8
AM_0
 10
181.21742330106491
 20
317.31173587985887
 30
0.0
 11
188.21742329406499
 21
317.31173587985887
 31
0.0
  0
LINE
  5
1CF2A
  8
AM_0
 10
188.21742329406499
 20
316.3117458798589
 30
0.0
 11
183.21742330006521
 21
316.3117458798589
 31
0.0
  0
LINE
  5
1CF2B
  8
AM_0
 10
181.21742330106491
 20
305.31185587985891
 30
0.0
 11
188.21742329406499
 21
305.31185587985891
 31
0.0
  0
LINE
  5
1CF2C
  8
AM_0
 10
183.21742330006501
 20
306.31184587985888
 30
0.0
 11
188.21742329406499
 21
306.31184587985888
 31
0.0
  0
LINE
  5
1CF2D
  8
AM_0
 10
182.21742330006521
 20
315.31174587985879
 30
0.0
 11
182.21742330006501
 21
307.31184587985888
 31
0.0
  0
LINE
  5
1CF2E
  8
AM_0
 10
178.70052471237881
 20
313.2760534682933
 30
0.0
 11
178.70052471237881
 21
320.81639879079512
 31
0.0
  0
ARC
  5
1CF2F
  8
AM_0
 10
175.70052471237881
 20
313.2760534682933
 30
0.0
 40
3.0
 50
330.7850666920919
 51
0.0
1001
GENIUS_GENODEF_13
1002
{
1000
HIER
1070
     0
1002
}
1002
{
1000
MANEDIT
1070
     0
1002
}
1002
{
1000
NOSEL
1070
     0
1002
}
1002
{
1000
BEHIND
1070
     0
1002
}
1002
{
1000
OTHER
1070
     0
1002
}
1002
{
1000
REACTOR
1002
}
1001
GENIUS_GENOBJ-N-FIL_13
1002
{
1000
OWNER
1000
GEN
1002
}
  0
LINE
  5
1CF30
  8
AM_0
 10
177.21741555646111
 20
311.81179199743468
 30
0.0
 11
181.21741567167041
 21
311.81179199743468
 31
0.0
  0
ARC
  5
1CF31
  8
AM_0
 10
183.21742330006501
 20
307.31184587985888
 30
0.0
 40
1.0
 50
180.0
 51
270.0
1001
GENIUS_GENODEF_13
1002
{
1000
HIER
1070
     0
1002
}
1002
{
1000
MANEDIT
1070
     0
1002
}
1002
{
1000
NOSEL
1070
     0
1002
}
1002
{
1000
BEHIND
1070
     0
1002
}
1002
{
1000
OTHER
1070
     0
1002
}
1002
{
1000
REACTOR
1002
}
1001
GENIUS_GENOBJ-N-FIL_13
1002
{
1000
OWNER
1000
GEN
1002
}
  0
ARC
  5
1CF32
  8
AM_0
 10
183.21742330006521
 20
315.31174587985879
 30
0.0
 40
1.0
 50
90.0
 51
180.0
1001
GENIUS_GENODEF_13
1002
{
1000
HIER
1070
     0
1002
}
1002
{
1000
MANEDIT
1070
     0
1002
}
1002
{
1000
NOSEL
1070
     0
1002
}
1002
{
1000
BEHIND
1070
     0
1002
}
1002
{
1000
OTHER
1070
     0
1002
}
1002
{
1000
REACTOR
1002
}
1001
GENIUS_GENOBJ-N-FIL_13
1002
{
1000
OWNER
1000
GEN
1002
}
  0
LINE
  5
1CF33
  8
AM_0
 10
188.21742329406499
 20
305.31185587985891
 30
0.0
 11
188.21742329406499
 21
317.31173587985887
 31
0.0
  0
LINE
  5
1CF34
  8
AM_0
 10
181.21742330106491
 20
337.96244069151879
 30
0.0
 11
201.2174238771116
 21
338.31152778718842
 31
0.0
  0
ARC
  5
1CF35
  8
AM_0
 10
230.20742471237901
 20
274.29949879079493
 30
0.0
 40
64.014987999999974
 50
81.701566403719767
 51
96.298430043342222
  0
LINE
  5
1CF36
  8
AM_0
 10
216.23559789859939
 20
338.04938411875622
 30
0.0
 11
216.2174247123792
 21
338.57640879079503
 31
0.0
  0
LINE
  5
1CF37
  8
AM_0
 10
214.20011854390671
 20
338.08491360618211
 30
0.0
 11
214.217424712379
 21
338.57640879079503
 31
0.0
  0
ARC
  5
1CF38
  8
AM_0
 10
215.21765471237879
 20
338.54260879079533
 30
0.0
 40
1.000333199999998
 50
1.936239999993228
 51
179.2096300000002
  0
LINE
  5
1CF39
  8
AM_0
 10
224.1761696127123
 20
338.06000777631732
 30
0.0
 11
224.21742471237911
 21
339.256398790795
 31
0.0
  0
LINE
  5
1CF3A
  8
AM_0
 10
226.2436224714738
 20
338.22158730654422
 30
0.0
 11
226.21742471237889
 21
339.256398790795
 31
0.0
  0
ARC
  5
1CF3B
  8
AM_0
 10
225.21784471237899
 20
339.21549879079521
 30
0.0
 40
1.000418199999999
 50
2.3425900000021951
 51
179.9489399999969
  0
ARC
  5
1CF3C
  8
AM_0
 10
235.2170147123791
 20
339.21566879079489
 30
0.0
 40
1.0004146999999981
 50
0.0414799999945912
 51
177.6669899999952
  0
LINE
  5
1CF3D
  8
AM_0
 10
234.178062140224
 20
338.21967827062952
 30
0.0
 11
234.2174247123792
 21
339.256398790795
 31
0.0
  0
LINE
  5
1CF3E
  8
AM_0
 10
236.2588234621328
 20
338.0558312483505
 30
0.0
 11
236.21742471237889
 21
339.25640879079532
 31
0.0
  0
ARC
  5
1CF3F
  8
AM_0
 10
245.2171947123791
 20
338.54267879079492
 30
0.0
 40
1.000331199999998
 50
0.7855899999899875
 51
178.06853999999311
  0
LINE
  5
1CF40
  8
AM_0
 10
244.18243040408811
 20
337.5615694760728
 30
0.0
 11
244.21742471237889
 21
338.57640879079503
 31
0.0
  0
LINE
  5
1CF41
  8
AM_0
 10
246.25443171572451
 20
337.52540249438442
 30
0.0
 11
246.2174247123792
 21
338.57640879079503
 31
0.0
  0
LINE
  5
1CF43
  8
0
 10
120.2104186763941
 20
288.3121658798587
 30
0.0
 11
162.21041867639411
 21
288.3121658798587
 31
0.0
  0
LINE
  5
1CF44
  8
0
 10
120.2104186763941
 20
291.31216587985853
 30
0.0
 11
152.21041867639411
 21
291.31216587985853
 31
0.0
  0
ARC
  5
1CF46
  8
AM_0
 10
276.70051471237872
 20
320.81639879079501
 30
0.0
 40
5.0
 50
0.0
 51
59.775875399487852
1001
GENIUS_GENOBJ-N-FIL_13
1002
{
1000
OWNER
1000
GEN
1002
}
1001
GENIUS_GENODEF_13
1002
{
1000
HIER
1070
     0
1002
}
1002
{
1000
MANEDIT
1070
     0
1002
}
1002
{
1000
NOSEL
1070
     0
1002
}
1002
{
1000
BEHIND
1070
     0
1002
}
1002
{
1000
OTHER
1070
     0
1002
}
1002
{
1000
REACTOR
1002
}
  0
ARC
  5
1CF47
  8
AM_0
 10
230.22377471237931
 20
274.32644879079493
 30
0.0
 40
64.006351000000123
 50
145.90835326013391
 51
160.9421104209132
  0
LINE
  5
1CF48
  8
AM_0
 10
173.21742306664629
 20
296.81216655041089
 30
0.0
 11
177.21742318585561
 21
296.81216655041089
 31
0.0
  0
LINE
  5
1CF49
  8
0
 10
162.21041867639411
 20
291.81216587985858
 30
0.0
 11
173.21742306664629
 21
296.81216655041089
 31
0.0
  0
LINE
  5
1CF4A
  8
AM_0
 10
170.8324324672285
 20
298.1902589361718
 30
0.0
 11
167.29742371237899
 21
298.31215587985901
 31
0.0
  0
ARC
  5
1CF4B
  8
AM_0
 10
167.33363671237879
 20
299.31189587985898
 30
0.0
 40
1.000393499999999
 50
90.928561999996944
 51
267.92556000000508
  0
LINE
  5
1CF4C
  8
AM_0
 10
171.80115140111499
 20
300.47238640575392
 30
0.0
 11
167.29742371237899
 21
300.31216587985892
 31
0.0
  0
LINE
  5
1CF4D
  8
AM_0
 10
177.21742318585561
 20
310.59936299460747
 30
0.0
 11
169.3374287123788
 21
310.31215587985878
 31
0.0
  0
LINE
  5
1CF4E
  8
AM_0
 10
175.8478954468799
 20
308.09147096521463
 30
0.0
 11
169.33742471237881
 21
308.31215587985878
 31
0.0
  0
LINE
  5
1CF4F
  8
AM_0
 10
281.70051471237861
 20
320.81639879079501
 30
0.0
 11
281.70051471237861
 21
313.32326921017722
 31
0.0
  0
ARC
  5
1CF50
  8
AM_0
 10
284.70051471237872
 20
313.32326921017722
 30
0.0
 40
3.0
 50
180.0
 51
210.25343319072169
1001
GENIUS_GENOBJ-N-FIL_13
1002
{
1000
OWNER
1000
GEN
1002
}
1001
GENIUS_GENODEF_13
1002
{
1000
HIER
1070
     0
1002
}
1002
{
1000
MANEDIT
1070
     0
1002
}
1002
{
1000
NOSEL
1070
     0
1002
}
1002
{
1000
BEHIND
1070
     0
1002
}
1002
{
1000
OTHER
1070
     0
1002
}
1002
{
1000
REACTOR
1002
}
  0
LINE
  5
1CF51
  8
AM_0
 10
283.21742623890231
 20
311.81179199743468
 30
0.0
 11
279.21742612369292
 21
311.81179199743468
 31
0.0
  0
ARC
  5
1CF52
  8
AM_0
 10
169.39015871237891
 20
309.31151587985892
 30
0.0
 40
1.0007357999999991
 50
90.729168000000769
 51
266.97930000000002
  0
LINE
  5
1CF53
  8
0
 10
152.21041867639411
 20
291.31216587985853
 30
0.0
 11
152.21041867639411
 21
288.3121658798587
 31
0.0
  0
ARC
  5
1D61D
  8
AM_0
 10
326.21742471237923
 20
245.3086378904371
 30
0.0
 40
0.9999999999999998
 50
270.0
 51
0.0000100000010134
  0
ARC
  5
1D61E
  8
AM_0
 10
326.21742471237923
 20
303.30863789043713
 30
0.0
 40
0.9999999999999998
 50
359.999989999999
 51
89.999997000002296
  0
LINE
  5
1D61F
  8
AM_0
 10
330.21742471237923
 20
256.50864789043709
 30
0.0
 11
330.21742471237923
 21
292.11863789043718
 31
0.0
  0
LINE
  5
1D620
  8
AM_0
 10
327.217424712379
 20
245.3086378904371
 30
0.0
 11
327.217424712379
 21
303.30863789043713
 31
0.0
  0
LINE
  5
1D621
  8
AM_0
 10
327.217424712379
 20
297.3086378904373
 30
0.0
 11
330.21742471237923
 21
292.11863789043718
 31
0.0
  0
LINE
  5
1D622
  8
AM_0
 10
327.21740471237899
 20
251.3086378904371
 30
0.0
 11
330.21742471237923
 21
256.50864789043709
 31
0.0
  0
LINE
  5
1D626
  8
AM_0
 10
305.21742471237923
 20
240.8086378904371
 30
0.0
 11
305.21742471237923
 21
307.80863789043713
 31
0.0
  0
LINE
  5
1D627
  8
AM_0
 10
300.21742471237923
 20
304.30863789043713
 30
0.0
 11
300.21742471237923
 21
244.26865789043711
 31
0.0
  0
LINE
  5
1D628
  8
AM_0
 10
302.21742471237923
 20
242.8086378904371
 30
0.0
 11
302.21742471237923
 21
305.80863789043713
 31
0.0
  0
LINE
  5
1D629
  8
AM_0
 10
308.71742471237889
 20
243.8086378904371
 30
0.0
 11
308.71742471237889
 21
304.8086378904373
 31
0.0
  0
LINE
  5
1D62C
  8
AM_0
 10
320.21742471237923
 20
305.80863789043713
 30
0.0
 11
320.21742471237923
 21
307.80863789043713
 31
0.0
  0
LINE
  5
1D62D
  8
AM_0
 10
305.21742471237923
 20
307.80863789043713
 30
0.0
 11
320.21742471237923
 21
307.80863789043713
 31
0.0
  0
LINE
  5
1D631
  8
AM_0
 10
320.21742471237923
 20
305.80863789043713
 30
0.0
 11
302.21742471237923
 21
305.80863789043713
 31
0.0
  0
LINE
  5
1D632
  8
AM_0
 10
326.21742471237889
 20
304.30863789043713
 30
0.0
 11
308.71742471237889
 21
304.30863789043713
 31
0.0
  0
ARC
  5
1D633
  8
AM_0
 10
320.21742471237923
 20
304.8086378904373
 30
0.0
 40
0.9999999999999998
 50
359.999989999999
 51
89.999997000002296
  0
LINE
  5
1D634
  8
AM_0
 10
321.21742471237889
 20
304.30863789043713
 30
0.0
 11
321.21742471237889
 21
304.8086378904373
 31
0.0
  0
ARC
  5
1D635
  8
AM_0
 10
307.71742471237923
 20
304.8086378904373
 30
0.0
 40
0.9999999999999998
 50
359.999989999999
 51
89.999997000002296
  0
LINE
  5
1D636
  8
AM_0
 10
286.53516189702759
 20
304.72817337949817
 30
0.0
 11
302.217424712379
 21
304.30863637880913
 31
0.0
  0
LINE
  5
1D63D
  8
AM_0
 10
320.21742471237923
 20
242.8086378904371
 30
0.0
 11
302.21742471237923
 21
242.8086378904371
 31
0.0
  0
LINE
  5
1D63E
  8
AM_0
 10
326.21742471237889
 20
244.3086378904371
 30
0.0
 11
308.71742471237889
 21
244.3086378904371
 31
0.0
  0
LINE
  5
1D63F
  8
AM_0
 10
305.21742471237923
 20
240.8086378904371
 30
0.0
 11
320.21742471237923
 21
240.8086378904371
 31
0.0
  0
LINE
  5
1D640
  8
AM_0
 10
320.21742471237923
 20
242.8086378904371
 30
0.0
 11
320.21742471237923
 21
240.8086378904371
 31
0.0
  0
LINE
  5
1D641
  8
AM_0
 10
321.21742471237889
 20
243.8086378904371
 30
0.0
 11
321.21742471237889
 21
244.3086378904371
 31
0.0
  0
ARC
  5
1D642
  8
AM_0
 10
320.21742471237923
 20
243.8086378904371
 30
0.0
 40
0.9999999999999998
 50
270.0
 51
0.0000100000010134
  0
ARC
  5
1D643
  8
AM_0
 10
307.71742471237923
 20
243.8086378904371
 30
0.0
 40
0.9999999999999998
 50
270.0
 51
0.0000100000010134
  0
LINE
  5
1D646
  8
AM_0
 10
286.50845566985322
 20
243.9084193729243
 30
0.0
 11
302.217424712379
 21
244.30865992531389
 31
0.0
  0
LINE
  5
1D771
  8
AM_0
 10
283.21743386829678
 20
310.73305232883803
 30
0.0
 11
295.13743471237899
 21
310.30863789043713
 31
0.0
  0
LINE
  5
1D772
  8
AM_0
 10
284.67402405272549
 20
307.94978389541433
 30
0.0
 11
295.35742471237899
 21
308.32862789043708
 31
0.0
  0
ARC
  5
1D773
  8
AM_0
 10
296.13977471237922
 20
306.47742789043679
 30
0.0
 40
2.0097484999999988
 50
112.9096539999984
 51
268.22209000000788
  0
ARC
  5
1D774
  8
AM_0
 10
295.1101947123791
 20
309.3085178904372
 30
0.0
 40
1.000226099999999
 50
271.56018000000068
 51
90.731333000005591
  0
LINE
  5
1D775
  8
AM_0
 10
283.21743386829672
 20
237.90272392980179
 30
0.0
 11
295.13742471237879
 21
238.30866789043699
 31
0.0
  0
ARC
  5
1D776
  8
AM_0
 10
296.13540471237889
 20
242.1502778904372
 30
0.0
 40
1.9992131999999989
 50
91.66202200000221
 51
247.09866999999551
  0
LINE
  5
1D777
  8
AM_0
 10
284.64455292469228
 20
240.68854746369911
 30
0.0
 11
295.35742471237899
 21
240.30866789043699
 31
0.0
  0
ARC
  5
1D778
  8
AM_0
 10
295.109514712379
 20
239.30878789043689
 30
0.0
 40
1.000231299999998
 50
269.30742000000748
 51
88.401056999994466
  0
LINE
  5
1EE81
  8
AM_0
 10
-101.61081026764521
 20
228.8121658798589
 30
0.0
 11
-55.610778425159033
 21
228.8121658798589
 31
0.0
  0
LINE
  5
1EE82
  8
ﾁｭｳｼﾝｾﾝ1
 10
-368.71061159423721
 20
274.31216587985892
 30
0.0
 11
12.389223389387039
 21
274.31216587985892
 31
0.0
  0
LINE
  5
1EE83
  8
AM_0
 10
7.3892233893871531
 20
193.8121354328286
 30
0.0
 11
-164.61081208219139
 21
193.8121354328286
 31
0.0
  0
LINE
  5
1EE84
  8
AM_0
 10
7.3892233893871531
 20
189.3121354328286
 30
0.0
 11
-164.61081208219139
 21
189.3121354328286
 31
0.0
  0
LINE
  5
1EE85
  8
AM_0
 10
-73.118835065784083
 20
332.31215825046439
 30
0.0
 11
-21.809569929065329
 21
332.31215825046439
 31
0.0
  0
LINE
  5
1EE88
  8
AM_0
 10
-152.61081173656359
 20
338.31152778718842
 30
0.0
 11
-4.6107769562408958
 21
338.31152778718842
 31
0.0
  0
LINE
  5
1EE89
  8
AM_0
 10
-202.1108121911914
 20
210.3121698736785
 30
0.0
 11
-202.1108121911914
 21
338.31215987367841
 31
0.0
  0
LINE
  5
1EE8A
  8
AM_0
 10
-191.11081219119129
 20
335.81215987367898
 30
0.0
 11
-191.11081219119129
 21
212.8121798736787
 31
0.0
  0
LINE
  5
1EE8B
  8
AM_0
 10
-172.7002890169415
 20
320.04088851177278
 30
0.0
 11
-172.70028901693999
 21
228.58345123558479
 31
0.0
  0
ARC
  5
1EE8C
  8
AM_0
 10
221.54771433481159
 20
274.3121698736731
 30
0.0
 40
397.24800335175252
 50
173.3392856796832
 51
186.6607143203166
  0
LINE
  5
1EE8D
  8
AM_0
 10
-164.61081208219139
 20
326.31164742956452
 30
0.0
 11
-164.61081208219139
 21
189.3121354328286
 31
0.0
  0
LINE
  5
1EE8E
  8
AM_0
 10
-158.61076316636999
 20
294.78945317233928
 30
0.0
 11
-158.61076316636999
 21
253.8348785873784
 31
0.0
  0
ARC
  5
1EE8F
  8
AM_0
 10
-192.9842093635958
 20
213.3121798736787
 30
0.0
 40
2.9999999999999978
 50
270.0
 51
324.31466528734541
1001
GENIUS_GENOBJ-N-FIL_13
1002
{
1000
OWNER
1000
GEN
1002
}
1001
GENIUS_GENODEF_13
1002
{
1000
HIER
1070
     0
1002
}
1002
{
1000
MANEDIT
1070
     0
1002
}
1002
{
1000
NOSEL
1070
     0
1002
}
1002
{
1000
BEHIND
1070
     0
1002
}
1002
{
1000
OTHER
1070
     0
1002
}
1002
{
1000
REACTOR
1002
}
  0
LINE
  5
1EE90
  8
AM_0
 10
-202.1108121911914
 20
210.3121798736787
 30
0.0
 11
-192.9842093635958
 21
210.3121798736787
 31
0.0
  0
LINE
  5
1EE91
  8
AM_0
 10
-202.1108121911914
 20
210.31213987367849
 30
0.0
 11
-202.1108121911914
 21
214.3121398736786
 31
0.0
  0
LINE
  5
1EE92
  8
AM_0
 10
-202.11087001340869
 20
222.2721698737104
 30
0.0
 11
-192.1108700134148
 21
222.2721587625991
 31
0.0
  0
LINE
  5
1EE93
  8
AM_0
 10
-202.1108121911914
 20
222.27217987367871
 30
0.0
 11
-192.11081219119129
 21
222.27217987367871
 31
0.0
  0
LINE
  5
1EE94
  8
AM_0
 10
-202.11085345784181
 20
237.1721798737012
 30
0.0
 11
-192.1108534578479
 21
237.17216876258999
 31
0.0
  0
LINE
  5
1EE95
  8
AM_0
 10
-202.1108121911914
 20
237.1721898736788
 30
0.0
 11
-192.11081219119129
 21
237.1721898736788
 31
0.0
  0
LINE
  5
1EE96
  8
AM_0
 10
-121.11081026764541
 20
225.31212639211989
 30
0.0
 11
-121.11081026764531
 21
193.8121354328286
 31
0.0
  0
LINE
  5
1EE97
  8
AM_0
 10
-116.61081026764531
 20
225.31212639211989
 30
0.0
 11
-116.61081026764521
 21
193.8121354328286
 31
0.0
  0
LINE
  5
1EE98
  8
ﾁｭｳｼﾝｾﾝ1
 10
-146.110778425159
 20
202.3121354328286
 30
0.0
 11
-146.110778425159
 21
180.8121354328286
 31
0.0
  0
LINE
  5
1EE99
  8
ｶｸﾚｾﾝ2
 10
-152.11077842515891
 20
193.8121354328286
 30
0.0
 11
-152.11077842515891
 21
189.3121354328286
 31
0.0
  0
LINE
  5
1EE9A
  8
ｶｸﾚｾﾝ2
 10
-140.11077842515891
 20
193.8121354328286
 30
0.0
 11
-140.11077842515871
 21
189.3121354328286
 31
0.0
  0
LINE
  5
1EE9B
  8
AM_0
 10
-123.168815617948
 20
234.31213543282871
 30
0.0
 11
-159.61081208219139
 21
234.31213543282871
 31
0.0
  0
CIRCLE
  5
1EE9C
  8
AM_0
 10
-157.61076316636999
 20
237.3121658798589
 30
0.0
 40
2.8867513459481411
  0
ARC
  5
1EE9D
  8
AM_0
 10
-157.61076316636999
 20
237.3121658798589
 30
0.0
 40
6.0
 50
329.99966427288359
 51
90.000005008956919
  0
ARC
  5
1EE9E
  8
AM_0N
 10
-157.61076316636999
 20
237.3121658798589
 30
0.0
 40
5.0
 50
323.1296662313265
 51
221.51399547169629
  0
LINE
  5
1EE9F
  8
AM_0N
 10
-154.72401182042191
 20
237.3121658798589
 30
0.0
 11
-156.16738749339621
 21
239.81216587985901
 31
0.0
  0
LINE
  5
1EEA0
  8
AM_0N
 10
-159.05413883934369
 20
239.81216587985901
 30
0.0
 11
-160.49751451231811
 21
237.3121658798589
 31
0.0
  0
LINE
  5
1EEA1
  8
AM_0
 10
-144.13693320714859
 20
234.31213543282871
 30
0.0
 11
-146.13922080797161
 21
240.83403935397999
 31
0.0
  0
LINE
  5
1EEA2
  8
AM_0N
 10
-159.05413883934409
 20
234.8121658798589
 30
0.0
 11
-156.16738749339589
 21
234.8121658798589
 31
0.0
  0
LINE
  5
1EEA3
  8
AM_0
 10
-152.61081173656359
 20
232.12763890637731
 30
0.0
 11
-161.11081173656359
 21
227.220161618265
 31
0.0
  0
CIRCLE
  5
1EEA5
  8
AM_0
 10
-152.61081173656359
 20
222.3126843301537
 30
0.0
 40
8.5
  0
CIRCLE
  5
1EEA6
  8
AM_0
 10
-152.61081173656359
 20
222.3126843301537
 30
0.0
 40
10.5
  0
LINE
  5
1EEA7
  8
AM_0
 10
-161.11081173656359
 20
217.40520704204189
 30
0.0
 11
-152.61081173656339
 21
212.49772975392989
 31
0.0
  0
LINE
  5
1EEA8
  8
AM_0
 10
-188.11081219119129
 20
212.8121798736787
 30
0.0
 11
-164.61081208219139
 21
212.8121798736791
 31
0.0
  0
ARC
  5
1EEA9
  8
AM_0
 10
-188.11081219119129
 20
209.8121798736787
 30
0.0
 40
2.9999999999999978
 50
90.0
 51
144.31466528734541
1001
GENIUS_GENOBJ-N-FIL_13
1002
{
1000
OWNER
1000
GEN
1002
}
1001
GENIUS_GENODEF_13
1002
{
1000
HIER
1070
     0
1002
}
1002
{
1000
MANEDIT
1070
     0
1002
}
1002
{
1000
NOSEL
1070
     0
1002
}
1002
{
1000
BEHIND
1070
     0
1002
}
1002
{
1000
OTHER
1070
     0
1002
}
1002
{
1000
REACTOR
1002
}
  0
LINE
  5
1EEAA
  8
AM_0
 10
-161.11081173656359
 20
227.220161618265
 30
0.0
 11
-161.11081173656359
 21
217.40520704204189
 31
0.0
  0
ARC
  5
1EEAB
  8
AM_0
 10
-170.03927783750481
 20
228.58345123558479
 30
0.0
 40
2.9999999999999978
 50
186.6607143203166
 51
270.0
1001
GENIUS_GENOBJ-N-FIL_13
1002
{
1000
OWNER
1000
GEN
1002
}
1001
GENIUS_GENODEF_13
1002
{
1000
HIER
1070
     0
1002
}
1002
{
1000
MANEDIT
1070
     0
1002
}
1002
{
1000
NOSEL
1070
     0
1002
}
1002
{
1000
BEHIND
1070
     0
1002
}
1002
{
1000
OTHER
1070
     0
1002
}
1002
{
1000
REACTOR
1002
}
  0
LINE
  5
1EEAC
  8
AM_0
 10
-170.03927783750481
 20
225.58345123558479
 30
0.0
 11
-165.6108121911914
 21
225.58345123558479
 31
0.0
  0
ARC
  5
1EEAD
  8
AM_0
 10
-159.61081208219139
 20
229.3121354328286
 30
0.0
 40
5.0
 50
90.0
 51
180.0
1001
GENIUS_GENOBJ-N-FIL_13
1002
{
1000
OWNER
1000
GEN
1002
}
1001
GENIUS_GENODEF_13
1002
{
1000
HIER
1070
     0
1002
}
1002
{
1000
MANEDIT
1070
     0
1002
}
1002
{
1000
NOSEL
1070
     0
1002
}
1002
{
1000
BEHIND
1070
     0
1002
}
1002
{
1000
OTHER
1070
     0
1002
}
1002
{
1000
REACTOR
1002
}
  0
LINE
  5
1EEAE
  8
AM_0N
 10
-160.49751451231811
 20
237.3121658798589
 30
0.0
 11
-159.05413883934409
 21
234.8121658798589
 31
0.0
  0
LINE
  5
1EEB0
  8
AM_0
 10
-152.61081173656339
 20
212.49772975392989
 30
0.0
 11
-144.11081173656359
 21
217.40520704204221
 31
0.0
  0
LINE
  5
1EEB1
  8
AM_0
 10
-144.11081173656359
 20
217.40520704204221
 30
0.0
 11
-144.11081173656359
 21
227.22016161826551
 31
0.0
  0
CIRCLE
  5
1EEB2
  8
AM_0
 10
-152.61081173656359
 20
222.3126843301537
 30
0.0
 40
4.9999999999999831
  0
CIRCLE
  5
1EEB3
  8
ｽﾝﾎﾟｳｾﾝ
 10
-152.61081173656359
 20
222.3126843301537
 30
0.0
 40
4.1881011839521536
  0
LINE
  5
1EEB4
  8
AM_0
 10
-144.11081173656359
 20
227.22016161826551
 30
0.0
 11
-152.61081173656359
 21
232.12763890637731
 31
0.0
  0
LINE
  5
1EEB5
  8
AM_0N
 10
-156.16738749339589
 20
234.8121658798589
 30
0.0
 11
-154.72401182042191
 21
237.3121658798589
 31
0.0
  0
LINE
  5
1EEB6
  8
AM_0N
 10
-156.16738749339621
 20
239.81216587985901
 30
0.0
 11
-159.05413883934369
 21
239.81216587985901
 31
0.0
  0
LINE
  5
1EEB7
  8
AM_0
 10
-157.61076316636999
 20
243.3121658798589
 30
0.0
 11
-162.61076316636999
 21
243.3121658798589
 31
0.0
  0
ARC
  5
1EEB8
  8
AM_0
 10
-153.61076316636999
 20
253.83487858737851
 30
0.0
 40
5.0000000000000044
 50
179.99999749551819
 51
256.39103932404521
  0
ARC
  5
1EEB9
  8
AM_0
 10
-162.61076316636999
 20
245.3121658798589
 30
0.0
 40
2.0000000000000022
 50
179.99999749551819
 51
270.0
  0
ARC
  5
1EEBA
  8
AM_0
 10
-157.61076316636999
 20
237.3121658798589
 30
0.0
 40
12.000000000000011
 50
17.066992334565061
 51
76.391044332999414
  0
LINE
  5
1EEBB
  8
AM_0
 10
-121.11081026764541
 20
203.8121354328286
 30
0.0
 11
-116.61081026764521
 21
203.8121354328286
 31
0.0
  0
ARC
  5
1EEBC
  8
AM_0
 10
-101.61081026764521
 20
273.81216587985892
 30
0.0
 40
45.0
 50
241.37552996705261
 51
270.0
  0
LINE
  5
1EEBD
  8
AM_0
 10
-121.11081026764541
 20
225.31212639211989
 30
0.0
 11
-116.61081026764531
 21
225.31212639211989
 31
0.0
  0
ARC
  5
1EEBE
  8
AM_0
 10
-192.9842093635958
 20
335.31215987367892
 30
0.0
 40
2.9999999999999978
 50
35.68533471265463
 51
90.0
1001
GENIUS_GENOBJ-N-FIL_13
1002
{
1000
OWNER
1000
GEN
1002
}
1001
GENIUS_GENODEF_13
1002
{
1000
HIER
1070
     0
1002
}
1002
{
1000
MANEDIT
1070
     0
1002
}
1002
{
1000
NOSEL
1070
     0
1002
}
1002
{
1000
BEHIND
1070
     0
1002
}
1002
{
1000
OTHER
1070
     0
1002
}
1002
{
1000
REACTOR
1002
}
  0
LINE
  5
1EEBF
  8
AM_0
 10
-202.1108121911912
 20
311.45214987367859
 30
0.0
 11
-192.11081219119129
 21
311.45214987367859
 31
0.0
  0
LINE
  5
1EEC0
  8
AM_0
 10
-202.1108121911912
 20
326.35215987367872
 30
0.0
 11
-192.11081219119129
 21
326.35215987367872
 31
0.0
  0
LINE
  5
1EEC1
  8
AM_0
 10
-202.1108121911914
 20
338.31215987367892
 30
0.0
 11
-192.9842093635958
 21
338.31215987367892
 31
0.0
  0
LINE
  5
1EEC2
  8
AM_0
 10
-134.91548118394809
 20
332.31215825046439
 30
0.0
 11
-104.10270652574501
 21
332.31215825046439
 31
0.0
  0
LINE
  5
1EEC4
  8
AM_0
 10
-139.69529685777621
 20
328.77961125339402
 30
0.0
 11
-146.13922080797161
 21
307.79029240573777
 31
0.0
  0
POLYLINE
  5
1EEC5
  8
AM_0
 10
-147.11081157815076
 20
326.31164742956452
 30
0.0
 66
     1
 70
     8
  0
VERTEX
  8
AM_0
  5
1FC68
 10
-147.111
 20
326.312
 30
0.000000
  70
    32
  0
VERTEX
  8
AM_0
  5
1FC69
 10
-147.117
 20
326.582
 30
0.000000
  70
    32
  0
VERTEX
  8
AM_0
  5
1FC6A
 10
-147.137
 20
326.851
 30
0.000000
  70
    32
  0
VERTEX
  8
AM_0
  5
1FC6B
 10
-147.170
 20
327.119
 30
0.000000
  70
    32
  0
VERTEX
  8
AM_0
  5
1FC6C
 10
-147.216
 20
327.385
 30
0.000000
  70
    32
  0
VERTEX
  8
AM_0
  5
1FC6D
 10
-147.276
 20
327.648
 30
0.000000
  70
    32
  0
VERTEX
  8
AM_0
  5
1FC6E
 10
-147.348
 20
327.908
 30
0.000000
  70
    32
  0
VERTEX
  8
AM_0
  5
1FC6F
 10
-147.432
 20
328.165
 30
0.000000
  70
    32
  0
VERTEX
  8
AM_0
  5
1FC70
 10
-147.529
 20
328.416
 30
0.000000
  70
    32
  0
VERTEX
  8
AM_0
  5
1FC71
 10
-147.639
 20
328.663
 30
0.000000
  70
    32
  0
VERTEX
  8
AM_0
  5
1FC72
 10
-147.760
 20
328.904
 30
0.000000
  70
    32
  0
VERTEX
  8
AM_0
  5
1FC73
 10
-147.893
 20
329.139
 30
0.000000
  70
    32
  0
VERTEX
  8
AM_0
  5
1FC74
 10
-148.038
 20
329.367
 30
0.000000
  70
    32
  0
VERTEX
  8
AM_0
  5
1FC75
 10
-148.193
 20
329.588
 30
0.000000
  70
    32
  0
VERTEX
  8
AM_0
  5
1FC76
 10
-148.359
 20
329.801
 30
0.000000
  70
    32
  0
VERTEX
  8
AM_0
  5
1FC77
 10
-148.536
 20
330.005
 30
0.000000
  70
    32
  0
VERTEX
  8
AM_0
  5
1FC78
 10
-148.722
 20
330.201
 30
0.000000
  70
    32
  0
VERTEX
  8
AM_0
  5
1FC79
 10
-148.917
 20
330.387
 30
0.000000
  70
    32
  0
VERTEX
  8
AM_0
  5
1FC7A
 10
-149.122
 20
330.563
 30
0.000000
  70
    32
  0
VERTEX
  8
AM_0
  5
1FC7B
 10
-149.334
 20
330.729
 30
0.000000
  70
    32
  0
VERTEX
  8
AM_0
  5
1FC7C
 10
-149.555
 20
330.885
 30
0.000000
  70
    32
  0
VERTEX
  8
AM_0
  5
1FC7D
 10
-149.783
 20
331.029
 30
0.000000
  70
    32
  0
VERTEX
  8
AM_0
  5
1FC7E
 10
-150.018
 20
331.162
 30
0.000000
  70
    32
  0
VERTEX
  8
AM_0
  5
1FC7F
 10
-150.259
 20
331.284
 30
0.000000
  70
    32
  0
VERTEX
  8
AM_0
  5
1FC80
 10
-150.506
 20
331.393
 30
0.000000
  70
    32
  0
VERTEX
  8
AM_0
  5
1FC81
 10
-150.758
 20
331.490
 30
0.000000
  70
    32
  0
VERTEX
  8
AM_0
  5
1FC82
 10
-151.014
 20
331.575
 30
0.000000
  70
    32
  0
VERTEX
  8
AM_0
  5
1FC83
 10
-151.274
 20
331.647
 30
0.000000
  70
    32
  0
VERTEX
  8
AM_0
  5
1FC84
 10
-151.538
 20
331.706
 30
0.000000
  70
    32
  0
VERTEX
  8
AM_0
  5
1FC85
 10
-151.804
 20
331.752
 30
0.000000
  70
    32
  0
VERTEX
  8
AM_0
  5
1FC86
 10
-152.072
 20
331.785
 30
0.000000
  70
    32
  0
VERTEX
  8
AM_0
  5
1FC87
 10
-152.341
 20
331.805
 30
0.000000
  70
    32
  0
VERTEX
  8
AM_0
  5
1FC88
 10
-152.611
 20
331.812
 30
0.000000
  70
    32
  0
VERTEX
  8
AM_0
  5
1FC89
 10
-152.881
 20
331.805
 30
0.000000
  70
    32
  0
VERTEX
  8
AM_0
  5
1FC8A
 10
-153.150
 20
331.785
 30
0.000000
  70
    32
  0
VERTEX
  8
AM_0
  5
1FC8B
 10
-153.418
 20
331.752
 30
0.000000
  70
    32
  0
VERTEX
  8
AM_0
  5
1FC8C
 10
-153.684
 20
331.706
 30
0.000000
  70
    32
  0
VERTEX
  8
AM_0
  5
1FC8D
 10
-153.947
 20
331.647
 30
0.000000
  70
    32
  0
VERTEX
  8
AM_0
  5
1FC8E
 10
-154.207
 20
331.575
 30
0.000000
  70
    32
  0
VERTEX
  8
AM_0
  5
1FC8F
 10
-154.464
 20
331.490
 30
0.000000
  70
    32
  0
VERTEX
  8
AM_0
  5
1FC90
 10
-154.716
 20
331.393
 30
0.000000
  70
    32
  0
VERTEX
  8
AM_0
  5
1FC91
 10
-154.962
 20
331.284
 30
0.000000
  70
    32
  0
VERTEX
  8
AM_0
  5
1FC92
 10
-155.203
 20
331.162
 30
0.000000
  70
    32
  0
VERTEX
  8
AM_0
  5
1FC93
 10
-155.438
 20
331.029
 30
0.000000
  70
    32
  0
VERTEX
  8
AM_0
  5
1FC94
 10
-155.666
 20
330.885
 30
0.000000
  70
    32
  0
VERTEX
  8
AM_0
  5
1FC95
 10
-155.887
 20
330.729
 30
0.000000
  70
    32
  0
VERTEX
  8
AM_0
  5
1FC96
 10
-156.100
 20
330.563
 30
0.000000
  70
    32
  0
VERTEX
  8
AM_0
  5
1FC97
 10
-156.304
 20
330.387
 30
0.000000
  70
    32
  0
VERTEX
  8
AM_0
  5
1FC98
 10
-156.500
 20
330.201
 30
0.000000
  70
    32
  0
VERTEX
  8
AM_0
  5
1FC99
 10
-156.686
 20
330.005
 30
0.000000
  70
    32
  0
VERTEX
  8
AM_0
  5
1FC9A
 10
-156.862
 20
329.801
 30
0.000000
  70
    32
  0
VERTEX
  8
AM_0
  5
1FC9B
 10
-157.028
 20
329.588
 30
0.000000
  70
    32
  0
VERTEX
  8
AM_0
  5
1FC9C
 10
-157.184
 20
329.367
 30
0.000000
  70
    32
  0
VERTEX
  8
AM_0
  5
1FC9D
 10
-157.328
 20
329.139
 30
0.000000
  70
    32
  0
VERTEX
  8
AM_0
  5
1FC9E
 10
-157.461
 20
328.904
 30
0.000000
  70
    32
  0
VERTEX
  8
AM_0
  5
1FC9F
 10
-157.583
 20
328.663
 30
0.000000
  70
    32
  0
VERTEX
  8
AM_0
  5
1FCA0
 10
-157.692
 20
328.416
 30
0.000000
  70
    32
  0
VERTEX
  8
AM_0
  5
1FCA1
 10
-157.789
 20
328.165
 30
0.000000
  70
    32
  0
VERTEX
  8
AM_0
  5
1FCA2
 10
-157.874
 20
327.908
 30
0.000000
  70
    32
  0
VERTEX
  8
AM_0
  5
1FCA3
 10
-157.946
 20
327.648
 30
0.000000
  70
    32
  0
VERTEX
  8
AM_0
  5
1FCA4
 10
-158.005
 20
327.385
 30
0.000000
  70
    32
  0
VERTEX
  8
AM_0
  5
1FCA5
 10
-158.051
 20
327.119
 30
0.000000
  70
    32
  0
VERTEX
  8
AM_0
  5
1FCA6
 10
-158.084
 20
326.851
 30
0.000000
  70
    32
  0
VERTEX
  8
AM_0
  5
1FCA7
 10
-158.104
 20
326.582
 30
0.000000
  70
    32
  0
VERTEX
  8
AM_0
  5
1FCA8
 10
-158.111
 20
326.312
 30
0.000000
  70
    32
  0
VERTEX
  8
AM_0
  5
1FCA9
 10
-158.104
 20
326.042
 30
0.000000
  70
    32
  0
VERTEX
  8
AM_0
  5
1FCAA
 10
-158.084
 20
325.773
 30
0.000000
  70
    32
  0
VERTEX
  8
AM_0
  5
1FCAB
 10
-158.051
 20
325.505
 30
0.000000
  70
    32
  0
VERTEX
  8
AM_0
  5
1FCAC
 10
-158.005
 20
325.239
 30
0.000000
  70
    32
  0
VERTEX
  8
AM_0
  5
1FCAD
 10
-157.946
 20
324.975
 30
0.000000
  70
    32
  0
VERTEX
  8
AM_0
  5
1FCAE
 10
-157.874
 20
324.715
 30
0.000000
  70
    32
  0
VERTEX
  8
AM_0
  5
1FCAF
 10
-157.789
 20
324.459
 30
0.000000
  70
    32
  0
VERTEX
  8
AM_0
  5
1FCB0
 10
-157.692
 20
324.207
 30
0.000000
  70
    32
  0
VERTEX
  8
AM_0
  5
1FCB1
 10
-157.583
 20
323.960
 30
0.000000
  70
    32
  0
VERTEX
  8
AM_0
  5
1FCB2
 10
-157.461
 20
323.719
 30
0.000000
  70
    32
  0
VERTEX
  8
AM_0
  5
1FCB3
 10
-157.328
 20
323.484
 30
0.000000
  70
    32
  0
VERTEX
  8
AM_0
  5
1FCB4
 10
-157.184
 20
323.256
 30
0.000000
  70
    32
  0
VERTEX
  8
AM_0
  5
1FCB5
 10
-157.028
 20
323.035
 30
0.000000
  70
    32
  0
VERTEX
  8
AM_0
  5
1FCB6
 10
-156.862
 20
322.823
 30
0.000000
  70
    32
  0
VERTEX
  8
AM_0
  5
1FCB7
 10
-156.686
 20
322.618
 30
0.000000
  70
    32
  0
VERTEX
  8
AM_0
  5
1FCB8
 10
-156.500
 20
322.423
 30
0.000000
  70
    32
  0
VERTEX
  8
AM_0
  5
1FCB9
 10
-156.304
 20
322.236
 30
0.000000
  70
    32
  0
VERTEX
  8
AM_0
  5
1FCBA
 10
-156.100
 20
322.060
 30
0.000000
  70
    32
  0
VERTEX
  8
AM_0
  5
1FCBB
 10
-155.887
 20
321.894
 30
0.000000
  70
    32
  0
VERTEX
  8
AM_0
  5
1FCBC
 10
-155.666
 20
321.739
 30
0.000000
  70
    32
  0
VERTEX
  8
AM_0
  5
1FCBD
 10
-155.438
 20
321.594
 30
0.000000
  70
    32
  0
VERTEX
  8
AM_0
  5
1FCBE
 10
-155.203
 20
321.461
 30
0.000000
  70
    32
  0
VERTEX
  8
AM_0
  5
1FCBF
 10
-154.962
 20
321.340
 30
0.000000
  70
    32
  0
VERTEX
  8
AM_0
  5
1FCC0
 10
-154.716
 20
321.230
 30
0.000000
  70
    32
  0
VERTEX
  8
AM_0
  5
1FCC1
 10
-154.464
 20
321.133
 30
0.000000
  70
    32
  0
VERTEX
  8
AM_0
  5
1FCC2
 10
-154.207
 20
321.049
 30
0.000000
  70
    32
  0
VERTEX
  8
AM_0
  5
1FCC3
 10
-153.947
 20
320.977
 30
0.000000
  70
    32
  0
VERTEX
  8
AM_0
  5
1FCC4
 10
-153.684
 20
320.917
 30
0.000000
  70
    32
  0
VERTEX
  8
AM_0
  5
1FCC5
 10
-153.418
 20
320.871
 30
0.000000
  70
    32
  0
VERTEX
  8
AM_0
  5
1FCC6
 10
-153.150
 20
320.838
 30
0.000000
  70
    32
  0
VERTEX
  8
AM_0
  5
1FCC7
 10
-152.881
 20
320.818
 30
0.000000
  70
    32
  0
VERTEX
  8
AM_0
  5
1FCC8
 10
-152.611
 20
320.812
 30
0.000000
  70
    32
  0
VERTEX
  8
AM_0
  5
1FCC9
 10
-152.341
 20
320.818
 30
0.000000
  70
    32
  0
VERTEX
  8
AM_0
  5
1FCCA
 10
-152.072
 20
320.838
 30
0.000000
  70
    32
  0
VERTEX
  8
AM_0
  5
1FCCB
 10
-151.804
 20
320.871
 30
0.000000
  70
    32
  0
VERTEX
  8
AM_0
  5
1FCCC
 10
-151.538
 20
320.917
 30
0.000000
  70
    32
  0
VERTEX
  8
AM_0
  5
1FCCD
 10
-151.274
 20
320.977
 30
0.000000
  70
    32
  0
VERTEX
  8
AM_0
  5
1FCCE
 10
-151.014
 20
321.049
 30
0.000000
  70
    32
  0
VERTEX
  8
AM_0
  5
1FCCF
 10
-150.758
 20
321.133
 30
0.000000
  70
    32
  0
VERTEX
  8
AM_0
  5
1FCD0
 10
-150.506
 20
321.230
 30
0.000000
  70
    32
  0
VERTEX
  8
AM_0
  5
1FCD1
 10
-150.259
 20
321.340
 30
0.000000
  70
    32
  0
VERTEX
  8
AM_0
  5
1FCD2
 10
-150.018
 20
321.461
 30
0.000000
  70
    32
  0
VERTEX
  8
AM_0
  5
1FCD3
 10
-149.783
 20
321.594
 30
0.000000
  70
    32
  0
VERTEX
  8
AM_0
  5
1FCD4
 10
-149.555
 20
321.739
 30
0.000000
  70
    32
  0
VERTEX
  8
AM_0
  5
1FCD5
 10
-149.334
 20
321.894
 30
0.000000
  70
    32
  0
VERTEX
  8
AM_0
  5
1FCD6
 10
-149.122
 20
322.060
 30
0.000000
  70
    32
  0
VERTEX
  8
AM_0
  5
1FCD7
 10
-148.917
 20
322.236
 30
0.000000
  70
    32
  0
VERTEX
  8
AM_0
  5
1FCD8
 10
-148.722
 20
322.423
 30
0.000000
  70
    32
  0
VERTEX
  8
AM_0
  5
1FCD9
 10
-148.536
 20
322.618
 30
0.000000
  70
    32
  0
VERTEX
  8
AM_0
  5
1FCDA
 10
-148.359
 20
322.823
 30
0.000000
  70
    32
  0
VERTEX
  8
AM_0
  5
1FCDB
 10
-148.193
 20
323.035
 30
0.000000
  70
    32
  0
VERTEX
  8
AM_0
  5
1FCDC
 10
-148.038
 20
323.256
 30
0.000000
  70
    32
  0
VERTEX
  8
AM_0
  5
1FCDD
 10
-147.893
 20
323.484
 30
0.000000
  70
    32
  0
VERTEX
  8
AM_0
  5
1FCDE
 10
-147.760
 20
323.719
 30
0.000000
  70
    32
  0
VERTEX
  8
AM_0
  5
1FCDF
 10
-147.639
 20
323.960
 30
0.000000
  70
    32
  0
VERTEX
  8
AM_0
  5
1FCE0
 10
-147.529
 20
324.207
 30
0.000000
  70
    32
  0
VERTEX
  8
AM_0
  5
1FCE1
 10
-147.432
 20
324.459
 30
0.000000
  70
    32
  0
VERTEX
  8
AM_0
  5
1FCE2
 10
-147.348
 20
324.715
 30
0.000000
  70
    32
  0
VERTEX
  8
AM_0
  5
1FCE3
 10
-147.276
 20
324.975
 30
0.000000
  70
    32
  0
VERTEX
  8
AM_0
  5
1FCE4
 10
-147.216
 20
325.239
 30
0.000000
  70
    32
  0
VERTEX
  8
AM_0
  5
1FCE5
 10
-147.170
 20
325.505
 30
0.000000
  70
    32
  0
VERTEX
  8
AM_0
  5
1FCE6
 10
-147.137
 20
325.773
 30
0.000000
  70
    32
  0
VERTEX
  8
AM_0
  5
1FCE7
 10
-147.117
 20
326.042
 30
0.000000
  70
    32
  0
VERTEX
  8
AM_0
  5
1FCE8
 10
-147.111
 20
326.312
 30
0.000000
  70
    32
  0
SEQEND
  8
AM_0
  5
1FCE9
  0
LINE
  5
1EEC6
  8
AM_0N
 10
-156.16738749339621
 20
313.81215825046451
 30
0.0
 11
-159.05413883934369
 21
313.81215825046451
 31
0.0
  0
LINE
  5
1EEC7
  8
AM_0
 10
-157.61076316636999
 20
317.31215825046428
 30
0.0
 11
-162.61076316636999
 21
317.31215825046428
 31
0.0
  0
LINE
  5
1EEC8
  8
AM_0N
 10
-159.05413883934409
 20
308.81215825046428
 30
0.0
 11
-156.16738749339589
 21
308.81215825046428
 31
0.0
  0
LINE
  5
1EEC9
  8
AM_0
 10
-157.61076316636999
 20
305.31215825046439
 30
0.0
 11
-162.61076316636999
 21
305.31215825046439
 31
0.0
  0
CIRCLE
  5
1EECA
  8
AM_0N
 10
-157.61076316636999
 20
311.31215825046428
 30
0.0
 40
2.886751345948126
  0
CIRCLE
  5
1EECB
  8
AM_0N
 10
-157.61076316636999
 20
311.31215825046428
 30
0.0
 40
5.0
  0
ARC
  5
1EECC
  8
AM_0
 10
-157.61076316636999
 20
311.31215825046428
 30
0.0
 40
6.0
 50
270.0
 51
90.000005008956919
  0
ARC
  5
1EECD
  8
AM_0
 10
-153.61076316636999
 20
294.78945317233928
 30
0.0
 40
5.0
 50
103.6089556670006
 51
179.99999749551819
  0
LINE
  5
1EECE
  8
AM_0N
 10
-159.05413883934369
 20
313.81215825046451
 30
0.0
 11
-160.49751451231811
 21
311.31215825046428
 31
0.0
  0
ARC
  5
1EECF
  8
AM_0
 10
-162.61076316636999
 20
303.31215825046439
 30
0.0
 40
2.0000000000000062
 50
90.000005008956919
 51
180.000000683243
  0
LINE
  5
1EED0
  8
AM_0N
 10
-160.49751451231811
 20
311.31215825046428
 30
0.0
 11
-159.05413883934409
 21
308.81215825046428
 31
0.0
  0
LINE
  5
1EED1
  8
AM_0
 10
-170.03927783750359
 20
323.04088851177278
 30
0.0
 11
-165.6108121911914
 21
323.04088851177272
 31
0.0
  0
ARC
  5
1EED2
  8
AM_0
 10
-170.03927783750359
 20
320.04088851177289
 30
0.0
 40
2.9999999999999978
 50
90.0
 51
173.3392856796832
1001
GENIUS_GENODEF_13
1002
{
1000
HIER
1070
     0
1002
}
1002
{
1000
MANEDIT
1070
     0
1002
}
1002
{
1000
NOSEL
1070
     0
1002
}
1002
{
1000
BEHIND
1070
     0
1002
}
1002
{
1000
OTHER
1070
     0
1002
}
1002
{
1000
REACTOR
1002
}
1001
GENIUS_GENOBJ-N-FIL_13
1002
{
1000
OWNER
1000
GEN
1002
}
  0
ARC
  5
1EED3
  8
AM_0
 10
-162.61076316636999
 20
319.31215825046428
 30
0.0
 40
2.0000000000000022
 50
179.99999749551819
 51
270.0
  0
ARC
  5
1EED4
  8
AM_0
 10
-157.61076316636999
 20
311.31215825046428
 30
0.0
 40
12.0
 50
283.60896067595479
 51
342.93301267439938
  0
LINE
  5
1EED5
  8
AM_0N
 10
-154.72401182042191
 20
311.31215825046428
 30
0.0
 11
-156.16738749339621
 21
313.81215825046451
 31
0.0
  0
LINE
  5
1EED6
  8
AM_0N
 10
-156.16738749339589
 20
308.81215825046428
 30
0.0
 11
-154.72401182042191
 21
311.31215825046428
 31
0.0
  0
POLYLINE
  5
1EED7
  8
AM_0
 10
-152.61081226109968
 20
338.31152778718877
 30
0.0
 66
     1
 70
     8
  0
VERTEX
  8
AM_0
  5
1FCEA
 10
-152.611
 20
338.312
 30
0.000000
  70
    32
  0
VERTEX
  8
AM_0
  5
1FCEB
 10
-152.758
 20
338.311
 30
0.000000
  70
    32
  0
VERTEX
  8
AM_0
  5
1FCEC
 10
-152.905
 20
338.308
 30
0.000000
  70
    32
  0
VERTEX
  8
AM_0
  5
1FCED
 10
-153.052
 20
338.303
 30
0.000000
  70
    32
  0
VERTEX
  8
AM_0
  5
1FCEE
 10
-153.200
 20
338.297
 30
0.000000
  70
    32
  0
VERTEX
  8
AM_0
  5
1FCEF
 10
-153.347
 20
338.289
 30
0.000000
  70
    32
  0
VERTEX
  8
AM_0
  5
1FCF0
 10
-153.494
 20
338.279
 30
0.000000
  70
    32
  0
VERTEX
  8
AM_0
  5
1FCF1
 10
-153.640
 20
338.267
 30
0.000000
  70
    32
  0
VERTEX
  8
AM_0
  5
1FCF2
 10
-153.787
 20
338.254
 30
0.000000
  70
    32
  0
VERTEX
  8
AM_0
  5
1FCF3
 10
-153.933
 20
338.238
 30
0.000000
  70
    32
  0
VERTEX
  8
AM_0
  5
1FCF4
 10
-154.080
 20
338.221
 30
0.000000
  70
    32
  0
VERTEX
  8
AM_0
  5
1FCF5
 10
-154.226
 20
338.202
 30
0.000000
  70
    32
  0
VERTEX
  8
AM_0
  5
1FCF6
 10
-154.372
 20
338.182
 30
0.000000
  70
    32
  0
VERTEX
  8
AM_0
  5
1FCF7
 10
-154.517
 20
338.159
 30
0.000000
  70
    32
  0
VERTEX
  8
AM_0
  5
1FCF8
 10
-154.662
 20
338.135
 30
0.000000
  70
    32
  0
VERTEX
  8
AM_0
  5
1FCF9
 10
-154.807
 20
338.109
 30
0.000000
  70
    32
  0
VERTEX
  8
AM_0
  5
1FCFA
 10
-154.952
 20
338.081
 30
0.000000
  70
    32
  0
VERTEX
  8
AM_0
  5
1FCFB
 10
-155.096
 20
338.051
 30
0.000000
  70
    32
  0
VERTEX
  8
AM_0
  5
1FCFC
 10
-155.240
 20
338.020
 30
0.000000
  70
    32
  0
VERTEX
  8
AM_0
  5
1FCFD
 10
-155.384
 20
337.987
 30
0.000000
  70
    32
  0
VERTEX
  8
AM_0
  5
1FCFE
 10
-155.527
 20
337.952
 30
0.000000
  70
    32
  0
VERTEX
  8
AM_0
  5
1FCFF
 10
-155.669
 20
337.915
 30
0.000000
  70
    32
  0
VERTEX
  8
AM_0
  5
1FD00
 10
-155.811
 20
337.877
 30
0.000000
  70
    32
  0
VERTEX
  8
AM_0
  5
1FD01
 10
-155.953
 20
337.837
 30
0.000000
  70
    32
  0
VERTEX
  8
AM_0
  5
1FD02
 10
-156.094
 20
337.795
 30
0.000000
  70
    32
  0
VERTEX
  8
AM_0
  5
1FD03
 10
-156.235
 20
337.751
 30
0.000000
  70
    32
  0
VERTEX
  8
AM_0
  5
1FD04
 10
-156.375
 20
337.706
 30
0.000000
  70
    32
  0
VERTEX
  8
AM_0
  5
1FD05
 10
-156.515
 20
337.659
 30
0.000000
  70
    32
  0
VERTEX
  8
AM_0
  5
1FD06
 10
-156.653
 20
337.610
 30
0.000000
  70
    32
  0
VERTEX
  8
AM_0
  5
1FD07
 10
-156.792
 20
337.560
 30
0.000000
  70
    32
  0
VERTEX
  8
AM_0
  5
1FD08
 10
-156.930
 20
337.507
 30
0.000000
  70
    32
  0
VERTEX
  8
AM_0
  5
1FD09
 10
-157.067
 20
337.454
 30
0.000000
  70
    32
  0
VERTEX
  8
AM_0
  5
1FD0A
 10
-157.203
 20
337.398
 30
0.000000
  70
    32
  0
VERTEX
  8
AM_0
  5
1FD0B
 10
-157.339
 20
337.341
 30
0.000000
  70
    32
  0
VERTEX
  8
AM_0
  5
1FD0C
 10
-157.474
 20
337.282
 30
0.000000
  70
    32
  0
VERTEX
  8
AM_0
  5
1FD0D
 10
-157.608
 20
337.222
 30
0.000000
  70
    32
  0
VERTEX
  8
AM_0
  5
1FD0E
 10
-157.741
 20
337.159
 30
0.000000
  70
    32
  0
VERTEX
  8
AM_0
  5
1FD0F
 10
-157.874
 20
337.096
 30
0.000000
  70
    32
  0
VERTEX
  8
AM_0
  5
1FD10
 10
-158.006
 20
337.030
 30
0.000000
  70
    32
  0
VERTEX
  8
AM_0
  5
1FD11
 10
-158.137
 20
336.963
 30
0.000000
  70
    32
  0
VERTEX
  8
AM_0
  5
1FD12
 10
-158.268
 20
336.895
 30
0.000000
  70
    32
  0
VERTEX
  8
AM_0
  5
1FD13
 10
-158.397
 20
336.824
 30
0.000000
  70
    32
  0
VERTEX
  8
AM_0
  5
1FD14
 10
-158.526
 20
336.753
 30
0.000000
  70
    32
  0
VERTEX
  8
AM_0
  5
1FD15
 10
-158.653
 20
336.679
 30
0.000000
  70
    32
  0
VERTEX
  8
AM_0
  5
1FD16
 10
-158.780
 20
336.604
 30
0.000000
  70
    32
  0
VERTEX
  8
AM_0
  5
1FD17
 10
-158.906
 20
336.528
 30
0.000000
  70
    32
  0
VERTEX
  8
AM_0
  5
1FD18
 10
-159.031
 20
336.450
 30
0.000000
  70
    32
  0
VERTEX
  8
AM_0
  5
1FD19
 10
-159.155
 20
336.370
 30
0.000000
  70
    32
  0
VERTEX
  8
AM_0
  5
1FD1A
 10
-159.278
 20
336.289
 30
0.000000
  70
    32
  0
VERTEX
  8
AM_0
  5
1FD1B
 10
-159.400
 20
336.207
 30
0.000000
  70
    32
  0
VERTEX
  8
AM_0
  5
1FD1C
 10
-159.521
 20
336.123
 30
0.000000
  70
    32
  0
VERTEX
  8
AM_0
  5
1FD1D
 10
-159.640
 20
336.037
 30
0.000000
  70
    32
  0
VERTEX
  8
AM_0
  5
1FD1E
 10
-159.759
 20
335.950
 30
0.000000
  70
    32
  0
VERTEX
  8
AM_0
  5
1FD1F
 10
-159.877
 20
335.862
 30
0.000000
  70
    32
  0
VERTEX
  8
AM_0
  5
1FD20
 10
-159.994
 20
335.772
 30
0.000000
  70
    32
  0
VERTEX
  8
AM_0
  5
1FD21
 10
-160.109
 20
335.680
 30
0.000000
  70
    32
  0
VERTEX
  8
AM_0
  5
1FD22
 10
-160.224
 20
335.588
 30
0.000000
  70
    32
  0
VERTEX
  8
AM_0
  5
1FD23
 10
-160.337
 20
335.494
 30
0.000000
  70
    32
  0
VERTEX
  8
AM_0
  5
1FD24
 10
-160.449
 20
335.398
 30
0.000000
  70
    32
  0
VERTEX
  8
AM_0
  5
1FD25
 10
-160.560
 20
335.301
 30
0.000000
  70
    32
  0
VERTEX
  8
AM_0
  5
1FD26
 10
-160.670
 20
335.203
 30
0.000000
  70
    32
  0
VERTEX
  8
AM_0
  5
1FD27
 10
-160.778
 20
335.103
 30
0.000000
  70
    32
  0
VERTEX
  8
AM_0
  5
1FD28
 10
-160.885
 20
335.003
 30
0.000000
  70
    32
  0
VERTEX
  8
AM_0
  5
1FD29
 10
-160.991
 20
334.900
 30
0.000000
  70
    32
  0
VERTEX
  8
AM_0
  5
1FD2A
 10
-161.096
 20
334.797
 30
0.000000
  70
    32
  0
VERTEX
  8
AM_0
  5
1FD2B
 10
-161.200
 20
334.692
 30
0.000000
  70
    32
  0
VERTEX
  8
AM_0
  5
1FD2C
 10
-161.302
 20
334.586
 30
0.000000
  70
    32
  0
VERTEX
  8
AM_0
  5
1FD2D
 10
-161.403
 20
334.479
 30
0.000000
  70
    32
  0
VERTEX
  8
AM_0
  5
1FD2E
 10
-161.502
 20
334.370
 30
0.000000
  70
    32
  0
VERTEX
  8
AM_0
  5
1FD2F
 10
-161.600
 20
334.261
 30
0.000000
  70
    32
  0
VERTEX
  8
AM_0
  5
1FD30
 10
-161.697
 20
334.150
 30
0.000000
  70
    32
  0
VERTEX
  8
AM_0
  5
1FD31
 10
-161.793
 20
334.038
 30
0.000000
  70
    32
  0
VERTEX
  8
AM_0
  5
1FD32
 10
-161.887
 20
333.924
 30
0.000000
  70
    32
  0
VERTEX
  8
AM_0
  5
1FD33
 10
-161.980
 20
333.810
 30
0.000000
  70
    32
  0
VERTEX
  8
AM_0
  5
1FD34
 10
-162.071
 20
333.694
 30
0.000000
  70
    32
  0
VERTEX
  8
AM_0
  5
1FD35
 10
-162.161
 20
333.578
 30
0.000000
  70
    32
  0
VERTEX
  8
AM_0
  5
1FD36
 10
-162.249
 20
333.460
 30
0.000000
  70
    32
  0
VERTEX
  8
AM_0
  5
1FD37
 10
-162.336
 20
333.341
 30
0.000000
  70
    32
  0
VERTEX
  8
AM_0
  5
1FD38
 10
-162.422
 20
333.221
 30
0.000000
  70
    32
  0
VERTEX
  8
AM_0
  5
1FD39
 10
-162.506
 20
333.100
 30
0.000000
  70
    32
  0
VERTEX
  8
AM_0
  5
1FD3A
 10
-162.588
 20
332.978
 30
0.000000
  70
    32
  0
VERTEX
  8
AM_0
  5
1FD3B
 10
-162.670
 20
332.855
 30
0.000000
  70
    32
  0
VERTEX
  8
AM_0
  5
1FD3C
 10
-162.749
 20
332.732
 30
0.000000
  70
    32
  0
VERTEX
  8
AM_0
  5
1FD3D
 10
-162.827
 20
332.607
 30
0.000000
  70
    32
  0
VERTEX
  8
AM_0
  5
1FD3E
 10
-162.904
 20
332.481
 30
0.000000
  70
    32
  0
VERTEX
  8
AM_0
  5
1FD3F
 10
-162.978
 20
332.354
 30
0.000000
  70
    32
  0
VERTEX
  8
AM_0
  5
1FD40
 10
-163.052
 20
332.226
 30
0.000000
  70
    32
  0
VERTEX
  8
AM_0
  5
1FD41
 10
-163.124
 20
332.098
 30
0.000000
  70
    32
  0
VERTEX
  8
AM_0
  5
1FD42
 10
-163.194
 20
331.968
 30
0.000000
  70
    32
  0
VERTEX
  8
AM_0
  5
1FD43
 10
-163.262
 20
331.838
 30
0.000000
  70
    32
  0
VERTEX
  8
AM_0
  5
1FD44
 10
-163.330
 20
331.707
 30
0.000000
  70
    32
  0
VERTEX
  8
AM_0
  5
1FD45
 10
-163.395
 20
331.575
 30
0.000000
  70
    32
  0
VERTEX
  8
AM_0
  5
1FD46
 10
-163.459
 20
331.442
 30
0.000000
  70
    32
  0
VERTEX
  8
AM_0
  5
1FD47
 10
-163.521
 20
331.309
 30
0.000000
  70
    32
  0
VERTEX
  8
AM_0
  5
1FD48
 10
-163.581
 20
331.174
 30
0.000000
  70
    32
  0
VERTEX
  8
AM_0
  5
1FD49
 10
-163.640
 20
331.040
 30
0.000000
  70
    32
  0
VERTEX
  8
AM_0
  5
1FD4A
 10
-163.697
 20
330.904
 30
0.000000
  70
    32
  0
VERTEX
  8
AM_0
  5
1FD4B
 10
-163.753
 20
330.767
 30
0.000000
  70
    32
  0
VERTEX
  8
AM_0
  5
1FD4C
 10
-163.807
 20
330.630
 30
0.000000
  70
    32
  0
VERTEX
  8
AM_0
  5
1FD4D
 10
-163.859
 20
330.493
 30
0.000000
  70
    32
  0
VERTEX
  8
AM_0
  5
1FD4E
 10
-163.909
 20
330.354
 30
0.000000
  70
    32
  0
VERTEX
  8
AM_0
  5
1FD4F
 10
-163.958
 20
330.215
 30
0.000000
  70
    32
  0
VERTEX
  8
AM_0
  5
1FD50
 10
-164.005
 20
330.076
 30
0.000000
  70
    32
  0
VERTEX
  8
AM_0
  5
1FD51
 10
-164.050
 20
329.936
 30
0.000000
  70
    32
  0
VERTEX
  8
AM_0
  5
1FD52
 10
-164.094
 20
329.795
 30
0.000000
  70
    32
  0
VERTEX
  8
AM_0
  5
1FD53
 10
-164.136
 20
329.654
 30
0.000000
  70
    32
  0
VERTEX
  8
AM_0
  5
1FD54
 10
-164.176
 20
329.512
 30
0.000000
  70
    32
  0
VERTEX
  8
AM_0
  5
1FD55
 10
-164.215
 20
329.370
 30
0.000000
  70
    32
  0
VERTEX
  8
AM_0
  5
1FD56
 10
-164.251
 20
329.227
 30
0.000000
  70
    32
  0
VERTEX
  8
AM_0
  5
1FD57
 10
-164.286
 20
329.084
 30
0.000000
  70
    32
  0
VERTEX
  8
AM_0
  5
1FD58
 10
-164.319
 20
328.941
 30
0.000000
  70
    32
  0
VERTEX
  8
AM_0
  5
1FD59
 10
-164.351
 20
328.797
 30
0.000000
  70
    32
  0
VERTEX
  8
AM_0
  5
1FD5A
 10
-164.380
 20
328.653
 30
0.000000
  70
    32
  0
VERTEX
  8
AM_0
  5
1FD5B
 10
-164.408
 20
328.508
 30
0.000000
  70
    32
  0
VERTEX
  8
AM_0
  5
1FD5C
 10
-164.434
 20
328.363
 30
0.000000
  70
    32
  0
VERTEX
  8
AM_0
  5
1FD5D
 10
-164.458
 20
328.218
 30
0.000000
  70
    32
  0
VERTEX
  8
AM_0
  5
1FD5E
 10
-164.481
 20
328.072
 30
0.000000
  70
    32
  0
VERTEX
  8
AM_0
  5
1FD5F
 10
-164.502
 20
327.927
 30
0.000000
  70
    32
  0
VERTEX
  8
AM_0
  5
1FD60
 10
-164.521
 20
327.781
 30
0.000000
  70
    32
  0
VERTEX
  8
AM_0
  5
1FD61
 10
-164.538
 20
327.634
 30
0.000000
  70
    32
  0
VERTEX
  8
AM_0
  5
1FD62
 10
-164.553
 20
327.488
 30
0.000000
  70
    32
  0
VERTEX
  8
AM_0
  5
1FD63
 10
-164.567
 20
327.341
 30
0.000000
  70
    32
  0
VERTEX
  8
AM_0
  5
1FD64
 10
-164.578
 20
327.194
 30
0.000000
  70
    32
  0
VERTEX
  8
AM_0
  5
1FD65
 10
-164.588
 20
327.047
 30
0.000000
  70
    32
  0
VERTEX
  8
AM_0
  5
1FD66
 10
-164.596
 20
326.900
 30
0.000000
  70
    32
  0
VERTEX
  8
AM_0
  5
1FD67
 10
-164.603
 20
326.753
 30
0.000000
  70
    32
  0
VERTEX
  8
AM_0
  5
1FD68
 10
-164.607
 20
326.606
 30
0.000000
  70
    32
  0
VERTEX
  8
AM_0
  5
1FD69
 10
-164.610
 20
326.459
 30
0.000000
  70
    32
  0
VERTEX
  8
AM_0
  5
1FD6A
 10
-164.611
 20
326.312
 30
0.000000
  70
    32
  0
SEQEND
  8
AM_0
  5
1FD6B
  0
LINE
  5
1EED9
  8
AM_0
 10
-188.11081219119129
 20
335.81215987367892
 30
0.0
 11
-160.90238924262781
 21
335.8121598736783
 31
0.0
  0
ARC
  5
1EEDA
  8
AM_0
 10
-188.11081219119129
 20
338.81215987367881
 30
0.0
 40
2.9999999999999978
 50
215.68533471265459
 51
270.0
1001
GENIUS_GENOBJ-N-FIL_13
1002
{
1000
OWNER
1000
GEN
1002
}
1001
GENIUS_GENODEF_13
1002
{
1000
HIER
1070
     0
1002
}
1002
{
1000
MANEDIT
1070
     0
1002
}
1002
{
1000
NOSEL
1070
     0
1002
}
1002
{
1000
BEHIND
1070
     0
1002
}
1002
{
1000
OTHER
1070
     0
1002
}
1002
{
1000
REACTOR
1002
}
  0
ARC
  5
1EEDB
  8
AM_0
 10
-160.90238924262781
 20
338.81215987367841
 30
0.0
 40
2.9999999999999978
 50
270.0
 51
303.55737886317002
1001
GENIUS_GENOBJ-N-FIL_13
1002
{
1000
OWNER
1000
GEN
1002
}
1001
GENIUS_GENODEF_13
1002
{
1000
HIER
1070
     0
1002
}
1002
{
1000
MANEDIT
1070
     0
1002
}
1002
{
1000
NOSEL
1070
     0
1002
}
1002
{
1000
BEHIND
1070
     0
1002
}
1002
{
1000
OTHER
1070
     0
1002
}
1002
{
1000
REACTOR
1002
}
  0
ARC
  5
1EEDC
  8
AM_0
 10
-134.91548118394809
 20
327.31215825046428
 30
0.0
 40
4.9999999999999911
 50
90.000005008956919
 51
162.93299719277709
  0
ARC
  5
1EEDD
  8
AM_0
 10
-88.610763166370006
 20
331.31215825046428
 30
0.0
 40
11.0
 50
194.4775123470915
 51
345.52248765290852
  0
CIRCLE
  5
1EEDE
  8
AM_0N
 10
-88.610763166370006
 20
331.31215825046428
 30
0.0
 40
5.0
  0
ARC
  5
1EEDF
  8
AM_0
 10
-88.610763166370006
 20
331.31215825046428
 30
0.0
 40
6.0000000000000062
 50
179.99999749551819
 51
0.0000025044817295
  0
LINE
  5
1EEE0
  8
AM_0
 10
-94.610763166370035
 20
331.31215825046428
 30
0.0
 11
-94.610763166370035
 21
336.31215825046428
 31
0.0
  0
ARC
  5
1EEE1
  8
AM_0
 10
-104.10270652574501
 20
327.31215825046428
 30
0.0
 40
5.0000000000000044
 50
14.4775105258501
 51
90.000005008956919
  0
ARC
  5
1EEE2
  8
AM_0
 10
-96.610763166370006
 20
336.31215825046428
 30
0.0
 40
2.0000000000000022
 50
0.0000025044817295
 51
90.000005008956919
  0
ARC
  5
1EEE3
  8
AM_0
 10
-73.118835065784083
 20
327.31215825046428
 30
0.0
 40
4.9999999999999911
 50
89.999994991043053
 51
165.52248947414989
  0
LINE
  5
1EEE4
  8
AM_0
 10
-82.61076316637002
 20
331.31215825046428
 30
0.0
 11
-82.61076316637002
 21
336.31215825046428
 31
0.0
  0
LINE
  5
1EEE5
  8
AM_0N
 10
-90.054138839343778
 20
333.81215825046451
 30
0.0
 11
-91.497514512318133
 21
331.31215825046428
 31
0.0
  0
LINE
  5
1EEE6
  8
AM_0N
 10
-91.497514512318133
 20
331.31215825046428
 30
0.0
 11
-90.054138839344105
 21
328.81215825046428
 31
0.0
  0
CIRCLE
  5
1EEE7
  8
AM_0N
 10
-88.610763166370006
 20
331.31215825046428
 30
0.0
 40
2.886751345948126
  0
LINE
  5
1EEE8
  8
AM_0N
 10
-90.054138839344105
 20
328.81215825046428
 30
0.0
 11
-87.167387493395964
 21
328.81215825046428
 31
0.0
  0
LINE
  5
1EEE9
  8
AM_0N
 10
-87.167387493396177
 20
333.81215825046451
 30
0.0
 11
-90.054138839343778
 21
333.81215825046451
 31
0.0
  0
LINE
  5
1EEEA
  8
AM_0N
 10
-85.724011820421879
 20
331.31215825046428
 30
0.0
 11
-87.167387493396177
 21
333.81215825046451
 31
0.0
  0
LINE
  5
1EEEB
  8
AM_0N
 10
-87.167387493395964
 20
328.81215825046428
 30
0.0
 11
-85.724011820421879
 21
331.31215825046428
 31
0.0
  0
ARC
  5
1EEEC
  8
AM_0
 10
-80.61076316637002
 20
336.31215825046428
 30
0.0
 40
2.0000000000000062
 50
90.000005008956919
 51
180.000000683243
  0
LINE
  5
1EEED
  8
AM_0
 10
7.3892233893870971
 20
326.31164742956452
 30
0.0
 11
7.3892233893870412
 21
189.3121354328284
 31
0.0
  0
LINE
  5
1EEEE
  8
AM_0
 10
1.389221574840916
 20
294.78945317233928
 30
0.0
 11
1.389221574840916
 21
253.8348785873784
 31
0.0
  0
LINE
  5
1EEEF
  8
ﾁｭｳｼﾝｾﾝ1
 10
-55.610778425158969
 20
343.31152778718842
 30
0.0
 11
-55.610778425159033
 21
179.8121354328286
 31
0.0
  0
LINE
  5
1EEF0
  8
AM_0
 10
-40.610778425158898
 20
225.31212639211989
 30
0.0
 11
-40.610778425159019
 21
193.8121354328286
 31
0.0
  0
LINE
  5
1EEF1
  8
AM_0
 10
-36.110778425158919
 20
225.31212639211989
 30
0.0
 11
-36.110778425158969
 21
193.8121354328286
 31
0.0
  0
LINE
  5
1EEF2
  8
ﾁｭｳｼﾝｾﾝ1
 10
-11.110778425158969
 20
202.3121354328286
 30
0.0
 11
-11.110778425158969
 21
180.8121354328286
 31
0.0
  0
LINE
  5
1EEF3
  8
ｶｸﾚｾﾝ2
 10
-17.110778425159019
 20
193.8121354328286
 30
0.0
 11
-17.110778425158909
 21
189.3121354328286
 31
0.0
  0
LINE
  5
1EEF4
  8
ｶｸﾚｾﾝ2
 10
-5.1107784251589123
 20
193.8121354328286
 30
0.0
 11
-5.1107784251587969
 21
189.3121354328286
 31
0.0
  0
LINE
  5
1EEF5
  8
AM_0N
 10
3.2759729207890582
 20
237.3121658798589
 30
0.0
 11
1.832597247814759
 21
239.81216587985901
 31
0.0
  0
LINE
  5
1EEF6
  8
AM_0
 10
-13.084597866876949
 20
234.3121354328286
 30
0.0
 11
-11.08230552476846
 21
240.83403935397999
 31
0.0
  0
LINE
  5
1EEF7
  8
AM_0N
 10
-1.0541540981328681
 20
239.81216587985901
 30
0.0
 11
-2.497529771107224
 21
237.3121658798589
 31
0.0
  0
ARC
  5
1EEF8
  8
AM_0
 10
0.3892215748409171
 20
237.3121658798589
 30
0.0
 40
5.9999999999999947
 50
90.000005008956919
 51
210.00033572711629
  0
CIRCLE
  5
1EEF9
  8
AM_0
 10
0.3892215748409171
 20
237.3121658798589
 30
0.0
 40
2.88675134594813
  0
ARC
  5
1EEFA
  8
AM_0N
 10
0.3892215748409171
 20
237.3121658798589
 30
0.0
 40
5.0
 50
318.4858027432428
 51
216.87033376867339
  0
LINE
  5
1EEFB
  8
AM_0
 10
2.3892233893870962
 20
234.3121354328286
 30
0.0
 11
-34.052773074856347
 21
234.3121354328286
 31
0.0
  0
LINE
  5
1EEFC
  8
AM_0
 10
-36.110778425158919
 20
203.8121354328286
 30
0.0
 11
-40.610778425159019
 21
203.8121354328286
 31
0.0
  0
ARC
  5
1EEFD
  8
AM_0
 10
-55.610778425159033
 20
273.81216587985892
 30
0.0
 40
45.0
 50
270.0
 51
298.62447003294727
  0
LINE
  5
1EEFE
  8
AM_0
 10
-36.110778425158919
 20
225.31212639211989
 30
0.0
 11
-40.610778425158898
 21
225.31212639211989
 31
0.0
  0
LINE
  5
1EEFF
  8
AM_0
 10
-13.11077695624078
 20
217.40520704204189
 30
0.0
 11
-4.6107769562405556
 21
212.49772975392989
 31
0.0
  0
CIRCLE
  5
1EF01
  8
AM_0
 10
-4.6107769562407821
 20
222.3126843301537
 30
0.0
 40
8.5
  0
CIRCLE
  5
1EF02
  8
AM_0
 10
-4.6107769562407821
 20
222.3126843301537
 30
0.0
 40
10.5
  0
LINE
  5
1EF03
  8
AM_0
 10
-4.6107769562405556
 20
212.49772975392989
 30
0.0
 11
3.8892230437592161
 21
217.40520704204221
 31
0.0
  0
LINE
  5
1EF04
  8
AM_0
 10
-4.6107769562407821
 20
232.12763890637731
 30
0.0
 11
-13.11077695624078
 21
227.220161618265
 31
0.0
  0
CIRCLE
  5
1EF05
  8
ｽﾝﾎﾟｳｾﾝ
 10
-4.6107769562407821
 20
222.3126843301537
 30
0.0
 40
4.1881011839521536
  0
CIRCLE
  5
1EF06
  8
AM_0
 10
-4.6107769562407821
 20
222.3126843301537
 30
0.0
 40
4.9999999999999831
  0
LINE
  5
1EF08
  8
AM_0
 10
-13.11077695624078
 20
227.220161618265
 30
0.0
 11
-13.11077695624078
 21
217.40520704204189
 31
0.0
  0
LINE
  5
1EF09
  8
AM_0
 10
3.8892230437592161
 20
217.40520704204221
 30
0.0
 11
3.8892230437592161
 21
227.22016161826551
 31
0.0
  0
LINE
  5
1EF0A
  8
AM_0N
 10
-1.0541540981331521
 20
234.8121658798589
 30
0.0
 11
1.8325972478149859
 21
234.8121658798589
 31
0.0
  0
LINE
  5
1EF0B
  8
AM_0
 10
3.8892230437592161
 20
227.22016161826551
 30
0.0
 11
-4.6107769562407821
 21
232.12763890637731
 31
0.0
  0
LINE
  5
1EF0C
  8
AM_0N
 10
-2.497529771107224
 20
237.3121658798589
 30
0.0
 11
-1.0541540981331521
 21
234.8121658798589
 31
0.0
  0
LINE
  5
1EF0D
  8
AM_0N
 10
1.8325972478149859
 20
234.8121658798589
 30
0.0
 11
3.2759729207890582
 21
237.3121658798589
 31
0.0
  0
ARC
  5
1EF0E
  8
AM_0
 10
2.3892233893870962
 20
229.3121354328286
 30
0.0
 40
5.0
 50
0.0
 51
90.0
1001
GENIUS_GENODEF_13
1002
{
1000
HIER
1070
     0
1002
}
1002
{
1000
MANEDIT
1070
     0
1002
}
1002
{
1000
NOSEL
1070
     0
1002
}
1002
{
1000
BEHIND
1070
     0
1002
}
1002
{
1000
OTHER
1070
     0
1002
}
1002
{
1000
REACTOR
1002
}
1001
GENIUS_GENOBJ-N-FIL_13
1002
{
1000
OWNER
1000
GEN
1002
}
  0
ARC
  5
1EF0F
  8
AM_0
 10
0.3892215748409171
 20
237.3121658798589
 30
0.0
 40
12.000000000000011
 50
103.6089556670006
 51
162.9330076654349
  0
ARC
  5
1EF10
  8
AM_0
 10
-3.6107784251590811
 20
253.8348785873784
 30
0.0
 40
5.0
 50
283.60896067595479
 51
0.0000025044817295
  0
LINE
  5
1EF11
  8
AM_0N
 10
1.832597247814759
 20
239.81216587985901
 30
0.0
 11
-1.0541540981328681
 21
239.81216587985901
 31
0.0
  0
LINE
  5
1EF12
  8
AM_0
 10
0.3892215748409171
 20
243.3121658798589
 30
0.0
 11
5.389221574840918
 21
243.3121658798589
 31
0.0
  0
ARC
  5
1EF13
  8
AM_0
 10
5.389221574840918
 20
245.3121658798589
 30
0.0
 40
2.0
 50
270.0
 51
0.0000025044817295
  0
LINE
  5
1EF15
  8
AM_0
 10
-17.526244733752829
 20
328.77961125339402
 30
0.0
 11
-11.08230552476846
 21
307.79029240573777
 31
0.0
  0
POLYLINE
  5
1EF16
  8
AM_0
 10
0.8892232021718742
 20
326.31164742956452
 30
0.0
 66
     1
 70
     8
  0
VERTEX
  8
AM_0
  5
1FD6C
 10
0.889223
 20
326.312
 30
0.000000
  70
    32
  0
VERTEX
  8
AM_0
  5
1FD6D
 10
0.882598
 20
326.582
 30
0.000000
  70
    32
  0
VERTEX
  8
AM_0
  5
1FD6E
 10
0.862739
 20
326.851
 30
0.000000
  70
    32
  0
VERTEX
  8
AM_0
  5
1FD6F
 10
0.829694
 20
327.119
 30
0.000000
  70
    32
  0
VERTEX
  8
AM_0
  5
1FD70
 10
0.783542
 20
327.385
 30
0.000000
  70
    32
  0
VERTEX
  8
AM_0
  5
1FD71
 10
0.724395
 20
327.648
 30
0.000000
  70
    32
  0
VERTEX
  8
AM_0
  5
1FD72
 10
0.652395
 20
327.908
 30
0.000000
  70
    32
  0
VERTEX
  8
AM_0
  5
1FD73
 10
0.567716
 20
328.165
 30
0.000000
  70
    32
  0
VERTEX
  8
AM_0
  5
1FD74
 10
0.470561
 20
328.416
 30
0.000000
  70
    32
  0
VERTEX
  8
AM_0
  5
1FD75
 10
0.361164
 20
328.663
 30
0.000000
  70
    32
  0
VERTEX
  8
AM_0
  5
1FD76
 10
0.239790
 20
328.904
 30
0.000000
  70
    32
  0
VERTEX
  8
AM_0
  5
1FD77
 10
0.106731
 20
329.139
 30
0.000000
  70
    32
  0
VERTEX
  8
AM_0
  5
1FD78
 10
-0.0376940
 20
329.367
 30
0.000000
  70
    32
  0
VERTEX
  8
AM_0
  5
1FD79
 10
-0.193135
 20
329.588
 30
0.000000
  70
    32
  0
VERTEX
  8
AM_0
  5
1FD7A
 10
-0.359219
 20
329.801
 30
0.000000
  70
    32
  0
VERTEX
  8
AM_0
  5
1FD7B
 10
-0.535546
 20
330.005
 30
0.000000
  70
    32
  0
VERTEX
  8
AM_0
  5
1FD7C
 10
-0.721690
 20
330.201
 30
0.000000
  70
    32
  0
VERTEX
  8
AM_0
  5
1FD7D
 10
-0.917203
 20
330.387
 30
0.000000
  70
    32
  0
VERTEX
  8
AM_0
  5
1FD7E
 10
-1.12161
 20
330.563
 30
0.000000
  70
    32
  0
VERTEX
  8
AM_0
  5
1FD7F
 10
-1.33443
 20
330.729
 30
0.000000
  70
    32
  0
VERTEX
  8
AM_0
  5
1FD80
 10
-1.55514
 20
330.885
 30
0.000000
  70
    32
  0
VERTEX
  8
AM_0
  5
1FD81
 10
-1.78321
 20
331.029
 30
0.000000
  70
    32
  0
VERTEX
  8
AM_0
  5
1FD82
 10
-2.01809
 20
331.162
 30
0.000000
  70
    32
  0
VERTEX
  8
AM_0
  5
1FD83
 10
-2.25922
 20
331.284
 30
0.000000
  70
    32
  0
VERTEX
  8
AM_0
  5
1FD84
 10
-2.50602
 20
331.393
 30
0.000000
  70
    32
  0
VERTEX
  8
AM_0
  5
1FD85
 10
-2.75788
 20
331.490
 30
0.000000
  70
    32
  0
VERTEX
  8
AM_0
  5
1FD86
 10
-3.01421
 20
331.575
 30
0.000000
  70
    32
  0
VERTEX
  8
AM_0
  5
1FD87
 10
-3.27439
 20
331.647
 30
0.000000
  70
    32
  0
VERTEX
  8
AM_0
  5
1FD88
 10
-3.53778
 20
331.706
 30
0.000000
  70
    32
  0
VERTEX
  8
AM_0
  5
1FD89
 10
-3.80376
 20
331.752
 30
0.000000
  70
    32
  0
VERTEX
  8
AM_0
  5
1FD8A
 10
-4.07168
 20
331.785
 30
0.000000
  70
    32
  0
VERTEX
  8
AM_0
  5
1FD8B
 10
-4.34090
 20
331.805
 30
0.000000
  70
    32
  0
VERTEX
  8
AM_0
  5
1FD8C
 10
-4.61078
 20
331.812
 30
0.000000
  70
    32
  0
VERTEX
  8
AM_0
  5
1FD8D
 10
-4.88065
 20
331.805
 30
0.000000
  70
    32
  0
VERTEX
  8
AM_0
  5
1FD8E
 10
-5.14987
 20
331.785
 30
0.000000
  70
    32
  0
VERTEX
  8
AM_0
  5
1FD8F
 10
-5.41779
 20
331.752
 30
0.000000
  70
    32
  0
VERTEX
  8
AM_0
  5
1FD90
 10
-5.68377
 20
331.706
 30
0.000000
  70
    32
  0
VERTEX
  8
AM_0
  5
1FD91
 10
-5.94717
 20
331.647
 30
0.000000
  70
    32
  0
VERTEX
  8
AM_0
  5
1FD92
 10
-6.20734
 20
331.575
 30
0.000000
  70
    32
  0
VERTEX
  8
AM_0
  5
1FD93
 10
-6.46367
 20
331.490
 30
0.000000
  70
    32
  0
VERTEX
  8
AM_0
  5
1FD94
 10
-6.71554
 20
331.393
 30
0.000000
  70
    32
  0
VERTEX
  8
AM_0
  5
1FD95
 10
-6.96233
 20
331.284
 30
0.000000
  70
    32
  0
VERTEX
  8
AM_0
  5
1FD96
 10
-7.20346
 20
331.162
 30
0.000000
  70
    32
  0
VERTEX
  8
AM_0
  5
1FD97
 10
-7.43834
 20
331.029
 30
0.000000
  70
    32
  0
VERTEX
  8
AM_0
  5
1FD98
 10
-7.66641
 20
330.885
 30
0.000000
  70
    32
  0
VERTEX
  8
AM_0
  5
1FD99
 10
-7.88712
 20
330.729
 30
0.000000
  70
    32
  0
VERTEX
  8
AM_0
  5
1FD9A
 10
-8.09994
 20
330.563
 30
0.000000
  70
    32
  0
VERTEX
  8
AM_0
  5
1FD9B
 10
-8.30435
 20
330.387
 30
0.000000
  70
    32
  0
VERTEX
  8
AM_0
  5
1FD9C
 10
-8.49986
 20
330.201
 30
0.000000
  70
    32
  0
VERTEX
  8
AM_0
  5
1FD9D
 10
-8.68601
 20
330.005
 30
0.000000
  70
    32
  0
VERTEX
  8
AM_0
  5
1FD9E
 10
-8.86233
 20
329.801
 30
0.000000
  70
    32
  0
VERTEX
  8
AM_0
  5
1FD9F
 10
-9.02842
 20
329.588
 30
0.000000
  70
    32
  0
VERTEX
  8
AM_0
  5
1FDA0
 10
-9.18386
 20
329.367
 30
0.000000
  70
    32
  0
VERTEX
  8
AM_0
  5
1FDA1
 10
-9.32828
 20
329.139
 30
0.000000
  70
    32
  0
VERTEX
  8
AM_0
  5
1FDA2
 10
-9.46134
 20
328.904
 30
0.000000
  70
    32
  0
VERTEX
  8
AM_0
  5
1FDA3
 10
-9.58272
 20
328.663
 30
0.000000
  70
    32
  0
VERTEX
  8
AM_0
  5
1FDA4
 10
-9.69211
 20
328.416
 30
0.000000
  70
    32
  0
VERTEX
  8
AM_0
  5
1FDA5
 10
-9.78927
 20
328.165
 30
0.000000
  70
    32
  0
VERTEX
  8
AM_0
  5
1FDA6
 10
-9.87395
 20
327.908
 30
0.000000
  70
    32
  0
VERTEX
  8
AM_0
  5
1FDA7
 10
-9.94595
 20
327.648
 30
0.000000
  70
    32
  0
VERTEX
  8
AM_0
  5
1FDA8
 10
-10.0051
 20
327.385
 30
0.000000
  70
    32
  0
VERTEX
  8
AM_0
  5
1FDA9
 10
-10.0512
 20
327.119
 30
0.000000
  70
    32
  0
VERTEX
  8
AM_0
  5
1FDAA
 10
-10.0843
 20
326.851
 30
0.000000
  70
    32
  0
VERTEX
  8
AM_0
  5
1FDAB
 10
-10.1042
 20
326.582
 30
0.000000
  70
    32
  0
VERTEX
  8
AM_0
  5
1FDAC
 10
-10.1108
 20
326.312
 30
0.000000
  70
    32
  0
VERTEX
  8
AM_0
  5
1FDAD
 10
-10.1042
 20
326.042
 30
0.000000
  70
    32
  0
VERTEX
  8
AM_0
  5
1FDAE
 10
-10.0843
 20
325.773
 30
0.000000
  70
    32
  0
VERTEX
  8
AM_0
  5
1FDAF
 10
-10.0512
 20
325.505
 30
0.000000
  70
    32
  0
VERTEX
  8
AM_0
  5
1FDB0
 10
-10.0051
 20
325.239
 30
0.000000
  70
    32
  0
VERTEX
  8
AM_0
  5
1FDB1
 10
-9.94595
 20
324.975
 30
0.000000
  70
    32
  0
VERTEX
  8
AM_0
  5
1FDB2
 10
-9.87395
 20
324.715
 30
0.000000
  70
    32
  0
VERTEX
  8
AM_0
  5
1FDB3
 10
-9.78927
 20
324.459
 30
0.000000
  70
    32
  0
VERTEX
  8
AM_0
  5
1FDB4
 10
-9.69211
 20
324.207
 30
0.000000
  70
    32
  0
VERTEX
  8
AM_0
  5
1FDB5
 10
-9.58272
 20
323.960
 30
0.000000
  70
    32
  0
VERTEX
  8
AM_0
  5
1FDB6
 10
-9.46134
 20
323.719
 30
0.000000
  70
    32
  0
VERTEX
  8
AM_0
  5
1FDB7
 10
-9.32828
 20
323.484
 30
0.000000
  70
    32
  0
VERTEX
  8
AM_0
  5
1FDB8
 10
-9.18386
 20
323.256
 30
0.000000
  70
    32
  0
VERTEX
  8
AM_0
  5
1FDB9
 10
-9.02842
 20
323.035
 30
0.000000
  70
    32
  0
VERTEX
  8
AM_0
  5
1FDBA
 10
-8.86233
 20
322.823
 30
0.000000
  70
    32
  0
VERTEX
  8
AM_0
  5
1FDBB
 10
-8.68601
 20
322.618
 30
0.000000
  70
    32
  0
VERTEX
  8
AM_0
  5
1FDBC
 10
-8.49986
 20
322.423
 30
0.000000
  70
    32
  0
VERTEX
  8
AM_0
  5
1FDBD
 10
-8.30435
 20
322.236
 30
0.000000
  70
    32
  0
VERTEX
  8
AM_0
  5
1FDBE
 10
-8.09994
 20
322.060
 30
0.000000
  70
    32
  0
VERTEX
  8
AM_0
  5
1FDBF
 10
-7.88712
 20
321.894
 30
0.000000
  70
    32
  0
VERTEX
  8
AM_0
  5
1FDC0
 10
-7.66641
 20
321.739
 30
0.000000
  70
    32
  0
VERTEX
  8
AM_0
  5
1FDC1
 10
-7.43834
 20
321.594
 30
0.000000
  70
    32
  0
VERTEX
  8
AM_0
  5
1FDC2
 10
-7.20346
 20
321.461
 30
0.000000
  70
    32
  0
VERTEX
  8
AM_0
  5
1FDC3
 10
-6.96233
 20
321.340
 30
0.000000
  70
    32
  0
VERTEX
  8
AM_0
  5
1FDC4
 10
-6.71554
 20
321.230
 30
0.000000
  70
    32
  0
VERTEX
  8
AM_0
  5
1FDC5
 10
-6.46367
 20
321.133
 30
0.000000
  70
    32
  0
VERTEX
  8
AM_0
  5
1FDC6
 10
-6.20734
 20
321.049
 30
0.000000
  70
    32
  0
VERTEX
  8
AM_0
  5
1FDC7
 10
-5.94717
 20
320.977
 30
0.000000
  70
    32
  0
VERTEX
  8
AM_0
  5
1FDC8
 10
-5.68377
 20
320.917
 30
0.000000
  70
    32
  0
VERTEX
  8
AM_0
  5
1FDC9
 10
-5.41779
 20
320.871
 30
0.000000
  70
    32
  0
VERTEX
  8
AM_0
  5
1FDCA
 10
-5.14987
 20
320.838
 30
0.000000
  70
    32
  0
VERTEX
  8
AM_0
  5
1FDCB
 10
-4.88065
 20
320.818
 30
0.000000
  70
    32
  0
VERTEX
  8
AM_0
  5
1FDCC
 10
-4.61078
 20
320.812
 30
0.000000
  70
    32
  0
VERTEX
  8
AM_0
  5
1FDCD
 10
-4.34090
 20
320.818
 30
0.000000
  70
    32
  0
VERTEX
  8
AM_0
  5
1FDCE
 10
-4.07168
 20
320.838
 30
0.000000
  70
    32
  0
VERTEX
  8
AM_0
  5
1FDCF
 10
-3.80376
 20
320.871
 30
0.000000
  70
    32
  0
VERTEX
  8
AM_0
  5
1FDD0
 10
-3.53778
 20
320.917
 30
0.000000
  70
    32
  0
VERTEX
  8
AM_0
  5
1FDD1
 10
-3.27439
 20
320.977
 30
0.000000
  70
    32
  0
VERTEX
  8
AM_0
  5
1FDD2
 10
-3.01421
 20
321.049
 30
0.000000
  70
    32
  0
VERTEX
  8
AM_0
  5
1FDD3
 10
-2.75788
 20
321.133
 30
0.000000
  70
    32
  0
VERTEX
  8
AM_0
  5
1FDD4
 10
-2.50602
 20
321.230
 30
0.000000
  70
    32
  0
VERTEX
  8
AM_0
  5
1FDD5
 10
-2.25922
 20
321.340
 30
0.000000
  70
    32
  0
VERTEX
  8
AM_0
  5
1FDD6
 10
-2.01809
 20
321.461
 30
0.000000
  70
    32
  0
VERTEX
  8
AM_0
  5
1FDD7
 10
-1.78321
 20
321.594
 30
0.000000
  70
    32
  0
VERTEX
  8
AM_0
  5
1FDD8
 10
-1.55514
 20
321.739
 30
0.000000
  70
    32
  0
VERTEX
  8
AM_0
  5
1FDD9
 10
-1.33443
 20
321.894
 30
0.000000
  70
    32
  0
VERTEX
  8
AM_0
  5
1FDDA
 10
-1.12161
 20
322.060
 30
0.000000
  70
    32
  0
VERTEX
  8
AM_0
  5
1FDDB
 10
-0.917203
 20
322.236
 30
0.000000
  70
    32
  0
VERTEX
  8
AM_0
  5
1FDDC
 10
-0.721690
 20
322.423
 30
0.000000
  70
    32
  0
VERTEX
  8
AM_0
  5
1FDDD
 10
-0.535546
 20
322.618
 30
0.000000
  70
    32
  0
VERTEX
  8
AM_0
  5
1FDDE
 10
-0.359219
 20
322.823
 30
0.000000
  70
    32
  0
VERTEX
  8
AM_0
  5
1FDDF
 10
-0.193135
 20
323.035
 30
0.000000
  70
    32
  0
VERTEX
  8
AM_0
  5
1FDE0
 10
-0.0376940
 20
323.256
 30
0.000000
  70
    32
  0
VERTEX
  8
AM_0
  5
1FDE1
 10
0.106731
 20
323.484
 30
0.000000
  70
    32
  0
VERTEX
  8
AM_0
  5
1FDE2
 10
0.239790
 20
323.719
 30
0.000000
  70
    32
  0
VERTEX
  8
AM_0
  5
1FDE3
 10
0.361164
 20
323.960
 30
0.000000
  70
    32
  0
VERTEX
  8
AM_0
  5
1FDE4
 10
0.470561
 20
324.207
 30
0.000000
  70
    32
  0
VERTEX
  8
AM_0
  5
1FDE5
 10
0.567716
 20
324.459
 30
0.000000
  70
    32
  0
VERTEX
  8
AM_0
  5
1FDE6
 10
0.652395
 20
324.715
 30
0.000000
  70
    32
  0
VERTEX
  8
AM_0
  5
1FDE7
 10
0.724395
 20
324.975
 30
0.000000
  70
    32
  0
VERTEX
  8
AM_0
  5
1FDE8
 10
0.783542
 20
325.239
 30
0.000000
  70
    32
  0
VERTEX
  8
AM_0
  5
1FDE9
 10
0.829694
 20
325.505
 30
0.000000
  70
    32
  0
VERTEX
  8
AM_0
  5
1FDEA
 10
0.862739
 20
325.773
 30
0.000000
  70
    32
  0
VERTEX
  8
AM_0
  5
1FDEB
 10
0.882598
 20
326.042
 30
0.000000
  70
    32
  0
VERTEX
  8
AM_0
  5
1FDEC
 10
0.889223
 20
326.312
 30
0.000000
  70
    32
  0
SEQEND
  8
AM_0
  5
1FDED
  0
ARC
  5
1EF17
  8
AM_0
 10
0.3892215748409171
 20
311.31215825046428
 30
0.0
 40
12.00000000000003
 50
197.06698732560059
 51
256.39103932404521
  0
ARC
  5
1EF18
  8
AM_0
 10
-3.6107784251590811
 20
294.78945317233928
 30
0.0
 40
5.0000000000000044
 50
0.0000025044817295
 51
76.391044333006903
  0
LINE
  5
1EF19
  8
AM_0N
 10
3.2759729207890582
 20
311.31215825046428
 30
0.0
 11
1.832597247814759
 21
313.81215825046439
 31
0.0
  0
LINE
  5
1EF1A
  8
AM_0N
 10
-1.0541540981328681
 20
313.81215825046439
 30
0.0
 11
-2.497529771107224
 21
311.31215825046428
 31
0.0
  0
CIRCLE
  5
1EF1B
  8
AM_0N
 10
0.3892215748409171
 20
311.31215825046428
 30
0.0
 40
2.886751345948126
  0
ARC
  5
1EF1C
  8
AM_0
 10
0.3892215748409171
 20
311.31215825046428
 30
0.0
 40
5.9999999999999947
 50
90.000005008956919
 51
270.00001001791389
  0
CIRCLE
  5
1EF1D
  8
AM_0N
 10
0.3892215748409171
 20
311.31215825046428
 30
0.0
 40
5.0
  0
LINE
  5
1EF1E
  8
AM_0N
 10
-1.0541540981331521
 20
308.81215825046428
 30
0.0
 11
1.8325972478149859
 21
308.81215825046428
 31
0.0
  0
LINE
  5
1EF1F
  8
AM_0N
 10
-2.497529771107224
 20
311.31215825046428
 30
0.0
 11
-1.0541540981331521
 21
308.81215825046428
 31
0.0
  0
LINE
  5
1EF20
  8
AM_0
 10
0.3892215748409171
 20
305.31215825046439
 30
0.0
 11
5.389221574840918
 21
305.31215825046439
 31
0.0
  0
LINE
  5
1EF21
  8
AM_0N
 10
1.8325972478149859
 20
308.81215825046428
 30
0.0
 11
3.2759729207890582
 21
311.31215825046428
 31
0.0
  0
ARC
  5
1EF22
  8
AM_0
 10
5.389221574840918
 20
303.31215825046439
 30
0.0
 40
2.0000000000000022
 50
0.0000025044817295
 51
90.000005008956919
  0
LINE
  5
1EF23
  8
AM_0N
 10
1.832597247814759
 20
313.81215825046439
 30
0.0
 11
-1.0541540981328681
 21
313.81215825046439
 31
0.0
  0
LINE
  5
1EF24
  8
AM_0
 10
0.3892215748409171
 20
317.31215825046428
 30
0.0
 11
5.389221574840918
 21
317.31215825046428
 31
0.0
  0
ARC
  5
1EF25
  8
AM_0
 10
5.389221574840918
 20
319.31215825046428
 30
0.0
 40
2.0
 50
270.0
 51
0.0000025044817295
  0
ARC
  5
1EF27
  8
AM_0
 10
-22.306060407580961
 20
327.31215825046428
 30
0.0
 40
5.0000000000000258
 50
17.066992334565061
 51
90.000005008956919
  0
POLYLINE
  5
1EF28
  8
AM_0
 10
7.3892233893869843
 20
326.31164742956452
 30
0.0
 66
     1
 70
     8
  0
VERTEX
  8
AM_0
  5
1FDEE
 10
7.38922
 20
326.312
 30
0.000000
  70
    32
  0
VERTEX
  8
AM_0
  5
1FDEF
 10
7.38832
 20
326.459
 30
0.000000
  70
    32
  0
VERTEX
  8
AM_0
  5
1FDF0
 10
7.38561
 20
326.606
 30
0.000000
  70
    32
  0
VERTEX
  8
AM_0
  5
1FDF1
 10
7.38109
 20
326.753
 30
0.000000
  70
    32
  0
VERTEX
  8
AM_0
  5
1FDF2
 10
7.37477
 20
326.900
 30
0.000000
  70
    32
  0
VERTEX
  8
AM_0
  5
1FDF3
 10
7.36664
 20
327.047
 30
0.000000
  70
    32
  0
VERTEX
  8
AM_0
  5
1FDF4
 10
7.35671
 20
327.194
 30
0.000000
  70
    32
  0
VERTEX
  8
AM_0
  5
1FDF5
 10
7.34497
 20
327.341
 30
0.000000
  70
    32
  0
VERTEX
  8
AM_0
  5
1FDF6
 10
7.33144
 20
327.488
 30
0.000000
  70
    32
  0
VERTEX
  8
AM_0
  5
1FDF7
 10
7.31611
 20
327.634
 30
0.000000
  70
    32
  0
VERTEX
  8
AM_0
  5
1FDF8
 10
7.29898
 20
327.781
 30
0.000000
  70
    32
  0
VERTEX
  8
AM_0
  5
1FDF9
 10
7.28006
 20
327.927
 30
0.000000
  70
    32
  0
VERTEX
  8
AM_0
  5
1FDFA
 10
7.25934
 20
328.072
 30
0.000000
  70
    32
  0
VERTEX
  8
AM_0
  5
1FDFB
 10
7.23684
 20
328.218
 30
0.000000
  70
    32
  0
VERTEX
  8
AM_0
  5
1FDFC
 10
7.21256
 20
328.363
 30
0.000000
  70
    32
  0
VERTEX
  8
AM_0
  5
1FDFD
 10
7.18649
 20
328.508
 30
0.000000
  70
    32
  0
VERTEX
  8
AM_0
  5
1FDFE
 10
7.15865
 20
328.653
 30
0.000000
  70
    32
  0
VERTEX
  8
AM_0
  5
1FDFF
 10
7.12903
 20
328.797
 30
0.000000
  70
    32
  0
VERTEX
  8
AM_0
  5
1FE00
 10
7.09765
 20
328.941
 30
0.000000
  70
    32
  0
VERTEX
  8
AM_0
  5
1FE01
 10
7.06450
 20
329.084
 30
0.000000
  70
    32
  0
VERTEX
  8
AM_0
  5
1FE02
 10
7.02960
 20
329.227
 30
0.000000
  70
    32
  0
VERTEX
  8
AM_0
  5
1FE03
 10
6.99294
 20
329.370
 30
0.000000
  70
    32
  0
VERTEX
  8
AM_0
  5
1FE04
 10
6.95454
 20
329.512
 30
0.000000
  70
    32
  0
VERTEX
  8
AM_0
  5
1FE05
 10
6.91439
 20
329.654
 30
0.000000
  70
    32
  0
VERTEX
  8
AM_0
  5
1FE06
 10
6.87251
 20
329.795
 30
0.000000
  70
    32
  0
VERTEX
  8
AM_0
  5
1FE07
 10
6.82890
 20
329.936
 30
0.000000
  70
    32
  0
VERTEX
  8
AM_0
  5
1FE08
 10
6.78356
 20
330.076
 30
0.000000
  70
    32
  0
VERTEX
  8
AM_0
  5
1FE09
 10
6.73651
 20
330.215
 30
0.000000
  70
    32
  0
VERTEX
  8
AM_0
  5
1FE0A
 10
6.68775
 20
330.354
 30
0.000000
  70
    32
  0
VERTEX
  8
AM_0
  5
1FE0B
 10
6.63729
 20
330.493
 30
0.000000
  70
    32
  0
VERTEX
  8
AM_0
  5
1FE0C
 10
6.58514
 20
330.630
 30
0.000000
  70
    32
  0
VERTEX
  8
AM_0
  5
1FE0D
 10
6.53130
 20
330.767
 30
0.000000
  70
    32
  0
VERTEX
  8
AM_0
  5
1FE0E
 10
6.47578
 20
330.904
 30
0.000000
  70
    32
  0
VERTEX
  8
AM_0
  5
1FE0F
 10
6.41859
 20
331.040
 30
0.000000
  70
    32
  0
VERTEX
  8
AM_0
  5
1FE10
 10
6.35974
 20
331.174
 30
0.000000
  70
    32
  0
VERTEX
  8
AM_0
  5
1FE11
 10
6.29924
 20
331.309
 30
0.000000
  70
    32
  0
VERTEX
  8
AM_0
  5
1FE12
 10
6.23709
 20
331.442
 30
0.000000
  70
    32
  0
VERTEX
  8
AM_0
  5
1FE13
 10
6.17332
 20
331.575
 30
0.000000
  70
    32
  0
VERTEX
  8
AM_0
  5
1FE14
 10
6.10791
 20
331.707
 30
0.000000
  70
    32
  0
VERTEX
  8
AM_0
  5
1FE15
 10
6.04090
 20
331.838
 30
0.000000
  70
    32
  0
VERTEX
  8
AM_0
  5
1FE16
 10
5.97228
 20
331.968
 30
0.000000
  70
    32
  0
VERTEX
  8
AM_0
  5
1FE17
 10
5.90206
 20
332.098
 30
0.000000
  70
    32
  0
VERTEX
  8
AM_0
  5
1FE18
 10
5.83027
 20
332.226
 30
0.000000
  70
    32
  0
VERTEX
  8
AM_0
  5
1FE19
 10
5.75690
 20
332.354
 30
0.000000
  70
    32
  0
VERTEX
  8
AM_0
  5
1FE1A
 10
5.68197
 20
332.481
 30
0.000000
  70
    32
  0
VERTEX
  8
AM_0
  5
1FE1B
 10
5.60549
 20
332.607
 30
0.000000
  70
    32
  0
VERTEX
  8
AM_0
  5
1FE1C
 10
5.52747
 20
332.732
 30
0.000000
  70
    32
  0
VERTEX
  8
AM_0
  5
1FE1D
 10
5.44792
 20
332.855
 30
0.000000
  70
    32
  0
VERTEX
  8
AM_0
  5
1FE1E
 10
5.36686
 20
332.978
 30
0.000000
  70
    32
  0
VERTEX
  8
AM_0
  5
1FE1F
 10
5.28429
 20
333.100
 30
0.000000
  70
    32
  0
VERTEX
  8
AM_0
  5
1FE20
 10
5.20024
 20
333.221
 30
0.000000
  70
    32
  0
VERTEX
  8
AM_0
  5
1FE21
 10
5.11471
 20
333.341
 30
0.000000
  70
    32
  0
VERTEX
  8
AM_0
  5
1FE22
 10
5.02771
 20
333.460
 30
0.000000
  70
    32
  0
VERTEX
  8
AM_0
  5
1FE23
 10
4.93927
 20
333.578
 30
0.000000
  70
    32
  0
VERTEX
  8
AM_0
  5
1FE24
 10
4.84938
 20
333.694
 30
0.000000
  70
    32
  0
VERTEX
  8
AM_0
  5
1FE25
 10
4.75807
 20
333.810
 30
0.000000
  70
    32
  0
VERTEX
  8
AM_0
  5
1FE26
 10
4.66535
 20
333.924
 30
0.000000
  70
    32
  0
VERTEX
  8
AM_0
  5
1FE27
 10
4.57123
 20
334.038
 30
0.000000
  70
    32
  0
VERTEX
  8
AM_0
  5
1FE28
 10
4.47573
 20
334.150
 30
0.000000
  70
    32
  0
VERTEX
  8
AM_0
  5
1FE29
 10
4.37886
 20
334.261
 30
0.000000
  70
    32
  0
VERTEX
  8
AM_0
  5
1FE2A
 10
4.28064
 20
334.370
 30
0.000000
  70
    32
  0
VERTEX
  8
AM_0
  5
1FE2B
 10
4.18107
 20
334.479
 30
0.000000
  70
    32
  0
VERTEX
  8
AM_0
  5
1FE2C
 10
4.08019
 20
334.586
 30
0.000000
  70
    32
  0
VERTEX
  8
AM_0
  5
1FE2D
 10
3.97799
 20
334.692
 30
0.000000
  70
    32
  0
VERTEX
  8
AM_0
  5
1FE2E
 10
3.87450
 20
334.797
 30
0.000000
  70
    32
  0
VERTEX
  8
AM_0
  5
1FE2F
 10
3.76974
 20
334.900
 30
0.000000
  70
    32
  0
VERTEX
  8
AM_0
  5
1FE30
 10
3.66371
 20
335.003
 30
0.000000
  70
    32
  0
VERTEX
  8
AM_0
  5
1FE31
 10
3.55644
 20
335.103
 30
0.000000
  70
    32
  0
VERTEX
  8
AM_0
  5
1FE32
 10
3.44793
 20
335.203
 30
0.000000
  70
    32
  0
VERTEX
  8
AM_0
  5
1FE33
 10
3.33821
 20
335.301
 30
0.000000
  70
    32
  0
VERTEX
  8
AM_0
  5
1FE34
 10
3.22730
 20
335.398
 30
0.000000
  70
    32
  0
VERTEX
  8
AM_0
  5
1FE35
 10
3.11520
 20
335.494
 30
0.000000
  70
    32
  0
VERTEX
  8
AM_0
  5
1FE36
 10
3.00194
 20
335.588
 30
0.000000
  70
    32
  0
VERTEX
  8
AM_0
  5
1FE37
 10
2.88754
 20
335.680
 30
0.000000
  70
    32
  0
VERTEX
  8
AM_0
  5
1FE38
 10
2.77200
 20
335.772
 30
0.000000
  70
    32
  0
VERTEX
  8
AM_0
  5
1FE39
 10
2.65536
 20
335.862
 30
0.000000
  70
    32
  0
VERTEX
  8
AM_0
  5
1FE3A
 10
2.53761
 20
335.950
 30
0.000000
  70
    32
  0
VERTEX
  8
AM_0
  5
1FE3B
 10
2.41880
 20
336.037
 30
0.000000
  70
    32
  0
VERTEX
  8
AM_0
  5
1FE3C
 10
2.29892
 20
336.123
 30
0.000000
  70
    32
  0
VERTEX
  8
AM_0
  5
1FE3D
 10
2.17800
 20
336.207
 30
0.000000
  70
    32
  0
VERTEX
  8
AM_0
  5
1FE3E
 10
2.05607
 20
336.289
 30
0.000000
  70
    32
  0
VERTEX
  8
AM_0
  5
1FE3F
 10
1.93312
 20
336.370
 30
0.000000
  70
    32
  0
VERTEX
  8
AM_0
  5
1FE40
 10
1.80919
 20
336.450
 30
0.000000
  70
    32
  0
VERTEX
  8
AM_0
  5
1FE41
 10
1.68430
 20
336.528
 30
0.000000
  70
    32
  0
VERTEX
  8
AM_0
  5
1FE42
 10
1.55846
 20
336.604
 30
0.000000
  70
    32
  0
VERTEX
  8
AM_0
  5
1FE43
 10
1.43168
 20
336.679
 30
0.000000
  70
    32
  0
VERTEX
  8
AM_0
  5
1FE44
 10
1.30400
 20
336.753
 30
0.000000
  70
    32
  0
VERTEX
  8
AM_0
  5
1FE45
 10
1.17543
 20
336.824
 30
0.000000
  70
    32
  0
VERTEX
  8
AM_0
  5
1FE46
 10
1.04598
 20
336.895
 30
0.000000
  70
    32
  0
VERTEX
  8
AM_0
  5
1FE47
 10
0.915687
 20
336.963
 30
0.000000
  70
    32
  0
VERTEX
  8
AM_0
  5
1FE48
 10
0.784559
 20
337.030
 30
0.000000
  70
    32
  0
VERTEX
  8
AM_0
  5
1FE49
 10
0.652618
 20
337.096
 30
0.000000
  70
    32
  0
VERTEX
  8
AM_0
  5
1FE4A
 10
0.519884
 20
337.159
 30
0.000000
  70
    32
  0
VERTEX
  8
AM_0
  5
1FE4B
 10
0.386378
 20
337.222
 30
0.000000
  70
    32
  0
VERTEX
  8
AM_0
  5
1FE4C
 10
0.252119
 20
337.282
 30
0.000000
  70
    32
  0
VERTEX
  8
AM_0
  5
1FE4D
 10
0.117127
 20
337.341
 30
0.000000
  70
    32
  0
VERTEX
  8
AM_0
  5
1FE4E
 10
-0.0185760
 20
337.398
 30
0.000000
  70
    32
  0
VERTEX
  8
AM_0
  5
1FE4F
 10
-0.154971
 20
337.454
 30
0.000000
  70
    32
  0
VERTEX
  8
AM_0
  5
1FE50
 10
-0.292037
 20
337.507
 30
0.000000
  70
    32
  0
VERTEX
  8
AM_0
  5
1FE51
 10
-0.429753
 20
337.560
 30
0.000000
  70
    32
  0
VERTEX
  8
AM_0
  5
1FE52
 10
-0.568099
 20
337.610
 30
0.000000
  70
    32
  0
VERTEX
  8
AM_0
  5
1FE53
 10
-0.707054
 20
337.659
 30
0.000000
  70
    32
  0
VERTEX
  8
AM_0
  5
1FE54
 10
-0.846596
 20
337.706
 30
0.000000
  70
    32
  0
VERTEX
  8
AM_0
  5
1FE55
 10
-0.986706
 20
337.751
 30
0.000000
  70
    32
  0
VERTEX
  8
AM_0
  5
1FE56
 10
-1.12736
 20
337.795
 30
0.000000
  70
    32
  0
VERTEX
  8
AM_0
  5
1FE57
 10
-1.26854
 20
337.837
 30
0.000000
  70
    32
  0
VERTEX
  8
AM_0
  5
1FE58
 10
-1.41022
 20
337.877
 30
0.000000
  70
    32
  0
VERTEX
  8
AM_0
  5
1FE59
 10
-1.55239
 20
337.915
 30
0.000000
  70
    32
  0
VERTEX
  8
AM_0
  5
1FE5A
 10
-1.69502
 20
337.952
 30
0.000000
  70
    32
  0
VERTEX
  8
AM_0
  5
1FE5B
 10
-1.83808
 20
337.987
 30
0.000000
  70
    32
  0
VERTEX
  8
AM_0
  5
1FE5C
 10
-1.98156
 20
338.020
 30
0.000000
  70
    32
  0
VERTEX
  8
AM_0
  5
1FE5D
 10
-2.12544
 20
338.051
 30
0.000000
  70
    32
  0
VERTEX
  8
AM_0
  5
1FE5E
 10
-2.26969
 20
338.081
 30
0.000000
  70
    32
  0
VERTEX
  8
AM_0
  5
1FE5F
 10
-2.41430
 20
338.109
 30
0.000000
  70
    32
  0
VERTEX
  8
AM_0
  5
1FE60
 10
-2.55923
 20
338.135
 30
0.000000
  70
    32
  0
VERTEX
  8
AM_0
  5
1FE61
 10
-2.70448
 20
338.159
 30
0.000000
  70
    32
  0
VERTEX
  8
AM_0
  5
1FE62
 10
-2.85001
 20
338.182
 30
0.000000
  70
    32
  0
VERTEX
  8
AM_0
  5
1FE63
 10
-2.99581
 20
338.202
 30
0.000000
  70
    32
  0
VERTEX
  8
AM_0
  5
1FE64
 10
-3.14185
 20
338.221
 30
0.000000
  70
    32
  0
VERTEX
  8
AM_0
  5
1FE65
 10
-3.28811
 20
338.238
 30
0.000000
  70
    32
  0
VERTEX
  8
AM_0
  5
1FE66
 10
-3.43457
 20
338.254
 30
0.000000
  70
    32
  0
VERTEX
  8
AM_0
  5
1FE67
 10
-3.58121
 20
338.267
 30
0.000000
  70
    32
  0
VERTEX
  8
AM_0
  5
1FE68
 10
-3.72800
 20
338.279
 30
0.000000
  70
    32
  0
VERTEX
  8
AM_0
  5
1FE69
 10
-3.87493
 20
338.289
 30
0.000000
  70
    32
  0
VERTEX
  8
AM_0
  5
1FE6A
 10
-4.02197
 20
338.297
 30
0.000000
  70
    32
  0
VERTEX
  8
AM_0
  5
1FE6B
 10
-4.16909
 20
338.303
 30
0.000000
  70
    32
  0
VERTEX
  8
AM_0
  5
1FE6C
 10
-4.31628
 20
338.308
 30
0.000000
  70
    32
  0
VERTEX
  8
AM_0
  5
1FE6D
 10
-4.46352
 20
338.311
 30
0.000000
  70
    32
  0
VERTEX
  8
AM_0
  5
1FE6E
 10
-4.61078
 20
338.312
 30
0.000000
  70
    32
  0
SEQEND
  8
AM_0
  5
1FE6F
  0
CIRCLE
  5
1F4AE
  8
AM_0
 10
-55.610778425159033
 20
274.31216587985892
 30
0.0
 40
22.50000067055224
  0
LINE
  5
1F4AF
  8
AM_0
 10
-247.610812191191
 20
515.15649201206668
 30
0.0
 11
-247.610812191191
 21
509.78649201206667
 31
0.0
  0
LINE
  5
1F4B0
  8
AM_0
 10
-232.61081219119089
 20
515.15649201206645
 30
0.0
 11
-232.610812191191
 21
509.78649201206667
 31
0.0
  0
LINE
  5
1F4B1
  8
AM_0
 10
-211.11081219119089
 20
602.65649201206668
 30
0.0
 11
-211.1108124474386
 21
479.15649171175892
 31
0.0
  0
LINE
  5
1F4B2
  8
AM_0
 10
-357.11081219119092
 20
484.73651201206673
 30
0.0
 11
-357.1108121911908
 21
599.58651201206669
 31
0.0
  0
LINE
  5
1F4B3
  8
AM_0
 10
-363.11081219119092
 20
494.13690201206663
 30
0.0
 11
-363.11081219119092
 21
537.15649201206656
 31
0.0
  0
LINE
  5
1F4B5
  8
AM_0
 10
-248.610812191191
 20
516.15649201206668
 30
0.0
 11
-349.56079219119101
 21
516.15649201206668
 31
0.0
  0
LINE
  5
1F4B6
  8
AM_0
 10
-214.1860261046657
 20
518.15649201206645
 30
0.0
 11
-349.56079219119101
 21
518.15649201206656
 31
0.0
  0
LINE
  5
1F4B7
  8
AM_0
 10
-350.65079219119099
 20
518.58651201206658
 30
0.0
 11
-213.26605604263511
 21
518.58651201206658
 31
0.0
  0
LINE
  5
1F4B8
  8
AM_0
 10
-350.65079219119099
 20
515.66650201206653
 30
0.0
 11
-247.75064371937859
 21
515.66650201206653
 31
0.0
  0
LINE
  5
1F4B9
  8
AM_0
 10
-350.78080219119079
 20
528.46649201206662
 30
0.0
 11
-278.38078552147527
 21
528.46649201206662
 31
0.0
  0
LINE
  5
1F4BA
  8
AM_0
 10
-279.67077999674439
 20
528.15649201206668
 30
0.0
 11
-349.56079219119101
 21
528.15649201206668
 31
0.0
  0
LINE
  5
1F4BB
  8
AM_0
 10
-279.67077999674439
 20
526.15649201206656
 30
0.0
 11
-349.56079219119101
 21
526.15649201206656
 31
0.0
  0
LINE
  5
1F4BC
  8
AM_0
 10
-350.78080219119079
 20
525.80651201206661
 30
0.0
 11
-278.38078552147527
 21
525.80651201206661
 31
0.0
  0
LINE
  5
1F4BD
  8
AM_0
 10
-310.1108121911908
 20
588.50650201206656
 30
0.0
 11
-347.1108121911908
 21
586.36050017263619
 31
0.0
  0
LINE
  5
1F4BE
  8
AM_0
 10
-311.1108121911908
 20
588.49643201206675
 30
0.0
 11
-217.29080219119081
 21
588.49643201206675
 31
0.0
  0
LINE
  5
1F4BF
  8
AM_0
 10
-248.5998579043636
 20
568.15649201206656
 30
0.0
 11
-340.56079219119118
 21
568.15649201206656
 31
0.0
  0
LINE
  5
1F4C0
  8
AM_0
 10
-214.1860261046657
 20
566.15649201206668
 30
0.0
 11
-340.56079219119118
 21
566.15649201206668
 31
0.0
  0
LINE
  5
1F4C1
  8
AM_0
 10
-341.65079219119087
 20
568.64651201206675
 30
0.0
 11
-247.75059036305589
 21
568.64651201206664
 31
0.0
  0
LINE
  5
1F4C2
  8
AM_0
 10
-341.65079219119087
 20
565.71649201206674
 30
0.0
 11
-213.0960261570257
 21
565.71649201206662
 31
0.0
  0
LINE
  5
1F4C3
  8
AM_0
 10
-341.4307921911909
 20
578.87649201206671
 30
0.0
 11
-277.11081219119092
 21
578.87649201206671
 31
0.0
  0
LINE
  5
1F4C4
  8
AM_0
 10
-332.1108121911908
 20
608.07650201206673
 30
0.0
 11
-291.11081219119097
 21
608.07650201206673
 31
0.0
  0
LINE
  5
1F4C5
  8
AM_0
 10
-332.1108121911908
 20
607.39651201206675
 30
0.0
 11
-291.11081219119097
 21
607.39651201206675
 31
0.0
  0
LINE
  5
1F4C6
  8
AM_0
 10
-332.1108121911908
 20
606.04650201206664
 30
0.0
 11
-291.11081219119097
 21
606.04650201206664
 31
0.0
  0
LINE
  5
1F4C7
  8
AM_0
 10
-332.1108121911908
 20
604.01651201206664
 30
0.0
 11
-277.11081219119092
 21
604.01651201206664
 31
0.0
  0
LINE
  5
1F4C8
  8
AM_0
 10
-277.11081219119092
 20
578.15649201206668
 30
0.0
 11
-340.56079219119113
 21
578.15649201206668
 31
0.0
  0
LINE
  5
1F4C9
  8
AM_0
 10
-350.85080219119089
 20
538.41650201206664
 30
0.0
 11
-278.38078552147527
 21
538.41650201206664
 31
0.0
  0
LINE
  5
1F4CA
  8
AM_0
 10
-279.67077999674439
 20
538.15649201206656
 30
0.0
 11
-349.56079219119101
 21
538.15649201206656
 31
0.0
  0
LINE
  5
1F4CB
  8
AM_0
 10
-279.67077999674439
 20
536.15649201206668
 30
0.0
 11
-349.56079219119101
 21
536.15649201206668
 31
0.0
  0
LINE
  5
1F4CC
  8
AM_0
 10
-350.85080219119089
 20
535.87649201206636
 30
0.0
 11
-278.38078552147527
 21
535.87649201206636
 31
0.0
  0
LINE
  5
1F4CD
  8
AM_0
 10
-279.66905224757801
 20
558.15649201206656
 30
0.0
 11
-349.55078219119088
 21
558.15649201206656
 31
0.0
  0
LINE
  5
1F4CE
  8
AM_0
 10
-279.66812874781141
 20
556.15649201206656
 30
0.0
 11
-349.55078219119088
 21
556.15649201206656
 31
0.0
  0
LINE
  5
1F4CF
  8
AM_0
 10
-279.67078340218092
 20
548.15649201206668
 30
0.0
 11
-349.55078219119088
 21
548.15649201206668
 31
0.0
  0
LINE
  5
1F4D0
  8
AM_0
 10
-279.67078340218251
 20
546.15649201206656
 30
0.0
 11
-349.55078219119088
 21
546.15649201206656
 31
0.0
  0
LINE
  5
1F4D1
  8
AM_0
 10
-341.4307921911909
 20
575.52648201206648
 30
0.0
 11
-277.11081219119092
 21
575.52648201206648
 31
0.0
  0
LINE
  5
1F4D2
  8
AM_0
 10
-350.78080219119079
 20
558.4964920120666
 30
0.0
 11
-278.57559892365413
 21
558.4964920120666
 31
0.0
  0
LINE
  5
1F4D3
  8
AM_0
 10
-350.78080219119079
 20
555.83651201206635
 30
0.0
 11
-278.57559892365413
 21
555.83651201206635
 31
0.0
  0
LINE
  5
1F4D4
  8
AM_0
 10
-350.84079219119093
 20
548.42651201206661
 30
0.0
 11
-278.57559892365413
 21
548.42651201206661
 31
0.0
  0
LINE
  5
1F4D5
  8
AM_0
 10
-350.84079219119093
 20
545.89651201206664
 30
0.0
 11
-278.57559892365413
 21
545.89651201206664
 31
0.0
  0
LINE
  5
1F4D6
  8
AM_0
 10
-277.11081219119092
 20
576.15649201206656
 30
0.0
 11
-340.56079219119113
 21
576.15649201206656
 31
0.0
  0
LINE
  5
1F4D7
  8
AM_0
 10
-215.35080219119101
 20
602.51643201206662
 30
0.0
 11
-212.61499219119091
 21
592.31643201206657
 31
0.0
  0
LINE
  5
1F4D8
  8
AM_0
 10
-277.11081219119092
 20
604.01642201206664
 30
0.0
 11
-217.29080219119081
 21
604.01642201206664
 31
0.0
  0
LINE
  5
1F4D9
  8
AM_0
 10
-243.30681219119111
 20
642.15646201206664
 30
0.0
 11
-278.914812191191
 21
642.15646201206664
 31
0.0
  0
LINE
  5
1F4DA
  8
AM_0
 10
-229.61081219119109
 20
622.65646201206664
 30
0.0
 11
-287.1108121911912
 21
622.65646201206664
 31
0.0
  0
LINE
  5
1F4DB
  8
AM_0
 10
-232.11081219119109
 20
639.15646201206664
 30
0.0
 11
-307.11081219119109
 21
639.15646201206664
 31
0.0
  0
LINE
  5
1F4DC
  8
AM_0
 10
-309.61081219119109
 20
619.15646201206664
 30
0.0
 11
-229.61081219119109
 21
619.15646201206664
 31
0.0
  0
LINE
  5
1F4DD
  8
AM_0
 10
-229.610812191191
 20
615.65646201206675
 30
0.0
 11
-309.61081219119109
 21
615.65646201206675
 31
0.0
  0
ARC
  5
1F4DE
  8
AM_0
 10
-210.11081219119089
 20
605.15649201206645
 30
0.0
 40
0.9999999999999998
 50
90.00000299999769
 51
180.00001000000091
  0
LINE
  5
1F4DF
  8
0
  6
CONTINUOUS
 62
     7
 10
-211.11087378578961
 20
606.15649294728428
 30
0.0
 11
-202.11081219119089
 21
606.15649294728428
 31
0.0
  0
LINE
  5
1F4E1
  8
AM_0
 10
-231.1108121911912
 20
622.65646201206664
 30
0.0
 11
-231.1108121911912
 21
638.15646201206664
 31
0.0
  0
ARC
  5
1F4E2
  8
AM_0
 10
-232.11081219119109
 20
638.15646201206675
 30
0.0
 40
1.0
 50
0.0
 51
90.0
  0
LINE
  5
1F4E3
  8
AM_0
 10
-238.11081219119109
 20
639.15646201206664
 30
0.0
 11
-243.30681219119111
 21
642.15646201206664
 31
0.0
  0
LINE
  5
1F4E4
  8
AM_0
 10
-231.11081219119089
 20
611.15646201206664
 30
0.0
 11
-218.8100908949427
 21
611.15646201206664
 31
0.0
  0
ARC
  5
1F4E5
  8
AM_0
 10
-217.300452191191
 20
601.99943201206645
 30
0.0
 40
2.0170177999999992
 50
14.85160000000792
 51
89.726299999997195
  0
LINE
  5
1F4E6
  8
AM_0
 10
-211.11081219119089
 20
605.15649201206645
 30
0.0
 11
-211.11081219119089
 21
602.65649201206668
 31
0.0
  0
LINE
  5
1F4E7
  8
AM_0
 10
-211.11081219119089
 20
606.15649195970639
 30
0.0
 11
-218.8100908949427
 21
611.15646201206664
 31
0.0
  0
LINE
  5
1F4E8
  8
AM_0
 10
-215.39081219119089
 20
602.65642201206651
 30
0.0
 11
-211.11081219119109
 21
602.65642201206651
 31
0.0
  0
LINE
  5
1F4E9
  8
AM_0
 10
-231.11081219119089
 20
615.65646201206675
 30
0.0
 11
-231.110812191191
 21
611.15646201206664
 31
0.0
  0
LINE
  5
1F4EA
  8
AM_0
 10
-229.61081219119109
 20
615.65646201206675
 30
0.0
 11
-229.61081219119109
 21
622.65646201206664
 31
0.0
  0
ARC
  5
1F4EB
  8
AM_0
 10
-306.1108121911912
 20
623.65646201206664
 30
0.0
 40
1.0
 50
270.0
 51
0.0
  0
LINE
  5
1F4EC
  8
AM_0
 10
-308.1108121911912
 20
622.65646201206664
 30
0.0
 11
-308.11081219119097
 21
638.15646201206664
 31
0.0
  0
LINE
  5
1F4ED
  8
AM_0
 10
-304.1108121911912
 20
619.15646201206664
 30
0.0
 11
-304.1108121911912
 21
626.65646201206664
 31
0.0
  0
LINE
  5
1F4EE
  8
AM_0
 10
-309.61081219119109
 20
615.65646201206675
 30
0.0
 11
-309.61081219119109
 21
635.15646201206664
 31
0.0
  0
ARC
  5
1F4EF
  8
AM_0
 10
-296.61081219119109
 20
626.65646201206664
 30
0.0
 40
3.9999999999999978
 50
0.0
 51
180.0
  0
ARC
  5
1F4F0
  8
AM_0
 10
-287.1108121911912
 20
623.65646201206664
 30
0.0
 40
1.0
 50
180.0
 51
270.0
  0
LINE
  5
1F4F1
  8
AM_0
 10
-300.61081219119109
 20
619.15646201206664
 30
0.0
 11
-300.61081219119109
 21
626.65646201206664
 31
0.0
  0
LINE
  5
1F4F2
  8
AM_0
 10
-289.1108121911912
 20
626.65646201206664
 30
0.0
 11
-289.1108121911912
 21
619.15646201206664
 31
0.0
  0
LINE
  5
1F4F3
  8
AM_0
 10
-292.61081219119109
 20
619.15646201206664
 30
0.0
 11
-292.61081219119109
 21
626.65646201206664
 31
0.0
  0
ARC
  5
1F4F4
  8
AM_0
 10
-296.61081219119109
 20
626.65646201206664
 30
0.0
 40
7.5000000000000018
 50
0.0
 51
180.0
  0
ARC
  5
1F4F5
  8
AM_0
 10
-295.6108121911912
 20
627.65646201206664
 30
0.0
 40
7.4999999999999956
 50
0.0
 51
90.0
  0
LINE
  5
1F4F6
  8
AM_0
 10
-278.914812191191
 20
642.15646201206664
 30
0.0
 11
-284.10358770139419
 21
639.15646201206664
 31
0.0
  0
LINE
  5
1F4F7
  8
AM_0
 10
-288.11081219119109
 20
627.65646201206664
 30
0.0
 11
-288.11081219119109
 21
623.65646201206664
 31
0.0
  0
ARC
  5
1F4F8
  8
AM_0
 10
-297.6108121911912
 20
627.65646201206664
 30
0.0
 40
7.499999999999992
 50
90.0
 51
180.0
  0
LINE
  5
1F4F9
  8
AM_0
 10
-295.61081219119097
 20
635.15646201206664
 30
0.0
 11
-297.6108121911912
 21
635.15646201206664
 31
0.0
  0
ARC
  5
1F4FA
  8
AM_0
 10
-307.11081219119109
 20
638.15646201206664
 30
0.0
 40
1.0
 50
90.0
 51
180.0
  0
LINE
  5
1F4FB
  8
AM_0
 10
-309.61081219119109
 20
635.15646201206664
 30
0.0
 11
-308.11081219119097
 21
635.15646201206664
 31
0.0
  0
LINE
  5
1F4FC
  8
AM_0
 10
-305.11081219119109
 20
623.65646201206664
 30
0.0
 11
-305.11081219119109
 21
627.65646201206664
 31
0.0
  0
LINE
  5
1F4FD
  8
AM_0
 10
-291.1108121911908
 20
615.65646201206675
 30
0.0
 11
-291.11081219119097
 21
604.01642201206698
 31
0.0
  0
LINE
  5
1F4FE
  8
AM_0
 10
-309.61081219119109
 20
622.65646201206664
 30
0.0
 11
-306.1108121911912
 21
622.65646201206664
 31
0.0
  0
LINE
  5
1F4FF
  8
AM_0
 10
-232.61081219119089
 20
575.52643201206661
 30
0.0
 11
-247.61081219119089
 21
575.52643201206661
 31
0.0
  0
LINE
  5
1F500
  8
AM_0
 10
-232.61081219119089
 20
575.52643201206672
 30
0.0
 11
-247.61081219119089
 21
575.52643201206672
 31
0.0
  0
LINE
  5
1F501
  8
AM_0
 10
-217.29080219119081
 20
576.15643201206638
 30
0.0
 11
-277.11081219119092
 21
576.15643201206638
 31
0.0
  0
LINE
  5
1F502
  8
AM_0
 10
-217.29080219119081
 20
578.15643201206672
 30
0.0
 11
-277.11081219119092
 21
578.15643201206672
 31
0.0
  0
LINE
  5
1F503
  8
AM_0
 10
-277.11081219119092
 20
578.88641201206656
 30
0.0
 11
-217.29080219119081
 21
578.88641201206656
 31
0.0
  0
ARC
  5
1F504
  8
AM_0
 10
-210.10239219119089
 20
593.18802201206665
 30
0.0
 40
1.008444499999998
 50
90.477799999999505
 51
170.4539299999964
  0
LINE
  5
1F505
  8
0
  6
CONTINUOUS
 62
     7
 10
-210.11081219119089
 20
594.19642328481427
 30
0.0
 11
-202.11081219119089
 21
594.19642328481427
 31
0.0
  0
LINE
  5
1F506
  8
0
  6
CONTINUOUS
 62
     7
 10
-210.11081219119089
 20
579.29641328481432
 30
0.0
 11
-202.11081219119089
 21
579.29641328481432
 31
0.0
  0
LINE
  5
1F507
  8
AM_0
 10
-211.11081219119089
 20
585.01642201206676
 30
0.0
 11
-211.11081219119089
 21
592.61642201206655
 31
0.0
  0
LINE
  5
1F508
  8
AM_0
 10
-212.11081219119089
 20
585.01642201206676
 30
0.0
 11
-212.11081219119089
 21
592.61642201206655
 31
0.0
  0
LINE
  5
1F509
  8
AM_0
 10
-214.7107921911909
 20
587.01642201206664
 30
0.0
 11
-214.7107921911909
 21
590.61642201206655
 31
0.0
  0
ARC
  5
1F50A
  8
AM_0
 10
-213.01081219119089
 20
590.61642201206655
 30
0.0
 40
1.7000007999999991
 50
90.000020000001967
 51
179.999989999999
  0
LINE
  5
1F50B
  8
AM_0
 10
-212.11081219119089
 20
592.61642201206655
 30
0.0
 11
-211.11081219119089
 21
592.61642201206655
 31
0.0
  0
LINE
  5
1F50C
  8
AM_0
 10
-212.11081219119089
 20
592.31642201206671
 30
0.0
 11
-213.01081219119089
 21
592.31642201206671
 31
0.0
  0
LINE
  5
1F50D
  8
AM_0
 10
-217.29080219119081
 20
588.49643201206675
 30
0.0
 11
-214.7107921911909
 21
588.49643201206675
 31
0.0
  0
ARC
  5
1F50E
  8
AM_0
 10
-213.01081219119089
 20
587.01642201206664
 30
0.0
 40
1.699996899999999
 50
180.00001999999549
 51
269.9999969999958
  0
LINE
  5
1F50F
  8
AM_0
 10
-212.11081219119089
 20
585.01642201206676
 30
0.0
 11
-211.11081219119089
 21
585.01642201206676
 31
0.0
  0
LINE
  5
1F510
  8
AM_0
 10
-211.11081219119089
 20
588.03906201206667
 30
0.0
 11
-212.11081219119089
 21
588.61639201206629
 31
0.0
  0
LINE
  5
1F511
  8
AM_0
 10
-211.11081219119089
 20
589.03906201206655
 30
0.0
 11
-212.11081219119089
 21
589.61642201206655
 31
0.0
  0
ARC
  5
1F512
  8
AM_0
 10
-210.44995219119099
 20
589.9832120120667
 30
0.0
 40
1.4868058999999989
 50
194.28273999999919
 51
243.61022000000091
  0
LINE
  5
1F513
  8
AM_0
 10
-212.11081219119089
 20
585.31643201206668
 30
0.0
 11
-213.01081219119089
 21
585.31643201206668
 31
0.0
  0
LINE
  5
1F514
  8
AM_0
 10
-232.471034019326
 20
568.64651201206664
 30
0.0
 11
-213.0971087465484
 21
568.64651201206664
 31
0.0
  0
LINE
  5
1F515
  8
AM_0
 10
-214.1860261046657
 20
568.15649201206656
 30
0.0
 11
-231.62176647801559
 21
568.15649201206656
 31
0.0
  0
LINE
  5
1F516
  8
AM_0
 10
-217.29080219119081
 20
575.52643201206661
 30
0.0
 11
-231.61081219119089
 21
575.52643201206661
 31
0.0
  0
ARC
  5
1F517
  8
AM_0
 10
-216.77079219119079
 20
577.15643201206672
 30
0.0
 40
1.0000073999999981
 50
269.9999969999958
 51
90.0
  0
LINE
  5
1F518
  8
AM_0
 10
-213.29080219119081
 20
575.52643201206661
 30
0.0
 11
-217.29080219119081
 21
575.52643201206661
 31
0.0
  0
LINE
  5
1F519
  8
AM_0
 10
-216.77079219119079
 20
578.15643201206672
 30
0.0
 11
-217.29080219119081
 21
578.15643201206672
 31
0.0
  0
LINE
  5
1F51A
  8
AM_0
 10
-216.77079219119079
 20
576.15643201206638
 30
0.0
 11
-217.29080219119081
 21
576.15643201206638
 31
0.0
  0
LINE
  5
1F51B
  8
AM_0
 10
-217.29080219119081
 20
578.88641201206656
 30
0.0
 11
-211.110812240511
 21
578.88641201206656
 31
0.0
  0
ARC
  5
1F51C
  8
AM_0
 10
-213.2969121911909
 20
577.20642201206658
 30
0.0
 40
1.680010999999999
 50
270.20803099999949
 51
89.791970000001911
  0
ARC
  5
1F51D
  8
AM_0
 10
-214.18602615702559
 20
567.15649201206645
 30
0.0
 40
1.0000031999999981
 50
270.0
 51
89.999997000002296
  0
ARC
  5
1F51E
  8
AM_0
 10
-213.0960261570257
 20
567.18151201206649
 30
0.0
 40
1.465000399999999
 50
270.0
 51
89.999997000002296
  0
ARC
  5
1F51F
  8
AM_0
 10
-231.61081219119089
 20
569.15643201206672
 30
0.0
 40
0.9999999999999998
 50
180.0
 51
270.0
1001
GENIUS_GENOBJ-N-FIL_13
1002
{
1000
OWNER
1000
GEN
1002
}
1001
GENIUS_GENODEF_13
1002
{
1000
HIER
1070
     0
1002
}
1002
{
1000
MANEDIT
1070
     0
1002
}
1002
{
1000
NOSEL
1070
     0
1002
}
1002
{
1000
BEHIND
1070
     0
1002
}
1002
{
1000
OTHER
1070
     0
1002
}
1002
{
1000
REACTOR
1002
}
  0
ARC
  5
1F520
  8
AM_0
 10
-231.61081219119089
 20
574.52643201206672
 30
0.0
 40
0.9999999999999998
 50
90.0
 51
180.0
1001
GENIUS_GENOBJ-N-FIL_13
1002
{
1000
OWNER
1000
GEN
1002
}
1001
GENIUS_GENODEF_13
1002
{
1000
HIER
1070
     0
1002
}
1002
{
1000
MANEDIT
1070
     0
1002
}
1002
{
1000
NOSEL
1070
     0
1002
}
1002
{
1000
BEHIND
1070
     0
1002
}
1002
{
1000
OTHER
1070
     0
1002
}
1002
{
1000
REACTOR
1002
}
  0
LINE
  5
1F521
  8
AM_0
 10
-232.61081219119089
 20
569.15643201206672
 30
0.0
 11
-232.61081219119089
 21
574.52643201206672
 31
0.0
  0
CIRCLE
  5
1F522
  8
AM_0
 10
-242.61081219119089
 20
570.65646201206664
 30
0.0
 40
0.75
  0
CIRCLE
  5
1F523
  8
AM_0
 10
-237.61081219119089
 20
570.65646201206664
 30
0.0
 40
0.75
  0
LINE
  5
1F524
  8
AM_0
 10
-232.47098066300339
 20
515.66650201206653
 30
0.0
 11
-213.11230079680209
 21
515.66650201206653
 31
0.0
  0
LINE
  5
1F525
  8
AM_0
 10
-214.1860261046657
 20
516.15649201206668
 30
0.0
 11
-231.61081219119089
 21
516.15649201206668
 31
0.0
  0
ARC
  5
1F526
  8
AM_0
 10
-214.18602615702559
 20
517.1564320120666
 30
0.0
 40
1.0000031999999981
 50
270.00000299999761
 51
90.0
  0
ARC
  5
1F527
  8
AM_0
 10
-213.0960261570257
 20
517.13141201206656
 30
0.0
 40
1.465000399999999
 50
270.00000299999761
 51
90.0
  0
ARC
  5
1F528
  8
AM_0
 10
-231.61081219119089
 20
515.15649201206645
 30
0.0
 40
0.9999999999999998
 50
90.0
 51
180.0
1001
GENIUS_GENOBJ-N-FIL_13
1002
{
1000
OWNER
1000
GEN
1002
}
1001
GENIUS_GENODEF_13
1002
{
1000
HIER
1070
     0
1002
}
1002
{
1000
MANEDIT
1070
     0
1002
}
1002
{
1000
NOSEL
1070
     0
1002
}
1002
{
1000
BEHIND
1070
     0
1002
}
1002
{
1000
OTHER
1070
     0
1002
}
1002
{
1000
REACTOR
1002
}
  0
ARC
  5
1F529
  8
AM_0
 10
-278.44077552147508
 20
557.16650201206664
 30
0.0
 40
1.330000999999998
 50
270.0
 51
89.999997000002296
  0
ARC
  5
1F52A
  8
AM_0
 10
-279.66206552147531
 20
557.15649201206679
 30
0.0
 40
1.000037999999998
 50
269.50071000000491
 51
90.499283999999903
  0
LINE
  5
1F52B
  8
AM_0
 10
-248.61081219119089
 20
575.52643201206661
 30
0.0
 11
-277.11081219119092
 21
575.52643201206661
 31
0.0
  0
ARC
  5
1F52C
  8
AM_0
 10
-248.61081219119089
 20
569.1564320120666
 30
0.0
 40
0.9999999999999998
 50
270.0
 51
0.0
1001
GENIUS_GENOBJ-N-FIL_13
1002
{
1000
OWNER
1000
GEN
1002
}
1001
GENIUS_GENODEF_13
1002
{
1000
HIER
1070
     0
1002
}
1002
{
1000
MANEDIT
1070
     0
1002
}
1002
{
1000
NOSEL
1070
     0
1002
}
1002
{
1000
BEHIND
1070
     0
1002
}
1002
{
1000
OTHER
1070
     0
1002
}
1002
{
1000
REACTOR
1002
}
  0
ARC
  5
1F52D
  8
AM_0
 10
-248.61081219119089
 20
574.52643201206672
 30
0.0
 40
0.9999999999999998
 50
0.0
 51
90.0
1001
GENIUS_GENOBJ-N-FIL_13
1002
{
1000
OWNER
1000
GEN
1002
}
1001
GENIUS_GENODEF_13
1002
{
1000
HIER
1070
     0
1002
}
1002
{
1000
MANEDIT
1070
     0
1002
}
1002
{
1000
NOSEL
1070
     0
1002
}
1002
{
1000
BEHIND
1070
     0
1002
}
1002
{
1000
OTHER
1070
     0
1002
}
1002
{
1000
REACTOR
1002
}
  0
LINE
  5
1F52E
  8
AM_0
 10
-247.610812191191
 20
569.15643201206672
 30
0.0
 11
-247.61081219119089
 21
574.52643201206672
 31
0.0
  0
ARC
  5
1F52F
  8
AM_0
 10
-279.6620655214752
 20
567.15649201206645
 30
0.0
 40
1.000037999999998
 50
269.50071000000491
 51
90.499283999999903
  0
ARC
  5
1F530
  8
AM_0
 10
-278.44077552147508
 20
527.14642201206664
 30
0.0
 40
1.330000999999998
 50
270.00000299999761
 51
90.0
  0
ARC
  5
1F531
  8
AM_0
 10
-278.38078552147522
 20
537.15143201206661
 30
0.0
 40
1.265004999999999
 50
270.00000299999761
 51
90.0
  0
ARC
  5
1F532
  8
AM_0
 10
-278.38078552147522
 20
547.16149201206656
 30
0.0
 40
1.265004999999999
 50
270.0
 51
89.999997000002296
  0
ARC
  5
1F533
  8
AM_0
 10
-248.61081219119089
 20
515.15649201206668
 30
0.0
 40
0.9999999999999998
 50
0.0
 51
90.0
1001
GENIUS_GENOBJ-N-FIL_13
1002
{
1000
OWNER
1000
GEN
1002
}
1001
GENIUS_GENODEF_13
1002
{
1000
HIER
1070
     0
1002
}
1002
{
1000
MANEDIT
1070
     0
1002
}
1002
{
1000
NOSEL
1070
     0
1002
}
1002
{
1000
BEHIND
1070
     0
1002
}
1002
{
1000
OTHER
1070
     0
1002
}
1002
{
1000
REACTOR
1002
}
  0
ARC
  5
1F534
  8
AM_0
 10
-279.66206552147531
 20
537.1564320120666
 30
0.0
 40
1.000037999999998
 50
269.50071600000012
 51
90.499289999995113
  0
ARC
  5
1F535
  8
AM_0
 10
-279.66206552147531
 20
547.15649201206645
 30
0.0
 40
1.000037999999998
 50
269.50071000000491
 51
90.499283999999903
  0
ARC
  5
1F536
  8
AM_0
 10
-279.66206552147531
 20
527.1564320120666
 30
0.0
 40
1.000037999999998
 50
269.50071600000012
 51
90.499289999995113
  0
ARC
  5
1F537
  8
AM_0
 10
-279.66206552147531
 20
517.15649204266163
 30
0.0
 40
1.000037999999998
 50
269.50071600000012
 51
90.499289999995113
  0
LINE
  5
1F538
  8
AM_0
 10
-350.92078219119082
 20
602.28649201206656
 30
0.0
 11
-351.84079219119093
 21
598.40649201206645
 31
0.0
  0
LINE
  5
1F539
  8
AM_0
 10
-350.94077219119077
 20
603.94650201206639
 30
0.0
 11
-351.820772191191
 21
600.41650201206664
 31
0.0
  0
LINE
  5
1F53A
  8
AM_0
 10
-334.11081219119092
 20
604.04650201206653
 30
0.0
 11
-334.11081219119092
 21
596.63650201206656
 31
0.0
  0
ARC
  5
1F53B
  8
AM_0
 10
-335.61258219119082
 20
601.92831201206661
 30
0.0
 40
1.5017978999999979
 50
270.06854999999888
 51
359.93145000000112
  0
LINE
  5
1F53C
  8
AM_0
 10
-348.97080219119078
 20
603.82650201206661
 30
0.0
 11
-335.6108121911908
 21
603.82650201206661
 31
0.0
  0
LINE
  5
1F53D
  8
AM_0
 10
-349.00080219119081
 20
605.4565120120667
 30
0.0
 11
-335.5008021911907
 21
605.4565120120667
 31
0.0
  0
ARC
  5
1F53E
  8
AM_0
 10
-332.11359219119089
 20
604.04928201206656
 30
0.0
 40
1.9972083999999981
 50
89.919857000000434
 51
180.08013999999889
  0
ARC
  5
1F53F
  8
AM_0
 10
-332.10831219119069
 20
606.08166201206654
 30
0.0
 40
1.994845199999999
 50
90.07165800000439
 51
165.63720000000029
  0
ARC
  5
1F540
  8
AM_0
 10
-332.11624219119102
 20
605.40194201206646
 30
0.0
 40
1.9945768999999991
 50
89.844008000000045
 51
180.15599000000279
  0
ARC
  5
1F541
  8
AM_0
 10
-332.11441219119081
 20
602.02011201206665
 30
0.0
 40
1.9963852999999989
 50
89.896163000000016
 51
180.10384000000261
  0
ARC
  5
1F542
  8
AM_0
 10
-335.4971621911908
 20
606.96337201206666
 30
0.0
 40
1.5068882999999991
 50
269.8622299999995
 51
345.12307000000158
  0
ARC
  5
1F543
  8
AM_0
 10
-335.61463219119088
 20
605.33035201206644
 30
0.0
 40
1.5038474999999989
 50
270.1463999999965
 51
359.8536000000035
  0
ARC
  5
1F544
  8
AM_0
 10
-349.00348219119093
 20
603.45870201206662
 30
0.0
 40
1.9977811999999979
 50
89.923080999997737
 51
165.86776999999691
  0
ARC
  5
1F545
  8
AM_0
 10
-348.9780021911908
 20
601.83102201206668
 30
0.0
 40
1.995482299999999
 50
89.79345799999912
 51
166.80592000000161
  0
LINE
  5
1F546
  8
AM_0
 10
-365.60471219119091
 20
557.37832201206652
 30
0.0
 11
-365.1047121911908
 21
560.14831201206675
 31
0.0
  0
ARC
  5
1F547
  8
AM_0
 10
-358.10178219119069
 20
559.14746201206663
 30
0.0
 40
0.9910124499999998
 50
269.47800000000427
 51
0.5220023800002595
  0
ARC
  5
1F548
  8
AM_0
 10
-349.55951219119072
 20
557.15649201206679
 30
0.0
 40
1.000037999999998
 50
89.500716000000082
 51
270.49928999999509
  0
ARC
  5
1F549
  8
AM_0
 10
-350.78080219119079
 20
557.16650201206676
 30
0.0
 40
1.330000999999998
 50
90.00000299999769
 51
270.0
  0
ARC
  5
1F54A
  8
AM_0
 10
-362.10172219119079
 20
557.14740201206678
 30
0.0
 40
1.009131199999999
 50
90.516126000001094
 51
179.48387000000039
  0
ARC
  5
1F54B
  8
AM_0
 10
-333.11081219119097
 20
557.15649201206679
 30
0.0
 40
1.0000031999999981
 50
90.00000299999769
 51
270.0
  0
LINE
  5
1F54C
  8
AM_0
 10
-363.1108121911908
 20
590.17611201206648
 30
0.0
 11
-363.11081219119092
 21
547.15649201206645
 31
0.0
  0
LINE
  5
1F54D
  8
AM_0
 10
-364.6108121911908
 20
522.15649201206645
 30
0.0
 11
-364.6108121911908
 21
562.15649201206656
 31
0.0
  0
ARC
  5
1F54E
  8
AM_0
 10
-347.4896161918378
 20
579.82455201206665
 30
0.0
 40
6.0039071999999978
 50
45.223693000001958
 51
86.382713999995715
  0
LINE
  5
1F54F
  8
AM_0
 10
-348.9408021911907
 20
600.42651201206627
 30
0.0
 11
-335.6108121911908
 21
600.42651201206627
 31
0.0
  0
LINE
  5
1F550
  8
AM_0
 10
-348.88080219119109
 20
595.13650201206656
 30
0.0
 11
-335.6108121911908
 21
595.13650201206656
 31
0.0
  0
ARC
  5
1F551
  8
AM_0
 10
-347.94584619183769
 20
583.75427201206651
 30
0.0
 40
5.0078935999999974
 50
279.59872000000172
 51
354.52532000000059
  0
ARC
  5
1F552
  8
AM_0
 10
-335.61646219119069
 20
596.64218201206666
 30
0.0
 40
1.5056744999999989
 50
270.21551999999878
 51
359.78447000000102
  0
ARC
  5
1F553
  8
AM_0
 10
-343.96089619183778
 20
583.36666201206651
 30
0.0
 40
1.0041366999999981
 50
354.84883999999568
 51
45.797436000002108
  0
ARC
  5
1F554
  8
AM_0
 10
-333.11081219119097
 20
577.15649201206645
 30
0.0
 40
1.0000031999999981
 50
90.00000299999769
 51
270.0
  0
ARC
  5
1F555
  8
AM_0
 10
-340.56079219119113
 20
577.15649201206645
 30
0.0
 40
1.0000031999999981
 50
90.00000299999769
 51
270.0
  0
ARC
  5
1F556
  8
AM_0
 10
-341.4307921911909
 20
577.20150201206661
 30
0.0
 40
1.6750062999999991
 50
90.00000299999769
 51
270.0
  0
ARC
  5
1F557
  8
AM_0
 10
-333.11081219119097
 20
567.15649201206645
 30
0.0
 40
1.0000031999999981
 50
90.00000299999769
 51
270.0
  0
ARC
  5
1F558
  8
AM_0
 10
-341.65079219119082
 20
567.18151201206649
 30
0.0
 40
1.465000399999999
 50
90.00000299999769
 51
270.0
  0
ARC
  5
1F559
  8
AM_0
 10
-340.56079219119113
 20
567.15649201206645
 30
0.0
 40
1.0000031999999981
 50
90.00000299999769
 51
270.0
  0
LINE
  5
1F55A
  8
AM_0
 10
-347.1108121911908
 20
590.50650201206656
 30
0.0
 11
-347.1108121911908
 21
576.46649201206674
 31
0.0
  0
ARC
  5
1F55B
  8
AM_0
 10
-360.80515219119081
 20
584.26620201206663
 30
0.0
 40
1.0103179999999981
 50
90.320139999994851
 51
122.68858000000181
  0
ARC
  5
1F55C
  8
AM_0
 10
-360.81855219119097
 20
583.12985201206664
 30
0.0
 40
1.0067359999999981
 50
90.698060999998489
 51
120.5864300000015
  0
ARC
  5
1F55D
  8
AM_0
 10
-360.85251219119078
 20
587.64331201206664
 30
0.0
 40
1.0131911999999981
 50
89.903723999998817
 51
118.1687600000007
  0
ARC
  5
1F55E
  8
AM_0
 10
-360.81992219119093
 20
590.89474201206644
 30
0.0
 40
1.001807999999998
 50
90.622819999997361
 51
120.66166999999599
  0
ARC
  5
1F55F
  8
AM_0
 10
-360.83322219119088
 20
589.75207201206661
 30
0.0
 40
1.005138299999998
 50
92.142290999997442
 51
118.3679400000017
  0
ARC
  5
1F560
  8
AM_0
 10
-360.81729219119092
 20
588.78540201206647
 30
0.0
 40
1.0112084999999991
 50
90.765686999999147
 51
120.5188099999973
  0
LINE
  5
1F561
  8
AM_0
 10
-353.32080219119109
 20
593.1965020120665
 30
0.0
 11
-350.90079219119082
 21
593.1965020120665
 31
0.0
  0
ARC
  5
1F562
  8
AM_0
 10
-353.2825021911907
 20
600.78360201206669
 30
0.0
 40
1.507096899999999
 50
270.06481999999522
 51
345.90217999999652
  0
LINE
  5
1F563
  8
AM_0
 10
-353.28080219119079
 20
599.27648201206671
 30
0.0
 11
-351.63080219119081
 21
599.27648201206671
 31
0.0
  0
ARC
  5
1F564
  8
AM_0
 10
-353.30161219119088
 20
598.75930201206654
 30
0.0
 40
1.5028080999999991
 50
270.03078999999502
 51
346.42217999999752
  0
LINE
  5
1F565
  8
AM_0
 10
-353.30078219119082
 20
597.25650201206668
 30
0.0
 11
-351.24079219119091
 21
597.25650201206668
 31
0.0
  0
ARC
  5
1F566
  8
AM_0
 10
-353.3195821911907
 20
594.70065201206671
 30
0.0
 40
1.504139799999999
 50
269.95424999999852
 51
347.55525000000318
  0
LINE
  5
1F567
  8
AM_0
 10
-357.1108121911908
 20
590.50650201206656
 30
0.0
 11
-347.1108121911908
 21
590.50650201206656
 31
0.0
  0
LINE
  5
1F568
  8
AM_0
 10
-357.1108121911908
 20
599.53687970992257
 30
0.0
 11
-352.29080219119089
 21
599.65649201206656
 31
0.0
  0
ARC
  5
1F569
  8
AM_0
 10
-348.88895219119092
 20
593.14309201206652
 30
0.0
 40
1.9934333999999989
 50
89.765883999999261
 51
169.78803000000019
  0
LINE
  5
1F56A
  8
AM_0
 10
-351.39078219119079
 20
590.50653201206671
 30
0.0
 11
-350.85077219119091
 21
593.49652201206663
 31
0.0
  0
LINE
  5
1F56B
  8
AM_0
 10
-350.89078219119079
 20
598.84649201206662
 30
0.0
 11
-351.85080219119089
 21
594.37649201206636
 31
0.0
  0
ARC
  5
1F56C
  8
AM_0
 10
-348.93912219119079
 20
598.43112201206657
 30
0.0
 40
1.995389499999999
 50
90.048066999997786
 51
167.98461999999989
  0
LINE
  5
1F56D
  8
AM_0
 10
-360.87079219119101
 20
590.75650201206645
 30
0.0
 11
-357.61081219119097
 21
590.75650201206645
 31
0.0
  0
LINE
  5
1F56E
  8
AM_0
 10
-360.83081219119077
 20
591.89651201206675
 30
0.0
 11
-357.61081219119097
 21
591.89651201206675
 31
0.0
  0
LINE
  5
1F56F
  8
AM_0
 10
-357.1108121911908
 20
584.84649201206662
 30
0.0
 11
-347.1108121911908
 21
584.84649201206662
 31
0.0
  0
LINE
  5
1F570
  8
AM_0
 10
-360.8107921911909
 20
585.27648201206671
 30
0.0
 11
-357.1108121911908
 21
585.27648201206671
 31
0.0
  0
ARC
  5
1F571
  8
AM_0
 10
-358.11621219119081
 20
583.13110201206655
 30
0.0
 40
1.005422699999998
 50
0.308192380002108
 51
89.691810999999618
  0
LINE
  5
1F572
  8
AM_0
 10
-360.83081219119077
 20
589.79650201206664
 30
0.0
 11
-357.1108121911908
 21
589.79650201206664
 31
0.0
  0
ARC
  5
1F573
  8
AM_0
 10
-358.11786219119068
 20
587.64944201206663
 30
0.0
 40
1.0070831999999981
 50
0.4015779800008091
 51
89.598422000001335
  0
LINE
  5
1F574
  8
AM_0
 10
-360.83081219119077
 20
584.13650201206656
 30
0.0
 11
-358.1108121911908
 21
584.13650201206656
 31
0.0
  0
LINE
  5
1F575
  8
AM_0
 10
-360.85080219119078
 20
588.65649201206656
 30
0.0
 11
-358.1108121911908
 21
588.65649201206656
 31
0.0
  0
ARC
  5
1F576
  8
AM_0
 10
-362.10364219119089
 20
590.16632201206664
 30
0.0
 40
1.007194199999998
 50
120.2334199999983
 51
180.55767999999989
  0
LINE
  5
1F577
  8
AM_0
 10
-361.31079219119113
 20
590.63650201206656
 30
0.0
 11
-362.5508121911908
 21
590.01651201206676
 31
0.0
  0
LINE
  5
1F578
  8
AM_0
 10
-361.1108121911908
 20
591.63650201206656
 30
0.0
 11
-361.1108121911908
 21
591.11651201206655
 31
0.0
  0
LINE
  5
1F579
  8
AM_0
 10
-361.33078219119091
 20
591.75650201206656
 30
0.0
 11
-362.61078219119088
 21
591.03649201206667
 31
0.0
  0
ARC
  5
1F57A
  8
AM_0
 10
-362.10907219119088
 20
583.41387201206635
 30
0.0
 40
1.0017338999999981
 50
122.7376300000041
 51
179.85046000000261
  0
ARC
  5
1F57B
  8
AM_0
 10
-362.105262191191
 20
582.38723201206665
 30
0.0
 40
1.005592899999999
 50
120.18132999999889
 51
179.4716200000012
  0
ARC
  5
1F57C
  8
AM_0
 10
-362.10581219119092
 20
586.98547201206668
 30
0.0
 40
1.0050607999999981
 50
117.5588100000039
 51
179.37160000000111
  0
ARC
  5
1F57D
  8
AM_0
 10
-362.11182219119092
 20
588.01104201206635
 30
0.0
 40
0.9989832599999996
 50
119.9653600000016
 51
179.68761000000089
  0
LINE
  5
1F57E
  8
AM_0
 10
-361.1108121911908
 20
584.97650201206636
 30
0.0
 11
-361.1108121911908
 21
584.49649201206648
 31
0.0
  0
LINE
  5
1F57F
  8
AM_0
 10
-361.1108121911908
 20
589.53649201206645
 30
0.0
 11
-361.1108121911908
 21
588.99649201206637
 31
0.0
  0
LINE
  5
1F580
  8
AM_0
 10
-361.33078219119091
 20
583.9964920120666
 30
0.0
 11
-362.61078219119088
 21
583.25646201206655
 31
0.0
  0
LINE
  5
1F581
  8
AM_0
 10
-361.33081219119111
 20
589.65652201206672
 30
0.0
 11
-362.6108121911908
 21
588.87652201206663
 31
0.0
  0
LINE
  5
1F582
  8
AM_0
 10
-361.35080219119101
 20
585.11651201206678
 30
0.0
 11
-362.65082219119091
 21
584.25653201206671
 31
0.0
  0
LINE
  5
1F583
  8
AM_0
 10
-361.33081219119111
 20
588.53649201206656
 30
0.0
 11
-362.57080219119092
 21
587.87652201206674
 31
0.0
  0
ARC
  5
1F584
  8
AM_0
 10
-362.10776219119077
 20
589.11660201206666
 30
0.0
 40
1.003051899999998
 50
116.21265000000059
 51
180.00576999999771
  0
LINE
  5
1F585
  8
AM_0
 10
-358.1108121911908
 20
566.15649201206668
 30
0.0
 11
-362.11081219119092
 21
566.15649201206668
 31
0.0
  0
LINE
  5
1F586
  8
AM_0
 10
-358.1108121911908
 20
558.15649201206656
 30
0.0
 11
-362.11081219119092
 21
558.15649201206656
 31
0.0
  0
ARC
  5
1F587
  8
AM_0
 10
-360.8975621911909
 20
576.83029201206671
 30
0.0
 40
1.0062370999999981
 50
89.615244000002477
 51
113.0046199999997
  0
ARC
  5
1F588
  8
AM_0
 10
-360.96814219119091
 20
574.88150201206656
 30
0.0
 40
1.015145099999998
 50
89.021618999999077
 51
106.16766999999921
  0
LINE
  5
1F589
  8
AM_0
 10
-358.1108121911908
 20
568.15649201206656
 30
0.0
 11
-362.11081219119092
 21
568.15649201206656
 31
0.0
  0
ARC
  5
1F58A
  8
AM_0
 10
-358.10178219119069
 20
569.14746201206674
 30
0.0
 40
0.9910124499999998
 50
269.47800000000427
 51
0.5220023800002595
  0
LINE
  5
1F58B
  8
AM_0
 10
-357.1108121911908
 20
576.46649201206674
 30
0.0
 11
-347.1108121911908
 21
576.46649201206674
 31
0.0
  0
LINE
  5
1F58C
  8
AM_0
 10
-360.89081219119089
 20
577.83651201206669
 30
0.0
 11
-357.81079219119101
 21
577.83651201206669
 31
0.0
  0
ARC
  5
1F58D
  8
AM_0
 10
-358.11710219119112
 20
574.89019201206645
 30
0.0
 40
1.0063294999999981
 50
0.3592537599972889
 51
89.640748000001025
  0
LINE
  5
1F58E
  8
AM_0
 10
-360.95081219119089
 20
575.89651201206664
 30
0.0
 11
-358.1108121911908
 21
575.89651201206664
 31
0.0
  0
ARC
  5
1F58F
  8
AM_0
 10
-358.1186921911908
 20
565.14862201206665
 30
0.0
 40
1.0079203999999991
 50
0.4484899600013481
 51
89.551511999995284
  0
ARC
  5
1F590
  8
AM_0
 10
-362.11127219119078
 20
576.31182201206661
 30
0.0
 40
0.9995326999999996
 50
112.3150500000004
 51
179.73186999999979
  0
LINE
  5
1F591
  8
AM_0
 10
-361.1108121911908
 20
577.53649201206656
 30
0.0
 11
-361.1108121911908
 21
576.47650201206636
 31
0.0
  0
LINE
  5
1F592
  8
AM_0
 10
-361.25080219119093
 20
575.85650201206647
 30
0.0
 11
-362.39081219119078
 21
575.49652201206675
 31
0.0
  0
ARC
  5
1F593
  8
AM_0
 10
-362.1063621911909
 20
574.53317201206664
 30
0.0
 40
1.004450099999999
 50
106.45035000000421
 51
179.8098500000001
  0
LINE
  5
1F594
  8
AM_0
 10
-361.29080219119089
 20
577.75650201206656
 30
0.0
 11
-362.49079219119102
 21
577.23651201206656
 31
0.0
  0
LINE
  5
1F595
  8
AM_0
 10
-364.6108121911908
 20
562.1565220120666
 30
0.0
 11
-363.11081219119092
 21
562.27652201206649
 31
0.0
  0
LINE
  5
1F596
  8
AM_0
 10
-365.1047121911908
 20
560.14831201206675
 30
0.0
 11
-364.60468219119088
 21
560.10830201206659
 31
0.0
  0
LINE
  5
1F597
  8
AM_0
 10
-361.11081219119092
 20
567.77648201206671
 30
0.0
 11
-361.11081219119092
 21
566.41650201206664
 31
0.0
  0
ARC
  5
1F598
  8
AM_0
 10
-362.11859219119083
 20
567.14868201206673
 30
0.0
 40
0.9922232599999995
 50
179.5491599999971
 51
270.45085000000091
  0
ARC
  5
1F599
  8
AM_0
 10
-362.10172219119079
 20
567.14740201206655
 30
0.0
 40
1.009131199999999
 50
90.516126000001094
 51
179.48387000000039
  0
ARC
  5
1F59A
  8
AM_0
 10
-333.11081219119097
 20
537.15649201206656
 30
0.0
 40
1.000000699999998
 50
90.00000299999769
 51
270.0
  0
ARC
  5
1F59B
  8
AM_0
 10
-333.11081219119097
 20
547.15649201206645
 30
0.0
 40
1.0000031999999981
 50
90.00000299999769
 51
270.0
  0
ARC
  5
1F59C
  8
AM_0
 10
-333.11081219119097
 20
527.15649201206679
 30
0.0
 40
1.000000699999998
 50
90.00000299999769
 51
270.0
  0
ARC
  5
1F59D
  8
AM_0
 10
-333.11081219119097
 20
517.15649201206645
 30
0.0
 40
1.000000699999998
 50
90.00000299999769
 51
270.0
  0
ARC
  5
1F59E
  8
AM_0
 10
-362.10172219119079
 20
537.16558201206669
 30
0.0
 40
1.009131199999999
 50
180.51612999999961
 51
269.48387000000042
  0
ARC
  5
1F59F
  8
AM_0
 10
-350.84067219119078
 20
537.16650201206664
 30
0.0
 40
1.270038399999998
 50
89.554810999999916
 51
270.44518999999917
  0
ARC
  5
1F5A0
  8
AM_0
 10
-349.55078219119082
 20
537.15649201206656
 30
0.0
 40
1.000012399999999
 50
90.00000299999769
 51
270.0
  0
ARC
  5
1F5A1
  8
AM_0
 10
-358.10178219119069
 20
535.16552201206662
 30
0.0
 40
0.9910124499999998
 50
359.47800000000427
 51
90.521999999995629
  0
LINE
  5
1F5A2
  8
AM_0
 10
-365.60471219119091
 20
557.37835201206667
 30
0.0
 11
-365.60471219119091
 21
526.93472201206635
 31
0.0
  0
LINE
  5
1F5A3
  8
AM_0
 10
-358.1108121911908
 20
546.15649201206656
 30
0.0
 11
-362.11081219119092
 21
546.15649201206656
 31
0.0
  0
LINE
  5
1F5A4
  8
AM_0
 10
-358.1108121911908
 20
538.15649201206656
 30
0.0
 11
-362.11081219119092
 21
538.15649201206656
 31
0.0
  0
LINE
  5
1F5A5
  8
AM_0
 10
-358.1108121911908
 20
548.15649201206668
 30
0.0
 11
-362.11081219119092
 21
548.15649201206668
 31
0.0
  0
LINE
  5
1F5A6
  8
AM_0
 10
-358.1108121911908
 20
556.15649201206656
 30
0.0
 11
-362.11081219119092
 21
556.15649201206656
 31
0.0
  0
ARC
  5
1F5A7
  8
AM_0
 10
-349.55951219119072
 20
547.15649201206645
 30
0.0
 40
1.000037999999998
 50
89.500716000000082
 51
270.49928999999509
  0
ARC
  5
1F5A8
  8
AM_0
 10
-350.84079219119093
 20
547.16149201206656
 30
0.0
 40
1.265004999999999
 50
90.00000299999769
 51
270.0
  0
ARC
  5
1F5A9
  8
AM_0
 10
-358.1186921911908
 20
555.14862201206665
 30
0.0
 40
1.0079203999999991
 50
0.4484899600013481
 51
89.551511999995284
  0
ARC
  5
1F5AA
  8
AM_0
 10
-358.10178219119069
 20
549.14746201206663
 30
0.0
 40
0.9910124499999998
 50
269.47800000000427
 51
0.5220023800002595
  0
ARC
  5
1F5AB
  8
AM_0
 10
-358.1186921911908
 20
539.16439201206663
 30
0.0
 40
1.0079203999999991
 50
270.44848999999721
 51
359.55151000000279
  0
ARC
  5
1F5AC
  8
AM_0
 10
-358.1186921911908
 20
545.14862201206665
 30
0.0
 40
1.0079203999999991
 50
0.4484899600013481
 51
89.551511999995284
  0
LINE
  5
1F5AD
  8
AM_0
 10
-361.11081219119092
 20
547.75650201206668
 30
0.0
 11
-361.11081219119092
 21
546.59649201206662
 31
0.0
  0
ARC
  5
1F5AE
  8
AM_0
 10
-362.11859219119083
 20
547.14868201206662
 30
0.0
 40
0.9922232599999995
 50
179.5491599999971
 51
270.45085000000091
  0
ARC
  5
1F5AF
  8
AM_0
 10
-362.11859219119083
 20
557.14868201206627
 30
0.0
 40
0.9922232599999995
 50
179.5491599999971
 51
270.45085000000091
  0
ARC
  5
1F5B0
  8
AM_0
 10
-362.10172219119079
 20
547.14740201206655
 30
0.0
 40
1.009131199999999
 50
90.516126000001094
 51
179.48387000000039
  0
LINE
  5
1F5B1
  8
AM_0
 10
-361.11081219119092
 20
557.75650201206656
 30
0.0
 11
-361.11081219119092
 21
556.53649201206656
 31
0.0
  0
POINT
  5
1F5B2
  8
AM_0
 10
-365.6047121911908
 20
542.15649201206645
 30
0.0
  0
LINE
  5
1F5B3
  8
AM_0
 10
-361.11081219119092
 20
536.55651201206661
 30
0.0
 11
-361.11081219119092
 21
537.71649201206651
 31
0.0
  0
ARC
  5
1F5B4
  8
AM_0
 10
-362.11859219119083
 20
537.16430201206663
 30
0.0
 40
0.9922232599999995
 50
89.549154999998109
 51
180.4508500000008
  0
LINE
  5
1F5B5
  8
AM_0
 10
-358.1108121911908
 20
518.15649201206656
 30
0.0
 11
-362.11081219119092
 21
518.15649201206656
 31
0.0
  0
LINE
  5
1F5B6
  8
AM_0
 10
-358.1108121911908
 20
516.15649201206668
 30
0.0
 11
-362.11081219119092
 21
516.15649201206668
 31
0.0
  0
LINE
  5
1F5B7
  8
AM_0
 10
-358.1108121911908
 20
528.15649201206668
 30
0.0
 11
-362.11081219119092
 21
528.15649201206668
 31
0.0
  0
LINE
  5
1F5B8
  8
AM_0
 10
-358.1108121911908
 20
526.15649201206656
 30
0.0
 11
-362.11081219119092
 21
526.15649201206656
 31
0.0
  0
LINE
  5
1F5B9
  8
AM_0
 10
-358.1108121911908
 20
536.15649201206668
 30
0.0
 11
-362.11081219119092
 21
536.15649201206668
 31
0.0
  0
ARC
  5
1F5BA
  8
AM_0
 10
-358.10178219119069
 20
525.16552201206662
 30
0.0
 40
0.9910124499999998
 50
359.47800000000427
 51
90.521999999995629
  0
ARC
  5
1F5BB
  8
AM_0
 10
-350.77866219119079
 20
527.14651201206664
 30
0.0
 40
1.3300231999999981
 50
89.661532000000776
 51
270.33848000000393
  0
ARC
  5
1F5BC
  8
AM_0
 10
-349.55078219119082
 20
527.15649201206679
 30
0.0
 40
1.000012399999999
 50
90.00000299999769
 51
270.0
  0
ARC
  5
1F5BD
  8
AM_0
 10
-358.1186921911908
 20
529.16439201206663
 30
0.0
 40
1.0079203999999991
 50
270.44848999999721
 51
359.55151000000279
  0
ARC
  5
1F5BE
  8
AM_0
 10
-349.55960219119089
 20
517.15649201206645
 30
0.0
 40
1.0000386999999991
 50
89.495667999998645
 51
270.50433999999689
  0
ARC
  5
1F5BF
  8
AM_0
 10
-350.6481021911909
 20
517.13650201206644
 30
0.0
 40
1.460102599999999
 50
89.321007000001941
 51
270.67899999999781
  0
ARC
  5
1F5C0
  8
AM_0
 10
-358.10178219119069
 20
515.16552201206662
 30
0.0
 40
0.9910124499999998
 50
359.47800000000427
 51
90.521999999995629
  0
ARC
  5
1F5C1
  8
AM_0
 10
-358.1186921911908
 20
519.16439201206663
 30
0.0
 40
1.0079203999999991
 50
270.44848999999721
 51
359.55151000000279
  0
LINE
  5
1F5C2
  8
AM_0
 10
-365.60471219119091
 20
526.93472201206635
 30
0.0
 11
-365.1047121911908
 21
524.16470201206664
 31
0.0
  0
LINE
  5
1F5C3
  8
AM_0
 10
-361.11081219119092
 20
526.55651201206649
 30
0.0
 11
-361.11081219119092
 21
527.77648201206648
 31
0.0
  0
ARC
  5
1F5C4
  8
AM_0
 10
-362.11859219119083
 20
527.16430201206663
 30
0.0
 40
0.9922232599999995
 50
89.549154999998109
 51
180.4508500000008
  0
ARC
  5
1F5C5
  8
AM_0
 10
-362.10172219119079
 20
527.16558201206669
 30
0.0
 40
1.009131199999999
 50
180.51612999999961
 51
269.48387000000042
  0
LINE
  5
1F5C6
  8
AM_0
 10
-365.1047121911908
 20
524.16470201206664
 30
0.0
 11
-364.6047121911908
 21
524.20471201206658
 31
0.0
  0
LINE
  5
1F5C7
  8
AM_0
 10
-364.6108121911908
 20
522.15649201206645
 30
0.0
 11
-363.11081219119092
 21
522.03649201206645
 31
0.0
  0
LINE
  5
1F5C8
  8
AM_0
 10
-361.11081219119092
 20
516.53649201206667
 30
0.0
 11
-361.11081219119092
 21
517.89651201206664
 31
0.0
  0
ARC
  5
1F5C9
  8
AM_0
 10
-362.10172219119079
 20
517.16558201206658
 30
0.0
 40
1.009131199999999
 50
180.51612999999961
 51
269.48387000000042
  0
ARC
  5
1F5CA
  8
AM_0
 10
-362.11859219119083
 20
517.16430201206663
 30
0.0
 40
0.9922232599999995
 50
89.549154999998109
 51
180.4508500000008
  0
LINE
  5
1F5CB
  8
AM_0
 10
-311.11081219119092
 20
495.81649201206659
 30
0.0
 11
-217.29080219119101
 21
495.81649201206648
 31
0.0
  0
LINE
  5
1F5CC
  8
AM_0
 10
-332.11081219119097
 20
478.2765020120666
 30
0.0
 11
-217.3110420644874
 21
478.2765020120666
 31
0.0
  0
LINE
  5
1F5CD
  8
AM_0
 10
-332.11081219119097
 20
476.91650201206659
 30
0.0
 11
-217.3110420644874
 21
476.91650201206659
 31
0.0
  0
LINE
  5
1F5CE
  8
AM_0
 10
-332.11081219119097
 20
476.25650201206668
 30
0.0
 11
-217.3110420644874
 21
476.25650201206668
 31
0.0
  0
LINE
  5
1F5CF
  8
AM_0
 10
-349.55079971029051
 20
508.1564919709806
 30
0.0
 11
-277.11081219119097
 21
508.1564919709806
 31
0.0
  0
LINE
  5
1F5D0
  8
AM_0
 10
-350.44080219119093
 20
508.78649201206662
 30
0.0
 11
-277.11081219119097
 21
508.78649201206662
 31
0.0
  0
LINE
  5
1F5D1
  8
AM_0
 10
-350.44080219119093
 20
505.42651201206672
 30
0.0
 11
-277.11081219119097
 21
505.42651201206672
 31
0.0
  0
LINE
  5
1F5D2
  8
AM_0
 10
-277.11081219119097
 20
506.15649201206662
 30
0.0
 11
-349.56079219119101
 21
506.15649201206662
 31
0.0
  0
LINE
  5
1F5D3
  8
AM_0
 10
-332.11081219119097
 20
480.29650201206658
 30
0.0
 11
-277.11081219119097
 21
480.29650201206658
 31
0.0
  0
LINE
  5
1F5D4
  8
AM_0
 10
-232.610812191191
 20
508.78649201206662
 30
0.0
 11
-247.610812191191
 21
508.78649201206662
 31
0.0
  0
LINE
  5
1F5D5
  8
AM_0
 10
-217.29080219119101
 20
506.15649201206651
 30
0.0
 11
-277.11081219119097
 21
506.15649201206662
 31
0.0
  0
LINE
  5
1F5D6
  8
AM_0
 10
-217.29080219119101
 20
508.15649201206662
 30
0.0
 11
-277.11081219119097
 21
508.15649201206662
 31
0.0
  0
LINE
  5
1F5D7
  8
AM_0
 10
-277.11081219119097
 20
480.29650201206658
 30
0.0
 11
-217.29080219119101
 21
480.29650201206658
 31
0.0
  0
LINE
  5
1F5D8
  8
AM_0
 10
-277.11081219119097
 20
505.42651201206672
 30
0.0
 11
-217.29080219119101
 21
505.42651201206672
 31
0.0
  0
ARC
  5
1F5D9
  8
AM_0
 10
-210.1017221911909
 20
479.16558201206658
 30
0.0
 40
1.009131199999999
 50
180.51612999999961
 51
269.48387000000042
  0
ARC
  5
1F5DA
  8
AM_0
 10
-210.10239219119089
 20
491.12490201206663
 30
0.0
 40
1.008444499999998
 50
189.5460700000036
 51
269.52220000000051
  0
LINE
  5
1F5DB
  8
0
  6
CONTINUOUS
 62
     7
 10
-210.110812191191
 20
505.01651294728413
 30
0.0
 11
-202.110812191191
 21
505.01651294728413
 31
0.0
  0
LINE
  5
1F5DC
  8
0
  6
CONTINUOUS
 62
     7
 10
-210.110812191191
 20
490.11650294728389
 30
0.0
 11
-202.110812191191
 21
490.11650294728389
 31
0.0
  0
LINE
  5
1F5DD
  8
0
  6
CONTINUOUS
 62
     7
 10
-210.110812191191
 20
478.15650294728403
 30
0.0
 11
-202.110812191191
 21
478.15650294728403
 31
0.0
  0
LINE
  5
1F5DE
  8
AM_0
 10
-212.110812191191
 20
499.2965020120663
 30
0.0
 11
-212.110812191191
 21
491.6965020120665
 31
0.0
  0
LINE
  5
1F5DF
  8
AM_0
 10
-211.110812191191
 20
499.2965020120663
 30
0.0
 11
-211.110812191191
 21
491.6965020120665
 31
0.0
  0
ARC
  5
1F5E0
  8
AM_0
 10
-213.01081219119089
 20
493.69650201206639
 30
0.0
 40
1.7000007999999991
 50
180.00001000000091
 51
269.999979999998
  0
LINE
  5
1F5E1
  8
AM_0
 10
-217.29080219119101
 20
508.78649201206662
 30
0.0
 11
-231.610812191191
 21
508.78649201206662
 31
0.0
  0
ARC
  5
1F5E2
  8
AM_0
 10
-216.77079219119091
 20
507.15649201206651
 30
0.0
 40
1.0000073999999981
 50
270.0
 51
90.00000299999769
  0
LINE
  5
1F5E3
  8
AM_0
 10
-213.29080219119101
 20
508.78649201206662
 30
0.0
 11
-217.29080219119101
 21
508.78649201206662
 31
0.0
  0
LINE
  5
1F5E4
  8
AM_0
 10
-216.77079219119099
 20
506.15649201206651
 30
0.0
 11
-217.29080219119101
 21
506.15649201206651
 31
0.0
  0
LINE
  5
1F5E5
  8
AM_0
 10
-216.77079219119099
 20
508.15649201206662
 30
0.0
 11
-217.29080219119101
 21
508.15649201206662
 31
0.0
  0
LINE
  5
1F5E6
  8
AM_0
 10
-217.29080219119101
 20
505.42651201206672
 30
0.0
 11
-211.11081239293151
 21
505.42651201206672
 31
0.0
  0
ARC
  5
1F5E7
  8
AM_0
 10
-213.2969121911909
 20
507.10650201206653
 30
0.0
 40
1.680010999999999
 50
270.20802999999808
 51
89.791969000000449
  0
LINE
  5
1F5E8
  8
AM_0
 10
-217.29080219119101
 20
495.81649201206648
 30
0.0
 11
-214.71079219119099
 21
495.81649201206648
 31
0.0
  0
ARC
  5
1F5E9
  8
AM_0
 10
-213.01081219119089
 20
497.29650201206658
 30
0.0
 40
1.699996899999999
 50
90.00000299999769
 51
179.99998000000451
  0
LINE
  5
1F5EA
  8
AM_0
 10
-214.71079219119099
 20
497.29650201206658
 30
0.0
 11
-214.71079219119099
 21
493.69650201206639
 31
0.0
  0
LINE
  5
1F5EB
  8
AM_0
 10
-212.110812191191
 20
499.2965020120663
 30
0.0
 11
-211.110812191191
 21
499.2965020120663
 31
0.0
  0
LINE
  5
1F5EC
  8
AM_0
 10
-211.110812191191
 20
496.27386201206627
 30
0.0
 11
-212.110812191191
 21
495.6965320120666
 31
0.0
  0
ARC
  5
1F5ED
  8
AM_0
 10
-210.44995219119099
 20
494.32971201206658
 30
0.0
 40
1.4868058999999989
 50
116.38977999999901
 51
165.71726000000069
  0
LINE
  5
1F5EE
  8
AM_0
 10
-211.110812191191
 20
495.27386201206662
 30
0.0
 11
-212.110812191191
 21
494.69650201206628
 31
0.0
  0
LINE
  5
1F5EF
  8
AM_0
 10
-212.110812191191
 20
498.99649201206631
 30
0.0
 11
-213.01081219119089
 21
498.99649201206631
 31
0.0
  0
ARC
  5
1F5F0
  8
AM_0
 10
-231.61081219119089
 20
509.78649201206667
 30
0.0
 40
0.9999999999999998
 50
180.0
 51
270.0
1001
GENIUS_GENOBJ-N-FIL_13
1002
{
1000
OWNER
1000
GEN
1002
}
1001
GENIUS_GENODEF_13
1002
{
1000
HIER
1070
     0
1002
}
1002
{
1000
MANEDIT
1070
     0
1002
}
1002
{
1000
NOSEL
1070
     0
1002
}
1002
{
1000
BEHIND
1070
     0
1002
}
1002
{
1000
OTHER
1070
     0
1002
}
1002
{
1000
REACTOR
1002
}
  0
CIRCLE
  5
1F5F1
  8
AM_0
 10
-242.61081219119089
 20
513.65646201206664
 30
0.0
 40
0.75
  0
CIRCLE
  5
1F5F2
  8
AM_0
 10
-237.61081219119089
 20
513.65646201206664
 30
0.0
 40
0.75
  0
LINE
  5
1F5F3
  8
AM_0
 10
-215.35080219119101
 20
481.79649201206661
 30
0.0
 11
-212.61499219119099
 21
491.9964920120666
 31
0.0
  0
LINE
  5
1F5F4
  8
AM_0
 10
-215.35080219119101
 20
477.75649201206659
 30
0.0
 11
-213.79564973198239
 21
483.55461216073502
 31
0.0
  0
LINE
  5
1F5F5
  8
AM_0
 10
-215.35080219119101
 20
478.41649201206678
 30
0.0
 11
-213.42550804981559
 21
485.5946221607353
 31
0.0
  0
LINE
  5
1F5F6
  8
AM_0
 10
-215.35080219119101
 20
479.77649201206663
 30
0.0
 11
-212.7013230498157
 21
489.65462216073502
 31
0.0
  0
LINE
  5
1F5F7
  8
AM_0
 10
-212.110812191191
 20
491.6965020120665
 30
0.0
 11
-211.110812191191
 21
491.6965020120665
 31
0.0
  0
ARC
  5
1F5F8
  8
AM_0
 10
-211.86392731104709
 20
483.03649201206667
 30
0.0
 40
2.0
 50
90.0
 51
164.9857024015775
1001
GENIUS_GENOBJ-N-FIL_13
1002
{
1000
OWNER
1000
GEN
1002
}
1001
GENIUS_GENODEF_13
1002
{
1000
HIER
1070
     0
1002
}
1002
{
1000
MANEDIT
1070
     0
1002
}
1002
{
1000
NOSEL
1070
     0
1002
}
1002
{
1000
BEHIND
1070
     0
1002
}
1002
{
1000
OTHER
1070
     0
1002
}
1002
{
1000
REACTOR
1002
}
  0
LINE
  5
1F5F9
  8
AM_0
 10
-213.39281784235769
 20
487.07650201206661
 30
0.0
 11
-211.4937856288804
 21
487.07650201206661
 31
0.0
  0
LINE
  5
1F5FA
  8
AM_0
 10
-213.57520785785761
 20
485.03649201206662
 30
0.0
 11
-211.86392731104709
 21
485.03649201206662
 31
0.0
  0
ARC
  5
1F5FB
  8
AM_0
 10
-210.76960062888031
 20
489.1365020120665
 30
0.0
 40
2.0
 50
99.823049039721241
 51
164.9857024015775
1001
GENIUS_GENOBJ-N-FIL_13
1002
{
1000
OWNER
1000
GEN
1002
}
1001
GENIUS_GENODEF_13
1002
{
1000
HIER
1070
     0
1002
}
1002
{
1000
MANEDIT
1070
     0
1002
}
1002
{
1000
NOSEL
1070
     0
1002
}
1002
{
1000
BEHIND
1070
     0
1002
}
1002
{
1000
OTHER
1070
     0
1002
}
1002
{
1000
REACTOR
1002
}
  0
LINE
  5
1F5FC
  8
AM_0
 10
-212.8456558423577
 20
491.13650201206661
 30
0.0
 11
-211.1108124225814
 21
491.13650201206661
 31
0.0
  0
LINE
  5
1F5FD
  8
AM_0
 10
-212.110812191191
 20
491.99650201206663
 30
0.0
 11
-213.01081219119089
 21
491.99650201206663
 31
0.0
  0
ARC
  5
1F5FE
  8
AM_0
 10
-211.49378562888049
 20
485.07650201206661
 30
0.0
 40
2.0
 50
90.0
 51
164.9857024015775
1001
GENIUS_GENODEF_13
1002
{
1000
HIER
1070
     0
1002
}
1002
{
1000
MANEDIT
1070
     0
1002
}
1002
{
1000
NOSEL
1070
     0
1002
}
1002
{
1000
BEHIND
1070
     0
1002
}
1002
{
1000
OTHER
1070
     0
1002
}
1002
{
1000
REACTOR
1002
}
1001
GENIUS_GENOBJ-N-FIL_13
1002
{
1000
OWNER
1000
GEN
1002
}
  0
ARC
  5
1F5FF
  8
AM_0
 10
-217.300452191191
 20
478.27349201206658
 30
0.0
 40
2.0170177999999992
 50
270.27370000000269
 51
345.14839999999219
  0
ARC
  5
1F600
  8
AM_0
 10
-217.300452191191
 20
478.93349201206661
 30
0.0
 40
2.0170177999999992
 50
270.27370000000269
 51
345.14839999999219
  0
ARC
  5
1F601
  8
AM_0
 10
-217.300452191191
 20
480.29349201206662
 30
0.0
 40
2.0170177999999992
 50
270.27370000000269
 51
345.14839999999219
  0
LINE
  5
1F602
  8
AM_0
 10
-214.30475450902421
 20
481.6565020120666
 30
0.0
 11
-211.1108124422513
 21
481.6565020120666
 31
0.0
  0
ARC
  5
1F603
  8
AM_0
 10
-217.300452191191
 20
482.3134920120666
 30
0.0
 40
2.0170177999999992
 50
270.27370000000269
 51
345.14839999999219
  0
LINE
  5
1F604
  8
AM_0
 10
-248.610812191191
 20
508.78649201206662
 30
0.0
 11
-277.11081219119097
 21
508.78649201206662
 31
0.0
  0
ARC
  5
1F605
  8
AM_0
 10
-248.61081219119089
 20
509.78649201206667
 30
0.0
 40
0.9999999999999998
 50
270.0
 51
0.0
1001
GENIUS_GENOBJ-N-FIL_13
1002
{
1000
OWNER
1000
GEN
1002
}
1001
GENIUS_GENODEF_13
1002
{
1000
HIER
1070
     0
1002
}
1002
{
1000
MANEDIT
1070
     0
1002
}
1002
{
1000
NOSEL
1070
     0
1002
}
1002
{
1000
BEHIND
1070
     0
1002
}
1002
{
1000
OTHER
1070
     0
1002
}
1002
{
1000
REACTOR
1002
}
  0
LINE
  5
1F606
  8
AM_0
 10
-348.93079219119107
 20
483.89649201206657
 30
0.0
 11
-335.61081219119097
 21
483.89649201206657
 31
0.0
  0
LINE
  5
1F607
  8
AM_0
 10
-348.87079219119101
 20
489.1764920120666
 30
0.0
 11
-335.61081219119097
 21
489.1764920120666
 31
0.0
  0
LINE
  5
1F608
  8
AM_0
 10
-348.99079219119079
 20
478.85650201206658
 30
0.0
 11
-335.49079219119079
 21
478.85650201206658
 31
0.0
  0
LINE
  5
1F609
  8
AM_0
 10
-348.9708021911909
 20
480.49650201206663
 30
0.0
 11
-335.61081219119097
 21
480.49650201206663
 31
0.0
  0
ARC
  5
1F60A
  8
AM_0
 10
-347.47142619183762
 20
504.51705201206642
 30
0.0
 40
6.0113901999999966
 50
273.43915000000089
 51
314.59595999999948
  0
ARC
  5
1F60B
  8
AM_0
 10
-347.92723619183778
 20
500.5649120120666
 30
0.0
 40
4.9987220999999984
 50
5.4135635000036668
 51
80.599940999997955
  0
LINE
  5
1F60C
  8
AM_0
 10
-311.11081219119092
 20
495.81649201206659
 30
0.0
 11
-347.11081219119092
 21
497.46923229389608
 31
0.0
  0
ARC
  5
1F60D
  8
AM_0
 10
-333.11081219119097
 20
507.15649201206651
 30
0.0
 40
1.000000699999998
 50
90.00000299999769
 51
270.0
  0
ARC
  5
1F60E
  8
AM_0
 10
-343.96058619183782
 20
500.95892201206658
 30
0.0
 40
1.0127640999999981
 50
314.49466000000098
 51
4.3932527999978959
  0
ARC
  5
1F60F
  8
AM_0
 10
-332.10147219119079
 20
482.30583201206662
 30
0.0
 40
2.0093488999999991
 50
180.26596000000029
 51
269.73403999999971
  0
LINE
  5
1F610
  8
AM_0
 10
-334.11081219119097
 20
480.2765020120666
 30
0.0
 11
-334.11081219119097
 21
487.6764920120666
 31
0.0
  0
ARC
  5
1F611
  8
AM_0
 10
-335.60349219119098
 20
487.68380201206668
 30
0.0
 40
1.4927157999999989
 50
359.7197199999996
 51
90.280279000000149
  0
ARC
  5
1F612
  8
AM_0
 10
-335.60465219119101
 20
482.40266201206663
 30
0.0
 40
1.4938501999999989
 50
359.76363999999887
 51
90.236360999997927
  0
ARC
  5
1F613
  8
AM_0
 10
-332.10288219119087
 20
478.25218201206661
 30
0.0
 40
1.9956942999999989
 50
194.97487999999859
 51
269.77264999999852
  0
ARC
  5
1F614
  8
AM_0
 10
-332.10330219119078
 20
478.92399201206672
 30
0.0
 40
2.007501099999998
 50
180.2136999999978
 51
269.78631000000109
  0
ARC
  5
1F615
  8
AM_0
 10
-332.10565219119098
 20
480.28166201206659
 30
0.0
 40
2.0051612999999988
 50
180.14728999999971
 51
269.85271000000017
  0
ARC
  5
1F616
  8
AM_0
 10
-335.60666219119088
 20
479.00062201206657
 30
0.0
 40
1.4958794999999989
 50
359.84196000000082
 51
90.158045999997867
  0
ARC
  5
1F617
  8
AM_0
 10
-335.47888219119108
 20
477.36044201206658
 30
0.0
 40
1.4961156999999989
 50
14.55818600000117
 51
90.456504999996014
  0
LINE
  5
1F618
  8
AM_0
 10
-361.11081219119092
 20
492.67649201206672
 30
0.0
 11
-361.11081219119092
 21
493.19650201206662
 31
0.0
  0
LINE
  5
1F619
  8
AM_0
 10
-361.33081219119111
 20
492.55650201206657
 30
0.0
 11
-362.61078219119088
 21
493.27648201206659
 31
0.0
  0
LINE
  5
1F61A
  8
AM_0
 10
-351.37079219119101
 20
493.81649201206659
 30
0.0
 11
-350.85080219119089
 21
490.83650201206649
 31
0.0
  0
ARC
  5
1F61B
  8
AM_0
 10
-360.81729219119092
 20
495.52761201206641
 30
0.0
 40
1.0112084999999991
 50
239.4811900000027
 51
269.23431000000238
  0
ARC
  5
1F61C
  8
AM_0
 10
-360.83322219119088
 20
494.56094201206668
 30
0.0
 40
1.005138299999998
 50
241.63205999999801
 51
267.85770999999949
  0
ARC
  5
1F61D
  8
AM_0
 10
-360.81855219119097
 20
501.18316201206659
 30
0.0
 40
1.0067359999999981
 50
239.41356999999849
 51
269.30193999999898
  0
ARC
  5
1F61E
  8
AM_0
 10
-360.80515219119081
 20
500.0468120120666
 30
0.0
 40
1.0103179999999981
 50
237.31141999999809
 51
269.67985999999871
  0
ARC
  5
1F61F
  8
AM_0
 10
-360.85251219119078
 20
496.66970201206658
 30
0.0
 40
1.0131911999999981
 50
241.8312399999989
 51
270.09627999999941
  0
ARC
  5
1F620
  8
AM_0
 10
-360.8975621911909
 20
507.48272201206652
 30
0.0
 40
1.0062370999999981
 50
246.99537999999981
 51
270.38475999999571
  0
ARC
  5
1F621
  8
AM_0
 10
-360.96814219119091
 20
509.43148201206662
 30
0.0
 40
1.015145099999998
 50
253.83233000000081
 51
270.978379999997
  0
LINE
  5
1F622
  8
AM_0
 10
-347.11081219119092
 20
502.65649201206651
 30
0.0
 11
-347.11081219119092
 21
505.43649201206659
 31
0.0
  0
LINE
  5
1F623
  8
AM_0
 10
-347.11081219119092
 20
493.81649201206659
 30
0.0
 11
-347.11081219119092
 21
505.42651201206672
 31
0.0
  0
LINE
  5
1F624
  8
AM_0
 10
-357.11081219119092
 20
507.85650201206658
 30
0.0
 11
-351.93904133238078
 21
507.85650201206658
 31
0.0
  0
ARC
  5
1F625
  8
AM_0
 10
-349.55960219119089
 20
507.15649201206651
 30
0.0
 40
1.0000386999999991
 50
89.495667999998645
 51
270.50433999999689
  0
ARC
  5
1F626
  8
AM_0
 10
-350.43079219119079
 20
507.11651201206661
 30
0.0
 40
1.6800001999999989
 50
90.00000299999769
 51
270.0
  0
LINE
  5
1F627
  8
AM_0
 10
-360.89081219119089
 20
506.47650201206659
 30
0.0
 11
-357.81079219119113
 21
506.47650201206659
 31
0.0
  0
ARC
  5
1F628
  8
AM_0
 10
-358.11710219119112
 20
509.4228220120666
 30
0.0
 40
1.0063294999999981
 50
270.359249999996
 51
359.640750000004
  0
LINE
  5
1F629
  8
AM_0
 10
-360.95081219119101
 20
508.41650201206659
 30
0.0
 11
-358.1108121911908
 21
508.41650201206659
 31
0.0
  0
ARC
  5
1F62A
  8
AM_0
 10
-357.80637219119092
 20
505.78094201206659
 30
0.0
 40
0.69557893
 50
359.63466000000051
 51
90.365335999997185
  0
LINE
  5
1F62B
  8
AM_0
 10
-357.11081219119092
 20
499.47650201206659
 30
0.0
 11
-347.11081219119092
 21
499.47650201206659
 31
0.0
  0
LINE
  5
1F62C
  8
AM_0
 10
-357.11081219119092
 20
493.81649201206659
 30
0.0
 11
-347.11081219119092
 21
493.81649201206659
 31
0.0
  0
LINE
  5
1F62D
  8
AM_0
 10
-360.87079219119101
 20
493.55650201206657
 30
0.0
 11
-357.61081219119109
 21
493.55650201206657
 31
0.0
  0
LINE
  5
1F62E
  8
AM_0
 10
-360.83081219119089
 20
494.51651201206658
 30
0.0
 11
-357.11081219119092
 21
494.51651201206658
 31
0.0
  0
ARC
  5
1F62F
  8
AM_0
 10
-358.11786219119068
 20
496.6635720120666
 30
0.0
 40
1.0070831999999981
 50
270.40157999999838
 51
359.59842000000162
  0
LINE
  5
1F630
  8
AM_0
 10
-360.8107921911909
 20
499.03649201206667
 30
0.0
 11
-357.11081219119092
 21
499.03649201206667
 31
0.0
  0
ARC
  5
1F631
  8
AM_0
 10
-358.11621219119081
 20
501.18191201206668
 30
0.0
 40
1.005422699999998
 50
270.30818999999678
 51
359.69181000000327
  0
LINE
  5
1F632
  8
AM_0
 10
-360.83081219119089
 20
500.17651201206661
 30
0.0
 11
-358.1108121911908
 21
500.17651201206661
 31
0.0
  0
LINE
  5
1F633
  8
AM_0
 10
-360.85080219119089
 20
495.65649201206662
 30
0.0
 11
-358.1108121911908
 21
495.65649201206662
 31
0.0
  0
ARC
  5
1F634
  8
AM_0
 10
-357.61716219119091
 20
494.06286201206672
 30
0.0
 40
0.50640076
 50
270.71969999999823
 51
359.28029999999518
  0
ARC
  5
1F635
  8
AM_0
 10
-362.11127219119078
 20
508.00119201206638
 30
0.0
 40
0.9995326999999996
 50
180.26813000000021
 51
247.6849499999995
  0
LINE
  5
1F636
  8
AM_0
 10
-361.11081219119092
 20
506.77648201206659
 30
0.0
 11
-361.11081219119092
 21
507.83651201206658
 31
0.0
  0
LINE
  5
1F637
  8
AM_0
 10
-361.25083219119102
 20
508.45651201206658
 30
0.0
 11
-362.39081219119078
 21
508.8165220120664
 31
0.0
  0
ARC
  5
1F638
  8
AM_0
 10
-362.1063621911909
 20
509.77984201206658
 30
0.0
 40
1.004450099999999
 50
180.1901499999997
 51
253.54964999999581
  0
LINE
  5
1F639
  8
AM_0
 10
-361.29080219119101
 20
506.55651201206638
 30
0.0
 11
-362.49079219119102
 21
507.07650201206661
 31
0.0
  0
ARC
  5
1F63A
  8
AM_0
 10
-362.10364219119089
 20
494.14669201206658
 30
0.0
 40
1.007194199999998
 50
179.44232
 51
239.7665800000016
  0
ARC
  5
1F63B
  8
AM_0
 10
-362.10581219119092
 20
497.32751201206668
 30
0.0
 40
1.0050607999999981
 50
180.62839999999889
 51
242.44118999999611
  0
ARC
  5
1F63C
  8
AM_0
 10
-362.10907219119088
 20
500.89910201206652
 30
0.0
 40
1.0017338999999981
 50
180.14953999999739
 51
237.26237000000449
  0
ARC
  5
1F63D
  8
AM_0
 10
-362.105262191191
 20
501.92578201206658
 30
0.0
 40
1.005592899999999
 50
180.5283799999988
 51
239.81867000000111
  0
ARC
  5
1F63E
  8
AM_0
 10
-362.11182219119092
 20
496.3019420120666
 30
0.0
 40
0.9989832599999996
 50
180.3123899999988
 51
240.03463999999849
  0
ARC
  5
1F63F
  8
AM_0
 10
-362.10776219119077
 20
495.19641201206662
 30
0.0
 40
1.003051899999998
 50
179.9942300000022
 51
243.78734999999941
  0
LINE
  5
1F640
  8
AM_0
 10
-361.11081219119092
 20
499.33651201206658
 30
0.0
 11
-361.11081219119092
 21
499.81649201206659
 31
0.0
  0
LINE
  5
1F641
  8
AM_0
 10
-361.11081219119092
 20
494.77648201206642
 30
0.0
 11
-361.11081219119092
 21
495.31649201206659
 31
0.0
  0
LINE
  5
1F642
  8
AM_0
 10
-361.33078219119102
 20
495.77648201206659
 30
0.0
 11
-362.57080219119092
 21
496.43652201206658
 31
0.0
  0
LINE
  5
1F643
  8
AM_0
 10
-361.33081219119111
 20
500.31649201206659
 30
0.0
 11
-362.6108121911908
 21
501.05651201206661
 31
0.0
  0
LINE
  5
1F644
  8
AM_0
 10
-361.35080219119101
 20
499.1965320120666
 30
0.0
 11
-362.65082219119091
 21
500.05651201206672
 31
0.0
  0
LINE
  5
1F645
  8
AM_0
 10
-361.31079219119118
 20
493.6764920120666
 30
0.0
 11
-362.55078219119099
 21
494.29647201206672
 31
0.0
  0
LINE
  5
1F646
  8
AM_0
 10
-361.33081219119111
 20
494.65652201206672
 30
0.0
 11
-362.61078219119088
 21
495.43649201206659
 31
0.0
  0
ARC
  5
1F647
  8
AM_0
 10
-360.81992219119093
 20
493.4182520120666
 30
0.0
 40
1.001807999999998
 50
239.33833000000391
 51
269.37717999999609
  0
LINE
  5
1F648
  8
AM_0
 10
-350.9108021911909
 20
482.03649201206662
 30
0.0
 11
-351.83078219119102
 21
485.91650201206659
 31
0.0
  0
LINE
  5
1F649
  8
AM_0
 10
-350.93079219119107
 20
480.37652201206652
 30
0.0
 11
-351.81079219119118
 21
483.91651201206662
 31
0.0
  0
ARC
  5
1F64A
  8
AM_0
 10
-353.2609621911908
 20
483.53773201206673
 30
0.0
 40
1.4987989999999991
 50
14.638135000001229
 51
90.376557999996933
  0
LINE
  5
1F64B
  8
AM_0
 10
-353.27079219119111
 20
485.03649201206662
 30
0.0
 11
-351.63080219119092
 21
485.03649201206662
 31
0.0
  0
LINE
  5
1F64C
  8
AM_0
 10
-353.29080219119101
 20
487.07650201206661
 30
0.0
 11
-351.23081219119081
 21
487.07650201206661
 31
0.0
  0
ARC
  5
1F64D
  8
AM_0
 10
-353.31964219119078
 20
489.63755201206658
 30
0.0
 40
1.498966199999999
 50
11.503675999999871
 51
89.661532000000776
  0
LINE
  5
1F64E
  8
AM_0
 10
-353.31079219119101
 20
491.13650201206661
 30
0.0
 11
-350.89081219119078
 21
491.13650201206661
 31
0.0
  0
ARC
  5
1F64F
  8
AM_0
 10
-353.29447219119089
 20
485.57310201206639
 30
0.0
 40
1.5034073999999991
 50
13.20385600000488
 51
89.860414000000233
  0
LINE
  5
1F650
  8
AM_0
 10
-357.11081219119092
 20
484.77876568197399
 30
0.0
 11
-352.27082219119092
 21
484.67651201206638
 31
0.0
  0
ARC
  5
1F651
  8
AM_0
 10
-348.93170219119082
 20
485.90107201206672
 30
0.0
 40
2.0045697999999992
 50
192.22790999999751
 51
270.02595999999647
  0
ARC
  5
1F652
  8
AM_0
 10
-348.87439219119102
 20
491.18305201206658
 30
0.0
 40
2.0065659999999981
 50
189.94568000000089
 51
270.10246999999578
  0
LINE
  5
1F653
  8
AM_0
 10
-350.89078219119079
 20
485.47651201206662
 30
0.0
 11
-351.85080219119101
 21
489.93650201206663
 31
0.0
  0
LINE
  5
1F654
  8
AM_0
 10
-360.83081219119089
 20
492.41650201206659
 30
0.0
 11
-357.61081219119109
 21
492.41650201206659
 31
0.0
  0
ARC
  5
1F655
  8
AM_0
 10
-357.6064521911909
 20
491.92085201206658
 30
0.0
 40
0.4956644499999998
 50
359.49662000000052
 51
90.503381000000445
  0
ARC
  5
1F656
  8
AM_0
 10
-348.9835221911909
 20
480.86383201206672
 30
0.0
 40
2.007332599999998
 50
194.0500600000006
 51
269.79217999999878
  0
ARC
  5
1F657
  8
AM_0
 10
-348.96451219119081
 20
482.49638201206659
 30
0.0
 40
1.9998908999999989
 50
193.29430000000099
 51
269.8195799999985
  0
ARC
  5
1F658
  8
AM_0
 10
-55.610778425159033
 20
274.31216587985892
 30
0.0
 40
14.0
 50
106.6015495990207
 51
73.3984504009793
  0
CIRCLE
  5
1F659
  8
ｽﾝﾎﾟｳｾﾝ
 10
-55.610778425159033
 20
274.31216587985892
 30
0.0
 40
4.0
  0
LINE
  5
1F65A
  8
AM_0
 10
-59.610778425159012
 20
291.31216587985892
 30
0.0
 11
-51.610778425159019
 21
291.31216587985892
 31
0.0
  0
LINE
  5
1F65B
  8
AM_0
 10
-51.610778425159019
 20
284.31216587985892
 30
0.0
 11
-59.610778425159012
 21
284.31216587985892
 31
0.0
  0
LINE
  5
1F65C
  8
AM_0
 10
-59.610778425159012
 20
284.31216587985892
 30
0.0
 11
-59.610778425159012
 21
291.31216587985892
 31
0.0
  0
LINE
  5
1F65D
  8
AM_0
 10
-51.610778425159019
 20
291.31216587985892
 30
0.0
 11
-51.610778425159019
 21
284.31216587985892
 31
0.0
  0
ARC
  5
1F65F
  8
0
  6
CONTINUOUS
 62
     7
 10
-55.610778425159033
 20
274.31216587985892
 30
0.0
 40
37.5
 50
180.0
 51
0.0
  0
ARC
  5
1F661
  8
0
  6
CONTINUOUS
 62
     7
 10
-55.610778425159033
 20
274.31216587985892
 30
0.0
 40
37.5
 50
0.0
 51
180.0
  0
CIRCLE
  5
1F6E5
  8
AM_0
 10
-55.610778425159033
 20
274.31216587985892
 30
0.0
 40
3.399999999999999
  0
LINE
  5
1F6E6
  8
AM_0
 10
-92.610778425158955
 20
494.15646100386988
 30
0.0
 11
-84.610778425158685
 21
494.15646100386988
 31
0.0
  0
LINE
  5
1F6E7
  8
AM_0
 10
-82.610778425158685
 20
500.15646100387011
 30
0.0
 11
-94.610778425159054
 21
500.15646100387011
 31
0.0
  0
LINE
  5
1F6E8
  8
AM_0
 10
-93.110779542745917
 20
595.15646404370671
 30
0.0
 11
-18.11077730757178
 21
595.15646404370671
 31
0.0
  0
LINE
  5
1F6E9
  8
AM_0
 10
-93.110779542745917
 20
489.1564532552656
 30
0.0
 11
-18.110777307571759
 21
489.15645325526577
 31
0.0
  0
LINE
  5
1F6EA
  8
AM_0
 10
-164.73397412866399
 20
591.15647155389263
 30
0.0
 11
7.2660613429145542
 21
591.15647155389252
 31
0.0
  0
LINE
  5
1F6EB
  8
AM_0
 10
-164.7339741286639
 20
493.15646100386982
 30
0.0
 11
7.2660613429145391
 21
493.15646100387022
 31
0.0
  0
LINE
  5
1F6EC
  8
AM_0
 10
-164.61081219119109
 20
513.15646159991616
 30
0.0
 11
7.3892234523873412
 21
513.15646159991661
 31
0.0
  0
LINE
  5
1F6ED
  8
ﾁｭｳｼﾝｾﾝ1
 10
-371.85471219119103
 20
542.15646246418351
 30
0.0
 11
13.63922345238738
 21
542.15646246418362
 31
0.0
1001
GENIUS_GENODEF_13
1002
{
1000
HIER
1070
     0
1002
}
1002
{
1000
MANEDIT
1070
     0
1002
}
1002
{
1000
NOSEL
1070
     0
1002
}
1002
{
1000
BEHIND
1070
     0
1002
}
1002
{
1000
REACTOR
1002
}
1001
GENIUS_GENOBJ-N-CEN_13
1002
{
1000
OWNER
1000
GEN
1002
}
  0
LINE
  5
1F6EE
  8
AM_0
 10
-191.11081219119109
 20
603.65645746418409
 30
0.0
 11
-191.11081219119109
 21
480.65647746418381
 31
0.0
  0
LINE
  5
1F6EF
  8
AM_0
 10
-164.6108121911152
 20
513.15646159991616
 30
0.0
 11
-163.24930092014611
 21
591.15647155389252
 31
0.0
  0
LINE
  5
1F6F3
  8
AM_0
 10
-202.110812191191
 20
606.15649246418411
 30
0.0
 11
-202.110812191191
 21
478.15647746418381
 31
0.0
  0
LINE
  5
1F6F4
  8
AM_0
 10
-202.110812191191
 20
505.01648746418391
 30
0.0
 11
-192.11081219119089
 21
505.01648746418391
 31
0.0
  0
LINE
  5
1F6F5
  8
AM_0
 10
-202.1108534578415
 20
505.01647746420622
 30
0.0
 11
-192.11085345784781
 21
505.01646635309481
 31
0.0
  0
LINE
  5
1F6F6
  8
AM_0
 10
-202.110812191191
 20
490.11647746418379
 30
0.0
 11
-192.11081219119089
 21
490.11647746418379
 31
0.0
  0
LINE
  5
1F6F7
  8
AM_0
 10
-202.1108700134084
 20
490.11646746421548
 30
0.0
 11
-192.1108700134146
 21
490.11645635310413
 31
0.0
  0
LINE
  5
1F6F8
  8
AM_0
 10
-202.110812191191
 20
478.15647746418381
 30
0.0
 11
-192.98420936359551
 21
478.15647746418381
 31
0.0
  0
LINE
  5
1F6F9
  8
AM_0
 10
-172.252181735639
 20
513.33077308541169
 30
0.0
 11
-174.95108514304229
 21
482.48216597868827
 31
0.0
  0
LINE
  5
1F6FA
  8
AM_0
 10
-188.11081219119109
 20
480.65647746418381
 30
0.0
 11
-176.9434745392258
 21
480.65647746418398
 31
0.0
  0
ARC
  5
1F6FB
  8
AM_0
 10
-188.11081219119109
 20
477.65647746418381
 30
0.0
 40
2.9999999999999978
 50
90.000000000000057
 51
144.31466528734541
1001
GENIUS_GENOBJ-N-FIL_13
1002
{
1000
OWNER
1000
GEN
1002
}
1001
GENIUS_GENODEF_13
1002
{
1000
HIER
1070
     0
1002
}
1002
{
1000
MANEDIT
1070
     0
1002
}
1002
{
1000
NOSEL
1070
     0
1002
}
1002
{
1000
BEHIND
1070
     0
1002
}
1002
{
1000
OTHER
1070
     0
1002
}
1002
{
1000
REACTOR
1002
}
  0
ARC
  5
1F6FC
  8
AM_0
 10
-192.98420936359551
 20
481.15647746418352
 30
0.0
 40
2.9999999999999978
 50
270.0
 51
324.31466528734541
1001
GENIUS_GENOBJ-N-FIL_13
1002
{
1000
OWNER
1000
GEN
1002
}
1001
GENIUS_GENODEF_13
1002
{
1000
HIER
1070
     0
1002
}
1002
{
1000
MANEDIT
1070
     0
1002
}
1002
{
1000
NOSEL
1070
     0
1002
}
1002
{
1000
BEHIND
1070
     0
1002
}
1002
{
1000
OTHER
1070
     0
1002
}
1002
{
1000
REACTOR
1002
}
  0
ARC
  5
1F6FD
  8
AM_0
 10
-176.94347453922589
 20
482.65647746418398
 30
0.0
 40
2.0
 50
270.0
 51
355.00000000000023
1001
GENIUS_GENOBJ-N-FIL_13
1002
{
1000
OWNER
1000
GEN
1002
}
1001
GENIUS_GENODEF_13
1002
{
1000
HIER
1070
     0
1002
}
1002
{
1000
MANEDIT
1070
     0
1002
}
1002
{
1000
NOSEL
1070
     0
1002
}
1002
{
1000
BEHIND
1070
     0
1002
}
1002
{
1000
OTHER
1070
     0
1002
}
1002
{
1000
REACTOR
1002
}
  0
ARC
  5
1F6FE
  8
AM_0
 10
-170.2597923394554
 20
513.15646159991616
 30
0.0
 40
2.0
 50
90.000000000000057
 51
175.0000000000002
1001
GENIUS_GENOBJ-N-FIL_13
1002
{
1000
OWNER
1000
GEN
1002
}
1001
GENIUS_GENODEF_13
1002
{
1000
HIER
1070
     0
1002
}
1002
{
1000
MANEDIT
1070
     0
1002
}
1002
{
1000
NOSEL
1070
     0
1002
}
1002
{
1000
BEHIND
1070
     0
1002
}
1002
{
1000
OTHER
1070
     0
1002
}
1002
{
1000
REACTOR
1002
}
  0
LINE
  5
1F6FF
  8
AM_0
 10
-164.2617216046155
 20
493.15646100386982
 30
0.0
 11
-164.61081219119109
 21
513.15646159991616
 31
0.0
  0
ARC
  5
1F700
  8
AM_0
 10
-165.5935092522692
 20
514.15646159991638
 30
0.0
 40
1.0
 50
358.99998822650252
 51
90.000000000000057
1001
GENIUS_GENOBJ-N-FIL_13
1002
{
1000
OWNER
1000
GEN
1002
}
1001
GENIUS_GENODEF_13
1002
{
1000
HIER
1070
     0
1002
}
1002
{
1000
MANEDIT
1070
     0
1002
}
1002
{
1000
NOSEL
1070
     0
1002
}
1002
{
1000
BEHIND
1070
     0
1002
}
1002
{
1000
OTHER
1070
     0
1002
}
1002
{
1000
REACTOR
1002
}
  0
LINE
  5
1F701
  8
AM_0
 10
-170.2597923394554
 20
515.15646159991638
 30
0.0
 11
-165.5935092522692
 21
515.15646159991638
 31
0.0
  0
LINE
  5
1F702
  8
AM_0
 10
-93.610778425158955
 20
500.15646100387011
 30
0.0
 11
-93.610778425158955
 21
495.15646100386982
 31
0.0
  0
LINE
  5
1F703
  8
AM_0
 10
-94.610778425159054
 20
493.15646100386982
 30
0.0
 11
-94.610778425159054
 21
500.15646100387011
 31
0.0
  0
ARC
  5
1F704
  8
AM_0
 10
-92.610778425158955
 20
495.15646100386982
 30
0.0
 40
1.0
 50
180.0
 51
270.0
1001
GENIUS_GENOBJ-N-FIL_13
1002
{
1000
OWNER
1000
GEN
1002
}
1001
GENIUS_GENODEF_13
1002
{
1000
HIER
1070
     0
1002
}
1002
{
1000
MANEDIT
1070
     0
1002
}
1002
{
1000
NOSEL
1070
     0
1002
}
1002
{
1000
BEHIND
1070
     0
1002
}
1002
{
1000
OTHER
1070
     0
1002
}
1002
{
1000
REACTOR
1002
}
  0
LINE
  5
1F705
  8
AM_0
 10
-93.110779542745917
 20
489.1564532552656
 30
0.0
 11
-93.110779542745917
 21
493.15645337447478
 31
0.0
  0
LINE
  5
1F706
  8
AM_0
 10
-202.110812191191
 20
606.15645746418409
 30
0.0
 11
-192.98420936359551
 21
606.15645746418409
 31
0.0
  0
LINE
  5
1F707
  8
AM_0
 10
-202.110812191191
 20
594.1964574641836
 30
0.0
 11
-192.11081219119089
 21
594.1964574641836
 31
0.0
  0
LINE
  5
1F708
  8
AM_0
 10
-202.110812191191
 20
579.29644746418364
 30
0.0
 11
-192.11081219119089
 21
579.29644746418364
 31
0.0
  0
LINE
  5
1F709
  8
AM_0
 10
-178.278116077124
 20
589.15647155389252
 30
0.0
 11
-165.2496055834086
 21
589.15647155389252
 31
0.0
  0
LINE
  5
1F70A
  8
AM_0
 10
-181.2196357654463
 20
601.83076894967928
 30
0.0
 11
-180.27050547330751
 21
590.98216006839698
 31
0.0
  0
ARC
  5
1F70B
  8
AM_0
 10
-178.27811607712411
 20
591.15647155389206
 30
0.0
 40
2.0
 50
184.9999999999998
 51
270.0
1001
GENIUS_GENOBJ-N-FIL_13
1002
{
1000
OWNER
1000
GEN
1002
}
1001
GENIUS_GENODEF_13
1002
{
1000
HIER
1070
     0
1002
}
1002
{
1000
MANEDIT
1070
     0
1002
}
1002
{
1000
NOSEL
1070
     0
1002
}
1002
{
1000
BEHIND
1070
     0
1002
}
1002
{
1000
OTHER
1070
     0
1002
}
1002
{
1000
REACTOR
1002
}
  0
LINE
  5
1F70C
  8
AM_0
 10
-188.11081219119109
 20
603.65645746418409
 30
0.0
 11
-183.21202516162981
 21
603.65645746418375
 31
0.0
  0
ARC
  5
1F70D
  8
AM_0
 10
-192.98420936359551
 20
603.15645746418375
 30
0.0
 40
2.9999999999999978
 50
35.685334712654637
 51
90.000000000000057
1001
GENIUS_GENOBJ-N-FIL_13
1002
{
1000
OWNER
1000
GEN
1002
}
1001
GENIUS_GENODEF_13
1002
{
1000
HIER
1070
     0
1002
}
1002
{
1000
MANEDIT
1070
     0
1002
}
1002
{
1000
NOSEL
1070
     0
1002
}
1002
{
1000
BEHIND
1070
     0
1002
}
1002
{
1000
OTHER
1070
     0
1002
}
1002
{
1000
REACTOR
1002
}
  0
ARC
  5
1F70E
  8
AM_0
 10
-188.11081219119109
 20
606.65645746418375
 30
0.0
 40
2.9999999999999978
 50
215.68533471265459
 51
270.0
1001
GENIUS_GENOBJ-N-FIL_13
1002
{
1000
OWNER
1000
GEN
1002
}
1001
GENIUS_GENODEF_13
1002
{
1000
HIER
1070
     0
1002
}
1002
{
1000
MANEDIT
1070
     0
1002
}
1002
{
1000
NOSEL
1070
     0
1002
}
1002
{
1000
BEHIND
1070
     0
1002
}
1002
{
1000
OTHER
1070
     0
1002
}
1002
{
1000
REACTOR
1002
}
  0
ARC
  5
1F70F
  8
AM_0
 10
-183.21202516162981
 20
601.65645746418375
 30
0.0
 40
2.0
 50
4.9999999999998028
 51
90.000000000000057
1001
GENIUS_GENOBJ-N-FIL_13
1002
{
1000
OWNER
1000
GEN
1002
}
1001
GENIUS_GENODEF_13
1002
{
1000
HIER
1070
     0
1002
}
1002
{
1000
MANEDIT
1070
     0
1002
}
1002
{
1000
NOSEL
1070
     0
1002
}
1002
{
1000
BEHIND
1070
     0
1002
}
1002
{
1000
OTHER
1070
     0
1002
}
1002
{
1000
REACTOR
1002
}
  0
ARC
  5
1F710
  8
AM_0
 10
-165.24960558340871
 20
591.15647155389206
 30
0.0
 40
2.0
 50
270.0
 51
358.99998822644392
1001
GENIUS_GENOBJ-N-FIL_13
1002
{
1000
OWNER
1000
GEN
1002
}
1001
GENIUS_GENODEF_13
1002
{
1000
HIER
1070
     0
1002
}
1002
{
1000
MANEDIT
1070
     0
1002
}
1002
{
1000
NOSEL
1070
     0
1002
}
1002
{
1000
BEHIND
1070
     0
1002
}
1002
{
1000
OTHER
1070
     0
1002
}
1002
{
1000
REACTOR
1002
}
  0
LINE
  5
1F711
  8
AM_0
 10
-93.110779542745917
 20
595.15646404370671
 30
0.0
 11
-93.110779542745917
 21
591.15646392449753
 31
0.0
  0
LINE
  5
1F712
  8
ﾁｭｳｼﾝｾﾝ1
 10
-55.610778425158969
 20
427.14945637519861
 30
0.0
 11
-55.610778425158912
 21
604.15647179231064
 31
0.0
  0
LINE
  5
1F716
  8
AM_0
 10
7.3892234523873412
 20
513.15646159991661
 30
0.0
 11
6.0277426989213012
 21
591.15647155389252
 31
0.0
  0
LINE
  5
1F717
  8
AM_0
 10
-33.110777754606602
 20
485.15645313605643
 30
0.0
 11
-33.110777754606602
 21
489.1564532552656
 31
0.0
  0
LINE
  5
1F718
  8
AM_0
 10
-78.110779095711095
 20
485.15645313605643
 30
0.0
 11
-78.110779095711095
 21
489.1564532552656
 31
0.0
  0
LINE
  5
1F719
  8
AM_0
 10
-33.110777754606602
 20
485.15645313605643
 30
0.0
 11
-78.110779095711095
 21
485.15645313605643
 31
0.0
  0
LINE
  5
1F71A
  8
AM_0
 10
-83.610778425158685
 20
495.15646100386982
 30
0.0
 11
-83.610778425158685
 21
500.15646100387011
 31
0.0
  0
LINE
  5
1F71B
  8
AM_0
 10
-82.610778425158685
 20
493.15646100386982
 30
0.0
 11
-82.610778425158685
 21
500.15646100387011
 31
0.0
  0
ARC
  5
1F71C
  8
AM_0
 10
-84.610778425158685
 20
495.15646100386982
 30
0.0
 40
1.0
 50
270.0
 51
0.0
1001
GENIUS_GENOBJ-N-FIL_13
1002
{
1000
OWNER
1000
GEN
1002
}
1001
GENIUS_GENODEF_13
1002
{
1000
HIER
1070
     0
1002
}
1002
{
1000
MANEDIT
1070
     0
1002
}
1002
{
1000
NOSEL
1070
     0
1002
}
1002
{
1000
BEHIND
1070
     0
1002
}
1002
{
1000
OTHER
1070
     0
1002
}
1002
{
1000
REACTOR
1002
}
  0
LINE
  5
1F71D
  8
AM_0
 10
-18.110777307571759
 20
489.15645325526577
 30
0.0
 11
-18.110777307571759
 21
493.15645337447518
 31
0.0
  0
LINE
  5
1F71E
  8
AM_0
 10
7.0401328658117546
 20
493.15646100387022
 30
0.0
 11
7.3892234523873412
 21
513.15646159991661
 31
0.0
  0
LINE
  5
1F71F
  8
AM_0
 10
-18.11077730757178
 20
595.15646404370671
 30
0.0
 11
-18.11077730757178
 21
591.15646392449753
 31
0.0
  0
LINE
  5
1F720
  8
ｶｸﾚｾﾝ2
 10
-233.61087219119139
 20
242.8121433798585
 30
0.0
 11
-307.6108721911915
 21
242.8121433798585
 31
0.0
  0
LINE
  5
1F721
  8
ｶｸﾚｾﾝ2
 10
-230.6108721911915
 20
245.8121433798585
 30
0.0
 11
-230.6108721911915
 21
302.81214337985853
 31
0.0
  0
ARC
  5
1F722
  8
ｶｸﾚｾﾝ2
 10
-233.6108721911915
 20
245.8121433798587
 30
0.0
 40
3.0
 50
270.0
 51
0.0
  0
LINE
  5
1F723
  8
ｶｸﾚｾﾝ2
 10
-233.61087219119139
 20
305.81214337985853
 30
0.0
 11
-307.6108721911915
 21
305.81214337985853
 31
0.0
  0
ARC
  5
1F724
  8
ｶｸﾚｾﾝ2
 10
-233.61087219119159
 20
302.8121433798587
 30
0.0
 40
3.0
 50
0.0
 51
90.000000000000057
  0
LINE
  5
1F725
  8
ｶｸﾚｾﾝ2
 10
-310.6108721911915
 20
302.81214337985853
 30
0.0
 11
-310.6108721911915
 21
245.8121433798585
 31
0.0
  0
ARC
  5
1F726
  8
ｶｸﾚｾﾝ2
 10
-307.61087219119162
 20
302.81214337985853
 30
0.0
 40
3.0
 50
90.000000000000057
 51
180.0
  0
ARC
  5
1F727
  8
ｶｸﾚｾﾝ2
 10
-307.61087219119162
 20
245.8121433798585
 30
0.0
 40
3.0
 50
180.0
 51
270.0
  0
LINE
  5
1F728
  8
AM_0
 10
-335.11084219119152
 20
338.20212337985862
 30
0.0
 11
-282.11084219119152
 21
338.20212337985862
 31
0.0
  0
LINE
  5
1F729
  8
AM_0
 10
-335.11084219119152
 20
339.5521333798585
 30
0.0
 11
-282.11084219119152
 21
339.5521333798585
 31
0.0
  0
LINE
  5
1F72A
  8
AM_0
 10
-335.11084219119152
 20
340.23212337985859
 30
0.0
 11
-282.11084219119152
 21
340.23212337985859
 31
0.0
  0
LINE
  5
1F72B
  8
AM_0
 10
-335.1108421911913
 20
210.42213237985851
 30
0.0
 11
-282.11084219119141
 21
210.42213237985851
 31
0.0
  0
LINE
  5
1F72C
  8
AM_0
 10
-335.1108421911913
 20
209.07211837985861
 30
0.0
 11
-282.11084219119141
 21
209.07211837985861
 31
0.0
  0
LINE
  5
1F72D
  8
AM_0
 10
-335.1108421911913
 20
208.40213637985849
 30
0.0
 11
-282.11084219119141
 21
208.40213637985849
 31
0.0
  0
LINE
  5
1F72E
  8
AM_0
 10
-313.11084219119141
 20
227.96212337985861
 30
0.0
 11
-214.71082205756491
 21
227.96212337985861
 31
0.0
  0
LINE
  5
1F72F
  8
AM_0
 10
-313.11084219119141
 20
320.66213337985857
 30
0.0
 11
-214.71082205756491
 21
320.66213337985857
 31
0.0
  0
LINE
  5
1F730
  8
AM_0
 10
-217.76081219119141
 20
238.3121433798585
 30
0.0
 11
-352.5607921911913
 21
238.3121433798585
 31
0.0
  0
LINE
  5
1F731
  8
AM_0
 10
-335.11084219119152
 20
336.17212337985859
 30
0.0
 11
-218.3008521911915
 21
336.17212337985859
 31
0.0
  0
LINE
  5
1F732
  8
AM_0
 10
-335.1108421911913
 20
212.4521313798586
 30
0.0
 11
-218.3008521911915
 21
212.4521313798586
 31
0.0
  0
LINE
  5
1F733
  8
AM_0
 10
-344.43085219119138
 20
311.0321233798586
 30
0.0
 11
-214.29084219119159
 21
311.0321233798586
 31
0.0
  0
LINE
  5
1F734
  8
AM_0
 10
-217.76081219119141
 20
310.31214337985853
 30
0.0
 11
-343.56079219119152
 21
310.31214337985853
 31
0.0
  0
LINE
  5
1F735
  8
AM_0
 10
-217.76081219119141
 20
240.31213337985849
 30
0.0
 11
-352.5607921911913
 21
240.31213337985849
 31
0.0
  0
LINE
  5
1F736
  8
AM_0
 10
-214.29084219119159
 20
240.9421333798586
 30
0.0
 11
-353.43085219119138
 21
240.9421333798586
 31
0.0
  0
LINE
  5
1F737
  8
AM_0
 10
-353.43085219119138
 20
237.59212337985849
 30
0.0
 11
-214.29084219119159
 21
237.59212337985849
 31
0.0
  0
LINE
  5
1F738
  8
AM_0
 10
-214.29084219119159
 20
307.68212337985858
 30
0.0
 11
-344.43085219119138
 21
307.68212337985858
 31
0.0
  0
LINE
  5
1F739
  8
AM_0
 10
-215.16587219119151
 20
248.3121292798584
 30
0.0
 11
-352.56079219119152
 21
248.31212337985849
 31
0.0
  0
LINE
  5
1F73A
  8
AM_0
 10
-215.1658721388315
 20
250.31213747985859
 30
0.0
 11
-352.56079219119152
 21
250.3121433798585
 31
0.0
  0
LINE
  5
1F73B
  8
AM_0
 10
-353.65082219119148
 20
247.8321333798585
 30
0.0
 11
-214.0758421911915
 21
247.8321233798585
 31
0.0
  0
LINE
  5
1F73C
  8
AM_0
 10
-353.65082219119148
 20
250.7521433798585
 30
0.0
 11
-214.07584211474611
 21
250.7521233798586
 31
0.0
  0
LINE
  5
1F73D
  8
AM_0
 10
-353.78083219119139
 20
257.9721233798586
 30
0.0
 11
-213.94583219119161
 21
257.97214337985861
 31
0.0
  0
LINE
  5
1F73E
  8
AM_0
 10
-215.17586664903251
 20
258.31214535010031
 30
0.0
 11
-352.55085219119161
 21
258.31214337985853
 31
0.0
  0
LINE
  5
1F73F
  8
AM_0
 10
-215.1758665443131
 20
260.31214141052942
 30
0.0
 11
-352.55085219119161
 21
260.31212337985852
 31
0.0
  0
LINE
  5
1F740
  8
AM_0
 10
-353.78083219119139
 20
260.63213337985837
 30
0.0
 11
-213.945832121553
 21
260.63214337985841
 31
0.0
  0
LINE
  5
1F741
  8
AM_0
 10
-353.84082219119142
 20
268.04213337985851
 30
0.0
 11
-213.88584219119161
 21
268.0421193798586
 31
0.0
  0
LINE
  5
1F742
  8
AM_0
 10
-215.17586664903251
 20
268.3121253501003
 30
0.0
 11
-352.55085219119161
 21
268.31214337985853
 31
0.0
  0
LINE
  5
1F743
  8
AM_0
 10
-215.1758665443131
 20
270.31212141052941
 30
0.0
 11
-352.55085219119161
 21
270.31214337985853
 31
0.0
  0
LINE
  5
1F744
  8
AM_0
 10
-353.84082219119142
 20
270.58213337985848
 30
0.0
 11
-213.88584212469431
 21
270.58212737985849
 31
0.0
  0
LINE
  5
1F745
  8
AM_0
 10
-353.84082219119142
 20
278.0521333798585
 30
0.0
 11
-213.88584219119161
 21
278.05210937985862
 31
0.0
  0
LINE
  5
1F746
  8
AM_0
 10
-215.17586664903251
 20
278.3121253501003
 30
0.0
 11
-352.55085219119161
 21
278.31212337985852
 31
0.0
  0
LINE
  5
1F747
  8
AM_0
 10
-215.1758665443131
 20
280.31212141052941
 30
0.0
 11
-352.55085219119161
 21
280.31214337985853
 31
0.0
  0
LINE
  5
1F748
  8
AM_0
 10
-353.84082219119142
 20
280.58213337985859
 30
0.0
 11
-213.8858421249561
 21
280.58211737985852
 31
0.0
  0
LINE
  5
1F749
  8
AM_0
 10
-353.78083219119139
 20
287.99213337985861
 30
0.0
 11
-213.94583219119161
 21
287.99213337985861
 31
0.0
  0
LINE
  5
1F74A
  8
AM_0
 10
-215.17586664903251
 20
288.31214535010031
 30
0.0
 11
-352.55085219119161
 21
288.31212337985852
 31
0.0
  0
LINE
  5
1F74B
  8
AM_0
 10
-215.1758665443131
 20
290.31214141052942
 30
0.0
 11
-352.55085219119161
 21
290.31212337985852
 31
0.0
  0
LINE
  5
1F74C
  8
AM_0
 10
-353.78083219119139
 20
290.65212337985849
 30
0.0
 11
-213.945832121553
 21
290.65213337985841
 31
0.0
  0
LINE
  5
1F74D
  8
AM_0
 10
-344.65082219119159
 20
297.8721333798585
 30
0.0
 11
-214.0808321911916
 21
297.8721333798585
 31
0.0
  0
LINE
  5
1F74E
  8
AM_0
 10
-215.17086219119159
 20
298.31211927985828
 30
0.0
 11
-343.56079219119152
 21
298.31214337985853
 31
0.0
  0
LINE
  5
1F74F
  8
AM_0
 10
-215.17086213883161
 20
300.3121274798587
 30
0.0
 11
-343.56079219119152
 21
300.31212337985852
 31
0.0
  0
LINE
  5
1F750
  8
AM_0
 10
-344.65082219119159
 20
300.80211337985861
 30
0.0
 11
-214.08083211448431
 21
300.8021333798585
 31
0.0
  0
LINE
  5
1F751
  8
AM_0
 10
-217.76083119131391
 20
308.31212502559049
 30
0.0
 11
-343.56079219119152
 21
308.31212337985852
 31
0.0
  0
LINE
  5
1F752
  8
AM_0
 10
-363.11081219119148
 20
225.7221333798586
 30
0.0
 11
-363.11081219119171
 21
269.31215337985839
 31
0.0
  0
LINE
  5
1F753
  8
AM_0
 10
-358.1108721911915
 20
216.88214437985849
 30
0.0
 11
-358.1108721911915
 21
274.31214337985841
 31
0.0
  0
LINE
  5
1F754
  8
AM_0
 10
-364.6108121911916
 20
294.31213337985849
 30
0.0
 11
-364.6108121911916
 21
254.3121533798585
 31
0.0
  0
LINE
  5
1F755
  8
AM_0
 10
-365.60471219119148
 20
259.09025337985821
 30
0.0
 11
-365.60471219119148
 21
289.53388337985842
 31
0.0
  0
LINE
  5
1F756
  8
AM_0
 10
-354.39081219119129
 20
322.66213337985857
 30
0.0
 11
-353.85077219119148
 21
325.65213337985858
 31
0.0
  0
LINE
  5
1F757
  8
AM_0
 10
-361.11087219119139
 20
323.81214337985853
 30
0.0
 11
-361.11087219119139
 21
323.2821433798585
 31
0.0
  0
LINE
  5
1F758
  8
AM_0
 10
-361.34085219119152
 20
323.9321433798587
 30
0.0
 11
-362.6108721911915
 21
323.1921333798586
 31
0.0
  0
LINE
  5
1F759
  8
AM_0
 10
-358.1108721911915
 20
331.74213337985861
 30
0.0
 11
-358.1108721911915
 21
274.31214337985841
 31
0.0
  0
ARC
  5
1F75A
  8
AM_0
 10
-335.11628219119149
 20
337.55756337985838
 30
0.0
 40
1.9945760999999991
 50
89.844008000000045
 51
180.15599000000279
  0
ARC
  5
1F75B
  8
AM_0
 10
-335.10834219119153
 20
338.23728337985852
 30
0.0
 40
1.994844099999999
 50
90.071657999997896
 51
165.63720000000049
  0
LINE
  5
1F75C
  8
AM_0
 10
-352.00086219119129
 20
337.61212337985847
 30
0.0
 11
-338.50086219119129
 21
337.61212337985847
 31
0.0
  0
LINE
  5
1F75D
  8
AM_0
 10
-351.97083219119139
 20
335.98212337985859
 30
0.0
 11
-338.61084219119152
 21
335.98212337985859
 31
0.0
  0
LINE
  5
1F75E
  8
AM_0
 10
-351.94080219119161
 20
332.58213337985859
 30
0.0
 11
-338.61084219119152
 21
332.58213337985859
 31
0.0
  0
LINE
  5
1F75F
  8
AM_0
 10
-351.88086219119151
 20
327.29212337985859
 30
0.0
 11
-338.61084219119152
 21
327.29212337985859
 31
0.0
  0
ARC
  5
1F760
  8
AM_0
 10
-351.93915219119151
 20
330.58673337985829
 30
0.0
 40
1.9953879999999991
 50
90.048066999997786
 51
167.98461999999989
  0
LINE
  5
1F761
  8
AM_0
 10
-353.92084219119153
 20
334.4421333798586
 30
0.0
 11
-354.84088219119138
 21
330.56214337985853
 31
0.0
  0
ARC
  5
1F762
  8
AM_0
 10
-356.28254219119151
 20
332.93923337985859
 30
0.0
 40
1.5070961
 50
270.0648200000017
 51
345.90217999999669
  0
LINE
  5
1F763
  8
AM_0
 10
-356.28083219119139
 20
331.43213337985861
 30
0.0
 11
-354.63080219119138
 21
331.43213337985861
 31
0.0
  0
LINE
  5
1F764
  8
AM_0
 10
-358.11090219119143
 20
331.74213337985861
 30
0.0
 11
-355.29084219119142
 21
331.81212337985852
 31
0.0
  0
ARC
  5
1F765
  8
AM_0
 10
-352.00354219119151
 20
335.61435337985853
 30
0.0
 40
1.9977800999999991
 50
89.923080999997794
 51
165.8677699999968
  0
LINE
  5
1F766
  8
AM_0
 10
-353.9408621911914
 20
336.10214337985838
 30
0.0
 11
-354.82087219119148
 21
332.57215337985849
 31
0.0
  0
ARC
  5
1F767
  8
AM_0
 10
-351.97803219119152
 20
333.98667337985847
 30
0.0
 40
1.9954841000000001
 50
89.793457999999177
 51
166.80592000000161
  0
LINE
  5
1F768
  8
AM_0
 10
-356.32087219119148
 20
325.35211337985851
 30
0.0
 11
-353.90082219119148
 21
325.35211337985851
 31
0.0
  0
ARC
  5
1F769
  8
AM_0
 10
-356.31964219119152
 20
326.85626337985849
 30
0.0
 40
1.50414
 50
269.95424999999858
 51
347.55524999999648
  0
LINE
  5
1F76A
  8
AM_0
 10
-356.3008521911915
 20
329.41211337985851
 30
0.0
 11
-354.24085219119138
 21
329.41211337985851
 31
0.0
  0
ARC
  5
1F76B
  8
AM_0
 10
-356.30164219119149
 20
330.91493337985861
 30
0.0
 40
1.5028081
 50
270.03079000000162
 51
346.42217999999752
  0
ARC
  5
1F76C
  8
AM_0
 10
-360.84884219119158
 20
323.06626337985853
 30
0.0
 40
0.9959119600000002
 50
89.541444000000595
 51
119.6069900000017
  0
ARC
  5
1F76D
  8
AM_0
 10
-358.61545219119159
 20
324.56676337985863
 30
0.0
 40
0.5046359900000002
 50
270.52375999999953
 51
359.47624000000047
  0
LINE
  5
1F76E
  8
AM_0
 10
-360.84085219119152
 20
324.06214337985853
 30
0.0
 11
-358.6108121911916
 21
324.06214337985853
 31
0.0
  0
ARC
  5
1F76F
  8
AM_0
 10
-351.88898219119159
 20
325.29869337985849
 30
0.0
 40
1.993431999999999
 50
89.765883999999261
 51
169.7880300000003
  0
LINE
  5
1F770
  8
AM_0
 10
-353.8908121911914
 20
331.00212337985869
 30
0.0
 11
-354.85083219119161
 21
326.53212337985849
 31
0.0
  0
LINE
  5
1F771
  8
AM_0
 10
-337.11084219119152
 20
336.20212337985862
 30
0.0
 11
-337.11084219119152
 21
328.79212337985848
 31
0.0
  0
ARC
  5
1F772
  8
AM_0
 10
-335.11359219119151
 20
336.20491337985862
 30
0.0
 40
1.9972080000000001
 50
89.919857000000462
 51
180.08013999999889
  0
ARC
  5
1F773
  8
AM_0
 10
-335.11444219119147
 20
334.1757433798586
 30
0.0
 40
1.996383999999999
 50
89.896163000000044
 51
180.10384000000261
  0
ARC
  5
1F774
  8
AM_0
 10
-338.49720219119149
 20
339.11902337985862
 30
0.0
 40
1.506888
 50
269.8622299999995
 51
345.12306999999481
  0
ARC
  5
1F775
  8
AM_0
 10
-338.61469219119152
 20
337.4859633798585
 30
0.0
 40
1.503848099999999
 50
270.14640000000298
 51
359.8535999999969
  0
ARC
  5
1F776
  8
AM_0
 10
-338.61261219119149
 20
334.08391337985847
 30
0.0
 40
1.5017959999999979
 50
270.06854999999888
 51
359.93145000000112
  0
ARC
  5
1F777
  8
AM_0
 10
-338.61652219119151
 20
328.7977933798586
 30
0.0
 40
1.505676
 50
270.21551999999878
 51
359.78447000000102
  0
LINE
  5
1F778
  8
AM_0
 10
-364.6108121911916
 20
289.46215337985848
 30
0.0
 11
-360.33084219119149
 21
289.46215337985848
 31
0.0
  0
LINE
  5
1F779
  8
AM_0
 10
-359.11087219119139
 20
290.31214337985853
 30
0.0
 11
-362.1108721911915
 21
290.31214337985853
 31
0.0
  0
LINE
  5
1F77A
  8
AM_0
 10
-359.11087219119139
 20
288.31213337985849
 30
0.0
 11
-362.1108721911915
 21
288.31213337985849
 31
0.0
  0
LINE
  5
1F77B
  8
AM_0
 10
-359.11087219119139
 20
300.31213337985849
 30
0.0
 11
-362.1108721911915
 21
300.31213337985849
 31
0.0
  0
LINE
  5
1F77C
  8
AM_0
 10
-359.11087219119139
 20
298.31214337985853
 30
0.0
 11
-362.1108721911915
 21
298.31214337985853
 31
0.0
  0
LINE
  5
1F77D
  8
AM_0
 10
-361.3008721911915
 20
309.9221633798586
 30
0.0
 11
-362.50088219119152
 21
309.4121633798585
 31
0.0
  0
LINE
  5
1F77E
  8
AM_0
 10
-361.2508221911915
 20
308.01214337985851
 30
0.0
 11
-362.4008521911914
 21
307.6621333798584
 31
0.0
  0
LINE
  5
1F77F
  8
AM_0
 10
-361.35086219119148
 20
321.81214337985853
 30
0.0
 11
-362.63089219119172
 21
321.04215337985852
 31
0.0
  0
LINE
  5
1F780
  8
AM_0
 10
-361.36087219119139
 20
317.27210337985861
 30
0.0
 11
-362.66086219119171
 21
316.4221133798585
 31
0.0
  0
LINE
  5
1F781
  8
AM_0
 10
-361.34085219119152
 20
316.16212337985837
 30
0.0
 11
-362.62088219119141
 21
315.41212337985837
 31
0.0
  0
LINE
  5
1F782
  8
AM_0
 10
-361.32083219119158
 20
322.81217337985828
 30
0.0
 11
-362.56082219119162
 21
322.18217337985851
 31
0.0
  0
LINE
  5
1F783
  8
AM_0
 10
-361.33084219119161
 20
320.70216337985852
 30
0.0
 11
-362.58090219119163
 21
320.03216337985839
 31
0.0
  0
LINE
  5
1F784
  8
AM_0
 10
-359.11087219119139
 20
268.31214337985853
 30
0.0
 11
-362.1108721911915
 21
268.31214337985853
 31
0.0
  0
LINE
  5
1F785
  8
AM_0
 10
-359.11087219119139
 20
270.31213337985849
 30
0.0
 11
-362.1108721911915
 21
270.31213337985849
 31
0.0
  0
LINE
  5
1F786
  8
AM_0
 10
-359.11087219119139
 20
280.31214337985853
 30
0.0
 11
-362.1108721911915
 21
280.31214337985853
 31
0.0
  0
LINE
  5
1F787
  8
AM_0
 10
-359.11087219119139
 20
278.31214337985853
 30
0.0
 11
-362.1108721911915
 21
278.31214337985853
 31
0.0
  0
LINE
  5
1F788
  8
AM_0
 10
-363.11081219119171
 20
322.33215337985843
 30
0.0
 11
-363.11081219119171
 21
279.31213337985849
 31
0.0
  0
ARC
  5
1F789
  8
AM_0
 10
-362.11606219119159
 20
315.58974337985859
 30
0.0
 40
0.9948279899999999
 50
123.2046899999995
 51
180.43813
  0
ARC
  5
1F78A
  8
AM_0
 10
-362.11764219119158
 20
322.33006337985847
 30
0.0
 40
0.99319202
 50
119.7733999999995
 51
179.8795600000004
  0
ARC
  5
1F78B
  8
AM_0
 10
-362.11526219119162
 20
321.2918333798587
 30
0.0
 40
0.99558806
 50
116.58749000000221
 51
179.98225000000099
  0
ARC
  5
1F78C
  8
AM_0
 10
-362.1164221911917
 20
320.19111337985851
 30
0.0
 40
0.9944360299999999
 50
121.15217000000121
 51
179.9404899999993
  0
ARC
  5
1F78D
  8
AM_0
 10
-362.11764219119158
 20
319.15357337985841
 30
0.0
 40
0.9932120399999999
 50
117.79934000000149
 51
180.08183000000079
  0
ARC
  5
1F78E
  8
AM_0
 10
-362.11679219119162
 20
314.55534337985858
 30
0.0
 40
0.99407601
 50
120.4692000000008
 51
180.18464000000071
  0
ARC
  5
1F78F
  8
AM_0
 10
-362.11447219119162
 20
308.49372337985841
 30
0.0
 40
0.99640006
 50
112.8173899999983
 51
180.09039999999871
  0
ARC
  5
1F790
  8
AM_0
 10
-362.11459219119172
 20
306.7078933798586
 30
0.0
 40
0.9962600499999998
 50
106.69748999999911
 51
180.3304900000002
  0
ARC
  5
1F791
  8
AM_0
 10
-362.11581219119159
 20
299.31707337985853
 30
0.0
 40
0.9950800499999999
 50
89.715921000001273
 51
180.28406999999919
  0
ARC
  5
1F792
  8
AM_0
 10
-362.11069219119167
 20
299.31236337985871
 30
0.0
 40
1.0002040000000001
 50
180.01167000000461
 51
269.98832000000073
  0
LINE
  5
1F793
  8
AM_0
 10
-364.6108721911915
 20
294.3121633798583
 30
0.0
 11
-363.11087219119139
 21
294.44216337985853
 31
0.0
  0
ARC
  5
1F794
  8
AM_0
 10
-362.11581219119159
 20
289.31705337985858
 30
0.0
 40
0.99508399
 50
89.716133000000738
 51
180.2838699999979
  0
LINE
  5
1F795
  8
AM_0
 10
-364.6108121911916
 20
291.5921433798585
 30
0.0
 11
-363.11081219119171
 21
291.5921433798585
 31
0.0
  0
LINE
  5
1F796
  8
AM_0
 10
-365.10471219119131
 20
292.30390337985841
 30
0.0
 11
-364.60471219119148
 21
292.26389337985819
 31
0.0
  0
LINE
  5
1F797
  8
AM_0
 10
-365.60471219119148
 20
289.53388337985842
 30
0.0
 11
-365.10471219119131
 21
292.30390337985841
 31
0.0
  0
ARC
  5
1F798
  8
AM_0
 10
-362.11069219119167
 20
289.31234337985842
 30
0.0
 40
1.000199999999998
 50
180.0114699999998
 51
269.98853000000008
  0
ARC
  5
1F799
  8
AM_0
 10
-362.11581219119159
 20
279.31707337985853
 30
0.0
 40
0.9950879799999999
 50
89.716344999999606
 51
180.28365000000051
  0
ARC
  5
1F79A
  8
AM_0
 10
-362.11069219119167
 20
279.31234337985842
 30
0.0
 40
1.0001959999999981
 50
180.01124999999939
 51
269.98873999999938
  0
ARC
  5
1F79B
  8
AM_0
 10
-362.11581219119159
 20
269.31707337985853
 30
0.0
 40
0.9950800499999999
 50
89.715893999999523
 51
180.28409999999971
  0
POINT
  5
1F79C
  8
AM_0
 10
-365.60471219119131
 20
274.31211337985832
 30
0.0
  0
ARC
  5
1F79D
  8
AM_0
 10
-362.11069219119167
 20
269.3123633798586
 30
0.0
 40
1.0002040000000001
 50
180.01170000000161
 51
269.98829999999828
  0
LINE
  5
1F79E
  8
AM_0
 10
-313.11084219119141
 20
320.66211337985851
 30
0.0
 11
-348.11084219119152
 21
318.63211337985848
 31
0.0
  0
ARC
  5
1F79F
  8
AM_0
 10
-336.11084219119152
 20
309.31212337985852
 30
0.0
 40
1.0000040999999991
 50
90.000002999997704
 51
270.0
  0
ARC
  5
1F7A0
  8
AM_0
 10
-343.56079219119152
 20
309.31212337985852
 30
0.0
 40
1.0000040999999991
 50
90.000002999997704
 51
270.0
  0
ARC
  5
1F7A1
  8
AM_0
 10
-344.43085219119149
 20
309.35712337985871
 30
0.0
 40
1.6750081000000001
 50
90.000002999997704
 51
270.0
  0
LINE
  5
1F7A2
  8
AM_0
 10
-358.11084219119152
 20
308.62212337985852
 30
0.0
 11
-348.11084219119152
 21
308.62212337985852
 31
0.0
  0
LINE
  5
1F7A3
  8
AM_0
 10
-358.11084219119152
 20
322.66211337985828
 30
0.0
 11
-348.11084219119152
 21
322.66211337985828
 31
0.0
  0
LINE
  5
1F7A4
  8
AM_0
 10
-358.11084219119152
 20
317.00212337985857
 30
0.0
 11
-348.11084219119152
 21
317.00212337985857
 31
0.0
  0
ARC
  5
1F7A5
  8
AM_0
 10
-359.11325219119158
 20
315.29977337985849
 30
0.0
 40
1.002375999999999
 50
0.1355919900039293
 51
89.864409999999296
  0
ARC
  5
1F7A6
  8
AM_0
 10
-360.88608219119158
 20
321.91811337985848
 30
0.0
 40
0.9941280500000002
 50
89.122808000001939
 51
115.9348099999971
  0
ARC
  5
1F7A7
  8
AM_0
 10
-360.84201219119171
 20
320.95794337985848
 30
0.0
 40
0.9942600099999999
 50
89.355881999999298
 51
120.7810900000019
  0
ARC
  5
1F7A8
  8
AM_0
 10
-360.8757621911916
 20
319.81678337985858
 30
0.0
 40
0.99546796
 50
89.141448000001617
 51
117.2036599999999
  0
ARC
  5
1F7A9
  8
AM_0
 10
-359.10983219119157
 20
319.81313337985853
 30
0.0
 40
0.9990080599999998
 50
359.94314999999722
 51
90.056842999999347
  0
ARC
  5
1F7AA
  8
AM_0
 10
-358.60922219119158
 20
322.4137833798585
 30
0.0
 40
0.4983640000000002
 50
359.81141000000162
 51
90.188597999997583
  0
LINE
  5
1F7AB
  8
AM_0
 10
-360.83084219119161
 20
321.95213337985859
 30
0.0
 11
-358.1108721911915
 21
321.95213337985859
 31
0.0
  0
LINE
  5
1F7AC
  8
AM_0
 10
-360.86081219119171
 20
320.81214337985853
 30
0.0
 11
-359.11087219119139
 21
320.81214337985853
 31
0.0
  0
LINE
  5
1F7AD
  8
AM_0
 10
-360.87088219119141
 20
322.9121333798584
 30
0.0
 11
-358.6108121911916
 21
322.9121333798584
 31
0.0
  0
LINE
  5
1F7AE
  8
AM_0
 10
-361.11087219119139
 20
321.71215337985848
 30
0.0
 11
-361.11087219119139
 21
321.16215337985858
 31
0.0
  0
ARC
  5
1F7AF
  8
AM_0
 10
-360.80423219119149
 20
316.44595337985851
 30
0.0
 40
0.9962120099999999
 50
90.381905999998651
 51
123.96990000000081
  0
ARC
  5
1F7B0
  8
AM_0
 10
-360.83145219119172
 20
315.30566337985852
 30
0.0
 40
0.9965200400000001
 50
90.541212999999502
 51
120.7432799999994
  0
LINE
  5
1F7B1
  8
AM_0
 10
-360.81082219119162
 20
317.4421533798585
 30
0.0
 11
-358.1108721911915
 21
317.4421533798585
 31
0.0
  0
LINE
  5
1F7B2
  8
AM_0
 10
-360.84085219119152
 20
316.3021333798585
 30
0.0
 11
-359.11087219119139
 21
316.3021333798585
 31
0.0
  0
LINE
  5
1F7B3
  8
AM_0
 10
-361.11087219119139
 20
317.14213337985842
 30
0.0
 11
-361.11087219119139
 21
316.67214337985871
 31
0.0
  0
ARC
  5
1F7B4
  8
AM_0
 10
-360.9098821911914
 20
309.00666337985848
 30
0.0
 40
0.99548006
 50
90.057321000002005
 51
113.12703000000199
  0
ARC
  5
1F7B5
  8
AM_0
 10
-358.81540219119148
 20
310.70669337985851
 30
0.0
 40
0.7045519900000002
 50
270.36910999999952
 51
359.63089000000048
  0
LINE
  5
1F7B6
  8
AM_0
 10
-360.91086219119171
 20
310.00214337985852
 30
0.0
 11
-358.81088219119152
 21
310.00214337985852
 31
0.0
  0
LINE
  5
1F7B7
  8
AM_0
 10
-361.11087219119139
 20
309.70214337985863
 30
0.0
 11
-361.11087219119139
 21
308.64214337985862
 31
0.0
  0
ARC
  5
1F7B8
  8
AM_0
 10
-344.96094219119152
 20
315.52228337985861
 30
0.0
 40
1.004135999999999
 50
354.84883999999568
 51
45.797435999999799
  0
LINE
  5
1F7B9
  8
AM_0
 10
-348.11084219119152
 20
322.66211337985828
 30
0.0
 11
-348.11084219119152
 21
308.62212337985852
 31
0.0
  0
ARC
  5
1F7BA
  8
AM_0
 10
-348.4896321911915
 20
311.98018337985849
 30
0.0
 40
6.0039081999999979
 50
45.223692999999649
 51
86.382714000002196
  0
ARC
  5
1F7BB
  8
AM_0
 10
-348.94593219119162
 20
315.90990337985858
 30
0.0
 40
5.0078917000000001
 50
279.59872000000172
 51
354.52532000000059
  0
ARC
  5
1F7BC
  8
AM_0
 10
-359.11575219119158
 20
301.31705337985858
 30
0.0
 40
1.0049318999999981
 50
270.28041999999999
 51
359.7195799999966
  0
ARC
  5
1F7BD
  8
AM_0
 10
-360.97171219119161
 20
307.05943337985849
 30
0.0
 40
0.99277198
 50
89.374808000000087
 51
106.3318199999986
  0
ARC
  5
1F7BE
  8
AM_0
 10
-359.10916219119167
 20
307.05384337985851
 30
0.0
 40
0.99829602
 50
359.90204000000392
 51
90.097961000002215
  0
LINE
  5
1F7BF
  8
AM_0
 10
-360.96084219119172
 20
308.0521333798585
 30
0.0
 11
-359.11087219119139
 21
308.0521333798585
 31
0.0
  0
ARC
  5
1F7C0
  8
AM_0
 10
-359.11069219119167
 20
297.3122933798586
 30
0.0
 40
0.99985206
 50
359.9914500000001
 51
90.00854699999887
  0
LINE
  5
1F7C1
  8
AM_0
 10
-361.11087219119139
 20
299.94215337985861
 30
0.0
 11
-361.11087219119139
 21
298.57215337985838
 31
0.0
  0
ARC
  5
1F7C2
  8
AM_0
 10
-344.65082219119159
 20
299.33713337985859
 30
0.0
 40
1.4650000000000001
 50
90.000002999997704
 51
270.0
  0
ARC
  5
1F7C3
  8
AM_0
 10
-343.56079219119152
 20
299.31212337985852
 30
0.0
 40
1.0000040999999991
 50
90.000002999997704
 51
270.0
  0
ARC
  5
1F7C4
  8
AM_0
 10
-336.11084219119152
 20
299.31212337985852
 30
0.0
 40
1.0000040999999991
 50
90.000002999997704
 51
270.0
  0
ARC
  5
1F7C5
  8
AM_0
 10
-359.11069219119167
 20
277.31229337985849
 30
0.0
 40
0.99984801
 50
359.99122000000051
 51
90.008779000001411
  0
ARC
  5
1F7C6
  8
AM_0
 10
-353.78083219119151
 20
289.32213337985849
 30
0.0
 40
1.3300000000000001
 50
90.000002999997704
 51
270.0
  0
ARC
  5
1F7C7
  8
AM_0
 10
-359.11575219119158
 20
291.31705337985858
 30
0.0
 40
1.004928
 50
270.28021999999982
 51
359.7197800000003
  0
ARC
  5
1F7C8
  8
AM_0
 10
-359.11069219119167
 20
287.31228337985863
 30
0.0
 40
0.9998440099999999
 50
359.99100999999632
 51
90.008991000001856
  0
LINE
  5
1F7C9
  8
AM_0
 10
-361.11087219119139
 20
289.92213337985862
 30
0.0
 11
-361.11087219119139
 21
288.71215337985848
 31
0.0
  0
ARC
  5
1F7CA
  8
AM_0
 10
-352.55951219119152
 20
289.31214337985853
 30
0.0
 40
1.000035999999999
 50
89.500716000000125
 51
270.49929000000162
  0
ARC
  5
1F7CB
  8
AM_0
 10
-353.84082219119148
 20
279.3171133798586
 30
0.0
 40
1.265004
 50
90.000002999997704
 51
270.0
  0
LINE
  5
1F7CC
  8
AM_0
 10
-361.11087219119139
 20
279.9221433798586
 30
0.0
 11
-361.11087219119139
 21
278.76212337985851
 31
0.0
  0
ARC
  5
1F7CD
  8
AM_0
 10
-359.11575219119158
 20
281.3170433798586
 30
0.0
 40
1.0049238999999981
 50
270.28000999999961
 51
359.71998999999721
  0
ARC
  5
1F7CE
  8
AM_0
 10
-352.55951219119152
 20
279.31212337985852
 30
0.0
 40
1.000035999999999
 50
89.500716000000125
 51
270.49929000000162
  0
ARC
  5
1F7CF
  8
AM_0
 10
-336.11084219119152
 20
289.31214337985853
 30
0.0
 40
1.0000040999999991
 50
90.000002999997704
 51
270.0
  0
ARC
  5
1F7D0
  8
AM_0
 10
-336.11084219119152
 20
279.31212337985852
 30
0.0
 40
1.0000040999999991
 50
90.000002999997704
 51
270.0
  0
ARC
  5
1F7D1
  8
AM_0
 10
-352.55951219119152
 20
269.31212337985852
 30
0.0
 40
1.000035999999999
 50
89.500716000000125
 51
270.49929000000162
  0
ARC
  5
1F7D2
  8
AM_0
 10
-353.84082219119148
 20
269.31212337985852
 30
0.0
 40
1.270003999999999
 50
90.000002999997704
 51
270.0
  0
ARC
  5
1F7D3
  8
AM_0
 10
-359.11581219119171
 20
271.3170633798585
 30
0.0
 40
1.0049318999999981
 50
270.28044999999793
 51
359.719549999999
  0
ARC
  5
1F7D4
  8
AM_0
 10
-359.11069219119167
 20
267.31229337985849
 30
0.0
 40
0.99985206
 50
359.99142999999799
 51
90.008574000001275
  0
LINE
  5
1F7D5
  8
AM_0
 10
-361.11087219119139
 20
268.70213337985859
 30
0.0
 11
-361.11087219119139
 21
269.8621533798584
 31
0.0
  0
ARC
  5
1F7D6
  8
AM_0
 10
-336.11084219119152
 20
269.31212337985852
 30
0.0
 40
1.0000040999999991
 50
90.000002999997704
 51
270.0
  0
LINE
  5
1F7D7
  8
AM_0
 10
-361.34085219119152
 20
224.7021743798586
 30
0.0
 11
-362.6108721911915
 21
225.43217037985841
 31
0.0
  0
LINE
  5
1F7D8
  8
AM_0
 10
-361.32089219119149
 20
225.82216937985839
 30
0.0
 11
-362.56088219119152
 21
226.45216737985851
 31
0.0
  0
LINE
  5
1F7D9
  8
AM_0
 10
-361.36087219119139
 20
231.35215337985841
 30
0.0
 11
-362.66086219119148
 21
232.2021593798585
 31
0.0
  0
LINE
  5
1F7DA
  8
AM_0
 10
-361.35086219119148
 20
226.81217537985859
 30
0.0
 11
-362.63089219119149
 21
227.5821873798586
 31
0.0
  0
LINE
  5
1F7DB
  8
AM_0
 10
-361.34085219119152
 20
232.46216137985849
 30
0.0
 11
-362.62082219119151
 21
233.21214637985841
 31
0.0
  0
LINE
  5
1F7DC
  8
AM_0
 10
-361.33084219119161
 20
227.93214037985851
 30
0.0
 11
-362.58084219119161
 21
228.59212837985859
 31
0.0
  0
LINE
  5
1F7DD
  8
AM_0
 10
-361.3008721911915
 20
238.70216737985851
 30
0.0
 11
-362.50082219119139
 21
239.2221333798586
 31
0.0
  0
LINE
  5
1F7DE
  8
AM_0
 10
-361.2508221911915
 20
240.6121633798586
 30
0.0
 11
-362.4008521911914
 21
240.9721633798585
 31
0.0
  0
LINE
  5
1F7DF
  8
AM_0
 10
-364.6108121911916
 20
259.1621333798584
 30
0.0
 11
-360.03085219119163
 21
259.1621333798584
 31
0.0
  0
LINE
  5
1F7E0
  8
AM_0
 10
-359.11087219119139
 20
248.3121533798585
 30
0.0
 11
-362.1108721911915
 21
248.3121533798585
 31
0.0
  0
LINE
  5
1F7E1
  8
AM_0
 10
-359.11087219119139
 20
250.3121433798585
 30
0.0
 11
-362.1108721911915
 21
250.3121433798585
 31
0.0
  0
LINE
  5
1F7E2
  8
AM_0
 10
-359.11087219119139
 20
258.31213337985849
 30
0.0
 11
-362.1108721911915
 21
258.31213337985849
 31
0.0
  0
LINE
  5
1F7E3
  8
AM_0
 10
-359.11087219119139
 20
260.3121533798585
 30
0.0
 11
-362.1108721911915
 21
260.3121533798585
 31
0.0
  0
ARC
  5
1F7E4
  8
AM_0
 10
-362.11581219119159
 20
259.3170633798585
 30
0.0
 40
0.99508399
 50
89.716105999999499
 51
180.28389000000439
  0
LINE
  5
1F7E5
  8
AM_0
 10
-364.6108121911916
 20
257.0321433798585
 30
0.0
 11
-363.11081219119171
 21
257.0321433798585
 31
0.0
  0
LINE
  5
1F7E6
  8
AM_0
 10
-365.10471219119131
 20
256.32029337985807
 30
0.0
 11
-364.60468219119161
 21
256.36030337985829
 31
0.0
  0
ARC
  5
1F7E7
  8
AM_0
 10
-362.11069219119167
 20
259.31235337985839
 30
0.0
 40
1.000199999999998
 50
180.01150000000339
 51
269.98851000000099
  0
LINE
  5
1F7E8
  8
AM_0
 10
-365.60471219119148
 20
259.09028337985842
 30
0.0
 11
-365.10471219119131
 21
256.32029337985807
 31
0.0
  0
LINE
  5
1F7E9
  8
AM_0
 10
-364.6108121911916
 20
254.3121433798585
 30
0.0
 11
-363.11087219119139
 21
254.18214337985859
 31
0.0
  0
ARC
  5
1F7EA
  8
AM_0
 10
-362.11069219119167
 20
249.31234337985839
 30
0.0
 40
1.0001959999999981
 50
180.0112800000031
 51
269.98872000000023
  0
ARC
  5
1F7EB
  8
AM_0
 10
-362.11581219119159
 20
249.3170833798585
 30
0.0
 40
0.99508399
 50
89.716323999999332
 51
180.2836799999998
  0
ARC
  5
1F7EC
  8
AM_0
 10
-362.11435219119147
 20
240.14061337985859
 30
0.0
 40
0.9964760499999998
 50
179.91258000000059
 51
247.17965999999919
  0
ARC
  5
1F7ED
  8
AM_0
 10
-362.11447219119162
 20
241.9264863798584
 30
0.0
 40
0.9963800299999999
 50
180.24949000000021
 51
253.29706999999831
  0
ARC
  5
1F7EE
  8
AM_0
 10
-362.11178219119148
 20
233.0368303798586
 30
0.0
 40
0.9991000299999999
 50
179.69542000000101
 51
236.6617700000011
  0
ARC
  5
1F7EF
  8
AM_0
 10
-362.11239219119159
 20
234.0714453798584
 30
0.0
 40
0.9984599899999999
 50
179.9596199999994
 51
239.38654999999889
  0
ARC
  5
1F7F0
  8
AM_0
 10
-362.11313219119148
 20
229.4734373798585
 30
0.0
 40
0.99770796
 50
180.07404999999949
 51
242.0447600000021
  0
ARC
  5
1F7F1
  8
AM_0
 10
-362.11520219119149
 20
227.34250237985859
 30
0.0
 40
0.99566799
 50
180.0204300000008
 51
243.40982999999861
  0
ARC
  5
1F7F2
  8
AM_0
 10
-362.11325219119169
 20
226.2968093798585
 30
0.0
 40
0.9976240400000001
 50
180.26751000000391
 51
240.07954000000291
  0
ARC
  5
1F7F3
  8
AM_0
 10
-362.11209219119172
 20
228.4356413798584
 30
0.0
 40
0.9987800700000001
 50
179.6266700000001
 51
238.7085500000006
  0
ARC
  5
1F7F4
  8
AM_0
 10
-348.48059219119148
 20
236.6586333798586
 30
0.0
 40
6.007896399999999
 50
273.52844999999832
 51
314.61726999999331
  0
LINE
  5
1F7F5
  8
AM_0
 10
-348.11084219119141
 20
225.96213337985861
 30
0.0
 11
-348.11084219119141
 21
237.65213376772721
 31
0.0
  0
ARC
  5
1F7F6
  8
AM_0
 10
-359.11069219119167
 20
247.31230337985849
 30
0.0
 40
0.99984801
 50
359.991189999997
 51
90.008807000001994
  0
ARC
  5
1F7F7
  8
AM_0
 10
-353.78083219119151
 20
259.30214337985848
 30
0.0
 40
1.3300000000000001
 50
90.000002999997704
 51
270.0
  0
ARC
  5
1F7F8
  8
AM_0
 10
-359.11575219119158
 20
261.31705337985858
 30
0.0
 40
1.004928
 50
270.28023999999988
 51
359.71976000000001
  0
LINE
  5
1F7F9
  8
AM_0
 10
-361.11087219119139
 20
258.70215337985849
 30
0.0
 11
-361.11087219119139
 21
259.92213337985839
 31
0.0
  0
ARC
  5
1F7FA
  8
AM_0
 10
-359.11069219119167
 20
257.3122933798586
 30
0.0
 40
0.9998440099999999
 50
359.99097999999952
 51
90.009017999997724
  0
ARC
  5
1F7FB
  8
AM_0
 10
-352.55951219119152
 20
259.31214337985853
 30
0.0
 40
1.000035999999999
 50
89.500716000000125
 51
270.49929000000162
  0
ARC
  5
1F7FC
  8
AM_0
 10
-353.65082219119148
 20
249.29212337985851
 30
0.0
 40
1.4599999999999991
 50
90.000002999997704
 51
270.0
  0
LINE
  5
1F7FD
  8
AM_0
 10
-361.11087219119139
 20
248.68214337985859
 30
0.0
 11
-361.11087219119139
 21
250.0521333798585
 31
0.0
  0
ARC
  5
1F7FE
  8
AM_0
 10
-359.11575219119158
 20
251.31705337985861
 30
0.0
 40
1.0049238999999981
 50
270.2800399999993
 51
359.71996999999732
  0
ARC
  5
1F7FF
  8
AM_0
 10
-352.56079219119152
 20
249.31213337985849
 30
0.0
 40
1.0000040999999991
 50
90.000002999997704
 51
270.0
  0
ARC
  5
1F800
  8
AM_0
 10
-336.11084219119152
 20
259.31214337985853
 30
0.0
 40
1.0000040999999991
 50
90.000002999997704
 51
270.0
  0
ARC
  5
1F801
  8
AM_0
 10
-336.11084219119152
 20
249.31213337985849
 30
0.0
 40
1.0000040999999991
 50
90.000002999997704
 51
270.0
  0
ARC
  5
1F802
  8
AM_0
 10
-352.56078956126993
 20
239.3121263298585
 30
0.0
 40
1.000007050003423
 50
90.000150682349414
 51
269.99984931765391
  0
ARC
  5
1F803
  8
AM_0
 10
-353.43085219119172
 20
239.26712337985839
 30
0.0
 40
1.6750081000000001
 50
90.000002999997704
 51
270.0
  0
LINE
  5
1F804
  8
AM_0
 10
-361.11087219119139
 20
238.92213737985861
 30
0.0
 11
-361.11087219119139
 21
239.98213537985859
 31
0.0
  0
LINE
  5
1F805
  8
AM_0
 10
-358.11084219119141
 20
240.0121333798586
 30
0.0
 11
-354.94080219119149
 21
240.0121333798586
 31
0.0
  0
ARC
  5
1F806
  8
AM_0
 10
-359.11416219119161
 20
241.57549637985849
 30
0.0
 40
1.003363999999999
 50
270.19170999999869
 51
359.80828000000298
  0
ARC
  5
1F807
  8
AM_0
 10
-360.97030219119148
 20
241.57483237985861
 30
0.0
 40
1.0027280000000001
 50
253.75296999999949
 51
270.54039999999952
  0
LINE
  5
1F808
  8
AM_0
 10
-360.96084219119149
 20
240.57214737985851
 30
0.0
 11
-359.11087219119139
 21
240.57214737985851
 31
0.0
  0
ARC
  5
1F809
  8
AM_0
 10
-358.8102721911917
 20
237.92270237985841
 30
0.0
 40
0.69944
 50
359.95415999999977
 51
90.045840000000197
  0
ARC
  5
1F80A
  8
AM_0
 10
-360.9078721911917
 20
239.6273683798585
 30
0.0
 40
1.005223999999999
 50
246.98629000000059
 51
269.82936000000041
  0
LINE
  5
1F80B
  8
AM_0
 10
-360.91086219119148
 20
238.6221423798585
 30
0.0
 11
-358.81088219119152
 21
238.6221423798585
 31
0.0
  0
ARC
  5
1F80C
  8
AM_0
 10
-360.84750219119161
 20
233.3331413798584
 30
0.0
 40
1.001012
 50
240.47135999999711
 51
270.3802000000004
  0
ARC
  5
1F80D
  8
AM_0
 10
-359.11331219119171
 20
233.3346053798586
 30
0.0
 40
1.0024599999999999
 50
270.14037999999903
 51
359.85962000000097
  0
LINE
  5
1F80E
  8
AM_0
 10
-360.84085219119152
 20
232.33214937985841
 30
0.0
 11
-359.11087219119139
 21
232.33214937985841
 31
0.0
  0
ARC
  5
1F80F
  8
AM_0
 10
-336.11084219119152
 20
239.31212337985849
 30
0.0
 40
1.0000040999999991
 50
90.000002999997704
 51
270.0
  0
ARC
  5
1F810
  8
AM_0
 10
-344.96430219119162
 20
233.10322337985841
 30
0.0
 40
1.007376
 50
314.29032000000342
 51
5.0634048999973631
  0
ARC
  5
1F811
  8
AM_0
 10
-348.94062219119161
 20
232.7192533798586
 30
0.0
 40
5.0021839000000003
 50
5.4245259999975719
 51
80.451425000001535
  0
LINE
  5
1F812
  8
AM_0
 10
-313.1107821911915
 20
227.96213337985861
 30
0.0
 11
-348.1107821911915
 21
229.9921333798585
 31
0.0
  0
ARC
  5
1F813
  8
AM_0
 10
-351.93891219119149
 20
218.0478343798585
 30
0.0
 40
1.995695899999999
 50
192.02252999999999
 51
269.94478000000282
  0
LINE
  5
1F814
  8
AM_0
 10
-358.11084219119141
 20
216.8821243798586
 30
0.0
 11
-355.29084219119142
 21
216.8121243798586
 31
0.0
  0
ARC
  5
1F815
  8
AM_0
 10
-356.2758821911915
 20
215.69035137985861
 30
0.0
 40
1.501779999999999
 50
14.33283599999954
 51
90.189382999999154
  0
LINE
  5
1F816
  8
AM_0
 10
-337.1108421911913
 20
212.42212537985861
 30
0.0
 11
-337.1108421911913
 21
219.8321283798586
 31
0.0
  0
LINE
  5
1F817
  8
AM_0
 10
-353.92084219119141
 20
214.1821193798587
 30
0.0
 11
-354.84088219119138
 21
218.0621163798584
 31
0.0
  0
LINE
  5
1F818
  8
AM_0
 10
-358.11084219119141
 20
225.96213337985861
 30
0.0
 11
-348.11084219119141
 21
225.96213337985861
 31
0.0
  0
LINE
  5
1F819
  8
AM_0
 10
-351.88086219119151
 20
221.3321283798586
 30
0.0
 11
-338.6108421911913
 21
221.3321283798586
 31
0.0
  0
LINE
  5
1F81A
  8
AM_0
 10
-358.11084219119141
 20
231.62213337985841
 30
0.0
 11
-348.11084219119141
 21
231.62213337985841
 31
0.0
  0
LINE
  5
1F81B
  8
AM_0
 10
-354.39081219119129
 20
225.96213337985861
 30
0.0
 11
-353.85077219119142
 21
222.97211237985849
 31
0.0
  0
ARC
  5
1F81C
  8
AM_0
 10
-358.61044219119162
 20
224.06257937985851
 30
0.0
 40
0.49955601
 50
359.94911000000309
 51
90.050894000000795
  0
ARC
  5
1F81D
  8
AM_0
 10
-360.81808219119171
 20
232.19264537985839
 30
0.0
 40
1.0005360000000001
 50
237.14639999999849
 51
270.41321999999889
  0
LINE
  5
1F81E
  8
AM_0
 10
-360.81082219119151
 20
231.19213437985849
 30
0.0
 11
-358.1108721911915
 21
231.19213437985849
 31
0.0
  0
LINE
  5
1F81F
  8
AM_0
 10
-361.11087219119139
 20
231.48215037985841
 30
0.0
 11
-361.11087219119139
 21
231.9521363798585
 31
0.0
  0
ARC
  5
1F820
  8
AM_0
 10
-360.83017219119159
 20
225.56322037985859
 30
0.0
 40
1.001135899999998
 50
239.3280000000033
 51
269.38750999999928
  0
ARC
  5
1F821
  8
AM_0
 10
-360.86502219119171
 20
226.71140637985849
 30
0.0
 40
0.99928796
 50
242.86126999999701
 51
269.66619000000128
  0
ARC
  5
1F822
  8
AM_0
 10
-358.61429219119162
 20
226.21553337985841
 30
0.0
 40
0.50340396
 50
270.38612999999822
 51
359.6138700000019
  0
LINE
  5
1F823
  8
AM_0
 10
-360.84085219119152
 20
224.56213737985851
 30
0.0
 11
-358.61081219119148
 21
224.56213737985851
 31
0.0
  0
LINE
  5
1F824
  8
AM_0
 10
-360.87088219119141
 20
225.71215437985839
 30
0.0
 11
-358.61081219119148
 21
225.71215437985839
 31
0.0
  0
LINE
  5
1F825
  8
AM_0
 10
-361.11087219119139
 20
224.81214437985861
 30
0.0
 11
-361.11087219119139
 21
225.34214337985841
 31
0.0
  0
ARC
  5
1F826
  8
AM_0
 10
-360.83951219119172
 20
227.6758003798586
 30
0.0
 40
1.003687999999999
 50
239.37026999999949
 51
270.49275000000068
  0
LINE
  5
1F827
  8
AM_0
 10
-360.83084219119161
 20
226.6721533798586
 30
0.0
 11
-358.1108721911915
 21
226.6721533798586
 31
0.0
  0
LINE
  5
1F828
  8
AM_0
 10
-360.86081219119148
 20
227.81214437985861
 30
0.0
 11
-359.11087219119139
 21
227.81214437985861
 31
0.0
  0
LINE
  5
1F829
  8
AM_0
 10
-361.11087219119139
 20
226.9121353798584
 30
0.0
 11
-361.11087219119139
 21
227.46213837985849
 31
0.0
  0
ARC
  5
1F82A
  8
AM_0
 10
-360.85568219119159
 20
228.81277037985859
 30
0.0
 40
1.0006280000000001
 50
241.6498599999974
 51
269.70470999999941
  0
ARC
  5
1F82B
  8
AM_0
 10
-359.11490219119162
 20
228.81622637985851
 30
0.0
 40
1.004083999999998
 50
270.23263000000031
 51
359.76736999999628
  0
LINE
  5
1F82C
  8
AM_0
 10
-356.28083219119139
 20
217.19213637985851
 30
0.0
 11
-354.63080219119138
 21
217.19213637985851
 31
0.0
  0
LINE
  5
1F82D
  8
AM_0
 10
-356.30085219119138
 20
219.21213337985861
 30
0.0
 11
-354.24085219119138
 21
219.21213337985861
 31
0.0
  0
ARC
  5
1F82E
  8
AM_0
 10
-356.29651219119148
 20
217.71579537985841
 30
0.0
 40
1.4963319999999991
 50
13.38243800000124
 51
90.164590000000814
  0
LINE
  5
1F82F
  8
AM_0
 10
-356.32087219119143
 20
223.28213337985849
 30
0.0
 11
-353.90082219119142
 21
223.28213337985849
 31
0.0
  0
ARC
  5
1F830
  8
AM_0
 10
-356.32068219119151
 20
221.77934037985861
 30
0.0
 40
1.5027881000000001
 50
12.0133420000023
 51
90.004667999996897
  0
ARC
  5
1F831
  8
AM_0
 10
-351.88385219119152
 20
223.33175437985869
 30
0.0
 40
1.9996280999999989
 50
190.36076000000239
 51
270.08532999999989
  0
LINE
  5
1F832
  8
AM_0
 10
-353.8908121911914
 20
217.6321243798586
 30
0.0
 11
-354.85083219119139
 21
222.0921383798586
 31
0.0
  0
ARC
  5
1F833
  8
AM_0
 10
-338.6112121911915
 20
219.83176237985859
 30
0.0
 40
1.5003600999999991
 50
0.0138160000014637
 51
89.98618500000002
  0
LINE
  5
1F834
  8
AM_0
 10
-351.97083219119139
 20
212.64212637985861
 30
0.0
 11
-338.6108421911913
 21
212.64212637985861
 31
0.0
  0
LINE
  5
1F835
  8
AM_0
 10
-352.00086219119129
 20
211.0121213798586
 30
0.0
 11
-338.50086219119129
 21
211.0121213798586
 31
0.0
  0
LINE
  5
1F836
  8
AM_0
 10
-351.94080219119138
 20
216.05212237985859
 30
0.0
 11
-338.6108421911913
 21
216.05212237985859
 31
0.0
  0
ARC
  5
1F837
  8
AM_0
 10
-351.97290219119162
 20
214.64406437985841
 30
0.0
 40
2.001947899999998
 50
193.3411399999986
 51
270.05948000000097
  0
ARC
  5
1F838
  8
AM_0
 10
-351.99842219119148
 20
213.01643937985861
 30
0.0
 40
2.0043239999999991
 50
194.27804999999961
 51
269.9310899999989
  0
LINE
  5
1F839
  8
AM_0
 10
-353.94080219119138
 20
212.5221383798586
 30
0.0
 11
-354.82080219119138
 21
216.06213937985851
 31
0.0
  0
ARC
  5
1F83A
  8
AM_0
 10
-335.1097421911914
 20
210.3985573798586
 30
0.0
 40
1.996427999999999
 50
194.69463000000059
 51
269.9676099999981
  0
ARC
  5
1F83B
  8
AM_0
 10
-335.1110321911915
 20
211.07195137985849
 30
0.0
 40
1.999824
 50
179.99493999999871
 51
270.00506000000121
  0
ARC
  5
1F83C
  8
AM_0
 10
-335.10920219119163
 20
214.45377137985861
 30
0.0
 40
2.001640099999999
 50
180.0469600000047
 51
269.95304000000192
  0
ARC
  5
1F83D
  8
AM_0
 10
-338.60944219119159
 20
211.14356837985849
 30
0.0
 40
1.498559999999999
 50
359.94488000000058
 51
90.055115000003084
  0
ARC
  5
1F83E
  8
AM_0
 10
-338.61237219119153
 20
214.55061137985851
 30
0.0
 40
1.5015080999999979
 50
0.0575469979998182
 51
89.942451000003174
  0
ARC
  5
1F83F
  8
AM_0
 10
-335.10834219119153
 20
212.42464237985851
 30
0.0
 40
2.0025157999999981
 50
180.0718999999998
 51
269.9281000000002
  0
ARC
  5
1F840
  8
AM_0
 10
-338.49213219119162
 20
209.5118463798585
 30
0.0
 40
1.5003120000000001
 50
14.68303399999964
 51
90.331663000000944
  0
LINE
  5
1F841
  8
AM_0
 10
-211.11084219119149
 20
337.31213837985882
 30
0.0
 11
-211.11084217499871
 21
211.3121694040239
 31
0.0
  0
LINE
  5
1F842
  8
ﾁｭｳｼﾝｾﾝ1
 10
-262.1108721911915
 20
308.81214337985853
 30
0.0
 11
-262.1108721911915
 21
239.8121433798585
 31
0.0
1001
GENIUS_GENODEF_13
1002
{
1000
HIER
1070
     0
1002
}
1002
{
1000
MANEDIT
1070
     0
1002
}
1002
{
1000
NOSEL
1070
     0
1002
}
1002
{
1000
BEHIND
1070
     0
1002
}
1002
{
1000
REACTOR
1002
}
1001
GENIUS_GENOBJ-N-CEN_13
1002
{
1000
OWNER
1000
GEN
1002
}
  0
LINE
  5
1F843
  8
AM_0
 10
-216.37082219119159
 20
334.6921333798586
 30
0.0
 11
-213.60516651060519
 21
324.36484147835398
 31
0.0
  0
ARC
  5
1F844
  8
AM_0
 10
-282.11145219119152
 20
338.23151337985848
 30
0.0
 40
2.000623899999999
 50
0.0178240009988051
 51
89.982175999997878
  0
ARC
  5
1F845
  8
AM_0
 10
-282.10791219119147
 20
337.55504337985838
 30
0.0
 40
1.9970881
 50
359.91637999999853
 51
90.083625000000779
  0
ARC
  5
1F846
  8
AM_0
 10
-282.11060219119162
 20
336.20239337985862
 30
0.0
 40
1.9997199999999991
 50
359.99193999999602
 51
90.008062000000336
  0
LINE
  5
1F847
  8
AM_0
 10
-280.11084219119152
 20
338.23212337985859
 30
0.0
 11
-280.11084219119152
 21
336.17212337985859
 31
0.0
  0
LINE
  5
1F848
  8
AM_0
 10
-211.40082219119159
 20
325.35211337985851
 30
0.0
 11
-213.81082219119139
 21
325.35211337985851
 31
0.0
  0
LINE
  5
1F849
  8
AM_0
 10
-216.4008521911914
 20
334.81212337985852
 30
0.0
 11
-211.11084219119149
 21
334.81212337985852
 31
0.0
  0
ARC
  5
1F84A
  8
AM_0
 10
-211.40500219119161
 20
326.85260337985869
 30
0.0
 40
1.500475999999999
 50
192.33222999999859
 51
270.15827999999971
  0
LINE
  5
1F84B
  8
AM_0
 10
-214.3008521911915
 20
333.23216337985849
 30
0.0
 11
-212.86084219119149
 21
326.53217337985859
 31
0.0
  0
ARC
  5
1F84C
  8
AM_0
 10
-216.25638219119151
 20
332.81195337985849
 30
0.0
 40
2.0001799999999981
 50
12.12635199999781
 51
90.127514999997985
  0
ARC
  5
1F84D
  8
AM_0
 10
-218.30039219119161
 20
334.17432337985849
 30
0.0
 40
1.997795899999999
 50
15.021597000002011
 51
90.01358099999716
  0
LINE
  5
1F84E
  8
AM_0
 10
-210.11084219119149
 20
338.31213837985882
 30
0.0
 11
-202.11081219119151
 21
338.31213837985882
 31
0.0
  0
ARC
  5
1F84F
  8
AM_0
 10
-210.1157921911915
 20
337.31709837985881
 30
0.0
 40
0.9950640200000001
 50
89.714938000000473
 51
180.285059999998
  0
LINE
  5
1F850
  8
AM_0
 10
-210.11084219119149
 20
326.35213337985851
 30
0.0
 11
-202.11081219119151
 21
326.35213337985851
 31
0.0
  0
ARC
  5
1F851
  8
AM_0
 10
-210.11643219119151
 20
325.35774337985862
 30
0.0
 40
0.9944000200000001
 50
89.676490999999999
 51
180.32350999999781
  0
ARC
  5
1F852
  8
AM_0
 10
-217.7690221911916
 20
309.31212337985852
 30
0.0
 40
1.000031899999998
 50
270.46929999999787
 51
89.530700000002156
  0
ARC
  5
1F853
  8
AM_0
 10
-214.29084219119159
 20
309.35712337985871
 30
0.0
 40
1.675
 50
270.0
 51
90.000002999997704
  0
LINE
  5
1F854
  8
AM_0
 10
-211.11084219119149
 20
311.4621333798587
 30
0.0
 11
-202.1108121911914
 21
311.4621333798587
 31
0.0
  0
ARC
  5
1F855
  8
AM_0
 10
-214.0808321911916
 20
299.33713337985859
 30
0.0
 40
1.4650000000000001
 50
270.0
 51
89.999997000002296
  0
ARC
  5
1F856
  8
AM_0
 10
-215.17086219119159
 20
299.31212337985852
 30
0.0
 40
1.0000040999999991
 50
270.0
 51
89.999997000002296
  0
ARC
  5
1F857
  8
AM_0
 10
-213.94583219119161
 20
289.32213337985849
 30
0.0
 40
1.3300000000000001
 50
270.0
 51
89.999997000002296
  0
ARC
  5
1F858
  8
AM_0
 10
-215.1671521911916
 20
289.31214337985853
 30
0.0
 40
1.000035999999999
 50
269.50070999999838
 51
90.499283999999861
  0
ARC
  5
1F859
  8
AM_0
 10
-215.1671521911916
 20
279.31212337985852
 30
0.0
 40
1.000035999999999
 50
269.50070999999838
 51
90.499283999999861
  0
ARC
  5
1F85A
  8
AM_0
 10
-213.88584219119161
 20
279.3171133798586
 30
0.0
 40
1.265004
 50
270.0
 51
89.999997000002296
  0
ARC
  5
1F85B
  8
AM_0
 10
-213.88584219119161
 20
269.31212337985852
 30
0.0
 40
1.270003999999999
 50
270.0
 51
89.999997000002296
  0
ARC
  5
1F85C
  8
AM_0
 10
-215.1671521911916
 20
269.31212337985852
 30
0.0
 40
1.000035999999999
 50
269.50070999999838
 51
90.499283999999861
  0
ARC
  5
1F85D
  8
AM_0
 10
-282.11170219119151
 20
210.40299837985859
 30
0.0
 40
2.0008759
 50
270.02511000000231
 51
359.97488999999757
  0
ARC
  5
1F85E
  8
AM_0
 10
-282.11316219119152
 20
211.07446837985859
 30
0.0
 40
2.002332
 50
270.06674000000129
 51
359.93325999999871
  0
ARC
  5
1F85F
  8
AM_0
 10
-282.11585219119149
 20
212.42713737985849
 30
0.0
 40
2.0050240000000001
 50
270.14341000000132
 51
359.85658999999868
  0
LINE
  5
1F860
  8
AM_0
 10
-280.11084219119141
 20
210.40212837985851
 30
0.0
 11
-280.11084219119141
 21
212.4521313798586
 31
0.0
  0
ARC
  5
1F861
  8
AM_0
 10
-213.94583219119161
 20
259.30214337985848
 30
0.0
 40
1.3300000000000001
 50
270.0
 51
89.999997000002296
  0
ARC
  5
1F862
  8
AM_0
 10
-215.1671521911916
 20
259.31214337985853
 30
0.0
 40
1.000035999999999
 50
269.50070999999838
 51
90.499283999999861
  0
ARC
  5
1F863
  8
AM_0
 10
-215.1658721911916
 20
249.31213337985849
 30
0.0
 40
1.0000040999999991
 50
270.0
 51
89.999997000002296
  0
ARC
  5
1F864
  8
AM_0
 10
-214.0758421911915
 20
249.29212337985851
 30
0.0
 40
1.4599999999999991
 50
270.0
 51
89.999997000002296
  0
ARC
  5
1F865
  8
AM_0
 10
-217.76902219119151
 20
239.31212337985849
 30
0.0
 40
1.000031899999998
 50
270.46929999999787
 51
89.530700000002156
  0
ARC
  5
1F866
  8
AM_0
 10
-214.2908421911915
 20
239.26712337985839
 30
0.0
 40
1.675
 50
270.0
 51
90.000002999997704
  0
LINE
  5
1F867
  8
AM_0
 10
-211.11084219119149
 20
237.1621233798584
 30
0.0
 11
-202.1108121911914
 21
237.1621233798584
 31
0.0
  0
LINE
  5
1F868
  8
AM_0
 10
-214.3008221911914
 20
215.3921183798586
 30
0.0
 11
-212.8608121911916
 21
222.09211537985851
 31
0.0
  0
LINE
  5
1F869
  8
AM_0
 10
-216.37082219119159
 20
213.93211937985859
 30
0.0
 11
-213.6051503892206
 21
224.25946028994619
 31
0.0
  0
LINE
  5
1F86A
  8
AM_0
 10
-211.40082219119159
 20
223.28213337985849
 30
0.0
 11
-213.81082219119139
 21
223.28213337985849
 31
0.0
  0
ARC
  5
1F86B
  8
AM_0
 10
-211.4037521911915
 20
221.78279737985841
 30
0.0
 40
1.499328
 50
89.888151000000079
 51
168.09384000000071
  0
LINE
  5
1F86C
  8
AM_0
 10
-210.11084219119149
 20
222.27212337985861
 30
0.0
 11
-202.11081219119151
 21
222.27212337985861
 31
0.0
  0
ARC
  5
1F86D
  8
AM_0
 10
-210.11136219119149
 20
223.27160437985859
 30
0.0
 40
0.9994760199999999
 50
179.97009000000199
 51
270.02992000000029
  0
LINE
  5
1F86E
  8
AM_0
 10
-216.4008521911914
 20
213.8121243798586
 30
0.0
 11
-211.11084219119149
 21
213.8121243798586
 31
0.0
  0
ARC
  5
1F86F
  8
AM_0
 10
-218.3054221911915
 20
214.45654137985861
 30
0.0
 40
2.0044159999999991
 50
270.13147999999882
 51
344.83334000000099
  0
ARC
  5
1F870
  8
AM_0
 10
-216.26151219119151
 20
215.81866237985849
 30
0.0
 40
2.0065319999999991
 50
270.01926999999682
 51
347.7268699999957
  0
LINE
  5
1F871
  8
AM_0
 10
-210.11084219119149
 20
210.3121583798588
 30
0.0
 11
-202.11081219119151
 21
210.3121583798588
 31
0.0
  0
ARC
  5
1F872
  8
AM_0
 10
-210.11066219119149
 20
211.3123493798586
 30
0.0
 40
1.000179999999999
 50
180.0103100000054
 51
269.98967999999991
  0
LINE
  5
1F873
  8
0
 10
-41.610778425158678
 20
432.14945637519861
 30
0.0
 11
-41.610778425158678
 21
474.14945637519861
 31
0.0
  0
LINE
  5
1F874
  8
0
 10
-69.610778425158799
 20
432.14945637519861
 30
0.0
 11
-69.610778425158799
 21
474.14945637519861
 31
0.0
  0
LINE
  5
1F875
  8
AM_0
 10
-69.610778425158799
 20
432.14945637519861
 30
0.0
 11
-41.610778425158678
 21
432.14945637519861
 31
0.0
  0
LINE
  5
1F876
  8
0
 10
-51.610778425158621
 20
464.14945637519872
 30
0.0
 11
-59.610778425158692
 21
464.14945637519872
 31
0.0
  0
LINE
  5
1F877
  8
0
 10
-38.110778425158799
 20
474.14945637519861
 30
0.0
 11
-73.110778425158685
 21
474.14945637519861
 31
0.0
  0
LINE
  5
1F878
  8
0
 10
-38.110778425158799
 20
474.14945637519861
 30
0.0
 11
-33.110777754606659
 21
485.15646076545079
 31
0.0
  0
LINE
  5
1F879
  8
AM_0
 10
-33.110777754606659
 20
485.15646076545079
 30
0.0
 11
-78.110779095710811
 21
485.15646076545079
 31
0.0
  0
LINE
  5
1F87A
  8
AM_0
 10
-33.110777754606659
 20
485.15646076545079
 30
0.0
 11
-33.110777754606659
 21
489.15646088466042
 31
0.0
  0
LINE
  5
1F87B
  8
0
 10
-73.110778425158685
 20
474.14945637519861
 30
0.0
 11
-78.110779095710811
 21
485.15646076545079
 31
0.0
  0
LINE
  5
1F87C
  8
AM_0
 10
-78.110779095710811
 20
485.15646076545079
 30
0.0
 11
-78.110779095710811
 21
489.15646088466042
 31
0.0
  0
LINE
  5
1F87D
  8
AM_0
 10
-51.610778425158742
 20
432.14945637519861
 30
0.0
 11
-51.610778425158692
 21
464.14945637519872
 31
0.0
  0
LINE
  5
1F87E
  8
AM_0
 10
-59.610778425158742
 20
432.14945637519861
 30
0.0
 11
-59.610778425158692
 21
464.14945637519872
 31
0.0
  0
ARC
  5
1F87F
  8
AM_0
 10
-55.610778425158678
 20
464.14945637519872
 30
0.0
 40
4.0
 50
0.0
 51
180.0
  0
LINE
  5
1F880
  8
AM_0
 10
-211.11084205756489
 20
317.17211389194171
 30
0.0
 11
-211.11084205756489
 21
324.77211389194161
 31
0.0
  0
LINE
  5
1F881
  8
AM_0
 10
-212.11084205756481
 20
317.17211389194171
 30
0.0
 11
-212.11084205756481
 21
324.77211389194161
 31
0.0
  0
LINE
  5
1F882
  8
AM_0
 10
-214.7108220575648
 20
319.17211389194148
 30
0.0
 11
-214.7108220575648
 21
322.77211389194161
 31
0.0
  0
LINE
  5
1F883
  8
AM_0
 10
-212.11084205756481
 20
324.77211389194161
 30
0.0
 11
-211.11084205756489
 21
324.77211389194161
 31
0.0
  0
ARC
  5
1F884
  8
AM_0
 10
-213.0108420575649
 20
322.77211389194139
 30
0.0
 40
1.7000007999999991
 50
90.000020000002039
 51
179.999989999999
  0
LINE
  5
1F885
  8
AM_0
 10
-212.11084205756481
 20
324.47211389194172
 30
0.0
 11
-213.01084205756479
 21
324.47211389194172
 31
0.0
  0
LINE
  5
1F886
  8
AM_0
 10
-212.11084205756481
 20
317.17211389194171
 30
0.0
 11
-211.11084205756489
 21
317.17211389194171
 31
0.0
  0
LINE
  5
1F887
  8
AM_0
 10
-211.11084205756489
 20
320.19475389194162
 30
0.0
 11
-212.11084205756481
 21
320.77208389194141
 31
0.0
  0
LINE
  5
1F888
  8
AM_0
 10
-211.11084205756489
 20
321.19475389194162
 30
0.0
 11
-212.11084205756481
 21
321.77211389194161
 31
0.0
  0
ARC
  5
1F889
  8
AM_0
 10
-213.0108420575649
 20
319.17211389194148
 30
0.0
 40
1.699996899999999
 50
180.00001999999549
 51
269.99999699999569
  0
LINE
  5
1F88A
  8
AM_0
 10
-212.11084205756481
 20
317.47212389194169
 30
0.0
 11
-213.01084205756479
 21
317.47212389194169
 31
0.0
  0
LINE
  5
1F88B
  8
AM_0
 10
-212.11084205756481
 20
231.4521938919415
 30
0.0
 11
-212.11084205756481
 21
223.85219389194151
 31
0.0
  0
LINE
  5
1F88C
  8
AM_0
 10
-211.11084205756489
 20
231.4521938919415
 30
0.0
 11
-211.11084205756489
 21
223.85219389194151
 31
0.0
  0
ARC
  5
1F88D
  8
AM_0
 10
-213.0108420575649
 20
225.85219389194151
 30
0.0
 40
1.7000007999999991
 50
180.00001000000091
 51
269.999979999998
  0
LINE
  5
1F88E
  8
AM_0
 10
-212.11084205756481
 20
231.4521938919415
 30
0.0
 11
-211.11084205756489
 21
231.4521938919415
 31
0.0
  0
LINE
  5
1F88F
  8
AM_0
 10
-211.11084205756489
 20
228.42955389194151
 30
0.0
 11
-212.11084205756481
 21
227.85222389194169
 31
0.0
  0
LINE
  5
1F890
  8
AM_0
 10
-211.11084205756489
 20
227.42955389194159
 30
0.0
 11
-212.11084205756481
 21
226.8521938919416
 31
0.0
  0
ARC
  5
1F891
  8
AM_0
 10
-213.0108420575649
 20
229.4521938919415
 30
0.0
 40
1.699996899999999
 50
90.000002999997704
 51
179.99998000000451
  0
LINE
  5
1F892
  8
AM_0
 10
-214.7108220575648
 20
229.4521938919415
 30
0.0
 11
-214.7108220575648
 21
225.85219389194151
 31
0.0
  0
LINE
  5
1F893
  8
AM_0
 10
-212.11084205756481
 20
231.1521838919416
 30
0.0
 11
-213.01084205756479
 21
231.1521838919416
 31
0.0
  0
LINE
  5
1F894
  8
AM_0
 10
-212.11084205756481
 20
223.85219389194151
 30
0.0
 11
-211.11084205756489
 21
223.85219389194151
 31
0.0
  0
LINE
  5
1F895
  8
AM_0
 10
-212.11084205756481
 20
224.15219389194149
 30
0.0
 11
-213.01084205756479
 21
224.15219389194149
 31
0.0
  0
LINE
  5
1F919
  8
AM_0
 10
7.2660613429145542
 20
454.65647132162479
 30
0.0
 11
7.2660613429145542
 21
493.15646228091617
 31
0.0
  0
LINE
  5
1F91A
  8
AM_0
 10
-164.7339741286639
 20
493.15646228091617
 30
0.0
 11
-164.7339741286639
 21
454.65647132162479
 31
0.0
  0
LINE
  5
1F91B
  8
AM_0
 10
-159.7339741286639
 20
449.65647132162479
 30
0.0
 11
-69.610778425159182
 21
449.65647132162479
 31
0.0
  0
LINE
  5
1F91C
  8
AM_0
 10
-41.610778425159069
 20
449.65647132162479
 30
0.0
 11
2.2660613429145542
 21
449.65647132162479
 31
0.0
  0
LINE
  5
1F91D
  8
AM_0
 10
7.2660613429145542
 20
488.65646228091617
 30
0.0
 11
-33.11077775460673
 21
488.65646228091629
 31
0.0
  0
LINE
  5
1F91E
  8
AM_0
 10
-78.110779095711223
 20
488.65646228091629
 30
0.0
 11
-164.7339741286639
 21
488.65646228091617
 31
0.0
  0
LINE
  5
1F91F
  8
AM_5
 10
-122.34950044220641
 20
488.65646228091617
 30
0.0
 11
-122.34950044220651
 21
493.15646228091617
 31
0.0
  0
LINE
  5
1F920
  8
AM_5
 10
-101.73397231411781
 20
488.65646228091617
 30
0.0
 11
-101.73397231411781
 21
493.15646228091617
 31
0.0
  0
INSERT
  5
1F921
  8
AM_0
  6
CONTINUOUS
  2
*U5
 10
0.0
 20
0.0
 30
0.0
1001
GENIUS_GENOBJ-N-HTC_13
1002
{
1000
OWNER
1000
GEN
1002
}
1001
GENIUS_GENODEF_13
1002
{
1000
HIER
1070
     0
1002
}
1002
{
1000
MANEDIT
1070
     0
1002
}
1002
{
1000
NOSEL
1070
     0
1002
}
1002
{
1000
BEHIND
1070
     0
1002
}
1002
{
1000
OTHER
1070
     0
1002
}
1002
{
1000
REACTOR
1002
}
1001
GENIUS_GENHATCH_13
1002
{
1000
DATA
1040
0.0
1042
1.0
1000
SOLID
1070
     0
1011
-115.65429919841461
1021
0.0
1031
0.0
1021
487.35817526219353
1031
0.0
1002
}
1002
{
1000
UCS
1010
0.0
1020
0.0
1030
0.0
1010
1.0
1020
0.0
1030
0.0
1010
0.0
1020
1.0
1030
0.0
1002
}
1001
ACAD
1002
{
1000
R14_HATCH_DATA
1000
1F921
1011
1.0
1021
0.0
1031
0.0
1021
0.0
1031
0.0
1011
0.0
1021
0.0
1031
0.0
1021
1.0
1031
0.0
1011
0.0
1021
0.0
1031
0.0
1021
0.0
1031
1.0
1040
0.0
1010
0.0
1020
0.0
1030
1.0
1000
SOLID
1070
     1
1070
     0
1071
        1
1071
        1
1071
        3
1070
     1
1040
-112.73397231411781
1040
488.65646228091629
1040
-116.73397231411781
1040
484.65646228091629
1070
     1
1040
-116.73397231411781
1040
484.65646228091629
1040
-116.73397231411781
1040
488.65646228091629
1070
     1
1040
-116.73397231411781
1040
488.65646228091629
1040
-112.73397231411781
1040
488.65646228091629
1071
        0
1070
     0
1070
     1
1071
        1
1040
-315.12552773149019
1040
586.17510074682764
1040
0.0
1002
}
  0
LINE
  5
1F922
  8
AM_0
 10
-116.73397231411781
 20
484.65646228091629
 30
0.0
 11
-112.73397231411781
 21
488.65646228091629
 31
0.0
1001
GENIUS_GENFIL_13
1070
     0
1040
4.0
1040
4.0
1040
20.0
1040
0.0
1002
{
1002
}
1001
GENIUS_GENOBJ-N-CHA_13
1002
{
1000
OWNER
1000
GEN
1002
}
1001
GENIUS_GENODEF_13
1002
{
1000
HIER
1070
     0
1002
}
1002
{
1000
MANEDIT
1070
     0
1002
}
1002
{
1000
NOSEL
1070
     0
1002
}
1002
{
1000
BEHIND
1070
     0
1002
}
1002
{
1000
OTHER
1070
     0
1002
}
1002
{
1000
REACTOR
1002
}
  0
LINE
  5
1F923
  8
AM_0
 10
-121.23397231411781
 20
484.65646228091629
 30
0.0
 11
-125.23397231411781
 21
488.65646228091629
 31
0.0
1001
GENIUS_GENFIL_13
1070
     0
1040
4.0
1040
4.0
1040
20.0
1040
0.0
1002
{
1002
}
1001
GENIUS_GENOBJ-N-CHA_13
1002
{
1000
OWNER
1000
GEN
1002
}
1001
GENIUS_GENODEF_13
1002
{
1000
HIER
1070
     0
1002
}
1002
{
1000
MANEDIT
1070
     0
1002
}
1002
{
1000
NOSEL
1070
     0
1002
}
1002
{
1000
BEHIND
1070
     0
1002
}
1002
{
1000
OTHER
1070
     0
1002
}
1002
{
1000
REACTOR
1002
}
  0
INSERT
  5
1F924
  8
AM_0
  6
CONTINUOUS
  2
*U6
 10
0.0
 20
0.0
 30
0.0
1001
GENIUS_GENOBJ-N-HTC_13
1002
{
1000
OWNER
1000
GEN
1002
}
1001
GENIUS_GENODEF_13
1002
{
1000
HIER
1070
     0
1002
}
1002
{
1000
MANEDIT
1070
     0
1002
}
1002
{
1000
NOSEL
1070
     0
1002
}
1002
{
1000
BEHIND
1070
     0
1002
}
1002
{
1000
OTHER
1070
     0
1002
}
1002
{
1000
REACTOR
1002
}
1001
GENIUS_GENHATCH_13
1002
{
1000
DATA
1040
0.0
1042
1.0
1000
SOLID
1070
     0
1011
-122.31364542982099
1021
0.0
1031
0.0
1021
487.35817526219353
1031
0.0
1002
}
1002
{
1000
UCS
1010
0.0
1020
0.0
1030
0.0
1010
1.0
1020
0.0
1030
0.0
1010
0.0
1020
1.0
1030
0.0
1002
}
1001
ACAD
1002
{
1000
R14_HATCH_DATA
1000
1F924
1011
1.0
1021
0.0
1031
0.0
1021
0.0
1031
0.0
1011
0.0
1021
0.0
1031
0.0
1021
1.0
1031
0.0
1011
0.0
1021
0.0
1031
0.0
1021
0.0
1031
1.0
1040
0.0
1010
0.0
1020
0.0
1030
1.0
1000
SOLID
1070
     1
1070
     0
1071
        1
1071
        1
1071
        3
1070
     1
1040
-125.23397231411781
1040
488.65646228091629
1040
-121.23397231411781
1040
484.65646228091629
1070
     1
1040
-121.23397231411781
1040
484.65646228091629
1040
-121.23397231411781
1040
488.65646228091629
1070
     1
1040
-121.23397231411781
1040
488.65646228091629
1040
-125.23397231411781
1040
488.65646228091629
1071
        0
1070
     0
1070
     1
1071
        1
1040
77.157583103254524
1040
586.17510074682764
1040
0.0
1002
}
  0
LINE
  5
1F925
  8
AM_0
 10
-121.23397231411791
 20
456.65646228091617
 30
0.0
 11
-121.23397231411791
 21
488.65646228091629
 31
0.0
  0
LINE
  5
1F926
  8
AM_0
 10
-116.73397231411791
 20
456.65646228091617
 30
0.0
 11
-116.73397231411781
 21
488.65646228091629
 31
0.0
  0
LINE
  5
1F927
  8
AM_0
 10
-121.23397231411791
 20
478.65646228091617
 30
0.0
 11
-116.73397231411781
 21
478.65646228091617
 31
0.0
  0
LINE
  5
1F928
  8
AM_0
 10
-121.23397231411791
 20
456.65646228091617
 30
0.0
 11
-116.73397231411791
 21
456.65646228091617
 31
0.0
  0
LINE
  5
1F929
  8
AM_0
 10
-36.233940471631513
 20
456.65646228091617
 30
0.0
 11
-36.233940471631513
 21
478.28813340090051
 31
0.0
  0
LINE
  5
1F92A
  8
AM_0
 10
-40.733940471631513
 20
456.65646228091617
 30
0.0
 11
-40.73394047163157
 21
474.15646123614709
 31
0.0
  0
LINE
  5
1F92B
  8
AM_0
 10
-36.233940471631513
 20
456.65646228091617
 30
0.0
 11
-40.733940471631513
 21
456.65646228091617
 31
0.0
  0
LINE
  5
1F92C
  8
ﾁｭｳｼﾝｾﾝ1
 10
-24.23394047163152
 20
464.65647132162491
 30
0.0
 11
1.7660595283684859
 21
464.65647132162491
 31
0.0
  0
LINE
  5
1F92D
  8
ﾁｭｳｼﾝｾﾝ1
 10
-11.233940471631509
 20
477.65647132162502
 30
0.0
 11
-11.233940471631509
 21
451.65647132162491
 31
0.0
  0
CIRCLE
  5
1F92E
  8
AM_0
 10
-11.233940471631399
 20
464.65647132162491
 30
0.0
 40
6.0
  0
CIRCLE
  5
1F92F
  8
AM_0
 10
-146.23394047163151
 20
464.65647132162491
 30
0.0
 40
6.0
  0
ARC
  5
1F930
  8
AM_0
 10
2.2660613429145542
 20
454.65647132162479
 30
0.0
 40
5.0
 50
270.0
 51
0.0
1001
GENIUS_GENOBJ-N-FIL_13
1002
{
1000
OWNER
1000
GEN
1002
}
1001
GENIUS_GENODEF_13
1002
{
1000
HIER
1070
     0
1002
}
1002
{
1000
MANEDIT
1070
     0
1002
}
1002
{
1000
NOSEL
1070
     0
1002
}
1002
{
1000
BEHIND
1070
     0
1002
}
1002
{
1000
OTHER
1070
     0
1002
}
1002
{
1000
REACTOR
1002
}
  0
ARC
  5
1F931
  8
AM_0
 10
-159.7339741286639
 20
454.65647132162479
 30
0.0
 40
5.0
 50
180.0
 51
270.0
1001
GENIUS_GENOBJ-N-FIL_13
1002
{
1000
OWNER
1000
GEN
1002
}
1001
GENIUS_GENODEF_13
1002
{
1000
HIER
1070
     0
1002
}
1002
{
1000
MANEDIT
1070
     0
1002
}
1002
{
1000
NOSEL
1070
     0
1002
}
1002
{
1000
BEHIND
1070
     0
1002
}
1002
{
1000
OTHER
1070
     0
1002
}
1002
{
1000
REACTOR
1002
}
  0
LINE
  5
1F932
  8
ﾁｭｳｼﾝｾﾝ1
 10
-159.23394047163151
 20
464.65647132162491
 30
0.0
 11
-133.23394047163151
 21
464.65647132162491
 31
0.0
  0
LINE
  5
1F933
  8
ﾁｭｳｼﾝｾﾝ1
 10
-146.23394047163151
 20
477.65647132162502
 30
0.0
 11
-146.23394047163151
 21
451.65647132162491
 31
0.0
  0
LINE
  5
1F934
  8
AM_0
 10
7.2660613429145542
 20
629.65647217213075
 30
0.0
 11
7.2660613429145542
 21
591.15648121283948
 31
0.0
  0
LINE
  5
1F935
  8
AM_0
 10
-164.7339741286639
 20
591.15648121283948
 30
0.0
 11
-164.7339741286639
 21
629.65647217213075
 31
0.0
  0
LINE
  5
1F936
  8
AM_0
 10
-159.7339741286639
 20
634.65647217213075
 30
0.0
 11
2.2660613429145542
 21
634.65647217213075
 31
0.0
  0
LINE
  5
1F937
  8
AM_0
 10
7.2660613429145542
 20
595.65648121283937
 30
0.0
 11
-55.610778425158919
 21
595.65648121283937
 31
0.0
  0
LINE
  5
1F938
  8
AM_5
 10
-122.34950044220641
 20
595.65648121283937
 30
0.0
 11
-122.34950044220651
 21
591.15648121283948
 31
0.0
  0
LINE
  5
1F939
  8
AM_5
 10
-101.73397231411781
 20
595.65648121283937
 30
0.0
 11
-101.73397231411781
 21
591.15648121283948
 31
0.0
  0
INSERT
  5
1F93A
  8
AM_0
  6
CONTINUOUS
  2
*U7
 10
0.0
 20
0.0
 30
0.0
1001
GENIUS_GENOBJ-N-HTC_13
1002
{
1000
OWNER
1000
GEN
1002
}
1001
GENIUS_GENODEF_13
1002
{
1000
HIER
1070
     0
1002
}
1002
{
1000
MANEDIT
1070
     0
1002
}
1002
{
1000
NOSEL
1070
     0
1002
}
1002
{
1000
BEHIND
1070
     0
1002
}
1002
{
1000
OTHER
1070
     0
1002
}
1002
{
1000
REACTOR
1002
}
1001
GENIUS_GENHATCH_13
1002
{
1000
DATA
1040
0.0
1042
-1.0
1000
SOLID
1070
     0
1011
-115.65429919841461
1021
0.0
1031
0.0
1021
596.9547682315623
1031
0.0
1002
}
1002
{
1000
UCS
1010
0.0
1020
0.0
1030
0.0
1010
1.0
1020
0.0
1030
0.0
1010
0.0
1020
1.0
1030
0.0
1002
}
1001
ACAD
1002
{
1000
R14_HATCH_DATA
1000
1F93A
1011
1.0
1021
0.0
1031
0.0
1021
0.0
1031
0.0
1011
0.0
1021
0.0
1031
0.0
1021
1.0
1031
0.0
1011
0.0
1021
0.0
1031
0.0
1021
0.0
1031
1.0
1040
0.0
1010
0.0
1020
0.0
1030
1.0
1000
SOLID
1070
     1
1070
     0
1071
        1
1071
        1
1071
        3
1070
     1
1040
-112.73397231411781
1040
595.65648121283937
1040
-116.73397231411781
1040
599.65648121283937
1070
     1
1040
-116.73397231411781
1040
599.65648121283937
1040
-116.73397231411781
1040
595.65648121283937
1070
     1
1040
-116.73397231411781
1040
595.65648121283937
1040
-112.73397231411781
1040
595.65648121283937
1071
        0
1070
     0
1070
     1
1071
        1
1040
-315.12552773149019
1040
498.1378427469279
1040
0.0
1002
}
  0
LINE
  5
1F93B
  8
AM_0
 10
-116.73397231411781
 20
599.65648121283937
 30
0.0
 11
-112.73397231411781
 21
595.65648121283937
 31
0.0
1001
GENIUS_GENFIL_13
1070
     0
1040
4.0
1040
4.0
1040
20.0
1040
0.0
1002
{
1002
}
1001
GENIUS_GENOBJ-N-CHA_13
1002
{
1000
OWNER
1000
GEN
1002
}
1001
GENIUS_GENODEF_13
1002
{
1000
HIER
1070
     0
1002
}
1002
{
1000
MANEDIT
1070
     0
1002
}
1002
{
1000
NOSEL
1070
     0
1002
}
1002
{
1000
BEHIND
1070
     0
1002
}
1002
{
1000
OTHER
1070
     0
1002
}
1002
{
1000
REACTOR
1002
}
  0
LINE
  5
1F93C
  8
AM_0
 10
-121.23397231411781
 20
599.65648121283937
 30
0.0
 11
-125.23397231411781
 21
595.65648121283937
 31
0.0
1001
GENIUS_GENFIL_13
1070
     0
1040
4.0
1040
4.0
1040
20.0
1040
0.0
1002
{
1002
}
1001
GENIUS_GENOBJ-N-CHA_13
1002
{
1000
OWNER
1000
GEN
1002
}
1001
GENIUS_GENODEF_13
1002
{
1000
HIER
1070
     0
1002
}
1002
{
1000
MANEDIT
1070
     0
1002
}
1002
{
1000
NOSEL
1070
     0
1002
}
1002
{
1000
BEHIND
1070
     0
1002
}
1002
{
1000
OTHER
1070
     0
1002
}
1002
{
1000
REACTOR
1002
}
  0
INSERT
  5
1F93D
  8
AM_0
  6
CONTINUOUS
  2
*U8
 10
0.0
 20
0.0
 30
0.0
1001
GENIUS_GENOBJ-N-HTC_13
1002
{
1000
OWNER
1000
GEN
1002
}
1001
GENIUS_GENODEF_13
1002
{
1000
HIER
1070
     0
1002
}
1002
{
1000
MANEDIT
1070
     0
1002
}
1002
{
1000
NOSEL
1070
     0
1002
}
1002
{
1000
BEHIND
1070
     0
1002
}
1002
{
1000
OTHER
1070
     0
1002
}
1002
{
1000
REACTOR
1002
}
1001
GENIUS_GENHATCH_13
1002
{
1000
DATA
1040
0.0
1042
-1.0
1000
SOLID
1070
     0
1011
-122.31364542982099
1021
0.0
1031
0.0
1021
596.9547682315623
1031
0.0
1002
}
1002
{
1000
UCS
1010
0.0
1020
0.0
1030
0.0
1010
1.0
1020
0.0
1030
0.0
1010
0.0
1020
1.0
1030
0.0
1002
}
1001
ACAD
1002
{
1000
R14_HATCH_DATA
1000
1F93D
1011
1.0
1021
0.0
1031
0.0
1021
0.0
1031
0.0
1011
0.0
1021
0.0
1031
0.0
1021
1.0
1031
0.0
1011
0.0
1021
0.0
1031
0.0
1021
0.0
1031
1.0
1040
0.0
1010
0.0
1020
0.0
1030
1.0
1000
SOLID
1070
     1
1070
     0
1071
        1
1071
        1
1071
        3
1070
     1
1040
-125.23397231411781
1040
595.65648121283937
1040
-121.23397231411781
1040
599.65648121283937
1070
     1
1040
-121.23397231411781
1040
599.65648121283937
1040
-121.23397231411781
1040
595.65648121283937
1070
     1
1040
-121.23397231411781
1040
595.65648121283937
1040
-125.23397231411781
1040
595.65648121283937
1071
        0
1070
     0
1070
     1
1071
        1
1040
77.157583103254524
1040
498.1378427469279
1040
0.0
1002
}
  0
LINE
  5
1F93E
  8
AM_0
 10
-121.23397231411791
 20
627.65648121283948
 30
0.0
 11
-121.23397231411791
 21
595.65648121283937
 31
0.0
  0
LINE
  5
1F93F
  8
AM_0
 10
-116.73397231411791
 20
627.65648121283948
 30
0.0
 11
-116.73397231411781
 21
595.65648121283937
 31
0.0
  0
LINE
  5
1F940
  8
AM_0
 10
-121.23397231411791
 20
605.65648121283925
 30
0.0
 11
-116.73397231411781
 21
605.65648121283925
 31
0.0
  0
LINE
  5
1F941
  8
AM_0
 10
-121.23397231411791
 20
627.65648121283948
 30
0.0
 11
-116.73397231411791
 21
627.65648121283948
 31
0.0
  0
LINE
  5
1F945
  8
AM_0
 10
-36.233940471631513
 20
627.65648121283948
 30
0.0
 11
-36.23394047163152
 21
595.65648121283937
 31
0.0
  0
LINE
  5
1F947
  8
AM_0
 10
-40.733940471631513
 20
627.65648121283948
 30
0.0
 11
-40.733940471631648
 21
595.65648121283937
 31
0.0
  0
LINE
  5
1F948
  8
AM_0
 10
-36.233940471631513
 20
605.65648121283925
 30
0.0
 11
-40.733940471631612
 21
605.65648121283925
 31
0.0
  0
LINE
  5
1F949
  8
AM_0
 10
-36.233940471631513
 20
627.65648121283948
 30
0.0
 11
-40.733940471631513
 21
627.65648121283948
 31
0.0
  0
LINE
  5
1F94A
  8
ﾁｭｳｼﾝｾﾝ1
 10
-24.23394047163152
 20
619.65647217213075
 30
0.0
 11
1.7660595283684859
 21
619.65647217213075
 31
0.0
  0
LINE
  5
1F94B
  8
ﾁｭｳｼﾝｾﾝ1
 10
-11.233940471631509
 20
606.65647217213075
 30
0.0
 11
-11.233940471631509
 21
632.65647217213075
 31
0.0
  0
CIRCLE
  5
1F94C
  8
AM_0
 10
-11.233940471631399
 20
619.65647217213075
 30
0.0
 40
6.0
  0
CIRCLE
  5
1F94D
  8
AM_0
 10
-146.23394047163151
 20
619.65647217213063
 30
0.0
 40
6.0
  0
ARC
  5
1F94E
  8
AM_0
 10
2.2660613429145542
 20
629.65647217213075
 30
0.0
 40
5.0
 50
0.0
 51
90.0
1001
GENIUS_GENOBJ-N-FIL_13
1002
{
1000
OWNER
1000
GEN
1002
}
1001
GENIUS_GENODEF_13
1002
{
1000
HIER
1070
     0
1002
}
1002
{
1000
MANEDIT
1070
     0
1002
}
1002
{
1000
NOSEL
1070
     0
1002
}
1002
{
1000
BEHIND
1070
     0
1002
}
1002
{
1000
OTHER
1070
     0
1002
}
1002
{
1000
REACTOR
1002
}
  0
ARC
  5
1F94F
  8
AM_0
 10
-159.7339741286639
 20
629.65647217213075
 30
0.0
 40
5.0
 50
90.0
 51
180.0
1001
GENIUS_GENOBJ-N-FIL_13
1002
{
1000
OWNER
1000
GEN
1002
}
1001
GENIUS_GENODEF_13
1002
{
1000
HIER
1070
     0
1002
}
1002
{
1000
MANEDIT
1070
     0
1002
}
1002
{
1000
NOSEL
1070
     0
1002
}
1002
{
1000
BEHIND
1070
     0
1002
}
1002
{
1000
OTHER
1070
     0
1002
}
1002
{
1000
REACTOR
1002
}
  0
LINE
  5
1F950
  8
ﾁｭｳｼﾝｾﾝ1
 10
-159.23394047163151
 20
619.65647217213063
 30
0.0
 11
-133.23394047163151
 21
619.65647217213063
 31
0.0
  0
LINE
  5
1F951
  8
ﾁｭｳｼﾝｾﾝ1
 10
-146.23394047163151
 20
606.65647217213063
 30
0.0
 11
-146.23394047163151
 21
632.65647217213063
 31
0.0
  0
LINE
  5
1F952
  8
AM_0
 10
2.2660609972865582
 20
607.65648121283948
 30
0.0
 11
-11.73393900271344
 21
607.65648121283948
 31
0.0
  0
LINE
  5
1F953
  8
AM_0
 10
5.7660609972865569
 20
597.65648121283925
 30
0.0
 11
-15.23393900271344
 21
597.65648121283925
 31
0.0
  0
LINE
  5
1F954
  8
AM_0
 10
3.2660609972865582
 20
606.65648121283948
 30
0.0
 11
3.2660609972865582
 21
597.65648121283925
 31
0.0
  0
LINE
  5
1F955
  8
AM_0
 10
5.7660609972865569
 20
595.65648121283937
 30
0.0
 11
5.7660609972865569
 21
597.65648121283925
 31
0.0
  0
ARC
  5
1F956
  8
AM_0
 10
2.266060997286615
 20
606.65648121283948
 30
0.0
 40
1.0
 50
0.0
 51
90.0
  0
LINE
  5
1F957
  8
AM_0
 10
-12.73393900271344
 20
606.65648121283948
 30
0.0
 11
-12.73393900271344
 21
597.65648121283925
 31
0.0
  0
LINE
  5
1F958
  8
AM_0
 10
-15.23393900271344
 20
597.65648121283925
 30
0.0
 11
-15.23393900271344
 21
595.65648121283937
 31
0.0
  0
ARC
  5
1F959
  8
AM_0
 10
-11.733939002713379
 20
606.65648121283948
 30
0.0
 40
1.0
 50
90.0
 51
180.0
  0
LINE
  5
1F95A
  8
AM_0
 10
-145.73397378303619
 20
607.65648121283948
 30
0.0
 11
-159.73397378303619
 21
607.65648121283948
 31
0.0
  0
LINE
  5
1F95B
  8
AM_0
 10
-142.23397378303619
 20
597.65648121283925
 30
0.0
 11
-163.23397378303611
 21
597.65648121283925
 31
0.0
  0
LINE
  5
1F95C
  8
AM_0
 10
-144.73397378303619
 20
606.65648121283948
 30
0.0
 11
-144.73397378303619
 21
597.65648121283925
 31
0.0
  0
LINE
  5
1F95D
  8
AM_0
 10
-142.23397378303619
 20
595.65648121283937
 30
0.0
 11
-142.23397378303619
 21
597.65648121283925
 31
0.0
  0
ARC
  5
1F95E
  8
AM_0
 10
-145.73397378303611
 20
606.65648121283948
 30
0.0
 40
1.0
 50
0.0
 51
90.0
  0
LINE
  5
1F95F
  8
AM_0
 10
-160.73397378303619
 20
606.65648121283948
 30
0.0
 11
-160.73397378303619
 21
597.65648121283925
 31
0.0
  0
LINE
  5
1F960
  8
AM_0
 10
-163.23397378303611
 20
597.65648121283925
 30
0.0
 11
-163.23397378303611
 21
595.65648121283937
 31
0.0
  0
ARC
  5
1F961
  8
AM_0
 10
-159.73397378303611
 20
606.65648121283948
 30
0.0
 40
1.0
 50
90.0
 51
180.0
  0
LINE
  5
1F962
  8
AM_0
 10
3.7660609972865582
 20
478.65646228091617
 30
0.0
 11
-13.23393900271344
 21
478.65646228091617
 31
0.0
  0
LINE
  5
1F963
  8
AM_0
 10
5.7660609972865569
 20
486.65646228091617
 30
0.0
 11
-15.23393900271344
 21
486.65646228091617
 31
0.0
  0
ARC
  5
1F964
  8
AM_0
 10
2.6291859972865552
 20
482.99648777232159
 30
0.0
 40
4.3400254914053003
 50
235.561530595265
 51
304.43846940473497
  0
LINE
  5
1F965
  8
AM_0
 10
5.0835609972865541
 20
486.65646228091617
 30
0.0
 11
5.0835609972865541
 21
479.41712126057359
 31
0.0
  0
LINE
  5
1F966
  8
AM_0
 10
5.0835609972865541
 20
479.41712126057359
 30
0.0
 11
3.7660609972865582
 21
478.65646228091617
 31
0.0
  0
LINE
  5
1F967
  8
AM_0
 10
5.7660609972865569
 20
488.65646228091617
 30
0.0
 11
5.7660609972865569
 21
486.65646228091617
 31
0.0
  0
LINE
  5
1F968
  8
AM_0N
 10
-9.7339390027134396
 20
478.57665536233378
 30
0.0
 11
-8.8137640027134125
 21
477.65648036233381
 31
0.0
  0
ARC
  5
1F969
  8
AM_0
 10
-4.7339390027134121
 20
494.87557577705138
 30
0.0
 40
16.219113496135169
 50
252.38303115960849
 51
287.61696884039162
  0
LINE
  5
1F96A
  8
AM_0N
 10
-9.7339390027134396
 20
478.57665536233378
 30
0.0
 11
0.2660609972865586
 21
478.57665536233378
 31
0.0
  0
LINE
  5
1F96B
  8
AM_0
 10
0.1748109972865564
 20
486.65646228091617
 30
0.0
 11
0.1748109972865564
 21
479.41712126057359
 31
0.0
  0
LINE
  5
1F96C
  8
AM_4N
 10
-8.8137640027134125
 20
477.65648036233381
 30
0.0
 11
-8.8137640027134125
 21
478.65646228091617
 31
0.0
  0
LINE
  5
1F96D
  8
AM_0N
 10
0.2660609972865586
 20
478.656462280916
 30
0.0
 11
0.2660609972865586
 21
478.57665536233378
 31
0.0
  0
LINE
  5
1F96E
  8
AM_0N
 10
0.2660609972865586
 20
478.57665536233378
 30
0.0
 11
-0.6541140027134702
 21
477.65648036233381
 31
0.0
  0
LINE
  5
1F96F
  8
AM_4N
 10
-0.6541140027134702
 20
477.65648036233381
 30
0.0
 11
-0.6541140027134702
 21
478.65646228091617
 31
0.0
  0
LINE
  5
1F970
  8
AM_0N
 10
-8.8137640027134125
 20
477.65648036233381
 30
0.0
 11
-0.6541140027134702
 21
477.65648036233381
 31
0.0
  0
LINE
  5
1F971
  8
AM_0
 10
-9.6426890027134391
 20
486.65646228091617
 30
0.0
 11
-9.6426890027134391
 21
479.41712126057359
 31
0.0
  0
LINE
  5
1F972
  8
AM_0
 10
-14.55143900271344
 20
486.65646228091617
 30
0.0
 11
-14.55143900271344
 21
479.41712126057359
 31
0.0
  0
LINE
  5
1F973
  8
AM_0
 10
-14.55143900271344
 20
479.41712126057359
 30
0.0
 11
-13.23393900271344
 21
478.65646228091617
 31
0.0
  0
ARC
  5
1F974
  8
AM_0
 10
-12.09706400271344
 20
482.99648777232159
 30
0.0
 40
4.3400254914053003
 50
244.4384694047327
 51
304.43846940473497
  0
LINE
  5
1F975
  8
AM_0N
 10
-9.7339390027134396
 20
478.656462280916
 30
0.0
 11
-9.7339390027134396
 21
478.57665536233378
 31
0.0
  0
LINE
  5
1F976
  8
AM_0
 10
-15.23393900271344
 20
486.65646228091617
 30
0.0
 11
-15.23393900271344
 21
488.65646228091617
 31
0.0
  0
LINE
  5
1F977
  8
AM_0
 10
-144.23397378303619
 20
478.65646228091617
 30
0.0
 11
-161.23397378303611
 21
478.65646228091617
 31
0.0
  0
LINE
  5
1F978
  8
AM_0
 10
-142.23397378303619
 20
486.65646228091617
 30
0.0
 11
-163.23397378303611
 21
486.65646228091617
 31
0.0
  0
ARC
  5
1F979
  8
AM_0
 10
-145.37084878303619
 20
482.99648777232159
 30
0.0
 40
4.3400254914053003
 50
235.561530595265
 51
304.43846940473497
  0
LINE
  5
1F97A
  8
AM_0
 10
-142.9164737830362
 20
486.65646228091617
 30
0.0
 11
-142.9164737830362
 21
479.41712126057359
 31
0.0
  0
LINE
  5
1F97B
  8
AM_0
 10
-142.9164737830362
 20
479.41712126057359
 30
0.0
 11
-144.23397378303619
 21
478.65646228091617
 31
0.0
  0
LINE
  5
1F97C
  8
AM_0
 10
-142.23397378303619
 20
488.65646228091617
 30
0.0
 11
-142.23397378303619
 21
486.65646228091617
 31
0.0
  0
LINE
  5
1F97D
  8
AM_0N
 10
-157.73397378303619
 20
478.57665536233378
 30
0.0
 11
-156.81379878303611
 21
477.65648036233381
 31
0.0
  0
ARC
  5
1F97E
  8
AM_0
 10
-152.73397378303611
 20
494.87557577705138
 30
0.0
 40
16.219113496135169
 50
252.38303115960849
 51
287.61696884039162
  0
LINE
  5
1F97F
  8
AM_0N
 10
-157.73397378303619
 20
478.57665536233378
 30
0.0
 11
-147.73397378303619
 21
478.57665536233378
 31
0.0
  0
LINE
  5
1F980
  8
AM_0
 10
-147.82522378303619
 20
486.65646228091617
 30
0.0
 11
-147.82522378303619
 21
479.41712126057359
 31
0.0
  0
LINE
  5
1F981
  8
AM_4N
 10
-156.81379878303611
 20
477.65648036233381
 30
0.0
 11
-156.81379878303611
 21
478.65646228091617
 31
0.0
  0
LINE
  5
1F982
  8
AM_0N
 10
-147.73397378303619
 20
478.656462280916
 30
0.0
 11
-147.73397378303619
 21
478.57665536233378
 31
0.0
  0
LINE
  5
1F983
  8
AM_0N
 10
-147.73397378303619
 20
478.57665536233378
 30
0.0
 11
-148.65414878303619
 21
477.65648036233381
 31
0.0
  0
LINE
  5
1F984
  8
AM_4N
 10
-148.65414878303619
 20
477.65648036233381
 30
0.0
 11
-148.65414878303619
 21
478.65646228091617
 31
0.0
  0
LINE
  5
1F985
  8
AM_0N
 10
-156.81379878303611
 20
477.65648036233381
 30
0.0
 11
-148.65414878303619
 21
477.65648036233381
 31
0.0
  0
LINE
  5
1F986
  8
AM_0
 10
-157.64272378303619
 20
486.65646228091617
 30
0.0
 11
-157.64272378303619
 21
479.41712126057359
 31
0.0
  0
LINE
  5
1F987
  8
AM_0
 10
-162.5514737830361
 20
486.65646228091617
 30
0.0
 11
-162.5514737830361
 21
479.41712126057359
 31
0.0
  0
LINE
  5
1F988
  8
AM_0
 10
-162.5514737830361
 20
479.41712126057359
 30
0.0
 11
-161.23397378303611
 21
478.65646228091617
 31
0.0
  0
ARC
  5
1F989
  8
AM_0
 10
-160.09709878303619
 20
482.99648777232159
 30
0.0
 40
4.3400254914053003
 50
244.4384694047327
 51
304.43846940473497
  0
LINE
  5
1F98A
  8
AM_0N
 10
-157.73397378303619
 20
478.656462280916
 30
0.0
 11
-157.73397378303619
 21
478.57665536233378
 31
0.0
  0
LINE
  5
1F98B
  8
AM_0
 10
-163.23397378303611
 20
486.65646228091617
 30
0.0
 11
-163.23397378303611
 21
488.65646228091617
 31
0.0
  0
LINE
  5
1F98F
  8
AM_0
 10
-55.610778425158912
 20
595.65648121283937
 30
0.0
 11
-164.7339741286639
 21
595.65648121283937
 31
0.0
  0
TEXT
  5
1FBF3
  8
AM_0
 10
110.8627248158077
 20
548.34933471987495
 30
0.0
 40
10.0
  1
VC04-007KML~VC04-060KML
1001
ACAD
1000
MTEXTBEGIN
1070
    73
1070
     1
1070
    44
1040
1.0
1070
    74
1070
     0
1000
MTEXTEND
  0
VIEWPORT
  5
89
 67
     1
  8
0
 10
210.0
 20
148.5
 30
0.0
 40
420.0
 41
297.0
 68
     1
 69
     1
1001
ACAD
1000
MVIEW
1002
{
1070
    16
1010
0.0
1020
0.0
1030
0.0
1010
0.0
1020
0.0
1030
1.0
1040
0.0
1040
297.0
1040
221.70154043645701
1040
148.5
1040
50.0
1040
0.0
1040
0.0
1070
     0
1070
   100
1070
     1
1070
     1
1070
     0
1070
     0
1070
     0
1070
     0
1040
0.0
1040
0.0
1040
0.0
1040
10.0
1040
10.0
1040
10.0
1040
10.0
1070
     0
1002
{
1002
}
1002
}
1001
GENIUS_GENOREF_13
1005
1B94
1001
GENIUS_GENSCREG_15
1000
PF
1040
1.0
1000
DF
1040
1.0
1000
MIN
1011
0.0
1021
0.0
1031
0.0
1021
0.0
1031
0.0
1000
MAX
1011
420.0
1021
0.0
1031
0.0
1021
297.0
1031
0.0
1000
FLAGS
1070
     4
  0
ENDSEC
  0
EOF
