  0
SECTION
  2
HEADER
  9
$ACADVER
  1
AC1009
  9
$INSBASE
 10
0.0
 20
0.0
 30
0.0
  9
$EXTMIN
 10
-329.99593468129251
 20
253.09909719828991
 30
-0.0000000349181948
  9
$EXTMAX
 10
535.84347056880767
 20
814.39554827300401
 30
0.0000000814935747
  9
$LIMMIN
 10
0.0
 20
0.0
  9
$LIMMAX
 10
1138.0
 20
740.00000000000011
  9
$ORTHOMODE
 70
     0
  9
$REGENMODE
 70
     1
  9
$FILLMODE
 70
     1
  9
$QTEXTMODE
 70
     0
  9
$MIRRTEXT
 70
     1
  9
$DRAGMODE
 70
     2
  9
$LTSCALE
 40
4.0
  9
$OSMODE
 70
   551
  9
$ATTMODE
 70
     1
  9
$TEXTSIZE
 40
2.5
  9
$TRACEWID
 40
1.0
  9
$TEXTSTYLE
  7
STANDARD
  9
$CLAYER
  8
AM_0
  9
$CELTYPE
  6
BYLAYER
  9
$CECOLOR
 62
   256
  9
$DIMSCALE
 40
4.0
  9
$DIMASZ
 40
2.5
  9
$DIMEXO
 40
1.0
  9
$DIMDLI
 40
7.0
  9
$DIMRND
 40
0.0
  9
$DIMDLE
 40
0.0
  9
$DIMEXE
 40
1.0
  9
$DIMTP
 40
0.1
  9
$DIMTM
 40
0.1000000001
  9
$DIMTXT
 40
2.5
  9
$DIMCEN
 40
0.0
  9
$DIMTSZ
 40
0.0
  9
$DIMTOL
 70
     0
  9
$DIMLIM
 70
     0
  9
$DIMTIH
 70
     0
  9
$DIMTOH
 70
     0
  9
$DIMSE1
 70
     0
  9
$DIMSE2
 70
     0
  9
$DIMTAD
 70
     3
  9
$DIMZIN
 70
     8
  9
$DIMBLK
  1

  9
$DIMASO
 70
     1
  9
$DIMSHO
 70
     1
  9
$DIMPOST
  1

  9
$DIMAPOST
  1
"
  9
$DIMALT
 70
     0
  9
$DIMALTD
 70
     2
  9
$DIMALTF
 40
0.0393701
  9
$DIMLFAC
 40
1.0
  9
$DIMTOFL
 70
     1
  9
$DIMTVP
 40
0.0
  9
$DIMTIX
 70
     0
  9
$DIMSOXD
 70
     0
  9
$DIMSAH
 70
     0
  9
$DIMBLK1
  1

  9
$DIMBLK2
  1

  9
$DIMSTYLE
  2
AM_JIS
  9
$DIMCLRD
 70
   256
  9
$DIMCLRE
 70
   256
  9
$DIMCLRT
 70
     4
  9
$DIMTFAC
 40
0.71
  9
$DIMGAP
 40
1.0
  9
$LUNITS
 70
     2
  9
$LUPREC
 70
     2
  9
$SKETCHINC
 40
1.0
  9
$FILLETRAD
 40
8.0
  9
$AUNITS
 70
     0
  9
$AUPREC
 70
     3
  9
$MENU
  1
.
  9
$ELEVATION
 40
0.0
  9
$PELEVATION
 40
0.0
  9
$THICKNESS
 40
0.0
  9
$LIMCHECK
 70
     0
  9
$BLIPMODE
 70
     0
  9
$CHAMFERA
 40
10.0
  9
$CHAMFERB
 40
10.0
  9
$SKPOLY
 70
     0
  9
$TDCREATE
 40
2452753.643349607
  9
$TDUPDATE
 40
2458543.4558235882
  9
$TDINDWG
 40
0.5806381019
  9
$TDUSRTIMER
 40
0.5806379051
  9
$USRTIMER
 70
     1
  9
$ANGBASE
 50
0.0
  9
$ANGDIR
 70
     0
  9
$PDMODE
 70
     0
  9
$PDSIZE
 40
0.0
  9
$PLINEWID
 40
0.0
  9
$COORDS
 70
     1
  9
$SPLFRAME
 70
     0
  9
$SPLINETYPE
 70
     6
  9
$SPLINESEGS
 70
     8
  9
$ATTDIA
 70
     1
  9
$ATTREQ
 70
     1
  9
$HANDLING
 70
     1
  9
$HANDSEED
  5
19964
  9
$SURFTAB1
 70
     6
  9
$SURFTAB2
 70
     6
  9
$SURFTYPE
 70
     6
  9
$SURFU
 70
     6
  9
$SURFV
 70
     6
  9
$UCSNAME
  2

  9
$UCSORG
 10
0.0
 20
0.0
 30
0.0
  9
$UCSXDIR
 10
1.0
 20
0.0
 30
0.0
  9
$UCSYDIR
 10
0.0
 20
1.0
 30
0.0
  9
$PUCSNAME
  2

  9
$PUCSORG
 10
0.0
 20
0.0
 30
0.0
  9
$PUCSXDIR
 10
1.0
 20
0.0
 30
0.0
  9
$PUCSYDIR
 10
0.0
 20
1.0
 30
0.0
  9
$USERI1
 70
     0
  9
$USERI2
 70
     0
  9
$USERI3
 70
     0
  9
$USERI4
 70
     0
  9
$USERI5
 70
     0
  9
$USERR1
 40
0.0
  9
$USERR2
 40
0.0
  9
$USERR3
 40
0.0
  9
$USERR4
 40
0.0
  9
$USERR5
 40
0.0
  9
$WORLDVIEW
 70
     1
  9
$SHADEDGE
 70
     3
  9
$SHADEDIF
 70
    70
  9
$TILEMODE
 70
     1
  9
$MAXACTVP
 70
    48
  9
$PLIMCHECK
 70
     0
  9
$PEXTMIN
 10
1.0000000000000000E+020
 20
1.0000000000000000E+020
 30
1.0000000000000000E+020
  9
$PEXTMAX
 10
-1.0000000000000000E+020
 20
-1.0000000000000000E+020
 30
-1.0000000000000000E+020
  9
$PLIMMIN
 10
0.0
 20
0.0
  9
$PLIMMAX
 10
420.0
 20
297.0
  9
$UNITMODE
 70
     0
  9
$VISRETAIN
 70
     1
  9
$PLINEGEN
 70
     0
  9
$PSLTSCALE
 70
     1
  0
ENDSEC
  0
SECTION
  2
TABLES
  0
TABLE
  2
VPORT
 70
     1
  0
VPORT
  2
*ACTIVE
 70
     0
 10
0.0
 20
0.0
 11
1.0
 21
1.0
 12
102.9237679437576
 22
533.74732273564689
 13
0.0
 23
0.0
 14
10.0
 24
10.0
 15
40.0
 25
40.0
 16
0.0
 26
0.0
 36
1.0
 17
0.0
 27
0.0
 37
0.0
 40
565.14974478918577
 41
1.7571592210767459
 42
50.0
 43
0.0
 44
0.0
 50
0.0
 51
0.0
 71
     0
 72
   100
 73
     1
 74
     1
 75
     0
 76
     0
 77
     0
 78
     0
  0
ENDTAB
  0
TABLE
  2
LTYPE
 70
    21
  0
LTYPE
  2
CONTINUOUS
 70
     0
  3
Solid line
 72
    65
 73
     0
 40
0.0
  0
LTYPE
  2
PHANTOM2
 70
     0
  3
Phantom (.5x) ___ _ _ ___ _ _ ___ _ _ ___ _ _
 72
    65
 73
     6
 40
31.75
 49
15.875
 49
-3.174999999999998
 49
3.174999999999998
 49
-3.174999999999998
 49
3.174999999999998
 49
-3.174999999999998
  0
LTYPE
  2
CENTER
 70
     0
  3
Center ____ _ ____ _ ____ _ ____ _ ____ _ ____
 72
    65
 73
     4
 40
50.799999999999997
 49
31.75
 49
-6.3499999999999979
 49
6.3499999999999979
 49
-6.3499999999999979
  0
LTYPE
  2
ACANSTGBM
 70
     0
  3
__ . . __ . .
 72
    65
 73
     6
 40
9.0
 49
4.0
 49
-1.0
 49
1.0
 49
-1.0
 49
1.0
 49
-1.0
  0
LTYPE
  2
ACANSTGLM
 70
     0
  3
_ _ _ _ _
 72
    65
 73
     2
 40
3.0
 49
2.0
 49
-1.0
  0
LTYPE
  2
GEN3B
 70
     0
  3
 - - - - -
 72
    65
 73
     2
 40
1.0
 49
0.5
 49
-0.5
  0
LTYPE
  2
GEN7A
 70
     0
  3
__ . __ . __
 72
    65
 73
     4
 40
7.375
 49
4.75
 49
-0.875
 49
0.875
 49
-0.875
  0
LTYPE
  2
AM_ISO02W050
 70
     0
  3
__ __ __ __ __ __ __ __ __ __ __ __ __ __ __
 72
    65
 73
     2
 40
7.5
 49
6.0
 49
-1.5
  0
LTYPE
  2
AM_ISO08W050
 70
     0
  3
____ . ____ . ____ . ____ . ____ . ____ . ____
 72
    65
 73
     4
 40
18.0
 49
12.0
 49
-1.5
 49
3.0
 49
-1.5
  0
LTYPE
  2
AM_ISO09W050
 70
     0
  3
_____ . . _____ . . _____ . . ____ .. ____
 72
    65
 73
     6
 40
22.5
 49
12.0
 49
-1.5
 49
3.0
 49
-1.5
 49
3.0
 49
-1.5
  0
LTYPE
  2
AMCONSTR
 70
     0
  3
_______________________
 72
    65
 73
     2
 40
9999.0
 49
9999.0
 49
0.0
  0
LTYPE
  2
AM_ISO02W050X2
 70
     0
  3
 _ _ _ _ _ _ _ _ _ _ _ _
 72
    65
 73
     2
 40
3.75
 49
3.0
 49
-0.75
  0
LTYPE
  2
AM_ISO08W050X2
 70
     0
  3
__ . __ . __ . __ . __ . __
 72
    65
 73
     4
 40
9.0
 49
6.0
 49
-0.75
 49
1.5
 49
-0.75
  0
LTYPE
  2
AMZIGZAG
 70
     0
  3
/\/-/\/-/\/-/\/-/\/-/\/
 72
    65
 73
     2
 40
11.0001
 49
0.0001
 49
-11.0
  0
LTYPE
  2
ACJISTGB
 70
     0
  3
__ . . __ . .
 72
    65
 73
     6
 40
9.0
 49
4.0
 49
-1.0
 49
1.0
 49
-1.0
 49
1.0
 49
-1.0
  0
LTYPE
  2
ACJISTGL
 70
     0
  3
_ _ _ _ _
 72
    65
 73
     2
 40
3.0
 49
2.0
 49
-1.0
  0
LTYPE
  2
ACISOWELD
 70
     0
  3
_ _ _ _ _
 72
    65
 73
     2
 40
2.0
 49
2.0
 49
-1.0
  0
LTYPE
  2
ACISOTGB
 70
     0
  3
__ . . __ . .
 72
    65
 73
     6
 40
9.0
 49
4.0
 49
-1.0
 49
1.0
 49
-1.0
 49
1.0
 49
-1.0
  0
LTYPE
  2
ACISOTGL
 70
     0
  3
_ _ _ _ _
 72
    65
 73
     2
 40
3.0
 49
2.0
 49
-1.0
  0
LTYPE
  2
HIDDEN
 70
     0
  3
Hidden __ __ __ __ __ __ __ __ __ __ __ __ __ _
 72
    65
 73
     2
 40
9.5249999999999968
 49
6.3499999999999979
 49
-3.174999999999998
  0
ENDTAB
  0
TABLE
  2
LAYER
 70
     9
  0
LAYER
  2
0
 70
     0
 62
     7
  6
CONTINUOUS
  0
LAYER
  2
ｽﾝﾎﾟｳｾﾝ
 70
     0
 62
     2
  6
CONTINUOUS
  0
LAYER
  2
DEFPOINTS
 70
     0
 62
     7
  6
CONTINUOUS
  0
LAYER
  2
ｶｸﾚｾﾝ2
 70
     0
 62
     3
  6
GEN3B
  0
LAYER
  2
ﾁｭｳｼﾝｾﾝ1
 70
     0
 62
     1
  6
GEN7A
  0
LAYER
  2
AM_0
 70
     0
 62
     7
  6
CONTINUOUS
  0
LAYER
  2
AM_0N
 70
     0
 62
     7
  6
CONTINUOUS
  0
LAYER
  2
AM_5
 70
     0
 62
     2
  6
CONTINUOUS
  0
LAYER
  2
AM_12N
 70
     0
 62
     7
  6
CONTINUOUS
  0
ENDTAB
  0
TABLE
  2
STYLE
 70
     8
  0
STYLE
  2
STANDARD
 70
     0
 40
0.0
 41
0.8299999999999999
 50
0.0
 71
     0
 42
2.5
  3
txt.shx
  4
bigfont.shx
  0
STYLE
  2
ACANSTS
 70
     0
 40
1.0
 41
1.0
 50
0.0
 71
     0
 42
2.5
  3
romans.shx
  4
bigfont.shx
  0
STYLE
  2
ACANSGDT
 70
     0
 40
0.0
 41
1.0
 50
0.0
 71
     0
 42
2.5
  3
amgdtans.shx
  4

  0
STYLE
  2

 70
     1
 40
0.0
 41
1.0
 50
0.0
 71
     0
 42
2.5
  3
ltypeshp.shx
  4

  0
STYLE
  2
ACJISTS
 70
     0
 40
1.0
 41
1.0
 50
0.0
 71
     0
 42
2.5
  3
isocp.shx
  4
bigfont.shx
  0
STYLE
  2
ACJISGDT
 70
     0
 40
0.0
 41
1.0
 50
0.0
 71
     0
 42
2.5
  3
amgdt.shx
  4

  0
STYLE
  2
ACISOTS
 70
     0
 40
3.0
 41
1.0
 50
0.0
 71
     0
 42
2.5
  3
isocp.shx
  4
extfont.shx
  0
STYLE
  2
ACISOGDT
 70
     0
 40
0.0
 41
1.0
 50
0.0
 71
     0
 42
2.5
  3
amgdt.shx
  4

  0
ENDTAB
  0
TABLE
  2
VIEW
 70
    12
  0
VIEW
  2
GEN1
 70
     0
 40
95.824742268041234
 10
71.5
 20
137.08762886597941
 41
143.0
 11
0.0
 21
0.0
 31
1.0
 12
0.0
 22
0.0
 32
0.0
 42
50.0
 43
0.0
 44
0.0
 50
0.0
 71
     0
  0
VIEW
  2
GEN2
 70
     0
 40
95.824742268041234
 10
214.5
 20
137.08762886597941
 41
143.0
 11
0.0
 21
0.0
 31
1.0
 12
0.0
 22
0.0
 32
0.0
 42
50.0
 43
0.0
 44
0.0
 50
0.0
 71
     0
  0
VIEW
  2
GEN3
 70
     0
 40
95.824742268041234
 10
71.5
 20
47.912371134020603
 41
143.0
 11
0.0
 21
0.0
 31
1.0
 12
0.0
 22
0.0
 32
0.0
 42
50.0
 43
0.0
 44
0.0
 50
0.0
 71
     0
  0
VIEW
  2
GEN4
 70
     0
 40
95.824742268041234
 10
214.5
 20
47.912371134020603
 41
143.0
 11
0.0
 21
0.0
 31
1.0
 12
0.0
 22
0.0
 32
0.0
 42
50.0
 43
0.0
 44
0.0
 50
0.0
 71
     0
  0
VIEW
  2
GEN5
 70
     0
 40
95.824742268041234
 10
143.0
 20
92.500000000000057
 41
143.0
 11
0.0
 21
0.0
 31
1.0
 12
0.0
 22
0.0
 32
0.0
 42
50.0
 43
0.0
 44
0.0
 50
0.0
 71
     0
  0
VIEW
  2
GEN6
 70
     0
 40
191.64756804123709
 10
143.0
 20
92.5
 41
285.99714
 11
0.0
 21
0.0
 31
1.0
 12
0.0
 22
0.0
 32
0.0
 42
50.0
 43
0.0
 44
0.0
 50
0.0
 71
     0
  0
VIEW
  2
AM_VIEW1
 70
     0
 40
370.00000000000023
 10
332.86372007366492
 20
555.00000000000011
 41
665.72744014732973
 11
0.0
 21
0.0
 31
1.0
 12
0.0
 22
0.0
 32
0.0
 42
50.0
 43
0.0
 44
0.0
 50
0.0
 71
     0
  0
VIEW
  2
AM_VIEW2
 70
     0
 40
370.00000000000023
 10
805.13627992633508
 20
555.00000000000011
 41
665.72744014732973
 11
0.0
 21
0.0
 31
1.0
 12
0.0
 22
0.0
 32
0.0
 42
50.0
 43
0.0
 44
0.0
 50
0.0
 71
     0
  0
VIEW
  2
AM_VIEW3
 70
     0
 40
370.00000000000023
 10
332.86372007366492
 20
185.0
 41
665.72744014732973
 11
0.0
 21
0.0
 31
1.0
 12
0.0
 22
0.0
 32
0.0
 42
50.0
 43
0.0
 44
0.0
 50
0.0
 71
     0
  0
VIEW
  2
AM_VIEW4
 70
     0
 40
370.00000000000023
 10
805.13627992633508
 20
185.0
 41
665.72744014732973
 11
0.0
 21
0.0
 31
1.0
 12
0.0
 22
0.0
 32
0.0
 42
50.0
 43
0.0
 44
0.0
 50
0.0
 71
     0
  0
VIEW
  2
AM_VIEW5
 70
     0
 40
370.00000000000023
 10
569.0
 20
370.00000000000023
 41
665.72744014732962
 11
0.0
 21
0.0
 31
1.0
 12
0.0
 22
0.0
 32
0.0
 42
50.0
 43
0.0
 44
0.0
 50
0.0
 71
     0
  0
VIEW
  2
AM_VIEW6
 70
     0
 40
739.99260000000015
 10
569.0
 20
370.00000000000023
 41
1331.4415657458569
 11
0.0
 21
0.0
 31
1.0
 12
0.0
 22
0.0
 32
0.0
 42
50.0
 43
0.0
 44
0.0
 50
0.0
 71
     0
  0
ENDTAB
  0
TABLE
  2
UCS
 70
     0
  0
ENDTAB
  0
TABLE
  2
APPID
 70
    98
  0
APPID
  2
ACAD
 70
     0
  0
APPID
  2
MCAD_NO_VIS
 70
     0
  0
APPID
  2
ACAD_TEMP_GRAPHIC
 70
     0
  0
APPID
  2
AD_DRAW
 70
     0
  0
APPID
  2
DESIGNERASSEMBLIES
 70
     0
  0
APPID
  2
ASURF_PCURVE_APPNAME
 70
     0
  0
APPID
  2
GENIUS_GE3SECT_13
 70
     0
  0
APPID
  2
GENIUS_GENCFG_13
 70
     0
  0
APPID
  2
GENIUS_GE3CFG0_13
 70
     0
  0
APPID
  2
GENIUS_GENCFG0_13
 70
     0
  0
APPID
  2
GENIUS_GENCFG1_13
 70
     0
  0
APPID
  2
GENIUS_GENCFG2_13
 70
     0
  0
APPID
  2
GENIUS_GENCFG3_13
 70
     0
  0
APPID
  2
GENIUS_GENCFG4_13
 70
     0
  0
APPID
  2
GENIUS_GEVCFG0_13
 70
     0
  0
APPID
  2
GENIUS_GENOENT_13
 70
     0
  0
APPID
  2
GENIUS_GENREC_14
 70
     0
  0
APPID
  2
GENIUS_GENODEF_13
 70
     0
  0
APPID
  2
GENIUS_GENOBJ-N-REC_13
 70
     0
  0
APPID
  2
GENIUS_GENHINW_13
 70
     0
  0
APPID
  2
GENIUS_FIRSTVISTXT_14
 70
     0
  0
APPID
  2
GENIUS_GENOBJ-N-LEADER_13
 70
     0
  0
APPID
  2
GENIUS_GENOREF_13
 70
     0
  0
APPID
  2
GENIUS_GENOLIS_13
 70
     0
  0
APPID
  2
GEV_VCCNULL_SWITCH_OFF
 70
     0
  0
APPID
  2
GENIUS_GENDTOL_13
 70
     0
  0
APPID
  2
GENIUS_GEFCFG0_13
 70
     0
  0
APPID
  2
GENIUS_GENOBJ-N-TIT_13
 70
     0
  0
APPID
  2
GENIUS_GENTITLE_13
 70
     0
  0
APPID
  2
GENIUS_GENZVEED_13
 70
     0
  0
APPID
  2
GENIUS_GENOBJ-N-SDF_13
 70
     0
  0
APPID
  2
GENIUS_GENSCREG_13
 70
     0
  0
APPID
  2
GENIUS_DUMCFG0_13
 70
     0
  0
APPID
  2
GEVID936201362
 70
     0
  0
APPID
  2
GEVDC
 70
     0
  0
APPID
  2
GEVCON
 70
     0
  0
APPID
  2
VCC
 70
     0
  0
APPID
  2
GEVPT
 70
     0
  0
APPID
  2
GEVIT
 70
     0
  0
APPID
  2
GENBH
 70
     0
  0
APPID
  2
GEVMK
 70
     0
  0
APPID
  2
GENIUS_GENBH_13
 70
     0
  0
APPID
  2
GENIUS_GENOBJ-NBEHI-BHF_13
 70
     0
  0
APPID
  2
GENIUS_GENOBJ-NBEHI-BHB_13
 70
     0
  0
APPID
  2
GENIUS_GENOBJ-F-DESC_13
 70
     0
  0
APPID
  2
GENIUS_GEFDESC_14
 70
     0
  0
APPID
  2
GENIUS_GENOBJ-F-PART_13
 70
     0
  0
APPID
  2
GENIUS_GEFSTDP_13
 70
     0
  0
APPID
  2
GENIUS_GEFPARTINS_13
 70
     0
  0
APPID
  2
GENIUS_GENTRA_14
 70
     0
  0
APPID
  2
GENIUS_GENINF13_13
 70
     0
  0
APPID
  2
GENIUS_GENOBJ-N-INFOPT_13
 70
     0
  0
APPID
  2
GENIUS_GENOBJ-N-RSSYM_13
 70
     0
  0
APPID
  2
GENIUS_GENSYMENT_13
 70
     0
  0
APPID
  2
GENIUS_GENSCSYM_13
 70
     0
  0
APPID
  2
GENIUS_GEFINFNAM_13
 70
     0
  0
APPID
  2
GENIUS_GENSCREG_15
 70
     0
  0
APPID
  2
GENIUS_GENOBJ-N-CEN_13
 70
     0
  0
APPID
  2
GENIUS_GENOBJ-N-CRS_13
 70
     0
  0
APPID
  2
GENIUS_GENOBJ-N-CRC_13
 70
     0
  0
APPID
  2
GENIUS_GENCRC_14
 70
     0
  0
APPID
  2
GEVID942827039
 70
     0
  0
APPID
  2
GEVID942827040
 70
     0
  0
APPID
  2
GEVID942827041
 70
     0
  0
APPID
  2
GENIUS_GENOBJ-F-SCPASSM_13
 70
     0
  0
APPID
  2
GENIUS_GENDIMSH_14
 70
     0
  0
APPID
  2
GENIUS_GENFIL_13
 70
     0
  0
APPID
  2
GENIUS_GENOBJ-N-CHA_13
 70
     0
  0
APPID
  2
GENIUS_GENOBJ-N-FIL_13
 70
     0
  0
APPID
  2
GEVID942827042
 70
     0
  0
APPID
  2
GEVID946020473
 70
     0
  0
APPID
  2
GEVID946020474
 70
     0
  0
APPID
  2
GEVID946020475
 70
     0
  0
APPID
  2
GENIUS_GENOBJ-N-HTC_13
 70
     0
  0
APPID
  2
GENIUS_GENHATCH_13
 70
     0
  0
APPID
  2
GEVID948854295
 70
     0
  0
APPID
  2
GEVID939402019
 70
     0
  0
APPID
  2
GEVID952919491
 70
     0
  0
APPID
  2
GEVID952919492
 70
     0
  0
APPID
  2
GENIUS_GEFWELD_13
 70
     0
  0
APPID
  2
GENIUS_GENOBJ-F-WELS_13
 70
     0
  0
APPID
  2
GEVID952919493
 70
     0
  0
APPID
  2
GENIUS_GENOBJ-N-RSBK_13
 70
     0
  0
APPID
  2
GENIUS_GENOBJ-N-LIB_13
 70
     0
  0
APPID
  2
GENIUS_GENSCALE_13
 70
     0
  0
APPID
  2
GEVID986376691
 70
     0
  0
APPID
  2
ACATTRIBSERVICES
 70
     0
  0
APPID
  2
DCO15
 70
     0
  0
APPID
  2
GEVID1088736456
 70
     0
  0
APPID
  2
GEVID1088736458
 70
     0
  0
APPID
  2
ACADM_DIM_EDIT
 70
     0
  0
APPID
  2
AMDT_DM_ADJ
 70
     0
  0
APPID
  2
ACAD_MLEADERVER
 70
     0
  0
APPID
  2
ACAD_DSTYLE_DIMBREAK
 70
     0
  0
APPID
  2
ACAD_DSTYLE_DIMJAG
 70
     0
  0
APPID
  2
ACAD_NAV_VCDISPLAY
 70
     0
  0
APPID
  2
ACADANNOPO
 70
     0
  0
APPID
  2
ACAD_EXEMPT_FROM_CAD_STANDARDS
 70
     0
  0
ENDTAB
  0
TABLE
  2
DIMSTYLE
 70
    15
  0
DIMSTYLE
  2
STANDARD
 70
     0
  3

  4

  5

  6

  7

 40
1.0
 41
0.18
 42
0.0625
 43
0.38
 44
0.18
 45
0.0
 46
0.0
 47
0.0
 48
0.0
140
0.18
141
0.09
142
0.0
143
25.399999999999999
144
1.0
145
0.0
146
1.0
147
0.09
 71
     0
 72
     0
 73
     1
 74
     1
 75
     0
 76
     0
 77
     0
 78
     0
170
     0
171
     2
172
     0
173
     0
174
     0
175
     0
176
     0
177
     0
178
     0
  0
DIMSTYLE
  2
AM_JIS
 70
     0
  3

  4
"
  5

  6

  7

 40
1.0
 41
2.5
 42
1.0
 43
7.0
 44
1.0
 45
0.0
 46
0.0
 47
0.1
 48
0.1000000001
140
2.5
141
0.0
142
0.0
143
0.0393701
144
1.0
145
0.0
146
0.71
147
1.0
 71
     0
 72
     0
 73
     0
 74
     0
 75
     0
 76
     0
 77
     3
 78
     8
170
     0
171
     2
172
     1
173
     0
174
     0
175
     0
176
   256
177
   256
178
     4
  0
DIMSTYLE
  2
AM_JIS$3
 70
     0
  3

  4
"
  5

  6

  7

 40
1.0
 41
2.5
 42
1.0
 43
7.0
 44
1.0
 45
0.0
 46
0.0
 47
0.1
 48
0.1000000001
140
2.5
141
0.0
142
0.0
143
0.0393701
144
1.0
145
0.0
146
0.71
147
1.0
 71
     0
 72
     0
 73
     0
 74
     1
 75
     0
 76
     0
 77
     3
 78
     8
170
     0
171
     2
172
     0
173
     0
174
     0
175
     0
176
   256
177
   256
178
     4
  0
DIMSTYLE
  2
AM_JIS$4
 70
     0
  3

  4
"
  5

  6

  7

 40
1.0
 41
2.5
 42
1.0
 43
7.0
 44
1.0
 45
0.0
 46
0.0
 47
0.1
 48
0.1000000001
140
2.5
141
0.0
142
0.0
143
0.0393701
144
1.0
145
0.0
146
0.71
147
1.0
 71
     0
 72
     0
 73
     0
 74
     0
 75
     0
 76
     0
 77
     3
 78
     8
170
     0
171
     2
172
     0
173
     0
174
     0
175
     0
176
   256
177
   256
178
     4
  0
DIMSTYLE
  2
AM_JIS$6
 70
     0
  3

  4
"
  5

  6

  7

 40
1.0
 41
2.5
 42
1.0
 43
7.0
 44
1.0
 45
0.0
 46
0.0
 47
0.1
 48
0.1000000001
140
2.5
141
0.0
142
0.0
143
0.0393701
144
1.0
145
0.0
146
0.71
147
1.0
 71
     0
 72
     0
 73
     0
 74
     0
 75
     0
 76
     0
 77
     0
 78
     8
170
     0
171
     2
172
     1
173
     0
174
     0
175
     0
176
   256
177
   256
178
     4
  0
DIMSTYLE
  2
AM_JIS$7
 70
     0
  3

  4
"
  5

  6

  7

 40
1.0
 41
2.5
 42
1.0
 43
7.0
 44
1.0
 45
0.0
 46
0.0
 47
0.1
 48
0.1000000001
140
2.5
141
0.0
142
0.0
143
0.0393701
144
1.0
145
0.0
146
0.71
147
1.0
 71
     0
 72
     0
 73
     0
 74
     0
 75
     0
 76
     0
 77
     3
 78
     8
170
     0
171
     2
172
     1
173
     0
174
     0
175
     0
176
   256
177
   256
178
     4
  0
DIMSTYLE
  2
AM_JIS$SF
 70
     0
  3

  4
"
  5
OPEN30
  6
OPEN30
  7
OPEN30
 40
1.0
 41
2.5
 42
1.0
 43
10.0
 44
1.0
 45
0.0
 46
0.0
 47
0.1
 48
0.1
140
3.5
141
0.0
142
0.0
143
0.0393701
144
1.0
145
0.0
146
0.71
147
1.5
 71
     0
 72
     0
 73
     0
 74
     0
 75
     1
 76
     1
 77
     3
 78
     8
170
     0
171
     2
172
     1
173
     0
174
     0
175
     0
176
   256
177
   256
178
     4
  0
DIMSTYLE
  2
AM_JIS$SH
 70
     0
  3

  4
"
  5

  6
NONE
  7

 40
1.0
 41
2.5
 42
1.0
 43
10.0
 44
1.0
 45
0.0
 46
0.0
 47
0.1
 48
0.1
140
3.5
141
0.0
142
0.0
143
0.0393701
144
1.0
145
0.0
146
0.71
147
1.5
 71
     0
 72
     0
 73
     0
 74
     0
 75
     1
 76
     0
 77
     3
 78
     8
170
     0
171
     2
172
     1
173
     1
174
     0
175
     0
176
   256
177
   256
178
     4
  0
DIMSTYLE
  2
AM_ISO
 70
     0
  3

  4
"
  5

  6

  7

 40
1.0
 41
2.5
 42
1.0
 43
10.0
 44
1.0
 45
0.0
 46
0.0
 47
0.0
 48
0.000000001
140
3.0
141
0.0
142
0.0
143
0.0393701
144
1.0
145
0.0
146
0.71
147
1.299999999999998
 71
     1
 72
     0
 73
     0
 74
     0
 75
     0
 76
     0
 77
     1
 78
     8
170
     0
171
     2
172
     1
173
     0
174
     0
175
     0
176
   256
177
   256
178
     4
  0
DIMSTYLE
  2
AM_ISO$3
 70
     0
  3

  4
"
  5

  6

  7

 40
1.0
 41
2.5
 42
1.0
 43
10.0
 44
1.0
 45
0.0
 46
0.0
 47
0.0
 48
0.000000001
140
2.5
141
0.0
142
0.0
143
0.0393701
144
1.0
145
0.0
146
0.71
147
1.299999999999998
 71
     1
 72
     0
 73
     0
 74
     1
 75
     0
 76
     0
 77
     1
 78
     8
170
     0
171
     2
172
     0
173
     0
174
     0
175
     0
176
   256
177
   256
178
     4
  0
DIMSTYLE
  2
AM_ISO$4
 70
     0
  3

  4
"
  5

  6

  7

 40
1.0
 41
2.5
 42
1.0
 43
10.0
 44
1.0
 45
0.0
 46
0.0
 47
0.0
 48
0.000000001
140
2.5
141
0.0
142
0.0
143
0.0393701
144
1.0
145
0.0
146
0.71
147
1.299999999999998
 71
     1
 72
     0
 73
     0
 74
     1
 75
     0
 76
     0
 77
     1
 78
     8
170
     0
171
     2
172
     0
173
     0
174
     0
175
     0
176
   256
177
   256
178
     4
  0
DIMSTYLE
  2
AM_ISO$6
 70
     0
  3

  4
"
  5

  6

  7

 40
1.0
 41
2.5
 42
1.0
 43
10.0
 44
1.0
 45
0.0
 46
0.0
 47
0.0
 48
0.000000001
140
2.5
141
0.0
142
0.0
143
0.0393701
144
1.0
145
0.0
146
0.71
147
1.299999999999998
 71
     1
 72
     0
 73
     0
 74
     0
 75
     0
 76
     0
 77
     0
 78
     8
170
     0
171
     2
172
     1
173
     0
174
     0
175
     0
176
   256
177
   256
178
     4
  0
DIMSTYLE
  2
AM_ISO$7
 70
     0
  3

  4
"
  5

  6

  7

 40
1.0
 41
2.5
 42
1.0
 43
10.0
 44
1.0
 45
0.0
 46
0.0
 47
0.0
 48
0.000000001
140
2.5
141
0.0
142
0.0
143
0.0393701
144
1.0
145
0.0
146
0.71
147
1.299999999999998
 71
     1
 72
     0
 73
     0
 74
     0
 75
     0
 76
     0
 77
     1
 78
     8
170
     0
171
     2
172
     1
173
     0
174
     0
175
     0
176
   256
177
   256
178
     4
  0
DIMSTYLE
  2
AM_ISO$SF
 70
     0
  3

  4
"
  5

  6

  7

 40
1.0
 41
2.5
 42
1.0
 43
10.0
 44
1.0
 45
0.0
 46
0.0
 47
0.1
 48
0.1
140
3.5
141
0.0
142
0.0
143
0.0393701
144
1.0
145
0.0
146
0.71
147
1.5
 71
     0
 72
     0
 73
     0
 74
     0
 75
     1
 76
     1
 77
     1
 78
     8
170
     0
171
     2
172
     1
173
     0
174
     0
175
     0
176
   256
177
   256
178
     4
  0
DIMSTYLE
  2
AM_ISO$SH
 70
     0
  3

  4
"
  5

  6
GENAXEH
  7

 40
1.0
 41
2.5
 42
1.0
 43
10.0
 44
1.0
 45
0.0
 46
0.0
 47
0.1
 48
0.1
140
3.5
141
0.0
142
0.0
143
0.0393701
144
2.0
145
0.0
146
0.71
147
1.5
 71
     0
 72
     0
 73
     0
 74
     0
 75
     1
 76
     1
 77
     1
 78
     8
170
     0
171
     2
172
     1
173
     1
174
     0
175
     0
176
   256
177
   256
178
     4
  0
ENDTAB
  0
ENDSEC
  0
SECTION
  2
BLOCKS
  0
BLOCK
  8
0
  2
$MODEL_SPACE
 70
     0
 10
0.0
 20
0.0
 30
0.0
  3
$MODEL_SPACE
  1

  0
ENDBLK
  5
1A
  8
0
  0
BLOCK
 67
     1
  8
0
  2
$PAPER_SPACE
 70
     0
 10
0.0
 20
0.0
 30
0.0
  3
$PAPER_SPACE
  1

  0
ENDBLK
  5
17
 67
     1
  8
0
  0
BLOCK
  8
0
  2
_OPEN30
 70
     0
 10
0.0
 20
0.0
 30
0.0
  3
_OPEN30
  1

  0
LINE
  5
21C5
  8
0
 62
     0
 10
-1.0
 20
0.26794919
 30
0.0
 11
0.0
 21
0.0
 31
0.0
  0
LINE
  5
21C6
  8
0
 62
     0
 10
0.0
 20
0.0
 30
0.0
 11
-1.0
 21
-0.26794919
 31
0.0
  0
LINE
  5
21C7
  8
0
 62
     0
 10
0.0
 20
0.0
 30
0.0
 11
-1.0
 21
0.0
 31
0.0
  0
ENDBLK
  5
21C9
  8
0
  0
BLOCK
  8
0
  2
GENAXEH
 70
     0
 10
0.0
 20
0.0
 30
0.0
  3
GENAXEH
  1

  0
LINE
  5
21D0
  8
0
 10
-1.0
 20
0.0
 30
0.0
 11
1.0
 21
0.0
 31
0.0
  0
ENDBLK
  5
21D2
  8
0
  0
BLOCK
  8
0
  2
_NONE
 70
     0
 10
0.0
 20
0.0
 30
0.0
  3
_NONE
  1

  0
ENDBLK
  5
8193
  8
0
  0
BLOCK
  8
0
  2
*U5
 70
     1
 10
0.0
 20
0.0
 30
0.0
  3
*U5
  1

  0
SOLID
  5
1937D
  8
AM_0
  6
CONTINUOUS
 10
85.161672525010161
 20
641.84583647769932
 30
0.0
 11
80.161672525010161
 21
641.84583647769932
 31
0.0
 12
80.161672525010161
 22
636.84583647769932
 32
0.0
 13
80.161672525010161
 23
636.84583647769932
 33
0.0
210
0.0
220
0.0
230
-1.0
  0
LINE
  5
1937E
  8
AM_0
  6
CONTINUOUS
 10
-80.161672525010161
 20
641.84583647769932
 30
0.0
 11
-80.161672525010161
 21
636.84583647769932
 31
0.0
  0
LINE
  5
1937F
  8
AM_0
  6
CONTINUOUS
 10
-80.161672525010161
 20
636.84583647769932
 30
0.0
 11
-85.161672525010161
 21
641.84583647769932
 31
0.0
  0
ENDBLK
  5
19381
  8
0
  0
BLOCK
  8
0
  2
*U6
 70
     1
 10
0.0
 20
0.0
 30
0.0
  3
*U6
  1

  0
SOLID
  5
19383
  8
AM_0
  6
CONTINUOUS
 10
74.161672525010161
 20
641.84583647769932
 30
0.0
 11
69.161672525010147
 21
641.84583647769932
 31
0.0
 12
74.161672525010161
 22
636.84583647769932
 32
0.0
 13
74.161672525010161
 23
636.84583647769932
 33
0.0
210
0.0
220
0.0
230
-1.0
  0
LINE
  5
19384
  8
AM_0
  6
CONTINUOUS
 10
-69.161672525010147
 20
641.84583647769932
 30
0.0
 11
-74.161672525010161
 21
636.84583647769932
 31
0.0
  0
LINE
  5
19385
  8
AM_0
  6
CONTINUOUS
 10
-74.161672525010161
 20
636.84583647769932
 30
0.0
 11
-74.161672525010161
 21
641.84583647769932
 31
0.0
  0
ENDBLK
  5
19387
  8
0
  0
BLOCK
  8
0
  2
*U7
 70
     1
 10
0.0
 20
0.0
 30
0.0
  3
*U7
  1

  0
SOLID
  5
19389
  8
AM_0
  6
CONTINUOUS
 10
80.161672525010161
 20
776.84583999673282
 30
0.0
 11
80.161672525010161
 21
771.84583999673248
 31
0.0
 12
85.161672525010161
 22
771.84583999673248
 32
0.0
 13
85.161672525010161
 23
771.84583999673248
 33
0.0
210
0.0
220
0.0
230
-1.0
  0
LINE
  5
1938A
  8
AM_0
  6
CONTINUOUS
 10
-80.161672525010161
 20
776.84583999673282
 30
0.0
 11
-80.161672525010161
 21
771.84583999673248
 31
0.0
  0
LINE
  5
1938B
  8
AM_0
  6
CONTINUOUS
 10
-85.161672525010161
 20
771.84583999673248
 30
0.0
 11
-80.161672525010161
 21
776.84583999673282
 31
0.0
  0
ENDBLK
  5
1938D
  8
0
  0
BLOCK
  8
0
  2
*U8
 70
     1
 10
0.0
 20
0.0
 30
0.0
  3
*U8
  1

  0
SOLID
  5
1938F
  8
AM_0
  6
CONTINUOUS
 10
74.161672525010161
 20
776.84583999673282
 30
0.0
 11
69.161672525010147
 21
771.84583999673248
 31
0.0
 12
74.161672525010161
 22
771.84583999673248
 32
0.0
 13
74.161672525010161
 23
771.84583999673248
 33
0.0
210
0.0
220
0.0
230
-1.0
  0
LINE
  5
19390
  8
AM_0
  6
CONTINUOUS
 10
-74.161672525010161
 20
776.84583999673282
 30
0.0
 11
-69.161672525010147
 21
771.84583999673248
 31
0.0
  0
LINE
  5
19391
  8
AM_0
  6
CONTINUOUS
 10
-74.161672525010161
 20
771.84583999673248
 30
0.0
 11
-74.161672525010161
 21
776.84583999673282
 31
0.0
  0
ENDBLK
  5
19393
  8
0
  0
ENDSEC
  0
SECTION
  2
ENTITIES
  0
POINT
  5
1B94
  8
0
 10
0.0
 20
0.0
 30
0.0
1001
GENIUS_GENODEF_13
1002
{
1000
HIER
1070
     1
1002
}
1002
{
1000
MANEDIT
1070
     0
1002
}
1002
{
1000
NOSEL
1070
     0
1002
}
1002
{
1000
BEHIND
1070
     0
1002
}
1002
{
1000
REACTOR
1002
}
1001
GENIUS_GENOBJ-N-SDF_13
1002
{
1000
OWNER
1000
GEN
1002
}
1001
GENIUS_GENOENT_13
1002
{
1000
MYREF
1005
1B94
1002
}
1002
{
1000
GRP
1005
0
1002
}
1001
GENIUS_GENOLIS_13
1002
{
1000
ENT
1005
89
1002
}
  0
LINE
  5
1622B
  8
ﾁｭｳｼﾝｾﾝ1
 10
360.03026464943918
 20
450.80980751328099
 30
0.0
 11
360.03026464943918
 21
268.45847235835629
 31
0.0
  0
LINE
  5
1622C
  8
AM_0
 10
424.03026655806809
 20
414.86525874944351
 30
0.0
 11
424.03026655806809
 21
314.86365636320983
 31
0.0
  0
LINE
  5
1622D
  8
AM_0
 10
301.03026288992248
 20
444.5518751824244
 30
0.0
 11
301.03026288992282
 21
274.86445755632627
 31
0.0
  0
LINE
  5
1622E
  8
AM_0
 10
326.03026363548048
 20
444.86445755792641
 30
0.0
 11
326.03026363548031
 21
284.86445755472607
 31
0.0
  0
LINE
  5
1622F
  8
AM_0
 10
419.03026640895632
 20
443.12051106380977
 30
0.0
 11
419.03026640895661
 21
274.86445755632627
 31
0.0
  0
LINE
  5
16230
  8
AM_0
 10
296.03026274081083
 20
414.86525874944351
 30
0.0
 11
296.03026274081083
 21
314.86365636320983
 31
0.0
  0
LINE
  5
16231
  8
AM_0
 10
291.0302625902998
 20
389.86445830888488
 30
0.0
 11
291.0302625902998
 21
339.86445680376869
 31
0.0
  0
LINE
  5
16233
  8
0
 10
263.0302646673594
 20
384.86445755632622
 30
0.0
 11
291.0302625902998
 21
389.86445830888488
 31
0.0
  0
LINE
  5
16236
  8
ﾁｭｳｼﾝｾﾝ1
 10
427.07554218608129
 20
364.86445755632627
 30
0.0
 11
200.22120438592631
 21
364.86445755632627
 31
0.0
  0
LINE
  5
16238
  8
AM_0
 10
467.5302664254761
 20
264.8644575563261
 30
0.0
 11
429.03026640895649
 21
264.86445755632627
 31
0.0
  0
LINE
  5
16239
  8
AM_0
 10
467.5302664254761
 20
270.8644575563265
 30
0.0
 11
430.0302664254761
 21
270.8644575563265
 31
0.0
  0
LINE
  5
1623B
  8
0
 10
205.03026466735921
 20
348.86445755632599
 30
0.0
 11
263.0302646673594
 21
348.86445755632599
 31
0.0
  0
LINE
  5
1623C
  8
0
 10
205.03026466735921
 20
380.86445755632639
 30
0.0
 11
263.0302646673594
 21
380.86445755632639
 31
0.0
  0
LINE
  5
1623F
  8
AM_0N
 10
282.73566649892189
 20
305.06065561913658
 30
0.0
 11
292.73026287340241
 21
305.06065561913658
 31
0.0
1001
GENIUS_GENOREF_13
1005
0
  0
LINE
  5
16240
  8
AM_0N
 10
282.73566649892189
 20
310.25815561913657
 30
0.0
 11
292.73026287340241
 21
310.25815561913652
 31
0.0
1001
GENIUS_GENOREF_13
1005
0
  0
LINE
  5
16241
  8
AM_0N
 10
282.73566649892189
 20
289.46815561913661
 30
0.0
 11
292.73026287340241
 21
289.46815561913661
 31
0.0
1001
GENIUS_GENOREF_13
1005
0
  0
LINE
  5
16242
  8
AM_0N
 10
282.73566649892189
 20
294.6656556191366
 30
0.0
 11
292.73026287340241
 21
294.6656556191366
 31
0.0
1001
GENIUS_GENOREF_13
1005
0
  0
LINE
  5
16243
  8
AM_0
 10
287.88560193272951
 20
270.8644575563265
 30
0.0
 11
295.03026287340242
 21
278.00911849699901
 31
0.0
  0
LINE
  5
16245
  8
AM_0
 10
252.53026287340219
 20
264.86445755632627
 30
0.0
 11
291.03026288992271
 21
264.86445755632627
 31
0.0
  0
LINE
  5
16246
  8
AM_0
 10
252.53026287340231
 20
270.86445755632627
 30
0.0
 11
290.03026287340231
 21
270.8644575563265
 31
0.0
  0
LINE
  5
16247
  8
ﾁｭｳｼﾝｾﾝ1
 10
463.24241816297751
 20
346.86409701951391
 30
0.0
 11
314.19453859071029
 21
346.86409701951391
 31
0.0
  0
LINE
  5
16248
  8
ﾁｭｳｼﾝｾﾝ1
 10
267.53026287340242
 20
282.61445755632661
 30
0.0
 11
267.53026287340231
 21
253.1144575563265
 31
0.0
  0
LINE
  5
16249
  8
ｶｸﾚｾﾝ2
 10
260.03026287340242
 20
270.8644575563269
 30
0.0
 11
260.03026287340219
 21
264.8644575563265
 31
0.0
  0
LINE
  5
1624A
  8
AM_0
 10
252.53026287340231
 20
270.8644575563265
 30
0.0
 11
252.53026287340219
 21
264.86445755632673
 31
0.0
  0
LINE
  5
1624B
  8
ｶｸﾚｾﾝ2
 10
275.03026287340242
 20
270.86445755632673
 30
0.0
 11
275.03026287340219
 21
264.8644575563261
 31
0.0
  0
LINE
  5
16262
  8
AM_0N
 10
281.93026287340228
 20
308.86315561913659
 30
0.0
 11
281.93026287340228
 21
290.86315561913659
 31
0.0
1001
GENIUS_GENOREF_13
1005
0
  0
ARC
  5
16263
  8
AM_0N
 10
299.1034418692758
 20
299.86315561913659
 30
0.0
 40
17.173178995873389
 50
162.383031159582
 51
197.616968840418
1001
GENIUS_GENOREF_13
1005
0
  0
LINE
  5
16264
  8
AM_0
 10
262.53026287340231
 20
280.86445755632673
 30
0.0
 11
281.93026287340228
 21
300.26445755632687
 31
0.0
  0
LINE
  5
16265
  8
AM_0
 10
262.53026287340231
 20
280.86445755632673
 30
0.0
 11
262.53026287340219
 21
270.86445755632627
 31
0.0
  0
ARC
  5
16266
  8
AM_0N
 10
286.52558398194151
 20
292.06690561913899
 30
0.0
 40
4.5953211085391104
 50
145.5615305952428
 51
205.5615305956195
1001
GENIUS_GENOREF_13
1005
0
  0
LINE
  5
16267
  8
AM_0N
 10
282.73566649892189
 20
289.46815561913661
 30
0.0
 11
281.93026287340228
 21
290.86315561913659
 31
0.0
1001
GENIUS_GENOREF_13
1005
0
  0
ARC
  5
16511
  8
AM_0N
 10
286.52558398194151
 20
307.65940561913658
 30
0.0
 40
4.5953211085391104
 50
154.438469404567
 51
214.43846940478599
1001
GENIUS_GENOREF_13
1005
0
  0
LINE
  5
16512
  8
AM_0N
 10
282.73566649892189
 20
310.25815561913657
 30
0.0
 11
281.93026287340228
 21
308.86315561913659
 31
0.0
1001
GENIUS_GENOREF_13
1005
0
  0
LINE
  5
16808
  8
ｶｸﾚｾﾝ2
 10
460.0302664254761
 20
270.8644575563265
 30
0.0
 11
460.0302664254761
 21
264.8644575563265
 31
0.0
  0
LINE
  5
16809
  8
ｶｸﾚｾﾝ2
 10
445.03026642547621
 20
270.8644575563265
 30
0.0
 11
445.03026642547621
 21
264.8644575563261
 31
0.0
  0
ARC
  5
1680A
  8
AM_0
 10
429.03026640895649
 20
274.86445755632627
 30
0.0
 40
10.0
 50
180.0
 51
270.0
1001
GENIUS_GENODEF_13
1002
{
1000
HIER
1070
     0
1002
}
1002
{
1000
MANEDIT
1070
     0
1002
}
1002
{
1000
NOSEL
1070
     0
1002
}
1002
{
1000
BEHIND
1070
     0
1002
}
1002
{
1000
OTHER
1070
     0
1002
}
1002
{
1000
REACTOR
1002
}
1001
GENIUS_GENOBJ-N-FIL_13
1002
{
1000
OWNER
1000
GEN
1002
}
  0
ARC
  5
1680B
  8
AM_0
 10
291.03026288992271
 20
274.86445755632627
 30
0.0
 40
10.0
 50
270.0
 51
0.0
1001
GENIUS_GENOBJ-N-FIL_13
1002
{
1000
OWNER
1000
GEN
1002
}
1001
GENIUS_GENODEF_13
1002
{
1000
HIER
1070
     0
1002
}
1002
{
1000
MANEDIT
1070
     0
1002
}
1002
{
1000
NOSEL
1070
     0
1002
}
1002
{
1000
BEHIND
1070
     0
1002
}
1002
{
1000
OTHER
1070
     0
1002
}
1002
{
1000
REACTOR
1002
}
  0
LINE
  5
1680C
  8
ﾁｭｳｼﾝｾﾝ1
 10
452.53026642547633
 20
282.61445755632661
 30
0.0
 11
452.53026642547638
 21
253.1144575563265
 31
0.0
  0
LINE
  5
1680E
  8
AM_0
 10
419.03026640895632
 20
286.608404048843
 30
0.0
 11
326.03026363548031
 21
284.86445755472607
 31
0.0
  0
ARC
  5
1680F
  8
AM_0
 10
360.0202646494393
 20
346.8514299304498
 30
0.0
 40
64.003665999999996
 50
254.48258537434569
 51
287.66599658687608
  0
LINE
  5
16811
  8
AM_0
 10
310.03026315832318
 20
327.36370643796693
 30
0.0
 11
310.03026315832318
 21
312.36340599062311
 31
0.0
  0
LINE
  5
16812
  8
AM_0N
 10
292.73026287340241
 20
311.86315561913659
 30
0.0
 11
292.73026287340241
 21
287.86315561913659
 31
0.0
1001
GENIUS_GENOREF_13
1005
0
  0
LINE
  5
16814
  8
AM_0
 10
295.03026287340219
 20
314.86345636420958
 30
0.0
 11
295.03026287340242
 21
275.86445755632639
 31
0.0
  0
LINE
  5
16815
  8
AM_0
 10
326.03026363548031
 20
284.86445755472607
 30
0.0
 11
301.03026288992248
 21
285.17707044841831
 31
0.0
  0
ARC
  5
16816
  8
AM_0
 10
290.03026287340231
 20
275.86445755632639
 30
0.0
 40
5.0
 50
270.0
 51
0.0
1001
GENIUS_GENOBJ-N-FIL_13
1002
{
1000
OWNER
1000
GEN
1002
}
1001
GENIUS_GENODEF_13
1002
{
1000
HIER
1070
     0
1002
}
1002
{
1000
MANEDIT
1070
     0
1002
}
1002
{
1000
NOSEL
1070
     0
1002
}
1002
{
1000
BEHIND
1070
     0
1002
}
1002
{
1000
OTHER
1070
     0
1002
}
1002
{
1000
REACTOR
1002
}
  0
LINE
  5
16817
  8
AM_0N
 10
292.73026287340241
 20
287.86315561913659
 30
0.0
 11
295.03026287340231
 21
287.86315561913659
 31
0.0
1001
GENIUS_GENOREF_13
1005
0
  0
LINE
  5
1681A
  8
AM_0N
 10
295.03026287340231
 20
311.86315561913659
 30
0.0
 11
292.73026287340241
 21
311.86315561913659
 31
0.0
1001
GENIUS_GENOREF_13
1005
0
  0
LINE
  5
1681D
  8
AM_0
 10
301.03026288992248
 20
312.36340599062311
 30
0.0
 11
310.03026315832318
 21
312.36340599062311
 31
0.0
  0
LINE
  5
1681E
  8
AM_0
 10
296.03026274081083
 20
314.86365636320983
 30
0.0
 11
301.03026288992248
 21
314.86365636320983
 31
0.0
  0
LINE
  5
1681F
  8
AM_0
 10
295.03026287340231
 20
314.86345636420958
 30
0.0
 11
301.03026287340208
 21
314.86345636420958
 31
0.0
  0
LINE
  5
16820
  8
AM_0
 10
304.03026297938948
 20
326.36368640814402
 30
0.0
 11
310.03026315832318
 21
326.36368640814402
 31
0.0
  0
LINE
  5
16821
  8
AM_0
 10
304.03026297938948
 20
313.36342602044613
 30
0.0
 11
310.03026315832318
 21
313.36342602044613
 31
0.0
  0
LINE
  5
16822
  8
AM_0
 10
302.03026291974459
 20
315.36346608009183
 30
0.0
 11
302.03026291974459
 21
324.36364634849809
 31
0.0
  0
POLYLINE
  5
16823
  8
AM_0
 10
304.0302628919668
 20
326.36368640814391
 30
0.0
 66
     1
 70
     8
  0
VERTEX
  8
AM_0
  5
193CE
 10
304.030
 20
326.364
 30
0.000000
  70
    32
  0
VERTEX
  8
AM_0
  5
193CF
 10
304.006
 20
326.364
 30
0.000000
  70
    32
  0
VERTEX
  8
AM_0
  5
193D0
 10
303.981
 20
326.363
 30
0.000000
  70
    32
  0
VERTEX
  8
AM_0
  5
193D1
 10
303.957
 20
326.362
 30
0.000000
  70
    32
  0
VERTEX
  8
AM_0
  5
193D2
 10
303.932
 20
326.361
 30
0.000000
  70
    32
  0
VERTEX
  8
AM_0
  5
193D3
 10
303.908
 20
326.360
 30
0.000000
  70
    32
  0
VERTEX
  8
AM_0
  5
193D4
 10
303.883
 20
326.358
 30
0.000000
  70
    32
  0
VERTEX
  8
AM_0
  5
193D5
 10
303.859
 20
326.356
 30
0.000000
  70
    32
  0
VERTEX
  8
AM_0
  5
193D6
 10
303.834
 20
326.354
 30
0.000000
  70
    32
  0
VERTEX
  8
AM_0
  5
193D7
 10
303.810
 20
326.352
 30
0.000000
  70
    32
  0
VERTEX
  8
AM_0
  5
193D8
 10
303.785
 20
326.349
 30
0.000000
  70
    32
  0
VERTEX
  8
AM_0
  5
193D9
 10
303.761
 20
326.345
 30
0.000000
  70
    32
  0
VERTEX
  8
AM_0
  5
193DA
 10
303.737
 20
326.342
 30
0.000000
  70
    32
  0
VERTEX
  8
AM_0
  5
193DB
 10
303.713
 20
326.338
 30
0.000000
  70
    32
  0
VERTEX
  8
AM_0
  5
193DC
 10
303.688
 20
326.334
 30
0.000000
  70
    32
  0
VERTEX
  8
AM_0
  5
193DD
 10
303.664
 20
326.330
 30
0.000000
  70
    32
  0
VERTEX
  8
AM_0
  5
193DE
 10
303.640
 20
326.325
 30
0.000000
  70
    32
  0
VERTEX
  8
AM_0
  5
193DF
 10
303.616
 20
326.320
 30
0.000000
  70
    32
  0
VERTEX
  8
AM_0
  5
193E0
 10
303.592
 20
326.315
 30
0.000000
  70
    32
  0
VERTEX
  8
AM_0
  5
193E1
 10
303.568
 20
326.310
 30
0.000000
  70
    32
  0
VERTEX
  8
AM_0
  5
193E2
 10
303.544
 20
326.304
 30
0.000000
  70
    32
  0
VERTEX
  8
AM_0
  5
193E3
 10
303.521
 20
326.298
 30
0.000000
  70
    32
  0
VERTEX
  8
AM_0
  5
193E4
 10
303.497
 20
326.291
 30
0.000000
  70
    32
  0
VERTEX
  8
AM_0
  5
193E5
 10
303.473
 20
326.285
 30
0.000000
  70
    32
  0
VERTEX
  8
AM_0
  5
193E6
 10
303.450
 20
326.278
 30
0.000000
  70
    32
  0
VERTEX
  8
AM_0
  5
193E7
 10
303.426
 20
326.270
 30
0.000000
  70
    32
  0
VERTEX
  8
AM_0
  5
193E8
 10
303.403
 20
326.263
 30
0.000000
  70
    32
  0
VERTEX
  8
AM_0
  5
193E9
 10
303.380
 20
326.255
 30
0.000000
  70
    32
  0
VERTEX
  8
AM_0
  5
193EA
 10
303.356
 20
326.247
 30
0.000000
  70
    32
  0
VERTEX
  8
AM_0
  5
193EB
 10
303.333
 20
326.238
 30
0.000000
  70
    32
  0
VERTEX
  8
AM_0
  5
193EC
 10
303.310
 20
326.230
 30
0.000000
  70
    32
  0
VERTEX
  8
AM_0
  5
193ED
 10
303.288
 20
326.221
 30
0.000000
  70
    32
  0
VERTEX
  8
AM_0
  5
193EE
 10
303.265
 20
326.211
 30
0.000000
  70
    32
  0
VERTEX
  8
AM_0
  5
193EF
 10
303.242
 20
326.202
 30
0.000000
  70
    32
  0
VERTEX
  8
AM_0
  5
193F0
 10
303.220
 20
326.192
 30
0.000000
  70
    32
  0
VERTEX
  8
AM_0
  5
193F1
 10
303.197
 20
326.182
 30
0.000000
  70
    32
  0
VERTEX
  8
AM_0
  5
193F2
 10
303.175
 20
326.172
 30
0.000000
  70
    32
  0
VERTEX
  8
AM_0
  5
193F3
 10
303.153
 20
326.161
 30
0.000000
  70
    32
  0
VERTEX
  8
AM_0
  5
193F4
 10
303.131
 20
326.150
 30
0.000000
  70
    32
  0
VERTEX
  8
AM_0
  5
193F5
 10
303.109
 20
326.139
 30
0.000000
  70
    32
  0
VERTEX
  8
AM_0
  5
193F6
 10
303.087
 20
326.128
 30
0.000000
  70
    32
  0
VERTEX
  8
AM_0
  5
193F7
 10
303.066
 20
326.116
 30
0.000000
  70
    32
  0
VERTEX
  8
AM_0
  5
193F8
 10
303.044
 20
326.104
 30
0.000000
  70
    32
  0
VERTEX
  8
AM_0
  5
193F9
 10
303.023
 20
326.092
 30
0.000000
  70
    32
  0
VERTEX
  8
AM_0
  5
193FA
 10
303.002
 20
326.079
 30
0.000000
  70
    32
  0
VERTEX
  8
AM_0
  5
193FB
 10
302.981
 20
326.066
 30
0.000000
  70
    32
  0
VERTEX
  8
AM_0
  5
193FC
 10
302.960
 20
326.053
 30
0.000000
  70
    32
  0
VERTEX
  8
AM_0
  5
193FD
 10
302.940
 20
326.040
 30
0.000000
  70
    32
  0
VERTEX
  8
AM_0
  5
193FE
 10
302.919
 20
326.027
 30
0.000000
  70
    32
  0
VERTEX
  8
AM_0
  5
193FF
 10
302.899
 20
326.013
 30
0.000000
  70
    32
  0
VERTEX
  8
AM_0
  5
19400
 10
302.879
 20
325.999
 30
0.000000
  70
    32
  0
VERTEX
  8
AM_0
  5
19401
 10
302.859
 20
325.985
 30
0.000000
  70
    32
  0
VERTEX
  8
AM_0
  5
19402
 10
302.839
 20
325.970
 30
0.000000
  70
    32
  0
VERTEX
  8
AM_0
  5
19403
 10
302.819
 20
325.955
 30
0.000000
  70
    32
  0
VERTEX
  8
AM_0
  5
19404
 10
302.800
 20
325.940
 30
0.000000
  70
    32
  0
VERTEX
  8
AM_0
  5
19405
 10
302.781
 20
325.925
 30
0.000000
  70
    32
  0
VERTEX
  8
AM_0
  5
19406
 10
302.761
 20
325.910
 30
0.000000
  70
    32
  0
VERTEX
  8
AM_0
  5
19407
 10
302.743
 20
325.894
 30
0.000000
  70
    32
  0
VERTEX
  8
AM_0
  5
19408
 10
302.724
 20
325.878
 30
0.000000
  70
    32
  0
VERTEX
  8
AM_0
  5
19409
 10
302.705
 20
325.862
 30
0.000000
  70
    32
  0
VERTEX
  8
AM_0
  5
1940A
 10
302.687
 20
325.846
 30
0.000000
  70
    32
  0
VERTEX
  8
AM_0
  5
1940B
 10
302.669
 20
325.829
 30
0.000000
  70
    32
  0
VERTEX
  8
AM_0
  5
1940C
 10
302.651
 20
325.812
 30
0.000000
  70
    32
  0
VERTEX
  8
AM_0
  5
1940D
 10
302.634
 20
325.795
 30
0.000000
  70
    32
  0
VERTEX
  8
AM_0
  5
1940E
 10
302.616
 20
325.778
 30
0.000000
  70
    32
  0
VERTEX
  8
AM_0
  5
1940F
 10
302.599
 20
325.760
 30
0.000000
  70
    32
  0
VERTEX
  8
AM_0
  5
19410
 10
302.582
 20
325.743
 30
0.000000
  70
    32
  0
VERTEX
  8
AM_0
  5
19411
 10
302.565
 20
325.725
 30
0.000000
  70
    32
  0
VERTEX
  8
AM_0
  5
19412
 10
302.548
 20
325.707
 30
0.000000
  70
    32
  0
VERTEX
  8
AM_0
  5
19413
 10
302.532
 20
325.689
 30
0.000000
  70
    32
  0
VERTEX
  8
AM_0
  5
19414
 10
302.516
 20
325.670
 30
0.000000
  70
    32
  0
VERTEX
  8
AM_0
  5
19415
 10
302.500
 20
325.651
 30
0.000000
  70
    32
  0
VERTEX
  8
AM_0
  5
19416
 10
302.484
 20
325.632
 30
0.000000
  70
    32
  0
VERTEX
  8
AM_0
  5
19417
 10
302.469
 20
325.613
 30
0.000000
  70
    32
  0
VERTEX
  8
AM_0
  5
19418
 10
302.454
 20
325.594
 30
0.000000
  70
    32
  0
VERTEX
  8
AM_0
  5
19419
 10
302.439
 20
325.575
 30
0.000000
  70
    32
  0
VERTEX
  8
AM_0
  5
1941A
 10
302.424
 20
325.555
 30
0.000000
  70
    32
  0
VERTEX
  8
AM_0
  5
1941B
 10
302.409
 20
325.535
 30
0.000000
  70
    32
  0
VERTEX
  8
AM_0
  5
1941C
 10
302.395
 20
325.515
 30
0.000000
  70
    32
  0
VERTEX
  8
AM_0
  5
1941D
 10
302.381
 20
325.495
 30
0.000000
  70
    32
  0
VERTEX
  8
AM_0
  5
1941E
 10
302.367
 20
325.475
 30
0.000000
  70
    32
  0
VERTEX
  8
AM_0
  5
1941F
 10
302.354
 20
325.454
 30
0.000000
  70
    32
  0
VERTEX
  8
AM_0
  5
19420
 10
302.341
 20
325.434
 30
0.000000
  70
    32
  0
VERTEX
  8
AM_0
  5
19421
 10
302.328
 20
325.413
 30
0.000000
  70
    32
  0
VERTEX
  8
AM_0
  5
19422
 10
302.315
 20
325.392
 30
0.000000
  70
    32
  0
VERTEX
  8
AM_0
  5
19423
 10
302.302
 20
325.371
 30
0.000000
  70
    32
  0
VERTEX
  8
AM_0
  5
19424
 10
302.290
 20
325.349
 30
0.000000
  70
    32
  0
VERTEX
  8
AM_0
  5
19425
 10
302.278
 20
325.328
 30
0.000000
  70
    32
  0
VERTEX
  8
AM_0
  5
19426
 10
302.266
 20
325.306
 30
0.000000
  70
    32
  0
VERTEX
  8
AM_0
  5
19427
 10
302.255
 20
325.285
 30
0.000000
  70
    32
  0
VERTEX
  8
AM_0
  5
19428
 10
302.244
 20
325.263
 30
0.000000
  70
    32
  0
VERTEX
  8
AM_0
  5
19429
 10
302.233
 20
325.241
 30
0.000000
  70
    32
  0
VERTEX
  8
AM_0
  5
1942A
 10
302.222
 20
325.219
 30
0.000000
  70
    32
  0
VERTEX
  8
AM_0
  5
1942B
 10
302.212
 20
325.197
 30
0.000000
  70
    32
  0
VERTEX
  8
AM_0
  5
1942C
 10
302.202
 20
325.174
 30
0.000000
  70
    32
  0
VERTEX
  8
AM_0
  5
1942D
 10
302.192
 20
325.152
 30
0.000000
  70
    32
  0
VERTEX
  8
AM_0
  5
1942E
 10
302.183
 20
325.129
 30
0.000000
  70
    32
  0
VERTEX
  8
AM_0
  5
1942F
 10
302.173
 20
325.106
 30
0.000000
  70
    32
  0
VERTEX
  8
AM_0
  5
19430
 10
302.164
 20
325.083
 30
0.000000
  70
    32
  0
VERTEX
  8
AM_0
  5
19431
 10
302.156
 20
325.060
 30
0.000000
  70
    32
  0
VERTEX
  8
AM_0
  5
19432
 10
302.147
 20
325.037
 30
0.000000
  70
    32
  0
VERTEX
  8
AM_0
  5
19433
 10
302.139
 20
325.014
 30
0.000000
  70
    32
  0
VERTEX
  8
AM_0
  5
19434
 10
302.131
 20
324.991
 30
0.000000
  70
    32
  0
VERTEX
  8
AM_0
  5
19435
 10
302.124
 20
324.968
 30
0.000000
  70
    32
  0
VERTEX
  8
AM_0
  5
19436
 10
302.116
 20
324.944
 30
0.000000
  70
    32
  0
VERTEX
  8
AM_0
  5
19437
 10
302.109
 20
324.921
 30
0.000000
  70
    32
  0
VERTEX
  8
AM_0
  5
19438
 10
302.103
 20
324.897
 30
0.000000
  70
    32
  0
VERTEX
  8
AM_0
  5
19439
 10
302.096
 20
324.873
 30
0.000000
  70
    32
  0
VERTEX
  8
AM_0
  5
1943A
 10
302.090
 20
324.850
 30
0.000000
  70
    32
  0
VERTEX
  8
AM_0
  5
1943B
 10
302.084
 20
324.826
 30
0.000000
  70
    32
  0
VERTEX
  8
AM_0
  5
1943C
 10
302.079
 20
324.802
 30
0.000000
  70
    32
  0
VERTEX
  8
AM_0
  5
1943D
 10
302.074
 20
324.778
 30
0.000000
  70
    32
  0
VERTEX
  8
AM_0
  5
1943E
 10
302.069
 20
324.754
 30
0.000000
  70
    32
  0
VERTEX
  8
AM_0
  5
1943F
 10
302.064
 20
324.730
 30
0.000000
  70
    32
  0
VERTEX
  8
AM_0
  5
19440
 10
302.060
 20
324.706
 30
0.000000
  70
    32
  0
VERTEX
  8
AM_0
  5
19441
 10
302.056
 20
324.681
 30
0.000000
  70
    32
  0
VERTEX
  8
AM_0
  5
19442
 10
302.052
 20
324.657
 30
0.000000
  70
    32
  0
VERTEX
  8
AM_0
  5
19443
 10
302.048
 20
324.633
 30
0.000000
  70
    32
  0
VERTEX
  8
AM_0
  5
19444
 10
302.045
 20
324.608
 30
0.000000
  70
    32
  0
VERTEX
  8
AM_0
  5
19445
 10
302.042
 20
324.584
 30
0.000000
  70
    32
  0
VERTEX
  8
AM_0
  5
19446
 10
302.040
 20
324.560
 30
0.000000
  70
    32
  0
VERTEX
  8
AM_0
  5
19447
 10
302.038
 20
324.535
 30
0.000000
  70
    32
  0
VERTEX
  8
AM_0
  5
19448
 10
302.036
 20
324.511
 30
0.000000
  70
    32
  0
VERTEX
  8
AM_0
  5
19449
 10
302.034
 20
324.486
 30
0.000000
  70
    32
  0
VERTEX
  8
AM_0
  5
1944A
 10
302.033
 20
324.462
 30
0.000000
  70
    32
  0
VERTEX
  8
AM_0
  5
1944B
 10
302.032
 20
324.437
 30
0.000000
  70
    32
  0
VERTEX
  8
AM_0
  5
1944C
 10
302.031
 20
324.413
 30
0.000000
  70
    32
  0
VERTEX
  8
AM_0
  5
1944D
 10
302.030
 20
324.388
 30
0.000000
  70
    32
  0
VERTEX
  8
AM_0
  5
1944E
 10
302.030
 20
324.364
 30
0.000000
  70
    32
  0
SEQEND
  8
AM_0
  5
1944F
  0
POLYLINE
  5
16824
  8
AM_0
 10
302.03026291974481
 20
315.36346590524272
 30
0.0
 66
     1
 70
     8
  0
VERTEX
  8
AM_0
  5
19450
 10
302.030
 20
315.363
 30
0.000000
  70
    32
  0
VERTEX
  8
AM_0
  5
19451
 10
302.030
 20
315.339
 30
0.000000
  70
    32
  0
VERTEX
  8
AM_0
  5
19452
 10
302.031
 20
315.314
 30
0.000000
  70
    32
  0
VERTEX
  8
AM_0
  5
19453
 10
302.032
 20
315.290
 30
0.000000
  70
    32
  0
VERTEX
  8
AM_0
  5
19454
 10
302.033
 20
315.265
 30
0.000000
  70
    32
  0
VERTEX
  8
AM_0
  5
19455
 10
302.034
 20
315.241
 30
0.000000
  70
    32
  0
VERTEX
  8
AM_0
  5
19456
 10
302.036
 20
315.216
 30
0.000000
  70
    32
  0
VERTEX
  8
AM_0
  5
19457
 10
302.038
 20
315.192
 30
0.000000
  70
    32
  0
VERTEX
  8
AM_0
  5
19458
 10
302.040
 20
315.167
 30
0.000000
  70
    32
  0
VERTEX
  8
AM_0
  5
19459
 10
302.042
 20
315.143
 30
0.000000
  70
    32
  0
VERTEX
  8
AM_0
  5
1945A
 10
302.045
 20
315.119
 30
0.000000
  70
    32
  0
VERTEX
  8
AM_0
  5
1945B
 10
302.048
 20
315.094
 30
0.000000
  70
    32
  0
VERTEX
  8
AM_0
  5
1945C
 10
302.052
 20
315.070
 30
0.000000
  70
    32
  0
VERTEX
  8
AM_0
  5
1945D
 10
302.056
 20
315.046
 30
0.000000
  70
    32
  0
VERTEX
  8
AM_0
  5
1945E
 10
302.060
 20
315.022
 30
0.000000
  70
    32
  0
VERTEX
  8
AM_0
  5
1945F
 10
302.064
 20
314.997
 30
0.000000
  70
    32
  0
VERTEX
  8
AM_0
  5
19460
 10
302.069
 20
314.973
 30
0.000000
  70
    32
  0
VERTEX
  8
AM_0
  5
19461
 10
302.074
 20
314.949
 30
0.000000
  70
    32
  0
VERTEX
  8
AM_0
  5
19462
 10
302.079
 20
314.925
 30
0.000000
  70
    32
  0
VERTEX
  8
AM_0
  5
19463
 10
302.084
 20
314.901
 30
0.000000
  70
    32
  0
VERTEX
  8
AM_0
  5
19464
 10
302.090
 20
314.877
 30
0.000000
  70
    32
  0
VERTEX
  8
AM_0
  5
19465
 10
302.096
 20
314.854
 30
0.000000
  70
    32
  0
VERTEX
  8
AM_0
  5
19466
 10
302.103
 20
314.830
 30
0.000000
  70
    32
  0
VERTEX
  8
AM_0
  5
19467
 10
302.109
 20
314.806
 30
0.000000
  70
    32
  0
VERTEX
  8
AM_0
  5
19468
 10
302.116
 20
314.783
 30
0.000000
  70
    32
  0
VERTEX
  8
AM_0
  5
19469
 10
302.124
 20
314.759
 30
0.000000
  70
    32
  0
VERTEX
  8
AM_0
  5
1946A
 10
302.131
 20
314.736
 30
0.000000
  70
    32
  0
VERTEX
  8
AM_0
  5
1946B
 10
302.139
 20
314.713
 30
0.000000
  70
    32
  0
VERTEX
  8
AM_0
  5
1946C
 10
302.147
 20
314.690
 30
0.000000
  70
    32
  0
VERTEX
  8
AM_0
  5
1946D
 10
302.156
 20
314.667
 30
0.000000
  70
    32
  0
VERTEX
  8
AM_0
  5
1946E
 10
302.164
 20
314.644
 30
0.000000
  70
    32
  0
VERTEX
  8
AM_0
  5
1946F
 10
302.173
 20
314.621
 30
0.000000
  70
    32
  0
VERTEX
  8
AM_0
  5
19470
 10
302.183
 20
314.598
 30
0.000000
  70
    32
  0
VERTEX
  8
AM_0
  5
19471
 10
302.192
 20
314.575
 30
0.000000
  70
    32
  0
VERTEX
  8
AM_0
  5
19472
 10
302.202
 20
314.553
 30
0.000000
  70
    32
  0
VERTEX
  8
AM_0
  5
19473
 10
302.212
 20
314.531
 30
0.000000
  70
    32
  0
VERTEX
  8
AM_0
  5
19474
 10
302.222
 20
314.508
 30
0.000000
  70
    32
  0
VERTEX
  8
AM_0
  5
19475
 10
302.233
 20
314.486
 30
0.000000
  70
    32
  0
VERTEX
  8
AM_0
  5
19476
 10
302.244
 20
314.464
 30
0.000000
  70
    32
  0
VERTEX
  8
AM_0
  5
19477
 10
302.255
 20
314.442
 30
0.000000
  70
    32
  0
VERTEX
  8
AM_0
  5
19478
 10
302.266
 20
314.421
 30
0.000000
  70
    32
  0
VERTEX
  8
AM_0
  5
19479
 10
302.278
 20
314.399
 30
0.000000
  70
    32
  0
VERTEX
  8
AM_0
  5
1947A
 10
302.290
 20
314.378
 30
0.000000
  70
    32
  0
VERTEX
  8
AM_0
  5
1947B
 10
302.302
 20
314.356
 30
0.000000
  70
    32
  0
VERTEX
  8
AM_0
  5
1947C
 10
302.315
 20
314.335
 30
0.000000
  70
    32
  0
VERTEX
  8
AM_0
  5
1947D
 10
302.328
 20
314.314
 30
0.000000
  70
    32
  0
VERTEX
  8
AM_0
  5
1947E
 10
302.341
 20
314.293
 30
0.000000
  70
    32
  0
VERTEX
  8
AM_0
  5
1947F
 10
302.354
 20
314.273
 30
0.000000
  70
    32
  0
VERTEX
  8
AM_0
  5
19480
 10
302.367
 20
314.252
 30
0.000000
  70
    32
  0
VERTEX
  8
AM_0
  5
19481
 10
302.381
 20
314.232
 30
0.000000
  70
    32
  0
VERTEX
  8
AM_0
  5
19482
 10
302.395
 20
314.212
 30
0.000000
  70
    32
  0
VERTEX
  8
AM_0
  5
19483
 10
302.409
 20
314.192
 30
0.000000
  70
    32
  0
VERTEX
  8
AM_0
  5
19484
 10
302.424
 20
314.172
 30
0.000000
  70
    32
  0
VERTEX
  8
AM_0
  5
19485
 10
302.439
 20
314.152
 30
0.000000
  70
    32
  0
VERTEX
  8
AM_0
  5
19486
 10
302.454
 20
314.133
 30
0.000000
  70
    32
  0
VERTEX
  8
AM_0
  5
19487
 10
302.469
 20
314.114
 30
0.000000
  70
    32
  0
VERTEX
  8
AM_0
  5
19488
 10
302.484
 20
314.095
 30
0.000000
  70
    32
  0
VERTEX
  8
AM_0
  5
19489
 10
302.500
 20
314.076
 30
0.000000
  70
    32
  0
VERTEX
  8
AM_0
  5
1948A
 10
302.516
 20
314.057
 30
0.000000
  70
    32
  0
VERTEX
  8
AM_0
  5
1948B
 10
302.532
 20
314.039
 30
0.000000
  70
    32
  0
VERTEX
  8
AM_0
  5
1948C
 10
302.548
 20
314.020
 30
0.000000
  70
    32
  0
VERTEX
  8
AM_0
  5
1948D
 10
302.565
 20
314.002
 30
0.000000
  70
    32
  0
VERTEX
  8
AM_0
  5
1948E
 10
302.582
 20
313.984
 30
0.000000
  70
    32
  0
VERTEX
  8
AM_0
  5
1948F
 10
302.599
 20
313.967
 30
0.000000
  70
    32
  0
VERTEX
  8
AM_0
  5
19490
 10
302.616
 20
313.949
 30
0.000000
  70
    32
  0
VERTEX
  8
AM_0
  5
19491
 10
302.634
 20
313.932
 30
0.000000
  70
    32
  0
VERTEX
  8
AM_0
  5
19492
 10
302.651
 20
313.915
 30
0.000000
  70
    32
  0
VERTEX
  8
AM_0
  5
19493
 10
302.669
 20
313.898
 30
0.000000
  70
    32
  0
VERTEX
  8
AM_0
  5
19494
 10
302.687
 20
313.882
 30
0.000000
  70
    32
  0
VERTEX
  8
AM_0
  5
19495
 10
302.705
 20
313.865
 30
0.000000
  70
    32
  0
VERTEX
  8
AM_0
  5
19496
 10
302.724
 20
313.849
 30
0.000000
  70
    32
  0
VERTEX
  8
AM_0
  5
19497
 10
302.743
 20
313.833
 30
0.000000
  70
    32
  0
VERTEX
  8
AM_0
  5
19498
 10
302.761
 20
313.817
 30
0.000000
  70
    32
  0
VERTEX
  8
AM_0
  5
19499
 10
302.781
 20
313.802
 30
0.000000
  70
    32
  0
VERTEX
  8
AM_0
  5
1949A
 10
302.800
 20
313.787
 30
0.000000
  70
    32
  0
VERTEX
  8
AM_0
  5
1949B
 10
302.819
 20
313.772
 30
0.000000
  70
    32
  0
VERTEX
  8
AM_0
  5
1949C
 10
302.839
 20
313.757
 30
0.000000
  70
    32
  0
VERTEX
  8
AM_0
  5
1949D
 10
302.859
 20
313.743
 30
0.000000
  70
    32
  0
VERTEX
  8
AM_0
  5
1949E
 10
302.879
 20
313.728
 30
0.000000
  70
    32
  0
VERTEX
  8
AM_0
  5
1949F
 10
302.899
 20
313.714
 30
0.000000
  70
    32
  0
VERTEX
  8
AM_0
  5
194A0
 10
302.919
 20
313.700
 30
0.000000
  70
    32
  0
VERTEX
  8
AM_0
  5
194A1
 10
302.940
 20
313.687
 30
0.000000
  70
    32
  0
VERTEX
  8
AM_0
  5
194A2
 10
302.960
 20
313.674
 30
0.000000
  70
    32
  0
VERTEX
  8
AM_0
  5
194A3
 10
302.981
 20
313.661
 30
0.000000
  70
    32
  0
VERTEX
  8
AM_0
  5
194A4
 10
303.002
 20
313.648
 30
0.000000
  70
    32
  0
VERTEX
  8
AM_0
  5
194A5
 10
303.023
 20
313.635
 30
0.000000
  70
    32
  0
VERTEX
  8
AM_0
  5
194A6
 10
303.044
 20
313.623
 30
0.000000
  70
    32
  0
VERTEX
  8
AM_0
  5
194A7
 10
303.066
 20
313.611
 30
0.000000
  70
    32
  0
VERTEX
  8
AM_0
  5
194A8
 10
303.087
 20
313.600
 30
0.000000
  70
    32
  0
VERTEX
  8
AM_0
  5
194A9
 10
303.109
 20
313.588
 30
0.000000
  70
    32
  0
VERTEX
  8
AM_0
  5
194AA
 10
303.131
 20
313.577
 30
0.000000
  70
    32
  0
VERTEX
  8
AM_0
  5
194AB
 10
303.153
 20
313.566
 30
0.000000
  70
    32
  0
VERTEX
  8
AM_0
  5
194AC
 10
303.175
 20
313.555
 30
0.000000
  70
    32
  0
VERTEX
  8
AM_0
  5
194AD
 10
303.197
 20
313.545
 30
0.000000
  70
    32
  0
VERTEX
  8
AM_0
  5
194AE
 10
303.220
 20
313.535
 30
0.000000
  70
    32
  0
VERTEX
  8
AM_0
  5
194AF
 10
303.242
 20
313.525
 30
0.000000
  70
    32
  0
VERTEX
  8
AM_0
  5
194B0
 10
303.265
 20
313.516
 30
0.000000
  70
    32
  0
VERTEX
  8
AM_0
  5
194B1
 10
303.288
 20
313.506
 30
0.000000
  70
    32
  0
VERTEX
  8
AM_0
  5
194B2
 10
303.310
 20
313.497
 30
0.000000
  70
    32
  0
VERTEX
  8
AM_0
  5
194B3
 10
303.333
 20
313.489
 30
0.000000
  70
    32
  0
VERTEX
  8
AM_0
  5
194B4
 10
303.356
 20
313.480
 30
0.000000
  70
    32
  0
VERTEX
  8
AM_0
  5
194B5
 10
303.380
 20
313.472
 30
0.000000
  70
    32
  0
VERTEX
  8
AM_0
  5
194B6
 10
303.403
 20
313.464
 30
0.000000
  70
    32
  0
VERTEX
  8
AM_0
  5
194B7
 10
303.426
 20
313.457
 30
0.000000
  70
    32
  0
VERTEX
  8
AM_0
  5
194B8
 10
303.450
 20
313.450
 30
0.000000
  70
    32
  0
VERTEX
  8
AM_0
  5
194B9
 10
303.473
 20
313.443
 30
0.000000
  70
    32
  0
VERTEX
  8
AM_0
  5
194BA
 10
303.497
 20
313.436
 30
0.000000
  70
    32
  0
VERTEX
  8
AM_0
  5
194BB
 10
303.521
 20
313.429
 30
0.000000
  70
    32
  0
VERTEX
  8
AM_0
  5
194BC
 10
303.544
 20
313.423
 30
0.000000
  70
    32
  0
VERTEX
  8
AM_0
  5
194BD
 10
303.568
 20
313.418
 30
0.000000
  70
    32
  0
VERTEX
  8
AM_0
  5
194BE
 10
303.592
 20
313.412
 30
0.000000
  70
    32
  0
VERTEX
  8
AM_0
  5
194BF
 10
303.616
 20
313.407
 30
0.000000
  70
    32
  0
VERTEX
  8
AM_0
  5
194C0
 10
303.640
 20
313.402
 30
0.000000
  70
    32
  0
VERTEX
  8
AM_0
  5
194C1
 10
303.664
 20
313.397
 30
0.000000
  70
    32
  0
VERTEX
  8
AM_0
  5
194C2
 10
303.688
 20
313.393
 30
0.000000
  70
    32
  0
VERTEX
  8
AM_0
  5
194C3
 10
303.713
 20
313.389
 30
0.000000
  70
    32
  0
VERTEX
  8
AM_0
  5
194C4
 10
303.737
 20
313.385
 30
0.000000
  70
    32
  0
VERTEX
  8
AM_0
  5
194C5
 10
303.761
 20
313.382
 30
0.000000
  70
    32
  0
VERTEX
  8
AM_0
  5
194C6
 10
303.785
 20
313.378
 30
0.000000
  70
    32
  0
VERTEX
  8
AM_0
  5
194C7
 10
303.810
 20
313.376
 30
0.000000
  70
    32
  0
VERTEX
  8
AM_0
  5
194C8
 10
303.834
 20
313.373
 30
0.000000
  70
    32
  0
VERTEX
  8
AM_0
  5
194C9
 10
303.859
 20
313.371
 30
0.000000
  70
    32
  0
VERTEX
  8
AM_0
  5
194CA
 10
303.883
 20
313.369
 30
0.000000
  70
    32
  0
VERTEX
  8
AM_0
  5
194CB
 10
303.908
 20
313.367
 30
0.000000
  70
    32
  0
VERTEX
  8
AM_0
  5
194CC
 10
303.932
 20
313.366
 30
0.000000
  70
    32
  0
VERTEX
  8
AM_0
  5
194CD
 10
303.957
 20
313.365
 30
0.000000
  70
    32
  0
VERTEX
  8
AM_0
  5
194CE
 10
303.981
 20
313.364
 30
0.000000
  70
    32
  0
VERTEX
  8
AM_0
  5
194CF
 10
304.006
 20
313.364
 30
0.000000
  70
    32
  0
VERTEX
  8
AM_0
  5
194D0
 10
304.030
 20
313.363
 30
0.000000
  70
    32
  0
SEQEND
  8
AM_0
  5
194D1
  0
ARC
  5
16825
  8
AM_0
 10
355.03040464943928
 20
281.93541993044988
 30
0.0
 40
1.000225199999998
 50
179.2608199999913
 51
358.44765000000081
  0
LINE
  5
16826
  8
AM_0
 10
333.9850448534599
 20
285.01362650529438
 30
0.0
 11
334.03026964943939
 21
283.92833993045002
 31
0.0
  0
LINE
  5
16827
  8
AM_0
 10
336.06884336453231
 20
285.05270212894447
 30
0.0
 11
336.03026164943913
 21
283.92830993044998
 31
0.0
  0
LINE
  5
16828
  8
AM_0
 10
343.94694742172049
 20
284.95452420249421
 30
0.0
 11
344.03026464943918
 21
282.5883399304501
 31
0.0
  0
LINE
  5
16829
  8
AM_0
 10
346.09401933465159
 20
284.43720377094968
 30
0.0
 11
346.03026464943918
 21
282.5883099304499
 31
0.0
  0
ARC
  5
1682A
  8
AM_0
 10
335.0305746494393
 20
283.96367993044998
 30
0.0
 40
1.000317799999999
 50
179.73379000000131
 51
357.97469000000888
  0
LINE
  5
1682B
  8
AM_0
 10
353.98606268859288
 20
283.1901994279965
 30
0.0
 11
354.03026464943918
 21
281.9083499304499
 31
0.0
  0
ARC
  5
1682C
  8
AM_0
 10
345.03036464943938
 20
282.60829993045002
 30
0.0
 40
1.000099699999998
 50
179.99821999998991
 51
358.8559099999971
  0
LINE
  5
1682D
  8
AM_0
 10
376.11398624217242
 20
284.96602828054642
 30
0.0
 11
376.03026464943918
 21
282.5883099304499
 31
0.0
  0
LINE
  5
1682E
  8
AM_0
 10
373.96617478083948
 20
284.4469241310743
 30
0.0
 11
374.03026464943918
 21
282.5883099304499
 31
0.0
  0
ARC
  5
1682F
  8
AM_0
 10
365.03012464943907
 20
281.93526993044992
 30
0.0
 40
1.000223999999998
 50
181.54276079999551
 51
0.7487699999955649
  0
LINE
  5
16830
  8
AM_0
 10
363.98766788719848
 20
283.0300488683784
 30
0.0
 11
364.03026464943918
 21
281.90831993044998
 31
0.0
  0
LINE
  5
16831
  8
AM_0
 10
356.05861567182359
 20
283.02820822687482
 30
0.0
 11
356.03026464943918
 21
281.9083499304499
 31
0.0
  0
ARC
  5
16832
  8
AM_0
 10
375.03017464943918
 20
282.60820993045002
 30
0.0
 40
1.0000987999999991
 50
181.13930379999911
 51
0.0065799999992618
  0
LINE
  5
16833
  8
AM_0
 10
366.07460328629668
 20
283.19437734745043
 30
0.0
 11
366.03026464943918
 21
281.9083499304499
 31
0.0
  0
LINE
  5
16835
  8
AM_0
 10
301.03026288992248
 20
327.36370643796693
 30
0.0
 11
310.03026315832318
 21
327.36370643796693
 31
0.0
  0
LINE
  5
16838
  8
AM_0
 10
425.0302664254761
 20
314.86345636420958
 30
0.0
 11
419.03026642547638
 21
314.86345636420958
 31
0.0
  0
LINE
  5
16839
  8
AM_0
 10
424.03026655806809
 20
314.86365636320983
 30
0.0
 11
419.03026640895632
 21
314.86365636320983
 31
0.0
  0
LINE
  5
1683A
  8
AM_0
 10
386.08753694880397
 20
285.99065828717238
 30
0.0
 11
386.03026464943929
 21
283.92833993045002
 31
0.0
  0
LINE
  5
1683B
  8
AM_0
 10
383.96086689941001
 20
285.95077873162211
 30
0.0
 11
384.03026464943929
 21
283.92833993045002
 31
0.0
  0
ARC
  5
1683C
  8
AM_0
 10
385.02995464943928
 20
283.96351993044988
 30
0.0
 40
1.000315299999998
 50
182.01573779999001
 51
0.2757899999910607
  0
LINE
  5
1683D
  8
AM_0
 10
457.53026642547621
 20
280.86445755632673
 30
0.0
 11
439.33026642547611
 21
299.0644575563266
 31
0.0
  0
LINE
  5
1683E
  8
AM_0N
 10
427.33026642547611
 20
287.86315561913671
 30
0.0
 11
427.33026642547611
 21
311.86315561913671
 31
0.0
  0
LINE
  5
1683F
  8
AM_0N
 10
439.33026642547611
 20
292.06315561913669
 30
0.0
 11
439.33026642547611
 21
307.66315561913677
 31
0.0
1001
GENIUS_GENOREF_13
1005
0
  0
LINE
  5
16840
  8
AM_0
 10
425.0302664254761
 20
314.86345636420958
 30
0.0
 11
425.03026642547587
 21
275.86445755632639
 31
0.0
  0
ARC
  5
16841
  8
AM_0
 10
430.0302664254761
 20
275.86445755632639
 30
0.0
 40
5.0
 50
180.0
 51
270.0
1001
GENIUS_GENOBJ-N-FIL_13
1002
{
1000
OWNER
1000
GEN
1002
}
1001
GENIUS_GENODEF_13
1002
{
1000
HIER
1070
     0
1002
}
1002
{
1000
MANEDIT
1070
     0
1002
}
1002
{
1000
NOSEL
1070
     0
1002
}
1002
{
1000
BEHIND
1070
     0
1002
}
1002
{
1000
OTHER
1070
     0
1002
}
1002
{
1000
REACTOR
1002
}
  0
LINE
  5
16842
  8
AM_0
 10
432.17492736614878
 20
270.8644575563265
 30
0.0
 11
425.03026642547599
 21
278.00911849699901
 31
0.0
  0
LINE
  5
16843
  8
AM_0N
 10
438.13026642547612
 20
290.86315561913671
 30
0.0
 11
427.33026642547611
 21
290.86315561913671
 31
0.0
1001
GENIUS_GENOREF_13
1005
0
  0
LINE
  5
16844
  8
AM_0N
 10
425.0302664254761
 20
287.86315561913671
 30
0.0
 11
427.33026642547611
 21
287.86315561913671
 31
0.0
  0
ARC
  5
16845
  8
AM_0N
 10
438.13026642547612
 20
292.06315561913669
 30
0.0
 40
1.1999999999999991
 50
270.0
 51
0.0
1001
GENIUS_GENOREF_13
1005
0
  0
LINE
  5
16846
  8
AM_0
 10
457.53026642547621
 20
280.86445755632673
 30
0.0
 11
457.53026642547621
 21
270.86445755632627
 31
0.0
  0
LINE
  5
16847
  8
AM_0N
 10
438.13026642547612
 20
308.86315561913671
 30
0.0
 11
427.33026642547611
 21
308.86315561913671
 31
0.0
1001
GENIUS_GENOREF_13
1005
0
  0
LINE
  5
16848
  8
AM_0N
 10
427.33026642547611
 20
311.86315561913671
 30
0.0
 11
425.0302664254761
 21
311.86315561913671
 31
0.0
  0
ARC
  5
16849
  8
AM_0N
 10
438.13026642547612
 20
307.66315561913677
 30
0.0
 40
1.1999999999999991
 50
0.0
 51
90.0
1001
GENIUS_GENOREF_13
1005
0
  0
LINE
  5
1684B
  8
0
 10
263.0302646673594
 20
384.86445755632622
 30
0.0
 11
263.0302646673594
 21
344.86445755632622
 31
0.0
  0
LINE
  5
1684C
  8
0
 10
263.0302646673594
 20
344.86445755632622
 30
0.0
 11
291.0302625902998
 21
339.86445680376869
 31
0.0
  0
LINE
  5
1684D
  8
AM_0
 10
296.03026274081128
 20
339.86445680376869
 30
0.0
 11
291.0302625902998
 21
339.86445680376869
 31
0.0
  0
LINE
  5
16850
  8
AM_0
 10
467.5302664254761
 20
270.8644575563265
 30
0.0
 11
467.5302664254761
 21
264.86445755632673
 31
0.0
  0
LINE
  5
16851
  8
0
 10
205.03026466735921
 20
383.86445755632599
 30
0.0
 11
250.03026466735929
 21
383.86445755632599
 31
0.0
  0
LINE
  5
16852
  8
0
 10
250.03026466735929
 20
383.86445755632599
 30
0.0
 11
250.03026466735929
 21
380.86445755632639
 31
0.0
  0
LINE
  5
16853
  8
AM_0
 10
205.03026466735921
 20
348.86445755632622
 30
0.0
 11
205.03026466735921
 21
383.86445755632622
 31
0.0
  0
LINE
  5
16860
  8
AM_0
 10
419.03026640895632
 20
443.12051106380977
 30
0.0
 11
326.03026363548048
 21
444.86605994215978
 31
0.0
  0
LINE
  5
16861
  8
AM_0
 10
302.03026291974459
 20
414.36544903256112
 30
0.0
 11
302.03026291974459
 21
405.36526876415451
 31
0.0
  0
LINE
  5
16862
  8
AM_0
 10
310.03026315832318
 20
417.36550912202978
 30
0.0
 11
310.03026315832318
 21
402.36520867468619
 31
0.0
  0
LINE
  5
16864
  8
AM_0
 10
304.03026297938948
 20
403.3652287045087
 30
0.0
 11
310.03026315832318
 21
403.3652287045087
 31
0.0
  0
LINE
  5
16865
  8
AM_0
 10
301.03026288992248
 20
402.36520867468619
 30
0.0
 11
310.03026315832318
 21
402.36520867468619
 31
0.0
  0
POLYLINE
  5
16866
  8
AM_0
 10
302.03026291974481
 20
405.36526858930546
 30
0.0
 66
     1
 70
     8
  0
VERTEX
  8
AM_0
  5
194D2
 10
302.030
 20
405.365
 30
0.000000
  70
    32
  0
VERTEX
  8
AM_0
  5
194D3
 10
302.030
 20
405.341
 30
0.000000
  70
    32
  0
VERTEX
  8
AM_0
  5
194D4
 10
302.031
 20
405.316
 30
0.000000
  70
    32
  0
VERTEX
  8
AM_0
  5
194D5
 10
302.032
 20
405.292
 30
0.000000
  70
    32
  0
VERTEX
  8
AM_0
  5
194D6
 10
302.033
 20
405.267
 30
0.000000
  70
    32
  0
VERTEX
  8
AM_0
  5
194D7
 10
302.034
 20
405.243
 30
0.000000
  70
    32
  0
VERTEX
  8
AM_0
  5
194D8
 10
302.036
 20
405.218
 30
0.000000
  70
    32
  0
VERTEX
  8
AM_0
  5
194D9
 10
302.038
 20
405.194
 30
0.000000
  70
    32
  0
VERTEX
  8
AM_0
  5
194DA
 10
302.040
 20
405.169
 30
0.000000
  70
    32
  0
VERTEX
  8
AM_0
  5
194DB
 10
302.042
 20
405.145
 30
0.000000
  70
    32
  0
VERTEX
  8
AM_0
  5
194DC
 10
302.045
 20
405.120
 30
0.000000
  70
    32
  0
VERTEX
  8
AM_0
  5
194DD
 10
302.048
 20
405.096
 30
0.000000
  70
    32
  0
VERTEX
  8
AM_0
  5
194DE
 10
302.052
 20
405.072
 30
0.000000
  70
    32
  0
VERTEX
  8
AM_0
  5
194DF
 10
302.056
 20
405.048
 30
0.000000
  70
    32
  0
VERTEX
  8
AM_0
  5
194E0
 10
302.060
 20
405.023
 30
0.000000
  70
    32
  0
VERTEX
  8
AM_0
  5
194E1
 10
302.064
 20
404.999
 30
0.000000
  70
    32
  0
VERTEX
  8
AM_0
  5
194E2
 10
302.069
 20
404.975
 30
0.000000
  70
    32
  0
VERTEX
  8
AM_0
  5
194E3
 10
302.074
 20
404.951
 30
0.000000
  70
    32
  0
VERTEX
  8
AM_0
  5
194E4
 10
302.079
 20
404.927
 30
0.000000
  70
    32
  0
VERTEX
  8
AM_0
  5
194E5
 10
302.084
 20
404.903
 30
0.000000
  70
    32
  0
VERTEX
  8
AM_0
  5
194E6
 10
302.090
 20
404.879
 30
0.000000
  70
    32
  0
VERTEX
  8
AM_0
  5
194E7
 10
302.096
 20
404.856
 30
0.000000
  70
    32
  0
VERTEX
  8
AM_0
  5
194E8
 10
302.103
 20
404.832
 30
0.000000
  70
    32
  0
VERTEX
  8
AM_0
  5
194E9
 10
302.109
 20
404.808
 30
0.000000
  70
    32
  0
VERTEX
  8
AM_0
  5
194EA
 10
302.116
 20
404.785
 30
0.000000
  70
    32
  0
VERTEX
  8
AM_0
  5
194EB
 10
302.124
 20
404.761
 30
0.000000
  70
    32
  0
VERTEX
  8
AM_0
  5
194EC
 10
302.131
 20
404.738
 30
0.000000
  70
    32
  0
VERTEX
  8
AM_0
  5
194ED
 10
302.139
 20
404.715
 30
0.000000
  70
    32
  0
VERTEX
  8
AM_0
  5
194EE
 10
302.147
 20
404.691
 30
0.000000
  70
    32
  0
VERTEX
  8
AM_0
  5
194EF
 10
302.156
 20
404.668
 30
0.000000
  70
    32
  0
VERTEX
  8
AM_0
  5
194F0
 10
302.164
 20
404.645
 30
0.000000
  70
    32
  0
VERTEX
  8
AM_0
  5
194F1
 10
302.173
 20
404.623
 30
0.000000
  70
    32
  0
VERTEX
  8
AM_0
  5
194F2
 10
302.183
 20
404.600
 30
0.000000
  70
    32
  0
VERTEX
  8
AM_0
  5
194F3
 10
302.192
 20
404.577
 30
0.000000
  70
    32
  0
VERTEX
  8
AM_0
  5
194F4
 10
302.202
 20
404.555
 30
0.000000
  70
    32
  0
VERTEX
  8
AM_0
  5
194F5
 10
302.212
 20
404.532
 30
0.000000
  70
    32
  0
VERTEX
  8
AM_0
  5
194F6
 10
302.222
 20
404.510
 30
0.000000
  70
    32
  0
VERTEX
  8
AM_0
  5
194F7
 10
302.233
 20
404.488
 30
0.000000
  70
    32
  0
VERTEX
  8
AM_0
  5
194F8
 10
302.244
 20
404.466
 30
0.000000
  70
    32
  0
VERTEX
  8
AM_0
  5
194F9
 10
302.255
 20
404.444
 30
0.000000
  70
    32
  0
VERTEX
  8
AM_0
  5
194FA
 10
302.266
 20
404.422
 30
0.000000
  70
    32
  0
VERTEX
  8
AM_0
  5
194FB
 10
302.278
 20
404.401
 30
0.000000
  70
    32
  0
VERTEX
  8
AM_0
  5
194FC
 10
302.290
 20
404.379
 30
0.000000
  70
    32
  0
VERTEX
  8
AM_0
  5
194FD
 10
302.302
 20
404.358
 30
0.000000
  70
    32
  0
VERTEX
  8
AM_0
  5
194FE
 10
302.315
 20
404.337
 30
0.000000
  70
    32
  0
VERTEX
  8
AM_0
  5
194FF
 10
302.328
 20
404.316
 30
0.000000
  70
    32
  0
VERTEX
  8
AM_0
  5
19500
 10
302.341
 20
404.295
 30
0.000000
  70
    32
  0
VERTEX
  8
AM_0
  5
19501
 10
302.354
 20
404.275
 30
0.000000
  70
    32
  0
VERTEX
  8
AM_0
  5
19502
 10
302.367
 20
404.254
 30
0.000000
  70
    32
  0
VERTEX
  8
AM_0
  5
19503
 10
302.381
 20
404.234
 30
0.000000
  70
    32
  0
VERTEX
  8
AM_0
  5
19504
 10
302.395
 20
404.214
 30
0.000000
  70
    32
  0
VERTEX
  8
AM_0
  5
19505
 10
302.409
 20
404.194
 30
0.000000
  70
    32
  0
VERTEX
  8
AM_0
  5
19506
 10
302.424
 20
404.174
 30
0.000000
  70
    32
  0
VERTEX
  8
AM_0
  5
19507
 10
302.439
 20
404.154
 30
0.000000
  70
    32
  0
VERTEX
  8
AM_0
  5
19508
 10
302.454
 20
404.135
 30
0.000000
  70
    32
  0
VERTEX
  8
AM_0
  5
19509
 10
302.469
 20
404.116
 30
0.000000
  70
    32
  0
VERTEX
  8
AM_0
  5
1950A
 10
302.484
 20
404.096
 30
0.000000
  70
    32
  0
VERTEX
  8
AM_0
  5
1950B
 10
302.500
 20
404.078
 30
0.000000
  70
    32
  0
VERTEX
  8
AM_0
  5
1950C
 10
302.516
 20
404.059
 30
0.000000
  70
    32
  0
VERTEX
  8
AM_0
  5
1950D
 10
302.532
 20
404.040
 30
0.000000
  70
    32
  0
VERTEX
  8
AM_0
  5
1950E
 10
302.548
 20
404.022
 30
0.000000
  70
    32
  0
VERTEX
  8
AM_0
  5
1950F
 10
302.565
 20
404.004
 30
0.000000
  70
    32
  0
VERTEX
  8
AM_0
  5
19510
 10
302.582
 20
403.986
 30
0.000000
  70
    32
  0
VERTEX
  8
AM_0
  5
19511
 10
302.599
 20
403.968
 30
0.000000
  70
    32
  0
VERTEX
  8
AM_0
  5
19512
 10
302.616
 20
403.951
 30
0.000000
  70
    32
  0
VERTEX
  8
AM_0
  5
19513
 10
302.634
 20
403.934
 30
0.000000
  70
    32
  0
VERTEX
  8
AM_0
  5
19514
 10
302.651
 20
403.917
 30
0.000000
  70
    32
  0
VERTEX
  8
AM_0
  5
19515
 10
302.669
 20
403.900
 30
0.000000
  70
    32
  0
VERTEX
  8
AM_0
  5
19516
 10
302.687
 20
403.883
 30
0.000000
  70
    32
  0
VERTEX
  8
AM_0
  5
19517
 10
302.705
 20
403.867
 30
0.000000
  70
    32
  0
VERTEX
  8
AM_0
  5
19518
 10
302.724
 20
403.851
 30
0.000000
  70
    32
  0
VERTEX
  8
AM_0
  5
19519
 10
302.743
 20
403.835
 30
0.000000
  70
    32
  0
VERTEX
  8
AM_0
  5
1951A
 10
302.761
 20
403.819
 30
0.000000
  70
    32
  0
VERTEX
  8
AM_0
  5
1951B
 10
302.781
 20
403.804
 30
0.000000
  70
    32
  0
VERTEX
  8
AM_0
  5
1951C
 10
302.800
 20
403.789
 30
0.000000
  70
    32
  0
VERTEX
  8
AM_0
  5
1951D
 10
302.819
 20
403.774
 30
0.000000
  70
    32
  0
VERTEX
  8
AM_0
  5
1951E
 10
302.839
 20
403.759
 30
0.000000
  70
    32
  0
VERTEX
  8
AM_0
  5
1951F
 10
302.859
 20
403.744
 30
0.000000
  70
    32
  0
VERTEX
  8
AM_0
  5
19520
 10
302.879
 20
403.730
 30
0.000000
  70
    32
  0
VERTEX
  8
AM_0
  5
19521
 10
302.899
 20
403.716
 30
0.000000
  70
    32
  0
VERTEX
  8
AM_0
  5
19522
 10
302.919
 20
403.702
 30
0.000000
  70
    32
  0
VERTEX
  8
AM_0
  5
19523
 10
302.940
 20
403.689
 30
0.000000
  70
    32
  0
VERTEX
  8
AM_0
  5
19524
 10
302.960
 20
403.676
 30
0.000000
  70
    32
  0
VERTEX
  8
AM_0
  5
19525
 10
302.981
 20
403.663
 30
0.000000
  70
    32
  0
VERTEX
  8
AM_0
  5
19526
 10
303.002
 20
403.650
 30
0.000000
  70
    32
  0
VERTEX
  8
AM_0
  5
19527
 10
303.023
 20
403.637
 30
0.000000
  70
    32
  0
VERTEX
  8
AM_0
  5
19528
 10
303.044
 20
403.625
 30
0.000000
  70
    32
  0
VERTEX
  8
AM_0
  5
19529
 10
303.066
 20
403.613
 30
0.000000
  70
    32
  0
VERTEX
  8
AM_0
  5
1952A
 10
303.087
 20
403.601
 30
0.000000
  70
    32
  0
VERTEX
  8
AM_0
  5
1952B
 10
303.109
 20
403.590
 30
0.000000
  70
    32
  0
VERTEX
  8
AM_0
  5
1952C
 10
303.131
 20
403.579
 30
0.000000
  70
    32
  0
VERTEX
  8
AM_0
  5
1952D
 10
303.153
 20
403.568
 30
0.000000
  70
    32
  0
VERTEX
  8
AM_0
  5
1952E
 10
303.175
 20
403.557
 30
0.000000
  70
    32
  0
VERTEX
  8
AM_0
  5
1952F
 10
303.197
 20
403.547
 30
0.000000
  70
    32
  0
VERTEX
  8
AM_0
  5
19530
 10
303.220
 20
403.537
 30
0.000000
  70
    32
  0
VERTEX
  8
AM_0
  5
19531
 10
303.242
 20
403.527
 30
0.000000
  70
    32
  0
VERTEX
  8
AM_0
  5
19532
 10
303.265
 20
403.517
 30
0.000000
  70
    32
  0
VERTEX
  8
AM_0
  5
19533
 10
303.288
 20
403.508
 30
0.000000
  70
    32
  0
VERTEX
  8
AM_0
  5
19534
 10
303.310
 20
403.499
 30
0.000000
  70
    32
  0
VERTEX
  8
AM_0
  5
19535
 10
303.333
 20
403.491
 30
0.000000
  70
    32
  0
VERTEX
  8
AM_0
  5
19536
 10
303.356
 20
403.482
 30
0.000000
  70
    32
  0
VERTEX
  8
AM_0
  5
19537
 10
303.380
 20
403.474
 30
0.000000
  70
    32
  0
VERTEX
  8
AM_0
  5
19538
 10
303.403
 20
403.466
 30
0.000000
  70
    32
  0
VERTEX
  8
AM_0
  5
19539
 10
303.426
 20
403.459
 30
0.000000
  70
    32
  0
VERTEX
  8
AM_0
  5
1953A
 10
303.450
 20
403.451
 30
0.000000
  70
    32
  0
VERTEX
  8
AM_0
  5
1953B
 10
303.473
 20
403.444
 30
0.000000
  70
    32
  0
VERTEX
  8
AM_0
  5
1953C
 10
303.497
 20
403.438
 30
0.000000
  70
    32
  0
VERTEX
  8
AM_0
  5
1953D
 10
303.521
 20
403.431
 30
0.000000
  70
    32
  0
VERTEX
  8
AM_0
  5
1953E
 10
303.544
 20
403.425
 30
0.000000
  70
    32
  0
VERTEX
  8
AM_0
  5
1953F
 10
303.568
 20
403.419
 30
0.000000
  70
    32
  0
VERTEX
  8
AM_0
  5
19540
 10
303.592
 20
403.414
 30
0.000000
  70
    32
  0
VERTEX
  8
AM_0
  5
19541
 10
303.616
 20
403.409
 30
0.000000
  70
    32
  0
VERTEX
  8
AM_0
  5
19542
 10
303.640
 20
403.404
 30
0.000000
  70
    32
  0
VERTEX
  8
AM_0
  5
19543
 10
303.664
 20
403.399
 30
0.000000
  70
    32
  0
VERTEX
  8
AM_0
  5
19544
 10
303.688
 20
403.395
 30
0.000000
  70
    32
  0
VERTEX
  8
AM_0
  5
19545
 10
303.713
 20
403.391
 30
0.000000
  70
    32
  0
VERTEX
  8
AM_0
  5
19546
 10
303.737
 20
403.387
 30
0.000000
  70
    32
  0
VERTEX
  8
AM_0
  5
19547
 10
303.761
 20
403.383
 30
0.000000
  70
    32
  0
VERTEX
  8
AM_0
  5
19548
 10
303.785
 20
403.380
 30
0.000000
  70
    32
  0
VERTEX
  8
AM_0
  5
19549
 10
303.810
 20
403.377
 30
0.000000
  70
    32
  0
VERTEX
  8
AM_0
  5
1954A
 10
303.834
 20
403.375
 30
0.000000
  70
    32
  0
VERTEX
  8
AM_0
  5
1954B
 10
303.859
 20
403.373
 30
0.000000
  70
    32
  0
VERTEX
  8
AM_0
  5
1954C
 10
303.883
 20
403.371
 30
0.000000
  70
    32
  0
VERTEX
  8
AM_0
  5
1954D
 10
303.908
 20
403.369
 30
0.000000
  70
    32
  0
VERTEX
  8
AM_0
  5
1954E
 10
303.932
 20
403.368
 30
0.000000
  70
    32
  0
VERTEX
  8
AM_0
  5
1954F
 10
303.957
 20
403.367
 30
0.000000
  70
    32
  0
VERTEX
  8
AM_0
  5
19550
 10
303.981
 20
403.366
 30
0.000000
  70
    32
  0
VERTEX
  8
AM_0
  5
19551
 10
304.006
 20
403.365
 30
0.000000
  70
    32
  0
VERTEX
  8
AM_0
  5
19552
 10
304.030
 20
403.365
 30
0.000000
  70
    32
  0
SEQEND
  8
AM_0
  5
19553
  0
LINE
  5
16867
  8
AM_0
 10
296.03026274081083
 20
414.86525874944351
 30
0.0
 11
301.03026288992248
 21
414.86525874944351
 31
0.0
  0
LINE
  5
16868
  8
AM_0
 10
304.03026297938948
 20
416.3654890922071
 30
0.0
 11
310.03026315832318
 21
416.3654890922071
 31
0.0
  0
LINE
  5
16869
  8
AM_0
 10
301.03026288992248
 20
417.36550912202978
 30
0.0
 11
310.03026315832318
 21
417.36550912202978
 31
0.0
  0
POLYLINE
  5
1686A
  8
AM_0
 10
304.0302628919668
 20
416.36548909220693
 30
0.0
 66
     1
 70
     8
  0
VERTEX
  8
AM_0
  5
19554
 10
304.030
 20
416.365
 30
0.000000
  70
    32
  0
VERTEX
  8
AM_0
  5
19555
 10
304.006
 20
416.365
 30
0.000000
  70
    32
  0
VERTEX
  8
AM_0
  5
19556
 10
303.981
 20
416.365
 30
0.000000
  70
    32
  0
VERTEX
  8
AM_0
  5
19557
 10
303.957
 20
416.364
 30
0.000000
  70
    32
  0
VERTEX
  8
AM_0
  5
19558
 10
303.932
 20
416.363
 30
0.000000
  70
    32
  0
VERTEX
  8
AM_0
  5
19559
 10
303.908
 20
416.362
 30
0.000000
  70
    32
  0
VERTEX
  8
AM_0
  5
1955A
 10
303.883
 20
416.360
 30
0.000000
  70
    32
  0
VERTEX
  8
AM_0
  5
1955B
 10
303.859
 20
416.358
 30
0.000000
  70
    32
  0
VERTEX
  8
AM_0
  5
1955C
 10
303.834
 20
416.356
 30
0.000000
  70
    32
  0
VERTEX
  8
AM_0
  5
1955D
 10
303.810
 20
416.353
 30
0.000000
  70
    32
  0
VERTEX
  8
AM_0
  5
1955E
 10
303.785
 20
416.350
 30
0.000000
  70
    32
  0
VERTEX
  8
AM_0
  5
1955F
 10
303.761
 20
416.347
 30
0.000000
  70
    32
  0
VERTEX
  8
AM_0
  5
19560
 10
303.737
 20
416.344
 30
0.000000
  70
    32
  0
VERTEX
  8
AM_0
  5
19561
 10
303.713
 20
416.340
 30
0.000000
  70
    32
  0
VERTEX
  8
AM_0
  5
19562
 10
303.688
 20
416.336
 30
0.000000
  70
    32
  0
VERTEX
  8
AM_0
  5
19563
 10
303.664
 20
416.332
 30
0.000000
  70
    32
  0
VERTEX
  8
AM_0
  5
19564
 10
303.640
 20
416.327
 30
0.000000
  70
    32
  0
VERTEX
  8
AM_0
  5
19565
 10
303.616
 20
416.322
 30
0.000000
  70
    32
  0
VERTEX
  8
AM_0
  5
19566
 10
303.592
 20
416.317
 30
0.000000
  70
    32
  0
VERTEX
  8
AM_0
  5
19567
 10
303.568
 20
416.311
 30
0.000000
  70
    32
  0
VERTEX
  8
AM_0
  5
19568
 10
303.544
 20
416.306
 30
0.000000
  70
    32
  0
VERTEX
  8
AM_0
  5
19569
 10
303.521
 20
416.299
 30
0.000000
  70
    32
  0
VERTEX
  8
AM_0
  5
1956A
 10
303.497
 20
416.293
 30
0.000000
  70
    32
  0
VERTEX
  8
AM_0
  5
1956B
 10
303.473
 20
416.286
 30
0.000000
  70
    32
  0
VERTEX
  8
AM_0
  5
1956C
 10
303.450
 20
416.279
 30
0.000000
  70
    32
  0
VERTEX
  8
AM_0
  5
1956D
 10
303.426
 20
416.272
 30
0.000000
  70
    32
  0
VERTEX
  8
AM_0
  5
1956E
 10
303.403
 20
416.265
 30
0.000000
  70
    32
  0
VERTEX
  8
AM_0
  5
1956F
 10
303.380
 20
416.257
 30
0.000000
  70
    32
  0
VERTEX
  8
AM_0
  5
19570
 10
303.356
 20
416.249
 30
0.000000
  70
    32
  0
VERTEX
  8
AM_0
  5
19571
 10
303.333
 20
416.240
 30
0.000000
  70
    32
  0
VERTEX
  8
AM_0
  5
19572
 10
303.310
 20
416.231
 30
0.000000
  70
    32
  0
VERTEX
  8
AM_0
  5
19573
 10
303.288
 20
416.222
 30
0.000000
  70
    32
  0
VERTEX
  8
AM_0
  5
19574
 10
303.265
 20
416.213
 30
0.000000
  70
    32
  0
VERTEX
  8
AM_0
  5
19575
 10
303.242
 20
416.204
 30
0.000000
  70
    32
  0
VERTEX
  8
AM_0
  5
19576
 10
303.220
 20
416.194
 30
0.000000
  70
    32
  0
VERTEX
  8
AM_0
  5
19577
 10
303.197
 20
416.184
 30
0.000000
  70
    32
  0
VERTEX
  8
AM_0
  5
19578
 10
303.175
 20
416.173
 30
0.000000
  70
    32
  0
VERTEX
  8
AM_0
  5
19579
 10
303.153
 20
416.163
 30
0.000000
  70
    32
  0
VERTEX
  8
AM_0
  5
1957A
 10
303.131
 20
416.152
 30
0.000000
  70
    32
  0
VERTEX
  8
AM_0
  5
1957B
 10
303.109
 20
416.141
 30
0.000000
  70
    32
  0
VERTEX
  8
AM_0
  5
1957C
 10
303.087
 20
416.129
 30
0.000000
  70
    32
  0
VERTEX
  8
AM_0
  5
1957D
 10
303.066
 20
416.118
 30
0.000000
  70
    32
  0
VERTEX
  8
AM_0
  5
1957E
 10
303.044
 20
416.106
 30
0.000000
  70
    32
  0
VERTEX
  8
AM_0
  5
1957F
 10
303.023
 20
416.093
 30
0.000000
  70
    32
  0
VERTEX
  8
AM_0
  5
19580
 10
303.002
 20
416.081
 30
0.000000
  70
    32
  0
VERTEX
  8
AM_0
  5
19581
 10
302.981
 20
416.068
 30
0.000000
  70
    32
  0
VERTEX
  8
AM_0
  5
19582
 10
302.960
 20
416.055
 30
0.000000
  70
    32
  0
VERTEX
  8
AM_0
  5
19583
 10
302.940
 20
416.042
 30
0.000000
  70
    32
  0
VERTEX
  8
AM_0
  5
19584
 10
302.919
 20
416.028
 30
0.000000
  70
    32
  0
VERTEX
  8
AM_0
  5
19585
 10
302.899
 20
416.015
 30
0.000000
  70
    32
  0
VERTEX
  8
AM_0
  5
19586
 10
302.879
 20
416.001
 30
0.000000
  70
    32
  0
VERTEX
  8
AM_0
  5
19587
 10
302.859
 20
415.986
 30
0.000000
  70
    32
  0
VERTEX
  8
AM_0
  5
19588
 10
302.839
 20
415.972
 30
0.000000
  70
    32
  0
VERTEX
  8
AM_0
  5
19589
 10
302.819
 20
415.957
 30
0.000000
  70
    32
  0
VERTEX
  8
AM_0
  5
1958A
 10
302.800
 20
415.942
 30
0.000000
  70
    32
  0
VERTEX
  8
AM_0
  5
1958B
 10
302.781
 20
415.927
 30
0.000000
  70
    32
  0
VERTEX
  8
AM_0
  5
1958C
 10
302.761
 20
415.912
 30
0.000000
  70
    32
  0
VERTEX
  8
AM_0
  5
1958D
 10
302.743
 20
415.896
 30
0.000000
  70
    32
  0
VERTEX
  8
AM_0
  5
1958E
 10
302.724
 20
415.880
 30
0.000000
  70
    32
  0
VERTEX
  8
AM_0
  5
1958F
 10
302.705
 20
415.864
 30
0.000000
  70
    32
  0
VERTEX
  8
AM_0
  5
19590
 10
302.687
 20
415.847
 30
0.000000
  70
    32
  0
VERTEX
  8
AM_0
  5
19591
 10
302.669
 20
415.831
 30
0.000000
  70
    32
  0
VERTEX
  8
AM_0
  5
19592
 10
302.651
 20
415.814
 30
0.000000
  70
    32
  0
VERTEX
  8
AM_0
  5
19593
 10
302.634
 20
415.797
 30
0.000000
  70
    32
  0
VERTEX
  8
AM_0
  5
19594
 10
302.616
 20
415.780
 30
0.000000
  70
    32
  0
VERTEX
  8
AM_0
  5
19595
 10
302.599
 20
415.762
 30
0.000000
  70
    32
  0
VERTEX
  8
AM_0
  5
19596
 10
302.582
 20
415.745
 30
0.000000
  70
    32
  0
VERTEX
  8
AM_0
  5
19597
 10
302.565
 20
415.727
 30
0.000000
  70
    32
  0
VERTEX
  8
AM_0
  5
19598
 10
302.548
 20
415.709
 30
0.000000
  70
    32
  0
VERTEX
  8
AM_0
  5
19599
 10
302.532
 20
415.690
 30
0.000000
  70
    32
  0
VERTEX
  8
AM_0
  5
1959A
 10
302.516
 20
415.672
 30
0.000000
  70
    32
  0
VERTEX
  8
AM_0
  5
1959B
 10
302.500
 20
415.653
 30
0.000000
  70
    32
  0
VERTEX
  8
AM_0
  5
1959C
 10
302.484
 20
415.634
 30
0.000000
  70
    32
  0
VERTEX
  8
AM_0
  5
1959D
 10
302.469
 20
415.615
 30
0.000000
  70
    32
  0
VERTEX
  8
AM_0
  5
1959E
 10
302.454
 20
415.596
 30
0.000000
  70
    32
  0
VERTEX
  8
AM_0
  5
1959F
 10
302.439
 20
415.576
 30
0.000000
  70
    32
  0
VERTEX
  8
AM_0
  5
195A0
 10
302.424
 20
415.557
 30
0.000000
  70
    32
  0
VERTEX
  8
AM_0
  5
195A1
 10
302.409
 20
415.537
 30
0.000000
  70
    32
  0
VERTEX
  8
AM_0
  5
195A2
 10
302.395
 20
415.517
 30
0.000000
  70
    32
  0
VERTEX
  8
AM_0
  5
195A3
 10
302.381
 20
415.497
 30
0.000000
  70
    32
  0
VERTEX
  8
AM_0
  5
195A4
 10
302.367
 20
415.477
 30
0.000000
  70
    32
  0
VERTEX
  8
AM_0
  5
195A5
 10
302.354
 20
415.456
 30
0.000000
  70
    32
  0
VERTEX
  8
AM_0
  5
195A6
 10
302.341
 20
415.435
 30
0.000000
  70
    32
  0
VERTEX
  8
AM_0
  5
195A7
 10
302.328
 20
415.415
 30
0.000000
  70
    32
  0
VERTEX
  8
AM_0
  5
195A8
 10
302.315
 20
415.394
 30
0.000000
  70
    32
  0
VERTEX
  8
AM_0
  5
195A9
 10
302.302
 20
415.373
 30
0.000000
  70
    32
  0
VERTEX
  8
AM_0
  5
195AA
 10
302.290
 20
415.351
 30
0.000000
  70
    32
  0
VERTEX
  8
AM_0
  5
195AB
 10
302.278
 20
415.330
 30
0.000000
  70
    32
  0
VERTEX
  8
AM_0
  5
195AC
 10
302.266
 20
415.308
 30
0.000000
  70
    32
  0
VERTEX
  8
AM_0
  5
195AD
 10
302.255
 20
415.287
 30
0.000000
  70
    32
  0
VERTEX
  8
AM_0
  5
195AE
 10
302.244
 20
415.265
 30
0.000000
  70
    32
  0
VERTEX
  8
AM_0
  5
195AF
 10
302.233
 20
415.243
 30
0.000000
  70
    32
  0
VERTEX
  8
AM_0
  5
195B0
 10
302.222
 20
415.221
 30
0.000000
  70
    32
  0
VERTEX
  8
AM_0
  5
195B1
 10
302.212
 20
415.198
 30
0.000000
  70
    32
  0
VERTEX
  8
AM_0
  5
195B2
 10
302.202
 20
415.176
 30
0.000000
  70
    32
  0
VERTEX
  8
AM_0
  5
195B3
 10
302.192
 20
415.153
 30
0.000000
  70
    32
  0
VERTEX
  8
AM_0
  5
195B4
 10
302.183
 20
415.131
 30
0.000000
  70
    32
  0
VERTEX
  8
AM_0
  5
195B5
 10
302.173
 20
415.108
 30
0.000000
  70
    32
  0
VERTEX
  8
AM_0
  5
195B6
 10
302.164
 20
415.085
 30
0.000000
  70
    32
  0
VERTEX
  8
AM_0
  5
195B7
 10
302.156
 20
415.062
 30
0.000000
  70
    32
  0
VERTEX
  8
AM_0
  5
195B8
 10
302.147
 20
415.039
 30
0.000000
  70
    32
  0
VERTEX
  8
AM_0
  5
195B9
 10
302.139
 20
415.016
 30
0.000000
  70
    32
  0
VERTEX
  8
AM_0
  5
195BA
 10
302.131
 20
414.993
 30
0.000000
  70
    32
  0
VERTEX
  8
AM_0
  5
195BB
 10
302.124
 20
414.969
 30
0.000000
  70
    32
  0
VERTEX
  8
AM_0
  5
195BC
 10
302.116
 20
414.946
 30
0.000000
  70
    32
  0
VERTEX
  8
AM_0
  5
195BD
 10
302.109
 20
414.922
 30
0.000000
  70
    32
  0
VERTEX
  8
AM_0
  5
195BE
 10
302.103
 20
414.899
 30
0.000000
  70
    32
  0
VERTEX
  8
AM_0
  5
195BF
 10
302.096
 20
414.875
 30
0.000000
  70
    32
  0
VERTEX
  8
AM_0
  5
195C0
 10
302.090
 20
414.851
 30
0.000000
  70
    32
  0
VERTEX
  8
AM_0
  5
195C1
 10
302.084
 20
414.828
 30
0.000000
  70
    32
  0
VERTEX
  8
AM_0
  5
195C2
 10
302.079
 20
414.804
 30
0.000000
  70
    32
  0
VERTEX
  8
AM_0
  5
195C3
 10
302.074
 20
414.780
 30
0.000000
  70
    32
  0
VERTEX
  8
AM_0
  5
195C4
 10
302.069
 20
414.756
 30
0.000000
  70
    32
  0
VERTEX
  8
AM_0
  5
195C5
 10
302.064
 20
414.732
 30
0.000000
  70
    32
  0
VERTEX
  8
AM_0
  5
195C6
 10
302.060
 20
414.707
 30
0.000000
  70
    32
  0
VERTEX
  8
AM_0
  5
195C7
 10
302.056
 20
414.683
 30
0.000000
  70
    32
  0
VERTEX
  8
AM_0
  5
195C8
 10
302.052
 20
414.659
 30
0.000000
  70
    32
  0
VERTEX
  8
AM_0
  5
195C9
 10
302.048
 20
414.635
 30
0.000000
  70
    32
  0
VERTEX
  8
AM_0
  5
195CA
 10
302.045
 20
414.610
 30
0.000000
  70
    32
  0
VERTEX
  8
AM_0
  5
195CB
 10
302.042
 20
414.586
 30
0.000000
  70
    32
  0
VERTEX
  8
AM_0
  5
195CC
 10
302.040
 20
414.561
 30
0.000000
  70
    32
  0
VERTEX
  8
AM_0
  5
195CD
 10
302.038
 20
414.537
 30
0.000000
  70
    32
  0
VERTEX
  8
AM_0
  5
195CE
 10
302.036
 20
414.513
 30
0.000000
  70
    32
  0
VERTEX
  8
AM_0
  5
195CF
 10
302.034
 20
414.488
 30
0.000000
  70
    32
  0
VERTEX
  8
AM_0
  5
195D0
 10
302.033
 20
414.464
 30
0.000000
  70
    32
  0
VERTEX
  8
AM_0
  5
195D1
 10
302.032
 20
414.439
 30
0.000000
  70
    32
  0
VERTEX
  8
AM_0
  5
195D2
 10
302.031
 20
414.415
 30
0.000000
  70
    32
  0
VERTEX
  8
AM_0
  5
195D3
 10
302.030
 20
414.390
 30
0.000000
  70
    32
  0
VERTEX
  8
AM_0
  5
195D4
 10
302.030
 20
414.365
 30
0.000000
  70
    32
  0
SEQEND
  8
AM_0
  5
195D5
  0
LINE
  5
1686B
  8
AM_0
 10
326.03026363548048
 20
444.86605994215978
 30
0.0
 11
301.03026288992248
 21
444.5518751824244
 31
0.0
  0
LINE
  5
1686C
  8
AM_0
 10
424.03026655806809
 20
414.86525874944351
 30
0.0
 11
419.03026640895632
 21
414.86525874944351
 31
0.0
  0
LINE
  5
1686D
  8
AM_0
 10
296.03026274081128
 20
389.86445830888488
 30
0.0
 11
291.0302625902998
 21
389.86445830888488
 31
0.0
  0
LINE
  5
16F59
  8
AM_0
 10
438.53026464943912
 20
316.36409701951402
 30
0.0
 11
438.53026464943912
 21
377.36409701951408
 31
0.0
  0
LINE
  5
16F5A
  8
AM_0
 10
432.03026464943929
 20
315.36409701951402
 30
0.0
 11
432.03026464943929
 21
378.36409701951402
 31
0.0
  0
LINE
  5
16F5B
  8
AM_0
 10
430.0302646494394
 20
376.86409701951402
 30
0.0
 11
430.0302646494394
 21
316.82411701951401
 31
0.0
  0
LINE
  5
16F5C
  8
AM_0
 10
435.03026464943952
 20
313.36409701951402
 30
0.0
 11
435.03026464943952
 21
380.36409701951402
 31
0.0
  0
LINE
  5
16F5D
  8
AM_0
 10
457.03026464943918
 20
317.86409701951402
 30
0.0
 11
457.03026464943918
 21
375.86409701951402
 31
0.0
  0
LINE
  5
16F5E
  8
AM_0
 10
460.03026464943952
 20
329.06410701951398
 30
0.0
 11
460.03026464943952
 21
364.67409701951408
 31
0.0
  0
ARC
  5
16F5F
  8
AM_0
 10
437.5302646494394
 20
316.36409701951402
 30
0.0
 40
0.9999999999999998
 50
270.0
 51
0.0000100000010134
  0
LINE
  5
16F60
  8
AM_0
 10
435.03026464943952
 20
313.36409701951402
 30
0.0
 11
450.0302646494394
 21
313.36409701951402
 31
0.0
  0
LINE
  5
16F61
  8
AM_0
 10
450.0302646494394
 20
315.36409701951402
 30
0.0
 11
432.03026464943929
 21
315.36409701951402
 31
0.0
  0
LINE
  5
16F62
  8
AM_0
 10
456.03026464943912
 20
316.86409701951402
 30
0.0
 11
438.53026464943912
 21
316.86409701951402
 31
0.0
  0
ARC
  5
16F63
  8
AM_0
 10
456.0302646494394
 20
317.86409701951402
 30
0.0
 40
0.9999999999999998
 50
270.0
 51
0.0000100000010134
  0
LINE
  5
16F64
  8
AM_0
 10
457.03024464943928
 20
323.86409701951402
 30
0.0
 11
460.03026464943952
 21
329.06410701951398
 31
0.0
  0
ARC
  5
16F65
  8
AM_0
 10
450.0302646494394
 20
316.36409701951402
 30
0.0
 40
0.9999999999999998
 50
270.0
 51
0.0000100000010134
  0
LINE
  5
16F66
  8
AM_0
 10
451.03026464943912
 20
316.36409701951402
 30
0.0
 11
451.03026464943912
 21
316.86409701951402
 31
0.0
  0
LINE
  5
16F67
  8
AM_0
 10
450.0302646494394
 20
315.36409701951402
 30
0.0
 11
450.0302646494394
 21
313.36409701951402
 31
0.0
  0
LINE
  5
16F68
  8
AM_0
 10
424.03026655806741
 20
316.66029131454752
 30
0.0
 11
432.03026464943918
 21
316.86411905439081
 31
0.0
  0
ARC
  5
16F69
  8
AM_0
 10
437.5302646494394
 20
377.36409701951408
 30
0.0
 40
0.9999999999999998
 50
359.999989999999
 51
89.999997000002296
  0
LINE
  5
16F6A
  8
AM_0
 10
450.0302646494394
 20
378.36409701951402
 30
0.0
 11
432.03026464943929
 21
378.36409701951402
 31
0.0
  0
LINE
  5
16F6B
  8
AM_0
 10
435.03026464943952
 20
380.36409701951402
 30
0.0
 11
450.0302646494394
 21
380.36409701951402
 31
0.0
  0
LINE
  5
16F6C
  8
AM_0
 10
457.03026464943918
 20
369.8640970195143
 30
0.0
 11
460.03026464943952
 21
364.67409701951408
 31
0.0
  0
LINE
  5
16F6D
  8
AM_0
 10
456.03026464943912
 20
376.86409701951402
 30
0.0
 11
438.53026464943912
 21
376.86409701951402
 31
0.0
  0
ARC
  5
16F6E
  8
AM_0
 10
456.0302646494394
 20
375.86409701951402
 30
0.0
 40
0.9999999999999998
 50
359.999989999999
 51
89.999997000002296
  0
LINE
  5
16F6F
  8
AM_0
 10
451.03026464943912
 20
376.86409701951402
 30
0.0
 11
451.03026464943912
 21
377.36409701951408
 31
0.0
  0
ARC
  5
16F70
  8
AM_0
 10
450.0302646494394
 20
377.36409701951408
 30
0.0
 40
0.9999999999999998
 50
359.999989999999
 51
89.999997000002296
  0
LINE
  5
16F71
  8
AM_0
 10
450.0302646494394
 20
378.36409701951402
 30
0.0
 11
450.0302646494394
 21
380.36409701951402
 31
0.0
  0
LINE
  5
16F72
  8
AM_0
 10
424.03026655806809
 20
377.07811406147698
 30
0.0
 11
432.03026464943918
 21
376.86409550788608
 31
0.0
  0
POLYLINE
  5
18435
  8
AM_0
 10
63.84114285013144
 20
429.86575949351612
 30
0.0
 66
     1
 70
     8
  0
VERTEX
  8
AM_0
  5
195D6
 10
63.8411
 20
429.866
 30
0.000000
  70
    32
  0
VERTEX
  8
AM_0
  5
195D7
 10
63.8327
 20
430.209
 30
0.000000
  70
    32
  0
VERTEX
  8
AM_0
  5
195D8
 10
63.8074
 20
430.552
 30
0.000000
  70
    32
  0
VERTEX
  8
AM_0
  5
195D9
 10
63.7654
 20
430.893
 30
0.000000
  70
    32
  0
VERTEX
  8
AM_0
  5
195DA
 10
63.7066
 20
431.231
 30
0.000000
  70
    32
  0
VERTEX
  8
AM_0
  5
195DB
 10
63.6314
 20
431.567
 30
0.000000
  70
    32
  0
VERTEX
  8
AM_0
  5
195DC
 10
63.5397
 20
431.898
 30
0.000000
  70
    32
  0
VERTEX
  8
AM_0
  5
195DD
 10
63.4320
 20
432.224
 30
0.000000
  70
    32
  0
VERTEX
  8
AM_0
  5
195DE
 10
63.3083
 20
432.545
 30
0.000000
  70
    32
  0
VERTEX
  8
AM_0
  5
195DF
 10
63.1691
 20
432.859
 30
0.000000
  70
    32
  0
VERTEX
  8
AM_0
  5
195E0
 10
63.0146
 20
433.166
 30
0.000000
  70
    32
  0
VERTEX
  8
AM_0
  5
195E1
 10
62.8452
 20
433.465
 30
0.000000
  70
    32
  0
VERTEX
  8
AM_0
  5
195E2
 10
62.6614
 20
433.755
 30
0.000000
  70
    32
  0
VERTEX
  8
AM_0
  5
195E3
 10
62.4636
 20
434.036
 30
0.000000
  70
    32
  0
VERTEX
  8
AM_0
  5
195E4
 10
62.2522
 20
434.307
 30
0.000000
  70
    32
  0
VERTEX
  8
AM_0
  5
195E5
 10
62.0278
 20
434.567
 30
0.000000
  70
    32
  0
VERTEX
  8
AM_0
  5
195E6
 10
61.7909
 20
434.816
 30
0.000000
  70
    32
  0
VERTEX
  8
AM_0
  5
195E7
 10
61.5421
 20
435.053
 30
0.000000
  70
    32
  0
VERTEX
  8
AM_0
  5
195E8
 10
61.2819
 20
435.277
 30
0.000000
  70
    32
  0
VERTEX
  8
AM_0
  5
195E9
 10
61.0110
 20
435.488
 30
0.000000
  70
    32
  0
VERTEX
  8
AM_0
  5
195EA
 10
60.7301
 20
435.686
 30
0.000000
  70
    32
  0
VERTEX
  8
AM_0
  5
195EB
 10
60.4399
 20
435.870
 30
0.000000
  70
    32
  0
VERTEX
  8
AM_0
  5
195EC
 10
60.1409
 20
436.039
 30
0.000000
  70
    32
  0
VERTEX
  8
AM_0
  5
195ED
 10
59.8340
 20
436.194
 30
0.000000
  70
    32
  0
VERTEX
  8
AM_0
  5
195EE
 10
59.5199
 20
436.333
 30
0.000000
  70
    32
  0
VERTEX
  8
AM_0
  5
195EF
 10
59.1994
 20
436.457
 30
0.000000
  70
    32
  0
VERTEX
  8
AM_0
  5
195F0
 10
58.8731
 20
436.564
 30
0.000000
  70
    32
  0
VERTEX
  8
AM_0
  5
195F1
 10
58.5420
 20
436.656
 30
0.000000
  70
    32
  0
VERTEX
  8
AM_0
  5
195F2
 10
58.2068
 20
436.731
 30
0.000000
  70
    32
  0
VERTEX
  8
AM_0
  5
195F3
 10
57.8683
 20
436.790
 30
0.000000
  70
    32
  0
VERTEX
  8
AM_0
  5
195F4
 10
57.5273
 20
436.832
 30
0.000000
  70
    32
  0
VERTEX
  8
AM_0
  5
195F5
 10
57.1846
 20
436.857
 30
0.000000
  70
    32
  0
VERTEX
  8
AM_0
  5
195F6
 10
56.8411
 20
436.866
 30
0.000000
  70
    32
  0
VERTEX
  8
AM_0
  5
195F7
 10
56.4977
 20
436.857
 30
0.000000
  70
    32
  0
VERTEX
  8
AM_0
  5
195F8
 10
56.1550
 20
436.832
 30
0.000000
  70
    32
  0
VERTEX
  8
AM_0
  5
195F9
 10
55.8140
 20
436.790
 30
0.000000
  70
    32
  0
VERTEX
  8
AM_0
  5
195FA
 10
55.4755
 20
436.731
 30
0.000000
  70
    32
  0
VERTEX
  8
AM_0
  5
195FB
 10
55.1403
 20
436.656
 30
0.000000
  70
    32
  0
VERTEX
  8
AM_0
  5
195FC
 10
54.8091
 20
436.564
 30
0.000000
  70
    32
  0
VERTEX
  8
AM_0
  5
195FD
 10
54.4829
 20
436.457
 30
0.000000
  70
    32
  0
VERTEX
  8
AM_0
  5
195FE
 10
54.1624
 20
436.333
 30
0.000000
  70
    32
  0
VERTEX
  8
AM_0
  5
195FF
 10
53.8483
 20
436.194
 30
0.000000
  70
    32
  0
VERTEX
  8
AM_0
  5
19600
 10
53.5414
 20
436.039
 30
0.000000
  70
    32
  0
VERTEX
  8
AM_0
  5
19601
 10
53.2424
 20
435.870
 30
0.000000
  70
    32
  0
VERTEX
  8
AM_0
  5
19602
 10
52.9522
 20
435.686
 30
0.000000
  70
    32
  0
VERTEX
  8
AM_0
  5
19603
 10
52.6712
 20
435.488
 30
0.000000
  70
    32
  0
VERTEX
  8
AM_0
  5
19604
 10
52.4004
 20
435.277
 30
0.000000
  70
    32
  0
VERTEX
  8
AM_0
  5
19605
 10
52.1402
 20
435.053
 30
0.000000
  70
    32
  0
VERTEX
  8
AM_0
  5
19606
 10
51.8914
 20
434.816
 30
0.000000
  70
    32
  0
VERTEX
  8
AM_0
  5
19607
 10
51.6545
 20
434.567
 30
0.000000
  70
    32
  0
VERTEX
  8
AM_0
  5
19608
 10
51.4301
 20
434.307
 30
0.000000
  70
    32
  0
VERTEX
  8
AM_0
  5
19609
 10
51.2187
 20
434.036
 30
0.000000
  70
    32
  0
VERTEX
  8
AM_0
  5
1960A
 10
51.0209
 20
433.755
 30
0.000000
  70
    32
  0
VERTEX
  8
AM_0
  5
1960B
 10
50.8370
 20
433.465
 30
0.000000
  70
    32
  0
VERTEX
  8
AM_0
  5
1960C
 10
50.6677
 20
433.166
 30
0.000000
  70
    32
  0
VERTEX
  8
AM_0
  5
1960D
 10
50.5132
 20
432.859
 30
0.000000
  70
    32
  0
VERTEX
  8
AM_0
  5
1960E
 10
50.3740
 20
432.545
 30
0.000000
  70
    32
  0
VERTEX
  8
AM_0
  5
1960F
 10
50.2503
 20
432.224
 30
0.000000
  70
    32
  0
VERTEX
  8
AM_0
  5
19610
 10
50.1426
 20
431.898
 30
0.000000
  70
    32
  0
VERTEX
  8
AM_0
  5
19611
 10
50.0509
 20
431.567
 30
0.000000
  70
    32
  0
VERTEX
  8
AM_0
  5
19612
 10
49.9756
 20
431.231
 30
0.000000
  70
    32
  0
VERTEX
  8
AM_0
  5
19613
 10
49.9169
 20
430.893
 30
0.000000
  70
    32
  0
VERTEX
  8
AM_0
  5
19614
 10
49.8748
 20
430.552
 30
0.000000
  70
    32
  0
VERTEX
  8
AM_0
  5
19615
 10
49.8496
 20
430.209
 30
0.000000
  70
    32
  0
VERTEX
  8
AM_0
  5
19616
 10
49.8411
 20
429.866
 30
0.000000
  70
    32
  0
VERTEX
  8
AM_0
  5
19617
 10
49.8496
 20
429.522
 30
0.000000
  70
    32
  0
VERTEX
  8
AM_0
  5
19618
 10
49.8748
 20
429.180
 30
0.000000
  70
    32
  0
VERTEX
  8
AM_0
  5
19619
 10
49.9169
 20
428.839
 30
0.000000
  70
    32
  0
VERTEX
  8
AM_0
  5
1961A
 10
49.9756
 20
428.500
 30
0.000000
  70
    32
  0
VERTEX
  8
AM_0
  5
1961B
 10
50.0509
 20
428.165
 30
0.000000
  70
    32
  0
VERTEX
  8
AM_0
  5
1961C
 10
50.1426
 20
427.834
 30
0.000000
  70
    32
  0
VERTEX
  8
AM_0
  5
1961D
 10
50.2503
 20
427.507
 30
0.000000
  70
    32
  0
VERTEX
  8
AM_0
  5
1961E
 10
50.3740
 20
427.187
 30
0.000000
  70
    32
  0
VERTEX
  8
AM_0
  5
1961F
 10
50.5132
 20
426.873
 30
0.000000
  70
    32
  0
VERTEX
  8
AM_0
  5
19620
 10
50.6677
 20
426.566
 30
0.000000
  70
    32
  0
VERTEX
  8
AM_0
  5
19621
 10
50.8370
 20
426.267
 30
0.000000
  70
    32
  0
VERTEX
  8
AM_0
  5
19622
 10
51.0209
 20
425.977
 30
0.000000
  70
    32
  0
VERTEX
  8
AM_0
  5
19623
 10
51.2187
 20
425.696
 30
0.000000
  70
    32
  0
VERTEX
  8
AM_0
  5
19624
 10
51.4301
 20
425.425
 30
0.000000
  70
    32
  0
VERTEX
  8
AM_0
  5
19625
 10
51.6545
 20
425.165
 30
0.000000
  70
    32
  0
VERTEX
  8
AM_0
  5
19626
 10
51.8914
 20
424.916
 30
0.000000
  70
    32
  0
VERTEX
  8
AM_0
  5
19627
 10
52.1402
 20
424.679
 30
0.000000
  70
    32
  0
VERTEX
  8
AM_0
  5
19628
 10
52.4004
 20
424.455
 30
0.000000
  70
    32
  0
VERTEX
  8
AM_0
  5
19629
 10
52.6712
 20
424.243
 30
0.000000
  70
    32
  0
VERTEX
  8
AM_0
  5
1962A
 10
52.9522
 20
424.045
 30
0.000000
  70
    32
  0
VERTEX
  8
AM_0
  5
1962B
 10
53.2424
 20
423.862
 30
0.000000
  70
    32
  0
VERTEX
  8
AM_0
  5
1962C
 10
53.5414
 20
423.692
 30
0.000000
  70
    32
  0
VERTEX
  8
AM_0
  5
1962D
 10
53.8483
 20
423.538
 30
0.000000
  70
    32
  0
VERTEX
  8
AM_0
  5
1962E
 10
54.1624
 20
423.398
 30
0.000000
  70
    32
  0
VERTEX
  8
AM_0
  5
1962F
 10
54.4829
 20
423.275
 30
0.000000
  70
    32
  0
VERTEX
  8
AM_0
  5
19630
 10
54.8091
 20
423.167
 30
0.000000
  70
    32
  0
VERTEX
  8
AM_0
  5
19631
 10
55.1403
 20
423.075
 30
0.000000
  70
    32
  0
VERTEX
  8
AM_0
  5
19632
 10
55.4755
 20
423.000
 30
0.000000
  70
    32
  0
VERTEX
  8
AM_0
  5
19633
 10
55.8140
 20
422.941
 30
0.000000
  70
    32
  0
VERTEX
  8
AM_0
  5
19634
 10
56.1550
 20
422.899
 30
0.000000
  70
    32
  0
VERTEX
  8
AM_0
  5
19635
 10
56.4977
 20
422.874
 30
0.000000
  70
    32
  0
VERTEX
  8
AM_0
  5
19636
 10
56.8411
 20
422.866
 30
0.000000
  70
    32
  0
VERTEX
  8
AM_0
  5
19637
 10
57.1846
 20
422.874
 30
0.000000
  70
    32
  0
VERTEX
  8
AM_0
  5
19638
 10
57.5273
 20
422.899
 30
0.000000
  70
    32
  0
VERTEX
  8
AM_0
  5
19639
 10
57.8683
 20
422.941
 30
0.000000
  70
    32
  0
VERTEX
  8
AM_0
  5
1963A
 10
58.2068
 20
423.000
 30
0.000000
  70
    32
  0
VERTEX
  8
AM_0
  5
1963B
 10
58.5420
 20
423.075
 30
0.000000
  70
    32
  0
VERTEX
  8
AM_0
  5
1963C
 10
58.8731
 20
423.167
 30
0.000000
  70
    32
  0
VERTEX
  8
AM_0
  5
1963D
 10
59.1994
 20
423.275
 30
0.000000
  70
    32
  0
VERTEX
  8
AM_0
  5
1963E
 10
59.5199
 20
423.398
 30
0.000000
  70
    32
  0
VERTEX
  8
AM_0
  5
1963F
 10
59.8340
 20
423.538
 30
0.000000
  70
    32
  0
VERTEX
  8
AM_0
  5
19640
 10
60.1409
 20
423.692
 30
0.000000
  70
    32
  0
VERTEX
  8
AM_0
  5
19641
 10
60.4399
 20
423.862
 30
0.000000
  70
    32
  0
VERTEX
  8
AM_0
  5
19642
 10
60.7301
 20
424.045
 30
0.000000
  70
    32
  0
VERTEX
  8
AM_0
  5
19643
 10
61.0110
 20
424.243
 30
0.000000
  70
    32
  0
VERTEX
  8
AM_0
  5
19644
 10
61.2819
 20
424.455
 30
0.000000
  70
    32
  0
VERTEX
  8
AM_0
  5
19645
 10
61.5421
 20
424.679
 30
0.000000
  70
    32
  0
VERTEX
  8
AM_0
  5
19646
 10
61.7909
 20
424.916
 30
0.000000
  70
    32
  0
VERTEX
  8
AM_0
  5
19647
 10
62.0278
 20
425.165
 30
0.000000
  70
    32
  0
VERTEX
  8
AM_0
  5
19648
 10
62.2522
 20
425.425
 30
0.000000
  70
    32
  0
VERTEX
  8
AM_0
  5
19649
 10
62.4636
 20
425.696
 30
0.000000
  70
    32
  0
VERTEX
  8
AM_0
  5
1964A
 10
62.6614
 20
425.977
 30
0.000000
  70
    32
  0
VERTEX
  8
AM_0
  5
1964B
 10
62.8452
 20
426.267
 30
0.000000
  70
    32
  0
VERTEX
  8
AM_0
  5
1964C
 10
63.0146
 20
426.566
 30
0.000000
  70
    32
  0
VERTEX
  8
AM_0
  5
1964D
 10
63.1691
 20
426.873
 30
0.000000
  70
    32
  0
VERTEX
  8
AM_0
  5
1964E
 10
63.3083
 20
427.187
 30
0.000000
  70
    32
  0
VERTEX
  8
AM_0
  5
1964F
 10
63.4320
 20
427.507
 30
0.000000
  70
    32
  0
VERTEX
  8
AM_0
  5
19650
 10
63.5397
 20
427.834
 30
0.000000
  70
    32
  0
VERTEX
  8
AM_0
  5
19651
 10
63.6314
 20
428.165
 30
0.000000
  70
    32
  0
VERTEX
  8
AM_0
  5
19652
 10
63.7066
 20
428.500
 30
0.000000
  70
    32
  0
VERTEX
  8
AM_0
  5
19653
 10
63.7654
 20
428.839
 30
0.000000
  70
    32
  0
VERTEX
  8
AM_0
  5
19654
 10
63.8074
 20
429.180
 30
0.000000
  70
    32
  0
VERTEX
  8
AM_0
  5
19655
 10
63.8327
 20
429.522
 30
0.000000
  70
    32
  0
VERTEX
  8
AM_0
  5
19656
 10
63.8411
 20
429.866
 30
0.000000
  70
    32
  0
SEQEND
  8
AM_0
  5
19657
  0
ARC
  5
18436
  8
AM_0
 10
63.841140833275858
 20
410.86445755632661
 30
0.0
 40
14.999999999999989
 50
198.90641874079009
 51
255.5224885635289
  0
CIRCLE
  5
18437
  8
AM_0N
 10
63.67150887526828
 20
410.86445755632661
 30
0.0
 40
6.5
  0
ARC
  5
18438
  8
AM_0
 10
63.841140833275858
 20
410.86445755632661
 30
0.0
 40
7.5
 50
90.000005008950424
 51
270.00001001790088
  0
POLYLINE
  5
18439
  8
AM_0
 10
71.841143090950055
 20
429.86575949351612
 30
0.0
 66
     1
 70
     8
  0
VERTEX
  8
AM_0
  5
19658
 10
71.8411
 20
429.866
 30
0.000000
  70
    32
  0
VERTEX
  8
AM_0
  5
19659
 10
71.8400
 20
430.050
 30
0.000000
  70
    32
  0
VERTEX
  8
AM_0
  5
1965A
 10
71.8366
 20
430.234
 30
0.000000
  70
    32
  0
VERTEX
  8
AM_0
  5
1965B
 10
71.8310
 20
430.418
 30
0.000000
  70
    32
  0
VERTEX
  8
AM_0
  5
1965C
 10
71.8231
 20
430.602
 30
0.000000
  70
    32
  0
VERTEX
  8
AM_0
  5
1965D
 10
71.8129
 20
430.786
 30
0.000000
  70
    32
  0
VERTEX
  8
AM_0
  5
1965E
 10
71.8005
 20
430.969
 30
0.000000
  70
    32
  0
VERTEX
  8
AM_0
  5
1965F
 10
71.7858
 20
431.153
 30
0.000000
  70
    32
  0
VERTEX
  8
AM_0
  5
19660
 10
71.7689
 20
431.336
 30
0.000000
  70
    32
  0
VERTEX
  8
AM_0
  5
19661
 10
71.7497
 20
431.519
 30
0.000000
  70
    32
  0
VERTEX
  8
AM_0
  5
19662
 10
71.7283
 20
431.702
 30
0.000000
  70
    32
  0
VERTEX
  8
AM_0
  5
19663
 10
71.7047
 20
431.885
 30
0.000000
  70
    32
  0
VERTEX
  8
AM_0
  5
19664
 10
71.6788
 20
432.067
 30
0.000000
  70
    32
  0
VERTEX
  8
AM_0
  5
19665
 10
71.6507
 20
432.249
 30
0.000000
  70
    32
  0
VERTEX
  8
AM_0
  5
19666
 10
71.6203
 20
432.430
 30
0.000000
  70
    32
  0
VERTEX
  8
AM_0
  5
19667
 10
71.5877
 20
432.611
 30
0.000000
  70
    32
  0
VERTEX
  8
AM_0
  5
19668
 10
71.5529
 20
432.792
 30
0.000000
  70
    32
  0
VERTEX
  8
AM_0
  5
19669
 10
71.5159
 20
432.972
 30
0.000000
  70
    32
  0
VERTEX
  8
AM_0
  5
1966A
 10
71.4767
 20
433.152
 30
0.000000
  70
    32
  0
VERTEX
  8
AM_0
  5
1966B
 10
71.4352
 20
433.332
 30
0.000000
  70
    32
  0
VERTEX
  8
AM_0
  5
1966C
 10
71.3916
 20
433.511
 30
0.000000
  70
    32
  0
VERTEX
  8
AM_0
  5
1966D
 10
71.3458
 20
433.689
 30
0.000000
  70
    32
  0
VERTEX
  8
AM_0
  5
1966E
 10
71.2978
 20
433.867
 30
0.000000
  70
    32
  0
VERTEX
  8
AM_0
  5
1966F
 10
71.2476
 20
434.044
 30
0.000000
  70
    32
  0
VERTEX
  8
AM_0
  5
19670
 10
71.1952
 20
434.220
 30
0.000000
  70
    32
  0
VERTEX
  8
AM_0
  5
19671
 10
71.1407
 20
434.396
 30
0.000000
  70
    32
  0
VERTEX
  8
AM_0
  5
19672
 10
71.0841
 20
434.571
 30
0.000000
  70
    32
  0
VERTEX
  8
AM_0
  5
19673
 10
71.0253
 20
434.746
 30
0.000000
  70
    32
  0
VERTEX
  8
AM_0
  5
19674
 10
70.9643
 20
434.919
 30
0.000000
  70
    32
  0
VERTEX
  8
AM_0
  5
19675
 10
70.9012
 20
435.092
 30
0.000000
  70
    32
  0
VERTEX
  8
AM_0
  5
19676
 10
70.8360
 20
435.264
 30
0.000000
  70
    32
  0
VERTEX
  8
AM_0
  5
19677
 10
70.7687
 20
435.436
 30
0.000000
  70
    32
  0
VERTEX
  8
AM_0
  5
19678
 10
70.6993
 20
435.606
 30
0.000000
  70
    32
  0
VERTEX
  8
AM_0
  5
19679
 10
70.6279
 20
435.776
 30
0.000000
  70
    32
  0
VERTEX
  8
AM_0
  5
1967A
 10
70.5543
 20
435.945
 30
0.000000
  70
    32
  0
VERTEX
  8
AM_0
  5
1967B
 10
70.4787
 20
436.112
 30
0.000000
  70
    32
  0
VERTEX
  8
AM_0
  5
1967C
 10
70.4010
 20
436.279
 30
0.000000
  70
    32
  0
VERTEX
  8
AM_0
  5
1967D
 10
70.3213
 20
436.445
 30
0.000000
  70
    32
  0
VERTEX
  8
AM_0
  5
1967E
 10
70.2395
 20
436.610
 30
0.000000
  70
    32
  0
VERTEX
  8
AM_0
  5
1967F
 10
70.1557
 20
436.774
 30
0.000000
  70
    32
  0
VERTEX
  8
AM_0
  5
19680
 10
70.0700
 20
436.937
 30
0.000000
  70
    32
  0
VERTEX
  8
AM_0
  5
19681
 10
69.9822
 20
437.099
 30
0.000000
  70
    32
  0
VERTEX
  8
AM_0
  5
19682
 10
69.8924
 20
437.259
 30
0.000000
  70
    32
  0
VERTEX
  8
AM_0
  5
19683
 10
69.8007
 20
437.419
 30
0.000000
  70
    32
  0
VERTEX
  8
AM_0
  5
19684
 10
69.7071
 20
437.577
 30
0.000000
  70
    32
  0
VERTEX
  8
AM_0
  5
19685
 10
69.6115
 20
437.735
 30
0.000000
  70
    32
  0
VERTEX
  8
AM_0
  5
19686
 10
69.5139
 20
437.891
 30
0.000000
  70
    32
  0
VERTEX
  8
AM_0
  5
19687
 10
69.4145
 20
438.046
 30
0.000000
  70
    32
  0
VERTEX
  8
AM_0
  5
19688
 10
69.3132
 20
438.199
 30
0.000000
  70
    32
  0
VERTEX
  8
AM_0
  5
19689
 10
69.2100
 20
438.352
 30
0.000000
  70
    32
  0
VERTEX
  8
AM_0
  5
1968A
 10
69.1049
 20
438.503
 30
0.000000
  70
    32
  0
VERTEX
  8
AM_0
  5
1968B
 10
68.9980
 20
438.653
 30
0.000000
  70
    32
  0
VERTEX
  8
AM_0
  5
1968C
 10
68.8893
 20
438.801
 30
0.000000
  70
    32
  0
VERTEX
  8
AM_0
  5
1968D
 10
68.7787
 20
438.949
 30
0.000000
  70
    32
  0
VERTEX
  8
AM_0
  5
1968E
 10
68.6663
 20
439.094
 30
0.000000
  70
    32
  0
VERTEX
  8
AM_0
  5
1968F
 10
68.5522
 20
439.239
 30
0.000000
  70
    32
  0
VERTEX
  8
AM_0
  5
19690
 10
68.4363
 20
439.382
 30
0.000000
  70
    32
  0
VERTEX
  8
AM_0
  5
19691
 10
68.3187
 20
439.523
 30
0.000000
  70
    32
  0
VERTEX
  8
AM_0
  5
19692
 10
68.1993
 20
439.664
 30
0.000000
  70
    32
  0
VERTEX
  8
AM_0
  5
19693
 10
68.0782
 20
439.802
 30
0.000000
  70
    32
  0
VERTEX
  8
AM_0
  5
19694
 10
67.9554
 20
439.939
 30
0.000000
  70
    32
  0
VERTEX
  8
AM_0
  5
19695
 10
67.8310
 20
440.075
 30
0.000000
  70
    32
  0
VERTEX
  8
AM_0
  5
19696
 10
67.7048
 20
440.209
 30
0.000000
  70
    32
  0
VERTEX
  8
AM_0
  5
19697
 10
67.5771
 20
440.342
 30
0.000000
  70
    32
  0
VERTEX
  8
AM_0
  5
19698
 10
67.4477
 20
440.473
 30
0.000000
  70
    32
  0
VERTEX
  8
AM_0
  5
19699
 10
67.3168
 20
440.602
 30
0.000000
  70
    32
  0
VERTEX
  8
AM_0
  5
1969A
 10
67.1843
 20
440.730
 30
0.000000
  70
    32
  0
VERTEX
  8
AM_0
  5
1969B
 10
67.0502
 20
440.856
 30
0.000000
  70
    32
  0
VERTEX
  8
AM_0
  5
1969C
 10
66.9145
 20
440.980
 30
0.000000
  70
    32
  0
VERTEX
  8
AM_0
  5
1969D
 10
66.7774
 20
441.103
 30
0.000000
  70
    32
  0
VERTEX
  8
AM_0
  5
1969E
 10
66.6387
 20
441.224
 30
0.000000
  70
    32
  0
VERTEX
  8
AM_0
  5
1969F
 10
66.4986
 20
441.343
 30
0.000000
  70
    32
  0
VERTEX
  8
AM_0
  5
196A0
 10
66.3570
 20
441.461
 30
0.000000
  70
    32
  0
VERTEX
  8
AM_0
  5
196A1
 10
66.2140
 20
441.577
 30
0.000000
  70
    32
  0
VERTEX
  8
AM_0
  5
196A2
 10
66.0696
 20
441.691
 30
0.000000
  70
    32
  0
VERTEX
  8
AM_0
  5
196A3
 10
65.9238
 20
441.804
 30
0.000000
  70
    32
  0
VERTEX
  8
AM_0
  5
196A4
 10
65.7766
 20
441.914
 30
0.000000
  70
    32
  0
VERTEX
  8
AM_0
  5
196A5
 10
65.6281
 20
442.023
 30
0.000000
  70
    32
  0
VERTEX
  8
AM_0
  5
196A6
 10
65.4783
 20
442.130
 30
0.000000
  70
    32
  0
VERTEX
  8
AM_0
  5
196A7
 10
65.3271
 20
442.235
 30
0.000000
  70
    32
  0
VERTEX
  8
AM_0
  5
196A8
 10
65.1747
 20
442.338
 30
0.000000
  70
    32
  0
VERTEX
  8
AM_0
  5
196A9
 10
65.0210
 20
442.439
 30
0.000000
  70
    32
  0
VERTEX
  8
AM_0
  5
196AA
 10
64.8661
 20
442.539
 30
0.000000
  70
    32
  0
VERTEX
  8
AM_0
  5
196AB
 10
64.7100
 20
442.636
 30
0.000000
  70
    32
  0
VERTEX
  8
AM_0
  5
196AC
 10
64.5527
 20
442.732
 30
0.000000
  70
    32
  0
VERTEX
  8
AM_0
  5
196AD
 10
64.3942
 20
442.826
 30
0.000000
  70
    32
  0
VERTEX
  8
AM_0
  5
196AE
 10
64.2346
 20
442.917
 30
0.000000
  70
    32
  0
VERTEX
  8
AM_0
  5
196AF
 10
64.0739
 20
443.007
 30
0.000000
  70
    32
  0
VERTEX
  8
AM_0
  5
196B0
 10
63.9121
 20
443.095
 30
0.000000
  70
    32
  0
VERTEX
  8
AM_0
  5
196B1
 10
63.7492
 20
443.181
 30
0.000000
  70
    32
  0
VERTEX
  8
AM_0
  5
196B2
 10
63.5853
 20
443.264
 30
0.000000
  70
    32
  0
VERTEX
  8
AM_0
  5
196B3
 10
63.4204
 20
443.346
 30
0.000000
  70
    32
  0
VERTEX
  8
AM_0
  5
196B4
 10
63.2545
 20
443.426
 30
0.000000
  70
    32
  0
VERTEX
  8
AM_0
  5
196B5
 10
63.0876
 20
443.504
 30
0.000000
  70
    32
  0
VERTEX
  8
AM_0
  5
196B6
 10
62.9198
 20
443.579
 30
0.000000
  70
    32
  0
VERTEX
  8
AM_0
  5
196B7
 10
62.7510
 20
443.653
 30
0.000000
  70
    32
  0
VERTEX
  8
AM_0
  5
196B8
 10
62.5814
 20
443.724
 30
0.000000
  70
    32
  0
VERTEX
  8
AM_0
  5
196B9
 10
62.4109
 20
443.794
 30
0.000000
  70
    32
  0
VERTEX
  8
AM_0
  5
196BA
 10
62.2396
 20
443.861
 30
0.000000
  70
    32
  0
VERTEX
  8
AM_0
  5
196BB
 10
62.0674
 20
443.926
 30
0.000000
  70
    32
  0
VERTEX
  8
AM_0
  5
196BC
 10
61.8945
 20
443.989
 30
0.000000
  70
    32
  0
VERTEX
  8
AM_0
  5
196BD
 10
61.7208
 20
444.050
 30
0.000000
  70
    32
  0
VERTEX
  8
AM_0
  5
196BE
 10
61.5464
 20
444.109
 30
0.000000
  70
    32
  0
VERTEX
  8
AM_0
  5
196BF
 10
61.3712
 20
444.166
 30
0.000000
  70
    32
  0
VERTEX
  8
AM_0
  5
196C0
 10
61.1954
 20
444.220
 30
0.000000
  70
    32
  0
VERTEX
  8
AM_0
  5
196C1
 10
61.0189
 20
444.273
 30
0.000000
  70
    32
  0
VERTEX
  8
AM_0
  5
196C2
 10
60.8418
 20
444.323
 30
0.000000
  70
    32
  0
VERTEX
  8
AM_0
  5
196C3
 10
60.6641
 20
444.371
 30
0.000000
  70
    32
  0
VERTEX
  8
AM_0
  5
196C4
 10
60.4858
 20
444.417
 30
0.000000
  70
    32
  0
VERTEX
  8
AM_0
  5
196C5
 10
60.3070
 20
444.460
 30
0.000000
  70
    32
  0
VERTEX
  8
AM_0
  5
196C6
 10
60.1277
 20
444.502
 30
0.000000
  70
    32
  0
VERTEX
  8
AM_0
  5
196C7
 10
59.9478
 20
444.541
 30
0.000000
  70
    32
  0
VERTEX
  8
AM_0
  5
196C8
 10
59.7675
 20
444.578
 30
0.000000
  70
    32
  0
VERTEX
  8
AM_0
  5
196C9
 10
59.5867
 20
444.613
 30
0.000000
  70
    32
  0
VERTEX
  8
AM_0
  5
196CA
 10
59.4056
 20
444.645
 30
0.000000
  70
    32
  0
VERTEX
  8
AM_0
  5
196CB
 10
59.2240
 20
444.676
 30
0.000000
  70
    32
  0
VERTEX
  8
AM_0
  5
196CC
 10
59.0421
 20
444.704
 30
0.000000
  70
    32
  0
VERTEX
  8
AM_0
  5
196CD
 10
58.8599
 20
444.730
 30
0.000000
  70
    32
  0
VERTEX
  8
AM_0
  5
196CE
 10
58.6773
 20
444.753
 30
0.000000
  70
    32
  0
VERTEX
  8
AM_0
  5
196CF
 10
58.4945
 20
444.775
 30
0.000000
  70
    32
  0
VERTEX
  8
AM_0
  5
196D0
 10
58.3114
 20
444.794
 30
0.000000
  70
    32
  0
VERTEX
  8
AM_0
  5
196D1
 10
58.1281
 20
444.811
 30
0.000000
  70
    32
  0
VERTEX
  8
AM_0
  5
196D2
 10
57.9446
 20
444.825
 30
0.000000
  70
    32
  0
VERTEX
  8
AM_0
  5
196D3
 10
57.7610
 20
444.838
 30
0.000000
  70
    32
  0
VERTEX
  8
AM_0
  5
196D4
 10
57.5772
 20
444.848
 30
0.000000
  70
    32
  0
VERTEX
  8
AM_0
  5
196D5
 10
57.3933
 20
444.856
 30
0.000000
  70
    32
  0
VERTEX
  8
AM_0
  5
196D6
 10
57.2093
 20
444.862
 30
0.000000
  70
    32
  0
VERTEX
  8
AM_0
  5
196D7
 10
57.0252
 20
444.865
 30
0.000000
  70
    32
  0
VERTEX
  8
AM_0
  5
196D8
 10
56.8411
 20
444.866
 30
0.000000
  70
    32
  0
SEQEND
  8
AM_0
  5
196D9
  0
LINE
  5
1843A
  8
AM_0N
 10
65.841142639415239
 20
305.05930804184351
 30
0.0
 11
56.841142639415352
 21
310.25546046455008
 31
0.0
  0
ARC
  5
1843B
  8
AM_0N
 10
63.612594690697961
 20
318.86445755632661
 30
0.0
 40
6.5
 50
302.36232249799082
 51
217.991069621642
  0
LINE
  5
1843C
  8
AM_0N
 10
56.841142639415217
 20
289.47085077372373
 30
0.0
 11
65.841142639415239
 21
294.66700319643002
 31
0.0
  0
CIRCLE
  5
1843D
  8
AM_0N
 10
56.841142639415217
 20
299.86315561913688
 30
0.0
 40
5.0527847146108487
  0
CIRCLE
  5
1843E
  8
AM_12N
 62
     2
 10
56.841142639415217
 20
299.86315561913688
 30
0.0
 40
6.2999999999999527
  0
ARC
  5
1843F
  8
AM_0
 10
63.841140833275858
 20
318.86445755632661
 30
0.0
 40
7.5
 50
90.000005008950424
 51
212.2399949315232
  0
ARC
  5
18440
  8
AM_0
 10
63.841140833275858
 20
318.86445755632661
 30
0.0
 40
15.0
 50
104.4775098426157
 51
161.0935762502518
  0
CIRCLE
  5
18441
  8
AM_0N
 10
56.841142639415217
 20
299.86315561913688
 30
0.0
 40
9.0
  0
CIRCLE
  5
18442
  8
AM_0N
 10
56.841142639415217
 20
299.86315561913688
 30
0.0
 40
12.0
  0
LINE
  5
18443
  8
AM_0
 10
61.841143090950133
 20
314.86345636420992
 30
0.0
 11
30.00587933346549
 21
314.86345636420981
 31
0.0
  0
LINE
  5
18444
  8
AM_0
 10
71.841143090950027
 20
270.8644575563265
 30
0.0
 11
-133.158832562447
 21
270.8644575563265
 31
0.0
  0
LINE
  5
18445
  8
AM_0
 10
71.841143090950027
 20
264.8644575563265
 30
0.0
 11
-133.158832562447
 21
264.8644575563265
 31
0.0
  0
LINE
  5
18448
  8
ﾁｭｳｼﾝｾﾝ1
 10
-154.39469257413131
 20
364.86445755632639
 30
0.0
 11
76.841143090950141
 21
364.86445755632627
 31
0.0
  0
LINE
  5
18449
  8
AM_0
 10
-125.1588591667239
 20
338.22937912615077
 30
0.0
 11
-125.1588591667239
 21
391.49954361589693
 31
0.0
  0
LINE
  5
1844B
  8
AM_0
 10
-149.15883252636661
 20
408.36408702074442
 30
0.0
 11
-149.15883252636661
 21
285.3641070182843
 31
0.0
  0
LINE
  5
1844C
  8
AM_0
 10
-160.15883252658659
 20
410.86409702079419
 30
0.0
 11
-160.15883252658659
 21
282.86410701823428
 31
0.0
  0
ARC
  5
1844D
  8
AM_0
 10
253.9996940076997
 20
346.86409701950868
 30
0.0
 40
397.24800335969758
 50
173.33928567967661
 51
186.66071432032331
  0
LINE
  5
1844E
  8
AM_0
 10
-140.2483093519385
 20
392.59281565852268
 30
0.0
 11
-140.24830935193711
 21
301.1353783805057
 31
0.0
  0
LINE
  5
18450
  8
ﾁｭｳｼﾝｾﾝ1
 10
-3.1588591667241408
 20
449.86605994055992
 30
0.0
 11
-3.1588591667241408
 21
254.86445755632661
 31
0.0
  0
LINE
  5
18451
  8
AM_0
 10
-133.1588325624468
 20
429.86575949351612
 30
0.0
 11
-133.158832562447
 21
264.8644575563265
 31
0.0
  0
LINE
  5
18452
  8
ﾁｭｳｼﾝｾﾝ1
 10
-329.21742939403021
 20
346.8640970195143
 30
0.0
 11
-97.152440907764941
 21
346.8640970195143
 31
0.0
  0
LINE
  5
18453
  8
AM_0N
 10
-118.158832110912
 20
310.25546046454991
 30
0.0
 11
-127.1588321109121
 21
305.05930804184351
 31
0.0
  0
LINE
  5
18454
  8
AM_0
 10
-91.323568804962633
 20
314.86345636420992
 30
0.0
 11
-123.1588325624468
 21
314.86345636420992
 31
0.0
  0
LINE
  5
18455
  8
AM_0N
 10
-127.1588321109121
 20
294.66700319643019
 30
0.0
 11
-118.1588321109121
 21
289.47085077372338
 31
0.0
  0
CIRCLE
  5
18456
  8
AM_0N
 10
-118.1588321109121
 20
299.86315561913671
 30
0.0
 40
5.0527847146108487
  0
CIRCLE
  5
18457
  8
AM_12N
 62
     2
 10
-118.1588321109121
 20
299.86315561913671
 30
0.0
 40
6.2999999999999527
  0
CIRCLE
  5
18458
  8
AM_0N
 10
-118.1588321109121
 20
299.86315561913671
 30
0.0
 40
9.0
  0
ARC
  5
18459
  8
AM_0
 10
-125.1588591667241
 20
318.86445755632661
 30
0.0
 40
15.000000000000011
 50
18.90642374974815
 51
75.522490157384311
  0
ARC
  5
1845A
  8
AM_0
 10
-125.1588591667241
 20
318.86445755632661
 30
0.0
 40
7.5
 50
327.7600050684768
 51
90.000005008950424
  0
ARC
  5
1845B
  8
AM_0N
 10
-124.93032065354031
 20
318.86445755632661
 30
0.0
 40
6.5
 50
322.00893037835812
 51
237.6378653591288
  0
CIRCLE
  5
1845C
  8
AM_0N
 10
-118.1588321109121
 20
299.86315561913671
 30
0.0
 40
12.0
  0
ARC
  5
1845E
  8
AM_0
 10
-131.15885916672411
 20
328.36445755632661
 30
0.0
 40
2.0000000000000022
 50
179.99999749551819
 51
270.0
  0
LINE
  5
1845F
  8
AM_0N
 10
-127.1588321109121
 20
305.05930804184351
 30
0.0
 11
-127.1588321109121
 21
294.66700319643019
 31
0.0
  0
ARC
  5
18460
  8
AM_0
 10
-137.5872981724487
 20
301.1353783805057
 30
0.0
 40
3.00000000006
 50
186.66071432032331
 51
270.0
1001
GENIUS_GENOBJ-N-FIL_13
1002
{
1000
OWNER
1000
GEN
1002
}
1001
GENIUS_GENODEF_13
1002
{
1000
HIER
1070
     0
1002
}
1002
{
1000
MANEDIT
1070
     0
1002
}
1002
{
1000
NOSEL
1070
     0
1002
}
1002
{
1000
BEHIND
1070
     0
1002
}
1002
{
1000
OTHER
1070
     0
1002
}
1002
{
1000
REACTOR
1002
}
  0
LINE
  5
18461
  8
AM_0
 10
-146.1588325263067
 20
285.3641070182843
 30
0.0
 11
-133.1588325624468
 21
285.36410701828441
 31
0.0
  0
ARC
  5
18462
  8
AM_0
 10
-151.03222969880849
 20
285.86410701829431
 30
0.0
 40
3.00000000006
 50
270.0
 51
324.3146652873495
1001
GENIUS_GENOBJ-N-FIL_13
1002
{
1000
OWNER
1000
GEN
1002
}
1001
GENIUS_GENODEF_13
1002
{
1000
HIER
1070
     0
1002
}
1002
{
1000
MANEDIT
1070
     0
1002
}
1002
{
1000
NOSEL
1070
     0
1002
}
1002
{
1000
BEHIND
1070
     0
1002
}
1002
{
1000
OTHER
1070
     0
1002
}
1002
{
1000
REACTOR
1002
}
  0
LINE
  5
18463
  8
AM_0
 10
-160.15883252658659
 20
282.86410701823428
 30
0.0
 11
-151.03222969880849
 21
282.86410701823428
 31
0.0
  0
LINE
  5
18464
  8
AM_0
 10
-160.15883252658659
 20
294.82410701847351
 30
0.0
 11
-150.1588325263865
 21
294.82410701847351
 31
0.0
  0
ARC
  5
18465
  8
AM_0
 10
-146.1588325263067
 20
282.36410701822399
 30
0.0
 40
3.00000000006
 50
90.0
 51
144.3146652873495
1001
GENIUS_GENOBJ-N-FIL_13
1002
{
1000
OWNER
1000
GEN
1002
}
1001
GENIUS_GENODEF_13
1002
{
1000
HIER
1070
     0
1002
}
1002
{
1000
MANEDIT
1070
     0
1002
}
1002
{
1000
NOSEL
1070
     0
1002
}
1002
{
1000
BEHIND
1070
     0
1002
}
1002
{
1000
OTHER
1070
     0
1002
}
1002
{
1000
REACTOR
1002
}
  0
LINE
  5
18466
  8
AM_0
 10
-137.5872981724487
 20
298.1353783804459
 30
0.0
 11
-134.15883252606659
 21
298.1353783804459
 31
0.0
  0
LINE
  5
18467
  8
AM_0
 10
-160.15883252658659
 20
309.72411701877138
 30
0.0
 11
-150.1588325263865
 21
309.72411701877138
 31
0.0
  0
ARC
  5
18468
  8
AM_0
 10
-123.1588325624468
 20
304.86345636420992
 30
0.0
 40
10.0
 50
90.0
 51
180.0
1001
GENIUS_GENODEF_13
1002
{
1000
HIER
1070
     0
1002
}
1002
{
1000
MANEDIT
1070
     0
1002
}
1002
{
1000
NOSEL
1070
     0
1002
}
1002
{
1000
BEHIND
1070
     0
1002
}
1002
{
1000
OTHER
1070
     0
1002
}
1002
{
1000
REACTOR
1002
}
1001
GENIUS_GENOBJ-N-FIL_13
1002
{
1000
OWNER
1000
GEN
1002
}
  0
ARC
  5
18469
  8
AM_0
 10
-131.15885916672411
 20
309.36445755632661
 30
0.0
 40
1.9999999999999929
 50
90.000005008950424
 51
180.000000683243
  0
LINE
  5
1846A
  8
AM_0
 10
-130.7573181681513
 20
311.36445755632661
 30
0.0
 11
-131.15885916672389
 21
311.36445755632661
 31
0.0
  0
LINE
  5
1846B
  8
AM_0N
 10
-128.394422268678
 20
318.86445755632661
 30
0.0
 11
-126.6623714611091
 21
315.86445755632661
 31
0.0
  0
LINE
  5
1846C
  8
AM_0N
 10
-126.6623714611089
 20
321.86445755632678
 30
0.0
 11
-128.394422268678
 21
318.86445755632661
 31
0.0
  0
CIRCLE
  5
1846D
  8
AM_0N
 10
-124.93032065354031
 20
318.86445755632661
 30
0.0
 40
3.4641016151377491
  0
LINE
  5
1846E
  8
AM_0N
 10
-126.6623714611091
 20
315.86445755632661
 30
0.0
 11
-123.1982698459715
 21
315.86445755632661
 31
0.0
  0
LINE
  5
1846F
  8
AM_0N
 10
-123.19826984597169
 20
321.86445755632678
 30
0.0
 11
-126.6623714611089
 21
321.86445755632678
 31
0.0
  0
LINE
  5
18470
  8
AM_0N
 10
-123.1982698459715
 20
315.86445755632661
 30
0.0
 11
-121.4662190384025
 21
318.86445755632661
 31
0.0
  0
LINE
  5
18471
  8
AM_0N
 10
-121.4662190384025
 20
318.86445755632661
 30
0.0
 11
-123.19826984597169
 21
321.86445755632678
 31
0.0
  0
LINE
  5
18472
  8
AM_0
 10
-125.1588591667239
 20
326.36445755632661
 30
0.0
 11
-131.15885916672389
 21
326.36445755632661
 31
0.0
  0
ARC
  5
18473
  8
AM_0
 10
-120.1588591667241
 20
338.22937912615077
 30
0.0
 40
5.0000000000000044
 50
179.99999749551819
 51
255.5224885635289
  0
LINE
  5
18474
  8
AM_0
 10
-160.15883252658659
 20
384.00407702025723
 30
0.0
 11
-150.1588325263865
 21
384.00407702025723
 31
0.0
  0
LINE
  5
18475
  8
ﾁｭｳｼﾝｾﾝ1
 10
51.341143090950361
 20
282.61445755632673
 30
0.0
 11
51.341143090950247
 21
253.1144575563267
 31
0.0
  0
LINE
  5
18476
  8
ｶｸﾚｾﾝ2
 10
-120.15883256244661
 20
270.86445755632758
 30
0.0
 11
-120.1588325624468
 21
264.86445755632661
 31
0.0
  0
LINE
  5
18477
  8
ｶｸﾚｾﾝ2
 10
-105.15883256244661
 20
270.86445755632758
 30
0.0
 11
-105.1588325624468
 21
264.86445755632627
 31
0.0
  0
LINE
  5
18478
  8
ｶｸﾚｾﾝ2
 10
43.84114309095024
 20
270.8644575563273
 30
0.0
 11
43.841143090950133
 21
264.86445755632661
 31
0.0
  0
LINE
  5
18479
  8
ﾁｭｳｼﾝｾﾝ1
 10
-112.65883256244661
 20
282.61445755632673
 30
0.0
 11
-112.6588325624467
 21
253.1144575563267
 31
0.0
  0
ARC
  5
1847A
  8
AM_0
 10
-38.158859166724142
 20
292.86445755632661
 30
0.0
 40
14.999999999999989
 50
53.130102354146203
 51
126.8698976458538
  0
LINE
  5
1847B
  8
AM_0
 10
-58.158830304772891
 20
304.86445755632639
 30
0.0
 11
-3.1588591667241408
 21
304.86445755632639
 31
0.0
  0
LINE
  5
1847D
  8
AM_0
 10
-74.158844735748517
 20
303.36445755632701
 30
0.0
 11
-80.158844735748517
 21
303.36445755632701
 31
0.0
  0
LINE
  5
1847E
  8
AM_0
 10
-74.158844735748517
 20
280.86445755632701
 30
0.0
 11
-80.158844735748517
 21
280.86445755632701
 31
0.0
  0
ARC
  5
1847F
  8
AM_0
 10
-58.158830304772891
 20
364.86445755632639
 30
0.0
 40
60.0
 50
236.4444198696078
 51
270.0
  0
LINE
  5
18480
  8
AM_0
 10
-80.158844735748517
 20
270.8644575563265
 30
0.0
 11
-80.158844735748517
 21
303.36445755632701
 31
0.0
  0
LINE
  5
18481
  8
AM_0N
 10
-109.1588321109121
 20
294.66700319642979
 30
0.0
 11
-109.1588321109121
 21
305.05930804184328
 31
0.0
  0
LINE
  5
18483
  8
AM_0N
 10
-118.1588321109121
 20
289.47085077372338
 30
0.0
 11
-109.1588321109121
 21
294.66700319642979
 31
0.0
  0
LINE
  5
18484
  8
AM_0N
 10
-109.1588321109121
 20
305.05930804184328
 30
0.0
 11
-118.158832110912
 21
310.25546046454991
 31
0.0
  0
LINE
  5
18485
  8
AM_0
 10
-107.9330952398679
 20
314.86345636420992
 30
0.0
 11
-110.96812430344259
 21
323.72480911882661
 31
0.0
  0
LINE
  5
18486
  8
AM_0
 10
-74.158844735748517
 20
270.8644575563265
 30
0.0
 11
-74.158844735748517
 21
303.36445755632701
 31
0.0
  0
LINE
  5
18487
  8
AM_0
 10
12.84115526425148
 20
303.36445755632701
 30
0.0
 11
18.84115526425148
 21
303.36445755632701
 31
0.0
  0
LINE
  5
18488
  8
AM_0
 10
12.84115526425148
 20
280.86445755632701
 30
0.0
 11
18.84115526425148
 21
280.86445755632701
 31
0.0
  0
ARC
  5
18489
  8
AM_0
 10
-3.1588591667241408
 20
364.86445755632639
 30
0.0
 40
60.0
 50
270.0
 51
303.55558013039212
  0
LINE
  5
1848A
  8
AM_0
 10
12.84115526425148
 20
270.8644575563265
 30
0.0
 11
12.84115526425137
 21
303.36445755632701
 31
0.0
  0
LINE
  5
1848C
  8
AM_0
 10
18.84115526425148
 20
270.8644575563265
 30
0.0
 11
18.84115526425148
 21
303.36445755632701
 31
0.0
  0
LINE
  5
1848D
  8
AM_0N
 10
47.841142639415239
 20
305.05930804184362
 30
0.0
 11
47.841142639415239
 21
294.66700319643019
 31
0.0
  0
LINE
  5
1848E
  8
AM_0N
 10
47.841142639415239
 20
294.66700319643019
 30
0.0
 11
56.841142639415217
 21
289.47085077372373
 31
0.0
  0
LINE
  5
1848F
  8
AM_0N
 10
56.841142639415352
 20
310.25546046455008
 30
0.0
 11
47.841142639415239
 21
305.05930804184362
 31
0.0
  0
LINE
  5
18490
  8
AM_0
 10
46.615376906420011
 20
314.86345636420992
 30
0.0
 11
49.650405969994821
 21
323.72480911882661
 31
0.0
  0
POLYLINE
  5
18491
  8
AM_0
 10
-111.15883190019585
 20
429.86575949351612
 30
0.0
 66
     1
 70
     8
  0
VERTEX
  8
AM_0
  5
196DA
 10
-111.159
 20
429.866
 30
0.000000
  70
    32
  0
VERTEX
  8
AM_0
  5
196DB
 10
-111.167
 20
430.209
 30
0.000000
  70
    32
  0
VERTEX
  8
AM_0
  5
196DC
 10
-111.193
 20
430.552
 30
0.000000
  70
    32
  0
VERTEX
  8
AM_0
  5
196DD
 10
-111.235
 20
430.893
 30
0.000000
  70
    32
  0
VERTEX
  8
AM_0
  5
196DE
 10
-111.293
 20
431.231
 30
0.000000
  70
    32
  0
VERTEX
  8
AM_0
  5
196DF
 10
-111.369
 20
431.567
 30
0.000000
  70
    32
  0
VERTEX
  8
AM_0
  5
196E0
 10
-111.460
 20
431.898
 30
0.000000
  70
    32
  0
VERTEX
  8
AM_0
  5
196E1
 10
-111.568
 20
432.224
 30
0.000000
  70
    32
  0
VERTEX
  8
AM_0
  5
196E2
 10
-111.692
 20
432.545
 30
0.000000
  70
    32
  0
VERTEX
  8
AM_0
  5
196E3
 10
-111.831
 20
432.859
 30
0.000000
  70
    32
  0
VERTEX
  8
AM_0
  5
196E4
 10
-111.985
 20
433.166
 30
0.000000
  70
    32
  0
VERTEX
  8
AM_0
  5
196E5
 10
-112.155
 20
433.465
 30
0.000000
  70
    32
  0
VERTEX
  8
AM_0
  5
196E6
 10
-112.339
 20
433.755
 30
0.000000
  70
    32
  0
VERTEX
  8
AM_0
  5
196E7
 10
-112.536
 20
434.036
 30
0.000000
  70
    32
  0
VERTEX
  8
AM_0
  5
196E8
 10
-112.748
 20
434.307
 30
0.000000
  70
    32
  0
VERTEX
  8
AM_0
  5
196E9
 10
-112.972
 20
434.567
 30
0.000000
  70
    32
  0
VERTEX
  8
AM_0
  5
196EA
 10
-113.209
 20
434.816
 30
0.000000
  70
    32
  0
VERTEX
  8
AM_0
  5
196EB
 10
-113.458
 20
435.053
 30
0.000000
  70
    32
  0
VERTEX
  8
AM_0
  5
196EC
 10
-113.718
 20
435.277
 30
0.000000
  70
    32
  0
VERTEX
  8
AM_0
  5
196ED
 10
-113.989
 20
435.488
 30
0.000000
  70
    32
  0
VERTEX
  8
AM_0
  5
196EE
 10
-114.270
 20
435.686
 30
0.000000
  70
    32
  0
VERTEX
  8
AM_0
  5
196EF
 10
-114.560
 20
435.870
 30
0.000000
  70
    32
  0
VERTEX
  8
AM_0
  5
196F0
 10
-114.859
 20
436.039
 30
0.000000
  70
    32
  0
VERTEX
  8
AM_0
  5
196F1
 10
-115.166
 20
436.194
 30
0.000000
  70
    32
  0
VERTEX
  8
AM_0
  5
196F2
 10
-115.480
 20
436.333
 30
0.000000
  70
    32
  0
VERTEX
  8
AM_0
  5
196F3
 10
-115.801
 20
436.457
 30
0.000000
  70
    32
  0
VERTEX
  8
AM_0
  5
196F4
 10
-116.127
 20
436.564
 30
0.000000
  70
    32
  0
VERTEX
  8
AM_0
  5
196F5
 10
-116.458
 20
436.656
 30
0.000000
  70
    32
  0
VERTEX
  8
AM_0
  5
196F6
 10
-116.793
 20
436.731
 30
0.000000
  70
    32
  0
VERTEX
  8
AM_0
  5
196F7
 10
-117.132
 20
436.790
 30
0.000000
  70
    32
  0
VERTEX
  8
AM_0
  5
196F8
 10
-117.473
 20
436.832
 30
0.000000
  70
    32
  0
VERTEX
  8
AM_0
  5
196F9
 10
-117.815
 20
436.857
 30
0.000000
  70
    32
  0
VERTEX
  8
AM_0
  5
196FA
 10
-118.159
 20
436.866
 30
0.000000
  70
    32
  0
VERTEX
  8
AM_0
  5
196FB
 10
-118.502
 20
436.857
 30
0.000000
  70
    32
  0
VERTEX
  8
AM_0
  5
196FC
 10
-118.845
 20
436.832
 30
0.000000
  70
    32
  0
VERTEX
  8
AM_0
  5
196FD
 10
-119.186
 20
436.790
 30
0.000000
  70
    32
  0
VERTEX
  8
AM_0
  5
196FE
 10
-119.524
 20
436.731
 30
0.000000
  70
    32
  0
VERTEX
  8
AM_0
  5
196FF
 10
-119.860
 20
436.656
 30
0.000000
  70
    32
  0
VERTEX
  8
AM_0
  5
19700
 10
-120.191
 20
436.564
 30
0.000000
  70
    32
  0
VERTEX
  8
AM_0
  5
19701
 10
-120.517
 20
436.457
 30
0.000000
  70
    32
  0
VERTEX
  8
AM_0
  5
19702
 10
-120.838
 20
436.333
 30
0.000000
  70
    32
  0
VERTEX
  8
AM_0
  5
19703
 10
-121.152
 20
436.194
 30
0.000000
  70
    32
  0
VERTEX
  8
AM_0
  5
19704
 10
-121.459
 20
436.039
 30
0.000000
  70
    32
  0
VERTEX
  8
AM_0
  5
19705
 10
-121.758
 20
435.870
 30
0.000000
  70
    32
  0
VERTEX
  8
AM_0
  5
19706
 10
-122.048
 20
435.686
 30
0.000000
  70
    32
  0
VERTEX
  8
AM_0
  5
19707
 10
-122.329
 20
435.488
 30
0.000000
  70
    32
  0
VERTEX
  8
AM_0
  5
19708
 10
-122.600
 20
435.277
 30
0.000000
  70
    32
  0
VERTEX
  8
AM_0
  5
19709
 10
-122.860
 20
435.053
 30
0.000000
  70
    32
  0
VERTEX
  8
AM_0
  5
1970A
 10
-123.109
 20
434.816
 30
0.000000
  70
    32
  0
VERTEX
  8
AM_0
  5
1970B
 10
-123.345
 20
434.567
 30
0.000000
  70
    32
  0
VERTEX
  8
AM_0
  5
1970C
 10
-123.570
 20
434.307
 30
0.000000
  70
    32
  0
VERTEX
  8
AM_0
  5
1970D
 10
-123.781
 20
434.036
 30
0.000000
  70
    32
  0
VERTEX
  8
AM_0
  5
1970E
 10
-123.979
 20
433.755
 30
0.000000
  70
    32
  0
VERTEX
  8
AM_0
  5
1970F
 10
-124.163
 20
433.465
 30
0.000000
  70
    32
  0
VERTEX
  8
AM_0
  5
19710
 10
-124.332
 20
433.166
 30
0.000000
  70
    32
  0
VERTEX
  8
AM_0
  5
19711
 10
-124.487
 20
432.859
 30
0.000000
  70
    32
  0
VERTEX
  8
AM_0
  5
19712
 10
-124.626
 20
432.545
 30
0.000000
  70
    32
  0
VERTEX
  8
AM_0
  5
19713
 10
-124.750
 20
432.224
 30
0.000000
  70
    32
  0
VERTEX
  8
AM_0
  5
19714
 10
-124.857
 20
431.898
 30
0.000000
  70
    32
  0
VERTEX
  8
AM_0
  5
19715
 10
-124.949
 20
431.567
 30
0.000000
  70
    32
  0
VERTEX
  8
AM_0
  5
19716
 10
-125.024
 20
431.231
 30
0.000000
  70
    32
  0
VERTEX
  8
AM_0
  5
19717
 10
-125.083
 20
430.893
 30
0.000000
  70
    32
  0
VERTEX
  8
AM_0
  5
19718
 10
-125.125
 20
430.552
 30
0.000000
  70
    32
  0
VERTEX
  8
AM_0
  5
19719
 10
-125.150
 20
430.209
 30
0.000000
  70
    32
  0
VERTEX
  8
AM_0
  5
1971A
 10
-125.159
 20
429.866
 30
0.000000
  70
    32
  0
VERTEX
  8
AM_0
  5
1971B
 10
-125.150
 20
429.522
 30
0.000000
  70
    32
  0
VERTEX
  8
AM_0
  5
1971C
 10
-125.125
 20
429.180
 30
0.000000
  70
    32
  0
VERTEX
  8
AM_0
  5
1971D
 10
-125.083
 20
428.839
 30
0.000000
  70
    32
  0
VERTEX
  8
AM_0
  5
1971E
 10
-125.024
 20
428.500
 30
0.000000
  70
    32
  0
VERTEX
  8
AM_0
  5
1971F
 10
-124.949
 20
428.165
 30
0.000000
  70
    32
  0
VERTEX
  8
AM_0
  5
19720
 10
-124.857
 20
427.834
 30
0.000000
  70
    32
  0
VERTEX
  8
AM_0
  5
19721
 10
-124.750
 20
427.507
 30
0.000000
  70
    32
  0
VERTEX
  8
AM_0
  5
19722
 10
-124.626
 20
427.187
 30
0.000000
  70
    32
  0
VERTEX
  8
AM_0
  5
19723
 10
-124.487
 20
426.873
 30
0.000000
  70
    32
  0
VERTEX
  8
AM_0
  5
19724
 10
-124.332
 20
426.566
 30
0.000000
  70
    32
  0
VERTEX
  8
AM_0
  5
19725
 10
-124.163
 20
426.267
 30
0.000000
  70
    32
  0
VERTEX
  8
AM_0
  5
19726
 10
-123.979
 20
425.977
 30
0.000000
  70
    32
  0
VERTEX
  8
AM_0
  5
19727
 10
-123.781
 20
425.696
 30
0.000000
  70
    32
  0
VERTEX
  8
AM_0
  5
19728
 10
-123.570
 20
425.425
 30
0.000000
  70
    32
  0
VERTEX
  8
AM_0
  5
19729
 10
-123.345
 20
425.165
 30
0.000000
  70
    32
  0
VERTEX
  8
AM_0
  5
1972A
 10
-123.109
 20
424.916
 30
0.000000
  70
    32
  0
VERTEX
  8
AM_0
  5
1972B
 10
-122.860
 20
424.679
 30
0.000000
  70
    32
  0
VERTEX
  8
AM_0
  5
1972C
 10
-122.600
 20
424.455
 30
0.000000
  70
    32
  0
VERTEX
  8
AM_0
  5
1972D
 10
-122.329
 20
424.243
 30
0.000000
  70
    32
  0
VERTEX
  8
AM_0
  5
1972E
 10
-122.048
 20
424.045
 30
0.000000
  70
    32
  0
VERTEX
  8
AM_0
  5
1972F
 10
-121.758
 20
423.862
 30
0.000000
  70
    32
  0
VERTEX
  8
AM_0
  5
19730
 10
-121.459
 20
423.692
 30
0.000000
  70
    32
  0
VERTEX
  8
AM_0
  5
19731
 10
-121.152
 20
423.538
 30
0.000000
  70
    32
  0
VERTEX
  8
AM_0
  5
19732
 10
-120.838
 20
423.398
 30
0.000000
  70
    32
  0
VERTEX
  8
AM_0
  5
19733
 10
-120.517
 20
423.275
 30
0.000000
  70
    32
  0
VERTEX
  8
AM_0
  5
19734
 10
-120.191
 20
423.167
 30
0.000000
  70
    32
  0
VERTEX
  8
AM_0
  5
19735
 10
-119.860
 20
423.075
 30
0.000000
  70
    32
  0
VERTEX
  8
AM_0
  5
19736
 10
-119.524
 20
423.000
 30
0.000000
  70
    32
  0
VERTEX
  8
AM_0
  5
19737
 10
-119.186
 20
422.941
 30
0.000000
  70
    32
  0
VERTEX
  8
AM_0
  5
19738
 10
-118.845
 20
422.899
 30
0.000000
  70
    32
  0
VERTEX
  8
AM_0
  5
19739
 10
-118.502
 20
422.874
 30
0.000000
  70
    32
  0
VERTEX
  8
AM_0
  5
1973A
 10
-118.159
 20
422.866
 30
0.000000
  70
    32
  0
VERTEX
  8
AM_0
  5
1973B
 10
-117.815
 20
422.874
 30
0.000000
  70
    32
  0
VERTEX
  8
AM_0
  5
1973C
 10
-117.473
 20
422.899
 30
0.000000
  70
    32
  0
VERTEX
  8
AM_0
  5
1973D
 10
-117.132
 20
422.941
 30
0.000000
  70
    32
  0
VERTEX
  8
AM_0
  5
1973E
 10
-116.793
 20
423.000
 30
0.000000
  70
    32
  0
VERTEX
  8
AM_0
  5
1973F
 10
-116.458
 20
423.075
 30
0.000000
  70
    32
  0
VERTEX
  8
AM_0
  5
19740
 10
-116.127
 20
423.167
 30
0.000000
  70
    32
  0
VERTEX
  8
AM_0
  5
19741
 10
-115.801
 20
423.275
 30
0.000000
  70
    32
  0
VERTEX
  8
AM_0
  5
19742
 10
-115.480
 20
423.398
 30
0.000000
  70
    32
  0
VERTEX
  8
AM_0
  5
19743
 10
-115.166
 20
423.538
 30
0.000000
  70
    32
  0
VERTEX
  8
AM_0
  5
19744
 10
-114.859
 20
423.692
 30
0.000000
  70
    32
  0
VERTEX
  8
AM_0
  5
19745
 10
-114.560
 20
423.862
 30
0.000000
  70
    32
  0
VERTEX
  8
AM_0
  5
19746
 10
-114.270
 20
424.045
 30
0.000000
  70
    32
  0
VERTEX
  8
AM_0
  5
19747
 10
-113.989
 20
424.243
 30
0.000000
  70
    32
  0
VERTEX
  8
AM_0
  5
19748
 10
-113.718
 20
424.455
 30
0.000000
  70
    32
  0
VERTEX
  8
AM_0
  5
19749
 10
-113.458
 20
424.679
 30
0.000000
  70
    32
  0
VERTEX
  8
AM_0
  5
1974A
 10
-113.209
 20
424.916
 30
0.000000
  70
    32
  0
VERTEX
  8
AM_0
  5
1974B
 10
-112.972
 20
425.165
 30
0.000000
  70
    32
  0
VERTEX
  8
AM_0
  5
1974C
 10
-112.748
 20
425.425
 30
0.000000
  70
    32
  0
VERTEX
  8
AM_0
  5
1974D
 10
-112.536
 20
425.696
 30
0.000000
  70
    32
  0
VERTEX
  8
AM_0
  5
1974E
 10
-112.339
 20
425.977
 30
0.000000
  70
    32
  0
VERTEX
  8
AM_0
  5
1974F
 10
-112.155
 20
426.267
 30
0.000000
  70
    32
  0
VERTEX
  8
AM_0
  5
19750
 10
-111.985
 20
426.566
 30
0.000000
  70
    32
  0
VERTEX
  8
AM_0
  5
19751
 10
-111.831
 20
426.873
 30
0.000000
  70
    32
  0
VERTEX
  8
AM_0
  5
19752
 10
-111.692
 20
427.187
 30
0.000000
  70
    32
  0
VERTEX
  8
AM_0
  5
19753
 10
-111.568
 20
427.507
 30
0.000000
  70
    32
  0
VERTEX
  8
AM_0
  5
19754
 10
-111.460
 20
427.834
 30
0.000000
  70
    32
  0
VERTEX
  8
AM_0
  5
19755
 10
-111.369
 20
428.165
 30
0.000000
  70
    32
  0
VERTEX
  8
AM_0
  5
19756
 10
-111.293
 20
428.500
 30
0.000000
  70
    32
  0
VERTEX
  8
AM_0
  5
19757
 10
-111.235
 20
428.839
 30
0.000000
  70
    32
  0
VERTEX
  8
AM_0
  5
19758
 10
-111.193
 20
429.180
 30
0.000000
  70
    32
  0
VERTEX
  8
AM_0
  5
19759
 10
-111.167
 20
429.522
 30
0.000000
  70
    32
  0
VERTEX
  8
AM_0
  5
1975A
 10
-111.159
 20
429.866
 30
0.000000
  70
    32
  0
SEQEND
  8
AM_0
  5
1975B
  0
ARC
  5
18492
  8
AM_0
 10
-125.1588591667241
 20
410.86445755632661
 30
0.0
 40
14.999999999999989
 50
284.47751143647122
 51
341.09358125920983
  0
CIRCLE
  5
18493
  8
AM_0N
 10
-124.9892348381106
 20
410.86445755632661
 30
0.0
 40
6.5
  0
ARC
  5
18494
  8
AM_0
 10
-125.1588591667241
 20
410.86445755632661
 30
0.0
 40
7.5
 50
270.0
 51
90.000005008950424
  0
POLYLINE
  5
18496
  8
AM_0
 10
-118.15883276658218
 20
444.86605994055998
 30
0.0
 66
     1
 70
     8
  0
VERTEX
  8
AM_0
  5
1975C
 10
-118.159
 20
444.866
 30
0.000000
  70
    32
  0
VERTEX
  8
AM_0
  5
1975D
 10
-118.343
 20
444.865
 30
0.000000
  70
    32
  0
VERTEX
  8
AM_0
  5
1975E
 10
-118.527
 20
444.862
 30
0.000000
  70
    32
  0
VERTEX
  8
AM_0
  5
1975F
 10
-118.711
 20
444.856
 30
0.000000
  70
    32
  0
VERTEX
  8
AM_0
  5
19760
 10
-118.895
 20
444.848
 30
0.000000
  70
    32
  0
VERTEX
  8
AM_0
  5
19761
 10
-119.079
 20
444.838
 30
0.000000
  70
    32
  0
VERTEX
  8
AM_0
  5
19762
 10
-119.262
 20
444.825
 30
0.000000
  70
    32
  0
VERTEX
  8
AM_0
  5
19763
 10
-119.446
 20
444.811
 30
0.000000
  70
    32
  0
VERTEX
  8
AM_0
  5
19764
 10
-119.629
 20
444.794
 30
0.000000
  70
    32
  0
VERTEX
  8
AM_0
  5
19765
 10
-119.812
 20
444.775
 30
0.000000
  70
    32
  0
VERTEX
  8
AM_0
  5
19766
 10
-119.995
 20
444.753
 30
0.000000
  70
    32
  0
VERTEX
  8
AM_0
  5
19767
 10
-120.178
 20
444.730
 30
0.000000
  70
    32
  0
VERTEX
  8
AM_0
  5
19768
 10
-120.360
 20
444.704
 30
0.000000
  70
    32
  0
VERTEX
  8
AM_0
  5
19769
 10
-120.542
 20
444.676
 30
0.000000
  70
    32
  0
VERTEX
  8
AM_0
  5
1976A
 10
-120.723
 20
444.645
 30
0.000000
  70
    32
  0
VERTEX
  8
AM_0
  5
1976B
 10
-120.904
 20
444.613
 30
0.000000
  70
    32
  0
VERTEX
  8
AM_0
  5
1976C
 10
-121.085
 20
444.578
 30
0.000000
  70
    32
  0
VERTEX
  8
AM_0
  5
1976D
 10
-121.266
 20
444.541
 30
0.000000
  70
    32
  0
VERTEX
  8
AM_0
  5
1976E
 10
-121.445
 20
444.502
 30
0.000000
  70
    32
  0
VERTEX
  8
AM_0
  5
1976F
 10
-121.625
 20
444.460
 30
0.000000
  70
    32
  0
VERTEX
  8
AM_0
  5
19770
 10
-121.804
 20
444.417
 30
0.000000
  70
    32
  0
VERTEX
  8
AM_0
  5
19771
 10
-121.982
 20
444.371
 30
0.000000
  70
    32
  0
VERTEX
  8
AM_0
  5
19772
 10
-122.160
 20
444.323
 30
0.000000
  70
    32
  0
VERTEX
  8
AM_0
  5
19773
 10
-122.337
 20
444.273
 30
0.000000
  70
    32
  0
VERTEX
  8
AM_0
  5
19774
 10
-122.513
 20
444.220
 30
0.000000
  70
    32
  0
VERTEX
  8
AM_0
  5
19775
 10
-122.689
 20
444.166
 30
0.000000
  70
    32
  0
VERTEX
  8
AM_0
  5
19776
 10
-122.864
 20
444.109
 30
0.000000
  70
    32
  0
VERTEX
  8
AM_0
  5
19777
 10
-123.038
 20
444.050
 30
0.000000
  70
    32
  0
VERTEX
  8
AM_0
  5
19778
 10
-123.212
 20
443.989
 30
0.000000
  70
    32
  0
VERTEX
  8
AM_0
  5
19779
 10
-123.385
 20
443.926
 30
0.000000
  70
    32
  0
VERTEX
  8
AM_0
  5
1977A
 10
-123.557
 20
443.861
 30
0.000000
  70
    32
  0
VERTEX
  8
AM_0
  5
1977B
 10
-123.729
 20
443.794
 30
0.000000
  70
    32
  0
VERTEX
  8
AM_0
  5
1977C
 10
-123.899
 20
443.724
 30
0.000000
  70
    32
  0
VERTEX
  8
AM_0
  5
1977D
 10
-124.069
 20
443.653
 30
0.000000
  70
    32
  0
VERTEX
  8
AM_0
  5
1977E
 10
-124.237
 20
443.579
 30
0.000000
  70
    32
  0
VERTEX
  8
AM_0
  5
1977F
 10
-124.405
 20
443.504
 30
0.000000
  70
    32
  0
VERTEX
  8
AM_0
  5
19780
 10
-124.572
 20
443.426
 30
0.000000
  70
    32
  0
VERTEX
  8
AM_0
  5
19781
 10
-124.738
 20
443.346
 30
0.000000
  70
    32
  0
VERTEX
  8
AM_0
  5
19782
 10
-124.903
 20
443.264
 30
0.000000
  70
    32
  0
VERTEX
  8
AM_0
  5
19783
 10
-125.067
 20
443.181
 30
0.000000
  70
    32
  0
VERTEX
  8
AM_0
  5
19784
 10
-125.230
 20
443.095
 30
0.000000
  70
    32
  0
VERTEX
  8
AM_0
  5
19785
 10
-125.392
 20
443.007
 30
0.000000
  70
    32
  0
VERTEX
  8
AM_0
  5
19786
 10
-125.552
 20
442.917
 30
0.000000
  70
    32
  0
VERTEX
  8
AM_0
  5
19787
 10
-125.712
 20
442.826
 30
0.000000
  70
    32
  0
VERTEX
  8
AM_0
  5
19788
 10
-125.870
 20
442.732
 30
0.000000
  70
    32
  0
VERTEX
  8
AM_0
  5
19789
 10
-126.028
 20
442.636
 30
0.000000
  70
    32
  0
VERTEX
  8
AM_0
  5
1978A
 10
-126.184
 20
442.539
 30
0.000000
  70
    32
  0
VERTEX
  8
AM_0
  5
1978B
 10
-126.339
 20
442.439
 30
0.000000
  70
    32
  0
VERTEX
  8
AM_0
  5
1978C
 10
-126.492
 20
442.338
 30
0.000000
  70
    32
  0
VERTEX
  8
AM_0
  5
1978D
 10
-126.645
 20
442.235
 30
0.000000
  70
    32
  0
VERTEX
  8
AM_0
  5
1978E
 10
-126.796
 20
442.130
 30
0.000000
  70
    32
  0
VERTEX
  8
AM_0
  5
1978F
 10
-126.946
 20
442.023
 30
0.000000
  70
    32
  0
VERTEX
  8
AM_0
  5
19790
 10
-127.094
 20
441.914
 30
0.000000
  70
    32
  0
VERTEX
  8
AM_0
  5
19791
 10
-127.241
 20
441.804
 30
0.000000
  70
    32
  0
VERTEX
  8
AM_0
  5
19792
 10
-127.387
 20
441.691
 30
0.000000
  70
    32
  0
VERTEX
  8
AM_0
  5
19793
 10
-127.532
 20
441.577
 30
0.000000
  70
    32
  0
VERTEX
  8
AM_0
  5
19794
 10
-127.675
 20
441.461
 30
0.000000
  70
    32
  0
VERTEX
  8
AM_0
  5
19795
 10
-127.816
 20
441.343
 30
0.000000
  70
    32
  0
VERTEX
  8
AM_0
  5
19796
 10
-127.956
 20
441.224
 30
0.000000
  70
    32
  0
VERTEX
  8
AM_0
  5
19797
 10
-128.095
 20
441.103
 30
0.000000
  70
    32
  0
VERTEX
  8
AM_0
  5
19798
 10
-128.232
 20
440.980
 30
0.000000
  70
    32
  0
VERTEX
  8
AM_0
  5
19799
 10
-128.368
 20
440.856
 30
0.000000
  70
    32
  0
VERTEX
  8
AM_0
  5
1979A
 10
-128.502
 20
440.730
 30
0.000000
  70
    32
  0
VERTEX
  8
AM_0
  5
1979B
 10
-128.634
 20
440.602
 30
0.000000
  70
    32
  0
VERTEX
  8
AM_0
  5
1979C
 10
-128.765
 20
440.473
 30
0.000000
  70
    32
  0
VERTEX
  8
AM_0
  5
1979D
 10
-128.895
 20
440.342
 30
0.000000
  70
    32
  0
VERTEX
  8
AM_0
  5
1979E
 10
-129.023
 20
440.209
 30
0.000000
  70
    32
  0
VERTEX
  8
AM_0
  5
1979F
 10
-129.149
 20
440.075
 30
0.000000
  70
    32
  0
VERTEX
  8
AM_0
  5
197A0
 10
-129.273
 20
439.939
 30
0.000000
  70
    32
  0
VERTEX
  8
AM_0
  5
197A1
 10
-129.396
 20
439.802
 30
0.000000
  70
    32
  0
VERTEX
  8
AM_0
  5
197A2
 10
-129.517
 20
439.664
 30
0.000000
  70
    32
  0
VERTEX
  8
AM_0
  5
197A3
 10
-129.636
 20
439.523
 30
0.000000
  70
    32
  0
VERTEX
  8
AM_0
  5
197A4
 10
-129.754
 20
439.382
 30
0.000000
  70
    32
  0
VERTEX
  8
AM_0
  5
197A5
 10
-129.870
 20
439.239
 30
0.000000
  70
    32
  0
VERTEX
  8
AM_0
  5
197A6
 10
-129.984
 20
439.094
 30
0.000000
  70
    32
  0
VERTEX
  8
AM_0
  5
197A7
 10
-130.096
 20
438.949
 30
0.000000
  70
    32
  0
VERTEX
  8
AM_0
  5
197A8
 10
-130.207
 20
438.801
 30
0.000000
  70
    32
  0
VERTEX
  8
AM_0
  5
197A9
 10
-130.316
 20
438.653
 30
0.000000
  70
    32
  0
VERTEX
  8
AM_0
  5
197AA
 10
-130.423
 20
438.503
 30
0.000000
  70
    32
  0
VERTEX
  8
AM_0
  5
197AB
 10
-130.528
 20
438.352
 30
0.000000
  70
    32
  0
VERTEX
  8
AM_0
  5
197AC
 10
-130.631
 20
438.199
 30
0.000000
  70
    32
  0
VERTEX
  8
AM_0
  5
197AD
 10
-130.732
 20
438.046
 30
0.000000
  70
    32
  0
VERTEX
  8
AM_0
  5
197AE
 10
-130.832
 20
437.891
 30
0.000000
  70
    32
  0
VERTEX
  8
AM_0
  5
197AF
 10
-130.929
 20
437.735
 30
0.000000
  70
    32
  0
VERTEX
  8
AM_0
  5
197B0
 10
-131.025
 20
437.577
 30
0.000000
  70
    32
  0
VERTEX
  8
AM_0
  5
197B1
 10
-131.118
 20
437.419
 30
0.000000
  70
    32
  0
VERTEX
  8
AM_0
  5
197B2
 10
-131.210
 20
437.259
 30
0.000000
  70
    32
  0
VERTEX
  8
AM_0
  5
197B3
 10
-131.300
 20
437.099
 30
0.000000
  70
    32
  0
VERTEX
  8
AM_0
  5
197B4
 10
-131.388
 20
436.937
 30
0.000000
  70
    32
  0
VERTEX
  8
AM_0
  5
197B5
 10
-131.473
 20
436.774
 30
0.000000
  70
    32
  0
VERTEX
  8
AM_0
  5
197B6
 10
-131.557
 20
436.610
 30
0.000000
  70
    32
  0
VERTEX
  8
AM_0
  5
197B7
 10
-131.639
 20
436.445
 30
0.000000
  70
    32
  0
VERTEX
  8
AM_0
  5
197B8
 10
-131.719
 20
436.279
 30
0.000000
  70
    32
  0
VERTEX
  8
AM_0
  5
197B9
 10
-131.796
 20
436.112
 30
0.000000
  70
    32
  0
VERTEX
  8
AM_0
  5
197BA
 10
-131.872
 20
435.944
 30
0.000000
  70
    32
  0
VERTEX
  8
AM_0
  5
197BB
 10
-131.946
 20
435.776
 30
0.000000
  70
    32
  0
VERTEX
  8
AM_0
  5
197BC
 10
-132.017
 20
435.606
 30
0.000000
  70
    32
  0
VERTEX
  8
AM_0
  5
197BD
 10
-132.086
 20
435.436
 30
0.000000
  70
    32
  0
VERTEX
  8
AM_0
  5
197BE
 10
-132.154
 20
435.264
 30
0.000000
  70
    32
  0
VERTEX
  8
AM_0
  5
197BF
 10
-132.219
 20
435.092
 30
0.000000
  70
    32
  0
VERTEX
  8
AM_0
  5
197C0
 10
-132.282
 20
434.919
 30
0.000000
  70
    32
  0
VERTEX
  8
AM_0
  5
197C1
 10
-132.343
 20
434.746
 30
0.000000
  70
    32
  0
VERTEX
  8
AM_0
  5
197C2
 10
-132.402
 20
434.571
 30
0.000000
  70
    32
  0
VERTEX
  8
AM_0
  5
197C3
 10
-132.458
 20
434.396
 30
0.000000
  70
    32
  0
VERTEX
  8
AM_0
  5
197C4
 10
-132.513
 20
434.220
 30
0.000000
  70
    32
  0
VERTEX
  8
AM_0
  5
197C5
 10
-132.565
 20
434.044
 30
0.000000
  70
    32
  0
VERTEX
  8
AM_0
  5
197C6
 10
-132.615
 20
433.867
 30
0.000000
  70
    32
  0
VERTEX
  8
AM_0
  5
197C7
 10
-132.663
 20
433.689
 30
0.000000
  70
    32
  0
VERTEX
  8
AM_0
  5
197C8
 10
-132.709
 20
433.511
 30
0.000000
  70
    32
  0
VERTEX
  8
AM_0
  5
197C9
 10
-132.753
 20
433.332
 30
0.000000
  70
    32
  0
VERTEX
  8
AM_0
  5
197CA
 10
-132.794
 20
433.152
 30
0.000000
  70
    32
  0
VERTEX
  8
AM_0
  5
197CB
 10
-132.834
 20
432.972
 30
0.000000
  70
    32
  0
VERTEX
  8
AM_0
  5
197CC
 10
-132.871
 20
432.792
 30
0.000000
  70
    32
  0
VERTEX
  8
AM_0
  5
197CD
 10
-132.905
 20
432.611
 30
0.000000
  70
    32
  0
VERTEX
  8
AM_0
  5
197CE
 10
-132.938
 20
432.430
 30
0.000000
  70
    32
  0
VERTEX
  8
AM_0
  5
197CF
 10
-132.968
 20
432.249
 30
0.000000
  70
    32
  0
VERTEX
  8
AM_0
  5
197D0
 10
-132.996
 20
432.067
 30
0.000000
  70
    32
  0
VERTEX
  8
AM_0
  5
197D1
 10
-133.022
 20
431.885
 30
0.000000
  70
    32
  0
VERTEX
  8
AM_0
  5
197D2
 10
-133.046
 20
431.702
 30
0.000000
  70
    32
  0
VERTEX
  8
AM_0
  5
197D3
 10
-133.067
 20
431.519
 30
0.000000
  70
    32
  0
VERTEX
  8
AM_0
  5
197D4
 10
-133.087
 20
431.336
 30
0.000000
  70
    32
  0
VERTEX
  8
AM_0
  5
197D5
 10
-133.104
 20
431.153
 30
0.000000
  70
    32
  0
VERTEX
  8
AM_0
  5
197D6
 10
-133.118
 20
430.969
 30
0.000000
  70
    32
  0
VERTEX
  8
AM_0
  5
197D7
 10
-133.131
 20
430.786
 30
0.000000
  70
    32
  0
VERTEX
  8
AM_0
  5
197D8
 10
-133.141
 20
430.602
 30
0.000000
  70
    32
  0
VERTEX
  8
AM_0
  5
197D9
 10
-133.149
 20
430.418
 30
0.000000
  70
    32
  0
VERTEX
  8
AM_0
  5
197DA
 10
-133.154
 20
430.234
 30
0.000000
  70
    32
  0
VERTEX
  8
AM_0
  5
197DB
 10
-133.158
 20
430.050
 30
0.000000
  70
    32
  0
VERTEX
  8
AM_0
  5
197DC
 10
-133.159
 20
429.866
 30
0.000000
  70
    32
  0
SEQEND
  8
AM_0
  5
197DD
  0
CIRCLE
  5
18497
  8
AM_0N
 10
-124.9892348381106
 20
410.86445755632661
 30
0.0
 40
3.4641016151377491
  0
LINE
  5
18498
  8
AM_0
 10
-146.1588325263067
 20
408.36408702074442
 30
0.0
 11
-136.15883252610661
 21
408.36408702074419
 31
0.0
  0
LINE
  5
18499
  8
AM_0
 10
-160.15883252658659
 20
398.9040870205551
 30
0.0
 11
-150.1588325263865
 21
398.9040870205551
 31
0.0
  0
LINE
  5
1849A
  8
AM_0
 10
-160.15883252658659
 20
410.86408702079422
 30
0.0
 11
-151.03222969880849
 21
410.86408702079422
 31
0.0
  0
LINE
  5
1849B
  8
AM_0
 10
-160.15883252658659
 20
410.86412702079417
 30
0.0
 11
-160.15883252658659
 21
406.86412702071419
 31
0.0
  0
ARC
  5
1849C
  8
AM_0
 10
-151.03222969880849
 20
407.86408702073408
 30
0.0
 40
3.00000000006
 50
35.685334712650508
 51
90.0
1001
GENIUS_GENOBJ-N-FIL_13
1002
{
1000
OWNER
1000
GEN
1002
}
1001
GENIUS_GENODEF_13
1002
{
1000
HIER
1070
     0
1002
}
1002
{
1000
MANEDIT
1070
     0
1002
}
1002
{
1000
NOSEL
1070
     0
1002
}
1002
{
1000
BEHIND
1070
     0
1002
}
1002
{
1000
OTHER
1070
     0
1002
}
1002
{
1000
REACTOR
1002
}
  0
ARC
  5
1849D
  8
AM_0
 10
-146.1588325263067
 20
411.36408702080422
 30
0.0
 40
3.00000000006
 50
215.6853347126505
 51
270.0
1001
GENIUS_GENOBJ-N-FIL_13
1002
{
1000
OWNER
1000
GEN
1002
}
1001
GENIUS_GENODEF_13
1002
{
1000
HIER
1070
     0
1002
}
1002
{
1000
MANEDIT
1070
     0
1002
}
1002
{
1000
NOSEL
1070
     0
1002
}
1002
{
1000
BEHIND
1070
     0
1002
}
1002
{
1000
OTHER
1070
     0
1002
}
1002
{
1000
REACTOR
1002
}
  0
LINE
  5
1849E
  8
AM_0
 10
-137.58729817244739
 20
395.59281565858299
 30
0.0
 11
-134.15883252606659
 21
395.59281565858299
 31
0.0
  0
ARC
  5
1849F
  8
AM_0
 10
-137.58729817244739
 20
392.59281565852268
 30
0.0
 40
3.00000000006
 50
90.0
 51
173.33928567967661
1001
GENIUS_GENODEF_13
1002
{
1000
HIER
1070
     0
1002
}
1002
{
1000
MANEDIT
1070
     0
1002
}
1002
{
1000
NOSEL
1070
     0
1002
}
1002
{
1000
BEHIND
1070
     0
1002
}
1002
{
1000
OTHER
1070
     0
1002
}
1002
{
1000
REACTOR
1002
}
1001
GENIUS_GENOBJ-N-FIL_13
1002
{
1000
OWNER
1000
GEN
1002
}
  0
ARC
  5
184A0
  8
AM_0
 10
-120.1588591667241
 20
391.49954361589693
 30
0.0
 40
5.0000000000000107
 50
104.4775098426157
 51
179.99999749551819
  0
ARC
  5
184A1
  8
AM_0
 10
-131.15885916672411
 20
401.36445755632661
 30
0.0
 40
2.0000000000000062
 50
90.000005008950424
 51
180.000000683243
  0
ARC
  5
184A2
  8
AM_0
 10
-136.15883252610661
 20
411.36408702080422
 30
0.0
 40
3.00000000006
 50
270.0
 51
0.0
1001
GENIUS_GENODEF_13
1002
{
1000
HIER
1070
     0
1002
}
1002
{
1000
MANEDIT
1070
     0
1002
}
1002
{
1000
NOSEL
1070
     0
1002
}
1002
{
1000
BEHIND
1070
     0
1002
}
1002
{
1000
OTHER
1070
     0
1002
}
1002
{
1000
REACTOR
1002
}
1001
GENIUS_GENOBJ-N-FIL_13
1002
{
1000
OWNER
1000
GEN
1002
}
  0
LINE
  5
184A3
  8
AM_0N
 10
-126.7212856456795
 20
407.86445755632661
 30
0.0
 11
-123.25718403054179
 21
407.86445755632661
 31
0.0
  0
LINE
  5
184A4
  8
AM_0N
 10
-123.25718403054201
 20
413.86445755632661
 30
0.0
 11
-126.7212856456792
 21
413.86445755632661
 31
0.0
  0
LINE
  5
184A5
  8
AM_0N
 10
-123.25718403054179
 20
407.86445755632661
 30
0.0
 11
-121.5251332229728
 21
410.86445755632661
 31
0.0
  0
LINE
  5
184A6
  8
AM_0N
 10
-121.5251332229728
 20
410.86445755632661
 30
0.0
 11
-123.25718403054201
 21
413.86445755632661
 31
0.0
  0
LINE
  5
184A7
  8
AM_0N
 10
-128.4533364532484
 20
410.86445755632661
 30
0.0
 11
-126.7212856456795
 21
407.86445755632661
 31
0.0
  0
LINE
  5
184A8
  8
AM_0N
 10
-126.7212856456792
 20
413.86445755632661
 30
0.0
 11
-128.4533364532484
 21
410.86445755632661
 31
0.0
  0
LINE
  5
184A9
  8
AM_0
 10
-125.1588591667239
 20
403.36445755632661
 30
0.0
 11
-131.15885916672389
 21
403.36445755632661
 31
0.0
  0
ARC
  5
184AA
  8
AM_0
 10
-131.15885916672411
 20
420.36445755632661
 30
0.0
 40
2.0000000000000022
 50
179.99999749551819
 51
270.0
  0
LINE
  5
184AB
  8
AM_0
 10
-125.1588591667239
 20
418.36445755632661
 30
0.0
 11
-131.15885916672389
 21
418.36445755632661
 31
0.0
  0
ARC
  5
184AC
  8
AM_0
 10
-38.158859166724142
 20
436.86445755632661
 30
0.0
 40
7.5000000000000071
 50
179.99999749551819
 51
0.0000025044687019
  0
ARC
  5
184AD
  8
AM_0
 10
-38.158859166724142
 20
436.86445755632661
 30
0.0
 40
14.999999999999989
 50
194.4775123470915
 51
345.52248765290852
  0
LINE
  5
184AE
  8
AM_0
 10
-118.1588321109121
 20
444.86605994055998
 30
0.0
 11
56.841142639415217
 21
444.86605994055998
 31
0.0
  0
ARC
  5
184AF
  8
AM_0
 10
-47.658859166724142
 20
442.86445755632661
 30
0.0
 40
2.0000000000000022
 50
0.0000025044687019
 51
90.000005008950424
  0
CIRCLE
  5
184B0
  8
AM_0N
 10
-38.217368993384071
 20
436.86445755632661
 30
0.0
 40
6.5
  0
LINE
  5
184B1
  8
AM_0
 10
-96.825775060278588
 20
436.86445755632661
 30
0.0
 11
-57.523773107153602
 21
436.86445755632661
 31
0.0
  0
LINE
  5
184B2
  8
AM_0
 10
-101.55601492844259
 20
433.48457474382661
 30
0.0
 11
-110.96812430344259
 21
406.0041059938265
 31
0.0
  0
ARC
  5
184B3
  8
AM_0
 10
-96.825775060278815
 20
431.86445755632661
 30
0.0
 40
4.9999999999999911
 50
90.000005008950424
 51
161.09357260778
  0
ARC
  5
184B5
  8
AM_0
 10
-57.523773107153829
 20
431.86445755632661
 30
0.0
 40
5.0000000000000044
 50
14.47751052586351
 51
90.000005008950424
  0
LINE
  5
184B6
  8
AM_0
 10
-45.658859166723907
 20
436.86445755632661
 30
0.0
 11
-45.658859166723907
 21
442.86445755632661
 31
0.0
  0
LINE
  5
184B7
  8
AM_0N
 10
-39.94941980095291
 20
433.86445755632639
 30
0.0
 11
-36.485318185815231
 21
433.86445755632639
 31
0.0
  0
LINE
  5
184B8
  8
AM_0N
 10
-36.485318185815473
 20
439.86445755632678
 30
0.0
 11
-39.949419800952683
 21
439.86445755632678
 31
0.0
  0
LINE
  5
184B9
  8
AM_0N
 10
-36.485318185815231
 20
433.86445755632639
 30
0.0
 11
-34.753267378246292
 21
436.86445755632661
 31
0.0
  0
LINE
  5
184BA
  8
AM_0N
 10
-34.753267378246292
 20
436.86445755632661
 30
0.0
 11
-36.485318185815473
 21
439.86445755632678
 31
0.0
  0
CIRCLE
  5
184BB
  8
AM_0N
 10
-38.217368993384071
 20
436.86445755632661
 30
0.0
 40
3.4641016151377491
  0
LINE
  5
184BC
  8
AM_0N
 10
-41.681470608521849
 20
436.86445755632661
 30
0.0
 11
-39.94941980095291
 21
433.86445755632639
 31
0.0
  0
LINE
  5
184BD
  8
AM_0N
 10
-39.949419800952683
 20
439.86445755632678
 30
0.0
 11
-41.681470608521849
 21
436.86445755632661
 31
0.0
  0
ARC
  5
184BE
  8
AM_0
 10
-28.658859166724142
 20
442.86445755632661
 30
0.0
 40
2.0000000000000062
 50
90.000005008950424
 51
180.000000683243
  0
LINE
  5
184BF
  8
AM_0
 10
-18.793929967505161
 20
436.86445755632661
 30
0.0
 11
35.360519495385461
 21
436.86445755632661
 31
0.0
  0
ARC
  5
184C0
  8
AM_0
 10
-18.793929967505392
 20
431.86445755632661
 30
0.0
 40
4.9999999999999911
 50
90.000005008950424
 51
165.52248583168051
  0
LINE
  5
184C1
  8
AM_0
 10
-30.658859166723911
 20
436.86445755632661
 30
0.0
 11
-30.658859166723911
 21
442.86445755632661
 31
0.0
  0
LINE
  5
184C2
  8
AM_0
 10
40.238296594994821
 20
433.48457474382661
 30
0.0
 11
49.650405969994821
 21
406.0041059938265
 31
0.0
  0
ARC
  5
184C4
  8
AM_0
 10
35.50804146804149
 20
431.86445755632661
 30
0.0
 40
4.9999999999999716
 50
18.90642374974815
 51
90.000005008950424
  0
LINE
  5
184C5
  8
AM_0
 10
63.841140833276093
 20
338.22937912615077
 30
0.0
 11
63.841140833276093
 21
391.49954361589693
 31
0.0
  0
LINE
  5
184C6
  8
AM_0
 10
71.841143090950141
 20
429.86575949351612
 30
0.0
 11
71.841143090950027
 21
264.8644575563265
 31
0.0
  0
LINE
  5
184C7
  8
ｶｸﾚｾﾝ2
 10
58.841143090950361
 20
270.8644575563273
 30
0.0
 11
58.841143090950133
 21
264.86445755632627
 31
0.0
  0
ARC
  5
184C8
  8
AM_0
 10
69.841140833275858
 20
328.36445755632661
 30
0.0
 40
2.0
 50
270.0
 51
0.0000025044687019
  0
LINE
  5
184C9
  8
AM_0N
 10
65.841142639415239
 20
294.66700319643002
 30
0.0
 11
65.841142639415239
 21
305.05930804184351
 31
0.0
  0
ARC
  5
184CA
  8
AM_0
 10
61.841143090950133
 20
304.86345636420992
 30
0.0
 40
10.0
 50
0.0
 51
90.0
1001
GENIUS_GENOBJ-N-FIL_13
1002
{
1000
OWNER
1000
GEN
1002
}
1001
GENIUS_GENODEF_13
1002
{
1000
HIER
1070
     0
1002
}
1002
{
1000
MANEDIT
1070
     0
1002
}
1002
{
1000
NOSEL
1070
     0
1002
}
1002
{
1000
BEHIND
1070
     0
1002
}
1002
{
1000
OTHER
1070
     0
1002
}
1002
{
1000
REACTOR
1002
}
  0
LINE
  5
184CB
  8
AM_0
 10
69.439628696654609
 20
311.36445755632661
 30
0.0
 11
69.841140833276086
 21
311.36445755632661
 31
0.0
  0
ARC
  5
184CC
  8
AM_0
 10
69.841140833275858
 20
309.36445755632661
 30
0.0
 40
2.0000000000000022
 50
0.0000025044687019
 51
90.000005008950424
  0
LINE
  5
184CD
  8
AM_0
 10
63.841140833276093
 20
326.36445755632661
 30
0.0
 11
69.841140833276086
 21
326.36445755632661
 31
0.0
  0
LINE
  5
184CE
  8
AM_0N
 10
60.148493075560161
 20
318.86445755632661
 30
0.0
 11
61.880543883129121
 21
315.86445755632661
 31
0.0
  0
LINE
  5
184CF
  8
AM_0N
 10
61.880543883129342
 20
321.86445755632678
 30
0.0
 11
60.148493075560161
 21
318.86445755632661
 31
0.0
  0
CIRCLE
  5
184D0
  8
AM_0N
 10
63.612594690697961
 20
318.86445755632661
 30
0.0
 40
3.4641016151377491
  0
LINE
  5
184D1
  8
AM_0N
 10
61.880543883129121
 20
315.86445755632661
 30
0.0
 11
65.344645498266786
 21
315.86445755632661
 31
0.0
  0
LINE
  5
184D2
  8
AM_0N
 10
65.344645498266573
 20
321.86445755632678
 30
0.0
 11
61.880543883129342
 21
321.86445755632678
 31
0.0
  0
LINE
  5
184D3
  8
AM_0N
 10
65.344645498266786
 20
315.86445755632661
 30
0.0
 11
67.076696305835753
 21
318.86445755632661
 31
0.0
  0
LINE
  5
184D4
  8
AM_0N
 10
67.076696305835753
 20
318.86445755632661
 30
0.0
 11
65.344645498266573
 21
321.86445755632678
 31
0.0
  0
ARC
  5
184D5
  8
AM_0
 10
58.841140833275858
 20
338.22937912615077
 30
0.0
 40
5.0
 50
284.47751143647122
 51
0.0000025044687019
  0
CIRCLE
  5
184D6
  8
AM_0N
 10
63.67150887526828
 20
410.86445755632661
 30
0.0
 40
3.4641016151377491
  0
ARC
  5
184D7
  8
AM_0
 10
58.841140833275858
 20
391.49954361589693
 30
0.0
 40
5.0000000000000044
 50
0.0000025044687019
 51
75.522490157384311
  0
LINE
  5
184D8
  8
AM_0
 10
63.841140833276093
 20
403.36445755632661
 30
0.0
 11
69.841140833276086
 21
403.36445755632661
 31
0.0
  0
LINE
  5
184D9
  8
AM_0N
 10
60.207407260130474
 20
410.86445755632661
 30
0.0
 11
61.939458067699427
 21
407.86445755632661
 31
0.0
  0
LINE
  5
184DA
  8
AM_0N
 10
61.939458067699647
 20
413.86445755632661
 30
0.0
 11
60.207407260130474
 21
410.86445755632661
 31
0.0
  0
LINE
  5
184DB
  8
AM_0N
 10
61.939458067699427
 20
407.86445755632661
 30
0.0
 11
65.403559682837098
 21
407.86445755632661
 31
0.0
  0
LINE
  5
184DC
  8
AM_0N
 10
65.403559682836885
 20
413.86445755632661
 30
0.0
 11
61.939458067699647
 21
413.86445755632661
 31
0.0
  0
LINE
  5
184DD
  8
AM_0N
 10
65.403559682837098
 20
407.86445755632661
 30
0.0
 11
67.135610490406066
 21
410.86445755632661
 31
0.0
  0
LINE
  5
184DE
  8
AM_0N
 10
67.135610490406066
 20
410.86445755632661
 30
0.0
 11
65.403559682836885
 21
413.86445755632661
 31
0.0
  0
ARC
  5
184DF
  8
AM_0
 10
69.841140833275858
 20
401.36445755632661
 30
0.0
 40
2.0000000000000022
 50
0.0000025044687019
 51
90.000005008950424
  0
LINE
  5
184E0
  8
AM_0
 10
63.841140833276093
 20
418.36445755632661
 30
0.0
 11
69.841140833276086
 21
418.36445755632661
 31
0.0
  0
ARC
  5
184E1
  8
AM_0
 10
69.841140833275858
 20
420.36445755632661
 30
0.0
 40
2.0
 50
270.0
 51
0.0000025044687019
  0
ARC
  5
18A7B
  8
AM_0
 10
-308.48242625953628
 20
671.8059109847037
 30
0.0
 40
1.6800002000336001
 50
90.00000299999769
 51
270.0
  0
ARC
  5
18A7C
  8
AM_0
 10
-305.97885625948629
 20
665.25431098457273
 30
0.0
 40
4.9987221000999753
 50
5.4135635000036668
 51
80.599941000004847
  0
ARC
  5
18A7D
  8
AM_0
 10
-171.3485462567937
 20
671.79590098470317
 30
0.0
 40
1.680011000033599
 50
270.20802999999808
 51
89.791969000000449
  0
LINE
  5
18A7E
  8
AM_0
 10
-315.16244625966999
 20
649.42591098425612
 30
0.0
 11
-315.16244625966988
 21
764.27591098655296
 31
0.0
  0
LINE
  5
18A7F
  8
AM_0
 10
-169.16244625674989
 20
767.34589098661456
 30
0.0
 11
-169.16244651299741
 21
643.84589068383673
 31
0.0
  0
LINE
  5
18A80
  8
AM_0
 10
-321.16244625978999
 20
658.82630098444429
 30
0.0
 11
-321.16244625978999
 21
701.84589098530455
 31
0.0
  0
ARC
  5
18A82
  8
AM_0
 10
-291.16244625918989
 20
671.84589098470462
 30
0.0
 40
1.0000007000199991
 50
90.00000299999769
 51
270.0
  0
ARC
  5
18A83
  8
AM_0
 10
-291.16244625918989
 20
681.8458909849046
 30
0.0
 40
1.0000007000199991
 50
90.00000299999769
 51
270.0
  0
LINE
  5
18A84
  8
AM_0
 10
-307.60243377861821
 20
672.84589094363844
 30
0.0
 11
-235.16244625806991
 21
672.84589094363821
 31
0.0
  0
LINE
  5
18A85
  8
AM_0
 10
-308.4924362595367
 20
673.47589098473713
 30
0.0
 11
-235.16244625806991
 21
673.47589098473713
 31
0.0
  0
LINE
  5
18A86
  8
AM_0
 10
-235.16244625806991
 20
670.8458909846845
 30
0.0
 11
-307.61242625951883
 21
670.8458909846845
 31
0.0
  0
LINE
  5
18A87
  8
AM_0
 10
-206.66244625749991
 20
680.84589098488448
 30
0.0
 11
-307.61242625951883
 21
680.84589098488448
 31
0.0
  0
LINE
  5
18A88
  8
AM_0
 10
-308.7024262595408
 20
680.35590098487467
 30
0.0
 11
-205.80227778567041
 21
680.35590098487467
 31
0.0
  0
LINE
  5
18A89
  8
AM_0
 10
-172.23766017028609
 20
682.84589098492438
 30
0.0
 11
-307.61242625951883
 21
682.84589098492438
 31
0.0
  0
LINE
  5
18A8A
  8
AM_0
 10
-308.7024262595408
 20
683.27591098493315
 30
0.0
 11
-171.3176901082372
 21
683.27591098493315
 31
0.0
  0
ARC
  5
18A8B
  8
AM_0
 10
-291.16244625918989
 20
691.84589098510435
 30
0.0
 40
1.0000007000199991
 50
90.00000299999769
 51
270.0
  0
ARC
  5
18A8C
  8
AM_0
 10
-291.16244625918989
 20
701.84589098530455
 30
0.0
 40
1.0000007000199991
 50
90.00000299999769
 51
270.0
  0
ARC
  5
18A8D
  8
AM_0
 10
-291.16244625918989
 20
711.84589098550464
 30
0.0
 40
1.0000032000200001
 50
90.00000299999769
 51
270.0
  0
ARC
  5
18A8E
  8
AM_0
 10
-291.16244625918989
 20
721.84589098570484
 30
0.0
 40
1.0000032000200001
 50
90.00000299999769
 51
270.0
  0
ARC
  5
18A8F
  8
AM_0
 10
-291.16244625918978
 20
741.84589098610479
 30
0.0
 40
1.0000032000200001
 50
90.00000299999769
 51
270.0
  0
ARC
  5
18A90
  8
AM_0
 10
-291.16244625918989
 20
731.8458909859047
 30
0.0
 40
1.0000032000200001
 50
90.00000299999769
 51
270.0
  0
ARC
  5
18A91
  8
AM_0
 10
-290.16604625916978
 20
766.70951098660203
 30
0.0
 40
1.9963853000399261
 50
89.896163000006567
 51
180.10384000000261
  0
ARC
  5
18A92
  8
AM_0
 10
-290.15994625916971
 20
770.77106098668276
 30
0.0
 40
1.9948452000398971
 50
90.07165800000439
 51
165.63720000000029
  0
ARC
  5
18A93
  8
AM_0
 10
-290.16787625916999
 20
770.09134098666959
 30
0.0
 40
1.9945769000398901
 50
89.844007999999945
 51
180.15598999999631
  0
ARC
  5
18A94
  8
AM_0
 10
-290.1652262591698
 20
768.73868098664218
 30
0.0
 40
1.9972084000399439
 50
89.919857000000434
 51
180.08013999999889
  0
LINE
  5
18A95
  8
AM_0
 10
-268.1624462587298
 20
753.19590098633148
 30
0.0
 11
-305.16244625946979
 21
751.04989914685882
 31
0.0
  0
LINE
  5
18A96
  8
AM_0
 10
-308.8324362595431
 20
693.15589098513067
 30
0.0
 11
-236.4324195883797
 21
693.15589098513067
 31
0.0
  0
LINE
  5
18A97
  8
AM_0
 10
-237.72241406367479
 20
692.84589098512447
 30
0.0
 11
-307.61242625951883
 21
692.84589098512447
 31
0.0
  0
LINE
  5
18A98
  8
AM_0
 10
-237.72241406367479
 20
690.84589098508434
 30
0.0
 11
-307.61242625951883
 21
690.84589098508434
 31
0.0
  0
LINE
  5
18A99
  8
AM_0
 10
-308.8324362595431
 20
690.49591098507778
 30
0.0
 11
-236.4324195883797
 21
690.49591098507733
 31
0.0
  0
LINE
  5
18A9A
  8
AM_0
 10
-299.48242625935632
 20
740.21588098607185
 30
0.0
 11
-235.16244625806979
 21
740.21588098607185
 31
0.0
  0
LINE
  5
18A9B
  8
AM_0
 10
-235.16244625806979
 20
742.84589098612446
 30
0.0
 11
-298.61242625933897
 21
742.84589098612446
 31
0.0
  0
LINE
  5
18A9C
  8
AM_0
 10
-235.16244625806979
 20
740.84589098608444
 30
0.0
 11
-298.61242625933897
 21
740.84589098608444
 31
0.0
  0
LINE
  5
18A9D
  8
AM_0
 10
-299.48242625935632
 20
743.56589098613904
 30
0.0
 11
-235.16244625806979
 21
743.56589098613904
 31
0.0
  0
LINE
  5
18A9E
  8
AM_0
 10
-237.72068631450821
 20
722.84589098572451
 30
0.0
 11
-307.6024162595188
 21
722.84589098572474
 31
0.0
  0
LINE
  5
18A9F
  8
AM_0
 10
-237.7197628147415
 20
720.84589098568449
 30
0.0
 11
-307.6024162595188
 21
720.84589098568449
 31
0.0
  0
LINE
  5
18AA0
  8
AM_0
 10
-237.72241746911121
 20
712.84589098552442
 30
0.0
 11
-307.6024162595188
 21
712.84589098552465
 31
0.0
  0
LINE
  5
18AA1
  8
AM_0
 10
-237.7224174691128
 20
710.84589098548417
 30
0.0
 11
-307.6024162595188
 21
710.84589098548463
 31
0.0
  0
LINE
  5
18AA2
  8
AM_0
 10
-308.8324362595431
 20
723.18589098573125
 30
0.0
 11
-236.62723299056239
 21
723.18589098573125
 31
0.0
  0
LINE
  5
18AA3
  8
AM_0
 10
-308.8324362595431
 20
720.52591098567814
 30
0.0
 11
-236.62723299056239
 21
720.52591098567814
 31
0.0
  0
LINE
  5
18AA4
  8
AM_0
 10
-308.89242625954472
 20
713.11591098552992
 30
0.0
 11
-236.62723299056239
 21
713.11591098552992
 31
0.0
  0
LINE
  5
18AA5
  8
AM_0
 10
-308.89242625954472
 20
710.58591098547925
 30
0.0
 11
-236.62723299056239
 21
710.58591098547925
 31
0.0
  0
LINE
  5
18AA6
  8
AM_0
 10
-308.9024362595448
 20
703.10590098532975
 30
0.0
 11
-236.4324195883797
 21
703.10590098532975
 31
0.0
  0
LINE
  5
18AA7
  8
AM_0
 10
-237.72241406367479
 20
702.84589098532444
 30
0.0
 11
-307.61242625951883
 21
702.84589098532444
 31
0.0
  0
LINE
  5
18AA8
  8
AM_0
 10
-237.72241406367479
 20
700.84589098528443
 30
0.0
 11
-307.61242625951883
 21
700.84589098528443
 31
0.0
  0
LINE
  5
18AA9
  8
AM_0
 10
-308.9024362595448
 20
700.56589098527888
 30
0.0
 11
-236.4324195883797
 21
700.56589098527888
 31
0.0
  0
LINE
  5
18AAA
  8
AM_0
 10
-206.65149197067231
 20
732.8458909859246
 30
0.0
 11
-298.6124262593392
 21
732.8458909859246
 31
0.0
  0
LINE
  5
18AAB
  8
AM_0
 10
-299.70242625936061
 20
733.33591098593445
 30
0.0
 11
-205.8022244293476
 21
733.33591098593433
 31
0.0
  0
LINE
  5
18AAC
  8
AM_0
 10
-172.23766017028601
 20
730.84589098588447
 30
0.0
 11
-298.6124262593392
 21
730.84589098588447
 31
0.0
  0
LINE
  5
18AAD
  8
AM_0
 10
-299.70242625936061
 20
730.40589098587554
 30
0.0
 11
-171.1476602226243
 21
730.40589098587554
 31
0.0
  0
POLYLINE
  5
18AAF
  8
AM_0
 10
21.841141578834112
 20
364.8644575563265
 30
0.0
 66
     1
 70
     8
  0
VERTEX
  8
AM_0
  5
197DE
 10
21.8411
 20
364.864
 30
0.000000
  70
    32
  0
VERTEX
  8
AM_0
  5
197DF
 10
21.8110
 20
363.638
 30
0.000000
  70
    32
  0
VERTEX
  8
AM_0
  5
197E0
 10
21.7208
 20
362.414
 30
0.000000
  70
    32
  0
VERTEX
  8
AM_0
  5
197E1
 10
21.5706
 20
361.196
 30
0.000000
  70
    32
  0
VERTEX
  8
AM_0
  5
197E2
 10
21.3608
 20
359.987
 30
0.000000
  70
    32
  0
VERTEX
  8
AM_0
  5
197E3
 10
21.0919
 20
358.790
 30
0.000000
  70
    32
  0
VERTEX
  8
AM_0
  5
197E4
 10
20.7646
 20
357.607
 30
0.000000
  70
    32
  0
VERTEX
  8
AM_0
  5
197E5
 10
20.3797
 20
356.442
 30
0.000000
  70
    32
  0
VERTEX
  8
AM_0
  5
197E6
 10
19.9381
 20
355.297
 30
0.000000
  70
    32
  0
VERTEX
  8
AM_0
  5
197E7
 10
19.4409
 20
354.175
 30
0.000000
  70
    32
  0
VERTEX
  8
AM_0
  5
197E8
 10
18.8892
 20
353.079
 30
0.000000
  70
    32
  0
VERTEX
  8
AM_0
  5
197E9
 10
18.2844
 20
352.012
 30
0.000000
  70
    32
  0
VERTEX
  8
AM_0
  5
197EA
 10
17.6279
 20
350.975
 30
0.000000
  70
    32
  0
VERTEX
  8
AM_0
  5
197EB
 10
16.9213
 20
349.972
 30
0.000000
  70
    32
  0
VERTEX
  8
AM_0
  5
197EC
 10
16.1664
 20
349.004
 30
0.000000
  70
    32
  0
VERTEX
  8
AM_0
  5
197ED
 10
15.3649
 20
348.075
 30
0.000000
  70
    32
  0
VERTEX
  8
AM_0
  5
197EE
 10
14.5188
 20
347.186
 30
0.000000
  70
    32
  0
VERTEX
  8
AM_0
  5
197EF
 10
13.6301
 20
346.340
 30
0.000000
  70
    32
  0
VERTEX
  8
AM_0
  5
197F0
 10
12.7010
 20
345.539
 30
0.000000
  70
    32
  0
VERTEX
  8
AM_0
  5
197F1
 10
11.7336
 20
344.784
 30
0.000000
  70
    32
  0
VERTEX
  8
AM_0
  5
197F2
 10
10.7304
 20
344.077
 30
0.000000
  70
    32
  0
VERTEX
  8
AM_0
  5
197F3
 10
9.69371
 20
343.421
 30
0.000000
  70
    32
  0
VERTEX
  8
AM_0
  5
197F4
 10
8.62606
 20
342.816
 30
0.000000
  70
    32
  0
VERTEX
  8
AM_0
  5
197F5
 10
7.53002
 20
342.264
 30
0.000000
  70
    32
  0
VERTEX
  8
AM_0
  5
197F6
 10
6.40823
 20
341.767
 30
0.000000
  70
    32
  0
VERTEX
  8
AM_0
  5
197F7
 10
5.26339
 20
341.325
 30
0.000000
  70
    32
  0
VERTEX
  8
AM_0
  5
197F8
 10
4.09826
 20
340.940
 30
0.000000
  70
    32
  0
VERTEX
  8
AM_0
  5
197F9
 10
2.91565
 20
340.613
 30
0.000000
  70
    32
  0
VERTEX
  8
AM_0
  5
197FA
 10
1.71840
 20
340.344
 30
0.000000
  70
    32
  0
VERTEX
  8
AM_0
  5
197FB
 10
0.509403
 20
340.135
 30
0.000000
  70
    32
  0
VERTEX
  8
AM_0
  5
197FC
 10
-0.708431
 20
339.984
 30
0.000000
  70
    32
  0
VERTEX
  8
AM_0
  5
197FD
 10
-1.93217
 20
339.894
 30
0.000000
  70
    32
  0
VERTEX
  8
AM_0
  5
197FE
 10
-3.15886
 20
339.864
 30
0.000000
  70
    32
  0
VERTEX
  8
AM_0
  5
197FF
 10
-4.38555
 20
339.894
 30
0.000000
  70
    32
  0
VERTEX
  8
AM_0
  5
19800
 10
-5.60929
 20
339.984
 30
0.000000
  70
    32
  0
VERTEX
  8
AM_0
  5
19801
 10
-6.82712
 20
340.135
 30
0.000000
  70
    32
  0
VERTEX
  8
AM_0
  5
19802
 10
-8.03612
 20
340.344
 30
0.000000
  70
    32
  0
VERTEX
  8
AM_0
  5
19803
 10
-9.23336
 20
340.613
 30
0.000000
  70
    32
  0
VERTEX
  8
AM_0
  5
19804
 10
-10.4160
 20
340.940
 30
0.000000
  70
    32
  0
VERTEX
  8
AM_0
  5
19805
 10
-11.5811
 20
341.325
 30
0.000000
  70
    32
  0
VERTEX
  8
AM_0
  5
19806
 10
-12.7259
 20
341.767
 30
0.000000
  70
    32
  0
VERTEX
  8
AM_0
  5
19807
 10
-13.8477
 20
342.264
 30
0.000000
  70
    32
  0
VERTEX
  8
AM_0
  5
19808
 10
-14.9438
 20
342.816
 30
0.000000
  70
    32
  0
VERTEX
  8
AM_0
  5
19809
 10
-16.0114
 20
343.421
 30
0.000000
  70
    32
  0
VERTEX
  8
AM_0
  5
1980A
 10
-17.0481
 20
344.077
 30
0.000000
  70
    32
  0
VERTEX
  8
AM_0
  5
1980B
 10
-18.0513
 20
344.784
 30
0.000000
  70
    32
  0
VERTEX
  8
AM_0
  5
1980C
 10
-19.0187
 20
345.539
 30
0.000000
  70
    32
  0
VERTEX
  8
AM_0
  5
1980D
 10
-19.9478
 20
346.340
 30
0.000000
  70
    32
  0
VERTEX
  8
AM_0
  5
1980E
 10
-20.8365
 20
347.186
 30
0.000000
  70
    32
  0
VERTEX
  8
AM_0
  5
1980F
 10
-21.6826
 20
348.075
 30
0.000000
  70
    32
  0
VERTEX
  8
AM_0
  5
19810
 10
-22.4841
 20
349.004
 30
0.000000
  70
    32
  0
VERTEX
  8
AM_0
  5
19811
 10
-23.2390
 20
349.972
 30
0.000000
  70
    32
  0
VERTEX
  8
AM_0
  5
19812
 10
-23.9456
 20
350.975
 30
0.000000
  70
    32
  0
VERTEX
  8
AM_0
  5
19813
 10
-24.6021
 20
352.012
 30
0.000000
  70
    32
  0
VERTEX
  8
AM_0
  5
19814
 10
-25.2069
 20
353.079
 30
0.000000
  70
    32
  0
VERTEX
  8
AM_0
  5
19815
 10
-25.7586
 20
354.175
 30
0.000000
  70
    32
  0
VERTEX
  8
AM_0
  5
19816
 10
-26.2558
 20
355.297
 30
0.000000
  70
    32
  0
VERTEX
  8
AM_0
  5
19817
 10
-26.6975
 20
356.442
 30
0.000000
  70
    32
  0
VERTEX
  8
AM_0
  5
19818
 10
-27.0824
 20
357.607
 30
0.000000
  70
    32
  0
VERTEX
  8
AM_0
  5
19819
 10
-27.4096
 20
358.790
 30
0.000000
  70
    32
  0
VERTEX
  8
AM_0
  5
1981A
 10
-27.6785
 20
359.987
 30
0.000000
  70
    32
  0
VERTEX
  8
AM_0
  5
1981B
 10
-27.8883
 20
361.196
 30
0.000000
  70
    32
  0
VERTEX
  8
AM_0
  5
1981C
 10
-28.0385
 20
362.414
 30
0.000000
  70
    32
  0
VERTEX
  8
AM_0
  5
1981D
 10
-28.1287
 20
363.638
 30
0.000000
  70
    32
  0
VERTEX
  8
AM_0
  5
1981E
 10
-28.1589
 20
364.864
 30
0.000000
  70
    32
  0
VERTEX
  8
AM_0
  5
1981F
 10
-28.1287
 20
366.091
 30
0.000000
  70
    32
  0
VERTEX
  8
AM_0
  5
19820
 10
-28.0385
 20
367.315
 30
0.000000
  70
    32
  0
VERTEX
  8
AM_0
  5
19821
 10
-27.8883
 20
368.533
 30
0.000000
  70
    32
  0
VERTEX
  8
AM_0
  5
19822
 10
-27.6785
 20
369.742
 30
0.000000
  70
    32
  0
VERTEX
  8
AM_0
  5
19823
 10
-27.4096
 20
370.939
 30
0.000000
  70
    32
  0
VERTEX
  8
AM_0
  5
19824
 10
-27.0824
 20
372.122
 30
0.000000
  70
    32
  0
VERTEX
  8
AM_0
  5
19825
 10
-26.6975
 20
373.287
 30
0.000000
  70
    32
  0
VERTEX
  8
AM_0
  5
19826
 10
-26.2558
 20
374.432
 30
0.000000
  70
    32
  0
VERTEX
  8
AM_0
  5
19827
 10
-25.7586
 20
375.554
 30
0.000000
  70
    32
  0
VERTEX
  8
AM_0
  5
19828
 10
-25.2069
 20
376.650
 30
0.000000
  70
    32
  0
VERTEX
  8
AM_0
  5
19829
 10
-24.6021
 20
377.717
 30
0.000000
  70
    32
  0
VERTEX
  8
AM_0
  5
1982A
 10
-23.9456
 20
378.754
 30
0.000000
  70
    32
  0
VERTEX
  8
AM_0
  5
1982B
 10
-23.2390
 20
379.757
 30
0.000000
  70
    32
  0
VERTEX
  8
AM_0
  5
1982C
 10
-22.4841
 20
380.725
 30
0.000000
  70
    32
  0
VERTEX
  8
AM_0
  5
1982D
 10
-21.6826
 20
381.654
 30
0.000000
  70
    32
  0
VERTEX
  8
AM_0
  5
1982E
 10
-20.8365
 20
382.542
 30
0.000000
  70
    32
  0
VERTEX
  8
AM_0
  5
1982F
 10
-19.9478
 20
383.389
 30
0.000000
  70
    32
  0
VERTEX
  8
AM_0
  5
19830
 10
-19.0187
 20
384.190
 30
0.000000
  70
    32
  0
VERTEX
  8
AM_0
  5
19831
 10
-18.0513
 20
384.945
 30
0.000000
  70
    32
  0
VERTEX
  8
AM_0
  5
19832
 10
-17.0481
 20
385.652
 30
0.000000
  70
    32
  0
VERTEX
  8
AM_0
  5
19833
 10
-16.0114
 20
386.308
 30
0.000000
  70
    32
  0
VERTEX
  8
AM_0
  5
19834
 10
-14.9438
 20
386.913
 30
0.000000
  70
    32
  0
VERTEX
  8
AM_0
  5
19835
 10
-13.8477
 20
387.465
 30
0.000000
  70
    32
  0
VERTEX
  8
AM_0
  5
19836
 10
-12.7259
 20
387.962
 30
0.000000
  70
    32
  0
VERTEX
  8
AM_0
  5
19837
 10
-11.5811
 20
388.404
 30
0.000000
  70
    32
  0
VERTEX
  8
AM_0
  5
19838
 10
-10.4160
 20
388.788
 30
0.000000
  70
    32
  0
VERTEX
  8
AM_0
  5
19839
 10
-9.23336
 20
389.116
 30
0.000000
  70
    32
  0
VERTEX
  8
AM_0
  5
1983A
 10
-8.03612
 20
389.385
 30
0.000000
  70
    32
  0
VERTEX
  8
AM_0
  5
1983B
 10
-6.82712
 20
389.594
 30
0.000000
  70
    32
  0
VERTEX
  8
AM_0
  5
1983C
 10
-5.60929
 20
389.745
 30
0.000000
  70
    32
  0
VERTEX
  8
AM_0
  5
1983D
 10
-4.38555
 20
389.835
 30
0.000000
  70
    32
  0
VERTEX
  8
AM_0
  5
1983E
 10
-3.15886
 20
389.865
 30
0.000000
  70
    32
  0
VERTEX
  8
AM_0
  5
1983F
 10
-1.93217
 20
389.835
 30
0.000000
  70
    32
  0
VERTEX
  8
AM_0
  5
19840
 10
-0.708431
 20
389.745
 30
0.000000
  70
    32
  0
VERTEX
  8
AM_0
  5
19841
 10
0.509403
 20
389.594
 30
0.000000
  70
    32
  0
VERTEX
  8
AM_0
  5
19842
 10
1.71840
 20
389.385
 30
0.000000
  70
    32
  0
VERTEX
  8
AM_0
  5
19843
 10
2.91565
 20
389.116
 30
0.000000
  70
    32
  0
VERTEX
  8
AM_0
  5
19844
 10
4.09826
 20
388.788
 30
0.000000
  70
    32
  0
VERTEX
  8
AM_0
  5
19845
 10
5.26339
 20
388.404
 30
0.000000
  70
    32
  0
VERTEX
  8
AM_0
  5
19846
 10
6.40823
 20
387.962
 30
0.000000
  70
    32
  0
VERTEX
  8
AM_0
  5
19847
 10
7.53002
 20
387.465
 30
0.000000
  70
    32
  0
VERTEX
  8
AM_0
  5
19848
 10
8.62606
 20
386.913
 30
0.000000
  70
    32
  0
VERTEX
  8
AM_0
  5
19849
 10
9.69371
 20
386.308
 30
0.000000
  70
    32
  0
VERTEX
  8
AM_0
  5
1984A
 10
10.7304
 20
385.652
 30
0.000000
  70
    32
  0
VERTEX
  8
AM_0
  5
1984B
 10
11.7336
 20
384.945
 30
0.000000
  70
    32
  0
VERTEX
  8
AM_0
  5
1984C
 10
12.7010
 20
384.190
 30
0.000000
  70
    32
  0
VERTEX
  8
AM_0
  5
1984D
 10
13.6301
 20
383.389
 30
0.000000
  70
    32
  0
VERTEX
  8
AM_0
  5
1984E
 10
14.5188
 20
382.542
 30
0.000000
  70
    32
  0
VERTEX
  8
AM_0
  5
1984F
 10
15.3649
 20
381.654
 30
0.000000
  70
    32
  0
VERTEX
  8
AM_0
  5
19850
 10
16.1664
 20
380.725
 30
0.000000
  70
    32
  0
VERTEX
  8
AM_0
  5
19851
 10
16.9213
 20
379.757
 30
0.000000
  70
    32
  0
VERTEX
  8
AM_0
  5
19852
 10
17.6279
 20
378.754
 30
0.000000
  70
    32
  0
VERTEX
  8
AM_0
  5
19853
 10
18.2844
 20
377.717
 30
0.000000
  70
    32
  0
VERTEX
  8
AM_0
  5
19854
 10
18.8892
 20
376.650
 30
0.000000
  70
    32
  0
VERTEX
  8
AM_0
  5
19855
 10
19.4409
 20
375.554
 30
0.000000
  70
    32
  0
VERTEX
  8
AM_0
  5
19856
 10
19.9381
 20
374.432
 30
0.000000
  70
    32
  0
VERTEX
  8
AM_0
  5
19857
 10
20.3797
 20
373.287
 30
0.000000
  70
    32
  0
VERTEX
  8
AM_0
  5
19858
 10
20.7646
 20
372.122
 30
0.000000
  70
    32
  0
VERTEX
  8
AM_0
  5
19859
 10
21.0919
 20
370.939
 30
0.000000
  70
    32
  0
VERTEX
  8
AM_0
  5
1985A
 10
21.3608
 20
369.742
 30
0.000000
  70
    32
  0
VERTEX
  8
AM_0
  5
1985B
 10
21.5706
 20
368.533
 30
0.000000
  70
    32
  0
VERTEX
  8
AM_0
  5
1985C
 10
21.7208
 20
367.315
 30
0.000000
  70
    32
  0
VERTEX
  8
AM_0
  5
1985D
 10
21.8110
 20
366.091
 30
0.000000
  70
    32
  0
VERTEX
  8
AM_0
  5
1985E
 10
21.8411
 20
364.864
 30
0.000000
  70
    32
  0
SEQEND
  8
AM_0
  5
1985F
  0
LINE
  5
18AB0
  8
AM_0
 10
-262.16244625860998
 20
783.84586098694444
 30
0.0
 11
-262.16244625860998
 21
791.34586098709474
 31
0.0
  0
LINE
  5
18AB1
  8
AM_0
 10
-267.66244625872002
 20
780.34586098687487
 30
0.0
 11
-267.66244625872002
 21
799.84586098726459
 31
0.0
  0
LINE
  5
18AB2
  8
AM_0
 10
-258.66244625854011
 20
783.84586098694444
 30
0.0
 11
-258.66244625854011
 21
791.34586098709474
 31
0.0
  0
LINE
  5
18AB3
  8
AM_0
 10
-247.16244625831001
 20
791.34586098709474
 30
0.0
 11
-247.16244625831001
 21
783.84586098694444
 31
0.0
  0
LINE
  5
18AB4
  8
AM_0
 10
-250.6624462583801
 20
783.84586098694444
 30
0.0
 11
-250.6624462583801
 21
791.34586098709474
 31
0.0
  0
ARC
  5
18AB5
  8
AM_0
 10
-254.66244625846019
 20
791.34586098709474
 30
0.0
 40
7.5000000001500027
 50
0.0
 51
180.0
  0
LINE
  5
18AB6
  8
AM_0
 10
-187.66244625712011
 20
780.34586098687487
 30
0.0
 11
-187.66244625712011
 21
787.34586098701482
 31
0.0
  0
LINE
  5
18AB7
  8
AM_0
 10
-201.35844625739389
 20
806.84586098740488
 30
0.0
 11
-236.966446258106
 21
806.84586098740488
 31
0.0
  0
LINE
  5
18AB8
  8
AM_0
 10
-187.66244625712011
 20
787.34586098701482
 30
0.0
 11
-245.16244625826999
 21
787.34586098701482
 31
0.0
  0
LINE
  5
18AB9
  8
AM_0
 10
-190.16244625716999
 20
803.84586098734485
 30
0.0
 11
-265.16244625867
 21
803.84586098734485
 31
0.0
  0
LINE
  5
18ABA
  8
AM_0
 10
-189.16244625715001
 20
787.34586098701482
 30
0.0
 11
-189.16244625715001
 21
802.84586098732495
 31
0.0
  0
ARC
  5
18ABB
  8
AM_0
 10
-190.16244625716999
 20
802.84586098732495
 30
0.0
 40
1.00000000002
 50
0.0
 51
90.0
  0
LINE
  5
18ABC
  8
AM_0
 10
-196.16244625728999
 20
803.84586098734485
 30
0.0
 11
-201.35844625739389
 21
806.84586098740488
 31
0.0
  0
ARC
  5
18ABD
  8
AM_0
 10
-253.6624462584401
 20
792.34586098711452
 30
0.0
 40
7.5000000001499956
 50
0.0
 51
90.0
  0
LINE
  5
18ABE
  8
AM_0
 10
-236.966446258106
 20
806.84586098740488
 30
0.0
 11
-242.1552217684131
 21
803.84586098734485
 31
0.0
  0
ARC
  5
18ABF
  8
AM_0
 10
-245.16244625827011
 20
788.34586098703448
 30
0.0
 40
1.00000000002
 50
180.0
 51
270.0
  0
LINE
  5
18AC0
  8
AM_0
 10
-246.16244625829
 20
792.34586098711452
 30
0.0
 11
-246.16244625829
 21
788.34586098703448
 31
0.0
  0
LINE
  5
18AC1
  8
AM_0
 10
-266.16244625869012
 20
787.34586098701482
 30
0.0
 11
-266.16244625869012
 21
802.84586098732495
 31
0.0
  0
ARC
  5
18AC2
  8
AM_0
 10
-255.66244625848
 20
792.34586098711452
 30
0.0
 40
7.500000000149992
 50
90.0
 51
180.0
  0
ARC
  5
18AC3
  8
AM_0
 10
-265.16244625867
 20
802.84586098732495
 30
0.0
 40
1.00000000002
 50
90.0
 51
180.0
  0
ARC
  5
18AC4
  8
AM_0
 10
-254.66244625846019
 20
791.34586098709474
 30
0.0
 40
4.0000000000799973
 50
0.0
 51
180.0
  0
LINE
  5
18AC5
  8
AM_0
 10
-253.66244625844001
 20
799.84586098726459
 30
0.0
 11
-255.66244625847989
 21
799.84586098726459
 31
0.0
  0
LINE
  5
18AC6
  8
AM_0
 10
-267.66244625872002
 20
787.34586098701482
 30
0.0
 11
-264.16244625865022
 21
787.34586098701482
 31
0.0
  0
ARC
  5
18AC7
  8
AM_0
 10
-264.16244625865022
 20
788.34586098703448
 30
0.0
 40
1.00000000002
 50
270.0
 51
0.0
  0
LINE
  5
18AC8
  8
AM_0
 10
-267.66244625872002
 20
799.84586098726459
 30
0.0
 11
-266.16244625869012
 21
799.84586098726459
 31
0.0
  0
LINE
  5
18AC9
  8
AM_0
 10
-263.16244625862998
 20
788.34586098703448
 30
0.0
 11
-263.16244625862998
 21
792.34586098711452
 31
0.0
  0
LINE
  5
18ACA
  8
AM_0
 10
-175.3424362568733
 20
670.8458909846845
 30
0.0
 11
-235.16244625806991
 21
670.8458909846845
 31
0.0
  0
LINE
  5
18ACB
  8
AM_0
 10
-175.3424362568733
 20
672.84589098472452
 30
0.0
 11
-235.16244625806991
 21
672.84589098472452
 31
0.0
  0
LINE
  5
18ACC
  8
AM_0
 10
-190.66244625717979
 20
673.47589098473713
 30
0.0
 11
-205.66244625748001
 21
673.47589098473713
 31
0.0
  0
LINE
  5
18ACD
  8
AM_0
 10
-175.3424362568731
 20
740.84583098608437
 30
0.0
 11
-235.16244625806979
 21
740.84583098608437
 31
0.0
  0
LINE
  5
18ACE
  8
AM_0
 10
-175.3424362568731
 20
742.84583098612461
 30
0.0
 11
-235.16244625806979
 21
742.84583098612461
 31
0.0
  0
LINE
  5
18ACF
  8
AM_0
 10
-235.16244625806979
 20
743.57581098613923
 30
0.0
 11
-175.3424362568731
 21
743.57581098613923
 31
0.0
  0
LINE
  5
18AD0
  8
AM_0
 10
-190.6624462571796
 20
740.21583098607198
 30
0.0
 11
-205.6624462574799
 21
740.21583098607198
 31
0.0
  0
LINE
  5
18AD1
  8
AM_0
 10
-190.6624462571796
 20
740.21583098607198
 30
0.0
 11
-205.6624462574799
 21
740.21583098607198
 31
0.0
  0
LINE
  5
18AD2
  8
AM_0
 10
-235.16244625806979
 20
768.7058209866417
 30
0.0
 11
-175.3424362568731
 21
768.7058209866417
 31
0.0
  0
LINE
  5
18AD3
  8
AM_0
 10
-269.16244625874981
 20
753.18583098633133
 30
0.0
 11
-175.3424362568731
 21
753.18583098633133
 31
0.0
  0
LINE
  5
18AD4
  8
AM_0
 10
-187.6624462571198
 20
780.34586098687487
 30
0.0
 11
-267.66244625872002
 21
780.34586098687487
 31
0.0
  0
LINE
  5
18AD5
  8
AM_0
 10
-267.66244625872002
 20
783.84586098694444
 30
0.0
 11
-187.66244625712011
 21
783.84586098694444
 31
0.0
  0
LINE
  5
18AD6
  8
AM_0
 10
-169.16244625674989
 20
749.70582098626176
 30
0.0
 11
-169.16244625674989
 21
757.30582098641389
 31
0.0
  0
LINE
  5
18AD7
  8
AM_0
 10
-170.16244625676981
 20
749.70582098626176
 30
0.0
 11
-170.16244625676981
 21
757.30582098641389
 31
0.0
  0
LINE
  5
18AD8
  8
AM_0
 10
-173.40243625683459
 20
767.20583098661166
 30
0.0
 11
-170.66662625678001
 21
757.00583098640766
 31
0.0
  0
ARC
  5
18AD9
  8
AM_0
 10
-171.06244625678769
 20
755.30582098637365
 30
0.0
 40
1.700000800033999
 50
90.000020000001967
 51
179.999989999999
  0
LINE
  5
18ADA
  8
AM_0
 10
-189.16244625715001
 20
775.84586098678483
 30
0.0
 11
-176.86172496065549
 21
775.84586098678483
 31
0.0
  0
LINE
  5
18ADB
  8
AM_0
 10
-169.16244625674989
 20
770.84589093432464
 30
0.0
 11
-176.86172496065549
 21
775.84586098678483
 31
0.0
  0
LINE
  5
18ADC
  8
AM_0
 10
-170.16244625676981
 20
757.30582098641389
 30
0.0
 11
-169.16244625674989
 21
757.30582098641389
 31
0.0
  0
ARC
  5
18ADD
  8
AM_0
 10
-168.15402625672971
 20
757.87742098642536
 30
0.0
 40
1.0084445000201681
 50
90.477799999999505
 51
170.4539299999964
  0
ARC
  5
18ADE
  8
AM_0
 10
-168.16244625672991
 20
769.84589098666436
 30
0.0
 40
1.00000000002
 50
90.00000299999769
 51
180.00001000000091
  0
LINE
  5
18ADF
  8
AM_0
 10
-173.44244625683541
 20
767.34582098661474
 30
0.0
 11
-169.16244625674989
 21
767.34582098661474
 31
0.0
  0
LINE
  5
18AE0
  8
AM_0
 10
-169.16244625674989
 20
769.84589098666436
 30
0.0
 11
-169.16244625674989
 21
767.34589098661456
 31
0.0
  0
LINE
  5
18AE1
  8
0
  6
CONTINUOUS
 62
     7
 10
-168.16244625656989
 20
758.88582155784741
 30
0.0
 11
-160.16244625656989
 21
758.88582155784741
 31
0.0
  0
LINE
  5
18AE3
  8
0
  6
CONTINUOUS
 62
     7
 10
-169.16250785116861
 20
770.84589122031673
 30
0.0
 11
-160.16244625656989
 21
770.84589122031673
 31
0.0
  0
ARC
  5
18AE4
  8
AM_0
 10
-175.35208625687349
 20
766.68883098660126
 30
0.0
 40
2.0170178000403398
 50
14.851600000001371
 51
89.726300000003775
  0
LINE
  5
18AE5
  8
AM_0
 10
-189.16244625715001
 20
780.34586098687487
 30
0.0
 11
-189.16244625715001
 21
775.84586098678483
 31
0.0
  0
LINE
  5
18AE6
  8
AM_0
 10
-172.23766017028601
 20
732.8458909859246
 30
0.0
 11
-189.6734005439848
 21
732.8458909859246
 31
0.0
  0
LINE
  5
18AE7
  8
AM_0
 10
-175.3424362568731
 20
740.21583098607198
 30
0.0
 11
-189.66244625715979
 21
740.21583098607198
 31
0.0
  0
LINE
  5
18AE8
  8
AM_0
 10
-190.52266808531201
 20
733.33591098593433
 30
0.0
 11
-171.14874281214719
 21
733.33591098593433
 31
0.0
  0
ARC
  5
18AE9
  8
AM_0
 10
-174.822426256863
 20
741.8458309861046
 30
0.0
 40
1.0000074000200001
 50
269.99999700000228
 51
90.0
  0
ARC
  5
18AEA
  8
AM_0
 10
-171.3485462567935
 20
741.89582098610526
 30
0.0
 40
1.680011000033599
 50
270.20803099999949
 51
89.791970000001911
  0
LINE
  5
18AEB
  8
AM_0
 10
-175.3424362568731
 20
743.57581098613923
 30
0.0
 11
-169.1624463060698
 21
743.57581098613923
 31
0.0
  0
LINE
  5
18AEC
  8
AM_0
 10
-169.16244625674989
 20
752.72846098632215
 30
0.0
 11
-170.16244625676981
 21
753.3057909863337
 31
0.0
  0
LINE
  5
18AED
  8
AM_0
 10
-169.16244625674989
 20
753.72846098634216
 30
0.0
 11
-170.16244625676981
 21
754.30582098635375
 31
0.0
  0
ARC
  5
18AEE
  8
AM_0
 10
-168.5015862567366
 20
754.67261098636118
 30
0.0
 40
1.4868059000297349
 50
194.28273999999919
 51
243.61022000000099
  0
LINE
  5
18AEF
  8
AM_0
 10
-170.16244625676981
 20
749.70582098626176
 30
0.0
 11
-169.16244625674989
 21
749.70582098626176
 31
0.0
  0
LINE
  5
18AF0
  8
0
  6
CONTINUOUS
 62
     7
 10
-168.16244625656989
 20
743.98581155784734
 30
0.0
 11
-160.16244625656989
 21
743.98581155784734
 31
0.0
  0
LINE
  5
18AF1
  8
AM_0
 10
-174.822426256863
 20
742.84583098612461
 30
0.0
 11
-175.3424362568731
 21
742.84583098612461
 31
0.0
  0
LINE
  5
18AF2
  8
AM_0
 10
-175.3424362568731
 20
753.18583098633133
 30
0.0
 11
-172.76242625682161
 21
753.18583098633133
 31
0.0
  0
LINE
  5
18AF3
  8
AM_0
 10
-172.76242625682161
 20
751.70582098630177
 30
0.0
 11
-172.76242625682161
 21
755.30582098637365
 31
0.0
  0
LINE
  5
18AF4
  8
AM_0
 10
-170.16244625676981
 20
757.0058209864078
 30
0.0
 11
-171.06244625678769
 21
757.0058209864078
 31
0.0
  0
LINE
  5
18AF5
  8
AM_0
 10
-170.16244625676981
 20
750.0058309862676
 30
0.0
 11
-171.06244625678769
 21
750.0058309862676
 31
0.0
  0
ARC
  5
18AF6
  8
AM_0
 10
-171.06244625678769
 20
751.70582098630177
 30
0.0
 40
1.6999969000339989
 50
180.000020000002
 51
269.99999700000228
  0
LINE
  5
18AF7
  8
AM_0
 10
-174.822426256863
 20
740.84583098608437
 30
0.0
 11
-175.3424362568731
 21
740.84583098608437
 31
0.0
  0
ARC
  5
18AF8
  8
AM_0
 10
-171.1476602226243
 20
731.87091098590486
 30
0.0
 40
1.465000400029298
 50
270.0
 51
89.999997000002296
  0
ARC
  5
18AF9
  8
AM_0
 10
-172.2376602226461
 20
731.8458909859047
 30
0.0
 40
1.0000032000200001
 50
270.0
 51
89.999997000002296
  0
LINE
  5
18AFA
  8
AM_0
 10
-171.34243625679341
 20
740.21583098607198
 30
0.0
 11
-175.3424362568731
 21
740.21583098607198
 31
0.0
  0
ARC
  5
18AFB
  8
AM_0
 10
-189.66244625715979
 20
733.84583098594453
 30
0.0
 40
1.00000000002
 50
180.0
 51
270.0
1001
GENIUS_GENOBJ-N-FIL_13
1002
{
1000
OWNER
1000
GEN
1002
}
1001
GENIUS_GENODEF_13
1002
{
1000
HIER
1070
     0
1002
}
1002
{
1000
MANEDIT
1070
     0
1002
}
1002
{
1000
NOSEL
1070
     0
1002
}
1002
{
1000
BEHIND
1070
     0
1002
}
1002
{
1000
OTHER
1070
     0
1002
}
1002
{
1000
REACTOR
1002
}
  0
ARC
  5
18AFC
  8
AM_0
 10
-189.66244625715979
 20
739.21583098605186
 30
0.0
 40
1.00000000002
 50
90.0
 51
180.0
1001
GENIUS_GENOBJ-N-FIL_13
1002
{
1000
OWNER
1000
GEN
1002
}
1001
GENIUS_GENODEF_13
1002
{
1000
HIER
1070
     0
1002
}
1002
{
1000
MANEDIT
1070
     0
1002
}
1002
{
1000
NOSEL
1070
     0
1002
}
1002
{
1000
BEHIND
1070
     0
1002
}
1002
{
1000
OTHER
1070
     0
1002
}
1002
{
1000
REACTOR
1002
}
  0
LINE
  5
18AFD
  8
AM_0
 10
-190.6624462571796
 20
733.84583098594453
 30
0.0
 11
-190.6624462571796
 21
739.21583098605186
 31
0.0
  0
CIRCLE
  5
18AFE
  8
AM_0
 10
-200.6624462573798
 20
735.3458609859747
 30
0.0
 40
0.750000000015
  0
CIRCLE
  5
18AFF
  8
AM_0
 10
-195.6624462572797
 20
735.3458609859747
 30
0.0
 40
0.750000000015
  0
LINE
  5
18B00
  8
AM_0
 10
-175.3424362568733
 20
673.47589098473713
 30
0.0
 11
-189.6624462571599
 21
673.47589098473713
 31
0.0
  0
LINE
  5
18B01
  8
AM_0
 10
-172.23766017028609
 20
680.84589098488448
 30
0.0
 11
-189.6624462571599
 21
680.84589098488448
 31
0.0
  0
LINE
  5
18B02
  8
AM_0
 10
-190.5226147289894
 20
680.35590098487467
 30
0.0
 11
-171.16393486240099
 21
680.35590098487467
 31
0.0
  0
LINE
  5
18B03
  8
AM_0
 10
-174.82242625686311
 20
670.8458909846845
 30
0.0
 11
-175.3424362568733
 21
670.8458909846845
 31
0.0
  0
LINE
  5
18B04
  8
AM_0
 10
-174.82242625686311
 20
672.84589098472452
 30
0.0
 11
-175.3424362568733
 21
672.84589098472452
 31
0.0
  0
ARC
  5
18B05
  8
AM_0
 10
-174.82242625686311
 20
671.84589098470428
 30
0.0
 40
1.0000074000200001
 50
270.0
 51
90.00000299999769
  0
ARC
  5
18B06
  8
AM_0
 10
-171.14766022262441
 20
681.82081098490403
 30
0.0
 40
1.465000400029298
 50
270.00000299999761
 51
90.0
  0
ARC
  5
18B07
  8
AM_0
 10
-172.23766022264621
 20
681.84583098490452
 30
0.0
 40
1.0000032000200001
 50
270.00000299999761
 51
90.0
  0
LINE
  5
18B08
  8
AM_0
 10
-171.34243625679349
 20
673.47589098473713
 30
0.0
 11
-175.3424362568733
 21
673.47589098473713
 31
0.0
  0
LINE
  5
18B09
  8
AM_0
 10
-190.66244625717979
 20
679.8458909848647
 30
0.0
 11
-190.66244625717979
 21
674.47589098475714
 31
0.0
  0
ARC
  5
18B0A
  8
AM_0
 10
-189.6624462571599
 20
679.8458909848647
 30
0.0
 40
1.00000000002
 50
90.0
 51
180.0
1001
GENIUS_GENOBJ-N-FIL_13
1002
{
1000
OWNER
1000
GEN
1002
}
1001
GENIUS_GENODEF_13
1002
{
1000
HIER
1070
     0
1002
}
1002
{
1000
MANEDIT
1070
     0
1002
}
1002
{
1000
NOSEL
1070
     0
1002
}
1002
{
1000
BEHIND
1070
     0
1002
}
1002
{
1000
OTHER
1070
     0
1002
}
1002
{
1000
REACTOR
1002
}
  0
ARC
  5
18B0B
  8
AM_0
 10
-189.6624462571599
 20
674.47589098475714
 30
0.0
 40
1.00000000002
 50
180.0
 51
270.0
1001
GENIUS_GENOBJ-N-FIL_13
1002
{
1000
OWNER
1000
GEN
1002
}
1001
GENIUS_GENODEF_13
1002
{
1000
HIER
1070
     0
1002
}
1002
{
1000
MANEDIT
1070
     0
1002
}
1002
{
1000
NOSEL
1070
     0
1002
}
1002
{
1000
BEHIND
1070
     0
1002
}
1002
{
1000
OTHER
1070
     0
1002
}
1002
{
1000
REACTOR
1002
}
  0
CIRCLE
  5
18B0C
  8
AM_0
 10
-200.66244625737991
 20
678.34586098483464
 30
0.0
 40
0.750000000015
  0
CIRCLE
  5
18B0D
  8
AM_0
 10
-195.6624462572799
 20
678.34586098483464
 30
0.0
 40
0.750000000015
  0
LINE
  5
18B0E
  8
AM_0
 10
-290.16244625917
 20
768.70591098664204
 30
0.0
 11
-235.16244625806979
 21
768.70591098664158
 31
0.0
  0
LINE
  5
18B0F
  8
AM_0
 10
-268.1624462587298
 20
753.19590098633148
 30
0.0
 11
-235.16244625806979
 21
753.19590098633148
 31
0.0
  0
LINE
  5
18B10
  8
AM_0
 10
-206.66244625749979
 20
740.21583098607198
 30
0.0
 11
-235.16244625806979
 21
740.21583098607198
 31
0.0
  0
ARC
  5
18B11
  8
AM_0
 10
-206.66244625749979
 20
733.84583098594453
 30
0.0
 40
1.00000000002
 50
270.0
 51
0.0000000000064748
1001
GENIUS_GENOBJ-N-FIL_13
1002
{
1000
OWNER
1000
GEN
1002
}
1001
GENIUS_GENODEF_13
1002
{
1000
HIER
1070
     0
1002
}
1002
{
1000
MANEDIT
1070
     0
1002
}
1002
{
1000
NOSEL
1070
     0
1002
}
1002
{
1000
BEHIND
1070
     0
1002
}
1002
{
1000
OTHER
1070
     0
1002
}
1002
{
1000
REACTOR
1002
}
  0
ARC
  5
18B12
  8
AM_0
 10
-206.66244625749979
 20
739.21583098605186
 30
0.0
 40
1.00000000002
 50
0.0
 51
90.0
1001
GENIUS_GENOBJ-N-FIL_13
1002
{
1000
OWNER
1000
GEN
1002
}
1001
GENIUS_GENODEF_13
1002
{
1000
HIER
1070
     0
1002
}
1002
{
1000
MANEDIT
1070
     0
1002
}
1002
{
1000
NOSEL
1070
     0
1002
}
1002
{
1000
BEHIND
1070
     0
1002
}
1002
{
1000
OTHER
1070
     0
1002
}
1002
{
1000
REACTOR
1002
}
  0
LINE
  5
18B13
  8
AM_0
 10
-205.6624462574799
 20
733.84583098594453
 30
0.0
 11
-205.6624462574799
 21
739.21583098605186
 31
0.0
  0
ARC
  5
18B14
  8
AM_0
 10
-237.71369958840529
 20
731.8458909859047
 30
0.0
 40
1.0000380000199991
 50
269.50071000000491
 51
90.499284000006355
  0
LINE
  5
18B15
  8
AM_0
 10
-290.16244625917
 20
772.76590098672284
 30
0.0
 11
-249.1624462583502
 21
772.76590098672284
 31
0.0
  0
LINE
  5
18B16
  8
AM_0
 10
-290.16244625917
 20
772.08591098670945
 30
0.0
 11
-249.1624462583502
 21
772.08591098670945
 31
0.0
  0
LINE
  5
18B17
  8
AM_0
 10
-290.16244625917
 20
770.73590098668228
 30
0.0
 11
-249.1624462583502
 21
770.73590098668228
 31
0.0
  0
LINE
  5
18B18
  8
AM_0
 10
-249.16244625835009
 20
780.34586098687487
 30
0.0
 11
-249.1624462583502
 21
768.70582098664215
 31
0.0
  0
ARC
  5
18B19
  8
AM_0
 10
-236.49240958838101
 20
721.85590098570458
 30
0.0
 40
1.3300010000266
 50
270.0
 51
89.999997000002296
  0
ARC
  5
18B1A
  8
AM_0
 10
-237.71369958840529
 20
721.84589098570427
 30
0.0
 40
1.0000380000199991
 50
269.50071000000491
 51
90.499284000006355
  0
ARC
  5
18B1B
  8
AM_0
 10
-236.4324195883797
 20
711.85089098550429
 30
0.0
 40
1.2650050000252999
 50
270.0
 51
89.999997000002296
  0
ARC
  5
18B1C
  8
AM_0
 10
-236.4324195883797
 20
701.84083098530459
 30
0.0
 40
1.2650050000252999
 50
270.00000299999761
 51
90.0
  0
ARC
  5
18B1D
  8
AM_0
 10
-237.71369958840529
 20
711.8458909855043
 30
0.0
 40
1.0000380000199991
 50
269.50071000000491
 51
90.499284000006355
  0
ARC
  5
18B1E
  8
AM_0
 10
-237.71369958840529
 20
701.84583098530459
 30
0.0
 40
1.0000380000199991
 50
269.50071599999359
 51
90.499289999995042
  0
LINE
  5
18B1F
  8
AM_0
 10
-206.66244625749991
 20
673.47589098473713
 30
0.0
 11
-235.16244625806991
 21
673.47589098473713
 31
0.0
  0
LINE
  5
18B20
  8
AM_0
 10
-205.66244625748001
 20
679.8458909848647
 30
0.0
 11
-205.66244625748001
 21
674.47589098475714
 31
0.0
  0
ARC
  5
18B21
  8
AM_0
 10
-206.66244625749991
 20
679.8458909848647
 30
0.0
 40
1.00000000002
 50
0.0
 51
90.0
1001
GENIUS_GENOBJ-N-FIL_13
1002
{
1000
OWNER
1000
GEN
1002
}
1001
GENIUS_GENODEF_13
1002
{
1000
HIER
1070
     0
1002
}
1002
{
1000
MANEDIT
1070
     0
1002
}
1002
{
1000
NOSEL
1070
     0
1002
}
1002
{
1000
BEHIND
1070
     0
1002
}
1002
{
1000
OTHER
1070
     0
1002
}
1002
{
1000
REACTOR
1002
}
  0
ARC
  5
18B22
  8
AM_0
 10
-206.66244625749991
 20
674.47589098475714
 30
0.0
 40
1.00000000002
 50
270.0
 51
0.0
1001
GENIUS_GENOBJ-N-FIL_13
1002
{
1000
OWNER
1000
GEN
1002
}
1001
GENIUS_GENODEF_13
1002
{
1000
HIER
1070
     0
1002
}
1002
{
1000
MANEDIT
1070
     0
1002
}
1002
{
1000
NOSEL
1070
     0
1002
}
1002
{
1000
BEHIND
1070
     0
1002
}
1002
{
1000
OTHER
1070
     0
1002
}
1002
{
1000
REACTOR
1002
}
  0
ARC
  5
18B23
  8
AM_0
 10
-236.49240958838101
 20
691.83582098510442
 30
0.0
 40
1.3300010000266
 50
270.00000299999761
 51
90.0
  0
ARC
  5
18B24
  8
AM_0
 10
-237.71369958840529
 20
691.84583098510473
 30
0.0
 40
1.0000380000199991
 50
269.50071599999359
 51
90.499289999995042
  0
ARC
  5
18B25
  8
AM_0
 10
-237.71369958840529
 20
681.84589101549955
 30
0.0
 40
1.0000380000199991
 50
269.50071599999359
 51
90.499289999995042
  0
LINE
  5
18B26
  8
AM_0
 10
-321.16244625978982
 20
754.86551098636505
 30
0.0
 11
-321.16244625978999
 21
711.84589098550464
 31
0.0
  0
LINE
  5
18B27
  8
AM_0
 10
-309.44241625955539
 20
755.19593098637165
 30
0.0
 11
-308.90240625954459
 21
758.18592098643137
 31
0.0
  0
LINE
  5
18B28
  8
AM_0
 10
-315.16244625966988
 20
764.22627868440816
 30
0.0
 11
-310.34243625957322
 21
764.34589098655454
 31
0.0
  0
LINE
  5
18B29
  8
AM_0
 10
-306.99243625950641
 20
765.11591098656993
 30
0.0
 11
-293.6624462592398
 21
765.11591098656993
 31
0.0
  0
LINE
  5
18B2A
  8
AM_0
 10
-306.93243625950532
 20
759.82590098646415
 30
0.0
 11
-293.6624462592398
 21
759.82590098646415
 31
0.0
  0
LINE
  5
18B2B
  8
AM_0
 10
-307.02243625950712
 20
768.51590098663814
 30
0.0
 11
-293.6624462592398
 21
768.51590098663814
 31
0.0
  0
LINE
  5
18B2C
  8
AM_0
 10
-307.05243625950749
 20
770.14591098667063
 30
0.0
 11
-293.5524362592376
 21
770.14591098667063
 31
0.0
  0
LINE
  5
18B2D
  8
AM_0
 10
-292.16244625920979
 20
768.73590098664226
 30
0.0
 11
-292.16244625920979
 21
761.32590098649416
 31
0.0
  0
ARC
  5
18B2E
  8
AM_0
 10
-293.66421625923988
 20
766.61771098659995
 30
0.0
 40
1.501797900030035
 50
270.06854999999888
 51
359.93145000000112
  0
ARC
  5
18B2F
  8
AM_0
 10
-293.54879625923752
 20
771.65277098670072
 30
0.0
 40
1.5068883000301361
 50
269.8622299999995
 51
345.12307000000158
  0
ARC
  5
18B30
  8
AM_0
 10
-293.66626625923982
 20
770.01975098666787
 30
0.0
 40
1.5038475000300759
 50
270.14639999999002
 51
359.8536000000035
  0
ARC
  5
18B31
  8
AM_0
 10
-293.66809625923992
 20
761.33158098649415
 30
0.0
 40
1.505674500030113
 50
270.21551999999241
 51
359.78447000000102
  0
LINE
  5
18B32
  8
AM_0
 10
-311.37243625959411
 20
757.88590098642521
 30
0.0
 11
-308.95242625954558
 21
757.88590098642521
 31
0.0
  0
ARC
  5
18B33
  8
AM_0
 10
-311.37121625959401
 20
759.39005098645544
 30
0.0
 40
1.504139800030081
 50
269.95425000000512
 51
347.5552499999967
  0
ARC
  5
18B34
  8
AM_0
 10
-306.94058625950549
 20
757.8324909864242
 30
0.0
 40
1.9934334000398679
 50
89.765884000005741
 51
169.78803000000019
  0
ARC
  5
18B35
  8
AM_0
 10
-311.35324625959367
 20
763.44870098653666
 30
0.0
 40
1.502808100030055
 50
270.03078999999502
 51
346.42217999999752
  0
ARC
  5
18B36
  8
AM_0
 10
-311.33413625959321
 20
765.47300098657718
 30
0.0
 40
1.5070969000301411
 50
270.0648200000017
 51
345.90218000000323
  0
LINE
  5
18B37
  8
AM_0
 10
-311.33243625959301
 20
763.96588098654695
 30
0.0
 11
-309.68243625956018
 21
763.96588098654695
 31
0.0
  0
LINE
  5
18B38
  8
AM_0
 10
-311.35241625959372
 20
761.94590098650656
 30
0.0
 11
-309.29242625955243
 21
761.94590098650656
 31
0.0
  0
ARC
  5
18B39
  8
AM_0
 10
-306.99075625950638
 20
763.12052098652975
 30
0.0
 40
1.9953895000399069
 50
90.048066999991221
 51
167.98461999999989
  0
ARC
  5
18B3A
  8
AM_0
 10
-307.02963625950707
 20
766.52042098659797
 30
0.0
 40
1.9954823000399089
 50
89.79345799999912
 51
166.80592000000149
  0
LINE
  5
18B3B
  8
AM_0
 10
-308.97241625954609
 20
766.97589098660706
 30
0.0
 11
-309.89242625956427
 21
763.09589098652964
 31
0.0
  0
LINE
  5
18B3C
  8
AM_0
 10
-308.9924062595465
 20
768.63590098664031
 30
0.0
 11
-309.872406259564
 21
765.10590098656985
 31
0.0
  0
ARC
  5
18B3D
  8
AM_0
 10
-307.0551162595076
 20
768.14810098663054
 30
0.0
 40
1.9977812000399551
 50
89.923080999997737
 51
165.8677699999968
  0
LINE
  5
18B3E
  8
AM_0
 10
-308.94241625954533
 20
763.53589098653822
 30
0.0
 11
-309.90243625956458
 21
759.06589098644884
 31
0.0
  0
LINE
  5
18B3F
  8
AM_0
 10
-315.16244625966988
 20
741.15589098609075
 30
0.0
 11
-305.16244625946979
 21
741.15589098609075
 31
0.0
  0
LINE
  5
18B40
  8
AM_0
 10
-315.16244625966988
 20
749.53589098625855
 30
0.0
 11
-305.16244625946979
 21
749.53589098625855
 31
0.0
  0
LINE
  5
18B41
  8
AM_0
 10
-315.16244625966988
 20
755.1959009863715
 30
0.0
 11
-305.16244625946979
 21
755.1959009863715
 31
0.0
  0
ARC
  5
18B42
  8
AM_0
 10
-299.48242625935632
 20
741.89090098610563
 30
0.0
 40
1.6750063000334989
 50
90.00000299999769
 51
270.0
  0
ARC
  5
18B43
  8
AM_0
 10
-298.61242625933897
 20
741.84589098610479
 30
0.0
 40
1.0000032000200001
 50
90.00000299999769
 51
270.0
  0
LINE
  5
18B44
  8
AM_0
 10
-305.16244625946979
 20
755.1959009863715
 30
0.0
 11
-305.16244625946979
 21
741.15589098609075
 31
0.0
  0
ARC
  5
18B45
  8
AM_0
 10
-305.54123625947722
 20
744.51395098615774
 30
0.0
 40
6.0039072001200786
 50
45.223693000009952
 51
86.382714000002125
  0
ARC
  5
18B46
  8
AM_0
 10
-305.99746625948637
 20
748.4436709862365
 30
0.0
 40
5.0078936001001573
 50
279.59871999999422
 51
354.52532000000059
  0
LINE
  5
18B47
  8
AM_0
 10
-292.16244625920979
 20
744.08591098614943
 30
0.0
 11
-292.16244625920979
 21
744.01590098614793
 31
0.0
  0
ARC
  5
18B48
  8
AM_0
 10
-302.01251625940688
 20
748.056060986229
 30
0.0
 40
1.004136700020082
 50
354.84883999999568
 51
45.797436000000829
  0
ARC
  5
18B49
  8
AM_0
 10
-299.70242625936061
 20
731.87091098590486
 30
0.0
 40
1.465000400029298
 50
90.00000299999769
 51
270.0
  0
ARC
  5
18B4A
  8
AM_0
 10
-298.6124262593392
 20
731.8458909859047
 30
0.0
 40
1.0000032000200001
 50
90.00000299999769
 51
270.0
  0
LINE
  5
18B4B
  8
AM_0
 10
-318.9024362597446
 20
753.34589098633455
 30
0.0
 11
-316.16244625968977
 21
753.34589098633455
 31
0.0
  0
LINE
  5
18B4C
  8
AM_0
 10
-319.38244625975432
 20
753.22589098633227
 30
0.0
 11
-320.62243625977919
 21
752.56592098631893
 31
0.0
  0
ARC
  5
18B4D
  8
AM_0
 10
-320.16345625976999
 20
752.70044098632161
 30
0.0
 40
0.99898326001998
 50
119.9653599999962
 51
179.68761000000089
  0
ARC
  5
18B4E
  8
AM_0
 10
-320.15744625976959
 20
751.67487098630113
 30
0.0
 40
1.0050608000201
 50
117.5588099999953
 51
179.37160000000111
  0
LINE
  5
18B4F
  8
AM_0
 10
-319.38244625975432
 20
754.34592098635471
 30
0.0
 11
-320.6624462597797
 21
753.56592098633894
 31
0.0
  0
LINE
  5
18B50
  8
AM_0
 10
-319.1624462597498
 20
754.2258909863524
 30
0.0
 11
-319.1624462597498
 21
753.68589098634152
 31
0.0
  0
ARC
  5
18B51
  8
AM_0
 10
-318.86892625974389
 20
753.47480098633707
 30
0.0
 40
1.011208500020224
 50
90.765686999992624
 51
120.51881000001261
  0
ARC
  5
18B52
  8
AM_0
 10
-318.90414625974461
 20
752.33271098631405
 30
0.0
 40
1.0131912000202621
 50
89.903723999998817
 51
118.1687600000009
  0
ARC
  5
18B53
  8
AM_0
 10
-320.15527625976949
 20
754.85572098636464
 30
0.0
 40
1.007194200020143
 50
120.2334199999983
 51
180.55767999999989
  0
LINE
  5
18B54
  8
AM_0
 10
-319.36242625975382
 20
755.32590098637422
 30
0.0
 11
-320.6024462597785
 21
754.70591098636169
 31
0.0
  0
LINE
  5
18B55
  8
AM_0
 10
-319.38241625975439
 20
756.44590098639651
 30
0.0
 11
-320.66241625977977
 21
755.72589098638184
 31
0.0
  0
LINE
  5
18B56
  8
AM_0
 10
-319.1624462597498
 20
756.32590098639423
 30
0.0
 11
-319.1624462597498
 21
755.80591098638376
 31
0.0
  0
ARC
  5
18B57
  8
AM_0
 10
-318.8715562597439
 20
755.58414098637934
 30
0.0
 40
1.001808000020036
 50
90.622819999990867
 51
120.66166999999621
  0
ARC
  5
18B58
  8
AM_0
 10
-318.88485625974442
 20
754.44147098635653
 30
0.0
 40
1.005138300020102
 50
92.142290999990934
 51
118.3679399999962
  0
ARC
  5
18B59
  8
AM_0
 10
-320.15939625976978
 20
753.80600098634363
 30
0.0
 40
1.0030519000200611
 50
116.2126500000093
 51
180.00576999999771
  0
LINE
  5
18B5A
  8
AM_0
 10
-318.8824462597442
 20
748.82590098624405
 30
0.0
 11
-316.16244625968977
 21
748.82590098624405
 31
0.0
  0
ARC
  5
18B5B
  8
AM_0
 10
-320.16070625976982
 20
748.10327098622975
 30
0.0
 40
1.001733900020034
 50
122.7376300000041
 51
179.85046000000261
  0
LINE
  5
18B5C
  8
AM_0
 10
-319.40243625975472
 20
749.80591098626371
 30
0.0
 11
-320.70245625978072
 21
748.94593098624659
 31
0.0
  0
LINE
  5
18B5D
  8
AM_0
 10
-319.1624462597498
 20
749.66590098626057
 30
0.0
 11
-319.1624462597498
 21
749.18589098625125
 31
0.0
  0
LINE
  5
18B5E
  8
AM_0
 10
-319.38241625975439
 20
748.68589098624125
 30
0.0
 11
-320.66241625977977
 21
747.94586098622653
 31
0.0
  0
ARC
  5
18B5F
  8
AM_0
 10
-318.85678625974373
 20
748.95560098624685
 30
0.0
 40
1.010318000020205
 50
90.320139999994851
 51
122.68858000000679
  0
ARC
  5
18B60
  8
AM_0
 10
-318.870186259744
 20
747.81925098622401
 30
0.0
 40
1.0067360000201351
 50
90.698060999998489
 51
120.5864300000015
  0
ARC
  5
18B61
  8
AM_0
 10
-320.15689625976972
 20
747.07663098620935
 30
0.0
 40
1.00559290002011
 50
120.1813300000077
 51
179.4716200000012
  0
LINE
  5
18B62
  8
AM_0
 10
-318.8824462597442
 20
754.48590098635725
 30
0.0
 11
-315.16244625966988
 21
754.48590098635725
 31
0.0
  0
ARC
  5
18B63
  8
AM_0
 10
-316.16949625968982
 20
752.33884098631438
 30
0.0
 40
1.0070832000201411
 50
0.4015779800008091
 51
89.598422000001335
  0
LINE
  5
18B64
  8
AM_0
 10
-318.92242625974512
 20
755.4459009863765
 30
0.0
 11
-315.66244625967971
 21
755.4459009863765
 31
0.0
  0
LINE
  5
18B65
  8
AM_0
 10
-318.8824462597442
 20
756.5859109863992
 30
0.0
 11
-315.66244625967971
 21
756.5859109863992
 31
0.0
  0
LINE
  5
18B66
  8
AM_0
 10
-318.86242625974393
 20
749.96588098626694
 30
0.0
 11
-315.16244625966988
 21
749.96588098626694
 31
0.0
  0
ARC
  5
18B67
  8
AM_0
 10
-316.16784625969001
 20
747.82050098622415
 30
0.0
 40
1.005422700020107
 50
0.308192380002108
 51
89.691811000006027
  0
LINE
  5
18B68
  8
AM_0
 10
-316.16244625968989
 20
730.84589098588447
 30
0.0
 11
-320.16244625976969
 21
730.84589098588447
 31
0.0
  0
ARC
  5
18B69
  8
AM_0
 10
-320.17022625977
 20
731.83808098590418
 30
0.0
 40
0.9922232600198446
 50
179.5491599999971
 51
270.45085000000739
  0
ARC
  5
18B6A
  8
AM_0
 10
-316.17032625969
 20
729.83802098586443
 30
0.0
 40
1.007920400020158
 50
0.4484899600013481
 51
89.551511999995284
  0
LINE
  5
18B6B
  8
AM_0
 10
-316.16244625968989
 20
732.8458909859246
 30
0.0
 11
-320.16244625976969
 21
732.8458909859246
 31
0.0
  0
ARC
  5
18B6C
  8
AM_0
 10
-320.1579962597699
 20
739.22257098605223
 30
0.0
 40
1.0044501000200889
 50
106.4503499999965
 51
179.8098500000001
  0
LINE
  5
18B6D
  8
AM_0
 10
-319.00244625974648
 20
740.58591098607917
 30
0.0
 11
-316.16244625968977
 21
740.58591098607917
 31
0.0
  0
ARC
  5
18B6E
  8
AM_0
 10
-320.1629062597699
 20
741.00122098608779
 30
0.0
 40
0.999532700019991
 50
112.3150500000007
 51
179.73186999999979
  0
LINE
  5
18B6F
  8
AM_0
 10
-319.3424362597533
 20
742.44590098611661
 30
0.0
 11
-320.54242625977753
 21
741.92591098610615
 31
0.0
  0
LINE
  5
18B70
  8
AM_0
 10
-319.1624462597498
 20
742.22589098611206
 30
0.0
 11
-319.1624462597498
 21
741.16590098609129
 31
0.0
  0
ARC
  5
18B71
  8
AM_0
 10
-319.01977625974712
 20
739.57090098605886
 30
0.0
 40
1.015145100020302
 50
89.021618999999077
 51
106.1676700000051
  0
LINE
  5
18B72
  8
AM_0
 10
-319.30243625975243
 20
740.54590098607844
 30
0.0
 11
-320.44244625977552
 21
740.18592098607144
 31
0.0
  0
ARC
  5
18B73
  8
AM_0
 10
-318.94919625974569
 20
741.51969098609823
 30
0.0
 40
1.006237100020124
 50
89.615244000002406
 51
113.0046199999999
  0
ARC
  5
18B74
  8
AM_0
 10
-316.15341625968949
 20
733.83686098594421
 30
0.0
 40
0.9910124500198204
 50
269.47800000000427
 51
0.5220023800002595
  0
ARC
  5
18B75
  8
AM_0
 10
-316.16873625969009
 20
739.57959098605897
 30
0.0
 40
1.0063295000201249
 50
0.3592537600038437
 51
89.640748000001025
  0
LINE
  5
18B76
  8
AM_0
 10
-318.94244625974528
 20
742.52591098611833
 30
0.0
 11
-315.86242625968367
 21
742.52591098611833
 31
0.0
  0
LINE
  5
18B77
  8
AM_0
 10
-319.1624462597498
 20
732.46588098591667
 30
0.0
 11
-319.1624462597498
 21
731.10590098588966
 31
0.0
  0
ARC
  5
18B78
  8
AM_0
 10
-320.15335625976968
 20
731.83680098590423
 30
0.0
 40
1.0091312000201811
 50
90.516126000000995
 51
179.48387000000039
  0
LINE
  5
18B79
  8
AM_0
 10
-323.65634625983972
 20
722.06775098570893
 30
0.0
 11
-323.65634625983972
 21
691.62412098510015
 31
0.0
  0
LINE
  5
18B7A
  8
AM_0
 10
-322.66244625981972
 20
686.84589098500419
 30
0.0
 11
-322.66244625981972
 21
726.84589098580443
 31
0.0
  0
ARC
  5
18B7B
  8
AM_0
 10
-308.8324362595431
 20
721.85590098570458
 30
0.0
 40
1.3300010000266
 50
90.00000299999769
 51
270.0
  0
ARC
  5
18B7C
  8
AM_0
 10
-307.61114625951882
 20
721.84589098570484
 30
0.0
 40
1.0000380000199991
 50
89.500715999993616
 51
270.49928999999509
  0
ARC
  5
18B7D
  8
AM_0
 10
-307.6024162595188
 20
701.84589098530455
 30
0.0
 40
1.0000124000199999
 50
90.00000299999769
 51
270.0
  0
ARC
  5
18B7E
  8
AM_0
 10
-308.89242625954472
 20
711.85089098550475
 30
0.0
 40
1.2650050000252999
 50
90.00000299999769
 51
270.0
  0
ARC
  5
18B7F
  8
AM_0
 10
-307.61114625951882
 20
711.84589098550464
 30
0.0
 40
1.0000380000199991
 50
89.500715999993616
 51
270.49928999999509
  0
ARC
  5
18B80
  8
AM_0
 10
-308.89230625954451
 20
701.85590098530474
 30
0.0
 40
1.270038400025399
 50
89.554810999993279
 51
270.44519000000571
  0
ARC
  5
18B81
  8
AM_0
 10
-316.15341625968949
 20
713.83686098554449
 30
0.0
 40
0.9910124500198204
 50
269.47800000000427
 51
0.5220023800002595
  0
LINE
  5
18B82
  8
AM_0
 10
-322.66244625981972
 20
726.84592098580436
 30
0.0
 11
-321.16244625978999
 21
726.9659209858072
 31
0.0
  0
LINE
  5
18B83
  8
AM_0
 10
-323.65634625983972
 20
722.06772098570912
 30
0.0
 11
-323.1563462598296
 21
724.83771098576449
 31
0.0
  0
LINE
  5
18B84
  8
AM_0
 10
-323.1563462598296
 20
724.83771098576449
 30
0.0
 11
-322.65631625982002
 21
724.79770098576353
 31
0.0
  0
LINE
  5
18B85
  8
AM_0
 10
-316.16244625968989
 20
720.84589098568449
 30
0.0
 11
-320.16244625976969
 21
720.84589098568449
 31
0.0
  0
ARC
  5
18B86
  8
AM_0
 10
-320.17022625977
 20
721.83808098570432
 30
0.0
 40
0.9922232600198446
 50
179.5491599999971
 51
270.45085000000739
  0
LINE
  5
18B87
  8
AM_0
 10
-316.16244625968989
 20
722.84589098572474
 30
0.0
 11
-320.16244625976969
 21
722.84589098572474
 31
0.0
  0
ARC
  5
18B88
  8
AM_0
 10
-320.15335625976968
 20
721.83680098570414
 30
0.0
 40
1.0091312000201811
 50
90.516126000000995
 51
179.48387000000039
  0
LINE
  5
18B89
  8
AM_0
 10
-319.1624462597498
 20
722.44590098571666
 30
0.0
 11
-319.1624462597498
 21
721.22589098569188
 31
0.0
  0
ARC
  5
18B8A
  8
AM_0
 10
-316.17032625969
 20
719.83802098566423
 30
0.0
 40
1.007920400020158
 50
0.4484899600013481
 51
89.551511999995284
  0
ARC
  5
18B8B
  8
AM_0
 10
-316.15341625968949
 20
723.83686098574435
 30
0.0
 40
0.9910124500198204
 50
269.47800000000427
 51
0.5220023800002595
  0
LINE
  5
18B8C
  8
AM_0
 10
-316.16244625968989
 20
700.84589098528443
 30
0.0
 11
-320.16244625976969
 21
700.84589098528443
 31
0.0
  0
LINE
  5
18B8D
  8
AM_0
 10
-316.16244625968989
 20
702.84589098532444
 30
0.0
 11
-320.16244625976969
 21
702.84589098532444
 31
0.0
  0
ARC
  5
18B8E
  8
AM_0
 10
-320.15335625976968
 20
701.85498098530456
 30
0.0
 40
1.0091312000201811
 50
180.51612999999961
 51
269.48387000000042
  0
LINE
  5
18B8F
  8
AM_0
 10
-319.1624462597498
 20
701.24591098529265
 30
0.0
 11
-319.1624462597498
 21
702.40589098531586
 31
0.0
  0
ARC
  5
18B90
  8
AM_0
 10
-316.15341625968949
 20
699.85492098526458
 30
0.0
 40
0.9910124500198204
 50
359.47800000000427
 51
90.521999999995629
  0
POINT
  5
18B91
  8
AM_0
 10
-323.65634625983972
 20
706.84589098540459
 30
0.0
  0
LINE
  5
18B92
  8
AM_0
 10
-316.16244625968989
 20
710.84589098548463
 30
0.0
 11
-320.16244625976969
 21
710.84589098548463
 31
0.0
  0
LINE
  5
18B93
  8
AM_0
 10
-316.16244625968989
 20
712.84589098552465
 30
0.0
 11
-320.16244625976969
 21
712.84589098552465
 31
0.0
  0
ARC
  5
18B94
  8
AM_0
 10
-320.15335625976968
 20
711.83680098550406
 30
0.0
 40
1.0091312000201811
 50
90.516126000000995
 51
179.48387000000039
  0
LINE
  5
18B95
  8
AM_0
 10
-319.1624462597498
 20
712.44590098551635
 30
0.0
 11
-319.1624462597498
 21
711.28589098549332
 31
0.0
  0
ARC
  5
18B96
  8
AM_0
 10
-320.17022625977
 20
711.83808098550435
 30
0.0
 40
0.9922232600198446
 50
179.5491599999971
 51
270.45085000000739
  0
ARC
  5
18B97
  8
AM_0
 10
-316.17032625969
 20
709.83802098546425
 30
0.0
 40
1.007920400020158
 50
0.4484899600013481
 51
89.551511999995284
  0
ARC
  5
18B98
  8
AM_0
 10
-320.17022625977
 20
701.85370098530461
 30
0.0
 40
0.9922232600198446
 50
89.549155000004603
 51
180.4508500000008
  0
ARC
  5
18B99
  8
AM_0
 10
-316.17032625969
 20
703.85379098534474
 30
0.0
 40
1.007920400020158
 50
270.44848999999061
 51
359.55151000000279
  0
ARC
  5
18B9A
  8
AM_0
 10
-307.6024162595188
 20
691.84589098510435
 30
0.0
 40
1.0000124000199999
 50
90.00000299999769
 51
270.0
  0
ARC
  5
18B9B
  8
AM_0
 10
-308.8302962595431
 20
691.83591098510442
 30
0.0
 40
1.3300232000265999
 50
89.661532000007227
 51
270.33848000001052
  0
LINE
  5
18B9C
  8
AM_0
 10
-313.16244625962992
 20
672.54590098471851
 30
0.0
 11
-309.98242625956641
 21
672.54590098471851
 31
0.0
  0
ARC
  5
18B9D
  8
AM_0
 10
-307.61123625951882
 20
671.84589098470462
 30
0.0
 40
1.0000387000199991
 50
89.495668000005111
 51
270.50434000000331
  0
ARC
  5
18B9E
  8
AM_0
 10
-307.61123625951882
 20
681.8458909849046
 30
0.0
 40
1.0000387000199991
 50
89.495668000005111
 51
270.50434000000331
  0
ARC
  5
18B9F
  8
AM_0
 10
-308.69973625954049
 20
681.82590098490414
 30
0.0
 40
1.460102600029201
 50
89.321006999995404
 51
270.67900000000441
  0
LINE
  5
18BA0
  8
AM_0
 10
-322.66244625981972
 20
686.84589098500419
 30
0.0
 11
-321.16244625978999
 21
686.72589098500225
 31
0.0
  0
LINE
  5
18BA1
  8
AM_0
 10
-323.65634625983972
 20
691.62412098510015
 30
0.0
 11
-323.1563462598296
 21
688.85410098504474
 31
0.0
  0
LINE
  5
18BA2
  8
AM_0
 10
-323.1563462598296
 20
688.85410098504474
 30
0.0
 11
-322.65634625981971
 21
688.89411098504536
 31
0.0
  0
LINE
  5
18BA3
  8
AM_0
 10
-316.16244625968989
 20
692.84589098512447
 30
0.0
 11
-320.16244625976969
 21
692.84589098512447
 31
0.0
  0
LINE
  5
18BA4
  8
AM_0
 10
-316.16244625968989
 20
690.84589098508434
 30
0.0
 11
-320.16244625976969
 21
690.84589098508434
 31
0.0
  0
ARC
  5
18BA5
  8
AM_0
 10
-320.15335625976968
 20
691.85498098510482
 30
0.0
 40
1.0091312000201811
 50
180.51612999999961
 51
269.48387000000042
  0
ARC
  5
18BA6
  8
AM_0
 10
-320.17022625977
 20
691.85370098510452
 30
0.0
 40
0.9922232600198446
 50
89.549155000004603
 51
180.4508500000008
  0
LINE
  5
18BA7
  8
AM_0
 10
-319.1624462597498
 20
691.24591098509245
 30
0.0
 11
-319.1624462597498
 21
692.46588098511688
 31
0.0
  0
ARC
  5
18BA8
  8
AM_0
 10
-316.15341625968949
 20
689.85492098506472
 30
0.0
 40
0.9910124500198204
 50
359.47800000000427
 51
90.521999999995629
  0
ARC
  5
18BA9
  8
AM_0
 10
-316.17032625969
 20
693.85379098514454
 30
0.0
 40
1.007920400020158
 50
270.44848999999061
 51
359.55151000000279
  0
ARC
  5
18BAA
  8
AM_0
 10
-318.9491962597458
 20
672.17212098471089
 30
0.0
 40
1.006237100020124
 50
246.99538000000001
 51
270.38476000000219
  0
LINE
  5
18BAB
  8
AM_0
 10
-319.0024462597467
 20
673.10590098472971
 30
0.0
 11
-316.16244625968989
 21
673.10590098472971
 31
0.0
  0
ARC
  5
18BAC
  8
AM_0
 10
-320.1629062597699
 20
672.69059098472155
 30
0.0
 40
0.999532700019991
 50
180.26813000000021
 51
247.6849499999993
  0
LINE
  5
18BAD
  8
AM_0
 10
-319.30246625975269
 20
673.14591098473079
 30
0.0
 11
-320.44244625977558
 21
673.50592098473783
 31
0.0
  0
ARC
  5
18BAE
  8
AM_0
 10
-319.01977625974718
 20
674.12088098474976
 30
0.0
 40
1.015145100020302
 50
253.83232999999481
 51
270.97837999999052
  0
LINE
  5
18BAF
  8
AM_0
 10
-319.34243625975341
 20
671.24591098469261
 30
0.0
 11
-320.5424262597777
 21
671.76590098470297
 31
0.0
  0
LINE
  5
18BB0
  8
AM_0
 10
-319.1624462597498
 20
671.46588098469704
 30
0.0
 11
-319.1624462597498
 21
672.52591098471805
 31
0.0
  0
ARC
  5
18BB1
  8
AM_0
 10
-315.8580062596838
 20
670.47034098467702
 30
0.0
 40
0.6955789300139117
 50
359.63466000000051
 51
90.365336000010188
  0
LINE
  5
18BB2
  8
AM_0
 10
-318.94244625974528
 20
671.16590098469089
 30
0.0
 11
-315.8624262596839
 21
671.16590098469089
 31
0.0
  0
LINE
  5
18BB3
  8
AM_0
 10
-316.16244625968989
 20
680.84589098488448
 30
0.0
 11
-320.16244625976969
 21
680.84589098488448
 31
0.0
  0
ARC
  5
18BB4
  8
AM_0
 10
-320.15335625976968
 20
681.85498098490484
 30
0.0
 40
1.0091312000201811
 50
180.51612999999961
 51
269.48387000000042
  0
LINE
  5
18BB5
  8
AM_0
 10
-316.16244625968989
 20
682.84589098492438
 30
0.0
 11
-320.16244625976969
 21
682.84589098492438
 31
0.0
  0
ARC
  5
18BB6
  8
AM_0
 10
-320.17022625977
 20
681.85370098490466
 30
0.0
 40
0.9922232600198446
 50
89.549155000004603
 51
180.4508500000008
  0
LINE
  5
18BB7
  8
AM_0
 10
-319.1624462597498
 20
681.22589098489232
 30
0.0
 11
-319.1624462597498
 21
682.58591098491945
 31
0.0
  0
ARC
  5
18BB8
  8
AM_0
 10
-316.15341625968949
 20
679.85492098486452
 30
0.0
 40
0.9910124500198204
 50
359.47800000000427
 51
90.521999999995629
  0
ARC
  5
18BB9
  8
AM_0
 10
-316.17032625969
 20
683.85379098494434
 30
0.0
 40
1.007920400020158
 50
270.44848999999061
 51
359.55151000000279
  0
ARC
  5
18BBA
  8
AM_0
 10
-320.1579962597699
 20
674.46924098475677
 30
0.0
 40
1.0044501000200889
 50
180.1901499999997
 51
253.54965000000351
  0
ARC
  5
18BBB
  8
AM_0
 10
-316.16873625969009
 20
674.11222098474991
 30
0.0
 40
1.0063295000201249
 50
270.359249999996
 51
359.640750000004
  0
ARC
  5
18BBC
  8
AM_0
 10
-290.1549362591698
 20
643.61339098413976
 30
0.0
 40
2.007501100040149
 50
180.21370000000431
 51
269.78631000000109
  0
ARC
  5
18BBD
  8
AM_0
 10
-290.15728625917001
 20
644.97106098416702
 30
0.0
 40
2.0051613000401018
 50
180.14728999999971
 51
269.85271000000682
  0
ARC
  5
18BBE
  8
AM_0
 10
-290.15451625916972
 20
642.94158098412652
 30
0.0
 40
1.995694300039913
 50
194.97487999999871
 51
269.77264999999852
  0
ARC
  5
18BBF
  8
AM_0
 10
-290.15310625916982
 20
646.99523098420764
 30
0.0
 40
2.0093489000401861
 50
180.26596000000029
 51
269.73403999999971
  0
LINE
  5
18BC0
  8
AM_0
 10
-269.16244625874992
 20
660.50589098447756
 30
0.0
 11
-305.16244625946979
 21
662.15863126634042
 31
0.0
  0
LINE
  5
18BC1
  8
AM_0
 10
-308.4924362595367
 20
670.11591098466988
 30
0.0
 11
-235.16244625806991
 21
670.11591098466988
 31
0.0
  0
LINE
  5
18BC2
  8
AM_0
 10
-235.16244625806991
 20
670.11591098466988
 30
0.0
 11
-175.3424362568733
 21
670.11591098466988
 31
0.0
  0
LINE
  5
18BC3
  8
AM_0
 10
-235.16244625806991
 20
644.9859009841673
 30
0.0
 11
-175.3424362568733
 21
644.9859009841673
 31
0.0
  0
LINE
  5
18BC4
  8
AM_0
 10
-290.16244625917011
 20
642.96590098412696
 30
0.0
 11
-175.3626758864944
 21
642.96590098412673
 31
0.0
  0
LINE
  5
18BC5
  8
AM_0
 10
-290.16244625917011
 20
641.60590098409966
 30
0.0
 11
-175.36267588130579
 21
641.60590098409966
 31
0.0
  0
LINE
  5
18BC6
  8
AM_0
 10
-290.16244625917011
 20
640.94590098408651
 30
0.0
 11
-175.3626758788032
 21
640.94590098408651
 31
0.0
  0
LINE
  5
18BC7
  8
AM_0
 10
-269.16244625874992
 20
660.50589098447756
 30
0.0
 11
-175.3424362568733
 21
660.50589098447756
 31
0.0
  0
ARC
  5
18BC8
  8
AM_0
 10
-175.35208625656989
 20
643.62289098540464
 30
0.0
 40
2.0170177999999992
 50
270.27369999999632
 51
345.14839999999862
  0
ARC
  5
18BC9
  8
AM_0
 10
-175.35208625656989
 20
642.96289098540478
 30
0.0
 40
2.0170177999999992
 50
270.27369999999632
 51
345.14839999999862
  0
ARC
  5
18BCA
  8
AM_0
 10
-168.8212346942594
 20
653.82590098540436
 30
0.0
 40
2.0
 50
99.823049039721312
 51
164.9857024015775
1001
GENIUS_GENOBJ-N-FIL_13
1002
{
1000
OWNER
1000
GEN
1002
}
1001
GENIUS_GENODEF_13
1002
{
1000
HIER
1070
     0
1002
}
1002
{
1000
MANEDIT
1070
     0
1002
}
1002
{
1000
NOSEL
1070
     0
1002
}
1002
{
1000
BEHIND
1070
     0
1002
}
1002
{
1000
OTHER
1070
     0
1002
}
1002
{
1000
REACTOR
1002
}
  0
LINE
  5
18BCB
  8
AM_0
 10
-173.40243625683479
 20
646.48589098419711
 30
0.0
 11
-170.66662625678009
 21
656.68589098440123
 31
0.0
  0
LINE
  5
18BCC
  8
AM_0
 10
-170.1624462567699
 20
656.38590098439533
 30
0.0
 11
-169.16244625675
 21
656.38590098439533
 31
0.0
  0
LINE
  5
18BCD
  8
AM_0
 10
-170.1624462567699
 20
663.98590098454724
 30
0.0
 11
-169.16244625675
 21
663.98590098454724
 31
0.0
  0
LINE
  5
18BCE
  8
AM_0
 10
-169.16244625675
 20
660.96326098448674
 30
0.0
 11
-170.1624462567699
 21
660.38593098447541
 31
0.0
  0
LINE
  5
18BCF
  8
AM_0
 10
-175.3424362568733
 20
670.11591098466988
 30
0.0
 11
-169.16244645849039
 21
670.11591098466988
 31
0.0
  0
ARC
  5
18BD0
  8
AM_0
 10
-168.5015862567368
 20
659.01911098444782
 30
0.0
 40
1.4868059000297349
 50
116.38977999999901
 51
165.71726000000069
  0
LINE
  5
18BD1
  8
AM_0
 10
-169.16244625675
 20
659.96326098446673
 30
0.0
 11
-170.1624462567699
 21
659.38590098445525
 31
0.0
  0
LINE
  5
18BD2
  8
AM_0
 10
-169.16244625675
 20
663.98590098454724
 30
0.0
 11
-169.16244625675
 21
656.38590098439533
 31
0.0
  0
LINE
  5
18BD3
  8
0
  6
CONTINUOUS
 62
     7
 10
-168.16244625656989
 20
669.70591122031715
 30
0.0
 11
-160.16244625656989
 21
669.70591122031715
 31
0.0
  0
LINE
  5
18BD4
  8
AM_0
 10
-170.1624462567699
 20
656.68590098440109
 30
0.0
 11
-171.06244625678781
 21
656.68590098440109
 31
0.0
  0
ARC
  5
18BD5
  8
AM_0
 10
-171.06244625678781
 20
658.38590098443524
 30
0.0
 40
1.700000800033999
 50
180.00001000000091
 51
269.999979999998
  0
LINE
  5
18BD6
  8
AM_0
 10
-175.3424362568733
 20
660.50589098447756
 30
0.0
 11
-172.76242625682181
 21
660.50589098447756
 31
0.0
  0
LINE
  5
18BD7
  8
AM_0
 10
-170.1624462567699
 20
663.68589098454095
 30
0.0
 11
-171.06244625678781
 21
663.68589098454095
 31
0.0
  0
ARC
  5
18BD8
  8
AM_0
 10
-171.06244625678781
 20
661.98590098450723
 30
0.0
 40
1.6999969000339989
 50
90.00000299999769
 51
179.99998000000451
  0
LINE
  5
18BD9
  8
AM_0
 10
-172.76242625682181
 20
661.98590098450723
 30
0.0
 11
-172.76242625682181
 21
658.38590098443524
 31
0.0
  0
LINE
  5
18BDA
  8
AM_0
 10
-170.1624462567699
 20
663.98590098454724
 30
0.0
 11
-170.1624462567699
 21
656.38590098439533
 31
0.0
  0
ARC
  5
18BDB
  8
AM_0
 10
-168.15335625672961
 20
643.8549809841445
 30
0.0
 40
1.0091312000201811
 50
180.51612999999961
 51
269.48387000000042
  0
ARC
  5
18BDC
  8
AM_0
 10
-168.15402625672991
 20
655.81430098438375
 30
0.0
 40
1.0084445000201681
 50
189.5460700000036
 51
269.52220000000051
  0
LINE
  5
18BDD
  8
AM_0
 10
-170.89728990773659
 20
655.82590098540459
 30
0.0
 11
-169.16244648796041
 21
655.82590098540459
 31
0.0
  0
LINE
  5
18BDE
  8
AM_0
 10
-172.35638857440341
 20
646.34590098540457
 30
0.0
 11
-169.16244650763019
 21
646.34590098540457
 31
0.0
  0
LINE
  5
18BDF
  8
0
  6
CONTINUOUS
 62
     7
 10
-168.16244625656989
 20
642.84590122031705
 30
0.0
 11
-160.16244625656989
 21
642.84590122031705
 31
0.0
  0
LINE
  5
18BE0
  8
0
  6
CONTINUOUS
 62
     7
 10
-168.16244625656989
 20
654.80590122031674
 30
0.0
 11
-160.16244625656989
 21
654.80590122031674
 31
0.0
  0
ARC
  5
18BE1
  8
AM_0
 10
-175.35208625656989
 20
644.98289098540477
 30
0.0
 40
2.0170177999999992
 50
270.27369999999632
 51
345.14839999999862
  0
ARC
  5
18BE2
  8
AM_0
 10
-175.35208625687369
 20
647.00289098420762
 30
0.0
 40
2.0170178000403398
 50
270.27369999999632
 51
345.14839999999862
  0
LINE
  5
18BE3
  8
AM_0
 10
-173.4024362565699
 20
642.44589098540484
 30
0.0
 11
-171.84728379736131
 21
648.24401113407305
 31
0.0
  0
LINE
  5
18BE4
  8
AM_0
 10
-171.62684192323661
 20
649.72589098540459
 30
0.0
 11
-169.91556137642621
 21
649.72589098540459
 31
0.0
  0
LINE
  5
18BE5
  8
AM_0
 10
-171.44445190773661
 20
651.76590098540464
 30
0.0
 11
-169.54541969425941
 21
651.76590098540464
 31
0.0
  0
LINE
  5
18BE6
  8
AM_0
 10
-173.4024362565699
 20
644.46589098540494
 30
0.0
 11
-170.7529571151945
 21
654.34402113407316
 31
0.0
  0
LINE
  5
18BE7
  8
AM_0
 10
-173.4024362565699
 20
643.1058909854047
 30
0.0
 11
-171.4771421151946
 21
650.28402113407321
 31
0.0
  0
ARC
  5
18BE8
  8
AM_0
 10
-169.54541969425941
 20
649.76590098540476
 30
0.0
 40
2.0
 50
90.0
 51
164.9857024015775
1001
GENIUS_GENODEF_13
1002
{
1000
HIER
1070
     0
1002
}
1002
{
1000
MANEDIT
1070
     0
1002
}
1002
{
1000
NOSEL
1070
     0
1002
}
1002
{
1000
BEHIND
1070
     0
1002
}
1002
{
1000
OTHER
1070
     0
1002
}
1002
{
1000
REACTOR
1002
}
1001
GENIUS_GENOBJ-N-FIL_13
1002
{
1000
OWNER
1000
GEN
1002
}
  0
ARC
  5
18BE9
  8
AM_0
 10
-169.91556137642621
 20
647.7258909854047
 30
0.0
 40
2.0
 50
90.0
 51
164.9857024015775
1001
GENIUS_GENOBJ-N-FIL_13
1002
{
1000
OWNER
1000
GEN
1002
}
1001
GENIUS_GENODEF_13
1002
{
1000
HIER
1070
     0
1002
}
1002
{
1000
MANEDIT
1070
     0
1002
}
1002
{
1000
NOSEL
1070
     0
1002
}
1002
{
1000
BEHIND
1070
     0
1002
}
1002
{
1000
OTHER
1070
     0
1002
}
1002
{
1000
REACTOR
1002
}
  0
LINE
  5
18BEA
  8
AM_0
 10
-290.16244625917011
 20
644.98590098416742
 30
0.0
 11
-235.16244625806991
 21
644.9859009841673
 31
0.0
  0
LINE
  5
18BEB
  8
AM_0
 10
-315.16244625966999
 20
649.4681646541643
 30
0.0
 11
-310.3224562595733
 21
649.36591098425504
 31
0.0
  0
LINE
  5
18BEC
  8
AM_0
 10
-315.16244625966999
 20
658.50589098443766
 30
0.0
 11
-305.16244625946979
 21
658.50589098443766
 31
0.0
  0
LINE
  5
18BED
  8
AM_0
 10
-315.16244625966999
 20
664.16590098455083
 30
0.0
 11
-305.16244625946979
 21
664.16590098455083
 31
0.0
  0
ARC
  5
18BEE
  8
AM_0
 10
-311.37127625959403
 20
654.32695098435408
 30
0.0
 40
1.498966200029979
 50
11.503675999999871
 51
89.661532000007227
  0
LINE
  5
18BEF
  8
AM_0
 10
-309.42242625955521
 20
658.50589098443766
 30
0.0
 11
-308.9024362595448
 21
655.52590098437815
 31
0.0
  0
ARC
  5
18BF0
  8
AM_0
 10
-305.52304625947733
 20
669.20645098465172
 30
0.0
 40
6.0113902001202266
 50
273.43914999999441
 51
314.59596000000761
  0
ARC
  5
18BF1
  8
AM_0
 10
-302.01220625940692
 20
665.64832098458066
 30
0.0
 40
1.0127641000202541
 50
314.49466000000911
 51
4.3932527999978959
  0
LINE
  5
18BF2
  8
AM_0
 10
-305.16244625946979
 20
667.34589098461458
 30
0.0
 11
-305.16244625946979
 21
670.12589098467015
 31
0.0
  0
LINE
  5
18BF3
  8
AM_0
 10
-305.16244625946979
 20
658.50589098443766
 30
0.0
 11
-305.16244625946979
 21
670.11591098466988
 31
0.0
  0
LINE
  5
18BF4
  8
AM_0
 10
-307.04242625950769
 20
643.5459009841386
 30
0.0
 11
-293.54242625923769
 21
643.5459009841386
 31
0.0
  0
LINE
  5
18BF5
  8
AM_0
 10
-307.02243625950717
 20
645.18590098417133
 30
0.0
 11
-293.66244625923991
 21
645.18590098417133
 31
0.0
  0
LINE
  5
18BF6
  8
AM_0
 10
-306.9824262595065
 20
648.5858909842392
 30
0.0
 11
-293.66244625923991
 21
648.5858909842392
 31
0.0
  0
LINE
  5
18BF7
  8
AM_0
 10
-306.92242625950507
 20
653.8658909843449
 30
0.0
 11
-293.66244625923991
 21
653.8658909843449
 31
0.0
  0
ARC
  5
18BF8
  8
AM_0
 10
-293.53051625923717
 20
642.04984098410876
 30
0.0
 40
1.496115700029921
 50
14.55818600000117
 51
90.456505000002466
  0
ARC
  5
18BF9
  8
AM_0
 10
-293.65628625923978
 20
647.09206098420941
 30
0.0
 40
1.4938502000298759
 50
359.76363999999887
 51
90.236360999991277
  0
ARC
  5
18BFA
  8
AM_0
 10
-293.65512625923981
 20
652.37320098431508
 30
0.0
 40
1.492715800029853
 50
359.7197199999996
 51
90.280279000006601
  0
ARC
  5
18BFB
  8
AM_0
 10
-293.65829625923971
 20
643.69002098414137
 30
0.0
 40
1.4958795000299161
 50
359.84196000000082
 51
90.158045999991344
  0
LINE
  5
18BFC
  8
AM_0
 10
-292.16244625921001
 20
644.96590098416698
 30
0.0
 11
-292.16244625921001
 21
652.36589098431489
 31
0.0
  0
ARC
  5
18BFD
  8
AM_0
 10
-307.03515625950718
 20
645.55323098417875
 30
0.0
 40
2.0073326000401459
 50
194.0500600000006
 51
269.79217999999878
  0
LINE
  5
18BFE
  8
AM_0
 10
-311.3224262595931
 20
649.72589098426215
 30
0.0
 11
-309.68243625956029
 21
649.72589098426215
 31
0.0
  0
LINE
  5
18BFF
  8
AM_0
 10
-311.3624262595938
 20
655.82590098438425
 30
0.0
 11
-308.94244625954548
 21
655.82590098438425
 31
0.0
  0
ARC
  5
18C00
  8
AM_0
 10
-311.34610625959363
 20
650.26250098427283
 30
0.0
 40
1.5034074000300679
 50
13.2038560000048
 51
89.860414000000233
  0
LINE
  5
18C01
  8
AM_0
 10
-311.34243625959363
 20
651.7659009843029
 30
0.0
 11
-309.28244625955239
 21
651.7659009843029
 31
0.0
  0
ARC
  5
18C02
  8
AM_0
 10
-311.31259625959268
 20
648.2271309842323
 30
0.0
 40
1.4987990000299749
 50
14.638135000001229
 51
90.376558000003484
  0
LINE
  5
18C03
  8
AM_0
 10
-308.9424162595455
 20
650.16591098427091
 30
0.0
 11
-309.90243625956481
 21
654.6259009843601
 31
0.0
  0
ARC
  5
18C04
  8
AM_0
 10
-306.92602625950508
 20
655.87245098438495
 30
0.0
 40
2.00656600004013
 50
189.94568000000089
 51
270.10246999999578
  0
LINE
  5
18C05
  8
AM_0
 10
-308.962436259546
 20
646.72589098420212
 30
0.0
 11
-309.88241625956431
 21
650.60590098427974
 31
0.0
  0
ARC
  5
18C06
  8
AM_0
 10
-306.98333625950619
 20
650.59047098427948
 30
0.0
 40
2.0045698000400902
 50
192.22791000000419
 51
270.02595999999647
  0
LINE
  5
18C07
  8
AM_0
 10
-308.9824262595464
 20
645.06592098416877
 30
0.0
 11
-309.86242625956402
 21
648.6059109842397
 31
0.0
  0
ARC
  5
18C08
  8
AM_0
 10
-307.01614625950702
 20
647.18578098421131
 30
0.0
 40
1.999890900039996
 50
193.29430000000099
 51
269.8195799999985
  0
ARC
  5
18C09
  8
AM_0
 10
-320.15527625976961
 20
658.83609098444435
 30
0.0
 40
1.007194200020143
 50
179.44232
 51
239.76658000000171
  0
LINE
  5
18C0A
  8
AM_0
 10
-319.36242625975387
 20
658.36589098443494
 30
0.0
 11
-320.60241625977869
 21
658.98587098444739
 31
0.0
  0
ARC
  5
18C0B
  8
AM_0
 10
-318.86892625974411
 20
660.21701098447193
 30
0.0
 40
1.011208500020224
 50
239.48118999998741
 51
269.23431000000238
  0
LINE
  5
18C0C
  8
AM_0
 10
-319.38244625975437
 20
657.2459009844124
 30
0.0
 11
-320.66241625977989
 21
657.96588098442692
 31
0.0
  0
LINE
  5
18C0D
  8
AM_0
 10
-319.1624462597498
 20
657.36589098441493
 30
0.0
 11
-319.1624462597498
 21
657.88590098442523
 31
0.0
  0
ARC
  5
18C0E
  8
AM_0
 10
-318.88485625974459
 20
659.25034098445258
 30
0.0
 40
1.005138300020102
 50
241.63206000000369
 51
267.85770999999937
  0
ARC
  5
18C0F
  8
AM_0
 10
-318.87155625974401
 20
658.10765098442982
 30
0.0
 40
1.001808000020036
 50
239.33833000000391
 51
269.37717999999609
  0
ARC
  5
18C10
  8
AM_0
 10
-315.66879625967999
 20
658.75226098444261
 30
0.0
 40
0.506400760010128
 50
270.71969999999823
 51
359.28029999999518
  0
ARC
  5
18C11
  8
AM_0
 10
-315.65808625967969
 20
656.61025098439973
 30
0.0
 40
0.4956644500099134
 50
359.49662000000052
 51
90.50338100000036
  0
LINE
  5
18C12
  8
AM_0
 10
-318.92242625974518
 20
658.24590098443252
 30
0.0
 11
-315.66244625967983
 21
658.24590098443252
 31
0.0
  0
LINE
  5
18C13
  8
AM_0
 10
-318.8824462597442
 20
657.10590098440969
 30
0.0
 11
-315.66244625967983
 21
657.10590098440969
 31
0.0
  0
LINE
  5
18C14
  8
AM_0
 10
-318.8824462597442
 20
659.20591098445186
 30
0.0
 11
-315.16244625966999
 21
659.20591098445186
 31
0.0
  0
LINE
  5
18C15
  8
AM_0
 10
-318.90243625974472
 20
660.34589098447464
 30
0.0
 11
-316.16244625968989
 21
660.34589098447464
 31
0.0
  0
ARC
  5
18C16
  8
AM_0
 10
-318.90414625974472
 20
661.35910098449483
 30
0.0
 40
1.0131912000202621
 50
241.8312399999991
 51
270.09627999999941
  0
LINE
  5
18C17
  8
AM_0
 10
-319.40243625975472
 20
663.88593098454533
 30
0.0
 11
-320.70245625978077
 21
664.74591098456256
 31
0.0
  0
LINE
  5
18C18
  8
AM_0
 10
-319.1624462597498
 20
664.02591098454832
 30
0.0
 11
-319.1624462597498
 21
664.50589098455771
 31
0.0
  0
LINE
  5
18C19
  8
AM_0
 10
-318.8824462597442
 20
664.86591098456495
 30
0.0
 11
-316.16244625968989
 21
664.86591098456495
 31
0.0
  0
ARC
  5
18C1A
  8
AM_0
 10
-320.16070625976988
 20
665.58850098457935
 30
0.0
 40
1.001733900020034
 50
180.1495400000039
 51
237.26236999999591
  0
ARC
  5
18C1B
  8
AM_0
 10
-320.15689625976978
 20
666.61518098459999
 30
0.0
 40
1.00559290002011
 50
180.5283799999988
 51
239.8186699999923
  0
LINE
  5
18C1C
  8
AM_0
 10
-319.38244625975437
 20
665.00589098456737
 30
0.0
 11
-320.66244625977981
 21
665.74591098458257
 31
0.0
  0
ARC
  5
18C1D
  8
AM_0
 10
-318.87018625974412
 20
665.87256098458477
 30
0.0
 40
1.0067360000201351
 50
239.4135699999984
 51
269.3019400000054
  0
ARC
  5
18C1E
  8
AM_0
 10
-320.15744625976981
 20
662.01691098450794
 30
0.0
 40
1.0050608000201
 50
180.62839999999889
 51
242.4411900000047
  0
ARC
  5
18C1F
  8
AM_0
 10
-318.85678625974379
 20
664.73621098456249
 30
0.0
 40
1.010318000020205
 50
237.31141999999309
 51
269.67986000000519
  0
ARC
  5
18C20
  8
AM_0
 10
-320.1634562597701
 20
660.99134098448746
 30
0.0
 40
0.99898326001998
 50
180.3123899999988
 51
240.03464000000361
  0
LINE
  5
18C21
  8
AM_0
 10
-319.38241625975439
 20
660.46588098447683
 30
0.0
 11
-320.62243625977931
 21
661.12592098449034
 31
0.0
  0
ARC
  5
18C22
  8
AM_0
 10
-316.16784625969012
 20
665.87131098458508
 30
0.0
 40
1.005422700020107
 50
270.3081899999903
 51
359.69180999999668
  0
LINE
  5
18C23
  8
AM_0
 10
-318.86242625974398
 20
663.72589098454205
 30
0.0
 11
-315.16244625966999
 21
663.72589098454205
 31
0.0
  0
ARC
  5
18C24
  8
AM_0
 10
-316.16949625968988
 20
661.35297098449473
 30
0.0
 40
1.0070832000201411
 50
270.40157999999838
 51
359.59842000000162
  0
ARC
  5
18C25
  8
AM_0
 10
-320.15939625976978
 20
659.88581098446537
 30
0.0
 40
1.0030519000200611
 50
179.9942300000022
 51
243.7873499999906
  0
LINE
  5
18C26
  8
AM_0
 10
-319.38244625975437
 20
659.34592098445455
 30
0.0
 11
-320.66241625977989
 21
660.12589098447017
 31
0.0
  0
LINE
  5
18C27
  8
AM_0
 10
-319.1624462597498
 20
659.46588098445704
 30
0.0
 11
-319.1624462597498
 21
660.00589098446767
 31
0.0
  0
CIRCLE
  5
18C28
  8
ｽﾝﾎﾟｳｾﾝ
 10
-3.1588591667241408
 20
364.8644575563269
 30
0.0
 40
4.0
  0
ARC
  5
18C29
  8
AM_0
 10
-3.1588591667241408
 20
364.86445755632627
 30
0.0
 40
16.0
 50
108.2099568642825
 51
71.79004313571744
  0
LINE
  5
18C2A
  8
AM_0
 10
1.8411408332758581
 20
383.86445755632627
 30
0.0
 11
1.8411408332758581
 21
375.86445755632627
 31
0.0
  0
LINE
  5
18C2B
  8
AM_0
 10
-8.1588591667241417
 20
375.86445755632627
 30
0.0
 11
-8.1588591667241417
 21
383.86445755632627
 31
0.0
  0
LINE
  5
18C2C
  8
AM_0
 10
1.8411408332758581
 20
375.86445755632627
 30
0.0
 11
-8.1588591667241417
 21
375.86445755632627
 31
0.0
  0
LINE
  5
18C2D
  8
AM_0
 10
-8.1588591667241417
 20
383.86445755632627
 30
0.0
 11
1.8411408332758581
 21
383.86445755632627
 31
0.0
  0
CIRCLE
  5
18C86
  8
0
 10
-3.1588591667241408
 20
364.8644575563269
 30
0.0
 40
49.999999500000001
  0
CIRCLE
  5
18CB2
  8
AM_0
 10
-3.1588591667241408
 20
364.8644575563269
 30
0.0
 40
3.399999999999999
  0
LINE
  5
18CB3
  8
AM_0
 10
-133.16166035170849
 20
765.84583999673293
 30
0.0
 11
71.838315301688453
 21
765.84583999673339
 31
0.0
  0
LINE
  5
18CB4
  8
AM_0
 10
-53.159660359841183
 20
770.8458401458447
 30
0.0
 11
46.841942026392502
 21
770.8458401458447
 31
0.0
  0
LINE
  5
18CB5
  8
AM_0
 10
-53.159660359841141
 20
642.84583632858755
 30
0.0
 11
46.841942026392523
 21
642.84583632858755
 31
0.0
  0
POLYLINE
  5
18CB6
  8
AM_0
 10
-33.658768857671838
 20
648.84583650752188
 30
0.0
 66
     1
 70
     8
  0
VERTEX
  8
AM_0
  5
19860
 10
-33.6588
 20
648.846
 30
0.000000
  70
    32
  0
VERTEX
  8
AM_0
  5
19861
 10
-33.6342
 20
648.846
 30
0.000000
  70
    32
  0
VERTEX
  8
AM_0
  5
19862
 10
-33.6097
 20
648.846
 30
0.000000
  70
    32
  0
VERTEX
  8
AM_0
  5
19863
 10
-33.5852
 20
648.847
 30
0.000000
  70
    32
  0
VERTEX
  8
AM_0
  5
19864
 10
-33.5606
 20
648.848
 30
0.000000
  70
    32
  0
VERTEX
  8
AM_0
  5
19865
 10
-33.5361
 20
648.850
 30
0.000000
  70
    32
  0
VERTEX
  8
AM_0
  5
19866
 10
-33.5116
 20
648.851
 30
0.000000
  70
    32
  0
VERTEX
  8
AM_0
  5
19867
 10
-33.4872
 20
648.853
 30
0.000000
  70
    32
  0
VERTEX
  8
AM_0
  5
19868
 10
-33.4627
 20
648.855
 30
0.000000
  70
    32
  0
VERTEX
  8
AM_0
  5
19869
 10
-33.4383
 20
648.858
 30
0.000000
  70
    32
  0
VERTEX
  8
AM_0
  5
1986A
 10
-33.4139
 20
648.861
 30
0.000000
  70
    32
  0
VERTEX
  8
AM_0
  5
1986B
 10
-33.3896
 20
648.864
 30
0.000000
  70
    32
  0
VERTEX
  8
AM_0
  5
1986C
 10
-33.3653
 20
648.867
 30
0.000000
  70
    32
  0
VERTEX
  8
AM_0
  5
1986D
 10
-33.3410
 20
648.871
 30
0.000000
  70
    32
  0
VERTEX
  8
AM_0
  5
1986E
 10
-33.3168
 20
648.875
 30
0.000000
  70
    32
  0
VERTEX
  8
AM_0
  5
1986F
 10
-33.2927
 20
648.880
 30
0.000000
  70
    32
  0
VERTEX
  8
AM_0
  5
19870
 10
-33.2686
 20
648.884
 30
0.000000
  70
    32
  0
VERTEX
  8
AM_0
  5
19871
 10
-33.2445
 20
648.889
 30
0.000000
  70
    32
  0
VERTEX
  8
AM_0
  5
19872
 10
-33.2206
 20
648.894
 30
0.000000
  70
    32
  0
VERTEX
  8
AM_0
  5
19873
 10
-33.1966
 20
648.900
 30
0.000000
  70
    32
  0
VERTEX
  8
AM_0
  5
19874
 10
-33.1728
 20
648.906
 30
0.000000
  70
    32
  0
VERTEX
  8
AM_0
  5
19875
 10
-33.1490
 20
648.912
 30
0.000000
  70
    32
  0
VERTEX
  8
AM_0
  5
19876
 10
-33.1253
 20
648.918
 30
0.000000
  70
    32
  0
VERTEX
  8
AM_0
  5
19877
 10
-33.1017
 20
648.925
 30
0.000000
  70
    32
  0
VERTEX
  8
AM_0
  5
19878
 10
-33.0782
 20
648.932
 30
0.000000
  70
    32
  0
VERTEX
  8
AM_0
  5
19879
 10
-33.0547
 20
648.939
 30
0.000000
  70
    32
  0
VERTEX
  8
AM_0
  5
1987A
 10
-33.0314
 20
648.947
 30
0.000000
  70
    32
  0
VERTEX
  8
AM_0
  5
1987B
 10
-33.0081
 20
648.955
 30
0.000000
  70
    32
  0
VERTEX
  8
AM_0
  5
1987C
 10
-32.9850
 20
648.963
 30
0.000000
  70
    32
  0
VERTEX
  8
AM_0
  5
1987D
 10
-32.9619
 20
648.971
 30
0.000000
  70
    32
  0
VERTEX
  8
AM_0
  5
1987E
 10
-32.9390
 20
648.980
 30
0.000000
  70
    32
  0
VERTEX
  8
AM_0
  5
1987F
 10
-32.9161
 20
648.989
 30
0.000000
  70
    32
  0
VERTEX
  8
AM_0
  5
19880
 10
-32.8934
 20
648.998
 30
0.000000
  70
    32
  0
VERTEX
  8
AM_0
  5
19881
 10
-32.8708
 20
649.008
 30
0.000000
  70
    32
  0
VERTEX
  8
AM_0
  5
19882
 10
-32.8483
 20
649.017
 30
0.000000
  70
    32
  0
VERTEX
  8
AM_0
  5
19883
 10
-32.8259
 20
649.028
 30
0.000000
  70
    32
  0
VERTEX
  8
AM_0
  5
19884
 10
-32.8036
 20
649.038
 30
0.000000
  70
    32
  0
VERTEX
  8
AM_0
  5
19885
 10
-32.7815
 20
649.048
 30
0.000000
  70
    32
  0
VERTEX
  8
AM_0
  5
19886
 10
-32.7595
 20
649.059
 30
0.000000
  70
    32
  0
VERTEX
  8
AM_0
  5
19887
 10
-32.7377
 20
649.071
 30
0.000000
  70
    32
  0
VERTEX
  8
AM_0
  5
19888
 10
-32.7160
 20
649.082
 30
0.000000
  70
    32
  0
VERTEX
  8
AM_0
  5
19889
 10
-32.6944
 20
649.094
 30
0.000000
  70
    32
  0
VERTEX
  8
AM_0
  5
1988A
 10
-32.6730
 20
649.106
 30
0.000000
  70
    32
  0
VERTEX
  8
AM_0
  5
1988B
 10
-32.6517
 20
649.118
 30
0.000000
  70
    32
  0
VERTEX
  8
AM_0
  5
1988C
 10
-32.6305
 20
649.130
 30
0.000000
  70
    32
  0
VERTEX
  8
AM_0
  5
1988D
 10
-32.6096
 20
649.143
 30
0.000000
  70
    32
  0
VERTEX
  8
AM_0
  5
1988E
 10
-32.5888
 20
649.156
 30
0.000000
  70
    32
  0
VERTEX
  8
AM_0
  5
1988F
 10
-32.5681
 20
649.169
 30
0.000000
  70
    32
  0
VERTEX
  8
AM_0
  5
19890
 10
-32.5476
 20
649.183
 30
0.000000
  70
    32
  0
VERTEX
  8
AM_0
  5
19891
 10
-32.5273
 20
649.197
 30
0.000000
  70
    32
  0
VERTEX
  8
AM_0
  5
19892
 10
-32.5071
 20
649.211
 30
0.000000
  70
    32
  0
VERTEX
  8
AM_0
  5
19893
 10
-32.4871
 20
649.225
 30
0.000000
  70
    32
  0
VERTEX
  8
AM_0
  5
19894
 10
-32.4673
 20
649.239
 30
0.000000
  70
    32
  0
VERTEX
  8
AM_0
  5
19895
 10
-32.4477
 20
649.254
 30
0.000000
  70
    32
  0
VERTEX
  8
AM_0
  5
19896
 10
-32.4283
 20
649.269
 30
0.000000
  70
    32
  0
VERTEX
  8
AM_0
  5
19897
 10
-32.4090
 20
649.284
 30
0.000000
  70
    32
  0
VERTEX
  8
AM_0
  5
19898
 10
-32.3900
 20
649.300
 30
0.000000
  70
    32
  0
VERTEX
  8
AM_0
  5
19899
 10
-32.3711
 20
649.316
 30
0.000000
  70
    32
  0
VERTEX
  8
AM_0
  5
1989A
 10
-32.3524
 20
649.331
 30
0.000000
  70
    32
  0
VERTEX
  8
AM_0
  5
1989B
 10
-32.3339
 20
649.348
 30
0.000000
  70
    32
  0
VERTEX
  8
AM_0
  5
1989C
 10
-32.3156
 20
649.364
 30
0.000000
  70
    32
  0
VERTEX
  8
AM_0
  5
1989D
 10
-32.2975
 20
649.381
 30
0.000000
  70
    32
  0
VERTEX
  8
AM_0
  5
1989E
 10
-32.2797
 20
649.397
 30
0.000000
  70
    32
  0
VERTEX
  8
AM_0
  5
1989F
 10
-32.2620
 20
649.414
 30
0.000000
  70
    32
  0
VERTEX
  8
AM_0
  5
198A0
 10
-32.2445
 20
649.432
 30
0.000000
  70
    32
  0
VERTEX
  8
AM_0
  5
198A1
 10
-32.2273
 20
649.449
 30
0.000000
  70
    32
  0
VERTEX
  8
AM_0
  5
198A2
 10
-32.2102
 20
649.467
 30
0.000000
  70
    32
  0
VERTEX
  8
AM_0
  5
198A3
 10
-32.1934
 20
649.485
 30
0.000000
  70
    32
  0
VERTEX
  8
AM_0
  5
198A4
 10
-32.1768
 20
649.503
 30
0.000000
  70
    32
  0
VERTEX
  8
AM_0
  5
198A5
 10
-32.1605
 20
649.521
 30
0.000000
  70
    32
  0
VERTEX
  8
AM_0
  5
198A6
 10
-32.1443
 20
649.539
 30
0.000000
  70
    32
  0
VERTEX
  8
AM_0
  5
198A7
 10
-32.1284
 20
649.558
 30
0.000000
  70
    32
  0
VERTEX
  8
AM_0
  5
198A8
 10
-32.1127
 20
649.577
 30
0.000000
  70
    32
  0
VERTEX
  8
AM_0
  5
198A9
 10
-32.0973
 20
649.596
 30
0.000000
  70
    32
  0
VERTEX
  8
AM_0
  5
198AA
 10
-32.0820
 20
649.615
 30
0.000000
  70
    32
  0
VERTEX
  8
AM_0
  5
198AB
 10
-32.0671
 20
649.635
 30
0.000000
  70
    32
  0
VERTEX
  8
AM_0
  5
198AC
 10
-32.0523
 20
649.654
 30
0.000000
  70
    32
  0
VERTEX
  8
AM_0
  5
198AD
 10
-32.0378
 20
649.674
 30
0.000000
  70
    32
  0
VERTEX
  8
AM_0
  5
198AE
 10
-32.0236
 20
649.694
 30
0.000000
  70
    32
  0
VERTEX
  8
AM_0
  5
198AF
 10
-32.0096
 20
649.714
 30
0.000000
  70
    32
  0
VERTEX
  8
AM_0
  5
198B0
 10
-31.9958
 20
649.735
 30
0.000000
  70
    32
  0
VERTEX
  8
AM_0
  5
198B1
 10
-31.9823
 20
649.755
 30
0.000000
  70
    32
  0
VERTEX
  8
AM_0
  5
198B2
 10
-31.9690
 20
649.776
 30
0.000000
  70
    32
  0
VERTEX
  8
AM_0
  5
198B3
 10
-31.9560
 20
649.797
 30
0.000000
  70
    32
  0
VERTEX
  8
AM_0
  5
198B4
 10
-31.9433
 20
649.818
 30
0.000000
  70
    32
  0
VERTEX
  8
AM_0
  5
198B5
 10
-31.9308
 20
649.839
 30
0.000000
  70
    32
  0
VERTEX
  8
AM_0
  5
198B6
 10
-31.9186
 20
649.860
 30
0.000000
  70
    32
  0
VERTEX
  8
AM_0
  5
198B7
 10
-31.9066
 20
649.881
 30
0.000000
  70
    32
  0
VERTEX
  8
AM_0
  5
198B8
 10
-31.8949
 20
649.903
 30
0.000000
  70
    32
  0
VERTEX
  8
AM_0
  5
198B9
 10
-31.8835
 20
649.925
 30
0.000000
  70
    32
  0
VERTEX
  8
AM_0
  5
198BA
 10
-31.8723
 20
649.947
 30
0.000000
  70
    32
  0
VERTEX
  8
AM_0
  5
198BB
 10
-31.8614
 20
649.969
 30
0.000000
  70
    32
  0
VERTEX
  8
AM_0
  5
198BC
 10
-31.8508
 20
649.991
 30
0.000000
  70
    32
  0
VERTEX
  8
AM_0
  5
198BD
 10
-31.8404
 20
650.013
 30
0.000000
  70
    32
  0
VERTEX
  8
AM_0
  5
198BE
 10
-31.8303
 20
650.035
 30
0.000000
  70
    32
  0
VERTEX
  8
AM_0
  5
198BF
 10
-31.8205
 20
650.058
 30
0.000000
  70
    32
  0
VERTEX
  8
AM_0
  5
198C0
 10
-31.8110
 20
650.080
 30
0.000000
  70
    32
  0
VERTEX
  8
AM_0
  5
198C1
 10
-31.8017
 20
650.103
 30
0.000000
  70
    32
  0
VERTEX
  8
AM_0
  5
198C2
 10
-31.7927
 20
650.126
 30
0.000000
  70
    32
  0
VERTEX
  8
AM_0
  5
198C3
 10
-31.7841
 20
650.149
 30
0.000000
  70
    32
  0
VERTEX
  8
AM_0
  5
198C4
 10
-31.7756
 20
650.172
 30
0.000000
  70
    32
  0
VERTEX
  8
AM_0
  5
198C5
 10
-31.7675
 20
650.195
 30
0.000000
  70
    32
  0
VERTEX
  8
AM_0
  5
198C6
 10
-31.7597
 20
650.218
 30
0.000000
  70
    32
  0
VERTEX
  8
AM_0
  5
198C7
 10
-31.7521
 20
650.242
 30
0.000000
  70
    32
  0
VERTEX
  8
AM_0
  5
198C8
 10
-31.7449
 20
650.265
 30
0.000000
  70
    32
  0
VERTEX
  8
AM_0
  5
198C9
 10
-31.7379
 20
650.289
 30
0.000000
  70
    32
  0
VERTEX
  8
AM_0
  5
198CA
 10
-31.7312
 20
650.312
 30
0.000000
  70
    32
  0
VERTEX
  8
AM_0
  5
198CB
 10
-31.7248
 20
650.336
 30
0.000000
  70
    32
  0
VERTEX
  8
AM_0
  5
198CC
 10
-31.7187
 20
650.360
 30
0.000000
  70
    32
  0
VERTEX
  8
AM_0
  5
198CD
 10
-31.7129
 20
650.384
 30
0.000000
  70
    32
  0
VERTEX
  8
AM_0
  5
198CE
 10
-31.7073
 20
650.408
 30
0.000000
  70
    32
  0
VERTEX
  8
AM_0
  5
198CF
 10
-31.7021
 20
650.432
 30
0.000000
  70
    32
  0
VERTEX
  8
AM_0
  5
198D0
 10
-31.6972
 20
650.456
 30
0.000000
  70
    32
  0
VERTEX
  8
AM_0
  5
198D1
 10
-31.6925
 20
650.480
 30
0.000000
  70
    32
  0
VERTEX
  8
AM_0
  5
198D2
 10
-31.6882
 20
650.504
 30
0.000000
  70
    32
  0
VERTEX
  8
AM_0
  5
198D3
 10
-31.6841
 20
650.528
 30
0.000000
  70
    32
  0
VERTEX
  8
AM_0
  5
198D4
 10
-31.6804
 20
650.552
 30
0.000000
  70
    32
  0
VERTEX
  8
AM_0
  5
198D5
 10
-31.6769
 20
650.577
 30
0.000000
  70
    32
  0
VERTEX
  8
AM_0
  5
198D6
 10
-31.6738
 20
650.601
 30
0.000000
  70
    32
  0
VERTEX
  8
AM_0
  5
198D7
 10
-31.6709
 20
650.625
 30
0.000000
  70
    32
  0
VERTEX
  8
AM_0
  5
198D8
 10
-31.6684
 20
650.650
 30
0.000000
  70
    32
  0
VERTEX
  8
AM_0
  5
198D9
 10
-31.6661
 20
650.674
 30
0.000000
  70
    32
  0
VERTEX
  8
AM_0
  5
198DA
 10
-31.6641
 20
650.699
 30
0.000000
  70
    32
  0
VERTEX
  8
AM_0
  5
198DB
 10
-31.6625
 20
650.723
 30
0.000000
  70
    32
  0
VERTEX
  8
AM_0
  5
198DC
 10
-31.6611
 20
650.748
 30
0.000000
  70
    32
  0
VERTEX
  8
AM_0
  5
198DD
 10
-31.6601
 20
650.772
 30
0.000000
  70
    32
  0
VERTEX
  8
AM_0
  5
198DE
 10
-31.6593
 20
650.797
 30
0.000000
  70
    32
  0
VERTEX
  8
AM_0
  5
198DF
 10
-31.6589
 20
650.821
 30
0.000000
  70
    32
  0
VERTEX
  8
AM_0
  5
198E0
 10
-31.6587
 20
650.846
 30
0.000000
  70
    32
  0
SEQEND
  8
AM_0
  5
198E1
  0
LINE
  5
18CB7
  8
AM_0
 10
-45.659009390396022
 20
656.84583674609985
 30
0.0
 11
-30.658708943052272
 21
656.84583674609985
 31
0.0
  0
LINE
  5
18CB8
  8
AM_0
 10
-133.16166035170849
 20
647.84583647769932
 30
0.0
 11
71.838315301688283
 21
647.84583647769955
 31
0.0
  0
LINE
  5
18CB9
  8
AM_0
 10
-133.16244625603019
 20
672.84583722325715
 30
0.0
 11
71.837529339966622
 21
672.84583722325715
 31
0.0
  0
LINE
  5
18CBA
  8
ﾁｭｳｼﾝｾﾝ1
 10
-329.90634625656998
 20
706.84583823721619
 30
0.0
 11
76.837529339966622
 21
706.84583823721619
 31
0.0
1001
GENIUS_GENODEF_13
1002
{
1000
HIER
1070
     0
1002
}
1002
{
1000
MANEDIT
1070
     0
1002
}
1002
{
1000
NOSEL
1070
     0
1002
}
1002
{
1000
BEHIND
1070
     0
1002
}
1002
{
1000
REACTOR
1002
}
1001
GENIUS_GENOBJ-N-CEN_13
1002
{
1000
OWNER
1000
GEN
1002
}
  0
LINE
  5
18CBB
  8
AM_0
 10
-131.4168973776801
 20
765.84583999673305
 30
0.0
 11
-133.16244625618219
 21
672.84583722325715
 31
0.0
  0
LINE
  5
18CBF
  8
AM_0
 10
-149.16244625657009
 20
768.34583323721665
 30
0.0
 11
-149.16244625657009
 21
645.34585323721615
 31
0.0
  0
LINE
  5
18CC0
  8
AM_0
 10
-160.16244625657001
 20
770.84586823721668
 30
0.0
 11
-160.16244625656981
 21
642.84585323721615
 31
0.0
  0
ARC
  5
18CC1
  8
AM_0
 10
-146.16244625657001
 20
642.34585323721649
 30
0.0
 40
2.9999999999999978
 50
90.000000000000057
 51
144.31466528734529
1001
GENIUS_GENOBJ-N-FIL_13
1002
{
1000
OWNER
1000
GEN
1002
}
1001
GENIUS_GENODEF_13
1002
{
1000
HIER
1070
     0
1002
}
1002
{
1000
MANEDIT
1070
     0
1002
}
1002
{
1000
NOSEL
1070
     0
1002
}
1002
{
1000
BEHIND
1070
     0
1002
}
1002
{
1000
OTHER
1070
     0
1002
}
1002
{
1000
REACTOR
1002
}
  0
LINE
  5
18CC2
  8
AM_0
 10
-160.16244625656981
 20
642.84585323721615
 30
0.0
 11
-151.0358434289744
 21
642.84585323721615
 31
0.0
  0
ARC
  5
18CC3
  8
AM_0
 10
-151.0358434289744
 20
645.84585323721615
 30
0.0
 40
2.9999999999999978
 50
270.0
 51
324.31466528734529
1001
GENIUS_GENOBJ-N-FIL_13
1002
{
1000
OWNER
1000
GEN
1002
}
1001
GENIUS_GENODEF_13
1002
{
1000
HIER
1070
     0
1002
}
1002
{
1000
MANEDIT
1070
     0
1002
}
1002
{
1000
NOSEL
1070
     0
1002
}
1002
{
1000
BEHIND
1070
     0
1002
}
1002
{
1000
OTHER
1070
     0
1002
}
1002
{
1000
REACTOR
1002
}
  0
LINE
  5
18CC4
  8
AM_0
 10
-160.16244625656981
 20
654.80585323721652
 30
0.0
 11
-150.16244625656981
 21
654.80585323721652
 31
0.0
  0
LINE
  5
18CC5
  8
AM_0
 10
-160.16250407878721
 20
654.80584323724815
 30
0.0
 11
-150.16250407879349
 21
654.80583212613669
 31
0.0
  0
LINE
  5
18CC6
  8
AM_0
 10
-160.16244625656981
 20
669.70586323721625
 30
0.0
 11
-150.16244625656981
 21
669.70586323721625
 31
0.0
  0
LINE
  5
18CC7
  8
AM_0
 10
-160.16248752322039
 20
669.7058532372389
 30
0.0
 11
-150.16248752322659
 21
669.70584212612744
 31
0.0
  0
ARC
  5
18CC8
  8
AM_0
 10
-143.5760227775796
 20
647.34585323721637
 30
0.0
 40
2.0
 50
270.0
 51
355.00000000000023
1001
GENIUS_GENODEF_13
1002
{
1000
HIER
1070
     0
1002
}
1002
{
1000
MANEDIT
1070
     0
1002
}
1002
{
1000
NOSEL
1070
     0
1002
}
1002
{
1000
BEHIND
1070
     0
1002
}
1002
{
1000
OTHER
1070
     0
1002
}
1002
{
1000
REACTOR
1002
}
1001
GENIUS_GENOBJ-N-FIL_13
1002
{
1000
OWNER
1000
GEN
1002
}
  0
LINE
  5
18CC9
  8
AM_0
 10
-53.159660359841141
 20
642.84583632858755
 30
0.0
 11
-53.159660359841141
 21
647.84583647769932
 31
0.0
  0
LINE
  5
18CCA
  8
AM_0
 10
-146.16244625657009
 20
645.34585323721615
 30
0.0
 11
-143.5760227775796
 21
645.34585323721649
 31
0.0
  0
LINE
  5
18CCB
  8
AM_0
 10
-139.3221733047186
 20
673.02014870875246
 30
0.0
 11
-141.58363338139611
 21
647.17154175172095
 31
0.0
  0
LINE
  5
18CCC
  8
AM_0
 10
-133.16244625603019
 20
672.84583722325715
 30
0.0
 11
-132.8482614962945
 21
647.84583647769955
 31
0.0
  0
ARC
  5
18CCD
  8
AM_0
 10
-134.14385304255541
 20
673.84583722325715
 30
0.0
 40
1.0
 50
358.92472216393878
 51
90.000000000000057
1001
GENIUS_GENODEF_13
1002
{
1000
HIER
1070
     0
1002
}
1002
{
1000
MANEDIT
1070
     0
1002
}
1002
{
1000
NOSEL
1070
     0
1002
}
1002
{
1000
BEHIND
1070
     0
1002
}
1002
{
1000
OTHER
1070
     0
1002
}
1002
{
1000
REACTOR
1002
}
1001
GENIUS_GENOBJ-N-FIL_13
1002
{
1000
OWNER
1000
GEN
1002
}
  0
ARC
  5
18CCE
  8
AM_0
 10
-137.32978390853521
 20
672.84583722325715
 30
0.0
 40
2.0
 50
90.000000000000057
 51
175.0000000000002
1001
GENIUS_GENOBJ-N-FIL_13
1002
{
1000
OWNER
1000
GEN
1002
}
1001
GENIUS_GENODEF_13
1002
{
1000
HIER
1070
     0
1002
}
1002
{
1000
MANEDIT
1070
     0
1002
}
1002
{
1000
NOSEL
1070
     0
1002
}
1002
{
1000
BEHIND
1070
     0
1002
}
1002
{
1000
OTHER
1070
     0
1002
}
1002
{
1000
REACTOR
1002
}
  0
LINE
  5
18CCF
  8
AM_0
 10
-137.32978390853521
 20
674.84583722325726
 30
0.0
 11
-134.14385304255541
 21
674.84583722325726
 31
0.0
  0
LINE
  5
18CD0
  8
AM_0
 10
-44.658989360573059
 20
650.84583656716654
 30
0.0
 11
-44.658989360573059
 21
656.84583674609985
 31
0.0
  0
LINE
  5
18CD1
  8
AM_0
 10
-45.659009390396022
 20
647.84583647769955
 30
0.0
 11
-45.659009390396022
 21
656.84583674609985
 31
0.0
  0
LINE
  5
18CD2
  8
AM_0
 10
-33.658769032520922
 20
648.84583650752131
 30
0.0
 11
-42.658949300927127
 21
648.84583650752131
 31
0.0
  0
POLYLINE
  5
18CD3
  8
AM_0
 10
-44.658989360572939
 20
650.84583647974387
 30
0.0
 66
     1
 70
     8
  0
VERTEX
  8
AM_0
  5
198E2
 10
-44.6590
 20
650.846
 30
0.000000
  70
    32
  0
VERTEX
  8
AM_0
  5
198E3
 10
-44.6588
 20
650.821
 30
0.000000
  70
    32
  0
VERTEX
  8
AM_0
  5
198E4
 10
-44.6584
 20
650.797
 30
0.000000
  70
    32
  0
VERTEX
  8
AM_0
  5
198E5
 10
-44.6576
 20
650.772
 30
0.000000
  70
    32
  0
VERTEX
  8
AM_0
  5
198E6
 10
-44.6566
 20
650.748
 30
0.000000
  70
    32
  0
VERTEX
  8
AM_0
  5
198E7
 10
-44.6552
 20
650.723
 30
0.000000
  70
    32
  0
VERTEX
  8
AM_0
  5
198E8
 10
-44.6536
 20
650.699
 30
0.000000
  70
    32
  0
VERTEX
  8
AM_0
  5
198E9
 10
-44.6516
 20
650.674
 30
0.000000
  70
    32
  0
VERTEX
  8
AM_0
  5
198EA
 10
-44.6494
 20
650.650
 30
0.000000
  70
    32
  0
VERTEX
  8
AM_0
  5
198EB
 10
-44.6468
 20
650.625
 30
0.000000
  70
    32
  0
VERTEX
  8
AM_0
  5
198EC
 10
-44.6439
 20
650.601
 30
0.000000
  70
    32
  0
VERTEX
  8
AM_0
  5
198ED
 10
-44.6408
 20
650.577
 30
0.000000
  70
    32
  0
VERTEX
  8
AM_0
  5
198EE
 10
-44.6373
 20
650.552
 30
0.000000
  70
    32
  0
VERTEX
  8
AM_0
  5
198EF
 10
-44.6336
 20
650.528
 30
0.000000
  70
    32
  0
VERTEX
  8
AM_0
  5
198F0
 10
-44.6295
 20
650.504
 30
0.000000
  70
    32
  0
VERTEX
  8
AM_0
  5
198F1
 10
-44.6252
 20
650.480
 30
0.000000
  70
    32
  0
VERTEX
  8
AM_0
  5
198F2
 10
-44.6206
 20
650.456
 30
0.000000
  70
    32
  0
VERTEX
  8
AM_0
  5
198F3
 10
-44.6156
 20
650.432
 30
0.000000
  70
    32
  0
VERTEX
  8
AM_0
  5
198F4
 10
-44.6104
 20
650.408
 30
0.000000
  70
    32
  0
VERTEX
  8
AM_0
  5
198F5
 10
-44.6049
 20
650.384
 30
0.000000
  70
    32
  0
VERTEX
  8
AM_0
  5
198F6
 10
-44.5991
 20
650.360
 30
0.000000
  70
    32
  0
VERTEX
  8
AM_0
  5
198F7
 10
-44.5929
 20
650.336
 30
0.000000
  70
    32
  0
VERTEX
  8
AM_0
  5
198F8
 10
-44.5865
 20
650.312
 30
0.000000
  70
    32
  0
VERTEX
  8
AM_0
  5
198F9
 10
-44.5798
 20
650.289
 30
0.000000
  70
    32
  0
VERTEX
  8
AM_0
  5
198FA
 10
-44.5729
 20
650.265
 30
0.000000
  70
    32
  0
VERTEX
  8
AM_0
  5
198FB
 10
-44.5656
 20
650.242
 30
0.000000
  70
    32
  0
VERTEX
  8
AM_0
  5
198FC
 10
-44.5580
 20
650.218
 30
0.000000
  70
    32
  0
VERTEX
  8
AM_0
  5
198FD
 10
-44.5502
 20
650.195
 30
0.000000
  70
    32
  0
VERTEX
  8
AM_0
  5
198FE
 10
-44.5421
 20
650.172
 30
0.000000
  70
    32
  0
VERTEX
  8
AM_0
  5
198FF
 10
-44.5337
 20
650.149
 30
0.000000
  70
    32
  0
VERTEX
  8
AM_0
  5
19900
 10
-44.5250
 20
650.126
 30
0.000000
  70
    32
  0
VERTEX
  8
AM_0
  5
19901
 10
-44.5160
 20
650.103
 30
0.000000
  70
    32
  0
VERTEX
  8
AM_0
  5
19902
 10
-44.5067
 20
650.080
 30
0.000000
  70
    32
  0
VERTEX
  8
AM_0
  5
19903
 10
-44.4972
 20
650.058
 30
0.000000
  70
    32
  0
VERTEX
  8
AM_0
  5
19904
 10
-44.4874
 20
650.035
 30
0.000000
  70
    32
  0
VERTEX
  8
AM_0
  5
19905
 10
-44.4773
 20
650.013
 30
0.000000
  70
    32
  0
VERTEX
  8
AM_0
  5
19906
 10
-44.4670
 20
649.991
 30
0.000000
  70
    32
  0
VERTEX
  8
AM_0
  5
19907
 10
-44.4563
 20
649.969
 30
0.000000
  70
    32
  0
VERTEX
  8
AM_0
  5
19908
 10
-44.4454
 20
649.947
 30
0.000000
  70
    32
  0
VERTEX
  8
AM_0
  5
19909
 10
-44.4343
 20
649.925
 30
0.000000
  70
    32
  0
VERTEX
  8
AM_0
  5
1990A
 10
-44.4228
 20
649.903
 30
0.000000
  70
    32
  0
VERTEX
  8
AM_0
  5
1990B
 10
-44.4111
 20
649.881
 30
0.000000
  70
    32
  0
VERTEX
  8
AM_0
  5
1990C
 10
-44.3992
 20
649.860
 30
0.000000
  70
    32
  0
VERTEX
  8
AM_0
  5
1990D
 10
-44.3869
 20
649.839
 30
0.000000
  70
    32
  0
VERTEX
  8
AM_0
  5
1990E
 10
-44.3744
 20
649.818
 30
0.000000
  70
    32
  0
VERTEX
  8
AM_0
  5
1990F
 10
-44.3617
 20
649.797
 30
0.000000
  70
    32
  0
VERTEX
  8
AM_0
  5
19910
 10
-44.3487
 20
649.776
 30
0.000000
  70
    32
  0
VERTEX
  8
AM_0
  5
19911
 10
-44.3354
 20
649.755
 30
0.000000
  70
    32
  0
VERTEX
  8
AM_0
  5
19912
 10
-44.3219
 20
649.735
 30
0.000000
  70
    32
  0
VERTEX
  8
AM_0
  5
19913
 10
-44.3082
 20
649.714
 30
0.000000
  70
    32
  0
VERTEX
  8
AM_0
  5
19914
 10
-44.2942
 20
649.694
 30
0.000000
  70
    32
  0
VERTEX
  8
AM_0
  5
19915
 10
-44.2799
 20
649.674
 30
0.000000
  70
    32
  0
VERTEX
  8
AM_0
  5
19916
 10
-44.2654
 20
649.654
 30
0.000000
  70
    32
  0
VERTEX
  8
AM_0
  5
19917
 10
-44.2507
 20
649.635
 30
0.000000
  70
    32
  0
VERTEX
  8
AM_0
  5
19918
 10
-44.2357
 20
649.615
 30
0.000000
  70
    32
  0
VERTEX
  8
AM_0
  5
19919
 10
-44.2205
 20
649.596
 30
0.000000
  70
    32
  0
VERTEX
  8
AM_0
  5
1991A
 10
-44.2050
 20
649.577
 30
0.000000
  70
    32
  0
VERTEX
  8
AM_0
  5
1991B
 10
-44.1893
 20
649.558
 30
0.000000
  70
    32
  0
VERTEX
  8
AM_0
  5
1991C
 10
-44.1734
 20
649.539
 30
0.000000
  70
    32
  0
VERTEX
  8
AM_0
  5
1991D
 10
-44.1573
 20
649.521
 30
0.000000
  70
    32
  0
VERTEX
  8
AM_0
  5
1991E
 10
-44.1409
 20
649.503
 30
0.000000
  70
    32
  0
VERTEX
  8
AM_0
  5
1991F
 10
-44.1243
 20
649.485
 30
0.000000
  70
    32
  0
VERTEX
  8
AM_0
  5
19920
 10
-44.1075
 20
649.467
 30
0.000000
  70
    32
  0
VERTEX
  8
AM_0
  5
19921
 10
-44.0904
 20
649.449
 30
0.000000
  70
    32
  0
VERTEX
  8
AM_0
  5
19922
 10
-44.0732
 20
649.432
 30
0.000000
  70
    32
  0
VERTEX
  8
AM_0
  5
19923
 10
-44.0557
 20
649.414
 30
0.000000
  70
    32
  0
VERTEX
  8
AM_0
  5
19924
 10
-44.0381
 20
649.397
 30
0.000000
  70
    32
  0
VERTEX
  8
AM_0
  5
19925
 10
-44.0202
 20
649.381
 30
0.000000
  70
    32
  0
VERTEX
  8
AM_0
  5
19926
 10
-44.0021
 20
649.364
 30
0.000000
  70
    32
  0
VERTEX
  8
AM_0
  5
19927
 10
-43.9838
 20
649.348
 30
0.000000
  70
    32
  0
VERTEX
  8
AM_0
  5
19928
 10
-43.9653
 20
649.331
 30
0.000000
  70
    32
  0
VERTEX
  8
AM_0
  5
19929
 10
-43.9466
 20
649.316
 30
0.000000
  70
    32
  0
VERTEX
  8
AM_0
  5
1992A
 10
-43.9278
 20
649.300
 30
0.000000
  70
    32
  0
VERTEX
  8
AM_0
  5
1992B
 10
-43.9087
 20
649.284
 30
0.000000
  70
    32
  0
VERTEX
  8
AM_0
  5
1992C
 10
-43.8894
 20
649.269
 30
0.000000
  70
    32
  0
VERTEX
  8
AM_0
  5
1992D
 10
-43.8700
 20
649.254
 30
0.000000
  70
    32
  0
VERTEX
  8
AM_0
  5
1992E
 10
-43.8504
 20
649.239
 30
0.000000
  70
    32
  0
VERTEX
  8
AM_0
  5
1992F
 10
-43.8306
 20
649.225
 30
0.000000
  70
    32
  0
VERTEX
  8
AM_0
  5
19930
 10
-43.8106
 20
649.211
 30
0.000000
  70
    32
  0
VERTEX
  8
AM_0
  5
19931
 10
-43.7904
 20
649.197
 30
0.000000
  70
    32
  0
VERTEX
  8
AM_0
  5
19932
 10
-43.7701
 20
649.183
 30
0.000000
  70
    32
  0
VERTEX
  8
AM_0
  5
19933
 10
-43.7496
 20
649.169
 30
0.000000
  70
    32
  0
VERTEX
  8
AM_0
  5
19934
 10
-43.7290
 20
649.156
 30
0.000000
  70
    32
  0
VERTEX
  8
AM_0
  5
19935
 10
-43.7081
 20
649.143
 30
0.000000
  70
    32
  0
VERTEX
  8
AM_0
  5
19936
 10
-43.6872
 20
649.130
 30
0.000000
  70
    32
  0
VERTEX
  8
AM_0
  5
19937
 10
-43.6660
 20
649.118
 30
0.000000
  70
    32
  0
VERTEX
  8
AM_0
  5
19938
 10
-43.6448
 20
649.106
 30
0.000000
  70
    32
  0
VERTEX
  8
AM_0
  5
19939
 10
-43.6233
 20
649.094
 30
0.000000
  70
    32
  0
VERTEX
  8
AM_0
  5
1993A
 10
-43.6018
 20
649.082
 30
0.000000
  70
    32
  0
VERTEX
  8
AM_0
  5
1993B
 10
-43.5800
 20
649.071
 30
0.000000
  70
    32
  0
VERTEX
  8
AM_0
  5
1993C
 10
-43.5582
 20
649.059
 30
0.000000
  70
    32
  0
VERTEX
  8
AM_0
  5
1993D
 10
-43.5362
 20
649.048
 30
0.000000
  70
    32
  0
VERTEX
  8
AM_0
  5
1993E
 10
-43.5141
 20
649.038
 30
0.000000
  70
    32
  0
VERTEX
  8
AM_0
  5
1993F
 10
-43.4918
 20
649.028
 30
0.000000
  70
    32
  0
VERTEX
  8
AM_0
  5
19940
 10
-43.4694
 20
649.017
 30
0.000000
  70
    32
  0
VERTEX
  8
AM_0
  5
19941
 10
-43.4469
 20
649.008
 30
0.000000
  70
    32
  0
VERTEX
  8
AM_0
  5
19942
 10
-43.4243
 20
648.998
 30
0.000000
  70
    32
  0
VERTEX
  8
AM_0
  5
19943
 10
-43.4016
 20
648.989
 30
0.000000
  70
    32
  0
VERTEX
  8
AM_0
  5
19944
 10
-43.3788
 20
648.980
 30
0.000000
  70
    32
  0
VERTEX
  8
AM_0
  5
19945
 10
-43.3558
 20
648.971
 30
0.000000
  70
    32
  0
VERTEX
  8
AM_0
  5
19946
 10
-43.3327
 20
648.963
 30
0.000000
  70
    32
  0
VERTEX
  8
AM_0
  5
19947
 10
-43.3096
 20
648.955
 30
0.000000
  70
    32
  0
VERTEX
  8
AM_0
  5
19948
 10
-43.2863
 20
648.947
 30
0.000000
  70
    32
  0
VERTEX
  8
AM_0
  5
19949
 10
-43.2630
 20
648.939
 30
0.000000
  70
    32
  0
VERTEX
  8
AM_0
  5
1994A
 10
-43.2395
 20
648.932
 30
0.000000
  70
    32
  0
VERTEX
  8
AM_0
  5
1994B
 10
-43.2160
 20
648.925
 30
0.000000
  70
    32
  0
VERTEX
  8
AM_0
  5
1994C
 10
-43.1924
 20
648.918
 30
0.000000
  70
    32
  0
VERTEX
  8
AM_0
  5
1994D
 10
-43.1687
 20
648.912
 30
0.000000
  70
    32
  0
VERTEX
  8
AM_0
  5
1994E
 10
-43.1449
 20
648.906
 30
0.000000
  70
    32
  0
VERTEX
  8
AM_0
  5
1994F
 10
-43.1211
 20
648.900
 30
0.000000
  70
    32
  0
VERTEX
  8
AM_0
  5
19950
 10
-43.0972
 20
648.894
 30
0.000000
  70
    32
  0
VERTEX
  8
AM_0
  5
19951
 10
-43.0732
 20
648.889
 30
0.000000
  70
    32
  0
VERTEX
  8
AM_0
  5
19952
 10
-43.0491
 20
648.884
 30
0.000000
  70
    32
  0
VERTEX
  8
AM_0
  5
19953
 10
-43.0250
 20
648.880
 30
0.000000
  70
    32
  0
VERTEX
  8
AM_0
  5
19954
 10
-43.0009
 20
648.875
 30
0.000000
  70
    32
  0
VERTEX
  8
AM_0
  5
19955
 10
-42.9767
 20
648.871
 30
0.000000
  70
    32
  0
VERTEX
  8
AM_0
  5
19956
 10
-42.9524
 20
648.867
 30
0.000000
  70
    32
  0
VERTEX
  8
AM_0
  5
19957
 10
-42.9281
 20
648.864
 30
0.000000
  70
    32
  0
VERTEX
  8
AM_0
  5
19958
 10
-42.9038
 20
648.861
 30
0.000000
  70
    32
  0
VERTEX
  8
AM_0
  5
19959
 10
-42.8794
 20
648.858
 30
0.000000
  70
    32
  0
VERTEX
  8
AM_0
  5
1995A
 10
-42.8550
 20
648.855
 30
0.000000
  70
    32
  0
VERTEX
  8
AM_0
  5
1995B
 10
-42.8305
 20
648.853
 30
0.000000
  70
    32
  0
VERTEX
  8
AM_0
  5
1995C
 10
-42.8061
 20
648.851
 30
0.000000
  70
    32
  0
VERTEX
  8
AM_0
  5
1995D
 10
-42.7816
 20
648.850
 30
0.000000
  70
    32
  0
VERTEX
  8
AM_0
  5
1995E
 10
-42.7571
 20
648.848
 30
0.000000
  70
    32
  0
VERTEX
  8
AM_0
  5
1995F
 10
-42.7326
 20
648.847
 30
0.000000
  70
    32
  0
VERTEX
  8
AM_0
  5
19960
 10
-42.7080
 20
648.846
 30
0.000000
  70
    32
  0
VERTEX
  8
AM_0
  5
19961
 10
-42.6835
 20
648.846
 30
0.000000
  70
    32
  0
VERTEX
  8
AM_0
  5
19962
 10
-42.6589
 20
648.846
 30
0.000000
  70
    32
  0
SEQEND
  8
AM_0
  5
19963
  0
ARC
  5
18CD4
  8
AM_0
 10
-146.16244625657001
 20
771.34583323721631
 30
0.0
 40
2.9999999999999978
 50
215.68533471265471
 51
270.0
1001
GENIUS_GENOBJ-N-FIL_13
1002
{
1000
OWNER
1000
GEN
1002
}
1001
GENIUS_GENODEF_13
1002
{
1000
HIER
1070
     0
1002
}
1002
{
1000
MANEDIT
1070
     0
1002
}
1002
{
1000
NOSEL
1070
     0
1002
}
1002
{
1000
BEHIND
1070
     0
1002
}
1002
{
1000
OTHER
1070
     0
1002
}
1002
{
1000
REACTOR
1002
}
  0
LINE
  5
18CD5
  8
AM_0
 10
-160.16244625657001
 20
743.98582323721621
 30
0.0
 11
-150.16244625657001
 21
743.98582323721621
 31
0.0
  0
LINE
  5
18CD6
  8
AM_0
 10
-160.16244625657001
 20
758.88583323721605
 30
0.0
 11
-150.16244625657001
 21
758.88583323721605
 31
0.0
  0
LINE
  5
18CD7
  8
AM_0
 10
-160.16244625657001
 20
770.84583323721665
 30
0.0
 11
-151.0358434289744
 21
770.84583323721665
 31
0.0
  0
ARC
  5
18CD8
  8
AM_0
 10
-151.0358434289744
 20
767.84583323721665
 30
0.0
 40
2.9999999999999978
 50
35.685334712654722
 51
90.000000000000057
1001
GENIUS_GENOBJ-N-FIL_13
1002
{
1000
OWNER
1000
GEN
1002
}
1001
GENIUS_GENODEF_13
1002
{
1000
HIER
1070
     0
1002
}
1002
{
1000
MANEDIT
1070
     0
1002
}
1002
{
1000
NOSEL
1070
     0
1002
}
1002
{
1000
BEHIND
1070
     0
1002
}
1002
{
1000
OTHER
1070
     0
1002
}
1002
{
1000
REACTOR
1002
}
  0
ARC
  5
18CD9
  8
AM_0
 10
-133.4172496348661
 20
765.84583999673305
 30
0.0
 40
2.0
 50
270.0
 51
358.92472216403002
1001
GENIUS_GENODEF_13
1002
{
1000
HIER
1070
     0
1002
}
1002
{
1000
MANEDIT
1070
     0
1002
}
1002
{
1000
NOSEL
1070
     0
1002
}
1002
{
1000
BEHIND
1070
     0
1002
}
1002
{
1000
OTHER
1070
     0
1002
}
1002
{
1000
REACTOR
1002
}
1001
GENIUS_GENOBJ-N-FIL_13
1002
{
1000
OWNER
1000
GEN
1002
}
  0
LINE
  5
18CDA
  8
AM_0
 10
-139.39641760290689
 20
766.52014472271185
 30
0.0
 11
-139.3221733047186
 21
765.67152851123774
 31
0.0
  0
ARC
  5
18CDB
  8
AM_0
 10
-137.32978390853521
 20
765.84583999673305
 30
0.0
 40
2.0
 50
184.9999999999998
 51
270.0
1001
GENIUS_GENODEF_13
1002
{
1000
HIER
1070
     0
1002
}
1002
{
1000
MANEDIT
1070
     0
1002
}
1002
{
1000
NOSEL
1070
     0
1002
}
1002
{
1000
BEHIND
1070
     0
1002
}
1002
{
1000
OTHER
1070
     0
1002
}
1002
{
1000
REACTOR
1002
}
1001
GENIUS_GENOBJ-N-FIL_13
1002
{
1000
OWNER
1000
GEN
1002
}
  0
LINE
  5
18CDC
  8
AM_0
 10
-137.32978390853521
 20
763.84583999673328
 30
0.0
 11
-133.4172496348661
 21
763.84583999673328
 31
0.0
  0
ARC
  5
18CDD
  8
AM_0
 10
-141.38880699909041
 20
766.34583323721631
 30
0.0
 40
2.0
 50
4.9999999999998019
 51
90.000000000000057
1001
GENIUS_GENOBJ-N-FIL_13
1002
{
1000
OWNER
1000
GEN
1002
}
1001
GENIUS_GENODEF_13
1002
{
1000
HIER
1070
     0
1002
}
1002
{
1000
MANEDIT
1070
     0
1002
}
1002
{
1000
NOSEL
1070
     0
1002
}
1002
{
1000
BEHIND
1070
     0
1002
}
1002
{
1000
OTHER
1070
     0
1002
}
1002
{
1000
REACTOR
1002
}
  0
LINE
  5
18CDE
  8
AM_0
 10
-146.16244625657009
 20
768.34583323721665
 30
0.0
 11
-141.38880699909041
 21
768.34583323721631
 31
0.0
  0
LINE
  5
18CDF
  8
AM_0
 10
-53.159660359841183
 20
770.8458401458447
 30
0.0
 11
-53.159660359841183
 21
765.84583999673305
 31
0.0
  0
LINE
  5
18CE0
  8
ﾁｭｳｼﾝｾﾝ1
 10
-3.1588591667240551
 20
780.84584029495602
 30
0.0
 11
-3.1588591667243691
 21
546.84583823721562
 31
0.0
  0
LINE
  5
18CE4
  8
AM_0
 10
70.093582845849681
 20
765.84583999673305
 30
0.0
 11
71.837529339966622
 21
672.84583722325715
 31
0.0
  0
LINE
  5
18CE5
  8
AM_0
 10
46.841942026392523
 20
642.84583632858755
 30
0.0
 11
46.841942026392523
 21
647.84583647769932
 31
0.0
  0
LINE
  5
18CE6
  8
AM_0
 10
-28.159359912297312
 20
637.84583617947601
 30
0.0
 11
21.841641578849021
 21
637.84583617947601
 31
0.0
  0
LINE
  5
18CE7
  8
AM_0
 10
-28.159359912297312
 20
637.84583617947601
 30
0.0
 11
-28.159359912297312
 21
642.84583632858755
 31
0.0
  0
LINE
  5
18CE8
  8
AM_0
 10
21.841641578849021
 20
637.84583617947601
 30
0.0
 11
21.841641578849021
 21
642.84583632858755
 31
0.0
  0
LINE
  5
18CE9
  8
AM_0
 10
-31.658728972875231
 20
650.84583656716654
 30
0.0
 11
-31.658728972875231
 21
656.84583674609985
 31
0.0
  0
LINE
  5
18CEA
  8
AM_0
 10
-30.658708943052272
 20
647.84583647769955
 30
0.0
 11
-30.658708943052272
 21
656.84583674609985
 31
0.0
  0
LINE
  5
18CEB
  8
AM_0
 10
71.837529339966622
 20
672.84583722325715
 30
0.0
 11
71.524916446274446
 21
647.84583647769955
 31
0.0
  0
LINE
  5
18CEC
  8
AM_0
 10
46.841942026392502
 20
770.8458401458447
 30
0.0
 11
46.841942026392502
 21
765.84583999673305
 31
0.0
  0
LINE
  5
18CED
  8
ｶｸﾚｾﾝ2
 10
-191.65889252658661
 20
315.36407951951378
 30
0.0
 11
-265.65889252658661
 21
315.36407951951378
 31
0.0
  0
LINE
  5
18CEE
  8
ｶｸﾚｾﾝ2
 10
-191.65889252658661
 20
378.36407951951378
 30
0.0
 11
-265.65889252658661
 21
378.36407951951378
 31
0.0
  0
LINE
  5
18CEF
  8
AM_0
 10
-293.15886252658657
 20
282.97406851951382
 30
0.0
 11
-240.15886252658669
 21
282.97406851951382
 31
0.0
  0
LINE
  5
18CF0
  8
AM_0
 10
-293.15886252658657
 20
281.62405451951389
 30
0.0
 11
-240.15886252658669
 21
281.62405451951389
 31
0.0
  0
LINE
  5
18CF1
  8
AM_0
 10
-293.15886252658657
 20
280.95407251951377
 30
0.0
 11
-240.15886252658669
 21
280.95407251951377
 31
0.0
  0
LINE
  5
18CF2
  8
AM_0
 10
-271.15886252658657
 20
300.51405951951392
 30
0.0
 11
-172.7588423930319
 21
300.51405951951409
 31
0.0
  0
LINE
  5
18CF3
  8
AM_0
 10
-271.15886252658669
 20
393.21406951951383
 30
0.0
 11
-172.7588423930319
 21
393.214069519514
 31
0.0
  0
LINE
  5
18CF4
  8
AM_0
 10
-175.8088325265866
 20
310.86407951951378
 30
0.0
 11
-310.60881252658658
 21
310.86407951951361
 31
0.0
  0
LINE
  5
18CF5
  8
AM_0
 10
-293.15886252658657
 20
285.0040675195138
 30
0.0
 11
-176.34887252658669
 21
285.0040675195138
 31
0.0
  0
LINE
  5
18CF6
  8
AM_0
 10
-302.47887252658671
 20
383.58405951951369
 30
0.0
 11
-172.33886252658669
 21
383.58405951951369
 31
0.0
  0
LINE
  5
18CF7
  8
AM_0
 10
-175.80883252658671
 20
382.86407951951378
 30
0.0
 11
-301.60881252658658
 21
382.86407951951361
 31
0.0
  0
LINE
  5
18CF8
  8
AM_0
 10
-175.8088325265866
 20
312.86406951951358
 30
0.0
 11
-310.60881252658658
 21
312.86406951951358
 31
0.0
  0
LINE
  5
18CF9
  8
AM_0
 10
-172.33886252658669
 20
313.49406951951369
 30
0.0
 11
-311.4788725265866
 21
313.49406951951369
 31
0.0
  0
LINE
  5
18CFA
  8
AM_0
 10
-311.4788725265866
 20
310.14405951951358
 30
0.0
 11
-172.33886252658669
 21
310.14405951951358
 31
0.0
  0
LINE
  5
18CFB
  8
AM_0
 10
-172.33886252658669
 20
380.23405951951378
 30
0.0
 11
-302.47887252658671
 21
380.23405951951378
 31
0.0
  0
LINE
  5
18CFC
  8
AM_0
 10
-173.21389252658659
 20
320.86406541951379
 30
0.0
 11
-310.60881252658658
 21
320.86405951951372
 31
0.0
  0
LINE
  5
18CFD
  8
AM_0
 10
-173.21389247422661
 20
322.86407361951387
 30
0.0
 11
-310.60881252658658
 21
322.86407951951361
 31
0.0
  0
LINE
  5
18CFE
  8
AM_0
 10
-311.6988425265867
 20
320.38406951951362
 30
0.0
 11
-172.12386252658661
 21
320.38405951951393
 31
0.0
  0
LINE
  5
18CFF
  8
AM_0
 10
-311.6988425265867
 20
323.30407951951372
 30
0.0
 11
-172.1238624501413
 21
323.30405951951388
 31
0.0
  0
LINE
  5
18D00
  8
AM_0
 10
-311.82885252658662
 20
330.5240595195138
 30
0.0
 11
-171.99385252658669
 21
330.52407951951369
 31
0.0
  0
LINE
  5
18D01
  8
AM_0
 10
-173.22388698442771
 20
330.86408148975528
 30
0.0
 11
-310.59887252658672
 21
330.86407951951361
 31
0.0
  0
LINE
  5
18D02
  8
AM_0
 10
-173.22388687970809
 20
332.8640775501845
 30
0.0
 11
-310.59887252658672
 21
332.86405951951372
 31
0.0
  0
LINE
  5
18D03
  8
AM_0
 10
-311.82885252658667
 20
333.18406951951363
 30
0.0
 11
-171.99385245694799
 21
333.1840795195136
 31
0.0
  0
LINE
  5
18D04
  8
AM_0
 10
-311.8888425265867
 20
340.59406951951371
 30
0.0
 11
-171.93386252658681
 21
340.59405551951392
 31
0.0
  0
LINE
  5
18D05
  8
AM_0
 10
-173.22388698442779
 20
340.86406148975539
 30
0.0
 11
-310.59887252658672
 21
340.86407951951361
 31
0.0
  0
LINE
  5
18D06
  8
AM_0
 10
-173.22388687970809
 20
342.8640575501845
 30
0.0
 11
-310.59887252658672
 21
342.86407951951361
 31
0.0
  0
LINE
  5
18D07
  8
AM_0
 10
-311.8888425265867
 20
343.13406951951362
 30
0.0
 11
-171.9338624600895
 21
343.13406351951392
 31
0.0
  0
LINE
  5
18D08
  8
AM_0
 10
-311.8888425265867
 20
350.6040695195137
 30
0.0
 11
-171.93386252658681
 21
350.60404551951387
 31
0.0
  0
LINE
  5
18D09
  8
AM_0
 10
-173.22388698442779
 20
350.86406148975539
 30
0.0
 11
-310.59887252658672
 21
350.8640595195136
 31
0.0
  0
LINE
  5
18D0A
  8
AM_0
 10
-173.22388687970809
 20
352.8640575501845
 30
0.0
 11
-310.59887252658672
 21
352.86407951951361
 31
0.0
  0
LINE
  5
18D0B
  8
AM_0
 10
-311.8888425265867
 20
353.13406951951362
 30
0.0
 11
-171.93386246035129
 21
353.13405351951371
 31
0.0
  0
LINE
  5
18D0C
  8
AM_0
 10
-311.82885252658667
 20
360.5440695195137
 30
0.0
 11
-171.99385252658669
 21
360.54406951951381
 31
0.0
  0
LINE
  5
18D0D
  8
AM_0
 10
-173.22388698442779
 20
360.86408148975539
 30
0.0
 11
-310.59887252658672
 21
360.86405951951372
 31
0.0
  0
LINE
  5
18D0E
  8
AM_0
 10
-173.22388687970809
 20
362.8640775501845
 30
0.0
 11
-310.59887252658672
 21
362.86405951951372
 31
0.0
  0
LINE
  5
18D0F
  8
AM_0
 10
-311.82885252658667
 20
363.20405951951358
 30
0.0
 11
-171.99385245694799
 21
363.20406951951378
 31
0.0
  0
LINE
  5
18D10
  8
AM_0
 10
-302.6988425265867
 20
370.42406951951358
 30
0.0
 11
-172.12885252658671
 21
370.42406951951358
 31
0.0
  0
LINE
  5
18D11
  8
AM_0
 10
-173.21888252658681
 20
370.86405541951359
 30
0.0
 11
-301.60881252658658
 21
370.86407951951361
 31
0.0
  0
LINE
  5
18D12
  8
AM_0
 10
-173.21888247422669
 20
372.86406361951367
 30
0.0
 11
-301.60881252658658
 21
372.86405951951372
 31
0.0
  0
LINE
  5
18D13
  8
AM_0
 10
-302.6988425265867
 20
373.35404951951369
 30
0.0
 11
-172.12885244987959
 21
373.35406951951393
 31
0.0
  0
LINE
  5
18D14
  8
AM_0
 10
-175.80885152670899
 20
380.86406116524591
 30
0.0
 11
-301.60881252658658
 21
380.86405951951372
 31
0.0
  0
LINE
  5
18D15
  8
AM_0
 10
-293.15886252658669
 20
410.75405951951359
 30
0.0
 11
-240.15886252658669
 21
410.75405951951359
 31
0.0
  0
LINE
  5
18D16
  8
AM_0
 10
-293.15886252658669
 20
412.10406951951359
 30
0.0
 11
-240.15886252658669
 21
412.10406951951359
 31
0.0
  0
LINE
  5
18D17
  8
AM_0
 10
-293.15886252658669
 20
412.78405951951362
 30
0.0
 11
-240.15886252658669
 21
412.78405951951362
 31
0.0
  0
LINE
  5
18D18
  8
AM_0
 10
-293.15886252658669
 20
408.72405951951379
 30
0.0
 11
-176.34887252658669
 21
408.72405951951379
 31
0.0
  0
LINE
  5
18D19
  8
ｶｸﾚｾﾝ2
 10
-268.65889252658661
 20
375.36407951951378
 30
0.0
 11
-268.65889252658661
 21
318.36407951951389
 31
0.0
  0
LINE
  5
18D1A
  8
AM_0
 10
-321.15883252658671
 20
298.27406951951377
 30
0.0
 11
-321.15883252658682
 21
341.8640895195137
 31
0.0
  0
LINE
  5
18D1B
  8
AM_0
 10
-316.15889252658661
 20
289.43408051951383
 30
0.0
 11
-316.15889252658673
 21
346.86407951951378
 31
0.0
  0
LINE
  5
18D1C
  8
AM_0
 10
-322.65883252658682
 20
366.86406951951358
 30
0.0
 11
-322.65883252658682
 21
326.8640895195137
 31
0.0
  0
LINE
  5
18D1D
  8
AM_0
 10
-323.6527325265867
 20
331.64218951951358
 30
0.0
 11
-323.6527325265867
 21
362.08581951951362
 31
0.0
  0
LINE
  5
18D1E
  8
AM_0
 10
-312.43883252658662
 20
395.21406951951383
 30
0.0
 11
-311.89879252658659
 21
398.20406951951378
 31
0.0
  0
LINE
  5
18D1F
  8
AM_0
 10
-319.15889252658673
 20
396.36407951951378
 30
0.0
 11
-319.15889252658673
 21
395.83407951951369
 31
0.0
  0
LINE
  5
18D20
  8
AM_0
 10
-319.38887252658679
 20
396.48407951951373
 30
0.0
 11
-320.65889252658673
 21
395.74406951951369
 31
0.0
  0
LINE
  5
18D21
  8
AM_0
 10
-316.15889252658673
 20
404.29406951951358
 30
0.0
 11
-316.15889252658673
 21
346.86407951951378
 31
0.0
  0
ARC
  5
18D22
  8
AM_0
 10
-293.16430252658671
 20
410.10949951951341
 30
0.0
 40
1.9945760999999991
 50
89.844008000000045
 51
180.15599000000279
  0
ARC
  5
18D23
  8
AM_0
 10
-293.15636252658652
 20
410.78921951951372
 30
0.0
 40
1.994844099999999
 50
90.071657999997896
 51
165.63720000000029
  0
LINE
  5
18D24
  8
AM_0
 10
-309.92888252658668
 20
399.84405951951368
 30
0.0
 11
-296.65886252658669
 21
399.84405951951368
 31
0.0
  0
LINE
  5
18D25
  8
AM_0
 10
-310.04888252658662
 20
410.16405951951361
 30
0.0
 11
-296.54888252658662
 21
410.16405951951361
 31
0.0
  0
LINE
  5
18D26
  8
AM_0
 10
-310.01885252658673
 20
408.53405951951368
 30
0.0
 11
-296.65886252658669
 21
408.53405951951368
 31
0.0
  0
LINE
  5
18D27
  8
AM_0
 10
-309.98882252658672
 20
405.13406951951339
 30
0.0
 11
-296.65886252658669
 21
405.13406951951339
 31
0.0
  0
ARC
  5
18D28
  8
AM_0
 10
-309.98717252658668
 20
403.13866951951371
 30
0.0
 40
1.9953879999999991
 50
90.048066999997786
 51
167.98461999999989
  0
LINE
  5
18D29
  8
AM_0
 10
-311.96886252658658
 20
406.99406951951357
 30
0.0
 11
-312.88890252658672
 21
403.11407951951361
 31
0.0
  0
ARC
  5
18D2A
  8
AM_0
 10
-314.33056252658668
 20
405.49116951951362
 30
0.0
 40
1.5070961
 50
270.0648200000017
 51
345.90217999999652
  0
LINE
  5
18D2B
  8
AM_0
 10
-314.32885252658667
 20
403.98406951951358
 30
0.0
 11
-312.67882252658671
 21
403.98406951951358
 31
0.0
  0
LINE
  5
18D2C
  8
AM_0
 10
-316.15892252658671
 20
404.29406951951358
 30
0.0
 11
-313.33886252658658
 21
404.36405951951349
 31
0.0
  0
LINE
  5
18D2D
  8
AM_0
 10
-311.98888252658668
 20
408.6540795195134
 30
0.0
 11
-312.86889252658659
 21
405.1240895195134
 31
0.0
  0
ARC
  5
18D2E
  8
AM_0
 10
-310.02605252658651
 20
406.53860951951361
 30
0.0
 40
1.9954841000000001
 50
89.793457999999177
 51
166.80592000000149
  0
ARC
  5
18D2F
  8
AM_0
 10
-310.05156252658668
 20
408.16628951951361
 30
0.0
 40
1.9977800999999991
 50
89.923080999997794
 51
165.8677699999968
  0
LINE
  5
18D30
  8
AM_0
 10
-314.36889252658671
 20
397.90404951951359
 30
0.0
 11
-311.9488425265867
 21
397.90404951951359
 31
0.0
  0
ARC
  5
18D31
  8
AM_0
 10
-314.36766252658668
 20
399.40819951951391
 30
0.0
 40
1.50414
 50
269.95424999999858
 51
347.5552499999967
  0
LINE
  5
18D32
  8
AM_0
 10
-314.3488725265866
 20
401.96404951951359
 30
0.0
 11
-312.28887252658672
 21
401.96404951951359
 31
0.0
  0
ARC
  5
18D33
  8
AM_0
 10
-314.3496625265866
 20
403.46686951951358
 30
0.0
 40
1.5028081
 50
270.03079000000162
 51
346.42217999999752
  0
ARC
  5
18D34
  8
AM_0
 10
-318.89686252658657
 20
395.61819951951378
 30
0.0
 40
0.9959119600000002
 50
89.541444000003864
 51
119.6069900000049
  0
ARC
  5
18D35
  8
AM_0
 10
-316.6634725265867
 20
397.118699519514
 30
0.0
 40
0.5046359900000002
 50
270.52375999999953
 51
359.47624000000047
  0
LINE
  5
18D36
  8
AM_0
 10
-318.88887252658679
 20
396.61407951951378
 30
0.0
 11
-316.65883252658671
 21
396.61407951951378
 31
0.0
  0
ARC
  5
18D37
  8
AM_0
 10
-309.9370025265867
 20
397.85062951951392
 30
0.0
 40
1.993431999999999
 50
89.765883999999261
 51
169.7880300000003
  0
LINE
  5
18D38
  8
AM_0
 10
-311.93883252658662
 20
403.55405951951349
 30
0.0
 11
-312.89885252658672
 21
399.08405951951369
 31
0.0
  0
LINE
  5
18D39
  8
AM_0
 10
-295.15886252658669
 20
408.7540595195137
 30
0.0
 11
-295.15886252658669
 21
401.34405951951351
 31
0.0
  0
ARC
  5
18D3A
  8
AM_0
 10
-296.66063252658671
 20
406.63584951951361
 30
0.0
 40
1.5017959999999979
 50
270.06854999999888
 51
359.93145000000112
  0
ARC
  5
18D3B
  8
AM_0
 10
-296.54522252658649
 20
411.67095951951381
 30
0.0
 40
1.506888
 50
269.8622299999995
 51
345.12306999999493
  0
ARC
  5
18D3C
  8
AM_0
 10
-293.16161252658668
 20
408.75684951951371
 30
0.0
 40
1.9972080000000001
 50
89.919857000000462
 51
180.08013999999889
  0
ARC
  5
18D3D
  8
AM_0
 10
-293.16246252658658
 20
406.7276795195138
 30
0.0
 40
1.996383999999999
 50
89.896163000000044
 51
180.10384000000261
  0
ARC
  5
18D3E
  8
AM_0
 10
-296.66271252658657
 20
410.0378995195137
 30
0.0
 40
1.503848099999999
 50
270.14640000000298
 51
359.8535999999969
  0
ARC
  5
18D3F
  8
AM_0
 10
-296.66454252658662
 20
401.3497295195138
 30
0.0
 40
1.505676
 50
270.21551999999878
 51
359.78447000000102
  0
LINE
  5
18D40
  8
AM_0
 10
-322.65883252658682
 20
362.01408951951367
 30
0.0
 11
-318.37886252658677
 21
362.01408951951367
 31
0.0
  0
LINE
  5
18D41
  8
AM_0
 10
-317.15889252658673
 20
362.86407951951378
 30
0.0
 11
-320.15889252658673
 21
362.86407951951378
 31
0.0
  0
LINE
  5
18D42
  8
AM_0
 10
-317.15889252658673
 20
360.86406951951358
 30
0.0
 11
-320.15889252658673
 21
360.86406951951358
 31
0.0
  0
LINE
  5
18D43
  8
AM_0
 10
-317.15889252658673
 20
372.86406951951358
 30
0.0
 11
-320.15889252658673
 21
372.86406951951358
 31
0.0
  0
LINE
  5
18D44
  8
AM_0
 10
-317.15889252658673
 20
370.86407951951389
 30
0.0
 11
-320.15889252658673
 21
370.86407951951389
 31
0.0
  0
LINE
  5
18D45
  8
AM_0
 10
-319.34889252658678
 20
382.47409951951369
 30
0.0
 11
-320.54890252658669
 21
381.9640995195137
 31
0.0
  0
LINE
  5
18D46
  8
AM_0
 10
-319.29884252658672
 20
380.56407951951371
 30
0.0
 11
-320.44887252658668
 21
380.21406951951349
 31
0.0
  0
LINE
  5
18D47
  8
AM_0
 10
-319.39888252658682
 20
394.36407951951378
 30
0.0
 11
-320.67891252658683
 21
393.5940895195136
 31
0.0
  0
LINE
  5
18D48
  8
AM_0
 10
-319.40889252658673
 20
389.82403951951369
 30
0.0
 11
-320.70888252658682
 21
388.9740495195137
 31
0.0
  0
LINE
  5
18D49
  8
AM_0
 10
-319.38887252658679
 20
388.7140595195138
 30
0.0
 11
-320.66890252658669
 21
387.9640595195138
 31
0.0
  0
LINE
  5
18D4A
  8
AM_0
 10
-319.36885252658669
 20
395.36410951951359
 30
0.0
 11
-320.60884252658678
 21
394.73410951951359
 31
0.0
  0
LINE
  5
18D4B
  8
AM_0
 10
-319.37886252658677
 20
393.25409951951372
 30
0.0
 11
-320.62892252658679
 21
392.58409951951359
 31
0.0
  0
LINE
  5
18D4C
  8
AM_0
 10
-317.15889252658673
 20
340.86407951951378
 30
0.0
 11
-320.15889252658673
 21
340.86407951951378
 31
0.0
  0
LINE
  5
18D4D
  8
AM_0
 10
-317.15889252658673
 20
342.86406951951358
 30
0.0
 11
-320.15889252658673
 21
342.86406951951358
 31
0.0
  0
LINE
  5
18D4E
  8
AM_0
 10
-317.15889252658673
 20
352.86407951951378
 30
0.0
 11
-320.15889252658673
 21
352.86407951951378
 31
0.0
  0
LINE
  5
18D4F
  8
AM_0
 10
-317.15889252658673
 20
350.86407951951378
 30
0.0
 11
-320.15889252658673
 21
350.86407951951378
 31
0.0
  0
LINE
  5
18D50
  8
AM_0
 10
-321.15883252658682
 20
394.88408951951362
 30
0.0
 11
-321.15883252658682
 21
351.86406951951369
 31
0.0
  0
ARC
  5
18D51
  8
AM_0
 10
-320.16408252658681
 20
388.14167951951367
 30
0.0
 40
0.9948279899999999
 50
123.2046899999992
 51
180.43813
  0
ARC
  5
18D52
  8
AM_0
 10
-320.16566252658669
 20
391.70550951951378
 30
0.0
 40
0.9932120399999999
 50
117.7993400000048
 51
180.08183000000079
  0
ARC
  5
18D53
  8
AM_0
 10
-320.16566252658669
 20
394.8819995195139
 30
0.0
 40
0.99319202
 50
119.7733999999963
 51
179.8795600000004
  0
ARC
  5
18D54
  8
AM_0
 10
-320.16328252658678
 20
393.84376951951401
 30
0.0
 40
0.99558806
 50
116.58749000000461
 51
179.98225000000099
  0
ARC
  5
18D55
  8
AM_0
 10
-320.16444252658681
 20
392.7430495195137
 30
0.0
 40
0.9944360299999999
 50
121.15217000000121
 51
179.9404899999993
  0
ARC
  5
18D56
  8
AM_0
 10
-320.16249252658668
 20
381.04565951951378
 30
0.0
 40
0.99640006
 50
112.8173899999984
 51
180.09039999999871
  0
ARC
  5
18D57
  8
AM_0
 10
-320.16481252658679
 20
387.10727951951372
 30
0.0
 40
0.99407601
 50
120.4692000000029
 51
180.18464000000071
  0
ARC
  5
18D58
  8
AM_0
 10
-320.16261252658671
 20
379.25982951951403
 30
0.0
 40
0.9962600499999998
 50
106.69748999999921
 51
180.3304900000002
  0
LINE
  5
18D59
  8
AM_0
 10
-322.65889252658673
 20
366.86409951951379
 30
0.0
 11
-321.15889252658673
 21
366.99409951951372
 31
0.0
  0
ARC
  5
18D5A
  8
AM_0
 10
-320.16383252658682
 20
371.86900951951378
 30
0.0
 40
0.9950800499999999
 50
89.715921000001273
 51
180.28406999999919
  0
ARC
  5
18D5B
  8
AM_0
 10
-320.15871252658673
 20
371.86429951951368
 30
0.0
 40
1.0002040000000001
 50
180.01167000000461
 51
269.98832000000073
  0
ARC
  5
18D5C
  8
AM_0
 10
-320.16383252658682
 20
361.868989519514
 30
0.0
 40
0.99508399
 50
89.716132999997484
 51
180.2838699999979
  0
ARC
  5
18D5D
  8
AM_0
 10
-320.15871252658673
 20
361.86427951951379
 30
0.0
 40
1.000199999999998
 50
180.0114699999998
 51
269.98853000000008
  0
LINE
  5
18D5E
  8
AM_0
 10
-322.65883252658682
 20
364.1440795195137
 30
0.0
 11
-321.15883252658682
 21
364.1440795195137
 31
0.0
  0
LINE
  5
18D5F
  8
AM_0
 10
-323.15273252658659
 20
364.85583951951349
 30
0.0
 11
-322.6527325265867
 21
364.8158295195135
 31
0.0
  0
LINE
  5
18D60
  8
AM_0
 10
-323.6527325265867
 20
362.08581951951362
 30
0.0
 11
-323.15273252658659
 21
364.85583951951349
 31
0.0
  0
ARC
  5
18D61
  8
AM_0
 10
-320.16383252658682
 20
351.86900951951378
 30
0.0
 40
0.9950879799999999
 50
89.716345000002889
 51
180.28365000000051
  0
ARC
  5
18D62
  8
AM_0
 10
-320.15871252658673
 20
351.86427951951379
 30
0.0
 40
1.0001959999999981
 50
180.01124999999939
 51
269.98873999999938
  0
ARC
  5
18D63
  8
AM_0
 10
-320.16383252658682
 20
341.8690095195139
 30
0.0
 40
0.9950800499999999
 50
89.715894000002791
 51
180.28409999999971
  0
POINT
  5
18D64
  8
AM_0
 10
-323.65273252658659
 20
346.86404951951351
 30
0.0
  0
ARC
  5
18D65
  8
AM_0
 10
-320.15871252658673
 20
341.86429951951379
 30
0.0
 40
1.0002040000000001
 50
180.01170000000161
 51
269.98830000000481
  0
LINE
  5
18D66
  8
AM_0
 10
-271.15886252658669
 20
393.21404951951359
 30
0.0
 11
-306.15886252658669
 21
391.18404951951362
 31
0.0
  0
ARC
  5
18D67
  8
AM_0
 10
-294.15886252658657
 20
381.86405951951377
 30
0.0
 40
1.0000040999999991
 50
90.000002999997704
 51
270.0
  0
ARC
  5
18D68
  8
AM_0
 10
-301.60881252658652
 20
381.86405951951377
 30
0.0
 40
1.0000040999999991
 50
90.000002999997704
 51
270.0
  0
ARC
  5
18D69
  8
AM_0
 10
-302.47887252658671
 20
381.90905951951402
 30
0.0
 40
1.6750081000000001
 50
90.000002999997704
 51
270.0
  0
LINE
  5
18D6A
  8
AM_0
 10
-316.15886252658669
 20
381.17405951951361
 30
0.0
 11
-306.15886252658669
 21
381.17405951951361
 31
0.0
  0
LINE
  5
18D6B
  8
AM_0
 10
-316.15886252658669
 20
395.21404951951359
 30
0.0
 11
-306.15886252658669
 21
395.21404951951359
 31
0.0
  0
LINE
  5
18D6C
  8
AM_0
 10
-316.15886252658669
 20
389.55405951951371
 30
0.0
 11
-306.15886252658669
 21
389.55405951951371
 31
0.0
  0
ARC
  5
18D6D
  8
AM_0
 10
-317.16127252658669
 20
387.85170951951392
 30
0.0
 40
1.002375999999999
 50
0.1355919900039292
 51
89.864409999999296
  0
ARC
  5
18D6E
  8
AM_0
 10
-318.92378252658671
 20
392.368719519514
 30
0.0
 40
0.99546796
 50
89.141448000001617
 51
117.2036599999999
  0
ARC
  5
18D6F
  8
AM_0
 10
-317.15785252658662
 20
392.3650695195139
 30
0.0
 40
0.9990080599999998
 50
359.94314999999722
 51
90.056842999996107
  0
LINE
  5
18D70
  8
AM_0
 10
-318.90883252658671
 20
393.36407951951389
 30
0.0
 11
-317.15889252658673
 21
393.36407951951389
 31
0.0
  0
ARC
  5
18D71
  8
AM_0
 10
-318.85225252658671
 20
388.99788951951359
 30
0.0
 40
0.9962120099999999
 50
90.381906000001862
 51
123.96990000000071
  0
ARC
  5
18D72
  8
AM_0
 10
-318.87947252658671
 20
387.85759951951383
 30
0.0
 40
0.9965200400000001
 50
90.541212999999502
 51
120.7432800000026
  0
LINE
  5
18D73
  8
AM_0
 10
-318.85884252658678
 20
389.99408951951369
 30
0.0
 11
-316.15889252658673
 21
389.99408951951369
 31
0.0
  0
LINE
  5
18D74
  8
AM_0
 10
-318.88887252658679
 20
388.85406951951359
 30
0.0
 11
-317.15889252658673
 21
388.85406951951359
 31
0.0
  0
LINE
  5
18D75
  8
AM_0
 10
-319.15889252658673
 20
389.6940695195135
 30
0.0
 11
-319.15889252658673
 21
389.22407951951368
 31
0.0
  0
ARC
  5
18D76
  8
AM_0
 10
-318.93410252658668
 20
394.47004951951391
 30
0.0
 40
0.9941280500000002
 50
89.122808000001939
 51
115.9348099999973
  0
ARC
  5
18D77
  8
AM_0
 10
-318.89003252658682
 20
393.5098795195139
 30
0.0
 40
0.9942600099999999
 50
89.355882000002438
 51
120.7810900000021
  0
ARC
  5
18D78
  8
AM_0
 10
-316.6572425265868
 20
394.9657195195137
 30
0.0
 40
0.4983640000000002
 50
359.81141000000162
 51
90.188597999994357
  0
LINE
  5
18D79
  8
AM_0
 10
-318.87886252658677
 20
394.50406951951368
 30
0.0
 11
-316.15889252658673
 21
394.50406951951368
 31
0.0
  0
LINE
  5
18D7A
  8
AM_0
 10
-318.91890252658669
 20
395.4640695195136
 30
0.0
 11
-316.65883252658671
 21
395.4640695195136
 31
0.0
  0
LINE
  5
18D7B
  8
AM_0
 10
-319.15889252658673
 20
394.26408951951367
 30
0.0
 11
-319.15889252658673
 21
393.71408951951372
 31
0.0
  0
ARC
  5
18D7C
  8
AM_0
 10
-318.95790252658668
 20
381.5585995195139
 30
0.0
 40
0.99548006
 50
90.057321000005274
 51
113.1270299999957
  0
ARC
  5
18D7D
  8
AM_0
 10
-316.8634225265867
 20
383.25862951951382
 30
0.0
 40
0.7045519900000002
 50
270.36910999999952
 51
359.63089000000048
  0
LINE
  5
18D7E
  8
AM_0
 10
-318.95888252658682
 20
382.55407951951361
 30
0.0
 11
-316.85890252658669
 21
382.55407951951361
 31
0.0
  0
LINE
  5
18D7F
  8
AM_0
 10
-319.15889252658673
 20
382.25407951951371
 30
0.0
 11
-319.15889252658673
 21
381.19407951951382
 31
0.0
  0
ARC
  5
18D80
  8
AM_0
 10
-303.00896252658669
 20
388.07421951951397
 30
0.0
 40
1.004135999999999
 50
354.84883999999568
 51
45.79743600000085
  0
LINE
  5
18D81
  8
AM_0
 10
-306.15886252658669
 20
395.21404951951359
 30
0.0
 11
-306.15886252658669
 21
381.17405951951361
 31
0.0
  0
ARC
  5
18D82
  8
AM_0
 10
-306.53765252658661
 20
384.5321195195138
 30
0.0
 40
6.0039081999999979
 50
45.223693000000779
 51
86.382714000002196
  0
ARC
  5
18D83
  8
AM_0
 10
-306.99395252658661
 20
388.46183951951377
 30
0.0
 40
5.0078917000000001
 50
279.59872000000149
 51
354.52532000000059
  0
ARC
  5
18D84
  8
AM_0
 10
-317.16377252658668
 20
373.868989519514
 30
0.0
 40
1.0049318999999981
 50
270.28041999999698
 51
359.7195799999966
  0
ARC
  5
18D85
  8
AM_0
 10
-319.01973252658678
 20
379.61136951951357
 30
0.0
 40
0.99277198
 50
89.374808000000129
 51
106.3318199999987
  0
ARC
  5
18D86
  8
AM_0
 10
-317.15718252658672
 20
379.60577951951387
 30
0.0
 40
0.99829602
 50
359.90204000000392
 51
90.097961000005512
  0
LINE
  5
18D87
  8
AM_0
 10
-319.00886252658682
 20
380.60406951951359
 30
0.0
 11
-317.15889252658673
 21
380.60406951951359
 31
0.0
  0
LINE
  5
18D88
  8
AM_0
 10
-319.15889252658673
 20
372.49408951951369
 30
0.0
 11
-319.15889252658673
 21
371.1240895195138
 31
0.0
  0
ARC
  5
18D89
  8
AM_0
 10
-317.15871252658673
 20
369.86422951951369
 30
0.0
 40
0.99985206
 50
359.9914500000001
 51
90.00854700000211
  0
ARC
  5
18D8A
  8
AM_0
 10
-302.69884252658659
 20
371.88906951951373
 30
0.0
 40
1.4650000000000001
 50
90.000002999997704
 51
270.0
  0
ARC
  5
18D8B
  8
AM_0
 10
-301.60881252658652
 20
371.86405951951377
 30
0.0
 40
1.0000040999999991
 50
90.000002999997704
 51
270.0
  0
ARC
  5
18D8C
  8
AM_0
 10
-294.15886252658657
 20
371.86405951951377
 30
0.0
 40
1.0000040999999991
 50
90.000002999997704
 51
270.0
  0
ARC
  5
18D8D
  8
ｶｸﾚｾﾝ2
 10
-265.65889252658673
 20
375.36407951951378
 30
0.0
 40
3.0
 50
90.000000000000057
 51
180.0
  0
ARC
  5
18D8E
  8
AM_0
 10
-317.15871252658673
 20
349.86422951951369
 30
0.0
 40
0.99984801
 50
359.99122000000051
 51
90.008779000004665
  0
ARC
  5
18D8F
  8
AM_0
 10
-311.82885252658667
 20
361.87406951951391
 30
0.0
 40
1.3300000000000001
 50
90.000002999997704
 51
270.0
  0
ARC
  5
18D90
  8
AM_0
 10
-317.15871252658673
 20
359.86421951951388
 30
0.0
 40
0.9998440099999999
 50
359.99100999999632
 51
90.008991000005111
  0
LINE
  5
18D91
  8
AM_0
 10
-319.15889252658673
 20
362.47406951951371
 30
0.0
 11
-319.15889252658673
 21
361.26408951951367
 31
0.0
  0
ARC
  5
18D92
  8
AM_0
 10
-317.16377252658668
 20
363.868989519514
 30
0.0
 40
1.004928
 50
270.28021999999982
 51
359.7197800000003
  0
ARC
  5
18D93
  8
AM_0
 10
-310.60753252658662
 20
361.86407951951378
 30
0.0
 40
1.000035999999999
 50
89.500716000000125
 51
270.49929000000162
  0
ARC
  5
18D94
  8
AM_0
 10
-311.8888425265867
 20
351.86904951951379
 30
0.0
 40
1.265004
 50
90.000002999997704
 51
270.0
  0
LINE
  5
18D95
  8
AM_0
 10
-319.15889252658673
 20
352.47407951951368
 30
0.0
 11
-319.15889252658673
 21
351.31405951951371
 31
0.0
  0
ARC
  5
18D96
  8
AM_0
 10
-317.16377252658668
 20
353.86897951951369
 30
0.0
 40
1.0049238999999981
 50
270.28000999999642
 51
359.71998999999721
  0
ARC
  5
18D97
  8
AM_0
 10
-310.60753252658662
 20
351.86405951951377
 30
0.0
 40
1.000035999999999
 50
89.500716000000125
 51
270.49929000000162
  0
ARC
  5
18D98
  8
AM_0
 10
-294.15886252658657
 20
361.86407951951378
 30
0.0
 40
1.0000040999999991
 50
90.000002999997704
 51
270.0
  0
ARC
  5
18D99
  8
AM_0
 10
-294.15886252658657
 20
351.86405951951377
 30
0.0
 40
1.0000040999999991
 50
90.000002999997704
 51
270.0
  0
ARC
  5
18D9A
  8
AM_0
 10
-310.60753252658662
 20
341.86405951951389
 30
0.0
 40
1.000035999999999
 50
89.500716000000125
 51
270.49929000000162
  0
ARC
  5
18D9B
  8
AM_0
 10
-317.16383252658682
 20
343.86899951951369
 30
0.0
 40
1.0049318999999981
 50
270.280450000001
 51
359.719549999999
  0
ARC
  5
18D9C
  8
AM_0
 10
-311.8888425265867
 20
341.86405951951389
 30
0.0
 40
1.270003999999999
 50
90.000002999997704
 51
270.0
  0
LINE
  5
18D9D
  8
AM_0
 10
-319.15889252658673
 20
341.25406951951368
 30
0.0
 11
-319.15889252658673
 21
342.41408951951371
 31
0.0
  0
ARC
  5
18D9E
  8
AM_0
 10
-317.15871252658673
 20
339.86422951951369
 30
0.0
 40
0.99985206
 50
359.99142999999799
 51
90.008574000001275
  0
ARC
  5
18D9F
  8
AM_0
 10
-294.15886252658657
 20
341.86405951951389
 30
0.0
 40
1.0000040999999991
 50
90.000002999997704
 51
270.0
  0
LINE
  5
18DA0
  8
AM_0
 10
-319.38887252658662
 20
297.25411051951392
 30
0.0
 11
-320.65889252658661
 21
297.98410651951389
 31
0.0
  0
LINE
  5
18DA1
  8
AM_0
 10
-319.36891252658683
 20
298.37410551951388
 30
0.0
 11
-320.60890252658658
 21
299.00410351951382
 31
0.0
  0
LINE
  5
18DA2
  8
AM_0
 10
-319.4088925265865
 20
303.90408951951372
 30
0.0
 11
-320.70888252658682
 21
304.7540955195139
 31
0.0
  0
LINE
  5
18DA3
  8
AM_0
 10
-319.39888252658659
 20
299.36411151951393
 30
0.0
 11
-320.67891252658671
 21
300.13412351951382
 31
0.0
  0
LINE
  5
18DA4
  8
AM_0
 10
-319.38887252658668
 20
305.01409751951383
 30
0.0
 11
-320.66884252658667
 21
305.76408251951369
 31
0.0
  0
LINE
  5
18DA5
  8
AM_0
 10
-319.37886252658672
 20
300.48407651951368
 30
0.0
 11
-320.6288625265866
 21
301.14406451951379
 31
0.0
  0
LINE
  5
18DA6
  8
AM_0
 10
-319.34889252658672
 20
311.25410351951359
 30
0.0
 11
-320.54884252658661
 21
311.77406951951372
 31
0.0
  0
LINE
  5
18DA7
  8
AM_0
 10
-319.29884252658661
 20
313.16409951951368
 30
0.0
 11
-320.44887252658663
 21
313.52409951951358
 31
0.0
  0
LINE
  5
18DA8
  8
AM_0
 10
-322.65883252658682
 20
331.71406951951349
 30
0.0
 11
-318.07887252658668
 21
331.71406951951349
 31
0.0
  0
LINE
  5
18DA9
  8
AM_0
 10
-317.15889252658661
 20
320.8640895195137
 30
0.0
 11
-320.15889252658661
 21
320.8640895195137
 31
0.0
  0
LINE
  5
18DAA
  8
AM_0
 10
-317.15889252658661
 20
322.86407951951389
 30
0.0
 11
-320.15889252658661
 21
322.86407951951389
 31
0.0
  0
LINE
  5
18DAB
  8
AM_0
 10
-317.15889252658661
 20
330.86406951951369
 30
0.0
 11
-320.15889252658661
 21
330.86406951951369
 31
0.0
  0
LINE
  5
18DAC
  8
AM_0
 10
-317.15889252658673
 20
332.86408951951358
 30
0.0
 11
-320.15889252658673
 21
332.86408951951358
 31
0.0
  0
LINE
  5
18DAD
  8
AM_0
 10
-322.65883252658682
 20
329.58407951951358
 30
0.0
 11
-321.15883252658682
 21
329.58407951951358
 31
0.0
  0
LINE
  5
18DAE
  8
AM_0
 10
-323.15273252658648
 20
328.8722295195135
 30
0.0
 11
-322.65270252658678
 21
328.91223951951361
 31
0.0
  0
ARC
  5
18DAF
  8
AM_0
 10
-320.15871252658673
 20
331.86428951951382
 30
0.0
 40
1.000199999999998
 50
180.01150000000339
 51
269.98851000000423
  0
LINE
  5
18DB0
  8
AM_0
 10
-323.6527325265867
 20
331.6422195195135
 30
0.0
 11
-323.15273252658648
 21
328.8722295195135
 31
0.0
  0
ARC
  5
18DB1
  8
AM_0
 10
-320.16383252658682
 20
331.86899951951369
 30
0.0
 40
0.99508399
 50
89.716105999999499
 51
180.28389000000439
  0
ARC
  5
18DB2
  8
AM_0
 10
-320.15871252658673
 20
321.8642795195139
 30
0.0
 40
1.0001959999999981
 50
180.0112800000031
 51
269.98872000000353
  0
ARC
  5
18DB3
  8
AM_0
 10
-320.16383252658682
 20
321.86901951951359
 30
0.0
 40
0.99508399
 50
89.716323999996135
 51
180.2836799999998
  0
LINE
  5
18DB4
  8
AM_0
 10
-322.65883252658682
 20
326.86407951951389
 30
0.0
 11
-321.15889252658661
 21
326.73407951951373
 31
0.0
  0
ARC
  5
18DB5
  8
AM_0
 10
-320.16237252658669
 20
312.69254951951382
 30
0.0
 40
0.9964760499999998
 50
179.91258000000059
 51
247.17965999999919
  0
ARC
  5
18DB6
  8
AM_0
 10
-320.16249252658668
 20
314.4784225195138
 30
0.0
 40
0.9963800299999999
 50
180.24949000000021
 51
253.2970700000013
  0
ARC
  5
18DB7
  8
AM_0
 10
-320.1598025265867
 20
305.58876651951391
 30
0.0
 40
0.9991000299999999
 50
179.69542000000101
 51
236.66177000000431
  0
ARC
  5
18DB8
  8
AM_0
 10
-320.16041252658681
 20
306.62338151951388
 30
0.0
 40
0.9984599899999999
 50
179.9596199999994
 51
239.38655000000099
  0
ARC
  5
18DB9
  8
AM_0
 10
-320.1611525265867
 20
302.02537351951401
 30
0.0
 40
0.99770796
 50
180.07404999999949
 51
242.0447600000023
  0
ARC
  5
18DBA
  8
AM_0
 10
-320.16322252658671
 20
299.89443851951381
 30
0.0
 40
0.99566799
 50
180.0204300000008
 51
243.40983000000199
  0
ARC
  5
18DBB
  8
AM_0
 10
-320.16127252658657
 20
298.8487455195139
 30
0.0
 40
0.9976240400000001
 50
180.26751000000391
 51
240.0795399999995
  0
ARC
  5
18DBC
  8
AM_0
 10
-320.16011252658677
 20
300.98757751951388
 30
0.0
 40
0.9987800700000001
 50
179.6266700000001
 51
238.7085500000006
  0
ARC
  5
18DBD
  8
AM_0
 10
-306.52861252658658
 20
309.2105695195138
 30
0.0
 40
6.007896399999999
 50
273.52844999999837
 51
314.61726999999348
  0
LINE
  5
18DBE
  8
AM_0
 10
-306.15886252658657
 20
298.51406951951378
 30
0.0
 11
-306.15886252658669
 21
310.20406990738229
 31
0.0
  0
ARC
  5
18DBF
  8
AM_0
 10
-317.15871252658673
 20
319.86423951951389
 30
0.0
 40
0.99984801
 50
359.991189999997
 51
90.008807000005277
  0
ARC
  5
18DC0
  8
AM_0
 10
-311.82885252658667
 20
331.85407951951362
 30
0.0
 40
1.3300000000000001
 50
90.000002999997704
 51
270.0
  0
LINE
  5
18DC1
  8
AM_0
 10
-319.15889252658661
 20
331.25408951951368
 30
0.0
 11
-319.15889252658673
 21
332.47406951951382
 31
0.0
  0
ARC
  5
18DC2
  8
AM_0
 10
-317.15871252658673
 20
329.86422951951369
 30
0.0
 40
0.9998440099999999
 50
359.99097999999952
 51
90.009017999997724
  0
ARC
  5
18DC3
  8
AM_0
 10
-317.16377252658668
 20
333.86898951951389
 30
0.0
 40
1.004928
 50
270.28023999999999
 51
359.71976000000001
  0
ARC
  5
18DC4
  8
AM_0
 10
-310.60753252658662
 20
331.86407951951378
 30
0.0
 40
1.000035999999999
 50
89.500716000000125
 51
270.49929000000162
  0
ARC
  5
18DC5
  8
AM_0
 10
-311.69884252658659
 20
321.84405951951391
 30
0.0
 40
1.4599999999999991
 50
90.000002999997704
 51
270.0
  0
LINE
  5
18DC6
  8
AM_0
 10
-319.15889252658661
 20
321.23407951951373
 30
0.0
 11
-319.15889252658661
 21
322.60406951951359
 31
0.0
  0
ARC
  5
18DC7
  8
AM_0
 10
-317.16377252658668
 20
323.868989519514
 30
0.0
 40
1.0049238999999981
 50
270.2800399999993
 51
359.71996999999732
  0
ARC
  5
18DC8
  8
AM_0
 10
-310.60881252658652
 20
321.86406951951358
 30
0.0
 40
1.0000040999999991
 50
90.000002999997704
 51
270.0
  0
ARC
  5
18DC9
  8
AM_0
 10
-294.15886252658657
 20
331.86407951951378
 30
0.0
 40
1.0000040999999991
 50
90.000002999997704
 51
270.0
  0
ARC
  5
18DCA
  8
AM_0
 10
-294.15886252658657
 20
321.86406951951358
 30
0.0
 40
1.0000040999999991
 50
90.000002999997704
 51
270.0
  0
ARC
  5
18DCB
  8
AM_0
 10
-310.60880989666509
 20
311.86406246951361
 30
0.0
 40
1.000007050003423
 50
90.000150682352697
 51
269.99984931765391
  0
LINE
  5
18DCC
  8
AM_0
 10
-319.15889252658661
 20
311.47407351951369
 30
0.0
 11
-319.15889252658661
 21
312.5340715195137
 31
0.0
  0
ARC
  5
18DCD
  8
AM_0
 10
-311.47887252658671
 20
311.81905951951381
 30
0.0
 40
1.6750081000000001
 50
90.000002999997704
 51
270.0
  0
LINE
  5
18DCE
  8
AM_0
 10
-316.15886252658669
 20
312.56406951951368
 30
0.0
 11
-312.98882252658672
 21
312.56406951951368
 31
0.0
  0
ARC
  5
18DCF
  8
AM_0
 10
-317.16218252658678
 20
314.12743251951372
 30
0.0
 40
1.003363999999999
 50
270.19170999999869
 51
359.80828000000298
  0
ARC
  5
18DD0
  8
AM_0
 10
-319.0183225265867
 20
314.12676851951397
 30
0.0
 40
1.0027280000000001
 50
253.75297000000231
 51
270.54039999999952
  0
LINE
  5
18DD1
  8
AM_0
 10
-319.00886252658682
 20
313.1240835195137
 30
0.0
 11
-317.15889252658661
 21
313.1240835195137
 31
0.0
  0
ARC
  5
18DD2
  8
AM_0
 10
-318.8955225265866
 20
305.88507751951391
 30
0.0
 40
1.001012
 50
240.4713600000002
 51
270.3802000000037
  0
ARC
  5
18DD3
  8
AM_0
 10
-317.1613325265867
 20
305.88654151951391
 30
0.0
 40
1.0024599999999999
 50
270.14038000000551
 51
359.85962000000097
  0
LINE
  5
18DD4
  8
AM_0
 10
-318.88887252658668
 20
304.88408551951369
 30
0.0
 11
-317.15889252658661
 21
304.88408551951369
 31
0.0
  0
ARC
  5
18DD5
  8
AM_0
 10
-316.85829252658669
 20
310.4746385195138
 30
0.0
 40
0.69944
 50
359.95415999999977
 51
90.045840000000197
  0
ARC
  5
18DD6
  8
AM_0
 10
-318.95589252658669
 20
312.17930451951372
 30
0.0
 40
1.005223999999999
 50
246.98628999999821
 51
269.82936000000359
  0
LINE
  5
18DD7
  8
AM_0
 10
-318.95888252658682
 20
311.17407851951373
 30
0.0
 11
-316.85890252658669
 21
311.17407851951373
 31
0.0
  0
ARC
  5
18DD8
  8
AM_0
 10
-294.15886252658657
 20
311.86405951951389
 30
0.0
 40
1.0000040999999991
 50
90.000002999997704
 51
270.0
  0
ARC
  5
18DD9
  8
AM_0
 10
-303.01232252658662
 20
305.65515951951392
 30
0.0
 40
1.007376
 50
314.29032000000342
 51
5.0634048999973622
  0
ARC
  5
18DDA
  8
AM_0
 10
-306.9886425265866
 20
305.27118951951411
 30
0.0
 40
5.0021839000000003
 50
5.424525999997571
 51
80.451425000001365
  0
ARC
  5
18DDB
  8
ｶｸﾚｾﾝ2
 10
-265.65889252658673
 20
318.36407951951389
 30
0.0
 40
3.0
 50
180.0
 51
270.0
  0
LINE
  5
18DDC
  8
AM_0
 10
-271.15880252658661
 20
300.51406951951378
 30
0.0
 11
-306.15880252658661
 21
302.54406951951381
 31
0.0
  0
LINE
  5
18DDD
  8
AM_0
 10
-295.15886252658657
 20
284.9740615195139
 30
0.0
 11
-295.15886252658657
 21
292.3840645195138
 31
0.0
  0
ARC
  5
18DDE
  8
AM_0
 10
-309.9869325265866
 20
290.59977051951381
 30
0.0
 40
1.995695899999999
 50
192.02252999999999
 51
269.94478000000282
  0
LINE
  5
18DDF
  8
AM_0
 10
-316.15886252658657
 20
289.43406051951382
 30
0.0
 11
-313.33886252658652
 21
289.36406051951388
 31
0.0
  0
ARC
  5
18DE0
  8
AM_0
 10
-314.32390252658672
 20
288.24228751951398
 30
0.0
 40
1.501779999999999
 50
14.332835999999491
 51
90.189382999999154
  0
LINE
  5
18DE1
  8
AM_0
 10
-311.96886252658658
 20
286.7340555195139
 30
0.0
 11
-312.88890252658649
 21
290.61405251951368
 31
0.0
  0
LINE
  5
18DE2
  8
AM_0
 10
-309.92888252658662
 20
293.8840645195138
 30
0.0
 11
-296.65886252658657
 21
293.8840645195138
 31
0.0
  0
LINE
  5
18DE3
  8
AM_0
 10
-316.15886252658657
 20
298.51406951951378
 30
0.0
 11
-306.15886252658657
 21
298.51406951951378
 31
0.0
  0
LINE
  5
18DE4
  8
AM_0
 10
-316.15886252658669
 20
304.17406951951369
 30
0.0
 11
-306.15886252658669
 21
304.17406951951369
 31
0.0
  0
LINE
  5
18DE5
  8
AM_0
 10
-312.43883252658651
 20
298.51406951951378
 30
0.0
 11
-311.89879252658659
 21
295.52404851951383
 31
0.0
  0
ARC
  5
18DE6
  8
AM_0
 10
-316.65846252658667
 20
296.61451551951382
 30
0.0
 40
0.49955601
 50
359.94911000000309
 51
90.050894000004064
  0
ARC
  5
18DE7
  8
AM_0
 10
-318.8781925265867
 20
298.11515651951379
 30
0.0
 40
1.001135899999998
 50
239.32800000000341
 51
269.38750999999928
  0
ARC
  5
18DE8
  8
AM_0
 10
-318.91304252658671
 20
299.26334251951369
 30
0.0
 40
0.99928796
 50
242.86126999999701
 51
269.66619000000128
  0
ARC
  5
18DE9
  8
AM_0
 10
-316.66231252658667
 20
298.7674695195139
 30
0.0
 40
0.50340396
 50
270.38612999999822
 51
359.6138700000019
  0
LINE
  5
18DEA
  8
AM_0
 10
-318.88887252658662
 20
297.11407351951368
 30
0.0
 11
-316.65883252658671
 21
297.11407351951368
 31
0.0
  0
LINE
  5
18DEB
  8
AM_0
 10
-318.91890252658652
 20
298.26409051951362
 30
0.0
 11
-316.65883252658671
 21
298.26409051951362
 31
0.0
  0
LINE
  5
18DEC
  8
AM_0
 10
-319.15889252658661
 20
297.36408051951378
 30
0.0
 11
-319.15889252658661
 21
297.8940795195137
 31
0.0
  0
ARC
  5
18DED
  8
AM_0
 10
-318.88753252658682
 20
300.22773651951383
 30
0.0
 40
1.003687999999999
 50
239.37026999999929
 51
270.49275000000409
  0
LINE
  5
18DEE
  8
AM_0
 10
-318.87886252658672
 20
299.22408951951383
 30
0.0
 11
-316.15889252658661
 21
299.22408951951383
 31
0.0
  0
LINE
  5
18DEF
  8
AM_0
 10
-318.90883252658671
 20
300.36408051951378
 30
0.0
 11
-317.1588925265865
 21
300.36408051951378
 31
0.0
  0
LINE
  5
18DF0
  8
AM_0
 10
-319.15889252658661
 20
299.46407151951388
 30
0.0
 11
-319.15889252658661
 21
300.01407451951371
 31
0.0
  0
ARC
  5
18DF1
  8
AM_0
 10
-318.9037025265867
 20
301.36470651951379
 30
0.0
 40
1.0006280000000001
 50
241.64986000000081
 51
269.70470999999941
  0
ARC
  5
18DF2
  8
AM_0
 10
-317.16292252658678
 20
301.3681625195137
 30
0.0
 40
1.004083999999998
 50
270.23263000000361
 51
359.76736999999628
  0
ARC
  5
18DF3
  8
AM_0
 10
-318.86610252658681
 20
304.74458151951399
 30
0.0
 40
1.0005360000000001
 50
237.14639999999861
 51
270.41322000000218
  0
LINE
  5
18DF4
  8
AM_0
 10
-318.85884252658673
 20
303.74407051951368
 30
0.0
 11
-316.15889252658661
 21
303.74407051951368
 31
0.0
  0
LINE
  5
18DF5
  8
AM_0
 10
-319.15889252658661
 20
304.03408651951372
 30
0.0
 11
-319.15889252658661
 21
304.50407251951373
 31
0.0
  0
LINE
  5
18DF6
  8
AM_0
 10
-314.3288525265865
 20
289.74407251951368
 30
0.0
 11
-312.67882252658649
 21
289.74407251951368
 31
0.0
  0
LINE
  5
18DF7
  8
AM_0
 10
-314.3488725265866
 20
291.76406951951378
 30
0.0
 11
-312.28887252658649
 21
291.76406951951378
 31
0.0
  0
ARC
  5
18DF8
  8
AM_0
 10
-314.34453252658659
 20
290.26773151951392
 30
0.0
 40
1.4963319999999991
 50
13.38243800000123
 51
90.164590000000814
  0
LINE
  5
18DF9
  8
AM_0
 10
-314.36889252658659
 20
295.83406951951378
 30
0.0
 11
-311.9488425265867
 21
295.83406951951378
 31
0.0
  0
ARC
  5
18DFA
  8
AM_0
 10
-314.36870252658662
 20
294.33127651951389
 30
0.0
 40
1.5027881000000001
 50
12.0133420000024
 51
90.004667999996897
  0
ARC
  5
18DFB
  8
AM_0
 10
-309.93187252658669
 20
295.88369051951412
 30
0.0
 40
1.9996280999999989
 50
190.36076000000239
 51
270.08532999999989
  0
LINE
  5
18DFC
  8
AM_0
 10
-311.93883252658651
 20
290.18406051951382
 30
0.0
 11
-312.89885252658672
 21
294.64407451951382
 31
0.0
  0
ARC
  5
18DFD
  8
AM_0
 10
-296.65923252658661
 20
292.3836985195141
 30
0.0
 40
1.5003600999999991
 50
0.0138160000014637
 51
89.98618500000002
  0
LINE
  5
18DFE
  8
AM_0
 10
-310.01885252658661
 20
285.19406251951381
 30
0.0
 11
-296.65886252658657
 21
285.19406251951381
 31
0.0
  0
LINE
  5
18DFF
  8
AM_0
 10
-310.0488825265864
 20
283.56405751951382
 30
0.0
 11
-296.54888252658651
 21
283.56405751951382
 31
0.0
  0
LINE
  5
18E00
  8
AM_0
 10
-309.98882252658672
 20
288.6040585195139
 30
0.0
 11
-296.65886252658657
 21
288.6040585195139
 31
0.0
  0
ARC
  5
18E01
  8
AM_0
 10
-310.02092252658667
 20
287.19600051951392
 30
0.0
 40
2.001947899999998
 50
193.3411399999986
 51
270.05948000000097
  0
ARC
  5
18E02
  8
AM_0
 10
-310.0464425265867
 20
285.56837551951378
 30
0.0
 40
2.0043239999999991
 50
194.27804999999961
 51
269.9310899999989
  0
LINE
  5
18E03
  8
AM_0
 10
-311.98882252658672
 20
285.07407451951389
 30
0.0
 11
-312.86882252658648
 21
288.61407551951368
 31
0.0
  0
ARC
  5
18E04
  8
AM_0
 10
-293.15776252658662
 20
282.95049351951383
 30
0.0
 40
1.996427999999999
 50
194.6946300000005
 51
269.9676099999981
  0
ARC
  5
18E05
  8
AM_0
 10
-293.15905252658649
 20
283.62388751951369
 30
0.0
 40
1.999824
 50
179.99493999999871
 51
270.00506000000121
  0
ARC
  5
18E06
  8
AM_0
 10
-296.6574625265867
 20
283.6955045195138
 30
0.0
 40
1.498559999999999
 50
359.94488000000058
 51
90.055115000003084
  0
ARC
  5
18E07
  8
AM_0
 10
-293.15636252658652
 20
284.97657851951379
 30
0.0
 40
2.0025157999999981
 50
180.0718999999998
 51
269.9281000000002
  0
ARC
  5
18E08
  8
AM_0
 10
-296.54015252658661
 20
282.06378251951372
 30
0.0
 40
1.5003120000000001
 50
14.683033999999591
 51
90.331663000000944
  0
ARC
  5
18E09
  8
AM_0
 10
-296.66039252658658
 20
287.10254751951391
 30
0.0
 40
1.5015080999999979
 50
0.0575469979998182
 51
89.942451000003217
  0
ARC
  5
18E0A
  8
AM_0
 10
-293.15722252658668
 20
287.00570751951381
 30
0.0
 40
2.001640099999999
 50
180.0469600000047
 51
269.95304000000192
  0
LINE
  5
18E0B
  8
ｶｸﾚｾﾝ2
 10
-188.65889252658661
 20
318.36407951951389
 30
0.0
 11
-188.65889252658661
 21
375.36407951951378
 31
0.0
  0
LINE
  5
18E0C
  8
ﾁｭｳｼﾝｾﾝ1
 10
-220.1588925265867
 20
381.36407951951389
 30
0.0
 11
-220.15889252658661
 21
312.36407951951389
 31
0.0
1001
GENIUS_GENODEF_13
1002
{
1000
HIER
1070
     0
1002
}
1002
{
1000
MANEDIT
1070
     0
1002
}
1002
{
1000
NOSEL
1070
     0
1002
}
1002
{
1000
BEHIND
1070
     0
1002
}
1002
{
1000
REACTOR
1002
}
1001
GENIUS_GENOBJ-N-CEN_13
1002
{
1000
OWNER
1000
GEN
1002
}
  0
LINE
  5
18E0D
  8
AM_0
 10
-169.15886252658669
 20
409.86407451951379
 30
0.0
 11
-169.15886251039379
 21
283.86410554367939
 31
0.0
  0
LINE
  5
18E0E
  8
AM_0
 10
-174.4188425265867
 20
407.24406951951369
 30
0.0
 11
-171.65318684624859
 21
396.91677761893573
 31
0.0
  0
ARC
  5
18E0F
  8
AM_0
 10
-240.1594725265866
 20
410.78344951951379
 30
0.0
 40
2.000623899999999
 50
0.0178240009988051
 51
89.982175999997878
  0
ARC
  5
18E10
  8
AM_0
 10
-240.1559325265867
 20
410.1069795195134
 30
0.0
 40
1.9970881
 50
359.91637999999853
 51
90.083625000000779
  0
ARC
  5
18E11
  8
AM_0
 10
-240.1586225265867
 20
408.75432951951359
 30
0.0
 40
1.9997199999999991
 50
359.99193999999602
 51
90.008062000000336
  0
LINE
  5
18E12
  8
AM_0
 10
-238.15886252658669
 20
410.78405951951368
 30
0.0
 11
-238.15886252658669
 21
408.72405951951379
 31
0.0
  0
LINE
  5
18E13
  8
AM_0
 10
-169.44884252658659
 20
397.90404951951359
 30
0.0
 11
-171.85884252658661
 21
397.90404951951359
 31
0.0
  0
ARC
  5
18E14
  8
AM_0
 10
-169.45302252658669
 20
399.404539519514
 30
0.0
 40
1.500475999999999
 50
192.33222999999859
 51
270.15827999999971
  0
LINE
  5
18E15
  8
AM_0
 10
-174.44887252658671
 20
407.36405951951372
 30
0.0
 11
-169.15886252658669
 21
407.36405951951372
 31
0.0
  0
LINE
  5
18E16
  8
AM_0
 10
-172.34887252658669
 20
405.7840995195138
 30
0.0
 11
-170.90886252658669
 21
399.08410951951379
 31
0.0
  0
ARC
  5
18E17
  8
AM_0
 10
-174.3044025265865
 20
405.36388951951358
 30
0.0
 40
2.0001799999999981
 50
12.12635199999781
 51
90.127514999997985
  0
ARC
  5
18E18
  8
AM_0
 10
-176.3484125265866
 20
406.72625951951369
 30
0.0
 40
1.997795899999999
 50
15.021597000001901
 51
90.01358099999716
  0
LINE
  5
18E19
  8
AM_0
 10
-168.15886252658669
 20
410.86407451951379
 30
0.0
 11
-160.15883252658671
 21
410.86407451951379
 31
0.0
  0
ARC
  5
18E1A
  8
AM_0
 10
-168.16381252658661
 20
409.86903451951417
 30
0.0
 40
0.9950640200000001
 50
89.714938000000473
 51
180.285059999998
  0
LINE
  5
18E1B
  8
AM_0
 10
-168.15886252658669
 20
398.9040695195136
 30
0.0
 11
-160.15883252658671
 21
398.9040695195136
 31
0.0
  0
ARC
  5
18E1C
  8
AM_0
 10
-168.1644525265865
 20
397.90967951951382
 30
0.0
 40
0.9944000200000001
 50
89.676490999999999
 51
180.32350999999781
  0
ARC
  5
18E1D
  8
ｶｸﾚｾﾝ2
 10
-191.6588925265867
 20
375.36407951951378
 30
0.0
 40
3.0
 50
0.0
 51
90.000000000000057
  0
ARC
  5
18E1E
  8
AM_0
 10
-175.81704252658659
 20
381.86405951951377
 30
0.0
 40
1.000031899999998
 50
270.46929999999787
 51
89.530700000002227
  0
ARC
  5
18E1F
  8
AM_0
 10
-172.33886252658661
 20
381.90905951951402
 30
0.0
 40
1.675
 50
270.0
 51
90.000002999997704
  0
LINE
  5
18E20
  8
AM_0
 10
-169.15886252658669
 20
384.01406951951373
 30
0.0
 11
-160.15883252658659
 21
384.01406951951373
 31
0.0
  0
ARC
  5
18E21
  8
AM_0
 10
-172.1288525265866
 20
371.88906951951373
 30
0.0
 40
1.4650000000000001
 50
270.0
 51
89.999997000002296
  0
ARC
  5
18E22
  8
AM_0
 10
-173.2188825265867
 20
371.86405951951377
 30
0.0
 40
1.0000040999999991
 50
270.0
 51
89.999997000002296
  0
ARC
  5
18E23
  8
AM_0
 10
-173.21517252658671
 20
361.86407951951378
 30
0.0
 40
1.000035999999999
 50
269.50070999999838
 51
90.499283999999861
  0
ARC
  5
18E24
  8
AM_0
 10
-171.99385252658661
 20
361.87406951951391
 30
0.0
 40
1.3300000000000001
 50
270.0
 51
89.999997000002296
  0
ARC
  5
18E25
  8
AM_0
 10
-173.21517252658671
 20
351.86405951951377
 30
0.0
 40
1.000035999999999
 50
269.50070999999838
 51
90.499283999999861
  0
ARC
  5
18E26
  8
AM_0
 10
-171.93386252658661
 20
351.86904951951379
 30
0.0
 40
1.265004
 50
270.0
 51
89.999997000002296
  0
ARC
  5
18E27
  8
AM_0
 10
-171.93386252658661
 20
341.86405951951389
 30
0.0
 40
1.270003999999999
 50
270.0
 51
89.999997000002296
  0
ARC
  5
18E28
  8
AM_0
 10
-173.21517252658671
 20
341.86405951951389
 30
0.0
 40
1.000035999999999
 50
269.50070999999838
 51
90.499283999999861
  0
ARC
  5
18E29
  8
AM_0
 10
-240.15972252658671
 20
282.95493451951393
 30
0.0
 40
2.0008759
 50
270.02511000000231
 51
359.97488999999757
  0
ARC
  5
18E2A
  8
AM_0
 10
-240.1611825265866
 20
283.6264045195141
 30
0.0
 40
2.002332
 50
270.06674000000129
 51
359.93325999999871
  0
ARC
  5
18E2B
  8
AM_0
 10
-240.16387252658669
 20
284.97907351951397
 30
0.0
 40
2.0050240000000001
 50
270.14341000000132
 51
359.85658999999868
  0
LINE
  5
18E2C
  8
AM_0
 10
-238.15886252658669
 20
282.95406451951379
 30
0.0
 11
-238.15886252658669
 21
285.0040675195138
 31
0.0
  0
ARC
  5
18E2D
  8
ｶｸﾚｾﾝ2
 10
-191.6588925265867
 20
318.36407951951389
 30
0.0
 40
3.0
 50
270.0
 51
0.0
  0
ARC
  5
18E2E
  8
AM_0
 10
-171.99385252658661
 20
331.85407951951362
 30
0.0
 40
1.3300000000000001
 50
270.0
 51
89.999997000002296
  0
ARC
  5
18E2F
  8
AM_0
 10
-173.21517252658671
 20
331.86407951951378
 30
0.0
 40
1.000035999999999
 50
269.50070999999838
 51
90.499283999999861
  0
ARC
  5
18E30
  8
AM_0
 10
-173.21389252658679
 20
321.86406951951358
 30
0.0
 40
1.0000040999999991
 50
270.0
 51
89.999997000002296
  0
ARC
  5
18E31
  8
AM_0
 10
-172.12386252658669
 20
321.84405951951391
 30
0.0
 40
1.4599999999999991
 50
270.0
 51
89.999997000002296
  0
ARC
  5
18E32
  8
AM_0
 10
-175.81704252658659
 20
311.86405951951389
 30
0.0
 40
1.000031899999998
 50
270.46929999999787
 51
89.530700000002227
  0
ARC
  5
18E33
  8
AM_0
 10
-172.33886252658661
 20
311.81905951951381
 30
0.0
 40
1.675
 50
270.0
 51
90.000002999997704
  0
LINE
  5
18E34
  8
AM_0
 10
-169.15886252658669
 20
309.7140595195138
 30
0.0
 11
-160.15883252658651
 21
309.7140595195138
 31
0.0
  0
LINE
  5
18E35
  8
AM_0
 10
-172.34884252658651
 20
287.94405451951411
 30
0.0
 11
-170.90883252658671
 21
294.64405151951382
 31
0.0
  0
LINE
  5
18E36
  8
AM_0
 10
-174.4188425265867
 20
286.4840555195139
 30
0.0
 11
-171.653170724864
 21
296.81139642867419
 31
0.0
  0
LINE
  5
18E37
  8
AM_0
 10
-169.44884252658659
 20
295.834069519514
 30
0.0
 11
-171.8588425265865
 21
295.834069519514
 31
0.0
  0
ARC
  5
18E38
  8
AM_0
 10
-169.45177252658669
 20
294.33473351951369
 30
0.0
 40
1.499328
 50
89.888151000000079
 51
168.09384000000071
  0
LINE
  5
18E39
  8
AM_0
 10
-168.15886252658669
 20
294.82405951951409
 30
0.0
 11
-160.15883252658659
 21
294.82405951951409
 31
0.0
  0
ARC
  5
18E3A
  8
AM_0
 10
-168.1593825265866
 20
295.82354051951393
 30
0.0
 40
0.9994760199999999
 50
179.97009000000199
 51
270.02992000000029
  0
LINE
  5
18E3B
  8
AM_0
 10
-174.4488725265866
 20
286.36406051951388
 30
0.0
 11
-169.15886252658669
 21
286.36406051951388
 31
0.0
  0
ARC
  5
18E3C
  8
AM_0
 10
-176.3534425265866
 20
287.0084775195138
 30
0.0
 40
2.0044159999999991
 50
270.13147999999882
 51
344.83334000000082
  0
ARC
  5
18E3D
  8
AM_0
 10
-174.30953252658651
 20
288.37059851951398
 30
0.0
 40
2.0065319999999991
 50
270.01926999999682
 51
347.7268699999957
  0
LINE
  5
18E3E
  8
AM_0
 10
-168.15886252658669
 20
282.86409451951403
 30
0.0
 11
-160.15883252658659
 21
282.86409451951403
 31
0.0
  0
ARC
  5
18E3F
  8
AM_0
 10
-168.15868252658649
 20
283.86428551951411
 30
0.0
 40
1.000179999999999
 50
180.0103100000054
 51
269.98967999999991
  0
LINE
  5
18E40
  8
0
 10
16.841140833275858
 20
609.84583823721573
 30
0.0
 11
21.841141585834521
 21
637.8458361601563
 31
0.0
  0
LINE
  5
18E41
  8
0
 10
-23.158859166724142
 20
609.84583823721573
 30
0.0
 11
-28.15885991928144
 21
637.8458361601563
 31
0.0
  0
LINE
  5
18E42
  8
0
 10
12.84114083327631
 20
551.84583823721562
 30
0.0
 11
12.84114083327631
 21
609.84583823721573
 31
0.0
  0
LINE
  5
18E43
  8
0
 10
-19.158859166724142
 20
551.84583823721562
 30
0.0
 11
-19.158859166724142
 21
609.84583823721573
 31
0.0
  0
LINE
  5
18E44
  8
AM_0
 10
-19.158859166724142
 20
551.84583823721562
 30
0.0
 11
12.84114083327631
 21
551.84583823721562
 31
0.0
  0
LINE
  5
18E45
  8
0
 10
16.841140833275858
 20
609.84583823721573
 30
0.0
 11
-23.158859166724142
 21
609.84583823721573
 31
0.0
  0
LINE
  5
18E46
  8
0
 10
1.8411408332758581
 20
596.84583823721573
 30
0.0
 11
-8.1588591667241417
 21
596.84583823721573
 31
0.0
  0
LINE
  5
18E47
  8
AM_0
 10
1.8411408332758581
 20
551.84583823721562
 30
0.0
 11
1.8411408332758581
 21
596.84583823721573
 31
0.0
  0
LINE
  5
18E48
  8
AM_0
 10
-8.1588591667241417
 20
551.84583823721562
 30
0.0
 11
-8.1588591667241417
 21
596.84583823721573
 31
0.0
  0
ARC
  5
18E49
  8
AM_0
 10
-3.1588591667241408
 20
596.84583823721573
 30
0.0
 40
4.9999999999999432
 50
0.0
 51
180.0
  0
LINE
  5
18E4B
  8
AM_0
 10
-169.15886239296009
 20
389.72405003245382
 30
0.0
 11
-169.15886239296009
 21
397.32405003260561
 31
0.0
  0
LINE
  5
18E4C
  8
AM_0
 10
-170.1588623929801
 20
389.72405003245382
 30
0.0
 11
-170.1588623929801
 21
397.32405003260561
 31
0.0
  0
LINE
  5
18E4D
  8
AM_0
 10
-169.15886239296009
 20
392.74669003251421
 30
0.0
 11
-170.1588623929801
 21
393.3240200325256
 31
0.0
  0
LINE
  5
18E4E
  8
AM_0
 10
-169.15886239296009
 20
393.7466900325341
 30
0.0
 11
-170.1588623929801
 21
394.32405003254581
 31
0.0
  0
LINE
  5
18E4F
  8
AM_0
 10
-170.1588623929801
 20
397.32405003260561
 30
0.0
 11
-169.15886239296009
 21
397.32405003260561
 31
0.0
  0
LINE
  5
18E50
  8
AM_0
 10
-170.1588623929801
 20
397.02405003259969
 30
0.0
 11
-171.0588623929979
 21
397.02405003259969
 31
0.0
  0
LINE
  5
18E51
  8
AM_0
 10
-170.1588623929801
 20
389.72405003245382
 30
0.0
 11
-169.15886239296009
 21
389.72405003245382
 31
0.0
  0
LINE
  5
18E52
  8
AM_0
 10
-170.1588623929801
 20
390.02406003245972
 30
0.0
 11
-171.0588623929979
 21
390.02406003245972
 31
0.0
  0
LINE
  5
18E53
  8
AM_0
 10
-172.7588423930319
 20
391.72405003249378
 30
0.0
 11
-172.7588423930319
 21
395.32405003256559
 31
0.0
  0
ARC
  5
18E54
  8
AM_0
 10
-171.0588623929979
 20
391.72405003249378
 30
0.0
 40
1.6999969000339989
 50
180.00002000000191
 51
269.99999700000228
  0
ARC
  5
18E55
  8
AM_0
 10
-171.0588623929979
 20
395.32405003256559
 30
0.0
 40
1.700000800033999
 50
90.000020000002039
 51
179.999989999999
  0
LINE
  5
18E56
  8
AM_0
 10
-169.15886239296009
 20
299.9814900306589
 30
0.0
 11
-170.15886239298001
 21
299.40413003064731
 31
0.0
  0
LINE
  5
18E57
  8
AM_0
 10
-172.7588423930319
 20
302.00413003069929
 30
0.0
 11
-172.7588423930319
 21
298.4041300306273
 31
0.0
  0
LINE
  5
18E58
  8
AM_0
 10
-170.15886239298001
 20
304.0041300307393
 30
0.0
 11
-170.15886239298001
 21
296.40413003058728
 31
0.0
  0
LINE
  5
18E59
  8
AM_0
 10
-169.15886239296009
 20
304.0041300307393
 30
0.0
 11
-169.15886239296009
 21
296.40413003058728
 31
0.0
  0
LINE
  5
18E5A
  8
AM_0
 10
-170.15886239298001
 20
303.70412003073318
 30
0.0
 11
-171.0588623929979
 21
303.70412003073318
 31
0.0
  0
LINE
  5
18E5B
  8
AM_0
 10
-170.15886239298001
 20
304.0041300307393
 30
0.0
 11
-169.15886239296009
 21
304.0041300307393
 31
0.0
  0
ARC
  5
18E5C
  8
AM_0
 10
-171.0588623929979
 20
302.00413003069929
 30
0.0
 40
1.6999969000339989
 50
90.000002999997704
 51
179.99998000000451
  0
LINE
  5
18E5D
  8
AM_0
 10
-169.15886239296009
 20
300.98149003067891
 30
0.0
 11
-170.15886239298001
 21
300.40416003066741
 31
0.0
  0
LINE
  5
18E5E
  8
AM_0
 10
-170.15886239298001
 20
296.70413003059338
 30
0.0
 11
-171.0588623929979
 21
296.70413003059338
 31
0.0
  0
LINE
  5
18E5F
  8
AM_0
 10
-170.15886239298001
 20
296.40413003058728
 30
0.0
 11
-169.15886239296009
 21
296.40413003058728
 31
0.0
  0
ARC
  5
18E60
  8
AM_0
 10
-171.0588623929979
 20
298.4041300306273
 30
0.0
 40
1.700000800033999
 50
180.00001000000091
 51
269.999979999998
  0
LINE
  5
19068
  8
AM_0
 10
71.838315301688525
 20
609.34583647769955
 30
0.0
 11
71.838315301688453
 21
647.84583647769932
 31
0.0
  0
LINE
  5
1906A
  8
AM_0
 10
-133.16166035170849
 20
647.84583647769932
 30
0.0
 11
-133.16166035170849
 21
609.34583647769966
 31
0.0
  0
LINE
  5
1906B
  8
AM_0
 10
-123.16166035170851
 20
599.34583647769955
 30
0.0
 11
-19.158859166724142
 21
599.34583647769955
 31
0.0
  0
LINE
  5
1906C
  8
AM_0
 10
71.838315301688453
 20
641.84583647769932
 30
0.0
 11
21.841641578849021
 21
641.84583647769932
 31
0.0
  0
ARC
  5
1906D
  8
AM_0
 10
61.83831530168851
 20
609.34583647769955
 30
0.0
 40
10.0
 50
270.0
 51
0.0
1001
GENIUS_GENODEF_13
1002
{
1000
HIER
1070
     0
1002
}
1002
{
1000
MANEDIT
1070
     0
1002
}
1002
{
1000
NOSEL
1070
     0
1002
}
1002
{
1000
BEHIND
1070
     0
1002
}
1002
{
1000
OTHER
1070
     0
1002
}
1002
{
1000
REACTOR
1002
}
1001
GENIUS_GENOBJ-N-FIL_13
1002
{
1000
OWNER
1000
GEN
1002
}
  0
ARC
  5
1906E
  8
AM_0
 10
-123.16166035170851
 20
609.34583647769966
 30
0.0
 40
10.0
 50
180.0
 51
270.0
1001
GENIUS_GENOBJ-N-FIL_13
1002
{
1000
OWNER
1000
GEN
1002
}
1001
GENIUS_GENODEF_13
1002
{
1000
HIER
1070
     0
1002
}
1002
{
1000
MANEDIT
1070
     0
1002
}
1002
{
1000
NOSEL
1070
     0
1002
}
1002
{
1000
BEHIND
1070
     0
1002
}
1002
{
1000
OTHER
1070
     0
1002
}
1002
{
1000
REACTOR
1002
}
  0
LINE
  5
1906F
  8
ﾁｭｳｼﾝｾﾝ1
 10
36.33831530168851
 20
614.34583647769955
 30
0.0
 11
66.33831530168851
 21
614.34583647769955
 31
0.0
  0
LINE
  5
19070
  8
ﾁｭｳｼﾝｾﾝ1
 10
51.33831530168851
 20
629.34583647769955
 30
0.0
 11
51.338315301688567
 21
599.34583647769955
 31
0.0
  0
CIRCLE
  5
19071
  8
AM_0
 10
51.338315301688567
 20
614.34583647769932
 30
0.0
 40
7.5
  0
CIRCLE
  5
19075
  8
AM_0
 10
-112.6616603517086
 20
614.34583647769932
 30
0.0
 40
7.5
  0
LINE
  5
19077
  8
AM_5
 10
-58.161658094034173
 20
641.84583647769932
 30
0.0
 11
-58.161658094034173
 21
647.84583647769932
 31
0.0
  0
LINE
  5
19078
  8
AM_5
 10
-91.326396594223993
 20
641.84583647769932
 30
0.0
 11
-91.326396594223866
 21
647.84583647769932
 31
0.0
  0
LINE
  5
1907C
  8
AM_0
 10
-80.161672525010204
 20
641.84583647769932
 30
0.0
 11
-80.161672525010204
 21
609.84583647769932
 31
0.0
  0
LINE
  5
1907D
  8
AM_0
 10
-74.161672525010204
 20
641.84583647769932
 30
0.0
 11
-74.161672525010204
 21
609.84583647769932
 31
0.0
  0
LINE
  5
1907E
  8
AM_0
 10
-80.161672525010161
 20
636.84583647769932
 30
0.0
 11
-85.161672525010161
 21
641.84583647769932
 31
0.0
1001
GENIUS_GENFIL_13
1070
     0
1040
5.0
1040
5.0
1040
20.0
1040
0.0
1002
{
1002
}
1001
GENIUS_GENOBJ-N-CHA_13
1002
{
1000
OWNER
1000
GEN
1002
}
1001
GENIUS_GENODEF_13
1002
{
1000
HIER
1070
     0
1002
}
1002
{
1000
MANEDIT
1070
     0
1002
}
1002
{
1000
NOSEL
1070
     0
1002
}
1002
{
1000
BEHIND
1070
     0
1002
}
1002
{
1000
OTHER
1070
     0
1002
}
1002
{
1000
REACTOR
1002
}
  0
INSERT
  5
1907F
  8
AM_0
  6
CONTINUOUS
  2
*U5
 10
0.0
 20
0.0
 30
0.0
1001
GENIUS_GENODEF_13
1002
{
1000
HIER
1070
     0
1002
}
1002
{
1000
MANEDIT
1070
     0
1002
}
1002
{
1000
NOSEL
1070
     0
1002
}
1002
{
1000
BEHIND
1070
     0
1002
}
1002
{
1000
OTHER
1070
     0
1002
}
1002
{
1000
REACTOR
1002
}
1001
GENIUS_GENOBJ-N-HTC_13
1002
{
1000
OWNER
1000
GEN
1002
}
1001
GENIUS_GENHATCH_13
1002
{
1000
DATA
1040
0.0
1042
1.0
1000
SOLID
1070
     0
1011
-81.322577101728058
1021
0.0
1031
0.0
1021
640.53348225491652
1031
0.0
1002
}
1002
{
1000
UCS
1010
0.0
1020
0.0
1030
0.0
1010
1.0
1020
0.0
1030
0.0
1010
0.0
1020
1.0
1030
0.0
1002
}
1001
ACAD
1002
{
1000
R14_HATCH_DATA
1000
1907F
1011
1.0
1021
0.0
1031
0.0
1021
0.0
1031
0.0
1011
0.0
1021
0.0
1031
0.0
1021
1.0
1031
0.0
1011
0.0
1021
0.0
1031
0.0
1021
0.0
1031
1.0
1040
0.0
1010
0.0
1020
0.0
1030
1.0
1000
SOLID
1070
     1
1070
     0
1071
        2
1071
        1
1071
        3
1070
     1
1040
-85.161672525010161
1040
641.84583647769932
1040
-80.161672525010161
1040
636.84583647769932
1070
     1
1040
-80.161672525010161
1040
636.84583647769932
1040
-80.161672525010161
1040
641.84583647769932
1070
     1
1040
-80.161672525010161
1040
641.84583647769932
1040
-85.161672525010161
1040
641.84583647769932
1071
        0
1071
       33
1071
        1
1070
     1
1040
-133.16166035170869
1040
641.84583647769932
1040
71.83831530168834
1040
641.84583647769932
1071
        0
1070
     0
1070
     1
1071
        1
1040
113.1614054589739
1040
767.77408613098874
1040
0.0
1002
}
  0
INSERT
  5
19080
  8
AM_0
  6
CONTINUOUS
  2
*U6
 10
0.0
 20
0.0
 30
0.0
1001
GENIUS_GENODEF_13
1002
{
1000
HIER
1070
     0
1002
}
1002
{
1000
MANEDIT
1070
     0
1002
}
1002
{
1000
NOSEL
1070
     0
1002
}
1002
{
1000
BEHIND
1070
     0
1002
}
1002
{
1000
OTHER
1070
     0
1002
}
1002
{
1000
REACTOR
1002
}
1001
GENIUS_GENOBJ-N-HTC_13
1002
{
1000
OWNER
1000
GEN
1002
}
1001
GENIUS_GENHATCH_13
1002
{
1000
DATA
1040
0.0
1042
1.0
1000
SOLID
1070
     0
1011
-73.000767948292193
1021
0.0
1031
0.0
1021
640.53348225491652
1031
0.0
1002
}
1002
{
1000
UCS
1010
0.0
1020
0.0
1030
0.0
1010
1.0
1020
0.0
1030
0.0
1010
0.0
1020
1.0
1030
0.0
1002
}
1001
ACAD
1002
{
1000
R14_HATCH_DATA
1000
19080
1011
1.0
1021
0.0
1031
0.0
1021
0.0
1031
0.0
1011
0.0
1021
0.0
1031
0.0
1021
1.0
1031
0.0
1011
0.0
1021
0.0
1031
0.0
1021
0.0
1031
1.0
1040
0.0
1010
0.0
1020
0.0
1030
1.0
1000
SOLID
1070
     1
1070
     0
1071
        2
1071
        1
1071
        3
1070
     1
1040
-69.161672525010147
1040
641.84583647769932
1040
-74.161672525010161
1040
636.84583647769932
1070
     1
1040
-74.161672525010161
1040
636.84583647769932
1040
-74.161672525010161
1040
641.84583647769932
1070
     1
1040
-74.161672525010161
1040
641.84583647769932
1040
-69.161672525010147
1040
641.84583647769932
1071
        0
1071
       33
1071
        1
1070
     1
1040
-21.1616846983116
1040
641.84583647769932
1040
-226.16166035170869
1040
641.84583647769932
1071
        0
1070
     0
1070
     1
1071
        1
1040
-267.48475050899418
1040
767.77408613098874
1040
0.0
1002
}
  0
LINE
  5
19081
  8
AM_0
 10
-74.161672525010161
 20
636.84583647769932
 30
0.0
 11
-69.161672525010147
 21
641.84583647769932
 31
0.0
1001
GENIUS_GENFIL_13
1070
     0
1040
5.0
1040
5.0
1040
20.0
1040
0.0
1002
{
1002
}
1001
GENIUS_GENOBJ-N-CHA_13
1002
{
1000
OWNER
1000
GEN
1002
}
1001
GENIUS_GENODEF_13
1002
{
1000
HIER
1070
     0
1002
}
1002
{
1000
MANEDIT
1070
     0
1002
}
1002
{
1000
NOSEL
1070
     0
1002
}
1002
{
1000
BEHIND
1070
     0
1002
}
1002
{
1000
OTHER
1070
     0
1002
}
1002
{
1000
REACTOR
1002
}
  0
LINE
  5
19082
  8
AM_0
 10
-74.161672525010204
 20
631.84583647769875
 30
0.0
 11
-80.161672525010204
 21
631.84583647769875
 31
0.0
  0
LINE
  5
19083
  8
AM_0
 10
-74.161672525010204
 20
609.84583647769932
 30
0.0
 11
-80.161672525010204
 21
609.84583647769932
 31
0.0
  0
LINE
  5
190C5
  8
ﾁｭｳｼﾝｾﾝ1
 10
-127.6616603517086
 20
614.34583647769932
 30
0.0
 11
-97.661660351708647
 21
614.34583647769932
 31
0.0
  0
LINE
  5
190C6
  8
ﾁｭｳｼﾝｾﾝ1
 10
-112.6616603517086
 20
629.34583647769932
 30
0.0
 11
-112.66166035170851
 21
599.34583647769932
 31
0.0
  0
LINE
  5
190C9
  8
AM_0
 10
71.838315301688525
 20
804.34583999673259
 30
0.0
 11
71.838315301688453
 21
765.84583999673282
 31
0.0
  0
LINE
  5
190CA
  8
AM_0
 10
-133.16166035170849
 20
765.84583999673282
 30
0.0
 11
-133.16166035170849
 21
804.34583999673237
 31
0.0
  0
LINE
  5
190CB
  8
AM_0
 10
-123.16166035170851
 20
814.34583999673248
 30
0.0
 11
61.83831530168851
 21
814.34583999673248
 31
0.0
  0
LINE
  5
190CC
  8
AM_0
 10
71.838315301688453
 20
771.84583999673248
 30
0.0
 11
-3.1588591667240662
 21
771.84583999673248
 31
0.0
  0
ARC
  5
190CD
  8
AM_0
 10
61.83831530168851
 20
804.34583999673259
 30
0.0
 40
10.0
 50
0.0
 51
90.000000000000057
1001
GENIUS_GENODEF_13
1002
{
1000
HIER
1070
     0
1002
}
1002
{
1000
MANEDIT
1070
     0
1002
}
1002
{
1000
NOSEL
1070
     0
1002
}
1002
{
1000
BEHIND
1070
     0
1002
}
1002
{
1000
OTHER
1070
     0
1002
}
1002
{
1000
REACTOR
1002
}
1001
GENIUS_GENOBJ-N-FIL_13
1002
{
1000
OWNER
1000
GEN
1002
}
  0
ARC
  5
190CE
  8
AM_0
 10
-123.16166035170851
 20
804.34583999673237
 30
0.0
 40
10.0
 50
90.000000000000057
 51
180.0
1001
GENIUS_GENOBJ-N-FIL_13
1002
{
1000
OWNER
1000
GEN
1002
}
1001
GENIUS_GENODEF_13
1002
{
1000
HIER
1070
     0
1002
}
1002
{
1000
MANEDIT
1070
     0
1002
}
1002
{
1000
NOSEL
1070
     0
1002
}
1002
{
1000
BEHIND
1070
     0
1002
}
1002
{
1000
OTHER
1070
     0
1002
}
1002
{
1000
REACTOR
1002
}
  0
LINE
  5
190CF
  8
ﾁｭｳｼﾝｾﾝ1
 10
36.33831530168851
 20
799.34583999673259
 30
0.0
 11
66.33831530168851
 21
799.34583999673259
 31
0.0
  0
LINE
  5
190D0
  8
ﾁｭｳｼﾝｾﾝ1
 10
51.33831530168851
 20
784.34583999673248
 30
0.0
 11
51.338315301688567
 21
814.34583999673248
 31
0.0
  0
CIRCLE
  5
190D1
  8
AM_0
 10
51.338315301688567
 20
799.34583999673282
 30
0.0
 40
7.5
  0
CIRCLE
  5
190D3
  8
AM_0
 10
-112.6616603517086
 20
799.34583999673282
 30
0.0
 40
7.5
  0
LINE
  5
190D4
  8
AM_5
 10
-58.161658094034173
 20
771.84583999673248
 30
0.0
 11
-58.161658094034173
 21
765.84583999673282
 31
0.0
  0
LINE
  5
190D5
  8
AM_5
 10
-91.326396594223993
 20
771.84583999673248
 30
0.0
 11
-91.326396594223866
 21
765.84583999673282
 31
0.0
  0
LINE
  5
190D7
  8
AM_0
 10
-80.161672525010204
 20
771.84583999673248
 30
0.0
 11
-80.161672525010204
 21
803.84583999673282
 31
0.0
  0
LINE
  5
190D8
  8
AM_0
 10
-74.161672525010204
 20
771.84583999673248
 30
0.0
 11
-74.161672525010204
 21
803.84583999673282
 31
0.0
  0
LINE
  5
190D9
  8
AM_0
 10
-80.161672525010161
 20
776.84583999673282
 30
0.0
 11
-85.161672525010161
 21
771.84583999673248
 31
0.0
1001
GENIUS_GENFIL_13
1070
     0
1040
5.0
1040
5.0
1040
20.0
1040
0.0
1002
{
1002
}
1001
GENIUS_GENOBJ-N-CHA_13
1002
{
1000
OWNER
1000
GEN
1002
}
1001
GENIUS_GENODEF_13
1002
{
1000
HIER
1070
     0
1002
}
1002
{
1000
MANEDIT
1070
     0
1002
}
1002
{
1000
NOSEL
1070
     0
1002
}
1002
{
1000
BEHIND
1070
     0
1002
}
1002
{
1000
OTHER
1070
     0
1002
}
1002
{
1000
REACTOR
1002
}
  0
INSERT
  5
190DA
  8
AM_0
  6
CONTINUOUS
  2
*U7
 10
0.0
 20
0.0
 30
0.0
1001
GENIUS_GENODEF_13
1002
{
1000
HIER
1070
     0
1002
}
1002
{
1000
MANEDIT
1070
     0
1002
}
1002
{
1000
NOSEL
1070
     0
1002
}
1002
{
1000
BEHIND
1070
     0
1002
}
1002
{
1000
OTHER
1070
     0
1002
}
1002
{
1000
REACTOR
1002
}
1001
GENIUS_GENOBJ-N-HTC_13
1002
{
1000
OWNER
1000
GEN
1002
}
1001
GENIUS_GENHATCH_13
1002
{
1000
DATA
1040
0.0
1042
-1.0
1000
SOLID
1070
     0
1011
-81.322577101728058
1021
0.0
1031
0.0
1021
773.15819421951574
1031
0.0
1002
}
1002
{
1000
UCS
1010
0.0
1020
0.0
1030
0.0
1010
1.0
1020
0.0
1030
0.0
1010
0.0
1020
1.0
1030
0.0
1002
}
1001
ACAD
1002
{
1000
R14_HATCH_DATA
1000
190DA
1011
1.0
1021
0.0
1031
0.0
1021
0.0
1031
0.0
1011
0.0
1021
0.0
1031
0.0
1021
1.0
1031
0.0
1011
0.0
1021
0.0
1031
0.0
1021
0.0
1031
1.0
1040
0.0
1010
0.0
1020
0.0
1030
1.0
1000
SOLID
1070
     1
1070
     0
1071
        2
1071
        1
1071
        3
1070
     1
1040
-85.161672525010161
1040
771.84583999673248
1040
-80.161672525010161
1040
776.84583999673282
1070
     1
1040
-80.161672525010161
1040
776.84583999673282
1040
-80.161672525010161
1040
771.84583999673248
1070
     1
1040
-80.161672525010161
1040
771.84583999673248
1040
-85.161672525010161
1040
771.84583999673248
1071
        0
1071
       33
1071
        1
1070
     1
1040
-133.16166035170869
1040
771.84583999673248
1040
71.83831530168834
1040
771.84583999673248
1071
        0
1070
     0
1070
     1
1071
        1
1040
113.1614054589739
1040
645.91759034344318
1040
0.0
1002
}
  0
INSERT
  5
190DB
  8
AM_0
  6
CONTINUOUS
  2
*U8
 10
0.0
 20
0.0
 30
0.0
1001
GENIUS_GENODEF_13
1002
{
1000
HIER
1070
     0
1002
}
1002
{
1000
MANEDIT
1070
     0
1002
}
1002
{
1000
NOSEL
1070
     0
1002
}
1002
{
1000
BEHIND
1070
     0
1002
}
1002
{
1000
OTHER
1070
     0
1002
}
1002
{
1000
REACTOR
1002
}
1001
GENIUS_GENOBJ-N-HTC_13
1002
{
1000
OWNER
1000
GEN
1002
}
1001
GENIUS_GENHATCH_13
1002
{
1000
DATA
1040
0.0
1042
-1.0
1000
SOLID
1070
     0
1011
-73.000767948292193
1021
0.0
1031
0.0
1021
773.15819421951574
1031
0.0
1002
}
1002
{
1000
UCS
1010
0.0
1020
0.0
1030
0.0
1010
1.0
1020
0.0
1030
0.0
1010
0.0
1020
1.0
1030
0.0
1002
}
1001
ACAD
1002
{
1000
R14_HATCH_DATA
1000
190DB
1011
1.0
1021
0.0
1031
0.0
1021
0.0
1031
0.0
1011
0.0
1021
0.0
1031
0.0
1021
1.0
1031
0.0
1011
0.0
1021
0.0
1031
0.0
1021
0.0
1031
1.0
1040
0.0
1010
0.0
1020
0.0
1030
1.0
1000
SOLID
1070
     1
1070
     0
1071
        2
1071
        1
1071
        3
1070
     1
1040
-69.161672525010147
1040
771.84583999673248
1040
-74.161672525010161
1040
776.84583999673282
1070
     1
1040
-74.161672525010161
1040
776.84583999673282
1040
-74.161672525010161
1040
771.84583999673248
1070
     1
1040
-74.161672525010161
1040
771.84583999673248
1040
-69.161672525010147
1040
771.84583999673248
1071
        0
1071
       33
1071
        1
1070
     1
1040
-21.1616846983116
1040
771.84583999673248
1040
-226.16166035170869
1040
771.84583999673248
1071
        0
1070
     0
1070
     1
1071
        1
1040
-267.48475050899418
1040
645.91759034344318
1040
0.0
1002
}
  0
LINE
  5
190DC
  8
AM_0
 10
-74.161672525010161
 20
776.84583999673282
 30
0.0
 11
-69.161672525010147
 21
771.84583999673248
 31
0.0
1001
GENIUS_GENFIL_13
1070
     0
1040
5.0
1040
5.0
1040
20.0
1040
0.0
1002
{
1002
}
1001
GENIUS_GENOBJ-N-CHA_13
1002
{
1000
OWNER
1000
GEN
1002
}
1001
GENIUS_GENODEF_13
1002
{
1000
HIER
1070
     0
1002
}
1002
{
1000
MANEDIT
1070
     0
1002
}
1002
{
1000
NOSEL
1070
     0
1002
}
1002
{
1000
BEHIND
1070
     0
1002
}
1002
{
1000
OTHER
1070
     0
1002
}
1002
{
1000
REACTOR
1002
}
  0
LINE
  5
190DD
  8
AM_0
 10
-74.161672525010204
 20
781.84583999673305
 30
0.0
 11
-80.161672525010204
 21
781.84583999673305
 31
0.0
  0
LINE
  5
190DE
  8
AM_0
 10
-74.161672525010204
 20
803.84583999673282
 30
0.0
 11
-80.161672525010204
 21
803.84583999673282
 31
0.0
  0
LINE
  5
190DF
  8
AM_0
 10
18.838327474989789
 20
771.84583999673248
 30
0.0
 11
18.838327474989789
 21
803.84583999673282
 31
0.0
  0
LINE
  5
190E0
  8
AM_0
 10
12.838327474989789
 20
771.84583999673248
 30
0.0
 11
12.838327474989679
 21
803.84583999673282
 31
0.0
  0
LINE
  5
190E1
  8
AM_0
 10
12.838327474989789
 20
781.84583999673305
 30
0.0
 11
18.838327474989789
 21
781.84583999673305
 31
0.0
  0
LINE
  5
190E6
  8
AM_0
 10
12.838327474989789
 20
803.84583999673282
 30
0.0
 11
18.838327474989789
 21
803.84583999673282
 31
0.0
  0
LINE
  5
190E7
  8
ﾁｭｳｼﾝｾﾝ1
 10
-127.6616603517086
 20
799.34583999673282
 30
0.0
 11
-97.661660351708647
 21
799.34583999673282
 31
0.0
  0
LINE
  5
190E8
  8
ﾁｭｳｼﾝｾﾝ1
 10
-112.6616603517086
 20
784.34583999673248
 30
0.0
 11
-112.66166035170851
 21
814.34583999673271
 31
0.0
  0
LINE
  5
190EA
  8
AM_0
 10
-3.1588591667240662
 20
771.84583999673248
 30
0.0
 11
-133.16166035170849
 21
771.84583999673248
 31
0.0
  0
LINE
  5
190EB
  8
AM_0
 10
-28.159359912297312
 20
641.84583647769932
 30
0.0
 11
-133.16166035170849
 21
641.84583647769932
 31
0.0
  0
LINE
  5
190EC
  8
AM_0
 10
12.84114083327631
 20
599.34583647769955
 30
0.0
 11
61.83831530168851
 21
599.34583647769955
 31
0.0
  0
LINE
  5
190F7
  8
AM_0N
 10
68.838314850153608
 20
774.14583999673278
 30
0.0
 11
44.838314850153601
 21
774.14583999673278
 31
0.0
  0
LINE
  5
190F8
  8
AM_0N
 10
64.638314850153563
 20
786.14583999673266
 30
0.0
 11
49.03831485015354
 21
786.14583999673266
 31
0.0
  0
LINE
  5
190F9
  8
AM_0N
 10
65.838314850153608
 20
784.94583999673284
 30
0.0
 11
65.838314850153608
 21
774.14583999673278
 31
0.0
  0
LINE
  5
190FA
  8
AM_0N
 10
68.838314850153608
 20
771.84583999673282
 30
0.0
 11
68.838314850153608
 21
774.14583999673278
 31
0.0
  0
ARC
  5
190FB
  8
AM_0N
 10
64.638314850153606
 20
784.94583999673284
 30
0.0
 40
1.1999999999999991
 50
0.0
 51
90.0
  0
LINE
  5
190FC
  8
AM_0N
 10
47.838314850153608
 20
784.94583999673284
 30
0.0
 11
47.838314850153608
 21
774.14583999673278
 31
0.0
  0
LINE
  5
190FD
  8
AM_0N
 10
44.838314850153601
 20
774.14583999673278
 30
0.0
 11
44.838314850153601
 21
771.84583999673282
 31
0.0
  0
ARC
  5
190FE
  8
AM_0N
 10
49.03831485015359
 20
784.94583999673284
 30
0.0
 40
1.1999999999999991
 50
90.0
 51
180.0
  0
LINE
  5
190FF
  8
AM_0N
 10
-106.1616599001736
 20
774.14583999673278
 30
0.0
 11
-130.16165990017359
 21
774.14583999673278
 31
0.0
  0
LINE
  5
19100
  8
AM_0N
 10
-110.36165990017361
 20
786.14583999673266
 30
0.0
 11
-125.9616599001737
 21
786.14583999673266
 31
0.0
  0
LINE
  5
19101
  8
AM_0N
 10
-109.1616599001736
 20
784.94583999673284
 30
0.0
 11
-109.1616599001736
 21
774.14583999673278
 31
0.0
  0
LINE
  5
19102
  8
AM_0N
 10
-106.1616599001736
 20
771.84583999673282
 30
0.0
 11
-106.1616599001736
 21
774.14583999673278
 31
0.0
  0
ARC
  5
19103
  8
AM_0N
 10
-110.36165990017361
 20
784.94583999673284
 30
0.0
 40
1.1999999999999991
 50
0.0
 51
90.0
  0
LINE
  5
19104
  8
AM_0N
 10
-127.1616599001736
 20
784.94583999673284
 30
0.0
 11
-127.1616599001736
 21
774.14583999673278
 31
0.0
  0
LINE
  5
19105
  8
AM_0N
 10
-130.16165990017359
 20
774.14583999673278
 30
0.0
 11
-130.16165990017359
 21
771.84583999673282
 31
0.0
  0
ARC
  5
19106
  8
AM_0N
 10
-125.9616599001736
 20
784.94583999673284
 30
0.0
 40
1.1999999999999991
 50
90.0
 51
180.0
  0
LINE
  5
19114
  8
AM_0N
 10
51.640814850153617
 20
629.55124010321879
 30
0.0
 11
51.640814850153617
 21
639.54583647769937
 31
0.0
  0
LINE
  5
19115
  8
AM_0N
 10
46.443314850153627
 20
629.55124010321879
 30
0.0
 11
46.443314850153719
 21
639.54583647769937
 31
0.0
  0
LINE
  5
19116
  8
AM_0N
 10
67.23331485015359
 20
629.55124010321879
 30
0.0
 11
67.23331485015359
 21
639.54583647769937
 31
0.0
  0
LINE
  5
19117
  8
AM_0N
 10
62.035814850153599
 20
629.55124010321879
 30
0.0
 11
62.035814850153599
 21
639.54583647769937
 31
0.0
  0
LINE
  5
19118
  8
AM_0N
 10
47.838314850153608
 20
628.7458364776993
 30
0.0
 11
65.838314850153608
 21
628.7458364776993
 31
0.0
  0
ARC
  5
19119
  8
AM_0N
 10
56.838314850153637
 20
645.91901547357281
 30
0.0
 40
17.173178995873389
 50
252.383031159582
 51
287.61696884041788
  0
ARC
  5
1911A
  8
AM_0N
 10
64.634564850151222
 20
633.34115758623864
 30
0.0
 40
4.5953211085391104
 50
235.56153059524291
 51
295.5615305956195
  0
LINE
  5
1911B
  8
AM_0N
 10
67.23331485015359
 20
629.55124010321879
 30
0.0
 11
65.838314850153608
 21
628.7458364776993
 31
0.0
  0
ARC
  5
1911C
  8
AM_0N
 10
49.04206485015365
 20
633.34115758623864
 30
0.0
 40
4.5953211085391104
 50
244.43846940456709
 51
304.43846940478602
  0
LINE
  5
1911D
  8
AM_0N
 10
46.443314850153627
 20
629.55124010321879
 30
0.0
 11
47.838314850153608
 21
628.7458364776993
 31
0.0
  0
LINE
  5
1911E
  8
AM_0N
 10
44.838314850153601
 20
639.54583647769937
 30
0.0
 11
68.838314850153608
 21
639.54583647769937
 31
0.0
  0
LINE
  5
1911F
  8
AM_0N
 10
68.838314850153608
 20
639.54583647769937
 30
0.0
 11
68.838314850153608
 21
641.84583647769932
 31
0.0
  0
LINE
  5
19120
  8
AM_0N
 10
44.838314850153601
 20
641.84583647769932
 30
0.0
 11
44.838314850153601
 21
639.54583647769937
 31
0.0
  0
LINE
  5
19121
  8
AM_0N
 10
-123.35915990017359
 20
629.55124010321879
 30
0.0
 11
-123.35915990017359
 21
639.54583647769937
 31
0.0
  0
LINE
  5
19122
  8
AM_0N
 10
-128.5566599001736
 20
629.55124010321879
 30
0.0
 11
-128.55665990017351
 21
639.54583647769937
 31
0.0
  0
LINE
  5
19123
  8
AM_0N
 10
-107.76665990017359
 20
629.55124010321879
 30
0.0
 11
-107.76665990017359
 21
639.54583647769937
 31
0.0
  0
LINE
  5
19124
  8
AM_0N
 10
-112.9641599001736
 20
629.55124010321879
 30
0.0
 11
-112.9641599001736
 21
639.54583647769937
 31
0.0
  0
LINE
  5
19125
  8
AM_0N
 10
-127.1616599001736
 20
628.7458364776993
 30
0.0
 11
-109.1616599001736
 21
628.7458364776993
 31
0.0
  0
ARC
  5
19126
  8
AM_0N
 10
-118.1616599001736
 20
645.91901547357281
 30
0.0
 40
17.173178995873389
 50
252.383031159582
 51
287.61696884041788
  0
ARC
  5
19127
  8
AM_0N
 10
-110.365409900176
 20
633.34115758623864
 30
0.0
 40
4.5953211085391104
 50
235.56153059524291
 51
295.5615305956195
  0
LINE
  5
19128
  8
AM_0N
 10
-107.76665990017359
 20
629.55124010321879
 30
0.0
 11
-109.1616599001736
 21
628.7458364776993
 31
0.0
  0
ARC
  5
19129
  8
AM_0N
 10
-125.9579099001735
 20
633.34115758623864
 30
0.0
 40
4.5953211085391104
 50
244.43846940456709
 51
304.43846940478602
  0
LINE
  5
1912A
  8
AM_0N
 10
-128.5566599001736
 20
629.55124010321879
 30
0.0
 11
-127.1616599001736
 21
628.7458364776993
 31
0.0
  0
LINE
  5
1912B
  8
AM_0N
 10
-130.16165990017359
 20
639.54583647769937
 30
0.0
 11
-106.1616599001736
 21
639.54583647769937
 31
0.0
  0
LINE
  5
1912C
  8
AM_0N
 10
-106.1616599001736
 20
639.54583647769937
 30
0.0
 11
-106.1616599001736
 21
641.84583647769932
 31
0.0
  0
LINE
  5
1912D
  8
AM_0N
 10
-130.16165990017359
 20
641.84583647769932
 30
0.0
 11
-130.16165990017359
 21
639.54583647769937
 31
0.0
  0
TEXT
  5
19359
  8
AM_0
 10
198.25824381863461
 20
686.67399869758424
 30
0.0
 40
15.0
  1
VC04-080KML~VC04-240KML
1001
ACAD
1000
MTEXTBEGIN
1070
    73
1070
     1
1070
    44
1040
1.0
1070
    74
1070
     0
1000
MTEXTEND
  0
VIEWPORT
  5
89
 67
     1
  8
0
 10
210.0
 20
148.5
 30
0.0
 40
420.0
 41
297.0
 68
     1
 69
     1
1001
ACAD
1000
MVIEW
1002
{
1070
    16
1010
0.0
1020
0.0
1030
0.0
1010
0.0
1020
0.0
1030
1.0
1040
0.0
1040
297.0
1040
221.70154043645701
1040
148.5
1040
50.0
1040
0.0
1040
0.0
1070
     0
1070
   100
1070
     1
1070
     1
1070
     0
1070
     0
1070
     0
1070
     0
1040
0.0
1040
0.0
1040
0.0
1040
10.0
1040
10.0
1040
10.0
1040
10.0
1070
     0
1002
{
1002
}
1002
}
1001
GENIUS_GENOREF_13
1005
1B94
1001
GENIUS_GENSCREG_15
1000
PF
1040
1.0
1000
DF
1040
1.0
1000
MIN
1011
0.0
1021
0.0
1031
0.0
1021
0.0
1031
0.0
1000
MAX
1011
420.0
1021
0.0
1031
0.0
1021
297.0
1031
0.0
1000
FLAGS
1070
     4
  0
ENDSEC
  0
EOF
