  0
SECTION
  2
HEADER
  9
$ACADVER
  1
AC1009
  9
$INSBASE
 10
0.0
 20
0.0
 30
0.0
  9
$EXTMIN
 10
-512.26188315350191
 20
237.97701642021249
 30
-0.0000000349181948
  9
$EXTMAX
 10
521.33949484999346
 20
859.78431279120093
 30
0.0000000814935747
  9
$LIMMIN
 10
0.0
 20
0.0
  9
$LIMMAX
 10
1138.0
 20
740.00000000000011
  9
$ORTHOMODE
 70
     0
  9
$REGENMODE
 70
     1
  9
$FILLMODE
 70
     1
  9
$QTEXTMODE
 70
     0
  9
$MIRRTEXT
 70
     1
  9
$DRAGMODE
 70
     2
  9
$LTSCALE
 40
4.0
  9
$OSMODE
 70
   551
  9
$ATTMODE
 70
     1
  9
$TEXTSIZE
 40
2.5
  9
$TRACEWID
 40
1.0
  9
$TEXTSTYLE
  7
STANDARD
  9
$CLAYER
  8
AM_0
  9
$CELTYPE
  6
BYLAYER
  9
$CECOLOR
 62
   256
  9
$DIMSCALE
 40
4.0
  9
$DIMASZ
 40
2.5
  9
$DIMEXO
 40
1.0
  9
$DIMDLI
 40
7.0
  9
$DIMRND
 40
0.0
  9
$DIMDLE
 40
0.0
  9
$DIMEXE
 40
1.0
  9
$DIMTP
 40
0.1
  9
$DIMTM
 40
0.1000000001
  9
$DIMTXT
 40
2.5
  9
$DIMCEN
 40
0.0
  9
$DIMTSZ
 40
0.0
  9
$DIMTOL
 70
     0
  9
$DIMLIM
 70
     0
  9
$DIMTIH
 70
     0
  9
$DIMTOH
 70
     0
  9
$DIMSE1
 70
     0
  9
$DIMSE2
 70
     0
  9
$DIMTAD
 70
     3
  9
$DIMZIN
 70
     8
  9
$DIMBLK
  1

  9
$DIMASO
 70
     1
  9
$DIMSHO
 70
     1
  9
$DIMPOST
  1

  9
$DIMAPOST
  1
"
  9
$DIMALT
 70
     0
  9
$DIMALTD
 70
     2
  9
$DIMALTF
 40
0.0393701
  9
$DIMLFAC
 40
1.0
  9
$DIMTOFL
 70
     1
  9
$DIMTVP
 40
0.0
  9
$DIMTIX
 70
     0
  9
$DIMSOXD
 70
     0
  9
$DIMSAH
 70
     0
  9
$DIMBLK1
  1

  9
$DIMBLK2
  1

  9
$DIMSTYLE
  2
AM_JIS
  9
$DIMCLRD
 70
   256
  9
$DIMCLRE
 70
   256
  9
$DIMCLRT
 70
     4
  9
$DIMTFAC
 40
0.71
  9
$DIMGAP
 40
1.0
  9
$LUNITS
 70
     2
  9
$LUPREC
 70
     2
  9
$SKETCHINC
 40
1.0
  9
$FILLETRAD
 40
1.0
  9
$AUNITS
 70
     0
  9
$AUPREC
 70
     3
  9
$MENU
  1
.
  9
$ELEVATION
 40
0.0
  9
$PELEVATION
 40
0.0
  9
$THICKNESS
 40
0.0
  9
$LIMCHECK
 70
     0
  9
$BLIPMODE
 70
     0
  9
$CHAMFERA
 40
10.0
  9
$CHAMFERB
 40
10.0
  9
$SKPOLY
 70
     0
  9
$TDCREATE
 40
2452753.643349607
  9
$TDUPDATE
 40
2458543.4570566551
  9
$TDINDWG
 40
0.761700787
  9
$TDUSRTIMER
 40
0.7617006019
  9
$USRTIMER
 70
     1
  9
$ANGBASE
 50
0.0
  9
$ANGDIR
 70
     0
  9
$PDMODE
 70
     0
  9
$PDSIZE
 40
0.0
  9
$PLINEWID
 40
0.0
  9
$COORDS
 70
     1
  9
$SPLFRAME
 70
     0
  9
$SPLINETYPE
 70
     6
  9
$SPLINESEGS
 70
     8
  9
$ATTDIA
 70
     1
  9
$ATTREQ
 70
     1
  9
$HANDLING
 70
     1
  9
$HANDSEED
  5
1EC56
  9
$SURFTAB1
 70
     6
  9
$SURFTAB2
 70
     6
  9
$SURFTYPE
 70
     6
  9
$SURFU
 70
     6
  9
$SURFV
 70
     6
  9
$UCSNAME
  2

  9
$UCSORG
 10
0.0
 20
0.0
 30
0.0
  9
$UCSXDIR
 10
1.0
 20
0.0
 30
0.0
  9
$UCSYDIR
 10
0.0
 20
1.0
 30
0.0
  9
$PUCSNAME
  2

  9
$PUCSORG
 10
0.0
 20
0.0
 30
0.0
  9
$PUCSXDIR
 10
1.0
 20
0.0
 30
0.0
  9
$PUCSYDIR
 10
0.0
 20
1.0
 30
0.0
  9
$USERI1
 70
     0
  9
$USERI2
 70
     0
  9
$USERI3
 70
     0
  9
$USERI4
 70
     0
  9
$USERI5
 70
     0
  9
$USERR1
 40
0.0
  9
$USERR2
 40
0.0
  9
$USERR3
 40
0.0
  9
$USERR4
 40
0.0
  9
$USERR5
 40
0.0
  9
$WORLDVIEW
 70
     1
  9
$SHADEDGE
 70
     3
  9
$SHADEDIF
 70
    70
  9
$TILEMODE
 70
     1
  9
$MAXACTVP
 70
    48
  9
$PLIMCHECK
 70
     0
  9
$PEXTMIN
 10
1.0000000000000000E+020
 20
1.0000000000000000E+020
 30
1.0000000000000000E+020
  9
$PEXTMAX
 10
-1.0000000000000000E+020
 20
-1.0000000000000000E+020
 30
-1.0000000000000000E+020
  9
$PLIMMIN
 10
0.0
 20
0.0
  9
$PLIMMAX
 10
420.0
 20
297.0
  9
$UNITMODE
 70
     0
  9
$VISRETAIN
 70
     1
  9
$PLINEGEN
 70
     0
  9
$PSLTSCALE
 70
     1
  0
ENDSEC
  0
SECTION
  2
TABLES
  0
TABLE
  2
VPORT
 70
     1
  0
VPORT
  2
*ACTIVE
 70
     0
 10
0.0
 20
0.0
 11
1.0
 21
1.0
 12
4.5388058482457216
 22
548.88066460570656
 13
0.0
 23
0.0
 14
10.0
 24
10.0
 15
40.0
 25
40.0
 16
0.0
 26
0.0
 36
1.0
 17
0.0
 27
0.0
 37
0.0
 40
626.07599634607527
 41
1.7571592210767459
 42
50.0
 43
0.0
 44
0.0
 50
0.0
 51
0.0
 71
     0
 72
   100
 73
     1
 74
     1
 75
     0
 76
     0
 77
     0
 78
     0
  0
ENDTAB
  0
TABLE
  2
LTYPE
 70
    17
  0
LTYPE
  2
CONTINUOUS
 70
     0
  3
Solid line
 72
    65
 73
     0
 40
0.0
  0
LTYPE
  2
PHANTOM2
 70
     0
  3
Phantom (.5x) ___ _ _ ___ _ _ ___ _ _ ___ _ _
 72
    65
 73
     6
 40
31.75
 49
15.875
 49
-3.174999999999998
 49
3.174999999999998
 49
-3.174999999999998
 49
3.174999999999998
 49
-3.174999999999998
  0
LTYPE
  2
CENTER
 70
     0
  3
Center ____ _ ____ _ ____ _ ____ _ ____ _ ____
 72
    65
 73
     4
 40
50.799999999999997
 49
31.75
 49
-6.349999999999997
 49
6.349999999999997
 49
-6.349999999999997
  0
LTYPE
  2
GEN3B
 70
     0
  3
 - - - - -
 72
    65
 73
     2
 40
1.0
 49
0.5
 49
-0.5
  0
LTYPE
  2
GEN7A
 70
     0
  3
__ . __ . __
 72
    65
 73
     4
 40
7.375
 49
4.75
 49
-0.875
 49
0.875
 49
-0.875
  0
LTYPE
  2
AM_ISO02W050
 70
     0
  3
__ __ __ __ __ __ __ __ __ __ __ __ __ __ __
 72
    65
 73
     2
 40
7.5
 49
6.0
 49
-1.5
  0
LTYPE
  2
AM_ISO08W050
 70
     0
  3
____ . ____ . ____ . ____ . ____ . ____ . ____
 72
    65
 73
     4
 40
18.0
 49
12.0
 49
-1.5
 49
3.0
 49
-1.5
  0
LTYPE
  2
AM_ISO09W050
 70
     0
  3
_____ . . _____ . . _____ . . ____ .. ____
 72
    65
 73
     6
 40
22.5
 49
12.0
 49
-1.5
 49
3.0
 49
-1.5
 49
3.0
 49
-1.5
  0
LTYPE
  2
AMCONSTR
 70
     0
  3
_______________________
 72
    65
 73
     2
 40
9999.0
 49
9999.0
 49
0.0
  0
LTYPE
  2
AM_ISO02W050X2
 70
     0
  3
 _ _ _ _ _ _ _ _ _ _ _ _
 72
    65
 73
     2
 40
3.75
 49
3.0
 49
-0.75
  0
LTYPE
  2
AM_ISO08W050X2
 70
     0
  3
__ . __ . __ . __ . __ . __
 72
    65
 73
     4
 40
9.0
 49
6.0
 49
-0.75
 49
1.5
 49
-0.75
  0
LTYPE
  2
AMZIGZAG
 70
     0
  3
/\/-/\/-/\/-/\/-/\/-/\/
 72
    65
 73
     2
 40
11.0001
 49
0.0001
 49
-11.0
  0
LTYPE
  2
ACISOWELD
 70
     0
  3
_ _ _ _ _
 72
    65
 73
     2
 40
2.0
 49
2.0
 49
-1.0
  0
LTYPE
  2
ACISOTGB
 70
     0
  3
__ . . __ . .
 72
    65
 73
     6
 40
9.0
 49
4.0
 49
-1.0
 49
1.0
 49
-1.0
 49
1.0
 49
-1.0
  0
LTYPE
  2
ACISOTGL
 70
     0
  3
_ _ _ _ _
 72
    65
 73
     2
 40
3.0
 49
2.0
 49
-1.0
  0
LTYPE
  2
HIDDEN
 70
     0
  3
Hidden __ __ __ __ __ __ __ __ __ __ __ __ __ _
 72
    65
 73
     2
 40
9.5249999999999968
 49
6.349999999999997
 49
-3.174999999999998
  0
ENDTAB
  0
TABLE
  2
LAYER
 70
     9
  0
LAYER
  2
0
 70
     0
 62
     7
  6
CONTINUOUS
  0
LAYER
  2
ｽﾝﾎﾟｳｾﾝ
 70
     0
 62
     2
  6
CONTINUOUS
  0
LAYER
  2
DEFPOINTS
 70
     0
 62
     7
  6
CONTINUOUS
  0
LAYER
  2
ｶｸﾚｾﾝ2
 70
     0
 62
     3
  6
GEN3B
  0
LAYER
  2
ﾁｭｳｼﾝｾﾝ1
 70
     0
 62
     1
  6
GEN7A
  0
LAYER
  2
AM_0
 70
     0
 62
     7
  6
CONTINUOUS
  0
LAYER
  2
AM_0N
 70
     0
 62
     7
  6
CONTINUOUS
  0
LAYER
  2
AM_5
 70
     0
 62
     2
  6
CONTINUOUS
  0
LAYER
  2
AM_12N
 70
     0
 62
     7
  6
CONTINUOUS
  0
ENDTAB
  0
TABLE
  2
STYLE
 70
     4
  0
STYLE
  2
STANDARD
 70
     0
 40
0.0
 41
0.8299999999999999
 50
0.0
 71
     0
 42
2.5
  3
txt.shx
  4
bigfont.shx
  0
STYLE
  2

 70
     1
 40
0.0
 41
1.0
 50
0.0
 71
     0
 42
2.5
  3
ltypeshp.shx
  4

  0
STYLE
  2
ACISOTS
 70
     0
 40
3.0
 41
1.0
 50
0.0
 71
     0
 42
2.5
  3
isocp.shx
  4
extfont.shx
  0
STYLE
  2
ACISOGDT
 70
     0
 40
0.0
 41
1.0
 50
0.0
 71
     0
 42
2.5
  3
amgdt.shx
  4

  0
ENDTAB
  0
TABLE
  2
VIEW
 70
    12
  0
VIEW
  2
GEN1
 70
     0
 40
95.824742268041234
 10
71.5
 20
137.08762886597941
 41
143.0
 11
0.0
 21
0.0
 31
1.0
 12
0.0
 22
0.0
 32
0.0
 42
50.0
 43
0.0
 44
0.0
 50
0.0
 71
     0
  0
VIEW
  2
GEN2
 70
     0
 40
95.824742268041234
 10
214.5
 20
137.08762886597941
 41
143.0
 11
0.0
 21
0.0
 31
1.0
 12
0.0
 22
0.0
 32
0.0
 42
50.0
 43
0.0
 44
0.0
 50
0.0
 71
     0
  0
VIEW
  2
GEN3
 70
     0
 40
95.824742268041234
 10
71.5
 20
47.912371134020603
 41
143.0
 11
0.0
 21
0.0
 31
1.0
 12
0.0
 22
0.0
 32
0.0
 42
50.0
 43
0.0
 44
0.0
 50
0.0
 71
     0
  0
VIEW
  2
GEN4
 70
     0
 40
95.824742268041234
 10
214.5
 20
47.912371134020603
 41
143.0
 11
0.0
 21
0.0
 31
1.0
 12
0.0
 22
0.0
 32
0.0
 42
50.0
 43
0.0
 44
0.0
 50
0.0
 71
     0
  0
VIEW
  2
GEN5
 70
     0
 40
95.824742268041234
 10
143.0
 20
92.500000000000057
 41
143.0
 11
0.0
 21
0.0
 31
1.0
 12
0.0
 22
0.0
 32
0.0
 42
50.0
 43
0.0
 44
0.0
 50
0.0
 71
     0
  0
VIEW
  2
GEN6
 70
     0
 40
191.64756804123709
 10
143.0
 20
92.5
 41
285.99714
 11
0.0
 21
0.0
 31
1.0
 12
0.0
 22
0.0
 32
0.0
 42
50.0
 43
0.0
 44
0.0
 50
0.0
 71
     0
  0
VIEW
  2
AM_VIEW1
 70
     0
 40
370.00000000000023
 10
332.86372007366492
 20
555.00000000000011
 41
665.72744014732973
 11
0.0
 21
0.0
 31
1.0
 12
0.0
 22
0.0
 32
0.0
 42
50.0
 43
0.0
 44
0.0
 50
0.0
 71
     0
  0
VIEW
  2
AM_VIEW2
 70
     0
 40
370.00000000000023
 10
805.13627992633508
 20
555.00000000000011
 41
665.72744014732973
 11
0.0
 21
0.0
 31
1.0
 12
0.0
 22
0.0
 32
0.0
 42
50.0
 43
0.0
 44
0.0
 50
0.0
 71
     0
  0
VIEW
  2
AM_VIEW3
 70
     0
 40
370.00000000000023
 10
332.86372007366492
 20
185.0
 41
665.72744014732973
 11
0.0
 21
0.0
 31
1.0
 12
0.0
 22
0.0
 32
0.0
 42
50.0
 43
0.0
 44
0.0
 50
0.0
 71
     0
  0
VIEW
  2
AM_VIEW4
 70
     0
 40
370.00000000000023
 10
805.13627992633508
 20
185.0
 41
665.72744014732973
 11
0.0
 21
0.0
 31
1.0
 12
0.0
 22
0.0
 32
0.0
 42
50.0
 43
0.0
 44
0.0
 50
0.0
 71
     0
  0
VIEW
  2
AM_VIEW5
 70
     0
 40
370.00000000000023
 10
569.0
 20
370.00000000000023
 41
665.72744014732962
 11
0.0
 21
0.0
 31
1.0
 12
0.0
 22
0.0
 32
0.0
 42
50.0
 43
0.0
 44
0.0
 50
0.0
 71
     0
  0
VIEW
  2
AM_VIEW6
 70
     0
 40
739.99260000000015
 10
569.0
 20
370.00000000000023
 41
1331.4415657458569
 11
0.0
 21
0.0
 31
1.0
 12
0.0
 22
0.0
 32
0.0
 42
50.0
 43
0.0
 44
0.0
 50
0.0
 71
     0
  0
ENDTAB
  0
TABLE
  2
UCS
 70
     0
  0
ENDTAB
  0
TABLE
  2
APPID
 70
    99
  0
APPID
  2
ACAD
 70
     0
  0
APPID
  2
MCAD_NO_VIS
 70
     0
  0
APPID
  2
ACAD_TEMP_GRAPHIC
 70
     0
  0
APPID
  2
AD_DRAW
 70
     0
  0
APPID
  2
DESIGNERASSEMBLIES
 70
     0
  0
APPID
  2
ASURF_PCURVE_APPNAME
 70
     0
  0
APPID
  2
GENIUS_GE3SECT_13
 70
     0
  0
APPID
  2
GENIUS_GENCFG_13
 70
     0
  0
APPID
  2
GENIUS_GE3CFG0_13
 70
     0
  0
APPID
  2
GENIUS_GENCFG0_13
 70
     0
  0
APPID
  2
GENIUS_GENCFG1_13
 70
     0
  0
APPID
  2
GENIUS_GENCFG2_13
 70
     0
  0
APPID
  2
GENIUS_GENCFG3_13
 70
     0
  0
APPID
  2
GENIUS_GENCFG4_13
 70
     0
  0
APPID
  2
GENIUS_GEVCFG0_13
 70
     0
  0
APPID
  2
GENIUS_GENOENT_13
 70
     0
  0
APPID
  2
GENIUS_GENREC_14
 70
     0
  0
APPID
  2
GENIUS_GENODEF_13
 70
     0
  0
APPID
  2
GENIUS_GENOBJ-N-REC_13
 70
     0
  0
APPID
  2
GENIUS_GENHINW_13
 70
     0
  0
APPID
  2
GENIUS_FIRSTVISTXT_14
 70
     0
  0
APPID
  2
GENIUS_GENOBJ-N-LEADER_13
 70
     0
  0
APPID
  2
GENIUS_GENOREF_13
 70
     0
  0
APPID
  2
GENIUS_GENOLIS_13
 70
     0
  0
APPID
  2
GEV_VCCNULL_SWITCH_OFF
 70
     0
  0
APPID
  2
GENIUS_GENDTOL_13
 70
     0
  0
APPID
  2
GENIUS_GEFCFG0_13
 70
     0
  0
APPID
  2
GENIUS_GENOBJ-N-TIT_13
 70
     0
  0
APPID
  2
GENIUS_GENTITLE_13
 70
     0
  0
APPID
  2
GENIUS_GENZVEED_13
 70
     0
  0
APPID
  2
GENIUS_GENOBJ-N-SDF_13
 70
     0
  0
APPID
  2
GENIUS_GENSCREG_13
 70
     0
  0
APPID
  2
GENIUS_DUMCFG0_13
 70
     0
  0
APPID
  2
GEVID936201362
 70
     0
  0
APPID
  2
GEVDC
 70
     0
  0
APPID
  2
GEVCON
 70
     0
  0
APPID
  2
VCC
 70
     0
  0
APPID
  2
GEVPT
 70
     0
  0
APPID
  2
GEVIT
 70
     0
  0
APPID
  2
GENBH
 70
     0
  0
APPID
  2
GEVMK
 70
     0
  0
APPID
  2
GENIUS_GENBH_13
 70
     0
  0
APPID
  2
GENIUS_GENOBJ-NBEHI-BHF_13
 70
     0
  0
APPID
  2
GENIUS_GENOBJ-NBEHI-BHB_13
 70
     0
  0
APPID
  2
GENIUS_GENOBJ-F-DESC_13
 70
     0
  0
APPID
  2
GENIUS_GEFDESC_14
 70
     0
  0
APPID
  2
GENIUS_GENOBJ-F-PART_13
 70
     0
  0
APPID
  2
GENIUS_GEFSTDP_13
 70
     0
  0
APPID
  2
GENIUS_GEFPARTINS_13
 70
     0
  0
APPID
  2
GENIUS_GENTRA_14
 70
     0
  0
APPID
  2
GENIUS_GENINF13_13
 70
     0
  0
APPID
  2
GENIUS_GENOBJ-N-INFOPT_13
 70
     0
  0
APPID
  2
GENIUS_GENOBJ-N-RSSYM_13
 70
     0
  0
APPID
  2
GENIUS_GENSYMENT_13
 70
     0
  0
APPID
  2
GENIUS_GENSCSYM_13
 70
     0
  0
APPID
  2
GENIUS_GEFINFNAM_13
 70
     0
  0
APPID
  2
GENIUS_GENSCREG_15
 70
     0
  0
APPID
  2
GENIUS_GENOBJ-N-CEN_13
 70
     0
  0
APPID
  2
GENIUS_GENOBJ-N-CRS_13
 70
     0
  0
APPID
  2
GENIUS_GENOBJ-N-CRC_13
 70
     0
  0
APPID
  2
GENIUS_GENCRC_14
 70
     0
  0
APPID
  2
GEVID942827039
 70
     0
  0
APPID
  2
GEVID942827040
 70
     0
  0
APPID
  2
GEVID942827041
 70
     0
  0
APPID
  2
GENIUS_GENOBJ-F-SCPASSM_13
 70
     0
  0
APPID
  2
GENIUS_GENDIMSH_14
 70
     0
  0
APPID
  2
GENIUS_GENFIL_13
 70
     0
  0
APPID
  2
GENIUS_GENOBJ-N-CHA_13
 70
     0
  0
APPID
  2
GENIUS_GENOBJ-N-FIL_13
 70
     0
  0
APPID
  2
GEVID942827042
 70
     0
  0
APPID
  2
GEVID946020473
 70
     0
  0
APPID
  2
GEVID946020474
 70
     0
  0
APPID
  2
GEVID946020475
 70
     0
  0
APPID
  2
GENIUS_GENOBJ-N-HTC_13
 70
     0
  0
APPID
  2
GENIUS_GENHATCH_13
 70
     0
  0
APPID
  2
GEVID948854295
 70
     0
  0
APPID
  2
GEVID939402019
 70
     0
  0
APPID
  2
GEVID952919491
 70
     0
  0
APPID
  2
GEVID952919492
 70
     0
  0
APPID
  2
GENIUS_GEFWELD_13
 70
     0
  0
APPID
  2
GENIUS_GENOBJ-F-WELS_13
 70
     0
  0
APPID
  2
GEVID952919493
 70
     0
  0
APPID
  2
GENIUS_GENOBJ-N-RSBK_13
 70
     0
  0
APPID
  2
GENIUS_GENOBJ-N-LIB_13
 70
     0
  0
APPID
  2
GENIUS_GENSCALE_13
 70
     0
  0
APPID
  2
GEVID986376691
 70
     0
  0
APPID
  2
ACATTRIBSERVICES
 70
     0
  0
APPID
  2
DCO15
 70
     0
  0
APPID
  2
GEVID1088736459
 70
     0
  0
APPID
  2
GEVID1088736460
 70
     0
  0
APPID
  2
ACADM_DIM_EDIT
 70
     0
  0
APPID
  2
AMDT_DM_ADJ
 70
     0
  0
APPID
  2
ACAD_MLEADERVER
 70
     0
  0
APPID
  2
CONTENTBLOCKDESCRIPTION
 70
     0
  0
APPID
  2
ACAD_DSTYLE_DIMBREAK
 70
     0
  0
APPID
  2
ACAD_DSTYLE_DIMJAG
 70
     0
  0
APPID
  2
ACAD_NAV_VCDISPLAY
 70
     0
  0
APPID
  2
ACADANNOPO
 70
     0
  0
APPID
  2
ACAD_EXEMPT_FROM_CAD_STANDARDS
 70
     0
  0
ENDTAB
  0
TABLE
  2
DIMSTYLE
 70
    12
  0
DIMSTYLE
  2
STANDARD
 70
     0
  3

  4

  5

  6

  7

 40
1.0
 41
0.18
 42
0.0625
 43
0.38
 44
0.18
 45
0.0
 46
0.0
 47
0.0
 48
0.0
140
0.18
141
0.09
142
0.0
143
25.399999999999999
144
1.0
145
0.0
146
1.0
147
0.09
 71
     0
 72
     0
 73
     1
 74
     1
 75
     0
 76
     0
 77
     0
 78
     0
170
     0
171
     2
172
     0
173
     0
174
     0
175
     0
176
     0
177
     0
178
     0
  0
DIMSTYLE
  2
AM_JIS
 70
     0
  3

  4
"
  5

  6

  7

 40
1.0
 41
2.5
 42
1.0
 43
7.0
 44
1.0
 45
0.0
 46
0.0
 47
0.1
 48
0.1000000001
140
2.5
141
0.0
142
0.0
143
0.0393701
144
1.0
145
0.0
146
0.71
147
1.0
 71
     0
 72
     0
 73
     0
 74
     0
 75
     0
 76
     0
 77
     3
 78
     8
170
     0
171
     2
172
     1
173
     0
174
     0
175
     0
176
   256
177
   256
178
     4
  0
DIMSTYLE
  2
AM_ISO
 70
     0
  3

  4
"
  5

  6

  7

 40
1.0
 41
2.5
 42
1.0
 43
10.0
 44
1.0
 45
0.0
 46
0.0
 47
0.0
 48
0.000000001
140
3.0
141
0.0
142
0.0
143
0.0393701
144
1.0
145
0.0
146
0.71
147
1.299999999999998
 71
     1
 72
     0
 73
     0
 74
     0
 75
     0
 76
     0
 77
     1
 78
     8
170
     0
171
     2
172
     1
173
     0
174
     0
175
     0
176
   256
177
   256
178
     4
  0
DIMSTYLE
  2
AM_ISO$3
 70
     0
  3

  4
"
  5

  6

  7

 40
1.0
 41
2.5
 42
1.0
 43
10.0
 44
1.0
 45
0.0
 46
0.0
 47
0.0
 48
0.000000001
140
2.5
141
0.0
142
0.0
143
0.0393701
144
1.0
145
0.0
146
0.71
147
1.299999999999998
 71
     1
 72
     0
 73
     0
 74
     1
 75
     0
 76
     0
 77
     1
 78
     8
170
     0
171
     2
172
     0
173
     0
174
     0
175
     0
176
   256
177
   256
178
     4
  0
DIMSTYLE
  2
AM_ISO$4
 70
     0
  3

  4
"
  5

  6

  7

 40
1.0
 41
2.5
 42
1.0
 43
10.0
 44
1.0
 45
0.0
 46
0.0
 47
0.0
 48
0.000000001
140
2.5
141
0.0
142
0.0
143
0.0393701
144
1.0
145
0.0
146
0.71
147
1.299999999999998
 71
     1
 72
     0
 73
     0
 74
     1
 75
     0
 76
     0
 77
     1
 78
     8
170
     0
171
     2
172
     0
173
     0
174
     0
175
     0
176
   256
177
   256
178
     4
  0
DIMSTYLE
  2
AM_ISO$6
 70
     0
  3

  4
"
  5

  6

  7

 40
1.0
 41
2.5
 42
1.0
 43
10.0
 44
1.0
 45
0.0
 46
0.0
 47
0.0
 48
0.000000001
140
2.5
141
0.0
142
0.0
143
0.0393701
144
1.0
145
0.0
146
0.71
147
1.299999999999998
 71
     1
 72
     0
 73
     0
 74
     0
 75
     0
 76
     0
 77
     0
 78
     8
170
     0
171
     2
172
     1
173
     0
174
     0
175
     0
176
   256
177
   256
178
     4
  0
DIMSTYLE
  2
AM_ISO$7
 70
     0
  3

  4
"
  5

  6

  7

 40
1.0
 41
2.5
 42
1.0
 43
10.0
 44
1.0
 45
0.0
 46
0.0
 47
0.0
 48
0.000000001
140
2.5
141
0.0
142
0.0
143
0.0393701
144
1.0
145
0.0
146
0.71
147
1.299999999999998
 71
     1
 72
     0
 73
     0
 74
     0
 75
     0
 76
     0
 77
     1
 78
     8
170
     0
171
     2
172
     1
173
     0
174
     0
175
     0
176
   256
177
   256
178
     4
  0
DIMSTYLE
  2
AM_ISO$SF
 70
     0
  3

  4
"
  5

  6

  7

 40
1.0
 41
2.5
 42
1.0
 43
10.0
 44
1.0
 45
0.0
 46
0.0
 47
0.1
 48
0.1
140
3.5
141
0.0
142
0.0
143
0.0393701
144
1.0
145
0.0
146
0.71
147
1.5
 71
     0
 72
     0
 73
     0
 74
     0
 75
     1
 76
     1
 77
     1
 78
     8
170
     0
171
     2
172
     1
173
     0
174
     0
175
     0
176
   256
177
   256
178
     4
  0
DIMSTYLE
  2
AM_ISO$SH
 70
     0
  3

  4
"
  5

  6
GENAXEH
  7

 40
1.0
 41
2.5
 42
1.0
 43
10.0
 44
1.0
 45
0.0
 46
0.0
 47
0.1
 48
0.1
140
3.5
141
0.0
142
0.0
143
0.0393701
144
2.0
145
0.0
146
0.71
147
1.5
 71
     0
 72
     0
 73
     0
 74
     0
 75
     1
 76
     1
 77
     1
 78
     8
170
     0
171
     2
172
     1
173
     1
174
     0
175
     0
176
   256
177
   256
178
     4
  0
DIMSTYLE
  2
AM_JIS$0
 70
     0
  3

  4
"
  5

  6

  7

 40
1.0
 41
2.5
 42
1.0
 43
7.0
 44
1.0
 45
0.0
 46
0.0
 47
0.1
 48
0.1000000001
140
2.5
141
0.0
142
0.0
143
0.0393701
144
1.0
145
0.0
146
0.71
147
1.0
 71
     0
 72
     0
 73
     0
 74
     0
 75
     0
 76
     0
 77
     3
 78
     8
170
     0
171
     2
172
     1
173
     0
174
     0
175
     0
176
   256
177
   256
178
     4
  0
DIMSTYLE
  2
AM_JIS$SF
 70
     0
  3

  4
"
  5
OPEN30
  6
OPEN30
  7
OPEN30
 40
1.0
 41
2.5
 42
1.0
 43
10.0
 44
1.0
 45
0.0
 46
0.0
 47
0.1
 48
0.1
140
3.5
141
0.0
142
0.0
143
0.0393701
144
1.0
145
0.0
146
0.71
147
1.5
 71
     0
 72
     0
 73
     0
 74
     0
 75
     1
 76
     1
 77
     3
 78
     8
170
     0
171
     2
172
     1
173
     0
174
     0
175
     0
176
   256
177
   256
178
     4
  0
DIMSTYLE
  2
AM_JIS$SH
 70
     0
  3

  4
"
  5

  6
NONE
  7

 40
1.0
 41
2.5
 42
1.0
 43
10.0
 44
1.0
 45
0.0
 46
0.0
 47
0.1
 48
0.1
140
3.5
141
0.0
142
0.0
143
0.0393701
144
1.0
145
0.0
146
0.71
147
1.5
 71
     0
 72
     0
 73
     0
 74
     0
 75
     1
 76
     0
 77
     3
 78
     8
170
     0
171
     2
172
     1
173
     1
174
     0
175
     0
176
   256
177
   256
178
     4
  0
ENDTAB
  0
ENDSEC
  0
SECTION
  2
BLOCKS
  0
BLOCK
  8
0
  2
$MODEL_SPACE
 70
     0
 10
0.0
 20
0.0
 30
0.0
  3
$MODEL_SPACE
  1

  0
ENDBLK
  5
1A
  8
0
  0
BLOCK
 67
     1
  8
0
  2
$PAPER_SPACE
 70
     0
 10
0.0
 20
0.0
 30
0.0
  3
$PAPER_SPACE
  1

  0
ENDBLK
  5
17
 67
     1
  8
0
  0
BLOCK
  8
0
  2
GENAXEH
 70
     0
 10
0.0
 20
0.0
 30
0.0
  3
GENAXEH
  1

  0
LINE
  5
21D0
  8
0
 10
-1.0
 20
0.0
 30
0.0
 11
1.0
 21
0.0
 31
0.0
  0
ENDBLK
  5
21D2
  8
0
  0
BLOCK
  8
0
  6
BYBLOCK
 62
     0
  2
$6-44
 70
     0
 10
0.0
 20
0.0
 30
0.0
  3
$6-44
  1

  0
ARC
  5
1DA45
  8
0
  6
CONTINUOUS
 62
     0
 10
-2.300003000000002
 20
2.3999909999999431
 30
0.0
 40
2.2000009999999981
 50
90.000003000000945
 51
179.99997799999841
  0
ARC
  5
1DA46
  8
0
  6
CONTINUOUS
 62
     0
 10
2.300003000000002
 20
2.3999910000000551
 30
0.0
 40
2.1999970000000002
 50
0.0
 51
89.999982000000799
  0
LINE
  5
1DA47
  8
0
  6
CONTINUOUS
 62
     0
 10
-0.0494449999999915
 20
0.0
 30
0.0
 11
-0.8000000000000112
 21
1.30000000000001
 31
0.0
  0
LINE
  5
1DA48
  8
0
  6
CONTINUOUS
 62
     0
 10
0.9505550000000083
 20
0.0
 30
0.0
 11
0.1999999999999886
 21
1.30000000000001
 31
0.0
  0
LINE
  5
1DA49
  8
0
  6
CONTINUOUS
 62
     0
 10
4.600000000000021
 20
1.30000000000001
 30
0.0
 11
4.600000000000021
 21
0.0
 31
0.0
  0
LINE
  5
1DA4A
  8
0
  6
CONTINUOUS
 62
     0
 10
-4.600000000000021
 20
1.30000000000001
 30
0.0
 11
-4.600000000000021
 21
0.0
 31
0.0
  0
LINE
  5
1DA4B
  8
0
  6
CONTINUOUS
 62
     0
 10
4.600000000000021
 20
0.0
 30
0.0
 11
-4.600000000000021
 21
0.0
 31
0.0
  0
LINE
  5
1DA4C
  8
0
  6
CONTINUOUS
 62
     0
 10
2.300003000000002
 20
4.6000029999999583
 30
0.0
 11
-2.300003000000002
 21
4.6000029999999583
 31
0.0
  0
LINE
  5
1DA4D
  8
0
  6
CONTINUOUS
 62
     0
 10
4.600000000000021
 20
1.30000000000001
 30
0.0
 11
-4.600000000000021
 21
1.30000000000001
 31
0.0
  0
LINE
  5
1DA4E
  8
0
  6
CONTINUOUS
 62
     0
 10
-4.5
 20
1.30000000000001
 30
0.0
 11
-4.5
 21
2.3999909999999431
 31
0.0
  0
LINE
  5
1DA4F
  8
0
  6
CONTINUOUS
 62
     0
 10
4.5
 20
1.30000000000001
 30
0.0
 11
4.5
 21
2.3999910000000551
 31
0.0
  0
ENDBLK
  5
1DA50
  8
0
  6
BYBLOCK
 62
     0
  0
BLOCK
  8
0
  2
*D2
 70
     1
 10
0.0
 20
0.0
 30
0.0
  3
*D2
  1

  0
LINE
  5
1E2D4
  8
AM_5
 10
-506.3983149148786
 20
796.27408648509186
 30
0.0
 11
-506.3983149148786
 21
914.43191599077772
 31
0.0
  0
LINE
  5
1E2D5
  8
AM_5
 10
-16.898654460387888
 20
846.17438060189716
 30
0.0
 11
-16.898654460387888
 21
914.43191599077772
 31
0.0
  0
LINE
  5
1E2D6
  8
AM_5
 10
-503.89831491487871
 20
913.43191599077795
 30
0.0
 11
-19.398654460387888
 21
913.43191599077795
 31
0.0
  0
SOLID
  5
1E2D7
  8
AM_5
 10
-503.89831491487871
 20
913.84858265744435
 30
0.0
 11
-503.89831491487871
 21
913.01524932411121
 31
0.0
 12
-506.3983149148786
 22
913.43191599077795
 32
0.0
 13
-506.3983149148786
 23
913.43191599077795
 33
0.0
  0
SOLID
  5
1E2D8
  8
AM_5
 10
-19.398654460387888
 20
913.84858265744435
 30
0.0
 11
-19.398654460387888
 21
913.01524932411121
 31
0.0
 12
-16.898654460387888
 22
913.43191599077795
 32
0.0
 13
-16.898654460387888
 23
913.43191599077795
 33
0.0
  0
INSERT
  5
1E2D9
  8
AM_0
  2
*U12
 10
0.0
 20
0.0
 30
0.0
  0
POINT
  5
1E2DA
  8
DEFPOINTS
 62
     0
 10
-506.3983149148786
 20
795.27408648509174
 30
0.0
  0
POINT
  5
1E2DB
  8
DEFPOINTS
 62
     0
 10
-16.898654460387888
 20
845.17438060189716
 30
0.0
  0
POINT
  5
1E2DC
  8
DEFPOINTS
 62
     0
 10
-16.898654460387888
 20
913.43191599077795
 30
0.0
  0
ENDBLK
  5
1E2D3
  8
0
  0
BLOCK
  8
0
  2
*D3
 70
     1
 10
0.0
 20
0.0
 30
0.0
  3
*D3
  1

  0
LINE
  5
1E308
  8
AM_5
 10
-506.39984591487831
 20
418.40261785333593
 30
0.0
 11
-506.39984591487831
 21
506.69809384065752
 31
0.0
  0
LINE
  5
1E309
  8
AM_5
 10
-16.89865446038754
 20
447.2355464163856
 30
0.0
 11
-16.898654460387529
 21
506.69809384065752
 31
0.0
  0
LINE
  5
1E30A
  8
AM_5
 10
-503.89984591487848
 20
505.69809384065741
 30
0.0
 11
-19.398654460387529
 21
505.69809384065741
 31
0.0
  0
SOLID
  5
1E30B
  8
AM_5
 10
-503.89984591487848
 20
506.11476050732421
 30
0.0
 11
-503.89984591487848
 21
505.28142717399072
 31
0.0
 12
-506.39984591487831
 22
505.69809384065741
 32
0.0
 13
-506.39984591487831
 23
505.69809384065741
 33
0.0
  0
SOLID
  5
1E30C
  8
AM_5
 10
-19.398654460387529
 20
506.11476050732421
 30
0.0
 11
-19.398654460387529
 21
505.28142717399072
 31
0.0
 12
-16.898654460387529
 22
505.69809384065741
 32
0.0
 13
-16.898654460387529
 23
505.69809384065741
 33
0.0
  0
INSERT
  5
1E30D
  8
AM_0
  2
*U13
 10
0.0
 20
0.0
 30
0.0
  0
POINT
  5
1E30E
  8
DEFPOINTS
 62
     0
 10
-506.39984591487831
 20
417.40261785333581
 30
0.0
  0
POINT
  5
1E30F
  8
DEFPOINTS
 62
     0
 10
-16.89865446038754
 20
446.2355464163856
 30
0.0
  0
POINT
  5
1E310
  8
DEFPOINTS
 62
     0
 10
-16.898654460387529
 20
505.69809384065741
 30
0.0
  0
ENDBLK
  5
1E2FB
  8
0
  0
BLOCK
  8
0
  2
_OPEN30
 70
     0
 10
0.0
 20
0.0
 30
0.0
  3
_OPEN30
  1

  0
LINE
  5
1E3A3
  8
0
 62
     0
 10
-1.0
 20
0.26794919
 30
0.0
 11
0.0
 21
0.0
 31
0.0
  0
LINE
  5
1E3A4
  8
0
 62
     0
 10
0.0
 20
0.0
 30
0.0
 11
-1.0
 21
-0.26794919
 31
0.0
  0
LINE
  5
1E3A5
  8
0
 62
     0
 10
0.0
 20
0.0
 30
0.0
 11
-1.0
 21
0.0
 31
0.0
  0
ENDBLK
  5
1E3A6
  8
0
  0
BLOCK
  8
0
  2
_NONE
 70
     0
 10
0.0
 20
0.0
 30
0.0
  3
_NONE
  1

  0
ENDBLK
  5
1E3A9
  8
0
  0
BLOCK
  8
0
  2
*U8
 70
     1
 10
0.0
 20
0.0
 30
0.0
  3
*U8
  1

  0
SOLID
  5
1E3DD
  8
AM_0
  6
CONTINUOUS
 10
164.89864272357011
 20
656.67376840223449
 30
0.0
 11
159.89864272357011
 21
656.67376840223449
 31
0.0
 12
164.89864272357011
 22
651.67376840223449
 32
0.0
 13
164.89864272357011
 23
651.67376840223449
 33
0.0
210
0.0
220
0.0
230
-1.0
  0
LINE
  5
1E3DE
  8
AM_0
  6
CONTINUOUS
 10
-159.89864272357011
 20
656.67376840223449
 30
0.0
 11
-164.89864272357011
 21
651.67376840223449
 31
0.0
  0
LINE
  5
1E3DF
  8
AM_0
  6
CONTINUOUS
 10
-164.89864272357011
 20
651.67376840223449
 30
0.0
 11
-164.89864272357011
 21
656.67376840223449
 31
0.0
  0
ENDBLK
  5
1E3E1
  8
0
  0
BLOCK
  8
0
  2
*U9
 70
     1
 10
0.0
 20
0.0
 30
0.0
  3
*U9
  1

  0
SOLID
  5
1E3E3
  8
AM_0
  6
CONTINUOUS
 10
175.89864272357011
 20
656.67376840223449
 30
0.0
 11
170.89864272357011
 21
656.67376840223449
 31
0.0
 12
170.89864272357011
 22
651.67376840223449
 32
0.0
 13
170.89864272357011
 23
651.67376840223449
 33
0.0
210
0.0
220
0.0
230
-1.0
  0
LINE
  5
1E3E4
  8
AM_0
  6
CONTINUOUS
 10
-170.89864272357011
 20
656.67376840223449
 30
0.0
 11
-170.89864272357011
 21
651.67376840223449
 31
0.0
  0
LINE
  5
1E3E5
  8
AM_0
  6
CONTINUOUS
 10
-170.89864272357011
 20
651.67376840223449
 30
0.0
 11
-175.89864272357011
 21
656.67376840223449
 31
0.0
  0
ENDBLK
  5
1E3E7
  8
0
  0
BLOCK
  8
0
  2
*U10
 70
     1
 10
0.0
 20
0.0
 30
0.0
  3
*U10
  1

  0
SOLID
  5
1E3E9
  8
AM_0
  6
CONTINUOUS
 10
164.89864272357011
 20
813.67444690588468
 30
0.0
 11
159.89864272357011
 21
808.67444690588457
 31
0.0
 12
164.89864272357011
 22
808.67444690588457
 32
0.0
 13
164.89864272357011
 23
808.67444690588457
 33
0.0
210
0.0
220
0.0
230
-1.0
  0
LINE
  5
1E3EA
  8
AM_0
  6
CONTINUOUS
 10
-164.89864272357011
 20
813.67444690588468
 30
0.0
 11
-159.89864272357011
 21
808.67444690588457
 31
0.0
  0
LINE
  5
1E3EB
  8
AM_0
  6
CONTINUOUS
 10
-164.89864272357011
 20
808.67444690588457
 30
0.0
 11
-164.89864272357011
 21
813.67444690588468
 31
0.0
  0
ENDBLK
  5
1E3ED
  8
0
  0
BLOCK
  8
0
  2
*U11
 70
     1
 10
0.0
 20
0.0
 30
0.0
  3
*U11
  1

  0
SOLID
  5
1E3EF
  8
AM_0
  6
CONTINUOUS
 10
170.89864272357011
 20
813.67444690588468
 30
0.0
 11
170.89864272357011
 21
808.67444690588457
 31
0.0
 12
175.89864272357011
 22
808.67444690588457
 32
0.0
 13
175.89864272357011
 23
808.67444690588457
 33
0.0
210
0.0
220
0.0
230
-1.0
  0
LINE
  5
1E3F0
  8
AM_0
  6
CONTINUOUS
 10
-170.89864272357011
 20
813.67444690588468
 30
0.0
 11
-170.89864272357011
 21
808.67444690588457
 31
0.0
  0
LINE
  5
1E3F1
  8
AM_0
  6
CONTINUOUS
 10
-175.89864272357011
 20
808.67444690588457
 30
0.0
 11
-170.89864272357011
 21
813.67444690588468
 31
0.0
  0
ENDBLK
  5
1E3F3
  8
0
  0
BLOCK
  8
0
  2
*U12
 70
     1
 10
0.0
 20
0.0
 30
0.0
  3
*U12
  1

  0
TEXT
  5
1E415
  8
AM_5
 62
     4
 10
-265.79848468763328
 20
914.43191599077795
 30
0.0
 40
2.5
  1
489.5
 41
0.8299999999999999
  0
ENDBLK
  5
1E417
  8
0
  0
BLOCK
  8
0
  2
*U13
 70
     1
 10
0.0
 20
0.0
 30
0.0
  3
*U13
  1

  0
TEXT
  5
1E419
  8
AM_5
 62
     4
 10
-265.79925018763299
 20
506.69809384065729
 30
0.0
 40
2.5
  1
489.5
 41
0.8299999999999999
  0
ENDBLK
  5
1E41B
  8
0
  0
ENDSEC
  0
SECTION
  2
ENTITIES
  0
POINT
  5
1B94
  8
0
 10
0.0
 20
0.0
 30
0.0
1001
GENIUS_GENODEF_13
1002
{
1000
HIER
1070
     1
1002
}
1002
{
1000
MANEDIT
1070
     0
1002
}
1002
{
1000
NOSEL
1070
     0
1002
}
1002
{
1000
BEHIND
1070
     0
1002
}
1002
{
1000
REACTOR
1002
}
1001
GENIUS_GENOBJ-N-SDF_13
1002
{
1000
OWNER
1000
GEN
1002
}
1001
GENIUS_GENOENT_13
1002
{
1000
MYREF
1005
1B94
1002
}
1002
{
1000
GRP
1005
0
1002
}
1001
GENIUS_GENOLIS_13
1002
{
1000
ENT
1005
89
1002
}
  0
LINE
  5
1BB8C
  8
AM_0
 10
343.0073948535096
 20
417.23420457840371
 30
0.0
 11
338.00739470299777
 21
417.23420457840371
 31
0.0
  0
LINE
  5
1BB8D
  8
AM_0
 10
343.0073948535096
 20
317.23220159811189
 30
0.0
 11
338.00739470299777
 21
317.23220159811189
 31
0.0
  0
LINE
  5
1BB8E
  8
AM_0
 10
344.00746605776499
 20
312.23320308825782
 30
0.0
 11
338.00746605776482
 21
312.23320308825782
 31
0.0
  0
LINE
  5
1BB91
  8
ﾁｭｳｼﾝｾﾝ1
 10
353.00807117033838
 20
367.23283021217833
 30
0.0
 11
94.537162103565848
 21
367.23396406195479
 31
0.0
  0
ARC
  5
1BB94
  8
AM_0
 10
348.00739851769532
 20
262.23320308825782
 30
0.0
 40
10.0
 50
180.0
 51
270.0
1001
GENIUS_GENOBJ-N-FIL_13
1002
{
1000
OWNER
1000
GEN
1002
}
1001
GENIUS_GENODEF_13
1002
{
1000
HIER
1070
     0
1002
}
1002
{
1000
MANEDIT
1070
     0
1002
}
1002
{
1000
NOSEL
1070
     0
1002
}
1002
{
1000
BEHIND
1070
     0
1002
}
1002
{
1000
OTHER
1070
     0
1002
}
1002
{
1000
REACTOR
1002
}
  0
LINE
  5
1BB99
  8
ﾁｭｳｼﾝｾﾝ1
 10
163.0074438469866
 20
237.98320308825771
 30
0.0
 11
163.00745371719611
 21
272.48320308825771
 31
0.0
  0
LINE
  5
1BBA0
  8
AM_0
 10
145.5074436323807
 20
252.23320308825771
 30
0.0
 11
188.0073904886726
 21
252.23320308825771
 31
0.0
  0
LINE
  5
1BBA1
  8
AM_0
 10
145.50745679266001
 20
258.23320308825771
 30
0.0
 11
187.0073904886726
 21
258.23320308825771
 31
0.0
  0
LINE
  5
1BBA4
  8
ﾁｭｳｼﾝｾﾝ1
 10
398.4880749318022
 20
354.23263070220401
 30
0.0
 11
205.500992933623
 21
354.23347729016473
 31
0.0
  0
LINE
  5
1BBA5
  8
AM_0
 10
155.5074787264831
 20
268.23320308825771
 30
0.0
 11
175.70739048867259
 21
288.4331148504474
 31
0.0
  0
LINE
  5
1BBDA
  8
AM_0
 10
155.5074567926842
 20
258.23320308825771
 30
0.0
 11
155.5074787264831
 21
268.23320308825771
 31
0.0
  0
LINE
  5
1BBDB
  8
AM_0
 10
145.50744363238081
 20
252.23320308825771
 30
0.0
 11
145.50745679266009
 21
258.23320308825771
 31
0.0
  0
LINE
  5
1BBDC
  8
ｶｸﾚｾﾝ2
 10
153.50744749467219
 20
252.23320308825799
 30
0.0
 11
153.50744921123041
 21
258.23320308825771
 31
0.0
  0
LINE
  5
1C168
  8
AM_0
 10
198.00739048867271
 20
460.76379349104332
 30
0.0
 11
198.00739048867271
 21
262.23320308825771
 31
0.0
  0
LINE
  5
1C169
  8
AM_0
 10
225.00739130143549
 20
461.23508588973209
 30
0.0
 11
225.00739130143549
 21
273.23132028678339
 31
0.0
  0
LINE
  5
1C16A
  8
AM_0
 10
338.00739851769532
 20
459.26263427333117
 30
0.0
 11
338.00739851769532
 21
262.23320308825782
 31
0.0
  0
LINE
  5
1C16B
  8
ﾁｭｳｼﾝｾﾝ1
 10
268.00746378405569
 20
246.42057025511829
 30
0.0
 11
268.00798759583552
 21
485.23546267101682
 31
0.0
  0
LINE
  5
1C16C
  8
AM_0
 10
213.0073925793352
 20
265.23116267101688
 30
0.0
 11
323.00739261233531
 21
265.23116267101688
 31
0.0
  0
LINE
  5
1C16D
  8
AM_0
 10
338.00739851769532
 20
275.2037871622789
 30
0.0
 11
225.00739130143549
 21
273.23132028678339
 31
0.0
  0
LINE
  5
1C16F
  8
AM_0
 10
193.00738652346379
 20
417.23420457840371
 30
0.0
 11
193.00738652346379
 21
317.23220159811189
 31
0.0
  0
LINE
  5
1C173
  8
AM_0
 10
198.00739048867271
 20
329.23244195574682
 30
0.0
 11
213.0073909402077
 21
329.23244195574682
 31
0.0
  0
LINE
  5
1C174
  8
AM_0
 10
201.00739057897971
 20
324.23234180673222
 30
0.0
 11
210.0073908499007
 21
324.23234180673222
 31
0.0
  0
LINE
  5
1C175
  8
AM_0
 10
198.00739048867271
 20
303.23192118087093
 30
0.0
 11
213.0073909402077
 21
303.23192118087093
 31
0.0
  0
LINE
  5
1C176
  8
AM_0
 10
201.00739057897971
 20
308.23202132988558
 30
0.0
 11
210.0073908499007
 21
308.23202132988558
 31
0.0
  0
POLYLINE
  5
1C177
  8
AM_0
 10
205.00739257693536
 20
273.23132267101693
 30
0.0
 66
     1
 70
     8
  0
VERTEX
  8
AM_0
  5
1E436
 10
205.007
 20
273.231
 30
0.000000
  70
    32
  0
VERTEX
  8
AM_0
  5
1E437
 10
205.008
 20
273.133
 30
0.000000
  70
    32
  0
VERTEX
  8
AM_0
  5
1E438
 10
205.010
 20
273.035
 30
0.000000
  70
    32
  0
VERTEX
  8
AM_0
  5
1E439
 10
205.013
 20
272.937
 30
0.000000
  70
    32
  0
VERTEX
  8
AM_0
  5
1E43A
 10
205.017
 20
272.839
 30
0.000000
  70
    32
  0
VERTEX
  8
AM_0
  5
1E43B
 10
205.022
 20
272.741
 30
0.000000
  70
    32
  0
VERTEX
  8
AM_0
  5
1E43C
 10
205.029
 20
272.643
 30
0.000000
  70
    32
  0
VERTEX
  8
AM_0
  5
1E43D
 10
205.037
 20
272.545
 30
0.000000
  70
    32
  0
VERTEX
  8
AM_0
  5
1E43E
 10
205.046
 20
272.447
 30
0.000000
  70
    32
  0
VERTEX
  8
AM_0
  5
1E43F
 10
205.056
 20
272.350
 30
0.000000
  70
    32
  0
VERTEX
  8
AM_0
  5
1E440
 10
205.068
 20
272.252
 30
0.000000
  70
    32
  0
VERTEX
  8
AM_0
  5
1E441
 10
205.080
 20
272.155
 30
0.000000
  70
    32
  0
VERTEX
  8
AM_0
  5
1E442
 10
205.094
 20
272.057
 30
0.000000
  70
    32
  0
VERTEX
  8
AM_0
  5
1E443
 10
205.109
 20
271.960
 30
0.000000
  70
    32
  0
VERTEX
  8
AM_0
  5
1E444
 10
205.125
 20
271.864
 30
0.000000
  70
    32
  0
VERTEX
  8
AM_0
  5
1E445
 10
205.143
 20
271.767
 30
0.000000
  70
    32
  0
VERTEX
  8
AM_0
  5
1E446
 10
205.161
 20
271.671
 30
0.000000
  70
    32
  0
VERTEX
  8
AM_0
  5
1E447
 10
205.181
 20
271.574
 30
0.000000
  70
    32
  0
VERTEX
  8
AM_0
  5
1E448
 10
205.202
 20
271.478
 30
0.000000
  70
    32
  0
VERTEX
  8
AM_0
  5
1E449
 10
205.224
 20
271.383
 30
0.000000
  70
    32
  0
VERTEX
  8
AM_0
  5
1E44A
 10
205.247
 20
271.287
 30
0.000000
  70
    32
  0
VERTEX
  8
AM_0
  5
1E44B
 10
205.272
 20
271.192
 30
0.000000
  70
    32
  0
VERTEX
  8
AM_0
  5
1E44C
 10
205.297
 20
271.098
 30
0.000000
  70
    32
  0
VERTEX
  8
AM_0
  5
1E44D
 10
205.324
 20
271.003
 30
0.000000
  70
    32
  0
VERTEX
  8
AM_0
  5
1E44E
 10
205.352
 20
270.909
 30
0.000000
  70
    32
  0
VERTEX
  8
AM_0
  5
1E44F
 10
205.381
 20
270.815
 30
0.000000
  70
    32
  0
VERTEX
  8
AM_0
  5
1E450
 10
205.411
 20
270.722
 30
0.000000
  70
    32
  0
VERTEX
  8
AM_0
  5
1E451
 10
205.443
 20
270.629
 30
0.000000
  70
    32
  0
VERTEX
  8
AM_0
  5
1E452
 10
205.475
 20
270.536
 30
0.000000
  70
    32
  0
VERTEX
  8
AM_0
  5
1E453
 10
205.509
 20
270.444
 30
0.000000
  70
    32
  0
VERTEX
  8
AM_0
  5
1E454
 10
205.543
 20
270.352
 30
0.000000
  70
    32
  0
VERTEX
  8
AM_0
  5
1E455
 10
205.579
 20
270.261
 30
0.000000
  70
    32
  0
VERTEX
  8
AM_0
  5
1E456
 10
205.616
 20
270.170
 30
0.000000
  70
    32
  0
VERTEX
  8
AM_0
  5
1E457
 10
205.654
 20
270.079
 30
0.000000
  70
    32
  0
VERTEX
  8
AM_0
  5
1E458
 10
205.694
 20
269.989
 30
0.000000
  70
    32
  0
VERTEX
  8
AM_0
  5
1E459
 10
205.734
 20
269.900
 30
0.000000
  70
    32
  0
VERTEX
  8
AM_0
  5
1E45A
 10
205.775
 20
269.811
 30
0.000000
  70
    32
  0
VERTEX
  8
AM_0
  5
1E45B
 10
205.818
 20
269.722
 30
0.000000
  70
    32
  0
VERTEX
  8
AM_0
  5
1E45C
 10
205.862
 20
269.634
 30
0.000000
  70
    32
  0
VERTEX
  8
AM_0
  5
1E45D
 10
205.906
 20
269.547
 30
0.000000
  70
    32
  0
VERTEX
  8
AM_0
  5
1E45E
 10
205.952
 20
269.460
 30
0.000000
  70
    32
  0
VERTEX
  8
AM_0
  5
1E45F
 10
205.999
 20
269.374
 30
0.000000
  70
    32
  0
VERTEX
  8
AM_0
  5
1E460
 10
206.047
 20
269.288
 30
0.000000
  70
    32
  0
VERTEX
  8
AM_0
  5
1E461
 10
206.096
 20
269.203
 30
0.000000
  70
    32
  0
VERTEX
  8
AM_0
  5
1E462
 10
206.146
 20
269.118
 30
0.000000
  70
    32
  0
VERTEX
  8
AM_0
  5
1E463
 10
206.197
 20
269.035
 30
0.000000
  70
    32
  0
VERTEX
  8
AM_0
  5
1E464
 10
206.249
 20
268.951
 30
0.000000
  70
    32
  0
VERTEX
  8
AM_0
  5
1E465
 10
206.302
 20
268.869
 30
0.000000
  70
    32
  0
VERTEX
  8
AM_0
  5
1E466
 10
206.356
 20
268.787
 30
0.000000
  70
    32
  0
VERTEX
  8
AM_0
  5
1E467
 10
206.411
 20
268.705
 30
0.000000
  70
    32
  0
VERTEX
  8
AM_0
  5
1E468
 10
206.467
 20
268.625
 30
0.000000
  70
    32
  0
VERTEX
  8
AM_0
  5
1E469
 10
206.524
 20
268.545
 30
0.000000
  70
    32
  0
VERTEX
  8
AM_0
  5
1E46A
 10
206.582
 20
268.466
 30
0.000000
  70
    32
  0
VERTEX
  8
AM_0
  5
1E46B
 10
206.641
 20
268.387
 30
0.000000
  70
    32
  0
VERTEX
  8
AM_0
  5
1E46C
 10
206.701
 20
268.309
 30
0.000000
  70
    32
  0
VERTEX
  8
AM_0
  5
1E46D
 10
206.761
 20
268.232
 30
0.000000
  70
    32
  0
VERTEX
  8
AM_0
  5
1E46E
 10
206.823
 20
268.156
 30
0.000000
  70
    32
  0
VERTEX
  8
AM_0
  5
1E46F
 10
206.886
 20
268.081
 30
0.000000
  70
    32
  0
VERTEX
  8
AM_0
  5
1E470
 10
206.950
 20
268.006
 30
0.000000
  70
    32
  0
VERTEX
  8
AM_0
  5
1E471
 10
207.014
 20
267.932
 30
0.000000
  70
    32
  0
VERTEX
  8
AM_0
  5
1E472
 10
207.080
 20
267.859
 30
0.000000
  70
    32
  0
VERTEX
  8
AM_0
  5
1E473
 10
207.146
 20
267.786
 30
0.000000
  70
    32
  0
VERTEX
  8
AM_0
  5
1E474
 10
207.213
 20
267.715
 30
0.000000
  70
    32
  0
VERTEX
  8
AM_0
  5
1E475
 10
207.282
 20
267.644
 30
0.000000
  70
    32
  0
VERTEX
  8
AM_0
  5
1E476
 10
207.351
 20
267.574
 30
0.000000
  70
    32
  0
VERTEX
  8
AM_0
  5
1E477
 10
207.420
 20
267.505
 30
0.000000
  70
    32
  0
VERTEX
  8
AM_0
  5
1E478
 10
207.491
 20
267.437
 30
0.000000
  70
    32
  0
VERTEX
  8
AM_0
  5
1E479
 10
207.563
 20
267.370
 30
0.000000
  70
    32
  0
VERTEX
  8
AM_0
  5
1E47A
 10
207.635
 20
267.304
 30
0.000000
  70
    32
  0
VERTEX
  8
AM_0
  5
1E47B
 10
207.708
 20
267.238
 30
0.000000
  70
    32
  0
VERTEX
  8
AM_0
  5
1E47C
 10
207.782
 20
267.174
 30
0.000000
  70
    32
  0
VERTEX
  8
AM_0
  5
1E47D
 10
207.857
 20
267.110
 30
0.000000
  70
    32
  0
VERTEX
  8
AM_0
  5
1E47E
 10
207.932
 20
267.047
 30
0.000000
  70
    32
  0
VERTEX
  8
AM_0
  5
1E47F
 10
208.009
 20
266.985
 30
0.000000
  70
    32
  0
VERTEX
  8
AM_0
  5
1E480
 10
208.086
 20
266.924
 30
0.000000
  70
    32
  0
VERTEX
  8
AM_0
  5
1E481
 10
208.163
 20
266.865
 30
0.000000
  70
    32
  0
VERTEX
  8
AM_0
  5
1E482
 10
208.242
 20
266.806
 30
0.000000
  70
    32
  0
VERTEX
  8
AM_0
  5
1E483
 10
208.321
 20
266.748
 30
0.000000
  70
    32
  0
VERTEX
  8
AM_0
  5
1E484
 10
208.401
 20
266.691
 30
0.000000
  70
    32
  0
VERTEX
  8
AM_0
  5
1E485
 10
208.482
 20
266.634
 30
0.000000
  70
    32
  0
VERTEX
  8
AM_0
  5
1E486
 10
208.563
 20
266.579
 30
0.000000
  70
    32
  0
VERTEX
  8
AM_0
  5
1E487
 10
208.645
 20
266.525
 30
0.000000
  70
    32
  0
VERTEX
  8
AM_0
  5
1E488
 10
208.727
 20
266.472
 30
0.000000
  70
    32
  0
VERTEX
  8
AM_0
  5
1E489
 10
208.811
 20
266.420
 30
0.000000
  70
    32
  0
VERTEX
  8
AM_0
  5
1E48A
 10
208.895
 20
266.369
 30
0.000000
  70
    32
  0
VERTEX
  8
AM_0
  5
1E48B
 10
208.979
 20
266.319
 30
0.000000
  70
    32
  0
VERTEX
  8
AM_0
  5
1E48C
 10
209.064
 20
266.270
 30
0.000000
  70
    32
  0
VERTEX
  8
AM_0
  5
1E48D
 10
209.150
 20
266.223
 30
0.000000
  70
    32
  0
VERTEX
  8
AM_0
  5
1E48E
 10
209.236
 20
266.176
 30
0.000000
  70
    32
  0
VERTEX
  8
AM_0
  5
1E48F
 10
209.323
 20
266.130
 30
0.000000
  70
    32
  0
VERTEX
  8
AM_0
  5
1E490
 10
209.411
 20
266.085
 30
0.000000
  70
    32
  0
VERTEX
  8
AM_0
  5
1E491
 10
209.498
 20
266.042
 30
0.000000
  70
    32
  0
VERTEX
  8
AM_0
  5
1E492
 10
209.587
 20
265.999
 30
0.000000
  70
    32
  0
VERTEX
  8
AM_0
  5
1E493
 10
209.676
 20
265.958
 30
0.000000
  70
    32
  0
VERTEX
  8
AM_0
  5
1E494
 10
209.765
 20
265.917
 30
0.000000
  70
    32
  0
VERTEX
  8
AM_0
  5
1E495
 10
209.855
 20
265.878
 30
0.000000
  70
    32
  0
VERTEX
  8
AM_0
  5
1E496
 10
209.946
 20
265.840
 30
0.000000
  70
    32
  0
VERTEX
  8
AM_0
  5
1E497
 10
210.037
 20
265.803
 30
0.000000
  70
    32
  0
VERTEX
  8
AM_0
  5
1E498
 10
210.128
 20
265.767
 30
0.000000
  70
    32
  0
VERTEX
  8
AM_0
  5
1E499
 10
210.220
 20
265.732
 30
0.000000
  70
    32
  0
VERTEX
  8
AM_0
  5
1E49A
 10
210.312
 20
265.699
 30
0.000000
  70
    32
  0
VERTEX
  8
AM_0
  5
1E49B
 10
210.405
 20
265.666
 30
0.000000
  70
    32
  0
VERTEX
  8
AM_0
  5
1E49C
 10
210.498
 20
265.635
 30
0.000000
  70
    32
  0
VERTEX
  8
AM_0
  5
1E49D
 10
210.591
 20
265.605
 30
0.000000
  70
    32
  0
VERTEX
  8
AM_0
  5
1E49E
 10
210.685
 20
265.576
 30
0.000000
  70
    32
  0
VERTEX
  8
AM_0
  5
1E49F
 10
210.779
 20
265.548
 30
0.000000
  70
    32
  0
VERTEX
  8
AM_0
  5
1E4A0
 10
210.874
 20
265.521
 30
0.000000
  70
    32
  0
VERTEX
  8
AM_0
  5
1E4A1
 10
210.968
 20
265.495
 30
0.000000
  70
    32
  0
VERTEX
  8
AM_0
  5
1E4A2
 10
211.064
 20
265.471
 30
0.000000
  70
    32
  0
VERTEX
  8
AM_0
  5
1E4A3
 10
211.159
 20
265.448
 30
0.000000
  70
    32
  0
VERTEX
  8
AM_0
  5
1E4A4
 10
211.255
 20
265.426
 30
0.000000
  70
    32
  0
VERTEX
  8
AM_0
  5
1E4A5
 10
211.351
 20
265.405
 30
0.000000
  70
    32
  0
VERTEX
  8
AM_0
  5
1E4A6
 10
211.447
 20
265.385
 30
0.000000
  70
    32
  0
VERTEX
  8
AM_0
  5
1E4A7
 10
211.543
 20
265.366
 30
0.000000
  70
    32
  0
VERTEX
  8
AM_0
  5
1E4A8
 10
211.640
 20
265.349
 30
0.000000
  70
    32
  0
VERTEX
  8
AM_0
  5
1E4A9
 10
211.737
 20
265.333
 30
0.000000
  70
    32
  0
VERTEX
  8
AM_0
  5
1E4AA
 10
211.834
 20
265.318
 30
0.000000
  70
    32
  0
VERTEX
  8
AM_0
  5
1E4AB
 10
211.931
 20
265.304
 30
0.000000
  70
    32
  0
VERTEX
  8
AM_0
  5
1E4AC
 10
212.028
 20
265.291
 30
0.000000
  70
    32
  0
VERTEX
  8
AM_0
  5
1E4AD
 10
212.126
 20
265.280
 30
0.000000
  70
    32
  0
VERTEX
  8
AM_0
  5
1E4AE
 10
212.223
 20
265.270
 30
0.000000
  70
    32
  0
VERTEX
  8
AM_0
  5
1E4AF
 10
212.321
 20
265.261
 30
0.000000
  70
    32
  0
VERTEX
  8
AM_0
  5
1E4B0
 10
212.419
 20
265.253
 30
0.000000
  70
    32
  0
VERTEX
  8
AM_0
  5
1E4B1
 10
212.517
 20
265.246
 30
0.000000
  70
    32
  0
VERTEX
  8
AM_0
  5
1E4B2
 10
212.615
 20
265.241
 30
0.000000
  70
    32
  0
VERTEX
  8
AM_0
  5
1E4B3
 10
212.713
 20
265.237
 30
0.000000
  70
    32
  0
VERTEX
  8
AM_0
  5
1E4B4
 10
212.811
 20
265.234
 30
0.000000
  70
    32
  0
VERTEX
  8
AM_0
  5
1E4B5
 10
212.909
 20
265.232
 30
0.000000
  70
    32
  0
VERTEX
  8
AM_0
  5
1E4B6
 10
213.007
 20
265.231
 30
0.000000
  70
    32
  0
SEQEND
  8
AM_0
  5
1E4B7
  0
LINE
  5
1C178
  8
AM_0
 10
225.00739130143549
 20
273.23132028678339
 30
0.0
 11
198.00739048867271
 21
273.70261268547262
 31
0.0
  0
ARC
  5
1C179
  8
AM_0N
 10
198.60496248321641
 20
291.23168082323588
 30
0.0
 40
22.897571994543771
 50
162.38303115961079
 51
197.61696884038909
1001
GENIUS_GENOREF_13
1005
0
  0
LINE
  5
1C17A
  8
AM_0N
 10
175.70739048867259
 20
303.23168082323588
 30
0.0
 11
175.70739048867259
 21
279.23168082323588
 31
0.0
1001
GENIUS_GENOREF_13
1005
0
  0
LINE
  5
1C17B
  8
AM_0
 10
192.0073904886726
 20
312.23320308825771
 30
0.0
 11
192.0073904886726
 21
263.2332030882576
 31
0.0
  0
LINE
  5
1C17C
  8
AM_0N
 10
192.0073904886726
 20
276.23168082323588
 30
0.0
 11
192.0073904886726
 21
306.23168082323588
 31
0.0
  0
LINE
  5
1C17D
  8
AM_0N
 10
189.5073904886726
 20
306.23168082323588
 30
0.0
 11
189.5073904886726
 21
276.23168082323588
 31
0.0
  0
LINE
  5
1C17E
  8
AM_0N
 10
176.7812619893653
 20
277.37168082323592
 30
0.0
 11
189.43351898797991
 21
277.37168082323592
 31
0.0
1001
GENIUS_GENOREF_13
1005
0
  0
LINE
  5
1C17F
  8
AM_0N
 10
176.7812619893653
 20
284.30168082323598
 30
0.0
 11
189.43351898797991
 21
284.30168082323598
 31
0.0
1001
GENIUS_GENOREF_13
1005
0
  0
LINE
  5
1C180
  8
ｶｸﾚｾﾝ2
 10
172.50744749467299
 20
252.23320308825799
 30
0.0
 11
172.5074492112312
 21
258.23320308825771
 31
0.0
  0
ARC
  5
1C181
  8
AM_0N
 10
181.83448530006839
 20
280.83668082323601
 30
0.0
 40
6.1270948113957182
 50
145.5615305952663
 51
205.561530595264
1001
GENIUS_GENOREF_13
1005
0
  0
LINE
  5
1C182
  8
AM_0N
 10
176.7812619893653
 20
277.37168082323592
 30
0.0
 11
175.70739048867259
 21
279.23168082323588
 31
0.0
1001
GENIUS_GENOREF_13
1005
0
  0
ARC
  5
1C183
  8
AM_0
 10
188.0073904886726
 20
262.23320308825771
 30
0.0
 40
10.0
 50
270.0
 51
0.0
1001
GENIUS_GENODEF_13
1002
{
1000
HIER
1070
     0
1002
}
1002
{
1000
MANEDIT
1070
     0
1002
}
1002
{
1000
NOSEL
1070
     0
1002
}
1002
{
1000
BEHIND
1070
     0
1002
}
1002
{
1000
OTHER
1070
     0
1002
}
1002
{
1000
REACTOR
1002
}
1001
GENIUS_GENOBJ-N-FIL_13
1002
{
1000
OWNER
1000
GEN
1002
}
  0
ARC
  5
1C184
  8
AM_0
 10
187.0073904886726
 20
263.2332030882576
 30
0.0
 40
5.0
 50
270.0
 51
0.0
1001
GENIUS_GENODEF_13
1002
{
1000
HIER
1070
     0
1002
}
1002
{
1000
MANEDIT
1070
     0
1002
}
1002
{
1000
NOSEL
1070
     0
1002
}
1002
{
1000
BEHIND
1070
     0
1002
}
1002
{
1000
OTHER
1070
     0
1002
}
1002
{
1000
REACTOR
1002
}
1001
GENIUS_GENOBJ-N-FIL_13
1002
{
1000
OWNER
1000
GEN
1002
}
  0
LINE
  5
1C185
  8
AM_0N
 10
189.5073904886726
 20
276.23168082323599
 30
0.0
 11
192.0073904886726
 21
276.23168082323588
 31
0.0
  0
LINE
  5
1C186
  8
AM_0
 10
205.0073925769353
 20
273.23132267101693
 30
0.0
 11
205.0073925769353
 21
273.58042573452082
 31
0.0
  0
LINE
  5
1C187
  8
AM_0N
 10
176.7812619893653
 20
305.091680823236
 30
0.0
 11
189.43351898797991
 21
305.091680823236
 31
0.0
1001
GENIUS_GENOREF_13
1005
0
  0
LINE
  5
1C18B
  8
AM_0N
 10
176.7812619893653
 20
298.161680823236
 30
0.0
 11
189.43351898797991
 21
298.161680823236
 31
0.0
1001
GENIUS_GENOREF_13
1005
0
  0
LINE
  5
1C18C
  8
AM_0N
 10
176.7812619893653
 20
305.091680823236
 30
0.0
 11
175.70739048867259
 21
303.23168082323588
 31
0.0
1001
GENIUS_GENOREF_13
1005
0
  0
ARC
  5
1C18D
  8
AM_0N
 10
181.83448530006839
 20
301.62668082323592
 30
0.0
 40
6.1270948113957182
 50
154.43846940473591
 51
214.43846940473361
1001
GENIUS_GENOREF_13
1005
0
  0
LINE
  5
1C190
  8
AM_0
 10
200.0073905488774
 20
309.23204135968842
 30
0.0
 11
200.0073905488774
 21
323.23232177692933
 31
0.0
  0
LINE
  5
1C191
  8
AM_0
 10
192.0073904886726
 20
312.23320308825782
 30
0.0
 11
198.0073904886728
 21
312.23320308825782
 31
0.0
  0
LINE
  5
1C192
  8
AM_0N
 10
192.0073904886726
 20
306.23168082323588
 30
0.0
 11
189.5073904886726
 21
306.23168082323588
 31
0.0
  0
POLYLINE
  5
1C193
  8
AM_0
 10
200.00739054887748
 20
309.23204127226393
 30
0.0
 66
     1
 70
     8
  0
VERTEX
  8
AM_0
  5
1E4B8
 10
200.007
 20
309.232
 30
0.000000
  70
    32
  0
VERTEX
  8
AM_0
  5
1E4B9
 10
200.007
 20
309.220
 30
0.000000
  70
    32
  0
VERTEX
  8
AM_0
  5
1E4BA
 10
200.008
 20
309.207
 30
0.000000
  70
    32
  0
VERTEX
  8
AM_0
  5
1E4BB
 10
200.008
 20
309.195
 30
0.000000
  70
    32
  0
VERTEX
  8
AM_0
  5
1E4BC
 10
200.009
 20
309.183
 30
0.000000
  70
    32
  0
VERTEX
  8
AM_0
  5
1E4BD
 10
200.009
 20
309.171
 30
0.000000
  70
    32
  0
VERTEX
  8
AM_0
  5
1E4BE
 10
200.010
 20
309.158
 30
0.000000
  70
    32
  0
VERTEX
  8
AM_0
  5
1E4BF
 10
200.011
 20
309.146
 30
0.000000
  70
    32
  0
VERTEX
  8
AM_0
  5
1E4C0
 10
200.012
 20
309.134
 30
0.000000
  70
    32
  0
VERTEX
  8
AM_0
  5
1E4C1
 10
200.013
 20
309.122
 30
0.000000
  70
    32
  0
VERTEX
  8
AM_0
  5
1E4C2
 10
200.015
 20
309.110
 30
0.000000
  70
    32
  0
VERTEX
  8
AM_0
  5
1E4C3
 10
200.016
 20
309.097
 30
0.000000
  70
    32
  0
VERTEX
  8
AM_0
  5
1E4C4
 10
200.018
 20
309.085
 30
0.000000
  70
    32
  0
VERTEX
  8
AM_0
  5
1E4C5
 10
200.020
 20
309.073
 30
0.000000
  70
    32
  0
VERTEX
  8
AM_0
  5
1E4C6
 10
200.022
 20
309.061
 30
0.000000
  70
    32
  0
VERTEX
  8
AM_0
  5
1E4C7
 10
200.024
 20
309.049
 30
0.000000
  70
    32
  0
VERTEX
  8
AM_0
  5
1E4C8
 10
200.027
 20
309.037
 30
0.000000
  70
    32
  0
VERTEX
  8
AM_0
  5
1E4C9
 10
200.029
 20
309.025
 30
0.000000
  70
    32
  0
VERTEX
  8
AM_0
  5
1E4CA
 10
200.032
 20
309.013
 30
0.000000
  70
    32
  0
VERTEX
  8
AM_0
  5
1E4CB
 10
200.034
 20
309.001
 30
0.000000
  70
    32
  0
VERTEX
  8
AM_0
  5
1E4CC
 10
200.037
 20
308.989
 30
0.000000
  70
    32
  0
VERTEX
  8
AM_0
  5
1E4CD
 10
200.040
 20
308.977
 30
0.000000
  70
    32
  0
VERTEX
  8
AM_0
  5
1E4CE
 10
200.044
 20
308.965
 30
0.000000
  70
    32
  0
VERTEX
  8
AM_0
  5
1E4CF
 10
200.047
 20
308.954
 30
0.000000
  70
    32
  0
VERTEX
  8
AM_0
  5
1E4D0
 10
200.050
 20
308.942
 30
0.000000
  70
    32
  0
VERTEX
  8
AM_0
  5
1E4D1
 10
200.054
 20
308.930
 30
0.000000
  70
    32
  0
VERTEX
  8
AM_0
  5
1E4D2
 10
200.058
 20
308.918
 30
0.000000
  70
    32
  0
VERTEX
  8
AM_0
  5
1E4D3
 10
200.062
 20
308.907
 30
0.000000
  70
    32
  0
VERTEX
  8
AM_0
  5
1E4D4
 10
200.066
 20
308.895
 30
0.000000
  70
    32
  0
VERTEX
  8
AM_0
  5
1E4D5
 10
200.070
 20
308.884
 30
0.000000
  70
    32
  0
VERTEX
  8
AM_0
  5
1E4D6
 10
200.074
 20
308.872
 30
0.000000
  70
    32
  0
VERTEX
  8
AM_0
  5
1E4D7
 10
200.079
 20
308.861
 30
0.000000
  70
    32
  0
VERTEX
  8
AM_0
  5
1E4D8
 10
200.084
 20
308.849
 30
0.000000
  70
    32
  0
VERTEX
  8
AM_0
  5
1E4D9
 10
200.088
 20
308.838
 30
0.000000
  70
    32
  0
VERTEX
  8
AM_0
  5
1E4DA
 10
200.093
 20
308.827
 30
0.000000
  70
    32
  0
VERTEX
  8
AM_0
  5
1E4DB
 10
200.098
 20
308.816
 30
0.000000
  70
    32
  0
VERTEX
  8
AM_0
  5
1E4DC
 10
200.103
 20
308.804
 30
0.000000
  70
    32
  0
VERTEX
  8
AM_0
  5
1E4DD
 10
200.109
 20
308.793
 30
0.000000
  70
    32
  0
VERTEX
  8
AM_0
  5
1E4DE
 10
200.114
 20
308.782
 30
0.000000
  70
    32
  0
VERTEX
  8
AM_0
  5
1E4DF
 10
200.120
 20
308.771
 30
0.000000
  70
    32
  0
VERTEX
  8
AM_0
  5
1E4E0
 10
200.125
 20
308.761
 30
0.000000
  70
    32
  0
VERTEX
  8
AM_0
  5
1E4E1
 10
200.131
 20
308.750
 30
0.000000
  70
    32
  0
VERTEX
  8
AM_0
  5
1E4E2
 10
200.137
 20
308.739
 30
0.000000
  70
    32
  0
VERTEX
  8
AM_0
  5
1E4E3
 10
200.143
 20
308.728
 30
0.000000
  70
    32
  0
VERTEX
  8
AM_0
  5
1E4E4
 10
200.150
 20
308.718
 30
0.000000
  70
    32
  0
VERTEX
  8
AM_0
  5
1E4E5
 10
200.156
 20
308.707
 30
0.000000
  70
    32
  0
VERTEX
  8
AM_0
  5
1E4E6
 10
200.163
 20
308.697
 30
0.000000
  70
    32
  0
VERTEX
  8
AM_0
  5
1E4E7
 10
200.169
 20
308.687
 30
0.000000
  70
    32
  0
VERTEX
  8
AM_0
  5
1E4E8
 10
200.176
 20
308.676
 30
0.000000
  70
    32
  0
VERTEX
  8
AM_0
  5
1E4E9
 10
200.183
 20
308.666
 30
0.000000
  70
    32
  0
VERTEX
  8
AM_0
  5
1E4EA
 10
200.190
 20
308.656
 30
0.000000
  70
    32
  0
VERTEX
  8
AM_0
  5
1E4EB
 10
200.197
 20
308.646
 30
0.000000
  70
    32
  0
VERTEX
  8
AM_0
  5
1E4EC
 10
200.204
 20
308.636
 30
0.000000
  70
    32
  0
VERTEX
  8
AM_0
  5
1E4ED
 10
200.212
 20
308.627
 30
0.000000
  70
    32
  0
VERTEX
  8
AM_0
  5
1E4EE
 10
200.219
 20
308.617
 30
0.000000
  70
    32
  0
VERTEX
  8
AM_0
  5
1E4EF
 10
200.227
 20
308.607
 30
0.000000
  70
    32
  0
VERTEX
  8
AM_0
  5
1E4F0
 10
200.234
 20
308.598
 30
0.000000
  70
    32
  0
VERTEX
  8
AM_0
  5
1E4F1
 10
200.242
 20
308.588
 30
0.000000
  70
    32
  0
VERTEX
  8
AM_0
  5
1E4F2
 10
200.250
 20
308.579
 30
0.000000
  70
    32
  0
VERTEX
  8
AM_0
  5
1E4F3
 10
200.258
 20
308.570
 30
0.000000
  70
    32
  0
VERTEX
  8
AM_0
  5
1E4F4
 10
200.266
 20
308.560
 30
0.000000
  70
    32
  0
VERTEX
  8
AM_0
  5
1E4F5
 10
200.275
 20
308.551
 30
0.000000
  70
    32
  0
VERTEX
  8
AM_0
  5
1E4F6
 10
200.283
 20
308.542
 30
0.000000
  70
    32
  0
VERTEX
  8
AM_0
  5
1E4F7
 10
200.292
 20
308.534
 30
0.000000
  70
    32
  0
VERTEX
  8
AM_0
  5
1E4F8
 10
200.300
 20
308.525
 30
0.000000
  70
    32
  0
VERTEX
  8
AM_0
  5
1E4F9
 10
200.309
 20
308.516
 30
0.000000
  70
    32
  0
VERTEX
  8
AM_0
  5
1E4FA
 10
200.318
 20
308.508
 30
0.000000
  70
    32
  0
VERTEX
  8
AM_0
  5
1E4FB
 10
200.327
 20
308.499
 30
0.000000
  70
    32
  0
VERTEX
  8
AM_0
  5
1E4FC
 10
200.336
 20
308.491
 30
0.000000
  70
    32
  0
VERTEX
  8
AM_0
  5
1E4FD
 10
200.345
 20
308.483
 30
0.000000
  70
    32
  0
VERTEX
  8
AM_0
  5
1E4FE
 10
200.354
 20
308.475
 30
0.000000
  70
    32
  0
VERTEX
  8
AM_0
  5
1E4FF
 10
200.364
 20
308.467
 30
0.000000
  70
    32
  0
VERTEX
  8
AM_0
  5
1E500
 10
200.373
 20
308.459
 30
0.000000
  70
    32
  0
VERTEX
  8
AM_0
  5
1E501
 10
200.383
 20
308.451
 30
0.000000
  70
    32
  0
VERTEX
  8
AM_0
  5
1E502
 10
200.392
 20
308.444
 30
0.000000
  70
    32
  0
VERTEX
  8
AM_0
  5
1E503
 10
200.402
 20
308.436
 30
0.000000
  70
    32
  0
VERTEX
  8
AM_0
  5
1E504
 10
200.412
 20
308.429
 30
0.000000
  70
    32
  0
VERTEX
  8
AM_0
  5
1E505
 10
200.422
 20
308.422
 30
0.000000
  70
    32
  0
VERTEX
  8
AM_0
  5
1E506
 10
200.432
 20
308.414
 30
0.000000
  70
    32
  0
VERTEX
  8
AM_0
  5
1E507
 10
200.442
 20
308.407
 30
0.000000
  70
    32
  0
VERTEX
  8
AM_0
  5
1E508
 10
200.452
 20
308.401
 30
0.000000
  70
    32
  0
VERTEX
  8
AM_0
  5
1E509
 10
200.462
 20
308.394
 30
0.000000
  70
    32
  0
VERTEX
  8
AM_0
  5
1E50A
 10
200.472
 20
308.387
 30
0.000000
  70
    32
  0
VERTEX
  8
AM_0
  5
1E50B
 10
200.483
 20
308.381
 30
0.000000
  70
    32
  0
VERTEX
  8
AM_0
  5
1E50C
 10
200.493
 20
308.374
 30
0.000000
  70
    32
  0
VERTEX
  8
AM_0
  5
1E50D
 10
200.504
 20
308.368
 30
0.000000
  70
    32
  0
VERTEX
  8
AM_0
  5
1E50E
 10
200.514
 20
308.362
 30
0.000000
  70
    32
  0
VERTEX
  8
AM_0
  5
1E50F
 10
200.525
 20
308.356
 30
0.000000
  70
    32
  0
VERTEX
  8
AM_0
  5
1E510
 10
200.536
 20
308.350
 30
0.000000
  70
    32
  0
VERTEX
  8
AM_0
  5
1E511
 10
200.547
 20
308.344
 30
0.000000
  70
    32
  0
VERTEX
  8
AM_0
  5
1E512
 10
200.558
 20
308.339
 30
0.000000
  70
    32
  0
VERTEX
  8
AM_0
  5
1E513
 10
200.569
 20
308.333
 30
0.000000
  70
    32
  0
VERTEX
  8
AM_0
  5
1E514
 10
200.580
 20
308.328
 30
0.000000
  70
    32
  0
VERTEX
  8
AM_0
  5
1E515
 10
200.591
 20
308.323
 30
0.000000
  70
    32
  0
VERTEX
  8
AM_0
  5
1E516
 10
200.602
 20
308.318
 30
0.000000
  70
    32
  0
VERTEX
  8
AM_0
  5
1E517
 10
200.613
 20
308.313
 30
0.000000
  70
    32
  0
VERTEX
  8
AM_0
  5
1E518
 10
200.625
 20
308.308
 30
0.000000
  70
    32
  0
VERTEX
  8
AM_0
  5
1E519
 10
200.636
 20
308.304
 30
0.000000
  70
    32
  0
VERTEX
  8
AM_0
  5
1E51A
 10
200.647
 20
308.299
 30
0.000000
  70
    32
  0
VERTEX
  8
AM_0
  5
1E51B
 10
200.659
 20
308.295
 30
0.000000
  70
    32
  0
VERTEX
  8
AM_0
  5
1E51C
 10
200.671
 20
308.290
 30
0.000000
  70
    32
  0
VERTEX
  8
AM_0
  5
1E51D
 10
200.682
 20
308.286
 30
0.000000
  70
    32
  0
VERTEX
  8
AM_0
  5
1E51E
 10
200.694
 20
308.282
 30
0.000000
  70
    32
  0
VERTEX
  8
AM_0
  5
1E51F
 10
200.705
 20
308.279
 30
0.000000
  70
    32
  0
VERTEX
  8
AM_0
  5
1E520
 10
200.717
 20
308.275
 30
0.000000
  70
    32
  0
VERTEX
  8
AM_0
  5
1E521
 10
200.729
 20
308.272
 30
0.000000
  70
    32
  0
VERTEX
  8
AM_0
  5
1E522
 10
200.741
 20
308.268
 30
0.000000
  70
    32
  0
VERTEX
  8
AM_0
  5
1E523
 10
200.753
 20
308.265
 30
0.000000
  70
    32
  0
VERTEX
  8
AM_0
  5
1E524
 10
200.764
 20
308.262
 30
0.000000
  70
    32
  0
VERTEX
  8
AM_0
  5
1E525
 10
200.776
 20
308.259
 30
0.000000
  70
    32
  0
VERTEX
  8
AM_0
  5
1E526
 10
200.788
 20
308.256
 30
0.000000
  70
    32
  0
VERTEX
  8
AM_0
  5
1E527
 10
200.800
 20
308.254
 30
0.000000
  70
    32
  0
VERTEX
  8
AM_0
  5
1E528
 10
200.812
 20
308.251
 30
0.000000
  70
    32
  0
VERTEX
  8
AM_0
  5
1E529
 10
200.824
 20
308.249
 30
0.000000
  70
    32
  0
VERTEX
  8
AM_0
  5
1E52A
 10
200.836
 20
308.247
 30
0.000000
  70
    32
  0
VERTEX
  8
AM_0
  5
1E52B
 10
200.849
 20
308.245
 30
0.000000
  70
    32
  0
VERTEX
  8
AM_0
  5
1E52C
 10
200.861
 20
308.243
 30
0.000000
  70
    32
  0
VERTEX
  8
AM_0
  5
1E52D
 10
200.873
 20
308.241
 30
0.000000
  70
    32
  0
VERTEX
  8
AM_0
  5
1E52E
 10
200.885
 20
308.240
 30
0.000000
  70
    32
  0
VERTEX
  8
AM_0
  5
1E52F
 10
200.897
 20
308.238
 30
0.000000
  70
    32
  0
VERTEX
  8
AM_0
  5
1E530
 10
200.909
 20
308.237
 30
0.000000
  70
    32
  0
VERTEX
  8
AM_0
  5
1E531
 10
200.922
 20
308.236
 30
0.000000
  70
    32
  0
VERTEX
  8
AM_0
  5
1E532
 10
200.934
 20
308.235
 30
0.000000
  70
    32
  0
VERTEX
  8
AM_0
  5
1E533
 10
200.946
 20
308.234
 30
0.000000
  70
    32
  0
VERTEX
  8
AM_0
  5
1E534
 10
200.958
 20
308.233
 30
0.000000
  70
    32
  0
VERTEX
  8
AM_0
  5
1E535
 10
200.971
 20
308.233
 30
0.000000
  70
    32
  0
VERTEX
  8
AM_0
  5
1E536
 10
200.983
 20
308.232
 30
0.000000
  70
    32
  0
VERTEX
  8
AM_0
  5
1E537
 10
200.995
 20
308.232
 30
0.000000
  70
    32
  0
VERTEX
  8
AM_0
  5
1E538
 10
201.007
 20
308.232
 30
0.000000
  70
    32
  0
SEQEND
  8
AM_0
  5
1E539
  0
LINE
  5
1C194
  8
AM_0
 10
198.00738667397539
 20
317.23220159811189
 30
0.0
 11
193.00738652346379
 21
317.23220159811189
 31
0.0
  0
POLYLINE
  5
1C197
  8
AM_0
 10
201.00739053526848
 20
324.23234180673228
 30
0.0
 66
     1
 70
     8
  0
VERTEX
  8
AM_0
  5
1E53A
 10
201.007
 20
324.232
 30
0.000000
  70
    32
  0
VERTEX
  8
AM_0
  5
1E53B
 10
200.995
 20
324.232
 30
0.000000
  70
    32
  0
VERTEX
  8
AM_0
  5
1E53C
 10
200.983
 20
324.232
 30
0.000000
  70
    32
  0
VERTEX
  8
AM_0
  5
1E53D
 10
200.971
 20
324.232
 30
0.000000
  70
    32
  0
VERTEX
  8
AM_0
  5
1E53E
 10
200.958
 20
324.231
 30
0.000000
  70
    32
  0
VERTEX
  8
AM_0
  5
1E53F
 10
200.946
 20
324.230
 30
0.000000
  70
    32
  0
VERTEX
  8
AM_0
  5
1E540
 10
200.934
 20
324.230
 30
0.000000
  70
    32
  0
VERTEX
  8
AM_0
  5
1E541
 10
200.922
 20
324.229
 30
0.000000
  70
    32
  0
VERTEX
  8
AM_0
  5
1E542
 10
200.909
 20
324.228
 30
0.000000
  70
    32
  0
VERTEX
  8
AM_0
  5
1E543
 10
200.897
 20
324.226
 30
0.000000
  70
    32
  0
VERTEX
  8
AM_0
  5
1E544
 10
200.885
 20
324.225
 30
0.000000
  70
    32
  0
VERTEX
  8
AM_0
  5
1E545
 10
200.873
 20
324.223
 30
0.000000
  70
    32
  0
VERTEX
  8
AM_0
  5
1E546
 10
200.861
 20
324.222
 30
0.000000
  70
    32
  0
VERTEX
  8
AM_0
  5
1E547
 10
200.849
 20
324.220
 30
0.000000
  70
    32
  0
VERTEX
  8
AM_0
  5
1E548
 10
200.836
 20
324.218
 30
0.000000
  70
    32
  0
VERTEX
  8
AM_0
  5
1E549
 10
200.824
 20
324.215
 30
0.000000
  70
    32
  0
VERTEX
  8
AM_0
  5
1E54A
 10
200.812
 20
324.213
 30
0.000000
  70
    32
  0
VERTEX
  8
AM_0
  5
1E54B
 10
200.800
 20
324.211
 30
0.000000
  70
    32
  0
VERTEX
  8
AM_0
  5
1E54C
 10
200.788
 20
324.208
 30
0.000000
  70
    32
  0
VERTEX
  8
AM_0
  5
1E54D
 10
200.776
 20
324.205
 30
0.000000
  70
    32
  0
VERTEX
  8
AM_0
  5
1E54E
 10
200.764
 20
324.202
 30
0.000000
  70
    32
  0
VERTEX
  8
AM_0
  5
1E54F
 10
200.753
 20
324.199
 30
0.000000
  70
    32
  0
VERTEX
  8
AM_0
  5
1E550
 10
200.741
 20
324.196
 30
0.000000
  70
    32
  0
VERTEX
  8
AM_0
  5
1E551
 10
200.729
 20
324.193
 30
0.000000
  70
    32
  0
VERTEX
  8
AM_0
  5
1E552
 10
200.717
 20
324.189
 30
0.000000
  70
    32
  0
VERTEX
  8
AM_0
  5
1E553
 10
200.705
 20
324.186
 30
0.000000
  70
    32
  0
VERTEX
  8
AM_0
  5
1E554
 10
200.694
 20
324.182
 30
0.000000
  70
    32
  0
VERTEX
  8
AM_0
  5
1E555
 10
200.682
 20
324.178
 30
0.000000
  70
    32
  0
VERTEX
  8
AM_0
  5
1E556
 10
200.671
 20
324.174
 30
0.000000
  70
    32
  0
VERTEX
  8
AM_0
  5
1E557
 10
200.659
 20
324.170
 30
0.000000
  70
    32
  0
VERTEX
  8
AM_0
  5
1E558
 10
200.647
 20
324.165
 30
0.000000
  70
    32
  0
VERTEX
  8
AM_0
  5
1E559
 10
200.636
 20
324.161
 30
0.000000
  70
    32
  0
VERTEX
  8
AM_0
  5
1E55A
 10
200.625
 20
324.156
 30
0.000000
  70
    32
  0
VERTEX
  8
AM_0
  5
1E55B
 10
200.613
 20
324.151
 30
0.000000
  70
    32
  0
VERTEX
  8
AM_0
  5
1E55C
 10
200.602
 20
324.147
 30
0.000000
  70
    32
  0
VERTEX
  8
AM_0
  5
1E55D
 10
200.591
 20
324.142
 30
0.000000
  70
    32
  0
VERTEX
  8
AM_0
  5
1E55E
 10
200.580
 20
324.136
 30
0.000000
  70
    32
  0
VERTEX
  8
AM_0
  5
1E55F
 10
200.569
 20
324.131
 30
0.000000
  70
    32
  0
VERTEX
  8
AM_0
  5
1E560
 10
200.558
 20
324.126
 30
0.000000
  70
    32
  0
VERTEX
  8
AM_0
  5
1E561
 10
200.547
 20
324.120
 30
0.000000
  70
    32
  0
VERTEX
  8
AM_0
  5
1E562
 10
200.536
 20
324.114
 30
0.000000
  70
    32
  0
VERTEX
  8
AM_0
  5
1E563
 10
200.525
 20
324.108
 30
0.000000
  70
    32
  0
VERTEX
  8
AM_0
  5
1E564
 10
200.514
 20
324.102
 30
0.000000
  70
    32
  0
VERTEX
  8
AM_0
  5
1E565
 10
200.504
 20
324.096
 30
0.000000
  70
    32
  0
VERTEX
  8
AM_0
  5
1E566
 10
200.493
 20
324.090
 30
0.000000
  70
    32
  0
VERTEX
  8
AM_0
  5
1E567
 10
200.483
 20
324.084
 30
0.000000
  70
    32
  0
VERTEX
  8
AM_0
  5
1E568
 10
200.472
 20
324.077
 30
0.000000
  70
    32
  0
VERTEX
  8
AM_0
  5
1E569
 10
200.462
 20
324.071
 30
0.000000
  70
    32
  0
VERTEX
  8
AM_0
  5
1E56A
 10
200.452
 20
324.064
 30
0.000000
  70
    32
  0
VERTEX
  8
AM_0
  5
1E56B
 10
200.442
 20
324.057
 30
0.000000
  70
    32
  0
VERTEX
  8
AM_0
  5
1E56C
 10
200.432
 20
324.050
 30
0.000000
  70
    32
  0
VERTEX
  8
AM_0
  5
1E56D
 10
200.422
 20
324.043
 30
0.000000
  70
    32
  0
VERTEX
  8
AM_0
  5
1E56E
 10
200.412
 20
324.036
 30
0.000000
  70
    32
  0
VERTEX
  8
AM_0
  5
1E56F
 10
200.402
 20
324.028
 30
0.000000
  70
    32
  0
VERTEX
  8
AM_0
  5
1E570
 10
200.392
 20
324.021
 30
0.000000
  70
    32
  0
VERTEX
  8
AM_0
  5
1E571
 10
200.383
 20
324.013
 30
0.000000
  70
    32
  0
VERTEX
  8
AM_0
  5
1E572
 10
200.373
 20
324.005
 30
0.000000
  70
    32
  0
VERTEX
  8
AM_0
  5
1E573
 10
200.364
 20
323.998
 30
0.000000
  70
    32
  0
VERTEX
  8
AM_0
  5
1E574
 10
200.354
 20
323.990
 30
0.000000
  70
    32
  0
VERTEX
  8
AM_0
  5
1E575
 10
200.345
 20
323.981
 30
0.000000
  70
    32
  0
VERTEX
  8
AM_0
  5
1E576
 10
200.336
 20
323.973
 30
0.000000
  70
    32
  0
VERTEX
  8
AM_0
  5
1E577
 10
200.327
 20
323.965
 30
0.000000
  70
    32
  0
VERTEX
  8
AM_0
  5
1E578
 10
200.318
 20
323.957
 30
0.000000
  70
    32
  0
VERTEX
  8
AM_0
  5
1E579
 10
200.309
 20
323.948
 30
0.000000
  70
    32
  0
VERTEX
  8
AM_0
  5
1E57A
 10
200.300
 20
323.939
 30
0.000000
  70
    32
  0
VERTEX
  8
AM_0
  5
1E57B
 10
200.292
 20
323.931
 30
0.000000
  70
    32
  0
VERTEX
  8
AM_0
  5
1E57C
 10
200.283
 20
323.922
 30
0.000000
  70
    32
  0
VERTEX
  8
AM_0
  5
1E57D
 10
200.275
 20
323.913
 30
0.000000
  70
    32
  0
VERTEX
  8
AM_0
  5
1E57E
 10
200.266
 20
323.904
 30
0.000000
  70
    32
  0
VERTEX
  8
AM_0
  5
1E57F
 10
200.258
 20
323.895
 30
0.000000
  70
    32
  0
VERTEX
  8
AM_0
  5
1E580
 10
200.250
 20
323.886
 30
0.000000
  70
    32
  0
VERTEX
  8
AM_0
  5
1E581
 10
200.242
 20
323.876
 30
0.000000
  70
    32
  0
VERTEX
  8
AM_0
  5
1E582
 10
200.234
 20
323.867
 30
0.000000
  70
    32
  0
VERTEX
  8
AM_0
  5
1E583
 10
200.227
 20
323.857
 30
0.000000
  70
    32
  0
VERTEX
  8
AM_0
  5
1E584
 10
200.219
 20
323.848
 30
0.000000
  70
    32
  0
VERTEX
  8
AM_0
  5
1E585
 10
200.212
 20
323.838
 30
0.000000
  70
    32
  0
VERTEX
  8
AM_0
  5
1E586
 10
200.204
 20
323.828
 30
0.000000
  70
    32
  0
VERTEX
  8
AM_0
  5
1E587
 10
200.197
 20
323.818
 30
0.000000
  70
    32
  0
VERTEX
  8
AM_0
  5
1E588
 10
200.190
 20
323.808
 30
0.000000
  70
    32
  0
VERTEX
  8
AM_0
  5
1E589
 10
200.183
 20
323.798
 30
0.000000
  70
    32
  0
VERTEX
  8
AM_0
  5
1E58A
 10
200.176
 20
323.788
 30
0.000000
  70
    32
  0
VERTEX
  8
AM_0
  5
1E58B
 10
200.169
 20
323.778
 30
0.000000
  70
    32
  0
VERTEX
  8
AM_0
  5
1E58C
 10
200.163
 20
323.767
 30
0.000000
  70
    32
  0
VERTEX
  8
AM_0
  5
1E58D
 10
200.156
 20
323.757
 30
0.000000
  70
    32
  0
VERTEX
  8
AM_0
  5
1E58E
 10
200.150
 20
323.746
 30
0.000000
  70
    32
  0
VERTEX
  8
AM_0
  5
1E58F
 10
200.143
 20
323.736
 30
0.000000
  70
    32
  0
VERTEX
  8
AM_0
  5
1E590
 10
200.137
 20
323.725
 30
0.000000
  70
    32
  0
VERTEX
  8
AM_0
  5
1E591
 10
200.131
 20
323.715
 30
0.000000
  70
    32
  0
VERTEX
  8
AM_0
  5
1E592
 10
200.125
 20
323.704
 30
0.000000
  70
    32
  0
VERTEX
  8
AM_0
  5
1E593
 10
200.120
 20
323.693
 30
0.000000
  70
    32
  0
VERTEX
  8
AM_0
  5
1E594
 10
200.114
 20
323.682
 30
0.000000
  70
    32
  0
VERTEX
  8
AM_0
  5
1E595
 10
200.109
 20
323.671
 30
0.000000
  70
    32
  0
VERTEX
  8
AM_0
  5
1E596
 10
200.103
 20
323.660
 30
0.000000
  70
    32
  0
VERTEX
  8
AM_0
  5
1E597
 10
200.098
 20
323.649
 30
0.000000
  70
    32
  0
VERTEX
  8
AM_0
  5
1E598
 10
200.093
 20
323.638
 30
0.000000
  70
    32
  0
VERTEX
  8
AM_0
  5
1E599
 10
200.088
 20
323.626
 30
0.000000
  70
    32
  0
VERTEX
  8
AM_0
  5
1E59A
 10
200.084
 20
323.615
 30
0.000000
  70
    32
  0
VERTEX
  8
AM_0
  5
1E59B
 10
200.079
 20
323.604
 30
0.000000
  70
    32
  0
VERTEX
  8
AM_0
  5
1E59C
 10
200.074
 20
323.592
 30
0.000000
  70
    32
  0
VERTEX
  8
AM_0
  5
1E59D
 10
200.070
 20
323.581
 30
0.000000
  70
    32
  0
VERTEX
  8
AM_0
  5
1E59E
 10
200.066
 20
323.569
 30
0.000000
  70
    32
  0
VERTEX
  8
AM_0
  5
1E59F
 10
200.062
 20
323.558
 30
0.000000
  70
    32
  0
VERTEX
  8
AM_0
  5
1E5A0
 10
200.058
 20
323.546
 30
0.000000
  70
    32
  0
VERTEX
  8
AM_0
  5
1E5A1
 10
200.054
 20
323.534
 30
0.000000
  70
    32
  0
VERTEX
  8
AM_0
  5
1E5A2
 10
200.050
 20
323.523
 30
0.000000
  70
    32
  0
VERTEX
  8
AM_0
  5
1E5A3
 10
200.047
 20
323.511
 30
0.000000
  70
    32
  0
VERTEX
  8
AM_0
  5
1E5A4
 10
200.044
 20
323.499
 30
0.000000
  70
    32
  0
VERTEX
  8
AM_0
  5
1E5A5
 10
200.040
 20
323.487
 30
0.000000
  70
    32
  0
VERTEX
  8
AM_0
  5
1E5A6
 10
200.037
 20
323.475
 30
0.000000
  70
    32
  0
VERTEX
  8
AM_0
  5
1E5A7
 10
200.034
 20
323.463
 30
0.000000
  70
    32
  0
VERTEX
  8
AM_0
  5
1E5A8
 10
200.032
 20
323.451
 30
0.000000
  70
    32
  0
VERTEX
  8
AM_0
  5
1E5A9
 10
200.029
 20
323.439
 30
0.000000
  70
    32
  0
VERTEX
  8
AM_0
  5
1E5AA
 10
200.027
 20
323.427
 30
0.000000
  70
    32
  0
VERTEX
  8
AM_0
  5
1E5AB
 10
200.024
 20
323.415
 30
0.000000
  70
    32
  0
VERTEX
  8
AM_0
  5
1E5AC
 10
200.022
 20
323.403
 30
0.000000
  70
    32
  0
VERTEX
  8
AM_0
  5
1E5AD
 10
200.020
 20
323.391
 30
0.000000
  70
    32
  0
VERTEX
  8
AM_0
  5
1E5AE
 10
200.018
 20
323.379
 30
0.000000
  70
    32
  0
VERTEX
  8
AM_0
  5
1E5AF
 10
200.016
 20
323.367
 30
0.000000
  70
    32
  0
VERTEX
  8
AM_0
  5
1E5B0
 10
200.015
 20
323.355
 30
0.000000
  70
    32
  0
VERTEX
  8
AM_0
  5
1E5B1
 10
200.013
 20
323.343
 30
0.000000
  70
    32
  0
VERTEX
  8
AM_0
  5
1E5B2
 10
200.012
 20
323.330
 30
0.000000
  70
    32
  0
VERTEX
  8
AM_0
  5
1E5B3
 10
200.011
 20
323.318
 30
0.000000
  70
    32
  0
VERTEX
  8
AM_0
  5
1E5B4
 10
200.010
 20
323.306
 30
0.000000
  70
    32
  0
VERTEX
  8
AM_0
  5
1E5B5
 10
200.009
 20
323.294
 30
0.000000
  70
    32
  0
VERTEX
  8
AM_0
  5
1E5B6
 10
200.009
 20
323.281
 30
0.000000
  70
    32
  0
VERTEX
  8
AM_0
  5
1E5B7
 10
200.008
 20
323.269
 30
0.000000
  70
    32
  0
VERTEX
  8
AM_0
  5
1E5B8
 10
200.008
 20
323.257
 30
0.000000
  70
    32
  0
VERTEX
  8
AM_0
  5
1E5B9
 10
200.007
 20
323.245
 30
0.000000
  70
    32
  0
VERTEX
  8
AM_0
  5
1E5BA
 10
200.007
 20
323.232
 30
0.000000
  70
    32
  0
SEQEND
  8
AM_0
  5
1E5BB
  0
LINE
  5
1C198
  8
AM_0
 10
213.0073909402077
 20
303.23192118087093
 30
0.0
 11
213.0073909402077
 21
329.23244195574682
 31
0.0
  0
LINE
  5
1C199
  8
AM_0
 10
210.0073908499007
 20
306.8319993917994
 30
0.0
 11
210.0073908499007
 21
325.63236374481841
 31
0.0
  0
LINE
  5
1C19A
  8
AM_0
 10
210.0073908499007
 20
306.8319993917994
 30
0.0
 11
213.0073909402077
 21
306.8319993917994
 31
0.0
  0
LINE
  5
1C19B
  8
AM_0
 10
210.0073908499007
 20
316.92305233963077
 30
0.0
 11
213.0073909402077
 21
318.65514269642688
 31
0.0
  0
LINE
  5
1C19C
  8
AM_0
 10
210.0073908499007
 20
325.63236374481841
 30
0.0
 11
213.0073909402077
 21
325.63236374481841
 31
0.0
  0
LINE
  5
1C19D
  8
AM_0
 10
210.0073908499007
 20
314.6136188760288
 30
0.0
 11
213.0073909402077
 21
316.34567871463582
 31
0.0
  0
LINE
  5
1C19E
  8
AM_0
 10
198.00739048867271
 20
431.23448499564461
 30
0.0
 11
213.0073909402077
 21
431.23448499564461
 31
0.0
  0
LINE
  5
1C19F
  8
AM_0
 10
201.00739057897971
 20
426.23438484662989
 30
0.0
 11
210.0073908499007
 21
426.23438484662989
 31
0.0
  0
LINE
  5
1C1A0
  8
AM_0
 10
198.00739048867271
 20
405.2339642207686
 30
0.0
 11
213.0073909402077
 21
405.2339642207686
 31
0.0
  0
LINE
  5
1C1A1
  8
AM_0
 10
201.00739057897971
 20
410.23406436978303
 30
0.0
 11
210.0073908499007
 21
410.23406436978303
 31
0.0
  0
LINE
  5
1C1AA
  8
AM_0
 10
200.0073905488774
 20
425.23436481682688
 30
0.0
 11
200.0073905488774
 21
411.2340843995861
 31
0.0
  0
POLYLINE
  5
1C1AC
  8
AM_0
 10
200.00739054887748
 20
411.2340843121616
 30
0.0
 66
     1
 70
     8
  0
VERTEX
  8
AM_0
  5
1E5BC
 10
200.007
 20
411.234
 30
0.000000
  70
    32
  0
VERTEX
  8
AM_0
  5
1E5BD
 10
200.007
 20
411.222
 30
0.000000
  70
    32
  0
VERTEX
  8
AM_0
  5
1E5BE
 10
200.008
 20
411.210
 30
0.000000
  70
    32
  0
VERTEX
  8
AM_0
  5
1E5BF
 10
200.008
 20
411.197
 30
0.000000
  70
    32
  0
VERTEX
  8
AM_0
  5
1E5C0
 10
200.009
 20
411.185
 30
0.000000
  70
    32
  0
VERTEX
  8
AM_0
  5
1E5C1
 10
200.009
 20
411.173
 30
0.000000
  70
    32
  0
VERTEX
  8
AM_0
  5
1E5C2
 10
200.010
 20
411.161
 30
0.000000
  70
    32
  0
VERTEX
  8
AM_0
  5
1E5C3
 10
200.011
 20
411.148
 30
0.000000
  70
    32
  0
VERTEX
  8
AM_0
  5
1E5C4
 10
200.012
 20
411.136
 30
0.000000
  70
    32
  0
VERTEX
  8
AM_0
  5
1E5C5
 10
200.013
 20
411.124
 30
0.000000
  70
    32
  0
VERTEX
  8
AM_0
  5
1E5C6
 10
200.015
 20
411.112
 30
0.000000
  70
    32
  0
VERTEX
  8
AM_0
  5
1E5C7
 10
200.016
 20
411.100
 30
0.000000
  70
    32
  0
VERTEX
  8
AM_0
  5
1E5C8
 10
200.018
 20
411.087
 30
0.000000
  70
    32
  0
VERTEX
  8
AM_0
  5
1E5C9
 10
200.020
 20
411.075
 30
0.000000
  70
    32
  0
VERTEX
  8
AM_0
  5
1E5CA
 10
200.022
 20
411.063
 30
0.000000
  70
    32
  0
VERTEX
  8
AM_0
  5
1E5CB
 10
200.024
 20
411.051
 30
0.000000
  70
    32
  0
VERTEX
  8
AM_0
  5
1E5CC
 10
200.027
 20
411.039
 30
0.000000
  70
    32
  0
VERTEX
  8
AM_0
  5
1E5CD
 10
200.029
 20
411.027
 30
0.000000
  70
    32
  0
VERTEX
  8
AM_0
  5
1E5CE
 10
200.032
 20
411.015
 30
0.000000
  70
    32
  0
VERTEX
  8
AM_0
  5
1E5CF
 10
200.034
 20
411.003
 30
0.000000
  70
    32
  0
VERTEX
  8
AM_0
  5
1E5D0
 10
200.037
 20
410.991
 30
0.000000
  70
    32
  0
VERTEX
  8
AM_0
  5
1E5D1
 10
200.040
 20
410.979
 30
0.000000
  70
    32
  0
VERTEX
  8
AM_0
  5
1E5D2
 10
200.044
 20
410.967
 30
0.000000
  70
    32
  0
VERTEX
  8
AM_0
  5
1E5D3
 10
200.047
 20
410.956
 30
0.000000
  70
    32
  0
VERTEX
  8
AM_0
  5
1E5D4
 10
200.050
 20
410.944
 30
0.000000
  70
    32
  0
VERTEX
  8
AM_0
  5
1E5D5
 10
200.054
 20
410.932
 30
0.000000
  70
    32
  0
VERTEX
  8
AM_0
  5
1E5D6
 10
200.058
 20
410.920
 30
0.000000
  70
    32
  0
VERTEX
  8
AM_0
  5
1E5D7
 10
200.062
 20
410.909
 30
0.000000
  70
    32
  0
VERTEX
  8
AM_0
  5
1E5D8
 10
200.066
 20
410.897
 30
0.000000
  70
    32
  0
VERTEX
  8
AM_0
  5
1E5D9
 10
200.070
 20
410.886
 30
0.000000
  70
    32
  0
VERTEX
  8
AM_0
  5
1E5DA
 10
200.074
 20
410.874
 30
0.000000
  70
    32
  0
VERTEX
  8
AM_0
  5
1E5DB
 10
200.079
 20
410.863
 30
0.000000
  70
    32
  0
VERTEX
  8
AM_0
  5
1E5DC
 10
200.084
 20
410.851
 30
0.000000
  70
    32
  0
VERTEX
  8
AM_0
  5
1E5DD
 10
200.088
 20
410.840
 30
0.000000
  70
    32
  0
VERTEX
  8
AM_0
  5
1E5DE
 10
200.093
 20
410.829
 30
0.000000
  70
    32
  0
VERTEX
  8
AM_0
  5
1E5DF
 10
200.098
 20
410.818
 30
0.000000
  70
    32
  0
VERTEX
  8
AM_0
  5
1E5E0
 10
200.103
 20
410.807
 30
0.000000
  70
    32
  0
VERTEX
  8
AM_0
  5
1E5E1
 10
200.109
 20
410.795
 30
0.000000
  70
    32
  0
VERTEX
  8
AM_0
  5
1E5E2
 10
200.114
 20
410.784
 30
0.000000
  70
    32
  0
VERTEX
  8
AM_0
  5
1E5E3
 10
200.120
 20
410.774
 30
0.000000
  70
    32
  0
VERTEX
  8
AM_0
  5
1E5E4
 10
200.125
 20
410.763
 30
0.000000
  70
    32
  0
VERTEX
  8
AM_0
  5
1E5E5
 10
200.131
 20
410.752
 30
0.000000
  70
    32
  0
VERTEX
  8
AM_0
  5
1E5E6
 10
200.137
 20
410.741
 30
0.000000
  70
    32
  0
VERTEX
  8
AM_0
  5
1E5E7
 10
200.143
 20
410.731
 30
0.000000
  70
    32
  0
VERTEX
  8
AM_0
  5
1E5E8
 10
200.150
 20
410.720
 30
0.000000
  70
    32
  0
VERTEX
  8
AM_0
  5
1E5E9
 10
200.156
 20
410.709
 30
0.000000
  70
    32
  0
VERTEX
  8
AM_0
  5
1E5EA
 10
200.163
 20
410.699
 30
0.000000
  70
    32
  0
VERTEX
  8
AM_0
  5
1E5EB
 10
200.169
 20
410.689
 30
0.000000
  70
    32
  0
VERTEX
  8
AM_0
  5
1E5EC
 10
200.176
 20
410.679
 30
0.000000
  70
    32
  0
VERTEX
  8
AM_0
  5
1E5ED
 10
200.183
 20
410.668
 30
0.000000
  70
    32
  0
VERTEX
  8
AM_0
  5
1E5EE
 10
200.190
 20
410.658
 30
0.000000
  70
    32
  0
VERTEX
  8
AM_0
  5
1E5EF
 10
200.197
 20
410.648
 30
0.000000
  70
    32
  0
VERTEX
  8
AM_0
  5
1E5F0
 10
200.204
 20
410.638
 30
0.000000
  70
    32
  0
VERTEX
  8
AM_0
  5
1E5F1
 10
200.212
 20
410.629
 30
0.000000
  70
    32
  0
VERTEX
  8
AM_0
  5
1E5F2
 10
200.219
 20
410.619
 30
0.000000
  70
    32
  0
VERTEX
  8
AM_0
  5
1E5F3
 10
200.227
 20
410.609
 30
0.000000
  70
    32
  0
VERTEX
  8
AM_0
  5
1E5F4
 10
200.234
 20
410.600
 30
0.000000
  70
    32
  0
VERTEX
  8
AM_0
  5
1E5F5
 10
200.242
 20
410.590
 30
0.000000
  70
    32
  0
VERTEX
  8
AM_0
  5
1E5F6
 10
200.250
 20
410.581
 30
0.000000
  70
    32
  0
VERTEX
  8
AM_0
  5
1E5F7
 10
200.258
 20
410.572
 30
0.000000
  70
    32
  0
VERTEX
  8
AM_0
  5
1E5F8
 10
200.266
 20
410.563
 30
0.000000
  70
    32
  0
VERTEX
  8
AM_0
  5
1E5F9
 10
200.275
 20
410.553
 30
0.000000
  70
    32
  0
VERTEX
  8
AM_0
  5
1E5FA
 10
200.283
 20
410.545
 30
0.000000
  70
    32
  0
VERTEX
  8
AM_0
  5
1E5FB
 10
200.292
 20
410.536
 30
0.000000
  70
    32
  0
VERTEX
  8
AM_0
  5
1E5FC
 10
200.300
 20
410.527
 30
0.000000
  70
    32
  0
VERTEX
  8
AM_0
  5
1E5FD
 10
200.309
 20
410.518
 30
0.000000
  70
    32
  0
VERTEX
  8
AM_0
  5
1E5FE
 10
200.318
 20
410.510
 30
0.000000
  70
    32
  0
VERTEX
  8
AM_0
  5
1E5FF
 10
200.327
 20
410.501
 30
0.000000
  70
    32
  0
VERTEX
  8
AM_0
  5
1E600
 10
200.336
 20
410.493
 30
0.000000
  70
    32
  0
VERTEX
  8
AM_0
  5
1E601
 10
200.345
 20
410.485
 30
0.000000
  70
    32
  0
VERTEX
  8
AM_0
  5
1E602
 10
200.354
 20
410.477
 30
0.000000
  70
    32
  0
VERTEX
  8
AM_0
  5
1E603
 10
200.364
 20
410.469
 30
0.000000
  70
    32
  0
VERTEX
  8
AM_0
  5
1E604
 10
200.373
 20
410.461
 30
0.000000
  70
    32
  0
VERTEX
  8
AM_0
  5
1E605
 10
200.383
 20
410.453
 30
0.000000
  70
    32
  0
VERTEX
  8
AM_0
  5
1E606
 10
200.392
 20
410.446
 30
0.000000
  70
    32
  0
VERTEX
  8
AM_0
  5
1E607
 10
200.402
 20
410.438
 30
0.000000
  70
    32
  0
VERTEX
  8
AM_0
  5
1E608
 10
200.412
 20
410.431
 30
0.000000
  70
    32
  0
VERTEX
  8
AM_0
  5
1E609
 10
200.422
 20
410.424
 30
0.000000
  70
    32
  0
VERTEX
  8
AM_0
  5
1E60A
 10
200.432
 20
410.416
 30
0.000000
  70
    32
  0
VERTEX
  8
AM_0
  5
1E60B
 10
200.442
 20
410.409
 30
0.000000
  70
    32
  0
VERTEX
  8
AM_0
  5
1E60C
 10
200.452
 20
410.403
 30
0.000000
  70
    32
  0
VERTEX
  8
AM_0
  5
1E60D
 10
200.462
 20
410.396
 30
0.000000
  70
    32
  0
VERTEX
  8
AM_0
  5
1E60E
 10
200.472
 20
410.389
 30
0.000000
  70
    32
  0
VERTEX
  8
AM_0
  5
1E60F
 10
200.483
 20
410.383
 30
0.000000
  70
    32
  0
VERTEX
  8
AM_0
  5
1E610
 10
200.493
 20
410.376
 30
0.000000
  70
    32
  0
VERTEX
  8
AM_0
  5
1E611
 10
200.504
 20
410.370
 30
0.000000
  70
    32
  0
VERTEX
  8
AM_0
  5
1E612
 10
200.514
 20
410.364
 30
0.000000
  70
    32
  0
VERTEX
  8
AM_0
  5
1E613
 10
200.525
 20
410.358
 30
0.000000
  70
    32
  0
VERTEX
  8
AM_0
  5
1E614
 10
200.536
 20
410.352
 30
0.000000
  70
    32
  0
VERTEX
  8
AM_0
  5
1E615
 10
200.547
 20
410.346
 30
0.000000
  70
    32
  0
VERTEX
  8
AM_0
  5
1E616
 10
200.558
 20
410.341
 30
0.000000
  70
    32
  0
VERTEX
  8
AM_0
  5
1E617
 10
200.569
 20
410.335
 30
0.000000
  70
    32
  0
VERTEX
  8
AM_0
  5
1E618
 10
200.580
 20
410.330
 30
0.000000
  70
    32
  0
VERTEX
  8
AM_0
  5
1E619
 10
200.591
 20
410.325
 30
0.000000
  70
    32
  0
VERTEX
  8
AM_0
  5
1E61A
 10
200.602
 20
410.320
 30
0.000000
  70
    32
  0
VERTEX
  8
AM_0
  5
1E61B
 10
200.613
 20
410.315
 30
0.000000
  70
    32
  0
VERTEX
  8
AM_0
  5
1E61C
 10
200.625
 20
410.310
 30
0.000000
  70
    32
  0
VERTEX
  8
AM_0
  5
1E61D
 10
200.636
 20
410.306
 30
0.000000
  70
    32
  0
VERTEX
  8
AM_0
  5
1E61E
 10
200.647
 20
410.301
 30
0.000000
  70
    32
  0
VERTEX
  8
AM_0
  5
1E61F
 10
200.659
 20
410.297
 30
0.000000
  70
    32
  0
VERTEX
  8
AM_0
  5
1E620
 10
200.671
 20
410.293
 30
0.000000
  70
    32
  0
VERTEX
  8
AM_0
  5
1E621
 10
200.682
 20
410.288
 30
0.000000
  70
    32
  0
VERTEX
  8
AM_0
  5
1E622
 10
200.694
 20
410.285
 30
0.000000
  70
    32
  0
VERTEX
  8
AM_0
  5
1E623
 10
200.705
 20
410.281
 30
0.000000
  70
    32
  0
VERTEX
  8
AM_0
  5
1E624
 10
200.717
 20
410.277
 30
0.000000
  70
    32
  0
VERTEX
  8
AM_0
  5
1E625
 10
200.729
 20
410.274
 30
0.000000
  70
    32
  0
VERTEX
  8
AM_0
  5
1E626
 10
200.741
 20
410.270
 30
0.000000
  70
    32
  0
VERTEX
  8
AM_0
  5
1E627
 10
200.753
 20
410.267
 30
0.000000
  70
    32
  0
VERTEX
  8
AM_0
  5
1E628
 10
200.764
 20
410.264
 30
0.000000
  70
    32
  0
VERTEX
  8
AM_0
  5
1E629
 10
200.776
 20
410.261
 30
0.000000
  70
    32
  0
VERTEX
  8
AM_0
  5
1E62A
 10
200.788
 20
410.258
 30
0.000000
  70
    32
  0
VERTEX
  8
AM_0
  5
1E62B
 10
200.800
 20
410.256
 30
0.000000
  70
    32
  0
VERTEX
  8
AM_0
  5
1E62C
 10
200.812
 20
410.253
 30
0.000000
  70
    32
  0
VERTEX
  8
AM_0
  5
1E62D
 10
200.824
 20
410.251
 30
0.000000
  70
    32
  0
VERTEX
  8
AM_0
  5
1E62E
 10
200.836
 20
410.249
 30
0.000000
  70
    32
  0
VERTEX
  8
AM_0
  5
1E62F
 10
200.849
 20
410.247
 30
0.000000
  70
    32
  0
VERTEX
  8
AM_0
  5
1E630
 10
200.861
 20
410.245
 30
0.000000
  70
    32
  0
VERTEX
  8
AM_0
  5
1E631
 10
200.873
 20
410.243
 30
0.000000
  70
    32
  0
VERTEX
  8
AM_0
  5
1E632
 10
200.885
 20
410.242
 30
0.000000
  70
    32
  0
VERTEX
  8
AM_0
  5
1E633
 10
200.897
 20
410.240
 30
0.000000
  70
    32
  0
VERTEX
  8
AM_0
  5
1E634
 10
200.909
 20
410.239
 30
0.000000
  70
    32
  0
VERTEX
  8
AM_0
  5
1E635
 10
200.922
 20
410.238
 30
0.000000
  70
    32
  0
VERTEX
  8
AM_0
  5
1E636
 10
200.934
 20
410.237
 30
0.000000
  70
    32
  0
VERTEX
  8
AM_0
  5
1E637
 10
200.946
 20
410.236
 30
0.000000
  70
    32
  0
VERTEX
  8
AM_0
  5
1E638
 10
200.958
 20
410.235
 30
0.000000
  70
    32
  0
VERTEX
  8
AM_0
  5
1E639
 10
200.971
 20
410.235
 30
0.000000
  70
    32
  0
VERTEX
  8
AM_0
  5
1E63A
 10
200.983
 20
410.234
 30
0.000000
  70
    32
  0
VERTEX
  8
AM_0
  5
1E63B
 10
200.995
 20
410.234
 30
0.000000
  70
    32
  0
VERTEX
  8
AM_0
  5
1E63C
 10
201.007
 20
410.234
 30
0.000000
  70
    32
  0
SEQEND
  8
AM_0
  5
1E63D
  0
LINE
  5
1C1AD
  8
AM_0
 10
198.00738667397539
 20
417.23420457840371
 30
0.0
 11
193.00738652346379
 21
417.23420457840371
 31
0.0
  0
POLYLINE
  5
1C1AE
  8
AM_0
 10
201.00739053526848
 20
426.23438484662972
 30
0.0
 66
     1
 70
     8
  0
VERTEX
  8
AM_0
  5
1E63E
 10
201.007
 20
426.234
 30
0.000000
  70
    32
  0
VERTEX
  8
AM_0
  5
1E63F
 10
200.995
 20
426.234
 30
0.000000
  70
    32
  0
VERTEX
  8
AM_0
  5
1E640
 10
200.983
 20
426.234
 30
0.000000
  70
    32
  0
VERTEX
  8
AM_0
  5
1E641
 10
200.971
 20
426.234
 30
0.000000
  70
    32
  0
VERTEX
  8
AM_0
  5
1E642
 10
200.958
 20
426.233
 30
0.000000
  70
    32
  0
VERTEX
  8
AM_0
  5
1E643
 10
200.946
 20
426.233
 30
0.000000
  70
    32
  0
VERTEX
  8
AM_0
  5
1E644
 10
200.934
 20
426.232
 30
0.000000
  70
    32
  0
VERTEX
  8
AM_0
  5
1E645
 10
200.922
 20
426.231
 30
0.000000
  70
    32
  0
VERTEX
  8
AM_0
  5
1E646
 10
200.909
 20
426.230
 30
0.000000
  70
    32
  0
VERTEX
  8
AM_0
  5
1E647
 10
200.897
 20
426.228
 30
0.000000
  70
    32
  0
VERTEX
  8
AM_0
  5
1E648
 10
200.885
 20
426.227
 30
0.000000
  70
    32
  0
VERTEX
  8
AM_0
  5
1E649
 10
200.873
 20
426.225
 30
0.000000
  70
    32
  0
VERTEX
  8
AM_0
  5
1E64A
 10
200.861
 20
426.224
 30
0.000000
  70
    32
  0
VERTEX
  8
AM_0
  5
1E64B
 10
200.849
 20
426.222
 30
0.000000
  70
    32
  0
VERTEX
  8
AM_0
  5
1E64C
 10
200.836
 20
426.220
 30
0.000000
  70
    32
  0
VERTEX
  8
AM_0
  5
1E64D
 10
200.824
 20
426.217
 30
0.000000
  70
    32
  0
VERTEX
  8
AM_0
  5
1E64E
 10
200.812
 20
426.215
 30
0.000000
  70
    32
  0
VERTEX
  8
AM_0
  5
1E64F
 10
200.800
 20
426.213
 30
0.000000
  70
    32
  0
VERTEX
  8
AM_0
  5
1E650
 10
200.788
 20
426.210
 30
0.000000
  70
    32
  0
VERTEX
  8
AM_0
  5
1E651
 10
200.776
 20
426.207
 30
0.000000
  70
    32
  0
VERTEX
  8
AM_0
  5
1E652
 10
200.764
 20
426.204
 30
0.000000
  70
    32
  0
VERTEX
  8
AM_0
  5
1E653
 10
200.753
 20
426.201
 30
0.000000
  70
    32
  0
VERTEX
  8
AM_0
  5
1E654
 10
200.741
 20
426.198
 30
0.000000
  70
    32
  0
VERTEX
  8
AM_0
  5
1E655
 10
200.729
 20
426.195
 30
0.000000
  70
    32
  0
VERTEX
  8
AM_0
  5
1E656
 10
200.717
 20
426.191
 30
0.000000
  70
    32
  0
VERTEX
  8
AM_0
  5
1E657
 10
200.705
 20
426.188
 30
0.000000
  70
    32
  0
VERTEX
  8
AM_0
  5
1E658
 10
200.694
 20
426.184
 30
0.000000
  70
    32
  0
VERTEX
  8
AM_0
  5
1E659
 10
200.682
 20
426.180
 30
0.000000
  70
    32
  0
VERTEX
  8
AM_0
  5
1E65A
 10
200.671
 20
426.176
 30
0.000000
  70
    32
  0
VERTEX
  8
AM_0
  5
1E65B
 10
200.659
 20
426.172
 30
0.000000
  70
    32
  0
VERTEX
  8
AM_0
  5
1E65C
 10
200.647
 20
426.167
 30
0.000000
  70
    32
  0
VERTEX
  8
AM_0
  5
1E65D
 10
200.636
 20
426.163
 30
0.000000
  70
    32
  0
VERTEX
  8
AM_0
  5
1E65E
 10
200.625
 20
426.158
 30
0.000000
  70
    32
  0
VERTEX
  8
AM_0
  5
1E65F
 10
200.613
 20
426.153
 30
0.000000
  70
    32
  0
VERTEX
  8
AM_0
  5
1E660
 10
200.602
 20
426.149
 30
0.000000
  70
    32
  0
VERTEX
  8
AM_0
  5
1E661
 10
200.591
 20
426.144
 30
0.000000
  70
    32
  0
VERTEX
  8
AM_0
  5
1E662
 10
200.580
 20
426.138
 30
0.000000
  70
    32
  0
VERTEX
  8
AM_0
  5
1E663
 10
200.569
 20
426.133
 30
0.000000
  70
    32
  0
VERTEX
  8
AM_0
  5
1E664
 10
200.558
 20
426.128
 30
0.000000
  70
    32
  0
VERTEX
  8
AM_0
  5
1E665
 10
200.547
 20
426.122
 30
0.000000
  70
    32
  0
VERTEX
  8
AM_0
  5
1E666
 10
200.536
 20
426.116
 30
0.000000
  70
    32
  0
VERTEX
  8
AM_0
  5
1E667
 10
200.525
 20
426.110
 30
0.000000
  70
    32
  0
VERTEX
  8
AM_0
  5
1E668
 10
200.514
 20
426.104
 30
0.000000
  70
    32
  0
VERTEX
  8
AM_0
  5
1E669
 10
200.504
 20
426.098
 30
0.000000
  70
    32
  0
VERTEX
  8
AM_0
  5
1E66A
 10
200.493
 20
426.092
 30
0.000000
  70
    32
  0
VERTEX
  8
AM_0
  5
1E66B
 10
200.483
 20
426.086
 30
0.000000
  70
    32
  0
VERTEX
  8
AM_0
  5
1E66C
 10
200.472
 20
426.079
 30
0.000000
  70
    32
  0
VERTEX
  8
AM_0
  5
1E66D
 10
200.462
 20
426.073
 30
0.000000
  70
    32
  0
VERTEX
  8
AM_0
  5
1E66E
 10
200.452
 20
426.066
 30
0.000000
  70
    32
  0
VERTEX
  8
AM_0
  5
1E66F
 10
200.442
 20
426.059
 30
0.000000
  70
    32
  0
VERTEX
  8
AM_0
  5
1E670
 10
200.432
 20
426.052
 30
0.000000
  70
    32
  0
VERTEX
  8
AM_0
  5
1E671
 10
200.422
 20
426.045
 30
0.000000
  70
    32
  0
VERTEX
  8
AM_0
  5
1E672
 10
200.412
 20
426.038
 30
0.000000
  70
    32
  0
VERTEX
  8
AM_0
  5
1E673
 10
200.402
 20
426.030
 30
0.000000
  70
    32
  0
VERTEX
  8
AM_0
  5
1E674
 10
200.392
 20
426.023
 30
0.000000
  70
    32
  0
VERTEX
  8
AM_0
  5
1E675
 10
200.383
 20
426.015
 30
0.000000
  70
    32
  0
VERTEX
  8
AM_0
  5
1E676
 10
200.373
 20
426.007
 30
0.000000
  70
    32
  0
VERTEX
  8
AM_0
  5
1E677
 10
200.364
 20
426.000
 30
0.000000
  70
    32
  0
VERTEX
  8
AM_0
  5
1E678
 10
200.354
 20
425.992
 30
0.000000
  70
    32
  0
VERTEX
  8
AM_0
  5
1E679
 10
200.345
 20
425.984
 30
0.000000
  70
    32
  0
VERTEX
  8
AM_0
  5
1E67A
 10
200.336
 20
425.975
 30
0.000000
  70
    32
  0
VERTEX
  8
AM_0
  5
1E67B
 10
200.327
 20
425.967
 30
0.000000
  70
    32
  0
VERTEX
  8
AM_0
  5
1E67C
 10
200.318
 20
425.959
 30
0.000000
  70
    32
  0
VERTEX
  8
AM_0
  5
1E67D
 10
200.309
 20
425.950
 30
0.000000
  70
    32
  0
VERTEX
  8
AM_0
  5
1E67E
 10
200.300
 20
425.941
 30
0.000000
  70
    32
  0
VERTEX
  8
AM_0
  5
1E67F
 10
200.292
 20
425.933
 30
0.000000
  70
    32
  0
VERTEX
  8
AM_0
  5
1E680
 10
200.283
 20
425.924
 30
0.000000
  70
    32
  0
VERTEX
  8
AM_0
  5
1E681
 10
200.275
 20
425.915
 30
0.000000
  70
    32
  0
VERTEX
  8
AM_0
  5
1E682
 10
200.266
 20
425.906
 30
0.000000
  70
    32
  0
VERTEX
  8
AM_0
  5
1E683
 10
200.258
 20
425.897
 30
0.000000
  70
    32
  0
VERTEX
  8
AM_0
  5
1E684
 10
200.250
 20
425.888
 30
0.000000
  70
    32
  0
VERTEX
  8
AM_0
  5
1E685
 10
200.242
 20
425.878
 30
0.000000
  70
    32
  0
VERTEX
  8
AM_0
  5
1E686
 10
200.234
 20
425.869
 30
0.000000
  70
    32
  0
VERTEX
  8
AM_0
  5
1E687
 10
200.227
 20
425.859
 30
0.000000
  70
    32
  0
VERTEX
  8
AM_0
  5
1E688
 10
200.219
 20
425.850
 30
0.000000
  70
    32
  0
VERTEX
  8
AM_0
  5
1E689
 10
200.212
 20
425.840
 30
0.000000
  70
    32
  0
VERTEX
  8
AM_0
  5
1E68A
 10
200.204
 20
425.830
 30
0.000000
  70
    32
  0
VERTEX
  8
AM_0
  5
1E68B
 10
200.197
 20
425.820
 30
0.000000
  70
    32
  0
VERTEX
  8
AM_0
  5
1E68C
 10
200.190
 20
425.810
 30
0.000000
  70
    32
  0
VERTEX
  8
AM_0
  5
1E68D
 10
200.183
 20
425.800
 30
0.000000
  70
    32
  0
VERTEX
  8
AM_0
  5
1E68E
 10
200.176
 20
425.790
 30
0.000000
  70
    32
  0
VERTEX
  8
AM_0
  5
1E68F
 10
200.169
 20
425.780
 30
0.000000
  70
    32
  0
VERTEX
  8
AM_0
  5
1E690
 10
200.163
 20
425.769
 30
0.000000
  70
    32
  0
VERTEX
  8
AM_0
  5
1E691
 10
200.156
 20
425.759
 30
0.000000
  70
    32
  0
VERTEX
  8
AM_0
  5
1E692
 10
200.150
 20
425.748
 30
0.000000
  70
    32
  0
VERTEX
  8
AM_0
  5
1E693
 10
200.143
 20
425.738
 30
0.000000
  70
    32
  0
VERTEX
  8
AM_0
  5
1E694
 10
200.137
 20
425.727
 30
0.000000
  70
    32
  0
VERTEX
  8
AM_0
  5
1E695
 10
200.131
 20
425.717
 30
0.000000
  70
    32
  0
VERTEX
  8
AM_0
  5
1E696
 10
200.125
 20
425.706
 30
0.000000
  70
    32
  0
VERTEX
  8
AM_0
  5
1E697
 10
200.120
 20
425.695
 30
0.000000
  70
    32
  0
VERTEX
  8
AM_0
  5
1E698
 10
200.114
 20
425.684
 30
0.000000
  70
    32
  0
VERTEX
  8
AM_0
  5
1E699
 10
200.109
 20
425.673
 30
0.000000
  70
    32
  0
VERTEX
  8
AM_0
  5
1E69A
 10
200.103
 20
425.662
 30
0.000000
  70
    32
  0
VERTEX
  8
AM_0
  5
1E69B
 10
200.098
 20
425.651
 30
0.000000
  70
    32
  0
VERTEX
  8
AM_0
  5
1E69C
 10
200.093
 20
425.640
 30
0.000000
  70
    32
  0
VERTEX
  8
AM_0
  5
1E69D
 10
200.088
 20
425.628
 30
0.000000
  70
    32
  0
VERTEX
  8
AM_0
  5
1E69E
 10
200.084
 20
425.617
 30
0.000000
  70
    32
  0
VERTEX
  8
AM_0
  5
1E69F
 10
200.079
 20
425.606
 30
0.000000
  70
    32
  0
VERTEX
  8
AM_0
  5
1E6A0
 10
200.074
 20
425.594
 30
0.000000
  70
    32
  0
VERTEX
  8
AM_0
  5
1E6A1
 10
200.070
 20
425.583
 30
0.000000
  70
    32
  0
VERTEX
  8
AM_0
  5
1E6A2
 10
200.066
 20
425.571
 30
0.000000
  70
    32
  0
VERTEX
  8
AM_0
  5
1E6A3
 10
200.062
 20
425.560
 30
0.000000
  70
    32
  0
VERTEX
  8
AM_0
  5
1E6A4
 10
200.058
 20
425.548
 30
0.000000
  70
    32
  0
VERTEX
  8
AM_0
  5
1E6A5
 10
200.054
 20
425.536
 30
0.000000
  70
    32
  0
VERTEX
  8
AM_0
  5
1E6A6
 10
200.050
 20
425.525
 30
0.000000
  70
    32
  0
VERTEX
  8
AM_0
  5
1E6A7
 10
200.047
 20
425.513
 30
0.000000
  70
    32
  0
VERTEX
  8
AM_0
  5
1E6A8
 10
200.044
 20
425.501
 30
0.000000
  70
    32
  0
VERTEX
  8
AM_0
  5
1E6A9
 10
200.040
 20
425.489
 30
0.000000
  70
    32
  0
VERTEX
  8
AM_0
  5
1E6AA
 10
200.037
 20
425.477
 30
0.000000
  70
    32
  0
VERTEX
  8
AM_0
  5
1E6AB
 10
200.034
 20
425.465
 30
0.000000
  70
    32
  0
VERTEX
  8
AM_0
  5
1E6AC
 10
200.032
 20
425.453
 30
0.000000
  70
    32
  0
VERTEX
  8
AM_0
  5
1E6AD
 10
200.029
 20
425.441
 30
0.000000
  70
    32
  0
VERTEX
  8
AM_0
  5
1E6AE
 10
200.027
 20
425.429
 30
0.000000
  70
    32
  0
VERTEX
  8
AM_0
  5
1E6AF
 10
200.024
 20
425.417
 30
0.000000
  70
    32
  0
VERTEX
  8
AM_0
  5
1E6B0
 10
200.022
 20
425.405
 30
0.000000
  70
    32
  0
VERTEX
  8
AM_0
  5
1E6B1
 10
200.020
 20
425.393
 30
0.000000
  70
    32
  0
VERTEX
  8
AM_0
  5
1E6B2
 10
200.018
 20
425.381
 30
0.000000
  70
    32
  0
VERTEX
  8
AM_0
  5
1E6B3
 10
200.016
 20
425.369
 30
0.000000
  70
    32
  0
VERTEX
  8
AM_0
  5
1E6B4
 10
200.015
 20
425.357
 30
0.000000
  70
    32
  0
VERTEX
  8
AM_0
  5
1E6B5
 10
200.013
 20
425.345
 30
0.000000
  70
    32
  0
VERTEX
  8
AM_0
  5
1E6B6
 10
200.012
 20
425.332
 30
0.000000
  70
    32
  0
VERTEX
  8
AM_0
  5
1E6B7
 10
200.011
 20
425.320
 30
0.000000
  70
    32
  0
VERTEX
  8
AM_0
  5
1E6B8
 10
200.010
 20
425.308
 30
0.000000
  70
    32
  0
VERTEX
  8
AM_0
  5
1E6B9
 10
200.009
 20
425.296
 30
0.000000
  70
    32
  0
VERTEX
  8
AM_0
  5
1E6BA
 10
200.009
 20
425.283
 30
0.000000
  70
    32
  0
VERTEX
  8
AM_0
  5
1E6BB
 10
200.008
 20
425.271
 30
0.000000
  70
    32
  0
VERTEX
  8
AM_0
  5
1E6BC
 10
200.008
 20
425.259
 30
0.000000
  70
    32
  0
VERTEX
  8
AM_0
  5
1E6BD
 10
200.007
 20
425.247
 30
0.000000
  70
    32
  0
VERTEX
  8
AM_0
  5
1E6BE
 10
200.007
 20
425.234
 30
0.000000
  70
    32
  0
SEQEND
  8
AM_0
  5
1E6BF
  0
LINE
  5
1C1AF
  8
AM_0
 10
210.0073908499007
 20
427.63440678471608
 30
0.0
 11
210.0073908499007
 21
408.83404243169718
 31
0.0
  0
LINE
  5
1C1B0
  8
AM_0
 10
213.0073909402077
 20
431.23448499564461
 30
0.0
 11
213.0073909402077
 21
405.2339642207686
 31
0.0
  0
LINE
  5
1C1B1
  8
AM_0
 10
210.0073908499007
 20
408.83404243169718
 30
0.0
 11
213.0073909402077
 21
408.83404243169718
 31
0.0
  0
LINE
  5
1C1B2
  8
AM_0
 10
210.0073908499007
 20
427.63440678471608
 30
0.0
 11
213.0073909402077
 21
427.63440678471608
 31
0.0
  0
LINE
  5
1C1B3
  8
AM_0
 10
210.0073908499007
 20
416.61566191592652
 30
0.0
 11
213.0073909402077
 21
418.3477522727228
 31
0.0
  0
LINE
  5
1C1B4
  8
AM_0
 10
210.0073908499007
 20
418.92509537952827
 30
0.0
 11
213.0073909402077
 21
420.65718573632461
 31
0.0
  0
POLYLINE
  5
1C1B5
  8
AM_0
 10
323.00739261233531
 20
265.23116267101699
 30
0.0
 66
     1
 70
     8
  0
VERTEX
  8
AM_0
  5
1E6C0
 10
323.007
 20
265.231
 30
0.000000
  70
    32
  0
VERTEX
  8
AM_0
  5
1E6C1
 10
323.106
 20
265.232
 30
0.000000
  70
    32
  0
VERTEX
  8
AM_0
  5
1E6C2
 10
323.204
 20
265.234
 30
0.000000
  70
    32
  0
VERTEX
  8
AM_0
  5
1E6C3
 10
323.302
 20
265.237
 30
0.000000
  70
    32
  0
VERTEX
  8
AM_0
  5
1E6C4
 10
323.400
 20
265.241
 30
0.000000
  70
    32
  0
VERTEX
  8
AM_0
  5
1E6C5
 10
323.498
 20
265.246
 30
0.000000
  70
    32
  0
VERTEX
  8
AM_0
  5
1E6C6
 10
323.596
 20
265.253
 30
0.000000
  70
    32
  0
VERTEX
  8
AM_0
  5
1E6C7
 10
323.694
 20
265.261
 30
0.000000
  70
    32
  0
VERTEX
  8
AM_0
  5
1E6C8
 10
323.792
 20
265.270
 30
0.000000
  70
    32
  0
VERTEX
  8
AM_0
  5
1E6C9
 10
323.889
 20
265.280
 30
0.000000
  70
    32
  0
VERTEX
  8
AM_0
  5
1E6CA
 10
323.987
 20
265.291
 30
0.000000
  70
    32
  0
VERTEX
  8
AM_0
  5
1E6CB
 10
324.084
 20
265.304
 30
0.000000
  70
    32
  0
VERTEX
  8
AM_0
  5
1E6CC
 10
324.181
 20
265.318
 30
0.000000
  70
    32
  0
VERTEX
  8
AM_0
  5
1E6CD
 10
324.278
 20
265.333
 30
0.000000
  70
    32
  0
VERTEX
  8
AM_0
  5
1E6CE
 10
324.375
 20
265.349
 30
0.000000
  70
    32
  0
VERTEX
  8
AM_0
  5
1E6CF
 10
324.472
 20
265.366
 30
0.000000
  70
    32
  0
VERTEX
  8
AM_0
  5
1E6D0
 10
324.568
 20
265.385
 30
0.000000
  70
    32
  0
VERTEX
  8
AM_0
  5
1E6D1
 10
324.664
 20
265.405
 30
0.000000
  70
    32
  0
VERTEX
  8
AM_0
  5
1E6D2
 10
324.760
 20
265.426
 30
0.000000
  70
    32
  0
VERTEX
  8
AM_0
  5
1E6D3
 10
324.856
 20
265.448
 30
0.000000
  70
    32
  0
VERTEX
  8
AM_0
  5
1E6D4
 10
324.951
 20
265.471
 30
0.000000
  70
    32
  0
VERTEX
  8
AM_0
  5
1E6D5
 10
325.046
 20
265.495
 30
0.000000
  70
    32
  0
VERTEX
  8
AM_0
  5
1E6D6
 10
325.141
 20
265.521
 30
0.000000
  70
    32
  0
VERTEX
  8
AM_0
  5
1E6D7
 10
325.236
 20
265.548
 30
0.000000
  70
    32
  0
VERTEX
  8
AM_0
  5
1E6D8
 10
325.330
 20
265.576
 30
0.000000
  70
    32
  0
VERTEX
  8
AM_0
  5
1E6D9
 10
325.423
 20
265.605
 30
0.000000
  70
    32
  0
VERTEX
  8
AM_0
  5
1E6DA
 10
325.517
 20
265.635
 30
0.000000
  70
    32
  0
VERTEX
  8
AM_0
  5
1E6DB
 10
325.610
 20
265.666
 30
0.000000
  70
    32
  0
VERTEX
  8
AM_0
  5
1E6DC
 10
325.703
 20
265.699
 30
0.000000
  70
    32
  0
VERTEX
  8
AM_0
  5
1E6DD
 10
325.795
 20
265.732
 30
0.000000
  70
    32
  0
VERTEX
  8
AM_0
  5
1E6DE
 10
325.887
 20
265.767
 30
0.000000
  70
    32
  0
VERTEX
  8
AM_0
  5
1E6DF
 10
325.978
 20
265.803
 30
0.000000
  70
    32
  0
VERTEX
  8
AM_0
  5
1E6E0
 10
326.069
 20
265.840
 30
0.000000
  70
    32
  0
VERTEX
  8
AM_0
  5
1E6E1
 10
326.159
 20
265.878
 30
0.000000
  70
    32
  0
VERTEX
  8
AM_0
  5
1E6E2
 10
326.249
 20
265.917
 30
0.000000
  70
    32
  0
VERTEX
  8
AM_0
  5
1E6E3
 10
326.339
 20
265.958
 30
0.000000
  70
    32
  0
VERTEX
  8
AM_0
  5
1E6E4
 10
326.428
 20
265.999
 30
0.000000
  70
    32
  0
VERTEX
  8
AM_0
  5
1E6E5
 10
326.516
 20
266.042
 30
0.000000
  70
    32
  0
VERTEX
  8
AM_0
  5
1E6E6
 10
326.604
 20
266.085
 30
0.000000
  70
    32
  0
VERTEX
  8
AM_0
  5
1E6E7
 10
326.692
 20
266.130
 30
0.000000
  70
    32
  0
VERTEX
  8
AM_0
  5
1E6E8
 10
326.779
 20
266.176
 30
0.000000
  70
    32
  0
VERTEX
  8
AM_0
  5
1E6E9
 10
326.865
 20
266.223
 30
0.000000
  70
    32
  0
VERTEX
  8
AM_0
  5
1E6EA
 10
326.951
 20
266.270
 30
0.000000
  70
    32
  0
VERTEX
  8
AM_0
  5
1E6EB
 10
327.036
 20
266.319
 30
0.000000
  70
    32
  0
VERTEX
  8
AM_0
  5
1E6EC
 10
327.120
 20
266.369
 30
0.000000
  70
    32
  0
VERTEX
  8
AM_0
  5
1E6ED
 10
327.204
 20
266.420
 30
0.000000
  70
    32
  0
VERTEX
  8
AM_0
  5
1E6EE
 10
327.287
 20
266.472
 30
0.000000
  70
    32
  0
VERTEX
  8
AM_0
  5
1E6EF
 10
327.370
 20
266.525
 30
0.000000
  70
    32
  0
VERTEX
  8
AM_0
  5
1E6F0
 10
327.452
 20
266.579
 30
0.000000
  70
    32
  0
VERTEX
  8
AM_0
  5
1E6F1
 10
327.533
 20
266.634
 30
0.000000
  70
    32
  0
VERTEX
  8
AM_0
  5
1E6F2
 10
327.614
 20
266.691
 30
0.000000
  70
    32
  0
VERTEX
  8
AM_0
  5
1E6F3
 10
327.694
 20
266.748
 30
0.000000
  70
    32
  0
VERTEX
  8
AM_0
  5
1E6F4
 10
327.773
 20
266.806
 30
0.000000
  70
    32
  0
VERTEX
  8
AM_0
  5
1E6F5
 10
327.851
 20
266.865
 30
0.000000
  70
    32
  0
VERTEX
  8
AM_0
  5
1E6F6
 10
327.929
 20
266.924
 30
0.000000
  70
    32
  0
VERTEX
  8
AM_0
  5
1E6F7
 10
328.006
 20
266.985
 30
0.000000
  70
    32
  0
VERTEX
  8
AM_0
  5
1E6F8
 10
328.083
 20
267.047
 30
0.000000
  70
    32
  0
VERTEX
  8
AM_0
  5
1E6F9
 10
328.158
 20
267.110
 30
0.000000
  70
    32
  0
VERTEX
  8
AM_0
  5
1E6FA
 10
328.233
 20
267.174
 30
0.000000
  70
    32
  0
VERTEX
  8
AM_0
  5
1E6FB
 10
328.307
 20
267.238
 30
0.000000
  70
    32
  0
VERTEX
  8
AM_0
  5
1E6FC
 10
328.380
 20
267.304
 30
0.000000
  70
    32
  0
VERTEX
  8
AM_0
  5
1E6FD
 10
328.452
 20
267.370
 30
0.000000
  70
    32
  0
VERTEX
  8
AM_0
  5
1E6FE
 10
328.524
 20
267.437
 30
0.000000
  70
    32
  0
VERTEX
  8
AM_0
  5
1E6FF
 10
328.594
 20
267.505
 30
0.000000
  70
    32
  0
VERTEX
  8
AM_0
  5
1E700
 10
328.664
 20
267.574
 30
0.000000
  70
    32
  0
VERTEX
  8
AM_0
  5
1E701
 10
328.733
 20
267.644
 30
0.000000
  70
    32
  0
VERTEX
  8
AM_0
  5
1E702
 10
328.801
 20
267.715
 30
0.000000
  70
    32
  0
VERTEX
  8
AM_0
  5
1E703
 10
328.869
 20
267.786
 30
0.000000
  70
    32
  0
VERTEX
  8
AM_0
  5
1E704
 10
328.935
 20
267.859
 30
0.000000
  70
    32
  0
VERTEX
  8
AM_0
  5
1E705
 10
329.000
 20
267.932
 30
0.000000
  70
    32
  0
VERTEX
  8
AM_0
  5
1E706
 10
329.065
 20
268.006
 30
0.000000
  70
    32
  0
VERTEX
  8
AM_0
  5
1E707
 10
329.129
 20
268.081
 30
0.000000
  70
    32
  0
VERTEX
  8
AM_0
  5
1E708
 10
329.191
 20
268.156
 30
0.000000
  70
    32
  0
VERTEX
  8
AM_0
  5
1E709
 10
329.253
 20
268.232
 30
0.000000
  70
    32
  0
VERTEX
  8
AM_0
  5
1E70A
 10
329.314
 20
268.309
 30
0.000000
  70
    32
  0
VERTEX
  8
AM_0
  5
1E70B
 10
329.374
 20
268.387
 30
0.000000
  70
    32
  0
VERTEX
  8
AM_0
  5
1E70C
 10
329.433
 20
268.466
 30
0.000000
  70
    32
  0
VERTEX
  8
AM_0
  5
1E70D
 10
329.491
 20
268.545
 30
0.000000
  70
    32
  0
VERTEX
  8
AM_0
  5
1E70E
 10
329.548
 20
268.625
 30
0.000000
  70
    32
  0
VERTEX
  8
AM_0
  5
1E70F
 10
329.604
 20
268.705
 30
0.000000
  70
    32
  0
VERTEX
  8
AM_0
  5
1E710
 10
329.659
 20
268.787
 30
0.000000
  70
    32
  0
VERTEX
  8
AM_0
  5
1E711
 10
329.713
 20
268.869
 30
0.000000
  70
    32
  0
VERTEX
  8
AM_0
  5
1E712
 10
329.766
 20
268.951
 30
0.000000
  70
    32
  0
VERTEX
  8
AM_0
  5
1E713
 10
329.818
 20
269.035
 30
0.000000
  70
    32
  0
VERTEX
  8
AM_0
  5
1E714
 10
329.869
 20
269.118
 30
0.000000
  70
    32
  0
VERTEX
  8
AM_0
  5
1E715
 10
329.919
 20
269.203
 30
0.000000
  70
    32
  0
VERTEX
  8
AM_0
  5
1E716
 10
329.968
 20
269.288
 30
0.000000
  70
    32
  0
VERTEX
  8
AM_0
  5
1E717
 10
330.016
 20
269.374
 30
0.000000
  70
    32
  0
VERTEX
  8
AM_0
  5
1E718
 10
330.063
 20
269.460
 30
0.000000
  70
    32
  0
VERTEX
  8
AM_0
  5
1E719
 10
330.109
 20
269.547
 30
0.000000
  70
    32
  0
VERTEX
  8
AM_0
  5
1E71A
 10
330.153
 20
269.634
 30
0.000000
  70
    32
  0
VERTEX
  8
AM_0
  5
1E71B
 10
330.197
 20
269.722
 30
0.000000
  70
    32
  0
VERTEX
  8
AM_0
  5
1E71C
 10
330.239
 20
269.811
 30
0.000000
  70
    32
  0
VERTEX
  8
AM_0
  5
1E71D
 10
330.281
 20
269.900
 30
0.000000
  70
    32
  0
VERTEX
  8
AM_0
  5
1E71E
 10
330.321
 20
269.989
 30
0.000000
  70
    32
  0
VERTEX
  8
AM_0
  5
1E71F
 10
330.360
 20
270.079
 30
0.000000
  70
    32
  0
VERTEX
  8
AM_0
  5
1E720
 10
330.398
 20
270.170
 30
0.000000
  70
    32
  0
VERTEX
  8
AM_0
  5
1E721
 10
330.435
 20
270.261
 30
0.000000
  70
    32
  0
VERTEX
  8
AM_0
  5
1E722
 10
330.471
 20
270.352
 30
0.000000
  70
    32
  0
VERTEX
  8
AM_0
  5
1E723
 10
330.506
 20
270.444
 30
0.000000
  70
    32
  0
VERTEX
  8
AM_0
  5
1E724
 10
330.540
 20
270.536
 30
0.000000
  70
    32
  0
VERTEX
  8
AM_0
  5
1E725
 10
330.572
 20
270.629
 30
0.000000
  70
    32
  0
VERTEX
  8
AM_0
  5
1E726
 10
330.604
 20
270.722
 30
0.000000
  70
    32
  0
VERTEX
  8
AM_0
  5
1E727
 10
330.634
 20
270.815
 30
0.000000
  70
    32
  0
VERTEX
  8
AM_0
  5
1E728
 10
330.663
 20
270.909
 30
0.000000
  70
    32
  0
VERTEX
  8
AM_0
  5
1E729
 10
330.691
 20
271.003
 30
0.000000
  70
    32
  0
VERTEX
  8
AM_0
  5
1E72A
 10
330.718
 20
271.098
 30
0.000000
  70
    32
  0
VERTEX
  8
AM_0
  5
1E72B
 10
330.743
 20
271.192
 30
0.000000
  70
    32
  0
VERTEX
  8
AM_0
  5
1E72C
 10
330.768
 20
271.287
 30
0.000000
  70
    32
  0
VERTEX
  8
AM_0
  5
1E72D
 10
330.791
 20
271.383
 30
0.000000
  70
    32
  0
VERTEX
  8
AM_0
  5
1E72E
 10
330.813
 20
271.478
 30
0.000000
  70
    32
  0
VERTEX
  8
AM_0
  5
1E72F
 10
330.834
 20
271.574
 30
0.000000
  70
    32
  0
VERTEX
  8
AM_0
  5
1E730
 10
330.854
 20
271.671
 30
0.000000
  70
    32
  0
VERTEX
  8
AM_0
  5
1E731
 10
330.872
 20
271.767
 30
0.000000
  70
    32
  0
VERTEX
  8
AM_0
  5
1E732
 10
330.890
 20
271.864
 30
0.000000
  70
    32
  0
VERTEX
  8
AM_0
  5
1E733
 10
330.906
 20
271.960
 30
0.000000
  70
    32
  0
VERTEX
  8
AM_0
  5
1E734
 10
330.921
 20
272.057
 30
0.000000
  70
    32
  0
VERTEX
  8
AM_0
  5
1E735
 10
330.935
 20
272.155
 30
0.000000
  70
    32
  0
VERTEX
  8
AM_0
  5
1E736
 10
330.947
 20
272.252
 30
0.000000
  70
    32
  0
VERTEX
  8
AM_0
  5
1E737
 10
330.959
 20
272.350
 30
0.000000
  70
    32
  0
VERTEX
  8
AM_0
  5
1E738
 10
330.969
 20
272.447
 30
0.000000
  70
    32
  0
VERTEX
  8
AM_0
  5
1E739
 10
330.978
 20
272.545
 30
0.000000
  70
    32
  0
VERTEX
  8
AM_0
  5
1E73A
 10
330.986
 20
272.643
 30
0.000000
  70
    32
  0
VERTEX
  8
AM_0
  5
1E73B
 10
330.992
 20
272.741
 30
0.000000
  70
    32
  0
VERTEX
  8
AM_0
  5
1E73C
 10
330.998
 20
272.839
 30
0.000000
  70
    32
  0
VERTEX
  8
AM_0
  5
1E73D
 10
331.002
 20
272.937
 30
0.000000
  70
    32
  0
VERTEX
  8
AM_0
  5
1E73E
 10
331.005
 20
273.035
 30
0.000000
  70
    32
  0
VERTEX
  8
AM_0
  5
1E73F
 10
331.007
 20
273.133
 30
0.000000
  70
    32
  0
VERTEX
  8
AM_0
  5
1E740
 10
331.007
 20
273.231
 30
0.000000
  70
    32
  0
SEQEND
  8
AM_0
  5
1E741
  0
LINE
  5
1C1B6
  8
AM_0
 10
331.00739261473529
 20
273.23132267101693
 30
0.0
 11
331.00739261473529
 21
275.08159885351688
 31
0.0
  0
LINE
  5
1C1B7
  8
AM_0
 10
338.00739851769532
 20
459.26263427333117
 30
0.0
 11
225.00739130143549
 21
461.23508588973209
 31
0.0
  0
LINE
  5
1C1B8
  8
AM_0
 10
225.00739130143549
 20
461.23508588973209
 30
0.0
 11
198.00739048867271
 21
460.76379349104332
 31
0.0
  0
POLYLINE
  5
1C1B9
  8
AM_0
 10
259.58858849083219
 20
460.63145992568445
 30
0.0
 66
     1
 70
     8
  0
VERTEX
  8
AM_0
  5
1E742
 10
259.589
 20
460.631
 30
0.000000
  70
    32
  0
VERTEX
  8
AM_0
  5
1E743
 10
259.676
 20
460.765
 30
0.000000
  70
    32
  0
VERTEX
  8
AM_0
  5
1E744
 10
259.765
 20
460.897
 30
0.000000
  70
    32
  0
VERTEX
  8
AM_0
  5
1E745
 10
259.856
 20
461.027
 30
0.000000
  70
    32
  0
VERTEX
  8
AM_0
  5
1E746
 10
259.949
 20
461.156
 30
0.000000
  70
    32
  0
VERTEX
  8
AM_0
  5
1E747
 10
260.044
 20
461.283
 30
0.000000
  70
    32
  0
VERTEX
  8
AM_0
  5
1E748
 10
260.141
 20
461.409
 30
0.000000
  70
    32
  0
VERTEX
  8
AM_0
  5
1E749
 10
260.241
 20
461.534
 30
0.000000
  70
    32
  0
VERTEX
  8
AM_0
  5
1E74A
 10
260.342
 20
461.657
 30
0.000000
  70
    32
  0
VERTEX
  8
AM_0
  5
1E74B
 10
260.445
 20
461.778
 30
0.000000
  70
    32
  0
VERTEX
  8
AM_0
  5
1E74C
 10
260.550
 20
461.897
 30
0.000000
  70
    32
  0
VERTEX
  8
AM_0
  5
1E74D
 10
260.657
 20
462.015
 30
0.000000
  70
    32
  0
VERTEX
  8
AM_0
  5
1E74E
 10
260.766
 20
462.131
 30
0.000000
  70
    32
  0
VERTEX
  8
AM_0
  5
1E74F
 10
260.876
 20
462.245
 30
0.000000
  70
    32
  0
VERTEX
  8
AM_0
  5
1E750
 10
260.989
 20
462.358
 30
0.000000
  70
    32
  0
VERTEX
  8
AM_0
  5
1E751
 10
261.103
 20
462.469
 30
0.000000
  70
    32
  0
VERTEX
  8
AM_0
  5
1E752
 10
261.219
 20
462.578
 30
0.000000
  70
    32
  0
VERTEX
  8
AM_0
  5
1E753
 10
261.336
 20
462.685
 30
0.000000
  70
    32
  0
VERTEX
  8
AM_0
  5
1E754
 10
261.456
 20
462.790
 30
0.000000
  70
    32
  0
VERTEX
  8
AM_0
  5
1E755
 10
261.577
 20
462.893
 30
0.000000
  70
    32
  0
VERTEX
  8
AM_0
  5
1E756
 10
261.700
 20
462.995
 30
0.000000
  70
    32
  0
VERTEX
  8
AM_0
  5
1E757
 10
261.824
 20
463.094
 30
0.000000
  70
    32
  0
VERTEX
  8
AM_0
  5
1E758
 10
261.950
 20
463.191
 30
0.000000
  70
    32
  0
VERTEX
  8
AM_0
  5
1E759
 10
262.077
 20
463.287
 30
0.000000
  70
    32
  0
VERTEX
  8
AM_0
  5
1E75A
 10
262.206
 20
463.380
 30
0.000000
  70
    32
  0
VERTEX
  8
AM_0
  5
1E75B
 10
262.336
 20
463.471
 30
0.000000
  70
    32
  0
VERTEX
  8
AM_0
  5
1E75C
 10
262.468
 20
463.560
 30
0.000000
  70
    32
  0
VERTEX
  8
AM_0
  5
1E75D
 10
262.601
 20
463.648
 30
0.000000
  70
    32
  0
VERTEX
  8
AM_0
  5
1E75E
 10
262.736
 20
463.733
 30
0.000000
  70
    32
  0
VERTEX
  8
AM_0
  5
1E75F
 10
262.871
 20
463.815
 30
0.000000
  70
    32
  0
VERTEX
  8
AM_0
  5
1E760
 10
263.009
 20
463.896
 30
0.000000
  70
    32
  0
VERTEX
  8
AM_0
  5
1E761
 10
263.147
 20
463.974
 30
0.000000
  70
    32
  0
VERTEX
  8
AM_0
  5
1E762
 10
263.287
 20
464.051
 30
0.000000
  70
    32
  0
VERTEX
  8
AM_0
  5
1E763
 10
263.427
 20
464.125
 30
0.000000
  70
    32
  0
VERTEX
  8
AM_0
  5
1E764
 10
263.569
 20
464.196
 30
0.000000
  70
    32
  0
VERTEX
  8
AM_0
  5
1E765
 10
263.713
 20
464.266
 30
0.000000
  70
    32
  0
VERTEX
  8
AM_0
  5
1E766
 10
263.857
 20
464.333
 30
0.000000
  70
    32
  0
VERTEX
  8
AM_0
  5
1E767
 10
264.002
 20
464.398
 30
0.000000
  70
    32
  0
VERTEX
  8
AM_0
  5
1E768
 10
264.148
 20
464.460
 30
0.000000
  70
    32
  0
VERTEX
  8
AM_0
  5
1E769
 10
264.296
 20
464.521
 30
0.000000
  70
    32
  0
VERTEX
  8
AM_0
  5
1E76A
 10
264.444
 20
464.579
 30
0.000000
  70
    32
  0
VERTEX
  8
AM_0
  5
1E76B
 10
264.593
 20
464.634
 30
0.000000
  70
    32
  0
VERTEX
  8
AM_0
  5
1E76C
 10
264.743
 20
464.687
 30
0.000000
  70
    32
  0
VERTEX
  8
AM_0
  5
1E76D
 10
264.894
 20
464.738
 30
0.000000
  70
    32
  0
VERTEX
  8
AM_0
  5
1E76E
 10
265.045
 20
464.786
 30
0.000000
  70
    32
  0
VERTEX
  8
AM_0
  5
1E76F
 10
265.198
 20
464.832
 30
0.000000
  70
    32
  0
VERTEX
  8
AM_0
  5
1E770
 10
265.351
 20
464.876
 30
0.000000
  70
    32
  0
VERTEX
  8
AM_0
  5
1E771
 10
265.504
 20
464.917
 30
0.000000
  70
    32
  0
VERTEX
  8
AM_0
  5
1E772
 10
265.659
 20
464.955
 30
0.000000
  70
    32
  0
VERTEX
  8
AM_0
  5
1E773
 10
265.814
 20
464.991
 30
0.000000
  70
    32
  0
VERTEX
  8
AM_0
  5
1E774
 10
265.969
 20
465.025
 30
0.000000
  70
    32
  0
VERTEX
  8
AM_0
  5
1E775
 10
266.125
 20
465.056
 30
0.000000
  70
    32
  0
VERTEX
  8
AM_0
  5
1E776
 10
266.282
 20
465.085
 30
0.000000
  70
    32
  0
VERTEX
  8
AM_0
  5
1E777
 10
266.438
 20
465.111
 30
0.000000
  70
    32
  0
VERTEX
  8
AM_0
  5
1E778
 10
266.596
 20
465.135
 30
0.000000
  70
    32
  0
VERTEX
  8
AM_0
  5
1E779
 10
266.753
 20
465.156
 30
0.000000
  70
    32
  0
VERTEX
  8
AM_0
  5
1E77A
 10
266.911
 20
465.175
 30
0.000000
  70
    32
  0
VERTEX
  8
AM_0
  5
1E77B
 10
267.070
 20
465.191
 30
0.000000
  70
    32
  0
VERTEX
  8
AM_0
  5
1E77C
 10
267.228
 20
465.205
 30
0.000000
  70
    32
  0
VERTEX
  8
AM_0
  5
1E77D
 10
267.387
 20
465.216
 30
0.000000
  70
    32
  0
VERTEX
  8
AM_0
  5
1E77E
 10
267.546
 20
465.224
 30
0.000000
  70
    32
  0
VERTEX
  8
AM_0
  5
1E77F
 10
267.705
 20
465.231
 30
0.000000
  70
    32
  0
VERTEX
  8
AM_0
  5
1E780
 10
267.864
 20
465.234
 30
0.000000
  70
    32
  0
VERTEX
  8
AM_0
  5
1E781
 10
268.023
 20
465.235
 30
0.000000
  70
    32
  0
VERTEX
  8
AM_0
  5
1E782
 10
268.182
 20
465.234
 30
0.000000
  70
    32
  0
VERTEX
  8
AM_0
  5
1E783
 10
268.341
 20
465.230
 30
0.000000
  70
    32
  0
VERTEX
  8
AM_0
  5
1E784
 10
268.500
 20
465.223
 30
0.000000
  70
    32
  0
VERTEX
  8
AM_0
  5
1E785
 10
268.659
 20
465.214
 30
0.000000
  70
    32
  0
VERTEX
  8
AM_0
  5
1E786
 10
268.818
 20
465.202
 30
0.000000
  70
    32
  0
VERTEX
  8
AM_0
  5
1E787
 10
268.976
 20
465.188
 30
0.000000
  70
    32
  0
VERTEX
  8
AM_0
  5
1E788
 10
269.134
 20
465.171
 30
0.000000
  70
    32
  0
VERTEX
  8
AM_0
  5
1E789
 10
269.292
 20
465.152
 30
0.000000
  70
    32
  0
VERTEX
  8
AM_0
  5
1E78A
 10
269.450
 20
465.131
 30
0.000000
  70
    32
  0
VERTEX
  8
AM_0
  5
1E78B
 10
269.607
 20
465.106
 30
0.000000
  70
    32
  0
VERTEX
  8
AM_0
  5
1E78C
 10
269.764
 20
465.080
 30
0.000000
  70
    32
  0
VERTEX
  8
AM_0
  5
1E78D
 10
269.920
 20
465.050
 30
0.000000
  70
    32
  0
VERTEX
  8
AM_0
  5
1E78E
 10
270.076
 20
465.019
 30
0.000000
  70
    32
  0
VERTEX
  8
AM_0
  5
1E78F
 10
270.232
 20
464.985
 30
0.000000
  70
    32
  0
VERTEX
  8
AM_0
  5
1E790
 10
270.386
 20
464.948
 30
0.000000
  70
    32
  0
VERTEX
  8
AM_0
  5
1E791
 10
270.541
 20
464.909
 30
0.000000
  70
    32
  0
VERTEX
  8
AM_0
  5
1E792
 10
270.694
 20
464.867
 30
0.000000
  70
    32
  0
VERTEX
  8
AM_0
  5
1E793
 10
270.847
 20
464.823
 30
0.000000
  70
    32
  0
VERTEX
  8
AM_0
  5
1E794
 10
270.999
 20
464.777
 30
0.000000
  70
    32
  0
VERTEX
  8
AM_0
  5
1E795
 10
271.151
 20
464.728
 30
0.000000
  70
    32
  0
VERTEX
  8
AM_0
  5
1E796
 10
271.301
 20
464.677
 30
0.000000
  70
    32
  0
VERTEX
  8
AM_0
  5
1E797
 10
271.451
 20
464.623
 30
0.000000
  70
    32
  0
VERTEX
  8
AM_0
  5
1E798
 10
271.600
 20
464.568
 30
0.000000
  70
    32
  0
VERTEX
  8
AM_0
  5
1E799
 10
271.748
 20
464.509
 30
0.000000
  70
    32
  0
VERTEX
  8
AM_0
  5
1E79A
 10
271.895
 20
464.448
 30
0.000000
  70
    32
  0
VERTEX
  8
AM_0
  5
1E79B
 10
272.041
 20
464.385
 30
0.000000
  70
    32
  0
VERTEX
  8
AM_0
  5
1E79C
 10
272.186
 20
464.320
 30
0.000000
  70
    32
  0
VERTEX
  8
AM_0
  5
1E79D
 10
272.330
 20
464.253
 30
0.000000
  70
    32
  0
VERTEX
  8
AM_0
  5
1E79E
 10
272.473
 20
464.183
 30
0.000000
  70
    32
  0
VERTEX
  8
AM_0
  5
1E79F
 10
272.615
 20
464.110
 30
0.000000
  70
    32
  0
VERTEX
  8
AM_0
  5
1E7A0
 10
272.756
 20
464.036
 30
0.000000
  70
    32
  0
VERTEX
  8
AM_0
  5
1E7A1
 10
272.895
 20
463.959
 30
0.000000
  70
    32
  0
VERTEX
  8
AM_0
  5
1E7A2
 10
273.033
 20
463.880
 30
0.000000
  70
    32
  0
VERTEX
  8
AM_0
  5
1E7A3
 10
273.170
 20
463.799
 30
0.000000
  70
    32
  0
VERTEX
  8
AM_0
  5
1E7A4
 10
273.306
 20
463.716
 30
0.000000
  70
    32
  0
VERTEX
  8
AM_0
  5
1E7A5
 10
273.440
 20
463.631
 30
0.000000
  70
    32
  0
VERTEX
  8
AM_0
  5
1E7A6
 10
273.573
 20
463.543
 30
0.000000
  70
    32
  0
VERTEX
  8
AM_0
  5
1E7A7
 10
273.704
 20
463.454
 30
0.000000
  70
    32
  0
VERTEX
  8
AM_0
  5
1E7A8
 10
273.834
 20
463.362
 30
0.000000
  70
    32
  0
VERTEX
  8
AM_0
  5
1E7A9
 10
273.963
 20
463.268
 30
0.000000
  70
    32
  0
VERTEX
  8
AM_0
  5
1E7AA
 10
274.090
 20
463.173
 30
0.000000
  70
    32
  0
VERTEX
  8
AM_0
  5
1E7AB
 10
274.216
 20
463.075
 30
0.000000
  70
    32
  0
VERTEX
  8
AM_0
  5
1E7AC
 10
274.339
 20
462.975
 30
0.000000
  70
    32
  0
VERTEX
  8
AM_0
  5
1E7AD
 10
274.462
 20
462.873
 30
0.000000
  70
    32
  0
VERTEX
  8
AM_0
  5
1E7AE
 10
274.583
 20
462.770
 30
0.000000
  70
    32
  0
VERTEX
  8
AM_0
  5
1E7AF
 10
274.702
 20
462.664
 30
0.000000
  70
    32
  0
VERTEX
  8
AM_0
  5
1E7B0
 10
274.819
 20
462.557
 30
0.000000
  70
    32
  0
VERTEX
  8
AM_0
  5
1E7B1
 10
274.935
 20
462.447
 30
0.000000
  70
    32
  0
VERTEX
  8
AM_0
  5
1E7B2
 10
275.048
 20
462.336
 30
0.000000
  70
    32
  0
VERTEX
  8
AM_0
  5
1E7B3
 10
275.160
 20
462.223
 30
0.000000
  70
    32
  0
VERTEX
  8
AM_0
  5
1E7B4
 10
275.271
 20
462.109
 30
0.000000
  70
    32
  0
VERTEX
  8
AM_0
  5
1E7B5
 10
275.379
 20
461.992
 30
0.000000
  70
    32
  0
VERTEX
  8
AM_0
  5
1E7B6
 10
275.486
 20
461.874
 30
0.000000
  70
    32
  0
VERTEX
  8
AM_0
  5
1E7B7
 10
275.590
 20
461.754
 30
0.000000
  70
    32
  0
VERTEX
  8
AM_0
  5
1E7B8
 10
275.693
 20
461.633
 30
0.000000
  70
    32
  0
VERTEX
  8
AM_0
  5
1E7B9
 10
275.794
 20
461.510
 30
0.000000
  70
    32
  0
VERTEX
  8
AM_0
  5
1E7BA
 10
275.893
 20
461.385
 30
0.000000
  70
    32
  0
VERTEX
  8
AM_0
  5
1E7BB
 10
275.990
 20
461.259
 30
0.000000
  70
    32
  0
VERTEX
  8
AM_0
  5
1E7BC
 10
276.084
 20
461.131
 30
0.000000
  70
    32
  0
VERTEX
  8
AM_0
  5
1E7BD
 10
276.177
 20
461.002
 30
0.000000
  70
    32
  0
VERTEX
  8
AM_0
  5
1E7BE
 10
276.268
 20
460.871
 30
0.000000
  70
    32
  0
VERTEX
  8
AM_0
  5
1E7BF
 10
276.357
 20
460.739
 30
0.000000
  70
    32
  0
VERTEX
  8
AM_0
  5
1E7C0
 10
276.443
 20
460.605
 30
0.000000
  70
    32
  0
VERTEX
  8
AM_0
  5
1E7C1
 10
276.527
 20
460.471
 30
0.000000
  70
    32
  0
VERTEX
  8
AM_0
  5
1E7C2
 10
276.610
 20
460.334
 30
0.000000
  70
    32
  0
SEQEND
  8
AM_0
  5
1E7C3
  0
POLYLINE
  5
1C1BA
  8
AM_0
 10
251.9321402092643
 20
460.7651057028919
 30
0.0
 66
     1
 70
     8
  0
VERTEX
  8
AM_0
  5
1E7C4
 10
251.932
 20
460.765
 30
0.000000
  70
    32
  0
VERTEX
  8
AM_0
  5
1E7C5
 10
252.044
 20
461.080
 30
0.000000
  70
    32
  0
VERTEX
  8
AM_0
  5
1E7C6
 10
252.162
 20
461.392
 30
0.000000
  70
    32
  0
VERTEX
  8
AM_0
  5
1E7C7
 10
252.286
 20
461.702
 30
0.000000
  70
    32
  0
VERTEX
  8
AM_0
  5
1E7C8
 10
252.416
 20
462.010
 30
0.000000
  70
    32
  0
VERTEX
  8
AM_0
  5
1E7C9
 10
252.552
 20
462.315
 30
0.000000
  70
    32
  0
VERTEX
  8
AM_0
  5
1E7CA
 10
252.694
 20
462.617
 30
0.000000
  70
    32
  0
VERTEX
  8
AM_0
  5
1E7CB
 10
252.842
 20
462.916
 30
0.000000
  70
    32
  0
VERTEX
  8
AM_0
  5
1E7CC
 10
252.995
 20
463.212
 30
0.000000
  70
    32
  0
VERTEX
  8
AM_0
  5
1E7CD
 10
253.155
 20
463.506
 30
0.000000
  70
    32
  0
VERTEX
  8
AM_0
  5
1E7CE
 10
253.320
 20
463.796
 30
0.000000
  70
    32
  0
VERTEX
  8
AM_0
  5
1E7CF
 10
253.491
 20
464.083
 30
0.000000
  70
    32
  0
VERTEX
  8
AM_0
  5
1E7D0
 10
253.668
 20
464.366
 30
0.000000
  70
    32
  0
VERTEX
  8
AM_0
  5
1E7D1
 10
253.850
 20
464.646
 30
0.000000
  70
    32
  0
VERTEX
  8
AM_0
  5
1E7D2
 10
254.037
 20
464.922
 30
0.000000
  70
    32
  0
VERTEX
  8
AM_0
  5
1E7D3
 10
254.230
 20
465.194
 30
0.000000
  70
    32
  0
VERTEX
  8
AM_0
  5
1E7D4
 10
254.429
 20
465.463
 30
0.000000
  70
    32
  0
VERTEX
  8
AM_0
  5
1E7D5
 10
254.632
 20
465.728
 30
0.000000
  70
    32
  0
VERTEX
  8
AM_0
  5
1E7D6
 10
254.841
 20
465.988
 30
0.000000
  70
    32
  0
VERTEX
  8
AM_0
  5
1E7D7
 10
255.054
 20
466.245
 30
0.000000
  70
    32
  0
VERTEX
  8
AM_0
  5
1E7D8
 10
255.273
 20
466.497
 30
0.000000
  70
    32
  0
VERTEX
  8
AM_0
  5
1E7D9
 10
255.497
 20
466.745
 30
0.000000
  70
    32
  0
VERTEX
  8
AM_0
  5
1E7DA
 10
255.725
 20
466.989
 30
0.000000
  70
    32
  0
VERTEX
  8
AM_0
  5
1E7DB
 10
255.958
 20
467.228
 30
0.000000
  70
    32
  0
VERTEX
  8
AM_0
  5
1E7DC
 10
256.196
 20
467.462
 30
0.000000
  70
    32
  0
VERTEX
  8
AM_0
  5
1E7DD
 10
256.439
 20
467.691
 30
0.000000
  70
    32
  0
VERTEX
  8
AM_0
  5
1E7DE
 10
256.685
 20
467.916
 30
0.000000
  70
    32
  0
VERTEX
  8
AM_0
  5
1E7DF
 10
256.937
 20
468.136
 30
0.000000
  70
    32
  0
VERTEX
  8
AM_0
  5
1E7E0
 10
257.192
 20
468.351
 30
0.000000
  70
    32
  0
VERTEX
  8
AM_0
  5
1E7E1
 10
257.452
 20
468.561
 30
0.000000
  70
    32
  0
VERTEX
  8
AM_0
  5
1E7E2
 10
257.715
 20
468.766
 30
0.000000
  70
    32
  0
VERTEX
  8
AM_0
  5
1E7E3
 10
257.983
 20
468.965
 30
0.000000
  70
    32
  0
VERTEX
  8
AM_0
  5
1E7E4
 10
258.255
 20
469.159
 30
0.000000
  70
    32
  0
VERTEX
  8
AM_0
  5
1E7E5
 10
258.530
 20
469.348
 30
0.000000
  70
    32
  0
VERTEX
  8
AM_0
  5
1E7E6
 10
258.809
 20
469.532
 30
0.000000
  70
    32
  0
VERTEX
  8
AM_0
  5
1E7E7
 10
259.092
 20
469.710
 30
0.000000
  70
    32
  0
VERTEX
  8
AM_0
  5
1E7E8
 10
259.378
 20
469.882
 30
0.000000
  70
    32
  0
VERTEX
  8
AM_0
  5
1E7E9
 10
259.667
 20
470.049
 30
0.000000
  70
    32
  0
VERTEX
  8
AM_0
  5
1E7EA
 10
259.959
 20
470.209
 30
0.000000
  70
    32
  0
VERTEX
  8
AM_0
  5
1E7EB
 10
260.255
 20
470.365
 30
0.000000
  70
    32
  0
VERTEX
  8
AM_0
  5
1E7EC
 10
260.554
 20
470.514
 30
0.000000
  70
    32
  0
VERTEX
  8
AM_0
  5
1E7ED
 10
260.855
 20
470.657
 30
0.000000
  70
    32
  0
VERTEX
  8
AM_0
  5
1E7EE
 10
261.159
 20
470.795
 30
0.000000
  70
    32
  0
VERTEX
  8
AM_0
  5
1E7EF
 10
261.466
 20
470.926
 30
0.000000
  70
    32
  0
VERTEX
  8
AM_0
  5
1E7F0
 10
261.776
 20
471.052
 30
0.000000
  70
    32
  0
VERTEX
  8
AM_0
  5
1E7F1
 10
262.087
 20
471.171
 30
0.000000
  70
    32
  0
VERTEX
  8
AM_0
  5
1E7F2
 10
262.402
 20
471.284
 30
0.000000
  70
    32
  0
VERTEX
  8
AM_0
  5
1E7F3
 10
262.718
 20
471.391
 30
0.000000
  70
    32
  0
VERTEX
  8
AM_0
  5
1E7F4
 10
263.036
 20
471.492
 30
0.000000
  70
    32
  0
VERTEX
  8
AM_0
  5
1E7F5
 10
263.356
 20
471.587
 30
0.000000
  70
    32
  0
VERTEX
  8
AM_0
  5
1E7F6
 10
263.678
 20
471.675
 30
0.000000
  70
    32
  0
VERTEX
  8
AM_0
  5
1E7F7
 10
264.002
 20
471.757
 30
0.000000
  70
    32
  0
VERTEX
  8
AM_0
  5
1E7F8
 10
264.327
 20
471.832
 30
0.000000
  70
    32
  0
VERTEX
  8
AM_0
  5
1E7F9
 10
264.654
 20
471.901
 30
0.000000
  70
    32
  0
VERTEX
  8
AM_0
  5
1E7FA
 10
264.982
 20
471.964
 30
0.000000
  70
    32
  0
VERTEX
  8
AM_0
  5
1E7FB
 10
265.311
 20
472.020
 30
0.000000
  70
    32
  0
VERTEX
  8
AM_0
  5
1E7FC
 10
265.641
 20
472.070
 30
0.000000
  70
    32
  0
VERTEX
  8
AM_0
  5
1E7FD
 10
265.972
 20
472.113
 30
0.000000
  70
    32
  0
VERTEX
  8
AM_0
  5
1E7FE
 10
266.304
 20
472.150
 30
0.000000
  70
    32
  0
VERTEX
  8
AM_0
  5
1E7FF
 10
266.636
 20
472.180
 30
0.000000
  70
    32
  0
VERTEX
  8
AM_0
  5
1E800
 10
266.969
 20
472.204
 30
0.000000
  70
    32
  0
VERTEX
  8
AM_0
  5
1E801
 10
267.303
 20
472.221
 30
0.000000
  70
    32
  0
VERTEX
  8
AM_0
  5
1E802
 10
267.637
 20
472.231
 30
0.000000
  70
    32
  0
VERTEX
  8
AM_0
  5
1E803
 10
267.970
 20
472.235
 30
0.000000
  70
    32
  0
VERTEX
  8
AM_0
  5
1E804
 10
268.304
 20
472.233
 30
0.000000
  70
    32
  0
VERTEX
  8
AM_0
  5
1E805
 10
268.638
 20
472.224
 30
0.000000
  70
    32
  0
VERTEX
  8
AM_0
  5
1E806
 10
268.971
 20
472.208
 30
0.000000
  70
    32
  0
VERTEX
  8
AM_0
  5
1E807
 10
269.305
 20
472.186
 30
0.000000
  70
    32
  0
VERTEX
  8
AM_0
  5
1E808
 10
269.637
 20
472.157
 30
0.000000
  70
    32
  0
VERTEX
  8
AM_0
  5
1E809
 10
269.969
 20
472.122
 30
0.000000
  70
    32
  0
VERTEX
  8
AM_0
  5
1E80A
 10
270.300
 20
472.080
 30
0.000000
  70
    32
  0
VERTEX
  8
AM_0
  5
1E80B
 10
270.631
 20
472.032
 30
0.000000
  70
    32
  0
VERTEX
  8
AM_0
  5
1E80C
 10
270.960
 20
471.977
 30
0.000000
  70
    32
  0
VERTEX
  8
AM_0
  5
1E80D
 10
271.288
 20
471.916
 30
0.000000
  70
    32
  0
VERTEX
  8
AM_0
  5
1E80E
 10
271.615
 20
471.848
 30
0.000000
  70
    32
  0
VERTEX
  8
AM_0
  5
1E80F
 10
271.941
 20
471.774
 30
0.000000
  70
    32
  0
VERTEX
  8
AM_0
  5
1E810
 10
272.265
 20
471.694
 30
0.000000
  70
    32
  0
VERTEX
  8
AM_0
  5
1E811
 10
272.587
 20
471.607
 30
0.000000
  70
    32
  0
VERTEX
  8
AM_0
  5
1E812
 10
272.908
 20
471.514
 30
0.000000
  70
    32
  0
VERTEX
  8
AM_0
  5
1E813
 10
273.227
 20
471.414
 30
0.000000
  70
    32
  0
VERTEX
  8
AM_0
  5
1E814
 10
273.543
 20
471.309
 30
0.000000
  70
    32
  0
VERTEX
  8
AM_0
  5
1E815
 10
273.858
 20
471.197
 30
0.000000
  70
    32
  0
VERTEX
  8
AM_0
  5
1E816
 10
274.170
 20
471.079
 30
0.000000
  70
    32
  0
VERTEX
  8
AM_0
  5
1E817
 10
274.480
 20
470.955
 30
0.000000
  70
    32
  0
VERTEX
  8
AM_0
  5
1E818
 10
274.788
 20
470.825
 30
0.000000
  70
    32
  0
VERTEX
  8
AM_0
  5
1E819
 10
275.093
 20
470.689
 30
0.000000
  70
    32
  0
VERTEX
  8
AM_0
  5
1E81A
 10
275.395
 20
470.546
 30
0.000000
  70
    32
  0
VERTEX
  8
AM_0
  5
1E81B
 10
275.694
 20
470.398
 30
0.000000
  70
    32
  0
VERTEX
  8
AM_0
  5
1E81C
 10
275.990
 20
470.244
 30
0.000000
  70
    32
  0
VERTEX
  8
AM_0
  5
1E81D
 10
276.283
 20
470.085
 30
0.000000
  70
    32
  0
VERTEX
  8
AM_0
  5
1E81E
 10
276.573
 20
469.919
 30
0.000000
  70
    32
  0
VERTEX
  8
AM_0
  5
1E81F
 10
276.860
 20
469.748
 30
0.000000
  70
    32
  0
VERTEX
  8
AM_0
  5
1E820
 10
277.143
 20
469.572
 30
0.000000
  70
    32
  0
VERTEX
  8
AM_0
  5
1E821
 10
277.423
 20
469.390
 30
0.000000
  70
    32
  0
VERTEX
  8
AM_0
  5
1E822
 10
277.699
 20
469.202
 30
0.000000
  70
    32
  0
VERTEX
  8
AM_0
  5
1E823
 10
277.972
 20
469.009
 30
0.000000
  70
    32
  0
VERTEX
  8
AM_0
  5
1E824
 10
278.240
 20
468.811
 30
0.000000
  70
    32
  0
VERTEX
  8
AM_0
  5
1E825
 10
278.505
 20
468.607
 30
0.000000
  70
    32
  0
VERTEX
  8
AM_0
  5
1E826
 10
278.766
 20
468.398
 30
0.000000
  70
    32
  0
VERTEX
  8
AM_0
  5
1E827
 10
279.022
 20
468.184
 30
0.000000
  70
    32
  0
VERTEX
  8
AM_0
  5
1E828
 10
279.274
 20
467.966
 30
0.000000
  70
    32
  0
VERTEX
  8
AM_0
  5
1E829
 10
279.522
 20
467.742
 30
0.000000
  70
    32
  0
VERTEX
  8
AM_0
  5
1E82A
 10
279.765
 20
467.513
 30
0.000000
  70
    32
  0
VERTEX
  8
AM_0
  5
1E82B
 10
280.004
 20
467.280
 30
0.000000
  70
    32
  0
VERTEX
  8
AM_0
  5
1E82C
 10
280.238
 20
467.042
 30
0.000000
  70
    32
  0
VERTEX
  8
AM_0
  5
1E82D
 10
280.468
 20
466.800
 30
0.000000
  70
    32
  0
VERTEX
  8
AM_0
  5
1E82E
 10
280.693
 20
466.553
 30
0.000000
  70
    32
  0
VERTEX
  8
AM_0
  5
1E82F
 10
280.912
 20
466.301
 30
0.000000
  70
    32
  0
VERTEX
  8
AM_0
  5
1E830
 10
281.127
 20
466.046
 30
0.000000
  70
    32
  0
VERTEX
  8
AM_0
  5
1E831
 10
281.337
 20
465.786
 30
0.000000
  70
    32
  0
VERTEX
  8
AM_0
  5
1E832
 10
281.542
 20
465.522
 30
0.000000
  70
    32
  0
VERTEX
  8
AM_0
  5
1E833
 10
281.741
 20
465.255
 30
0.000000
  70
    32
  0
VERTEX
  8
AM_0
  5
1E834
 10
281.935
 20
464.983
 30
0.000000
  70
    32
  0
VERTEX
  8
AM_0
  5
1E835
 10
282.124
 20
464.708
 30
0.000000
  70
    32
  0
VERTEX
  8
AM_0
  5
1E836
 10
282.307
 20
464.428
 30
0.000000
  70
    32
  0
VERTEX
  8
AM_0
  5
1E837
 10
282.485
 20
464.146
 30
0.000000
  70
    32
  0
VERTEX
  8
AM_0
  5
1E838
 10
282.657
 20
463.860
 30
0.000000
  70
    32
  0
VERTEX
  8
AM_0
  5
1E839
 10
282.824
 20
463.570
 30
0.000000
  70
    32
  0
VERTEX
  8
AM_0
  5
1E83A
 10
282.985
 20
463.278
 30
0.000000
  70
    32
  0
VERTEX
  8
AM_0
  5
1E83B
 10
283.140
 20
462.982
 30
0.000000
  70
    32
  0
VERTEX
  8
AM_0
  5
1E83C
 10
283.289
 20
462.684
 30
0.000000
  70
    32
  0
VERTEX
  8
AM_0
  5
1E83D
 10
283.432
 20
462.382
 30
0.000000
  70
    32
  0
VERTEX
  8
AM_0
  5
1E83E
 10
283.570
 20
462.078
 30
0.000000
  70
    32
  0
VERTEX
  8
AM_0
  5
1E83F
 10
283.701
 20
461.771
 30
0.000000
  70
    32
  0
VERTEX
  8
AM_0
  5
1E840
 10
283.826
 20
461.461
 30
0.000000
  70
    32
  0
VERTEX
  8
AM_0
  5
1E841
 10
283.946
 20
461.149
 30
0.000000
  70
    32
  0
VERTEX
  8
AM_0
  5
1E842
 10
284.059
 20
460.835
 30
0.000000
  70
    32
  0
VERTEX
  8
AM_0
  5
1E843
 10
284.165
 20
460.519
 30
0.000000
  70
    32
  0
VERTEX
  8
AM_0
  5
1E844
 10
284.266
 20
460.201
 30
0.000000
  70
    32
  0
SEQEND
  8
AM_0
  5
1E845
  0
LINE
  5
1C1BB
  8
ﾁｭｳｼﾝｾﾝ1
 10
373.00741312859071
 20
237.98320308825771
 30
0.0
 11
373.00740325838109
 21
272.48320308825771
 31
0.0
  0
LINE
  5
1C1BF
  8
0
 10
101.0079661569912
 20
346.23393567589011
 30
0.0
 11
171.00796615631751
 21
346.2336286027089
 31
0.0
  0
LINE
  5
1C1C0
  8
0
 10
101.00815040089989
 20
388.23393567548601
 30
0.0
 11
171.0081504002263
 21
388.23362860377932
 31
0.0
  0
LINE
  5
1C1C1
  8
0
 10
101.0081635611791
 20
391.23393567545708
 30
0.0
 11
157.00816356064021
 21
391.23369001691202
 31
0.0
  0
LINE
  5
1C1C4
  8
AM_0
 10
171.00794860927849
 20
342.2336286027471
 30
0.0
 11
188.0079199683102
 21
334.73290305929038
 31
0.0
  0
LINE
  5
1C1C5
  8
AM_0
 10
188.0079199683102
 20
334.73290305929038
 30
0.0
 11
188.0082051134043
 21
399.73420499585472
 31
0.0
  0
LINE
  5
1C1C6
  8
AM_0
 10
343.0073948535096
 20
417.23420457840371
 30
0.0
 11
343.0073948535096
 21
317.23220159811189
 31
0.0
  0
LINE
  5
1C1C7
  8
AM_0
 10
390.50739975377729
 20
258.23320308825771
 30
0.0
 11
349.00746605776487
 21
258.23320308825771
 31
0.0
  0
LINE
  5
1C1C8
  8
AM_0
 10
390.50741291405677
 20
252.23320308825771
 30
0.0
 11
348.00739851769532
 21
252.2332030882578
 31
0.0
  0
LINE
  5
1C1C9
  8
AM_0N
 10
362.50746605776499
 20
301.63168082323591
 30
0.0
 11
362.50746605776499
 21
280.83168082323601
 31
0.0
1001
GENIUS_GENOREF_13
1005
0
  0
LINE
  5
1C1CA
  8
AM_0
 10
344.00746605776487
 20
312.23320308825771
 30
0.0
 11
344.00746605776482
 21
263.2332030882576
 31
0.0
  0
LINE
  5
1C1CB
  8
AM_0N
 10
344.00746605776499
 20
306.23168082323588
 30
0.0
 11
344.00746605776499
 21
276.23168082323588
 31
0.0
1001
GENIUS_GENOREF_13
1005
0
  0
LINE
  5
1C1CC
  8
AM_0N
 10
346.50746605776499
 20
276.23168082323588
 30
0.0
 11
346.50746605776499
 21
306.23168082323588
 31
0.0
1001
GENIUS_GENOREF_13
1005
0
  0
LINE
  5
1C1CD
  8
AM_0N
 10
346.50746605776499
 20
303.23168082323588
 30
0.0
 11
346.50746605776499
 21
279.23168082323588
 31
0.0
1001
GENIUS_GENOREF_13
1005
0
  0
ARC
  5
1C1CE
  8
AM_0N
 10
360.90746605776508
 20
280.83168082323601
 30
0.0
 40
1.6000000000000001
 50
270.0
 51
0.0
1001
GENIUS_GENOREF_13
1005
0
  0
ARC
  5
1C1CF
  8
AM_0
 10
349.00746605776487
 20
263.2332030882576
 30
0.0
 40
5.0
 50
180.0
 51
270.0
1001
GENIUS_GENODEF_13
1002
{
1000
HIER
1070
     0
1002
}
1002
{
1000
MANEDIT
1070
     0
1002
}
1002
{
1000
NOSEL
1070
     0
1002
}
1002
{
1000
BEHIND
1070
     0
1002
}
1002
{
1000
OTHER
1070
     0
1002
}
1002
{
1000
REACTOR
1002
}
1001
GENIUS_GENOBJ-N-FIL_13
1002
{
1000
OWNER
1000
GEN
1002
}
  0
LINE
  5
1C1D0
  8
AM_0N
 10
360.90746605776508
 20
279.23168082323588
 30
0.0
 11
346.50746605776499
 21
279.23168082323588
 31
0.0
1001
GENIUS_GENOREF_13
1005
0
  0
LINE
  5
1C1D1
  8
AM_0N
 10
344.00746605776447
 20
276.23168082323588
 30
0.0
 11
346.50746605776499
 21
276.23168082323588
 31
0.0
1001
GENIUS_GENOREF_13
1005
0
  0
LINE
  5
1C1D2
  8
AM_0
 10
380.50747077542718
 20
258.23320308825771
 30
0.0
 11
380.50744884162827
 21
268.23320308825771
 31
0.0
  0
LINE
  5
1C1D3
  8
ｶｸﾚｾﾝ2
 10
363.50740862262501
 20
252.23320308825771
 30
0.0
 11
363.50740690606688
 21
258.23320308825771
 31
0.0
  0
LINE
  5
1C1D4
  8
ｶｸﾚｾﾝ2
 10
382.5074086226258
 20
252.23320308825771
 30
0.0
 11
382.50740690606767
 21
258.23320308825771
 31
0.0
  0
LINE
  5
1C1D5
  8
AM_0
 10
380.50744884162827
 20
268.23320308825771
 30
0.0
 11
362.50746605776499
 21
286.23318587212128
 31
0.0
  0
ARC
  5
1C1D6
  8
AM_0N
 10
360.90746605776508
 20
301.63168082323591
 30
0.0
 40
1.6000000000000001
 50
0.0
 51
90.0
1001
GENIUS_GENOREF_13
1005
0
  0
LINE
  5
1C1D9
  8
AM_0N
 10
360.90746605776508
 20
303.23168082323588
 30
0.0
 11
346.50746605776499
 21
303.23168082323588
 31
0.0
1001
GENIUS_GENOREF_13
1005
0
  0
LINE
  5
1C1DA
  8
AM_0N
 10
346.50746605776499
 20
306.23168082323588
 30
0.0
 11
344.00746605776482
 21
306.23168082323588
 31
0.0
1001
GENIUS_GENOREF_13
1005
0
  0
LINE
  5
1C1DC
  8
AM_0
 10
188.0079199683102
 20
334.73290305929038
 30
0.0
 11
193.00792011877351
 21
334.73288112549108
 31
0.0
  0
LINE
  5
1C1DF
  8
AM_0
 10
390.50741291405677
 20
252.23320308825771
 30
0.0
 11
390.50739975377729
 21
258.23320308825771
 31
0.0
  0
LINE
  5
1C1E0
  8
AM_0
 10
171.00816794726529
 20
392.23362860226621
 30
0.0
 11
171.00794860927849
 21
342.2336286027471
 31
0.0
  0
LINE
  5
1C1E1
  8
AM_0
 10
171.00816794726529
 20
392.23362860226621
 30
0.0
 11
188.00818088383701
 21
399.73420499596091
 31
0.0
  0
LINE
  5
1C1E2
  8
AM_0
 10
188.0082051134043
 20
399.73420499585472
 30
0.0
 11
193.00820526386761
 21
399.73418306205531
 31
0.0
  0
LINE
  5
1C1E3
  8
0
 10
157.00816356064021
 20
391.23369001691202
 30
0.0
 11
157.00815040036099
 21
388.23369001812051
 31
0.0
  0
LINE
  5
1C1E4
  8
AM_0
 10
101.0079661471122
 20
346.23393567589028
 30
0.0
 11
101.0081635724686
 21
391.23393567545702
 31
0.0
  0
LINE
  5
1D1E2
  8
AM_0
 10
-63.904577399138482
 20
453.23397169134938
 30
0.0
 11
-106.54907813156029
 21
453.23397169134938
 31
0.0
  0
LINE
  5
1D1E3
  8
AM_0
 10
-16.89865446038754
 20
258.23396406195479
 30
0.0
 11
-250.8986309867519
 21
258.23396406195491
 31
0.0
  0
LINE
  5
1D1E4
  8
AM_0
 10
-16.89865446038754
 20
252.23396406195479
 30
0.0
 11
-250.8986309867519
 21
252.23396406195491
 31
0.0
  0
LINE
  5
1D1E5
  8
ﾁｭｳｼﾝｾﾝ1
 10
-252.8347491471857
 20
367.23396406195479
 30
0.0
 11
-11.89865446038754
 21
367.23396406195479
 31
0.0
  0
LINE
  5
1D1E6
  8
AM_0
 10
-235.89863053521711
 20
461.23584686342929
 30
0.0
 11
-31.898654911922339
 21
461.23584686342929
 31
0.0
  0
ARC
  5
1D1E7
  8
AM_0
 10
-100.89865698898249
 20
367.23396406195491
 30
0.0
 40
60.0
 50
270.0
 51
293.55646430910002
  0
LINE
  5
1D1E8
  8
ﾁｭｳｼﾝｾﾝ1
 10
-512.23999999999978
 20
354.23371710942899
 30
0.0
 11
-229.48427714629329
 21
354.2337036745169
 31
0.0
  0
LINE
  5
1D1E9
  8
ﾁｭｳｼﾝｾﾝ1
 10
-206.39864808781411
 20
237.98396406195491
 30
0.0
 11
-206.3986382176046
 21
272.48396406195491
 31
0.0
  0
LINE
  5
1D1EA
  8
AM_0
 10
-262.89862491067828
 20
426.23514367451679
 30
0.0
 11
-250.89863098675201
 21
426.23514367451679
 31
0.0
  0
LINE
  5
1D1EB
  8
AM_0
 10
-250.89863098675201
 20
442.23546367451678
 30
0.0
 11
-262.89862491067839
 21
442.23546367451678
 31
0.0
  0
LINE
  5
1D1EC
  8
AM_0
 10
-250.8986309867519
 20
275.23212126048043
 30
0.0
 11
-262.89862491067839
 21
275.2321212604802
 31
0.0
  0
LINE
  5
1D1ED
  8
AM_0
 10
-261.47005348167841
 20
290.31826744055383
 30
0.0
 11
-251.89917996171019
 21
290.31818523227747
 31
0.0
  0
LINE
  5
1D1EE
  8
AM_0
 10
-262.89862491067828
 20
282.23226367451713
 30
0.0
 11
-250.89863098675201
 21
282.23226367451713
 31
0.0
  0
LINE
  5
1D1EF
  8
AM_0
 10
-261.47005348167841
 20
316.31878821542961
 30
0.0
 11
-251.89917996171019
 21
316.3187060071532
 31
0.0
  0
LINE
  5
1D1F0
  8
AM_0
 10
-262.89862491067839
 20
354.2337036745169
 30
0.0
 11
-262.89862491067839
 21
442.23546367451678
 31
0.0
  0
LINE
  5
1D1F1
  8
AM_0
 10
-279.19862491556881
 20
472.23608347741771
 30
0.0
 11
-279.19862491556859
 21
419.73503347741757
 31
0.0
  0
LINE
  5
1D1F2
  8
AM_0
 10
-276.8986249148785
 20
472.23608347741771
 30
0.0
 11
-276.8986249148785
 21
354.2337208533358
 31
0.0
  0
LINE
  5
1D1F3
  8
AM_0
 10
-276.8986249148785
 20
266.23194367451703
 30
0.0
 11
-276.8986249148785
 21
354.2337208533358
 31
0.0
  0
LINE
  5
1D1F4
  8
AM_0
 10
-262.89862491067839
 20
354.2337036745169
 30
0.0
 11
-262.89862491067839
 21
266.23194367451703
 31
0.0
  0
LINE
  5
1D1F5
  8
AM_0
 10
-276.8986249148785
 20
266.23194367451703
 30
0.0
 11
-262.89862491067839
 21
266.23194367451703
 31
0.0
  0
LINE
  5
1D1F6
  8
AM_0
 10
-276.8986249148785
 20
315.17198723204302
 30
0.0
 11
-262.89862491067839
 21
315.17198723204302
 31
0.0
  0
LINE
  5
1D1F7
  8
AM_0
 10
-279.19862491556859
 20
419.73503347741757
 30
0.0
 11
-276.8986249148785
 21
419.73503347741757
 31
0.0
  0
LINE
  5
1D1F8
  8
AM_0
 10
-276.8986249148785
 20
442.23546367451678
 30
0.0
 11
-262.89862491067839
 21
442.23546367451678
 31
0.0
  0
LINE
  5
1D1F9
  8
AM_0
 10
-279.19862491556859
 20
442.73549347741789
 30
0.0
 11
-276.8986249148785
 21
442.73549347741761
 31
0.0
  0
LINE
  5
1D1FA
  8
AM_0
 10
-279.19862491556859
 20
472.23608347741771
 30
0.0
 11
-276.8986249148785
 21
472.23608347741771
 31
0.0
  0
ARC
  5
1D1FB
  8
AM_0
 10
-133.8986569889824
 20
451.23397169134932
 30
0.0
 40
20.0
 50
192.37362283742351
 51
347.62637716257638
  0
POLYLINE
  5
1D1FD
  8
AM_0
 10
-223.89863017398923
 20
443.23548632697663
 30
0.0
 66
     1
 70
     8
  0
VERTEX
  8
AM_0
  5
1E846
 10
-223.899
 20
443.235
 30
0.000000
  70
    32
  0
VERTEX
  8
AM_0
  5
1E847
 10
-223.909
 20
443.677
 30
0.000000
  70
    32
  0
VERTEX
  8
AM_0
  5
1E848
 10
-223.942
 20
444.118
 30
0.000000
  70
    32
  0
VERTEX
  8
AM_0
  5
1E849
 10
-223.996
 20
444.556
 30
0.000000
  70
    32
  0
VERTEX
  8
AM_0
  5
1E84A
 10
-224.072
 20
444.991
 30
0.000000
  70
    32
  0
VERTEX
  8
AM_0
  5
1E84B
 10
-224.168
 20
445.422
 30
0.000000
  70
    32
  0
VERTEX
  8
AM_0
  5
1E84C
 10
-224.286
 20
445.848
 30
0.000000
  70
    32
  0
VERTEX
  8
AM_0
  5
1E84D
 10
-224.425
 20
446.268
 30
0.000000
  70
    32
  0
VERTEX
  8
AM_0
  5
1E84E
 10
-224.584
 20
446.680
 30
0.000000
  70
    32
  0
VERTEX
  8
AM_0
  5
1E84F
 10
-224.763
 20
447.084
 30
0.000000
  70
    32
  0
VERTEX
  8
AM_0
  5
1E850
 10
-224.961
 20
447.478
 30
0.000000
  70
    32
  0
VERTEX
  8
AM_0
  5
1E851
 10
-225.179
 20
447.863
 30
0.000000
  70
    32
  0
VERTEX
  8
AM_0
  5
1E852
 10
-225.415
 20
448.236
 30
0.000000
  70
    32
  0
VERTEX
  8
AM_0
  5
1E853
 10
-225.670
 20
448.597
 30
0.000000
  70
    32
  0
VERTEX
  8
AM_0
  5
1E854
 10
-225.942
 20
448.945
 30
0.000000
  70
    32
  0
VERTEX
  8
AM_0
  5
1E855
 10
-226.230
 20
449.280
 30
0.000000
  70
    32
  0
VERTEX
  8
AM_0
  5
1E856
 10
-226.535
 20
449.600
 30
0.000000
  70
    32
  0
VERTEX
  8
AM_0
  5
1E857
 10
-226.855
 20
449.904
 30
0.000000
  70
    32
  0
VERTEX
  8
AM_0
  5
1E858
 10
-227.189
 20
450.193
 30
0.000000
  70
    32
  0
VERTEX
  8
AM_0
  5
1E859
 10
-227.537
 20
450.464
 30
0.000000
  70
    32
  0
VERTEX
  8
AM_0
  5
1E85A
 10
-227.898
 20
450.719
 30
0.000000
  70
    32
  0
VERTEX
  8
AM_0
  5
1E85B
 10
-228.272
 20
450.955
 30
0.000000
  70
    32
  0
VERTEX
  8
AM_0
  5
1E85C
 10
-228.656
 20
451.173
 30
0.000000
  70
    32
  0
VERTEX
  8
AM_0
  5
1E85D
 10
-229.051
 20
451.372
 30
0.000000
  70
    32
  0
VERTEX
  8
AM_0
  5
1E85E
 10
-229.454
 20
451.551
 30
0.000000
  70
    32
  0
VERTEX
  8
AM_0
  5
1E85F
 10
-229.867
 20
451.710
 30
0.000000
  70
    32
  0
VERTEX
  8
AM_0
  5
1E860
 10
-230.286
 20
451.848
 30
0.000000
  70
    32
  0
VERTEX
  8
AM_0
  5
1E861
 10
-230.712
 20
451.966
 30
0.000000
  70
    32
  0
VERTEX
  8
AM_0
  5
1E862
 10
-231.143
 20
452.063
 30
0.000000
  70
    32
  0
VERTEX
  8
AM_0
  5
1E863
 10
-231.578
 20
452.138
 30
0.000000
  70
    32
  0
VERTEX
  8
AM_0
  5
1E864
 10
-232.016
 20
452.192
 30
0.000000
  70
    32
  0
VERTEX
  8
AM_0
  5
1E865
 10
-232.457
 20
452.225
 30
0.000000
  70
    32
  0
VERTEX
  8
AM_0
  5
1E866
 10
-232.899
 20
452.236
 30
0.000000
  70
    32
  0
VERTEX
  8
AM_0
  5
1E867
 10
-233.340
 20
452.225
 30
0.000000
  70
    32
  0
VERTEX
  8
AM_0
  5
1E868
 10
-233.781
 20
452.192
 30
0.000000
  70
    32
  0
VERTEX
  8
AM_0
  5
1E869
 10
-234.219
 20
452.138
 30
0.000000
  70
    32
  0
VERTEX
  8
AM_0
  5
1E86A
 10
-234.654
 20
452.063
 30
0.000000
  70
    32
  0
VERTEX
  8
AM_0
  5
1E86B
 10
-235.085
 20
451.966
 30
0.000000
  70
    32
  0
VERTEX
  8
AM_0
  5
1E86C
 10
-235.511
 20
451.848
 30
0.000000
  70
    32
  0
VERTEX
  8
AM_0
  5
1E86D
 10
-235.931
 20
451.710
 30
0.000000
  70
    32
  0
VERTEX
  8
AM_0
  5
1E86E
 10
-236.343
 20
451.551
 30
0.000000
  70
    32
  0
VERTEX
  8
AM_0
  5
1E86F
 10
-236.747
 20
451.372
 30
0.000000
  70
    32
  0
VERTEX
  8
AM_0
  5
1E870
 10
-237.141
 20
451.173
 30
0.000000
  70
    32
  0
VERTEX
  8
AM_0
  5
1E871
 10
-237.526
 20
450.955
 30
0.000000
  70
    32
  0
VERTEX
  8
AM_0
  5
1E872
 10
-237.899
 20
450.719
 30
0.000000
  70
    32
  0
VERTEX
  8
AM_0
  5
1E873
 10
-238.260
 20
450.464
 30
0.000000
  70
    32
  0
VERTEX
  8
AM_0
  5
1E874
 10
-238.608
 20
450.193
 30
0.000000
  70
    32
  0
VERTEX
  8
AM_0
  5
1E875
 10
-238.943
 20
449.904
 30
0.000000
  70
    32
  0
VERTEX
  8
AM_0
  5
1E876
 10
-239.263
 20
449.600
 30
0.000000
  70
    32
  0
VERTEX
  8
AM_0
  5
1E877
 10
-239.567
 20
449.280
 30
0.000000
  70
    32
  0
VERTEX
  8
AM_0
  5
1E878
 10
-239.856
 20
448.945
 30
0.000000
  70
    32
  0
VERTEX
  8
AM_0
  5
1E879
 10
-240.127
 20
448.597
 30
0.000000
  70
    32
  0
VERTEX
  8
AM_0
  5
1E87A
 10
-240.382
 20
448.236
 30
0.000000
  70
    32
  0
VERTEX
  8
AM_0
  5
1E87B
 10
-240.618
 20
447.863
 30
0.000000
  70
    32
  0
VERTEX
  8
AM_0
  5
1E87C
 10
-240.836
 20
447.478
 30
0.000000
  70
    32
  0
VERTEX
  8
AM_0
  5
1E87D
 10
-241.035
 20
447.084
 30
0.000000
  70
    32
  0
VERTEX
  8
AM_0
  5
1E87E
 10
-241.214
 20
446.680
 30
0.000000
  70
    32
  0
VERTEX
  8
AM_0
  5
1E87F
 10
-241.373
 20
446.268
 30
0.000000
  70
    32
  0
VERTEX
  8
AM_0
  5
1E880
 10
-241.511
 20
445.848
 30
0.000000
  70
    32
  0
VERTEX
  8
AM_0
  5
1E881
 10
-241.629
 20
445.422
 30
0.000000
  70
    32
  0
VERTEX
  8
AM_0
  5
1E882
 10
-241.726
 20
444.991
 30
0.000000
  70
    32
  0
VERTEX
  8
AM_0
  5
1E883
 10
-241.801
 20
444.556
 30
0.000000
  70
    32
  0
VERTEX
  8
AM_0
  5
1E884
 10
-241.855
 20
444.118
 30
0.000000
  70
    32
  0
VERTEX
  8
AM_0
  5
1E885
 10
-241.888
 20
443.677
 30
0.000000
  70
    32
  0
VERTEX
  8
AM_0
  5
1E886
 10
-241.899
 20
443.235
 30
0.000000
  70
    32
  0
VERTEX
  8
AM_0
  5
1E887
 10
-241.888
 20
442.794
 30
0.000000
  70
    32
  0
VERTEX
  8
AM_0
  5
1E888
 10
-241.855
 20
442.353
 30
0.000000
  70
    32
  0
VERTEX
  8
AM_0
  5
1E889
 10
-241.801
 20
441.915
 30
0.000000
  70
    32
  0
VERTEX
  8
AM_0
  5
1E88A
 10
-241.726
 20
441.480
 30
0.000000
  70
    32
  0
VERTEX
  8
AM_0
  5
1E88B
 10
-241.629
 20
441.049
 30
0.000000
  70
    32
  0
VERTEX
  8
AM_0
  5
1E88C
 10
-241.511
 20
440.623
 30
0.000000
  70
    32
  0
VERTEX
  8
AM_0
  5
1E88D
 10
-241.373
 20
440.203
 30
0.000000
  70
    32
  0
VERTEX
  8
AM_0
  5
1E88E
 10
-241.214
 20
439.791
 30
0.000000
  70
    32
  0
VERTEX
  8
AM_0
  5
1E88F
 10
-241.035
 20
439.387
 30
0.000000
  70
    32
  0
VERTEX
  8
AM_0
  5
1E890
 10
-240.836
 20
438.993
 30
0.000000
  70
    32
  0
VERTEX
  8
AM_0
  5
1E891
 10
-240.618
 20
438.608
 30
0.000000
  70
    32
  0
VERTEX
  8
AM_0
  5
1E892
 10
-240.382
 20
438.235
 30
0.000000
  70
    32
  0
VERTEX
  8
AM_0
  5
1E893
 10
-240.127
 20
437.874
 30
0.000000
  70
    32
  0
VERTEX
  8
AM_0
  5
1E894
 10
-239.856
 20
437.526
 30
0.000000
  70
    32
  0
VERTEX
  8
AM_0
  5
1E895
 10
-239.567
 20
437.191
 30
0.000000
  70
    32
  0
VERTEX
  8
AM_0
  5
1E896
 10
-239.263
 20
436.871
 30
0.000000
  70
    32
  0
VERTEX
  8
AM_0
  5
1E897
 10
-238.943
 20
436.567
 30
0.000000
  70
    32
  0
VERTEX
  8
AM_0
  5
1E898
 10
-238.608
 20
436.278
 30
0.000000
  70
    32
  0
VERTEX
  8
AM_0
  5
1E899
 10
-238.260
 20
436.006
 30
0.000000
  70
    32
  0
VERTEX
  8
AM_0
  5
1E89A
 10
-237.899
 20
435.752
 30
0.000000
  70
    32
  0
VERTEX
  8
AM_0
  5
1E89B
 10
-237.526
 20
435.516
 30
0.000000
  70
    32
  0
VERTEX
  8
AM_0
  5
1E89C
 10
-237.141
 20
435.298
 30
0.000000
  70
    32
  0
VERTEX
  8
AM_0
  5
1E89D
 10
-236.747
 20
435.099
 30
0.000000
  70
    32
  0
VERTEX
  8
AM_0
  5
1E89E
 10
-236.343
 20
434.920
 30
0.000000
  70
    32
  0
VERTEX
  8
AM_0
  5
1E89F
 10
-235.931
 20
434.761
 30
0.000000
  70
    32
  0
VERTEX
  8
AM_0
  5
1E8A0
 10
-235.511
 20
434.623
 30
0.000000
  70
    32
  0
VERTEX
  8
AM_0
  5
1E8A1
 10
-235.085
 20
434.505
 30
0.000000
  70
    32
  0
VERTEX
  8
AM_0
  5
1E8A2
 10
-234.654
 20
434.408
 30
0.000000
  70
    32
  0
VERTEX
  8
AM_0
  5
1E8A3
 10
-234.219
 20
434.333
 30
0.000000
  70
    32
  0
VERTEX
  8
AM_0
  5
1E8A4
 10
-233.781
 20
434.279
 30
0.000000
  70
    32
  0
VERTEX
  8
AM_0
  5
1E8A5
 10
-233.340
 20
434.246
 30
0.000000
  70
    32
  0
VERTEX
  8
AM_0
  5
1E8A6
 10
-232.899
 20
434.235
 30
0.000000
  70
    32
  0
VERTEX
  8
AM_0
  5
1E8A7
 10
-232.457
 20
434.246
 30
0.000000
  70
    32
  0
VERTEX
  8
AM_0
  5
1E8A8
 10
-232.016
 20
434.279
 30
0.000000
  70
    32
  0
VERTEX
  8
AM_0
  5
1E8A9
 10
-231.578
 20
434.333
 30
0.000000
  70
    32
  0
VERTEX
  8
AM_0
  5
1E8AA
 10
-231.143
 20
434.408
 30
0.000000
  70
    32
  0
VERTEX
  8
AM_0
  5
1E8AB
 10
-230.712
 20
434.505
 30
0.000000
  70
    32
  0
VERTEX
  8
AM_0
  5
1E8AC
 10
-230.286
 20
434.623
 30
0.000000
  70
    32
  0
VERTEX
  8
AM_0
  5
1E8AD
 10
-229.867
 20
434.761
 30
0.000000
  70
    32
  0
VERTEX
  8
AM_0
  5
1E8AE
 10
-229.454
 20
434.920
 30
0.000000
  70
    32
  0
VERTEX
  8
AM_0
  5
1E8AF
 10
-229.051
 20
435.099
 30
0.000000
  70
    32
  0
VERTEX
  8
AM_0
  5
1E8B0
 10
-228.656
 20
435.298
 30
0.000000
  70
    32
  0
VERTEX
  8
AM_0
  5
1E8B1
 10
-228.272
 20
435.516
 30
0.000000
  70
    32
  0
VERTEX
  8
AM_0
  5
1E8B2
 10
-227.898
 20
435.752
 30
0.000000
  70
    32
  0
VERTEX
  8
AM_0
  5
1E8B3
 10
-227.537
 20
436.006
 30
0.000000
  70
    32
  0
VERTEX
  8
AM_0
  5
1E8B4
 10
-227.189
 20
436.278
 30
0.000000
  70
    32
  0
VERTEX
  8
AM_0
  5
1E8B5
 10
-226.855
 20
436.567
 30
0.000000
  70
    32
  0
VERTEX
  8
AM_0
  5
1E8B6
 10
-226.535
 20
436.871
 30
0.000000
  70
    32
  0
VERTEX
  8
AM_0
  5
1E8B7
 10
-226.230
 20
437.191
 30
0.000000
  70
    32
  0
VERTEX
  8
AM_0
  5
1E8B8
 10
-225.942
 20
437.526
 30
0.000000
  70
    32
  0
VERTEX
  8
AM_0
  5
1E8B9
 10
-225.670
 20
437.874
 30
0.000000
  70
    32
  0
VERTEX
  8
AM_0
  5
1E8BA
 10
-225.415
 20
438.235
 30
0.000000
  70
    32
  0
VERTEX
  8
AM_0
  5
1E8BB
 10
-225.179
 20
438.608
 30
0.000000
  70
    32
  0
VERTEX
  8
AM_0
  5
1E8BC
 10
-224.961
 20
438.993
 30
0.000000
  70
    32
  0
VERTEX
  8
AM_0
  5
1E8BD
 10
-224.763
 20
439.387
 30
0.000000
  70
    32
  0
VERTEX
  8
AM_0
  5
1E8BE
 10
-224.584
 20
439.791
 30
0.000000
  70
    32
  0
VERTEX
  8
AM_0
  5
1E8BF
 10
-224.425
 20
440.203
 30
0.000000
  70
    32
  0
VERTEX
  8
AM_0
  5
1E8C0
 10
-224.286
 20
440.623
 30
0.000000
  70
    32
  0
VERTEX
  8
AM_0
  5
1E8C1
 10
-224.168
 20
441.049
 30
0.000000
  70
    32
  0
VERTEX
  8
AM_0
  5
1E8C2
 10
-224.072
 20
441.480
 30
0.000000
  70
    32
  0
VERTEX
  8
AM_0
  5
1E8C3
 10
-223.996
 20
441.915
 30
0.000000
  70
    32
  0
VERTEX
  8
AM_0
  5
1E8C4
 10
-223.942
 20
442.353
 30
0.000000
  70
    32
  0
VERTEX
  8
AM_0
  5
1E8C5
 10
-223.909
 20
442.794
 30
0.000000
  70
    32
  0
VERTEX
  8
AM_0
  5
1E8C6
 10
-223.899
 20
443.235
 30
0.000000
  70
    32
  0
SEQEND
  8
AM_0
  5
1E8C7
  0
LINE
  5
1D1FE
  8
AM_0
 10
-211.574865485076
 20
447.46669874213069
 30
0.0
 11
-221.69338049972441
 21
412.65213880560719
 31
0.0
  0
LINE
  5
1D1FF
  8
AM_0
 10
-250.89863098675201
 20
446.2355464163856
 30
0.0
 11
-250.8986309867519
 21
252.23396406195491
 31
0.0
  0
LINE
  5
1D200
  8
ﾁｭｳｼﾝｾﾝ1
 10
-100.89865698898249
 20
466.23584686342912
 30
0.0
 11
-100.89865698898249
 21
245.232126405006
 31
0.0
  0
LINE
  5
1D201
  8
AM_0
 10
-164.89864272356979
 20
294.73387582414438
 30
0.0
 11
-170.89864272356971
 21
294.73387582414438
 31
0.0
  0
LINE
  5
1D202
  8
AM_0
 10
-164.89864272356979
 20
268.23396406195491
 30
0.0
 11
-170.89864272356971
 21
268.23396406195491
 31
0.0
  0
ARC
  5
1D203
  8
AM_0
 10
-166.89862845815691
 20
367.23396406195491
 30
0.0
 40
60.0
 50
246.44353569089921
 51
270.0
  0
ARC
  5
1D204
  8
AM_0
 10
-234.89867224777149
 20
343.58355817816579
 30
0.0
 40
8.0000000000000089
 50
179.99999749551819
 51
257.62637465809939
  0
LINE
  5
1D205
  8
AM_0
 10
-190.87778607472069
 20
312.23396406195502
 30
0.0
 11
-240.8986309867519
 21
312.23396406195491
 31
0.0
  0
LINE
  5
1D206
  8
AM_0N
 10
-220.89863044491
 20
284.30423856665732
 30
0.0
 11
-220.89863044491
 21
298.16064502720872
 31
0.0
  0
LINE
  5
1D207
  8
AM_0N
 10
-244.89863044491011
 20
298.16064502720889
 30
0.0
 11
-244.89863044491011
 21
284.3042385666576
 31
0.0
  0
CIRCLE
  5
1D208
  8
AM_0N
 10
-232.89863044491011
 20
291.23244179693319
 30
0.0
 40
6.9174682452695491
  0
CIRCLE
  5
1D209
  8
AM_12N
 62
     2
 10
-232.89863044491011
 20
291.23244179693319
 30
0.0
 40
6.2999999999999519
  0
CIRCLE
  5
1D20A
  8
AM_0N
 10
-232.89863044491011
 20
291.23244179693319
 30
0.0
 40
12.0
  0
CIRCLE
  5
1D20B
  8
AM_0
 10
-232.89863044491011
 20
291.23244179693319
 30
0.0
 40
15.0
  0
LINE
  5
1D20E
  8
AM_0N
 10
-244.89863044491011
 20
284.3042385666576
 30
0.0
 11
-232.89863044491011
 21
277.37603533638207
 31
0.0
  0
LINE
  5
1D20F
  8
ｶｸﾚｾﾝ2
 10
-215.8986440109889
 20
252.23396406195491
 30
0.0
 11
-215.89864229443069
 21
258.23396406195479
 31
0.0
  0
LINE
  5
1D210
  8
AM_0N
 10
-232.89863044491011
 20
277.37603533638207
 30
0.0
 11
-220.89863044491
 21
284.30423856665732
 31
0.0
  0
ARC
  5
1D211
  8
AM_0N
 10
-240.89867224777129
 20
316.23396406195491
 30
0.0
 40
4.6188021535170032
 50
299.99999999995532
 51
245.13021858310771
  0
LINE
  5
1D212
  8
AM_0N
 10
-238.5892711710128
 20
312.23396406195491
 30
0.0
 11
-236.27987009425431
 21
316.23396406195491
 31
0.0
  0
LINE
  5
1D213
  8
AM_0N
 10
-236.27987009425431
 20
316.23396406195491
 30
0.0
 11
-238.58927117101311
 21
320.23396406195508
 31
0.0
  0
ARC
  5
1D214
  8
AM_0N
 10
-240.89867224777129
 20
316.23396406195491
 30
0.0
 40
8.0
 50
330.00000000000392
 51
225.58486026619829
  0
ARC
  5
1D215
  8
AM_0
 10
-240.89867224777149
 20
316.23396406195491
 30
0.0
 40
13.0
 50
342.07978686061028
 51
90.000005008950424
  0
ARC
  5
1D216
  8
AM_0
 10
-240.89867224777149
 20
316.23396406195491
 30
0.0
 40
19.999999999999989
 50
16.205985517972941
 51
77.626379667053456
  0
LINE
  5
1D217
  8
AM_0N
 10
-232.89863044490991
 20
305.08884825748407
 30
0.0
 11
-244.89863044491011
 21
298.16064502720889
 31
0.0
  0
LINE
  5
1D218
  8
AM_0N
 10
-245.5174744012883
 20
316.23396406195491
 30
0.0
 11
-243.20807332452981
 21
312.23396406195491
 31
0.0
  0
ARC
  5
1D219
  8
AM_0
 10
-240.8986309867519
 20
302.23396406195491
 30
0.0
 40
10.0
 50
90.0
 51
180.0
1001
GENIUS_GENOBJ-N-FIL_13
1002
{
1000
OWNER
1000
GEN
1002
}
1001
GENIUS_GENODEF_13
1002
{
1000
HIER
1070
     0
1002
}
1002
{
1000
MANEDIT
1070
     0
1002
}
1002
{
1000
NOSEL
1070
     0
1002
}
1002
{
1000
BEHIND
1070
     0
1002
}
1002
{
1000
OTHER
1070
     0
1002
}
1002
{
1000
REACTOR
1002
}
  0
LINE
  5
1D21A
  8
AM_0N
 10
-243.20807332452981
 20
312.23396406195491
 30
0.0
 11
-238.5892711710128
 21
312.23396406195491
 31
0.0
  0
LINE
  5
1D21B
  8
AM_0
 10
-240.89867224777129
 20
329.23396406195491
 30
0.0
 11
-247.89867224777129
 21
329.23396406195491
 31
0.0
  0
ARC
  5
1D21C
  8
AM_0
 10
-247.89867224777149
 20
332.23396406195479
 30
0.0
 40
3.0000000000000031
 50
179.99999749551819
 51
270.0
  0
LINE
  5
1D21D
  8
AM_0N
 10
-238.58927117101311
 20
320.23396406195508
 30
0.0
 11
-243.20807332452941
 21
320.23396406195508
 31
0.0
  0
LINE
  5
1D21E
  8
AM_0N
 10
-243.20807332452941
 20
320.23396406195508
 30
0.0
 11
-245.5174744012883
 21
316.23396406195491
 31
0.0
  0
LINE
  5
1D21F
  8
AM_0
 10
-218.9085137808693
 20
312.23396406195491
 30
0.0
 11
-221.69338049972441
 21
321.81579694769721
 31
0.0
  0
LINE
  5
1D220
  8
AM_0N
 10
-220.89863044491
 20
298.16064502720872
 30
0.0
 11
-232.89863044490991
 21
305.08884825748407
 31
0.0
  0
LINE
  5
1D221
  8
AM_0
 10
-170.89864272356971
 20
258.23396406195479
 30
0.0
 11
-170.89864272356971
 21
294.73387582414438
 31
0.0
  0
LINE
  5
1D222
  8
ｶｸﾚｾﾝ2
 10
-196.89864401098799
 20
252.23396406195491
 30
0.0
 11
-196.89864229442989
 21
258.23396406195479
 31
0.0
  0
LINE
  5
1D223
  8
AM_0
 10
-242.89867224777129
 20
390.8843775751385
 30
0.0
 11
-242.89867224777129
 21
343.58355817816579
 31
0.0
  0
LINE
  5
1D224
  8
AM_0N
 10
-238.5892711710128
 20
414.23397169134938
 30
0.0
 11
-236.27987009425431
 21
418.23397169134938
 31
0.0
  0
LINE
  5
1D225
  8
AM_0N
 10
-236.27987009425431
 20
418.23397169134938
 30
0.0
 11
-238.58927117101311
 21
422.23397169134961
 31
0.0
  0
CIRCLE
  5
1D226
  8
AM_0N
 10
-240.89867224777129
 20
418.23397169134938
 30
0.0
 40
4.6188021535170032
  0
ARC
  5
1D227
  8
AM_0
 10
-240.89867224777149
 20
418.23397169134932
 30
0.0
 40
20.000000000000011
 50
282.37362534190061
 51
343.79401266078872
  0
CIRCLE
  5
1D228
  8
AM_0N
 10
-240.89867224777129
 20
418.23397169134938
 30
0.0
 40
8.0
  0
ARC
  5
1D229
  8
AM_0
 10
-240.89867224777149
 20
418.23397169134932
 30
0.0
 40
13.0
 50
270.0
 51
90.000005008950424
  0
LINE
  5
1D22A
  8
AM_0
 10
-240.89867224777129
 20
405.23397169134938
 30
0.0
 11
-247.89867224777129
 21
405.23397169134938
 31
0.0
  0
ARC
  5
1D22B
  8
AM_0
 10
-247.89867224777149
 20
402.23397169134932
 30
0.0
 40
3.0000000000000111
 50
90.000005008950424
 51
180.000000683243
  0
ARC
  5
1D22C
  8
AM_0
 10
-234.89867224777149
 20
390.88437757513839
 30
0.0
 40
7.999999999999992
 50
102.3736203329465
 51
179.99999749551819
  0
LINE
  5
1D22D
  8
AM_0
 10
-240.89867224777129
 20
431.23397169134938
 30
0.0
 11
-247.89867224777129
 21
431.23397169134938
 31
0.0
  0
ARC
  5
1D22E
  8
AM_0
 10
-247.89867224777149
 20
434.23397169134921
 30
0.0
 40
3.0000000000000031
 50
179.99999749551819
 51
270.0
  0
LINE
  5
1D22F
  8
AM_0N
 10
-238.58927117101311
 20
422.23397169134961
 30
0.0
 11
-243.20807332452941
 21
422.23397169134961
 31
0.0
  0
LINE
  5
1D230
  8
AM_0N
 10
-245.5174744012883
 20
418.23397169134938
 30
0.0
 11
-243.20807332452981
 21
414.23397169134938
 31
0.0
  0
LINE
  5
1D231
  8
AM_0N
 10
-243.20807332452981
 20
414.23397169134938
 30
0.0
 11
-238.5892711710128
 21
414.23397169134938
 31
0.0
  0
LINE
  5
1D232
  8
AM_0N
 10
-243.20807332452941
 20
422.23397169134961
 30
0.0
 11
-245.5174744012883
 21
418.23397169134938
 31
0.0
  0
LINE
  5
1D233
  8
AM_0
 10
-166.89862845815691
 20
307.23396406195491
 30
0.0
 11
-100.89865698898249
 21
307.23396406195491
 31
0.0
  0
LINE
  5
1D234
  8
AM_0
 10
-164.89864272356979
 20
258.23396406195479
 30
0.0
 11
-164.89864272356979
 21
294.73387582414438
 31
0.0
  0
LINE
  5
1D235
  8
AM_0
 10
-96.898642723569765
 20
258.23396406195479
 30
0.0
 11
-96.898642723569765
 21
294.73387582414438
 31
0.0
  0
LINE
  5
1D236
  8
AM_0
 10
-102.89864272356979
 20
258.23396406195479
 30
0.0
 11
-102.89864272356979
 21
294.73387582414438
 31
0.0
  0
LINE
  5
1D237
  8
AM_0
 10
-102.89864272356969
 20
268.23396406195491
 30
0.0
 11
-96.898642723569765
 21
268.23396406195491
 31
0.0
  0
LINE
  5
1D238
  8
AM_0
 10
-102.89864272356969
 20
294.73387582414438
 30
0.0
 11
-96.898642723569637
 21
294.73387582414438
 31
0.0
  0
LINE
  5
1D239
  8
AM_0
 10
-203.89275183761509
 20
453.23397169134938
 30
0.0
 11
-161.24825110519311
 21
453.23397169134938
 31
0.0
  0
POLYLINE
  5
1D23A
  8
AM_0
 10
-235.89863119088719
 20
461.23584686342934
 30
0.0
 66
     1
 70
     8
  0
VERTEX
  8
AM_0
  5
1E8C8
 10
-235.899
 20
461.236
 30
0.000000
  70
    32
  0
VERTEX
  8
AM_0
  5
1E8C9
 10
-236.083
 20
461.235
 30
0.000000
  70
    32
  0
VERTEX
  8
AM_0
  5
1E8CA
 10
-236.267
 20
461.231
 30
0.000000
  70
    32
  0
VERTEX
  8
AM_0
  5
1E8CB
 10
-236.451
 20
461.226
 30
0.000000
  70
    32
  0
VERTEX
  8
AM_0
  5
1E8CC
 10
-236.635
 20
461.218
 30
0.000000
  70
    32
  0
VERTEX
  8
AM_0
  5
1E8CD
 10
-236.818
 20
461.208
 30
0.000000
  70
    32
  0
VERTEX
  8
AM_0
  5
1E8CE
 10
-237.002
 20
461.195
 30
0.000000
  70
    32
  0
VERTEX
  8
AM_0
  5
1E8CF
 10
-237.186
 20
461.181
 30
0.000000
  70
    32
  0
VERTEX
  8
AM_0
  5
1E8D0
 10
-237.369
 20
461.164
 30
0.000000
  70
    32
  0
VERTEX
  8
AM_0
  5
1E8D1
 10
-237.552
 20
461.144
 30
0.000000
  70
    32
  0
VERTEX
  8
AM_0
  5
1E8D2
 10
-237.735
 20
461.123
 30
0.000000
  70
    32
  0
VERTEX
  8
AM_0
  5
1E8D3
 10
-237.917
 20
461.099
 30
0.000000
  70
    32
  0
VERTEX
  8
AM_0
  5
1E8D4
 10
-238.100
 20
461.073
 30
0.000000
  70
    32
  0
VERTEX
  8
AM_0
  5
1E8D5
 10
-238.282
 20
461.045
 30
0.000000
  70
    32
  0
VERTEX
  8
AM_0
  5
1E8D6
 10
-238.463
 20
461.015
 30
0.000000
  70
    32
  0
VERTEX
  8
AM_0
  5
1E8D7
 10
-238.644
 20
460.982
 30
0.000000
  70
    32
  0
VERTEX
  8
AM_0
  5
1E8D8
 10
-238.825
 20
460.948
 30
0.000000
  70
    32
  0
VERTEX
  8
AM_0
  5
1E8D9
 10
-239.005
 20
460.911
 30
0.000000
  70
    32
  0
VERTEX
  8
AM_0
  5
1E8DA
 10
-239.185
 20
460.871
 30
0.000000
  70
    32
  0
VERTEX
  8
AM_0
  5
1E8DB
 10
-239.365
 20
460.830
 30
0.000000
  70
    32
  0
VERTEX
  8
AM_0
  5
1E8DC
 10
-239.543
 20
460.786
 30
0.000000
  70
    32
  0
VERTEX
  8
AM_0
  5
1E8DD
 10
-239.722
 20
460.740
 30
0.000000
  70
    32
  0
VERTEX
  8
AM_0
  5
1E8DE
 10
-239.899
 20
460.692
 30
0.000000
  70
    32
  0
VERTEX
  8
AM_0
  5
1E8DF
 10
-240.076
 20
460.642
 30
0.000000
  70
    32
  0
VERTEX
  8
AM_0
  5
1E8E0
 10
-240.253
 20
460.590
 30
0.000000
  70
    32
  0
VERTEX
  8
AM_0
  5
1E8E1
 10
-240.429
 20
460.535
 30
0.000000
  70
    32
  0
VERTEX
  8
AM_0
  5
1E8E2
 10
-240.604
 20
460.479
 30
0.000000
  70
    32
  0
VERTEX
  8
AM_0
  5
1E8E3
 10
-240.778
 20
460.420
 30
0.000000
  70
    32
  0
VERTEX
  8
AM_0
  5
1E8E4
 10
-240.952
 20
460.359
 30
0.000000
  70
    32
  0
VERTEX
  8
AM_0
  5
1E8E5
 10
-241.125
 20
460.296
 30
0.000000
  70
    32
  0
VERTEX
  8
AM_0
  5
1E8E6
 10
-241.297
 20
460.231
 30
0.000000
  70
    32
  0
VERTEX
  8
AM_0
  5
1E8E7
 10
-241.468
 20
460.163
 30
0.000000
  70
    32
  0
VERTEX
  8
AM_0
  5
1E8E8
 10
-241.639
 20
460.094
 30
0.000000
  70
    32
  0
VERTEX
  8
AM_0
  5
1E8E9
 10
-241.809
 20
460.023
 30
0.000000
  70
    32
  0
VERTEX
  8
AM_0
  5
1E8EA
 10
-241.977
 20
459.949
 30
0.000000
  70
    32
  0
VERTEX
  8
AM_0
  5
1E8EB
 10
-242.145
 20
459.873
 30
0.000000
  70
    32
  0
VERTEX
  8
AM_0
  5
1E8EC
 10
-242.312
 20
459.796
 30
0.000000
  70
    32
  0
VERTEX
  8
AM_0
  5
1E8ED
 10
-242.478
 20
459.716
 30
0.000000
  70
    32
  0
VERTEX
  8
AM_0
  5
1E8EE
 10
-242.643
 20
459.634
 30
0.000000
  70
    32
  0
VERTEX
  8
AM_0
  5
1E8EF
 10
-242.807
 20
459.550
 30
0.000000
  70
    32
  0
VERTEX
  8
AM_0
  5
1E8F0
 10
-242.970
 20
459.465
 30
0.000000
  70
    32
  0
VERTEX
  8
AM_0
  5
1E8F1
 10
-243.131
 20
459.377
 30
0.000000
  70
    32
  0
VERTEX
  8
AM_0
  5
1E8F2
 10
-243.292
 20
459.287
 30
0.000000
  70
    32
  0
VERTEX
  8
AM_0
  5
1E8F3
 10
-243.452
 20
459.195
 30
0.000000
  70
    32
  0
VERTEX
  8
AM_0
  5
1E8F4
 10
-243.610
 20
459.102
 30
0.000000
  70
    32
  0
VERTEX
  8
AM_0
  5
1E8F5
 10
-243.767
 20
459.006
 30
0.000000
  70
    32
  0
VERTEX
  8
AM_0
  5
1E8F6
 10
-243.924
 20
458.909
 30
0.000000
  70
    32
  0
VERTEX
  8
AM_0
  5
1E8F7
 10
-244.079
 20
458.809
 30
0.000000
  70
    32
  0
VERTEX
  8
AM_0
  5
1E8F8
 10
-244.232
 20
458.708
 30
0.000000
  70
    32
  0
VERTEX
  8
AM_0
  5
1E8F9
 10
-244.385
 20
458.605
 30
0.000000
  70
    32
  0
VERTEX
  8
AM_0
  5
1E8FA
 10
-244.536
 20
458.500
 30
0.000000
  70
    32
  0
VERTEX
  8
AM_0
  5
1E8FB
 10
-244.686
 20
458.393
 30
0.000000
  70
    32
  0
VERTEX
  8
AM_0
  5
1E8FC
 10
-244.834
 20
458.284
 30
0.000000
  70
    32
  0
VERTEX
  8
AM_0
  5
1E8FD
 10
-244.981
 20
458.173
 30
0.000000
  70
    32
  0
VERTEX
  8
AM_0
  5
1E8FE
 10
-245.127
 20
458.061
 30
0.000000
  70
    32
  0
VERTEX
  8
AM_0
  5
1E8FF
 10
-245.272
 20
457.947
 30
0.000000
  70
    32
  0
VERTEX
  8
AM_0
  5
1E900
 10
-245.415
 20
457.831
 30
0.000000
  70
    32
  0
VERTEX
  8
AM_0
  5
1E901
 10
-245.556
 20
457.713
 30
0.000000
  70
    32
  0
VERTEX
  8
AM_0
  5
1E902
 10
-245.696
 20
457.594
 30
0.000000
  70
    32
  0
VERTEX
  8
AM_0
  5
1E903
 10
-245.835
 20
457.473
 30
0.000000
  70
    32
  0
VERTEX
  8
AM_0
  5
1E904
 10
-245.972
 20
457.350
 30
0.000000
  70
    32
  0
VERTEX
  8
AM_0
  5
1E905
 10
-246.108
 20
457.226
 30
0.000000
  70
    32
  0
VERTEX
  8
AM_0
  5
1E906
 10
-246.242
 20
457.099
 30
0.000000
  70
    32
  0
VERTEX
  8
AM_0
  5
1E907
 10
-246.374
 20
456.972
 30
0.000000
  70
    32
  0
VERTEX
  8
AM_0
  5
1E908
 10
-246.505
 20
456.842
 30
0.000000
  70
    32
  0
VERTEX
  8
AM_0
  5
1E909
 10
-246.635
 20
456.711
 30
0.000000
  70
    32
  0
VERTEX
  8
AM_0
  5
1E90A
 10
-246.762
 20
456.579
 30
0.000000
  70
    32
  0
VERTEX
  8
AM_0
  5
1E90B
 10
-246.888
 20
456.445
 30
0.000000
  70
    32
  0
VERTEX
  8
AM_0
  5
1E90C
 10
-247.013
 20
456.309
 30
0.000000
  70
    32
  0
VERTEX
  8
AM_0
  5
1E90D
 10
-247.136
 20
456.172
 30
0.000000
  70
    32
  0
VERTEX
  8
AM_0
  5
1E90E
 10
-247.257
 20
456.033
 30
0.000000
  70
    32
  0
VERTEX
  8
AM_0
  5
1E90F
 10
-247.376
 20
455.893
 30
0.000000
  70
    32
  0
VERTEX
  8
AM_0
  5
1E910
 10
-247.494
 20
455.752
 30
0.000000
  70
    32
  0
VERTEX
  8
AM_0
  5
1E911
 10
-247.610
 20
455.609
 30
0.000000
  70
    32
  0
VERTEX
  8
AM_0
  5
1E912
 10
-247.724
 20
455.464
 30
0.000000
  70
    32
  0
VERTEX
  8
AM_0
  5
1E913
 10
-247.836
 20
455.318
 30
0.000000
  70
    32
  0
VERTEX
  8
AM_0
  5
1E914
 10
-247.947
 20
455.171
 30
0.000000
  70
    32
  0
VERTEX
  8
AM_0
  5
1E915
 10
-248.055
 20
455.023
 30
0.000000
  70
    32
  0
VERTEX
  8
AM_0
  5
1E916
 10
-248.162
 20
454.873
 30
0.000000
  70
    32
  0
VERTEX
  8
AM_0
  5
1E917
 10
-248.267
 20
454.722
 30
0.000000
  70
    32
  0
VERTEX
  8
AM_0
  5
1E918
 10
-248.371
 20
454.569
 30
0.000000
  70
    32
  0
VERTEX
  8
AM_0
  5
1E919
 10
-248.472
 20
454.416
 30
0.000000
  70
    32
  0
VERTEX
  8
AM_0
  5
1E91A
 10
-248.571
 20
454.261
 30
0.000000
  70
    32
  0
VERTEX
  8
AM_0
  5
1E91B
 10
-248.669
 20
454.105
 30
0.000000
  70
    32
  0
VERTEX
  8
AM_0
  5
1E91C
 10
-248.765
 20
453.947
 30
0.000000
  70
    32
  0
VERTEX
  8
AM_0
  5
1E91D
 10
-248.858
 20
453.789
 30
0.000000
  70
    32
  0
VERTEX
  8
AM_0
  5
1E91E
 10
-248.950
 20
453.629
 30
0.000000
  70
    32
  0
VERTEX
  8
AM_0
  5
1E91F
 10
-249.040
 20
453.468
 30
0.000000
  70
    32
  0
VERTEX
  8
AM_0
  5
1E920
 10
-249.127
 20
453.307
 30
0.000000
  70
    32
  0
VERTEX
  8
AM_0
  5
1E921
 10
-249.213
 20
453.144
 30
0.000000
  70
    32
  0
VERTEX
  8
AM_0
  5
1E922
 10
-249.297
 20
452.980
 30
0.000000
  70
    32
  0
VERTEX
  8
AM_0
  5
1E923
 10
-249.379
 20
452.815
 30
0.000000
  70
    32
  0
VERTEX
  8
AM_0
  5
1E924
 10
-249.458
 20
452.649
 30
0.000000
  70
    32
  0
VERTEX
  8
AM_0
  5
1E925
 10
-249.536
 20
452.482
 30
0.000000
  70
    32
  0
VERTEX
  8
AM_0
  5
1E926
 10
-249.612
 20
452.314
 30
0.000000
  70
    32
  0
VERTEX
  8
AM_0
  5
1E927
 10
-249.685
 20
452.146
 30
0.000000
  70
    32
  0
VERTEX
  8
AM_0
  5
1E928
 10
-249.757
 20
451.976
 30
0.000000
  70
    32
  0
VERTEX
  8
AM_0
  5
1E929
 10
-249.826
 20
451.805
 30
0.000000
  70
    32
  0
VERTEX
  8
AM_0
  5
1E92A
 10
-249.894
 20
451.634
 30
0.000000
  70
    32
  0
VERTEX
  8
AM_0
  5
1E92B
 10
-249.959
 20
451.462
 30
0.000000
  70
    32
  0
VERTEX
  8
AM_0
  5
1E92C
 10
-250.022
 20
451.289
 30
0.000000
  70
    32
  0
VERTEX
  8
AM_0
  5
1E92D
 10
-250.083
 20
451.115
 30
0.000000
  70
    32
  0
VERTEX
  8
AM_0
  5
1E92E
 10
-250.142
 20
450.941
 30
0.000000
  70
    32
  0
VERTEX
  8
AM_0
  5
1E92F
 10
-250.198
 20
450.766
 30
0.000000
  70
    32
  0
VERTEX
  8
AM_0
  5
1E930
 10
-250.253
 20
450.590
 30
0.000000
  70
    32
  0
VERTEX
  8
AM_0
  5
1E931
 10
-250.305
 20
450.413
 30
0.000000
  70
    32
  0
VERTEX
  8
AM_0
  5
1E932
 10
-250.355
 20
450.236
 30
0.000000
  70
    32
  0
VERTEX
  8
AM_0
  5
1E933
 10
-250.403
 20
450.059
 30
0.000000
  70
    32
  0
VERTEX
  8
AM_0
  5
1E934
 10
-250.449
 20
449.880
 30
0.000000
  70
    32
  0
VERTEX
  8
AM_0
  5
1E935
 10
-250.493
 20
449.701
 30
0.000000
  70
    32
  0
VERTEX
  8
AM_0
  5
1E936
 10
-250.534
 20
449.522
 30
0.000000
  70
    32
  0
VERTEX
  8
AM_0
  5
1E937
 10
-250.573
 20
449.342
 30
0.000000
  70
    32
  0
VERTEX
  8
AM_0
  5
1E938
 10
-250.610
 20
449.162
 30
0.000000
  70
    32
  0
VERTEX
  8
AM_0
  5
1E939
 10
-250.645
 20
448.981
 30
0.000000
  70
    32
  0
VERTEX
  8
AM_0
  5
1E93A
 10
-250.678
 20
448.800
 30
0.000000
  70
    32
  0
VERTEX
  8
AM_0
  5
1E93B
 10
-250.708
 20
448.618
 30
0.000000
  70
    32
  0
VERTEX
  8
AM_0
  5
1E93C
 10
-250.736
 20
448.437
 30
0.000000
  70
    32
  0
VERTEX
  8
AM_0
  5
1E93D
 10
-250.762
 20
448.254
 30
0.000000
  70
    32
  0
VERTEX
  8
AM_0
  5
1E93E
 10
-250.786
 20
448.072
 30
0.000000
  70
    32
  0
VERTEX
  8
AM_0
  5
1E93F
 10
-250.807
 20
447.889
 30
0.000000
  70
    32
  0
VERTEX
  8
AM_0
  5
1E940
 10
-250.826
 20
447.706
 30
0.000000
  70
    32
  0
VERTEX
  8
AM_0
  5
1E941
 10
-250.843
 20
447.523
 30
0.000000
  70
    32
  0
VERTEX
  8
AM_0
  5
1E942
 10
-250.858
 20
447.339
 30
0.000000
  70
    32
  0
VERTEX
  8
AM_0
  5
1E943
 10
-250.870
 20
447.155
 30
0.000000
  70
    32
  0
VERTEX
  8
AM_0
  5
1E944
 10
-250.881
 20
446.972
 30
0.000000
  70
    32
  0
VERTEX
  8
AM_0
  5
1E945
 10
-250.888
 20
446.788
 30
0.000000
  70
    32
  0
VERTEX
  8
AM_0
  5
1E946
 10
-250.894
 20
446.604
 30
0.000000
  70
    32
  0
VERTEX
  8
AM_0
  5
1E947
 10
-250.898
 20
446.420
 30
0.000000
  70
    32
  0
VERTEX
  8
AM_0
  5
1E948
 10
-250.899
 20
446.236
 30
0.000000
  70
    32
  0
SEQEND
  8
AM_0
  5
1E949
  0
ARC
  5
1D23C
  8
AM_0
 10
-203.89275183761529
 20
445.23397169134938
 30
0.0
 40
8.0000000000000018
 50
90.000005008950424
 51
163.7940108395502
  0
ARC
  5
1D23D
  8
AM_0
 10
-133.8986569889824
 20
451.23397169134932
 30
0.0
 40
13.000000000000011
 50
179.99999749551819
 51
0.0000025044817295
  0
ARC
  5
1D23E
  8
AM_0
 10
-149.89867224777149
 20
458.23397169134938
 30
0.0
 40
3.0000000000000031
 50
0.0000025044817295
 51
90.000005008950424
  0
ARC
  5
1D23F
  8
AM_0
 10
-161.24825110519339
 20
445.23397169134938
 30
0.0
 40
7.9999999999999858
 50
12.373627846391059
 51
90.000005008950424
  0
LINE
  5
1D240
  8
AM_0N
 10
-138.51745914249921
 20
451.23397169134938
 30
0.0
 11
-136.20805806574069
 21
447.23397169134938
 31
0.0
  0
CIRCLE
  5
1D241
  8
AM_0N
 10
-133.8986569889822
 20
451.23397169134938
 30
0.0
 40
4.6188021535170032
  0
LINE
  5
1D242
  8
AM_0N
 10
-136.20805806574029
 20
455.23397169134961
 30
0.0
 11
-138.51745914249921
 21
451.23397169134938
 31
0.0
  0
CIRCLE
  5
1D243
  8
AM_0N
 10
-133.8986569889822
 20
451.23397169134938
 30
0.0
 40
8.0
  0
LINE
  5
1D244
  8
AM_0
 10
-146.89867224777129
 20
451.23397169134938
 30
0.0
 11
-146.89867224777129
 21
458.23397169134938
 31
0.0
  0
LINE
  5
1D245
  8
AM_0N
 10
-131.5892559122241
 20
455.23397169134961
 30
0.0
 11
-136.20805806574029
 21
455.23397169134961
 31
0.0
  0
LINE
  5
1D246
  8
AM_0N
 10
-136.20805806574069
 20
447.23397169134938
 30
0.0
 11
-131.58925591222371
 21
447.23397169134938
 31
0.0
  0
LINE
  5
1D247
  8
AM_0N
 10
-131.58925591222371
 20
447.23397169134938
 30
0.0
 11
-129.27985483546519
 21
451.23397169134938
 31
0.0
  0
LINE
  5
1D248
  8
AM_0N
 10
-129.27985483546519
 20
451.23397169134938
 30
0.0
 11
-131.5892559122241
 21
455.23397169134961
 31
0.0
  0
ARC
  5
1D249
  8
AM_0
 10
-117.8986569889824
 20
458.23397169134938
 30
0.0
 40
3.0000000000000111
 50
90.000005008950424
 51
180.000000683243
  0
ARC
  5
1D24A
  8
AM_0
 10
-106.54907813156061
 20
445.23397169134938
 30
0.0
 40
8.0000000000000018
 50
90.000005008950424
 51
167.6263753413325
  0
LINE
  5
1D24B
  8
AM_0
 10
-120.8986569889822
 20
451.23397169134938
 30
0.0
 11
-120.8986569889822
 21
458.23397169134938
 31
0.0
  0
LINE
  5
1D24C
  8
ﾁｭｳｼﾝｾﾝ1
 10
-61.398648087814067
 20
237.98396406195491
 30
0.0
 11
-61.398638217604571
 21
272.48396406195479
 31
0.0
  0
POLYLINE
  5
1D24E
  8
AM_0
 10
-25.898654731308412
 20
443.23548632697663
 30
0.0
 66
     1
 70
     8
  0
VERTEX
  8
AM_0
  5
1E94A
 10
-25.8987
 20
443.235
 30
0.000000
  70
    32
  0
VERTEX
  8
AM_0
  5
1E94B
 10
-25.9095
 20
443.677
 30
0.000000
  70
    32
  0
VERTEX
  8
AM_0
  5
1E94C
 10
-25.9420
 20
444.118
 30
0.000000
  70
    32
  0
VERTEX
  8
AM_0
  5
1E94D
 10
-25.9961
 20
444.556
 30
0.000000
  70
    32
  0
VERTEX
  8
AM_0
  5
1E94E
 10
-26.0716
 20
444.991
 30
0.000000
  70
    32
  0
VERTEX
  8
AM_0
  5
1E94F
 10
-26.1684
 20
445.422
 30
0.000000
  70
    32
  0
VERTEX
  8
AM_0
  5
1E950
 10
-26.2862
 20
445.848
 30
0.000000
  70
    32
  0
VERTEX
  8
AM_0
  5
1E951
 10
-26.4248
 20
446.268
 30
0.000000
  70
    32
  0
VERTEX
  8
AM_0
  5
1E952
 10
-26.5837
 20
446.680
 30
0.000000
  70
    32
  0
VERTEX
  8
AM_0
  5
1E953
 10
-26.7628
 20
447.084
 30
0.000000
  70
    32
  0
VERTEX
  8
AM_0
  5
1E954
 10
-26.9614
 20
447.478
 30
0.000000
  70
    32
  0
VERTEX
  8
AM_0
  5
1E955
 10
-27.1791
 20
447.863
 30
0.000000
  70
    32
  0
VERTEX
  8
AM_0
  5
1E956
 10
-27.4154
 20
448.236
 30
0.000000
  70
    32
  0
VERTEX
  8
AM_0
  5
1E957
 10
-27.6698
 20
448.597
 30
0.000000
  70
    32
  0
VERTEX
  8
AM_0
  5
1E958
 10
-27.9416
 20
448.945
 30
0.000000
  70
    32
  0
VERTEX
  8
AM_0
  5
1E959
 10
-28.2301
 20
449.280
 30
0.000000
  70
    32
  0
VERTEX
  8
AM_0
  5
1E95A
 10
-28.5347
 20
449.600
 30
0.000000
  70
    32
  0
VERTEX
  8
AM_0
  5
1E95B
 10
-28.8546
 20
449.904
 30
0.000000
  70
    32
  0
VERTEX
  8
AM_0
  5
1E95C
 10
-29.1891
 20
450.193
 30
0.000000
  70
    32
  0
VERTEX
  8
AM_0
  5
1E95D
 10
-29.5374
 20
450.464
 30
0.000000
  70
    32
  0
VERTEX
  8
AM_0
  5
1E95E
 10
-29.8985
 20
450.719
 30
0.000000
  70
    32
  0
VERTEX
  8
AM_0
  5
1E95F
 10
-30.2717
 20
450.955
 30
0.000000
  70
    32
  0
VERTEX
  8
AM_0
  5
1E960
 10
-30.6561
 20
451.173
 30
0.000000
  70
    32
  0
VERTEX
  8
AM_0
  5
1E961
 10
-31.0507
 20
451.372
 30
0.000000
  70
    32
  0
VERTEX
  8
AM_0
  5
1E962
 10
-31.4545
 20
451.551
 30
0.000000
  70
    32
  0
VERTEX
  8
AM_0
  5
1E963
 10
-31.8666
 20
451.710
 30
0.000000
  70
    32
  0
VERTEX
  8
AM_0
  5
1E964
 10
-32.2861
 20
451.848
 30
0.000000
  70
    32
  0
VERTEX
  8
AM_0
  5
1E965
 10
-32.7118
 20
451.966
 30
0.000000
  70
    32
  0
VERTEX
  8
AM_0
  5
1E966
 10
-33.1428
 20
452.063
 30
0.000000
  70
    32
  0
VERTEX
  8
AM_0
  5
1E967
 10
-33.5781
 20
452.138
 30
0.000000
  70
    32
  0
VERTEX
  8
AM_0
  5
1E968
 10
-34.0165
 20
452.192
 30
0.000000
  70
    32
  0
VERTEX
  8
AM_0
  5
1E969
 10
-34.4570
 20
452.225
 30
0.000000
  70
    32
  0
VERTEX
  8
AM_0
  5
1E96A
 10
-34.8987
 20
452.236
 30
0.000000
  70
    32
  0
VERTEX
  8
AM_0
  5
1E96B
 10
-35.3403
 20
452.225
 30
0.000000
  70
    32
  0
VERTEX
  8
AM_0
  5
1E96C
 10
-35.7808
 20
452.192
 30
0.000000
  70
    32
  0
VERTEX
  8
AM_0
  5
1E96D
 10
-36.2192
 20
452.138
 30
0.000000
  70
    32
  0
VERTEX
  8
AM_0
  5
1E96E
 10
-36.6545
 20
452.063
 30
0.000000
  70
    32
  0
VERTEX
  8
AM_0
  5
1E96F
 10
-37.0855
 20
451.966
 30
0.000000
  70
    32
  0
VERTEX
  8
AM_0
  5
1E970
 10
-37.5112
 20
451.848
 30
0.000000
  70
    32
  0
VERTEX
  8
AM_0
  5
1E971
 10
-37.9307
 20
451.710
 30
0.000000
  70
    32
  0
VERTEX
  8
AM_0
  5
1E972
 10
-38.3428
 20
451.551
 30
0.000000
  70
    32
  0
VERTEX
  8
AM_0
  5
1E973
 10
-38.7467
 20
451.372
 30
0.000000
  70
    32
  0
VERTEX
  8
AM_0
  5
1E974
 10
-39.1412
 20
451.173
 30
0.000000
  70
    32
  0
VERTEX
  8
AM_0
  5
1E975
 10
-39.5256
 20
450.955
 30
0.000000
  70
    32
  0
VERTEX
  8
AM_0
  5
1E976
 10
-39.8988
 20
450.719
 30
0.000000
  70
    32
  0
VERTEX
  8
AM_0
  5
1E977
 10
-40.2599
 20
450.464
 30
0.000000
  70
    32
  0
VERTEX
  8
AM_0
  5
1E978
 10
-40.6082
 20
450.193
 30
0.000000
  70
    32
  0
VERTEX
  8
AM_0
  5
1E979
 10
-40.9427
 20
449.904
 30
0.000000
  70
    32
  0
VERTEX
  8
AM_0
  5
1E97A
 10
-41.2626
 20
449.600
 30
0.000000
  70
    32
  0
VERTEX
  8
AM_0
  5
1E97B
 10
-41.5672
 20
449.280
 30
0.000000
  70
    32
  0
VERTEX
  8
AM_0
  5
1E97C
 10
-41.8557
 20
448.945
 30
0.000000
  70
    32
  0
VERTEX
  8
AM_0
  5
1E97D
 10
-42.1275
 20
448.597
 30
0.000000
  70
    32
  0
VERTEX
  8
AM_0
  5
1E97E
 10
-42.3819
 20
448.236
 30
0.000000
  70
    32
  0
VERTEX
  8
AM_0
  5
1E97F
 10
-42.6182
 20
447.863
 30
0.000000
  70
    32
  0
VERTEX
  8
AM_0
  5
1E980
 10
-42.8359
 20
447.478
 30
0.000000
  70
    32
  0
VERTEX
  8
AM_0
  5
1E981
 10
-43.0346
 20
447.084
 30
0.000000
  70
    32
  0
VERTEX
  8
AM_0
  5
1E982
 10
-43.2136
 20
446.680
 30
0.000000
  70
    32
  0
VERTEX
  8
AM_0
  5
1E983
 10
-43.3726
 20
446.268
 30
0.000000
  70
    32
  0
VERTEX
  8
AM_0
  5
1E984
 10
-43.5111
 20
445.848
 30
0.000000
  70
    32
  0
VERTEX
  8
AM_0
  5
1E985
 10
-43.6289
 20
445.422
 30
0.000000
  70
    32
  0
VERTEX
  8
AM_0
  5
1E986
 10
-43.7257
 20
444.991
 30
0.000000
  70
    32
  0
VERTEX
  8
AM_0
  5
1E987
 10
-43.8012
 20
444.556
 30
0.000000
  70
    32
  0
VERTEX
  8
AM_0
  5
1E988
 10
-43.8553
 20
444.118
 30
0.000000
  70
    32
  0
VERTEX
  8
AM_0
  5
1E989
 10
-43.8878
 20
443.677
 30
0.000000
  70
    32
  0
VERTEX
  8
AM_0
  5
1E98A
 10
-43.8987
 20
443.235
 30
0.000000
  70
    32
  0
VERTEX
  8
AM_0
  5
1E98B
 10
-43.8878
 20
442.794
 30
0.000000
  70
    32
  0
VERTEX
  8
AM_0
  5
1E98C
 10
-43.8553
 20
442.353
 30
0.000000
  70
    32
  0
VERTEX
  8
AM_0
  5
1E98D
 10
-43.8012
 20
441.915
 30
0.000000
  70
    32
  0
VERTEX
  8
AM_0
  5
1E98E
 10
-43.7257
 20
441.480
 30
0.000000
  70
    32
  0
VERTEX
  8
AM_0
  5
1E98F
 10
-43.6289
 20
441.049
 30
0.000000
  70
    32
  0
VERTEX
  8
AM_0
  5
1E990
 10
-43.5111
 20
440.623
 30
0.000000
  70
    32
  0
VERTEX
  8
AM_0
  5
1E991
 10
-43.3726
 20
440.203
 30
0.000000
  70
    32
  0
VERTEX
  8
AM_0
  5
1E992
 10
-43.2136
 20
439.791
 30
0.000000
  70
    32
  0
VERTEX
  8
AM_0
  5
1E993
 10
-43.0346
 20
439.387
 30
0.000000
  70
    32
  0
VERTEX
  8
AM_0
  5
1E994
 10
-42.8359
 20
438.993
 30
0.000000
  70
    32
  0
VERTEX
  8
AM_0
  5
1E995
 10
-42.6182
 20
438.608
 30
0.000000
  70
    32
  0
VERTEX
  8
AM_0
  5
1E996
 10
-42.3819
 20
438.235
 30
0.000000
  70
    32
  0
VERTEX
  8
AM_0
  5
1E997
 10
-42.1275
 20
437.874
 30
0.000000
  70
    32
  0
VERTEX
  8
AM_0
  5
1E998
 10
-41.8557
 20
437.526
 30
0.000000
  70
    32
  0
VERTEX
  8
AM_0
  5
1E999
 10
-41.5672
 20
437.191
 30
0.000000
  70
    32
  0
VERTEX
  8
AM_0
  5
1E99A
 10
-41.2626
 20
436.871
 30
0.000000
  70
    32
  0
VERTEX
  8
AM_0
  5
1E99B
 10
-40.9427
 20
436.567
 30
0.000000
  70
    32
  0
VERTEX
  8
AM_0
  5
1E99C
 10
-40.6082
 20
436.278
 30
0.000000
  70
    32
  0
VERTEX
  8
AM_0
  5
1E99D
 10
-40.2599
 20
436.006
 30
0.000000
  70
    32
  0
VERTEX
  8
AM_0
  5
1E99E
 10
-39.8988
 20
435.752
 30
0.000000
  70
    32
  0
VERTEX
  8
AM_0
  5
1E99F
 10
-39.5256
 20
435.516
 30
0.000000
  70
    32
  0
VERTEX
  8
AM_0
  5
1E9A0
 10
-39.1412
 20
435.298
 30
0.000000
  70
    32
  0
VERTEX
  8
AM_0
  5
1E9A1
 10
-38.7467
 20
435.099
 30
0.000000
  70
    32
  0
VERTEX
  8
AM_0
  5
1E9A2
 10
-38.3428
 20
434.920
 30
0.000000
  70
    32
  0
VERTEX
  8
AM_0
  5
1E9A3
 10
-37.9307
 20
434.761
 30
0.000000
  70
    32
  0
VERTEX
  8
AM_0
  5
1E9A4
 10
-37.5112
 20
434.623
 30
0.000000
  70
    32
  0
VERTEX
  8
AM_0
  5
1E9A5
 10
-37.0855
 20
434.505
 30
0.000000
  70
    32
  0
VERTEX
  8
AM_0
  5
1E9A6
 10
-36.6545
 20
434.408
 30
0.000000
  70
    32
  0
VERTEX
  8
AM_0
  5
1E9A7
 10
-36.2192
 20
434.333
 30
0.000000
  70
    32
  0
VERTEX
  8
AM_0
  5
1E9A8
 10
-35.7808
 20
434.279
 30
0.000000
  70
    32
  0
VERTEX
  8
AM_0
  5
1E9A9
 10
-35.3403
 20
434.246
 30
0.000000
  70
    32
  0
VERTEX
  8
AM_0
  5
1E9AA
 10
-34.8987
 20
434.235
 30
0.000000
  70
    32
  0
VERTEX
  8
AM_0
  5
1E9AB
 10
-34.4570
 20
434.246
 30
0.000000
  70
    32
  0
VERTEX
  8
AM_0
  5
1E9AC
 10
-34.0165
 20
434.279
 30
0.000000
  70
    32
  0
VERTEX
  8
AM_0
  5
1E9AD
 10
-33.5781
 20
434.333
 30
0.000000
  70
    32
  0
VERTEX
  8
AM_0
  5
1E9AE
 10
-33.1428
 20
434.408
 30
0.000000
  70
    32
  0
VERTEX
  8
AM_0
  5
1E9AF
 10
-32.7118
 20
434.505
 30
0.000000
  70
    32
  0
VERTEX
  8
AM_0
  5
1E9B0
 10
-32.2861
 20
434.623
 30
0.000000
  70
    32
  0
VERTEX
  8
AM_0
  5
1E9B1
 10
-31.8666
 20
434.761
 30
0.000000
  70
    32
  0
VERTEX
  8
AM_0
  5
1E9B2
 10
-31.4545
 20
434.920
 30
0.000000
  70
    32
  0
VERTEX
  8
AM_0
  5
1E9B3
 10
-31.0507
 20
435.099
 30
0.000000
  70
    32
  0
VERTEX
  8
AM_0
  5
1E9B4
 10
-30.6561
 20
435.298
 30
0.000000
  70
    32
  0
VERTEX
  8
AM_0
  5
1E9B5
 10
-30.2717
 20
435.516
 30
0.000000
  70
    32
  0
VERTEX
  8
AM_0
  5
1E9B6
 10
-29.8985
 20
435.752
 30
0.000000
  70
    32
  0
VERTEX
  8
AM_0
  5
1E9B7
 10
-29.5374
 20
436.006
 30
0.000000
  70
    32
  0
VERTEX
  8
AM_0
  5
1E9B8
 10
-29.1891
 20
436.278
 30
0.000000
  70
    32
  0
VERTEX
  8
AM_0
  5
1E9B9
 10
-28.8546
 20
436.567
 30
0.000000
  70
    32
  0
VERTEX
  8
AM_0
  5
1E9BA
 10
-28.5347
 20
436.871
 30
0.000000
  70
    32
  0
VERTEX
  8
AM_0
  5
1E9BB
 10
-28.2301
 20
437.191
 30
0.000000
  70
    32
  0
VERTEX
  8
AM_0
  5
1E9BC
 10
-27.9416
 20
437.526
 30
0.000000
  70
    32
  0
VERTEX
  8
AM_0
  5
1E9BD
 10
-27.6698
 20
437.874
 30
0.000000
  70
    32
  0
VERTEX
  8
AM_0
  5
1E9BE
 10
-27.4154
 20
438.235
 30
0.000000
  70
    32
  0
VERTEX
  8
AM_0
  5
1E9BF
 10
-27.1791
 20
438.608
 30
0.000000
  70
    32
  0
VERTEX
  8
AM_0
  5
1E9C0
 10
-26.9614
 20
438.993
 30
0.000000
  70
    32
  0
VERTEX
  8
AM_0
  5
1E9C1
 10
-26.7628
 20
439.387
 30
0.000000
  70
    32
  0
VERTEX
  8
AM_0
  5
1E9C2
 10
-26.5837
 20
439.791
 30
0.000000
  70
    32
  0
VERTEX
  8
AM_0
  5
1E9C3
 10
-26.4248
 20
440.203
 30
0.000000
  70
    32
  0
VERTEX
  8
AM_0
  5
1E9C4
 10
-26.2862
 20
440.623
 30
0.000000
  70
    32
  0
VERTEX
  8
AM_0
  5
1E9C5
 10
-26.1684
 20
441.049
 30
0.000000
  70
    32
  0
VERTEX
  8
AM_0
  5
1E9C6
 10
-26.0716
 20
441.480
 30
0.000000
  70
    32
  0
VERTEX
  8
AM_0
  5
1E9C7
 10
-25.9961
 20
441.915
 30
0.000000
  70
    32
  0
VERTEX
  8
AM_0
  5
1E9C8
 10
-25.9420
 20
442.353
 30
0.000000
  70
    32
  0
VERTEX
  8
AM_0
  5
1E9C9
 10
-25.9095
 20
442.794
 30
0.000000
  70
    32
  0
VERTEX
  8
AM_0
  5
1E9CA
 10
-25.8987
 20
443.235
 30
0.000000
  70
    32
  0
SEQEND
  8
AM_0
  5
1E9CB
  0
LINE
  5
1D24F
  8
AM_0
 10
-56.222479010466607
 20
447.46669874213069
 30
0.0
 11
-46.103948737029107
 21
412.65213880560719
 31
0.0
  0
LINE
  5
1D250
  8
AM_0
 10
-16.89865446038754
 20
446.2355464163856
 30
0.0
 11
-16.898654460387661
 21
252.23396406195479
 31
0.0
  0
ARC
  5
1D251
  8
AM_0
 10
-32.898656988982452
 20
343.58355817816579
 30
0.0
 40
8.0000000000000018
 50
282.37362534190061
 51
0.0000025044817295
  0
LINE
  5
1D252
  8
AM_0
 10
-26.898654460387551
 20
312.23396406195502
 30
0.0
 11
-76.919499372418699
 21
312.23396406195502
 31
0.0
  0
CIRCLE
  5
1D253
  8
AM_0N
 10
-34.898655002229262
 20
291.23244179693319
 30
0.0
 40
6.9174682452695491
  0
CIRCLE
  5
1D254
  8
AM_12N
 62
     2
 10
-34.898655002229262
 20
291.23244179693319
 30
0.0
 40
6.2999999999999519
  0
LINE
  5
1D256
  8
AM_0N
 10
-46.898655002229241
 20
284.3042385666576
 30
0.0
 11
-34.898655002229262
 21
277.37603533638207
 31
0.0
  0
CIRCLE
  5
1D257
  8
AM_0N
 10
-34.898655002229262
 20
291.23244179693319
 30
0.0
 40
12.0
  0
CIRCLE
  5
1D258
  8
AM_0
 10
-34.898655002229262
 20
291.23244179693319
 30
0.0
 40
15.0
  0
LINE
  5
1D259
  8
AM_0N
 10
-34.898655002229141
 20
305.08884825748407
 30
0.0
 11
-46.898655002229241
 21
298.16064502720889
 31
0.0
  0
ARC
  5
1D25A
  8
AM_0
 10
-26.898656988982449
 20
316.23396406195491
 30
0.0
 40
12.999999999999989
 50
90.000005008950424
 51
197.9202131393896
  0
ARC
  5
1D25B
  8
AM_0
 10
-26.898656988982449
 20
316.23396406195491
 30
0.0
 40
20.0
 50
102.3736203329465
 51
163.79401448202699
  0
LINE
  5
1D25C
  8
AM_0N
 10
-46.898655002229241
 20
298.16064502720889
 30
0.0
 11
-46.898655002229241
 21
284.3042385666576
 31
0.0
  0
LINE
  5
1D25D
  8
ｶｸﾚｾﾝ2
 10
-70.898644010988846
 20
252.23396406195479
 30
0.0
 11
-70.898642294430573
 21
258.23396406195468
 31
0.0
  0
LINE
  5
1D25E
  8
ｶｸﾚｾﾝ2
 10
-51.898644010988029
 20
252.23396406195479
 30
0.0
 11
-51.898642294429813
 21
258.23396406195468
 31
0.0
  0
LINE
  5
1D25F
  8
AM_0
 10
-48.888819655482038
 20
312.23396406195491
 30
0.0
 11
-46.103948737029107
 21
321.81579694769721
 31
0.0
  0
LINE
  5
1D260
  8
AM_0N
 10
-22.898655002229251
 20
284.30423856665732
 30
0.0
 11
-22.898655002229251
 21
298.16064502720872
 31
0.0
  0
LINE
  5
1D262
  8
AM_0N
 10
-34.898655002229262
 20
277.37603533638207
 30
0.0
 11
-22.898655002229251
 21
284.30423856665732
 31
0.0
  0
LINE
  5
1D263
  8
AM_0N
 10
-24.589255912223958
 20
312.23396406195491
 30
0.0
 11
-22.279854835465471
 21
316.23396406195491
 31
0.0
  0
LINE
  5
1D264
  8
AM_0N
 10
-31.51745914249943
 20
316.23396406195491
 30
0.0
 11
-29.208058065740939
 21
312.23396406195491
 31
0.0
  0
ARC
  5
1D265
  8
AM_0N
 10
-26.898656988982449
 20
316.23396406195491
 30
0.0
 40
4.6188021535170032
 50
294.86996062958042
 51
240.00000000004471
  0
ARC
  5
1D266
  8
AM_0N
 10
-26.898656988982449
 20
316.23396406195491
 30
0.0
 40
8.0
 50
314.4153189456099
 51
209.99999999999611
  0
LINE
  5
1D267
  8
AM_0N
 10
-29.208058065740939
 20
312.23396406195491
 30
0.0
 11
-24.589255912223958
 21
312.23396406195491
 31
0.0
  0
ARC
  5
1D268
  8
AM_0
 10
-26.898654460387551
 20
302.23396406195491
 30
0.0
 40
10.0
 50
0.0
 51
90.0
1001
GENIUS_GENODEF_13
1002
{
1000
HIER
1070
     0
1002
}
1002
{
1000
MANEDIT
1070
     0
1002
}
1002
{
1000
NOSEL
1070
     0
1002
}
1002
{
1000
BEHIND
1070
     0
1002
}
1002
{
1000
OTHER
1070
     0
1002
}
1002
{
1000
REACTOR
1002
}
1001
GENIUS_GENOBJ-N-FIL_13
1002
{
1000
OWNER
1000
GEN
1002
}
  0
LINE
  5
1D269
  8
AM_0N
 10
-22.898655002229251
 20
298.16064502720872
 30
0.0
 11
-34.898655002229141
 21
305.08884825748407
 31
0.0
  0
LINE
  5
1D26A
  8
AM_0
 10
-26.898656988982228
 20
329.23396406195491
 30
0.0
 11
-19.898656988982221
 21
329.23396406195491
 31
0.0
  0
LINE
  5
1D26B
  8
AM_0N
 10
-24.589255912224299
 20
320.23396406195508
 30
0.0
 11
-29.208058065740602
 21
320.23396406195508
 31
0.0
  0
LINE
  5
1D26C
  8
AM_0N
 10
-29.208058065740602
 20
320.23396406195508
 30
0.0
 11
-31.51745914249943
 21
316.23396406195491
 31
0.0
  0
ARC
  5
1D26D
  8
AM_0
 10
-19.898656988982449
 20
332.23396406195479
 30
0.0
 40
3.0
 50
270.0
 51
0.0000025044817295
  0
LINE
  5
1D26E
  8
AM_0N
 10
-22.279854835465471
 20
316.23396406195491
 30
0.0
 11
-24.589255912224299
 21
320.23396406195508
 31
0.0
  0
ARC
  5
1D26F
  8
AM_0
 10
-26.898656988982449
 20
418.23397169134932
 30
0.0
 40
19.999999999999979
 50
196.20598733921139
 51
257.62637465809939
  0
ARC
  5
1D270
  8
AM_0
 10
-26.898656988982449
 20
418.23397169134932
 30
0.0
 40
12.999999999999989
 50
90.000005008950424
 51
270.00001001791389
  0
LINE
  5
1D271
  8
AM_0
 10
-24.898656988982228
 20
343.58355817816579
 30
0.0
 11
-24.898656988982228
 21
390.8843775751385
 31
0.0
  0
CIRCLE
  5
1D272
  8
AM_0N
 10
-26.898656988982449
 20
418.23397169134932
 30
0.0
 40
8.0
  0
LINE
  5
1D273
  8
AM_0
 10
-26.898656988982228
 20
405.23397169134938
 30
0.0
 11
-19.898656988982221
 21
405.23397169134938
 31
0.0
  0
ARC
  5
1D274
  8
AM_0
 10
-32.898656988982452
 20
390.88437757513839
 30
0.0
 40
8.0000000000000089
 50
0.0000025044817295
 51
77.626379667053456
  0
ARC
  5
1D275
  8
AM_0
 10
-19.898656988982449
 20
402.23397169134932
 30
0.0
 40
3.0000000000000031
 50
0.0000025044817295
 51
90.000005008950424
  0
LINE
  5
1D276
  8
AM_0
 10
-26.898656988982228
 20
431.23397169134938
 30
0.0
 11
-19.898656988982221
 21
431.23397169134938
 31
0.0
  0
LINE
  5
1D277
  8
AM_0N
 10
-24.589255912224299
 20
422.23397169134961
 30
0.0
 11
-29.208058065740602
 21
422.23397169134961
 31
0.0
  0
LINE
  5
1D278
  8
AM_0N
 10
-29.208058065740939
 20
414.23397169134932
 30
0.0
 11
-24.589255912223958
 21
414.23397169134932
 31
0.0
  0
CIRCLE
  5
1D279
  8
AM_0N
 10
-26.898656988982449
 20
418.23397169134932
 30
0.0
 40
4.6188021535170032
  0
LINE
  5
1D27A
  8
AM_0N
 10
-31.51745914249943
 20
418.23397169134932
 30
0.0
 11
-29.208058065740939
 21
414.23397169134932
 31
0.0
  0
LINE
  5
1D27B
  8
AM_0N
 10
-29.208058065740602
 20
422.23397169134961
 30
0.0
 11
-31.51745914249943
 21
418.23397169134932
 31
0.0
  0
ARC
  5
1D27C
  8
AM_0
 10
-19.898656988982449
 20
434.23397169134921
 30
0.0
 40
3.0
 50
270.0
 51
0.0000025044817295
  0
LINE
  5
1D27D
  8
AM_0N
 10
-24.589255912223958
 20
414.23397169134932
 30
0.0
 11
-22.279854835465471
 21
418.23397169134932
 31
0.0
  0
LINE
  5
1D27E
  8
AM_0N
 10
-22.279854835465471
 20
418.23397169134932
 30
0.0
 11
-24.589255912224299
 21
422.23397169134961
 31
0.0
  0
ARC
  5
1D280
  8
AM_0
 10
-63.904577399138702
 20
445.23397169134938
 30
0.0
 40
7.999999999999992
 50
16.205985517972941
 51
90.000005008950424
  0
POLYLINE
  5
1D281
  8
AM_0
 10
-16.898654460387498
 20
446.2355464163856
 30
0.0
 66
     1
 70
     8
  0
VERTEX
  8
AM_0
  5
1E9CC
 10
-16.8987
 20
446.236
 30
0.000000
  70
    32
  0
VERTEX
  8
AM_0
  5
1E9CD
 10
-16.8998
 20
446.420
 30
0.000000
  70
    32
  0
VERTEX
  8
AM_0
  5
1E9CE
 10
-16.9032
 20
446.604
 30
0.000000
  70
    32
  0
VERTEX
  8
AM_0
  5
1E9CF
 10
-16.9088
 20
446.788
 30
0.000000
  70
    32
  0
VERTEX
  8
AM_0
  5
1E9D0
 10
-16.9167
 20
446.972
 30
0.000000
  70
    32
  0
VERTEX
  8
AM_0
  5
1E9D1
 10
-16.9269
 20
447.155
 30
0.000000
  70
    32
  0
VERTEX
  8
AM_0
  5
1E9D2
 10
-16.9393
 20
447.339
 30
0.000000
  70
    32
  0
VERTEX
  8
AM_0
  5
1E9D3
 10
-16.9540
 20
447.523
 30
0.000000
  70
    32
  0
VERTEX
  8
AM_0
  5
1E9D4
 10
-16.9709
 20
447.706
 30
0.000000
  70
    32
  0
VERTEX
  8
AM_0
  5
1E9D5
 10
-16.9900
 20
447.889
 30
0.000000
  70
    32
  0
VERTEX
  8
AM_0
  5
1E9D6
 10
-17.0115
 20
448.072
 30
0.000000
  70
    32
  0
VERTEX
  8
AM_0
  5
1E9D7
 10
-17.0351
 20
448.254
 30
0.000000
  70
    32
  0
VERTEX
  8
AM_0
  5
1E9D8
 10
-17.0610
 20
448.437
 30
0.000000
  70
    32
  0
VERTEX
  8
AM_0
  5
1E9D9
 10
-17.0891
 20
448.618
 30
0.000000
  70
    32
  0
VERTEX
  8
AM_0
  5
1E9DA
 10
-17.1195
 20
448.800
 30
0.000000
  70
    32
  0
VERTEX
  8
AM_0
  5
1E9DB
 10
-17.1521
 20
448.981
 30
0.000000
  70
    32
  0
VERTEX
  8
AM_0
  5
1E9DC
 10
-17.1869
 20
449.162
 30
0.000000
  70
    32
  0
VERTEX
  8
AM_0
  5
1E9DD
 10
-17.2239
 20
449.342
 30
0.000000
  70
    32
  0
VERTEX
  8
AM_0
  5
1E9DE
 10
-17.2631
 20
449.522
 30
0.000000
  70
    32
  0
VERTEX
  8
AM_0
  5
1E9DF
 10
-17.3046
 20
449.701
 30
0.000000
  70
    32
  0
VERTEX
  8
AM_0
  5
1E9E0
 10
-17.3482
 20
449.880
 30
0.000000
  70
    32
  0
VERTEX
  8
AM_0
  5
1E9E1
 10
-17.3940
 20
450.059
 30
0.000000
  70
    32
  0
VERTEX
  8
AM_0
  5
1E9E2
 10
-17.4420
 20
450.236
 30
0.000000
  70
    32
  0
VERTEX
  8
AM_0
  5
1E9E3
 10
-17.4922
 20
450.413
 30
0.000000
  70
    32
  0
VERTEX
  8
AM_0
  5
1E9E4
 10
-17.5445
 20
450.590
 30
0.000000
  70
    32
  0
VERTEX
  8
AM_0
  5
1E9E5
 10
-17.5991
 20
450.766
 30
0.000000
  70
    32
  0
VERTEX
  8
AM_0
  5
1E9E6
 10
-17.6557
 20
450.941
 30
0.000000
  70
    32
  0
VERTEX
  8
AM_0
  5
1E9E7
 10
-17.7145
 20
451.115
 30
0.000000
  70
    32
  0
VERTEX
  8
AM_0
  5
1E9E8
 10
-17.7755
 20
451.289
 30
0.000000
  70
    32
  0
VERTEX
  8
AM_0
  5
1E9E9
 10
-17.8386
 20
451.462
 30
0.000000
  70
    32
  0
VERTEX
  8
AM_0
  5
1E9EA
 10
-17.9038
 20
451.634
 30
0.000000
  70
    32
  0
VERTEX
  8
AM_0
  5
1E9EB
 10
-17.9711
 20
451.805
 30
0.000000
  70
    32
  0
VERTEX
  8
AM_0
  5
1E9EC
 10
-18.0405
 20
451.976
 30
0.000000
  70
    32
  0
VERTEX
  8
AM_0
  5
1E9ED
 10
-18.1119
 20
452.146
 30
0.000000
  70
    32
  0
VERTEX
  8
AM_0
  5
1E9EE
 10
-18.1855
 20
452.314
 30
0.000000
  70
    32
  0
VERTEX
  8
AM_0
  5
1E9EF
 10
-18.2611
 20
452.482
 30
0.000000
  70
    32
  0
VERTEX
  8
AM_0
  5
1E9F0
 10
-18.3388
 20
452.649
 30
0.000000
  70
    32
  0
VERTEX
  8
AM_0
  5
1E9F1
 10
-18.4185
 20
452.815
 30
0.000000
  70
    32
  0
VERTEX
  8
AM_0
  5
1E9F2
 10
-18.5003
 20
452.980
 30
0.000000
  70
    32
  0
VERTEX
  8
AM_0
  5
1E9F3
 10
-18.5841
 20
453.144
 30
0.000000
  70
    32
  0
VERTEX
  8
AM_0
  5
1E9F4
 10
-18.6698
 20
453.307
 30
0.000000
  70
    32
  0
VERTEX
  8
AM_0
  5
1E9F5
 10
-18.7576
 20
453.468
 30
0.000000
  70
    32
  0
VERTEX
  8
AM_0
  5
1E9F6
 10
-18.8473
 20
453.629
 30
0.000000
  70
    32
  0
VERTEX
  8
AM_0
  5
1E9F7
 10
-18.9391
 20
453.789
 30
0.000000
  70
    32
  0
VERTEX
  8
AM_0
  5
1E9F8
 10
-19.0327
 20
453.947
 30
0.000000
  70
    32
  0
VERTEX
  8
AM_0
  5
1E9F9
 10
-19.1283
 20
454.105
 30
0.000000
  70
    32
  0
VERTEX
  8
AM_0
  5
1E9FA
 10
-19.2259
 20
454.261
 30
0.000000
  70
    32
  0
VERTEX
  8
AM_0
  5
1E9FB
 10
-19.3253
 20
454.416
 30
0.000000
  70
    32
  0
VERTEX
  8
AM_0
  5
1E9FC
 10
-19.4266
 20
454.569
 30
0.000000
  70
    32
  0
VERTEX
  8
AM_0
  5
1E9FD
 10
-19.5298
 20
454.722
 30
0.000000
  70
    32
  0
VERTEX
  8
AM_0
  5
1E9FE
 10
-19.6349
 20
454.873
 30
0.000000
  70
    32
  0
VERTEX
  8
AM_0
  5
1E9FF
 10
-19.7418
 20
455.023
 30
0.000000
  70
    32
  0
VERTEX
  8
AM_0
  5
1EA00
 10
-19.8505
 20
455.171
 30
0.000000
  70
    32
  0
VERTEX
  8
AM_0
  5
1EA01
 10
-19.9611
 20
455.318
 30
0.000000
  70
    32
  0
VERTEX
  8
AM_0
  5
1EA02
 10
-20.0735
 20
455.464
 30
0.000000
  70
    32
  0
VERTEX
  8
AM_0
  5
1EA03
 10
-20.1876
 20
455.609
 30
0.000000
  70
    32
  0
VERTEX
  8
AM_0
  5
1EA04
 10
-20.3035
 20
455.752
 30
0.000000
  70
    32
  0
VERTEX
  8
AM_0
  5
1EA05
 10
-20.4211
 20
455.893
 30
0.000000
  70
    32
  0
VERTEX
  8
AM_0
  5
1EA06
 10
-20.5405
 20
456.033
 30
0.000000
  70
    32
  0
VERTEX
  8
AM_0
  5
1EA07
 10
-20.6616
 20
456.172
 30
0.000000
  70
    32
  0
VERTEX
  8
AM_0
  5
1EA08
 10
-20.7844
 20
456.309
 30
0.000000
  70
    32
  0
VERTEX
  8
AM_0
  5
1EA09
 10
-20.9088
 20
456.445
 30
0.000000
  70
    32
  0
VERTEX
  8
AM_0
  5
1EA0A
 10
-21.0349
 20
456.579
 30
0.000000
  70
    32
  0
VERTEX
  8
AM_0
  5
1EA0B
 10
-21.1627
 20
456.711
 30
0.000000
  70
    32
  0
VERTEX
  8
AM_0
  5
1EA0C
 10
-21.2921
 20
456.842
 30
0.000000
  70
    32
  0
VERTEX
  8
AM_0
  5
1EA0D
 10
-21.4230
 20
456.972
 30
0.000000
  70
    32
  0
VERTEX
  8
AM_0
  5
1EA0E
 10
-21.5555
 20
457.099
 30
0.000000
  70
    32
  0
VERTEX
  8
AM_0
  5
1EA0F
 10
-21.6896
 20
457.226
 30
0.000000
  70
    32
  0
VERTEX
  8
AM_0
  5
1EA10
 10
-21.8253
 20
457.350
 30
0.000000
  70
    32
  0
VERTEX
  8
AM_0
  5
1EA11
 10
-21.9624
 20
457.473
 30
0.000000
  70
    32
  0
VERTEX
  8
AM_0
  5
1EA12
 10
-22.1011
 20
457.594
 30
0.000000
  70
    32
  0
VERTEX
  8
AM_0
  5
1EA13
 10
-22.2412
 20
457.713
 30
0.000000
  70
    32
  0
VERTEX
  8
AM_0
  5
1EA14
 10
-22.3828
 20
457.831
 30
0.000000
  70
    32
  0
VERTEX
  8
AM_0
  5
1EA15
 10
-22.5258
 20
457.947
 30
0.000000
  70
    32
  0
VERTEX
  8
AM_0
  5
1EA16
 10
-22.6702
 20
458.061
 30
0.000000
  70
    32
  0
VERTEX
  8
AM_0
  5
1EA17
 10
-22.8160
 20
458.173
 30
0.000000
  70
    32
  0
VERTEX
  8
AM_0
  5
1EA18
 10
-22.9632
 20
458.284
 30
0.000000
  70
    32
  0
VERTEX
  8
AM_0
  5
1EA19
 10
-23.1117
 20
458.393
 30
0.000000
  70
    32
  0
VERTEX
  8
AM_0
  5
1EA1A
 10
-23.2615
 20
458.500
 30
0.000000
  70
    32
  0
VERTEX
  8
AM_0
  5
1EA1B
 10
-23.4127
 20
458.605
 30
0.000000
  70
    32
  0
VERTEX
  8
AM_0
  5
1EA1C
 10
-23.5651
 20
458.708
 30
0.000000
  70
    32
  0
VERTEX
  8
AM_0
  5
1EA1D
 10
-23.7188
 20
458.809
 30
0.000000
  70
    32
  0
VERTEX
  8
AM_0
  5
1EA1E
 10
-23.8737
 20
458.909
 30
0.000000
  70
    32
  0
VERTEX
  8
AM_0
  5
1EA1F
 10
-24.0298
 20
459.006
 30
0.000000
  70
    32
  0
VERTEX
  8
AM_0
  5
1EA20
 10
-24.1871
 20
459.102
 30
0.000000
  70
    32
  0
VERTEX
  8
AM_0
  5
1EA21
 10
-24.3456
 20
459.195
 30
0.000000
  70
    32
  0
VERTEX
  8
AM_0
  5
1EA22
 10
-24.5052
 20
459.287
 30
0.000000
  70
    32
  0
VERTEX
  8
AM_0
  5
1EA23
 10
-24.6659
 20
459.377
 30
0.000000
  70
    32
  0
VERTEX
  8
AM_0
  5
1EA24
 10
-24.8277
 20
459.465
 30
0.000000
  70
    32
  0
VERTEX
  8
AM_0
  5
1EA25
 10
-24.9906
 20
459.550
 30
0.000000
  70
    32
  0
VERTEX
  8
AM_0
  5
1EA26
 10
-25.1545
 20
459.634
 30
0.000000
  70
    32
  0
VERTEX
  8
AM_0
  5
1EA27
 10
-25.3194
 20
459.716
 30
0.000000
  70
    32
  0
VERTEX
  8
AM_0
  5
1EA28
 10
-25.4853
 20
459.796
 30
0.000000
  70
    32
  0
VERTEX
  8
AM_0
  5
1EA29
 10
-25.6522
 20
459.873
 30
0.000000
  70
    32
  0
VERTEX
  8
AM_0
  5
1EA2A
 10
-25.8200
 20
459.949
 30
0.000000
  70
    32
  0
VERTEX
  8
AM_0
  5
1EA2B
 10
-25.9888
 20
460.023
 30
0.000000
  70
    32
  0
VERTEX
  8
AM_0
  5
1EA2C
 10
-26.1584
 20
460.094
 30
0.000000
  70
    32
  0
VERTEX
  8
AM_0
  5
1EA2D
 10
-26.3289
 20
460.163
 30
0.000000
  70
    32
  0
VERTEX
  8
AM_0
  5
1EA2E
 10
-26.5002
 20
460.231
 30
0.000000
  70
    32
  0
VERTEX
  8
AM_0
  5
1EA2F
 10
-26.6724
 20
460.296
 30
0.000000
  70
    32
  0
VERTEX
  8
AM_0
  5
1EA30
 10
-26.8453
 20
460.359
 30
0.000000
  70
    32
  0
VERTEX
  8
AM_0
  5
1EA31
 10
-27.0190
 20
460.420
 30
0.000000
  70
    32
  0
VERTEX
  8
AM_0
  5
1EA32
 10
-27.1934
 20
460.479
 30
0.000000
  70
    32
  0
VERTEX
  8
AM_0
  5
1EA33
 10
-27.3686
 20
460.535
 30
0.000000
  70
    32
  0
VERTEX
  8
AM_0
  5
1EA34
 10
-27.5444
 20
460.590
 30
0.000000
  70
    32
  0
VERTEX
  8
AM_0
  5
1EA35
 10
-27.7209
 20
460.642
 30
0.000000
  70
    32
  0
VERTEX
  8
AM_0
  5
1EA36
 10
-27.8980
 20
460.692
 30
0.000000
  70
    32
  0
VERTEX
  8
AM_0
  5
1EA37
 10
-28.0757
 20
460.740
 30
0.000000
  70
    32
  0
VERTEX
  8
AM_0
  5
1EA38
 10
-28.2540
 20
460.786
 30
0.000000
  70
    32
  0
VERTEX
  8
AM_0
  5
1EA39
 10
-28.4328
 20
460.830
 30
0.000000
  70
    32
  0
VERTEX
  8
AM_0
  5
1EA3A
 10
-28.6121
 20
460.871
 30
0.000000
  70
    32
  0
VERTEX
  8
AM_0
  5
1EA3B
 10
-28.7920
 20
460.911
 30
0.000000
  70
    32
  0
VERTEX
  8
AM_0
  5
1EA3C
 10
-28.9723
 20
460.948
 30
0.000000
  70
    32
  0
VERTEX
  8
AM_0
  5
1EA3D
 10
-29.1531
 20
460.982
 30
0.000000
  70
    32
  0
VERTEX
  8
AM_0
  5
1EA3E
 10
-29.3342
 20
461.015
 30
0.000000
  70
    32
  0
VERTEX
  8
AM_0
  5
1EA3F
 10
-29.5158
 20
461.045
 30
0.000000
  70
    32
  0
VERTEX
  8
AM_0
  5
1EA40
 10
-29.6977
 20
461.073
 30
0.000000
  70
    32
  0
VERTEX
  8
AM_0
  5
1EA41
 10
-29.8799
 20
461.099
 30
0.000000
  70
    32
  0
VERTEX
  8
AM_0
  5
1EA42
 10
-30.0625
 20
461.123
 30
0.000000
  70
    32
  0
VERTEX
  8
AM_0
  5
1EA43
 10
-30.2453
 20
461.144
 30
0.000000
  70
    32
  0
VERTEX
  8
AM_0
  5
1EA44
 10
-30.4284
 20
461.164
 30
0.000000
  70
    32
  0
VERTEX
  8
AM_0
  5
1EA45
 10
-30.6117
 20
461.181
 30
0.000000
  70
    32
  0
VERTEX
  8
AM_0
  5
1EA46
 10
-30.7952
 20
461.195
 30
0.000000
  70
    32
  0
VERTEX
  8
AM_0
  5
1EA47
 10
-30.9788
 20
461.208
 30
0.000000
  70
    32
  0
VERTEX
  8
AM_0
  5
1EA48
 10
-31.1626
 20
461.218
 30
0.000000
  70
    32
  0
VERTEX
  8
AM_0
  5
1EA49
 10
-31.3465
 20
461.226
 30
0.000000
  70
    32
  0
VERTEX
  8
AM_0
  5
1EA4A
 10
-31.5305
 20
461.231
 30
0.000000
  70
    32
  0
VERTEX
  8
AM_0
  5
1EA4B
 10
-31.7146
 20
461.235
 30
0.000000
  70
    32
  0
VERTEX
  8
AM_0
  5
1EA4C
 10
-31.8987
 20
461.236
 30
0.000000
  70
    32
  0
SEQEND
  8
AM_0
  5
1EA4D
  0
POLYLINE
  5
1D521
  8
AM_0
 10
-50.898655483866413
 20
367.23396406195485
 30
0.0
 66
     1
 70
     8
  0
VERTEX
  8
AM_0
  5
1EA4E
 10
-50.8987
 20
367.234
 30
0.000000
  70
    32
  0
VERTEX
  8
AM_0
  5
1EA4F
 10
-50.9589
 20
364.781
 30
0.000000
  70
    32
  0
VERTEX
  8
AM_0
  5
1EA50
 10
-51.1394
 20
362.333
 30
0.000000
  70
    32
  0
VERTEX
  8
AM_0
  5
1EA51
 10
-51.4398
 20
359.897
 30
0.000000
  70
    32
  0
VERTEX
  8
AM_0
  5
1EA52
 10
-51.8594
 20
357.479
 30
0.000000
  70
    32
  0
VERTEX
  8
AM_0
  5
1EA53
 10
-52.3971
 20
355.085
 30
0.000000
  70
    32
  0
VERTEX
  8
AM_0
  5
1EA54
 10
-53.0516
 20
352.719
 30
0.000000
  70
    32
  0
VERTEX
  8
AM_0
  5
1EA55
 10
-53.8215
 20
350.389
 30
0.000000
  70
    32
  0
VERTEX
  8
AM_0
  5
1EA56
 10
-54.7047
 20
348.099
 30
0.000000
  70
    32
  0
VERTEX
  8
AM_0
  5
1EA57
 10
-55.6992
 20
345.856
 30
0.000000
  70
    32
  0
VERTEX
  8
AM_0
  5
1EA58
 10
-56.8026
 20
343.664
 30
0.000000
  70
    32
  0
VERTEX
  8
AM_0
  5
1EA59
 10
-58.0122
 20
341.528
 30
0.000000
  70
    32
  0
VERTEX
  8
AM_0
  5
1EA5A
 10
-59.3252
 20
339.455
 30
0.000000
  70
    32
  0
VERTEX
  8
AM_0
  5
1EA5B
 10
-60.7383
 20
337.448
 30
0.000000
  70
    32
  0
VERTEX
  8
AM_0
  5
1EA5C
 10
-62.2481
 20
335.514
 30
0.000000
  70
    32
  0
VERTEX
  8
AM_0
  5
1EA5D
 10
-63.8511
 20
333.655
 30
0.000000
  70
    32
  0
VERTEX
  8
AM_0
  5
1EA5E
 10
-65.5433
 20
331.878
 30
0.000000
  70
    32
  0
VERTEX
  8
AM_0
  5
1EA5F
 10
-67.3207
 20
330.186
 30
0.000000
  70
    32
  0
VERTEX
  8
AM_0
  5
1EA60
 10
-69.1790
 20
328.583
 30
0.000000
  70
    32
  0
VERTEX
  8
AM_0
  5
1EA61
 10
-71.1137
 20
327.073
 30
0.000000
  70
    32
  0
VERTEX
  8
AM_0
  5
1EA62
 10
-73.1201
 20
325.660
 30
0.000000
  70
    32
  0
VERTEX
  8
AM_0
  5
1EA63
 10
-75.1935
 20
324.347
 30
0.000000
  70
    32
  0
VERTEX
  8
AM_0
  5
1EA64
 10
-77.3288
 20
323.137
 30
0.000000
  70
    32
  0
VERTEX
  8
AM_0
  5
1EA65
 10
-79.5209
 20
322.034
 30
0.000000
  70
    32
  0
VERTEX
  8
AM_0
  5
1EA66
 10
-81.7645
 20
321.039
 30
0.000000
  70
    32
  0
VERTEX
  8
AM_0
  5
1EA67
 10
-84.0542
 20
320.156
 30
0.000000
  70
    32
  0
VERTEX
  8
AM_0
  5
1EA68
 10
-86.3844
 20
319.386
 30
0.000000
  70
    32
  0
VERTEX
  8
AM_0
  5
1EA69
 10
-88.7496
 20
318.731
 30
0.000000
  70
    32
  0
VERTEX
  8
AM_0
  5
1EA6A
 10
-91.1441
 20
318.194
 30
0.000000
  70
    32
  0
VERTEX
  8
AM_0
  5
1EA6B
 10
-93.5621
 20
317.774
 30
0.000000
  70
    32
  0
VERTEX
  8
AM_0
  5
1EA6C
 10
-95.9978
 20
317.474
 30
0.000000
  70
    32
  0
VERTEX
  8
AM_0
  5
1EA6D
 10
-98.4453
 20
317.293
 30
0.000000
  70
    32
  0
VERTEX
  8
AM_0
  5
1EA6E
 10
-100.899
 20
317.233
 30
0.000000
  70
    32
  0
VERTEX
  8
AM_0
  5
1EA6F
 10
-103.352
 20
317.293
 30
0.000000
  70
    32
  0
VERTEX
  8
AM_0
  5
1EA70
 10
-105.800
 20
317.474
 30
0.000000
  70
    32
  0
VERTEX
  8
AM_0
  5
1EA71
 10
-108.235
 20
317.774
 30
0.000000
  70
    32
  0
VERTEX
  8
AM_0
  5
1EA72
 10
-110.653
 20
318.194
 30
0.000000
  70
    32
  0
VERTEX
  8
AM_0
  5
1EA73
 10
-113.048
 20
318.731
 30
0.000000
  70
    32
  0
VERTEX
  8
AM_0
  5
1EA74
 10
-115.413
 20
319.386
 30
0.000000
  70
    32
  0
VERTEX
  8
AM_0
  5
1EA75
 10
-117.743
 20
320.156
 30
0.000000
  70
    32
  0
VERTEX
  8
AM_0
  5
1EA76
 10
-120.033
 20
321.039
 30
0.000000
  70
    32
  0
VERTEX
  8
AM_0
  5
1EA77
 10
-122.276
 20
322.034
 30
0.000000
  70
    32
  0
VERTEX
  8
AM_0
  5
1EA78
 10
-124.468
 20
323.137
 30
0.000000
  70
    32
  0
VERTEX
  8
AM_0
  5
1EA79
 10
-126.604
 20
324.347
 30
0.000000
  70
    32
  0
VERTEX
  8
AM_0
  5
1EA7A
 10
-128.677
 20
325.660
 30
0.000000
  70
    32
  0
VERTEX
  8
AM_0
  5
1EA7B
 10
-130.684
 20
327.073
 30
0.000000
  70
    32
  0
VERTEX
  8
AM_0
  5
1EA7C
 10
-132.618
 20
328.583
 30
0.000000
  70
    32
  0
VERTEX
  8
AM_0
  5
1EA7D
 10
-134.477
 20
330.186
 30
0.000000
  70
    32
  0
VERTEX
  8
AM_0
  5
1EA7E
 10
-136.254
 20
331.878
 30
0.000000
  70
    32
  0
VERTEX
  8
AM_0
  5
1EA7F
 10
-137.946
 20
333.655
 30
0.000000
  70
    32
  0
VERTEX
  8
AM_0
  5
1EA80
 10
-139.549
 20
335.514
 30
0.000000
  70
    32
  0
VERTEX
  8
AM_0
  5
1EA81
 10
-141.059
 20
337.448
 30
0.000000
  70
    32
  0
VERTEX
  8
AM_0
  5
1EA82
 10
-142.472
 20
339.455
 30
0.000000
  70
    32
  0
VERTEX
  8
AM_0
  5
1EA83
 10
-143.785
 20
341.528
 30
0.000000
  70
    32
  0
VERTEX
  8
AM_0
  5
1EA84
 10
-144.995
 20
343.664
 30
0.000000
  70
    32
  0
VERTEX
  8
AM_0
  5
1EA85
 10
-146.098
 20
345.856
 30
0.000000
  70
    32
  0
VERTEX
  8
AM_0
  5
1EA86
 10
-147.093
 20
348.099
 30
0.000000
  70
    32
  0
VERTEX
  8
AM_0
  5
1EA87
 10
-147.976
 20
350.389
 30
0.000000
  70
    32
  0
VERTEX
  8
AM_0
  5
1EA88
 10
-148.746
 20
352.719
 30
0.000000
  70
    32
  0
VERTEX
  8
AM_0
  5
1EA89
 10
-149.400
 20
355.085
 30
0.000000
  70
    32
  0
VERTEX
  8
AM_0
  5
1EA8A
 10
-149.938
 20
357.479
 30
0.000000
  70
    32
  0
VERTEX
  8
AM_0
  5
1EA8B
 10
-150.357
 20
359.897
 30
0.000000
  70
    32
  0
VERTEX
  8
AM_0
  5
1EA8C
 10
-150.658
 20
362.333
 30
0.000000
  70
    32
  0
VERTEX
  8
AM_0
  5
1EA8D
 10
-150.838
 20
364.781
 30
0.000000
  70
    32
  0
VERTEX
  8
AM_0
  5
1EA8E
 10
-150.899
 20
367.234
 30
0.000000
  70
    32
  0
VERTEX
  8
AM_0
  5
1EA8F
 10
-150.838
 20
369.687
 30
0.000000
  70
    32
  0
VERTEX
  8
AM_0
  5
1EA90
 10
-150.658
 20
372.135
 30
0.000000
  70
    32
  0
VERTEX
  8
AM_0
  5
1EA91
 10
-150.357
 20
374.571
 30
0.000000
  70
    32
  0
VERTEX
  8
AM_0
  5
1EA92
 10
-149.938
 20
376.989
 30
0.000000
  70
    32
  0
VERTEX
  8
AM_0
  5
1EA93
 10
-149.400
 20
379.383
 30
0.000000
  70
    32
  0
VERTEX
  8
AM_0
  5
1EA94
 10
-148.746
 20
381.748
 30
0.000000
  70
    32
  0
VERTEX
  8
AM_0
  5
1EA95
 10
-147.976
 20
384.079
 30
0.000000
  70
    32
  0
VERTEX
  8
AM_0
  5
1EA96
 10
-147.093
 20
386.369
 30
0.000000
  70
    32
  0
VERTEX
  8
AM_0
  5
1EA97
 10
-146.098
 20
388.612
 30
0.000000
  70
    32
  0
VERTEX
  8
AM_0
  5
1EA98
 10
-144.995
 20
390.804
 30
0.000000
  70
    32
  0
VERTEX
  8
AM_0
  5
1EA99
 10
-143.785
 20
392.940
 30
0.000000
  70
    32
  0
VERTEX
  8
AM_0
  5
1EA9A
 10
-142.472
 20
395.013
 30
0.000000
  70
    32
  0
VERTEX
  8
AM_0
  5
1EA9B
 10
-141.059
 20
397.020
 30
0.000000
  70
    32
  0
VERTEX
  8
AM_0
  5
1EA9C
 10
-139.549
 20
398.954
 30
0.000000
  70
    32
  0
VERTEX
  8
AM_0
  5
1EA9D
 10
-137.946
 20
400.813
 30
0.000000
  70
    32
  0
VERTEX
  8
AM_0
  5
1EA9E
 10
-136.254
 20
402.590
 30
0.000000
  70
    32
  0
VERTEX
  8
AM_0
  5
1EA9F
 10
-134.477
 20
404.282
 30
0.000000
  70
    32
  0
VERTEX
  8
AM_0
  5
1EAA0
 10
-132.618
 20
405.885
 30
0.000000
  70
    32
  0
VERTEX
  8
AM_0
  5
1EAA1
 10
-130.684
 20
407.395
 30
0.000000
  70
    32
  0
VERTEX
  8
AM_0
  5
1EAA2
 10
-128.677
 20
408.808
 30
0.000000
  70
    32
  0
VERTEX
  8
AM_0
  5
1EAA3
 10
-126.604
 20
410.121
 30
0.000000
  70
    32
  0
VERTEX
  8
AM_0
  5
1EAA4
 10
-124.468
 20
411.331
 30
0.000000
  70
    32
  0
VERTEX
  8
AM_0
  5
1EAA5
 10
-122.276
 20
412.434
 30
0.000000
  70
    32
  0
VERTEX
  8
AM_0
  5
1EAA6
 10
-120.033
 20
413.429
 30
0.000000
  70
    32
  0
VERTEX
  8
AM_0
  5
1EAA7
 10
-117.743
 20
414.312
 30
0.000000
  70
    32
  0
VERTEX
  8
AM_0
  5
1EAA8
 10
-115.413
 20
415.082
 30
0.000000
  70
    32
  0
VERTEX
  8
AM_0
  5
1EAA9
 10
-113.048
 20
415.736
 30
0.000000
  70
    32
  0
VERTEX
  8
AM_0
  5
1EAAA
 10
-110.653
 20
416.274
 30
0.000000
  70
    32
  0
VERTEX
  8
AM_0
  5
1EAAB
 10
-108.235
 20
416.694
 30
0.000000
  70
    32
  0
VERTEX
  8
AM_0
  5
1EAAC
 10
-105.800
 20
416.994
 30
0.000000
  70
    32
  0
VERTEX
  8
AM_0
  5
1EAAD
 10
-103.352
 20
417.175
 30
0.000000
  70
    32
  0
VERTEX
  8
AM_0
  5
1EAAE
 10
-100.899
 20
417.235
 30
0.000000
  70
    32
  0
VERTEX
  8
AM_0
  5
1EAAF
 10
-98.4453
 20
417.175
 30
0.000000
  70
    32
  0
VERTEX
  8
AM_0
  5
1EAB0
 10
-95.9978
 20
416.994
 30
0.000000
  70
    32
  0
VERTEX
  8
AM_0
  5
1EAB1
 10
-93.5621
 20
416.694
 30
0.000000
  70
    32
  0
VERTEX
  8
AM_0
  5
1EAB2
 10
-91.1441
 20
416.274
 30
0.000000
  70
    32
  0
VERTEX
  8
AM_0
  5
1EAB3
 10
-88.7496
 20
415.736
 30
0.000000
  70
    32
  0
VERTEX
  8
AM_0
  5
1EAB4
 10
-86.3844
 20
415.082
 30
0.000000
  70
    32
  0
VERTEX
  8
AM_0
  5
1EAB5
 10
-84.0542
 20
414.312
 30
0.000000
  70
    32
  0
VERTEX
  8
AM_0
  5
1EAB6
 10
-81.7645
 20
413.429
 30
0.000000
  70
    32
  0
VERTEX
  8
AM_0
  5
1EAB7
 10
-79.5209
 20
412.434
 30
0.000000
  70
    32
  0
VERTEX
  8
AM_0
  5
1EAB8
 10
-77.3288
 20
411.331
 30
0.000000
  70
    32
  0
VERTEX
  8
AM_0
  5
1EAB9
 10
-75.1935
 20
410.121
 30
0.000000
  70
    32
  0
VERTEX
  8
AM_0
  5
1EABA
 10
-73.1201
 20
408.808
 30
0.000000
  70
    32
  0
VERTEX
  8
AM_0
  5
1EABB
 10
-71.1137
 20
407.395
 30
0.000000
  70
    32
  0
VERTEX
  8
AM_0
  5
1EABC
 10
-69.1790
 20
405.885
 30
0.000000
  70
    32
  0
VERTEX
  8
AM_0
  5
1EABD
 10
-67.3207
 20
404.282
 30
0.000000
  70
    32
  0
VERTEX
  8
AM_0
  5
1EABE
 10
-65.5433
 20
402.590
 30
0.000000
  70
    32
  0
VERTEX
  8
AM_0
  5
1EABF
 10
-63.8511
 20
400.813
 30
0.000000
  70
    32
  0
VERTEX
  8
AM_0
  5
1EAC0
 10
-62.2481
 20
398.954
 30
0.000000
  70
    32
  0
VERTEX
  8
AM_0
  5
1EAC1
 10
-60.7383
 20
397.020
 30
0.000000
  70
    32
  0
VERTEX
  8
AM_0
  5
1EAC2
 10
-59.3252
 20
395.013
 30
0.000000
  70
    32
  0
VERTEX
  8
AM_0
  5
1EAC3
 10
-58.0122
 20
392.940
 30
0.000000
  70
    32
  0
VERTEX
  8
AM_0
  5
1EAC4
 10
-56.8026
 20
390.804
 30
0.000000
  70
    32
  0
VERTEX
  8
AM_0
  5
1EAC5
 10
-55.6992
 20
388.612
 30
0.000000
  70
    32
  0
VERTEX
  8
AM_0
  5
1EAC6
 10
-54.7047
 20
386.369
 30
0.000000
  70
    32
  0
VERTEX
  8
AM_0
  5
1EAC7
 10
-53.8215
 20
384.079
 30
0.000000
  70
    32
  0
VERTEX
  8
AM_0
  5
1EAC8
 10
-53.0516
 20
381.748
 30
0.000000
  70
    32
  0
VERTEX
  8
AM_0
  5
1EAC9
 10
-52.3971
 20
379.383
 30
0.000000
  70
    32
  0
VERTEX
  8
AM_0
  5
1EACA
 10
-51.8594
 20
376.989
 30
0.000000
  70
    32
  0
VERTEX
  8
AM_0
  5
1EACB
 10
-51.4398
 20
374.571
 30
0.000000
  70
    32
  0
VERTEX
  8
AM_0
  5
1EACC
 10
-51.1394
 20
372.135
 30
0.000000
  70
    32
  0
VERTEX
  8
AM_0
  5
1EACD
 10
-50.9589
 20
369.687
 30
0.000000
  70
    32
  0
VERTEX
  8
AM_0
  5
1EACE
 10
-50.8987
 20
367.234
 30
0.000000
  70
    32
  0
SEQEND
  8
AM_0
  5
1EACF
  0
ARC
  5
1D619
  8
AM_0
 10
-100.89865698898249
 20
367.23396406195479
 30
0.0
 40
21.0
 50
106.6015495990234
 51
73.398450400976557
  0
POLYLINE
  5
1D61A
  8
AM_0
 10
-68.398656010657021
 20
367.23396388756265
 30
0.0
 66
     1
 70
     8
  0
VERTEX
  8
AM_0
  5
1EAD0
 10
-68.3987
 20
367.234
 30
0.000000
  70
    32
  0
VERTEX
  8
AM_0
  5
1EAD1
 10
-68.4378
 20
365.639
 30
0.000000
  70
    32
  0
VERTEX
  8
AM_0
  5
1EAD2
 10
-68.5552
 20
364.048
 30
0.000000
  70
    32
  0
VERTEX
  8
AM_0
  5
1EAD3
 10
-68.7504
 20
362.465
 30
0.000000
  70
    32
  0
VERTEX
  8
AM_0
  5
1EAD4
 10
-69.0231
 20
360.893
 30
0.000000
  70
    32
  0
VERTEX
  8
AM_0
  5
1EAD5
 10
-69.3726
 20
359.337
 30
0.000000
  70
    32
  0
VERTEX
  8
AM_0
  5
1EAD6
 10
-69.7981
 20
357.800
 30
0.000000
  70
    32
  0
VERTEX
  8
AM_0
  5
1EAD7
 10
-70.2985
 20
356.285
 30
0.000000
  70
    32
  0
VERTEX
  8
AM_0
  5
1EAD8
 10
-70.8726
 20
354.797
 30
0.000000
  70
    32
  0
VERTEX
  8
AM_0
  5
1EAD9
 10
-71.5190
 20
353.338
 30
0.000000
  70
    32
  0
VERTEX
  8
AM_0
  5
1EADA
 10
-72.2362
 20
351.913
 30
0.000000
  70
    32
  0
VERTEX
  8
AM_0
  5
1EADB
 10
-73.0225
 20
350.525
 30
0.000000
  70
    32
  0
VERTEX
  8
AM_0
  5
1EADC
 10
-73.8759
 20
349.178
 30
0.000000
  70
    32
  0
VERTEX
  8
AM_0
  5
1EADD
 10
-74.7944
 20
347.873
 30
0.000000
  70
    32
  0
VERTEX
  8
AM_0
  5
1EADE
 10
-75.7758
 20
346.616
 30
0.000000
  70
    32
  0
VERTEX
  8
AM_0
  5
1EADF
 10
-76.8177
 20
345.408
 30
0.000000
  70
    32
  0
VERTEX
  8
AM_0
  5
1EAE0
 10
-77.9177
 20
344.253
 30
0.000000
  70
    32
  0
VERTEX
  8
AM_0
  5
1EAE1
 10
-79.0730
 20
343.153
 30
0.000000
  70
    32
  0
VERTEX
  8
AM_0
  5
1EAE2
 10
-80.2809
 20
342.111
 30
0.000000
  70
    32
  0
VERTEX
  8
AM_0
  5
1EAE3
 10
-81.5384
 20
341.129
 30
0.000000
  70
    32
  0
VERTEX
  8
AM_0
  5
1EAE4
 10
-82.8426
 20
340.211
 30
0.000000
  70
    32
  0
VERTEX
  8
AM_0
  5
1EAE5
 10
-84.1903
 20
339.357
 30
0.000000
  70
    32
  0
VERTEX
  8
AM_0
  5
1EAE6
 10
-85.5783
 20
338.571
 30
0.000000
  70
    32
  0
VERTEX
  8
AM_0
  5
1EAE7
 10
-87.0031
 20
337.854
 30
0.000000
  70
    32
  0
VERTEX
  8
AM_0
  5
1EAE8
 10
-88.4614
 20
337.207
 30
0.000000
  70
    32
  0
VERTEX
  8
AM_0
  5
1EAE9
 10
-89.9497
 20
336.633
 30
0.000000
  70
    32
  0
VERTEX
  8
AM_0
  5
1EAEA
 10
-91.4644
 20
336.133
 30
0.000000
  70
    32
  0
VERTEX
  8
AM_0
  5
1EAEB
 10
-93.0018
 20
335.707
 30
0.000000
  70
    32
  0
VERTEX
  8
AM_0
  5
1EAEC
 10
-94.5582
 20
335.358
 30
0.000000
  70
    32
  0
VERTEX
  8
AM_0
  5
1EAED
 10
-96.1299
 20
335.085
 30
0.000000
  70
    32
  0
VERTEX
  8
AM_0
  5
1EAEE
 10
-97.7131
 20
334.890
 30
0.000000
  70
    32
  0
VERTEX
  8
AM_0
  5
1EAEF
 10
-99.3040
 20
334.772
 30
0.000000
  70
    32
  0
VERTEX
  8
AM_0
  5
1EAF0
 10
-100.899
 20
334.733
 30
0.000000
  70
    32
  0
VERTEX
  8
AM_0
  5
1EAF1
 10
-102.493
 20
334.772
 30
0.000000
  70
    32
  0
VERTEX
  8
AM_0
  5
1EAF2
 10
-104.084
 20
334.890
 30
0.000000
  70
    32
  0
VERTEX
  8
AM_0
  5
1EAF3
 10
-105.667
 20
335.085
 30
0.000000
  70
    32
  0
VERTEX
  8
AM_0
  5
1EAF4
 10
-107.239
 20
335.358
 30
0.000000
  70
    32
  0
VERTEX
  8
AM_0
  5
1EAF5
 10
-108.796
 20
335.707
 30
0.000000
  70
    32
  0
VERTEX
  8
AM_0
  5
1EAF6
 10
-110.333
 20
336.133
 30
0.000000
  70
    32
  0
VERTEX
  8
AM_0
  5
1EAF7
 10
-111.848
 20
336.633
 30
0.000000
  70
    32
  0
VERTEX
  8
AM_0
  5
1EAF8
 10
-113.336
 20
337.207
 30
0.000000
  70
    32
  0
VERTEX
  8
AM_0
  5
1EAF9
 10
-114.794
 20
337.854
 30
0.000000
  70
    32
  0
VERTEX
  8
AM_0
  5
1EAFA
 10
-116.219
 20
338.571
 30
0.000000
  70
    32
  0
VERTEX
  8
AM_0
  5
1EAFB
 10
-117.607
 20
339.357
 30
0.000000
  70
    32
  0
VERTEX
  8
AM_0
  5
1EAFC
 10
-118.955
 20
340.211
 30
0.000000
  70
    32
  0
VERTEX
  8
AM_0
  5
1EAFD
 10
-120.259
 20
341.129
 30
0.000000
  70
    32
  0
VERTEX
  8
AM_0
  5
1EAFE
 10
-121.516
 20
342.111
 30
0.000000
  70
    32
  0
VERTEX
  8
AM_0
  5
1EAFF
 10
-122.724
 20
343.153
 30
0.000000
  70
    32
  0
VERTEX
  8
AM_0
  5
1EB00
 10
-123.880
 20
344.253
 30
0.000000
  70
    32
  0
VERTEX
  8
AM_0
  5
1EB01
 10
-124.980
 20
345.408
 30
0.000000
  70
    32
  0
VERTEX
  8
AM_0
  5
1EB02
 10
-126.021
 20
346.616
 30
0.000000
  70
    32
  0
VERTEX
  8
AM_0
  5
1EB03
 10
-127.003
 20
347.873
 30
0.000000
  70
    32
  0
VERTEX
  8
AM_0
  5
1EB04
 10
-127.921
 20
349.178
 30
0.000000
  70
    32
  0
VERTEX
  8
AM_0
  5
1EB05
 10
-128.775
 20
350.525
 30
0.000000
  70
    32
  0
VERTEX
  8
AM_0
  5
1EB06
 10
-129.561
 20
351.913
 30
0.000000
  70
    32
  0
VERTEX
  8
AM_0
  5
1EB07
 10
-130.278
 20
353.338
 30
0.000000
  70
    32
  0
VERTEX
  8
AM_0
  5
1EB08
 10
-130.925
 20
354.797
 30
0.000000
  70
    32
  0
VERTEX
  8
AM_0
  5
1EB09
 10
-131.499
 20
356.285
 30
0.000000
  70
    32
  0
VERTEX
  8
AM_0
  5
1EB0A
 10
-131.999
 20
357.800
 30
0.000000
  70
    32
  0
VERTEX
  8
AM_0
  5
1EB0B
 10
-132.425
 20
359.337
 30
0.000000
  70
    32
  0
VERTEX
  8
AM_0
  5
1EB0C
 10
-132.774
 20
360.893
 30
0.000000
  70
    32
  0
VERTEX
  8
AM_0
  5
1EB0D
 10
-133.047
 20
362.465
 30
0.000000
  70
    32
  0
VERTEX
  8
AM_0
  5
1EB0E
 10
-133.242
 20
364.048
 30
0.000000
  70
    32
  0
VERTEX
  8
AM_0
  5
1EB0F
 10
-133.360
 20
365.639
 30
0.000000
  70
    32
  0
VERTEX
  8
AM_0
  5
1EB10
 10
-133.399
 20
367.234
 30
0.000000
  70
    32
  0
VERTEX
  8
AM_0
  5
1EB11
 10
-133.360
 20
368.829
 30
0.000000
  70
    32
  0
VERTEX
  8
AM_0
  5
1EB12
 10
-133.242
 20
370.420
 30
0.000000
  70
    32
  0
VERTEX
  8
AM_0
  5
1EB13
 10
-133.047
 20
372.003
 30
0.000000
  70
    32
  0
VERTEX
  8
AM_0
  5
1EB14
 10
-132.774
 20
373.575
 30
0.000000
  70
    32
  0
VERTEX
  8
AM_0
  5
1EB15
 10
-132.425
 20
375.131
 30
0.000000
  70
    32
  0
VERTEX
  8
AM_0
  5
1EB16
 10
-131.999
 20
376.668
 30
0.000000
  70
    32
  0
VERTEX
  8
AM_0
  5
1EB17
 10
-131.499
 20
378.183
 30
0.000000
  70
    32
  0
VERTEX
  8
AM_0
  5
1EB18
 10
-130.925
 20
379.671
 30
0.000000
  70
    32
  0
VERTEX
  8
AM_0
  5
1EB19
 10
-130.278
 20
381.130
 30
0.000000
  70
    32
  0
VERTEX
  8
AM_0
  5
1EB1A
 10
-129.561
 20
382.555
 30
0.000000
  70
    32
  0
VERTEX
  8
AM_0
  5
1EB1B
 10
-128.775
 20
383.943
 30
0.000000
  70
    32
  0
VERTEX
  8
AM_0
  5
1EB1C
 10
-127.921
 20
385.290
 30
0.000000
  70
    32
  0
VERTEX
  8
AM_0
  5
1EB1D
 10
-127.003
 20
386.595
 30
0.000000
  70
    32
  0
VERTEX
  8
AM_0
  5
1EB1E
 10
-126.021
 20
387.852
 30
0.000000
  70
    32
  0
VERTEX
  8
AM_0
  5
1EB1F
 10
-124.980
 20
389.060
 30
0.000000
  70
    32
  0
VERTEX
  8
AM_0
  5
1EB20
 10
-123.880
 20
390.215
 30
0.000000
  70
    32
  0
VERTEX
  8
AM_0
  5
1EB21
 10
-122.724
 20
391.315
 30
0.000000
  70
    32
  0
VERTEX
  8
AM_0
  5
1EB22
 10
-121.516
 20
392.357
 30
0.000000
  70
    32
  0
VERTEX
  8
AM_0
  5
1EB23
 10
-120.259
 20
393.339
 30
0.000000
  70
    32
  0
VERTEX
  8
AM_0
  5
1EB24
 10
-118.955
 20
394.257
 30
0.000000
  70
    32
  0
VERTEX
  8
AM_0
  5
1EB25
 10
-117.607
 20
395.111
 30
0.000000
  70
    32
  0
VERTEX
  8
AM_0
  5
1EB26
 10
-116.219
 20
395.897
 30
0.000000
  70
    32
  0
VERTEX
  8
AM_0
  5
1EB27
 10
-114.794
 20
396.614
 30
0.000000
  70
    32
  0
VERTEX
  8
AM_0
  5
1EB28
 10
-113.336
 20
397.261
 30
0.000000
  70
    32
  0
VERTEX
  8
AM_0
  5
1EB29
 10
-111.848
 20
397.835
 30
0.000000
  70
    32
  0
VERTEX
  8
AM_0
  5
1EB2A
 10
-110.333
 20
398.335
 30
0.000000
  70
    32
  0
VERTEX
  8
AM_0
  5
1EB2B
 10
-108.796
 20
398.761
 30
0.000000
  70
    32
  0
VERTEX
  8
AM_0
  5
1EB2C
 10
-107.239
 20
399.110
 30
0.000000
  70
    32
  0
VERTEX
  8
AM_0
  5
1EB2D
 10
-105.667
 20
399.383
 30
0.000000
  70
    32
  0
VERTEX
  8
AM_0
  5
1EB2E
 10
-104.084
 20
399.578
 30
0.000000
  70
    32
  0
VERTEX
  8
AM_0
  5
1EB2F
 10
-102.493
 20
399.695
 30
0.000000
  70
    32
  0
VERTEX
  8
AM_0
  5
1EB30
 10
-100.899
 20
399.735
 30
0.000000
  70
    32
  0
VERTEX
  8
AM_0
  5
1EB31
 10
-99.3040
 20
399.695
 30
0.000000
  70
    32
  0
VERTEX
  8
AM_0
  5
1EB32
 10
-97.7131
 20
399.578
 30
0.000000
  70
    32
  0
VERTEX
  8
AM_0
  5
1EB33
 10
-96.1299
 20
399.383
 30
0.000000
  70
    32
  0
VERTEX
  8
AM_0
  5
1EB34
 10
-94.5582
 20
399.110
 30
0.000000
  70
    32
  0
VERTEX
  8
AM_0
  5
1EB35
 10
-93.0018
 20
398.761
 30
0.000000
  70
    32
  0
VERTEX
  8
AM_0
  5
1EB36
 10
-91.4644
 20
398.335
 30
0.000000
  70
    32
  0
VERTEX
  8
AM_0
  5
1EB37
 10
-89.9497
 20
397.835
 30
0.000000
  70
    32
  0
VERTEX
  8
AM_0
  5
1EB38
 10
-88.4614
 20
397.261
 30
0.000000
  70
    32
  0
VERTEX
  8
AM_0
  5
1EB39
 10
-87.0031
 20
396.614
 30
0.000000
  70
    32
  0
VERTEX
  8
AM_0
  5
1EB3A
 10
-85.5783
 20
395.897
 30
0.000000
  70
    32
  0
VERTEX
  8
AM_0
  5
1EB3B
 10
-84.1903
 20
395.111
 30
0.000000
  70
    32
  0
VERTEX
  8
AM_0
  5
1EB3C
 10
-82.8426
 20
394.257
 30
0.000000
  70
    32
  0
VERTEX
  8
AM_0
  5
1EB3D
 10
-81.5384
 20
393.339
 30
0.000000
  70
    32
  0
VERTEX
  8
AM_0
  5
1EB3E
 10
-80.2809
 20
392.357
 30
0.000000
  70
    32
  0
VERTEX
  8
AM_0
  5
1EB3F
 10
-79.0730
 20
391.315
 30
0.000000
  70
    32
  0
VERTEX
  8
AM_0
  5
1EB40
 10
-77.9177
 20
390.215
 30
0.000000
  70
    32
  0
VERTEX
  8
AM_0
  5
1EB41
 10
-76.8177
 20
389.060
 30
0.000000
  70
    32
  0
VERTEX
  8
AM_0
  5
1EB42
 10
-75.7758
 20
387.852
 30
0.000000
  70
    32
  0
VERTEX
  8
AM_0
  5
1EB43
 10
-74.7944
 20
386.595
 30
0.000000
  70
    32
  0
VERTEX
  8
AM_0
  5
1EB44
 10
-73.8759
 20
385.290
 30
0.000000
  70
    32
  0
VERTEX
  8
AM_0
  5
1EB45
 10
-73.0225
 20
383.943
 30
0.000000
  70
    32
  0
VERTEX
  8
AM_0
  5
1EB46
 10
-72.2362
 20
382.555
 30
0.000000
  70
    32
  0
VERTEX
  8
AM_0
  5
1EB47
 10
-71.5190
 20
381.130
 30
0.000000
  70
    32
  0
VERTEX
  8
AM_0
  5
1EB48
 10
-70.8726
 20
379.671
 30
0.000000
  70
    32
  0
VERTEX
  8
AM_0
  5
1EB49
 10
-70.2985
 20
378.183
 30
0.000000
  70
    32
  0
VERTEX
  8
AM_0
  5
1EB4A
 10
-69.7981
 20
376.668
 30
0.000000
  70
    32
  0
VERTEX
  8
AM_0
  5
1EB4B
 10
-69.3726
 20
375.131
 30
0.000000
  70
    32
  0
VERTEX
  8
AM_0
  5
1EB4C
 10
-69.0231
 20
373.575
 30
0.000000
  70
    32
  0
VERTEX
  8
AM_0
  5
1EB4D
 10
-68.7504
 20
372.003
 30
0.000000
  70
    32
  0
VERTEX
  8
AM_0
  5
1EB4E
 10
-68.5552
 20
370.420
 30
0.000000
  70
    32
  0
VERTEX
  8
AM_0
  5
1EB4F
 10
-68.4378
 20
368.829
 30
0.000000
  70
    32
  0
VERTEX
  8
AM_0
  5
1EB50
 10
-68.3987
 20
367.234
 30
0.000000
  70
    32
  0
SEQEND
  8
AM_0
  5
1EB51
  0
CIRCLE
  5
1D61B
  8
ｽﾝﾎﾟｳｾﾝ
 10
-100.89865698898249
 20
367.23396406195479
 30
0.0
 40
5.0
  0
LINE
  5
1D61C
  8
AM_0
 10
-106.89865698898249
 20
391.23396406195479
 30
0.0
 11
-94.898656988982566
 21
391.23396406195479
 31
0.0
  0
LINE
  5
1D61D
  8
AM_0
 10
-94.898656988982566
 20
383.23396406195479
 30
0.0
 11
-106.89865698898249
 21
383.23396406195479
 31
0.0
  0
LINE
  5
1D61E
  8
AM_0
 10
-106.89865698898249
 20
383.23396406195479
 30
0.0
 11
-106.89865698898249
 21
391.23396406195479
 31
0.0
  0
LINE
  5
1D61F
  8
AM_0
 10
-94.898656988982566
 20
391.23396406195479
 30
0.0
 11
-94.898656988982566
 21
383.23396406195479
 31
0.0
  0
CIRCLE
  5
1D620
  8
AM_0
 10
-100.89865698898249
 20
367.23396406195479
 30
0.0
 40
4.25
  0
LINE
  5
1D622
  8
AM_0
 10
-150.89965847912879
 20
807.67377276707145
 30
0.0
 11
-50.897655498837167
 21
807.67377276707145
 31
0.0
  0
LINE
  5
1D623
  8
AM_0
 10
-250.89863098675229
 20
802.6737764312569
 30
0.0
 11
-16.898654460387888
 21
802.6737764312569
 31
0.0
  0
LINE
  5
1D624
  8
AM_0
 10
-68.398006020387612
 20
812.67444908471668
 30
0.0
 11
-133.39930795757741
 21
812.67444908471725
 31
0.0
  0
LINE
  5
1D625
  8
AM_0
 10
-150.89965847912879
 20
657.67376443702574
 30
0.0
 11
-50.897655498837139
 21
657.67376443702551
 31
0.0
  0
LINE
  5
1D626
  8
AM_0
 10
-126.8985167803624
 20
664.67376846243894
 30
0.0
 11
-140.8987971976033
 21
664.67376846243894
 31
0.0
  0
LINE
  5
1D627
  8
AM_0
 10
-120.8983966015449
 20
677.67376885376939
 30
0.0
 11
-146.8989173764208
 21
677.67376885376939
 31
0.0
  0
LINE
  5
1D628
  8
AM_0
 10
-124.4984748124735
 20
674.67376876346248
 30
0.0
 11
-143.2988391654925
 21
674.67376876346248
 31
0.0
  0
LINE
  5
1D629
  8
AM_0
 10
-133.20778621766101
 20
674.67376876346248
 30
0.0
 11
-131.4756958608649
 21
677.67376885376939
 31
0.0
  0
LINE
  5
1D62A
  8
AM_0
 10
-250.89863098675229
 20
662.67376840223471
 30
0.0
 11
-16.898654460387888
 21
662.67376840223426
 31
0.0
  0
LINE
  5
1D62B
  8
AM_0
 10
-250.8986309867521
 20
689.67376921499715
 30
0.0
 11
-16.898654460387888
 21
689.67376921499715
 31
0.0
  0
LINE
  5
1D62C
  8
ﾁｭｳｼﾝｾﾝ1
 10
-511.39999999999981
 20
732.67410265405942
 30
0.0
 11
-11.89865446038791
 21
732.67410765405941
 31
0.0
  0
LINE
  5
1D62D
  8
AM_0
 10
-262.8986849148788
 20
669.67410492282897
 30
0.0
 11
-262.89868491487891
 21
799.85926132774534
 31
0.0
  0
LINE
  5
1D62E
  8
AM_0
 10
-248.92617937035141
 20
802.6737764312569
 30
0.0
 11
-250.8986309867521
 21
689.67376921499715
 31
0.0
  0
LINE
  5
1D632
  8
AM_0
 10
-276.8986849148788
 20
659.17411865405938
 30
0.0
 11
-276.89868491487891
 21
806.1741076540593
 31
0.0
  0
LINE
  5
1D633
  8
AM_0
 10
-260.8986849366417
 20
730.17410494459216
 30
0.0
 11
-252.2268998791094
 21
730.17410503895348
 31
0.0
  0
LINE
  5
1D634
  8
AM_0
 10
-260.89868489311613
 20
735.17410494459216
 30
0.0
 11
-252.06980192923601
 21
735.17410504066265
 31
0.0
  0
LINE
  5
1D635
  8
AM_0
 10
-260.12922062063848
 20
693.67376921499715
 30
0.0
 11
-252.86402500599681
 21
693.67376921499715
 31
0.0
  0
LINE
  5
1D636
  8
AM_0
 10
-263.19794841061298
 20
661.10431966065471
 30
0.0
 11
-262.12800227467682
 21
691.74356820840239
 31
0.0
  0
LINE
  5
1D637
  8
AM_0
 10
-276.89862491487872
 20
659.17411865405938
 30
0.0
 11
-265.19673006465109
 21
659.17411865405961
 31
0.0
  0
ARC
  5
1D638
  8
AM_0
 10
-265.19673006465121
 20
661.17411865405961
 30
0.0
 40
2.0
 50
270.0
 51
357.99999999999642
1001
GENIUS_GENODEF_13
1002
{
1000
HIER
1070
     0
1002
}
1002
{
1000
MANEDIT
1070
     0
1002
}
1002
{
1000
NOSEL
1070
     0
1002
}
1002
{
1000
BEHIND
1070
     0
1002
}
1002
{
1000
OTHER
1070
     0
1002
}
1002
{
1000
REACTOR
1002
}
1001
GENIUS_GENOBJ-N-FIL_13
1002
{
1000
OWNER
1000
GEN
1002
}
  0
ARC
  5
1D639
  8
AM_0
 10
-260.1292206206387
 20
691.67376921499715
 30
0.0
 40
2.0
 50
90.000000000000057
 51
177.99999999999631
1001
GENIUS_GENODEF_13
1002
{
1000
HIER
1070
     0
1002
}
1002
{
1000
MANEDIT
1070
     0
1002
}
1002
{
1000
NOSEL
1070
     0
1002
}
1002
{
1000
BEHIND
1070
     0
1002
}
1002
{
1000
OTHER
1070
     0
1002
}
1002
{
1000
REACTOR
1002
}
1001
GENIUS_GENOBJ-N-FIL_13
1002
{
1000
OWNER
1000
GEN
1002
}
  0
ARC
  5
1D63A
  8
AM_0
 10
-260.8986849148788
 20
728.17410494459227
 30
0.0
 40
2.0
 50
90.00000062345957
 51
180.0
1001
GENIUS_GENOBJ-N-FIL_13
1002
{
1000
OWNER
1000
GEN
1002
}
1001
GENIUS_GENODEF_13
1002
{
1000
HIER
1070
     0
1002
}
1002
{
1000
MANEDIT
1070
     0
1002
}
1002
{
1000
NOSEL
1070
     0
1002
}
1002
{
1000
BEHIND
1070
     0
1002
}
1002
{
1000
OTHER
1070
     0
1002
}
1002
{
1000
REACTOR
1002
}
  0
ARC
  5
1D63B
  8
AM_0
 10
-260.8986849148788
 20
737.17410494459227
 30
0.0
 40
2.0
 50
180.0
 51
270.00000062345953
1001
GENIUS_GENOBJ-N-FIL_13
1002
{
1000
OWNER
1000
GEN
1002
}
1001
GENIUS_GENODEF_13
1002
{
1000
HIER
1070
     0
1002
}
1002
{
1000
MANEDIT
1070
     0
1002
}
1002
{
1000
NOSEL
1070
     0
1002
}
1002
{
1000
BEHIND
1070
     0
1002
}
1002
{
1000
OTHER
1070
     0
1002
}
1002
{
1000
REACTOR
1002
}
  0
LINE
  5
1D63C
  8
AM_0
 10
-250.8986309867521
 20
689.67376921499715
 30
0.0
 11
-250.42733858806329
 21
662.67376840223426
 31
0.0
  0
LINE
  5
1D63D
  8
AM_0
 10
-146.8989173764208
 20
662.67376840223426
 30
0.0
 11
-146.8989173764208
 21
677.67376885376939
 31
0.0
  0
LINE
  5
1D63E
  8
AM_0
 10
-150.89965847912879
 20
662.67376458753722
 30
0.0
 11
-150.89965847912879
 21
657.67376443702574
 31
0.0
  0
LINE
  5
1D63F
  8
AM_0
 10
-68.398006020387612
 20
807.6744489342052
 30
0.0
 11
-68.398006020387612
 21
812.67444908471668
 31
0.0
  0
ARC
  5
1D640
  8
AM_0
 10
-252.86402500599689
 20
691.67376921499715
 30
0.0
 40
2.0
 50
358.99998522241918
 51
90.000000000000057
1001
GENIUS_GENOBJ-N-FIL_13
1002
{
1000
OWNER
1000
GEN
1002
}
1001
GENIUS_GENODEF_13
1002
{
1000
HIER
1070
     0
1002
}
1002
{
1000
MANEDIT
1070
     0
1002
}
1002
{
1000
NOSEL
1070
     0
1002
}
1002
{
1000
BEHIND
1070
     0
1002
}
1002
{
1000
OTHER
1070
     0
1002
}
1002
{
1000
REACTOR
1002
}
  0
ARC
  5
1D641
  8
AM_0
 10
-252.22689985734661
 20
728.17410503895314
 30
0.0
 40
2.0
 50
358.99998522241918
 51
90.00000062345957
1001
GENIUS_GENOBJ-N-FIL_13
1002
{
1000
OWNER
1000
GEN
1002
}
1001
GENIUS_GENODEF_13
1002
{
1000
HIER
1070
     0
1002
}
1002
{
1000
MANEDIT
1070
     0
1002
}
1002
{
1000
NOSEL
1070
     0
1002
}
1002
{
1000
BEHIND
1070
     0
1002
}
1002
{
1000
OTHER
1070
     0
1002
}
1002
{
1000
REACTOR
1002
}
  0
ARC
  5
1D642
  8
AM_0
 10
-252.06980195099879
 20
737.17410504066288
 30
0.0
 40
2.0
 50
270.00000062345953
 51
358.99998522241918
1001
GENIUS_GENODEF_13
1002
{
1000
HIER
1070
     0
1002
}
1002
{
1000
MANEDIT
1070
     0
1002
}
1002
{
1000
NOSEL
1070
     0
1002
}
1002
{
1000
BEHIND
1070
     0
1002
}
1002
{
1000
OTHER
1070
     0
1002
}
1002
{
1000
REACTOR
1002
}
1001
GENIUS_GENOBJ-N-FIL_13
1002
{
1000
OWNER
1000
GEN
1002
}
  0
LINE
  5
1D643
  8
AM_0
 10
-141.89881722740631
 20
665.67376849254151
 30
0.0
 11
-141.89881722740631
 21
674.67376876346248
 31
0.0
  0
POLYLINE
  5
1D644
  8
AM_0
 10
-141.89881722740625
 20
665.67376844883029
 30
0.0
 66
     1
 70
     8
  0
VERTEX
  8
AM_0
  5
1EB52
 10
-141.899
 20
665.674
 30
0.000000
  70
    32
  0
VERTEX
  8
AM_0
  5
1EB53
 10
-141.899
 20
665.661
 30
0.000000
  70
    32
  0
VERTEX
  8
AM_0
  5
1EB54
 10
-141.899
 20
665.649
 30
0.000000
  70
    32
  0
VERTEX
  8
AM_0
  5
1EB55
 10
-141.898
 20
665.637
 30
0.000000
  70
    32
  0
VERTEX
  8
AM_0
  5
1EB56
 10
-141.898
 20
665.625
 30
0.000000
  70
    32
  0
VERTEX
  8
AM_0
  5
1EB57
 10
-141.897
 20
665.612
 30
0.000000
  70
    32
  0
VERTEX
  8
AM_0
  5
1EB58
 10
-141.896
 20
665.600
 30
0.000000
  70
    32
  0
VERTEX
  8
AM_0
  5
1EB59
 10
-141.895
 20
665.588
 30
0.000000
  70
    32
  0
VERTEX
  8
AM_0
  5
1EB5A
 10
-141.894
 20
665.576
 30
0.000000
  70
    32
  0
VERTEX
  8
AM_0
  5
1EB5B
 10
-141.893
 20
665.564
 30
0.000000
  70
    32
  0
VERTEX
  8
AM_0
  5
1EB5C
 10
-141.891
 20
665.551
 30
0.000000
  70
    32
  0
VERTEX
  8
AM_0
  5
1EB5D
 10
-141.890
 20
665.539
 30
0.000000
  70
    32
  0
VERTEX
  8
AM_0
  5
1EB5E
 10
-141.888
 20
665.527
 30
0.000000
  70
    32
  0
VERTEX
  8
AM_0
  5
1EB5F
 10
-141.886
 20
665.515
 30
0.000000
  70
    32
  0
VERTEX
  8
AM_0
  5
1EB60
 10
-141.884
 20
665.503
 30
0.000000
  70
    32
  0
VERTEX
  8
AM_0
  5
1EB61
 10
-141.882
 20
665.491
 30
0.000000
  70
    32
  0
VERTEX
  8
AM_0
  5
1EB62
 10
-141.880
 20
665.479
 30
0.000000
  70
    32
  0
VERTEX
  8
AM_0
  5
1EB63
 10
-141.877
 20
665.467
 30
0.000000
  70
    32
  0
VERTEX
  8
AM_0
  5
1EB64
 10
-141.875
 20
665.455
 30
0.000000
  70
    32
  0
VERTEX
  8
AM_0
  5
1EB65
 10
-141.872
 20
665.443
 30
0.000000
  70
    32
  0
VERTEX
  8
AM_0
  5
1EB66
 10
-141.869
 20
665.431
 30
0.000000
  70
    32
  0
VERTEX
  8
AM_0
  5
1EB67
 10
-141.866
 20
665.419
 30
0.000000
  70
    32
  0
VERTEX
  8
AM_0
  5
1EB68
 10
-141.863
 20
665.407
 30
0.000000
  70
    32
  0
VERTEX
  8
AM_0
  5
1EB69
 10
-141.859
 20
665.395
 30
0.000000
  70
    32
  0
VERTEX
  8
AM_0
  5
1EB6A
 10
-141.856
 20
665.383
 30
0.000000
  70
    32
  0
VERTEX
  8
AM_0
  5
1EB6B
 10
-141.852
 20
665.372
 30
0.000000
  70
    32
  0
VERTEX
  8
AM_0
  5
1EB6C
 10
-141.848
 20
665.360
 30
0.000000
  70
    32
  0
VERTEX
  8
AM_0
  5
1EB6D
 10
-141.844
 20
665.348
 30
0.000000
  70
    32
  0
VERTEX
  8
AM_0
  5
1EB6E
 10
-141.840
 20
665.337
 30
0.000000
  70
    32
  0
VERTEX
  8
AM_0
  5
1EB6F
 10
-141.836
 20
665.325
 30
0.000000
  70
    32
  0
VERTEX
  8
AM_0
  5
1EB70
 10
-141.832
 20
665.314
 30
0.000000
  70
    32
  0
VERTEX
  8
AM_0
  5
1EB71
 10
-141.827
 20
665.302
 30
0.000000
  70
    32
  0
VERTEX
  8
AM_0
  5
1EB72
 10
-141.823
 20
665.291
 30
0.000000
  70
    32
  0
VERTEX
  8
AM_0
  5
1EB73
 10
-141.818
 20
665.280
 30
0.000000
  70
    32
  0
VERTEX
  8
AM_0
  5
1EB74
 10
-141.813
 20
665.269
 30
0.000000
  70
    32
  0
VERTEX
  8
AM_0
  5
1EB75
 10
-141.808
 20
665.257
 30
0.000000
  70
    32
  0
VERTEX
  8
AM_0
  5
1EB76
 10
-141.803
 20
665.246
 30
0.000000
  70
    32
  0
VERTEX
  8
AM_0
  5
1EB77
 10
-141.797
 20
665.235
 30
0.000000
  70
    32
  0
VERTEX
  8
AM_0
  5
1EB78
 10
-141.792
 20
665.224
 30
0.000000
  70
    32
  0
VERTEX
  8
AM_0
  5
1EB79
 10
-141.786
 20
665.213
 30
0.000000
  70
    32
  0
VERTEX
  8
AM_0
  5
1EB7A
 10
-141.781
 20
665.202
 30
0.000000
  70
    32
  0
VERTEX
  8
AM_0
  5
1EB7B
 10
-141.775
 20
665.192
 30
0.000000
  70
    32
  0
VERTEX
  8
AM_0
  5
1EB7C
 10
-141.769
 20
665.181
 30
0.000000
  70
    32
  0
VERTEX
  8
AM_0
  5
1EB7D
 10
-141.763
 20
665.170
 30
0.000000
  70
    32
  0
VERTEX
  8
AM_0
  5
1EB7E
 10
-141.757
 20
665.160
 30
0.000000
  70
    32
  0
VERTEX
  8
AM_0
  5
1EB7F
 10
-141.750
 20
665.149
 30
0.000000
  70
    32
  0
VERTEX
  8
AM_0
  5
1EB80
 10
-141.744
 20
665.139
 30
0.000000
  70
    32
  0
VERTEX
  8
AM_0
  5
1EB81
 10
-141.737
 20
665.128
 30
0.000000
  70
    32
  0
VERTEX
  8
AM_0
  5
1EB82
 10
-141.730
 20
665.118
 30
0.000000
  70
    32
  0
VERTEX
  8
AM_0
  5
1EB83
 10
-141.723
 20
665.108
 30
0.000000
  70
    32
  0
VERTEX
  8
AM_0
  5
1EB84
 10
-141.716
 20
665.098
 30
0.000000
  70
    32
  0
VERTEX
  8
AM_0
  5
1EB85
 10
-141.709
 20
665.088
 30
0.000000
  70
    32
  0
VERTEX
  8
AM_0
  5
1EB86
 10
-141.702
 20
665.078
 30
0.000000
  70
    32
  0
VERTEX
  8
AM_0
  5
1EB87
 10
-141.695
 20
665.068
 30
0.000000
  70
    32
  0
VERTEX
  8
AM_0
  5
1EB88
 10
-141.687
 20
665.059
 30
0.000000
  70
    32
  0
VERTEX
  8
AM_0
  5
1EB89
 10
-141.680
 20
665.049
 30
0.000000
  70
    32
  0
VERTEX
  8
AM_0
  5
1EB8A
 10
-141.672
 20
665.039
 30
0.000000
  70
    32
  0
VERTEX
  8
AM_0
  5
1EB8B
 10
-141.664
 20
665.030
 30
0.000000
  70
    32
  0
VERTEX
  8
AM_0
  5
1EB8C
 10
-141.656
 20
665.021
 30
0.000000
  70
    32
  0
VERTEX
  8
AM_0
  5
1EB8D
 10
-141.648
 20
665.011
 30
0.000000
  70
    32
  0
VERTEX
  8
AM_0
  5
1EB8E
 10
-141.640
 20
665.002
 30
0.000000
  70
    32
  0
VERTEX
  8
AM_0
  5
1EB8F
 10
-141.631
 20
664.993
 30
0.000000
  70
    32
  0
VERTEX
  8
AM_0
  5
1EB90
 10
-141.623
 20
664.984
 30
0.000000
  70
    32
  0
VERTEX
  8
AM_0
  5
1EB91
 10
-141.615
 20
664.975
 30
0.000000
  70
    32
  0
VERTEX
  8
AM_0
  5
1EB92
 10
-141.606
 20
664.967
 30
0.000000
  70
    32
  0
VERTEX
  8
AM_0
  5
1EB93
 10
-141.597
 20
664.958
 30
0.000000
  70
    32
  0
VERTEX
  8
AM_0
  5
1EB94
 10
-141.588
 20
664.950
 30
0.000000
  70
    32
  0
VERTEX
  8
AM_0
  5
1EB95
 10
-141.579
 20
664.941
 30
0.000000
  70
    32
  0
VERTEX
  8
AM_0
  5
1EB96
 10
-141.570
 20
664.933
 30
0.000000
  70
    32
  0
VERTEX
  8
AM_0
  5
1EB97
 10
-141.561
 20
664.925
 30
0.000000
  70
    32
  0
VERTEX
  8
AM_0
  5
1EB98
 10
-141.552
 20
664.917
 30
0.000000
  70
    32
  0
VERTEX
  8
AM_0
  5
1EB99
 10
-141.543
 20
664.909
 30
0.000000
  70
    32
  0
VERTEX
  8
AM_0
  5
1EB9A
 10
-141.533
 20
664.901
 30
0.000000
  70
    32
  0
VERTEX
  8
AM_0
  5
1EB9B
 10
-141.524
 20
664.893
 30
0.000000
  70
    32
  0
VERTEX
  8
AM_0
  5
1EB9C
 10
-141.514
 20
664.885
 30
0.000000
  70
    32
  0
VERTEX
  8
AM_0
  5
1EB9D
 10
-141.504
 20
664.878
 30
0.000000
  70
    32
  0
VERTEX
  8
AM_0
  5
1EB9E
 10
-141.495
 20
664.871
 30
0.000000
  70
    32
  0
VERTEX
  8
AM_0
  5
1EB9F
 10
-141.485
 20
664.863
 30
0.000000
  70
    32
  0
VERTEX
  8
AM_0
  5
1EBA0
 10
-141.475
 20
664.856
 30
0.000000
  70
    32
  0
VERTEX
  8
AM_0
  5
1EBA1
 10
-141.465
 20
664.849
 30
0.000000
  70
    32
  0
VERTEX
  8
AM_0
  5
1EBA2
 10
-141.454
 20
664.842
 30
0.000000
  70
    32
  0
VERTEX
  8
AM_0
  5
1EBA3
 10
-141.444
 20
664.836
 30
0.000000
  70
    32
  0
VERTEX
  8
AM_0
  5
1EBA4
 10
-141.434
 20
664.829
 30
0.000000
  70
    32
  0
VERTEX
  8
AM_0
  5
1EBA5
 10
-141.423
 20
664.822
 30
0.000000
  70
    32
  0
VERTEX
  8
AM_0
  5
1EBA6
 10
-141.413
 20
664.816
 30
0.000000
  70
    32
  0
VERTEX
  8
AM_0
  5
1EBA7
 10
-141.402
 20
664.810
 30
0.000000
  70
    32
  0
VERTEX
  8
AM_0
  5
1EBA8
 10
-141.392
 20
664.804
 30
0.000000
  70
    32
  0
VERTEX
  8
AM_0
  5
1EBA9
 10
-141.381
 20
664.798
 30
0.000000
  70
    32
  0
VERTEX
  8
AM_0
  5
1EBAA
 10
-141.370
 20
664.792
 30
0.000000
  70
    32
  0
VERTEX
  8
AM_0
  5
1EBAB
 10
-141.359
 20
664.786
 30
0.000000
  70
    32
  0
VERTEX
  8
AM_0
  5
1EBAC
 10
-141.348
 20
664.781
 30
0.000000
  70
    32
  0
VERTEX
  8
AM_0
  5
1EBAD
 10
-141.337
 20
664.775
 30
0.000000
  70
    32
  0
VERTEX
  8
AM_0
  5
1EBAE
 10
-141.326
 20
664.770
 30
0.000000
  70
    32
  0
VERTEX
  8
AM_0
  5
1EBAF
 10
-141.315
 20
664.765
 30
0.000000
  70
    32
  0
VERTEX
  8
AM_0
  5
1EBB0
 10
-141.304
 20
664.760
 30
0.000000
  70
    32
  0
VERTEX
  8
AM_0
  5
1EBB1
 10
-141.293
 20
664.755
 30
0.000000
  70
    32
  0
VERTEX
  8
AM_0
  5
1EBB2
 10
-141.281
 20
664.750
 30
0.000000
  70
    32
  0
VERTEX
  8
AM_0
  5
1EBB3
 10
-141.270
 20
664.745
 30
0.000000
  70
    32
  0
VERTEX
  8
AM_0
  5
1EBB4
 10
-141.259
 20
664.741
 30
0.000000
  70
    32
  0
VERTEX
  8
AM_0
  5
1EBB5
 10
-141.247
 20
664.736
 30
0.000000
  70
    32
  0
VERTEX
  8
AM_0
  5
1EBB6
 10
-141.236
 20
664.732
 30
0.000000
  70
    32
  0
VERTEX
  8
AM_0
  5
1EBB7
 10
-141.224
 20
664.728
 30
0.000000
  70
    32
  0
VERTEX
  8
AM_0
  5
1EBB8
 10
-141.212
 20
664.724
 30
0.000000
  70
    32
  0
VERTEX
  8
AM_0
  5
1EBB9
 10
-141.201
 20
664.720
 30
0.000000
  70
    32
  0
VERTEX
  8
AM_0
  5
1EBBA
 10
-141.189
 20
664.717
 30
0.000000
  70
    32
  0
VERTEX
  8
AM_0
  5
1EBBB
 10
-141.177
 20
664.713
 30
0.000000
  70
    32
  0
VERTEX
  8
AM_0
  5
1EBBC
 10
-141.166
 20
664.710
 30
0.000000
  70
    32
  0
VERTEX
  8
AM_0
  5
1EBBD
 10
-141.154
 20
664.707
 30
0.000000
  70
    32
  0
VERTEX
  8
AM_0
  5
1EBBE
 10
-141.142
 20
664.704
 30
0.000000
  70
    32
  0
VERTEX
  8
AM_0
  5
1EBBF
 10
-141.130
 20
664.701
 30
0.000000
  70
    32
  0
VERTEX
  8
AM_0
  5
1EBC0
 10
-141.118
 20
664.698
 30
0.000000
  70
    32
  0
VERTEX
  8
AM_0
  5
1EBC1
 10
-141.106
 20
664.695
 30
0.000000
  70
    32
  0
VERTEX
  8
AM_0
  5
1EBC2
 10
-141.094
 20
664.693
 30
0.000000
  70
    32
  0
VERTEX
  8
AM_0
  5
1EBC3
 10
-141.082
 20
664.691
 30
0.000000
  70
    32
  0
VERTEX
  8
AM_0
  5
1EBC4
 10
-141.070
 20
664.688
 30
0.000000
  70
    32
  0
VERTEX
  8
AM_0
  5
1EBC5
 10
-141.058
 20
664.686
 30
0.000000
  70
    32
  0
VERTEX
  8
AM_0
  5
1EBC6
 10
-141.046
 20
664.685
 30
0.000000
  70
    32
  0
VERTEX
  8
AM_0
  5
1EBC7
 10
-141.033
 20
664.683
 30
0.000000
  70
    32
  0
VERTEX
  8
AM_0
  5
1EBC8
 10
-141.021
 20
664.681
 30
0.000000
  70
    32
  0
VERTEX
  8
AM_0
  5
1EBC9
 10
-141.009
 20
664.680
 30
0.000000
  70
    32
  0
VERTEX
  8
AM_0
  5
1EBCA
 10
-140.997
 20
664.679
 30
0.000000
  70
    32
  0
VERTEX
  8
AM_0
  5
1EBCB
 10
-140.985
 20
664.677
 30
0.000000
  70
    32
  0
VERTEX
  8
AM_0
  5
1EBCC
 10
-140.972
 20
664.676
 30
0.000000
  70
    32
  0
VERTEX
  8
AM_0
  5
1EBCD
 10
-140.960
 20
664.676
 30
0.000000
  70
    32
  0
VERTEX
  8
AM_0
  5
1EBCE
 10
-140.948
 20
664.675
 30
0.000000
  70
    32
  0
VERTEX
  8
AM_0
  5
1EBCF
 10
-140.936
 20
664.674
 30
0.000000
  70
    32
  0
VERTEX
  8
AM_0
  5
1EBD0
 10
-140.923
 20
664.674
 30
0.000000
  70
    32
  0
VERTEX
  8
AM_0
  5
1EBD1
 10
-140.911
 20
664.674
 30
0.000000
  70
    32
  0
VERTEX
  8
AM_0
  5
1EBD2
 10
-140.899
 20
664.674
 30
0.000000
  70
    32
  0
SEQEND
  8
AM_0
  5
1EBD3
  0
LINE
  5
1D645
  8
AM_0
 10
-143.2988391654925
 20
674.67376876346248
 30
0.0
 11
-143.2988391654925
 21
677.67376885376939
 31
0.0
  0
LINE
  5
1D646
  8
AM_0
 10
-135.51721968126279
 20
674.67376876346248
 30
0.0
 11
-133.78515984265599
 21
677.67376885376939
 31
0.0
  0
LINE
  5
1D647
  8
AM_0
 10
-261.07205820256149
 20
798.67377643125701
 30
0.0
 11
-250.96139468129309
 21
798.67377643125701
 31
0.0
  0
LINE
  5
1D648
  8
AM_0
 10
-263.0708398565996
 20
800.60397743785211
 30
0.0
 11
-263.1979489854948
 21
804.24390664746443
 31
0.0
  0
ARC
  5
1D649
  8
AM_0
 10
-261.07205820256138
 20
800.6737764312569
 30
0.0
 40
2.0
 50
182.0000000000035
 51
270.0
1001
GENIUS_GENODEF_13
1002
{
1000
HIER
1070
     0
1002
}
1002
{
1000
MANEDIT
1070
     0
1002
}
1002
{
1000
NOSEL
1070
     0
1002
}
1002
{
1000
BEHIND
1070
     0
1002
}
1002
{
1000
OTHER
1070
     0
1002
}
1002
{
1000
REACTOR
1002
}
1001
GENIUS_GENOBJ-N-FIL_13
1002
{
1000
OWNER
1000
GEN
1002
}
  0
LINE
  5
1D64A
  8
AM_0
 10
-276.89862491487878
 20
806.1741076540593
 30
0.0
 11
-265.19673063953292
 21
806.1741076540593
 31
0.0
  0
ARC
  5
1D64B
  8
AM_0
 10
-265.19673063953297
 20
804.17410765405964
 30
0.0
 40
2.0
 50
2.0000000000036531
 51
90.000000000000057
1001
GENIUS_GENODEF_13
1002
{
1000
HIER
1070
     0
1002
}
1002
{
1000
MANEDIT
1070
     0
1002
}
1002
{
1000
NOSEL
1070
     0
1002
}
1002
{
1000
BEHIND
1070
     0
1002
}
1002
{
1000
OTHER
1070
     0
1002
}
1002
{
1000
REACTOR
1002
}
1001
GENIUS_GENOBJ-N-FIL_13
1002
{
1000
OWNER
1000
GEN
1002
}
  0
ARC
  5
1D64C
  8
AM_0
 10
-250.961394681293
 20
800.6737764312569
 30
0.0
 40
2.0
 50
270.0
 51
358.99998522241918
1001
GENIUS_GENOBJ-N-FIL_13
1002
{
1000
OWNER
1000
GEN
1002
}
1001
GENIUS_GENODEF_13
1002
{
1000
HIER
1070
     0
1002
}
1002
{
1000
MANEDIT
1070
     0
1002
}
1002
{
1000
NOSEL
1070
     0
1002
}
1002
{
1000
BEHIND
1070
     0
1002
}
1002
{
1000
OTHER
1070
     0
1002
}
1002
{
1000
REACTOR
1002
}
  0
LINE
  5
1D64D
  8
AM_0
 10
-150.89965847912879
 20
807.67377276707145
 30
0.0
 11
-150.89965847912879
 21
802.67377261655975
 31
0.0
  0
LINE
  5
1D64E
  8
ﾁｭｳｼﾝｾﾝ1
 10
-100.89865698898249
 20
817.6744490847168
 30
0.0
 11
-100.89865698898279
 21
560.67411021717623
 31
0.0
  0
LINE
  5
1D652
  8
AM_0
 10
-18.87112133588337
 20
802.6737764312569
 30
0.0
 11
-16.898654460387888
 21
689.67376921499715
 31
0.0
  0
LINE
  5
1D653
  8
AM_0
 10
-120.8983966015449
 20
662.67376840223426
 30
0.0
 11
-120.8983966015449
 21
677.67376885376939
 31
0.0
  0
LINE
  5
1D654
  8
AM_0
 10
-16.898654460387888
 20
689.67376921499715
 30
0.0
 11
-17.36994685907689
 21
662.67376840223426
 31
0.0
  0
LINE
  5
1D655
  8
AM_0
 10
-133.39930795757741
 20
807.6744489342052
 30
0.0
 11
-133.39930795757741
 21
812.67444908471725
 31
0.0
  0
LINE
  5
1D656
  8
AM_0
 10
-50.897655498837139
 20
662.67376458753711
 30
0.0
 11
-50.897655498837139
 21
657.67376443702551
 31
0.0
  0
LINE
  5
1D657
  8
AM_0
 10
-125.8984967505597
 20
665.67376849254151
 30
0.0
 11
-125.8984967505597
 21
674.67376876346248
 31
0.0
  0
POLYLINE
  5
1D658
  8
AM_0
 10
-126.8985166929379
 20
664.67376846243928
 30
0.0
 66
     1
 70
     8
  0
VERTEX
  8
AM_0
  5
1EBD4
 10
-126.899
 20
664.674
 30
0.000000
  70
    32
  0
VERTEX
  8
AM_0
  5
1EBD5
 10
-126.886
 20
664.674
 30
0.000000
  70
    32
  0
VERTEX
  8
AM_0
  5
1EBD6
 10
-126.874
 20
664.674
 30
0.000000
  70
    32
  0
VERTEX
  8
AM_0
  5
1EBD7
 10
-126.862
 20
664.674
 30
0.000000
  70
    32
  0
VERTEX
  8
AM_0
  5
1EBD8
 10
-126.849
 20
664.675
 30
0.000000
  70
    32
  0
VERTEX
  8
AM_0
  5
1EBD9
 10
-126.837
 20
664.676
 30
0.000000
  70
    32
  0
VERTEX
  8
AM_0
  5
1EBDA
 10
-126.825
 20
664.676
 30
0.000000
  70
    32
  0
VERTEX
  8
AM_0
  5
1EBDB
 10
-126.813
 20
664.677
 30
0.000000
  70
    32
  0
VERTEX
  8
AM_0
  5
1EBDC
 10
-126.800
 20
664.679
 30
0.000000
  70
    32
  0
VERTEX
  8
AM_0
  5
1EBDD
 10
-126.788
 20
664.680
 30
0.000000
  70
    32
  0
VERTEX
  8
AM_0
  5
1EBDE
 10
-126.776
 20
664.681
 30
0.000000
  70
    32
  0
VERTEX
  8
AM_0
  5
1EBDF
 10
-126.764
 20
664.683
 30
0.000000
  70
    32
  0
VERTEX
  8
AM_0
  5
1EBE0
 10
-126.752
 20
664.685
 30
0.000000
  70
    32
  0
VERTEX
  8
AM_0
  5
1EBE1
 10
-126.740
 20
664.686
 30
0.000000
  70
    32
  0
VERTEX
  8
AM_0
  5
1EBE2
 10
-126.728
 20
664.688
 30
0.000000
  70
    32
  0
VERTEX
  8
AM_0
  5
1EBE3
 10
-126.715
 20
664.691
 30
0.000000
  70
    32
  0
VERTEX
  8
AM_0
  5
1EBE4
 10
-126.703
 20
664.693
 30
0.000000
  70
    32
  0
VERTEX
  8
AM_0
  5
1EBE5
 10
-126.691
 20
664.695
 30
0.000000
  70
    32
  0
VERTEX
  8
AM_0
  5
1EBE6
 10
-126.679
 20
664.698
 30
0.000000
  70
    32
  0
VERTEX
  8
AM_0
  5
1EBE7
 10
-126.667
 20
664.701
 30
0.000000
  70
    32
  0
VERTEX
  8
AM_0
  5
1EBE8
 10
-126.656
 20
664.704
 30
0.000000
  70
    32
  0
VERTEX
  8
AM_0
  5
1EBE9
 10
-126.644
 20
664.707
 30
0.000000
  70
    32
  0
VERTEX
  8
AM_0
  5
1EBEA
 10
-126.632
 20
664.710
 30
0.000000
  70
    32
  0
VERTEX
  8
AM_0
  5
1EBEB
 10
-126.620
 20
664.713
 30
0.000000
  70
    32
  0
VERTEX
  8
AM_0
  5
1EBEC
 10
-126.608
 20
664.717
 30
0.000000
  70
    32
  0
VERTEX
  8
AM_0
  5
1EBED
 10
-126.597
 20
664.720
 30
0.000000
  70
    32
  0
VERTEX
  8
AM_0
  5
1EBEE
 10
-126.585
 20
664.724
 30
0.000000
  70
    32
  0
VERTEX
  8
AM_0
  5
1EBEF
 10
-126.573
 20
664.728
 30
0.000000
  70
    32
  0
VERTEX
  8
AM_0
  5
1EBF0
 10
-126.562
 20
664.732
 30
0.000000
  70
    32
  0
VERTEX
  8
AM_0
  5
1EBF1
 10
-126.550
 20
664.736
 30
0.000000
  70
    32
  0
VERTEX
  8
AM_0
  5
1EBF2
 10
-126.539
 20
664.741
 30
0.000000
  70
    32
  0
VERTEX
  8
AM_0
  5
1EBF3
 10
-126.527
 20
664.745
 30
0.000000
  70
    32
  0
VERTEX
  8
AM_0
  5
1EBF4
 10
-126.516
 20
664.750
 30
0.000000
  70
    32
  0
VERTEX
  8
AM_0
  5
1EBF5
 10
-126.505
 20
664.755
 30
0.000000
  70
    32
  0
VERTEX
  8
AM_0
  5
1EBF6
 10
-126.493
 20
664.760
 30
0.000000
  70
    32
  0
VERTEX
  8
AM_0
  5
1EBF7
 10
-126.482
 20
664.765
 30
0.000000
  70
    32
  0
VERTEX
  8
AM_0
  5
1EBF8
 10
-126.471
 20
664.770
 30
0.000000
  70
    32
  0
VERTEX
  8
AM_0
  5
1EBF9
 10
-126.460
 20
664.775
 30
0.000000
  70
    32
  0
VERTEX
  8
AM_0
  5
1EBFA
 10
-126.449
 20
664.781
 30
0.000000
  70
    32
  0
VERTEX
  8
AM_0
  5
1EBFB
 10
-126.438
 20
664.786
 30
0.000000
  70
    32
  0
VERTEX
  8
AM_0
  5
1EBFC
 10
-126.427
 20
664.792
 30
0.000000
  70
    32
  0
VERTEX
  8
AM_0
  5
1EBFD
 10
-126.416
 20
664.798
 30
0.000000
  70
    32
  0
VERTEX
  8
AM_0
  5
1EBFE
 10
-126.406
 20
664.804
 30
0.000000
  70
    32
  0
VERTEX
  8
AM_0
  5
1EBFF
 10
-126.395
 20
664.810
 30
0.000000
  70
    32
  0
VERTEX
  8
AM_0
  5
1EC00
 10
-126.384
 20
664.816
 30
0.000000
  70
    32
  0
VERTEX
  8
AM_0
  5
1EC01
 10
-126.374
 20
664.822
 30
0.000000
  70
    32
  0
VERTEX
  8
AM_0
  5
1EC02
 10
-126.364
 20
664.829
 30
0.000000
  70
    32
  0
VERTEX
  8
AM_0
  5
1EC03
 10
-126.353
 20
664.836
 30
0.000000
  70
    32
  0
VERTEX
  8
AM_0
  5
1EC04
 10
-126.343
 20
664.842
 30
0.000000
  70
    32
  0
VERTEX
  8
AM_0
  5
1EC05
 10
-126.333
 20
664.849
 30
0.000000
  70
    32
  0
VERTEX
  8
AM_0
  5
1EC06
 10
-126.323
 20
664.856
 30
0.000000
  70
    32
  0
VERTEX
  8
AM_0
  5
1EC07
 10
-126.313
 20
664.863
 30
0.000000
  70
    32
  0
VERTEX
  8
AM_0
  5
1EC08
 10
-126.303
 20
664.871
 30
0.000000
  70
    32
  0
VERTEX
  8
AM_0
  5
1EC09
 10
-126.293
 20
664.878
 30
0.000000
  70
    32
  0
VERTEX
  8
AM_0
  5
1EC0A
 10
-126.283
 20
664.885
 30
0.000000
  70
    32
  0
VERTEX
  8
AM_0
  5
1EC0B
 10
-126.274
 20
664.893
 30
0.000000
  70
    32
  0
VERTEX
  8
AM_0
  5
1EC0C
 10
-126.264
 20
664.901
 30
0.000000
  70
    32
  0
VERTEX
  8
AM_0
  5
1EC0D
 10
-126.255
 20
664.909
 30
0.000000
  70
    32
  0
VERTEX
  8
AM_0
  5
1EC0E
 10
-126.245
 20
664.917
 30
0.000000
  70
    32
  0
VERTEX
  8
AM_0
  5
1EC0F
 10
-126.236
 20
664.925
 30
0.000000
  70
    32
  0
VERTEX
  8
AM_0
  5
1EC10
 10
-126.227
 20
664.933
 30
0.000000
  70
    32
  0
VERTEX
  8
AM_0
  5
1EC11
 10
-126.218
 20
664.941
 30
0.000000
  70
    32
  0
VERTEX
  8
AM_0
  5
1EC12
 10
-126.209
 20
664.950
 30
0.000000
  70
    32
  0
VERTEX
  8
AM_0
  5
1EC13
 10
-126.200
 20
664.958
 30
0.000000
  70
    32
  0
VERTEX
  8
AM_0
  5
1EC14
 10
-126.191
 20
664.967
 30
0.000000
  70
    32
  0
VERTEX
  8
AM_0
  5
1EC15
 10
-126.183
 20
664.975
 30
0.000000
  70
    32
  0
VERTEX
  8
AM_0
  5
1EC16
 10
-126.174
 20
664.984
 30
0.000000
  70
    32
  0
VERTEX
  8
AM_0
  5
1EC17
 10
-126.166
 20
664.993
 30
0.000000
  70
    32
  0
VERTEX
  8
AM_0
  5
1EC18
 10
-126.158
 20
665.002
 30
0.000000
  70
    32
  0
VERTEX
  8
AM_0
  5
1EC19
 10
-126.149
 20
665.011
 30
0.000000
  70
    32
  0
VERTEX
  8
AM_0
  5
1EC1A
 10
-126.141
 20
665.021
 30
0.000000
  70
    32
  0
VERTEX
  8
AM_0
  5
1EC1B
 10
-126.133
 20
665.030
 30
0.000000
  70
    32
  0
VERTEX
  8
AM_0
  5
1EC1C
 10
-126.125
 20
665.039
 30
0.000000
  70
    32
  0
VERTEX
  8
AM_0
  5
1EC1D
 10
-126.118
 20
665.049
 30
0.000000
  70
    32
  0
VERTEX
  8
AM_0
  5
1EC1E
 10
-126.110
 20
665.059
 30
0.000000
  70
    32
  0
VERTEX
  8
AM_0
  5
1EC1F
 10
-126.103
 20
665.068
 30
0.000000
  70
    32
  0
VERTEX
  8
AM_0
  5
1EC20
 10
-126.095
 20
665.078
 30
0.000000
  70
    32
  0
VERTEX
  8
AM_0
  5
1EC21
 10
-126.088
 20
665.088
 30
0.000000
  70
    32
  0
VERTEX
  8
AM_0
  5
1EC22
 10
-126.081
 20
665.098
 30
0.000000
  70
    32
  0
VERTEX
  8
AM_0
  5
1EC23
 10
-126.074
 20
665.108
 30
0.000000
  70
    32
  0
VERTEX
  8
AM_0
  5
1EC24
 10
-126.067
 20
665.118
 30
0.000000
  70
    32
  0
VERTEX
  8
AM_0
  5
1EC25
 10
-126.060
 20
665.128
 30
0.000000
  70
    32
  0
VERTEX
  8
AM_0
  5
1EC26
 10
-126.054
 20
665.139
 30
0.000000
  70
    32
  0
VERTEX
  8
AM_0
  5
1EC27
 10
-126.047
 20
665.149
 30
0.000000
  70
    32
  0
VERTEX
  8
AM_0
  5
1EC28
 10
-126.041
 20
665.160
 30
0.000000
  70
    32
  0
VERTEX
  8
AM_0
  5
1EC29
 10
-126.035
 20
665.170
 30
0.000000
  70
    32
  0
VERTEX
  8
AM_0
  5
1EC2A
 10
-126.028
 20
665.181
 30
0.000000
  70
    32
  0
VERTEX
  8
AM_0
  5
1EC2B
 10
-126.022
 20
665.192
 30
0.000000
  70
    32
  0
VERTEX
  8
AM_0
  5
1EC2C
 10
-126.017
 20
665.202
 30
0.000000
  70
    32
  0
VERTEX
  8
AM_0
  5
1EC2D
 10
-126.011
 20
665.213
 30
0.000000
  70
    32
  0
VERTEX
  8
AM_0
  5
1EC2E
 10
-126.005
 20
665.224
 30
0.000000
  70
    32
  0
VERTEX
  8
AM_0
  5
1EC2F
 10
-126.000
 20
665.235
 30
0.000000
  70
    32
  0
VERTEX
  8
AM_0
  5
1EC30
 10
-125.995
 20
665.246
 30
0.000000
  70
    32
  0
VERTEX
  8
AM_0
  5
1EC31
 10
-125.989
 20
665.257
 30
0.000000
  70
    32
  0
VERTEX
  8
AM_0
  5
1EC32
 10
-125.984
 20
665.269
 30
0.000000
  70
    32
  0
VERTEX
  8
AM_0
  5
1EC33
 10
-125.979
 20
665.280
 30
0.000000
  70
    32
  0
VERTEX
  8
AM_0
  5
1EC34
 10
-125.975
 20
665.291
 30
0.000000
  70
    32
  0
VERTEX
  8
AM_0
  5
1EC35
 10
-125.970
 20
665.302
 30
0.000000
  70
    32
  0
VERTEX
  8
AM_0
  5
1EC36
 10
-125.966
 20
665.314
 30
0.000000
  70
    32
  0
VERTEX
  8
AM_0
  5
1EC37
 10
-125.961
 20
665.325
 30
0.000000
  70
    32
  0
VERTEX
  8
AM_0
  5
1EC38
 10
-125.957
 20
665.337
 30
0.000000
  70
    32
  0
VERTEX
  8
AM_0
  5
1EC39
 10
-125.953
 20
665.348
 30
0.000000
  70
    32
  0
VERTEX
  8
AM_0
  5
1EC3A
 10
-125.949
 20
665.360
 30
0.000000
  70
    32
  0
VERTEX
  8
AM_0
  5
1EC3B
 10
-125.945
 20
665.372
 30
0.000000
  70
    32
  0
VERTEX
  8
AM_0
  5
1EC3C
 10
-125.942
 20
665.383
 30
0.000000
  70
    32
  0
VERTEX
  8
AM_0
  5
1EC3D
 10
-125.938
 20
665.395
 30
0.000000
  70
    32
  0
VERTEX
  8
AM_0
  5
1EC3E
 10
-125.935
 20
665.407
 30
0.000000
  70
    32
  0
VERTEX
  8
AM_0
  5
1EC3F
 10
-125.932
 20
665.419
 30
0.000000
  70
    32
  0
VERTEX
  8
AM_0
  5
1EC40
 10
-125.928
 20
665.431
 30
0.000000
  70
    32
  0
VERTEX
  8
AM_0
  5
1EC41
 10
-125.926
 20
665.443
 30
0.000000
  70
    32
  0
VERTEX
  8
AM_0
  5
1EC42
 10
-125.923
 20
665.455
 30
0.000000
  70
    32
  0
VERTEX
  8
AM_0
  5
1EC43
 10
-125.920
 20
665.467
 30
0.000000
  70
    32
  0
VERTEX
  8
AM_0
  5
1EC44
 10
-125.918
 20
665.479
 30
0.000000
  70
    32
  0
VERTEX
  8
AM_0
  5
1EC45
 10
-125.915
 20
665.491
 30
0.000000
  70
    32
  0
VERTEX
  8
AM_0
  5
1EC46
 10
-125.913
 20
665.503
 30
0.000000
  70
    32
  0
VERTEX
  8
AM_0
  5
1EC47
 10
-125.911
 20
665.515
 30
0.000000
  70
    32
  0
VERTEX
  8
AM_0
  5
1EC48
 10
-125.909
 20
665.527
 30
0.000000
  70
    32
  0
VERTEX
  8
AM_0
  5
1EC49
 10
-125.908
 20
665.539
 30
0.000000
  70
    32
  0
VERTEX
  8
AM_0
  5
1EC4A
 10
-125.906
 20
665.551
 30
0.000000
  70
    32
  0
VERTEX
  8
AM_0
  5
1EC4B
 10
-125.905
 20
665.564
 30
0.000000
  70
    32
  0
VERTEX
  8
AM_0
  5
1EC4C
 10
-125.903
 20
665.576
 30
0.000000
  70
    32
  0
VERTEX
  8
AM_0
  5
1EC4D
 10
-125.902
 20
665.588
 30
0.000000
  70
    32
  0
VERTEX
  8
AM_0
  5
1EC4E
 10
-125.901
 20
665.600
 30
0.000000
  70
    32
  0
VERTEX
  8
AM_0
  5
1EC4F
 10
-125.900
 20
665.612
 30
0.000000
  70
    32
  0
VERTEX
  8
AM_0
  5
1EC50
 10
-125.900
 20
665.625
 30
0.000000
  70
    32
  0
VERTEX
  8
AM_0
  5
1EC51
 10
-125.899
 20
665.637
 30
0.000000
  70
    32
  0
VERTEX
  8
AM_0
  5
1EC52
 10
-125.899
 20
665.649
 30
0.000000
  70
    32
  0
VERTEX
  8
AM_0
  5
1EC53
 10
-125.899
 20
665.661
 30
0.000000
  70
    32
  0
VERTEX
  8
AM_0
  5
1EC54
 10
-125.898
 20
665.674
 30
0.000000
  70
    32
  0
SEQEND
  8
AM_0
  5
1EC55
  0
LINE
  5
1D659
  8
AM_0
 10
-124.4984748124735
 20
674.67376876346248
 30
0.0
 11
-124.4984748124735
 21
677.67376885376939
 31
0.0
  0
LINE
  5
1D65A
  8
AM_0
 10
-50.897655498837167
 20
807.67377276707145
 30
0.0
 11
-50.897655498837167
 21
802.6737726165594
 31
0.0
  0
LINE
  5
1D6B9
  8
AM_0
 10
-279.19868491487881
 20
665.6741047454625
 30
0.0
 11
-279.19868491487892
 21
799.6741047454625
 31
0.0
  0
LINE
  5
1D6BA
  8
AM_0
 10
-279.19868491487892
 20
665.6741047454625
 30
0.0
 11
-276.8986849148788
 21
665.67410477048975
 31
0.0
  0
LINE
  5
1D6BB
  8
AM_0
 10
-279.19868491487892
 20
715.6741047454625
 30
0.0
 11
-276.8986849148788
 21
715.67410477048975
 31
0.0
  0
LINE
  5
1D6BC
  8
AM_0
 10
-279.19868637298919
 20
799.6741047454625
 30
0.0
 11
-276.89868637298912
 21
799.67410477048952
 31
0.0
  0
LINE
  5
1D6BD
  8
AM_0
 10
-279.1986852848471
 20
749.6741047454625
 30
0.0
 11
-276.89868528484698
 21
749.67410477048975
 31
0.0
  0
LINE
  5
1D6BE
  8
AM_0
 10
-133.39930797437731
 20
652.67411448486473
 30
0.0
 11
-68.398006037187315
 21
652.67411448486473
 31
0.0
  0
LINE
  5
1D6BF
  8
AM_0
 10
-75.898657005782283
 20
635.67411022211581
 30
0.0
 11
-125.8986570057823
 21
635.67411022211581
 31
0.0
  0
LINE
  5
1D6C0
  8
AM_0
 10
-125.8986570057823
 20
635.67411022211581
 30
0.0
 11
-133.39930797437731
 21
652.67411448486473
 31
0.0
  0
LINE
  5
1D6C1
  8
AM_0
 10
-133.39930797437731
 20
652.67411448486473
 30
0.0
 11
-133.39930797437731
 21
657.6741146353761
 31
0.0
  0
LINE
  5
1D6C2
  8
AM_0
 10
-75.898657005782283
 20
635.67411022211581
 30
0.0
 11
-68.398006037187315
 21
652.67409025529787
 31
0.0
  0
LINE
  5
1D6C3
  8
AM_0
 10
-68.398006037187315
 20
652.67411448486473
 30
0.0
 11
-68.398006037187315
 21
657.6741146353761
 31
0.0
  0
LINE
  5
1D6C4
  8
0
 10
-79.898657005782297
 20
565.67411022211581
 30
0.0
 11
-79.898657004308021
 21
635.67411022211581
 31
0.0
  0
LINE
  5
1D6C5
  8
0
 10
-121.8986570057823
 20
565.67411022211581
 30
0.0
 11
-121.8986570057823
 21
635.67411022211581
 31
0.0
  0
LINE
  5
1D6C6
  8
AM_0
 10
-121.8986570057823
 20
565.67411021223666
 30
0.0
 11
-79.898657005782297
 21
565.67411022211581
 31
0.0
  0
LINE
  5
1D6C7
  8
AM_0
 10
-94.898657005782297
 20
565.67411021717623
 30
0.0
 11
-94.898657005782297
 21
621.67411022211581
 31
0.0
  0
LINE
  5
1D6C8
  8
AM_0
 10
-106.8986570057823
 20
565.67411021717623
 30
0.0
 11
-106.8986570057823
 21
621.67411022211581
 31
0.0
  0
LINE
  5
1D6C9
  8
AM_0
 10
-94.898657005782297
 20
621.67411022211581
 30
0.0
 11
-106.8986570057823
 21
621.67411022211581
 31
0.0
  0
ARC
  5
1D6CA
  8
AM_0
 10
-100.8986570057823
 20
621.67411022211581
 30
0.0
 40
6.0
 50
0.0
 51
180.0
  0
LINE
  5
1D736
  8
AM_0
 10
-16.898654460387888
 20
620.17383470622167
 30
0.0
 11
-16.898654460387888
 21
662.67376840223426
 31
0.0
  0
LINE
  5
1D738
  8
AM_0
 10
-250.89863098675229
 20
662.67376840223426
 30
0.0
 11
-250.89863098675229
 21
620.17383470622167
 31
0.0
  0
LINE
  5
1D739
  8
AM_0
 10
-240.89863098675229
 20
610.1738347062219
 30
0.0
 11
-121.8986570057823
 21
610.1738347062219
 31
0.0
  0
LINE
  5
1D73A
  8
AM_0
 10
-16.898654460387888
 20
656.67376840223449
 30
0.0
 11
-68.398006037187315
 21
656.67376840223449
 31
0.0
  0
ARC
  5
1D73B
  8
AM_0
 10
-26.898654460387888
 20
620.17383470622167
 30
0.0
 40
10.0
 50
270.0
 51
0.0
1001
GENIUS_GENODEF_13
1002
{
1000
HIER
1070
     0
1002
}
1002
{
1000
MANEDIT
1070
     0
1002
}
1002
{
1000
NOSEL
1070
     0
1002
}
1002
{
1000
BEHIND
1070
     0
1002
}
1002
{
1000
OTHER
1070
     0
1002
}
1002
{
1000
REACTOR
1002
}
1001
GENIUS_GENOBJ-N-FIL_13
1002
{
1000
OWNER
1000
GEN
1002
}
  0
ARC
  5
1D73C
  8
AM_0
 10
-240.89863098675229
 20
620.17383470622167
 30
0.0
 40
10.0
 50
180.0
 51
270.0
1001
GENIUS_GENODEF_13
1002
{
1000
HIER
1070
     0
1002
}
1002
{
1000
MANEDIT
1070
     0
1002
}
1002
{
1000
NOSEL
1070
     0
1002
}
1002
{
1000
BEHIND
1070
     0
1002
}
1002
{
1000
OTHER
1070
     0
1002
}
1002
{
1000
REACTOR
1002
}
1001
GENIUS_GENOBJ-N-FIL_13
1002
{
1000
OWNER
1000
GEN
1002
}
  0
INSERT
  5
1D744
  8
AM_0
  6
CONTINUOUS
  2
*U8
 10
0.0
 20
0.0
 30
0.0
1001
GENIUS_GENODEF_13
1002
{
1000
HIER
1070
     0
1002
}
1002
{
1000
MANEDIT
1070
     0
1002
}
1002
{
1000
NOSEL
1070
     0
1002
}
1002
{
1000
BEHIND
1070
     0
1002
}
1002
{
1000
OTHER
1070
     0
1002
}
1002
{
1000
REACTOR
1002
}
1001
GENIUS_GENOBJ-N-HTC_13
1002
{
1000
OWNER
1000
GEN
1002
}
1001
GENIUS_GENHATCH_13
1002
{
1000
DATA
1040
0.0
1042
1.0
1000
SOLID
1070
     0
1011
-163.73024028889151
1021
0.0
1031
0.0
1021
654.99227362280192
1031
0.0
1002
}
1002
{
1000
UCS
1010
0.0
1020
0.0
1030
0.0
1010
1.0
1020
0.0
1030
0.0
1010
0.0
1020
1.0
1030
0.0
1002
}
1001
ACAD
1002
{
1000
R14_HATCH_DATA
1000
1D744
1011
1.0
1021
0.0
1031
0.0
1021
0.0
1031
0.0
1011
0.0
1021
0.0
1031
0.0
1021
1.0
1031
0.0
1011
0.0
1021
0.0
1031
0.0
1021
0.0
1031
1.0
1040
0.0
1010
0.0
1020
0.0
1030
1.0
1000
SOLID
1070
     1
1070
     0
1071
        2
1071
        1
1071
        3
1070
     1
1040
-159.89864272357011
1040
656.67376840223449
1040
-164.89864272357011
1040
651.67376840223449
1070
     1
1040
-164.89864272357011
1040
651.67376840223449
1040
-164.89864272357011
1040
656.67376840223449
1070
     1
1040
-164.89864272357011
1040
656.67376840223449
1040
-159.89864272357011
1040
656.67376840223449
1071
        0
1071
       33
1071
        1
1070
     1
1040
-86.898654460387903
1040
656.67376840223449
1040
-320.89863098675232
1040
656.67376840223415
1071
        0
1070
     0
1070
     1
1071
        1
1040
-360.59450170608039
1040
753.60002233873615
1040
0.0
1002
}
  0
LINE
  5
1D745
  8
AM_0
 10
-164.89864272357011
 20
651.67376840223449
 30
0.0
 11
-159.89864272357011
 21
656.67376840223449
 31
0.0
1001
GENIUS_GENFIL_13
1070
     0
1040
5.0
1040
5.0
1040
20.0
1040
0.0
1002
{
1002
}
1001
GENIUS_GENODEF_13
1002
{
1000
HIER
1070
     0
1002
}
1002
{
1000
MANEDIT
1070
     0
1002
}
1002
{
1000
NOSEL
1070
     0
1002
}
1002
{
1000
BEHIND
1070
     0
1002
}
1002
{
1000
OTHER
1070
     0
1002
}
1002
{
1000
REACTOR
1002
}
1001
GENIUS_GENOBJ-N-CHA_13
1002
{
1000
OWNER
1000
GEN
1002
}
  0
LINE
  5
1D746
  8
AM_0
 10
-170.89864272357011
 20
651.67376840223449
 30
0.0
 11
-175.89864272357011
 21
656.67376840223449
 31
0.0
1001
GENIUS_GENFIL_13
1070
     0
1040
5.0
1040
5.0
1040
20.0
1040
0.0
1002
{
1002
}
1001
GENIUS_GENODEF_13
1002
{
1000
HIER
1070
     0
1002
}
1002
{
1000
MANEDIT
1070
     0
1002
}
1002
{
1000
NOSEL
1070
     0
1002
}
1002
{
1000
BEHIND
1070
     0
1002
}
1002
{
1000
OTHER
1070
     0
1002
}
1002
{
1000
REACTOR
1002
}
1001
GENIUS_GENOBJ-N-CHA_13
1002
{
1000
OWNER
1000
GEN
1002
}
  0
INSERT
  5
1D747
  8
AM_0
  6
CONTINUOUS
  2
*U9
 10
0.0
 20
0.0
 30
0.0
1001
GENIUS_GENODEF_13
1002
{
1000
HIER
1070
     0
1002
}
1002
{
1000
MANEDIT
1070
     0
1002
}
1002
{
1000
NOSEL
1070
     0
1002
}
1002
{
1000
BEHIND
1070
     0
1002
}
1002
{
1000
OTHER
1070
     0
1002
}
1002
{
1000
REACTOR
1002
}
1001
GENIUS_GENOBJ-N-HTC_13
1002
{
1000
OWNER
1000
GEN
1002
}
1001
GENIUS_GENHATCH_13
1002
{
1000
DATA
1040
0.0
1042
1.0
1000
SOLID
1070
     0
1011
-172.0670451582487
1021
0.0
1031
0.0
1021
654.99227362280192
1031
0.0
1002
}
1002
{
1000
UCS
1010
0.0
1020
0.0
1030
0.0
1010
1.0
1020
0.0
1030
0.0
1010
0.0
1020
1.0
1030
0.0
1002
}
1001
ACAD
1002
{
1000
R14_HATCH_DATA
1000
1D747
1011
1.0
1021
0.0
1031
0.0
1021
0.0
1031
0.0
1011
0.0
1021
0.0
1031
0.0
1021
1.0
1031
0.0
1011
0.0
1021
0.0
1031
0.0
1021
0.0
1031
1.0
1040
0.0
1010
0.0
1020
0.0
1030
1.0
1000
SOLID
1070
     1
1070
     0
1071
        2
1071
        1
1071
        3
1070
     1
1040
-175.89864272357011
1040
656.67376840223449
1040
-170.89864272357011
1040
651.67376840223449
1070
     1
1040
-170.89864272357011
1040
651.67376840223449
1040
-170.89864272357011
1040
656.67376840223449
1070
     1
1040
-170.89864272357011
1040
656.67376840223449
1040
-175.89864272357011
1040
656.67376840223449
1071
        0
1071
       33
1071
        1
1070
     1
1040
-248.89863098675229
1040
656.67376840223449
1040
-14.89865446038789
1040
656.67376840223415
1071
        0
1070
     0
1070
     1
1071
        1
1040
24.797216258940239
1040
753.60002233873615
1040
0.0
1002
}
  0
LINE
  5
1D748
  8
AM_0
 10
-170.89864272357011
 20
656.67376840223449
 30
0.0
 11
-170.89864272357019
 21
618.67376840223449
 31
0.0
  0
LINE
  5
1D749
  8
AM_0
 10
-164.89864272356999
 20
656.67376840223449
 30
0.0
 11
-164.89864272356999
 21
618.67376840223449
 31
0.0
  0
LINE
  5
1D75C
  8
ﾁｭｳｼﾝｾﾝ1
 10
-61.398642294430573
 20
642.67382712479264
 30
0.0
 11
-61.398642294430573
 21
612.67382712479264
 31
0.0
  0
LINE
  5
1D75D
  8
ﾁｭｳｼﾝｾﾝ1
 10
-76.398642294430545
 20
627.67382712479264
 30
0.0
 11
-46.398642294430573
 21
627.67382712479264
 31
0.0
  0
CIRCLE
  5
1D75E
  8
AM_0
 10
-61.398642294430623
 20
627.67382712479264
 30
0.0
 40
9.5
  0
CIRCLE
  5
1D75F
  8
AM_0
 10
-206.39864315270961
 20
627.67382712479264
 30
0.0
 40
9.5
  0
LINE
  5
1D764
  8
AM_5
 10
-166.8986284581573
 20
656.67376840223449
 30
0.0
 11
-166.8986284581573
 21
662.67376840223426
 31
0.0
  0
LINE
  5
1D765
  8
AM_5
 10
-190.87778607472109
 20
656.67376840223449
 30
0.0
 11
-190.87778607472109
 21
662.67376840223426
 31
0.0
  0
LINE
  5
1D76A
  8
AM_0
 10
-164.89864272356999
 20
648.67376840223449
 30
0.0
 11
-170.89864272357011
 21
648.67376840223449
 31
0.0
  0
LINE
  5
1D76B
  8
AM_0
 10
-164.89864272356999
 20
618.67376840223449
 30
0.0
 11
-170.89864272357019
 21
618.67376840223449
 31
0.0
  0
LINE
  5
1D788
  8
ﾁｭｳｼﾝｾﾝ1
 10
-206.39864315270961
 20
642.67382712479264
 30
0.0
 11
-206.39864315270961
 21
612.67382712479264
 31
0.0
  0
LINE
  5
1D789
  8
ﾁｭｳｼﾝｾﾝ1
 10
-221.39864315270961
 20
627.67382712479264
 30
0.0
 11
-191.39864315270961
 21
627.67382712479264
 31
0.0
  0
LINE
  5
1D78A
  8
AM_0
 10
-16.898654460387888
 20
845.17438060189716
 30
0.0
 11
-16.898654460387888
 21
802.67444690588468
 31
0.0
  0
LINE
  5
1D78B
  8
AM_0
 10
-250.89863098675229
 20
802.67444690588468
 30
0.0
 11
-250.89863098675229
 21
845.17438060189716
 31
0.0
  0
LINE
  5
1D78C
  8
AM_0
 10
-240.89863098675229
 20
855.17438060189716
 30
0.0
 11
-26.898654460387888
 21
855.17438060189716
 31
0.0
  0
LINE
  5
1D78D
  8
AM_0
 10
-16.898654460387888
 20
808.67444690588457
 30
0.0
 11
-68.398006020387641
 21
808.67444690588457
 31
0.0
  0
ARC
  5
1D78E
  8
AM_0
 10
-26.898654460387888
 20
845.17438060189716
 30
0.0
 40
10.0
 50
0.0
 51
90.000000000000057
1001
GENIUS_GENODEF_13
1002
{
1000
HIER
1070
     0
1002
}
1002
{
1000
MANEDIT
1070
     0
1002
}
1002
{
1000
NOSEL
1070
     0
1002
}
1002
{
1000
BEHIND
1070
     0
1002
}
1002
{
1000
OTHER
1070
     0
1002
}
1002
{
1000
REACTOR
1002
}
1001
GENIUS_GENOBJ-N-FIL_13
1002
{
1000
OWNER
1000
GEN
1002
}
  0
ARC
  5
1D78F
  8
AM_0
 10
-240.89863098675229
 20
845.17438060189716
 30
0.0
 40
10.0
 50
90.000000000000057
 51
180.0
1001
GENIUS_GENODEF_13
1002
{
1000
HIER
1070
     0
1002
}
1002
{
1000
MANEDIT
1070
     0
1002
}
1002
{
1000
NOSEL
1070
     0
1002
}
1002
{
1000
BEHIND
1070
     0
1002
}
1002
{
1000
OTHER
1070
     0
1002
}
1002
{
1000
REACTOR
1002
}
1001
GENIUS_GENOBJ-N-FIL_13
1002
{
1000
OWNER
1000
GEN
1002
}
  0
INSERT
  5
1D792
  8
AM_0
  6
CONTINUOUS
  2
*U10
 10
0.0
 20
0.0
 30
0.0
1001
GENIUS_GENODEF_13
1002
{
1000
HIER
1070
     0
1002
}
1002
{
1000
MANEDIT
1070
     0
1002
}
1002
{
1000
NOSEL
1070
     0
1002
}
1002
{
1000
BEHIND
1070
     0
1002
}
1002
{
1000
OTHER
1070
     0
1002
}
1002
{
1000
REACTOR
1002
}
1001
GENIUS_GENOBJ-N-HTC_13
1002
{
1000
OWNER
1000
GEN
1002
}
1001
GENIUS_GENHATCH_13
1002
{
1000
DATA
1040
0.0
1042
-0.9999999999999998
1000
SOLID
1070
     0
1011
-163.73024028889151
1021
0.0
1031
0.0
1021
810.35594168531725
1031
0.0
1002
}
1002
{
1000
UCS
1010
0.0
1020
0.0
1030
0.0
1010
1.0
1020
0.0
1030
0.0
1010
0.0
1020
1.0
1030
0.0
1002
}
1001
ACAD
1002
{
1000
R14_HATCH_DATA
1000
1D792
1011
1.0
1021
0.0
1031
0.0
1021
0.0
1031
0.0
1011
0.0
1021
0.0
1031
0.0
1021
1.0
1031
0.0
1011
0.0
1021
0.0
1031
0.0
1021
0.0
1031
1.0
1040
0.0
1010
0.0
1020
0.0
1030
1.0
1000
SOLID
1070
     1
1070
     0
1071
        2
1071
        1
1071
        3
1070
     1
1040
-159.89864272357011
1040
808.67444690588457
1040
-164.89864272357011
1040
813.67444690588468
1070
     1
1040
-164.89864272357011
1040
813.67444690588468
1040
-164.89864272357011
1040
808.67444690588457
1070
     1
1040
-164.89864272357011
1040
808.67444690588457
1040
-159.89864272357011
1040
808.67444690588457
1071
        0
1071
       33
1071
        1
1070
     1
1040
-86.898654460387903
1040
808.67444690588457
1040
-320.89863098675232
1040
808.67444690588457
1071
        0
1070
     0
1070
     1
1071
        1
1040
-360.59450170608039
1040
711.7481929693829
1040
0.0
1002
}
  0
LINE
  5
1D793
  8
AM_0
 10
-164.89864272357011
 20
813.67444690588468
 30
0.0
 11
-159.89864272357011
 21
808.67444690588457
 31
0.0
1001
GENIUS_GENFIL_13
1070
     0
1040
5.0
1040
5.0
1040
20.0
1040
0.0
1002
{
1002
}
1001
GENIUS_GENODEF_13
1002
{
1000
HIER
1070
     0
1002
}
1002
{
1000
MANEDIT
1070
     0
1002
}
1002
{
1000
NOSEL
1070
     0
1002
}
1002
{
1000
BEHIND
1070
     0
1002
}
1002
{
1000
OTHER
1070
     0
1002
}
1002
{
1000
REACTOR
1002
}
1001
GENIUS_GENOBJ-N-CHA_13
1002
{
1000
OWNER
1000
GEN
1002
}
  0
LINE
  5
1D794
  8
AM_0
 10
-170.89864272357011
 20
813.67444690588468
 30
0.0
 11
-175.89864272357011
 21
808.67444690588457
 31
0.0
1001
GENIUS_GENFIL_13
1070
     0
1040
5.0
1040
5.0
1040
20.0
1040
0.0
1002
{
1002
}
1001
GENIUS_GENODEF_13
1002
{
1000
HIER
1070
     0
1002
}
1002
{
1000
MANEDIT
1070
     0
1002
}
1002
{
1000
NOSEL
1070
     0
1002
}
1002
{
1000
BEHIND
1070
     0
1002
}
1002
{
1000
OTHER
1070
     0
1002
}
1002
{
1000
REACTOR
1002
}
1001
GENIUS_GENOBJ-N-CHA_13
1002
{
1000
OWNER
1000
GEN
1002
}
  0
INSERT
  5
1D795
  8
AM_0
  6
CONTINUOUS
  2
*U11
 10
0.0
 20
0.0
 30
0.0
1001
GENIUS_GENODEF_13
1002
{
1000
HIER
1070
     0
1002
}
1002
{
1000
MANEDIT
1070
     0
1002
}
1002
{
1000
NOSEL
1070
     0
1002
}
1002
{
1000
BEHIND
1070
     0
1002
}
1002
{
1000
OTHER
1070
     0
1002
}
1002
{
1000
REACTOR
1002
}
1001
GENIUS_GENOBJ-N-HTC_13
1002
{
1000
OWNER
1000
GEN
1002
}
1001
GENIUS_GENHATCH_13
1002
{
1000
DATA
1040
0.0
1042
-0.9999999999999998
1000
SOLID
1070
     0
1011
-172.0670451582487
1021
0.0
1031
0.0
1021
810.35594168531725
1031
0.0
1002
}
1002
{
1000
UCS
1010
0.0
1020
0.0
1030
0.0
1010
1.0
1020
0.0
1030
0.0
1010
0.0
1020
1.0
1030
0.0
1002
}
1001
ACAD
1002
{
1000
R14_HATCH_DATA
1000
1D795
1011
1.0
1021
0.0
1031
0.0
1021
0.0
1031
0.0
1011
0.0
1021
0.0
1031
0.0
1021
1.0
1031
0.0
1011
0.0
1021
0.0
1031
0.0
1021
0.0
1031
1.0
1040
0.0
1010
0.0
1020
0.0
1030
1.0
1000
SOLID
1070
     1
1070
     0
1071
        2
1071
        1
1071
        3
1070
     1
1040
-175.89864272357011
1040
808.67444690588457
1040
-170.89864272357011
1040
813.67444690588468
1070
     1
1040
-170.89864272357011
1040
813.67444690588468
1040
-170.89864272357011
1040
808.67444690588457
1070
     1
1040
-170.89864272357011
1040
808.67444690588457
1040
-175.89864272357011
1040
808.67444690588457
1071
        0
1071
       33
1071
        1
1070
     1
1040
-248.89863098675229
1040
808.67444690588457
1040
-14.89865446038789
1040
808.67444690588457
1071
        0
1070
     0
1070
     1
1071
        1
1040
24.797216258940239
1040
711.7481929693829
1040
0.0
1002
}
  0
LINE
  5
1D796
  8
AM_0
 10
-170.89864272357011
 20
808.67444690588457
 30
0.0
 11
-170.89864272357019
 21
846.67444690588468
 31
0.0
  0
LINE
  5
1D797
  8
AM_0
 10
-164.89864272356999
 20
808.67444690588457
 30
0.0
 11
-164.89864272356999
 21
846.67444690588468
 31
0.0
  0
LINE
  5
1D79B
  8
AM_0
 10
-96.898642723570134
 20
812.67444908471691
 30
0.0
 11
-96.898642723570134
 21
846.67444690588468
 31
0.0
  0
LINE
  5
1D79D
  8
AM_0
 10
-102.89864272357021
 20
812.67444908471691
 30
0.0
 11
-102.89864272357021
 21
846.67444690588468
 31
0.0
  0
LINE
  5
1D79E
  8
ﾁｭｳｼﾝｾﾝ1
 10
-61.398642294430573
 20
822.67438818332641
 30
0.0
 11
-61.398642294430573
 21
852.67438818332653
 31
0.0
  0
LINE
  5
1D79F
  8
ﾁｭｳｼﾝｾﾝ1
 10
-76.398642294430545
 20
837.67438818332653
 30
0.0
 11
-46.398642294430573
 21
837.67438818332653
 31
0.0
  0
CIRCLE
  5
1D7A0
  8
AM_0
 10
-61.398642294430623
 20
837.67438818332653
 30
0.0
 40
9.5
  0
CIRCLE
  5
1D7A1
  8
AM_0
 10
-206.39864315270961
 20
837.67438818332653
 30
0.0
 40
9.5
  0
LINE
  5
1D7A2
  8
AM_5
 10
-166.8986284581573
 20
808.67444690588457
 30
0.0
 11
-166.8986284581573
 21
802.67444690588468
 31
0.0
  0
LINE
  5
1D7A3
  8
AM_5
 10
-190.87778607472109
 20
808.67444690588457
 30
0.0
 11
-190.87778607472109
 21
802.67444690588468
 31
0.0
  0
LINE
  5
1D7A4
  8
AM_0
 10
-96.898642723570134
 20
816.67444690588457
 30
0.0
 11
-102.89864272357021
 21
816.67444690588457
 31
0.0
  0
LINE
  5
1D7A5
  8
AM_0
 10
-96.898642723570134
 20
846.67444690588468
 30
0.0
 11
-102.89864272357021
 21
846.67444690588468
 31
0.0
  0
LINE
  5
1D7A6
  8
AM_0
 10
-164.89864272356999
 20
816.67444690588457
 30
0.0
 11
-170.89864272357011
 21
816.67444690588457
 31
0.0
  0
LINE
  5
1D7A7
  8
AM_0
 10
-164.89864272356999
 20
846.67444690588468
 30
0.0
 11
-170.89864272357019
 21
846.67444690588468
 31
0.0
  0
LINE
  5
1D7A8
  8
ﾁｭｳｼﾝｾﾝ1
 10
-206.39864315270961
 20
822.67438818332641
 30
0.0
 11
-206.39864315270961
 21
852.67438818332653
 31
0.0
  0
LINE
  5
1D7A9
  8
ﾁｭｳｼﾝｾﾝ1
 10
-221.39864315270961
 20
837.67438818332653
 30
0.0
 11
-191.39864315270961
 21
837.67438818332653
 31
0.0
  0
LINE
  5
1D7AC
  8
AM_0
 10
-133.39930795757741
 20
808.67444690588457
 30
0.0
 11
-250.89863098675229
 21
808.67444690588457
 31
0.0
  0
LINE
  5
1D7AD
  8
AM_0
 10
-133.39930797437731
 20
656.67376840223449
 30
0.0
 11
-250.89863098675229
 21
656.67376840223449
 31
0.0
  0
LINE
  5
1D7AE
  8
AM_0
 10
-79.898657004845063
 20
610.1738347062219
 30
0.0
 11
-26.898654460387888
 21
610.1738347062219
 31
0.0
  0
LINE
  5
1D7B8
  8
AM_0N
 10
-45.298654465805129
 20
827.17444690588445
 30
0.0
 11
-24.498654465805171
 21
827.17444690588445
 31
0.0
  0
LINE
  5
1D7B9
  8
AM_0N
 10
-19.898654465805141
 20
811.17444690588445
 30
0.0
 11
-49.898654465805151
 21
811.17444690588445
 31
0.0
  0
LINE
  5
1D7BA
  8
AM_0N
 10
-46.898654465805137
 20
811.17444690588445
 30
0.0
 11
-22.898654465805151
 21
811.17444690588445
 31
0.0
  0
ARC
  5
1D7BB
  8
AM_0N
 10
-24.498654465805121
 20
825.57444690588454
 30
0.0
 40
1.6000000000000001
 50
0.0
 51
90.0
  0
LINE
  5
1D7BC
  8
AM_0N
 10
-22.898654465805151
 20
825.57444690588454
 30
0.0
 11
-22.898654465805151
 21
811.17444690588445
 31
0.0
  0
LINE
  5
1D7BD
  8
AM_0N
 10
-19.898654465805141
 20
808.67444690588422
 30
0.0
 11
-19.898654465805141
 21
811.17444690588445
 31
0.0
  0
ARC
  5
1D7BE
  8
AM_0N
 10
-45.298654465805072
 20
825.57444690588454
 30
0.0
 40
1.6000000000000001
 50
90.0
 51
180.0
  0
LINE
  5
1D7BF
  8
AM_0N
 10
-46.898654465805137
 20
825.57444690588454
 30
0.0
 11
-46.898654465805137
 21
811.17444690588445
 31
0.0
  0
LINE
  5
1D7C0
  8
AM_0N
 10
-49.898654465805151
 20
811.17444690588445
 30
0.0
 11
-49.898654465805151
 21
808.67444690588457
 31
0.0
  0
LINE
  5
1D7C1
  8
AM_0N
 10
-243.29862990848591
 20
827.17444690588445
 30
0.0
 11
-222.4986299084859
 21
827.17444690588445
 31
0.0
  0
LINE
  5
1D7C2
  8
AM_0N
 10
-217.8986299084859
 20
811.17444690588445
 30
0.0
 11
-247.8986299084859
 21
811.17444690588445
 31
0.0
  0
LINE
  5
1D7C3
  8
AM_0N
 10
-244.8986299084859
 20
811.17444690588445
 30
0.0
 11
-220.8986299084859
 21
811.17444690588445
 31
0.0
  0
ARC
  5
1D7C4
  8
AM_0N
 10
-222.4986299084859
 20
825.57444690588454
 30
0.0
 40
1.6000000000000001
 50
0.0
 51
90.0
  0
LINE
  5
1D7C5
  8
AM_0N
 10
-220.8986299084859
 20
825.57444690588454
 30
0.0
 11
-220.8986299084859
 21
811.17444690588445
 31
0.0
  0
LINE
  5
1D7C6
  8
AM_0N
 10
-217.8986299084859
 20
808.67444690588422
 30
0.0
 11
-217.8986299084859
 21
811.17444690588445
 31
0.0
  0
ARC
  5
1D7C7
  8
AM_0N
 10
-243.29862990848591
 20
825.57444690588454
 30
0.0
 40
1.6000000000000001
 50
90.0
 51
180.0
  0
LINE
  5
1D7C8
  8
AM_0N
 10
-244.8986299084859
 20
825.57444690588454
 30
0.0
 11
-244.8986299084859
 21
811.17444690588445
 31
0.0
  0
LINE
  5
1D7C9
  8
AM_0N
 10
-247.8986299084859
 20
811.17444690588445
 30
0.0
 11
-247.8986299084859
 21
808.67444690588457
 31
0.0
  0
ARC
  5
1D7D7
  8
AM_0N
 10
-34.898654465805073
 20
663.27134039677821
 30
0.0
 40
22.897571994543771
 50
252.38303115961091
 51
287.61696884038918
  0
LINE
  5
1D7D8
  8
AM_0N
 10
-46.898654465805123
 20
640.3737684022343
 30
0.0
 11
-22.898654465805119
 21
640.3737684022343
 31
0.0
  0
LINE
  5
1D7D9
  8
AM_0N
 10
-49.89865446580513
 20
654.17376840223437
 30
0.0
 11
-19.898654465805119
 21
654.17376840223437
 31
0.0
  0
LINE
  5
1D7DA
  8
AM_0N
 10
-21.038654465805109
 20
641.44763990292722
 30
0.0
 11
-21.038654465805109
 21
654.0998969015418
 31
0.0
  0
LINE
  5
1D7DB
  8
AM_0N
 10
-27.968654465805169
 20
641.44763990292722
 30
0.0
 11
-27.968654465805169
 21
654.0998969015418
 31
0.0
  0
ARC
  5
1D7DC
  8
AM_0N
 10
-24.503654465805091
 20
646.50086321363005
 30
0.0
 40
6.1270948113957182
 50
235.56153059526639
 51
295.56153059526417
  0
LINE
  5
1D7DD
  8
AM_0N
 10
-21.038654465805109
 20
641.44763990292722
 30
0.0
 11
-22.898654465805119
 21
640.3737684022343
 31
0.0
  0
LINE
  5
1D7DE
  8
AM_0N
 10
-19.89865446580523
 20
654.17376840223437
 30
0.0
 11
-19.898654465805119
 21
656.67376840223415
 31
0.0
  0
LINE
  5
1D7DF
  8
AM_0N
 10
-48.758654465805137
 20
641.44763990292722
 30
0.0
 11
-48.758654465805137
 21
654.0998969015418
 31
0.0
  0
LINE
  5
1D7E0
  8
AM_0N
 10
-41.828654465805172
 20
641.44763990292722
 30
0.0
 11
-41.828654465805172
 21
654.0998969015418
 31
0.0
  0
LINE
  5
1D7E1
  8
AM_0N
 10
-48.758654465805137
 20
641.44763990292722
 30
0.0
 11
-46.898654465805123
 21
640.3737684022343
 31
0.0
  0
ARC
  5
1D7E2
  8
AM_0N
 10
-45.293654465805027
 20
646.50086321363005
 30
0.0
 40
6.1270948113957182
 50
244.43846940473591
 51
304.43846940473361
  0
LINE
  5
1D7E3
  8
AM_0N
 10
-49.89865446580513
 20
656.67376840223415
 30
0.0
 11
-49.89865446580513
 21
654.17376840223437
 31
0.0
  0
ARC
  5
1D7E4
  8
AM_0N
 10
-232.8986299084859
 20
663.27134039677821
 30
0.0
 40
22.897571994543771
 50
252.38303115961091
 51
287.61696884038918
  0
LINE
  5
1D7E5
  8
AM_0N
 10
-244.8986299084859
 20
640.3737684022343
 30
0.0
 11
-220.8986299084859
 21
640.3737684022343
 31
0.0
  0
LINE
  5
1D7E6
  8
AM_0N
 10
-247.8986299084859
 20
654.17376840223437
 30
0.0
 11
-217.8986299084859
 21
654.17376840223437
 31
0.0
  0
LINE
  5
1D7E7
  8
AM_0N
 10
-219.03862990848589
 20
641.44763990292722
 30
0.0
 11
-219.03862990848589
 21
654.0998969015418
 31
0.0
  0
LINE
  5
1D7E8
  8
AM_0N
 10
-225.96862990848589
 20
641.44763990292722
 30
0.0
 11
-225.96862990848589
 21
654.0998969015418
 31
0.0
  0
ARC
  5
1D7E9
  8
AM_0N
 10
-222.50362990848589
 20
646.50086321363005
 30
0.0
 40
6.1270948113957182
 50
235.56153059526639
 51
295.56153059526417
  0
LINE
  5
1D7EA
  8
AM_0N
 10
-219.03862990848589
 20
641.44763990292722
 30
0.0
 11
-220.8986299084859
 21
640.3737684022343
 31
0.0
  0
LINE
  5
1D7EB
  8
AM_0N
 10
-217.89862990848599
 20
654.17376840223437
 30
0.0
 11
-217.8986299084859
 21
656.67376840223415
 31
0.0
  0
LINE
  5
1D7EC
  8
AM_0N
 10
-246.75862990848589
 20
641.44763990292722
 30
0.0
 11
-246.75862990848589
 21
654.0998969015418
 31
0.0
  0
LINE
  5
1D7ED
  8
AM_0N
 10
-239.82862990848591
 20
641.44763990292722
 30
0.0
 11
-239.82862990848591
 21
654.0998969015418
 31
0.0
  0
LINE
  5
1D7EE
  8
AM_0N
 10
-246.75862990848589
 20
641.44763990292722
 30
0.0
 11
-244.8986299084859
 21
640.3737684022343
 31
0.0
  0
ARC
  5
1D7EF
  8
AM_0N
 10
-243.2936299084858
 20
646.50086321363005
 30
0.0
 40
6.1270948113957182
 50
244.43846940473591
 51
304.43846940473361
  0
LINE
  5
1D7F0
  8
AM_0N
 10
-247.8986299084859
 20
656.67376840223415
 30
0.0
 11
-247.8986299084859
 21
654.17376840223437
 31
0.0
  0
ARC
  5
1DE88
  8
ｶｸﾚｾﾝ2
 10
-373.21401991487852
 20
319.41732185333581
 30
0.0
 40
5.600000999999998
 50
180.00005699999849
 51
266.1630369999973
  0
ARC
  5
1DE89
  8
ｶｸﾚｾﾝ2
 10
-333.3986249148785
 20
913.08369685333571
 30
0.0
 40
600.59997599999986
 50
266.16305400000141
 51
273.96601299999787
  0
ARC
  5
1DE8A
  8
ｶｸﾚｾﾝ2
 10
-292.1045189148785
 20
317.51352085333588
 30
0.0
 40
3.6000059999999978
 50
273.96599899999779
 51
0.0000179999992061
  0
LINE
  5
1DE8B
  8
ｶｸﾚｾﾝ2
 10
-288.50452891487851
 20
317.50303985333591
 30
0.0
 11
-288.50452891487851
 21
390.96158285333581
 31
0.0
  0
ARC
  5
1DE8C
  8
ｶｸﾚｾﾝ2
 10
-292.1045189148785
 20
390.95372185333599
 30
0.0
 40
3.5999989999999982
 50
0.0000179999992061
 51
86.033744000000851
  0
ARC
  5
1DE8D
  8
ｶｸﾚｾﾝ2
 10
-333.3986249148785
 20
-204.61625514666409
 30
0.0
 40
600.59997599999986
 50
86.033759999997159
 51
93.836910000000643
  0
LINE
  5
1DE8E
  8
ｶｸﾚｾﾝ2
 10
-378.81402291487859
 20
389.05012085333601
 30
0.0
 11
-378.81402291487859
 21
319.41731685333588
 31
0.0
  0
ARC
  5
1DE8F
  8
ｶｸﾚｾﾝ2
 10
-373.21401991487852
 20
389.0501198533359
 30
0.0
 40
5.5999980000000003
 50
93.837062000000643
 51
179.99998200000081
  0
ARC
  5
1DE98
  8
0
  6
CONTINUOUS
 62
     0
 10
-285.8986849148788
 20
794.71291527049004
 30
0.0
 40
1.0
 50
90.000000000000057
 51
180.0
  0
ARC
  5
1DE99
  8
AM_0
 10
-285.8986849148788
 20
670.63529927049001
 30
0.0
 40
1.0
 50
180.0
 51
270.0
  0
ARC
  5
1DE9A
  8
AM_0
 10
-289.7222439148785
 20
429.12988585333579
 30
0.0
 40
2.0
 50
14.999997000001709
 51
90.0
  0
ARC
  5
1DE9B
  8
AM_0
 10
-287.9069999148785
 20
420.7337208533358
 30
0.0
 40
2.0
 50
15.000000000000741
 51
90.0
  0
LINE
  5
1DE9C
  8
AM_0
 10
-286.8986249148785
 20
426.7337208533358
 30
0.0
 11
-286.8986249148785
 21
426.31940385333593
 31
0.0
  0
ARC
  5
1DE9D
  8
AM_0
 10
-285.9011219148785
 20
426.7362178533358
 30
0.0
 40
0.9975059999999999
 50
89.856578000002884
 51
180.1434220000003
  0
LINE
  5
1DE9E
  8
AM_0
 10
-286.8986249148785
 20
426.73871485333598
 30
0.0
 11
-286.8986249148785
 21
426.7337208533358
 31
0.0
  0
LINE
  5
1DE9F
  8
AM_0
 10
-286.9861809148785
 20
426.6461648533359
 30
0.0
 11
-286.8986249148785
 21
426.7337208533358
 31
0.0
  0
LINE
  5
1DEA0
  8
AM_0
 10
-284.8986249148785
 20
417.2337208533358
 30
0.0
 11
-285.97514791487862
 21
421.25135885333589
 31
0.0
  0
LINE
  5
1DEA1
  8
AM_0
 10
-285.8986249148785
 20
427.73372085333568
 30
0.0
 11
-279.19862491556859
 21
427.73372085333568
 31
0.0
  0
LINE
  5
1DEA2
  8
AM_0
 10
-284.8986249148785
 20
418.8553018533359
 30
0.0
 11
-287.79039191487851
 21
429.647523853336
 31
0.0
  0
ARC
  5
1DEA3
  8
AM_0
 10
-285.8986249148785
 20
416.23372085333568
 30
0.0
 40
1.0
 50
90.0
 51
180.0
  0
ARC
  5
1DEA4
  8
AM_0
 10
-355.89862491487838
 20
432.09591885333577
 30
0.0
 40
2.0
 50
0.0
 51
90.0
  0
ARC
  5
1DEA5
  8
AM_0
 10
-355.89862491487838
 20
431.66864085333577
 30
0.0
 40
2.0
 50
0.0
 51
90.0
  0
ARC
  5
1DEA6
  8
AM_0
 10
-355.89862491487838
 20
430.66328985333598
 30
0.0
 40
2.0
 50
13.49131100000233
 51
90.0
  0
LINE
  5
1DEA7
  8
AM_0
 10
-353.8986249148785
 20
432.09591885333577
 30
0.0
 11
-353.8986249148785
 21
431.12988585333579
 31
0.0
  0
ARC
  5
1DEA8
  8
AM_0
 10
-436.89862491487833
 20
432.09591885333577
 30
0.0
 40
2.0
 50
90.0
 51
180.0
  0
LINE
  5
1DEA9
  8
AM_0
 10
-438.89862491487838
 20
430.11807685333588
 30
0.0
 11
-438.89862491487838
 21
430.66328985333598
 31
0.0
  0
ARC
  5
1DEAA
  8
AM_0
 10
-437.04917491487839
 20
431.66864085333577
 30
0.0
 40
2.0
 50
90.0
 51
164.2304530000001
  0
ARC
  5
1DEAB
  8
AM_0
 10
-440.89862491487833
 20
432.7557158533358
 30
0.0
 40
2.0
 50
270.0
 51
344.23045300000013
  0
ARC
  5
1DEAC
  8
AM_0
 10
-436.89862491487833
 20
430.66328985333598
 30
0.0
 40
2.0
 50
90.0
 51
180.0
  0
ARC
  5
1DEAD
  8
AM_0
 10
-440.89862491487833
 20
430.11807685333588
 30
0.0
 40
2.0
 50
270.0
 51
0.0
  0
ARC
  5
1DEAE
  8
AM_0
 10
-436.89862491487833
 20
429.12988585333579
 30
0.0
 40
2.0
 50
90.0
 51
180.0
  0
ARC
  5
1DEAF
  8
AM_0
 10
-440.89862491487833
 20
425.76208785333603
 30
0.0
 40
2.0
 50
270.0
 51
0.0
  0
LINE
  5
1DEB0
  8
AM_0
 10
-438.89862491487838
 20
425.76208785333603
 30
0.0
 11
-438.89862491487838
 21
429.12988585333579
 31
0.0
  0
ARC
  5
1DEB1
  8
AM_0
 10
-440.89862491487833
 20
407.13477085333602
 30
0.0
 40
2.0
 50
270.0
 51
0.0
  0
LINE
  5
1DEB2
  8
AM_0
 10
-438.89862491487838
 20
419.58963985333583
 30
0.0
 11
-438.89862491487838
 21
407.13477085333602
 31
0.0
  0
ARC
  5
1DEB3
  8
AM_0
 10
-436.89862491487833
 20
420.7337208533358
 30
0.0
 40
2.0
 50
90.0
 51
180.0
  0
ARC
  5
1DEB4
  8
AM_0
 10
-440.89862491487833
 20
419.58963985333583
 30
0.0
 40
2.0
 50
270.0
 51
0.0
  0
LINE
  5
1DEB5
  8
AM_0
 10
-438.89862491487838
 20
419.58963985333583
 30
0.0
 11
-438.89862491487838
 21
420.7337208533358
 31
0.0
  0
LINE
  5
1DEB6
  8
AM_0
 10
-440.89862491487833
 20
430.7557158533358
 30
0.0
 11
-446.40463591487861
 21
430.7557158533358
 31
0.0
  0
LINE
  5
1DEB7
  8
AM_0
 10
-440.89862491487833
 20
428.11807685333582
 30
0.0
 11
-446.40463591487861
 21
428.11807685333582
 31
0.0
  0
LINE
  5
1DEB8
  8
AM_0
 10
-440.89862491487833
 20
423.7620878533358
 30
0.0
 11
-446.40463591487861
 21
423.7620878533358
 31
0.0
  0
LINE
  5
1DEB9
  8
AM_0
 10
-440.89862491487833
 20
417.58963985333588
 30
0.0
 11
-446.40463591487861
 21
417.58963985333588
 31
0.0
  0
LINE
  5
1DEBA
  8
AM_0
 10
-436.89862491487833
 20
434.09591885333589
 30
0.0
 11
-355.89862491487838
 21
434.09591885333589
 31
0.0
  0
LINE
  5
1DEBB
  8
AM_0
 10
-437.04917491487839
 20
433.668640853336
 30
0.0
 11
-355.89862491487838
 21
433.668640853336
 31
0.0
  0
LINE
  5
1DEBC
  8
AM_0
 10
-436.89862491487833
 20
432.66328985333581
 30
0.0
 11
-355.89862491487838
 21
432.66328985333581
 31
0.0
  0
LINE
  5
1DEBD
  8
AM_0
 10
-436.89862491487833
 20
431.12988585333579
 30
0.0
 11
-289.7222439148785
 21
431.12988585333579
 31
0.0
  0
LINE
  5
1DEBE
  8
AM_0
 10
-436.89862491487833
 20
422.7337208533358
 30
0.0
 11
-287.9069999148785
 21
422.7337208533358
 31
0.0
  0
LINE
  5
1DEBF
  8
AM_0
 10
-446.40463591487861
 20
405.13477085333602
 30
0.0
 11
-288.3986249148785
 21
405.13477085333602
 31
0.0
  0
ARC
  5
1DEC0
  8
AM_0
 10
-287.9069999148785
 20
287.7337208533358
 30
0.0
 40
2.0
 50
270.0
 51
344.99999999999932
  0
ARC
  5
1DEC1
  8
AM_0
 10
-285.9011219148785
 20
281.73122385333591
 30
0.0
 40
0.9975059999999999
 50
179.85657799999959
 51
270.14342199999709
  0
LINE
  5
1DEC2
  8
AM_0
 10
-286.9861809148785
 20
281.8212768533358
 30
0.0
 11
-286.8986249148785
 21
281.73372085333591
 31
0.0
  0
LINE
  5
1DEC3
  8
AM_0
 10
-286.8986249148785
 20
281.7287268533359
 30
0.0
 11
-286.8986249148785
 21
281.73372085333591
 31
0.0
  0
LINE
  5
1DEC4
  8
AM_0
 10
-286.8986249148785
 20
281.73372085333591
 30
0.0
 11
-286.8986249148785
 21
282.14803785333578
 31
0.0
  0
ARC
  5
1DEC5
  8
AM_0
 10
-289.7222439148785
 20
279.33755585333603
 30
0.0
 40
2.0
 50
270.0
 51
345.0000029999984
  0
LINE
  5
1DEC6
  8
AM_0
 10
-285.8986249148785
 20
280.7337208533358
 30
0.0
 11
-276.8986249148785
 21
280.7337208533358
 31
0.0
  0
LINE
  5
1DEC7
  8
AM_0
 10
-284.8986249148785
 20
291.2337208533358
 30
0.0
 11
-285.97514791487862
 21
287.21608285333582
 31
0.0
  0
LINE
  5
1DEC8
  8
AM_0
 10
-284.8986249148785
 20
289.61213985333598
 30
0.0
 11
-287.79039191487851
 21
278.81991785333588
 31
0.0
  0
ARC
  5
1DEC9
  8
AM_0
 10
-285.8986249148785
 20
292.23372085333591
 30
0.0
 40
1.0
 50
180.0
 51
270.0
  0
LINE
  5
1DECA
  8
AM_0
 10
-436.89862491487833
 20
275.80415185333601
 30
0.0
 11
-355.89862491487838
 21
275.80415185333601
 31
0.0
  0
LINE
  5
1DECB
  8
AM_0
 10
-437.04917491487839
 20
274.79880085333588
 30
0.0
 11
-355.89862491487838
 21
274.79880085333588
 31
0.0
  0
LINE
  5
1DECC
  8
AM_0
 10
-436.89862491487833
 20
274.37152285333582
 30
0.0
 11
-355.89862491487838
 21
274.37152285333582
 31
0.0
  0
LINE
  5
1DECD
  8
AM_0
 10
-438.89862491487838
 20
288.87780185333582
 30
0.0
 11
-438.89862491487838
 21
287.7337208533358
 31
0.0
  0
ARC
  5
1DECE
  8
AM_0
 10
-440.89862491487833
 20
288.87780185333582
 30
0.0
 40
2.0
 50
0.0
 51
90.0
  0
ARC
  5
1DECF
  8
AM_0
 10
-436.89862491487833
 20
287.7337208533358
 30
0.0
 40
2.0
 50
180.0
 51
270.0
  0
LINE
  5
1DED0
  8
AM_0
 10
-438.89862491487838
 20
288.87780185333582
 30
0.0
 11
-438.89862491487838
 21
301.33267085333591
 31
0.0
  0
ARC
  5
1DED1
  8
AM_0
 10
-440.89862491487833
 20
301.33267085333591
 30
0.0
 40
2.0
 50
0.0
 51
90.0
  0
ARC
  5
1DED2
  8
AM_0
 10
-440.89862491487833
 20
275.71172585333579
 30
0.0
 40
2.0
 50
15.7695469999999
 51
90.0
  0
ARC
  5
1DED3
  8
AM_0
 10
-440.89862491487833
 20
278.34936485333611
 30
0.0
 40
2.0
 50
0.0
 51
90.0
  0
ARC
  5
1DED4
  8
AM_0
 10
-440.89862491487833
 20
282.70535385333591
 30
0.0
 40
2.0
 50
0.0
 51
90.0
  0
LINE
  5
1DED5
  8
AM_0
 10
-438.89862491487838
 20
282.70535385333591
 30
0.0
 11
-438.89862491487838
 21
279.33755585333603
 31
0.0
  0
ARC
  5
1DED6
  8
AM_0
 10
-436.89862491487833
 20
279.33755585333603
 30
0.0
 40
2.0
 50
180.0
 51
270.0
  0
ARC
  5
1DED7
  8
AM_0
 10
-436.89862491487833
 20
277.80415185333601
 30
0.0
 40
2.0
 50
180.0
 51
270.0
  0
ARC
  5
1DED8
  8
AM_0
 10
-437.04917491487839
 20
276.79880085333588
 30
0.0
 40
2.0
 50
195.7695469999999
 51
270.0
  0
LINE
  5
1DED9
  8
AM_0
 10
-438.89862491487838
 20
278.34936485333611
 30
0.0
 11
-438.89862491487838
 21
277.80415185333601
 31
0.0
  0
ARC
  5
1DEDA
  8
AM_0
 10
-436.89862491487833
 20
276.37152285333582
 30
0.0
 40
2.0
 50
180.0
 51
270.0
  0
LINE
  5
1DEDB
  8
AM_0
 10
-353.8986249148785
 20
276.37152285333582
 30
0.0
 11
-353.8986249148785
 21
277.33755585333603
 31
0.0
  0
ARC
  5
1DEDC
  8
AM_0
 10
-355.89862491487838
 20
277.80415185333601
 30
0.0
 40
2.0
 50
270.0
 51
346.50868899999767
  0
ARC
  5
1DEDD
  8
AM_0
 10
-355.89862491487838
 20
276.79880085333588
 30
0.0
 40
2.0
 50
270.0
 51
0.0
  0
ARC
  5
1DEDE
  8
AM_0
 10
-355.89862491487838
 20
276.37152285333582
 30
0.0
 40
2.0
 50
270.0
 51
0.0
  0
LINE
  5
1DEDF
  8
AM_0
 10
-440.89862491487833
 20
290.87780185333582
 30
0.0
 11
-446.40463591487861
 21
290.87780185333582
 31
0.0
  0
LINE
  5
1DEE0
  8
AM_0
 10
-436.89862491487833
 20
285.7337208533358
 30
0.0
 11
-287.9069999148785
 21
285.7337208533358
 31
0.0
  0
LINE
  5
1DEE1
  8
AM_0
 10
-446.40463591487861
 20
303.33267085333591
 30
0.0
 11
-288.3986249148785
 21
303.33267085333591
 31
0.0
  0
LINE
  5
1DEE2
  8
AM_0
 10
-436.89862491487833
 20
277.33755585333603
 30
0.0
 11
-289.7222439148785
 21
277.33755585333603
 31
0.0
  0
LINE
  5
1DEE3
  8
AM_0
 10
-440.89862491487833
 20
277.71172585333579
 30
0.0
 11
-446.40463591487861
 21
277.71172585333579
 31
0.0
  0
LINE
  5
1DEE4
  8
AM_0
 10
-440.89862491487833
 20
280.34936485333611
 30
0.0
 11
-446.40463591487861
 21
280.34936485333611
 31
0.0
  0
LINE
  5
1DEE5
  8
AM_0
 10
-440.89862491487833
 20
284.70535385333591
 30
0.0
 11
-446.40463591487861
 21
284.70535385333591
 31
0.0
  0
LINE
  5
1DF37
  8
AM_0
 10
-286.8986249148785
 20
310.40377885333601
 30
0.0
 11
-286.8986249148785
 21
318.04377885333588
 31
0.0
  0
LINE
  5
1DF38
  8
AM_0
 10
-286.8986249148785
 20
398.06372085333601
 30
0.0
 11
-286.8986249148785
 21
390.42372085333591
 31
0.0
  0
ARC
  5
1DF39
  8
AM_0
 10
-285.89926391487847
 20
307.192189853336
 30
0.0
 40
1.002631999999998
 50
0.0540849999984558
 51
81.243759000000509
  0
LINE
  5
1DF3A
  8
AM_0
 10
-285.74663191487861
 20
308.18313685333601
 30
0.0
 11
-287.50543091487839
 21
308.45372085333588
 31
0.0
  0
LINE
  5
1DF3B
  8
AM_0
 10
-285.75663191487848
 20
310.27313685333593
 30
0.0
 11
-287.3593199148786
 21
310.05372085333602
 31
0.0
  0
ARC
  5
1DF3C
  8
AM_0
 10
-285.9035999148785
 20
311.26934085333602
 30
0.0
 40
1.0069859999999999
 50
278.39216300000191
 51
359.64700200000118
  0
LINE
  5
1DF3D
  8
AM_0
 10
-284.89663191487858
 20
311.26313685333588
 30
0.0
 11
-284.89663191487858
 21
307.193136853336
 31
0.0
  0
ARC
  5
1DF3E
  8
AM_0
 10
-287.43998791487837
 20
309.23978085333579
 30
0.0
 40
0.8033630000000001
 50
0.2393300000011609
 51
89.760670000002094
  0
ARC
  5
1DF3F
  8
AM_0
 10
-287.4416939148785
 20
309.24819885333579
 30
0.0
 40
0.8050779999999997
 50
270.3602510000016
 51
359.6397490000017
  0
ARC
  5
1DF40
  8
AM_0
 10
-285.9035999148785
 20
397.19810085333597
 30
0.0
 40
1.0069859999999999
 50
0.3529979999988096
 51
81.607836999998227
  0
LINE
  5
1DF41
  8
AM_0
 10
-285.75663191487848
 20
398.19430485333601
 30
0.0
 11
-287.3593199148786
 21
398.41372085333592
 31
0.0
  0
ARC
  5
1DF42
  8
AM_0
 10
-285.89926391487847
 20
401.27525185333587
 30
0.0
 40
1.002631999999998
 50
278.75624099999948
 51
359.94591500000149
  0
LINE
  5
1DF43
  8
AM_0
 10
-284.89663191487858
 20
397.20430485333611
 30
0.0
 11
-284.89663191487858
 21
401.27430485333588
 31
0.0
  0
LINE
  5
1DF44
  8
AM_0
 10
-285.74663191487861
 20
400.28430485333593
 30
0.0
 11
-287.50543091487839
 21
400.01372085333583
 31
0.0
  0
ARC
  5
1DF45
  8
AM_0
 10
-287.43998791487837
 20
399.22766085333592
 30
0.0
 40
0.8033630000000001
 50
270.23932999999789
 51
359.76066999999892
  0
ARC
  5
1DF46
  8
AM_0
 10
-287.4416939148785
 20
399.2192428533358
 30
0.0
 40
0.8050779999999997
 50
0.3602510000016315
 51
89.639748999998375
  0
LINE
  5
1DF55
  8
AM_0
 10
-286.8986249148785
 20
320.38377885333591
 30
0.0
 11
-286.8986249148785
 21
328.13377885333603
 31
0.0
  0
ARC
  5
1DF56
  8
AM_0
 10
-285.90559291487853
 20
321.25992485333592
 30
0.0
 40
1.0069859999999999
 50
278.39216300000191
 51
359.64700200000118
  0
LINE
  5
1DF57
  8
AM_0
 10
-285.75862491487851
 20
320.26372085333583
 30
0.0
 11
-287.43862391487852
 21
320.03372085333581
 31
0.0
  0
LINE
  5
1DF58
  8
AM_0
 10
-285.74862491487852
 20
318.17372085333591
 30
0.0
 11
-287.43862391487852
 21
318.4337208533359
 31
0.0
  0
ARC
  5
1DF59
  8
AM_0
 10
-287.44368691487853
 20
319.23878285333598
 30
0.0
 40
0.8050779999999997
 50
270.36122600000039
 51
359.6397490000017
  0
ARC
  5
1DF5A
  8
AM_0
 10
-287.44198091487851
 20
319.2303648533358
 30
0.0
 40
0.8033630000000001
 50
0.2393300000011609
 51
90.239183000001589
  0
ARC
  5
1DF5B
  8
AM_0
 10
-285.90125691487862
 20
317.18277485333601
 30
0.0
 40
1.002631999999998
 50
0.0540849999984558
 51
81.243759000000509
  0
LINE
  5
1DF5C
  8
AM_0
 10
-284.8986249148785
 20
321.25372085333578
 30
0.0
 11
-284.8986249148785
 21
317.1837208533359
 31
0.0
  0
LINE
  5
1DF5D
  8
AM_0
 10
-286.8986249148785
 20
388.08372085333599
 30
0.0
 11
-286.8986249148785
 21
380.33372085333599
 31
0.0
  0
LINE
  5
1DF5E
  8
AM_0
 10
-285.75862491487851
 20
388.20372085333588
 30
0.0
 11
-287.43862391487852
 21
388.4337208533359
 31
0.0
  0
ARC
  5
1DF5F
  8
AM_0
 10
-285.90559291487853
 20
387.20751685333579
 30
0.0
 40
1.0069859999999999
 50
0.3529979999988096
 51
81.607836999998227
  0
ARC
  5
1DF60
  8
AM_0
 10
-285.90125691487862
 20
391.28466685333592
 30
0.0
 40
1.002631999999998
 50
278.75624099999948
 51
359.94591500000149
  0
LINE
  5
1DF61
  8
AM_0
 10
-284.8986249148785
 20
387.21372085333587
 30
0.0
 11
-284.8986249148785
 21
391.28372085333581
 31
0.0
  0
LINE
  5
1DF62
  8
AM_0
 10
-285.74862491487852
 20
390.2937208533358
 30
0.0
 11
-287.43862391487852
 21
390.03372085333581
 31
0.0
  0
ARC
  5
1DF63
  8
AM_0
 10
-287.44368691487853
 20
389.2286588533359
 30
0.0
 40
0.8050779999999997
 50
0.3602510000016315
 51
89.638773999999614
  0
ARC
  5
1DF64
  8
AM_0
 10
-287.44198091487851
 20
389.23707685333579
 30
0.0
 40
0.8033630000000001
 50
269.76081699999838
 51
359.76066999999892
  0
LINE
  5
1DF65
  8
AM_0
 10
-286.8986249148785
 20
392.0976658533358
 30
0.0
 11
-276.8986249148785
 21
392.0976658533358
 31
0.0
  0
LINE
  5
1DF66
  8
AM_0
 10
-286.8986249148785
 20
316.37977585333579
 30
0.0
 11
-276.8986249148785
 21
316.37977585333579
 31
0.0
  0
LINE
  5
1DFBF
  8
AM_0
 10
354.3787397720539
 20
326.9661180882577
 30
0.0
 11
360.87573177205383
 21
326.59311708825771
 31
0.0
  0
LINE
  5
1DFC0
  8
AM_0
 10
388.81323677205359
 20
327.02916108825769
 30
0.0
 11
385.94073377205359
 21
326.57910608825767
 31
0.0
  0
LINE
  5
1DFC1
  8
AM_0
 10
358.4347527720538
 20
326.98712608825753
 30
0.0
 11
360.91073877205372
 21
326.5871340882577
 31
0.0
  0
LINE
  5
1DFC2
  8
AM_0
 10
352.93674477205388
 20
332.9661090882575
 30
0.0
 11
352.93674477205388
 21
401.50120108825757
 31
0.0
  0
LINE
  5
1DFC3
  8
AM_0
 10
354.37873877205379
 20
407.50119908825758
 30
0.0
 11
360.87573277205371
 21
407.87389808825782
 31
0.0
  0
LINE
  5
1DFC4
  8
AM_0
 10
395.01274177205369
 20
335.0077700882577
 30
0.0
 11
395.01274177205369
 21
399.45800308825773
 31
0.0
  0
LINE
  5
1DFC5
  8
AM_0
 10
355.42172977205382
 20
335.0077700882577
 30
0.0
 11
355.42172977205382
 21
399.45800308825773
 31
0.0
  0
LINE
  5
1DFC6
  8
AM_0
 10
388.78351877205358
 20
407.4424290882576
 30
0.0
 11
385.94072777205389
 21
407.88810508825748
 31
0.0
  0
LINE
  5
1DFC7
  8
AM_0
 10
358.43473777205372
 20
407.48019908825739
 30
0.0
 11
360.91073877205372
 21
407.88009808825763
 31
0.0
  0
LINE
  5
1DFC8
  8
AM_0
 10
381.1327367720537
 20
399.45906608825771
 30
0.0
 11
381.1327367720537
 21
335.00739208825752
 31
0.0
  0
LINE
  5
1DFC9
  8
AM_0
 10
348.37873077205359
 20
332.9661090882575
 30
0.0
 11
348.37873077205359
 21
401.50120108825757
 31
0.0
  0
LINE
  5
1DFCA
  8
AM_0
 10
381.13272677205367
 20
335.00776208825772
 30
0.0
 11
381.14372777205381
 21
334.5987690882576
 31
0.0
  0
LINE
  5
1DFCB
  8
AM_0
 10
381.14371477205373
 20
334.59876608825772
 30
0.0
 11
381.1787187720538
 21
334.19176808825767
 31
0.0
  0
LINE
  5
1DFCC
  8
AM_0
 10
381.1786897720537
 20
334.19177108825789
 30
0.0
 11
381.23468877205369
 21
333.79177208825757
 31
0.0
  0
LINE
  5
1DFCD
  8
AM_0
 10
381.23470877205369
 20
333.79177108825769
 30
0.0
 11
381.31370277205377
 21
333.40077508825772
 31
0.0
  0
LINE
  5
1DFCE
  8
AM_0
 10
381.31372477205377
 20
333.40077008825767
 30
0.0
 11
381.41373177205378
 21
333.02175908825768
 31
0.0
  0
LINE
  5
1DFCF
  8
AM_0
 10
381.41375877205382
 20
333.02177708825752
 30
0.0
 11
381.53476077205369
 21
332.65777908825771
 31
0.0
  0
LINE
  5
1DFD0
  8
AM_0
 10
381.53475377205359
 20
332.65776908825751
 30
0.0
 11
381.67574377205369
 21
332.31277008825748
 31
0.0
  0
LINE
  5
1DFD1
  8
AM_0
 10
381.67574377205369
 20
332.31277508825758
 30
0.0
 11
381.83474077205369
 21
331.98677808825749
 31
0.0
  0
LINE
  5
1DFD2
  8
AM_0
 10
381.83474377205391
 20
331.98677908825772
 30
0.0
 11
382.01174677205381
 21
331.68477508825771
 31
0.0
  0
LINE
  5
1DFD3
  8
AM_0
 10
382.01170777205391
 20
331.68476308825768
 30
0.0
 11
382.2047167720537
 21
331.40776208825781
 31
0.0
  0
LINE
  5
1DFD4
  8
AM_0
 10
382.20472877205378
 20
331.4077560882576
 30
0.0
 11
382.41173077205372
 21
331.15775408825772
 31
0.0
  0
LINE
  5
1DFD5
  8
AM_0
 10
382.41174077205369
 20
331.15777608825749
 30
0.0
 11
382.6327347720536
 21
330.93777408825753
 31
0.0
  0
LINE
  5
1DFD6
  8
AM_0
 10
382.6327207720538
 20
330.93776808825783
 30
0.0
 11
382.86471377205362
 21
330.74877308825779
 31
0.0
  0
LINE
  5
1DFD7
  8
AM_0
 10
382.8647357720539
 20
330.74877808825772
 30
0.0
 11
383.10674177205368
 21
330.59177208825781
 31
0.0
  0
LINE
  5
1DFD8
  8
AM_0
 10
383.10673177205382
 20
330.59176908825759
 30
0.0
 11
383.35673677205392
 21
330.4687660882575
 31
0.0
  0
LINE
  5
1DFD9
  8
AM_0
 10
383.35674177205391
 20
330.46879208825771
 30
0.0
 11
383.61175277205371
 21
330.37979308825771
 31
0.0
  0
LINE
  5
1DFDA
  8
AM_0
 10
383.61174377205361
 20
330.37977908825769
 30
0.0
 11
383.87174377205378
 21
330.3257770882575
 31
0.0
  0
LINE
  5
1DFDB
  8
AM_0
 10
383.8717297720537
 20
330.32577208825768
 30
0.0
 11
384.1327367720537
 21
330.3077740882577
 31
0.0
  0
LINE
  5
1DFDC
  8
AM_0
 10
384.1327347720536
 20
404.15810508825751
 30
0.0
 11
383.87173577205363
 21
404.14020308825729
 31
0.0
  0
LINE
  5
1DFDD
  8
AM_0
 10
383.87174477205372
 20
404.14020508825757
 30
0.0
 11
383.61175577205358
 21
404.08660508825739
 31
0.0
  0
LINE
  5
1DFDE
  8
AM_0
 10
383.61174877205372
 20
404.08660308825762
 30
0.0
 11
383.35674577205373
 21
403.9979040882576
 31
0.0
  0
LINE
  5
1DFDF
  8
AM_0
 10
383.35674777205372
 20
403.99789908825733
 30
0.0
 11
383.10675177205371
 21
403.87460208825752
 31
0.0
  0
LINE
  5
1DFE0
  8
AM_0
 10
383.10672777205389
 20
403.8746160882576
 30
0.0
 11
382.86471877205372
 21
403.7177110882576
 31
0.0
  0
LINE
  5
1DFE1
  8
AM_0
 10
382.86475277205358
 20
403.71769308825759
 30
0.0
 11
382.63274877205367
 21
403.52838508825761
 31
0.0
  0
LINE
  5
1DFE2
  8
AM_0
 10
382.6327387720537
 20
403.52840908825749
 30
0.0
 11
382.41173977205381
 21
403.30800508825752
 31
0.0
  0
LINE
  5
1DFE3
  8
AM_0
 10
382.41172877205361
 20
403.30800708825763
 30
0.0
 11
382.20472977205372
 21
403.05841008825757
 31
0.0
  0
LINE
  5
1DFE4
  8
AM_0
 10
382.20472477205391
 20
403.05842808825759
 30
0.0
 11
382.01171377205378
 21
402.78142408825778
 31
0.0
  0
LINE
  5
1DFE5
  8
AM_0
 10
382.01171877205371
 20
402.78142208825739
 30
0.0
 11
381.83471477205381
 21
402.47911808825762
 31
0.0
  0
LINE
  5
1DFE6
  8
AM_0
 10
381.83473777205381
 20
402.47910908825747
 30
0.0
 11
381.67574277205381
 21
402.15381008825779
 31
0.0
  0
LINE
  5
1DFE7
  8
AM_0
 10
381.67572977205373
 20
402.15381008825779
 30
0.0
 11
381.53473577205358
 21
401.80800508825752
 31
0.0
  0
LINE
  5
1DFE8
  8
AM_0
 10
381.53473977205363
 20
401.80800508825752
 30
0.0
 11
381.41373777205382
 21
401.44430508825752
 31
0.0
  0
LINE
  5
1DFE9
  8
AM_0
 10
381.41371977205381
 20
401.44431408825778
 30
0.0
 11
381.3137127720538
 21
401.06550808825762
 31
0.0
  0
LINE
  5
1DFEA
  8
AM_0
 10
381.31371677205391
 20
401.06550808825762
 30
0.0
 11
381.23472077205361
 21
400.67450508825749
 31
0.0
  0
LINE
  5
1DFEB
  8
AM_0
 10
381.23476277205373
 20
400.67450208825761
 30
0.0
 11
381.17876277205369
 21
400.2742020882576
 31
0.0
  0
LINE
  5
1DFEC
  8
AM_0
 10
381.17876077205369
 20
400.27420708825741
 30
0.0
 11
381.14375677205362
 21
399.86770608825748
 31
0.0
  0
LINE
  5
1DFED
  8
AM_0
 10
381.14370977205363
 20
399.86770608825748
 30
0.0
 11
381.13270777205372
 21
399.45800308825773
 31
0.0
  0
ARC
  5
1DFEE
  8
AM_0
 10
354.37873077205359
 20
332.9661090882575
 30
0.0
 40
6.0
 50
180.0
 51
269.99998200000078
  0
ARC
  5
1DFEF
  8
AM_0
 10
391.01274177205369
 20
335.0077700882577
 30
0.0
 40
4.0
 50
269.99998200000078
 51
359.99996400000163
  0
ARC
  5
1DFF0
  8
AM_0
 10
359.4217297720536
 20
335.0077700882577
 30
0.0
 40
4.0
 50
180.0
 51
269.99998200000078
  0
ARC
  5
1DFF1
  8
AM_0
 10
375.21673577205371
 20
452.2042040882576
 30
0.0
 40
122.221001
 50
262.57449399999962
 51
277.42550400000061
  0
ARC
  5
1DFF2
  8
AM_0
 10
373.44873077205381
 20
397.25991408825769
 30
0.0
 40
71.776710999999963
 50
259.9396870000017
 51
280.02400200000159
  0
ARC
  5
1DFF3
  8
AM_0
 10
358.93674477205383
 20
332.9661090882575
 30
0.0
 40
6.0
 50
180.0
 51
265.20372799999939
  0
ARC
  5
1DFF4
  8
AM_0
 10
387.94573977205368
 20
332.9661090882575
 30
0.0
 40
5.999991999999998
 50
278.3131340000017
 51
353.06156699999713
  0
ARC
  5
1DFF5
  8
AM_0
 10
354.37873077205359
 20
401.50120108825757
 30
0.0
 40
6.0
 50
90.000017999999173
 51
179.9999640000016
  0
ARC
  5
1DFF6
  8
AM_0
 10
391.01274177205369
 20
399.45800308825773
 30
0.0
 40
4.0
 50
359.99998099999942
 51
90.000017999999173
  0
ARC
  5
1DFF7
  8
AM_0
 10
359.4217297720536
 20
399.45800308825773
 30
0.0
 40
4.0
 50
90.000017999999173
 51
179.99994500000099
  0
ARC
  5
1DFF8
  8
AM_0
 10
375.21673577205371
 20
282.2622020882576
 30
0.0
 40
122.221001
 50
82.574959999998896
 51
97.425963999998885
  0
ARC
  5
1DFF9
  8
AM_0
 10
373.44873077205381
 20
337.20650008825783
 30
0.0
 40
71.776702999999983
 50
79.975971000000911
 51
100.059971000001
  0
ARC
  5
1DFFA
  8
AM_0
 10
358.93674477205383
 20
401.50120108825757
 30
0.0
 40
6.0
 50
94.795985999998621
 51
179.9999640000016
  0
ARC
  5
1DFFB
  8
AM_0
 10
387.94573977205368
 20
401.50120108825757
 30
0.0
 40
6.0000049999999998
 50
6.9213300000022997
 51
81.973581999999297
  0
LINE
  5
1E006
  8
AM_0
 10
-367.2986829148789
 20
814.67410727049025
 30
0.0
 11
-297.55558291487893
 21
814.67410727049025
 31
0.0
  0
LINE
  5
1E007
  8
AM_0
 10
-288.50056491487891
 20
816.57908627048982
 30
0.0
 11
-290.14855991487877
 21
813.04512227048997
 31
0.0
  0
LINE
  5
1E008
  8
AM_0
 10
-290.14855991487877
 20
813.04512227048997
 30
0.0
 11
-378.9666789148788
 21
854.46113127048977
 31
0.0
  0
LINE
  5
1E009
  8
AM_0
 10
-377.31848591487892
 20
857.99610227049016
 30
0.0
 11
-378.9666789148788
 21
854.46113127048977
 31
0.0
  0
LINE
  5
1E00A
  8
AM_0
 10
-369.76548091487882
 20
857.63009827048995
 30
0.0
 11
-370.08688291487891
 21
856.94110627048985
 31
0.0
  0
LINE
  5
1E00B
  8
AM_0
 10
-293.47358291487882
 20
841.76010527049004
 30
0.0
 11
-293.47358291487882
 21
821.38609727049015
 31
0.0
  0
LINE
  5
1E00C
  8
AM_0
 10
-375.8510909148788
 20
858.52510527048969
 30
0.0
 11
-289.02558591487877
 21
818.03810227048984
 31
0.0
  0
LINE
  5
1E00D
  8
AM_0
 10
-370.89868091487892
 20
850.69910127048968
 30
0.0
 11
-370.89868091487892
 21
818.27409827048973
 31
0.0
  0
LINE
  5
1E00E
  8
ﾁｭｳｼﾝｾﾝ1
 10
-376.07488191487892
 20
834.67410727048969
 30
0.0
 11
-367.48458091487879
 21
834.67410727048969
 31
0.0
  0
LINE
  5
1E00F
  8
AM_0
 10
-372.89868091487892
 20
823.07410127048979
 30
0.0
 11
-372.89868091487892
 21
846.27409827048996
 31
0.0
  0
LINE
  5
1E010
  8
AM_0
 10
-372.89868091487892
 20
823.07410127048979
 30
0.0
 11
-371.89868091487881
 21
823.07410127048979
 31
0.0
  0
LINE
  5
1E011
  8
AM_0
 10
-372.89868091487892
 20
846.27409827048996
 30
0.0
 11
-371.89868091487881
 21
846.27409827048996
 31
0.0
  0
ARC
  5
1E025
  8
AM_0
 10
-367.2986829148789
 20
818.27409827048973
 30
0.0
 40
3.5999979999999998
 50
180.00001799999919
 51
269.99993899999907
  0
ARC
  5
1E026
  8
AM_0
 10
-289.49758491487881
 20
817.04410227049004
 30
0.0
 40
1.100006
 50
335.00048600000127
 51
65.000173999996903
  0
ARC
  5
1E027
  8
AM_0
 10
-376.32158191487872
 20
857.53110127048967
 30
0.0
 40
1.099995999999998
 50
64.999804999997096
 51
155.00019699999859
  0
ARC
  5
1E028
  8
AM_0
 10
-301.07358091487879
 20
841.76010527049004
 30
0.0
 40
7.5999979999999976
 50
359.99998200000078
 51
71.099983999997306
  0
ARC
  5
1E029
  8
AM_0
 10
-366.50277991487877
 20
856.10910427048975
 30
0.0
 40
3.5999979999999998
 50
90.905979000000912
 51
155.00084300000009
  0
ARC
  5
1E02A
  8
AM_0
 10
-363.39628191487873
 20
659.73311327048998
 30
0.0
 40
200.0
 50
71.099996999998098
 51
90.905947999996954
  0
ARC
  5
1E02B
  8
AM_0
 10
-370.99318291487879
 20
857.36310227048978
 30
0.0
 40
0.9999979999999998
 50
245.00064199999821
 51
335.00073199999798
  0
ARC
  5
1E02C
  8
AM_0
 10
-291.47358291487888
 20
821.38609727049015
 30
0.0
 40
2.0
 50
180.00001799999919
 51
244.99984999999819
  0
ARC
  5
1E02D
  8
AM_0
 10
-297.55558291487893
 20
817.27409827048984
 30
0.0
 40
2.600006
 50
270.0
 51
319.31386999999938
  0
ARC
  5
1E02E
  8
AM_0
 10
-371.89868091487881
 20
822.07410127048979
 30
0.0
 40
1.0
 50
359.99998200000078
 51
90.001056999998298
  0
ARC
  5
1E02F
  8
AM_0
 10
-371.89868091487881
 20
847.27409827048996
 30
0.0
 40
1.0
 50
270.0
 51
359.99998200000078
  0
POINT
  5
1E030
  8
AM_0
 10
-333.3986249148785
 20
354.2337208533358
 30
0.0
  0
LINE
  5
1E032
  8
ﾁｭｳｼﾝｾﾝ1
 10
-333.3986849148788
 20
804.58939127048973
 30
0.0
 11
-333.3986849148788
 21
818.5762132704898
 31
0.0
  0
ARC
  5
1E033
  8
AM_0
 10
343.98772877205391
 20
402.22320308825749
 30
0.0
 40
1.0
 50
275.47663399999931
 51
85.414226000000866
  0
LINE
  5
1E046
  8
AM_0
 10
193.00738652346379
 20
403.29262798181259
 30
0.0
 11
192.00809777205359
 21
403.21198608825779
 31
0.0
  0
ARC
  5
1E047
  8
AM_0
 10
192.08853577205349
 20
402.21522608825768
 30
0.0
 40
1.0
 50
94.613730000001624
 51
264.48241600000108
  0
LINE
  5
1E048
  8
AM_0
 10
193.00738652346379
 20
401.12181196412752
 30
0.0
 11
191.9923837720539
 21
401.21986008825769
 31
0.0
  0
LINE
  5
1E055
  8
AM_0
 10
193.00738652346379
 20
333.30864113176671
 30
0.0
 11
191.9923837720539
 21
333.21059308825778
 31
0.0
  0
ARC
  5
1E056
  8
AM_0
 10
192.08853577205349
 20
332.21522608825791
 30
0.0
 40
1.0
 50
95.517583999998877
 51
265.38626999999838
  0
LINE
  5
1E057
  8
AM_0
 10
193.00738652346379
 20
331.13782519470271
 30
0.0
 11
192.00809777205359
 21
331.21846708825768
 31
0.0
  0
LINE
  5
1E0BB
  8
AM_0
 10
344.02332577205391
 20
371.24383708825752
 30
0.0
 11
343.4124187720538
 21
371.2225030882575
 31
0.0
  0
ARC
  5
1E0BC
  8
AM_0
 10
343.48221777205367
 20
369.22372208825772
 30
0.0
 40
2.0
 50
92.000000000000483
 51
103.73381279575131
  0
ARC
  5
1E0BD
  8
AM_0
 10
343.07916777205349
 20
375.27675908825762
 30
0.0
 40
2.0
 50
267.94341575632973
 51
267.99999999999949
  0
LINE
  5
1E0BE
  8
AM_0
 10
344.02262777205402
 20
373.24259408825759
 30
0.0
 11
343.00936877205368
 21
373.27797808825761
 31
0.0
  0
LINE
  5
1E0C0
  8
AM_0
 10
344.02262777205402
 20
381.2438120882577
 30
0.0
 11
343.0073948535096
 21
381.2083592814862
 31
0.0
  0
LINE
  5
1E0C2
  8
AM_0
 10
344.02262777205402
 20
383.24259408825759
 30
0.0
 11
343.0073948535096
 21
383.27804658885572
 31
0.0
  0
LINE
  5
1E0C4
  8
AM_0
 10
344.02262777205402
 20
391.2438120882577
 30
0.0
 11
343.0073948535096
 21
391.20835941317642
 31
0.0
  0
LINE
  5
1E0C6
  8
AM_0
 10
344.02262777205402
 20
393.24259408825782
 30
0.0
 11
343.0073948535096
 21
393.27804670150027
 31
0.0
  0
LINE
  5
1E0C8
  8
AM_0
 10
343.0073948535096
 20
401.12462562493312
 30
0.0
 11
344.0831687720538
 21
401.22776808825768
 31
0.0
  0
LINE
  5
1E0CA
  8
AM_0
 10
343.0073948535096
 20
403.30504560531529
 30
0.0
 11
344.06767977205391
 21
403.2200020882575
 31
0.0
  0
ARC
  5
1E0CB
  8
AM_0
 10
343.48221777205367
 20
365.24268408825759
 30
0.0
 40
2.0
 50
256.26618720424869
 51
267.99999999999949
  0
ARC
  5
1E0CC
  8
AM_0
 10
343.07916777205349
 20
359.18964708825769
 30
0.0
 40
2.0
 50
92.000000000000483
 51
92.056584243670315
  0
LINE
  5
1E0D1
  8
AM_0
 10
343.0073948535096
 20
331.16136057119968
 30
0.0
 11
344.06767977205391
 21
331.24640408825741
 31
0.0
  0
LINE
  5
1E0D2
  8
AM_0
 10
343.0073948535096
 20
333.34178055158219
 30
0.0
 11
344.0831687720538
 21
333.2386380882578
 31
0.0
  0
ARC
  5
1E0E8
  8
AM_0
 10
343.98772877205391
 20
392.26320308825751
 30
0.0
 40
1.0
 50
272.00000000000051
 51
87.999999999999517
  0
ARC
  5
1E0E9
  8
AM_0
 10
343.98772877205391
 20
382.26320308825751
 30
0.0
 40
1.0
 50
272.00000000000051
 51
87.999999999999517
  0
ARC
  5
1E0EA
  8
AM_0
 10
343.98772877205391
 20
372.26320308825751
 30
0.0
 40
1.0
 50
272.00000000000051
 51
87.999999999999517
  0
LINE
  5
1E0EB
  8
AM_0
 10
344.02262777205402
 20
353.22259408825761
 30
0.0
 11
343.0073948535096
 21
353.25804689502883
 31
0.0
  0
LINE
  5
1E0EC
  8
AM_0
 10
344.02262777205402
 20
363.22259408825761
 30
0.0
 11
343.4124187720538
 21
363.24390308825758
 31
0.0
  0
ARC
  5
1E0ED
  8
AM_0
 10
343.98772877205391
 20
362.22320308825749
 30
0.0
 40
1.0
 50
272.00000000000051
 51
87.999999999999517
  0
LINE
  5
1E0EE
  8
AM_0
 10
344.02262777205402
 20
361.2238120882576
 30
0.0
 11
343.00936877205368
 21
361.18842808825752
 31
0.0
  0
ARC
  5
1E0EF
  8
AM_0
 10
343.98772877205391
 20
352.22320308825749
 30
0.0
 40
1.0
 50
272.00000000000051
 51
87.999999999999517
  0
LINE
  5
1E0F0
  8
AM_0
 10
344.02262777205402
 20
351.22381208825772
 30
0.0
 11
343.0073948535096
 21
351.18835958765948
 31
0.0
  0
LINE
  5
1E0F1
  8
AM_0
 10
344.02262777205402
 20
343.22259408825772
 30
0.0
 11
343.0073948535096
 21
343.25804676333888
 31
0.0
  0
LINE
  5
1E0F2
  8
AM_0
 10
344.02262777205402
 20
341.22381208825772
 30
0.0
 11
343.0073948535096
 21
341.18835947501509
 31
0.0
  0
ARC
  5
1E0F3
  8
AM_0
 10
343.98772877205391
 20
342.22320308825772
 30
0.0
 40
1.0
 50
272.00000000000051
 51
87.999999999999517
  0
ARC
  5
1E0F4
  8
AM_0
 10
343.98772877205391
 20
332.24320308825747
 30
0.0
 40
1.0
 50
274.58577399999911
 51
84.523366000000806
  0
ARC
  5
1E129
  8
AM_0
 10
346.43412477205362
 20
332.28715808825763
 30
0.0
 40
1.4268000000000001
 50
92.867613000000574
 51
181.36363800000251
  0
ARC
  5
1E12A
  8
AM_0
 10
346.43131577205349
 20
402.16659408825763
 30
0.0
 40
1.424058
 50
178.52689500000261
 51
264.71754000000101
  0
LINE
  5
1E12D
  8
AM_0
 10
347.00772877205372
 20
400.73320308825782
 30
0.0
 11
346.30020877205391
 21
400.74858408825747
 31
0.0
  0
LINE
  5
1E12E
  8
AM_0
 10
347.00772877205372
 20
333.73320308825782
 30
0.0
 11
346.36274377205382
 21
333.71217108825772
 31
0.0
  0
LINE
  5
1E12F
  8
AM_0
 10
-288.3986249148785
 20
320.38377885333591
 30
0.0
 11
-288.3986249148785
 21
328.13377885333603
 31
0.0
  0
LINE
  5
1E130
  8
AM_0
 10
-288.3986249148785
 20
330.31377885333592
 30
0.0
 11
-288.3986249148785
 21
338.18377885333598
 31
0.0
  0
LINE
  5
1E131
  8
AM_0
 10
-288.3986249148785
 20
340.26377885333579
 30
0.0
 11
-288.3986249148785
 21
348.21377885333601
 31
0.0
  0
LINE
  5
1E132
  8
AM_0
 10
-288.3986249148785
 20
350.24377885333593
 30
0.0
 11
-288.3986249148785
 21
358.22372085333592
 31
0.0
  0
LINE
  5
1E133
  8
AM_0
 10
-288.3986249148785
 20
360.25372085333578
 30
0.0
 11
-288.3986249148785
 21
368.20372085333588
 31
0.0
  0
LINE
  5
1E134
  8
AM_0
 10
-288.3986249148785
 20
370.28372085333581
 30
0.0
 11
-288.3986249148785
 21
378.15372085333593
 31
0.0
  0
LINE
  5
1E135
  8
AM_0
 10
-288.3986249148785
 20
380.33372085333599
 30
0.0
 11
-288.3986249148785
 21
388.08372085333599
 31
0.0
  0
LINE
  5
1E136
  8
AM_0
 10
-288.3986249148785
 20
390.42372085333591
 30
0.0
 11
-288.3986249148785
 21
398.06372085333601
 31
0.0
  0
LINE
  5
1E137
  8
AM_0
 10
-285.90940491487839
 20
291.23377885333588
 30
0.0
 11
-276.8986249148785
 21
291.23377885333588
 31
0.0
  0
LINE
  5
1E138
  8
AM_0
 10
-285.8986249148785
 20
417.2337208533358
 30
0.0
 11
-276.8986249148785
 21
417.2337208533358
 31
0.0
  0
LINE
  5
1E139
  8
AM_0
 10
-446.40463591487861
 20
434.98372085333568
 30
0.0
 11
-446.40463591487861
 21
273.48377885333588
 31
0.0
  0
LINE
  5
1E13A
  8
AM_0
 10
-288.3986249148785
 20
310.40377885333601
 30
0.0
 11
-288.3986249148785
 21
318.04377885333588
 31
0.0
  0
LINE
  5
1E13B
  8
AM_0
 10
-288.3986249148785
 20
303.33272885333599
 30
0.0
 11
-288.3986249148785
 21
308.06377885333592
 31
0.0
  0
LINE
  5
1E13C
  8
AM_0
 10
-285.75862491487851
 20
350.26372085333583
 30
0.0
 11
-287.19862491487862
 21
350.06657785333601
 31
0.0
  0
LINE
  5
1E13D
  8
AM_0
 10
-285.74862491487852
 20
348.17372085333579
 30
0.0
 11
-287.19862491487862
 21
348.39679785333578
 31
0.0
  0
LINE
  5
1E13E
  8
AM_0
 10
-284.8986249148785
 20
351.25372085333589
 30
0.0
 11
-284.8986249148785
 21
347.1837208533359
 31
0.0
  0
LINE
  5
1E13F
  8
AM_0
 10
-285.75862491487851
 20
340.26372085333583
 30
0.0
 11
-287.19862491487862
 21
340.06657785333601
 31
0.0
  0
LINE
  5
1E140
  8
AM_0
 10
-285.74862491487852
 20
338.17372085333591
 30
0.0
 11
-287.19862491487862
 21
338.39679785333578
 31
0.0
  0
LINE
  5
1E141
  8
AM_0
 10
-284.8986249148785
 20
341.25372085333578
 30
0.0
 11
-284.8986249148785
 21
337.1837208533359
 31
0.0
  0
LINE
  5
1E142
  8
AM_0
 10
-285.74862491487852
 20
328.17372085333591
 30
0.0
 11
-287.19862491487862
 21
328.39679785333578
 31
0.0
  0
LINE
  5
1E143
  8
AM_0
 10
-285.75862491487851
 20
330.26372085333583
 30
0.0
 11
-287.19862491487862
 21
330.0665778533359
 31
0.0
  0
LINE
  5
1E144
  8
AM_0
 10
-284.8986249148785
 20
331.25372085333578
 30
0.0
 11
-284.8986249148785
 21
327.1837208533359
 31
0.0
  0
ARC
  5
1E145
  8
AM_0
 10
-287.44701991487852
 20
349.23372085333591
 30
0.0
 40
0.8000439999999999
 50
288.0879409999975
 51
71.912059000002486
  0
ARC
  5
1E146
  8
AM_0
 10
-285.90125691487862
 20
347.18277485333601
 30
0.0
 40
1.002631999999998
 50
0.0540849999984558
 51
81.243759000000509
  0
ARC
  5
1E147
  8
AM_0
 10
-285.90559291487853
 20
351.25992485333592
 30
0.0
 40
1.0069859999999999
 50
278.39216300000191
 51
359.64700200000118
  0
ARC
  5
1E148
  8
AM_0
 10
-287.44368691487853
 20
339.23878285333598
 30
0.0
 40
0.8050779999999997
 50
287.7217900000029
 51
359.6397490000017
  0
ARC
  5
1E149
  8
AM_0
 10
-285.90125691487862
 20
337.18277485333601
 30
0.0
 40
1.002631999999998
 50
0.0540849999984558
 51
81.243759000000509
  0
ARC
  5
1E14A
  8
AM_0
 10
-285.90559291487853
 20
341.2599248533358
 30
0.0
 40
1.0069859999999999
 50
278.39216300000191
 51
359.64700200000118
  0
ARC
  5
1E14B
  8
AM_0
 10
-287.44198091487851
 20
329.2303648533358
 30
0.0
 40
0.8033630000000001
 50
0.2393300000011609
 51
72.366849999997839
  0
ARC
  5
1E14C
  8
AM_0
 10
-287.44368691487853
 20
329.23878285333598
 30
0.0
 40
0.8050779999999997
 50
287.7217900000029
 51
359.6397490000017
  0
ARC
  5
1E14D
  8
AM_0
 10
-285.90559291487853
 20
331.25992485333592
 30
0.0
 40
1.0069859999999999
 50
278.39216300000191
 51
359.64700200000118
  0
ARC
  5
1E14E
  8
AM_0
 10
-285.90125691487862
 20
327.18277485333601
 30
0.0
 40
1.002631999999998
 50
0.0540849999984558
 51
81.243759000000509
  0
ARC
  5
1E14F
  8
AM_0
 10
-287.44198091487851
 20
339.23036485333591
 30
0.0
 40
0.8033630000000001
 50
0.2393300000011609
 51
72.366849999997839
  0
LINE
  5
1E150
  8
AM_0
 10
-286.8986249148785
 20
340.26377885333579
 30
0.0
 11
-286.8986249148785
 21
348.21377885333601
 31
0.0
  0
LINE
  5
1E151
  8
AM_0
 10
-286.8986249148785
 20
330.31377885333592
 30
0.0
 11
-286.8986249148785
 21
338.18377885333598
 31
0.0
  0
ARC
  5
1E152
  8
AM_0
 10
-469.73679491487849
 20
434.46646985333592
 30
0.0
 40
0.5
 50
272.9997530000025
 51
335.24659000000122
  0
ARC
  5
1E153
  8
AM_0
 10
-495.27643291487828
 20
426.8697068533358
 30
0.0
 40
5.7500059999999991
 50
92.999883000002683
 51
170.00004800000099
  0
ARC
  5
1E154
  8
AM_0
 10
-468.14758791487827
 20
433.7337208533358
 30
0.0
 40
1.25
 50
89.999982000000799
 51
154.62363900000179
  0
LINE
  5
1E155
  8
AM_0
 10
-468.14758791487827
 20
434.98372085333568
 30
0.0
 11
-446.39862491487838
 21
434.98372085333568
 31
0.0
  0
LINE
  5
1E156
  8
AM_0
 10
-469.71062891487833
 20
433.96715485333578
 30
0.0
 11
-495.57729891487833
 21
432.61165185333579
 31
0.0
  0
LINE
  5
1E157
  8
AM_0
 10
-438.89862491487838
 20
390.03372085333581
 30
0.0
 11
-287.43861091487861
 21
390.03372085333581
 31
0.0
  0
LINE
  5
1E158
  8
AM_0
 10
-438.89862491487838
 20
388.08372085333599
 30
0.0
 11
-285.40931991487861
 21
388.08372085333599
 31
0.0
  0
LINE
  5
1E159
  8
AM_0
 10
-502.39984591487831
 20
288.48975985333601
 30
0.0
 11
-502.39984591487831
 21
419.97773985333612
 31
0.0
  0
LINE
  5
1E15A
  8
AM_0
 10
-502.00010191487831
 20
421.8507318533359
 30
0.0
 11
-500.93923991487839
 21
427.86820785333589
 31
0.0
  0
ARC
  5
1E15B
  8
AM_0
 10
-504.95453391487831
 20
422.37175185333581
 30
0.0
 40
2.999997
 50
276.3693709999975
 51
350.00017399999871
  0
ARC
  5
1E15C
  8
AM_0
 10
-504.39984591487843
 20
417.40261785333581
 30
0.0
 40
2.0
 50
96.3693709999975
 51
180.0
  0
LINE
  5
1E15D
  8
AM_0
 10
-438.89862491487838
 20
400.16505285333591
 30
0.0
 11
-438.89862491487838
 21
383.51527785333587
 31
0.0
  0
LINE
  5
1E15E
  8
AM_0
 10
-446.40463591487861
 20
400.16505285333591
 30
0.0
 11
-438.89862491487838
 21
400.16505285333591
 31
0.0
  0
LINE
  5
1E15F
  8
AM_0
 10
-446.40463591487861
 20
399.75372085333578
 30
0.0
 11
-438.89862491487838
 21
399.75372085333578
 31
0.0
  0
LINE
  5
1E160
  8
AM_0
 10
-446.40463591487861
 20
389.2337208533358
 30
0.0
 11
-438.89862491487838
 21
389.2337208533358
 31
0.0
  0
LINE
  5
1E161
  8
AM_0
 10
-446.40463591487861
 20
383.51527785333587
 30
0.0
 11
-438.89862491487838
 21
383.51527785333587
 31
0.0
  0
LINE
  5
1E162
  8
AM_0
 10
-288.3986249148785
 20
405.13477085333602
 30
0.0
 11
-288.28246991487839
 21
406.34269685333578
 31
0.0
  0
LINE
  5
1E163
  8
AM_0
 10
-286.8986249148785
 20
416.23372085333568
 30
0.0
 11
-286.8986249148785
 21
400.40372085333581
 31
0.0
  0
LINE
  5
1E164
  8
AM_0
 10
-288.3986249148785
 20
405.13477085333602
 30
0.0
 11
-288.3986249148785
 21
400.40372085333581
 31
0.0
  0
LINE
  5
1E165
  8
AM_0
 10
-286.8986249148785
 20
378.15372085333593
 30
0.0
 11
-286.8986249148785
 21
370.28372085333581
 31
0.0
  0
LINE
  5
1E166
  8
AM_0
 10
-286.8986249148785
 20
368.20372085333588
 30
0.0
 11
-286.8986249148785
 21
360.25372085333578
 31
0.0
  0
LINE
  5
1E167
  8
AM_0
 10
-438.89862491487838
 20
398.06372085333601
 30
0.0
 11
-285.38908591487848
 21
398.06372085333601
 31
0.0
  0
LINE
  5
1E168
  8
AM_0
 10
-446.40463591487861
 20
400.40372085333581
 30
0.0
 11
-285.40357691487839
 21
400.40372085333581
 31
0.0
  0
LINE
  5
1E169
  8
AM_0
 10
-438.89862491487838
 20
398.41372085333592
 30
0.0
 11
-287.3593199148786
 21
398.41372085333592
 31
0.0
  0
LINE
  5
1E16A
  8
AM_0
 10
-438.89862491487838
 20
400.01372085333583
 30
0.0
 11
-287.50543091487839
 21
400.01372085333583
 31
0.0
  0
LINE
  5
1E16B
  8
AM_0
 10
-287.19862491487862
 20
358.4337208533359
 30
0.0
 11
-446.40463591487861
 21
358.4337208533359
 31
0.0
  0
LINE
  5
1E16C
  8
AM_0
 10
-287.19862491487862
 20
360.03372085333581
 30
0.0
 11
-446.40463591487861
 21
360.03372085333581
 31
0.0
  0
LINE
  5
1E16D
  8
AM_0
 10
-446.40463591487861
 20
358.22372085333592
 30
0.0
 11
-285.90471191487859
 21
358.22372085333592
 31
0.0
  0
LINE
  5
1E16E
  8
AM_0
 10
-446.40463591487861
 20
360.25372085333578
 30
0.0
 11
-286.00862491487851
 21
360.25372085333578
 31
0.0
  0
LINE
  5
1E16F
  8
AM_0
 10
-446.40463591487861
 20
368.20372085333588
 30
0.0
 11
-285.75862491487851
 21
368.20372085333588
 31
0.0
  0
LINE
  5
1E170
  8
AM_0
 10
-446.40463591487861
 20
378.15372085333593
 30
0.0
 11
-285.56103691487851
 21
378.15372085333593
 31
0.0
  0
LINE
  5
1E171
  8
AM_0
 10
-446.40463591487861
 20
380.33372085333599
 30
0.0
 11
-285.56103691487851
 21
380.33372085333599
 31
0.0
  0
ARC
  5
1E172
  8
AM_0
 10
-287.44198091487851
 20
369.23707685333579
 30
0.0
 40
0.8033630000000001
 50
287.63315000000222
 51
359.76066999999892
  0
ARC
  5
1E173
  8
AM_0
 10
-285.90125691487862
 20
381.28466685333592
 30
0.0
 40
1.002631999999998
 50
278.75624099999948
 51
359.94591500000149
  0
ARC
  5
1E174
  8
AM_0
 10
-285.90559291487853
 20
377.20751685333579
 30
0.0
 40
1.0069859999999999
 50
0.3529979999988096
 51
81.607836999998227
  0
ARC
  5
1E175
  8
AM_0
 10
-287.44368691487853
 20
379.2286588533359
 30
0.0
 40
0.8050779999999997
 50
0.3602510000016315
 51
72.278209999997259
  0
ARC
  5
1E176
  8
AM_0
 10
-287.44198091487851
 20
379.23707685333579
 30
0.0
 40
0.8033630000000001
 50
287.63315000000222
 51
359.76066999999892
  0
ARC
  5
1E177
  8
AM_0
 10
-285.90559291487853
 20
367.20751685333579
 30
0.0
 40
1.0069859999999999
 50
0.3529979999988096
 51
81.607836999998227
  0
ARC
  5
1E178
  8
AM_0
 10
-285.90125691487862
 20
371.28466685333592
 30
0.0
 40
1.002631999999998
 50
278.75624099999948
 51
359.94591500000149
  0
ARC
  5
1E179
  8
AM_0
 10
-287.44368691487853
 20
369.2286588533359
 30
0.0
 40
0.8050779999999997
 50
0.3602510000016315
 51
72.278209999997259
  0
ARC
  5
1E17A
  8
AM_0
 10
-285.90559291487853
 20
357.2075168533359
 30
0.0
 40
1.0069859999999999
 50
0.3529979999988096
 51
81.607836999998227
  0
ARC
  5
1E17B
  8
AM_0
 10
-285.90125691487862
 20
361.28466685333592
 30
0.0
 40
1.002631999999998
 50
278.75624099999948
 51
359.94591500000149
  0
ARC
  5
1E17C
  8
AM_0
 10
-287.44701991487852
 20
359.23372085333591
 30
0.0
 40
0.8000439999999999
 50
288.0879409999975
 51
71.912059000002486
  0
LINE
  5
1E17D
  8
AM_0
 10
-438.89862491487838
 20
390.42372085333591
 30
0.0
 11
-285.3874059148784
 21
390.42372085333591
 31
0.0
  0
LINE
  5
1E17E
  8
AM_0
 10
-446.40463591487861
 20
370.28372085333581
 30
0.0
 11
-285.84862491487843
 21
370.28372085333581
 31
0.0
  0
LINE
  5
1E17F
  8
AM_0
 10
-446.40463591487861
 20
370.03372085333581
 30
0.0
 11
-287.19862491487862
 21
370.03372085333581
 31
0.0
  0
LINE
  5
1E180
  8
AM_0
 10
-446.40463591487861
 20
368.4337208533359
 30
0.0
 11
-287.19862491487862
 21
368.4337208533359
 31
0.0
  0
LINE
  5
1E181
  8
AM_0
 10
-446.40463591487861
 20
378.4337208533359
 30
0.0
 11
-287.19862491487862
 21
378.4337208533359
 31
0.0
  0
LINE
  5
1E182
  8
AM_0
 10
-446.40463591487861
 20
380.03372085333581
 30
0.0
 11
-287.20722591487839
 21
380.03372085333581
 31
0.0
  0
LINE
  5
1E183
  8
AM_0
 10
-438.89862491487838
 20
388.4337208533359
 30
0.0
 11
-287.4386269148784
 21
388.4337208533359
 31
0.0
  0
LINE
  5
1E184
  8
AM_0
 10
-284.8986249148785
 20
377.21372085333587
 30
0.0
 11
-284.8986249148785
 21
381.28372085333581
 31
0.0
  0
LINE
  5
1E185
  8
AM_0
 10
-285.75862491487851
 20
378.20372085333588
 30
0.0
 11
-287.19862491487862
 21
378.40086385333598
 31
0.0
  0
LINE
  5
1E186
  8
AM_0
 10
-285.74862491487852
 20
380.2937208533358
 30
0.0
 11
-287.19862491487862
 21
380.07064385333592
 31
0.0
  0
LINE
  5
1E187
  8
AM_0
 10
-284.8986249148785
 20
367.21372085333587
 30
0.0
 11
-284.8986249148785
 21
371.28372085333581
 31
0.0
  0
LINE
  5
1E188
  8
AM_0
 10
-285.74862491487852
 20
370.2937208533358
 30
0.0
 11
-287.19862491487862
 21
370.07064385333592
 31
0.0
  0
LINE
  5
1E189
  8
AM_0
 10
-285.75862491487851
 20
368.20372085333588
 30
0.0
 11
-287.19862491487862
 21
368.40086385333598
 31
0.0
  0
LINE
  5
1E18A
  8
AM_0
 10
-284.8986249148785
 20
357.21372085333587
 30
0.0
 11
-284.8986249148785
 21
361.28372085333581
 31
0.0
  0
LINE
  5
1E18B
  8
AM_0
 10
-285.74862491487852
 20
360.2937208533358
 30
0.0
 11
-287.19862491487862
 21
360.07064385333592
 31
0.0
  0
LINE
  5
1E18C
  8
AM_0
 10
-285.75862491487851
 20
358.20372085333588
 30
0.0
 11
-287.19862491487862
 21
358.40086385333598
 31
0.0
  0
ARC
  5
1E18D
  8
AM_0
 10
-469.73679491487849
 20
274.00102985333592
 30
0.0
 40
0.5
 50
24.75340999999878
 51
87.000246999997444
  0
ARC
  5
1E18E
  8
AM_0
 10
-495.27643291487828
 20
281.59779285333587
 30
0.0
 40
5.7500059999999991
 50
189.99995199999901
 51
267.00011699999732
  0
ARC
  5
1E18F
  8
AM_0
 10
-468.14758791487827
 20
274.73377885333588
 30
0.0
 40
1.25
 50
205.3763609999981
 51
270.00001799999922
  0
LINE
  5
1E190
  8
AM_0
 10
-468.14758791487827
 20
273.48377885333588
 30
0.0
 11
-446.39862491487838
 21
273.48377885333588
 31
0.0
  0
LINE
  5
1E191
  8
AM_0
 10
-469.71062891487833
 20
274.50034485333589
 30
0.0
 11
-495.57729891487833
 21
275.85584785333589
 31
0.0
  0
LINE
  5
1E192
  8
AM_0
 10
-469.39800791487852
 20
433.98353785333597
 30
0.0
 11
-469.39800791487852
 21
274.48396185333581
 31
0.0
  0
LINE
  5
1E193
  8
AM_0
 10
-499.34564691487827
 20
280.27174285333581
 30
0.0
 11
-499.34564691487827
 21
428.19575685333598
 31
0.0
  0
LINE
  5
1E194
  8
AM_0
 10
-506.39984591487831
 20
417.40261785333581
 30
0.0
 11
-506.39984591487831
 21
291.06488185333581
 31
0.0
  0
LINE
  5
1E195
  8
AM_0
 10
-502.00010191487831
 20
286.61676785333589
 30
0.0
 11
-500.93923991487839
 21
280.5992918533359
 31
0.0
  0
ARC
  5
1E196
  8
AM_0
 10
-504.95453391487831
 20
286.09574785333598
 30
0.0
 40
2.999997
 50
9.9998260000013524
 51
83.630629000002486
  0
ARC
  5
1E197
  8
AM_0
 10
-504.39984591487843
 20
291.06488185333581
 30
0.0
 40
2.0
 50
180.0
 51
263.6306290000025
  0
LINE
  5
1E198
  8
AM_0
 10
-438.89862491487838
 20
308.30244685333582
 30
0.0
 11
-438.89862491487838
 21
324.95222185333591
 31
0.0
  0
LINE
  5
1E199
  8
AM_0
 10
-446.40463591487861
 20
308.30244685333582
 30
0.0
 11
-438.89862491487838
 21
308.30244685333582
 31
0.0
  0
LINE
  5
1E19A
  8
AM_0
 10
-446.40463591487861
 20
308.71377885333601
 30
0.0
 11
-438.89862491487838
 21
308.71377885333601
 31
0.0
  0
LINE
  5
1E19B
  8
AM_0
 10
-446.40463591487861
 20
319.23377885333588
 30
0.0
 11
-438.89862491487838
 21
319.23377885333588
 31
0.0
  0
LINE
  5
1E19C
  8
AM_0
 10
-446.40463591487861
 20
324.95222185333591
 30
0.0
 11
-438.89862491487838
 21
324.95222185333591
 31
0.0
  0
LINE
  5
1E19D
  8
AM_0
 10
-288.3986249148785
 20
303.33272885333599
 30
0.0
 11
-288.28246491487869
 21
302.12474385333599
 31
0.0
  0
LINE
  5
1E19E
  8
AM_0
 10
-286.8986249148785
 20
292.23372085333591
 30
0.0
 11
-286.8986249148785
 21
308.06377885333592
 31
0.0
  0
LINE
  5
1E19F
  8
AM_0
 10
-286.8986249148785
 20
358.22372085333592
 30
0.0
 11
-286.8986249148785
 21
350.24377885333593
 31
0.0
  0
LINE
  5
1E1A0
  8
AM_0
 10
-438.89862491487838
 20
310.40377885333601
 30
0.0
 11
-285.3889879148785
 21
310.40377885333601
 31
0.0
  0
LINE
  5
1E1A1
  8
AM_0
 10
-446.40463591487861
 20
308.06377885333592
 30
0.0
 11
-285.40367991487852
 21
308.06377885333592
 31
0.0
  0
LINE
  5
1E1A2
  8
AM_0
 10
-438.89862491487838
 20
310.05377885333593
 30
0.0
 11
-287.35889591487847
 21
310.05377885333593
 31
0.0
  0
LINE
  5
1E1A3
  8
AM_0
 10
-438.89862491487838
 20
308.45377885333602
 30
0.0
 11
-287.50580891487851
 21
308.45377885333602
 31
0.0
  0
LINE
  5
1E1A4
  8
AM_0
 10
-287.19862491487862
 20
350.03377885333589
 30
0.0
 11
-446.40463591487861
 21
350.03377885333589
 31
0.0
  0
LINE
  5
1E1A5
  8
AM_0
 10
-287.19862491487862
 20
348.43377885333598
 30
0.0
 11
-446.40463591487861
 21
348.43377885333598
 31
0.0
  0
LINE
  5
1E1A6
  8
AM_0
 10
-285.90428691487853
 20
350.24377885333593
 30
0.0
 11
-446.40463591487861
 21
350.24377885333593
 31
0.0
  0
LINE
  5
1E1A7
  8
AM_0
 10
-286.00900291487852
 20
348.21377885333601
 30
0.0
 11
-446.40463591487861
 21
348.21377885333601
 31
0.0
  0
LINE
  5
1E1A8
  8
AM_0
 10
-285.7582009148785
 20
340.26377885333579
 30
0.0
 11
-446.40463591487861
 21
340.26377885333579
 31
0.0
  0
LINE
  5
1E1A9
  8
AM_0
 10
-285.56087791487857
 20
330.31377885333592
 30
0.0
 11
-446.40463591487861
 21
330.31377885333592
 31
0.0
  0
LINE
  5
1E1AA
  8
AM_0
 10
-285.58366891487861
 20
328.13377885333603
 30
0.0
 11
-446.40463591487861
 21
328.13377885333603
 31
0.0
  0
LINE
  5
1E1AB
  8
AM_0
 10
-438.89862491487838
 20
318.04377885333588
 30
0.0
 11
-285.3875029148785
 21
318.04377885333588
 31
0.0
  0
LINE
  5
1E1AC
  8
AM_0
 10
-438.89862491487838
 20
320.38377885333591
 30
0.0
 11
-285.40921691487853
 21
320.38377885333591
 31
0.0
  0
LINE
  5
1E1AD
  8
AM_0
 10
-446.40463591487861
 20
338.18377885333598
 30
0.0
 11
-285.81400291487847
 21
338.18377885333598
 31
0.0
  0
LINE
  5
1E1AE
  8
AM_0
 10
-446.40463591487861
 20
338.43377885333598
 30
0.0
 11
-287.19862491487862
 21
338.43377885333598
 31
0.0
  0
LINE
  5
1E1AF
  8
AM_0
 10
-446.40463591487861
 20
340.03377885333589
 30
0.0
 11
-287.19862491487862
 21
340.03377885333589
 31
0.0
  0
LINE
  5
1E1B0
  8
AM_0
 10
-446.40463591487861
 20
330.03377885333589
 30
0.0
 11
-287.19862491487862
 21
330.03377885333589
 31
0.0
  0
LINE
  5
1E1B1
  8
AM_0
 10
-446.40463591487861
 20
328.43377885333598
 30
0.0
 11
-287.19862491487862
 21
328.43377885333598
 31
0.0
  0
LINE
  5
1E1B2
  8
AM_0
 10
-438.89862491487838
 20
320.03377885333589
 30
0.0
 11
-287.43819891487851
 21
320.03377885333589
 31
0.0
  0
LINE
  5
1E1B3
  8
AM_0
 10
-438.89862491487838
 20
318.43377885333598
 30
0.0
 11
-287.4390019148783
 21
318.43377885333598
 31
0.0
  0
LINE
  5
1E1B4
  8
AM_0
 10
-276.8986249148785
 20
427.73372085333568
 30
0.0
 11
-276.8986249148785
 21
280.73377885333588
 31
0.0
  0
INSERT
  5
1E1B5
  8
AM_0
  2
$6-44
 10
-286.8986249148785
 20
297.6247438533361
 30
0.0
 41
-1.0
 42
-1.0
 50
270.0
  0
INSERT
  5
1E1B6
  8
AM_0
  2
$6-44
 10
-286.89862691487838
 20
410.84269685333578
 30
0.0
 50
90.0
  0
LINE
  5
1E1B7
  8
AM_0
 10
348.37873077205359
 20
400.73320308825782
 30
0.0
 11
347.00772877205372
 21
400.73320308825782
 31
0.0
  0
LINE
  5
1E1B8
  8
AM_0
 10
348.37873077205359
 20
333.73320308825782
 30
0.0
 11
347.00772877205372
 21
333.73320308825782
 31
0.0
  0
LINE
  5
1E1B9
  8
AM_0
 10
347.00772877205372
 20
400.73320308825782
 30
0.0
 11
347.00772877205372
 21
333.73320308825782
 31
0.0
  0
LINE
  5
1E1BD
  8
AM_0
 10
-276.8986849148788
 20
806.17410727049014
 30
0.0
 11
-276.8986849148788
 21
659.17410227048993
 31
0.0
  0
ARC
  5
1E1BE
  8
AM_0
 10
-438.87980991487882
 20
811.14903727048966
 30
0.0
 40
2.0
 50
270.0
 51
299.6883029999974
  0
LINE
  5
1E1BF
  8
AM_0
 10
-446.39868491487869
 20
809.14903727048977
 30
0.0
 11
-438.87980991487882
 21
809.14903727048977
 31
0.0
  0
ARC
  5
1E1C0
  8
AM_0
 10
-440.82405791487878
 20
808.44316527049023
 30
0.0
 40
2.0
 50
270.0
 51
348.9150299999983
  0
LINE
  5
1E1C1
  8
AM_0
 10
-446.39868491487869
 20
806.44316527049
 30
0.0
 11
-440.82405791487878
 21
806.44316527049
 31
0.0
  0
ARC
  5
1E1C2
  8
AM_0
 10
-436.89868491487891
 20
807.67410727049014
 30
0.0
 40
2.0
 50
90.000000000000057
 51
180.0
  0
ARC
  5
1E1C3
  8
AM_0
 10
-436.89868491487891
 20
799.17410327049015
 30
0.0
 40
2.0
 50
90.000000000000057
 51
180.0
  0
LINE
  5
1E1C4
  8
AM_0
 10
-438.89868491487857
 20
785.47362027048985
 30
0.0
 11
-438.89868491487857
 21
807.67410727049014
 31
0.0
  0
LINE
  5
1E1C5
  8
AM_0
 10
-446.39868491487869
 20
786.86140427048997
 30
0.0
 11
-438.89868491487857
 21
786.86140427048997
 31
0.0
  0
LINE
  5
1E1C6
  8
AM_0
 10
-446.39868491487869
 20
798.43809927048983
 30
0.0
 11
-438.89868491487857
 21
798.43809927048983
 31
0.0
  0
LINE
  5
1E1C7
  8
AM_0
 10
-446.39868491487869
 20
804.49826227049005
 30
0.0
 11
-438.89868491487857
 21
804.49826227049005
 31
0.0
  0
ARC
  5
1E1C8
  8
AM_0
 10
-288.89868691487879
 20
799.17411127049013
 30
0.0
 40
2.0
 50
0.0000019999995639
 51
90.000002000002823
  0
LINE
  5
1E1C9
  8
AM_0
 10
-436.89868491487891
 20
783.47362027048985
 30
0.0
 11
-288.89868791487879
 21
783.47362027048985
 31
0.0
  0
LINE
  5
1E1CA
  8
AM_0
 10
-436.89868491487891
 20
801.17410327049004
 30
0.0
 11
-288.89298391487893
 21
801.17410327049004
 31
0.0
  0
LINE
  5
1E1CB
  8
AM_0
 10
-286.8986849148788
 20
806.17410727049014
 30
0.0
 11
-276.89868791487879
 21
806.17410727049014
 31
0.0
  0
LINE
  5
1E1CC
  8
AM_0
 10
-285.8986849148788
 20
795.71291527049016
 30
0.0
 11
-279.19868491487892
 21
795.71291527048982
 31
0.0
  0
INSERT
  5
1E1CD
  8
AM_0
  2
$6-44
 10
-286.89868691487868
 20
789.28308327049012
 30
0.0
 41
-1.0
 42
-1.0
 50
270.0
  0
LINE
  5
1E1CE
  8
AM_0
 10
-438.89868491487857
 20
657.72131927048974
 30
0.0
 11
-438.89868491487857
 21
660.76012327049
 31
0.0
  0
ARC
  5
1E1CF
  8
AM_0
 10
-436.89868491487891
 20
666.17410327049004
 30
0.0
 40
2.0
 50
180.0
 51
270.0
  0
LINE
  5
1E1D0
  8
AM_0
 10
-446.39868491487869
 20
678.39950627048984
 30
0.0
 11
-438.89868491487857
 21
678.39950627048984
 31
0.0
  0
LINE
  5
1E1D1
  8
AM_0
 10
-446.39868491487869
 20
666.83348727048974
 30
0.0
 11
-438.89868491487857
 21
666.83348727048974
 31
0.0
  0
LINE
  5
1E1D2
  8
AM_0
 10
-446.39868491487869
 20
660.76012327049
 30
0.0
 11
-438.89868491487857
 21
660.76012327049
 31
0.0
  0
LINE
  5
1E1D3
  8
AM_0
 10
-438.89868491487857
 20
656.19586127048979
 30
0.0
 11
-438.89868491487857
 21
656.79913727048984
 31
0.0
  0
ARC
  5
1E1D4
  8
AM_0
 10
-436.89868491487891
 20
657.72131927048974
 30
0.0
 40
2.0
 50
180.0
 51
270.0
  0
LINE
  5
1E1D5
  8
AM_0
 10
-446.39868491487869
 20
654.78096227049002
 30
0.0
 11
-440.4180139148786
 21
654.78096227049002
 31
0.0
  0
LINE
  5
1E1D6
  8
AM_0
 10
-446.39868491487869
 20
656.09547427048983
 30
0.0
 11
-440.74737391487872
 21
656.09547427048983
 31
0.0
  0
ARC
  5
1E1D7
  8
AM_0
 10
-440.74737391487872
 20
654.09547427048983
 30
0.0
 40
2.0
 50
15.809626000002281
 51
90.000000000000057
  0
ARC
  5
1E1D8
  8
AM_0
 10
-436.89868491487891
 20
655.18524127048977
 30
0.0
 40
2.0
 50
195.80962600000211
 51
270.0
  0
ARC
  5
1E1D9
  8
AM_0
 10
-440.4180139148786
 20
652.78096227049002
 30
0.0
 40
2.0
 50
28.37785700000191
 51
90.000000000000057
  0
ARC
  5
1E1DA
  8
AM_0
 10
-436.89868491487891
 20
654.68209927048986
 30
0.0
 40
2.0
 50
208.3778560000022
 51
270.0
  0
ARC
  5
1E1DB
  8
AM_0
 10
-288.8986849148788
 20
666.17410327049004
 30
0.0
 40
2.0
 50
270.0
 51
0.0
  0
ARC
  5
1E1DC
  8
AM_0
 10
-290.02617691487882
 20
657.72131927048974
 30
0.0
 40
2.0
 50
270.0
 51
344.99999999999932
  0
LINE
  5
1E1DD
  8
AM_0
 10
-284.8986849148788
 20
669.12997327049004
 30
0.0
 11
-288.09432491487883
 21
657.20368127048994
 31
0.0
  0
ARC
  5
1E1DE
  8
AM_0
 10
-289.0616609148787
 20
656.19586127048979
 30
0.0
 40
2.0
 50
270.0
 51
344.99999999999932
  0
LINE
  5
1E1DF
  8
AM_0
 10
-284.8986849148788
 20
664.00489027048991
 30
0.0
 11
-287.12980891487882
 21
655.67822227048987
 31
0.0
  0
ARC
  5
1E1E0
  8
AM_0
 10
-288.51396691487889
 20
655.18524127048977
 30
0.0
 40
2.0
 50
270.0
 51
344.99999999999932
  0
LINE
  5
1E1E1
  8
AM_0
 10
-284.8986849148788
 20
660.95025327048984
 30
0.0
 11
-286.58211591487878
 21
654.66760327048996
 31
0.0
  0
ARC
  5
1E1E2
  8
AM_0
 10
-288.2329329148788
 20
654.68209927048986
 30
0.0
 40
2.0
 50
270.0
 51
344.99999999999932
  0
LINE
  5
1E1E3
  8
AM_0
 10
-284.8986849148788
 20
659.39827527048976
 30
0.0
 11
-286.30108091487892
 21
654.16446027048994
 31
0.0
  0
ARC
  5
1E1E4
  8
AM_0
 10
-440.8986849148788
 20
656.79913727048984
 30
0.0
 40
2.0
 50
0.0
 51
90.000000000000057
  0
ARC
  5
1E1E5
  8
AM_0
 10
-436.89868491487891
 20
656.19586127048979
 30
0.0
 40
2.0
 50
180.0
 51
270.0
  0
LINE
  5
1E1E6
  8
AM_0
 10
-446.39868491487869
 20
658.79913727048984
 30
0.0
 11
-440.8986849148788
 21
658.79913727048984
 31
0.0
  0
LINE
  5
1E1E7
  8
AM_0
 10
-438.89868491487857
 20
660.76012327049
 30
0.0
 11
-438.89868491487857
 21
679.80276727048988
 31
0.0
  0
INSERT
  5
1E1E8
  8
AM_0
  2
$6-44
 10
-286.8986849148788
 20
676.06513027048993
 30
0.0
 50
90.0
  0
LINE
  5
1E1E9
  8
AM_0
 10
-285.8986849148788
 20
669.63529927049001
 30
0.0
 11
-279.19868491487892
 21
669.63529927049001
 31
0.0
  0
LINE
  5
1E1EA
  8
AM_0
 10
-436.89868491487891
 20
681.80276727048965
 30
0.0
 11
-288.8986849148788
 21
681.80276727048965
 31
0.0
  0
LINE
  5
1E1EB
  8
AM_0
 10
-436.89868491487891
 20
652.68209927048974
 30
0.0
 11
-288.2329329148788
 21
652.68209927048974
 31
0.0
  0
LINE
  5
1E1EC
  8
AM_0
 10
-436.89868491487891
 20
664.17410327049004
 30
0.0
 11
-288.8986849148788
 21
664.17410327049004
 31
0.0
  0
LINE
  5
1E1ED
  8
AM_0
 10
-436.89868491487891
 20
655.72131927048986
 30
0.0
 11
-290.02617691487882
 21
655.72131927048986
 31
0.0
  0
LINE
  5
1E1EE
  8
AM_0
 10
-436.89868491487891
 20
654.1958612704899
 30
0.0
 11
-289.0616609148787
 21
654.1958612704899
 31
0.0
  0
LINE
  5
1E1EF
  8
AM_0
 10
-436.89868491487891
 20
653.18524127048988
 30
0.0
 11
-288.51396691487889
 21
653.18524127048988
 31
0.0
  0
LINE
  5
1E1F0
  8
AM_0
 10
-366.8986849148788
 20
811.67410727049003
 30
0.0
 11
-366.8986849148788
 21
814.67410727049025
 31
0.0
  0
LINE
  5
1E1F1
  8
AM_0
 10
-299.8986849148788
 20
811.67410727049003
 30
0.0
 11
-299.8986849148788
 21
814.67410727049025
 31
0.0
  0
LINE
  5
1E1F2
  8
AM_0
 10
-502.3986849148788
 20
793.46707727048965
 30
0.0
 11
-502.3986849148788
 21
670.55914727048992
 31
0.0
  0
LINE
  5
1E1F3
  8
AM_0
 10
-506.39831491487882
 20
795.27408727048976
 30
0.0
 11
-506.39831491487882
 21
670.07416727048985
 31
0.0
  0
LINE
  5
1E1F4
  8
AM_0
 10
-501.99872491487878
 20
665.40710727048986
 30
0.0
 11
-500.87573491487871
 21
659.03613727049003
 31
0.0
  0
LINE
  5
1E1F5
  8
AM_0
 10
-495.5136149148787
 20
654.29217727049001
 30
0.0
 11
-469.87164491487857
 21
652.94818727048994
 31
0.0
  0
LINE
  5
1E1F6
  8
AM_0
 10
-469.3986849148788
 20
811.72940727049001
 30
0.0
 11
-469.3986849148788
 21
653.78753727048991
 31
0.0
  0
LINE
  5
1E1F7
  8
AM_0
 10
-498.5367449148788
 20
660.64715727048974
 30
0.0
 11
-498.5367449148788
 21
804.19412727048996
 31
0.0
  0
LINE
  5
1E1F8
  8
AM_0
 10
-501.99872491487878
 20
799.94110727049008
 30
0.0
 11
-500.87573491487871
 21
806.31116727049016
 31
0.0
  0
LINE
  5
1E1F9
  8
AM_0
 10
-495.51367491487878
 20
811.05511727048997
 30
0.0
 11
-469.87164491487857
 21
812.39911727048968
 31
0.0
  0
LINE
  5
1E1FA
  8
AM_0
 10
-468.30566491487872
 20
651.92413727048984
 30
0.0
 11
-446.39868491487869
 21
651.92413727048984
 31
0.0
  0
LINE
  5
1E1FB
  8
AM_0
 10
-468.30566491487872
 20
813.42410727049014
 30
0.0
 11
-446.39868491487869
 21
813.42410727049014
 31
0.0
  0
LINE
  5
1E1FC
  8
AM_0
 10
-299.8986849148788
 20
809.67410727048969
 30
0.0
 11
-299.8986849148788
 21
811.67410727049003
 31
0.0
  0
LINE
  5
1E1FD
  8
AM_0
 10
-366.8986849148788
 20
809.67410727048969
 30
0.0
 11
-366.8986849148788
 21
811.67410727049003
 31
0.0
  0
LINE
  5
1E1FE
  8
AM_0
 10
-366.8986849148788
 20
811.67410727049003
 30
0.0
 11
-299.8986849148788
 21
811.67410727049003
 31
0.0
  0
LINE
  5
1E1FF
  8
AM_0
 10
-436.89868491487891
 20
809.67410727048969
 30
0.0
 11
-290.11816491487878
 21
809.67410727048969
 31
0.0
  0
LINE
  5
1E200
  8
AM_0
 10
-323.3986849148788
 20
706.67410727049014
 30
0.0
 11
-446.39868491487869
 21
706.67410727049014
 31
0.0
  0
LINE
  5
1E201
  8
AM_0
 10
-323.3986849148788
 20
758.67410727049014
 30
0.0
 11
-446.39868491487869
 21
758.67410727049014
 31
0.0
  0
LINE
  5
1E202
  8
AM_0
 10
-307.3986849148788
 20
705.67410727049014
 30
0.0
 11
-307.3986849148788
 21
699.6741072704898
 31
0.0
  0
LINE
  5
1E203
  8
AM_0
 10
-322.3986849148788
 20
705.67410727049014
 30
0.0
 11
-322.3986849148788
 21
699.6741072704898
 31
0.0
  0
LINE
  5
1E204
  8
AM_0
 10
-307.3986849148788
 20
759.67410727049014
 30
0.0
 11
-307.3986849148788
 21
765.67410727049014
 31
0.0
  0
LINE
  5
1E205
  8
AM_0
 10
-322.3986849148788
 20
759.67410727049014
 30
0.0
 11
-322.3986849148788
 21
765.67410727049014
 31
0.0
  0
LINE
  5
1E206
  8
AM_0
 10
-350.89868491487891
 20
712.1741072704898
 30
0.0
 11
-350.89868491487891
 21
753.17410727049014
 31
0.0
  0
LINE
  5
1E207
  8
AM_0
 10
-287.8986849148788
 20
712.1741072704898
 30
0.0
 11
-287.8986849148788
 21
753.17410727049014
 31
0.0
  0
LINE
  5
1E208
  8
AM_0
 10
-350.89868491487891
 20
712.1741072704898
 30
0.0
 11
-287.8986849148788
 21
712.1741072704898
 31
0.0
  0
LINE
  5
1E209
  8
AM_0
 10
-350.89868491487891
 20
753.17410727049014
 30
0.0
 11
-287.8986849148788
 21
753.17410727049014
 31
0.0
  0
LINE
  5
1E20A
  8
AM_0
 10
-350.89868491487891
 20
719.67410727049014
 30
0.0
 11
-287.8986849148788
 21
719.67410727049014
 31
0.0
  0
LINE
  5
1E20B
  8
AM_0
 10
-438.89868491487857
 20
729.67410727049014
 30
0.0
 11
-438.89868491487857
 21
735.67410727049014
 31
0.0
  0
LINE
  5
1E20C
  8
AM_0
 10
-288.18658491487872
 20
808.19281727048997
 30
0.0
 11
-287.19867491487889
 21
804.51413727048975
 31
0.0
  0
LINE
  5
1E20D
  8
AM_0
 10
-288.77466491487871
 20
808.19281727048997
 30
0.0
 11
-287.19867491487889
 21
802.32409727048969
 31
0.0
  0
LINE
  5
1E20E
  8
AM_0
 10
-286.8986849148788
 20
769.63232727049012
 30
0.0
 11
-286.8986849148788
 21
806.17410727049014
 31
0.0
  0
LINE
  5
1E20F
  8
AM_0
 10
-287.8986849148788
 20
756.67410727049014
 30
0.0
 11
-446.39868491487869
 21
756.67410727049014
 31
0.0
  0
LINE
  5
1E210
  8
AM_0
 10
-287.8986849148788
 20
758.67410727049014
 30
0.0
 11
-306.3986849148788
 21
758.67410727049014
 31
0.0
  0
LINE
  5
1E211
  8
AM_0
 10
-354.89868491487891
 20
748.67410727049014
 30
0.0
 11
-446.39868491487869
 21
748.67410727049014
 31
0.0
  0
LINE
  5
1E212
  8
AM_0
 10
-354.89868491487891
 20
746.67410727049014
 30
0.0
 11
-446.39868491487869
 21
746.67410727049014
 31
0.0
  0
LINE
  5
1E213
  8
AM_0
 10
-354.89868491487891
 20
738.67410727049014
 30
0.0
 11
-446.39868491487869
 21
738.67410727049014
 31
0.0
  0
LINE
  5
1E214
  8
AM_0
 10
-354.89868491487891
 20
736.67410727049014
 30
0.0
 11
-437.89868491487869
 21
736.67410727049014
 31
0.0
  0
LINE
  5
1E215
  8
AM_0
 10
-287.8986849148788
 20
778.67410727049014
 30
0.0
 11
-446.39868491487869
 21
778.67410727049014
 31
0.0
  0
LINE
  5
1E216
  8
AM_0
 10
-287.8986849148788
 20
766.67410727049014
 30
0.0
 11
-446.39868491487869
 21
766.67410727049014
 31
0.0
  0
LINE
  5
1E217
  8
AM_0
 10
-287.8986849148788
 20
768.67410727049014
 30
0.0
 11
-446.39868491487869
 21
768.67410727049014
 31
0.0
  0
LINE
  5
1E218
  8
AM_0
 10
-287.8986849148788
 20
776.67410727049014
 30
0.0
 11
-446.39868491487869
 21
776.67410727049014
 31
0.0
  0
LINE
  5
1E219
  8
AM_0
 10
-287.8986849148788
 20
688.67410727049014
 30
0.0
 11
-446.39868491487869
 21
688.67410727049014
 31
0.0
  0
LINE
  5
1E21A
  8
AM_0
 10
-287.8986849148788
 20
696.67410727049014
 30
0.0
 11
-446.39868491487869
 21
696.67410727049014
 31
0.0
  0
LINE
  5
1E21B
  8
AM_0
 10
-287.8986849148788
 20
698.67410727049014
 30
0.0
 11
-446.39868491487869
 21
698.67410727049014
 31
0.0
  0
LINE
  5
1E21C
  8
AM_0
 10
-287.8986849148788
 20
686.67410727049003
 30
0.0
 11
-446.39868491487869
 21
686.67410727049003
 31
0.0
  0
LINE
  5
1E21D
  8
AM_0
 10
-354.89868491487891
 20
728.67410727049014
 30
0.0
 11
-437.89868491487869
 21
728.67410727049014
 31
0.0
  0
LINE
  5
1E21E
  8
AM_0
 10
-354.89868491487891
 20
726.67410727049014
 30
0.0
 11
-446.39868491487869
 21
726.67410727049014
 31
0.0
  0
LINE
  5
1E21F
  8
AM_0
 10
-354.89868491487891
 20
718.67410727049014
 30
0.0
 11
-446.39868491487869
 21
718.67410727049014
 31
0.0
  0
LINE
  5
1E220
  8
AM_0
 10
-354.89868491487891
 20
716.67410727049014
 30
0.0
 11
-446.39868491487869
 21
716.67410727049014
 31
0.0
  0
LINE
  5
1E221
  8
AM_0
 10
-287.8986849148788
 20
706.67410727049014
 30
0.0
 11
-306.3986849148788
 21
706.67410727049014
 31
0.0
  0
LINE
  5
1E222
  8
AM_0
 10
-287.8986849148788
 20
708.67410727049014
 30
0.0
 11
-446.39868491487869
 21
708.67410727049014
 31
0.0
  0
LINE
  5
1E223
  8
AM_0
 10
-286.8986849148788
 20
695.71588727048982
 30
0.0
 11
-286.8986849148788
 21
666.17410327049004
 31
0.0
  0
LINE
  5
1E224
  8
AM_0
 10
-446.39868491487869
 20
651.92413727048984
 30
0.0
 11
-446.39868491487869
 21
813.42410727049014
 31
0.0
  0
ARC
  5
1E225
  8
AM_0
 10
-469.8986849148788
 20
652.44916727048997
 30
0.0
 40
0.5
 50
24.456049999996761
 51
87.000030000002511
  0
ARC
  5
1E226
  8
AM_0
 10
-495.21277491487882
 20
660.03412727048976
 30
0.0
 40
5.75
 50
190.00002000000171
 51
267.00001399999792
  0
ARC
  5
1E227
  8
AM_0
 10
-468.30566491487872
 20
653.17413727048995
 30
0.0
 40
1.25
 50
204.45602000000031
 51
270.00001100000242
  0
ARC
  5
1E228
  8
AM_0
 10
-504.14831491487871
 20
670.07416727048985
 30
0.0
 40
2.25
 50
180.0000199999987
 51
261.18341200000282
  0
ARC
  5
1E229
  8
AM_0
 10
-504.95300491487882
 20
664.88605727048991
 30
0.0
 40
3.0
 50
10.000049999998931
 51
81.183030000002674
  0
ARC
  5
1E22A
  8
AM_0
 10
-504.14831491487871
 20
795.27408727048976
 30
0.0
 40
2.25
 50
98.817060000001774
 51
180.0000199999987
  0
ARC
  5
1E22B
  8
AM_0
 10
-504.95300491487882
 20
800.4620672704898
 30
0.0
 40
3.0
 50
278.8168089999993
 51
350.00016799999997
  0
ARC
  5
1E22C
  8
AM_0
 10
-469.8986849148788
 20
812.89810727048985
 30
0.0
 40
0.5
 50
273.00001500000008
 51
335.54360100000218
  0
ARC
  5
1E22D
  8
AM_0
 10
-495.21277491487882
 20
805.31314727048971
 30
0.0
 40
5.75
 50
93.000049999997003
 51
170.00002000000009
  0
ARC
  5
1E22E
  8
AM_0
 10
-468.30566491487872
 20
812.1741072704898
 30
0.0
 40
1.25
 50
90.000039999997526
 51
155.5440299999986
  0
ARC
  5
1E22F
  8
AM_0
 10
-290.11816491487878
 20
807.67410727049014
 30
0.0
 40
2.0
 50
15.031690000001429
 51
90.000010000001026
  0
ARC
  5
1E230
  8
AM_0
 10
-290.70624491487882
 20
807.67410727049014
 30
0.0
 40
2.0
 50
15.031690000001429
 51
90.000010000001026
  0
ARC
  5
1E231
  8
AM_0
 10
-306.3986849148788
 20
765.67410727049014
 30
0.0
 40
1.0
 50
90.000000000000057
 51
180.00001000000091
  0
ARC
  5
1E232
  8
AM_0
 10
-323.3986849148788
 20
765.67410727049014
 30
0.0
 40
1.0
 50
359.99999899999858
 51
90.000010000001026
  0
ARC
  5
1E233
  8
AM_0
 10
-323.3986849148788
 20
699.6741072704898
 30
0.0
 40
1.0
 50
269.99999700000228
 51
0.0
  0
ARC
  5
1E234
  8
AM_0
 10
-306.3986849148788
 20
699.6741072704898
 30
0.0
 40
1.0
 50
179.999989999999
 51
269.99999700000228
  0
ARC
  5
1E235
  8
AM_0
 10
-306.3986849148788
 20
759.67410727049014
 30
0.0
 40
1.0
 50
179.999989999999
 51
269.99999700000228
  0
ARC
  5
1E236
  8
AM_0
 10
-323.3986849148788
 20
759.67410727049014
 30
0.0
 40
1.0
 50
269.99999700000228
 51
0.0
  0
ARC
  5
1E237
  8
AM_0
 10
-306.3986849148788
 20
705.67410727049014
 30
0.0
 40
1.0
 50
90.000000000000057
 51
180.00001000000091
  0
ARC
  5
1E238
  8
AM_0
 10
-323.3986849148788
 20
705.67410727049014
 30
0.0
 40
1.0
 50
359.99999899999858
 51
90.000010000001026
  0
CIRCLE
  5
1E239
  8
AM_0
 10
-312.3986849148788
 20
704.17410727049014
 30
0.0
 40
1.0
  0
CIRCLE
  5
1E23A
  8
AM_0
 10
-317.3986849148788
 20
704.17410727049014
 30
0.0
 40
1.149999999999999
  0
CIRCLE
  5
1E23B
  8
AM_0
 10
-317.3986849148788
 20
704.17410727049014
 30
0.0
 40
1.1000000000000001
  0
CIRCLE
  5
1E23C
  8
AM_0
 10
-317.3986849148788
 20
761.17410727049014
 30
0.0
 40
1.1000000000000001
  0
CIRCLE
  5
1E23D
  8
AM_0
 10
-317.3986849148788
 20
761.17410727049014
 30
0.0
 40
1.149999999999999
  0
CIRCLE
  5
1E23E
  8
AM_0
 10
-312.3986849148788
 20
761.17410727049014
 30
0.0
 40
1.0
  0
ARC
  5
1E23F
  8
AM_0
 10
-354.89868491487891
 20
717.67410727049014
 30
0.0
 40
1.0
 50
269.99999700000228
 51
90.000010000001026
  0
ARC
  5
1E240
  8
AM_0
 10
-354.89868491487891
 20
727.67410727049014
 30
0.0
 40
1.0
 50
269.99999700000228
 51
90.000010000001026
  0
ARC
  5
1E241
  8
AM_0
 10
-354.89868491487891
 20
737.67410727049014
 30
0.0
 40
1.0
 50
269.99999700000228
 51
90.000010000001026
  0
ARC
  5
1E242
  8
AM_0
 10
-354.89868491487891
 20
747.67410727049014
 30
0.0
 40
1.0
 50
269.99999700000228
 51
90.000010000001026
  0
ARC
  5
1E243
  8
AM_0
 10
-289.84869491487871
 20
767.67410727049014
 30
0.0
 40
1.0
 50
269.99999700000228
 51
90.000010000001026
  0
ARC
  5
1E244
  8
AM_0
 10
-287.8986849148788
 20
767.67410727049014
 30
0.0
 40
1.0
 50
269.99999700000228
 51
90.000010000001026
  0
ARC
  5
1E245
  8
AM_0
 10
-289.84869491487871
 20
757.67410727049014
 30
0.0
 40
1.0
 50
269.99999700000228
 51
90.000010000001026
  0
ARC
  5
1E246
  8
AM_0
 10
-287.8986849148788
 20
757.67410727049014
 30
0.0
 40
1.0
 50
269.99999700000228
 51
90.000010000001026
  0
ARC
  5
1E247
  8
AM_0
 10
-289.84869491487871
 20
707.67410727049014
 30
0.0
 40
1.0
 50
269.99999700000228
 51
90.000010000001026
  0
ARC
  5
1E248
  8
AM_0
 10
-287.8986849148788
 20
707.67410727049014
 30
0.0
 40
1.0
 50
269.99999700000228
 51
90.000010000001026
  0
ARC
  5
1E249
  8
AM_0
 10
-289.84869491487871
 20
697.67410727049014
 30
0.0
 40
1.0
 50
269.99999700000228
 51
90.000010000001026
  0
ARC
  5
1E24A
  8
AM_0
 10
-287.8986849148788
 20
697.67410727049014
 30
0.0
 40
1.0
 50
269.99999700000228
 51
90.000010000001026
  0
ARC
  5
1E24B
  8
AM_0
 10
-437.89868491487869
 20
729.67410727049014
 30
0.0
 40
1.0
 50
179.999989999999
 51
269.99999700000228
  0
ARC
  5
1E24C
  8
AM_0
 10
-437.89868491487869
 20
735.67410727049014
 30
0.0
 40
1.0
 50
90.000000000000057
 51
180.00001000000091
  0
ARC
  5
1E24D
  8
AM_0
 10
-437.89871491487878
 20
747.67410727049014
 30
0.0
 40
1.0
 50
90.000000000000057
 51
269.99999700000228
  0
ARC
  5
1E24E
  8
AM_0
 10
-437.89871491487878
 20
757.67410727049014
 30
0.0
 40
1.0
 50
90.000000000000057
 51
269.99999700000228
  0
ARC
  5
1E24F
  8
AM_0
 10
-289.84869491487871
 20
777.67410727049025
 30
0.0
 40
1.0
 50
269.99999700000228
 51
90.000010000001026
  0
ARC
  5
1E250
  8
AM_0
 10
-287.8986849148788
 20
777.67410727049025
 30
0.0
 40
1.0
 50
269.99999700000228
 51
90.000010000001026
  0
ARC
  5
1E251
  8
AM_0
 10
-437.89871491487878
 20
777.67410727049025
 30
0.0
 40
1.0
 50
90.000000000000057
 51
269.99999700000228
  0
ARC
  5
1E252
  8
AM_0
 10
-437.89871491487878
 20
767.67410727049014
 30
0.0
 40
1.0
 50
90.000000000000057
 51
269.99999700000228
  0
ARC
  5
1E253
  8
AM_0
 10
-285.75262491487888
 20
804.89450727048973
 30
0.0
 40
1.4952499999999991
 50
194.737400000001
 51
219.96234999999879
  0
ARC
  5
1E254
  8
AM_0
 10
-285.75769491487881
 20
802.71860727049022
 30
0.0
 40
1.4940209999999989
 50
195.3096599999997
 51
220.20741999999871
  0
ARC
  5
1E255
  8
AM_0
 10
-285.75452491487891
 20
658.90704727048967
 30
0.0
 40
1.495147999999999
 50
164.99378699999809
 51
164.99811000000039
  0
ARC
  5
1E256
  8
AM_0
 10
-437.89871491487878
 20
697.67410727049014
 30
0.0
 40
1.0
 50
90.000000000000057
 51
269.99999700000228
  0
ARC
  5
1E257
  8
AM_0
 10
-437.89871491487878
 20
687.67410727049014
 30
0.0
 40
1.0
 50
90.000000000000057
 51
269.99999700000228
  0
ARC
  5
1E258
  8
AM_0
 10
-287.8986849148788
 20
687.67410727049014
 30
0.0
 40
1.0
 50
269.99999700000228
 51
90.000010000001026
  0
ARC
  5
1E259
  8
AM_0
 10
-289.84869491487871
 20
687.67410727049014
 30
0.0
 40
1.0
 50
269.99999700000228
 51
90.000010000001026
  0
ARC
  5
1E25A
  8
AM_0
 10
-437.89871491487878
 20
707.67410727049014
 30
0.0
 40
1.0
 50
90.000000000000057
 51
269.99999700000228
  0
ARC
  5
1E25B
  8
AM_0
 10
-437.89871491487878
 20
717.67410727049014
 30
0.0
 40
1.0
 50
90.000000000000057
 51
269.99999700000228
  0
LINE
  5
1E25C
  8
AM_0
 10
-276.89867891487881
 20
659.17410227048993
 30
0.0
 11
-284.9587519148788
 21
659.17410227048993
 31
0.0
  0
LINE
  5
1E25D
  8
AM_0
 10
-285.8986849148788
 20
769.63232727049012
 30
0.0
 11
-279.19868491487892
 21
769.63232727049012
 31
0.0
  0
LINE
  5
1E25E
  8
AM_0
 10
-285.8986849148788
 20
695.71588727048982
 30
0.0
 11
-279.19868491487892
 21
695.71588727048982
 31
0.0
  0
TEXT
  5
1E3B9
  8
AM_0
 10
158.79707465085451
 20
712.76159375682892
 30
0.0
 40
15.0
  1
VC08-080EKML~VC08-160EKML
1001
ACAD
1000
MTEXTBEGIN
1070
    73
1070
     1
1070
    44
1040
1.0
1070
    74
1070
     0
1000
MTEXTEND
  0
VIEWPORT
  5
89
 67
     1
  8
0
 10
210.0
 20
148.5
 30
0.0
 40
420.0
 41
297.0
 68
     1
 69
     1
1001
ACAD
1000
MVIEW
1002
{
1070
    16
1010
0.0
1020
0.0
1030
0.0
1010
0.0
1020
0.0
1030
1.0
1040
0.0
1040
297.0
1040
221.70154043645701
1040
148.5
1040
50.0
1040
0.0
1040
0.0
1070
     0
1070
   100
1070
     1
1070
     1
1070
     0
1070
     0
1070
     0
1070
     0
1040
0.0
1040
0.0
1040
0.0
1040
10.0
1040
10.0
1040
10.0
1040
10.0
1070
     0
1002
{
1002
}
1002
}
1001
GENIUS_GENOREF_13
1005
1B94
1001
GENIUS_GENSCREG_15
1000
PF
1040
1.0
1000
DF
1040
1.0
1000
MIN
1011
0.0
1021
0.0
1031
0.0
1021
0.0
1031
0.0
1000
MAX
1011
420.0
1021
0.0
1031
0.0
1021
297.0
1031
0.0
1000
FLAGS
1070
     4
  0
ENDSEC
  0
EOF
