  0
SECTION
  2
HEADER
  9
$ACADVER
  1
AC1009
  9
$INSBASE
 10
0.0
 20
0.0
 30
0.0
  9
$EXTMIN
 10
507.82842462499588
 20
195.357185022892
 30
-0.0015258207003583
  9
$EXTMAX
 10
1102.6756506497791
 20
607.42570994634502
 30
0.0000000349246037
  9
$LIMMIN
 10
0.0
 20
0.0
  9
$LIMMAX
 10
853.5
 20
555.00000000000011
  9
$ORTHOMODE
 70
     0
  9
$REGENMODE
 70
     1
  9
$FILLMODE
 70
     1
  9
$QTEXTMODE
 70
     0
  9
$MIRRTEXT
 70
     1
  9
$DRAGMODE
 70
     2
  9
$LTSCALE
 40
3.0
  9
$OSMODE
 70
   551
  9
$ATTMODE
 70
     1
  9
$TEXTSIZE
 40
2.5
  9
$TRACEWID
 40
1.0
  9
$TEXTSTYLE
  7
STANDARD
  9
$CLAYER
  8
AM_0
  9
$CELTYPE
  6
BYLAYER
  9
$CECOLOR
 62
   256
  9
$DIMSCALE
 40
3.0
  9
$DIMASZ
 40
2.5
  9
$DIMEXO
 40
1.0
  9
$DIMDLI
 40
7.0
  9
$DIMRND
 40
0.0
  9
$DIMDLE
 40
0.0
  9
$DIMEXE
 40
1.0
  9
$DIMTP
 40
0.1
  9
$DIMTM
 40
0.1000000001
  9
$DIMTXT
 40
2.5
  9
$DIMCEN
 40
0.0
  9
$DIMTSZ
 40
0.0
  9
$DIMTOL
 70
     0
  9
$DIMLIM
 70
     0
  9
$DIMTIH
 70
     0
  9
$DIMTOH
 70
     0
  9
$DIMSE1
 70
     0
  9
$DIMSE2
 70
     0
  9
$DIMTAD
 70
     3
  9
$DIMZIN
 70
     8
  9
$DIMBLK
  1

  9
$DIMASO
 70
     1
  9
$DIMSHO
 70
     1
  9
$DIMPOST
  1

  9
$DIMAPOST
  1
"
  9
$DIMALT
 70
     0
  9
$DIMALTD
 70
     2
  9
$DIMALTF
 40
0.0393701
  9
$DIMLFAC
 40
1.0
  9
$DIMTOFL
 70
     1
  9
$DIMTVP
 40
0.0
  9
$DIMTIX
 70
     0
  9
$DIMSOXD
 70
     0
  9
$DIMSAH
 70
     0
  9
$DIMBLK1
  1

  9
$DIMBLK2
  1

  9
$DIMSTYLE
  2
AM_JIS
  9
$DIMCLRD
 70
   256
  9
$DIMCLRE
 70
   256
  9
$DIMCLRT
 70
     4
  9
$DIMTFAC
 40
0.71
  9
$DIMGAP
 40
1.0
  9
$LUNITS
 70
     2
  9
$LUPREC
 70
     2
  9
$SKETCHINC
 40
1.0
  9
$FILLETRAD
 40
7.5
  9
$AUNITS
 70
     0
  9
$AUPREC
 70
     3
  9
$MENU
  1
.
  9
$ELEVATION
 40
0.0
  9
$PELEVATION
 40
0.0
  9
$THICKNESS
 40
0.0
  9
$LIMCHECK
 70
     0
  9
$BLIPMODE
 70
     0
  9
$CHAMFERA
 40
7.5
  9
$CHAMFERB
 40
7.5
  9
$SKPOLY
 70
     0
  9
$TDCREATE
 40
2452753.643349607
  9
$TDUPDATE
 40
2458543.4580901619
  9
$TDINDWG
 40
0.4202581597
  9
$TDUSRTIMER
 40
0.4202579745
  9
$USRTIMER
 70
     1
  9
$ANGBASE
 50
0.0
  9
$ANGDIR
 70
     0
  9
$PDMODE
 70
     0
  9
$PDSIZE
 40
0.0
  9
$PLINEWID
 40
0.0
  9
$COORDS
 70
     1
  9
$SPLFRAME
 70
     0
  9
$SPLINETYPE
 70
     6
  9
$SPLINESEGS
 70
     8
  9
$ATTDIA
 70
     1
  9
$ATTREQ
 70
     1
  9
$HANDLING
 70
     1
  9
$HANDSEED
  5
12E77
  9
$SURFTAB1
 70
     6
  9
$SURFTAB2
 70
     6
  9
$SURFTYPE
 70
     6
  9
$SURFU
 70
     6
  9
$SURFV
 70
     6
  9
$UCSNAME
  2

  9
$UCSORG
 10
0.0
 20
0.0
 30
0.0
  9
$UCSXDIR
 10
1.0
 20
0.0
 30
0.0
  9
$UCSYDIR
 10
0.0
 20
1.0
 30
0.0
  9
$PUCSNAME
  2

  9
$PUCSORG
 10
0.0
 20
0.0
 30
0.0
  9
$PUCSXDIR
 10
1.0
 20
0.0
 30
0.0
  9
$PUCSYDIR
 10
0.0
 20
1.0
 30
0.0
  9
$USERI1
 70
     0
  9
$USERI2
 70
     0
  9
$USERI3
 70
     0
  9
$USERI4
 70
     0
  9
$USERI5
 70
     0
  9
$USERR1
 40
0.0
  9
$USERR2
 40
0.0
  9
$USERR3
 40
0.0
  9
$USERR4
 40
0.0
  9
$USERR5
 40
0.0
  9
$WORLDVIEW
 70
     1
  9
$SHADEDGE
 70
     3
  9
$SHADEDIF
 70
    70
  9
$TILEMODE
 70
     1
  9
$MAXACTVP
 70
    48
  9
$PLIMCHECK
 70
     0
  9
$PEXTMIN
 10
1.0000000000000000E+020
 20
1.0000000000000000E+020
 30
1.0000000000000000E+020
  9
$PEXTMAX
 10
-1.0000000000000000E+020
 20
-1.0000000000000000E+020
 30
-1.0000000000000000E+020
  9
$PLIMMIN
 10
0.0
 20
0.0
  9
$PLIMMAX
 10
420.0
 20
297.0
  9
$UNITMODE
 70
     0
  9
$VISRETAIN
 70
     1
  9
$PLINEGEN
 70
     0
  9
$PSLTSCALE
 70
     1
  0
ENDSEC
  0
SECTION
  2
TABLES
  0
TABLE
  2
VPORT
 70
     1
  0
VPORT
  2
*ACTIVE
 70
     0
 10
0.0
 20
0.0
 11
1.0
 21
1.0
 12
805.25203763738705
 22
401.39144748461848
 13
0.0
 23
0.0
 14
7.5
 24
7.5
 15
30.0
 25
30.0
 16
0.0
 26
0.0
 36
1.0
 17
0.0
 27
0.0
 37
0.0
 40
414.89737063230962
 41
1.7571592210767459
 42
50.0
 43
0.0
 44
0.0
 50
0.0
 51
0.0
 71
    16
 72
   100
 73
     1
 74
     1
 75
     0
 76
     0
 77
     0
 78
     0
  0
ENDTAB
  0
TABLE
  2
LTYPE
 70
    21
  0
LTYPE
  2
CONTINUOUS
 70
     0
  3
Solid line
 72
    65
 73
     0
 40
0.0
  0
LTYPE
  2
PHANTOM2
 70
     0
  3
Phantom (.5x) ___ _ _ ___ _ _ ___ _ _ ___ _ _
 72
    65
 73
     6
 40
31.75
 49
15.875
 49
-3.174999999999998
 49
3.174999999999998
 49
-3.174999999999998
 49
3.174999999999998
 49
-3.174999999999998
  0
LTYPE
  2
CENTER
 70
     0
  3
Center ____ _ ____ _ ____ _ ____ _ ____ _ ____
 72
    65
 73
     4
 40
50.799999999999997
 49
31.75
 49
-6.3499999999999979
 49
6.3499999999999979
 49
-6.3499999999999979
  0
LTYPE
  2
ACANSTGBM
 70
     0
  3
__ . . __ . .
 72
    65
 73
     6
 40
9.0
 49
4.0
 49
-1.0
 49
1.0
 49
-1.0
 49
1.0
 49
-1.0
  0
LTYPE
  2
ACANSTGLM
 70
     0
  3
_ _ _ _ _
 72
    65
 73
     2
 40
3.0
 49
2.0
 49
-1.0
  0
LTYPE
  2
GEN3B
 70
     0
  3
 - - - - -
 72
    65
 73
     2
 40
1.0
 49
0.5
 49
-0.5
  0
LTYPE
  2
GEN7A
 70
     0
  3
__ . __ . __
 72
    65
 73
     4
 40
7.375
 49
4.75
 49
-0.875
 49
0.875
 49
-0.875
  0
LTYPE
  2
AM_ISO02W050
 70
     0
  3
__ __ __ __ __ __ __ __ __ __ __ __ __ __ __
 72
    65
 73
     2
 40
7.5
 49
6.0
 49
-1.5
  0
LTYPE
  2
AM_ISO08W050
 70
     0
  3
____ . ____ . ____ . ____ . ____ . ____ . ____
 72
    65
 73
     4
 40
18.0
 49
12.0
 49
-1.5
 49
3.0
 49
-1.5
  0
LTYPE
  2
AM_ISO09W050
 70
     0
  3
_____ . . _____ . . _____ . . ____ .. ____
 72
    65
 73
     6
 40
22.5
 49
12.0
 49
-1.5
 49
3.0
 49
-1.5
 49
3.0
 49
-1.5
  0
LTYPE
  2
AMCONSTR
 70
     0
  3
_______________________
 72
    65
 73
     2
 40
9999.0
 49
9999.0
 49
0.0
  0
LTYPE
  2
AM_ISO02W050X2
 70
     0
  3
 _ _ _ _ _ _ _ _ _ _ _ _
 72
    65
 73
     2
 40
3.75
 49
3.0
 49
-0.75
  0
LTYPE
  2
AM_ISO08W050X2
 70
     0
  3
__ . __ . __ . __ . __ . __
 72
    65
 73
     4
 40
9.0
 49
6.0
 49
-0.75
 49
1.5
 49
-0.75
  0
LTYPE
  2
AMZIGZAG
 70
     0
  3
/\/-/\/-/\/-/\/-/\/-/\/
 72
    65
 73
     2
 40
11.0001
 49
0.0001
 49
-11.0
  0
LTYPE
  2
ACJISTGB
 70
     0
  3
__ . . __ . .
 72
    65
 73
     6
 40
9.0
 49
4.0
 49
-1.0
 49
1.0
 49
-1.0
 49
1.0
 49
-1.0
  0
LTYPE
  2
ACJISTGL
 70
     0
  3
_ _ _ _ _
 72
    65
 73
     2
 40
3.0
 49
2.0
 49
-1.0
  0
LTYPE
  2
ACISOWELD
 70
     0
  3
_ _ _ _ _
 72
    65
 73
     2
 40
2.0
 49
2.0
 49
-1.0
  0
LTYPE
  2
ACISOTGB
 70
     0
  3
__ . . __ . .
 72
    65
 73
     6
 40
9.0
 49
4.0
 49
-1.0
 49
1.0
 49
-1.0
 49
1.0
 49
-1.0
  0
LTYPE
  2
ACISOTGL
 70
     0
  3
_ _ _ _ _
 72
    65
 73
     2
 40
3.0
 49
2.0
 49
-1.0
  0
LTYPE
  2
HIDDEN
 70
     0
  3
Hidden __ __ __ __ __ __ __ __ __ __ __ __ __ _
 72
    65
 73
     2
 40
9.5249999999999968
 49
6.3499999999999979
 49
-3.174999999999998
  0
ENDTAB
  0
TABLE
  2
LAYER
 70
     8
  0
LAYER
  2
0
 70
     0
 62
     7
  6
CONTINUOUS
  0
LAYER
  2
ｽﾝﾎﾟｳｾﾝ
 70
     0
 62
     2
  6
CONTINUOUS
  0
LAYER
  2
DEFPOINTS
 70
     0
 62
     7
  6
CONTINUOUS
  0
LAYER
  2
ｶｸﾚｾﾝ2
 70
     0
 62
     3
  6
GEN3B
  0
LAYER
  2
ﾁｭｳｼﾝｾﾝ1
 70
     0
 62
     1
  6
GEN7A
  0
LAYER
  2
AM_0
 70
     0
 62
     7
  6
CONTINUOUS
  0
LAYER
  2
AM_0N
 70
     0
 62
     7
  6
CONTINUOUS
  0
LAYER
  2
AM_5
 70
     0
 62
     2
  6
CONTINUOUS
  0
ENDTAB
  0
TABLE
  2
STYLE
 70
     8
  0
STYLE
  2
STANDARD
 70
     0
 40
0.0
 41
0.8299999999999999
 50
0.0
 71
     0
 42
2.5
  3
txt.shx
  4
bigfont.shx
  0
STYLE
  2
ACANSTS
 70
     0
 40
1.0
 41
1.0
 50
0.0
 71
     0
 42
2.5
  3
romans.shx
  4
bigfont.shx
  0
STYLE
  2
ACANSGDT
 70
     0
 40
0.0
 41
1.0
 50
0.0
 71
     0
 42
2.5
  3
amgdtans.shx
  4

  0
STYLE
  2

 70
     1
 40
0.0
 41
1.0
 50
0.0
 71
     0
 42
2.5
  3
ltypeshp.shx
  4

  0
STYLE
  2
ACJISTS
 70
     0
 40
1.0
 41
1.0
 50
0.0
 71
     0
 42
2.5
  3
isocp.shx
  4
bigfont.shx
  0
STYLE
  2
ACJISGDT
 70
     0
 40
0.0
 41
1.0
 50
0.0
 71
     0
 42
2.5
  3
amgdt.shx
  4

  0
STYLE
  2
ACISOTS
 70
     0
 40
3.0
 41
1.0
 50
0.0
 71
     0
 42
2.5
  3
isocp.shx
  4
extfont.shx
  0
STYLE
  2
ACISOGDT
 70
     0
 40
0.0
 41
1.0
 50
0.0
 71
     0
 42
2.5
  3
amgdt.shx
  4

  0
ENDTAB
  0
TABLE
  2
VIEW
 70
    12
  0
VIEW
  2
GEN1
 70
     0
 40
95.824742268041234
 10
71.5
 20
137.08762886597941
 41
143.0
 11
0.0
 21
0.0
 31
1.0
 12
0.0
 22
0.0
 32
0.0
 42
50.0
 43
0.0
 44
0.0
 50
0.0
 71
     0
  0
VIEW
  2
GEN2
 70
     0
 40
95.824742268041234
 10
214.5
 20
137.08762886597941
 41
143.0
 11
0.0
 21
0.0
 31
1.0
 12
0.0
 22
0.0
 32
0.0
 42
50.0
 43
0.0
 44
0.0
 50
0.0
 71
     0
  0
VIEW
  2
GEN3
 70
     0
 40
95.824742268041234
 10
71.5
 20
47.912371134020603
 41
143.0
 11
0.0
 21
0.0
 31
1.0
 12
0.0
 22
0.0
 32
0.0
 42
50.0
 43
0.0
 44
0.0
 50
0.0
 71
     0
  0
VIEW
  2
GEN4
 70
     0
 40
95.824742268041234
 10
214.5
 20
47.912371134020603
 41
143.0
 11
0.0
 21
0.0
 31
1.0
 12
0.0
 22
0.0
 32
0.0
 42
50.0
 43
0.0
 44
0.0
 50
0.0
 71
     0
  0
VIEW
  2
GEN5
 70
     0
 40
95.824742268041234
 10
143.0
 20
92.500000000000057
 41
143.0
 11
0.0
 21
0.0
 31
1.0
 12
0.0
 22
0.0
 32
0.0
 42
50.0
 43
0.0
 44
0.0
 50
0.0
 71
     0
  0
VIEW
  2
GEN6
 70
     0
 40
191.64756804123709
 10
143.0
 20
92.5
 41
285.99714
 11
0.0
 21
0.0
 31
1.0
 12
0.0
 22
0.0
 32
0.0
 42
50.0
 43
0.0
 44
0.0
 50
0.0
 71
     0
  0
VIEW
  2
AM_VIEW1
 70
     0
 40
277.50000000000011
 10
249.64779005524869
 20
416.25000000000011
 41
499.29558011049721
 11
0.0
 21
0.0
 31
1.0
 12
0.0
 22
0.0
 32
0.0
 42
50.0
 43
0.0
 44
0.0
 50
0.0
 71
    16
  0
VIEW
  2
AM_VIEW2
 70
     0
 40
277.50000000000011
 10
603.85220994475117
 20
416.25000000000011
 41
499.29558011049721
 11
0.0
 21
0.0
 31
1.0
 12
0.0
 22
0.0
 32
0.0
 42
50.0
 43
0.0
 44
0.0
 50
0.0
 71
    16
  0
VIEW
  2
AM_VIEW3
 70
     0
 40
277.50000000000011
 10
249.64779005524869
 20
138.75
 41
499.29558011049721
 11
0.0
 21
0.0
 31
1.0
 12
0.0
 22
0.0
 32
0.0
 42
50.0
 43
0.0
 44
0.0
 50
0.0
 71
    16
  0
VIEW
  2
AM_VIEW4
 70
     0
 40
277.50000000000011
 10
603.85220994475117
 20
138.75
 41
499.29558011049721
 11
0.0
 21
0.0
 31
1.0
 12
0.0
 22
0.0
 32
0.0
 42
50.0
 43
0.0
 44
0.0
 50
0.0
 71
    16
  0
VIEW
  2
AM_VIEW5
 70
     0
 40
277.50000000000011
 10
426.75
 20
277.50000000000011
 41
499.2955801104971
 11
0.0
 21
0.0
 31
1.0
 12
0.0
 22
0.0
 32
0.0
 42
50.0
 43
0.0
 44
0.0
 50
0.0
 71
    16
  0
VIEW
  2
AM_VIEW6
 70
     0
 40
554.99445000000014
 10
426.75
 20
277.5
 41
998.5811743093924
 11
0.0
 21
0.0
 31
1.0
 12
0.0
 22
0.0
 32
0.0
 42
50.0
 43
0.0
 44
0.0
 50
0.0
 71
    16
  0
ENDTAB
  0
TABLE
  2
UCS
 70
     0
  0
ENDTAB
  0
TABLE
  2
APPID
 70
   103
  0
APPID
  2
ACAD
 70
     0
  0
APPID
  2
MCAD_NO_VIS
 70
     0
  0
APPID
  2
ACAD_TEMP_GRAPHIC
 70
     0
  0
APPID
  2
AD_DRAW
 70
     0
  0
APPID
  2
DESIGNERASSEMBLIES
 70
     0
  0
APPID
  2
ASURF_PCURVE_APPNAME
 70
     0
  0
APPID
  2
GENIUS_GE3SECT_13
 70
     0
  0
APPID
  2
GENIUS_GENCFG_13
 70
     0
  0
APPID
  2
GENIUS_GE3CFG0_13
 70
     0
  0
APPID
  2
GENIUS_GENCFG0_13
 70
     0
  0
APPID
  2
GENIUS_GENCFG1_13
 70
     0
  0
APPID
  2
GENIUS_GENCFG2_13
 70
     0
  0
APPID
  2
GENIUS_GENCFG3_13
 70
     0
  0
APPID
  2
GENIUS_GENCFG4_13
 70
     0
  0
APPID
  2
GENIUS_GEVCFG0_13
 70
     0
  0
APPID
  2
GENIUS_GENOENT_13
 70
     0
  0
APPID
  2
GENIUS_GENREC_14
 70
     0
  0
APPID
  2
GENIUS_GENODEF_13
 70
     0
  0
APPID
  2
GENIUS_GENOBJ-N-REC_13
 70
     0
  0
APPID
  2
GENIUS_GENHINW_13
 70
     0
  0
APPID
  2
GENIUS_FIRSTVISTXT_14
 70
     0
  0
APPID
  2
GENIUS_GENOBJ-N-LEADER_13
 70
     0
  0
APPID
  2
GENIUS_GENOREF_13
 70
     0
  0
APPID
  2
GENIUS_GENOLIS_13
 70
     0
  0
APPID
  2
GEV_VCCNULL_SWITCH_OFF
 70
     0
  0
APPID
  2
GENIUS_GENDTOL_13
 70
     0
  0
APPID
  2
GENIUS_GEFCFG0_13
 70
     0
  0
APPID
  2
GENIUS_GENOBJ-N-TIT_13
 70
     0
  0
APPID
  2
GENIUS_GENTITLE_13
 70
     0
  0
APPID
  2
GENIUS_GENZVEED_13
 70
     0
  0
APPID
  2
GENIUS_GENOBJ-N-SDF_13
 70
     0
  0
APPID
  2
GENIUS_GENSCREG_13
 70
     0
  0
APPID
  2
GENIUS_DUMCFG0_13
 70
     0
  0
APPID
  2
GEVID936201362
 70
     0
  0
APPID
  2
GEVDC
 70
     0
  0
APPID
  2
GEVCON
 70
     0
  0
APPID
  2
VCC
 70
     0
  0
APPID
  2
GEVPT
 70
     0
  0
APPID
  2
GEVIT
 70
     0
  0
APPID
  2
GENBH
 70
     0
  0
APPID
  2
GEVMK
 70
     0
  0
APPID
  2
GENIUS_GENBH_13
 70
     0
  0
APPID
  2
GENIUS_GENOBJ-NBEHI-BHF_13
 70
     0
  0
APPID
  2
GENIUS_GENOBJ-NBEHI-BHB_13
 70
     0
  0
APPID
  2
GENIUS_GENOBJ-F-DESC_13
 70
     0
  0
APPID
  2
GENIUS_GEFDESC_14
 70
     0
  0
APPID
  2
GENIUS_GENOBJ-F-PART_13
 70
     0
  0
APPID
  2
GENIUS_GEFSTDP_13
 70
     0
  0
APPID
  2
GENIUS_GEFPARTINS_13
 70
     0
  0
APPID
  2
GENIUS_GENTRA_14
 70
     0
  0
APPID
  2
GENIUS_GENINF13_13
 70
     0
  0
APPID
  2
GENIUS_GENOBJ-N-INFOPT_13
 70
     0
  0
APPID
  2
GENIUS_GENOBJ-N-RSSYM_13
 70
     0
  0
APPID
  2
GENIUS_GENSYMENT_13
 70
     0
  0
APPID
  2
GENIUS_GENSCSYM_13
 70
     0
  0
APPID
  2
GENIUS_GEFINFNAM_13
 70
     0
  0
APPID
  2
GENIUS_GENSCREG_15
 70
     0
  0
APPID
  2
GENIUS_GENOBJ-N-CEN_13
 70
     0
  0
APPID
  2
GENIUS_GENOBJ-N-CRS_13
 70
     0
  0
APPID
  2
GENIUS_GENOBJ-N-CRC_13
 70
     0
  0
APPID
  2
GENIUS_GENCRC_14
 70
     0
  0
APPID
  2
GEVID942827039
 70
     0
  0
APPID
  2
GEVID942827040
 70
     0
  0
APPID
  2
GEVID942827041
 70
     0
  0
APPID
  2
GENIUS_GENOBJ-F-SCPASSM_13
 70
     0
  0
APPID
  2
GENIUS_GENDIMSH_14
 70
     0
  0
APPID
  2
GENIUS_GENFIL_13
 70
     0
  0
APPID
  2
GENIUS_GENOBJ-N-CHA_13
 70
     0
  0
APPID
  2
GENIUS_GENOBJ-N-FIL_13
 70
     0
  0
APPID
  2
GEVID942827042
 70
     0
  0
APPID
  2
GEVID946020473
 70
     0
  0
APPID
  2
GEVID946020474
 70
     0
  0
APPID
  2
GEVID946020475
 70
     0
  0
APPID
  2
GENIUS_GENOBJ-N-HTC_13
 70
     0
  0
APPID
  2
GENIUS_GENHATCH_13
 70
     0
  0
APPID
  2
GEVID948854295
 70
     0
  0
APPID
  2
GEVID939402019
 70
     0
  0
APPID
  2
GEVID952919491
 70
     0
  0
APPID
  2
GEVID952919492
 70
     0
  0
APPID
  2
GENIUS_GEFWELD_13
 70
     0
  0
APPID
  2
GENIUS_GENOBJ-F-WELS_13
 70
     0
  0
APPID
  2
GEVID952919493
 70
     0
  0
APPID
  2
GENIUS_GENOBJ-N-RSBK_13
 70
     0
  0
APPID
  2
GENIUS_GENOBJ-N-LIB_13
 70
     0
  0
APPID
  2
GENIUS_GENSCALE_13
 70
     0
  0
APPID
  2
GEVID986376691
 70
     0
  0
APPID
  2
ACATTRIBSERVICES
 70
     0
  0
APPID
  2
DCO15
 70
     0
  0
APPID
  2
ACADM_DIM_EDIT
 70
     0
  0
APPID
  2
AMDT_DM_ADJ
 70
     0
  0
APPID
  2
GEVID1096446792
 70
     0
  0
APPID
  2
AMG_2DHIDE
 70
     0
  0
APPID
  2
AMG_2DSTRUCT_BTR
 70
     0
  0
APPID
  2
ACADM_2DVIEW_IGN_NOTIFY
 70
     0
  0
APPID
  2
GEVID1096446793
 70
     0
  0
APPID
  2
GEVID1096446794
 70
     0
  0
APPID
  2
GEVID1096446795
 70
     0
  0
APPID
  2
ACAD_MLEADERVER
 70
     0
  0
APPID
  2
ACAD_DSTYLE_DIMBREAK
 70
     0
  0
APPID
  2
ACAD_DSTYLE_DIMJAG
 70
     0
  0
APPID
  2
ACAD_NAV_VCDISPLAY
 70
     0
  0
APPID
  2
ACADANNOPO
 70
     0
  0
APPID
  2
ACAD_EXEMPT_FROM_CAD_STANDARDS
 70
     0
  0
ENDTAB
  0
TABLE
  2
DIMSTYLE
 70
    15
  0
DIMSTYLE
  2
STANDARD
 70
     0
  3

  4

  5

  6

  7

 40
1.0
 41
0.18
 42
0.0625
 43
0.38
 44
0.18
 45
0.0
 46
0.0
 47
0.0
 48
0.0
140
0.18
141
0.09
142
0.0
143
25.399999999999999
144
1.0
145
0.0
146
1.0
147
0.09
 71
     0
 72
     0
 73
     1
 74
     1
 75
     0
 76
     0
 77
     0
 78
     0
170
     0
171
     2
172
     0
173
     0
174
     0
175
     0
176
     0
177
     0
178
     0
  0
DIMSTYLE
  2
AM_JIS
 70
     0
  3

  4
"
  5

  6

  7

 40
1.0
 41
2.5
 42
1.0
 43
7.0
 44
1.0
 45
0.0
 46
0.0
 47
0.1
 48
0.1000000001
140
2.5
141
0.0
142
0.0
143
0.0393701
144
1.0
145
0.0
146
0.71
147
1.0
 71
     0
 72
     0
 73
     0
 74
     0
 75
     0
 76
     0
 77
     3
 78
     8
170
     0
171
     2
172
     1
173
     0
174
     0
175
     0
176
   256
177
   256
178
     4
  0
DIMSTYLE
  2
AM_JIS$3
 70
     0
  3

  4
"
  5

  6

  7

 40
1.0
 41
2.5
 42
1.0
 43
7.0
 44
1.0
 45
0.0
 46
0.0
 47
0.1
 48
0.1000000001
140
2.5
141
0.0
142
0.0
143
0.0393701
144
1.0
145
0.0
146
0.71
147
1.0
 71
     0
 72
     0
 73
     0
 74
     1
 75
     0
 76
     0
 77
     3
 78
     8
170
     0
171
     2
172
     0
173
     0
174
     0
175
     0
176
   256
177
   256
178
     4
  0
DIMSTYLE
  2
AM_JIS$4
 70
     0
  3

  4
"
  5

  6

  7

 40
1.0
 41
2.5
 42
1.0
 43
7.0
 44
1.0
 45
0.0
 46
0.0
 47
0.1
 48
0.1000000001
140
2.5
141
0.0
142
0.0
143
0.0393701
144
1.0
145
0.0
146
0.71
147
1.0
 71
     0
 72
     0
 73
     0
 74
     0
 75
     0
 76
     0
 77
     3
 78
     8
170
     0
171
     2
172
     0
173
     0
174
     0
175
     0
176
   256
177
   256
178
     4
  0
DIMSTYLE
  2
AM_JIS$6
 70
     0
  3

  4
"
  5

  6

  7

 40
1.0
 41
2.5
 42
1.0
 43
7.0
 44
1.0
 45
0.0
 46
0.0
 47
0.1
 48
0.1000000001
140
2.5
141
0.0
142
0.0
143
0.0393701
144
1.0
145
0.0
146
0.71
147
1.0
 71
     0
 72
     0
 73
     0
 74
     0
 75
     0
 76
     0
 77
     0
 78
     8
170
     0
171
     2
172
     1
173
     0
174
     0
175
     0
176
   256
177
   256
178
     4
  0
DIMSTYLE
  2
AM_JIS$7
 70
     0
  3

  4
"
  5

  6

  7

 40
1.0
 41
2.5
 42
1.0
 43
7.0
 44
1.0
 45
0.0
 46
0.0
 47
0.1
 48
0.1000000001
140
2.5
141
0.0
142
0.0
143
0.0393701
144
1.0
145
0.0
146
0.71
147
1.0
 71
     0
 72
     0
 73
     0
 74
     0
 75
     0
 76
     0
 77
     3
 78
     8
170
     0
171
     2
172
     1
173
     0
174
     0
175
     0
176
   256
177
   256
178
     4
  0
DIMSTYLE
  2
AM_JIS$SF
 70
     0
  3

  4
"
  5
OPEN30
  6
OPEN30
  7
OPEN30
 40
1.0
 41
2.5
 42
1.0
 43
10.0
 44
1.0
 45
0.0
 46
0.0
 47
0.1
 48
0.1
140
3.5
141
0.0
142
0.0
143
0.0393701
144
1.0
145
0.0
146
0.71
147
1.5
 71
     0
 72
     0
 73
     0
 74
     0
 75
     1
 76
     1
 77
     3
 78
     8
170
     0
171
     2
172
     1
173
     0
174
     0
175
     0
176
   256
177
   256
178
     4
  0
DIMSTYLE
  2
AM_JIS$SH
 70
     0
  3

  4
"
  5

  6
NONE
  7

 40
1.0
 41
2.5
 42
1.0
 43
10.0
 44
1.0
 45
0.0
 46
0.0
 47
0.1
 48
0.1
140
3.5
141
0.0
142
0.0
143
0.0393701
144
1.0
145
0.0
146
0.71
147
1.5
 71
     0
 72
     0
 73
     0
 74
     0
 75
     1
 76
     0
 77
     3
 78
     8
170
     0
171
     2
172
     1
173
     1
174
     0
175
     0
176
   256
177
   256
178
     4
  0
DIMSTYLE
  2
AM_ISO
 70
     0
  3

  4
"
  5

  6

  7

 40
1.0
 41
2.5
 42
1.0
 43
10.0
 44
1.0
 45
0.0
 46
0.0
 47
0.0
 48
0.000000001
140
3.0
141
0.0
142
0.0
143
0.0393701
144
1.0
145
0.0
146
0.71
147
1.299999999999998
 71
     1
 72
     0
 73
     0
 74
     0
 75
     0
 76
     0
 77
     1
 78
     8
170
     0
171
     2
172
     1
173
     0
174
     0
175
     0
176
   256
177
   256
178
     4
  0
DIMSTYLE
  2
AM_ISO$3
 70
     0
  3

  4
"
  5

  6

  7

 40
1.0
 41
2.5
 42
1.0
 43
10.0
 44
1.0
 45
0.0
 46
0.0
 47
0.0
 48
0.000000001
140
2.5
141
0.0
142
0.0
143
0.0393701
144
1.0
145
0.0
146
0.71
147
1.299999999999998
 71
     1
 72
     0
 73
     0
 74
     1
 75
     0
 76
     0
 77
     1
 78
     8
170
     0
171
     2
172
     0
173
     0
174
     0
175
     0
176
   256
177
   256
178
     4
  0
DIMSTYLE
  2
AM_ISO$4
 70
     0
  3

  4
"
  5

  6

  7

 40
1.0
 41
2.5
 42
1.0
 43
10.0
 44
1.0
 45
0.0
 46
0.0
 47
0.0
 48
0.000000001
140
2.5
141
0.0
142
0.0
143
0.0393701
144
1.0
145
0.0
146
0.71
147
1.299999999999998
 71
     1
 72
     0
 73
     0
 74
     1
 75
     0
 76
     0
 77
     1
 78
     8
170
     0
171
     2
172
     0
173
     0
174
     0
175
     0
176
   256
177
   256
178
     4
  0
DIMSTYLE
  2
AM_ISO$6
 70
     0
  3

  4
"
  5

  6

  7

 40
1.0
 41
2.5
 42
1.0
 43
10.0
 44
1.0
 45
0.0
 46
0.0
 47
0.0
 48
0.000000001
140
2.5
141
0.0
142
0.0
143
0.0393701
144
1.0
145
0.0
146
0.71
147
1.299999999999998
 71
     1
 72
     0
 73
     0
 74
     0
 75
     0
 76
     0
 77
     0
 78
     8
170
     0
171
     2
172
     1
173
     0
174
     0
175
     0
176
   256
177
   256
178
     4
  0
DIMSTYLE
  2
AM_ISO$7
 70
     0
  3

  4
"
  5

  6

  7

 40
1.0
 41
2.5
 42
1.0
 43
10.0
 44
1.0
 45
0.0
 46
0.0
 47
0.0
 48
0.000000001
140
2.5
141
0.0
142
0.0
143
0.0393701
144
1.0
145
0.0
146
0.71
147
1.299999999999998
 71
     1
 72
     0
 73
     0
 74
     0
 75
     0
 76
     0
 77
     1
 78
     8
170
     0
171
     2
172
     1
173
     0
174
     0
175
     0
176
   256
177
   256
178
     4
  0
DIMSTYLE
  2
AM_ISO$SF
 70
     0
  3

  4
"
  5

  6

  7

 40
1.0
 41
2.5
 42
1.0
 43
10.0
 44
1.0
 45
0.0
 46
0.0
 47
0.1
 48
0.1
140
3.5
141
0.0
142
0.0
143
0.0393701
144
1.0
145
0.0
146
0.71
147
1.5
 71
     0
 72
     0
 73
     0
 74
     0
 75
     1
 76
     1
 77
     1
 78
     8
170
     0
171
     2
172
     1
173
     0
174
     0
175
     0
176
   256
177
   256
178
     4
  0
DIMSTYLE
  2
AM_ISO$SH
 70
     0
  3

  4
"
  5

  6
GENAXEH
  7

 40
1.0
 41
2.5
 42
1.0
 43
10.0
 44
1.0
 45
0.0
 46
0.0
 47
0.1
 48
0.1
140
3.5
141
0.0
142
0.0
143
0.0393701
144
2.0
145
0.0
146
0.71
147
1.5
 71
     0
 72
     0
 73
     0
 74
     0
 75
     1
 76
     1
 77
     1
 78
     8
170
     0
171
     2
172
     1
173
     1
174
     0
175
     0
176
   256
177
   256
178
     4
  0
ENDTAB
  0
ENDSEC
  0
SECTION
  2
BLOCKS
  0
BLOCK
  8
0
  2
$MODEL_SPACE
 70
     0
 10
0.0
 20
0.0
 30
0.0
  3
$MODEL_SPACE
  1

  0
ENDBLK
  5
1A
  8
0
  0
BLOCK
 67
     1
  8
0
  2
$PAPER_SPACE
 70
     0
 10
0.0
 20
0.0
 30
0.0
  3
$PAPER_SPACE
  1

  0
ENDBLK
  5
17
 67
     1
  8
0
  0
BLOCK
  8
0
  2
_OPEN30
 70
     0
 10
0.0
 20
0.0
 30
0.0
  3
_OPEN30
  1

  0
LINE
  5
21C5
  8
0
 62
     0
 10
-1.0
 20
0.26794919
 30
0.0
 11
0.0
 21
0.0
 31
0.0
  0
LINE
  5
21C6
  8
0
 62
     0
 10
0.0
 20
0.0
 30
0.0
 11
-1.0
 21
-0.26794919
 31
0.0
  0
LINE
  5
21C7
  8
0
 62
     0
 10
0.0
 20
0.0
 30
0.0
 11
-1.0
 21
0.0
 31
0.0
  0
ENDBLK
  5
21C9
  8
0
  0
BLOCK
  8
0
  2
GENAXEH
 70
     0
 10
0.0
 20
0.0
 30
0.0
  3
GENAXEH
  1

  0
LINE
  5
21D0
  8
0
 10
-1.0
 20
0.0
 30
0.0
 11
1.0
 21
0.0
 31
0.0
  0
ENDBLK
  5
21D2
  8
0
  0
BLOCK
  8
0
  2
_NONE
 70
     0
 10
0.0
 20
0.0
 30
0.0
  3
_NONE
  1

  0
ENDBLK
  5
8193
  8
0
  0
BLOCK
  8
0
  2
*U5
 70
     1
 10
0.0
 20
0.0
 30
0.0
  3
*U5
  1

  0
SOLID
  5
12E1A
  8
AM_0
  6
CONTINUOUS
 10
-895.8299895233464
 20
472.40717884515192
 30
0.0
 11
-898.3299895233464
 21
472.40717884515192
 31
0.0
 12
-895.8299895233464
 22
469.90717884515192
 32
0.0
 13
-895.8299895233464
 23
469.90717884515192
 33
0.0
210
0.0
220
0.0
230
-1.0
  0
LINE
  5
12E1B
  8
AM_0
  6
CONTINUOUS
 10
898.3299895233464
 20
472.40717884515192
 30
0.0
 11
895.8299895233464
 21
469.90717884515192
 31
0.0
  0
LINE
  5
12E1C
  8
AM_0
  6
CONTINUOUS
 10
895.8299895233464
 20
469.90717884515192
 30
0.0
 11
895.8299895233464
 21
472.40717884515192
 31
0.0
  0
ENDBLK
  5
12E1E
  8
0
  0
BLOCK
  8
0
  2
*U6
 70
     1
 10
0.0
 20
0.0
 30
0.0
  3
*U6
  1

  0
SOLID
  5
12E20
  8
AM_0
  6
CONTINUOUS
 10
-888.82998952334583
 20
472.40717884515192
 30
0.0
 11
-891.32998952334606
 21
472.40717884515192
 31
0.0
 12
-891.32998952334606
 22
469.90717884515192
 32
0.0
 13
-891.32998952334606
 23
469.90717884515192
 33
0.0
210
0.0
220
0.0
230
-1.0
  0
LINE
  5
12E21
  8
AM_0
  6
CONTINUOUS
 10
891.32998952334606
 20
472.40717884515192
 30
0.0
 11
891.32998952334606
 21
469.90717884515192
 31
0.0
  0
LINE
  5
12E22
  8
AM_0
  6
CONTINUOUS
 10
891.32998952334606
 20
469.90717884515192
 30
0.0
 11
888.82998952334583
 21
472.40717884515192
 31
0.0
  0
ENDBLK
  5
12E24
  8
0
  0
BLOCK
  8
0
  2
*U7
 70
     1
 10
0.0
 20
0.0
 30
0.0
  3
*U7
  1

  0
SOLID
  5
12E26
  8
AM_0
  6
CONTINUOUS
 10
-848.82999122207866
 20
559.90721277969033
 30
0.0
 11
-848.82999122207866
 21
557.40721277969021
 31
0.0
 12
-846.32999122207866
 22
557.40721277969021
 32
0.0
 13
-846.32999122207866
 23
557.40721277969021
 33
0.0
210
0.0
220
0.0
230
-1.0
  0
LINE
  5
12E27
  8
AM_0
  6
CONTINUOUS
 10
848.82999122207866
 20
559.90721277969033
 30
0.0
 11
848.82999122207866
 21
557.40721277969021
 31
0.0
  0
LINE
  5
12E28
  8
AM_0
  6
CONTINUOUS
 10
846.32999122207866
 20
557.40721277969021
 30
0.0
 11
848.82999122207866
 21
559.90721277969033
 31
0.0
  0
ENDBLK
  5
12E2A
  8
0
  0
BLOCK
  8
0
  2
*U8
 70
     1
 10
0.0
 20
0.0
 30
0.0
  3
*U8
  1

  0
SOLID
  5
12E2C
  8
AM_0
  6
CONTINUOUS
 10
-853.32999122207946
 20
559.90721277969033
 30
0.0
 11
-855.82999122207934
 21
557.40721277969021
 31
0.0
 12
-853.32999122207946
 22
557.40721277969021
 32
0.0
 13
-853.32999122207946
 23
557.40721277969021
 33
0.0
210
0.0
220
0.0
230
-1.0
  0
LINE
  5
12E2D
  8
AM_0
  6
CONTINUOUS
 10
853.32999122207946
 20
559.90721277969033
 30
0.0
 11
855.82999122207934
 21
557.40721277969021
 31
0.0
  0
LINE
  5
12E2E
  8
AM_0
  6
CONTINUOUS
 10
853.32999122207946
 20
557.40721277969021
 30
0.0
 11
853.32999122207946
 21
559.90721277969033
 31
0.0
  0
ENDBLK
  5
12E30
  8
0
  0
BLOCK
  8
0
  2
*U9
 70
     1
 10
0.0
 20
0.0
 30
0.0
  3
*U9
  1

  0
SOLID
  5
12E32
  8
AM_0
  6
CONTINUOUS
 10
-895.8299895233464
 20
559.90721277969033
 30
0.0
 11
-898.3299895233464
 21
557.40721277969021
 31
0.0
 12
-895.8299895233464
 22
557.40721277969021
 32
0.0
 13
-895.8299895233464
 23
557.40721277969021
 33
0.0
210
0.0
220
0.0
230
-1.0
  0
LINE
  5
12E33
  8
AM_0
  6
CONTINUOUS
 10
895.8299895233464
 20
559.90721277969033
 30
0.0
 11
898.3299895233464
 21
557.40721277969021
 31
0.0
  0
LINE
  5
12E34
  8
AM_0
  6
CONTINUOUS
 10
895.8299895233464
 20
557.40721277969021
 30
0.0
 11
895.8299895233464
 21
559.90721277969033
 31
0.0
  0
ENDBLK
  5
12E36
  8
0
  0
BLOCK
  8
0
  2
*U10
 70
     1
 10
0.0
 20
0.0
 30
0.0
  3
*U10
  1

  0
SOLID
  5
12E38
  8
AM_0
  6
CONTINUOUS
 10
-891.32998952334606
 20
559.90721277969033
 30
0.0
 11
-891.32998952334606
 21
557.40721277969021
 31
0.0
 12
-888.82998952334583
 22
557.40721277969021
 32
0.0
 13
-888.82998952334583
 23
557.40721277969021
 33
0.0
210
0.0
220
0.0
230
-1.0
  0
LINE
  5
12E39
  8
AM_0
  6
CONTINUOUS
 10
891.32998952334606
 20
559.90721277969033
 30
0.0
 11
891.32998952334606
 21
557.40721277969021
 31
0.0
  0
LINE
  5
12E3A
  8
AM_0
  6
CONTINUOUS
 10
888.82998952334583
 20
557.40721277969021
 30
0.0
 11
891.32998952334606
 21
559.90721277969033
 31
0.0
  0
ENDBLK
  5
12E3C
  8
0
  0
ENDSEC
  0
SECTION
  2
ENTITIES
  0
POINT
  5
1B94
  8
0
 10
0.0
 20
0.0
 30
0.0
1001
GENIUS_GENODEF_13
1002
{
1000
HIER
1070
     1
1002
}
1002
{
1000
MANEDIT
1070
     0
1002
}
1002
{
1000
NOSEL
1070
     0
1002
}
1002
{
1000
BEHIND
1070
     0
1002
}
1002
{
1000
REACTOR
1002
}
1001
GENIUS_GENOBJ-N-SDF_13
1002
{
1000
OWNER
1000
GEN
1002
}
1001
GENIUS_GENOENT_13
1002
{
1000
MYREF
1005
1B94
1002
}
1002
{
1000
GRP
1005
0
1002
}
1001
GENIUS_GENOLIS_13
1002
{
1000
ENT
1005
89
1002
}
  0
LINE
  5
107E1
  8
AM_0
 10
654.19777729735119
 20
247.87555963223161
 30
0.0
 11
654.19777729735119
 21
302.87556127135929
 31
0.0
  0
LINE
  5
107E2
  8
AM_0
 10
570.19777479395611
 20
247.87555963223161
 30
0.0
 11
570.19777479395611
 21
302.87556127135929
 31
0.0
  0
ARC
  5
107E3
  8
AM_0
 10
612.19777604565365
 20
275.37556045179548
 30
0.0
 40
56.5
 50
144.98137173791559
 51
215.01862826208421
  0
LINE
  5
107E4
  8
AM_0
 10
650.19777717814202
 20
212.8755607349176
 30
0.0
 11
650.19777717814191
 21
325.2758928484634
 31
0.0
  0
LINE
  5
107E5
  8
AM_0
 10
574.19777491316529
 20
212.8755607349176
 30
0.0
 11
574.19777491316529
 21
326.14864612088451
 31
0.0
  0
LINE
  5
107E6
  8
AM_0
 10
587.19777530059559
 20
224.3755589318769
 30
0.0
 11
587.19777530059559
 21
326.37556197171392
 31
0.0
  0
LINE
  5
107E7
  8
ﾁｭｳｼﾝｾﾝ1
 10
612.19777604565365
 20
341.76763941721413
 30
0.0
 11
612.19777604565365
 21
208.983481486377
 31
0.0
  0
ARC
  5
107E8
  8
AM_0
 10
612.19777604565365
 20
275.37556045179548
 30
0.0
 40
56.5
 50
14.11190843909716
 51
35.018628262084228
  0
LINE
  5
107EF
  8
AM_0
 10
672.21051738099925
 20
261.41400250570211
 30
0.0
 11
666.99175821507345
 21
261.59624559156839
 31
0.0
  0
LINE
  5
107F0
  8
AM_0
 10
672.20103522862576
 20
259.3463130957295
 30
0.0
 11
666.31507089167656
 21
259.1407706918821
 31
0.0
  0
LINE
  5
107F1
  8
AM_0
 10
657.19777776675824
 20
260.37556000476059
 30
0.0
 11
681.19777776675824
 21
263.37556045179542
 31
0.0
  0
LINE
  5
107F2
  8
AM_0
 10
659.6977786533572
 20
228.8755592597027
 30
0.0
 11
675.69777717814213
 21
212.87556073491771
 31
0.0
  0
LINE
  5
107F3
  8
AM_0
 10
687.19777717814065
 20
209.8755607349176
 30
0.0
 11
657.69777717814145
 21
209.8755607349176
 31
0.0
  0
LINE
  5
107F4
  8
AM_0
 10
687.19777717814065
 20
205.3755607349176
 30
0.0
 11
657.69777717814065
 21
205.3755607349176
 31
0.0
  0
LINE
  5
107F6
  8
ﾁｭｳｼﾝｾﾝ1
 10
517.04113147026283
 20
275.37556045179548
 30
0.0
 11
712.69437922854615
 21
275.37556045179548
 31
0.0
  0
ARC
  5
107F7
  8
AM_0
 10
612.19777604565365
 20
275.37556045179548
 30
0.0
 40
56.5
 50
324.98137173791582
 51
345.88809156090292
  0
LINE
  5
107F9
  8
AM_0
 10
667.50764741848354
 20
239.3514606290866
 30
0.0
 11
664.28777717814125
 21
239.23902028263029
 31
0.0
  0
LINE
  5
107FA
  8
AM_0
 10
667.53173132282348
 20
241.42202631819251
 30
0.0
 11
664.28777717814125
 21
241.5353076931205
 31
0.0
  0
LINE
  5
107FB
  8
AM_0
 10
670.34774574319215
 20
249.34894972583641
 30
0.0
 11
662.19747064308683
 21
249.06433584777091
 31
0.0
  0
LINE
  5
107FC
  8
AM_0
 10
670.36408047751513
 20
251.41774637483979
 30
0.0
 11
663.47873010377373
 21
251.6581881081112
 31
0.0
  0
LINE
  5
107FD
  8
AM_0
 10
672.20103522862576
 20
291.4048078078618
 30
0.0
 11
666.31507089167656
 21
291.6103502117092
 31
0.0
  0
LINE
  5
107FE
  8
AM_0
 10
672.21051738099925
 20
289.33711839788918
 30
0.0
 11
666.99175821507345
 21
289.15487531202291
 31
0.0
  0
LINE
  5
107FF
  8
AM_0
 10
657.19777776675824
 20
290.37556089883032
 30
0.0
 11
681.19777776675824
 21
287.37556045179531
 31
0.0
  0
ARC
  5
10ABC
  8
AM_0
 10
657.69777717814145
 20
212.8755607349176
 30
0.0
 40
3.0
 50
180.0
 51
270.0
1001
GENIUS_GENOBJ-N-FIL_13
1002
{
1000
OWNER
1000
GEN
1002
}
1001
GENIUS_GENODEF_13
1002
{
1000
HIER
1070
     0
1002
}
1002
{
1000
MANEDIT
1070
     0
1002
}
1002
{
1000
NOSEL
1070
     0
1002
}
1002
{
1000
BEHIND
1070
     0
1002
}
1002
{
1000
OTHER
1070
     0
1002
}
1002
{
1000
REACTOR
1002
}
  0
LINE
  5
10ABD
  8
AM_0
 10
654.69777717814225
 20
215.4907844240669
 30
0.0
 11
660.31300086729141
 21
209.8755607349176
 31
0.0
  0
LINE
  5
10ABE
  8
AM_0
 10
548.69777491316461
 20
212.8755607349174
 30
0.0
 11
548.69777491316461
 21
209.8755607349176
 31
0.0
  0
ARC
  5
10ABF
  8
AM_0
 10
566.69777491316438
 20
212.8755607349176
 30
0.0
 40
3.0
 50
270.0
 51
0.0
1001
GENIUS_GENOBJ-N-FIL_13
1002
{
1000
OWNER
1000
GEN
1002
}
1001
GENIUS_GENODEF_13
1002
{
1000
HIER
1070
     0
1002
}
1002
{
1000
MANEDIT
1070
     0
1002
}
1002
{
1000
NOSEL
1070
     0
1002
}
1002
{
1000
BEHIND
1070
     0
1002
}
1002
{
1000
OTHER
1070
     0
1002
}
1002
{
1000
REACTOR
1002
}
  0
LINE
  5
10AC0
  8
AM_0
 10
569.69777491316461
 20
215.4907844240669
 30
0.0
 11
564.08255122401545
 21
209.8755607349176
 31
0.0
  0
LINE
  5
10AC1
  8
ﾁｭｳｼﾝｾﾝ1
 10
547.197776254269
 20
219.8755607349178
 30
0.0
 11
547.19777625426889
 21
195.3755607349176
 31
0.0
  0
ARC
  5
10AC2
  8
AM_0
 10
566.69777491316518
 20
212.8755607349176
 30
0.0
 40
7.5
 50
270.0
 51
0.0
1001
GENIUS_GENOBJ-N-FIL_13
1002
{
1000
OWNER
1000
GEN
1002
}
1001
GENIUS_GENODEF_13
1002
{
1000
HIER
1070
     0
1002
}
1002
{
1000
MANEDIT
1070
     0
1002
}
1002
{
1000
NOSEL
1070
     0
1002
}
1002
{
1000
BEHIND
1070
     0
1002
}
1002
{
1000
OTHER
1070
     0
1002
}
1002
{
1000
REACTOR
1002
}
  0
ARC
  5
10AC3
  8
AM_0
 10
657.69777717814065
 20
212.8755607349176
 30
0.0
 40
7.5
 50
180.0
 51
270.0
1001
GENIUS_GENOBJ-N-FIL_13
1002
{
1000
OWNER
1000
GEN
1002
}
1001
GENIUS_GENODEF_13
1002
{
1000
HIER
1070
     0
1002
}
1002
{
1000
MANEDIT
1070
     0
1002
}
1002
{
1000
NOSEL
1070
     0
1002
}
1002
{
1000
BEHIND
1070
     0
1002
}
1002
{
1000
OTHER
1070
     0
1002
}
1002
{
1000
REACTOR
1002
}
  0
LINE
  5
10AC5
  8
AM_0
 10
537.19777491316563
 20
209.8755607349176
 30
0.0
 11
566.69777491316438
 21
209.8755607349176
 31
0.0
  0
LINE
  5
10AC6
  8
AM_0
 10
537.19777491316563
 20
205.3755607349176
 30
0.0
 11
566.69777491316518
 21
205.3755607349176
 31
0.0
  0
LINE
  5
10AC7
  8
AM_0
 10
537.19777491316563
 20
209.8755607349176
 30
0.0
 11
537.19777491316563
 21
205.3755607349176
 31
0.0
  0
LINE
  5
10AC8
  8
ｶｸﾚｾﾝ2
 10
542.19777625426934
 20
205.37556073491771
 30
0.0
 11
542.19777625426934
 21
209.87556073491771
 31
0.0
  0
LINE
  5
10AC9
  8
ｶｸﾚｾﾝ2
 10
552.197776254269
 20
205.37556073491771
 30
0.0
 11
552.197776254269
 21
209.87556073491771
 31
0.0
  0
ARC
  5
10ACA
  8
AM_0
 10
612.19777604565354
 20
275.37556045179548
 30
0.0
 40
56.5
 50
244.48212463480019
 51
297.51787536520271
  0
LINE
  5
10ACB
  8
AM_0
 10
587.19777530059412
 20
224.37555893187709
 30
0.0
 11
650.19777717814191
 21
225.4752280551275
 31
0.0
  0
LINE
  5
10ACC
  8
AM_0
 10
561.60777491316514
 20
231.6255592597027
 30
0.0
 11
568.10777491316446
 21
231.6255592597027
 31
0.0
  0
LINE
  5
10ACD
  8
AM_0
 10
561.60777491316514
 20
227.87555925970281
 30
0.0
 11
568.10777491316503
 21
227.87555925970281
 31
0.0
  0
LINE
  5
10ACE
  8
AM_0
 10
561.60777491316514
 20
239.12555925970281
 30
0.0
 11
568.10777491316503
 21
239.12555925970261
 31
0.0
  0
LINE
  5
10ACF
  8
AM_0
 10
561.60777491316514
 20
242.87555925970281
 30
0.0
 11
568.10777491316503
 21
242.87555925970261
 31
0.0
  0
LINE
  5
10AD0
  8
AM_0
 10
561.28777717814137
 20
239.3755592597027
 30
0.0
 11
561.28777717814137
 21
231.3755592597027
 31
0.0
  0
LINE
  5
10AD1
  8
AM_0
 10
561.60777491316514
 20
242.87555925970281
 30
0.0
 11
561.60777491316514
 21
227.87555925970281
 31
0.0
  0
LINE
  5
10AD3
  8
AM_0
 10
563.69777343795033
 20
227.87555925970281
 30
0.0
 11
548.69777491316495
 21
212.87556073491771
 31
0.0
  0
LINE
  5
10AD4
  8
AM_0
 10
561.60777491316514
 20
231.3755592597027
 30
0.0
 11
561.28777717814114
 21
231.3755592597027
 31
0.0
  0
ARC
  5
10ADA
  8
AM_0
 10
556.23841192366274
 20
243.41300950781769
 30
0.0
 40
1.9655366667591301
 50
270.64955321106549
 51
86.841529773925188
  0
LINE
  5
10ADB
  8
AM_0
 10
555.16287654895098
 20
239.34185839958371
 30
0.0
 11
561.28777717814137
 21
239.12797215655169
 31
0.0
  0
LINE
  5
10ADC
  8
AM_0
 10
555.16287654895098
 20
241.40926250400759
 30
0.0
 11
561.60777491316514
 21
241.63432331418221
 31
0.0
  0
ARC
  5
10ADE
  8
AM_0
 10
555.19777604565354
 20
240.4098716769887
 30
0.0
 40
1.0
 50
91.999999999997158
 51
180.00000000000321
1001
GENIUS_GENODEF_13
1002
{
1000
HIER
1070
     0
1002
}
1002
{
1000
MANEDIT
1070
     0
1002
}
1002
{
1000
NOSEL
1070
     0
1002
}
1002
{
1000
BEHIND
1070
     0
1002
}
1002
{
1000
REACTOR
1002
}
1001
GENIUS_GENOBJ-N-FIL_13
1002
{
1000
OWNER
1000
GEN
1002
}
  0
ARC
  5
10ADF
  8
AM_0
 10
555.19777604565354
 20
240.3412492266026
 30
0.0
 40
1.0
 50
179.99999999999659
 51
267.99999999999642
1001
GENIUS_GENODEF_13
1002
{
1000
HIER
1070
     0
1002
}
1002
{
1000
MANEDIT
1070
     0
1002
}
1002
{
1000
NOSEL
1070
     0
1002
}
1002
{
1000
BEHIND
1070
     0
1002
}
1002
{
1000
REACTOR
1002
}
1001
GENIUS_GENOBJ-N-FIL_13
1002
{
1000
OWNER
1000
GEN
1002
}
  0
LINE
  5
10AE0
  8
AM_0
 10
554.19777604565354
 20
240.4098716769887
 30
0.0
 11
554.19777604565354
 21
240.3412492266026
 31
0.0
  0
LINE
  5
10AE1
  8
AM_5
 10
561.60777491316514
 20
238.37555925970281
 30
0.0
 11
561.28777717814137
 21
238.37555925970281
 31
0.0
  0
LINE
  5
10AE2
  8
AM_0
 10
561.60777491316514
 20
239.3755592597027
 30
0.0
 11
561.28777717814137
 21
239.3755592597027
 31
0.0
  0
LINE
  5
10AE3
  8
AM_5
 10
561.60777491316514
 20
232.37555925970281
 30
0.0
 11
561.28777717814114
 21
232.37555925970281
 31
0.0
  0
LINE
  5
10AE4
  8
AM_0
 10
568.10777491316503
 20
243.8755592597027
 30
0.0
 11
568.10777491316446
 21
226.8755592597027
 31
0.0
  0
LINE
  5
10AE5
  8
AM_0
 10
569.69777491316461
 20
245.3755592597031
 30
0.0
 11
569.69777491316461
 21
212.8755607349176
 31
0.0
  0
LINE
  5
10AE6
  8
AM_0
 10
578.2908246567963
 20
221.37556045179579
 30
0.0
 11
586.02624518448863
 21
221.37556045179559
 31
0.0
  0
LINE
  5
10AE7
  8
AM_0
 10
587.19777530059559
 20
224.37555893187721
 30
0.0
 11
574.19777491316529
 21
224.60247478270659
 31
0.0
  0
LINE
  5
10AE8
  8
AM_0
 10
578.24424191205037
 20
220.04160517462529
 30
0.0
 11
578.40094896753442
 21
224.529108106683
 31
0.0
  0
LINE
  5
10AE9
  8
AM_0
 10
576.17367622294455
 20
220.0656890789657
 30
0.0
 11
576.01635668129961
 21
224.5707313198665
 31
0.0
  0
ARC
  5
10AEA
  8
AM_0
 10
577.17306704996361
 20
220.10058857566801
 30
0.0
 40
1.0
 50
182.00000000000691
 51
251.43341919809691
1001
GENIUS_GENODEF_13
1002
{
1000
HIER
1070
     0
1002
}
1002
{
1000
MANEDIT
1070
     0
1002
}
1002
{
1000
NOSEL
1070
     0
1002
}
1002
{
1000
BEHIND
1070
     0
1002
}
1002
{
1000
REACTOR
1002
}
1001
GENIUS_GENOBJ-N-FIL_13
1002
{
1000
OWNER
1000
GEN
1002
}
  0
ARC
  5
10AEB
  8
AM_0
 10
577.2448510850312
 20
220.07650467132811
 30
0.0
 40
1.0
 50
251.47285768553181
 51
357.99999999999642
1001
GENIUS_GENODEF_13
1002
{
1000
HIER
1070
     0
1002
}
1002
{
1000
MANEDIT
1070
     0
1002
}
1002
{
1000
NOSEL
1070
     0
1002
}
1002
{
1000
BEHIND
1070
     0
1002
}
1002
{
1000
REACTOR
1002
}
1001
GENIUS_GENOBJ-N-FIL_13
1002
{
1000
OWNER
1000
GEN
1002
}
  0
ARC
  5
10AEC
  8
AM_0
 10
612.19777604565354
 20
324.37556045179571
 30
0.0
 40
111.0
 50
251.43341919810379
 51
251.47285768553181
  0
LINE
  5
10AED
  8
AM_0
 10
568.10777491316446
 20
226.8755592597027
 30
0.0
 11
569.69777491316495
 21
226.8755592597027
 31
0.0
  0
LINE
  5
10AEE
  8
AM_0
 10
586.17116531969407
 20
217.22559075425681
 30
0.0
 11
585.92070449786308
 21
224.3978502856568
 31
0.0
  0
LINE
  5
10AEF
  8
AM_0
 10
588.23996196869791
 20
217.20925601993409
 30
0.0
 11
588.48040370196918
 21
224.09460639367549
 31
0.0
  0
LINE
  5
10AF0
  8
AM_0
 10
596.16852868958722
 20
215.37230126882341
 30
0.0
 11
595.96298628574016
 21
221.25826560577241
 31
0.0
  0
ARC
  5
10AF1
  8
AM_0
 10
587.24057114167874
 20
217.24415551663671
 30
0.0
 40
1.0
 50
256.88632985670131
 51
357.99999999999642
1001
GENIUS_GENODEF_13
1002
{
1000
HIER
1070
     0
1002
}
1002
{
1000
MANEDIT
1070
     0
1002
}
1002
{
1000
NOSEL
1070
     0
1002
}
1002
{
1000
BEHIND
1070
     0
1002
}
1002
{
1000
REACTOR
1002
}
1001
GENIUS_GENOBJ-N-FIL_13
1002
{
1000
OWNER
1000
GEN
1002
}
  0
ARC
  5
10AF2
  8
AM_0
 10
587.17055614671335
 20
217.26049025095941
 30
0.0
 40
1.0
 50
181.99999999999719
 51
256.8488817393515
1001
GENIUS_GENODEF_13
1002
{
1000
HIER
1070
     0
1002
}
1002
{
1000
MANEDIT
1070
     0
1002
}
1002
{
1000
NOSEL
1070
     0
1002
}
1002
{
1000
BEHIND
1070
     0
1002
}
1002
{
1000
REACTOR
1002
}
1001
GENIUS_GENOBJ-N-FIL_13
1002
{
1000
OWNER
1000
GEN
1002
}
  0
ARC
  5
10AF3
  8
AM_0
 10
612.19777604565354
 20
324.37556045179571
 30
0.0
 40
111.0
 50
256.8488817393515
 51
256.88632985669449
  0
ARC
  5
10AF4
  8
AM_0
 10
597.1679195166065
 20
215.407200765526
 30
0.0
 40
1.0
 50
181.99999999999719
 51
262.14682191119391
1001
GENIUS_GENODEF_13
1002
{
1000
HIER
1070
     0
1002
}
1002
{
1000
MANEDIT
1070
     0
1002
}
1002
{
1000
NOSEL
1070
     0
1002
}
1002
{
1000
BEHIND
1070
     0
1002
}
1002
{
1000
REACTOR
1002
}
1001
GENIUS_GENOBJ-N-FIL_13
1002
{
1000
OWNER
1000
GEN
1002
}
  0
ARC
  5
10AF5
  8
AM_0
 10
612.19777604565354
 20
324.37556045179571
 30
0.0
 40
111.0
 50
262.14682191118732
 51
262.18305216830549
  0
ARC
  5
10AF6
  8
AM_0
 10
597.23682727254095
 20
215.39771861315259
 30
0.0
 40
1.0
 50
262.18305216830549
 51
357.99999999999949
1001
GENIUS_GENODEF_13
1002
{
1000
HIER
1070
     0
1002
}
1002
{
1000
MANEDIT
1070
     0
1002
}
1002
{
1000
NOSEL
1070
     0
1002
}
1002
{
1000
BEHIND
1070
     0
1002
}
1002
{
1000
REACTOR
1002
}
1001
GENIUS_GENOBJ-N-FIL_13
1002
{
1000
OWNER
1000
GEN
1002
}
  0
LINE
  5
10AF7
  8
AM_0
 10
598.23621809956023
 20
215.36281911645
 30
0.0
 11
598.41846118542628
 21
220.5815782823758
 31
0.0
  0
LINE
  5
10AF8
  8
AM_0
 10
570.19777479395611
 20
247.87555963223161
 30
0.0
 11
574.19777491316529
 21
247.87555963223161
 31
0.0
  0
LINE
  5
10AF9
  8
0
 10
569.69777491316461
 20
245.37555925970301
 30
0.0
 11
574.19777491316529
 21
245.37555925970301
 31
0.0
  0
LINE
  5
10AFA
  8
AM_0
 10
568.10777491316446
 20
243.8755592597027
 30
0.0
 11
569.69777491316495
 21
243.8755592597027
 31
0.0
  0
ARC
  5
10AFC
  8
AM_0
 10
617.16206866341702
 20
214.48763664392129
 30
0.0
 40
1.0
 50
182.00000000000369
 51
272.58663322877328
1001
GENIUS_GENODEF_13
1002
{
1000
HIER
1070
     0
1002
}
1002
{
1000
MANEDIT
1070
     0
1002
}
1002
{
1000
NOSEL
1070
     0
1002
}
1002
{
1000
BEHIND
1070
     0
1002
}
1002
{
1000
REACTOR
1002
}
1001
GENIUS_GENOBJ-N-FIL_13
1002
{
1000
OWNER
1000
GEN
1002
}
  0
ARC
  5
10AFD
  8
AM_0
 10
612.19777604565354
 20
324.37556045179571
 30
0.0
 40
111.0
 50
267.37771591204711
 51
267.41336677122672
  0
ARC
  5
10AFE
  8
AM_0
 10
607.16510939377395
 20
214.4907468223816
 30
0.0
 40
1.0
 50
182.0000000000004
 51
267.37771591204711
1001
GENIUS_GENODEF_13
1002
{
1000
HIER
1070
     0
1002
}
1002
{
1000
MANEDIT
1070
     0
1002
}
1002
{
1000
NOSEL
1070
     0
1002
}
1002
{
1000
BEHIND
1070
     0
1002
}
1002
{
1000
REACTOR
1002
}
1001
GENIUS_GENOBJ-N-FIL_13
1002
{
1000
OWNER
1000
GEN
1002
}
  0
ARC
  5
10AFF
  8
AM_0
 10
607.23348342789029
 20
214.48763664392129
 30
0.0
 40
1.0
 50
267.41336677122672
 51
357.99999999999642
1001
GENIUS_GENODEF_13
1002
{
1000
HIER
1070
     0
1002
}
1002
{
1000
MANEDIT
1070
     0
1002
}
1002
{
1000
NOSEL
1070
     0
1002
}
1002
{
1000
BEHIND
1070
     0
1002
}
1002
{
1000
REACTOR
1002
}
1001
GENIUS_GENOBJ-N-FIL_13
1002
{
1000
OWNER
1000
GEN
1002
}
  0
LINE
  5
10B00
  8
AM_0
 10
606.165718566755
 20
214.455847325679
 30
0.0
 11
605.99947009290725
 21
219.2165807306848
 31
0.0
  0
LINE
  5
10B01
  8
AM_0
 10
608.23287425490935
 20
214.4527371472185
 30
0.0
 11
608.39180421626986
 21
219.0038957749924
 31
0.0
  0
LINE
  5
10B02
  8
AM_0
 10
616.16267783639819
 20
214.4527371472185
 30
0.0
 11
616.00374787503688
 21
219.0038957749924
 31
0.0
  0
LINE
  5
10B03
  8
AM_0
 10
628.22702340171975
 20
215.37230126882341
 30
0.0
 11
628.43256580556704
 21
221.25826560577241
 31
0.0
  0
ARC
  5
10B04
  8
AM_0
 10
612.19777604565354
 20
324.37556045179571
 30
0.0
 40
111.0
 50
272.58663322877328
 51
272.62228408795289
  0
ARC
  5
10B05
  8
AM_0
 10
617.23044269753302
 20
214.4907468223816
 30
0.0
 40
1.0
 50
272.62228408795289
 51
357.99999999999949
1001
GENIUS_GENODEF_13
1002
{
1000
HIER
1070
     0
1002
}
1002
{
1000
MANEDIT
1070
     0
1002
}
1002
{
1000
NOSEL
1070
     0
1002
}
1002
{
1000
BEHIND
1070
     0
1002
}
1002
{
1000
REACTOR
1002
}
1001
GENIUS_GENOBJ-N-FIL_13
1002
{
1000
OWNER
1000
GEN
1002
}
  0
LINE
  5
10B06
  8
AM_0
 10
618.22983352455219
 20
214.455847325679
 30
0.0
 11
618.39608199839995
 21
219.2165807306848
 31
0.0
  0
ARC
  5
10B07
  8
AM_0
 10
627.22763257470069
 20
215.407200765526
 30
0.0
 40
1.0
 50
277.85317808880609
 51
357.99999999999949
1001
GENIUS_GENODEF_13
1002
{
1000
HIER
1070
     0
1002
}
1002
{
1000
MANEDIT
1070
     0
1002
}
1002
{
1000
NOSEL
1070
     0
1002
}
1002
{
1000
BEHIND
1070
     0
1002
}
1002
{
1000
REACTOR
1002
}
1001
GENIUS_GENOBJ-N-FIL_13
1002
{
1000
OWNER
1000
GEN
1002
}
  0
ARC
  5
10B08
  8
AM_0
 10
612.19777604565354
 20
324.37556045179571
 30
0.0
 40
111.0
 50
277.81694783169439
 51
277.8531780888128
  0
ARC
  5
10B09
  8
AM_0
 10
627.15872481876625
 20
215.39771861315259
 30
0.0
 40
1.0
 50
182.0000000000004
 51
277.81694783169439
1001
GENIUS_GENODEF_13
1002
{
1000
HIER
1070
     0
1002
}
1002
{
1000
MANEDIT
1070
     0
1002
}
1002
{
1000
NOSEL
1070
     0
1002
}
1002
{
1000
BEHIND
1070
     0
1002
}
1002
{
1000
REACTOR
1002
}
1001
GENIUS_GENOBJ-N-FIL_13
1002
{
1000
OWNER
1000
GEN
1002
}
  0
LINE
  5
10B0A
  8
AM_0
 10
626.1593339917473
 20
215.36281911645
 30
0.0
 11
625.97709090588069
 21
220.5815782823758
 31
0.0
  0
LINE
  5
10B0B
  8
AM_0
 10
656.28777717814137
 20
243.8755592597027
 30
0.0
 11
656.28777717814137
 21
226.8755592597027
 31
0.0
  0
LINE
  5
10B0C
  8
AM_0
 10
664.28777717814125
 20
241.87555925970261
 30
0.0
 11
664.28777717814125
 21
228.8755592597027
 31
0.0
  0
LINE
  5
10B0D
  8
AM_0
 10
654.69777717814145
 20
245.3755592597031
 30
0.0
 11
654.69777717814145
 21
212.8755607349176
 31
0.0
  0
LINE
  5
10B0E
  8
AM_0
 10
648.22187586836253
 20
220.06568907896539
 30
0.0
 11
648.40969121440082
 21
225.44401689853311
 31
0.0
  0
LINE
  5
10B0F
  8
AM_0
 10
646.15131017925671
 20
220.04160517462529
 30
0.0
 11
645.9641444738196
 21
225.40132972139131
 31
0.0
  0
LINE
  5
10B10
  8
AM_0
 10
638.2243867716129
 20
217.22559075425681
 30
0.0
 11
638.50534339783724
 21
225.27113586432341
 31
0.0
  0
LINE
  5
10B11
  8
AM_0
 10
636.15559012260917
 20
217.2092560199338
 30
0.0
 11
635.91514838933801
 21
224.09460639367549
 31
0.0
  0
ARC
  5
10B12
  8
AM_0
 10
612.19777604565354
 20
324.37556045179571
 30
0.0
 40
111.0
 50
283.11367014330528
 51
283.1511182606485
  0
ARC
  5
10B13
  8
AM_0
 10
637.15498094962845
 20
217.24415551663671
 30
0.0
 40
1.0
 50
182.00000000000369
 51
283.1136701432988
1001
GENIUS_GENODEF_13
1002
{
1000
HIER
1070
     0
1002
}
1002
{
1000
MANEDIT
1070
     0
1002
}
1002
{
1000
NOSEL
1070
     0
1002
}
1002
{
1000
BEHIND
1070
     0
1002
}
1002
{
1000
REACTOR
1002
}
1001
GENIUS_GENOBJ-N-FIL_13
1002
{
1000
OWNER
1000
GEN
1002
}
  0
ARC
  5
10B14
  8
AM_0
 10
637.22499594459373
 20
217.26049025095941
 30
0.0
 40
1.0
 50
283.1511182606485
 51
357.99999999999949
1001
GENIUS_GENODEF_13
1002
{
1000
HIER
1070
     0
1002
}
1002
{
1000
MANEDIT
1070
     0
1002
}
1002
{
1000
NOSEL
1070
     0
1002
}
1002
{
1000
BEHIND
1070
     0
1002
}
1002
{
1000
REACTOR
1002
}
1001
GENIUS_GENOBJ-N-FIL_13
1002
{
1000
OWNER
1000
GEN
1002
}
  0
ARC
  5
10B15
  8
AM_0
 10
647.15070100627611
 20
220.07650467132811
 30
0.0
 40
1.0
 50
182.0000000000004
 51
288.52714231446828
1001
GENIUS_GENODEF_13
1002
{
1000
HIER
1070
     0
1002
}
1002
{
1000
MANEDIT
1070
     0
1002
}
1002
{
1000
NOSEL
1070
     0
1002
}
1002
{
1000
BEHIND
1070
     0
1002
}
1002
{
1000
REACTOR
1002
}
1001
GENIUS_GENOBJ-N-FIL_13
1002
{
1000
OWNER
1000
GEN
1002
}
  0
ARC
  5
10B16
  8
AM_0
 10
647.22248504134325
 20
220.10058857566801
 30
0.0
 40
1.0
 50
288.56658080190323
 51
357.99999999999301
1001
GENIUS_GENODEF_13
1002
{
1000
HIER
1070
     0
1002
}
1002
{
1000
MANEDIT
1070
     0
1002
}
1002
{
1000
NOSEL
1070
     0
1002
}
1002
{
1000
BEHIND
1070
     0
1002
}
1002
{
1000
REACTOR
1002
}
1001
GENIUS_GENOBJ-N-FIL_13
1002
{
1000
OWNER
1000
GEN
1002
}
  0
ARC
  5
10B17
  8
AM_0
 10
612.19777604565354
 20
324.37556045179571
 30
0.0
 40
111.0
 50
288.52714231446828
 51
288.56658080189618
  0
LINE
  5
10B18
  8
AM_0
 10
646.10472743451055
 20
221.37556045179579
 30
0.0
 11
638.36930690681822
 21
221.37556045179559
 31
0.0
  0
LINE
  5
10B19
  8
AM_0
 10
656.28777717814137
 20
228.8755592597027
 30
0.0
 11
664.28777717814125
 21
228.8755592597027
 31
0.0
  0
LINE
  5
10B1A
  8
AM_0
 10
656.28777717814137
 20
226.8755592597027
 30
0.0
 11
654.69777717814145
 21
226.8755592597027
 31
0.0
  0
LINE
  5
10B1B
  8
AM_0
 10
654.19777729735119
 20
247.87555963223161
 30
0.0
 11
650.19777717814191
 21
247.87555963223161
 31
0.0
  0
LINE
  5
10B1C
  8
0
 10
654.69777717814225
 20
245.37555925970301
 30
0.0
 11
650.19777717814179
 21
245.37555925970301
 31
0.0
  0
ARC
  5
10B1D
  8
AM_0
 10
659.69777604565365
 20
242.09268197050989
 30
0.0
 40
1.5
 50
144.98137173791559
 51
180.0
1001
GENIUS_GENODEF_13
1002
{
1000
HIER
1070
     0
1002
}
1002
{
1000
MANEDIT
1070
     0
1002
}
1002
{
1000
NOSEL
1070
     0
1002
}
1002
{
1000
BEHIND
1070
     0
1002
}
1002
{
1000
REACTOR
1002
}
1001
GENIUS_GENOBJ-N-FIL_13
1002
{
1000
OWNER
1000
GEN
1002
}
  0
LINE
  5
10B1E
  8
AM_0
 10
656.28777717814137
 20
241.87555925970261
 30
0.0
 11
664.28777717814125
 21
241.87555925970261
 31
0.0
  0
LINE
  5
10B1F
  8
AM_0
 10
658.19777604565365
 20
241.87555925970261
 30
0.0
 11
658.19777604565365
 21
242.09268197051
 31
0.0
1001
GENIUS_GENODEF_13
1002
{
1000
HIER
1070
     0
1002
}
1002
{
1000
MANEDIT
1070
     0
1002
}
1002
{
1000
NOSEL
1070
     0
1002
}
1002
{
1000
BEHIND
1070
     0
1002
}
1002
{
1000
REACTOR
1002
}
1001
GENIUS_GENOBJ-N-CEN_13
1002
{
1000
OWNER
1000
GEN
1002
}
  0
LINE
  5
10B20
  8
AM_0
 10
656.28777717814137
 20
243.8755592597027
 30
0.0
 11
654.69777717814145
 21
243.8755592597027
 31
0.0
  0
LINE
  5
10B21
  8
AM_0
 10
657.19777776675824
 20
290.37556089883032
 30
0.0
 11
657.19777776675824
 21
260.37556000476059
 31
0.0
  0
LINE
  5
10B22
  8
AM_0
 10
657.19777776675824
 20
260.37556000476059
 30
0.0
 11
654.19777767735127
 21
260.37556000476059
 31
0.0
  0
LINE
  5
10B23
  8
AM_0
 10
657.19777776675824
 20
290.37556089883032
 30
0.0
 11
654.19777767735127
 21
290.37556089883032
 31
0.0
  0
LINE
  5
10B24
  8
AM_0
 10
675.69777717814225
 20
212.8755607349174
 30
0.0
 11
675.69777717814213
 21
209.8755607349176
 31
0.0
  0
LINE
  5
10B26
  8
ﾁｭｳｼﾝｾﾝ1
 10
677.19777583703672
 20
219.875560734918
 30
0.0
 11
677.19777583703672
 21
195.3755607349176
 31
0.0
  0
LINE
  5
10B2A
  8
ｶｸﾚｾﾝ2
 10
672.1977758370366
 20
205.37556073491771
 30
0.0
 11
672.1977758370366
 21
209.87556073491771
 31
0.0
  0
LINE
  5
10B2B
  8
ｶｸﾚｾﾝ2
 10
682.19777583703694
 20
205.37556073491771
 30
0.0
 11
682.19777583703694
 21
209.87556073491771
 31
0.0
  0
LINE
  5
10B2C
  8
AM_0
 10
687.19777717814065
 20
209.8755607349176
 30
0.0
 11
687.19777717814065
 21
205.3755607349176
 31
0.0
  0
ARC
  5
10B2E
  8
AM_0
 10
667.47274792178098
 20
240.35085145610589
 30
0.0
 40
1.0
 50
272.00000000000369
 51
341.433419198097
1001
GENIUS_GENODEF_13
1002
{
1000
HIER
1070
     0
1002
}
1002
{
1000
MANEDIT
1070
     0
1002
}
1002
{
1000
NOSEL
1070
     0
1002
}
1002
{
1000
BEHIND
1070
     0
1002
}
1002
{
1000
REACTOR
1002
}
1001
GENIUS_GENOBJ-N-FIL_13
1002
{
1000
OWNER
1000
GEN
1002
}
  0
ARC
  5
10B2F
  8
AM_0
 10
667.49683182612091
 20
240.42263549117331
 30
0.0
 40
1.0
 50
341.4728576855286
 51
88.000000000002856
1001
GENIUS_GENODEF_13
1002
{
1000
HIER
1070
     0
1002
}
1002
{
1000
MANEDIT
1070
     0
1002
}
1002
{
1000
NOSEL
1070
     0
1002
}
1002
{
1000
BEHIND
1070
     0
1002
}
1002
{
1000
REACTOR
1002
}
1001
GENIUS_GENOBJ-N-FIL_13
1002
{
1000
OWNER
1000
GEN
1002
}
  0
ARC
  5
10B30
  8
AM_0
 10
563.19777604565354
 20
275.37556045179559
 30
0.0
 40
111.0
 50
341.43341919810172
 51
341.4728576855286
  0
ARC
  5
10B31
  8
AM_0
 10
670.3128462464897
 20
250.34834055285529
 30
0.0
 40
1.0
 50
271.9999999999971
 51
346.84888173935059
1001
GENIUS_GENODEF_13
1002
{
1000
HIER
1070
     0
1002
}
1002
{
1000
MANEDIT
1070
     0
1002
}
1002
{
1000
NOSEL
1070
     0
1002
}
1002
{
1000
BEHIND
1070
     0
1002
}
1002
{
1000
REACTOR
1002
}
1001
GENIUS_GENOBJ-N-FIL_13
1002
{
1000
OWNER
1000
GEN
1002
}
  0
ARC
  5
10B32
  8
AM_0
 10
563.19777604565354
 20
275.37556045179559
 30
0.0
 40
111.0
 50
346.84888173935059
 51
346.88632985670228
  0
ARC
  5
10B33
  8
AM_0
 10
670.32918098081223
 20
250.41835554782091
 30
0.0
 40
1.0
 50
346.88632985670228
 51
87.999999999996362
1001
GENIUS_GENODEF_13
1002
{
1000
HIER
1070
     0
1002
}
1002
{
1000
MANEDIT
1070
     0
1002
}
1002
{
1000
NOSEL
1070
     0
1002
}
1002
{
1000
BEHIND
1070
     0
1002
}
1002
{
1000
REACTOR
1002
}
1001
GENIUS_GENOBJ-N-FIL_13
1002
{
1000
OWNER
1000
GEN
1002
}
  0
LINE
  5
10B34
  8
AM_0
 10
681.19777776675824
 20
284.87556045179531
 30
0.0
 11
709.19777776675824
 21
284.87556045179531
 31
0.0
  0
LINE
  5
10B35
  8
AM_0
 10
709.19777776675824
 20
265.87556045179548
 30
0.0
 11
681.19777776675824
 21
265.87556044883343
 31
0.0
  0
LINE
  5
10B36
  8
AM_0
 10
709.19777776675824
 20
287.37556045179531
 30
0.0
 11
687.19777776675824
 21
287.37556045179531
 31
0.0
  0
LINE
  5
10B37
  8
AM_0
 10
681.19777776675824
 20
287.37556045179531
 30
0.0
 11
681.19777776675824
 21
263.37556045179542
 31
0.0
  0
ARC
  5
10B39
  8
AM_0
 10
672.17561788429634
 20
260.414611678683
 30
0.0
 40
1.0
 50
352.18305216830908
 51
88.000000000002856
1001
GENIUS_GENODEF_13
1002
{
1000
HIER
1070
     0
1002
}
1002
{
1000
MANEDIT
1070
     0
1002
}
1002
{
1000
NOSEL
1070
     0
1002
}
1002
{
1000
BEHIND
1070
     0
1002
}
1002
{
1000
REACTOR
1002
}
1001
GENIUS_GENOBJ-N-FIL_13
1002
{
1000
OWNER
1000
GEN
1002
}
  0
ARC
  5
10B3A
  8
AM_0
 10
563.19777604565354
 20
275.37556045179559
 30
0.0
 40
111.0
 50
352.14682191119272
 51
352.1830521683043
  0
ARC
  5
10B3C
  8
AM_0
 10
672.16613573192319
 20
260.34570392274838
 30
0.0
 40
1.0
 50
271.9999999999971
 51
352.14682191119408
1001
GENIUS_GENODEF_13
1002
{
1000
HIER
1070
     0
1002
}
1002
{
1000
MANEDIT
1070
     0
1002
}
1002
{
1000
NOSEL
1070
     0
1002
}
1002
{
1000
BEHIND
1070
     0
1002
}
1002
{
1000
REACTOR
1002
}
1001
GENIUS_GENOBJ-N-FIL_13
1002
{
1000
OWNER
1000
GEN
1002
}
  0
ARC
  5
10B3E
  8
AM_0
 10
672.16613573192319
 20
290.40541698084292
 30
0.0
 40
1.0
 50
7.8531780888057723
 51
88.000000000002856
1001
GENIUS_GENODEF_13
1002
{
1000
HIER
1070
     0
1002
}
1002
{
1000
MANEDIT
1070
     0
1002
}
1002
{
1000
NOSEL
1070
     0
1002
}
1002
{
1000
BEHIND
1070
     0
1002
}
1002
{
1000
REACTOR
1002
}
1001
GENIUS_GENOBJ-N-FIL_13
1002
{
1000
OWNER
1000
GEN
1002
}
  0
ARC
  5
10B3F
  8
AM_0
 10
563.19777604565354
 20
275.37556045179559
 30
0.0
 40
111.0
 50
7.8169478316908387
 51
7.8531780888073861
  0
ARC
  5
10B40
  8
AM_0
 10
672.17561788429634
 20
290.3365092249083
 30
0.0
 40
1.0
 50
271.9999999999971
 51
7.8169478316908387
1001
GENIUS_GENODEF_13
1002
{
1000
HIER
1070
     0
1002
}
1002
{
1000
MANEDIT
1070
     0
1002
}
1002
{
1000
NOSEL
1070
     0
1002
}
1002
{
1000
BEHIND
1070
     0
1002
}
1002
{
1000
REACTOR
1002
}
1001
GENIUS_GENOBJ-N-FIL_13
1002
{
1000
OWNER
1000
GEN
1002
}
  0
LINE
  5
10B41
  8
AM_0
 10
687.19777776675824
 20
287.37556045179531
 30
0.0
 11
687.19777776675824
 21
284.87556045179531
 31
0.0
  0
LINE
  5
10B42
  8
AM_0
 10
709.19777776675824
 20
265.87556045179548
 30
0.0
 11
709.19777776675824
 21
287.37556045179531
 31
0.0
  0
LINE
  5
10B43
  8
AM_0
 10
670.34774574319215
 20
301.40217117775478
 30
0.0
 11
662.30220063312561
 21
301.68312780397918
 31
0.0
  0
LINE
  5
10B44
  8
AM_0
 10
670.36408047751513
 20
299.33337452875151
 30
0.0
 11
663.47873010377373
 21
299.09293279548018
 31
0.0
  0
LINE
  5
10B45
  8
AM_0
 10
667.50764741848354
 20
311.3996602745047
 30
0.0
 11
658.19777604565365
 21
311.72476814671307
 31
0.0
  0
LINE
  5
10B46
  8
AM_0
 10
667.53173132282348
 20
309.32909458539882
 30
0.0
 11
658.19777604565354
 21
309.0031456847185
 31
0.0
  0
ARC
  5
10E4A
  8
AM_0
 10
612.19777604565365
 20
275.37556045179548
 30
0.0
 40
56.5
 50
62.482124634797437
 51
115.5178753651998
  0
LINE
  5
10E4B
  8
AM_0
 10
587.19777530059423
 20
326.37556197171398
 30
0.0
 11
650.19777717814202
 21
325.2758928484634
 31
0.0
  0
ARC
  5
10E4C
  8
AM_0
 10
571.19777604565365
 20
316.37556045179548
 30
0.0
 40
5.0
 50
90.0
 51
180.0
1001
GENIUS_GENODEF_13
1002
{
1000
HIER
1070
     0
1002
}
1002
{
1000
MANEDIT
1070
     0
1002
}
1002
{
1000
NOSEL
1070
     0
1002
}
1002
{
1000
BEHIND
1070
     0
1002
}
1002
{
1000
REACTOR
1002
}
1001
GENIUS_GENOBJ-N-FIL_13
1002
{
1000
OWNER
1000
GEN
1002
}
  0
ARC
  5
10E51
  8
AM_0
 10
556.23841192366274
 20
307.33811139577358
 30
0.0
 40
1.9655366667591301
 50
273.15847022607483
 51
89.350446788927897
  0
LINE
  5
10E52
  8
AM_0
 10
555.16287654895098
 20
309.34185839958371
 30
0.0
 11
566.19777604565365
 21
308.9565112178949
 31
0.0
  0
LINE
  5
10E53
  8
AM_0
 10
555.16287654895098
 20
311.40926250400759
 30
0.0
 11
566.19777604565377
 21
311.79460968569703
 31
0.0
  0
ARC
  5
10E54
  8
AM_0
 10
555.19777604565354
 20
310.4098716769887
 30
0.0
 40
1.0
 50
91.999999999997158
 51
180.0
1001
GENIUS_GENODEF_13
1002
{
1000
HIER
1070
     0
1002
}
1002
{
1000
MANEDIT
1070
     0
1002
}
1002
{
1000
NOSEL
1070
     0
1002
}
1002
{
1000
BEHIND
1070
     0
1002
}
1002
{
1000
REACTOR
1002
}
1001
GENIUS_GENOBJ-N-FIL_13
1002
{
1000
OWNER
1000
GEN
1002
}
  0
ARC
  5
10E55
  8
AM_0
 10
555.19777604565354
 20
310.34124922660271
 30
0.0
 40
1.0
 50
179.99999999999349
 51
267.99999999999642
1001
GENIUS_GENODEF_13
1002
{
1000
HIER
1070
     0
1002
}
1002
{
1000
MANEDIT
1070
     0
1002
}
1002
{
1000
NOSEL
1070
     0
1002
}
1002
{
1000
BEHIND
1070
     0
1002
}
1002
{
1000
REACTOR
1002
}
1001
GENIUS_GENOBJ-N-FIL_13
1002
{
1000
OWNER
1000
GEN
1002
}
  0
LINE
  5
10E56
  8
AM_0
 10
554.19777604565354
 20
310.34124922660271
 30
0.0
 11
554.19777604565354
 21
310.4098716769887
 31
0.0
  0
ARC
  5
10E57
  8
AM_0
 10
564.69777604565365
 20
308.6584389330805
 30
0.0
 40
1.5
 50
324.98137173791582
 51
0.0
1001
GENIUS_GENODEF_13
1002
{
1000
HIER
1070
     0
1002
}
1002
{
1000
MANEDIT
1070
     0
1002
}
1002
{
1000
NOSEL
1070
     0
1002
}
1002
{
1000
BEHIND
1070
     0
1002
}
1002
{
1000
REACTOR
1002
}
1001
GENIUS_GENOBJ-N-FIL_13
1002
{
1000
OWNER
1000
GEN
1002
}
  0
LINE
  5
10E58
  8
AM_0
 10
566.19777604565365
 20
308.65843893308062
 30
0.0
 11
566.19777604565365
 21
316.37556045179548
 31
0.0
1001
GENIUS_GENODEF_13
1002
{
1000
HIER
1070
     0
1002
}
1002
{
1000
MANEDIT
1070
     0
1002
}
1002
{
1000
NOSEL
1070
     0
1002
}
1002
{
1000
BEHIND
1070
     0
1002
}
1002
{
1000
REACTOR
1002
}
1001
GENIUS_GENOBJ-N-CEN_13
1002
{
1000
OWNER
1000
GEN
1002
}
  0
LINE
  5
10E59
  8
AM_0
 10
570.19777479395611
 20
302.87556127135929
 30
0.0
 11
574.19777491316529
 21
302.87556127135929
 31
0.0
  0
LINE
  5
10E5A
  8
AM_0
 10
578.2908246567963
 20
329.37556045179548
 30
0.0
 11
586.02624518448863
 21
329.37556045179571
 31
0.0
  0
LINE
  5
10E5B
  8
AM_0
 10
587.19777530059582
 20
326.37556197171392
 30
0.0
 11
574.19777491316552
 21
326.14864612088451
 31
0.0
  0
LINE
  5
10E5C
  8
AM_0
 10
578.24424191205037
 20
330.70951572896598
 30
0.0
 11
578.40094896753442
 21
326.22201279690807
 31
0.0
  0
LINE
  5
10E5D
  8
AM_0
 10
576.17367622294455
 20
330.6854318246256
 30
0.0
 11
576.0163566812995
 21
326.1803895837246
 31
0.0
  0
LINE
  5
10E5E
  8
AM_0
 10
574.19777604565365
 20
321.37556045179559
 30
0.0
 11
571.19777604565365
 21
321.37556045179559
 31
0.0
  0
ARC
  5
10E5F
  8
AM_0
 10
577.17306704996361
 20
330.65053232792332
 30
0.0
 40
1.0
 50
108.5665808019031
 51
177.99999999999301
1001
GENIUS_GENODEF_13
1002
{
1000
HIER
1070
     0
1002
}
1002
{
1000
MANEDIT
1070
     0
1002
}
1002
{
1000
NOSEL
1070
     0
1002
}
1002
{
1000
BEHIND
1070
     0
1002
}
1002
{
1000
REACTOR
1002
}
1001
GENIUS_GENOBJ-N-FIL_13
1002
{
1000
OWNER
1000
GEN
1002
}
  0
ARC
  5
10E60
  8
AM_0
 10
612.19777604565354
 20
226.37556045179571
 30
0.0
 40
111.0
 50
108.52714231446819
 51
108.56658080189619
  0
ARC
  5
10E61
  8
AM_0
 10
577.2448510850312
 20
330.6746162322633
 30
0.0
 40
1.0
 50
2.000000000003725
 51
108.52714231446819
1001
GENIUS_GENODEF_13
1002
{
1000
HIER
1070
     0
1002
}
1002
{
1000
MANEDIT
1070
     0
1002
}
1002
{
1000
NOSEL
1070
     0
1002
}
1002
{
1000
BEHIND
1070
     0
1002
}
1002
{
1000
REACTOR
1002
}
1001
GENIUS_GENOBJ-N-FIL_13
1002
{
1000
OWNER
1000
GEN
1002
}
  0
LINE
  5
10E62
  8
AM_0
 10
586.17116531969407
 20
333.52553014933449
 30
0.0
 11
585.92070449786308
 21
326.3532706179343
 31
0.0
  0
LINE
  5
10E63
  8
AM_0
 10
588.23996196869791
 20
333.5418648836573
 30
0.0
 11
588.48040370196918
 21
326.65651450991578
 31
0.0
  0
ARC
  5
10E64
  8
AM_0
 10
587.24057114167874
 20
333.50696538695468
 30
0.0
 40
1.0
 50
2.000000000003725
 51
103.11367014329871
1001
GENIUS_GENODEF_13
1002
{
1000
HIER
1070
     0
1002
}
1002
{
1000
MANEDIT
1070
     0
1002
}
1002
{
1000
NOSEL
1070
     0
1002
}
1002
{
1000
BEHIND
1070
     0
1002
}
1002
{
1000
REACTOR
1002
}
1001
GENIUS_GENOBJ-N-FIL_13
1002
{
1000
OWNER
1000
GEN
1002
}
  0
ARC
  5
10E65
  8
AM_0
 10
587.17055614671335
 20
333.49063065263192
 30
0.0
 40
1.0
 50
103.1511182606484
 51
177.99999999999949
1001
GENIUS_GENODEF_13
1002
{
1000
HIER
1070
     0
1002
}
1002
{
1000
MANEDIT
1070
     0
1002
}
1002
{
1000
NOSEL
1070
     0
1002
}
1002
{
1000
BEHIND
1070
     0
1002
}
1002
{
1000
REACTOR
1002
}
1001
GENIUS_GENOBJ-N-FIL_13
1002
{
1000
OWNER
1000
GEN
1002
}
  0
ARC
  5
10E66
  8
AM_0
 10
612.19777604565354
 20
226.37556045179571
 30
0.0
 40
111.0
 50
103.11367014329871
 51
103.1511182606484
  0
ARC
  5
10E67
  8
AM_0
 10
597.1679195166065
 20
335.3439201380653
 30
0.0
 40
1.0
 50
97.853178088806132
 51
177.99999999999949
1001
GENIUS_GENODEF_13
1002
{
1000
HIER
1070
     0
1002
}
1002
{
1000
MANEDIT
1070
     0
1002
}
1002
{
1000
NOSEL
1070
     0
1002
}
1002
{
1000
BEHIND
1070
     0
1002
}
1002
{
1000
REACTOR
1002
}
1001
GENIUS_GENOBJ-N-FIL_13
1002
{
1000
OWNER
1000
GEN
1002
}
  0
ARC
  5
10E68
  8
AM_0
 10
612.19777604565354
 20
226.37556045179571
 30
0.0
 40
111.0
 50
97.816947831694506
 51
97.853178088812811
  0
ARC
  5
10E69
  8
AM_0
 10
597.23682727254095
 20
335.35340229043879
 30
0.0
 40
1.0
 50
2.0000000000004698
 51
97.816947831694506
1001
GENIUS_GENODEF_13
1002
{
1000
HIER
1070
     0
1002
}
1002
{
1000
MANEDIT
1070
     0
1002
}
1002
{
1000
NOSEL
1070
     0
1002
}
1002
{
1000
BEHIND
1070
     0
1002
}
1002
{
1000
REACTOR
1002
}
1001
GENIUS_GENOBJ-N-FIL_13
1002
{
1000
OWNER
1000
GEN
1002
}
  0
LINE
  5
10E6A
  8
AM_0
 10
598.23621809956023
 20
335.38830178714142
 30
0.0
 11
598.41846118542628
 21
330.16954262121561
 31
0.0
  0
LINE
  5
10E6B
  8
AM_0
 10
596.16852868958722
 20
335.37881963476792
 30
0.0
 11
595.96298628574016
 21
329.49285529781889
 31
0.0
  0
ARC
  5
10E6C
  8
AM_0
 10
617.16206866341702
 20
336.26348425967001
 30
0.0
 40
1.0
 50
87.413366771226677
 51
177.99999999999619
1001
GENIUS_GENODEF_13
1002
{
1000
HIER
1070
     0
1002
}
1002
{
1000
MANEDIT
1070
     0
1002
}
1002
{
1000
NOSEL
1070
     0
1002
}
1002
{
1000
BEHIND
1070
     0
1002
}
1002
{
1000
REACTOR
1002
}
1001
GENIUS_GENOBJ-N-FIL_13
1002
{
1000
OWNER
1000
GEN
1002
}
  0
ARC
  5
10E6D
  8
AM_0
 10
612.19777604565354
 20
226.37556045179571
 30
0.0
 40
111.0
 50
92.586633228773294
 51
92.622284087952863
  0
ARC
  5
10E6E
  8
AM_0
 10
607.16510939377395
 20
336.26037408120982
 30
0.0
 40
1.0
 50
92.622284087952863
 51
177.99999999999949
1001
GENIUS_GENODEF_13
1002
{
1000
HIER
1070
     0
1002
}
1002
{
1000
MANEDIT
1070
     0
1002
}
1002
{
1000
NOSEL
1070
     0
1002
}
1002
{
1000
BEHIND
1070
     0
1002
}
1002
{
1000
REACTOR
1002
}
1001
GENIUS_GENOBJ-N-FIL_13
1002
{
1000
OWNER
1000
GEN
1002
}
  0
ARC
  5
10E6F
  8
AM_0
 10
607.23348342789029
 20
336.26348425967001
 30
0.0
 40
1.0
 50
2.000000000003725
 51
92.586633228773294
1001
GENIUS_GENODEF_13
1002
{
1000
HIER
1070
     0
1002
}
1002
{
1000
MANEDIT
1070
     0
1002
}
1002
{
1000
NOSEL
1070
     0
1002
}
1002
{
1000
BEHIND
1070
     0
1002
}
1002
{
1000
REACTOR
1002
}
1001
GENIUS_GENOBJ-N-FIL_13
1002
{
1000
OWNER
1000
GEN
1002
}
  0
LINE
  5
10E70
  8
AM_0
 10
606.165718566755
 20
336.29527357791233
 30
0.0
 11
605.99947009290725
 21
331.53454017290647
 31
0.0
  0
LINE
  5
10E71
  8
AM_0
 10
608.23287425490935
 20
336.2983837563728
 30
0.0
 11
608.39180421626986
 21
331.74722512859893
 31
0.0
  0
LINE
  5
10E72
  8
AM_0
 10
616.16267783639819
 20
336.2983837563728
 30
0.0
 11
616.00374787503688
 21
331.74722512859893
 31
0.0
  0
ARC
  5
10E73
  8
AM_0
 10
617.23044269753302
 20
336.26037408120982
 30
0.0
 40
1.0
 50
2.0000000000004698
 51
87.377715912047094
1001
GENIUS_GENODEF_13
1002
{
1000
HIER
1070
     0
1002
}
1002
{
1000
MANEDIT
1070
     0
1002
}
1002
{
1000
NOSEL
1070
     0
1002
}
1002
{
1000
BEHIND
1070
     0
1002
}
1002
{
1000
REACTOR
1002
}
1001
GENIUS_GENOBJ-N-FIL_13
1002
{
1000
OWNER
1000
GEN
1002
}
  0
ARC
  5
10E74
  8
AM_0
 10
612.19777604565354
 20
226.37556045179571
 30
0.0
 40
111.0
 50
87.377715912047094
 51
87.413366771226677
  0
LINE
  5
10E75
  8
AM_0
 10
618.22983352455219
 20
336.29527357791233
 30
0.0
 11
618.39608199839995
 21
331.53454017290647
 31
0.0
  0
ARC
  5
10E76
  8
AM_0
 10
627.15872481876625
 20
335.35340229043879
 30
0.0
 40
1.0
 50
82.183052168305494
 51
177.99999999999949
1001
GENIUS_GENODEF_13
1002
{
1000
HIER
1070
     0
1002
}
1002
{
1000
MANEDIT
1070
     0
1002
}
1002
{
1000
NOSEL
1070
     0
1002
}
1002
{
1000
BEHIND
1070
     0
1002
}
1002
{
1000
REACTOR
1002
}
1001
GENIUS_GENOBJ-N-FIL_13
1002
{
1000
OWNER
1000
GEN
1002
}
  0
ARC
  5
10E77
  8
AM_0
 10
612.19777604565354
 20
226.37556045179571
 30
0.0
 40
111.0
 50
82.146821911187217
 51
82.183052168305494
  0
ARC
  5
10E78
  8
AM_0
 10
627.22763257470069
 20
335.3439201380653
 30
0.0
 40
1.0
 50
2.0000000000004698
 51
82.146821911193925
1001
GENIUS_GENODEF_13
1002
{
1000
HIER
1070
     0
1002
}
1002
{
1000
MANEDIT
1070
     0
1002
}
1002
{
1000
NOSEL
1070
     0
1002
}
1002
{
1000
BEHIND
1070
     0
1002
}
1002
{
1000
REACTOR
1002
}
1001
GENIUS_GENOBJ-N-FIL_13
1002
{
1000
OWNER
1000
GEN
1002
}
  0
LINE
  5
10E79
  8
AM_0
 10
626.1593339917473
 20
335.38830178714142
 30
0.0
 11
625.97709090588069
 21
330.16954262121561
 31
0.0
  0
LINE
  5
10E7A
  8
AM_0
 10
628.22702340171975
 20
335.37881963476792
 30
0.0
 11
628.43256580556704
 21
329.49285529781889
 31
0.0
  0
ARC
  5
10E7B
  8
AM_0
 10
653.19777604565365
 20
316.37556045179548
 30
0.0
 40
5.0
 50
0.0
 51
90.0
1001
GENIUS_GENOBJ-N-CEN_13
1002
{
1000
OWNER
1000
GEN
1002
}
1001
GENIUS_GENODEF_13
1002
{
1000
HIER
1070
     0
1002
}
1002
{
1000
MANEDIT
1070
     0
1002
}
1002
{
1000
NOSEL
1070
     0
1002
}
1002
{
1000
BEHIND
1070
     0
1002
}
1002
{
1000
REACTOR
1002
}
1001
GENIUS_GENOBJ-N-FIL_13
1002
{
1000
OWNER
1000
GEN
1002
}
  0
LINE
  5
10E7C
  8
AM_0
 10
654.19777729735119
 20
302.87556127135929
 30
0.0
 11
650.19777717814191
 21
302.87556127135929
 31
0.0
  0
ARC
  5
10E7D
  8
AM_0
 10
659.69777604565365
 20
308.65843893308062
 30
0.0
 40
1.5
 50
180.0
 51
215.0186282620856
1001
GENIUS_GENODEF_13
1002
{
1000
HIER
1070
     0
1002
}
1002
{
1000
MANEDIT
1070
     0
1002
}
1002
{
1000
NOSEL
1070
     0
1002
}
1002
{
1000
BEHIND
1070
     0
1002
}
1002
{
1000
REACTOR
1002
}
1001
GENIUS_GENOBJ-N-FIL_13
1002
{
1000
OWNER
1000
GEN
1002
}
  0
LINE
  5
10E7E
  8
AM_0
 10
658.19777604565365
 20
308.65843893308062
 30
0.0
 11
658.19777604565365
 21
316.37556045179548
 31
0.0
1001
GENIUS_GENODEF_13
1002
{
1000
HIER
1070
     0
1002
}
1002
{
1000
MANEDIT
1070
     0
1002
}
1002
{
1000
NOSEL
1070
     0
1002
}
1002
{
1000
BEHIND
1070
     0
1002
}
1002
{
1000
REACTOR
1002
}
1001
GENIUS_GENOBJ-N-CEN_13
1002
{
1000
OWNER
1000
GEN
1002
}
  0
LINE
  5
10E7F
  8
AM_0
 10
653.19777604565365
 20
321.37556045179559
 30
0.0
 11
650.19777604565365
 21
321.37556045179559
 31
0.0
  0
LINE
  5
10E80
  8
AM_0
 10
648.22187586836264
 20
330.6854318246256
 30
0.0
 11
648.40969121440082
 21
325.30710400505768
 31
0.0
  0
LINE
  5
10E81
  8
AM_0
 10
646.15131017925694
 20
330.70951572896598
 30
0.0
 11
645.96414447382028
 21
325.34979118219951
 31
0.0
  0
LINE
  5
10E82
  8
AM_0
 10
638.2243867716129
 20
333.52553014933449
 30
0.0
 11
638.50534339783724
 21
325.47998503926749
 31
0.0
  0
LINE
  5
10E83
  8
AM_0
 10
636.15559012260917
 20
333.5418648836573
 30
0.0
 11
635.91514838933801
 21
326.65651450991578
 31
0.0
  0
LINE
  5
10E84
  8
AM_0
 10
646.10472743451055
 20
329.37556045179548
 30
0.0
 11
638.36930690681822
 21
329.37556045179571
 31
0.0
  0
ARC
  5
10E85
  8
AM_0
 10
637.15498094962845
 20
333.50696538695468
 30
0.0
 40
1.0
 50
76.886329856701238
 51
177.99999999999619
1001
GENIUS_GENODEF_13
1002
{
1000
HIER
1070
     0
1002
}
1002
{
1000
MANEDIT
1070
     0
1002
}
1002
{
1000
NOSEL
1070
     0
1002
}
1002
{
1000
BEHIND
1070
     0
1002
}
1002
{
1000
REACTOR
1002
}
1001
GENIUS_GENOBJ-N-FIL_13
1002
{
1000
OWNER
1000
GEN
1002
}
  0
ARC
  5
10E86
  8
AM_0
 10
612.19777604565354
 20
226.37556045179571
 30
0.0
 40
111.0
 50
76.848881739351555
 51
76.886329856694516
  0
ARC
  5
10E87
  8
AM_0
 10
637.22499594459373
 20
333.49063065263192
 30
0.0
 40
1.0
 50
2.0000000000004698
 51
76.848881739351555
1001
GENIUS_GENODEF_13
1002
{
1000
HIER
1070
     0
1002
}
1002
{
1000
MANEDIT
1070
     0
1002
}
1002
{
1000
NOSEL
1070
     0
1002
}
1002
{
1000
BEHIND
1070
     0
1002
}
1002
{
1000
REACTOR
1002
}
1001
GENIUS_GENOBJ-N-FIL_13
1002
{
1000
OWNER
1000
GEN
1002
}
  0
ARC
  5
10E88
  8
AM_0
 10
647.15070100627611
 20
330.6746162322633
 30
0.0
 40
1.0
 50
71.472857685531736
 51
177.99999999999619
1001
GENIUS_GENODEF_13
1002
{
1000
HIER
1070
     0
1002
}
1002
{
1000
MANEDIT
1070
     0
1002
}
1002
{
1000
NOSEL
1070
     0
1002
}
1002
{
1000
BEHIND
1070
     0
1002
}
1002
{
1000
REACTOR
1002
}
1001
GENIUS_GENOBJ-N-FIL_13
1002
{
1000
OWNER
1000
GEN
1002
}
  0
ARC
  5
10E89
  8
AM_0
 10
647.22248504134325
 20
330.65053232792332
 30
0.0
 40
1.0
 50
2.0000000000069811
 51
71.433419198096814
1001
GENIUS_GENODEF_13
1002
{
1000
HIER
1070
     0
1002
}
1002
{
1000
MANEDIT
1070
     0
1002
}
1002
{
1000
NOSEL
1070
     0
1002
}
1002
{
1000
BEHIND
1070
     0
1002
}
1002
{
1000
REACTOR
1002
}
1001
GENIUS_GENOBJ-N-FIL_13
1002
{
1000
OWNER
1000
GEN
1002
}
  0
ARC
  5
10E8A
  8
AM_0
 10
612.19777604565354
 20
226.37556045179571
 30
0.0
 40
111.0
 50
71.433419198103763
 51
71.472857685531736
  0
ARC
  5
10E8B
  8
AM_0
 10
563.19777604565354
 20
275.37556045179559
 30
0.0
 40
111.0
 50
13.113670143297609
 51
13.15111826064946
  0
ARC
  5
10E8C
  8
AM_0
 10
670.32918098081223
 20
300.33276535577039
 30
0.0
 40
1.0
 50
272.00000000000369
 51
13.113670143297609
1001
GENIUS_GENODEF_13
1002
{
1000
HIER
1070
     0
1002
}
1002
{
1000
MANEDIT
1070
     0
1002
}
1002
{
1000
NOSEL
1070
     0
1002
}
1002
{
1000
BEHIND
1070
     0
1002
}
1002
{
1000
REACTOR
1002
}
1001
GENIUS_GENOBJ-N-FIL_13
1002
{
1000
OWNER
1000
GEN
1002
}
  0
ARC
  5
10E8D
  8
AM_0
 10
670.3128462464897
 20
300.4027803507359
 30
0.0
 40
1.0
 50
13.15111826064946
 51
88.000000000002856
1001
GENIUS_GENODEF_13
1002
{
1000
HIER
1070
     0
1002
}
1002
{
1000
MANEDIT
1070
     0
1002
}
1002
{
1000
NOSEL
1070
     0
1002
}
1002
{
1000
BEHIND
1070
     0
1002
}
1002
{
1000
REACTOR
1002
}
1001
GENIUS_GENOBJ-N-FIL_13
1002
{
1000
OWNER
1000
GEN
1002
}
  0
ARC
  5
10E8E
  8
AM_0
 10
667.47274792178098
 20
310.4002694474853
 30
0.0
 40
1.0
 50
18.56658080190293
 51
87.999999999996362
1001
GENIUS_GENODEF_13
1002
{
1000
HIER
1070
     0
1002
}
1002
{
1000
MANEDIT
1070
     0
1002
}
1002
{
1000
NOSEL
1070
     0
1002
}
1002
{
1000
BEHIND
1070
     0
1002
}
1002
{
1000
REACTOR
1002
}
1001
GENIUS_GENOBJ-N-FIL_13
1002
{
1000
OWNER
1000
GEN
1002
}
  0
ARC
  5
10E8F
  8
AM_0
 10
667.49683182612091
 20
310.32848541241799
 30
0.0
 40
1.0
 50
271.9999999999971
 51
18.527142314471341
1001
GENIUS_GENODEF_13
1002
{
1000
HIER
1070
     0
1002
}
1002
{
1000
MANEDIT
1070
     0
1002
}
1002
{
1000
NOSEL
1070
     0
1002
}
1002
{
1000
BEHIND
1070
     0
1002
}
1002
{
1000
REACTOR
1002
}
1001
GENIUS_GENOBJ-N-FIL_13
1002
{
1000
OWNER
1000
GEN
1002
}
  0
ARC
  5
10E90
  8
AM_0
 10
563.19777604565354
 20
275.37556045179559
 30
0.0
 40
111.0
 50
18.527142314471341
 51
18.56658080189829
  0
LINE
  5
11152
  8
AM_0
 10
539.19777604565365
 20
305.37556045179588
 30
0.0
 11
524.19777604565377
 21
305.37556045179588
 31
0.0
  0
LINE
  5
11153
  8
AM_0
 10
527.69777604565388
 20
308.37556045179588
 30
0.0
 11
542.69777604565365
 21
308.37556045179588
 31
0.0
  0
LINE
  5
11154
  8
AM_0
 10
526.69777604565388
 20
306.87556045179599
 30
0.0
 11
546.19777604565365
 21
306.87556045179599
 31
0.0
  0
LINE
  5
11155
  8
AM_0
 10
539.19777604565354
 20
245.37556045179591
 30
0.0
 11
524.19777604565354
 21
245.37556045179591
 31
0.0
  0
LINE
  5
11156
  8
AM_0
 10
527.69777604565354
 20
242.37556045179571
 30
0.0
 11
542.69777604565354
 21
242.37556045179571
 31
0.0
  0
LINE
  5
11157
  8
AM_0
 10
546.19777604565354
 20
243.87556045179591
 30
0.0
 11
526.69777604565354
 21
243.87556045179591
 31
0.0
  0
LINE
  5
11158
  8
AM_0
 10
549.69777604565365
 20
305.37556045179571
 30
0.0
 11
549.69777604565365
 21
245.37556045179571
 31
0.0
  0
LINE
  5
11159
  8
AM_0
 10
539.19777604565354
 20
243.87556045179591
 30
0.0
 11
539.19777604565365
 21
306.87556045179599
 31
0.0
  0
LINE
  5
1115A
  8
AM_0
 10
542.69777604565365
 20
308.37556045179588
 30
0.0
 11
542.69777604565354
 21
242.37556045179571
 31
0.0
  0
LINE
  5
1115B
  8
AM_0
 10
546.19777604565365
 20
306.87556045179599
 30
0.0
 11
546.19777604565354
 21
243.87556045179591
 31
0.0
  0
LINE
  5
1115C
  8
AM_0
 10
522.69777604565388
 20
303.87556045179588
 30
0.0
 11
522.69777604565354
 21
246.87556045179591
 31
0.0
  0
LINE
  5
1115D
  8
AM_0
 10
519.69777604565354
 20
258.0717604517958
 30
0.0
 11
519.69777604565365
 21
292.67946045179582
 31
0.0
  0
LINE
  5
1115E
  8
AM_0
 10
522.69777604565354
 20
252.87269503123679
 30
0.0
 11
519.69777604565354
 21
258.0717604517958
 31
0.0
  0
ARC
  5
1115F
  8
AM_0
 10
524.19777604565377
 20
246.87556045179579
 30
0.0
 40
1.5
 50
180.0
 51
270.0
  0
LINE
  5
11160
  8
AM_0
 10
526.69777604565354
 20
243.87556045179591
 30
0.0
 11
526.69777604565354
 21
245.37556045179591
 31
0.0
  0
LINE
  5
11161
  8
AM_0
 10
527.69777604565354
 20
243.87556045179571
 30
0.0
 11
527.69777604565354
 21
242.37556045179571
 31
0.0
  0
LINE
  5
11162
  8
AM_0
 10
526.69777604565388
 20
305.37556045179588
 30
0.0
 11
526.69777604565388
 21
306.87556045179599
 31
0.0
  0
LINE
  5
11163
  8
AM_0
 10
519.69777604565365
 20
292.67946045179582
 30
0.0
 11
522.69777604565365
 21
297.87556045179588
 31
0.0
  0
ARC
  5
11164
  8
AM_0
 10
524.19777604565377
 20
303.87556045179582
 30
0.0
 40
1.5
 50
90.0
 51
180.0
  0
LINE
  5
11165
  8
AM_0
 10
527.69777604565388
 20
306.87556045179599
 30
0.0
 11
527.69777604565388
 21
308.37556045179588
 31
0.0
  0
LINE
  5
11166
  8
AM_0
 10
564.32032832754726
 20
305.37556045179582
 30
0.0
 11
546.19777604565365
 21
305.37556045179571
 31
0.0
  0
LINE
  5
11167
  8
AM_0
 10
564.32032832754726
 20
245.37556045179539
 30
0.0
 11
546.19777604565354
 21
245.37556045179571
 31
0.0
  0
ARC
  5
123AD
  8
AM_0
 10
854.82998958341921
 20
275.37556045179548
 30
0.0
 40
37.5
 50
233.13010538979381
 51
270.0
  0
LINE
  5
123AE
  8
AM_0
 10
929.82999181859338
 20
326.37556197171398
 30
0.0
 11
812.82998839132642
 21
326.37556197171392
 31
0.0
  0
LINE
  5
123AF
  8
ﾁｭｳｼﾝｾﾝ1
 10
798.82998806350076
 20
275.37556045179548
 30
0.0
 11
1102.6419981191291
 21
275.37556045179548
 31
0.0
  0
LINE
  5
123B0
  8
AM_0
 10
803.82998806350076
 20
205.3755607349178
 30
0.0
 11
940.82999214641882
 21
205.3755607349178
 31
0.0
  0
LINE
  5
123B1
  8
AM_0
 10
803.82998806350076
 20
209.87556073491791
 30
0.0
 11
940.82999214641882
 21
209.8755607349178
 31
0.0
  0
ARC
  5
123B2
  8
AM_0
 10
721.83000740520811
 20
275.37556045179548
 30
0.0
 40
236.0
 50
359.9999949910495
 51
10.563961712357701
  0
LINE
  5
123B3
  8
AM_0
 10
953.82999214641904
 20
224.73527877454941
 30
0.0
 11
953.82999214641904
 21
326.0158497584361
 31
0.0
  0
LINE
  5
123B4
  8
AM_0
 10
965.33609566204404
 20
219.37556045179551
 30
0.0
 11
965.33609566204404
 21
331.37556045179548
 31
0.0
  0
LINE
  5
123B5
  8
AM_0
 10
940.82999214641882
 20
315.37556164388837
 30
0.0
 11
940.82999214641882
 21
247.3755592597031
 31
0.0
  0
LINE
  5
123B6
  8
ﾁｭｳｼﾝｾﾝ1
 10
854.82998958341921
 20
331.37556197171398
 30
0.0
 11
854.82998958341921
 21
195.3755607349178
 31
0.0
  0
LINE
  5
123B8
  8
AM_0
 10
853.32999095432592
 20
230.8755607349174
 30
0.0
 11
853.32999095432626
 21
209.8755607349178
 31
0.0
  0
LINE
  5
123B9
  8
AM_0
 10
848.82999095432615
 20
230.8755607349174
 30
0.0
 11
848.82999095432615
 21
209.8755607349178
 31
0.0
  0
LINE
  5
123BA
  8
AM_0
 10
895.82998925559377
 20
230.8755607349174
 30
0.0
 11
895.82998925559377
 21
209.8755607349178
 31
0.0
  0
LINE
  5
123BB
  8
AM_0
 10
891.329989255594
 20
230.8755607349174
 30
0.0
 11
891.32998925559377
 21
209.8755607349178
 31
0.0
  0
LINE
  5
123BC
  8
AM_0
 10
940.82999214641882
 20
247.3755592597031
 30
0.0
 11
940.82999214641882
 21
205.37556073491791
 31
0.0
  0
LINE
  5
123BD
  8
ﾁｭｳｼﾝｾﾝ1
 10
919.829989255594
 20
219.8755607349178
 30
0.0
 11
919.829989255594
 21
195.3755607349178
 31
0.0
  0
LINE
  5
123BE
  8
ｶｸﾚｾﾝ2
 10
924.82998925559434
 20
205.3755607349178
 30
0.0
 11
924.82998925559434
 21
209.8755607349178
 31
0.0
  0
LINE
  5
123BF
  8
ｶｸﾚｾﾝ2
 10
914.829989255594
 20
205.3755607349178
 30
0.0
 11
914.829989255594
 21
209.8755607349178
 31
0.0
  0
ARC
  5
123C0
  8
AM_0
 10
889.82999062650049
 20
275.37556045179548
 30
0.0
 40
37.5
 50
270.0
 51
306.86989461020619
  0
ARC
  5
123C1
  8
AM_0
 10
721.83000740520811
 20
275.37556045179548
 30
0.0
 40
236.0
 50
349.43602826972312
 51
359.9999949910495
  0
ARC
  5
123C2
  8
AM_0
 10
935.82999214641904
 20
240.3755592597031
 30
0.0
 40
5.0
 50
0.000000000000007
 51
90.0
1001
GENIUS_GENOBJ-N-FIL_13
1002
{
1000
OWNER
1000
GEN
1002
}
1001
GENIUS_GENODEF_13
1002
{
1000
HIER
1070
     0
1002
}
1002
{
1000
MANEDIT
1070
     0
1002
}
1002
{
1000
NOSEL
1070
     0
1002
}
1002
{
1000
BEHIND
1070
     0
1002
}
1002
{
1000
OTHER
1070
     0
1002
}
1002
{
1000
REACTOR
1002
}
  0
LINE
  5
123C3
  8
AM_0
 10
965.33609566204404
 20
229.37556045179551
 30
0.0
 11
953.82999214641904
 21
229.37556045179551
 31
0.0
  0
LINE
  5
123C4
  8
AM_0
 10
965.33609566204404
 20
219.37556045179551
 30
0.0
 11
955.77886708324081
 21
219.37556045179551
 31
0.0
  0
ARC
  5
123C5
  8
AM_0
 10
955.77886708324081
 20
221.37556045179551
 30
0.0
 40
2.0
 50
182.0004653026449
 51
270.0
1001
GENIUS_GENOBJ-N-FIL_13
1002
{
1000
OWNER
1000
GEN
1002
}
1001
GENIUS_GENODEF_13
1002
{
1000
HIER
1070
     0
1002
}
1002
{
1000
MANEDIT
1070
     0
1002
}
1002
{
1000
NOSEL
1070
     0
1002
}
1002
{
1000
BEHIND
1070
     0
1002
}
1002
{
1000
OTHER
1070
     0
1002
}
1002
{
1000
REACTOR
1002
}
  0
LINE
  5
123C6
  8
AM_0
 10
952.63620556903675
 20
226.37556045179551
 30
0.0
 11
940.82999214641882
 21
226.37556045179551
 31
0.0
  0
LINE
  5
123C7
  8
AM_0
 10
953.78008599611076
 20
221.3057452261607
 30
0.0
 11
953.63538155071581
 21
225.44857375745951
 31
0.0
  0
ARC
  5
123C8
  8
AM_0
 10
952.63493826481124
 20
225.3722075961968
 30
0.0
 40
1.003353655944897
 50
4.3650553058046597
 51
89.927631496277982
  0
LINE
  5
123C9
  8
AM_0
 10
965.33609566204404
 20
243.4356204517955
 30
0.0
 11
955.65534530105037
 21
243.4356204517955
 31
0.0
  0
LINE
  5
123CA
  8
AM_0
 10
953.32999214641882
 20
232.108951259901
 30
0.0
 11
940.82999214641882
 21
232.108951259901
 31
0.0
  0
CIRCLE
  5
123CD
  8
AM_0
 10
929.82999181859338
 20
235.3755592597027
 30
0.0
 40
7.9999999999999956
  0
LINE
  5
123CE
  8
AM_0
 10
912.32998903704379
 20
245.37555925970301
 30
0.0
 11
935.82999214641904
 21
245.3755592597031
 31
0.0
  0
LINE
  5
123D2
  8
AM_0
 10
889.82999062650049
 20
237.87556045179551
 30
0.0
 11
854.82998958341921
 21
237.87556045179551
 31
0.0
  0
LINE
  5
123D3
  8
AM_0
 10
891.32998925559355
 20
212.87556073491729
 30
0.0
 11
895.82998925559377
 21
212.87556073491729
 31
0.0
  0
LINE
  5
123D4
  8
AM_0
 10
891.32998925559355
 20
230.8755607349174
 30
0.0
 11
895.82998925559275
 21
230.8755607349174
 31
0.0
  0
LINE
  5
123D5
  8
AM_0
 10
853.32999095432626
 20
212.87556073491729
 30
0.0
 11
848.82999095432626
 21
212.87556073491729
 31
0.0
  0
LINE
  5
123D6
  8
AM_0
 10
853.32999095432626
 20
230.8755607349174
 30
0.0
 11
848.82999095432683
 21
230.8755607349174
 31
0.0
  0
ARC
  5
123D8
  8
AM_0
 10
929.82999181859338
 20
315.37556164388837
 30
0.0
 40
11.00000032782555
 50
359.99999499104308
 51
89.999997495531304
  0
LINE
  5
123D9
  8
AM_0
 10
952.63620556903675
 20
324.37556045179548
 30
0.0
 11
936.15454746675584
 21
324.37556045179548
 31
0.0
  0
LINE
  5
123DA
  8
AM_0
 10
965.33609566204404
 20
307.31551045179549
 30
0.0
 11
955.73007952608134
 21
307.31551045179549
 31
0.0
  0
LINE
  5
123DB
  8
AM_0
 10
965.33609566204404
 20
321.37556045179548
 30
0.0
 11
953.82999214641904
 21
321.37556045179548
 31
0.0
  0
LINE
  5
123DC
  8
AM_0
 10
965.33609566204404
 20
331.37556045179548
 30
0.0
 11
955.77886655026816
 21
331.37556045179548
 31
0.0
  0
LINE
  5
123DD
  8
AM_0
 10
953.78008546313845
 20
329.44537567743032
 30
0.0
 11
953.63538155071581
 21
325.30256240492048
 31
0.0
  0
LINE
  5
123DE
  8
AM_0
 10
953.32999214641882
 20
318.64217727308471
 30
0.0
 11
940.82999214641882
 21
318.64217727308471
 31
0.0
  0
ARC
  5
123DF
  8
AM_0
 10
952.63620552532529
 20
325.37556045179548
 30
0.0
 40
1.0000000000000091
 50
270.0000025044817
 51
352.8192495496051
  0
ARC
  5
123E0
  8
AM_0
 10
955.77886655026816
 20
329.37556045179548
 30
0.0
 40
2.0
 50
90.0
 51
177.99953469735499
1001
GENIUS_GENODEF_13
1002
{
1000
HIER
1070
     0
1002
}
1002
{
1000
MANEDIT
1070
     0
1002
}
1002
{
1000
NOSEL
1070
     0
1002
}
1002
{
1000
BEHIND
1070
     0
1002
}
1002
{
1000
OTHER
1070
     0
1002
}
1002
{
1000
REACTOR
1002
}
1001
GENIUS_GENOBJ-N-FIL_13
1002
{
1000
OWNER
1000
GEN
1002
}
  0
CIRCLE
  5
123E6
  8
AM_0
 10
929.82999181859338
 20
315.37556164388837
 30
0.0
 40
4.5000001341104507
  0
LINE
  5
123F6
  8
AM_0
 10
803.82998806350076
 20
240.3755592597031
 30
0.0
 11
803.82998806350076
 21
205.3755607349178
 31
0.0
  0
LINE
  5
123F7
  8
ﾁｭｳｼﾝｾﾝ1
 10
824.82998991124464
 20
219.87556073491791
 30
0.0
 11
824.82998991124464
 21
195.3755607349178
 31
0.0
  0
LINE
  5
123F8
  8
ｶｸﾚｾﾝ2
 10
829.82998991124464
 20
205.3755607349178
 30
0.0
 11
829.82998991124464
 21
209.8755607349178
 31
0.0
  0
LINE
  5
123F9
  8
ｶｸﾚｾﾝ2
 10
819.82998991124407
 20
205.3755607349178
 30
0.0
 11
819.82998991124407
 21
209.8755607349178
 31
0.0
  0
ARC
  5
123FA
  8
AM_0
 10
808.82998806350088
 20
240.3755592597031
 30
0.0
 40
5.0
 50
90.0
 51
180.0
1001
GENIUS_GENOBJ-N-FIL_13
1002
{
1000
OWNER
1000
GEN
1002
}
1001
GENIUS_GENODEF_13
1002
{
1000
HIER
1070
     0
1002
}
1002
{
1000
MANEDIT
1070
     0
1002
}
1002
{
1000
NOSEL
1070
     0
1002
}
1002
{
1000
BEHIND
1070
     0
1002
}
1002
{
1000
OTHER
1070
     0
1002
}
1002
{
1000
REACTOR
1002
}
  0
CIRCLE
  5
123FD
  8
AM_0
 10
814.82998839132642
 20
235.3755592597027
 30
0.0
 40
7.9999999999999956
  0
LINE
  5
123FE
  8
AM_0
 10
808.82998806350088
 20
245.3755592597031
 30
0.0
 11
832.32999117287579
 21
245.3755592597031
 31
0.0
  0
ARC
  5
12402
  8
AM_0
 10
812.82998839132642
 20
315.37556164388837
 30
0.0
 40
11.000000327825539
 50
90.0
 51
180.0
  0
CIRCLE
  5
12408
  8
AM_0
 10
814.82998839132642
 20
315.37556164388837
 30
0.0
 40
4.5000001341104507
  0
CIRCLE
  5
12413
  8
0
 10
854.82998958341921
 20
275.37556045179548
 30
0.0
 40
15.00000044703483
  0
CIRCLE
  5
12414
  8
AM_0
 10
854.82998958341921
 20
275.37556045179548
 30
0.0
 40
27.500000819563869
  0
ARC
  5
12415
  8
0
 10
854.82998958341921
 20
275.37556045179548
 30
0.0
 40
9.5000000000000124
 50
108.4084801705833
 51
71.591519829416683
  0
CIRCLE
  5
12416
  8
ｽﾝﾎﾟｳｾﾝ
 10
854.82998958341921
 20
275.37556045179548
 30
0.0
 40
3.0
  0
LINE
  5
12417
  8
0
 10
851.82998958341909
 20
281.37556045179548
 30
0.0
 11
857.82998958341921
 21
281.37556045179548
 31
0.0
  0
LINE
  5
12418
  8
0
 10
851.82998958341909
 20
287.37556045179548
 30
0.0
 11
851.82998958341909
 21
281.37556045179548
 31
0.0
  0
LINE
  5
12419
  8
0
 10
857.82998958341921
 20
287.37556045179548
 30
0.0
 11
851.82998958341909
 21
287.37556045179548
 31
0.0
  0
LINE
  5
1241A
  8
0
 10
857.82998958341921
 20
281.37556045179548
 30
0.0
 11
857.82998958341921
 21
287.37556045179548
 31
0.0
  0
CIRCLE
  5
1241B
  8
AM_0
 10
854.82998958341921
 20
275.37556045179548
 30
0.0
 40
2.5
  0
LINE
  5
1241C
  8
AM_0
 10
1097.829992146419
 20
290.5974123006099
 30
0.0
 11
1097.829992146419
 21
260.15377826740678
 31
0.0
  0
ARC
  5
1241D
  8
AM_0
 10
1091.336095662044
 20
262.37558002521899
 30
0.0
 40
1.0
 50
180.0
 51
270.00000300001068
  0
ARC
  5
1241E
  8
AM_0
 10
1094.336095662044
 20
260.37558002521911
 30
0.0
 40
1.0
 50
359.999989999999
 51
90.0
  0
LINE
  5
1241F
  8
AM_0
 10
1095.336095662044
 20
227.3592200252194
 30
0.0
 11
1095.336095662044
 21
270.37559002521931
 31
0.0
  0
LINE
  5
12420
  8
AM_0
 10
1090.336095662044
 20
225.3755900252192
 30
0.0
 11
1090.336095662044
 21
326.49880902521932
 31
0.0
  0
LINE
  5
12421
  8
AM_0
 10
1096.836095662044
 20
255.37559002521931
 30
0.0
 11
1096.836095662044
 21
295.37557002521919
 31
0.0
  0
LINE
  5
12422
  8
AM_0
 10
1089.336095662044
 20
222.3755900252192
 30
0.0
 11
1089.336095662044
 21
328.37557102521941
 31
0.0
  0
LINE
  5
12423
  8
AM_0
 10
1093.5683356620441
 20
324.9907370252194
 30
0.0
 11
1094.8365256620441
 21
324.25775802521929
 31
0.0
  0
LINE
  5
12424
  8
AM_0
 10
1090.336095662044
 20
325.3755710252193
 30
0.0
 11
1089.336095662044
 21
325.3755710252193
 31
0.0
  0
LINE
  5
12425
  8
AM_0
 10
1093.067905662044
 20
325.1249680252194
 30
0.0
 11
1090.836095662044
 21
325.1249680252194
 31
0.0
  0
ARC
  5
12426
  8
AM_0
 10
1090.836095662044
 20
325.62496102521908
 30
0.0
 40
0.5
 50
180.0
 51
270.00000300001068
  0
ARC
  5
12427
  8
AM_0
 10
1093.067905662044
 20
324.12496102521908
 30
0.0
 40
1.0
 50
59.973600000003429
 51
90.0
  0
LINE
  5
12428
  8
AM_0
 10
1097.8299616288409
 20
290.5974123006099
 30
0.0
 11
1097.3299616288409
 21
293.36740131428161
 31
0.0
  0
LINE
  5
12429
  8
AM_0
 10
1095.336095662044
 20
323.39198902521929
 30
0.0
 11
1095.336095662044
 21
280.37557002521942
 31
0.0
  0
ARC
  5
1242A
  8
AM_0
 10
1091.336095662044
 20
308.11875002521901
 30
0.0
 40
1.0
 50
90.0
 51
180.0
  0
ARC
  5
1242B
  8
AM_0
 10
1093.1857656620441
 20
308.11875002521901
 30
0.0
 40
1.0
 50
72.902369999996409
 51
90.0
  0
ARC
  5
1242C
  8
AM_0
 10
1091.336095662044
 20
316.36051102521918
 30
0.0
 40
1.0
 50
90.0
 51
180.0
  0
LINE
  5
1242D
  8
AM_0
 10
1093.570165662044
 20
317.22341002521938
 30
0.0
 11
1094.841525662044
 21
316.47872802521943
 31
0.0
  0
ARC
  5
1242E
  8
AM_0
 10
1094.336095662044
 20
316.648947025219
 30
0.0
 40
1.0
 50
359.999989999999
 51
56.745279999988718
  0
LINE
  5
1242F
  8
AM_0
 10
1093.555755662044
 20
321.76077902521928
 30
0.0
 11
1094.8043556620439
 21
321.0989140252193
 31
0.0
  0
LINE
  5
12430
  8
AM_0
 10
1093.549475662044
 20
323.87031402521927
 30
0.0
 11
1094.788735662044
 21
323.24128602521932
 31
0.0
  0
LINE
  5
12431
  8
AM_0
 10
1093.585845662044
 20
318.33674502521939
 30
0.0
 11
1094.8844956620439
 21
317.48518202521922
 31
0.0
  0
LINE
  5
12432
  8
AM_0
 10
1093.5736456620441
 20
322.87467102521941
 30
0.0
 11
1094.8505556620439
 21
322.10842802521933
 31
0.0
  0
ARC
  5
12433
  8
AM_0
 10
1094.336095662044
 20
321.25093702521912
 30
0.0
 40
1.0
 50
359.999989999999
 51
59.033399999993158
  0
ARC
  5
12434
  8
AM_0
 10
1094.336095662044
 20
320.21536102521912
 30
0.0
 40
1.0
 50
359.999989999999
 51
62.073410000006788
  0
ARC
  5
12435
  8
AM_0
 10
1094.336095662044
 20
322.34963902521912
 30
0.0
 40
1.0
 50
359.999989999999
 51
63.08875000000274
  0
ARC
  5
12436
  8
AM_0
 10
1094.336095662044
 20
323.39198902521912
 30
0.0
 40
1.0
 50
359.999989999999
 51
59.973609999995389
  0
LINE
  5
12437
  8
AM_0
 10
1093.096835662044
 20
323.9786590252192
 30
0.0
 11
1090.836095662044
 21
323.9786590252192
 31
0.0
  0
LINE
  5
12438
  8
AM_0
 10
1093.0874356620441
 20
321.87722702521933
 30
0.0
 11
1091.336095662044
 21
321.87722702521933
 31
0.0
  0
LINE
  5
12439
  8
AM_0
 10
1093.0647956620439
 20
317.36049502521922
 30
0.0
 11
1091.336095662044
 21
317.36049502521922
 31
0.0
  0
LINE
  5
1243A
  8
AM_0
 10
1093.0374456620441
 20
318.5005100252194
 30
0.0
 11
1090.336095662044
 21
318.5005100252194
 31
0.0
  0
LINE
  5
1243B
  8
AM_0
 10
1093.0590556620441
 20
323.01724102521939
 30
0.0
 11
1090.336095662044
 21
323.01724102521939
 31
0.0
  0
ARC
  5
1243C
  8
AM_0
 10
1090.836095662044
 20
323.47866702521918
 30
0.0
 40
0.5
 50
90.0
 51
180.0
  0
ARC
  5
1243D
  8
AM_0
 10
1091.336095662044
 20
320.87721902521912
 30
0.0
 40
1.0
 50
90.0
 51
180.0
  0
LINE
  5
1243E
  8
AM_0
 10
1093.336095662044
 20
322.77213202521938
 30
0.0
 11
1093.336095662044
 21
322.22611102521932
 31
0.0
  0
LINE
  5
1243F
  8
AM_0
 10
1093.336095662044
 20
318.20603102521932
 30
0.0
 11
1093.336095662044
 21
317.73391602521917
 31
0.0
  0
ARC
  5
12440
  8
AM_0
 10
1093.0647956620439
 20
316.36051102521918
 30
0.0
 40
1.0
 50
59.640499999995733
 51
90.0
  0
ARC
  5
12441
  8
AM_0
 10
1093.0374456620441
 20
317.50052502521902
 30
0.0
 40
1.0
 50
56.745270000001042
 51
90.0
  0
ARC
  5
12442
  8
AM_0
 10
1093.0874356620441
 20
320.87721902521912
 30
0.0
 40
1.0
 50
62.073399999994777
 51
90.0
  0
ARC
  5
12443
  8
AM_0
 10
1093.0590556620441
 20
322.01723402521901
 30
0.0
 40
1.0
 50
59.033399999993158
 51
90.0
  0
ARC
  5
12444
  8
AM_0
 10
1093.096835662044
 20
322.97867502521922
 30
0.0
 40
1.0
 50
63.088740000004002
 51
90.0
  0
LINE
  5
12445
  8
AM_0
 10
1093.336095662044
 20
324.87173302521933
 30
0.0
 11
1093.336095662044
 21
324.34596902521929
 31
0.0
  0
LINE
  5
12446
  8
AM_0
 10
1093.5242056620441
 20
310.98448102521928
 30
0.0
 11
1094.7289156620441
 21
310.46996902521931
 31
0.0
  0
ARC
  5
12447
  8
AM_0
 10
1094.336095662044
 20
309.55031502521911
 30
0.0
 40
1.0
 50
359.999989999999
 51
66.872979999998819
  0
LINE
  5
12448
  8
AM_0
 10
1094.841525662044
 20
316.47869002521918
 30
0.0
 11
1094.8650856620441
 21
316.4648650252193
 31
0.0
  0
ARC
  5
12449
  8
AM_0
 10
1094.336095662044
 20
315.61582102521919
 30
0.0
 40
1.0
 50
359.999989999999
 51
59.640489999998287
  0
ARC
  5
1244A
  8
AM_0
 10
1094.336095662044
 20
315.61582102521919
 30
0.0
 40
1.0
 50
359.999989999999
 51
59.640489999998287
  0
LINE
  5
1244B
  8
AM_0
 10
1093.1857656620441
 20
309.11873502521939
 30
0.0
 11
1091.336095662044
 21
309.11873502521939
 31
0.0
  0
LINE
  5
1244C
  8
AM_0
 10
1093.1314456620439
 20
311.06484902521919
 30
0.0
 11
1091.0361056620441
 21
311.06484902521919
 31
0.0
  0
ARC
  5
1244D
  8
AM_0
 10
1091.0361056620441
 20
311.76479202521898
 30
0.0
 40
0.6999999900000002
 50
180.0
 51
270.00000300001068
  0
LINE
  5
1244E
  8
AM_0
 10
1093.336095662044
 20
310.7684700252193
 30
0.0
 11
1093.336095662044
 21
309.70851802521929
 31
0.0
  0
ARC
  5
1244F
  8
AM_0
 10
1093.1314456620439
 20
310.06484102521898
 30
0.0
 40
1.0
 50
66.872970000004372
 51
90.0
  0
ARC
  5
12450
  8
AM_0
 10
1091.336095662044
 20
316.36051102521918
 30
0.0
 40
1.0
 50
154.63675999999941
 51
180.0
  0
ARC
  5
12451
  8
AM_0
 10
1094.336095662044
 20
300.37559002521908
 30
0.0
 40
1.0
 50
359.999989999999
 51
90.0
  0
LINE
  5
12452
  8
AM_0
 10
1091.336095662044
 20
301.37557002521919
 30
0.0
 11
1094.336095662044
 21
301.37557002521919
 31
0.0
  0
LINE
  5
12453
  8
AM_0
 10
1093.4797756620439
 20
309.07451502521928
 30
0.0
 11
1094.630165662044
 21
308.72066402521932
 31
0.0
  0
ARC
  5
12454
  8
AM_0
 10
1094.336095662044
 20
307.764853025219
 30
0.0
 40
1.0
 50
359.999989999999
 51
72.902369999996409
  0
ARC
  5
12455
  8
AM_0
 10
1091.336095662044
 20
302.37558002521911
 30
0.0
 40
1.0
 50
180.0
 51
270.00000300001068
  0
LINE
  5
12456
  8
AM_0
 10
1091.336095662044
 20
299.37558002521922
 30
0.0
 11
1094.336095662044
 21
299.37558002521922
 31
0.0
  0
LINE
  5
12457
  8
AM_0
 10
1097.329992146419
 20
293.36740131428161
 30
0.0
 11
1096.8299616288409
 21
293.3273927693599
 31
0.0
  0
LINE
  5
12458
  8
AM_0
 10
1096.836035662044
 20
295.37557002521919
 30
0.0
 11
1095.336095662044
 21
295.50680002521921
 31
0.0
  0
ARC
  5
12459
  8
AM_0
 10
1094.336095662044
 20
300.37559002521908
 30
0.0
 40
1.0
 50
270.00000300001068
 51
0.0000100000010134
  0
LINE
  5
1245A
  8
AM_0
 10
1093.336095662044
 20
301.0018100252193
 30
0.0
 11
1093.336095662044
 21
299.6389500252194
 31
0.0
  0
ARC
  5
1245B
  8
AM_0
 10
1091.336095662044
 20
298.37557002521908
 30
0.0
 40
1.0
 50
90.0
 51
180.0
  0
LINE
  5
1245C
  8
AM_0
 10
1096.836095662044
 20
290.52561002521918
 30
0.0
 11
1093.5423956620441
 21
290.52561002521918
 31
0.0
  0
LINE
  5
1245D
  8
AM_0
 10
1091.336095662044
 20
289.37557002521919
 30
0.0
 11
1094.336095662044
 21
289.37557002521919
 31
0.0
  0
LINE
  5
1245E
  8
AM_0
 10
1091.336095662044
 20
291.3755900252192
 30
0.0
 11
1094.336095662044
 21
291.3755900252192
 31
0.0
  0
ARC
  5
1245F
  8
AM_0
 10
1094.336095662044
 20
290.37558002521911
 30
0.0
 40
1.0
 50
270.00000300001068
 51
0.0000100000010134
  0
LINE
  5
12460
  8
AM_0
 10
1096.836095662044
 20
292.65762002521927
 30
0.0
 11
1095.336095662044
 21
292.65762002521927
 31
0.0
  0
ARC
  5
12461
  8
AM_0
 10
1094.336095662044
 20
290.37558002521911
 30
0.0
 40
1.0
 50
359.999989999999
 51
90.0
  0
ARC
  5
12462
  8
AM_0
 10
1091.336095662044
 20
288.37559002521908
 30
0.0
 40
1.0
 50
90.0
 51
180.0
  0
ARC
  5
12463
  8
AM_0
 10
1091.336095662044
 20
292.37557002521908
 30
0.0
 40
1.0
 50
180.0
 51
270.00000300001068
  0
LINE
  5
12464
  8
AM_0
 10
1093.336095662044
 20
290.98269002521943
 30
0.0
 11
1093.336095662044
 21
289.77133002521941
 31
0.0
  0
LINE
  5
12465
  8
AM_0
 10
1091.336095662044
 20
279.37559002521931
 30
0.0
 11
1094.336095662044
 21
279.37559002521931
 31
0.0
  0
LINE
  5
12466
  8
AM_0
 10
1091.336095662044
 20
281.37558002521928
 30
0.0
 11
1094.336095662044
 21
281.37558002521928
 31
0.0
  0
ARC
  5
12467
  8
AM_0
 10
1094.336095662044
 20
280.37557002521919
 30
0.0
 40
1.0
 50
270.00000300001068
 51
0.0000100000010134
  0
ARC
  5
12468
  8
AM_0
 10
1094.336095662044
 20
280.37557002521919
 30
0.0
 40
1.0
 50
359.999989999999
 51
90.0
  0
ARC
  5
12469
  8
AM_0
 10
1091.336095662044
 20
282.37559002521908
 30
0.0
 40
1.0
 50
180.0
 51
270.00000300001068
  0
ARC
  5
1246A
  8
AM_0
 10
1091.336095662044
 20
278.37558002521899
 30
0.0
 40
1.0
 50
90.0
 51
180.0
  0
LINE
  5
1246B
  8
AM_0
 10
1093.336095662044
 20
280.98886002521931
 30
0.0
 11
1093.336095662044
 21
279.82797002521937
 31
0.0
  0
ARC
  5
1246C
  8
AM_0
 10
1091.336095662044
 20
268.37558002521899
 30
0.0
 40
1.0
 50
90.0
 51
180.0
  0
ARC
  5
1246D
  8
AM_0
 10
1094.336095662044
 20
270.37559002521908
 30
0.0
 40
1.0
 50
270.00000300001068
 51
0.0000100000010134
  0
LINE
  5
1246E
  8
AM_0
 10
1091.336095662044
 20
271.37558002521928
 30
0.0
 11
1094.336095662044
 21
271.37558002521928
 31
0.0
  0
LINE
  5
1246F
  8
AM_0
 10
1091.336095662044
 20
269.37558002521928
 30
0.0
 11
1094.336095662044
 21
269.37558002521928
 31
0.0
  0
ARC
  5
12470
  8
AM_0
 10
1094.336095662044
 20
270.37559002521908
 30
0.0
 40
1.0
 50
359.999989999999
 51
90.0
  0
ARC
  5
12471
  8
AM_0
 10
1091.336095662044
 20
272.37558002521899
 30
0.0
 40
1.0
 50
180.0
 51
270.00000300001068
  0
LINE
  5
12472
  8
AM_0
 10
1093.336095662044
 20
269.76237002521941
 30
0.0
 11
1093.336095662044
 21
270.92326002521929
 31
0.0
  0
ARC
  5
12473
  8
AM_0
 10
1091.336095662044
 20
229.8739500252191
 30
0.0
 40
1.0
 50
180.0
 51
270.00000300001068
  0
LINE
  5
12474
  8
AM_0
 10
1093.555755662044
 20
228.99042002521941
 30
0.0
 11
1094.804415662044
 21
229.65228002521931
 31
0.0
  0
ARC
  5
12475
  8
AM_0
 10
1094.336095662044
 20
230.53587002521911
 30
0.0
 40
1.0
 50
297.92660000000518
 51
0.0000100000010134
  0
LINE
  5
12476
  8
AM_0
 10
1096.836095662044
 20
260.22555002521932
 30
0.0
 11
1092.158605662044
 21
260.22555002521921
 31
0.0
  0
LINE
  5
12477
  8
AM_0
 10
1091.336095662044
 20
261.3755900252192
 30
0.0
 11
1094.336095662044
 21
261.37559002521931
 31
0.0
  0
LINE
  5
12478
  8
AM_0
 10
1091.336095662044
 20
259.37558002521922
 30
0.0
 11
1094.336095662044
 21
259.37558002521928
 31
0.0
  0
LINE
  5
12479
  8
AM_0
 10
1097.3299616288409
 20
257.38375873615678
 30
0.0
 11
1096.829992146419
 21
257.42376728107871
 31
0.0
  0
LINE
  5
1247A
  8
AM_0
 10
1097.829992146419
 20
260.15374774982871
 30
0.0
 11
1097.329992146419
 21
257.38375873615678
 31
0.0
  0
LINE
  5
1247B
  8
AM_0
 10
1096.836095662044
 20
255.37559002521931
 30
0.0
 11
1095.336095662044
 21
255.2443700252193
 31
0.0
  0
LINE
  5
1247C
  8
AM_0
 10
1096.836095662044
 20
258.09361002521928
 30
0.0
 11
1095.336095662044
 21
258.09361002521928
 31
0.0
  0
ARC
  5
1247D
  8
AM_0
 10
1094.336095662044
 20
260.37558002521911
 30
0.0
 40
1.0
 50
270.00000300001068
 51
0.0000100000010134
  0
ARC
  5
1247E
  8
AM_0
 10
1091.336095662044
 20
258.37559002521908
 30
0.0
 40
1.0
 50
90.0
 51
180.0
  0
LINE
  5
1247F
  8
AM_0
 10
1093.336095662044
 20
259.76848002521928
 30
0.0
 11
1093.336095662044
 21
260.97990002521942
 31
0.0
  0
LINE
  5
12480
  8
AM_0
 10
1091.336095662044
 20
251.37558002521919
 30
0.0
 11
1094.336095662044
 21
251.37558002521939
 31
0.0
  0
LINE
  5
12481
  8
AM_0
 10
1091.336095662044
 20
249.3755900252192
 30
0.0
 11
1094.336095662044
 21
249.37559002521931
 31
0.0
  0
ARC
  5
12482
  8
AM_0
 10
1094.336095662044
 20
250.37558002521911
 30
0.0
 40
1.0
 50
359.999989999999
 51
90.0
  0
ARC
  5
12483
  8
AM_0
 10
1094.336095662044
 20
250.37558002521911
 30
0.0
 40
1.0
 50
270.00000300001068
 51
0.0000100000010134
  0
ARC
  5
12484
  8
AM_0
 10
1091.336095662044
 20
252.37559002521911
 30
0.0
 40
1.0
 50
180.0
 51
270.00000300001068
  0
LINE
  5
12485
  8
AM_0
 10
1093.336095662044
 20
249.74942002521931
 30
0.0
 11
1093.336095662044
 21
251.1122100252193
 31
0.0
  0
ARC
  5
12486
  8
AM_0
 10
1091.336095662044
 20
248.37558002521911
 30
0.0
 40
1.0
 50
90.0
 51
180.0
  0
LINE
  5
12487
  8
AM_0
 10
1093.5242656620439
 20
239.76669002521939
 30
0.0
 11
1094.728855662044
 21
240.28116002521929
 31
0.0
  0
LINE
  5
12488
  8
AM_0
 10
1093.4797756620439
 20
241.67665002521929
 30
0.0
 11
1094.6300956620439
 21
242.03049002521931
 31
0.0
  0
ARC
  5
12489
  8
AM_0
 10
1094.336095662044
 20
242.9863100252191
 30
0.0
 40
1.0
 50
287.09763000000362
 51
0.0000100000010134
  0
ARC
  5
1248A
  8
AM_0
 10
1094.336095662044
 20
241.2008500252191
 30
0.0
 40
1.0
 50
293.12702999999561
 51
0.0000100000010134
  0
LINE
  5
1248B
  8
AM_0
 10
1093.1314456620439
 20
239.68638002521931
 30
0.0
 11
1091.0361056620441
 21
239.68638002521919
 31
0.0
  0
ARC
  5
1248C
  8
AM_0
 10
1091.0361056620441
 20
238.9863700252192
 30
0.0
 40
0.6999999900000002
 50
90.0
 51
180.0
  0
ARC
  5
1248D
  8
AM_0
 10
1093.1314456620439
 20
240.68637002521911
 30
0.0
 40
1.0
 50
270.00000300001068
 51
293.12702999999561
  0
LINE
  5
1248E
  8
AM_0
 10
1093.1857656620441
 20
241.63248002521931
 30
0.0
 11
1091.336095662044
 21
241.63248002521931
 31
0.0
  0
ARC
  5
1248F
  8
AM_0
 10
1091.336095662044
 20
242.63248002521911
 30
0.0
 40
1.0
 50
180.0
 51
270.00000300001068
  0
ARC
  5
12490
  8
AM_0
 10
1093.1857656620441
 20
242.63248002521911
 30
0.0
 40
1.0
 50
270.00000300001068
 51
287.09763000000362
  0
LINE
  5
12491
  8
AM_0
 10
1093.336095662044
 20
239.98270002521929
 30
0.0
 11
1093.336095662044
 21
241.04265002521939
 31
0.0
  0
LINE
  5
12492
  8
AM_0
 10
1093.5702256620441
 20
233.52780002521939
 30
0.0
 11
1094.841525662044
 21
234.27247002521929
 31
0.0
  0
LINE
  5
12493
  8
AM_0
 10
1093.585845662044
 20
232.41443002521939
 30
0.0
 11
1094.8844356620441
 21
233.26599002521931
 31
0.0
  0
ARC
  5
12494
  8
AM_0
 10
1094.336095662044
 20
234.1022600252191
 30
0.0
 40
1.0
 50
303.25472999999891
 51
0.0000100000010134
  0
ARC
  5
12495
  8
AM_0
 10
1094.336095662044
 20
235.13534002521911
 30
0.0
 40
1.0
 50
300.35950000000429
 51
0.0000100000010134
  0
LINE
  5
12496
  8
AM_0
 10
1093.0374456620441
 20
232.2507000252194
 30
0.0
 11
1090.336095662044
 21
232.2507000252194
 31
0.0
  0
LINE
  5
12497
  8
AM_0
 10
1093.0647956620439
 20
233.39067002521929
 30
0.0
 11
1091.336095662044
 21
233.39067002521929
 31
0.0
  0
ARC
  5
12498
  8
AM_0
 10
1091.336095662044
 20
234.3906500252192
 30
0.0
 40
1.0
 50
180.0
 51
270.00000300001068
  0
LINE
  5
12499
  8
AM_0
 10
1093.336095662044
 20
232.54513002521929
 30
0.0
 11
1093.336095662044
 21
233.01732002521939
 31
0.0
  0
ARC
  5
1249A
  8
AM_0
 10
1093.0647956620439
 20
234.3906500252192
 30
0.0
 40
1.0
 50
270.00000300001068
 51
300.35950000000429
  0
ARC
  5
1249B
  8
AM_0
 10
1093.0374456620441
 20
233.2507000252192
 30
0.0
 40
1.0
 50
270.00000300001068
 51
303.25472999999891
  0
LINE
  5
1249C
  8
AM_0
 10
1093.5494156620441
 20
226.88077002521931
 30
0.0
 11
1094.788665662044
 21
227.50979002521939
 31
0.0
  0
LINE
  5
1249D
  8
AM_0
 10
1093.5736456620441
 20
227.87648002521939
 30
0.0
 11
1094.850685662044
 21
228.64278002521939
 31
0.0
  0
LINE
  5
1249E
  8
AM_0
 10
1093.568275662044
 20
225.7604700252194
 30
0.0
 11
1094.836455662044
 21
226.49342002521931
 31
0.0
  0
ARC
  5
1249F
  8
AM_0
 10
1094.336095662044
 20
229.50027002521909
 30
0.0
 40
1.0
 50
300.96660000000691
 51
0.0000100000010134
  0
ARC
  5
124A0
  8
AM_0
 10
1094.336095662044
 20
228.4015200252191
 30
0.0
 40
1.0
 50
296.91125999999599
 51
0.0000100000010134
  0
ARC
  5
124A1
  8
AM_0
 10
1094.336095662044
 20
227.35922002521909
 30
0.0
 40
1.0
 50
300.02639999999673
 51
0.0000100000010134
  0
LINE
  5
124A2
  8
AM_0
 10
1090.336095662044
 20
225.3755900252192
 30
0.0
 11
1089.336095662044
 21
225.3755900252192
 31
0.0
  0
LINE
  5
124A3
  8
AM_0
 10
1093.096835662044
 20
226.7725100252193
 30
0.0
 11
1090.836095662044
 21
226.7725100252193
 31
0.0
  0
LINE
  5
124A4
  8
AM_0
 10
1093.0874356620441
 20
228.87393002521929
 30
0.0
 11
1091.336095662044
 21
228.87393002521929
 31
0.0
  0
LINE
  5
124A5
  8
AM_0
 10
1093.0590556620441
 20
227.7339900252193
 30
0.0
 11
1090.336095662044
 21
227.7339900252193
 31
0.0
  0
LINE
  5
124A6
  8
AM_0
 10
1093.067905662044
 20
225.6261900252193
 30
0.0
 11
1090.836095662044
 21
225.6261900252193
 31
0.0
  0
ARC
  5
124A7
  8
AM_0
 10
1090.836095662044
 20
225.12620002521911
 30
0.0
 40
0.5
 50
90.0
 51
180.0
  0
ARC
  5
124A8
  8
AM_0
 10
1090.836095662044
 20
227.27249002521921
 30
0.0
 40
0.5
 50
180.0
 51
270.00000300001068
  0
LINE
  5
124A9
  8
AM_0
 10
1093.336095662044
 20
225.8794200252193
 30
0.0
 11
1093.336095662044
 21
226.40520002521939
 31
0.0
  0
LINE
  5
124AA
  8
AM_0
 10
1093.336095662044
 20
227.97903002521929
 30
0.0
 11
1093.336095662044
 21
228.52511002521939
 31
0.0
  0
ARC
  5
124AB
  8
AM_0
 10
1093.0874356620441
 20
229.8739500252191
 30
0.0
 40
1.0
 50
270.00000300001068
 51
297.92660000000518
  0
ARC
  5
124AC
  8
AM_0
 10
1093.0590556620441
 20
228.73398002521901
 30
0.0
 40
1.0
 50
270.00000300001068
 51
300.96660000000691
  0
ARC
  5
124AD
  8
AM_0
 10
1093.096835662044
 20
227.7724900252191
 30
0.0
 40
1.0
 50
270.00000300001068
 51
296.91125999999599
  0
ARC
  5
124AE
  8
AM_0
 10
1093.067905662044
 20
226.62620002521911
 30
0.0
 40
1.0
 50
270.00000300001068
 51
300.02639999999673
  0
LINE
  5
124AF
  8
AM_0
 10
1088.6460656620441
 20
318.57059734882881
 30
0.0
 11
1082.416085662044
 21
318.57059734882881
 31
0.0
  0
LINE
  5
124B0
  8
AM_0
 10
1089.3360656620439
 20
328.38058634882867
 30
0.0
 11
1081.3360656620439
 21
328.38058634882867
 31
0.0
  0
LINE
  5
124B1
  8
AM_0
 10
1089.3360656620439
 20
328.37559734882871
 30
0.0
 11
1081.3360656620439
 21
328.37559734882871
 31
0.0
  0
LINE
  5
124B2
  8
AM_0
 10
1088.6460656620441
 20
232.19060334882869
 30
0.0
 11
1082.416085662044
 21
232.19060334882869
 31
0.0
  0
LINE
  5
124B3
  8
AM_0
 10
1089.3360656620439
 20
222.38058334882871
 30
0.0
 11
1081.3360656620439
 21
222.38058334882871
 31
0.0
  0
LINE
  5
124B4
  8
AM_0
 10
1089.3360656620439
 20
222.37559334882869
 30
0.0
 11
1081.3360656620439
 21
222.37559334882869
 31
0.0
  0
LINE
  5
124B5
  8
AM_0
 10
1076.011178445732
 20
238.6556167864926
 30
0.0
 11
1081.3360656620439
 21
227.2805933488286
 31
0.0
  0
LINE
  5
124B6
  8
AM_0
 10
975.13605566204433
 20
236.0405733488287
 30
0.0
 11
979.28604566204422
 21
220.58058334882861
 31
0.0
  0
LINE
  5
124B7
  8
AM_0
 10
973.33606566204435
 20
219.37559334882869
 30
0.0
 11
973.33606566204435
 21
331.37559734882859
 31
0.0
  0
LINE
  5
124B8
  8
AM_0
 10
1081.3360656620439
 20
222.38058334882871
 30
0.0
 11
1081.3360656620439
 21
324.82058134882863
 31
0.0
  0
LINE
  5
124B9
  8
AM_0
 10
1078.1360556620441
 20
219.09059334882869
 30
0.0
 11
981.21609566204404
 21
219.09059334882869
 31
0.0
  0
LINE
  5
124BA
  8
AM_0
 10
1078.0460856620441
 20
213.49058334882869
 30
0.0
 11
1044.3360656620439
 21
213.49058334882869
 31
0.0
  0
LINE
  5
124BB
  8
AM_0
 10
1078.066045662044
 20
214.40059334882869
 30
0.0
 11
1044.3360656620439
 21
214.40059334882869
 31
0.0
  0
LINE
  5
124BC
  8
AM_0
 10
1078.0860656620439
 20
216.25059334882869
 30
0.0
 11
1044.3360656620439
 21
216.25059334882869
 31
0.0
  0
ARC
  5
124BD
  8
AM_0
 10
1078.087655662044
 20
218.2437333488285
 30
0.0
 40
1.9931281000000001
 50
269.95337300000699
 51
350.9611800000003
  0
LINE
  5
124BE
  8
AM_0
 10
1081.3360656620439
 20
224.59061334882861
 30
0.0
 11
1080.0260656620439
 21
215.2106033488287
 31
0.0
  0
LINE
  5
124BF
  8
AM_0
 10
1081.336005662044
 20
224.5905733488286
 30
0.0
 11
1080.046025662044
 21
216.10058334882871
 31
0.0
  0
ARC
  5
124C0
  8
AM_0
 10
1078.0733656620439
 20
216.39516334882859
 30
0.0
 40
1.994588
 50
269.79075300000238
 51
351.50708999999512
  0
ARC
  5
124C1
  8
AM_0
 10
1078.0513956620439
 20
215.4840733488285
 30
0.0
 40
1.9934921000000001
 50
269.84609099999489
 51
352.1147400000026
  0
ARC
  5
124C2
  8
AM_0
 10
1078.1331856620441
 20
221.08749334882839
 30
0.0
 40
1.9969039999999989
 50
270.08347399999963
 51
349.41256000000033
  0
LINE
  5
124C3
  8
AM_0
 10
1081.3360656620439
 20
225.94058334882871
 30
0.0
 11
1080.0560956620441
 21
217.93059334882869
 31
0.0
  0
LINE
  5
124C4
  8
AM_0
 10
1081.3360656620439
 20
227.28058334882871
 30
0.0
 11
1080.0960756620441
 21
220.72058334882871
 31
0.0
  0
ARC
  5
124C5
  8
AM_0
 10
1044.3364956620439
 20
218.25101334882851
 30
0.0
 40
2.000407899999999
 50
180.01164900000069
 51
269.98834999999792
  0
LINE
  5
124C6
  8
AM_0
 10
1042.3360656620439
 20
215.49060334882861
 30
0.0
 11
1042.3360656620439
 21
219.09059334882869
 31
0.0
  0
ARC
  5
124C7
  8
AM_0
 10
1044.337655662044
 20
216.4021433488285
 30
0.0
 40
2.0015439999999991
 50
180.0442139990009
 51
269.95578399999908
  0
ARC
  5
124C8
  8
AM_0
 10
1044.3373456620441
 20
215.49188334882859
 30
0.0
 40
2.001287899999999
 50
180.03687199900219
 51
269.96312599999152
  0
LINE
  5
124C9
  8
AM_0
 10
973.33606566204435
 20
219.37559334882869
 30
0.0
 11
965.33609566204404
 21
219.37559334882869
 31
0.0
  0
ARC
  5
124CA
  8
AM_0
 10
981.21887566204407
 20
221.08919334882839
 30
0.0
 40
1.9986041000000001
 50
194.74271599999929
 51
269.91951600000112
  0
LINE
  5
124CB
  8
AM_0
 10
978.79608566204433
 20
222.38058334882871
 30
0.0
 11
973.33606566204435
 21
222.38058334882871
 31
0.0
  0
LINE
  5
124CC
  8
AM_0
 10
979.99607454930333
 20
239.37556308340541
 30
0.0
 11
1078.9761145493001
 21
239.37558751844151
 31
0.0
  0
LINE
  5
124CD
  8
AM_0
 10
979.99607405556674
 20
241.37556308340541
 30
0.0
 11
1078.976114055564
 21
241.37558751844131
 31
0.0
  0
LINE
  5
124CE
  8
AM_0
 10
980.00327158688344
 20
251.37556308518259
 30
0.0
 11
1078.9761115868801
 21
251.37558751844099
 31
0.0
  0
LINE
  5
124CF
  8
AM_0
 10
1079.6561147270379
 20
238.65561768631181
 30
0.0
 11
976.51609472704138
 21
238.65559222430861
 31
0.0
  0
LINE
  5
124D0
  8
AM_0
 10
1079.8760814782729
 20
251.8155277406151
 30
0.0
 11
976.30186147827635
 21
251.81550217142171
 31
0.0
  0
LINE
  5
124D1
  8
AM_0
 10
1079.8760822015799
 20
248.8855977406152
 30
0.0
 11
976.29044220158289
 21
248.88557216860241
 31
0.0
  0
LINE
  5
124D2
  8
AM_0
 10
979.98893208061986
 20
249.37556308164261
 30
0.0
 11
1078.976112080617
 21
249.37558751844111
 31
0.0
  0
LINE
  5
124D3
  8
AM_0
 10
1079.6561139000339
 20
242.00559768631189
 30
0.0
 11
976.51609390003773
 21
242.00557222430871
 31
0.0
  0
LINE
  5
124D4
  8
AM_0
 10
1080.0060796958589
 20
259.03562777270781
 30
0.0
 11
976.00750173946187
 21
259.03560209875383
 31
0.0
  0
LINE
  5
124D5
  8
AM_0
 10
1080.006079039212
 20
261.69553777270778
 30
0.0
 11
976.15902658122127
 21
261.69551213616057
 31
0.0
  0
LINE
  5
124D6
  8
AM_0
 10
1080.06607720991
 20
269.10556778751959
 30
0.0
 11
975.94997795640643
 21
269.10554208455341
 31
0.0
  0
LINE
  5
124D7
  8
AM_0
 10
1080.0660765853261
 20
271.6355977875196
 30
0.0
 11
976.11326460931957
 21
271.6355721248637
 31
0.0
  0
LINE
  5
124D8
  8
AM_0
 10
979.99273035610565
 20
271.37556308258098
 30
0.0
 11
1078.9761066495139
 21
271.37558751844062
 31
0.0
  0
LINE
  5
124D9
  8
AM_0
 10
979.9927308498427
 20
269.37556308258098
 30
0.0
 11
1078.9761071432511
 21
269.37558751844062
 31
0.0
  0
LINE
  5
124DA
  8
AM_0
 10
979.9927328247926
 20
261.3755630825811
 30
0.0
 11
1078.976109118197
 21
261.3755875184408
 31
0.0
  0
LINE
  5
124DB
  8
AM_0
 10
979.99273331850463
 20
259.37556308258132
 30
0.0
 11
1078.9761096119339
 21
259.3755875184408
 31
0.0
  0
LINE
  5
124DC
  8
AM_0
 10
979.99272936861132
 20
291.37556143926872
 30
0.0
 11
1078.9761056620439
 21
291.37556143926889
 31
0.0
  0
LINE
  5
124DD
  8
AM_0
 10
979.99272936863645
 20
289.37556143926889
 30
0.0
 11
1078.9761056620439
 21
289.37556143926889
 31
0.0
  0
LINE
  5
124DE
  8
AM_0
 10
979.99272936863281
 20
281.37556143926889
 30
0.0
 11
1078.9761056620439
 21
281.37556143926889
 31
0.0
  0
LINE
  5
124DF
  8
AM_0
 10
979.99272936863281
 20
279.37556143926889
 30
0.0
 11
1078.9761056620439
 21
279.37556143926889
 31
0.0
  0
LINE
  5
124E0
  8
AM_0
 10
1080.0660756620441
 20
279.11555143926893
 30
0.0
 11
976.11326368603466
 21
279.11555143926893
 31
0.0
  0
LINE
  5
124E1
  8
AM_0
 10
1080.0660756620441
 20
281.64558143926882
 30
0.0
 11
975.94997640853717
 21
281.64558143926882
 31
0.0
  0
LINE
  5
124E2
  8
AM_0
 10
1080.0060756620439
 20
289.05561143926877
 30
0.0
 11
976.15902320405075
 21
289.05561143926877
 31
0.0
  0
LINE
  5
124E3
  8
AM_0
 10
1080.0060756620439
 20
291.71552143926891
 30
0.0
 11
976.0074977056438
 21
291.71552143926891
 31
0.0
  0
LINE
  5
124E4
  8
AM_0
 10
1079.656105662044
 20
308.74555143926881
 30
0.0
 11
976.51608566204402
 21
308.74555143926858
 31
0.0
  0
LINE
  5
124E5
  8
AM_0
 10
979.98892566204404
 20
301.37556143926889
 30
0.0
 11
1078.9761056620439
 21
301.37556143926889
 31
0.0
  0
LINE
  5
124E6
  8
AM_0
 10
1079.8760756620441
 20
301.86555143926893
 30
0.0
 11
976.29043566204416
 21
301.86555143926893
 31
0.0
  0
LINE
  5
124E7
  8
AM_0
 10
1079.8760756620441
 20
298.93562143926891
 30
0.0
 11
976.30185566204409
 21
298.93562143926891
 31
0.0
  0
LINE
  5
124E8
  8
AM_0
 10
1079.656105662044
 20
312.095531439269
 30
0.0
 11
976.51608566204402
 21
312.095531439269
 31
0.0
  0
LINE
  5
124E9
  8
AM_0
 10
980.00326566204433
 20
299.37556143926889
 30
0.0
 11
1078.9761056620439
 21
299.37556143926889
 31
0.0
  0
LINE
  5
124EA
  8
AM_0
 10
979.9960656620442
 20
309.37556143926889
 30
0.0
 11
1078.9761056620439
 21
309.37556143926889
 31
0.0
  0
LINE
  5
124EB
  8
AM_0
 10
979.9960656620442
 20
311.37556143926889
 30
0.0
 11
1078.9761056620439
 21
311.37556143926889
 31
0.0
  0
LINE
  5
124EC
  8
AM_0
 10
1055.8360656620439
 20
237.1506033488287
 30
0.0
 11
973.33606566204435
 21
237.1506033488287
 31
0.0
  0
LINE
  5
124ED
  8
AM_0
 10
1055.8360656620439
 20
313.60058834882869
 30
0.0
 11
973.33606566204435
 21
313.60058834882869
 31
0.0
  0
LINE
  5
124EE
  8
AM_0
 10
1078.1360556620441
 20
331.66060034882861
 30
0.0
 11
981.21609566204404
 21
331.66060034882861
 31
0.0
  0
LINE
  5
124EF
  8
AM_0
 10
1076.00651832276
 20
312.095531439269
 30
0.0
 11
1081.336125662044
 21
323.47056834882858
 31
0.0
  0
POLYLINE
  5
124F0
  8
AM_0
 66
     1
 10
0.0
 20
0.0
 30
0.0
  0
VERTEX
  5
124F1
  8
AM_0
 10
1078.9761056620409
 20
275.37558751844011
 30
0.0
 42
-0.00039106649
  0
VERTEX
  5
124F2
  8
AM_0
 10
1078.9784657388491
 20
275.0644575190226
 30
0.0
 42
-0.00035488198
  0
VERTEX
  5
124F3
  8
AM_0
 10
1078.980355815652
 20
274.75334751948952
 30
0.0
 42
-0.00039706113
  0
VERTEX
  5
124F4
  8
AM_0
 10
1078.981785892455
 20
274.44223751984242
 30
0.0
 42
-0.00038765718
  0
VERTEX
  5
124F5
  8
AM_0
 10
1078.9827159692661
 20
274.13109752007188
 30
0.0
 42
-0.00040613432
  0
VERTEX
  5
124F6
  8
AM_0
 10
1078.983166046067
 20
273.81999752018322
 30
0.0
 42
-0.00035573434
  0
VERTEX
  5
124F7
  8
AM_0
 10
1078.9831261228701
 20
273.50888752017318
 30
0.0
 42
-0.00038545884
  0
VERTEX
  5
124F8
  8
AM_0
 10
1078.9826361996779
 20
273.19775752005228
 30
0.0
 42
-0.00035501205
  0
VERTEX
  5
124F9
  8
AM_0
 10
1078.981676276481
 20
272.88664751981531
 30
0.0
 42
-0.00040120779
  0
VERTEX
  5
124FA
  8
AM_0
 10
1078.980256353314
 20
272.57541751946479
 30
0.0
 42
-0.00038317817
  0
VERTEX
  5
124FB
  8
AM_0
 10
1078.978346430122
 20
272.26428751899329
 30
0.0
 42
-0.00035656084
  0
VERTEX
  5
124FC
  8
AM_0
 10
1078.975966506958
 20
271.95304751840581
 30
0.0
 42
-0.00040143615
  0
VERTEX
  5
124FD
  8
AM_0
 10
1078.9731165837579
 20
271.64194751770231
 30
0.0
  0
SEQEND
  5
124FE
  8
AM_0
  0
LINE
  5
124FF
  8
AM_0
 10
1055.836125662044
 20
237.15059334882869
 30
0.0
 11
1076.0135556620439
 21
238.65059334882881
 31
0.0
  0
ARC
  5
12500
  8
AM_0
 10
1079.8760818399251
 20
250.35056774061511
 30
0.0
 40
1.465004
 50
270.00001714451889
 51
90.000014144521259
  0
ARC
  5
12501
  8
AM_0
 10
1079.6634943135509
 20
240.33054768813369
 30
0.0
 40
1.6750160000000001
 50
269.74615914452119
 51
90.25388414451777
  0
ARC
  5
12502
  8
AM_0
 10
1078.7914843024321
 20
240.37558747286189
 30
0.0
 40
1.0000138999999999
 50
269.69167414451692
 51
90.308354144518404
  0
ARC
  5
12503
  8
AM_0
 10
1078.7914818337481
 20
250.3755874728617
 30
0.0
 40
1.0000138999999999
 50
269.69167414451692
 51
90.308354144518404
  0
POLYLINE
  5
12504
  8
AM_0
 66
     1
 10
0.0
 20
0.0
 30
0.0
  0
VERTEX
  5
12505
  8
AM_0
 10
1077.475202199862
 20
248.89255714791389
 30
0.0
 42
-0.00068898288
  0
VERTEX
  5
12506
  8
AM_0
 10
1077.40432234175
 20
248.3178071304159
 30
0.0
 42
-0.00070644354
  0
VERTEX
  5
12507
  8
AM_0
 10
1077.3318224836221
 20
247.74311711251789
 30
0.0
 42
-0.00069248071
  0
VERTEX
  5
12508
  8
AM_0
 10
1077.2577326254011
 20
247.1688070942275
 30
0.0
 42
-0.00069585665
  0
VERTEX
  5
12509
  8
AM_0
 10
1077.182052767138
 20
246.59466707554449
 30
0.0
 42
-0.00068980191
  0
VERTEX
  5
1250A
  8
AM_0
 10
1077.1047529088401
 20
246.0206670564616
 30
0.0
 42
-0.00072080104
  0
VERTEX
  5
1250B
  8
AM_0
 10
1077.0258630504909
 20
245.44687703698619
 30
0.0
 42
-0.00071002307
  0
VERTEX
  5
1250C
  8
AM_0
 10
1076.9453231920629
 20
244.87340701710349
 30
0.0
 42
-0.00072659056
  0
VERTEX
  5
1250D
  8
AM_0
 10
1076.8631633335431
 20
244.30030699682089
 30
0.0
 42
-0.00069570481
  0
VERTEX
  5
1250E
  8
AM_0
 10
1076.779343475006
 20
243.72727697612819
 30
0.0
 42
-0.00071266935
  0
VERTEX
  5
1250F
  8
AM_0
 10
1076.693913616404
 20
243.1545069550383
 30
0.0
 42
-0.00071614426
  0
VERTEX
  5
12510
  8
AM_0
 10
1076.606883757697
 20
242.5821669335534
 30
0.0
 42
-0.00072288975
  0
VERTEX
  5
12511
  8
AM_0
 10
1076.51817389898
 20
242.00986691165369
 30
0.0
  0
SEQEND
  5
12512
  8
AM_0
  0
POLYLINE
  5
12513
  8
AM_0
 66
     1
 10
0.0
 20
0.0
 30
0.0
  0
VERTEX
  5
12514
  8
AM_0
 10
1078.9320472099989
 20
269.10520750756331
 30
0.0
 42
-0.00076691992
  0
VERTEX
  5
12515
  8
AM_0
 10
1078.9172473625069
 20
268.4874375039098
 30
0.0
 42
-0.00073262792
  0
VERTEX
  5
12516
  8
AM_0
 10
1078.90060751497
 20
267.86984749980178
 30
0.0
 42
-0.00076529537
  0
VERTEX
  5
12517
  8
AM_0
 10
1078.882117667453
 20
267.25217749523739
 30
0.0
 42
-0.00075141097
  0
VERTEX
  5
12518
  8
AM_0
 10
1078.8617478199189
 20
266.6345774902087
 30
0.0
 42
-0.00075841687
  0
VERTEX
  5
12519
  8
AM_0
 10
1078.8395179723429
 20
266.01714748472068
 30
0.0
 42
-0.00075711788
  0
VERTEX
  5
1251A
  8
AM_0
 10
1078.815408124786
 20
265.39963747876862
 30
0.0
 42
-0.00075976003
  0
VERTEX
  5
1251B
  8
AM_0
 10
1078.7894182772011
 20
264.78224747235259
 30
0.0
 42
-0.00075797311
  0
VERTEX
  5
1251C
  8
AM_0
 10
1078.761578429587
 20
264.16496746547972
 30
0.0
 42
-0.0007482613
  0
VERTEX
  5
1251D
  8
AM_0
 10
1078.731848581999
 20
263.54758745814041
 30
0.0
 42
-0.00074893561
  0
VERTEX
  5
1251E
  8
AM_0
 10
1078.700288734349
 20
262.93045745034931
 30
0.0
 42
-0.00076039839
  0
VERTEX
  5
1251F
  8
AM_0
 10
1078.6668688866739
 20
262.313427442099
 30
0.0
 42
-0.00075618786
  0
VERTEX
  5
12520
  8
AM_0
 10
1078.631569039002
 20
261.69638743338459
 30
0.0
  0
SEQEND
  5
12521
  8
AM_0
  0
ARC
  5
12522
  8
AM_0
 10
1080.0060793675359
 20
260.36557777270758
 30
0.0
 40
1.3300049999999981
 50
270.00001714451889
 51
90.000014144521259
  0
ARC
  5
12523
  8
AM_0
 10
1078.791479365065
 20
260.37558747286141
 30
0.0
 40
1.0000138999999999
 50
269.69167414451692
 51
90.308354144518404
  0
POLYLINE
  5
12524
  8
AM_0
 66
     1
 10
0.0
 20
0.0
 30
0.0
  0
VERTEX
  5
12525
  8
AM_0
 10
1078.45785969601
 20
259.03501739050108
 30
0.0
 42
-0.0007337051
  0
VERTEX
  5
12526
  8
AM_0
 10
1078.4137198447279
 20
258.43259737960437
 30
0.0
 42
-0.00075211323
  0
VERTEX
  5
12527
  8
AM_0
 10
1078.3677799934389
 20
257.8302073682633
 30
0.0
 42
-0.0007297491
  0
VERTEX
  5
12528
  8
AM_0
 10
1078.3200501421029
 20
257.22800735648019
 30
0.0
 42
-0.00073593041
  0
VERTEX
  5
12529
  8
AM_0
 10
1078.2705702907151
 20
256.62601734426528
 30
0.0
 42
-0.00074742739
  0
VERTEX
  5
1252A
  8
AM_0
 10
1078.219300439298
 20
256.02414733160839
 30
0.0
 42
-0.00073217363
  0
VERTEX
  5
1252B
  8
AM_0
 10
1078.166240587864
 20
255.42234731850959
 30
0.0
 42
-0.00073754168
  0
VERTEX
  5
1252C
  8
AM_0
 10
1078.1114207363651
 20
254.82080730497631
 30
0.0
 42
-0.00073075073
  0
VERTEX
  5
1252D
  8
AM_0
 10
1078.0548408848219
 20
254.21944729100849
 30
0.0
 42
-0.00074550816
  0
VERTEX
  5
1252E
  8
AM_0
 10
1077.9965010332039
 20
253.61838727660609
 30
0.0
 42
-0.00074288416
  0
VERTEX
  5
1252F
  8
AM_0
 10
1077.936351181577
 20
253.01736726175699
 30
0.0
 42
-0.00072504001
  0
VERTEX
  5
12530
  8
AM_0
 10
1077.874441329883
 20
252.41661724647349
 30
0.0
 42
-0.00074640667
  0
VERTEX
  5
12531
  8
AM_0
 10
1077.810771478152
 20
251.81601723075539
 30
0.0
  0
SEQEND
  5
12532
  8
AM_0
  0
ARC
  5
12533
  8
AM_0
 10
1080.071936897617
 20
270.37058778896602
 30
0.0
 40
1.2650129999999991
 50
269.7355931445108
 51
90.264424144511509
  0
ARC
  5
12534
  8
AM_0
 10
1078.7914768963819
 20
270.37558747286101
 30
0.0
 40
1.0000138999999999
 50
269.69167414451692
 51
90.308354144518404
  0
LINE
  5
12535
  8
AM_0
 10
1055.8360656620439
 20
313.60058834882869
 30
0.0
 11
1076.008915662044
 21
312.10058834882869
 31
0.0
  0
POLYLINE
  5
12536
  8
AM_0
 66
     1
 10
0.0
 20
0.0
 30
0.0
  0
VERTEX
  5
12537
  8
AM_0
 10
1078.457855662044
 20
291.71613143926868
 30
0.0
 42
0.0007337051
  0
VERTEX
  5
12538
  8
AM_0
 10
1078.4137156620441
 20
292.31855143926867
 30
0.0
 42
0.00075211323
  0
VERTEX
  5
12539
  8
AM_0
 10
1078.3677756620441
 20
292.92094143926869
 30
0.0
 42
0.0007297491
  0
VERTEX
  5
1253A
  8
AM_0
 10
1078.3200456620441
 20
293.52314143926873
 30
0.0
 42
0.00073593041
  0
VERTEX
  5
1253B
  8
AM_0
 10
1078.270565662044
 20
294.12513143926861
 30
0.0
 42
0.00074742739
  0
VERTEX
  5
1253C
  8
AM_0
 10
1078.2192956620429
 20
294.72700143926858
 30
0.0
 42
0.00073217363
  0
VERTEX
  5
1253D
  8
AM_0
 10
1078.1662356620441
 20
295.32880143926849
 30
0.0
 42
0.00073754168
  0
VERTEX
  5
1253E
  8
AM_0
 10
1078.111415662044
 20
295.9303414392686
 30
0.0
 42
0.00073075073
  0
VERTEX
  5
1253F
  8
AM_0
 10
1078.0548356620441
 20
296.53170143926849
 30
0.0
 42
0.00074550816
  0
VERTEX
  5
12540
  8
AM_0
 10
1077.996495662044
 20
297.13276143926868
 30
0.0
 42
0.00074288416
  0
VERTEX
  5
12541
  8
AM_0
 10
1077.936345662044
 20
297.73378143926868
 30
0.0
 42
0.00072504001
  0
VERTEX
  5
12542
  8
AM_0
 10
1077.8744356620441
 20
298.33453143926857
 30
0.0
 42
0.00074640667
  0
VERTEX
  5
12543
  8
AM_0
 10
1077.8107656620441
 20
298.93513143926862
 30
0.0
  0
SEQEND
  5
12544
  8
AM_0
  0
POLYLINE
  5
12545
  8
AM_0
 66
     1
 10
0.0
 20
0.0
 30
0.0
  0
VERTEX
  5
12546
  8
AM_0
 10
1078.9320456620439
 20
281.6459414392686
 30
0.0
 42
0.00076691992
  0
VERTEX
  5
12547
  8
AM_0
 10
1078.917245662044
 20
282.26371143926872
 30
0.0
 42
0.00073262792
  0
VERTEX
  5
12548
  8
AM_0
 10
1078.900605662044
 20
282.88130143926873
 30
0.0
 42
0.00076529537
  0
VERTEX
  5
12549
  8
AM_0
 10
1078.882115662044
 20
283.49897143926859
 30
0.0
 42
0.00075141097
  0
VERTEX
  5
1254A
  8
AM_0
 10
1078.8617456620441
 20
284.11657143926868
 30
0.0
 42
0.00075841687
  0
VERTEX
  5
1254B
  8
AM_0
 10
1078.8395156620441
 20
284.7340014392687
 30
0.0
 42
0.00075711788
  0
VERTEX
  5
1254C
  8
AM_0
 10
1078.815405662044
 20
285.35151143926868
 30
0.0
 42
0.00075976003
  0
VERTEX
  5
1254D
  8
AM_0
 10
1078.7894156620439
 20
285.96890143926851
 30
0.0
 42
0.00075797311
  0
VERTEX
  5
1254E
  8
AM_0
 10
1078.7615756620439
 20
286.58618143926873
 30
0.0
 42
0.0007482613
  0
VERTEX
  5
1254F
  8
AM_0
 10
1078.731845662044
 20
287.20356143926858
 30
0.0
 42
0.00074893561
  0
VERTEX
  5
12550
  8
AM_0
 10
1078.7002856620441
 20
287.82069143926873
 30
0.0
 42
0.00076039839
  0
VERTEX
  5
12551
  8
AM_0
 10
1078.6668656620441
 20
288.43772143926861
 30
0.0
 42
0.00075618786
  0
VERTEX
  5
12552
  8
AM_0
 10
1078.6315656620441
 20
289.0547614392687
 30
0.0
  0
SEQEND
  5
12553
  8
AM_0
  0
POLYLINE
  5
12554
  8
AM_0
 66
     1
 10
0.0
 20
0.0
 30
0.0
  0
VERTEX
  5
12555
  8
AM_0
 10
1078.9761056620439
 20
275.37556143926872
 30
0.0
 42
0.00039106649
  0
VERTEX
  5
12556
  8
AM_0
 10
1078.9784656620441
 20
275.6866914392686
 30
0.0
 42
0.00035488198
  0
VERTEX
  5
12557
  8
AM_0
 10
1078.9803556620441
 20
275.99780143926858
 30
0.0
 42
0.00039706113
  0
VERTEX
  5
12558
  8
AM_0
 10
1078.9817856620441
 20
276.30891143926868
 30
0.0
 42
0.00038765718
  0
VERTEX
  5
12559
  8
AM_0
 10
1078.982715662044
 20
276.62005143926871
 30
0.0
 42
0.00040613432
  0
VERTEX
  5
1255A
  8
AM_0
 10
1078.983165662044
 20
276.9311514392686
 30
0.0
 42
0.00035573434
  0
VERTEX
  5
1255B
  8
AM_0
 10
1078.9831256620439
 20
277.2422614392687
 30
0.0
 42
0.00038545884
  0
VERTEX
  5
1255C
  8
AM_0
 10
1078.982635662044
 20
277.55339143926852
 30
0.0
 42
0.00035501205
  0
VERTEX
  5
1255D
  8
AM_0
 10
1078.9816756620439
 20
277.86450143926862
 30
0.0
 42
0.00040120779
  0
VERTEX
  5
1255E
  8
AM_0
 10
1078.9802556620441
 20
278.17573143926859
 30
0.0
 42
0.00038317817
  0
VERTEX
  5
1255F
  8
AM_0
 10
1078.9783456620439
 20
278.48686143926869
 30
0.0
 42
0.00035656084
  0
VERTEX
  5
12560
  8
AM_0
 10
1078.975965662044
 20
278.79810143926869
 30
0.0
 42
0.00040143615
  0
VERTEX
  5
12561
  8
AM_0
 10
1078.9731156620439
 20
279.10920143926859
 30
0.0
  0
SEQEND
  5
12562
  8
AM_0
  0
ARC
  5
12563
  8
AM_0
 10
1078.7914756620439
 20
280.37556143926872
 30
0.0
 40
1.0000138999999999
 50
269.69165999999939
 51
90.308340000000754
  0
ARC
  5
12564
  8
AM_0
 10
1080.0719356620441
 20
280.3805614392686
 30
0.0
 40
1.2650129999999991
 50
269.73558999999102
 51
90.264420999991756
  0
ARC
  5
12565
  8
AM_0
 10
1078.7914756620439
 20
290.37556143926872
 30
0.0
 40
1.0000138999999999
 50
269.69165999999939
 51
90.308340000000754
  0
ARC
  5
12566
  8
AM_0
 10
1080.0060756620439
 20
290.38557143926857
 30
0.0
 40
1.3300049999999981
 50
270.0
 51
89.999997000002296
  0
POLYLINE
  5
12567
  8
AM_0
 66
     1
 10
0.0
 20
0.0
 30
0.0
  0
VERTEX
  5
12568
  8
AM_0
 10
1077.4751956620439
 20
301.85859143926848
 30
0.0
 42
0.00068898288
  0
VERTEX
  5
12569
  8
AM_0
 10
1077.4043156620439
 20
302.43334143926847
 30
0.0
 42
0.00070644354
  0
VERTEX
  5
1256A
  8
AM_0
 10
1077.3318156620439
 20
303.00803143926868
 30
0.0
 42
0.00069248071
  0
VERTEX
  5
1256B
  8
AM_0
 10
1077.2577256620441
 20
303.58234143926859
 30
0.0
 42
0.00069585665
  0
VERTEX
  5
1256C
  8
AM_0
 10
1077.1820456620439
 20
304.15648143926859
 30
0.0
 42
0.00068980191
  0
VERTEX
  5
1256D
  8
AM_0
 10
1077.104745662044
 20
304.73048143926871
 30
0.0
 42
0.00072080104
  0
VERTEX
  5
1256E
  8
AM_0
 10
1077.025855662044
 20
305.30427143926858
 30
0.0
 42
0.00071002307
  0
VERTEX
  5
1256F
  8
AM_0
 10
1076.9453156620441
 20
305.87774143926862
 30
0.0
 42
0.00072659056
  0
VERTEX
  5
12570
  8
AM_0
 10
1076.8631556620439
 20
306.45084143926869
 30
0.0
 42
0.00069570481
  0
VERTEX
  5
12571
  8
AM_0
 10
1076.7793356620441
 20
307.0238714392687
 30
0.0
 42
0.00071266935
  0
VERTEX
  5
12572
  8
AM_0
 10
1076.693905662044
 20
307.59664143926869
 30
0.0
 42
0.00071614426
  0
VERTEX
  5
12573
  8
AM_0
 10
1076.6068756620441
 20
308.16898143926858
 30
0.0
 42
0.00072288975
  0
VERTEX
  5
12574
  8
AM_0
 10
1076.5181656620441
 20
308.74128143926868
 30
0.0
  0
SEQEND
  5
12575
  8
AM_0
  0
ARC
  5
12576
  8
AM_0
 10
1079.8760756620441
 20
300.40058143926871
 30
0.0
 40
1.465004
 50
270.0
 51
89.999997000002296
  0
ARC
  5
12577
  8
AM_0
 10
1078.7914756620439
 20
300.37556143926872
 30
0.0
 40
1.0000138999999999
 50
269.69165999999939
 51
90.308340000000754
  0
ARC
  5
12578
  8
AM_0
 10
1078.7914756620439
 20
310.37556143926861
 30
0.0
 40
1.0000138999999999
 50
269.69165999999939
 51
90.308340000000754
  0
ARC
  5
12579
  8
AM_0
 10
1079.663485662044
 20
310.42060143926869
 30
0.0
 40
1.6750160000000001
 50
269.74612999999908
 51
90.253854999995511
  0
LINE
  5
1257A
  8
ﾁｭｳｼﾝｾﾝ1
 10
1024.3360656620439
 20
234.75056653413199
 30
0.0
 11
1024.3360656620439
 21
316.00056953413213
 31
0.0
  0
LINE
  5
1257B
  8
AM_0
 10
1078.0460856620441
 20
337.27058634882877
 30
0.0
 11
1044.3360656620439
 21
337.27058634882877
 31
0.0
  0
LINE
  5
1257C
  8
AM_0
 10
1078.066045662044
 20
336.35059534882879
 30
0.0
 11
1044.3360656620439
 21
336.35059534882879
 31
0.0
  0
LINE
  5
1257D
  8
AM_0
 10
1078.0860656620439
 20
334.51059134882871
 30
0.0
 11
1044.3360656620439
 21
334.51059134882871
 31
0.0
  0
ARC
  5
1257E
  8
AM_0
 10
1078.131415662044
 20
329.66159234882838
 30
0.0
 40
1.9990078999999989
 50
10.637409999996979
 51
89.866550000002974
  0
LINE
  5
1257F
  8
AM_0
 10
1081.3360656620439
 20
326.16057034882868
 30
0.0
 11
1080.0260656620439
 21
335.54057534882872
 31
0.0
  0
LINE
  5
12580
  8
AM_0
 10
1081.336005662044
 20
326.16059334882868
 30
0.0
 11
1080.046025662044
 21
334.66058534882882
 31
0.0
  0
LINE
  5
12581
  8
AM_0
 10
1081.3360656620439
 20
324.82059734882881
 30
0.0
 11
1080.0560956620441
 21
332.82058934882861
 31
0.0
  0
LINE
  5
12582
  8
AM_0
 10
1081.3360656620439
 20
323.47060634882882
 30
0.0
 11
1080.0960756620441
 21
330.03060334882861
 31
0.0
  0
ARC
  5
12583
  8
AM_0
 10
1078.080085662044
 20
332.51041634882853
 30
0.0
 40
2.0001840999999998
 50
8.9210000000021807
 51
89.828529999999176
  0
ARC
  5
12584
  8
AM_0
 10
1078.072515662044
 20
334.35325834882849
 30
0.0
 40
1.9973480999999991
 50
8.851469999999642
 51
90.184679999997584
  0
ARC
  5
12585
  8
AM_0
 10
1078.0439456620441
 20
335.27011334882849
 30
0.0
 40
2.0004758999999992
 50
7.7704600000003481
 51
89.939690000002528
  0
LINE
  5
12586
  8
AM_0
 10
1042.3360656620439
 20
335.27059334882858
 30
0.0
 11
1042.3360656620439
 21
331.66060034882861
 31
0.0
  0
ARC
  5
12587
  8
AM_0
 10
1044.3432656620439
 20
332.50341234882848
 30
0.0
 40
2.0071799999999991
 50
90.204619999991195
 51
179.7953800000023
  0
ARC
  5
12588
  8
AM_0
 10
1044.339355662044
 20
334.34730734882851
 30
0.0
 40
2.003279899999999
 50
90.093789999997114
 51
179.9062100000028
  0
ARC
  5
12589
  8
AM_0
 10
1044.344055662044
 20
335.2625833488284
 30
0.0
 40
2.0080360999999991
 50
90.228789999999435
 51
179.77121000000059
  0
LINE
  5
1258A
  8
AM_0
 10
974.83606566204435
 20
313.60058034882871
 30
0.0
 11
979.28607566204403
 21
330.18058234882858
 31
0.0
  0
LINE
  5
1258B
  8
AM_0
 10
973.33606566204435
 20
229.37559334882869
 30
0.0
 11
965.33609566204404
 21
229.37559334882869
 31
0.0
  0
LINE
  5
1258C
  8
AM_0
 10
973.33606566204435
 20
243.4355833488286
 30
0.0
 11
965.33609566204404
 21
243.4355833488286
 31
0.0
  0
ARC
  5
1258D
  8
AM_0
 10
979.99613183375186
 20
250.37556308341971
 30
0.0
 40
1.0000255999999981
 50
89.589484144516277
 51
270.41054514451741
  0
ARC
  5
1258E
  8
AM_0
 10
979.99607430243532
 20
240.3755630834051
 30
0.0
 40
1.0
 50
90.000004144520219
 51
270.00001714451889
  0
ARC
  5
1258F
  8
AM_0
 10
976.51611448131405
 20
240.33054622431411
 30
0.0
 40
1.675026000120903
 50
90.000704001170405
 51
269.9993272878047
  0
ARC
  5
12590
  8
AM_0
 10
973.68286566204415
 20
235.65282334882849
 30
0.0
 40
1.5027759999999999
 50
14.756430000000559
 51
89.877589999989908
  0
ARC
  5
12591
  8
AM_0
 10
976.29612184116547
 20
250.34553217000459
 30
0.0
 40
1.460011199999999
 50
89.775264144516015
 51
270.22476414452268
  0
ARC
  5
12592
  8
AM_0
 10
979.99610946506857
 20
260.37556308341448
 30
0.0
 40
1.000005699999998
 50
90.000004144520219
 51
270.00001714451889
  0
ARC
  5
12593
  8
AM_0
 10
979.99610699638561
 20
270.37556308341431
 30
0.0
 40
1.000005699999998
 50
90.000004144520219
 51
270.00001714451889
  0
ARC
  5
12594
  8
AM_0
 10
976.1711229687744
 20
260.36055213914648
 30
0.0
 40
1.3350147999999999
 50
89.730444144521385
 51
270.26957014451631
  0
ARC
  5
12595
  8
AM_0
 10
976.10917049885666
 20
270.36555212385292
 30
0.0
 40
1.2700266
 50
89.629334144517586
 51
270.37068414451579
  0
LINE
  5
12596
  8
AM_0
 10
973.33606566204435
 20
307.31558434882862
 30
0.0
 11
965.33609566204404
 21
307.31558434882862
 31
0.0
  0
ARC
  5
12597
  8
AM_0
 10
979.99610576204407
 20
280.37556143926872
 30
0.0
 40
1.000005699999998
 50
89.999997000002296
 51
270.000010000001
  0
ARC
  5
12598
  8
AM_0
 10
979.99610576204407
 20
290.37556143926872
 30
0.0
 40
1.000005699999998
 50
89.999997000002296
 51
270.000010000001
  0
ARC
  5
12599
  8
AM_0
 10
976.10916926204391
 20
280.38557143926857
 30
0.0
 40
1.2700266
 50
89.629330000001815
 51
270.37067999999999
  0
ARC
  5
1259A
  8
AM_0
 10
976.17111926204416
 20
290.39057143926851
 30
0.0
 40
1.3350147999999999
 50
89.730444000005164
 51
270.2695700000001
  0
ARC
  5
1259B
  8
AM_0
 10
979.9960656620442
 20
310.37556143926861
 30
0.0
 40
1.0
 50
89.999997000002296
 51
270.000010000001
  0
ARC
  5
1259C
  8
AM_0
 10
979.99612566204405
 20
300.37556143926872
 30
0.0
 40
1.0000255999999981
 50
89.589469000002211
 51
270.41052999999027
  0
ARC
  5
1259D
  8
AM_0
 10
976.29611566204392
 20
300.40559143926862
 30
0.0
 40
1.460011199999999
 50
89.775249999990152
 51
270.22475000000981
  0
ARC
  5
1259E
  8
AM_0
 10
976.51610582981004
 20
310.42057743926802
 30
0.0
 40
1.675026000120903
 50
90.000686856703538
 51
269.99931014333782
  0
LINE
  5
1259F
  8
AM_0
 10
973.33606566204435
 20
321.37558934882873
 30
0.0
 11
965.33609566204404
 21
321.37558934882873
 31
0.0
  0
LINE
  5
125A0
  8
AM_0
 10
973.33606566204435
 20
331.37559734882859
 30
0.0
 11
965.33609566204404
 21
331.37559734882859
 31
0.0
  0
ARC
  5
125A1
  8
AM_0
 10
981.21893566204426
 20
329.65845734882851
 30
0.0
 40
2.0021281000000002
 50
90.081519999999855
 51
164.8833000000042
  0
LINE
  5
125A2
  8
AM_0
 10
978.79608566204433
 20
328.38058634882867
 30
0.0
 11
973.33606566204435
 21
328.38058634882867
 31
0.0
  0
LINE
  5
125A3
  8
ｶｸﾚｾﾝ2
 10
995.83606566204435
 20
306.87555779898292
 30
0.0
 11
1069.8360656620439
 21
306.87555779898292
 31
0.0
  0
LINE
  5
125A4
  8
ｶｸﾚｾﾝ2
 10
992.83606566204423
 20
303.87555779898281
 30
0.0
 11
992.83606566204423
 21
246.87555779898281
 31
0.0
  0
ARC
  5
125A5
  8
ｶｸﾚｾﾝ2
 10
995.83606566204435
 20
303.8755577989827
 30
0.0
 40
3.0
 50
90.0
 51
180.0
  0
LINE
  5
125A6
  8
ｶｸﾚｾﾝ2
 10
995.83606566204435
 20
243.87555779898281
 30
0.0
 11
1069.8360656620439
 21
243.87555779898281
 31
0.0
  0
ARC
  5
125A7
  8
ｶｸﾚｾﾝ2
 10
995.83606566204435
 20
246.87555779898261
 30
0.0
 40
3.0
 50
180.0
 51
270.0
  0
LINE
  5
125A8
  8
ｶｸﾚｾﾝ2
 10
1072.8360656620439
 20
246.87555779898281
 30
0.0
 11
1072.8360656620439
 21
303.87555779898281
 31
0.0
  0
ARC
  5
125A9
  8
ｶｸﾚｾﾝ2
 10
1069.8360656620439
 20
246.8755577989827
 30
0.0
 40
3.0
 50
270.0
 51
0.000000000000007
  0
ARC
  5
125AA
  8
ｶｸﾚｾﾝ2
 10
1069.8360656620439
 20
303.8755577989827
 30
0.0
 40
3.0
 50
0.000000000000007
 51
90.0
  0
LINE
  5
125AC
  8
AM_0
 10
973.33609566204404
 20
560.90717193627006
 30
0.0
 11
965.33609566204404
 21
560.90717193627006
 31
0.0
  0
LINE
  5
125AD
  8
AM_0
 10
973.33609566204404
 20
570.90717193627006
 30
0.0
 11
965.33609566204404
 21
570.90717193627006
 31
0.0
  0
LINE
  5
125AE
  8
AM_0
 10
973.33609566204404
 20
546.84711193627015
 30
0.0
 11
965.33609566204404
 21
546.84711193627015
 31
0.0
  0
LINE
  5
125AF
  8
AM_0
 10
973.33609566204404
 20
482.96722193627039
 30
0.0
 11
965.33609566204404
 21
482.96722193627039
 31
0.0
  0
LINE
  5
125B0
  8
AM_0
 10
973.33609566204404
 20
468.90717193627017
 30
0.0
 11
965.33609566204404
 21
468.90717193627017
 31
0.0
  0
LINE
  5
125B1
  8
AM_0
 10
973.33609566204404
 20
458.90717193627029
 30
0.0
 11
965.33609566204404
 21
458.90717193627029
 31
0.0
  0
LINE
  5
125B2
  8
AM_0
 10
973.33609566204404
 20
458.90717193627029
 30
0.0
 11
973.33609566204404
 21
570.90717193627006
 31
0.0
  0
LINE
  5
125B3
  8
AM_0
 10
1081.336095662044
 20
461.90717193627017
 30
0.0
 11
1081.336095662044
 21
567.90717193627017
 31
0.0
  0
LINE
  5
125B4
  8
AM_0
 10
975.13608566204425
 20
475.56724193627048
 30
0.0
 11
979.27609566204399
 21
460.10722193627021
 31
0.0
  0
LINE
  5
125B5
  8
AM_0
 10
1075.9761056620439
 20
478.25718193627029
 30
0.0
 11
1081.336095662044
 21
466.80720193627019
 31
0.0
  0
LINE
  5
125B6
  8
AM_0
 10
1089.336095662044
 20
461.90717193627017
 30
0.0
 11
1089.336095662044
 21
567.90717193627017
 31
0.0
  0
LINE
  5
125B7
  8
AM_0
 10
1090.336095662044
 20
464.90717193627017
 30
0.0
 11
1090.336095662044
 21
564.90717193627017
 31
0.0
  0
LINE
  5
125B8
  8
AM_0
 10
1095.336095662044
 20
466.8871519362703
 30
0.0
 11
1095.336095662044
 21
509.90717193627029
 31
0.0
  0
LINE
  5
125B9
  8
AM_0
 10
1093.136085662044
 20
479.21723193627042
 30
0.0
 11
1091.0361056620441
 21
479.21723193627042
 31
0.0
  0
LINE
  5
125BA
  8
AM_0
 10
1093.186065662044
 20
481.16718193627031
 30
0.0
 11
1091.336095662044
 21
481.16718193627031
 31
0.0
  0
LINE
  5
125BB
  8
AM_0
 10
1091.336095662044
 20
490.90717193627017
 30
0.0
 11
1094.336095662044
 21
490.90717193627017
 31
0.0
  0
LINE
  5
125BC
  8
AM_0
 10
1091.336095662044
 20
488.90717193627029
 30
0.0
 11
1094.336095662044
 21
488.90717193627029
 31
0.0
  0
LINE
  5
125BD
  8
AM_0
 10
1091.336095662044
 20
500.90717193627029
 30
0.0
 11
1094.336095662044
 21
500.90717193627029
 31
0.0
  0
LINE
  5
125BE
  8
AM_0
 10
1091.336095662044
 20
498.90717193627017
 30
0.0
 11
1094.336095662044
 21
498.90717193627017
 31
0.0
  0
LINE
  5
125BF
  8
AM_0
 10
1091.336095662044
 20
510.90717193627017
 30
0.0
 11
1094.336095662044
 21
510.90717193627017
 31
0.0
  0
LINE
  5
125C0
  8
AM_0
 10
1091.336095662044
 20
508.90717193627029
 30
0.0
 11
1094.336095662044
 21
508.90717193627029
 31
0.0
  0
LINE
  5
125C1
  8
AM_0
 10
1091.336095662044
 20
528.90717193627006
 30
0.0
 11
1094.336095662044
 21
528.90717193627006
 31
0.0
  0
LINE
  5
125C2
  8
AM_0
 10
1091.336095662044
 20
520.90717193627029
 30
0.0
 11
1094.336095662044
 21
520.90717193627029
 31
0.0
  0
LINE
  5
125C3
  8
AM_0
 10
1091.336095662044
 20
518.90717193627017
 30
0.0
 11
1094.336095662044
 21
518.90717193627017
 31
0.0
  0
LINE
  5
125C4
  8
AM_0
 10
1091.336095662044
 20
538.90717193627029
 30
0.0
 11
1094.336095662044
 21
538.90717193627029
 31
0.0
  0
LINE
  5
125C5
  8
AM_0
 10
1091.336095662044
 20
530.90717193627029
 30
0.0
 11
1094.336095662044
 21
530.90717193627029
 31
0.0
  0
LINE
  5
125C6
  8
AM_0
 10
1093.186065662044
 20
548.64716193627032
 30
0.0
 11
1091.336095662044
 21
548.64716193627032
 31
0.0
  0
LINE
  5
125C7
  8
AM_0
 10
1093.136085662044
 20
550.59712193627024
 30
0.0
 11
1091.0361056620441
 21
550.59712193627024
 31
0.0
  0
LINE
  5
125C8
  8
AM_0
 10
1091.336095662044
 20
540.90717193627006
 30
0.0
 11
1094.336095662044
 21
540.90717193627006
 31
0.0
  0
LINE
  5
125C9
  8
AM_0
 10
1093.086095662044
 20
561.40717193627006
 30
0.0
 11
1091.336095662044
 21
561.40717193627006
 31
0.0
  0
ARC
  5
125CA
  8
AM_0
 10
1093.0727256620439
 20
555.8861819362703
 30
0.0
 40
1.001044999999998
 50
60.471870000002269
 51
90.379709999999534
  0
ARC
  5
125CB
  8
AM_0
 10
1093.0433056620441
 20
557.02668193627028
 30
0.0
 40
1.000521999999999
 50
57.14617999999674
 51
90.413440000003618
  0
LINE
  5
125CC
  8
AM_0
 10
1093.096105662044
 20
563.50715193627025
 30
0.0
 11
1090.836095662044
 21
563.50715193627025
 31
0.0
  0
ARC
  5
125CD
  8
AM_0
 10
1093.064675662044
 20
561.54353193627026
 30
0.0
 40
1.003743999999998
 50
59.3711300000002
 51
90.491900000007135
  0
ARC
  5
125CE
  8
AM_0
 10
1093.055395662044
 20
563.6560819362702
 30
0.0
 40
1.001123999999999
 50
59.327819999999669
 51
89.387679999995484
  0
LINE
  5
125CF
  8
AM_0
 10
975.13040566204404
 20
554.22611193627006
 30
0.0
 11
979.27615566204395
 21
569.70722193627023
 31
0.0
  0
LINE
  5
125D0
  8
AM_0
 10
1075.9761056620439
 20
551.55717193627015
 30
0.0
 11
1081.336095662044
 21
562.99717193627021
 31
0.0
  0
LINE
  5
125D1
  8
AM_0
 10
1078.1260756620441
 20
571.18720193627018
 30
0.0
 11
981.20608566204419
 21
571.18720193627018
 31
0.0
  0
LINE
  5
125D2
  8
AM_0
 10
995.33609566204427
 20
604.40717193627006
 30
0.0
 11
1070.336095662044
 21
604.40717193627006
 31
0.0
  0
LINE
  5
125D3
  8
AM_0
 10
1006.532095662044
 20
607.40717193627006
 30
0.0
 11
1042.1400956620439
 21
607.40717193627006
 31
0.0
  0
LINE
  5
125D4
  8
AM_0
 10
992.83609566204439
 20
587.90717193627006
 30
0.0
 11
1050.336095662044
 21
587.90717193627006
 31
0.0
  0
LINE
  5
125D5
  8
AM_0
 10
1072.836095662044
 20
584.40717193627006
 30
0.0
 11
992.83609566204439
 21
584.40717193627006
 31
0.0
  0
LINE
  5
125D6
  8
AM_0
 10
992.83609566204439
 20
581.90717193627052
 30
0.0
 11
1072.836095662044
 21
581.90717193627052
 31
0.0
  0
LINE
  5
125D7
  8
AM_0
 10
1001.336095662044
 20
604.40717193627006
 30
0.0
 11
1006.532095662044
 21
607.40717193627006
 31
0.0
  0
ARC
  5
125D8
  8
AM_0
 10
992.75701497625926
 20
578.90717193627006
 30
0.0
 40
1.4999999999999989
 50
270.0
 51
358.49986509364697
1001
GENIUS_GENODEF_13
1002
{
1000
HIER
1070
     0
1002
}
1002
{
1000
MANEDIT
1070
     0
1002
}
1002
{
1000
NOSEL
1070
     0
1002
}
1002
{
1000
BEHIND
1070
     0
1002
}
1002
{
1000
REACTOR
1002
}
1001
GENIUS_GENOBJ-N-FIL_13
1002
{
1000
OWNER
1000
GEN
1002
}
  0
LINE
  5
125D9
  8
AM_0
 10
992.83609566204439
 20
581.90717193627052
 30
0.0
 11
992.83609566204439
 21
587.90717193627006
 31
0.0
  0
LINE
  5
125DA
  8
AM_0
 10
974.33609566204404
 20
567.90720193627021
 30
0.0
 11
980.06189566204409
 21
576.72416193627009
 31
0.0
  0
LINE
  5
125DB
  8
AM_0
 10
978.79404566204391
 20
567.90717193627017
 30
0.0
 11
973.33609566204404
 21
567.90717193627017
 31
0.0
  0
LINE
  5
125DC
  8
AM_0
 10
992.75701497625926
 20
577.40717193627017
 30
0.0
 11
981.31991566204431
 21
577.40717193627017
 31
0.0
  0
ARC
  5
125DD
  8
AM_0
 10
981.31991566204431
 20
575.90717193627006
 30
0.0
 40
1.4999999999999989
 50
89.999989999999016
 51
146.99999999999889
  0
ARC
  5
125DE
  8
AM_0
 10
981.21091566204404
 20
569.18244193627015
 30
0.0
 40
2.0047289999999989
 50
90.138319999997705
 51
164.82650000000189
  0
LINE
  5
125DF
  8
AM_0
 10
994.33609566204427
 20
587.90717193627006
 30
0.0
 11
994.33609566204427
 21
603.40717193627006
 31
0.0
  0
ARC
  5
125E0
  8
AM_0
 10
995.33609566204427
 20
603.40717193627052
 30
0.0
 40
1.0
 50
90.0
 51
180.0
  0
LINE
  5
125E1
  8
AM_0
 10
994.33609566204393
 20
581.90723193627025
 30
0.0
 11
994.05535653898073
 21
571.18720193627018
 31
0.0
  0
LINE
  5
125E2
  8
AM_0
 10
1042.1400956620439
 20
607.40717193627006
 30
0.0
 11
1047.3288711722471
 21
604.40717193627006
 31
0.0
  0
LINE
  5
125E3
  8
AM_0
 10
1058.836095662044
 20
600.40717193627006
 30
0.0
 11
1060.836095662044
 21
600.40717193627006
 31
0.0
  0
ARC
  5
125E4
  8
AM_0
 10
1059.836095662044
 20
591.90717193627006
 30
0.0
 40
3.999999999999996
 50
0.000000000000007
 51
180.0
  0
ARC
  5
125E5
  8
AM_0
 10
1059.836095662044
 20
591.90717193627006
 30
0.0
 40
7.5000000000000018
 50
0.000000000000007
 51
180.0
  0
LINE
  5
125E6
  8
AM_0
 10
1078.429845662044
 20
574.03718193627014
 30
0.0
 11
1056.0034454633769
 21
574.03718193627014
 31
0.0
  0
ARC
  5
125E7
  8
AM_0
 10
1058.836095662044
 20
592.90717193627017
 30
0.0
 40
7.4999999999999956
 50
90.0
 51
180.0
  0
ARC
  5
125E8
  8
AM_0
 10
1050.336095662044
 20
588.90717193627017
 30
0.0
 40
1.0
 50
270.0
 51
0.000000000000007
  0
LINE
  5
125E9
  8
AM_0
 10
1051.336095662044
 20
592.90717193627017
 30
0.0
 11
1051.336095662044
 21
588.90717193627017
 31
0.0
  0
LINE
  5
125EA
  8
AM_0
 10
1055.836095662044
 20
584.40717193627006
 30
0.0
 11
1055.836095662044
 21
591.90717193627006
 31
0.0
  0
LINE
  5
125EB
  8
AM_0
 10
1052.336095662044
 20
591.90717193627006
 30
0.0
 11
1052.336095662044
 21
584.40717193627006
 31
0.0
  0
LINE
  5
125EC
  8
AM_0
 10
1054.3361556620439
 20
581.9072019362701
 30
0.0
 11
1054.6168198493831
 21
571.18720193627018
 31
0.0
  0
ARC
  5
125ED
  8
AM_0
 10
1056.0034454633769
 20
575.53718193627037
 30
0.0
 40
1.4999999999999989
 50
181.49973886386741
 51
270.0
1001
GENIUS_GENODEF_13
1002
{
1000
HIER
1070
     0
1002
}
1002
{
1000
MANEDIT
1070
     0
1002
}
1002
{
1000
NOSEL
1070
     0
1002
}
1002
{
1000
BEHIND
1070
     0
1002
}
1002
{
1000
REACTOR
1002
}
1001
GENIUS_GENOBJ-N-FIL_13
1002
{
1000
OWNER
1000
GEN
1002
}
  0
LINE
  5
125EE
  8
AM_0
 10
1072.836095662044
 20
581.90717193627052
 30
0.0
 11
1072.836095662044
 21
600.40717193627006
 31
0.0
  0
LINE
  5
125EF
  8
AM_0
 10
1071.336095662044
 20
587.90717193627006
 30
0.0
 11
1071.336095662044
 21
603.40717193627006
 31
0.0
  0
ARC
  5
125F0
  8
AM_0
 10
1060.836095662044
 20
592.90717193627017
 30
0.0
 40
7.499999999999992
 50
0.000000000000007
 51
90.0
  0
ARC
  5
125F1
  8
AM_0
 10
1070.336095662044
 20
603.40717193627006
 30
0.0
 40
1.0
 50
0.000000000000007
 51
90.0
  0
LINE
  5
125F2
  8
AM_0
 10
1072.836095662044
 20
600.40717193627006
 30
0.0
 11
1071.336095662044
 21
600.40717193627006
 31
0.0
  0
LINE
  5
125F3
  8
AM_0
 10
1067.336095662044
 20
584.40717193627006
 30
0.0
 11
1067.336095662044
 21
591.90717193627006
 31
0.0
  0
LINE
  5
125F4
  8
AM_0
 10
1063.836095662044
 20
584.40717193627006
 30
0.0
 11
1063.836095662044
 21
591.90717193627006
 31
0.0
  0
LINE
  5
125F5
  8
AM_0
 10
1068.336095662044
 20
588.90717193627017
 30
0.0
 11
1068.336095662044
 21
592.90717193627017
 31
0.0
  0
ARC
  5
125F6
  8
AM_0
 10
1069.336095662044
 20
588.90717193627017
 30
0.0
 40
1.0
 50
180.0
 51
270.0
  0
LINE
  5
125F7
  8
AM_0
 10
1072.836095662044
 20
587.90717193627006
 30
0.0
 11
1069.336095662044
 21
587.90717193627006
 31
0.0
  0
ARC
  5
125F8
  8
AM_0
 10
1078.3494656620439
 20
572.03718193627014
 30
0.0
 40
1.9999999999999989
 50
8.6296200000044774
 51
89.999989999999016
  0
ARC
  5
125F9
  8
AM_0
 10
1078.429845662044
 20
572.03718193627014
 30
0.0
 40
1.9999999999999989
 50
7.9504400000034634
 51
89.999989999999016
  0
ARC
  5
125FA
  8
AM_0
 10
1078.0799256620439
 20
572.03681193627006
 30
0.0
 40
2.000420099999999
 50
8.9268200000007685
 51
89.822709999996064
  0
LINE
  5
125FB
  8
AM_0
 10
1089.336095662044
 20
567.90717193627017
 30
0.0
 11
1081.336095662044
 21
567.90717193627017
 31
0.0
  0
LINE
  5
125FC
  8
AM_0
 10
1081.336095662044
 20
562.99723193627017
 30
0.0
 11
1080.096105662044
 21
569.55723193627023
 31
0.0
  0
LINE
  5
125FD
  8
AM_0
 10
1081.336095662044
 20
564.34724193627005
 30
0.0
 11
1080.056125662044
 21
572.3471819362702
 31
0.0
  0
LINE
  5
125FE
  8
AM_0
 10
1081.336095662044
 20
565.68723193627022
 30
0.0
 11
1080.3268756620439
 21
572.33726193627024
 31
0.0
  0
LINE
  5
125FF
  8
AM_0
 10
1081.336095662044
 20
565.68717193627015
 30
0.0
 11
1080.4106156620439
 21
572.31379193627015
 31
0.0
  0
ARC
  5
12600
  8
AM_0
 10
1078.1312556620439
 20
569.18793193627005
 30
0.0
 40
1.9992489999999989
 50
10.64310000000104
 51
90.147430000001364
  0
ARC
  5
12601
  8
AM_0
 10
1090.839455662044
 20
563.00373193627036
 30
0.0
 40
0.5033929900000002
 50
90.384910000000545
 51
179.61509999999799
  0
ARC
  5
12602
  8
AM_0
 10
1090.8356056620439
 20
565.15669193627036
 30
0.0
 40
0.49952301
 50
179.94523000000129
 51
270.05477399999961
  0
LINE
  5
12603
  8
AM_0
 10
1090.336095662044
 20
564.90717193627017
 30
0.0
 11
1089.336095662044
 21
564.90717193627017
 31
0.0
  0
LINE
  5
12604
  8
AM_0
 10
1093.0560656620439
 20
562.54719193627034
 30
0.0
 11
1090.336095662044
 21
562.54719193627034
 31
0.0
  0
LINE
  5
12605
  8
AM_0
 10
1093.0660756620441
 20
564.65717193627006
 30
0.0
 11
1090.836095662044
 21
564.65717193627006
 31
0.0
  0
LINE
  5
12606
  8
AM_0
 10
1012.336095662044
 20
540.90717193627006
 30
0.0
 11
1078.9761056620439
 21
540.90717193627006
 31
0.0
  0
LINE
  5
12607
  8
AM_0
 10
1079.8760756620441
 20
541.39716193627032
 30
0.0
 11
1012.336095662044
 21
541.39716193627032
 31
0.0
  0
LINE
  5
12608
  8
AM_0
 10
1079.656105662044
 20
548.27717193627041
 30
0.0
 11
1012.316075662044
 21
548.27717193627041
 31
0.0
  0
LINE
  5
12609
  8
AM_0
 10
1012.336095662044
 20
488.90717193627029
 30
0.0
 11
1078.9761056620439
 21
488.90717193627029
 31
0.0
  0
LINE
  5
1260A
  8
AM_0
 10
1079.8760756620441
 20
488.41718193627031
 30
0.0
 11
1012.336095662044
 21
488.41718193627031
 31
0.0
  0
LINE
  5
1260B
  8
AM_0
 10
980.00326566204433
 20
490.90717193627017
 30
0.0
 11
1078.9761056620439
 21
490.90717193627017
 31
0.0
  0
LINE
  5
1260C
  8
AM_0
 10
1079.8760756620441
 20
491.34711193627032
 30
0.0
 11
976.30185566204409
 21
491.34711193627032
 31
0.0
  0
LINE
  5
1260D
  8
AM_0
 10
980.00326566204433
 20
538.90717193627029
 30
0.0
 11
1078.9761056620439
 21
538.90717193627029
 31
0.0
  0
LINE
  5
1260E
  8
AM_0
 10
1079.8760756620441
 20
538.46723193627031
 30
0.0
 11
976.30185566204409
 21
538.46723193627031
 31
0.0
  0
LINE
  5
1260F
  8
AM_0
 10
1079.656105662044
 20
551.62714193627039
 30
0.0
 11
1024.336095662044
 21
551.62714193627039
 31
0.0
  0
LINE
  5
12610
  8
AM_0
 10
1024.336095662044
 20
548.90717193627006
 30
0.0
 11
1078.9761056620439
 21
548.90717193627006
 31
0.0
  0
LINE
  5
12611
  8
AM_0
 10
1024.336095662044
 20
550.90717193627029
 30
0.0
 11
1078.9761056620439
 21
550.90717193627029
 31
0.0
  0
LINE
  5
12612
  8
AM_0
 10
1079.656105662044
 20
481.53718193627031
 30
0.0
 11
1012.316075662044
 21
481.53718193627031
 31
0.0
  0
LINE
  5
12613
  8
AM_0
 10
979.9960656620442
 20
478.90717193627017
 30
0.0
 11
1078.9761056620439
 21
478.90717193627017
 31
0.0
  0
LINE
  5
12614
  8
AM_0
 10
979.9960656620442
 20
480.90717193627029
 30
0.0
 11
1078.9761056620439
 21
480.90717193627029
 31
0.0
  0
LINE
  5
12615
  8
AM_0
 10
1079.656105662044
 20
478.18720193627018
 30
0.0
 11
976.51608566204402
 21
478.18720193627018
 31
0.0
  0
LINE
  5
12616
  8
AM_0
 10
980.00326566204433
 20
540.90717193627006
 30
0.0
 11
994.33609566204393
 21
540.90717193627006
 31
0.0
  0
LINE
  5
12617
  8
AM_0
 10
994.33609566204393
 20
541.38715193627024
 30
0.0
 11
976.30185566204409
 21
541.38715193627024
 31
0.0
  0
LINE
  5
12618
  8
AM_0
 10
976.51608566204402
 20
548.27717193627041
 30
0.0
 11
994.35611566204409
 21
548.27717193627041
 31
0.0
  0
LINE
  5
12619
  8
AM_0
 10
979.9960656620442
 20
548.90717193627006
 30
0.0
 11
1024.336095662044
 21
548.90717193627006
 31
0.0
  0
LINE
  5
1261A
  8
AM_0
 10
979.9960656620442
 20
550.90717193627029
 30
0.0
 11
1024.336095662044
 21
550.90717193627029
 31
0.0
  0
LINE
  5
1261B
  8
AM_0
 10
1024.336095662044
 20
551.62714193627039
 30
0.0
 11
976.51608566204402
 21
551.62714193627039
 31
0.0
  0
ARC
  5
1261C
  8
AM_0
 10
979.99612566204405
 20
539.90717193627017
 30
0.0
 40
1.0000255999999981
 50
89.58946999999668
 51
270.41053099999777
  0
ARC
  5
1261D
  8
AM_0
 10
976.29611566204392
 20
539.9372019362703
 30
0.0
 40
1.460011199999999
 50
89.775249999990152
 51
270.22474999999679
  0
ARC
  5
1261E
  8
AM_0
 10
976.51608566204402
 20
549.95222193627023
 30
0.0
 40
1.675001999999999
 50
89.999989999999016
 51
270.00000299999761
  0
ARC
  5
1261F
  8
AM_0
 10
973.68289566204419
 20
554.62995193627034
 30
0.0
 40
1.502775999999999
 50
270.12241300000159
 51
345.24356999999952
  0
ARC
  5
12620
  8
AM_0
 10
979.9960656620442
 20
549.90717193627006
 30
0.0
 40
0.9999999999999998
 50
89.999989999999016
 51
270.00000299999761
  0
CIRCLE
  5
12621
  8
AM_0
 10
1000.836095662044
 20
543.40717193627029
 30
0.0
 40
0.9999999999999998
  0
LINE
  5
12622
  8
AM_0
 10
995.83609566204404
 20
542.40717193627029
 30
0.0
 11
995.83609566204404
 21
547.40717193627029
 31
0.0
  0
LINE
  5
12623
  8
AM_0
 10
995.35611566204432
 20
542.40717193627029
 30
0.0
 11
995.35611566204432
 21
547.26716193627021
 31
0.0
  0
ARC
  5
12624
  8
AM_0
 10
994.35611566204409
 20
547.26716193627021
 30
0.0
 40
0.9999999999999998
 50
359.999989999999
 51
90.0
  0
ARC
  5
12625
  8
AM_0
 10
994.33609566204393
 20
547.40717193627029
 30
0.0
 40
1.4999999999999989
 50
359.999989999999
 51
90.0
  0
ARC
  5
12626
  8
AM_0
 10
994.33609566204393
 20
542.40717193627029
 30
0.0
 40
1.4999999999999989
 50
270.00000299999761
 51
0.0000100000010134
  0
ARC
  5
12627
  8
AM_0
 10
994.33609566204393
 20
542.40717193627029
 30
0.0
 40
1.019999999999998
 50
270.00000299999761
 51
0.0000100000010134
  0
CIRCLE
  5
12628
  8
AM_0
 10
1005.836095662044
 20
543.40717193627029
 30
0.0
 40
1.149999999999999
  0
CIRCLE
  5
12629
  8
AM_0
 10
1005.836095662044
 20
543.40717193627029
 30
0.0
 40
1.0999999999999981
  0
LINE
  5
1262A
  8
AM_0
 10
1010.836095662044
 20
542.40717193627029
 30
0.0
 11
1010.836095662044
 21
547.40717193627029
 31
0.0
  0
LINE
  5
1262B
  8
AM_0
 10
1011.316075662044
 20
542.40717193627029
 30
0.0
 11
1011.316075662044
 21
547.26716193627021
 31
0.0
  0
ARC
  5
1262C
  8
AM_0
 10
1012.316075662044
 20
547.26716193627021
 30
0.0
 40
0.9999999999999998
 50
89.999989999999016
 51
180.00000068324951
  0
ARC
  5
1262D
  8
AM_0
 10
1012.336095662044
 20
547.40717193627029
 30
0.0
 40
1.4999999999999989
 50
89.999989999999016
 51
180.00000068324951
  0
ARC
  5
1262E
  8
AM_0
 10
1012.336095662044
 20
542.40717193627029
 30
0.0
 40
1.019999999999998
 50
180.0
 51
270.00000299999761
  0
ARC
  5
1262F
  8
AM_0
 10
1012.336095662044
 20
542.40717193627029
 30
0.0
 40
1.4999999999999989
 50
180.0
 51
270.00000299999761
  0
LINE
  5
12630
  8
AM_0
 10
979.98892566204404
 20
488.90717193627029
 30
0.0
 11
994.33609566204393
 21
488.90717193627029
 31
0.0
  0
LINE
  5
12631
  8
AM_0
 10
994.33609566204393
 20
488.41718193627031
 30
0.0
 11
976.29043566204416
 21
488.41718193627031
 31
0.0
  0
LINE
  5
12632
  8
AM_0
 10
994.35611566204409
 20
481.54719193627022
 30
0.0
 11
976.51608566204402
 21
481.54719193627022
 31
0.0
  0
ARC
  5
12633
  8
AM_0
 10
976.51608566204402
 20
479.86213193627037
 30
0.0
 40
1.675001999999999
 50
89.999989999999016
 51
270.00000299999761
  0
ARC
  5
12634
  8
AM_0
 10
976.29611566204392
 20
489.87714193627028
 30
0.0
 40
1.460011199999999
 50
89.775249999990152
 51
270.22474999999679
  0
ARC
  5
12635
  8
AM_0
 10
973.68289566204419
 20
475.18439193627029
 30
0.0
 40
1.502775999999999
 50
14.756430000000559
 51
89.877580000005153
  0
ARC
  5
12636
  8
AM_0
 10
979.99612566204405
 20
489.90717193627017
 30
0.0
 40
1.0000255999999981
 50
89.58946999999668
 51
270.41053099999777
  0
ARC
  5
12637
  8
AM_0
 10
979.9960656620442
 20
479.90717193627029
 30
0.0
 40
0.9999999999999998
 50
89.999989999999016
 51
270.00000299999761
  0
CIRCLE
  5
12638
  8
AM_0
 10
1005.836095662044
 20
486.40717193627017
 30
0.0
 40
1.149999999999999
  0
LINE
  5
12639
  8
AM_0
 10
995.35611566204432
 20
487.40717193627017
 30
0.0
 11
995.35611566204432
 21
482.54719193627039
 31
0.0
  0
LINE
  5
1263A
  8
AM_0
 10
995.83609566204404
 20
487.40717193627017
 30
0.0
 11
995.83609566204404
 21
482.40717193627017
 31
0.0
  0
CIRCLE
  5
1263B
  8
AM_0
 10
1005.836095662044
 20
486.40717193627017
 30
0.0
 40
1.0999999999999981
  0
CIRCLE
  5
1263C
  8
AM_0
 10
1000.836095662044
 20
486.40717193627017
 30
0.0
 40
0.9999999999999998
  0
ARC
  5
1263D
  8
AM_0
 10
994.33609566204393
 20
487.40717193627017
 30
0.0
 40
1.4999999999999989
 50
359.999989999999
 51
90.0
  0
ARC
  5
1263E
  8
AM_0
 10
994.33609566204393
 20
487.40717193627017
 30
0.0
 40
1.019999999999998
 50
359.999989999999
 51
90.0
  0
ARC
  5
1263F
  8
AM_0
 10
994.33609566204393
 20
482.40717193627017
 30
0.0
 40
1.4999999999999989
 50
270.00000299999761
 51
0.0000100000010134
  0
ARC
  5
12640
  8
AM_0
 10
994.35611566204409
 20
482.54719193627039
 30
0.0
 40
0.9999999999999998
 50
270.00000299999761
 51
0.0000100000010134
  0
LINE
  5
12641
  8
AM_0
 10
1011.316075662044
 20
487.40717193627017
 30
0.0
 11
1011.316075662044
 21
482.54719193627039
 31
0.0
  0
LINE
  5
12642
  8
AM_0
 10
1010.836095662044
 20
487.40717193627017
 30
0.0
 11
1010.836095662044
 21
482.40717193627017
 31
0.0
  0
ARC
  5
12643
  8
AM_0
 10
1012.336095662044
 20
487.40717193627017
 30
0.0
 40
1.4999999999999989
 50
89.999989999999016
 51
180.00000068324951
  0
ARC
  5
12644
  8
AM_0
 10
1012.336095662044
 20
487.40717193627017
 30
0.0
 40
1.019999999999998
 50
89.999989999999016
 51
180.000000683243
  0
ARC
  5
12645
  8
AM_0
 10
1012.336095662044
 20
482.40717193627017
 30
0.0
 40
1.4999999999999989
 50
180.0
 51
270.00000299999761
  0
ARC
  5
12646
  8
AM_0
 10
1012.316075662044
 20
482.54719193627039
 30
0.0
 40
0.9999999999999998
 50
180.0
 51
270.00000299999761
  0
ARC
  5
12647
  8
AM_0
 10
1080.0719356620441
 20
519.90717193627006
 30
0.0
 40
1.2700129999999981
 50
269.73661699999508
 51
90.263369999999142
  0
ARC
  5
12648
  8
AM_0
 10
1091.3410356620441
 20
517.90229193627033
 30
0.0
 40
1.004942999999999
 50
90.281139999999453
 51
179.71886999999811
  0
ARC
  5
12649
  8
AM_0
 10
1043.609165662044
 20
519.90717193627006
 30
0.0
 40
1.2700266
 50
89.629319999999979
 51
270.37067000001122
  0
LINE
  5
1264A
  8
AM_0
 10
1080.0060756620439
 20
531.24714193627028
 30
0.0
 11
1043.664825662044
 21
531.24714193627028
 31
0.0
  0
LINE
  5
1264B
  8
AM_0
 10
1080.0060756620439
 20
528.58723193627009
 30
0.0
 11
1043.6774056620441
 21
528.58723193627009
 31
0.0
  0
LINE
  5
1264C
  8
AM_0
 10
1044.8973756620439
 20
528.90717193627006
 30
0.0
 11
1078.9761056620439
 21
528.90717193627006
 31
0.0
  0
LINE
  5
1264D
  8
AM_0
 10
1044.8973756620439
 20
530.90717193627029
 30
0.0
 11
1078.9761056620439
 21
530.90717193627029
 31
0.0
  0
LINE
  5
1264E
  8
AM_0
 10
1044.8973756620439
 20
518.90717193627017
 30
0.0
 11
1078.9761056620439
 21
518.90717193627017
 31
0.0
  0
LINE
  5
1264F
  8
AM_0
 10
1044.8973756620439
 20
520.90717193627029
 30
0.0
 11
1078.9761056620439
 21
520.90717193627029
 31
0.0
  0
LINE
  5
12650
  8
AM_0
 10
1080.0660756620441
 20
521.17719193627022
 30
0.0
 11
1043.6174056620439
 21
521.17719193627022
 31
0.0
  0
ARC
  5
12651
  8
AM_0
 10
1043.671115662044
 20
529.91718193627025
 30
0.0
 40
1.3300147999999981
 50
89.72941999999864
 51
270.27056700000099
  0
ARC
  5
12652
  8
AM_0
 10
1044.8973756620439
 20
529.90717193627029
 30
0.0
 40
1.000005699999998
 50
89.999989999999016
 51
270.00000299999761
  0
ARC
  5
12653
  8
AM_0
 10
1044.8973756620439
 20
519.90717193627006
 30
0.0
 40
1.000005699999998
 50
89.999989999999016
 51
270.00000299999761
  0
ARC
  5
12654
  8
AM_0
 10
1079.8760756620441
 20
539.9322019362703
 30
0.0
 40
1.4650039999999991
 50
270.00000299999761
 51
90.0
  0
ARC
  5
12655
  8
AM_0
 10
1078.7914756620439
 20
539.90717193627017
 30
0.0
 40
1.000013899999999
 50
269.69165999999939
 51
90.308340000000754
  0
ARC
  5
12656
  8
AM_0
 10
1079.662935662044
 20
549.95222193627023
 30
0.0
 40
1.6750139999999989
 50
269.76649900000331
 51
90.233509999999441
  0
LINE
  5
12657
  8
AM_0
 10
1088.636085662044
 20
558.09712193627024
 30
0.0
 11
1082.406105662044
 21
558.09712193627024
 31
0.0
  0
ARC
  5
12658
  8
AM_0
 10
1091.340185662044
 20
560.40302193627019
 30
0.0
 40
1.0041199999999999
 50
90.234610000000004
 51
179.76539
  0
ARC
  5
12659
  8
AM_0
 10
1091.3393256620441
 20
555.88044193627024
 30
0.0
 40
1.0032760000000001
 50
154.19810000000481
 51
179.6181100000048
  0
ARC
  5
1265A
  8
AM_0
 10
1091.338535662044
 20
555.88471193627015
 30
0.0
 40
1.002470999999999
 50
90.141070000006593
 51
179.8589299999999
  0
LINE
  5
1265B
  8
AM_0
 10
1093.036045662044
 20
558.02717193627041
 30
0.0
 11
1090.336095662044
 21
558.02717193627041
 31
0.0
  0
LINE
  5
1265C
  8
AM_0
 10
1093.0660756620441
 20
556.88715193627024
 30
0.0
 11
1091.336095662044
 21
556.88715193627024
 31
0.0
  0
POLYLINE
  5
1265D
  8
AM_0
 66
     1
 10
0.0
 20
0.0
 30
0.0
  0
VERTEX
  5
1265E
  8
AM_0
 10
1077.4751956620439
 20
541.39021193627025
 30
0.0
 42
0.00068900015
  0
VERTEX
  5
1265F
  8
AM_0
 10
1077.4043156620439
 20
541.96496193627024
 30
0.0
 42
0.00070644648
  0
VERTEX
  5
12660
  8
AM_0
 10
1077.3318156620439
 20
542.53964193627019
 30
0.0
 42
0.00069245587
  0
VERTEX
  5
12661
  8
AM_0
 10
1077.2577256620441
 20
543.11396193627024
 30
0.0
 42
0.00069587802
  0
VERTEX
  5
12662
  8
AM_0
 10
1077.1820456620439
 20
543.68810193627019
 30
0.0
 42
0.00068980012
  0
VERTEX
  5
12663
  8
AM_0
 10
1077.104745662044
 20
544.26210193627026
 30
0.0
 42
0.00072079193
  0
VERTEX
  5
12664
  8
AM_0
 10
1077.025855662044
 20
544.83588193627008
 30
0.0
 42
0.00071003147
  0
VERTEX
  5
12665
  8
AM_0
 10
1076.9453156620441
 20
545.40936193626999
 30
0.0
 42
0.00072658712
  0
VERTEX
  5
12666
  8
AM_0
 10
1076.8631556620439
 20
545.98245193627031
 30
0.0
 42
0.00069571059
  0
VERTEX
  5
12667
  8
AM_0
 10
1076.7793356620441
 20
546.5554919362703
 30
0.0
 42
0.0007126617
  0
VERTEX
  5
12668
  8
AM_0
 10
1076.693905662044
 20
547.12825193627032
 30
0.0
 42
0.00071614574
  0
VERTEX
  5
12669
  8
AM_0
 10
1076.6068756620441
 20
547.70060193627023
 30
0.0
 42
0.00072290803
  0
VERTEX
  5
1266A
  8
AM_0
 10
1076.5181656620441
 20
548.27290193627016
 30
0.0
  0
SEQEND
  5
1266B
  8
AM_0
  0
ARC
  5
1266C
  8
AM_0
 10
1078.7914756620439
 20
549.90717193627006
 30
0.0
 40
1.000013899999999
 50
269.69165999999939
 51
90.308340000000754
  0
ARC
  5
1266D
  8
AM_0
 10
1091.0355556620441
 20
551.29658193627029
 30
0.0
 40
0.6994530000000001
 50
179.95517000000069
 51
270.04482899999749
  0
ARC
  5
1266E
  8
AM_0
 10
1091.339455662044
 20
547.64387193627033
 30
0.0
 40
1.003352
 50
90.191109999996925
 51
179.8089000000011
  0
ARC
  5
1266F
  8
AM_0
 10
1091.335915662044
 20
541.90705193627025
 30
0.0
 40
0.9998239899999999
 50
179.98991999999521
 51
270.01007700000042
  0
ARC
  5
12670
  8
AM_0
 10
1080.0060756620439
 20
529.91718193627025
 30
0.0
 40
1.3300049999999981
 50
270.00000299999761
 51
90.0
  0
ARC
  5
12671
  8
AM_0
 10
1078.7914756620439
 20
529.90717193627029
 30
0.0
 40
1.000013899999999
 50
269.69165999999939
 51
90.308340000000754
  0
POLYLINE
  5
12672
  8
AM_0
 66
     1
 10
0.0
 20
0.0
 30
0.0
  0
VERTEX
  5
12673
  8
AM_0
 10
1078.457855662044
 20
531.24775193627033
 30
0.0
 42
0.00073721992
  0
VERTEX
  5
12674
  8
AM_0
 10
1078.4137056620441
 20
531.85016193627007
 30
0.0
 42
0.00074398496
  0
VERTEX
  5
12675
  8
AM_0
 10
1078.3677756620441
 20
532.45243193627005
 30
0.0
 42
0.00073322625
  0
VERTEX
  5
12676
  8
AM_0
 10
1078.3200456620441
 20
533.05476193627032
 30
0.0
 42
0.00073594289
  0
VERTEX
  5
12677
  8
AM_0
 10
1078.270565662044
 20
533.65675193626998
 30
0.0
 42
0.00074742568
  0
VERTEX
  5
12678
  8
AM_0
 10
1078.2192956620429
 20
534.25861193626997
 30
0.0
 42
0.00073216749
  0
VERTEX
  5
12679
  8
AM_0
 10
1078.1662356620441
 20
534.86042193627031
 30
0.0
 42
0.00074184065
  0
VERTEX
  5
1267A
  8
AM_0
 10
1078.111415662044
 20
535.46195193627022
 30
0.0
 42
0.00072077528
  0
VERTEX
  5
1267B
  8
AM_0
 10
1078.0548356620441
 20
536.06318193626998
 30
0.0
 42
0.00074978179
  0
VERTEX
  5
1267C
  8
AM_0
 10
1077.996495662044
 20
536.66438193627016
 30
0.0
 42
0.00074288888
  0
VERTEX
  5
1267D
  8
AM_0
 10
1077.936345662044
 20
537.26540193627034
 30
0.0
 42
0.00072503679
  0
VERTEX
  5
1267E
  8
AM_0
 10
1077.8744356620441
 20
537.8661419362702
 30
0.0
 42
0.00074640584
  0
VERTEX
  5
1267F
  8
AM_0
 10
1077.8107656620441
 20
538.46674193627018
 30
0.0
  0
SEQEND
  5
12680
  8
AM_0
  0
ARC
  5
12681
  8
AM_0
 10
1091.3410356620441
 20
537.90229193627033
 30
0.0
 40
1.0049469
 50
90.281369999992734
 51
179.7186300000007
  0
ARC
  5
12682
  8
AM_0
 10
1091.335915662044
 20
531.90705193627025
 30
0.0
 40
0.9998210099999999
 50
179.98971999999799
 51
270.01028199999831
  0
POLYLINE
  5
12683
  8
AM_0
 66
     1
 10
0.0
 20
0.0
 30
0.0
  0
VERTEX
  5
12684
  8
AM_0
 10
1078.9320456620439
 20
521.17756193627008
 30
0.0
 42
0.00076695235
  0
VERTEX
  5
12685
  8
AM_0
 10
1078.917245662044
 20
521.79532193627006
 30
0.0
 42
0.00073263043
  0
VERTEX
  5
12686
  8
AM_0
 10
1078.900605662044
 20
522.41292193627032
 30
0.0
 42
0.00076525988
  0
VERTEX
  5
12687
  8
AM_0
 10
1078.882115662044
 20
523.03059193627041
 30
0.0
 42
0.00075144488
  0
VERTEX
  5
12688
  8
AM_0
 10
1078.8617456620441
 20
523.64819193627011
 30
0.0
 42
0.00076035096
  0
VERTEX
  5
12689
  8
AM_0
 10
1078.8395056620441
 20
524.26562193627024
 30
0.0
 42
0.00075543154
  0
VERTEX
  5
1268A
  8
AM_0
 10
1078.815405662044
 20
524.88300193627038
 30
0.0
 42
0.0007577325
  0
VERTEX
  5
1268B
  8
AM_0
 10
1078.7894256620441
 20
525.50040193627024
 30
0.0
 42
0.00076034585
  0
VERTEX
  5
1268C
  8
AM_0
 10
1078.7615756620439
 20
526.11779193627035
 30
0.0
 42
0.00074823143
  0
VERTEX
  5
1268D
  8
AM_0
 10
1078.731845662044
 20
526.73518193627024
 30
0.0
 42
0.00074896605
  0
VERTEX
  5
1268E
  8
AM_0
 10
1078.7002856620441
 20
527.35231193627033
 30
0.0
 42
0.00076039763
  0
VERTEX
  5
1268F
  8
AM_0
 10
1078.6668656620441
 20
527.96934193626998
 30
0.0
 42
0.00075616127
  0
VERTEX
  5
12690
  8
AM_0
 10
1078.6315656620441
 20
528.58637193627033
 30
0.0
  0
SEQEND
  5
12691
  8
AM_0
  0
ARC
  5
12692
  8
AM_0
 10
1078.7914756620439
 20
519.90717193627006
 30
0.0
 40
1.000013899999999
 50
269.69165999999939
 51
90.308340000000754
  0
ARC
  5
12693
  8
AM_0
 10
1091.335915662044
 20
521.90705193627025
 30
0.0
 40
0.9998279799999998
 50
179.99015999999699
 51
270.00983800000671
  0
ARC
  5
12694
  8
AM_0
 10
1091.3410356620441
 20
527.90229193627033
 30
0.0
 40
1.004939
 50
90.280939999996434
 51
179.71907000000101
  0
LINE
  5
12695
  8
AM_0
 10
1044.8973756620439
 20
508.90717193627029
 30
0.0
 11
1078.9761056620439
 21
508.90717193627029
 31
0.0
  0
LINE
  5
12696
  8
AM_0
 10
1044.8973756620439
 20
510.90717193627017
 30
0.0
 11
1078.9761056620439
 21
510.90717193627017
 31
0.0
  0
LINE
  5
12697
  8
AM_0
 10
1080.0660756620441
 20
508.6371519362703
 30
0.0
 11
1043.6174056620439
 21
508.6371519362703
 31
0.0
  0
LINE
  5
12698
  8
AM_0
 10
1080.0660756620441
 20
511.16718193627031
 30
0.0
 11
1043.6174056620439
 21
511.16718193627031
 31
0.0
  0
LINE
  5
12699
  8
AM_0
 10
1080.0660756620441
 20
518.63715193627024
 30
0.0
 11
1043.6174056620439
 21
518.63715193627024
 31
0.0
  0
LINE
  5
1269A
  8
AM_0
 10
1044.8973756620439
 20
500.90717193627029
 30
0.0
 11
1078.9761056620439
 21
500.90717193627029
 31
0.0
  0
LINE
  5
1269B
  8
AM_0
 10
1080.0060756620439
 20
501.22712193627029
 30
0.0
 11
1043.6774056620441
 21
501.22712193627029
 31
0.0
  0
LINE
  5
1269C
  8
AM_0
 10
1044.8973756620439
 20
498.90717193627017
 30
0.0
 11
1078.9761056620439
 21
498.90717193627017
 31
0.0
  0
LINE
  5
1269D
  8
AM_0
 10
1080.0060756620439
 20
498.56721193627021
 30
0.0
 11
1043.6774056620441
 21
498.56721193627021
 31
0.0
  0
ARC
  5
1269E
  8
AM_0
 10
1043.609165662044
 20
509.89716193627032
 30
0.0
 40
1.2700266
 50
89.629319999999979
 51
270.37067000001122
  0
ARC
  5
1269F
  8
AM_0
 10
1043.671115662044
 20
499.8921619362705
 30
0.0
 40
1.3350147999999991
 50
89.730429999999885
 51
270.26955600000792
  0
ARC
  5
126A0
  8
AM_0
 10
1044.8973756620439
 20
509.90717193627029
 30
0.0
 40
1.000005699999998
 50
89.999989999999016
 51
270.00000299999761
  0
ARC
  5
126A1
  8
AM_0
 10
1044.8973756620439
 20
499.90717193627017
 30
0.0
 40
1.000005699999998
 50
89.999989999999016
 51
270.00000299999761
  0
POLYLINE
  5
126A2
  8
AM_0
 66
     1
 10
0.0
 20
0.0
 30
0.0
  0
VERTEX
  5
126A3
  8
AM_0
 10
1078.457855662044
 20
498.56660193627022
 30
0.0
 42
-0.0007337051
  0
VERTEX
  5
126A4
  8
AM_0
 10
1078.4137156620441
 20
497.96418193627028
 30
0.0
 42
-0.00075211323
  0
VERTEX
  5
126A5
  8
AM_0
 10
1078.3677756620441
 20
497.36179193627032
 30
0.0
 42
-0.0007297491
  0
VERTEX
  5
126A6
  8
AM_0
 10
1078.3200456620441
 20
496.75959193627023
 30
0.0
 42
-0.00073593041
  0
VERTEX
  5
126A7
  8
AM_0
 10
1078.270565662044
 20
496.1576019362704
 30
0.0
 42
-0.00074742739
  0
VERTEX
  5
126A8
  8
AM_0
 10
1078.2192956620429
 20
495.55573193627038
 30
0.0
 42
-0.00073217363
  0
VERTEX
  5
126A9
  8
AM_0
 10
1078.1662356620441
 20
494.95393193627029
 30
0.0
 42
-0.00073754168
  0
VERTEX
  5
126AA
  8
AM_0
 10
1078.111415662044
 20
494.35239193627029
 30
0.0
 42
-0.00073075073
  0
VERTEX
  5
126AB
  8
AM_0
 10
1078.0548356620441
 20
493.75103193627052
 30
0.0
 42
-0.00074550816
  0
VERTEX
  5
126AC
  8
AM_0
 10
1077.996495662044
 20
493.14997193627028
 30
0.0
 42
-0.00074288416
  0
VERTEX
  5
126AD
  8
AM_0
 10
1077.936345662044
 20
492.5489519362701
 30
0.0
 42
-0.00072504001
  0
VERTEX
  5
126AE
  8
AM_0
 10
1077.8744356620441
 20
491.94820193627032
 30
0.0
 42
-0.00074640667
  0
VERTEX
  5
126AF
  8
AM_0
 10
1077.8107656620441
 20
491.34760193627022
 30
0.0
  0
SEQEND
  5
126B0
  8
AM_0
  0
POLYLINE
  5
126B1
  8
AM_0
 66
     1
 10
0.0
 20
0.0
 30
0.0
  0
VERTEX
  5
126B2
  8
AM_0
 10
1078.9320456620439
 20
508.6367919362703
 30
0.0
 42
-0.00076691992
  0
VERTEX
  5
126B3
  8
AM_0
 10
1078.917245662044
 20
508.01902193627029
 30
0.0
 42
-0.00073262792
  0
VERTEX
  5
126B4
  8
AM_0
 10
1078.900605662044
 20
507.40143193627023
 30
0.0
 42
-0.00076529537
  0
VERTEX
  5
126B5
  8
AM_0
 10
1078.882115662044
 20
506.78376193627042
 30
0.0
 42
-0.00075141097
  0
VERTEX
  5
126B6
  8
AM_0
 10
1078.8617456620441
 20
506.16616193627038
 30
0.0
 42
-0.00075841687
  0
VERTEX
  5
126B7
  8
AM_0
 10
1078.8395156620441
 20
505.54873193627031
 30
0.0
 42
-0.00075711788
  0
VERTEX
  5
126B8
  8
AM_0
 10
1078.815405662044
 20
504.93122193627022
 30
0.0
 42
-0.00075976003
  0
VERTEX
  5
126B9
  8
AM_0
 10
1078.7894156620439
 20
504.31383193627022
 30
0.0
 42
-0.00075797311
  0
VERTEX
  5
126BA
  8
AM_0
 10
1078.7615756620439
 20
503.69655193627023
 30
0.0
 42
-0.0007482613
  0
VERTEX
  5
126BB
  8
AM_0
 10
1078.731845662044
 20
503.07917193627031
 30
0.0
 42
-0.00074893561
  0
VERTEX
  5
126BC
  8
AM_0
 10
1078.7002856620441
 20
502.46204193627028
 30
0.0
 42
-0.00076039839
  0
VERTEX
  5
126BD
  8
AM_0
 10
1078.6668656620441
 20
501.8450119362704
 30
0.0
 42
-0.00075618786
  0
VERTEX
  5
126BE
  8
AM_0
 10
1078.6315656620441
 20
501.22797193627031
 30
0.0
  0
SEQEND
  5
126BF
  8
AM_0
  0
ARC
  5
126C0
  8
AM_0
 10
1091.3410356620441
 20
507.90229193627039
 30
0.0
 40
1.0049469
 50
90.281349999997119
 51
179.71866000000071
  0
POLYLINE
  5
126C1
  8
AM_0
 66
     1
 10
0.0
 20
0.0
 30
0.0
  0
VERTEX
  5
126C2
  8
AM_0
 10
1078.9761056620439
 20
514.90717193627017
 30
0.0
 42
-0.00039106649
  0
VERTEX
  5
126C3
  8
AM_0
 10
1078.9784656620441
 20
514.59604193627024
 30
0.0
 42
-0.00035488198
  0
VERTEX
  5
126C4
  8
AM_0
 10
1078.9803556620441
 20
514.28493193627025
 30
0.0
 42
-0.00039706113
  0
VERTEX
  5
126C5
  8
AM_0
 10
1078.9817856620441
 20
513.97382193627016
 30
0.0
 42
-0.00038765718
  0
VERTEX
  5
126C6
  8
AM_0
 10
1078.982715662044
 20
513.66268193627025
 30
0.0
 42
-0.00040613432
  0
VERTEX
  5
126C7
  8
AM_0
 10
1078.983165662044
 20
513.35158193627035
 30
0.0
 42
-0.00035573434
  0
VERTEX
  5
126C8
  8
AM_0
 10
1078.9831256620439
 20
513.04047193627025
 30
0.0
 42
-0.00038545884
  0
VERTEX
  5
126C9
  8
AM_0
 10
1078.982635662044
 20
512.72934193626998
 30
0.0
 42
-0.00035501205
  0
VERTEX
  5
126CA
  8
AM_0
 10
1078.9816756620439
 20
512.41823193627033
 30
0.0
 42
-0.00040120779
  0
VERTEX
  5
126CB
  8
AM_0
 10
1078.9802556620441
 20
512.10700193627031
 30
0.0
 42
-0.00038317817
  0
VERTEX
  5
126CC
  8
AM_0
 10
1078.9783456620439
 20
511.79587193627032
 30
0.0
 42
-0.00035656084
  0
VERTEX
  5
126CD
  8
AM_0
 10
1078.975965662044
 20
511.48463193627032
 30
0.0
 42
-0.00040143615
  0
VERTEX
  5
126CE
  8
AM_0
 10
1078.9731156620439
 20
511.17353193627031
 30
0.0
  0
SEQEND
  5
126CF
  8
AM_0
  0
POLYLINE
  5
126D0
  8
AM_0
 66
     1
 10
0.0
 20
0.0
 30
0.0
  0
VERTEX
  5
126D1
  8
AM_0
 10
1078.9761056620439
 20
514.90717193627017
 30
0.0
 42
0.00039106589
  0
VERTEX
  5
126D2
  8
AM_0
 10
1078.9784656620441
 20
515.21831193627008
 30
0.0
 42
0.00035488584
  0
VERTEX
  5
126D3
  8
AM_0
 10
1078.9803556620441
 20
515.52942193627007
 30
0.0
 42
0.00039705232
  0
VERTEX
  5
126D4
  8
AM_0
 10
1078.9817856620441
 20
515.84052193627031
 30
0.0
 42
0.0003876649
  0
VERTEX
  5
126D5
  8
AM_0
 10
1078.982715662044
 20
516.15166193627033
 30
0.0
 42
0.00040613779
  0
VERTEX
  5
126D6
  8
AM_0
 10
1078.983165662044
 20
516.4627719362702
 30
0.0
 42
0.00035571855
  0
VERTEX
  5
126D7
  8
AM_0
 10
1078.9831256620439
 20
516.77387193627033
 30
0.0
 42
0.00038547358
  0
VERTEX
  5
126D8
  8
AM_0
 10
1078.982635662044
 20
517.08501193627035
 30
0.0
 42
0.000355015
  0
VERTEX
  5
126D9
  8
AM_0
 10
1078.9816756620439
 20
517.39611193627024
 30
0.0
 42
0.00040118616
  0
VERTEX
  5
126DA
  8
AM_0
 10
1078.9802556620441
 20
517.70734193627015
 30
0.0
 42
0.00038319867
  0
VERTEX
  5
126DB
  8
AM_0
 10
1078.9783456620439
 20
518.01848193627006
 30
0.0
 42
0.00035656356
  0
VERTEX
  5
126DC
  8
AM_0
 10
1078.975965662044
 20
518.32971193627031
 30
0.0
 42
0.00040140992
  0
VERTEX
  5
126DD
  8
AM_0
 10
1078.9731156620439
 20
518.64082193627019
 30
0.0
  0
SEQEND
  5
126DE
  8
AM_0
  0
ARC
  5
126DF
  8
AM_0
 10
1080.0719356620441
 20
509.90217193627029
 30
0.0
 40
1.2650129999999991
 50
269.73557900000827
 51
90.264410000008979
  0
ARC
  5
126E0
  8
AM_0
 10
1078.7914756620439
 20
509.90717193627029
 30
0.0
 40
1.000013899999999
 50
269.69165999999939
 51
90.308340000000754
  0
ARC
  5
126E1
  8
AM_0
 10
1091.335915662044
 20
511.90705193627031
 30
0.0
 40
0.9998249999999999
 50
179.98994999999869
 51
270.01004999999469
  0
ARC
  5
126E2
  8
AM_0
 10
1080.0060756620439
 20
499.89716193627038
 30
0.0
 40
1.3300049999999981
 50
270.00000299999761
 51
90.0
  0
ARC
  5
126E3
  8
AM_0
 10
1078.7914756620439
 20
499.90717193627017
 30
0.0
 40
1.000013899999999
 50
269.69165999999939
 51
90.308340000000754
  0
ARC
  5
126E4
  8
AM_0
 10
1091.335915662044
 20
501.90705193627042
 30
0.0
 40
0.9998210099999999
 50
179.98975000000149
 51
270.01025500000549
  0
ARC
  5
126E5
  8
AM_0
 10
1091.3410356620441
 20
497.90229193627022
 30
0.0
 40
1.004939
 50
90.280909999997604
 51
179.7190999999998
  0
POLYLINE
  5
126E6
  8
AM_0
 66
     1
 10
0.0
 20
0.0
 30
0.0
  0
VERTEX
  5
126E7
  8
AM_0
 10
1077.4751956620439
 20
488.42414193627019
 30
0.0
 42
-0.00068898288
  0
VERTEX
  5
126E8
  8
AM_0
 10
1077.4043156620439
 20
487.84939193627031
 30
0.0
 42
-0.00070644354
  0
VERTEX
  5
126E9
  8
AM_0
 10
1077.3318156620439
 20
487.27470193627022
 30
0.0
 42
-0.00069248071
  0
VERTEX
  5
126EA
  8
AM_0
 10
1077.2577256620441
 20
486.70039193627019
 30
0.0
 42
-0.00069585665
  0
VERTEX
  5
126EB
  8
AM_0
 10
1077.1820456620439
 20
486.12625193627031
 30
0.0
 42
-0.00068980191
  0
VERTEX
  5
126EC
  8
AM_0
 10
1077.104745662044
 20
485.55225193627018
 30
0.0
 42
-0.00072080104
  0
VERTEX
  5
126ED
  8
AM_0
 10
1077.025855662044
 20
484.97846193627032
 30
0.0
 42
-0.00071002307
  0
VERTEX
  5
126EE
  8
AM_0
 10
1076.9453156620441
 20
484.40499193627039
 30
0.0
 42
-0.00072659056
  0
VERTEX
  5
126EF
  8
AM_0
 10
1076.8631556620439
 20
483.83189193627021
 30
0.0
 42
-0.00069570481
  0
VERTEX
  5
126F0
  8
AM_0
 10
1076.7793356620441
 20
483.25886193627008
 30
0.0
 42
-0.00071266935
  0
VERTEX
  5
126F1
  8
AM_0
 10
1076.693905662044
 20
482.68609193627032
 30
0.0
 42
-0.00071614426
  0
VERTEX
  5
126F2
  8
AM_0
 10
1076.6068756620441
 20
482.11375193627038
 30
0.0
 42
-0.00072288975
  0
VERTEX
  5
126F3
  8
AM_0
 10
1076.5181656620441
 20
481.54145193627022
 30
0.0
  0
SEQEND
  5
126F4
  8
AM_0
  0
ARC
  5
126F5
  8
AM_0
 10
1079.8760756620441
 20
489.88215193627019
 30
0.0
 40
1.4650039999999991
 50
270.00000299999761
 51
90.0
  0
ARC
  5
126F6
  8
AM_0
 10
1078.7914756620439
 20
489.90717193627017
 30
0.0
 40
1.000013899999999
 50
269.69165999999939
 51
90.308340000000754
  0
ARC
  5
126F7
  8
AM_0
 10
1091.335915662044
 20
491.90705193627031
 30
0.0
 40
0.9998289899999999
 50
179.99019000000041
 51
270.00981100000098
  0
ARC
  5
126F8
  8
AM_0
 10
1091.3410356620441
 20
487.90229193627039
 30
0.0
 40
1.004942999999999
 50
90.281110000000041
 51
179.7188899999999
  0
ARC
  5
126F9
  8
AM_0
 10
1079.663485662044
 20
479.86213193627037
 30
0.0
 40
1.675015999999999
 50
269.7461450000045
 51
90.253870000000916
  0
ARC
  5
126FA
  8
AM_0
 10
1078.7914756620439
 20
479.90717193627029
 30
0.0
 40
1.000013899999999
 50
269.69165999999939
 51
90.308340000000754
  0
ARC
  5
126FB
  8
AM_0
 10
1091.040625662044
 20
478.51264193627031
 30
0.0
 40
0.704566
 50
90.370100000003333
 51
179.62990999999781
  0
ARC
  5
126FC
  8
AM_0
 10
1091.334385662044
 20
482.16548193627023
 30
0.0
 40
0.9982839799999999
 50
179.90142000000009
 51
270.0985760000014
  0
LINE
  5
126FD
  8
AM_0
 10
1095.336095662044
 20
562.92719193627033
 30
0.0
 11
1095.336095662044
 21
519.90717193627006
 31
0.0
  0
LINE
  5
126FE
  8
AM_0
 10
1093.336095662044
 20
562.3072019362703
 30
0.0
 11
1093.336095662044
 21
561.75715193627025
 31
0.0
  0
ARC
  5
126FF
  8
AM_0
 10
1094.340365662044
 20
561.87678193627005
 30
0.0
 40
0.9956849800000001
 50
0.0211300000000465
 51
63.409139999994693
  0
LINE
  5
12700
  8
AM_0
 10
1093.576025662044
 20
562.40717193627006
 30
0.0
 11
1094.8560556620439
 21
561.63715193627024
 31
0.0
  0
LINE
  5
12701
  8
AM_0
 10
1093.336095662044
 20
564.40717193627017
 30
0.0
 11
1093.336095662044
 21
563.87714193627016
 31
0.0
  0
LINE
  5
12702
  8
AM_0
 10
1093.546115662044
 20
563.39719193627025
 30
0.0
 11
1094.7861056620441
 21
562.76719193627025
 31
0.0
  0
LINE
  5
12703
  8
AM_0
 10
1093.5660756620441
 20
564.51716193627033
 30
0.0
 11
1094.836035662044
 21
563.78718193627014
 31
0.0
  0
ARC
  5
12704
  8
AM_0
 10
1093.090245662044
 20
562.50788193627022
 30
0.0
 40
0.9993420200000001
 50
62.861999999995056
 51
89.665459999998404
  0
ARC
  5
12705
  8
AM_0
 10
1094.3384756620439
 20
562.92256193627031
 30
0.0
 40
0.9976310099999999
 50
0.2678099999985825
 51
60.079239999996538
  0
ARC
  5
12706
  8
AM_0
 10
1094.340975662044
 20
519.90229193627033
 30
0.0
 40
0.9950770099999999
 50
269.71585999999951
 51
0.2841400000005327
  0
LINE
  5
12707
  8
AM_0
 10
1097.829992146419
 20
530.12900421166069
 30
0.0
 11
1097.829992146419
 21
499.68537017845767
 31
0.0
  0
LINE
  5
12708
  8
AM_0
 10
1096.836095662044
 20
494.90717193627017
 30
0.0
 11
1096.836095662044
 21
534.90717193627029
 31
0.0
  0
LINE
  5
12709
  8
AM_0
 10
1093.336095662044
 20
540.53718193627014
 30
0.0
 11
1093.336095662044
 21
539.16718193627025
 31
0.0
  0
ARC
  5
1270A
  8
AM_0
 10
1094.335845662044
 20
539.90693193627021
 30
0.0
 40
1.0001959999999981
 50
0.0112499999994784
 51
89.988750000007059
  0
LINE
  5
1270B
  8
AM_0
 10
1093.5560656620439
 20
561.28718193627037
 30
0.0
 11
1094.8060656620439
 21
560.62718193627006
 31
0.0
  0
LINE
  5
1270C
  8
AM_0
 10
1093.336095662044
 20
557.73713193627032
 30
0.0
 11
1093.336095662044
 21
557.26716193627033
 31
0.0
  0
LINE
  5
1270D
  8
AM_0
 10
1094.846105662044
 20
556.00718193627006
 30
0.0
 11
1094.8661256620439
 21
555.99720193627024
 31
0.0
  0
LINE
  5
1270E
  8
AM_0
 10
1093.5660756620441
 20
556.75712193627032
 30
0.0
 11
1094.8460456620439
 21
556.00715193627025
 31
0.0
  0
LINE
  5
1270F
  8
AM_0
 10
1093.5861556620439
 20
557.86720193627025
 30
0.0
 11
1094.8861456620441
 21
557.01719193627025
 31
0.0
  0
ARC
  5
12710
  8
AM_0
 10
1093.080905662044
 20
560.40656193627024
 30
0.0
 40
1.0006820000000001
 50
61.65062000000038
 51
89.703929999995637
  0
ARC
  5
12711
  8
AM_0
 10
1094.338355662044
 20
559.74592193627018
 30
0.0
 40
0.9977070099999998
 50
0.0740200000040406
 51
62.044810000000808
  0
ARC
  5
12712
  8
AM_0
 10
1094.3373156620439
 20
560.78364193627021
 30
0.0
 40
0.9987969999999998
 50
359.62728000000101
 51
58.70795000000291
  0
ARC
  5
12713
  8
AM_0
 10
1094.3376156620441
 20
555.14790193627027
 30
0.0
 40
0.9984580299999999
 50
359.95957999999848
 51
59.386569999994947
  0
ARC
  5
12714
  8
AM_0
 10
1094.3376156620441
 20
555.14790193627027
 30
0.0
 40
0.9984580299999999
 50
359.95957999999848
 51
59.386569999994947
  0
ARC
  5
12715
  8
AM_0
 10
1094.337005662044
 20
556.18244193627015
 30
0.0
 40
0.9990889999999998
 50
359.69508999999653
 51
56.662090000001093
  0
LINE
  5
12716
  8
AM_0
 10
1093.336095662044
 20
550.29719193627034
 30
0.0
 11
1093.336095662044
 21
549.23713193627009
 31
0.0
  0
LINE
  5
12717
  8
AM_0
 10
1093.4761056620439
 20
548.60719193627028
 30
0.0
 11
1094.6260756620441
 21
548.24717193627021
 31
0.0
  0
LINE
  5
12718
  8
AM_0
 10
1093.526035662044
 20
550.51713193627029
 30
0.0
 11
1094.726045662044
 21
549.99711193627036
 31
0.0
  0
ARC
  5
12719
  8
AM_0
 10
1093.195525662044
 20
547.64448193627015
 30
0.0
 40
1.002699
 50
73.752720000008225
 51
90.540640000001062
  0
ARC
  5
1271A
  8
AM_0
 10
1093.1330956620441
 20
549.59199193627035
 30
0.0
 40
1.005233
 50
66.986389999997314
 51
89.829249999999433
  0
ARC
  5
1271B
  8
AM_0
 10
1094.3396956620441
 20
547.29279193627008
 30
0.0
 40
0.99638802
 50
0.2499099999989485
 51
73.296640000000323
  0
ARC
  5
1271C
  8
AM_0
 10
1094.3395756620439
 20
549.07868193627019
 30
0.0
 40
0.9965090199999998
 50
359.9137499999967
 51
67.17845000000213
  0
LINE
  5
1271D
  8
AM_0
 10
1093.336095662044
 20
530.51716193627021
 30
0.0
 11
1093.336095662044
 21
529.29719193627034
 31
0.0
  0
ARC
  5
1271E
  8
AM_0
 10
1094.340975662044
 20
529.90229193627033
 30
0.0
 40
0.9950810099999999
 50
269.71607199999681
 51
0.2839200000044462
  0
LINE
  5
1271F
  8
AM_0
 10
1096.836095662044
 20
530.0572019362703
 30
0.0
 11
1095.336095662044
 21
530.0572019362703
 31
0.0
  0
LINE
  5
12720
  8
AM_0
 10
1096.836095662044
 20
532.18720193627041
 30
0.0
 11
1095.336095662044
 21
532.18720193627041
 31
0.0
  0
LINE
  5
12721
  8
AM_0
 10
1096.836095662044
 20
534.90720193627021
 30
0.0
 11
1095.336095662044
 21
535.03721193627018
 31
0.0
  0
LINE
  5
12722
  8
AM_0
 10
1097.8299616288409
 20
530.12900421166069
 30
0.0
 11
1097.3299616288409
 21
532.89899322533256
 31
0.0
  0
LINE
  5
12723
  8
AM_0
 10
1097.329992146419
 20
532.89899322533256
 30
0.0
 11
1096.8299616288409
 21
532.85898468041069
 31
0.0
  0
ARC
  5
12724
  8
AM_0
 10
1094.340975662044
 20
539.90229193627033
 30
0.0
 40
0.9950849999999999
 50
269.71628299999611
 51
0.283719999999279
  0
ARC
  5
12725
  8
AM_0
 10
1094.335845662044
 20
529.90693193626998
 30
0.0
 40
1.000199999999998
 50
0.0114599999986802
 51
89.988540000007845
  0
LINE
  5
12726
  8
AM_0
 10
1093.336095662044
 20
520.51716193627033
 30
0.0
 11
1093.336095662044
 21
519.35713193627021
 31
0.0
  0
ARC
  5
12727
  8
AM_0
 10
1094.335845662044
 20
519.90693193627021
 30
0.0
 40
1.0002040000000001
 50
0.0116599999968248
 51
89.988320000007306
  0
LINE
  5
12728
  8
AM_0
 10
1097.829992146419
 20
499.68533966087972
 30
0.0
 11
1097.329992146419
 21
496.91535064720767
 31
0.0
  0
LINE
  5
12729
  8
AM_0
 10
1093.336095662044
 20
509.29719193627022
 30
0.0
 11
1093.336095662044
 21
510.45722193627029
 31
0.0
  0
ARC
  5
1272A
  8
AM_0
 10
1094.335845662044
 20
509.90693193627021
 30
0.0
 40
1.0001959999999981
 50
0.0112199999958738
 51
89.988779999997604
  0
ARC
  5
1272B
  8
AM_0
 10
1094.340975662044
 20
509.90229193627027
 30
0.0
 40
0.9950849999999999
 50
269.71631100000093
 51
0.2836899999997456
  0
LINE
  5
1272C
  8
AM_0
 10
1096.836095662044
 20
497.62714193627022
 30
0.0
 11
1095.336095662044
 21
497.62714193627022
 31
0.0
  0
LINE
  5
1272D
  8
AM_0
 10
1096.836095662044
 20
499.75715193627047
 30
0.0
 11
1095.336095662044
 21
499.75715193627047
 31
0.0
  0
LINE
  5
1272E
  8
AM_0
 10
1093.336095662044
 20
499.29719193627039
 30
0.0
 11
1093.336095662044
 21
500.50715193627047
 31
0.0
  0
ARC
  5
1272F
  8
AM_0
 10
1094.335845662044
 20
499.90693193627021
 30
0.0
 40
1.000199999999998
 50
0.0114300000015895
 51
89.988569999998418
  0
ARC
  5
12730
  8
AM_0
 10
1094.340975662044
 20
499.90229193627039
 30
0.0
 40
0.99508202
 50
269.71609899999493
 51
0.2839099999979693
  0
LINE
  5
12731
  8
AM_0
 10
1096.836095662044
 20
494.9072019362701
 30
0.0
 11
1095.336095662044
 21
494.77720193627027
 31
0.0
  0
LINE
  5
12732
  8
AM_0
 10
1097.3299616288409
 20
496.91535064720767
 30
0.0
 11
1096.829992146419
 21
496.95535919212961
 31
0.0
  0
LINE
  5
12733
  8
AM_0
 10
1093.336095662044
 20
489.27717193627052
 30
0.0
 11
1093.336095662044
 21
490.64716193627038
 31
0.0
  0
ARC
  5
12734
  8
AM_0
 10
1094.340975662044
 20
489.90229193627022
 30
0.0
 40
0.99507803
 50
269.71588699999808
 51
0.284109999999905
  0
ARC
  5
12735
  8
AM_0
 10
1094.335845662044
 20
489.90693193627021
 30
0.0
 40
1.000203
 50
0.0116499999956148
 51
89.988349999997908
  0
LINE
  5
12736
  8
AM_0
 10
1093.336095662044
 20
479.51716193627038
 30
0.0
 11
1093.336095662044
 21
480.57722193627029
 31
0.0
  0
LINE
  5
12737
  8
AM_0
 10
1093.5260956620441
 20
479.29716193627019
 30
0.0
 11
1094.726045662044
 21
479.80717193627021
 31
0.0
  0
LINE
  5
12738
  8
AM_0
 10
1093.4761056620439
 20
481.20713193627017
 30
0.0
 11
1094.6260756620441
 21
481.55714193627028
 31
0.0
  0
ARC
  5
12739
  8
AM_0
 10
1093.135105662044
 20
480.21259193627009
 30
0.0
 40
0.9954450099999999
 50
270.05690499999639
 51
293.1274499999983
  0
ARC
  5
1273A
  8
AM_0
 10
1093.1969356620441
 20
482.15986193627037
 30
0.0
 40
0.9927430199999999
 50
269.37455499999561
 51
286.33207000000169
  0
ARC
  5
1273B
  8
AM_0
 10
1094.3396956620441
 20
480.72566193627023
 30
0.0
 40
0.9963999999999998
 50
292.81736000000677
 51
0.0904199999996011
  0
ARC
  5
1273C
  8
AM_0
 10
1094.339815662044
 20
482.51142193627038
 30
0.0
 40
0.9962710099999999
 50
286.6979199999999
 51
0.3300499999999551
  0
LINE
  5
1273D
  8
AM_0
 10
1093.086095662044
 20
468.40717193627029
 30
0.0
 11
1091.336095662044
 21
468.40717193627029
 31
0.0
  0
ARC
  5
1273E
  8
AM_0
 10
1093.029455662044
 20
472.77339193627029
 30
0.0
 40
0.99617702
 50
270.38131800000252
 51
303.97048999999998
  0
ARC
  5
1273F
  8
AM_0
 10
1093.056675662044
 20
473.91364193627032
 30
0.0
 40
0.99648702
 50
270.54072100000189
 51
300.74377000000072
  0
LINE
  5
12740
  8
AM_0
 10
1093.096105662044
 20
466.3072019362703
 30
0.0
 11
1090.836095662044
 21
466.3072019362703
 31
0.0
  0
ARC
  5
12741
  8
AM_0
 10
1093.0740656620439
 20
466.15302193627031
 30
0.0
 40
0.9959030199999999
 50
269.5412669999991
 51
299.60716999999647
  0
ARC
  5
12742
  8
AM_0
 10
1093.0672356620439
 20
468.26142193627038
 30
0.0
 40
0.99427301
 50
269.3560660000033
 51
300.78090999999898
  0
LINE
  5
12743
  8
AM_0
 10
1078.1260756620441
 20
458.62714193627028
 30
0.0
 11
981.20608566204419
 21
458.62714193627028
 31
0.0
  0
LINE
  5
12744
  8
AM_0
 10
1078.086095662044
 20
455.77717193627029
 30
0.0
 11
981.20608566204419
 21
455.77717193627029
 31
0.0
  0
LINE
  5
12745
  8
AM_0
 10
1078.0660756620441
 20
453.92719193627022
 30
0.0
 11
981.20608566204419
 21
453.92719193627022
 31
0.0
  0
LINE
  5
12746
  8
AM_0
 10
1078.046115662044
 20
453.0171619362705
 30
0.0
 11
981.20602566204411
 21
453.0171619362705
 31
0.0
  0
ARC
  5
12747
  8
AM_0
 10
981.21091566204404
 20
455.0219219362703
 30
0.0
 40
2.0047289999999989
 50
195.17349599999631
 51
269.86167800000669
  0
ARC
  5
12748
  8
AM_0
 10
981.21091566204404
 20
455.93195193627031
 30
0.0
 40
2.0047289999999989
 50
195.17349599999631
 51
269.86167800000669
  0
LINE
  5
12749
  8
AM_0
 10
975.13034566204408
 20
469.97834193627011
 30
0.0
 11
979.2760656620444
 21
454.49723193627023
 31
0.0
  0
LINE
  5
1274A
  8
AM_0
 10
975.13037566204412
 20
470.88834193627019
 30
0.0
 11
979.27609566204399
 21
455.40723193627031
 31
0.0
  0
LINE
  5
1274B
  8
AM_0
 10
975.13037566204412
 20
472.73832193627021
 30
0.0
 11
979.27609566204399
 21
457.25718193627029
 31
0.0
  0
LINE
  5
1274C
  8
AM_0
 10
978.79611566204403
 20
461.90717193627017
 30
0.0
 11
973.33609566204404
 21
461.90717193627017
 31
0.0
  0
ARC
  5
1274D
  8
AM_0
 10
973.68289566204419
 20
470.48444193627029
 30
0.0
 40
1.502775999999999
 50
14.756430000000559
 51
89.877580000005153
  0
ARC
  5
1274E
  8
AM_0
 10
973.68289566204419
 20
472.3344219362703
 30
0.0
 40
1.502775999999999
 50
14.756430000000559
 51
89.877580000005153
  0
ARC
  5
1274F
  8
AM_0
 10
973.68289566204419
 20
469.57441193627028
 30
0.0
 40
1.502775999999999
 50
14.756430000000559
 51
89.877580000005153
  0
ARC
  5
12750
  8
AM_0
 10
981.20602566204411
 20
460.62543193627039
 30
0.0
 40
1.9982919999999991
 50
195.03254799999601
 51
270.00263200000791
  0
ARC
  5
12751
  8
AM_0
 10
981.21091566204404
 20
457.78193193627021
 30
0.0
 40
2.0047289999999989
 50
195.17349599999631
 51
269.86167800000669
  0
ARC
  5
12752
  8
AM_0
 10
1078.071505662044
 20
455.9239019362704
 30
0.0
 40
1.996732999999999
 50
269.84396700000542
 51
351.45387999999798
  0
ARC
  5
12753
  8
AM_0
 10
1078.0495956620441
 20
455.01276193627018
 30
0.0
 40
1.9956329999999991
 50
269.8997080000089
 51
352.06112999999903
  0
LINE
  5
12754
  8
AM_0
 10
1081.336095662044
 20
465.46714193627042
 30
0.0
 11
1080.056125662044
 21
457.45719193627031
 31
0.0
  0
LINE
  5
12755
  8
AM_0
 10
1081.336095662044
 20
466.80714193627028
 30
0.0
 11
1080.096105662044
 21
460.24717193627032
 31
0.0
  0
LINE
  5
12756
  8
AM_0
 10
1088.636085662044
 20
471.71723193627031
 30
0.0
 11
1082.406105662044
 21
471.71723193627031
 31
0.0
  0
ARC
  5
12757
  8
AM_0
 10
1091.3384156620441
 20
473.91950193627031
 30
0.0
 40
1.002353
 50
180.13432681999851
 51
269.86567300000593
  0
LINE
  5
12758
  8
AM_0
 10
1093.036045662044
 20
471.77717193627029
 30
0.0
 11
1090.336095662044
 21
471.77717193627029
 31
0.0
  0
LINE
  5
12759
  8
AM_0
 10
1093.0660756620441
 20
472.91718193627031
 30
0.0
 11
1091.336095662044
 21
472.91718193627031
 31
0.0
  0
ARC
  5
1275A
  8
AM_0
 10
1091.335115662044
 20
469.40620193627029
 30
0.0
 40
0.9990100299999999
 50
179.94319000000129
 51
270.0568089999968
  0
ARC
  5
1275B
  8
AM_0
 10
1090.8406756620441
 20
464.65254193627021
 30
0.0
 40
0.50463498
 50
90.523830000000444
 51
179.4761699999996
  0
LINE
  5
1275C
  8
AM_0
 10
1090.336095662044
 20
464.90717193627017
 30
0.0
 11
1089.336095662044
 21
464.90717193627017
 31
0.0
  0
ARC
  5
1275D
  8
AM_0
 10
1090.834385662044
 20
466.8054919362703
 30
0.0
 40
0.4983060100000002
 50
179.80488999999781
 51
270.19510699999353
  0
LINE
  5
1275E
  8
AM_0
 10
1093.0660756620441
 20
465.15717193627029
 30
0.0
 11
1090.836095662044
 21
465.15717193627029
 31
0.0
  0
LINE
  5
1275F
  8
AM_0
 10
1093.0560656620439
 20
467.2671619362705
 30
0.0
 11
1090.336095662044
 21
467.2671619362705
 31
0.0
  0
LINE
  5
12760
  8
AM_0
 10
1089.336095662044
 20
461.90717193627017
 30
0.0
 11
1081.336095662044
 21
461.90717193627017
 31
0.0
  0
LINE
  5
12761
  8
AM_0
 10
1081.336095662044
 20
464.11716193627029
 30
0.0
 11
1080.046115662044
 21
455.6272019362703
 31
0.0
  0
LINE
  5
12762
  8
AM_0
 10
1081.336095662044
 20
464.11716193627029
 30
0.0
 11
1080.0260956620441
 21
454.73713193627032
 31
0.0
  0
ARC
  5
12763
  8
AM_0
 10
1078.085845662044
 20
457.77241193627032
 30
0.0
 40
1.9952829999999979
 50
270.00620400000338
 51
350.9083499999997
  0
ARC
  5
12764
  8
AM_0
 10
1078.137365662044
 20
460.62128193627029
 30
0.0
 40
1.994108999999999
 50
269.67554800000278
 51
349.18776999999852
  0
LINE
  5
12765
  8
AM_0
 10
1093.336095662044
 20
467.50715193627047
 30
0.0
 11
1093.336095662044
 21
468.05720193627042
 31
0.0
  0
LINE
  5
12766
  8
AM_0
 10
1093.5761456620439
 20
467.40711193627021
 30
0.0
 11
1094.856115662044
 21
468.17713193627009
 31
0.0
  0
LINE
  5
12767
  8
AM_0
 10
1093.336095662044
 20
472.07722193627029
 30
0.0
 11
1093.336095662044
 21
472.54719193627028
 31
0.0
  0
LINE
  5
12768
  8
AM_0
 10
1093.5861556620439
 20
471.9471519362703
 30
0.0
 11
1094.8861456620441
 21
472.79713193627032
 31
0.0
  0
LINE
  5
12769
  8
AM_0
 10
1093.566135662044
 20
473.05714193627028
 30
0.0
 11
1094.846105662044
 21
473.80714193627028
 31
0.0
  0
LINE
  5
1276A
  8
AM_0
 10
1093.5560656620439
 20
468.51713193627018
 30
0.0
 11
1094.8060656620439
 21
469.18714193627011
 31
0.0
  0
ARC
  5
1276B
  8
AM_0
 10
1093.100985662044
 20
469.4025419362701
 30
0.0
 40
0.99545902
 50
269.14129100000002
 51
297.20381999999961
  0
LINE
  5
1276C
  8
AM_0
 10
1093.546115662044
 20
466.40717193627017
 30
0.0
 11
1094.7861056620441
 21
467.03718193627037
 31
0.0
  0
LINE
  5
1276D
  8
AM_0
 10
1093.336095662044
 20
465.40717193627017
 30
0.0
 11
1093.336095662044
 21
465.9372019362703
 31
0.0
  0
LINE
  5
1276E
  8
AM_0
 10
1093.5660756620441
 20
465.28721193627041
 30
0.0
 11
1094.836035662044
 21
466.02720193627039
 31
0.0
  0
ARC
  5
1276F
  8
AM_0
 10
1093.1113056620441
 20
467.30122193627028
 30
0.0
 40
0.99411702
 50
269.12264399999191
 51
295.93498000000181
  0
ARC
  5
12770
  8
AM_0
 10
1094.3404856620441
 20
467.92744193627033
 30
0.0
 40
0.995579
 50
296.58708999999777
 51
359.98264
  0
ARC
  5
12771
  8
AM_0
 10
1094.3412856620439
 20
473.62959193627012
 30
0.0
 40
0.9948369899999999
 50
303.20496000000378
 51
0.4378599999981081
  0
ARC
  5
12772
  8
AM_0
 10
1094.3420156620441
 20
474.6640119362703
 30
0.0
 40
0.99404597
 50
300.46820000000452
 51
0.1856400000003632
  0
ARC
  5
12773
  8
AM_0
 10
1094.342865662044
 20
470.06574193627011
 30
0.0
 40
0.9932109699999999
 50
297.79932000000349
 51
0.081870000000068
  0
ARC
  5
12774
  8
AM_0
 10
1094.3416456620439
 20
469.02815193627009
 30
0.0
 40
0.9944329899999999
 50
301.15212999999699
 51
359.94050999999899
  0
ARC
  5
12775
  8
AM_0
 10
1094.342865662044
 20
466.88923193627022
 30
0.0
 40
0.99319202
 50
299.77337999999878
 51
359.87958999999807
  0
LINE
  5
12776
  8
AM_0
 10
803.82998833125362
 20
476.90717114973251
 30
0.0
 11
940.82999241417156
 21
476.90718654057122
 31
0.0
  0
LINE
  5
12777
  8
AM_0
 10
803.82999523326043
 20
539.90721862823636
 30
0.0
 11
940.82999985167828
 21
539.90717933799044
 31
0.0
  0
LINE
  5
12778
  8
AM_0
 10
803.82998833125362
 20
552.90717344020129
 30
0.0
 11
940.82999241417156
 21
552.90717344020129
 31
0.0
  0
LINE
  5
12779
  8
ﾁｭｳｼﾝｾﾝ1
 10
1101.836095662044
 20
514.90715236284575
 30
0.0
 11
798.82998806350076
 21
514.90719581242115
 31
0.0
1001
GENIUS_GENODEF_13
1002
{
1000
HIER
1070
     0
1002
}
1002
{
1000
MANEDIT
1070
     0
1002
}
1002
{
1000
NOSEL
1070
     0
1002
}
1002
{
1000
BEHIND
1070
     0
1002
}
1002
{
1000
REACTOR
1002
}
1001
GENIUS_GENOBJ-N-CEN_13
1002
{
1000
OWNER
1000
GEN
1002
}
  0
LINE
  5
1277A
  8
AM_0
 10
940.82999985167828
 20
539.90717933799044
 30
0.0
 11
939.73031239289867
 21
476.90716243596682
 31
0.0
  0
LINE
  5
1277B
  8
AM_0
 10
955.69850256047596
 20
459.37508579524598
 30
0.0
 11
955.69851915446895
 21
570.4392635677217
 31
0.0
  0
LINE
  5
1277C
  8
AM_0
 10
965.33609566204404
 20
570.90718236284602
 30
0.0
 11
965.33609566204404
 21
458.90716136284601
 31
0.0
  0
LINE
  5
1277D
  8
AM_0
 10
955.01447813983225
 20
569.25446850061201
 30
0.0
 11
949.77851673890109
 21
539.55988069874354
 31
0.0
1001
GENIUS_GENODEF_13
1002
{
1000
HIER
1070
     0
1002
}
1002
{
1000
MANEDIT
1070
     0
1002
}
1002
{
1000
NOSEL
1070
     0
1002
}
1002
{
1000
BEHIND
1070
     0
1002
}
1002
{
1000
REACTOR
1002
}
1001
GENIUS_GENOBJ-N-CEN_13
1002
{
1000
OWNER
1000
GEN
1002
}
  0
ARC
  5
1277E
  8
AM_0
 10
956.98409404430083
 20
568.9071744049661
 30
0.0
 40
2.0
 50
89.999983568137225
 51
169.99999178406321
1001
GENIUS_GENOBJ-N-CEN_13
1002
{
1000
OWNER
1000
GEN
1002
}
1001
GENIUS_GENODEF_13
1002
{
1000
HIER
1070
     0
1002
}
1002
{
1000
MANEDIT
1070
     0
1002
}
1002
{
1000
NOSEL
1070
     0
1002
}
1002
{
1000
BEHIND
1070
     0
1002
}
1002
{
1000
OTHER
1070
     0
1002
}
1002
{
1000
REACTOR
1002
}
1001
GENIUS_GENOBJ-N-FIL_13
1002
{
1000
OWNER
1000
GEN
1002
}
  0
LINE
  5
1277F
  8
AM_0
 10
965.33611172228996
 20
570.90717200969016
 30
0.0
 11
956.98409461788117
 21
570.90717440496587
 31
0.0
  0
LINE
  5
12780
  8
AM_0
 10
941.81269654121365
 20
537.9071790561627
 30
0.0
 11
947.80890070909697
 21
537.90717733651047
 31
0.0
  0
LINE
  5
12781
  8
AM_0
 10
965.336108854396
 20
560.9071975096906
 30
0.0
 11
955.69851773028927
 21
560.90717891468171
 31
0.0
  0
LINE
  5
12782
  8
AM_0
 10
965.33610482139068
 20
546.84462950969112
 30
0.0
 11
955.69851562958672
 21
546.8471037055474
 31
0.0
  0
ARC
  5
12783
  8
AM_0
 10
947.80890128267731
 20
539.90717733651024
 30
0.0
 40
2.0
 50
269.99998356813722
 51
349.99999178406341
1001
GENIUS_GENODEF_13
1002
{
1000
HIER
1070
     0
1002
}
1002
{
1000
MANEDIT
1070
     0
1002
}
1002
{
1000
NOSEL
1070
     0
1002
}
1002
{
1000
BEHIND
1070
     0
1002
}
1002
{
1000
OTHER
1070
     0
1002
}
1002
{
1000
REACTOR
1002
}
1001
GENIUS_GENOBJ-N-FIL_13
1002
{
1000
OWNER
1000
GEN
1002
}
  0
LINE
  5
12784
  8
AM_0
 10
940.82999958392656
 20
539.90716399813618
 30
0.0
 11
940.60308746136843
 21
552.90716445064311
 31
0.0
  0
ARC
  5
12785
  8
AM_0
 10
941.81269682800405
 20
538.90717905616259
 30
0.0
 40
1.0
 50
178.99998356814839
 51
269.99998356813722
1001
GENIUS_GENODEF_13
1002
{
1000
HIER
1070
     0
1002
}
1002
{
1000
MANEDIT
1070
     0
1002
}
1002
{
1000
NOSEL
1070
     0
1002
}
1002
{
1000
BEHIND
1070
     0
1002
}
1002
{
1000
OTHER
1070
     0
1002
}
1002
{
1000
REACTOR
1002
}
1001
GENIUS_GENOBJ-N-FIL_13
1002
{
1000
OWNER
1000
GEN
1002
}
  0
LINE
  5
12786
  8
AM_0
 10
941.73061789032931
 20
478.90717720215309
 30
0.0
 11
950.82997925897564
 21
478.90717459254631
 31
0.0
  0
LINE
  5
12787
  8
AM_0
 10
955.01446255356507
 20
460.55987833206552
 30
0.0
 11
952.82997755014924
 21
472.9487188054311
 31
0.0
1001
GENIUS_GENODEF_13
1002
{
1000
HIER
1070
     0
1002
}
1002
{
1000
MANEDIT
1070
     0
1002
}
1002
{
1000
NOSEL
1070
     0
1002
}
1002
{
1000
BEHIND
1070
     0
1002
}
1002
{
1000
REACTOR
1002
}
1001
GENIUS_GENOBJ-N-CEN_13
1002
{
1000
OWNER
1000
GEN
1002
}
  0
LINE
  5
12788
  8
AM_0
 10
965.33608650198232
 20
482.96722200969378
 30
0.0
 11
955.69850608535501
 21
482.96722477365648
 31
0.0
  0
ARC
  5
12789
  8
AM_0
 10
950.82997868539508
 20
476.90717459254648
 30
0.0
 40
2.0
 50
359.99998356813722
 51
89.999983568137225
1001
GENIUS_GENODEF_13
1002
{
1000
HIER
1070
     0
1002
}
1002
{
1000
MANEDIT
1070
     0
1002
}
1002
{
1000
NOSEL
1070
     0
1002
}
1002
{
1000
BEHIND
1070
     0
1002
}
1002
{
1000
OTHER
1070
     0
1002
}
1002
{
1000
REACTOR
1002
}
1001
GENIUS_GENOBJ-N-FIL_13
1002
{
1000
OWNER
1000
GEN
1002
}
  0
LINE
  5
1278A
  8
AM_0
 10
952.8299786853953
 20
476.90717401896609
 30
0.0
 11
952.82997755014924
 21
472.9487188054311
 31
0.0
  0
ARC
  5
1278B
  8
AM_0
 10
956.98407810938977
 20
460.90717440496638
 30
0.0
 40
2.0
 50
189.99999178406679
 51
269.99998356813722
1001
GENIUS_GENOBJ-N-CEN_13
1002
{
1000
OWNER
1000
GEN
1002
}
1001
GENIUS_GENOBJ-N-FIL_13
1002
{
1000
OWNER
1000
GEN
1002
}
1001
GENIUS_GENODEF_13
1002
{
1000
HIER
1070
     0
1002
}
1002
{
1000
MANEDIT
1070
     0
1002
}
1002
{
1000
NOSEL
1070
     0
1002
}
1002
{
1000
BEHIND
1070
     0
1002
}
1002
{
1000
OTHER
1070
     0
1002
}
1002
{
1000
REACTOR
1002
}
  0
LINE
  5
1278C
  8
AM_0
 10
965.33608246969891
 20
468.90717200969442
 30
0.0
 11
955.69850398465644
 21
468.90717477365638
 31
0.0
  0
LINE
  5
1278D
  8
AM_0
 10
965.33607960179791
 20
458.90717200969459
 30
0.0
 11
956.98407753580977
 21
458.90717440496621
 31
0.0
  0
ARC
  5
1278E
  8
AM_0
 10
941.73061731674886
 20
476.90717720215338
 30
0.0
 40
2.0
 50
89.999983568137225
 51
178.99998356814189
1001
GENIUS_GENODEF_13
1002
{
1000
HIER
1070
     0
1002
}
1002
{
1000
MANEDIT
1070
     0
1002
}
1002
{
1000
NOSEL
1070
     0
1002
}
1002
{
1000
BEHIND
1070
     0
1002
}
1002
{
1000
OTHER
1070
     0
1002
}
1002
{
1000
REACTOR
1002
}
1001
GENIUS_GENOBJ-N-FIL_13
1002
{
1000
OWNER
1000
GEN
1002
}
  0
LINE
  5
12790
  8
ﾁｭｳｼﾝｾﾝ1
 10
854.82998958341921
 20
561.90722056882669
 30
0.0
 11
854.82998958341921
 21
414.09636983074228
 31
0.0
  0
LINE
  5
12791
  8
AM_0
 10
827.32998876385545
 20
472.90717105601539
 30
0.0
 11
882.32999040298319
 21
472.90717105601539
 31
0.0
  0
LINE
  5
12792
  8
AM_0
 10
882.32999040298319
 20
472.90717105601539
 30
0.0
 11
882.32999040298319
 21
476.90717117522462
 31
0.0
  0
LINE
  5
12793
  8
AM_0
 10
827.32998876385545
 20
472.90717105601539
 30
0.0
 11
827.32998876385545
 21
476.90717117522462
 31
0.0
  0
LINE
  5
12795
  8
AM_0
 10
827.32998876385545
 20
556.90717355941035
 30
0.0
 11
882.32999040298319
 21
556.90717355941047
 31
0.0
  0
LINE
  5
12796
  8
AM_0
 10
882.32999040298319
 20
556.90717355941047
 30
0.0
 11
882.32999040298319
 21
552.90717344020129
 31
0.0
  0
LINE
  5
12797
  8
AM_0
 10
827.32998876385545
 20
556.90717355941035
 30
0.0
 11
827.32998876385545
 21
552.90717344020118
 31
0.0
  0
LINE
  5
12798
  8
AM_0
 10
869.82999003045416
 20
469.9072179760243
 30
0.0
 11
839.82998913638437
 21
469.9072179760243
 31
0.0
  0
LINE
  5
12799
  8
AM_0
 10
839.82998913638437
 20
472.90721806543121
 30
0.0
 11
839.82998913638437
 21
469.9072179760243
 31
0.0
  0
LINE
  5
1279A
  8
AM_0
 10
869.82999003045416
 20
472.90721806543121
 30
0.0
 11
869.82999003045416
 21
469.9072179760243
 31
0.0
  0
LINE
  5
1279B
  8
AM_0
 10
869.82999003045416
 20
469.90721778602432
 30
0.0
 11
839.82998913638437
 21
469.90721778602432
 31
0.0
  0
LINE
  5
1279C
  8
0
 10
869.82999003045416
 20
469.90721778602432
 30
0.0
 11
866.82998958341909
 21
445.9072177860242
 31
0.0
  0
LINE
  5
1279D
  8
AM_0
 10
869.82999003045416
 20
469.90721778602432
 30
0.0
 11
869.82999003045416
 21
472.90721787543129
 31
0.0
  0
LINE
  5
1279E
  8
0
 10
839.82998913638437
 20
469.90721778602432
 30
0.0
 11
842.82998958341909
 21
445.9072177860242
 31
0.0
  0
LINE
  5
1279F
  8
AM_0
 10
839.82998913638437
 20
469.90721778602432
 30
0.0
 11
839.82998913638437
 21
472.90721787543129
 31
0.0
  0
LINE
  5
127A0
  8
AM_0
 10
866.82998958341909
 20
445.9072177860242
 30
0.0
 11
842.82998958341909
 21
445.9072177860242
 31
0.0
  0
LINE
  5
127A1
  8
0
 10
845.32998958341921
 20
417.90721778602398
 30
0.0
 11
864.32998958341909
 21
417.90721778602398
 31
0.0
  0
LINE
  5
127A2
  8
0
 10
845.32998958341921
 20
417.90721778602398
 30
0.0
 11
845.32998958045732
 21
445.9072177860242
 31
0.0
  0
LINE
  5
127A3
  8
0
 10
864.32998958341909
 20
445.9072177860242
 30
0.0
 11
864.32998958341909
 21
417.90721778602398
 31
0.0
  0
LINE
  5
127A4
  8
0
 10
857.82998958341921
 20
439.90721778602432
 30
0.0
 11
851.82998958341955
 21
439.90721778602409
 31
0.0
  0
LINE
  5
127A5
  8
AM_0
 10
857.82998958341921
 20
417.90721778602398
 30
0.0
 11
857.82998958341921
 21
439.90721778602438
 31
0.0
  0
LINE
  5
127A6
  8
AM_0
 10
851.82998958341909
 20
417.90721778602398
 30
0.0
 11
851.82998958341909
 21
439.90721778602409
 31
0.0
  0
ARC
  5
127A7
  8
AM_0
 10
854.82998958341921
 20
439.90721778602432
 30
0.0
 40
2.9999999999999432
 50
0.000000000000007
 51
180.0
  0
LINE
  5
127A8
  8
AM_0
 10
803.82998833125362
 20
444.90717884515209
 30
0.0
 11
803.82998833125362
 21
476.90717884515192
 31
0.0
  0
LINE
  5
127A9
  8
AM_0
 10
940.82999241417156
 20
476.90717884515192
 30
0.0
 11
940.82999241417156
 21
444.9071788451522
 31
0.0
  0
LINE
  5
127AA
  8
AM_0
 10
935.82999241417178
 20
439.9071788451522
 30
0.0
 11
864.32998958341909
 21
439.9071788451522
 31
0.0
  0
LINE
  5
127AB
  8
AM_0
 10
845.32998958109204
 20
439.9071788451522
 30
0.0
 11
808.82998833125384
 21
439.9071788451522
 31
0.0
  0
LINE
  5
127AC
  8
AM_0
 10
803.82998833125362
 20
472.40717884515192
 30
0.0
 11
839.82998913638437
 21
472.40717884515169
 31
0.0
  0
LINE
  5
127AD
  8
AM_0
 10
869.82999003045416
 20
472.40717884515169
 30
0.0
 11
940.82999241417156
 21
472.40717884515192
 31
0.0
  0
LINE
  5
127AE
  8
AM_0
 10
895.8299895233464
 20
450.4071788451518
 30
0.0
 11
895.8299895233464
 21
472.40717884515192
 31
0.0
  0
LINE
  5
127AF
  8
AM_0
 10
891.32998952334685
 20
450.4071788451518
 30
0.0
 11
891.32998952334617
 21
472.40717884515192
 31
0.0
  0
LINE
  5
127B0
  8
AM_0
 10
891.32998952334617
 20
469.4071788451522
 30
0.0
 11
895.82998952334617
 21
469.4071788451522
 31
0.0
  0
ARC
  5
127B1
  8
AM_0
 10
808.82998833125384
 20
444.90717884515209
 30
0.0
 40
5.0
 50
180.0
 51
270.0
1001
GENIUS_GENOBJ-N-FIL_13
1002
{
1000
OWNER
1000
GEN
1002
}
1001
GENIUS_GENODEF_13
1002
{
1000
HIER
1070
     0
1002
}
1002
{
1000
MANEDIT
1070
     0
1002
}
1002
{
1000
NOSEL
1070
     0
1002
}
1002
{
1000
BEHIND
1070
     0
1002
}
1002
{
1000
OTHER
1070
     0
1002
}
1002
{
1000
REACTOR
1002
}
  0
ARC
  5
127B2
  8
AM_0
 10
935.82999241417178
 20
444.9071788451522
 30
0.0
 40
5.0
 50
270.0
 51
0.000000000000007
1001
GENIUS_GENODEF_13
1002
{
1000
HIER
1070
     0
1002
}
1002
{
1000
MANEDIT
1070
     0
1002
}
1002
{
1000
NOSEL
1070
     0
1002
}
1002
{
1000
BEHIND
1070
     0
1002
}
1002
{
1000
OTHER
1070
     0
1002
}
1002
{
1000
REACTOR
1002
}
1001
GENIUS_GENOBJ-N-FIL_13
1002
{
1000
OWNER
1000
GEN
1002
}
  0
LINE
  5
127B3
  8
ﾁｭｳｼﾝｾﾝ1
 10
811.82999017899738
 20
449.9071801862558
 30
0.0
 11
837.82999017899704
 21
449.9071801862558
 31
0.0
  0
LINE
  5
127B4
  8
ﾁｭｳｼﾝｾﾝ1
 10
824.82999017899715
 20
462.9071801862558
 30
0.0
 11
824.82999017899715
 21
436.9071801862558
 31
0.0
  0
CIRCLE
  5
127B5
  8
AM_0
 10
824.82999017899715
 20
449.9071801862558
 30
0.0
 40
5.0
  0
CIRCLE
  5
127B6
  8
AM_0
 10
919.82999056642802
 20
449.9071801862558
 30
0.0
 40
5.0
  0
INSERT
  5
127B7
  8
AM_0
  6
CONTINUOUS
  2
*U5
 10
0.0
 20
0.0
 30
0.0
1001
GENIUS_GENODEF_13
1002
{
1000
HIER
1070
     0
1002
}
1002
{
1000
MANEDIT
1070
     0
1002
}
1002
{
1000
NOSEL
1070
     0
1002
}
1002
{
1000
BEHIND
1070
     0
1002
}
1002
{
1000
OTHER
1070
     0
1002
}
1002
{
1000
REACTOR
1002
}
1001
GENIUS_GENOBJ-N-HTC_13
1002
{
1000
OWNER
1000
GEN
1002
}
1001
GENIUS_GENHATCH_13
1002
{
1000
DATA
1040
0.0
1042
-1.0
1000
SOLID
1070
     0
1011
896.44774089523878
1021
0.0
1031
0.0
1021
471.56107094650679
1031
0.0
1002
}
1002
{
1000
UCS
1010
0.0
1020
0.0
1030
0.0
1010
1.0
1020
0.0
1030
0.0
1010
0.0
1020
1.0
1030
0.0
1002
}
1001
ACAD
1002
{
1000
R14_HATCH_DATA
1000
127B7
1011
1.0
1021
0.0
1031
0.0
1021
0.0
1031
0.0
1011
0.0
1021
0.0
1031
0.0
1021
1.0
1031
0.0
1011
0.0
1021
0.0
1031
0.0
1021
0.0
1031
1.0
1040
0.0
1010
0.0
1020
0.0
1030
1.0
1000
SOLID
1070
     1
1070
     0
1071
        2
1071
        1
1071
        3
1070
     1
1040
898.3299895233464
1040
472.40717884515192
1040
895.8299895233464
1040
472.40717884515192
1070
     1
1040
895.8299895233464
1040
472.40717884515192
1040
895.8299895233464
1040
469.90717884515192
1070
     1
1040
895.8299895233464
1040
469.90717884515192
1040
898.3299895233464
1040
472.40717884515192
1071
        0
1071
       33
1071
        1
1070
     1
1040
940.82999241417156
1040
472.40717884515192
1040
803.82998833125339
1040
472.40717884515192
1071
        0
1070
     0
1070
     1
1071
        1
1040
706.30380659201205
1040
228.40955419519
1040
0.0
1002
}
  0
LINE
  5
127B8
  8
AM_0
 10
895.8299895233464
 20
469.90717884515192
 30
0.0
 11
898.3299895233464
 21
472.40717884515192
 31
0.0
1001
GENIUS_GENFIL_13
1070
     0
1040
2.5
1040
2.5
1040
20.0
1040
0.0
1002
{
1002
}
1001
GENIUS_GENODEF_13
1002
{
1000
HIER
1070
     0
1002
}
1002
{
1000
MANEDIT
1070
     0
1002
}
1002
{
1000
NOSEL
1070
     0
1002
}
1002
{
1000
BEHIND
1070
     0
1002
}
1002
{
1000
OTHER
1070
     0
1002
}
1002
{
1000
REACTOR
1002
}
1001
GENIUS_GENOBJ-N-CHA_13
1002
{
1000
OWNER
1000
GEN
1002
}
  0
LINE
  5
127B9
  8
AM_0
 10
891.32998952334606
 20
469.90717884515192
 30
0.0
 11
888.82998952334583
 21
472.40717884515192
 31
0.0
1001
GENIUS_GENFIL_13
1070
     0
1040
2.5
1040
2.5
1040
20.0
1040
0.0
1002
{
1002
}
1001
GENIUS_GENODEF_13
1002
{
1000
HIER
1070
     0
1002
}
1002
{
1000
MANEDIT
1070
     0
1002
}
1002
{
1000
NOSEL
1070
     0
1002
}
1002
{
1000
BEHIND
1070
     0
1002
}
1002
{
1000
OTHER
1070
     0
1002
}
1002
{
1000
REACTOR
1002
}
1001
GENIUS_GENOBJ-N-CHA_13
1002
{
1000
OWNER
1000
GEN
1002
}
  0
INSERT
  5
127BA
  8
AM_0
  6
CONTINUOUS
  2
*U6
 10
0.0
 20
0.0
 30
0.0
1001
GENIUS_GENODEF_13
1002
{
1000
HIER
1070
     0
1002
}
1002
{
1000
MANEDIT
1070
     0
1002
}
1002
{
1000
NOSEL
1070
     0
1002
}
1002
{
1000
BEHIND
1070
     0
1002
}
1002
{
1000
OTHER
1070
     0
1002
}
1002
{
1000
REACTOR
1002
}
1001
GENIUS_GENOBJ-N-HTC_13
1002
{
1000
OWNER
1000
GEN
1002
}
1001
GENIUS_GENHATCH_13
1002
{
1000
DATA
1040
0.0
1042
-1.0
1000
SOLID
1070
     0
1011
890.71223815145356
1021
0.0
1031
0.0
1021
471.56107094650679
1031
0.0
1002
}
1002
{
1000
UCS
1010
0.0
1020
0.0
1030
0.0
1010
1.0
1020
0.0
1030
0.0
1010
0.0
1020
1.0
1030
0.0
1002
}
1001
ACAD
1002
{
1000
R14_HATCH_DATA
1000
127BA
1011
1.0
1021
0.0
1031
0.0
1021
0.0
1031
0.0
1011
0.0
1021
0.0
1031
0.0
1021
1.0
1031
0.0
1011
0.0
1021
0.0
1031
0.0
1021
0.0
1031
1.0
1040
0.0
1010
0.0
1020
0.0
1030
1.0
1000
SOLID
1070
     1
1070
     0
1071
        2
1071
        1
1071
        3
1070
     1
1040
888.82998952334583
1040
472.40717884515192
1040
891.32998952334606
1040
472.40717884515192
1070
     1
1040
891.32998952334606
1040
472.40717884515192
1040
891.32998952334606
1040
469.90717884515192
1070
     1
1040
891.32998952334606
1040
469.90717884515192
1040
888.82998952334583
1040
472.40717884515192
1071
        0
1071
       33
1071
        1
1070
     1
1040
846.32998663252079
1040
472.40717884515192
1040
983.32999071543895
1040
472.40717884515192
1071
        0
1070
     0
1070
     1
1071
        1
1040
1080.8561724546801
1040
228.40955419519
1040
0.0
1002
}
  0
LINE
  5
127BB
  8
AM_5
 10
889.82999089425311
 20
472.40717884515192
 30
0.0
 11
889.82999089425311
 21
476.90717884515192
 31
0.0
  0
LINE
  5
127BC
  8
AM_5
 10
912.3299893047963
 20
472.40717884515192
 30
0.0
 11
912.32998930479675
 21
476.90717884515192
 31
0.0
  0
LINE
  5
127BD
  8
AM_0
 10
891.32998952334685
 20
450.4071788451518
 30
0.0
 11
895.8299895233464
 21
450.4071788451518
 31
0.0
  0
LINE
  5
127BE
  8
ﾁｭｳｼﾝｾﾝ1
 10
906.82999056642814
 20
449.9071801862558
 30
0.0
 11
932.82999056642802
 21
449.9071801862558
 31
0.0
  0
LINE
  5
127BF
  8
ﾁｭｳｼﾝｾﾝ1
 10
919.82999056642802
 20
462.9071801862558
 30
0.0
 11
919.82999056642802
 21
436.9071801862558
 31
0.0
  0
LINE
  5
127C0
  8
AM_0
 10
803.82998833125362
 20
584.90721277968976
 30
0.0
 11
803.82998833125362
 21
552.90721277969033
 31
0.0
  0
LINE
  5
127C1
  8
AM_0
 10
940.82999241417156
 20
552.90721277969033
 30
0.0
 11
940.82999241417156
 21
584.90721277968976
 31
0.0
  0
LINE
  5
127C2
  8
AM_0
 10
935.82999241417178
 20
589.90721277968964
 30
0.0
 11
808.82998833125384
 21
589.90721277968964
 31
0.0
  0
LINE
  5
127C3
  8
AM_0
 10
803.82998833125362
 20
557.40721277969021
 30
0.0
 11
940.82999241417156
 21
557.40721277969021
 31
0.0
  0
LINE
  5
127C4
  8
AM_0
 10
853.32999122207855
 20
579.4072127796901
 30
0.0
 11
853.32999122207889
 21
557.40721277969021
 31
0.0
  0
LINE
  5
127C5
  8
AM_0
 10
895.8299895233464
 20
579.4072127796901
 30
0.0
 11
895.8299895233464
 21
557.40721277969021
 31
0.0
  0
LINE
  5
127C6
  8
AM_0
 10
891.32998952334685
 20
579.4072127796901
 30
0.0
 11
891.32998952334617
 21
557.40721277969021
 31
0.0
  0
LINE
  5
127C7
  8
AM_0
 10
848.82999122207866
 20
579.4072127796901
 30
0.0
 11
848.82999122207866
 21
557.40721277969021
 31
0.0
  0
LINE
  5
127C8
  8
AM_0
 10
891.32998952334617
 20
560.40721277968964
 30
0.0
 11
895.82998952334617
 21
560.40721277968964
 31
0.0
  0
LINE
  5
127C9
  8
AM_0
 10
853.329991222079
 20
560.40721277968964
 30
0.0
 11
848.82999122207889
 21
560.40721277968964
 31
0.0
  0
ARC
  5
127CA
  8
AM_0
 10
808.82998833125384
 20
584.90721277968976
 30
0.0
 40
5.0
 50
90.0
 51
180.0
1001
GENIUS_GENOBJ-N-FIL_13
1002
{
1000
OWNER
1000
GEN
1002
}
1001
GENIUS_GENODEF_13
1002
{
1000
HIER
1070
     0
1002
}
1002
{
1000
MANEDIT
1070
     0
1002
}
1002
{
1000
NOSEL
1070
     0
1002
}
1002
{
1000
BEHIND
1070
     0
1002
}
1002
{
1000
OTHER
1070
     0
1002
}
1002
{
1000
REACTOR
1002
}
  0
ARC
  5
127CB
  8
AM_0
 10
935.82999241417178
 20
584.90721277968976
 30
0.0
 40
5.0
 50
0.000000000000007
 51
90.0
1001
GENIUS_GENODEF_13
1002
{
1000
HIER
1070
     0
1002
}
1002
{
1000
MANEDIT
1070
     0
1002
}
1002
{
1000
NOSEL
1070
     0
1002
}
1002
{
1000
BEHIND
1070
     0
1002
}
1002
{
1000
OTHER
1070
     0
1002
}
1002
{
1000
REACTOR
1002
}
1001
GENIUS_GENOBJ-N-FIL_13
1002
{
1000
OWNER
1000
GEN
1002
}
  0
LINE
  5
127CC
  8
ﾁｭｳｼﾝｾﾝ1
 10
811.82999017899738
 20
579.90721143858627
 30
0.0
 11
837.82999017899704
 21
579.90721143858627
 31
0.0
  0
LINE
  5
127CD
  8
ﾁｭｳｼﾝｾﾝ1
 10
824.82999017899715
 20
566.90721143858616
 30
0.0
 11
824.82999017899715
 21
592.90721143858627
 31
0.0
  0
CIRCLE
  5
127CE
  8
AM_0
 10
824.82999017899715
 20
579.90721143858627
 30
0.0
 40
5.0
  0
CIRCLE
  5
127CF
  8
AM_0
 10
919.82999056642802
 20
579.90721143858627
 30
0.0
 40
5.0
  0
LINE
  5
127D0
  8
AM_0
 10
848.82999122207866
 20
559.90721277969033
 30
0.0
 11
846.32999122207866
 21
557.40721277969021
 31
0.0
1001
GENIUS_GENFIL_13
1070
     0
1040
2.5
1040
2.5
1040
20.0
1040
0.0
1002
{
1002
}
1001
GENIUS_GENODEF_13
1002
{
1000
HIER
1070
     0
1002
}
1002
{
1000
MANEDIT
1070
     0
1002
}
1002
{
1000
NOSEL
1070
     0
1002
}
1002
{
1000
BEHIND
1070
     0
1002
}
1002
{
1000
OTHER
1070
     0
1002
}
1002
{
1000
REACTOR
1002
}
1001
GENIUS_GENOBJ-N-CHA_13
1002
{
1000
OWNER
1000
GEN
1002
}
  0
INSERT
  5
127D1
  8
AM_0
  6
CONTINUOUS
  2
*U7
 10
0.0
 20
0.0
 30
0.0
1001
GENIUS_GENODEF_13
1002
{
1000
HIER
1070
     0
1002
}
1002
{
1000
MANEDIT
1070
     0
1002
}
1002
{
1000
NOSEL
1070
     0
1002
}
1002
{
1000
BEHIND
1070
     0
1002
}
1002
{
1000
OTHER
1070
     0
1002
}
1002
{
1000
REACTOR
1002
}
1001
GENIUS_GENOBJ-N-HTC_13
1002
{
1000
OWNER
1000
GEN
1002
}
1001
GENIUS_GENHATCH_13
1002
{
1000
DATA
1040
0.0
1042
1.0
1000
SOLID
1070
     0
1011
848.21223985018628
1021
0.0
1031
0.0
1021
558.25332067833506
1031
0.0
1002
}
1002
{
1000
UCS
1010
0.0
1020
0.0
1030
0.0
1010
1.0
1020
0.0
1030
0.0
1010
0.0
1020
1.0
1030
0.0
1002
}
1001
ACAD
1002
{
1000
R14_HATCH_DATA
1000
127D1
1011
1.0
1021
0.0
1031
0.0
1021
0.0
1031
0.0
1011
0.0
1021
0.0
1031
0.0
1021
1.0
1031
0.0
1011
0.0
1021
0.0
1031
0.0
1021
0.0
1031
1.0
1040
0.0
1010
0.0
1020
0.0
1030
1.0
1000
SOLID
1070
     1
1070
     0
1071
        2
1071
        1
1071
        3
1070
     1
1040
846.32999122207866
1040
557.40721277969021
1040
848.82999122207866
1040
557.40721277969021
1070
     1
1040
848.82999122207866
1040
557.40721277969021
1040
848.82999122207866
1040
559.90721277969033
1070
     1
1040
848.82999122207866
1040
559.90721277969033
1040
846.32999122207866
1040
557.40721277969021
1071
        0
1071
       33
1071
        1
1070
     1
1040
803.82998833125362
1040
557.40721277969021
1040
940.82999241417201
1040
557.40721277969021
1071
        0
1070
     0
1070
     1
1071
        1
1040
1038.3561741534129
1040
801.40483742965193
1040
0.0
1002
}
  0
INSERT
  5
127D2
  8
AM_0
  6
CONTINUOUS
  2
*U8
 10
0.0
 20
0.0
 30
0.0
1001
GENIUS_GENODEF_13
1002
{
1000
HIER
1070
     0
1002
}
1002
{
1000
MANEDIT
1070
     0
1002
}
1002
{
1000
NOSEL
1070
     0
1002
}
1002
{
1000
BEHIND
1070
     0
1002
}
1002
{
1000
OTHER
1070
     0
1002
}
1002
{
1000
REACTOR
1002
}
1001
GENIUS_GENOBJ-N-HTC_13
1002
{
1000
OWNER
1000
GEN
1002
}
1001
GENIUS_GENHATCH_13
1002
{
1000
DATA
1040
0.0
1042
1.0
1000
SOLID
1070
     0
1011
853.94774259397173
1021
0.0
1031
0.0
1021
558.25332067833506
1031
0.0
1002
}
1002
{
1000
UCS
1010
0.0
1020
0.0
1030
0.0
1010
1.0
1020
0.0
1030
0.0
1010
0.0
1020
1.0
1030
0.0
1002
}
1001
ACAD
1002
{
1000
R14_HATCH_DATA
1000
127D2
1011
1.0
1021
0.0
1031
0.0
1021
0.0
1031
0.0
1011
0.0
1021
0.0
1031
0.0
1021
1.0
1031
0.0
1011
0.0
1021
0.0
1031
0.0
1021
0.0
1031
1.0
1040
0.0
1010
0.0
1020
0.0
1030
1.0
1000
SOLID
1070
     1
1070
     0
1071
        2
1071
        1
1071
        3
1070
     1
1040
855.82999122207934
1040
557.40721277969021
1040
853.32999122207946
1040
557.40721277969021
1070
     1
1040
853.32999122207946
1040
557.40721277969021
1040
853.32999122207946
1040
559.90721277969033
1070
     1
1040
853.32999122207946
1040
559.90721277969033
1040
855.82999122207934
1040
557.40721277969021
1071
        0
1071
       33
1071
        1
1070
     1
1040
898.32999411290405
1040
557.40721277969021
1040
761.32999002998599
1040
557.40721277969021
1071
        0
1070
     0
1070
     1
1071
        1
1040
663.80380829074511
1040
801.40483742965193
1040
0.0
1002
}
  0
LINE
  5
127D3
  8
AM_0
 10
853.32999122207946
 20
559.90721277969033
 30
0.0
 11
855.82999122207934
 21
557.40721277969021
 31
0.0
1001
GENIUS_GENFIL_13
1070
     0
1040
2.5
1040
2.5
1040
20.0
1040
0.0
1002
{
1002
}
1001
GENIUS_GENODEF_13
1002
{
1000
HIER
1070
     0
1002
}
1002
{
1000
MANEDIT
1070
     0
1002
}
1002
{
1000
NOSEL
1070
     0
1002
}
1002
{
1000
BEHIND
1070
     0
1002
}
1002
{
1000
OTHER
1070
     0
1002
}
1002
{
1000
REACTOR
1002
}
1001
GENIUS_GENOBJ-N-CHA_13
1002
{
1000
OWNER
1000
GEN
1002
}
  0
INSERT
  5
127D4
  8
AM_0
  6
CONTINUOUS
  2
*U9
 10
0.0
 20
0.0
 30
0.0
1001
GENIUS_GENODEF_13
1002
{
1000
HIER
1070
     0
1002
}
1002
{
1000
MANEDIT
1070
     0
1002
}
1002
{
1000
NOSEL
1070
     0
1002
}
1002
{
1000
BEHIND
1070
     0
1002
}
1002
{
1000
OTHER
1070
     0
1002
}
1002
{
1000
REACTOR
1002
}
1001
GENIUS_GENOBJ-N-HTC_13
1002
{
1000
OWNER
1000
GEN
1002
}
1001
GENIUS_GENHATCH_13
1002
{
1000
DATA
1040
0.0
1042
1.0
1000
SOLID
1070
     0
1011
896.44774089523878
1021
0.0
1031
0.0
1021
558.25332067833506
1031
0.0
1002
}
1002
{
1000
UCS
1010
0.0
1020
0.0
1030
0.0
1010
1.0
1020
0.0
1030
0.0
1010
0.0
1020
1.0
1030
0.0
1002
}
1001
ACAD
1002
{
1000
R14_HATCH_DATA
1000
127D4
1011
1.0
1021
0.0
1031
0.0
1021
0.0
1031
0.0
1011
0.0
1021
0.0
1031
0.0
1021
1.0
1031
0.0
1011
0.0
1021
0.0
1031
0.0
1021
0.0
1031
1.0
1040
0.0
1010
0.0
1020
0.0
1030
1.0
1000
SOLID
1070
     1
1070
     0
1071
        2
1071
        1
1071
        3
1070
     1
1040
898.3299895233464
1040
557.40721277969021
1040
895.8299895233464
1040
557.40721277969021
1070
     1
1040
895.8299895233464
1040
557.40721277969021
1040
895.8299895233464
1040
559.90721277969033
1070
     1
1040
895.8299895233464
1040
559.90721277969033
1040
898.3299895233464
1040
557.40721277969021
1071
        0
1071
       33
1071
        1
1070
     1
1040
940.82999241417156
1040
557.40721277969021
1040
803.82998833125339
1040
557.40721277969021
1071
        0
1070
     0
1070
     1
1071
        1
1040
706.30380659201205
1040
801.40483742965193
1040
0.0
1002
}
  0
LINE
  5
127D5
  8
AM_0
 10
895.8299895233464
 20
559.90721277969033
 30
0.0
 11
898.3299895233464
 21
557.40721277969021
 31
0.0
1001
GENIUS_GENFIL_13
1070
     0
1040
2.5
1040
2.5
1040
20.0
1040
0.0
1002
{
1002
}
1001
GENIUS_GENODEF_13
1002
{
1000
HIER
1070
     0
1002
}
1002
{
1000
MANEDIT
1070
     0
1002
}
1002
{
1000
NOSEL
1070
     0
1002
}
1002
{
1000
BEHIND
1070
     0
1002
}
1002
{
1000
OTHER
1070
     0
1002
}
1002
{
1000
REACTOR
1002
}
1001
GENIUS_GENOBJ-N-CHA_13
1002
{
1000
OWNER
1000
GEN
1002
}
  0
LINE
  5
127D6
  8
AM_0
 10
891.32998952334606
 20
559.90721277969033
 30
0.0
 11
888.82998952334583
 21
557.40721277969021
 31
0.0
1001
GENIUS_GENFIL_13
1070
     0
1040
2.5
1040
2.5
1040
20.0
1040
0.0
1002
{
1002
}
1001
GENIUS_GENODEF_13
1002
{
1000
HIER
1070
     0
1002
}
1002
{
1000
MANEDIT
1070
     0
1002
}
1002
{
1000
NOSEL
1070
     0
1002
}
1002
{
1000
BEHIND
1070
     0
1002
}
1002
{
1000
OTHER
1070
     0
1002
}
1002
{
1000
REACTOR
1002
}
1001
GENIUS_GENOBJ-N-CHA_13
1002
{
1000
OWNER
1000
GEN
1002
}
  0
INSERT
  5
127D7
  8
AM_0
  6
CONTINUOUS
  2
*U10
 10
0.0
 20
0.0
 30
0.0
1001
GENIUS_GENODEF_13
1002
{
1000
HIER
1070
     0
1002
}
1002
{
1000
MANEDIT
1070
     0
1002
}
1002
{
1000
NOSEL
1070
     0
1002
}
1002
{
1000
BEHIND
1070
     0
1002
}
1002
{
1000
OTHER
1070
     0
1002
}
1002
{
1000
REACTOR
1002
}
1001
GENIUS_GENOBJ-N-HTC_13
1002
{
1000
OWNER
1000
GEN
1002
}
1001
GENIUS_GENHATCH_13
1002
{
1000
DATA
1040
0.0
1042
1.0
1000
SOLID
1070
     0
1011
890.71223815145356
1021
0.0
1031
0.0
1021
558.25332067833506
1031
0.0
1002
}
1002
{
1000
UCS
1010
0.0
1020
0.0
1030
0.0
1010
1.0
1020
0.0
1030
0.0
1010
0.0
1020
1.0
1030
0.0
1002
}
1001
ACAD
1002
{
1000
R14_HATCH_DATA
1000
127D7
1011
1.0
1021
0.0
1031
0.0
1021
0.0
1031
0.0
1011
0.0
1021
0.0
1031
0.0
1021
1.0
1031
0.0
1011
0.0
1021
0.0
1031
0.0
1021
0.0
1031
1.0
1040
0.0
1010
0.0
1020
0.0
1030
1.0
1000
SOLID
1070
     1
1070
     0
1071
        2
1071
        1
1071
        3
1070
     1
1040
888.82998952334583
1040
557.40721277969021
1040
891.32998952334606
1040
557.40721277969021
1070
     1
1040
891.32998952334606
1040
557.40721277969021
1040
891.32998952334606
1040
559.90721277969033
1070
     1
1040
891.32998952334606
1040
559.90721277969033
1040
888.82998952334583
1040
557.40721277969021
1071
        0
1071
       33
1071
        1
1070
     1
1040
846.32998663252079
1040
557.40721277969021
1040
983.32999071543895
1040
557.40721277969021
1071
        0
1070
     0
1070
     1
1071
        1
1040
1080.8561724546801
1040
801.40483742965193
1040
0.0
1002
}
  0
LINE
  5
127D8
  8
AM_5
 10
889.82999089425311
 20
557.40721277969021
 30
0.0
 11
889.82999089425311
 21
552.90721277969033
 31
0.0
  0
LINE
  5
127D9
  8
AM_5
 10
912.3299893047963
 20
557.40721277969021
 30
0.0
 11
912.32998930479675
 21
552.90721277969033
 31
0.0
  0
LINE
  5
127DA
  8
AM_0
 10
848.82999122207866
 20
579.4072127796901
 30
0.0
 11
853.32999122207866
 21
579.4072127796901
 31
0.0
  0
LINE
  5
127DB
  8
AM_0
 10
891.32998952334685
 20
579.4072127796901
 30
0.0
 11
895.8299895233464
 21
579.4072127796901
 31
0.0
  0
LINE
  5
127DC
  8
ﾁｭｳｼﾝｾﾝ1
 10
906.82999056642814
 20
579.90721143858627
 30
0.0
 11
932.82999056642802
 21
579.90721143858627
 31
0.0
  0
LINE
  5
127DD
  8
ﾁｭｳｼﾝｾﾝ1
 10
919.82999056642802
 20
566.90721143858616
 30
0.0
 11
919.82999056642802
 21
592.90721143858627
 31
0.0
  0
LINE
  5
127DE
  8
AM_0
 10
823.32998865907916
 20
470.81717884515211
 30
0.0
 11
806.32998865907916
 21
470.81717884515177
 31
0.0
  0
LINE
  5
127DF
  8
AM_0
 10
806.32998865907916
 20
470.81717884515177
 30
0.0
 11
806.32998865907916
 21
472.40717884515192
 31
0.0
  0
LINE
  5
127E0
  8
AM_0
 10
823.32998865907916
 20
470.81717884515177
 30
0.0
 11
823.32998865907916
 21
472.40717884515192
 31
0.0
  0
LINE
  5
127E1
  8
AM_0
 10
821.32998865907905
 20
462.81717884515308
 30
0.0
 11
808.32998865907916
 21
462.81717884515308
 31
0.0
  0
LINE
  5
127E2
  8
AM_0
 10
808.32998865907916
 20
470.81717884515291
 30
0.0
 11
808.32998865907916
 21
462.81717884515308
 31
0.0
  0
LINE
  5
127E3
  8
AM_0
 10
821.32998865907905
 20
470.81717884515291
 30
0.0
 11
821.32998865907905
 21
462.81717884515308
 31
0.0
  0
LINE
  5
127E4
  8
AM_0
 10
938.32999208634624
 20
470.81717884515211
 30
0.0
 11
921.32999208634612
 21
470.81717884515177
 31
0.0
  0
LINE
  5
127E5
  8
AM_0
 10
921.32999208634612
 20
470.81717884515177
 30
0.0
 11
921.32999208634612
 21
472.40717884515192
 31
0.0
  0
LINE
  5
127E6
  8
AM_0
 10
938.32999208634624
 20
470.81717884515177
 30
0.0
 11
938.32999208634624
 21
472.40717884515192
 31
0.0
  0
LINE
  5
127E7
  8
AM_0
 10
936.3299920863459
 20
462.81717884515308
 30
0.0
 11
923.32999208634624
 21
462.81717884515308
 31
0.0
  0
LINE
  5
127E8
  8
AM_0
 10
923.32999208634624
 20
470.81717884515291
 30
0.0
 11
923.32999208634624
 21
462.81717884515308
 31
0.0
  0
LINE
  5
127E9
  8
AM_0
 10
936.3299920863459
 20
470.81717884515291
 30
0.0
 11
936.3299920863459
 21
462.81717884515308
 31
0.0
  0
LINE
  5
127EA
  8
AM_0
 10
811.07998865907905
 20
565.49721277969104
 30
0.0
 11
811.07998865907905
 21
558.99721277969127
 31
0.0
  0
LINE
  5
127EB
  8
AM_0
 10
807.32998865907916
 20
565.49721277969104
 30
0.0
 11
807.32998865907916
 21
558.99721277969115
 31
0.0
  0
LINE
  5
127EC
  8
AM_0
 10
818.57998865907905
 20
565.49721277969104
 30
0.0
 11
818.57998865907871
 21
558.99721277969115
 31
0.0
  0
LINE
  5
127ED
  8
AM_0
 10
822.32998865907894
 20
565.49721277969104
 30
0.0
 11
822.32998865907894
 21
558.99721277969115
 31
0.0
  0
LINE
  5
127EE
  8
AM_0
 10
818.82998865907916
 20
565.8172105147147
 30
0.0
 11
810.82998865907916
 21
565.8172105147147
 31
0.0
  0
LINE
  5
127EF
  8
AM_0
 10
822.32998865907894
 20
565.49721277969104
 30
0.0
 11
807.32998865907916
 21
565.49721277969104
 31
0.0
  0
LINE
  5
127F0
  8
AM_0
 10
810.82998865907916
 20
565.49721277969104
 30
0.0
 11
810.82998865907916
 21
565.81721051471493
 31
0.0
  0
LINE
  5
127F1
  8
AM_5
 10
817.82998865907894
 20
565.49721277969104
 30
0.0
 11
817.82998865907894
 21
565.8172105147147
 31
0.0
  0
LINE
  5
127F2
  8
AM_0
 10
818.82998865907916
 20
565.49721277969104
 30
0.0
 11
818.82998865907916
 21
565.8172105147147
 31
0.0
  0
LINE
  5
127F3
  8
AM_5
 10
811.82998865907916
 20
565.49721277969104
 30
0.0
 11
811.82998865907916
 21
565.81721051471493
 31
0.0
  0
LINE
  5
127F4
  8
AM_0
 10
823.32998865907916
 20
558.99721277969013
 30
0.0
 11
806.32998865907916
 21
558.99721277969013
 31
0.0
  0
LINE
  5
127F5
  8
AM_0
 10
806.32998865907916
 20
558.99721277969013
 30
0.0
 11
806.32998865907916
 21
557.40721277969021
 31
0.0
  0
LINE
  5
127F6
  8
AM_0
 10
823.32998865907916
 20
558.99721277969013
 30
0.0
 11
823.32998865907916
 21
557.40721277969021
 31
0.0
  0
LINE
  5
127F7
  8
AM_0
 10
926.07999208634624
 20
565.49721277969104
 30
0.0
 11
926.07999208634624
 21
558.99721277969127
 31
0.0
  0
LINE
  5
127F8
  8
AM_0
 10
922.32999208634624
 20
565.49721277969104
 30
0.0
 11
922.32999208634624
 21
558.99721277969115
 31
0.0
  0
LINE
  5
127F9
  8
AM_0
 10
933.57999208634646
 20
565.49721277969104
 30
0.0
 11
933.5799920863459
 21
558.99721277969115
 31
0.0
  0
LINE
  5
127FA
  8
AM_0
 10
937.32999208634635
 20
565.49721277969104
 30
0.0
 11
937.3299920863459
 21
558.99721277969115
 31
0.0
  0
LINE
  5
127FB
  8
AM_0
 10
933.82999208634624
 20
565.8172105147147
 30
0.0
 11
925.82999208634624
 21
565.8172105147147
 31
0.0
  0
LINE
  5
127FC
  8
AM_0
 10
937.32999208634635
 20
565.49721277969104
 30
0.0
 11
922.32999208634624
 21
565.49721277969104
 31
0.0
  0
LINE
  5
127FD
  8
AM_0
 10
925.82999208634624
 20
565.49721277969104
 30
0.0
 11
925.82999208634624
 21
565.81721051471493
 31
0.0
  0
LINE
  5
127FE
  8
AM_5
 10
932.82999208634635
 20
565.49721277969104
 30
0.0
 11
932.82999208634635
 21
565.8172105147147
 31
0.0
  0
LINE
  5
127FF
  8
AM_0
 10
933.82999208634624
 20
565.49721277969104
 30
0.0
 11
933.82999208634624
 21
565.8172105147147
 31
0.0
  0
LINE
  5
12800
  8
AM_5
 10
926.82999208634624
 20
565.49721277969104
 30
0.0
 11
926.82999208634624
 21
565.81721051471493
 31
0.0
  0
LINE
  5
12801
  8
AM_0
 10
938.32999208634624
 20
558.99721277969013
 30
0.0
 11
921.32999208634624
 21
558.99721277969013
 31
0.0
  0
LINE
  5
12802
  8
AM_0
 10
921.32999208634624
 20
558.99721277969013
 30
0.0
 11
921.32999208634624
 21
557.40721277969021
 31
0.0
  0
LINE
  5
12803
  8
AM_0
 10
938.32999208634624
 20
558.99721277969013
 30
0.0
 11
938.32999208634624
 21
557.40721277969021
 31
0.0
  0
LINE
  5
12852
  8
AM_0
 10
913.82999181859338
 20
320.37556179289987
 30
0.0
 11
830.82998839132642
 21
320.37556179289987
 31
0.0
  0
LINE
  5
1285C
  8
AM_0
 10
934.82999196760534
 20
251.37555925970261
 30
0.0
 11
934.82999196760534
 21
299.37556164388837
 31
0.0
  0
ARC
  5
12866
  8
AM_0
 10
913.82999181859338
 20
315.37556179290021
 30
0.0
 40
5.0
 50
359.99999946639139
 51
90.0
1001
GENIUS_GENODEF_13
1002
{
1000
HIER
1070
     0
1002
}
1002
{
1000
MANEDIT
1070
     0
1002
}
1002
{
1000
NOSEL
1070
     0
1002
}
1002
{
1000
BEHIND
1070
     0
1002
}
1002
{
1000
OTHER
1070
     0
1002
}
1002
{
1000
REACTOR
1002
}
1001
GENIUS_GENOBJ-N-FIL_13
1002
{
1000
OWNER
1000
GEN
1002
}
  0
ARC
  5
12867
  8
AM_0
 10
929.82999181859338
 20
315.37556164388837
 30
0.0
 40
11.0
 50
179.99999946639139
 51
270.0000005336085
  0
ARC
  5
1286C
  8
AM_0
 10
929.829991967605
 20
299.37556164388837
 30
0.0
 40
5.0
 50
0.0
 51
90.000000533608514
1001
GENIUS_GENOBJ-N-FIL_13
1002
{
1000
OWNER
1000
GEN
1002
}
1001
GENIUS_GENODEF_13
1002
{
1000
HIER
1070
     0
1002
}
1002
{
1000
MANEDIT
1070
     0
1002
}
1002
{
1000
NOSEL
1070
     0
1002
}
1002
{
1000
BEHIND
1070
     0
1002
}
1002
{
1000
OTHER
1070
     0
1002
}
1002
{
1000
REACTOR
1002
}
  0
ARC
  5
1286E
  8
AM_0
 10
929.82999181859338
 20
235.37555925970261
 30
0.0
 40
11.0
 50
89.999999466391486
 51
114.6199773286512
  0
ARC
  5
1286F
  8
AM_0
 10
929.829991967605
 20
251.37555925970261
 30
0.0
 40
5.0
 50
269.99999946639139
 51
0.0
1001
GENIUS_GENOBJ-N-FIL_13
1002
{
1000
OWNER
1000
GEN
1002
}
1001
GENIUS_GENODEF_13
1002
{
1000
HIER
1070
     0
1002
}
1002
{
1000
MANEDIT
1070
     0
1002
}
1002
{
1000
NOSEL
1070
     0
1002
}
1002
{
1000
BEHIND
1070
     0
1002
}
1002
{
1000
OTHER
1070
     0
1002
}
1002
{
1000
REACTOR
1002
}
  0
LINE
  5
1287D
  8
AM_0
 10
809.82998824231481
 20
251.37555925970261
 30
0.0
 11
809.82998824231481
 21
299.66520350966761
 31
0.0
  0
ARC
  5
12880
  8
AM_0
 10
814.82998839132642
 20
315.37556164388837
 30
0.0
 40
11.0
 50
269.99999946639139
 51
0.0000005336085174
  0
ARC
  5
12881
  8
AM_0
 10
830.82998839132642
 20
315.37556179290021
 30
0.0
 40
5.0
 50
90.0
 51
180.0000005336085
1001
GENIUS_GENODEF_13
1002
{
1000
HIER
1070
     0
1002
}
1002
{
1000
MANEDIT
1070
     0
1002
}
1002
{
1000
NOSEL
1070
     0
1002
}
1002
{
1000
BEHIND
1070
     0
1002
}
1002
{
1000
OTHER
1070
     0
1002
}
1002
{
1000
REACTOR
1002
}
1001
GENIUS_GENOBJ-N-FIL_13
1002
{
1000
OWNER
1000
GEN
1002
}
  0
ARC
  5
12886
  8
AM_0
 10
814.8299882423147
 20
299.37556164388837
 30
0.0
 40
5.0
 50
89.999999466391486
 51
180.0
1001
GENIUS_GENOBJ-N-FIL_13
1002
{
1000
OWNER
1000
GEN
1002
}
1001
GENIUS_GENODEF_13
1002
{
1000
HIER
1070
     0
1002
}
1002
{
1000
MANEDIT
1070
     0
1002
}
1002
{
1000
NOSEL
1070
     0
1002
}
1002
{
1000
BEHIND
1070
     0
1002
}
1002
{
1000
OTHER
1070
     0
1002
}
1002
{
1000
REACTOR
1002
}
  0
ARC
  5
12887
  8
AM_0
 10
814.82998839132642
 20
235.37555925970261
 30
0.0
 40
11.0
 50
65.380022671342331
 51
90.000000533608514
  0
ARC
  5
12888
  8
AM_0
 10
814.8299882423147
 20
251.37555925970261
 30
0.0
 40
5.0
 50
180.0
 51
270.0000005336085
1001
GENIUS_GENOBJ-N-FIL_13
1002
{
1000
OWNER
1000
GEN
1002
}
1001
GENIUS_GENODEF_13
1002
{
1000
HIER
1070
     0
1002
}
1002
{
1000
MANEDIT
1070
     0
1002
}
1002
{
1000
NOSEL
1070
     0
1002
}
1002
{
1000
BEHIND
1070
     0
1002
}
1002
{
1000
OTHER
1070
     0
1002
}
1002
{
1000
REACTOR
1002
}
  0
CIRCLE
  5
12A46
  8
AM_0
 10
814.82998839132642
 20
235.37555925970261
 30
0.0
 40
6.5
  0
CIRCLE
  5
12A47
  8
AM_0
 10
814.82998839132642
 20
235.37555925970261
 30
0.0
 40
3.4641016151377508
  0
LINE
  5
12A48
  8
AM_0
 10
818.2940900064641
 20
235.37555925970261
 30
0.0
 11
816.56203919889685
 21
238.37555925970261
 31
0.0
  0
LINE
  5
12A49
  8
AM_0
 10
813.09793758375758
 20
238.37555925970261
 30
0.0
 11
811.36588677618909
 21
235.37555925970329
 31
0.0
  0
LINE
  5
12A4A
  8
AM_0
 10
813.09793758375667
 20
232.37555925970261
 30
0.0
 11
816.56203919889515
 21
232.37555925970261
 31
0.0
  0
LINE
  5
12A4B
  8
AM_0
 10
811.36588677618909
 20
235.37555925970329
 30
0.0
 11
813.09793758375667
 21
232.37555925970261
 31
0.0
  0
LINE
  5
12A4C
  8
AM_0
 10
816.56203919889515
 20
232.37555925970261
 30
0.0
 11
818.2940900064641
 21
235.37555925970261
 31
0.0
  0
LINE
  5
12A4D
  8
AM_0
 10
816.56203919889685
 20
238.37555925970261
 30
0.0
 11
813.09793758375758
 21
238.37555925970261
 31
0.0
  0
CIRCLE
  5
12A4E
  8
AM_0
 10
929.82999181859338
 20
235.3755592597027
 30
0.0
 40
6.5
  0
CIRCLE
  5
12A4F
  8
AM_0
 10
929.82999181859338
 20
235.3755592597027
 30
0.0
 40
3.4641016151377508
  0
LINE
  5
12A50
  8
AM_0
 10
933.29409343373118
 20
235.3755592597027
 30
0.0
 11
931.56204262616404
 21
238.3755592597027
 31
0.0
  0
LINE
  5
12A51
  8
AM_0
 10
928.09794101102455
 20
238.3755592597027
 30
0.0
 11
926.36589020345616
 21
235.37555925970349
 31
0.0
  0
LINE
  5
12A52
  8
AM_0
 10
928.09794101102352
 20
232.3755592597027
 30
0.0
 11
931.56204262616245
 21
232.3755592597027
 31
0.0
  0
LINE
  5
12A53
  8
AM_0
 10
926.36589020345616
 20
235.37555925970349
 30
0.0
 11
928.09794101102352
 21
232.3755592597027
 31
0.0
  0
LINE
  5
12A54
  8
AM_0
 10
931.56204262616245
 20
232.3755592597027
 30
0.0
 11
933.29409343373118
 21
235.3755592597027
 31
0.0
  0
LINE
  5
12A55
  8
AM_0
 10
931.56204262616404
 20
238.3755592597027
 30
0.0
 11
928.09794101102455
 21
238.3755592597027
 31
0.0
  0
LINE
  5
12D46
  8
AM_0
 10
801.83029983293272
 20
539.87229904900198
 30
0.0
 11
802.9299508884061
 21
476.87229685608253
 31
0.0
  0
LINE
  5
12D47
  8
AM_0
 10
801.83029985295332
 20
539.94210867474987
 30
0.0
 11
802.05721969981698
 21
552.94212433695634
 31
0.0
  0
LINE
  5
12D48
  8
AM_0
 10
801.82998806350088
 20
315.37556164388837
 30
0.0
 11
801.82998806350088
 21
235.37555925970261
 31
0.0
  0
ARC
  5
12D4A
  8
AM_0
 10
812.82998839132642
 20
235.37555925970261
 30
0.0
 40
11.000000327825539
 50
180.0
 51
215.09680068761099
  0
TEXT
  5
12DF6
  8
AM_0
 10
507.8485359971944
 20
520.24222779860702
 30
0.0
 40
10.0
  1
VC01-007KMR~VC01-060KMR
1001
ACAD
1000
MTEXTBEGIN
1070
    73
1070
     1
1070
    44
1040
1.0
1070
    74
1070
     0
1000
MTEXTEND
  0
VIEWPORT
  5
89
 67
     1
  8
0
 10
210.0
 20
148.5
 30
0.0
 40
420.0
 41
297.0
 68
     1
 69
     1
1001
ACAD
1000
MVIEW
1002
{
1070
    16
1010
0.0
1020
0.0
1030
0.0
1010
0.0
1020
0.0
1030
1.0
1040
0.0
1040
297.0
1040
221.70154043645701
1040
148.5
1040
50.0
1040
0.0
1040
0.0
1070
     0
1070
   100
1070
     1
1070
     1
1070
     0
1070
     0
1070
     0
1070
     0
1040
0.0
1040
0.0
1040
0.0
1040
10.0
1040
10.0
1040
10.0
1040
10.0
1070
     0
1002
{
1002
}
1002
}
1001
GENIUS_GENOREF_13
1005
1B94
1001
GENIUS_GENSCREG_15
1000
PF
1040
1.0
1000
DF
1040
1.0
1000
MIN
1011
0.0
1021
0.0
1031
0.0
1021
0.0
1031
0.0
1000
MAX
1011
420.0
1021
0.0
1031
0.0
1021
297.0
1031
0.0
1000
FLAGS
1070
     4
  0
ENDSEC
  0
EOF
