  0
SECTION
  2
HEADER
  9
$ACADVER
  1
AC1009
  9
$INSBASE
 10
0.0
 20
0.0
 30
0.0
  9
$EXTMIN
 10
486.03835903590277
 20
189.59405000337711
 30
-0.0015258207003583
  9
$EXTMAX
 10
1096.598108105522
 20
626.03863200626233
 30
0.0000000349246037
  9
$LIMMIN
 10
0.0
 20
0.0
  9
$LIMMAX
 10
853.5
 20
555.00000000000011
  9
$ORTHOMODE
 70
     0
  9
$REGENMODE
 70
     1
  9
$FILLMODE
 70
     1
  9
$QTEXTMODE
 70
     0
  9
$MIRRTEXT
 70
     1
  9
$DRAGMODE
 70
     2
  9
$LTSCALE
 40
3.0
  9
$OSMODE
 70
   551
  9
$ATTMODE
 70
     1
  9
$TEXTSIZE
 40
2.5
  9
$TRACEWID
 40
1.0
  9
$TEXTSTYLE
  7
STANDARD
  9
$CLAYER
  8
AM_0
  9
$CELTYPE
  6
BYLAYER
  9
$CECOLOR
 62
   256
  9
$DIMSCALE
 40
3.0
  9
$DIMASZ
 40
2.5
  9
$DIMEXO
 40
1.0
  9
$DIMDLI
 40
7.0
  9
$DIMRND
 40
0.0
  9
$DIMDLE
 40
0.0
  9
$DIMEXE
 40
1.0
  9
$DIMTP
 40
0.1
  9
$DIMTM
 40
0.1000000001
  9
$DIMTXT
 40
2.5
  9
$DIMCEN
 40
0.0
  9
$DIMTSZ
 40
0.0
  9
$DIMTOL
 70
     0
  9
$DIMLIM
 70
     0
  9
$DIMTIH
 70
     0
  9
$DIMTOH
 70
     0
  9
$DIMSE1
 70
     0
  9
$DIMSE2
 70
     0
  9
$DIMTAD
 70
     3
  9
$DIMZIN
 70
     8
  9
$DIMBLK
  1

  9
$DIMASO
 70
     1
  9
$DIMSHO
 70
     1
  9
$DIMPOST
  1

  9
$DIMAPOST
  1
"
  9
$DIMALT
 70
     0
  9
$DIMALTD
 70
     2
  9
$DIMALTF
 40
0.0393701
  9
$DIMLFAC
 40
1.0
  9
$DIMTOFL
 70
     1
  9
$DIMTVP
 40
0.0
  9
$DIMTIX
 70
     0
  9
$DIMSOXD
 70
     0
  9
$DIMSAH
 70
     0
  9
$DIMBLK1
  1

  9
$DIMBLK2
  1

  9
$DIMSTYLE
  2
AM_JIS
  9
$DIMCLRD
 70
   256
  9
$DIMCLRE
 70
   256
  9
$DIMCLRT
 70
     4
  9
$DIMTFAC
 40
0.71
  9
$DIMGAP
 40
1.0
  9
$LUNITS
 70
     2
  9
$LUPREC
 70
     2
  9
$SKETCHINC
 40
1.0
  9
$FILLETRAD
 40
7.5
  9
$AUNITS
 70
     0
  9
$AUPREC
 70
     3
  9
$MENU
  1
.
  9
$ELEVATION
 40
0.0
  9
$PELEVATION
 40
0.0
  9
$THICKNESS
 40
0.0
  9
$LIMCHECK
 70
     0
  9
$BLIPMODE
 70
     0
  9
$CHAMFERA
 40
7.5
  9
$CHAMFERB
 40
7.5
  9
$SKPOLY
 70
     0
  9
$TDCREATE
 40
2452753.643349607
  9
$TDUPDATE
 40
2458543.4585817591
  9
$TDINDWG
 40
0.3197971759
  9
$TDUSRTIMER
 40
0.3197969792
  9
$USRTIMER
 70
     1
  9
$ANGBASE
 50
0.0
  9
$ANGDIR
 70
     0
  9
$PDMODE
 70
     0
  9
$PDSIZE
 40
0.0
  9
$PLINEWID
 40
0.0
  9
$COORDS
 70
     1
  9
$SPLFRAME
 70
     0
  9
$SPLINETYPE
 70
     6
  9
$SPLINESEGS
 70
     8
  9
$ATTDIA
 70
     1
  9
$ATTREQ
 70
     1
  9
$HANDLING
 70
     1
  9
$HANDSEED
  5
15B4D
  9
$SURFTAB1
 70
     6
  9
$SURFTAB2
 70
     6
  9
$SURFTYPE
 70
     6
  9
$SURFU
 70
     6
  9
$SURFV
 70
     6
  9
$UCSNAME
  2

  9
$UCSORG
 10
0.0
 20
0.0
 30
0.0
  9
$UCSXDIR
 10
1.0
 20
0.0
 30
0.0
  9
$UCSYDIR
 10
0.0
 20
1.0
 30
0.0
  9
$PUCSNAME
  2

  9
$PUCSORG
 10
0.0
 20
0.0
 30
0.0
  9
$PUCSXDIR
 10
1.0
 20
0.0
 30
0.0
  9
$PUCSYDIR
 10
0.0
 20
1.0
 30
0.0
  9
$USERI1
 70
     0
  9
$USERI2
 70
     0
  9
$USERI3
 70
     0
  9
$USERI4
 70
     0
  9
$USERI5
 70
     0
  9
$USERR1
 40
0.0
  9
$USERR2
 40
0.0
  9
$USERR3
 40
0.0
  9
$USERR4
 40
0.0
  9
$USERR5
 40
0.0
  9
$WORLDVIEW
 70
     1
  9
$SHADEDGE
 70
     3
  9
$SHADEDIF
 70
    70
  9
$TILEMODE
 70
     1
  9
$MAXACTVP
 70
    48
  9
$PLIMCHECK
 70
     0
  9
$PEXTMIN
 10
1.0000000000000000E+020
 20
1.0000000000000000E+020
 30
1.0000000000000000E+020
  9
$PEXTMAX
 10
-1.0000000000000000E+020
 20
-1.0000000000000000E+020
 30
-1.0000000000000000E+020
  9
$PLIMMIN
 10
0.0
 20
0.0
  9
$PLIMMAX
 10
420.0
 20
297.0
  9
$UNITMODE
 70
     0
  9
$VISRETAIN
 70
     1
  9
$PLINEGEN
 70
     0
  9
$PSLTSCALE
 70
     1
  0
ENDSEC
  0
SECTION
  2
TABLES
  0
TABLE
  2
VPORT
 70
     1
  0
VPORT
  2
*ACTIVE
 70
     0
 10
0.0
 20
0.0
 11
1.0
 21
1.0
 12
791.31823357071244
 22
407.81634100481972
 13
0.0
 23
0.0
 14
7.5
 24
7.5
 15
30.0
 25
30.0
 16
0.0
 26
0.0
 36
1.0
 17
0.0
 27
0.0
 37
0.0
 40
439.44076906468979
 41
1.7571592210767459
 42
50.0
 43
0.0
 44
0.0
 50
0.0
 51
0.0
 71
    16
 72
   100
 73
     1
 74
     1
 75
     0
 76
     0
 77
     0
 78
     0
  0
ENDTAB
  0
TABLE
  2
LTYPE
 70
    21
  0
LTYPE
  2
CONTINUOUS
 70
     0
  3
Solid line
 72
    65
 73
     0
 40
0.0
  0
LTYPE
  2
PHANTOM2
 70
     0
  3
Phantom (.5x) ___ _ _ ___ _ _ ___ _ _ ___ _ _
 72
    65
 73
     6
 40
31.75
 49
15.875
 49
-3.174999999999998
 49
3.174999999999998
 49
-3.174999999999998
 49
3.174999999999998
 49
-3.174999999999998
  0
LTYPE
  2
CENTER
 70
     0
  3
Center ____ _ ____ _ ____ _ ____ _ ____ _ ____
 72
    65
 73
     4
 40
50.799999999999997
 49
31.75
 49
-6.3499999999999979
 49
6.3499999999999979
 49
-6.3499999999999979
  0
LTYPE
  2
ACANSTGBM
 70
     0
  3
__ . . __ . .
 72
    65
 73
     6
 40
9.0
 49
4.0
 49
-1.0
 49
1.0
 49
-1.0
 49
1.0
 49
-1.0
  0
LTYPE
  2
ACANSTGLM
 70
     0
  3
_ _ _ _ _
 72
    65
 73
     2
 40
3.0
 49
2.0
 49
-1.0
  0
LTYPE
  2
GEN3B
 70
     0
  3
 - - - - -
 72
    65
 73
     2
 40
1.0
 49
0.5
 49
-0.5
  0
LTYPE
  2
GEN7A
 70
     0
  3
__ . __ . __
 72
    65
 73
     4
 40
7.375
 49
4.75
 49
-0.875
 49
0.875
 49
-0.875
  0
LTYPE
  2
AM_ISO02W050
 70
     0
  3
__ __ __ __ __ __ __ __ __ __ __ __ __ __ __
 72
    65
 73
     2
 40
7.5
 49
6.0
 49
-1.5
  0
LTYPE
  2
AM_ISO08W050
 70
     0
  3
____ . ____ . ____ . ____ . ____ . ____ . ____
 72
    65
 73
     4
 40
18.0
 49
12.0
 49
-1.5
 49
3.0
 49
-1.5
  0
LTYPE
  2
AM_ISO09W050
 70
     0
  3
_____ . . _____ . . _____ . . ____ .. ____
 72
    65
 73
     6
 40
22.5
 49
12.0
 49
-1.5
 49
3.0
 49
-1.5
 49
3.0
 49
-1.5
  0
LTYPE
  2
AMCONSTR
 70
     0
  3
_______________________
 72
    65
 73
     2
 40
9999.0
 49
9999.0
 49
0.0
  0
LTYPE
  2
AM_ISO02W050X2
 70
     0
  3
 _ _ _ _ _ _ _ _ _ _ _ _
 72
    65
 73
     2
 40
3.75
 49
3.0
 49
-0.75
  0
LTYPE
  2
AM_ISO08W050X2
 70
     0
  3
__ . __ . __ . __ . __ . __
 72
    65
 73
     4
 40
9.0
 49
6.0
 49
-0.75
 49
1.5
 49
-0.75
  0
LTYPE
  2
AMZIGZAG
 70
     0
  3
/\/-/\/-/\/-/\/-/\/-/\/
 72
    65
 73
     2
 40
11.0001
 49
0.0001
 49
-11.0
  0
LTYPE
  2
ACJISTGB
 70
     0
  3
__ . . __ . .
 72
    65
 73
     6
 40
9.0
 49
4.0
 49
-1.0
 49
1.0
 49
-1.0
 49
1.0
 49
-1.0
  0
LTYPE
  2
ACJISTGL
 70
     0
  3
_ _ _ _ _
 72
    65
 73
     2
 40
3.0
 49
2.0
 49
-1.0
  0
LTYPE
  2
ACISOWELD
 70
     0
  3
_ _ _ _ _
 72
    65
 73
     2
 40
2.0
 49
2.0
 49
-1.0
  0
LTYPE
  2
ACISOTGB
 70
     0
  3
__ . . __ . .
 72
    65
 73
     6
 40
9.0
 49
4.0
 49
-1.0
 49
1.0
 49
-1.0
 49
1.0
 49
-1.0
  0
LTYPE
  2
ACISOTGL
 70
     0
  3
_ _ _ _ _
 72
    65
 73
     2
 40
3.0
 49
2.0
 49
-1.0
  0
LTYPE
  2
HIDDEN
 70
     0
  3
Hidden __ __ __ __ __ __ __ __ __ __ __ __ __ _
 72
    65
 73
     2
 40
9.5249999999999968
 49
6.3499999999999979
 49
-3.174999999999998
  0
ENDTAB
  0
TABLE
  2
LAYER
 70
     9
  0
LAYER
  2
0
 70
     0
 62
     7
  6
CONTINUOUS
  0
LAYER
  2
ｽﾝﾎﾟｳｾﾝ
 70
     0
 62
     2
  6
CONTINUOUS
  0
LAYER
  2
DEFPOINTS
 70
     0
 62
     7
  6
CONTINUOUS
  0
LAYER
  2
ｶｸﾚｾﾝ2
 70
     0
 62
     3
  6
GEN3B
  0
LAYER
  2
ﾁｭｳｼﾝｾﾝ1
 70
     0
 62
     1
  6
GEN7A
  0
LAYER
  2
AM_0
 70
     0
 62
     7
  6
CONTINUOUS
  0
LAYER
  2
AM_0N
 70
     0
 62
     7
  6
CONTINUOUS
  0
LAYER
  2
AM_5
 70
     0
 62
     2
  6
CONTINUOUS
  0
LAYER
  2
AM_4N
 70
     0
 62
     2
  6
CONTINUOUS
  0
ENDTAB
  0
TABLE
  2
STYLE
 70
     8
  0
STYLE
  2
STANDARD
 70
     0
 40
0.0
 41
0.8299999999999999
 50
0.0
 71
     0
 42
2.5
  3
txt.shx
  4
bigfont.shx
  0
STYLE
  2
ACANSTS
 70
     0
 40
1.0
 41
1.0
 50
0.0
 71
     0
 42
2.5
  3
romans.shx
  4
bigfont.shx
  0
STYLE
  2
ACANSGDT
 70
     0
 40
0.0
 41
1.0
 50
0.0
 71
     0
 42
2.5
  3
amgdtans.shx
  4

  0
STYLE
  2

 70
     1
 40
0.0
 41
1.0
 50
0.0
 71
     0
 42
2.5
  3
ltypeshp.shx
  4

  0
STYLE
  2
ACJISTS
 70
     0
 40
1.0
 41
1.0
 50
0.0
 71
     0
 42
2.5
  3
isocp.shx
  4
bigfont.shx
  0
STYLE
  2
ACJISGDT
 70
     0
 40
0.0
 41
1.0
 50
0.0
 71
     0
 42
2.5
  3
amgdt.shx
  4

  0
STYLE
  2
ACISOTS
 70
     0
 40
3.0
 41
1.0
 50
0.0
 71
     0
 42
2.5
  3
isocp.shx
  4
extfont.shx
  0
STYLE
  2
ACISOGDT
 70
     0
 40
0.0
 41
1.0
 50
0.0
 71
     0
 42
2.5
  3
amgdt.shx
  4

  0
ENDTAB
  0
TABLE
  2
VIEW
 70
    12
  0
VIEW
  2
GEN1
 70
     0
 40
95.824742268041234
 10
71.5
 20
137.08762886597941
 41
143.0
 11
0.0
 21
0.0
 31
1.0
 12
0.0
 22
0.0
 32
0.0
 42
50.0
 43
0.0
 44
0.0
 50
0.0
 71
     0
  0
VIEW
  2
GEN2
 70
     0
 40
95.824742268041234
 10
214.5
 20
137.08762886597941
 41
143.0
 11
0.0
 21
0.0
 31
1.0
 12
0.0
 22
0.0
 32
0.0
 42
50.0
 43
0.0
 44
0.0
 50
0.0
 71
     0
  0
VIEW
  2
GEN3
 70
     0
 40
95.824742268041234
 10
71.5
 20
47.912371134020603
 41
143.0
 11
0.0
 21
0.0
 31
1.0
 12
0.0
 22
0.0
 32
0.0
 42
50.0
 43
0.0
 44
0.0
 50
0.0
 71
     0
  0
VIEW
  2
GEN4
 70
     0
 40
95.824742268041234
 10
214.5
 20
47.912371134020603
 41
143.0
 11
0.0
 21
0.0
 31
1.0
 12
0.0
 22
0.0
 32
0.0
 42
50.0
 43
0.0
 44
0.0
 50
0.0
 71
     0
  0
VIEW
  2
GEN5
 70
     0
 40
95.824742268041234
 10
143.0
 20
92.500000000000057
 41
143.0
 11
0.0
 21
0.0
 31
1.0
 12
0.0
 22
0.0
 32
0.0
 42
50.0
 43
0.0
 44
0.0
 50
0.0
 71
     0
  0
VIEW
  2
GEN6
 70
     0
 40
191.64756804123709
 10
143.0
 20
92.5
 41
285.99714
 11
0.0
 21
0.0
 31
1.0
 12
0.0
 22
0.0
 32
0.0
 42
50.0
 43
0.0
 44
0.0
 50
0.0
 71
     0
  0
VIEW
  2
AM_VIEW1
 70
     0
 40
277.50000000000011
 10
249.64779005524869
 20
416.25000000000011
 41
499.29558011049721
 11
0.0
 21
0.0
 31
1.0
 12
0.0
 22
0.0
 32
0.0
 42
50.0
 43
0.0
 44
0.0
 50
0.0
 71
    16
  0
VIEW
  2
AM_VIEW2
 70
     0
 40
277.50000000000011
 10
603.85220994475117
 20
416.25000000000011
 41
499.29558011049721
 11
0.0
 21
0.0
 31
1.0
 12
0.0
 22
0.0
 32
0.0
 42
50.0
 43
0.0
 44
0.0
 50
0.0
 71
    16
  0
VIEW
  2
AM_VIEW3
 70
     0
 40
277.50000000000011
 10
249.64779005524869
 20
138.75
 41
499.29558011049721
 11
0.0
 21
0.0
 31
1.0
 12
0.0
 22
0.0
 32
0.0
 42
50.0
 43
0.0
 44
0.0
 50
0.0
 71
    16
  0
VIEW
  2
AM_VIEW4
 70
     0
 40
277.50000000000011
 10
603.85220994475117
 20
138.75
 41
499.29558011049721
 11
0.0
 21
0.0
 31
1.0
 12
0.0
 22
0.0
 32
0.0
 42
50.0
 43
0.0
 44
0.0
 50
0.0
 71
    16
  0
VIEW
  2
AM_VIEW5
 70
     0
 40
277.50000000000011
 10
426.75
 20
277.50000000000011
 41
499.2955801104971
 11
0.0
 21
0.0
 31
1.0
 12
0.0
 22
0.0
 32
0.0
 42
50.0
 43
0.0
 44
0.0
 50
0.0
 71
    16
  0
VIEW
  2
AM_VIEW6
 70
     0
 40
554.99445000000014
 10
426.75
 20
277.5
 41
998.5811743093924
 11
0.0
 21
0.0
 31
1.0
 12
0.0
 22
0.0
 32
0.0
 42
50.0
 43
0.0
 44
0.0
 50
0.0
 71
    16
  0
ENDTAB
  0
TABLE
  2
UCS
 70
     0
  0
ENDTAB
  0
TABLE
  2
APPID
 70
    96
  0
APPID
  2
ACAD
 70
     0
  0
APPID
  2
MCAD_NO_VIS
 70
     0
  0
APPID
  2
ACAD_TEMP_GRAPHIC
 70
     0
  0
APPID
  2
AD_DRAW
 70
     0
  0
APPID
  2
DESIGNERASSEMBLIES
 70
     0
  0
APPID
  2
ASURF_PCURVE_APPNAME
 70
     0
  0
APPID
  2
GENIUS_GE3SECT_13
 70
     0
  0
APPID
  2
GENIUS_GENCFG_13
 70
     0
  0
APPID
  2
GENIUS_GE3CFG0_13
 70
     0
  0
APPID
  2
GENIUS_GENCFG0_13
 70
     0
  0
APPID
  2
GENIUS_GENCFG1_13
 70
     0
  0
APPID
  2
GENIUS_GENCFG2_13
 70
     0
  0
APPID
  2
GENIUS_GENCFG3_13
 70
     0
  0
APPID
  2
GENIUS_GENCFG4_13
 70
     0
  0
APPID
  2
GENIUS_GEVCFG0_13
 70
     0
  0
APPID
  2
GENIUS_GENOENT_13
 70
     0
  0
APPID
  2
GENIUS_GENREC_14
 70
     0
  0
APPID
  2
GENIUS_GENODEF_13
 70
     0
  0
APPID
  2
GENIUS_GENOBJ-N-REC_13
 70
     0
  0
APPID
  2
GENIUS_GENHINW_13
 70
     0
  0
APPID
  2
GENIUS_FIRSTVISTXT_14
 70
     0
  0
APPID
  2
GENIUS_GENOBJ-N-LEADER_13
 70
     0
  0
APPID
  2
GENIUS_GENOREF_13
 70
     0
  0
APPID
  2
GENIUS_GENOLIS_13
 70
     0
  0
APPID
  2
GEV_VCCNULL_SWITCH_OFF
 70
     0
  0
APPID
  2
GENIUS_GENDTOL_13
 70
     0
  0
APPID
  2
GENIUS_GEFCFG0_13
 70
     0
  0
APPID
  2
GENIUS_GENOBJ-N-TIT_13
 70
     0
  0
APPID
  2
GENIUS_GENTITLE_13
 70
     0
  0
APPID
  2
GENIUS_GENZVEED_13
 70
     0
  0
APPID
  2
GENIUS_GENOBJ-N-SDF_13
 70
     0
  0
APPID
  2
GENIUS_GENSCREG_13
 70
     0
  0
APPID
  2
GENIUS_DUMCFG0_13
 70
     0
  0
APPID
  2
GEVID936201362
 70
     0
  0
APPID
  2
GEVDC
 70
     0
  0
APPID
  2
GEVCON
 70
     0
  0
APPID
  2
VCC
 70
     0
  0
APPID
  2
GEVPT
 70
     0
  0
APPID
  2
GEVIT
 70
     0
  0
APPID
  2
GENBH
 70
     0
  0
APPID
  2
GEVMK
 70
     0
  0
APPID
  2
GENIUS_GENBH_13
 70
     0
  0
APPID
  2
GENIUS_GENOBJ-NBEHI-BHF_13
 70
     0
  0
APPID
  2
GENIUS_GENOBJ-NBEHI-BHB_13
 70
     0
  0
APPID
  2
GENIUS_GENOBJ-F-DESC_13
 70
     0
  0
APPID
  2
GENIUS_GEFDESC_14
 70
     0
  0
APPID
  2
GENIUS_GENOBJ-F-PART_13
 70
     0
  0
APPID
  2
GENIUS_GEFSTDP_13
 70
     0
  0
APPID
  2
GENIUS_GEFPARTINS_13
 70
     0
  0
APPID
  2
GENIUS_GENTRA_14
 70
     0
  0
APPID
  2
GENIUS_GENINF13_13
 70
     0
  0
APPID
  2
GENIUS_GENOBJ-N-INFOPT_13
 70
     0
  0
APPID
  2
GENIUS_GENOBJ-N-RSSYM_13
 70
     0
  0
APPID
  2
GENIUS_GENSYMENT_13
 70
     0
  0
APPID
  2
GENIUS_GENSCSYM_13
 70
     0
  0
APPID
  2
GENIUS_GEFINFNAM_13
 70
     0
  0
APPID
  2
GENIUS_GENSCREG_15
 70
     0
  0
APPID
  2
GENIUS_GENOBJ-N-CEN_13
 70
     0
  0
APPID
  2
GENIUS_GENOBJ-N-CRS_13
 70
     0
  0
APPID
  2
GENIUS_GENOBJ-N-CRC_13
 70
     0
  0
APPID
  2
GENIUS_GENCRC_14
 70
     0
  0
APPID
  2
GEVID942827039
 70
     0
  0
APPID
  2
GEVID942827040
 70
     0
  0
APPID
  2
GEVID942827041
 70
     0
  0
APPID
  2
GENIUS_GENOBJ-F-SCPASSM_13
 70
     0
  0
APPID
  2
GENIUS_GENDIMSH_14
 70
     0
  0
APPID
  2
GENIUS_GENFIL_13
 70
     0
  0
APPID
  2
GENIUS_GENOBJ-N-CHA_13
 70
     0
  0
APPID
  2
GENIUS_GENOBJ-N-FIL_13
 70
     0
  0
APPID
  2
GEVID942827042
 70
     0
  0
APPID
  2
GEVID946020473
 70
     0
  0
APPID
  2
GEVID946020474
 70
     0
  0
APPID
  2
GEVID946020475
 70
     0
  0
APPID
  2
GENIUS_GENOBJ-N-HTC_13
 70
     0
  0
APPID
  2
GENIUS_GENHATCH_13
 70
     0
  0
APPID
  2
GEVID948854295
 70
     0
  0
APPID
  2
GEVID939402019
 70
     0
  0
APPID
  2
GEVID952919491
 70
     0
  0
APPID
  2
GEVID952919492
 70
     0
  0
APPID
  2
GENIUS_GEFWELD_13
 70
     0
  0
APPID
  2
GENIUS_GENOBJ-F-WELS_13
 70
     0
  0
APPID
  2
GEVID952919493
 70
     0
  0
APPID
  2
GENIUS_GENOBJ-N-RSBK_13
 70
     0
  0
APPID
  2
GENIUS_GENOBJ-N-LIB_13
 70
     0
  0
APPID
  2
GENIUS_GENSCALE_13
 70
     0
  0
APPID
  2
GEVID986376691
 70
     0
  0
APPID
  2
ACATTRIBSERVICES
 70
     0
  0
APPID
  2
DCO15
 70
     0
  0
APPID
  2
ACADM_DIM_EDIT
 70
     0
  0
APPID
  2
AMDT_DM_ADJ
 70
     0
  0
APPID
  2
ACAD_MLEADERVER
 70
     0
  0
APPID
  2
ACAD_DSTYLE_DIMBREAK
 70
     0
  0
APPID
  2
ACAD_DSTYLE_DIMJAG
 70
     0
  0
APPID
  2
ACAD_NAV_VCDISPLAY
 70
     0
  0
APPID
  2
ACADANNOPO
 70
     0
  0
APPID
  2
ACAD_EXEMPT_FROM_CAD_STANDARDS
 70
     0
  0
ENDTAB
  0
TABLE
  2
DIMSTYLE
 70
    15
  0
DIMSTYLE
  2
STANDARD
 70
     0
  3

  4

  5

  6

  7

 40
1.0
 41
0.18
 42
0.0625
 43
0.38
 44
0.18
 45
0.0
 46
0.0
 47
0.0
 48
0.0
140
0.18
141
0.09
142
0.0
143
25.399999999999999
144
1.0
145
0.0
146
1.0
147
0.09
 71
     0
 72
     0
 73
     1
 74
     1
 75
     0
 76
     0
 77
     0
 78
     0
170
     0
171
     2
172
     0
173
     0
174
     0
175
     0
176
     0
177
     0
178
     0
  0
DIMSTYLE
  2
AM_JIS
 70
     0
  3

  4
"
  5

  6

  7

 40
1.0
 41
2.5
 42
1.0
 43
7.0
 44
1.0
 45
0.0
 46
0.0
 47
0.1
 48
0.1000000001
140
2.5
141
0.0
142
0.0
143
0.0393701
144
1.0
145
0.0
146
0.71
147
1.0
 71
     0
 72
     0
 73
     0
 74
     0
 75
     0
 76
     0
 77
     3
 78
     8
170
     0
171
     2
172
     1
173
     0
174
     0
175
     0
176
   256
177
   256
178
     4
  0
DIMSTYLE
  2
AM_JIS$3
 70
     0
  3

  4
"
  5

  6

  7

 40
1.0
 41
2.5
 42
1.0
 43
7.0
 44
1.0
 45
0.0
 46
0.0
 47
0.1
 48
0.1000000001
140
2.5
141
0.0
142
0.0
143
0.0393701
144
1.0
145
0.0
146
0.71
147
1.0
 71
     0
 72
     0
 73
     0
 74
     1
 75
     0
 76
     0
 77
     3
 78
     8
170
     0
171
     2
172
     0
173
     0
174
     0
175
     0
176
   256
177
   256
178
     4
  0
DIMSTYLE
  2
AM_JIS$4
 70
     0
  3

  4
"
  5

  6

  7

 40
1.0
 41
2.5
 42
1.0
 43
7.0
 44
1.0
 45
0.0
 46
0.0
 47
0.1
 48
0.1000000001
140
2.5
141
0.0
142
0.0
143
0.0393701
144
1.0
145
0.0
146
0.71
147
1.0
 71
     0
 72
     0
 73
     0
 74
     0
 75
     0
 76
     0
 77
     3
 78
     8
170
     0
171
     2
172
     0
173
     0
174
     0
175
     0
176
   256
177
   256
178
     4
  0
DIMSTYLE
  2
AM_JIS$6
 70
     0
  3

  4
"
  5

  6

  7

 40
1.0
 41
2.5
 42
1.0
 43
7.0
 44
1.0
 45
0.0
 46
0.0
 47
0.1
 48
0.1000000001
140
2.5
141
0.0
142
0.0
143
0.0393701
144
1.0
145
0.0
146
0.71
147
1.0
 71
     0
 72
     0
 73
     0
 74
     0
 75
     0
 76
     0
 77
     0
 78
     8
170
     0
171
     2
172
     1
173
     0
174
     0
175
     0
176
   256
177
   256
178
     4
  0
DIMSTYLE
  2
AM_JIS$7
 70
     0
  3

  4
"
  5

  6

  7

 40
1.0
 41
2.5
 42
1.0
 43
7.0
 44
1.0
 45
0.0
 46
0.0
 47
0.1
 48
0.1000000001
140
2.5
141
0.0
142
0.0
143
0.0393701
144
1.0
145
0.0
146
0.71
147
1.0
 71
     0
 72
     0
 73
     0
 74
     0
 75
     0
 76
     0
 77
     3
 78
     8
170
     0
171
     2
172
     1
173
     0
174
     0
175
     0
176
   256
177
   256
178
     4
  0
DIMSTYLE
  2
AM_JIS$SF
 70
     0
  3

  4
"
  5
OPEN30
  6
OPEN30
  7
OPEN30
 40
1.0
 41
2.5
 42
1.0
 43
10.0
 44
1.0
 45
0.0
 46
0.0
 47
0.1
 48
0.1
140
3.5
141
0.0
142
0.0
143
0.0393701
144
1.0
145
0.0
146
0.71
147
1.5
 71
     0
 72
     0
 73
     0
 74
     0
 75
     1
 76
     1
 77
     3
 78
     8
170
     0
171
     2
172
     1
173
     0
174
     0
175
     0
176
   256
177
   256
178
     4
  0
DIMSTYLE
  2
AM_JIS$SH
 70
     0
  3

  4
"
  5

  6
NONE
  7

 40
1.0
 41
2.5
 42
1.0
 43
10.0
 44
1.0
 45
0.0
 46
0.0
 47
0.1
 48
0.1
140
3.5
141
0.0
142
0.0
143
0.0393701
144
1.0
145
0.0
146
0.71
147
1.5
 71
     0
 72
     0
 73
     0
 74
     0
 75
     1
 76
     0
 77
     3
 78
     8
170
     0
171
     2
172
     1
173
     1
174
     0
175
     0
176
   256
177
   256
178
     4
  0
DIMSTYLE
  2
AM_ISO
 70
     0
  3

  4
"
  5

  6

  7

 40
1.0
 41
2.5
 42
1.0
 43
10.0
 44
1.0
 45
0.0
 46
0.0
 47
0.0
 48
0.000000001
140
3.0
141
0.0
142
0.0
143
0.0393701
144
1.0
145
0.0
146
0.71
147
1.299999999999998
 71
     1
 72
     0
 73
     0
 74
     0
 75
     0
 76
     0
 77
     1
 78
     8
170
     0
171
     2
172
     1
173
     0
174
     0
175
     0
176
   256
177
   256
178
     4
  0
DIMSTYLE
  2
AM_ISO$3
 70
     0
  3

  4
"
  5

  6

  7

 40
1.0
 41
2.5
 42
1.0
 43
10.0
 44
1.0
 45
0.0
 46
0.0
 47
0.0
 48
0.000000001
140
2.5
141
0.0
142
0.0
143
0.0393701
144
1.0
145
0.0
146
0.71
147
1.299999999999998
 71
     1
 72
     0
 73
     0
 74
     1
 75
     0
 76
     0
 77
     1
 78
     8
170
     0
171
     2
172
     0
173
     0
174
     0
175
     0
176
   256
177
   256
178
     4
  0
DIMSTYLE
  2
AM_ISO$4
 70
     0
  3

  4
"
  5

  6

  7

 40
1.0
 41
2.5
 42
1.0
 43
10.0
 44
1.0
 45
0.0
 46
0.0
 47
0.0
 48
0.000000001
140
2.5
141
0.0
142
0.0
143
0.0393701
144
1.0
145
0.0
146
0.71
147
1.299999999999998
 71
     1
 72
     0
 73
     0
 74
     1
 75
     0
 76
     0
 77
     1
 78
     8
170
     0
171
     2
172
     0
173
     0
174
     0
175
     0
176
   256
177
   256
178
     4
  0
DIMSTYLE
  2
AM_ISO$6
 70
     0
  3

  4
"
  5

  6

  7

 40
1.0
 41
2.5
 42
1.0
 43
10.0
 44
1.0
 45
0.0
 46
0.0
 47
0.0
 48
0.000000001
140
2.5
141
0.0
142
0.0
143
0.0393701
144
1.0
145
0.0
146
0.71
147
1.299999999999998
 71
     1
 72
     0
 73
     0
 74
     0
 75
     0
 76
     0
 77
     0
 78
     8
170
     0
171
     2
172
     1
173
     0
174
     0
175
     0
176
   256
177
   256
178
     4
  0
DIMSTYLE
  2
AM_ISO$7
 70
     0
  3

  4
"
  5

  6

  7

 40
1.0
 41
2.5
 42
1.0
 43
10.0
 44
1.0
 45
0.0
 46
0.0
 47
0.0
 48
0.000000001
140
2.5
141
0.0
142
0.0
143
0.0393701
144
1.0
145
0.0
146
0.71
147
1.299999999999998
 71
     1
 72
     0
 73
     0
 74
     0
 75
     0
 76
     0
 77
     1
 78
     8
170
     0
171
     2
172
     1
173
     0
174
     0
175
     0
176
   256
177
   256
178
     4
  0
DIMSTYLE
  2
AM_ISO$SF
 70
     0
  3

  4
"
  5

  6

  7

 40
1.0
 41
2.5
 42
1.0
 43
10.0
 44
1.0
 45
0.0
 46
0.0
 47
0.1
 48
0.1
140
3.5
141
0.0
142
0.0
143
0.0393701
144
1.0
145
0.0
146
0.71
147
1.5
 71
     0
 72
     0
 73
     0
 74
     0
 75
     1
 76
     1
 77
     1
 78
     8
170
     0
171
     2
172
     1
173
     0
174
     0
175
     0
176
   256
177
   256
178
     4
  0
DIMSTYLE
  2
AM_ISO$SH
 70
     0
  3

  4
"
  5

  6
GENAXEH
  7

 40
1.0
 41
2.5
 42
1.0
 43
10.0
 44
1.0
 45
0.0
 46
0.0
 47
0.1
 48
0.1
140
3.5
141
0.0
142
0.0
143
0.0393701
144
2.0
145
0.0
146
0.71
147
1.5
 71
     0
 72
     0
 73
     0
 74
     0
 75
     1
 76
     1
 77
     1
 78
     8
170
     0
171
     2
172
     1
173
     1
174
     0
175
     0
176
   256
177
   256
178
     4
  0
ENDTAB
  0
ENDSEC
  0
SECTION
  2
BLOCKS
  0
BLOCK
  8
0
  2
$MODEL_SPACE
 70
     0
 10
0.0
 20
0.0
 30
0.0
  3
$MODEL_SPACE
  1

  0
ENDBLK
  5
1A
  8
0
  0
BLOCK
 67
     1
  8
0
  2
$PAPER_SPACE
 70
     0
 10
0.0
 20
0.0
 30
0.0
  3
$PAPER_SPACE
  1

  0
ENDBLK
  5
17
 67
     1
  8
0
  0
BLOCK
  8
0
  2
_OPEN30
 70
     0
 10
0.0
 20
0.0
 30
0.0
  3
_OPEN30
  1

  0
LINE
  5
21C5
  8
0
 62
     0
 10
-1.0
 20
0.26794919
 30
0.0
 11
0.0
 21
0.0
 31
0.0
  0
LINE
  5
21C6
  8
0
 62
     0
 10
0.0
 20
0.0
 30
0.0
 11
-1.0
 21
-0.26794919
 31
0.0
  0
LINE
  5
21C7
  8
0
 62
     0
 10
0.0
 20
0.0
 30
0.0
 11
-1.0
 21
0.0
 31
0.0
  0
ENDBLK
  5
21C9
  8
0
  0
BLOCK
  8
0
  2
GENAXEH
 70
     0
 10
0.0
 20
0.0
 30
0.0
  3
GENAXEH
  1

  0
LINE
  5
21D0
  8
0
 10
-1.0
 20
0.0
 30
0.0
 11
1.0
 21
0.0
 31
0.0
  0
ENDBLK
  5
21D2
  8
0
  0
BLOCK
  8
0
  2
_NONE
 70
     0
 10
0.0
 20
0.0
 30
0.0
  3
_NONE
  1

  0
ENDBLK
  5
8193
  8
0
  0
BLOCK
  8
0
  2
*U5
 70
     1
 10
0.0
 20
0.0
 30
0.0
  3
*U5
  1

  0
SOLID
  5
158E8
  8
AM_0
  6
CONTINUOUS
 10
-882.82151818195598
 20
484.01954053650059
 30
0.0
 11
-885.32151818195598
 21
484.01954053650059
 31
0.0
 12
-885.32151818195598
 22
481.5195405365007
 32
0.0
 13
-885.32151818195598
 23
481.5195405365007
 33
0.0
210
0.0
220
0.0
230
-1.0
  0
LINE
  5
158E9
  8
AM_0
  6
CONTINUOUS
 10
885.32151818195598
 20
484.01954053650059
 30
0.0
 11
885.32151818195598
 21
481.5195405365007
 31
0.0
  0
LINE
  5
158EA
  8
AM_0
  6
CONTINUOUS
 10
885.32151818195598
 20
481.5195405365007
 30
0.0
 11
882.82151818195598
 21
484.01954053650059
 31
0.0
  0
ENDBLK
  5
158EC
  8
0
  0
BLOCK
  8
0
  2
*U6
 70
     1
 10
0.0
 20
0.0
 30
0.0
  3
*U6
  1

  0
SOLID
  5
158EE
  8
AM_0
  6
CONTINUOUS
 10
-889.82151818195553
 20
484.01954053650059
 30
0.0
 11
-892.32151818195553
 21
484.01954053650059
 31
0.0
 12
-889.82151818195553
 22
481.5195405365007
 32
0.0
 13
-889.82151818195553
 23
481.5195405365007
 33
0.0
210
0.0
220
0.0
230
-1.0
  0
LINE
  5
158EF
  8
AM_0
  6
CONTINUOUS
 10
892.32151818195553
 20
484.01954053650059
 30
0.0
 11
889.82151818195553
 21
481.5195405365007
 31
0.0
  0
LINE
  5
158F0
  8
AM_0
  6
CONTINUOUS
 10
889.82151818195553
 20
481.5195405365007
 30
0.0
 11
889.82151818195553
 21
484.01954053650059
 31
0.0
  0
ENDBLK
  5
158F2
  8
0
  0
BLOCK
  8
0
  2
*U7
 70
     1
 10
0.0
 20
0.0
 30
0.0
  3
*U7
  1

  0
SOLID
  5
158F4
  8
AM_0
  6
CONTINUOUS
 10
-840.821491628084
 20
585.51955827694042
 30
0.0
 11
-840.821491628084
 21
583.01955827694042
 31
0.0
 12
-838.321491628084
 22
583.01955827694042
 32
0.0
 13
-838.321491628084
 23
583.01955827694042
 33
0.0
210
0.0
220
0.0
230
-1.0
  0
LINE
  5
158F5
  8
AM_0
  6
CONTINUOUS
 10
840.821491628084
 20
585.51955827694042
 30
0.0
 11
840.821491628084
 21
583.01955827694042
 31
0.0
  0
LINE
  5
158F6
  8
AM_0
  6
CONTINUOUS
 10
838.321491628084
 20
583.01955827694042
 30
0.0
 11
840.821491628084
 21
585.51955827694042
 31
0.0
  0
ENDBLK
  5
158F8
  8
0
  0
BLOCK
  8
0
  2
*U8
 70
     1
 10
0.0
 20
0.0
 30
0.0
  3
*U8
  1

  0
SOLID
  5
158FA
  8
AM_0
  6
CONTINUOUS
 10
-845.32149162808355
 20
585.51955827694042
 30
0.0
 11
-847.82149162808355
 21
583.01955827694042
 31
0.0
 12
-845.32149162808355
 22
583.01955827694042
 32
0.0
 13
-845.32149162808355
 23
583.01955827694042
 33
0.0
210
0.0
220
0.0
230
-1.0
  0
LINE
  5
158FB
  8
AM_0
  6
CONTINUOUS
 10
845.32149162808355
 20
585.51955827694042
 30
0.0
 11
847.82149162808355
 21
583.01955827694042
 31
0.0
  0
LINE
  5
158FC
  8
AM_0
  6
CONTINUOUS
 10
845.32149162808355
 20
583.01955827694042
 30
0.0
 11
845.32149162808355
 21
585.51955827694042
 31
0.0
  0
ENDBLK
  5
158FE
  8
0
  0
BLOCK
  8
0
  2
*U9
 70
     1
 10
0.0
 20
0.0
 30
0.0
  3
*U9
  1

  0
SOLID
  5
15900
  8
AM_0
  6
CONTINUOUS
 10
-885.32151818195598
 20
585.51955827694042
 30
0.0
 11
-885.32151818195598
 21
583.01955827694042
 31
0.0
 12
-882.82151818195598
 22
583.01955827694042
 32
0.0
 13
-882.82151818195598
 23
583.01955827694042
 33
0.0
210
0.0
220
0.0
230
-1.0
  0
LINE
  5
15901
  8
AM_0
  6
CONTINUOUS
 10
885.32151818195598
 20
585.51955827694042
 30
0.0
 11
885.32151818195598
 21
583.01955827694042
 31
0.0
  0
LINE
  5
15902
  8
AM_0
  6
CONTINUOUS
 10
882.82151818195598
 20
583.01955827694042
 30
0.0
 11
885.32151818195598
 21
585.51955827694042
 31
0.0
  0
ENDBLK
  5
15904
  8
0
  0
BLOCK
  8
0
  2
*U10
 70
     1
 10
0.0
 20
0.0
 30
0.0
  3
*U10
  1

  0
SOLID
  5
15906
  8
AM_0
  6
CONTINUOUS
 10
-889.82151818195553
 20
585.51955827694042
 30
0.0
 11
-892.32151818195553
 21
583.01955827694042
 31
0.0
 12
-889.82151818195553
 22
583.01955827694042
 32
0.0
 13
-889.82151818195553
 23
583.01955827694042
 33
0.0
210
0.0
220
0.0
230
-1.0
  0
LINE
  5
15907
  8
AM_0
  6
CONTINUOUS
 10
889.82151818195553
 20
585.51955827694042
 30
0.0
 11
892.32151818195553
 21
583.01955827694042
 31
0.0
  0
LINE
  5
15908
  8
AM_0
  6
CONTINUOUS
 10
889.82151818195553
 20
583.01955827694042
 30
0.0
 11
889.82151818195553
 21
585.51955827694042
 31
0.0
  0
ENDBLK
  5
1590A
  8
0
  0
ENDSEC
  0
SECTION
  2
ENTITIES
  0
POINT
  5
1B94
  8
0
 10
0.0
 20
0.0
 30
0.0
1001
GENIUS_GENODEF_13
1002
{
1000
HIER
1070
     1
1002
}
1002
{
1000
MANEDIT
1070
     0
1002
}
1002
{
1000
NOSEL
1070
     0
1002
}
1002
{
1000
BEHIND
1070
     0
1002
}
1002
{
1000
REACTOR
1002
}
1001
GENIUS_GENOBJ-N-SDF_13
1002
{
1000
OWNER
1000
GEN
1002
}
1001
GENIUS_GENOENT_13
1002
{
1000
MYREF
1005
1B94
1002
}
1002
{
1000
GRP
1005
0
1002
}
1001
GENIUS_GENOLIS_13
1002
{
1000
ENT
1005
89
1002
}
  0
LINE
  5
13825
  8
AM_0
 10
668.56375163024654
 20
269.61945266452892
 30
0.0
 11
668.56375163024654
 21
299.61945266452892
 31
0.0
  0
LINE
  5
13826
  8
AM_0
 10
653.56375339988006
 20
304.61925329374299
 30
0.0
 11
653.56375339988006
 21
264.61965210166198
 31
0.0
  0
LINE
  5
13827
  8
0
 10
708.56375159597314
 20
272.61945264926072
 30
0.0
 11
708.56375167308795
 21
299.61945264926072
 31
0.0
  0
ARC
  5
13829
  8
AM_0
 10
600.56375182035697
 20
268.11945247182302
 30
0.0
 40
56.5
 50
150.14139424207471
 51
205.69748806908581
  0
LINE
  5
1382F
  8
AM_0
 10
575.56375086668265
 20
224.61945090956331
 30
0.0
 11
575.56375086668265
 21
344.61945448584191
 31
0.0
  0
LINE
  5
13830
  8
AM_0
 10
555.56375047925246
 20
344.27033338532908
 30
0.0
 11
555.56375047925246
 21
207.11994769771729
 31
0.0
  0
LINE
  5
13831
  8
AM_0
 10
645.56375316146136
 20
207.11994769771729
 30
0.0
 11
645.56375316146136
 21
343.39761384742042
 31
0.0
  0
LINE
  5
13832
  8
AM_0
 10
649.56375328067099
 20
247.11945158011551
 30
0.0
 11
649.56375328067099
 21
322.11945381528949
 31
0.0
  0
LINE
  5
13833
  8
AM_0
 10
551.5637503600434
 20
247.11945158011551
 30
0.0
 11
551.5637503600434
 21
322.11945381528949
 31
0.0
  0
LINE
  5
13835
  8
ﾁｭｳｼﾝｾﾝ1
 10
600.56375182035697
 20
348.76552824952432
 30
0.0
 11
600.56375182035697
 21
199.6277764127266
 31
0.0
  0
LINE
  5
13837
  8
0
 10
668.56375163024654
 20
269.61945266452892
 30
0.0
 11
653.56375339988006
 21
264.61965210166198
 31
0.0
  0
LINE
  5
13838
  8
AM_0
 10
660.57649315570291
 20
254.15789452572909
 30
0.0
 11
655.3577339897771
 21
254.34013761159559
 31
0.0
  0
LINE
  5
13839
  8
AM_0
 10
661.48346494647376
 20
262.08739499292449
 30
0.0
 11
656.72273154146797
 21
261.92114651907639
 31
0.0
  0
LINE
  5
1383A
  8
AM_0
 10
658.73005625221867
 20
244.16163839486691
 30
0.0
 11
651.84470587847716
 21
244.40208012813841
 31
0.0
  0
LINE
  5
1383B
  8
AM_0
 10
660.56701100332941
 20
252.0902051157567
 30
0.0
 11
654.68104666638021
 21
251.8846627119091
 31
0.0
  0
ARC
  5
1383C
  8
AM_0
 10
600.56375182035697
 20
268.11945247182302
 30
0.0
 40
56.5
 50
334.30251193091419
 51
357.61675124025351
  0
LINE
  5
1383D
  8
AM_0
 10
658.71372151789592
 20
242.09284174586341
 30
0.0
 11
651.65375316146151
 21
241.84630221826919
 31
0.0
  0
LINE
  5
1383E
  8
AM_0
 10
651.65375316146151
 20
241.61994622250219
 30
0.0
 11
659.6537531614614
 21
241.61994622250219
 31
0.0
  0
LINE
  5
1383F
  8
AM_0
 10
651.65375316146151
 20
228.61994622250231
 30
0.0
 11
659.6537531614614
 21
228.61994622250231
 31
0.0
  0
LINE
  5
13841
  8
AM_0
 10
675.56375316146091
 20
199.61994769771729
 30
0.0
 11
653.06375316146125
 21
199.61994769771729
 31
0.0
  0
LINE
  5
13842
  8
AM_0
 10
675.56375316146091
 20
204.11994769771729
 30
0.0
 11
653.06375316146148
 21
204.11994769771729
 31
0.0
  0
LINE
  5
13843
  8
AM_0
 10
670.56375182035708
 20
209.11994769771729
 30
0.0
 11
655.06375316146159
 21
224.61994635661279
 31
0.0
  0
LINE
  5
13844
  8
ﾁｭｳｼﾝｾﾝ1
 10
658.34998622179774
 20
268.11945258603038
 30
0.0
 11
505.65336564509607
 21
268.11945226357147
 31
0.0
  0
LINE
  5
13845
  8
ﾁｭｳｼﾝｾﾝ1
 10
544.51091994756132
 20
284.61945269770251
 30
0.0
 11
712.56844050184031
 21
284.61945269770251
 31
0.0
  0
LINE
  5
13B02
  8
ﾁｭｳｼﾝｾﾝ1
 10
535.5637518203572
 20
214.11994769771729
 30
0.0
 11
535.5637518203572
 21
189.61994769771741
 31
0.0
  0
ARC
  5
13B03
  8
AM_0
 10
548.06375047925314
 20
207.11994769771729
 30
0.0
 40
7.5
 50
270.0
 51
0.0
1001
GENIUS_GENOBJ-N-FIL_13
1002
{
1000
OWNER
1000
GEN
1002
}
1001
GENIUS_GENODEF_13
1002
{
1000
HIER
1070
     0
1002
}
1002
{
1000
MANEDIT
1070
     0
1002
}
1002
{
1000
NOSEL
1070
     0
1002
}
1002
{
1000
BEHIND
1070
     0
1002
}
1002
{
1000
OTHER
1070
     0
1002
}
1002
{
1000
REACTOR
1002
}
  0
ARC
  5
13B05
  8
AM_0
 10
653.06375316146125
 20
207.11994769771729
 30
0.0
 40
7.5
 50
180.0
 51
270.0
1001
GENIUS_GENOBJ-N-FIL_13
1002
{
1000
OWNER
1000
GEN
1002
}
1001
GENIUS_GENODEF_13
1002
{
1000
HIER
1070
     0
1002
}
1002
{
1000
MANEDIT
1070
     0
1002
}
1002
{
1000
NOSEL
1070
     0
1002
}
1002
{
1000
BEHIND
1070
     0
1002
}
1002
{
1000
OTHER
1070
     0
1002
}
1002
{
1000
REACTOR
1002
}
  0
ARC
  5
13B06
  8
AM_0
 10
600.56375182035697
 20
268.11945247182302
 30
0.0
 40
56.5
 50
234.98137173791841
 51
305.01862826208679
  0
LINE
  5
13B07
  8
AM_0
 10
575.56375086668265
 20
224.6194509095632
 30
0.0
 11
645.5637531614617
 21
225.84131929123851
 31
0.0
  0
LINE
  5
13B08
  8
AM_0
 10
551.06375047925258
 20
246.61994622250279
 30
0.0
 11
551.06375047925258
 21
207.11994769771729
 31
0.0
  0
LINE
  5
13B09
  8
AM_0
 10
542.97375047925311
 20
242.61994622250239
 30
0.0
 11
542.97375047925311
 21
227.61994622250231
 31
0.0
  0
LINE
  5
13B0A
  8
AM_0
 10
549.473750479253
 20
243.61994622250231
 30
0.0
 11
549.47375047925254
 21
226.61994622250219
 31
0.0
  0
ARC
  5
13B0B
  8
AM_0
 10
559.5637518203572
 20
227.119452471823
 30
0.0
 40
5.0
 50
216.869872032632
 51
270.0
1001
GENIUS_GENODEF_13
1002
{
1000
HIER
1070
     0
1002
}
1002
{
1000
MANEDIT
1070
     0
1002
}
1002
{
1000
NOSEL
1070
     0
1002
}
1002
{
1000
BEHIND
1070
     0
1002
}
1002
{
1000
REACTOR
1002
}
1001
GENIUS_GENOBJ-N-FIL_13
1002
{
1000
OWNER
1000
GEN
1002
}
  0
LINE
  5
13B0C
  8
AM_0
 10
555.56375047925258
 20
224.9685720100758
 30
0.0
 11
575.56375086668265
 21
224.61945090956331
 31
0.0
  0
LINE
  5
13B0E
  8
AM_0
 10
530.5637518203572
 20
209.11994769771729
 30
0.0
 11
546.06375047925269
 21
224.61994635661279
 31
0.0
  0
LINE
  5
13B0F
  8
AM_0
 10
525.56375047925337
 20
204.11994769771729
 30
0.0
 11
548.06375047925246
 21
204.11994769771729
 31
0.0
  0
LINE
  5
13B10
  8
AM_0
 10
525.56375047925371
 20
199.61994769771729
 30
0.0
 11
548.06375047925314
 21
199.61994769771729
 31
0.0
  0
LINE
  5
13B11
  8
AM_0
 10
525.56375047925337
 20
204.11994769771729
 30
0.0
 11
525.56375047925337
 21
199.61994769771729
 31
0.0
  0
LINE
  5
13B12
  8
AM_0
 10
530.5637518203572
 20
204.11994769771729
 30
0.0
 11
530.5637518203572
 21
209.11994769771729
 31
0.0
  0
LINE
  5
13B13
  8
ｶｸﾚｾﾝ2
 10
530.5637518203572
 20
199.61994769771741
 30
0.0
 11
530.5637518203572
 21
204.11994769771741
 31
0.0
  0
LINE
  5
13B14
  8
AM_0
 10
545.36274169358035
 20
204.11994769771729
 30
0.0
 11
551.06375047925258
 21
209.82095648338949
 31
0.0
  0
ARC
  5
13B15
  8
AM_0
 10
548.06375047925246
 20
207.11994769771729
 30
0.0
 40
3.0
 50
270.0
 51
0.0
1001
GENIUS_GENOBJ-N-FIL_13
1002
{
1000
OWNER
1000
GEN
1002
}
1001
GENIUS_GENODEF_13
1002
{
1000
HIER
1070
     0
1002
}
1002
{
1000
MANEDIT
1070
     0
1002
}
1002
{
1000
NOSEL
1070
     0
1002
}
1002
{
1000
BEHIND
1070
     0
1002
}
1002
{
1000
OTHER
1070
     0
1002
}
1002
{
1000
REACTOR
1002
}
  0
LINE
  5
13B16
  8
ｶｸﾚｾﾝ2
 10
540.5637518203572
 20
199.61994769771741
 30
0.0
 11
540.5637518203572
 21
204.11994769771741
 31
0.0
  0
LINE
  5
13B1B
  8
AM_0N
 10
542.42056524422935
 20
239.11994622250231
 30
0.0
 11
542.42056524422935
 21
231.11994622250231
 31
0.0
1001
GENIUS_GENOREF_13
1005
0
  0
LINE
  5
13B1C
  8
AM_0N
 10
542.42056524422935
 20
231.11994622250231
 30
0.0
 11
541.65375274422934
 21
231.88675872250229
 31
0.0
1001
GENIUS_GENOREF_13
1005
0
  0
LINE
  5
13B1D
  8
AM_0
 10
542.97375047925311
 20
227.61994622250231
 30
0.0
 11
549.473750479253
 21
227.61994622250251
 31
0.0
  0
LINE
  5
13B1E
  8
AM_0
 10
542.97375047925311
 20
231.36994622250231
 30
0.0
 11
549.47375047925254
 21
231.36994622250231
 31
0.0
  0
LINE
  5
13B1F
  8
AM_0
 10
546.06375047925269
 20
224.6199463566129
 30
0.0
 11
551.06375047925258
 21
224.6199463566129
 31
0.0
  0
LINE
  5
13B20
  8
AM_0N
 10
542.97375047925311
 20
231.11994622250231
 30
0.0
 11
542.42056524422935
 21
231.11994622250231
 31
0.0
1001
GENIUS_GENOREF_13
1005
0
  0
LINE
  5
13B21
  8
AM_0
 10
549.47375047925254
 20
226.61994622250219
 30
0.0
 11
551.06375047925269
 21
226.61994622250219
 31
0.0
  0
LINE
  5
13B22
  8
AM_0
 10
542.97375047925311
 20
238.86994622250231
 30
0.0
 11
549.473750479253
 21
238.86994622250219
 31
0.0
  0
LINE
  5
13B23
  8
AM_0N
 10
541.65375274422934
 20
238.35313372250229
 30
0.0
 11
541.65375274422934
 21
231.88675872250229
 31
0.0
1001
GENIUS_GENOREF_13
1005
0
  0
LINE
  5
13B24
  8
AM_0N
 10
542.97375047925311
 20
239.11994622250231
 30
0.0
 11
542.42056524422935
 21
239.11994622250231
 31
0.0
1001
GENIUS_GENOREF_13
1005
0
  0
LINE
  5
13B25
  8
AM_0N
 10
542.42056524422935
 20
239.11994622250231
 30
0.0
 11
541.65375274422934
 21
238.35313372250229
 31
0.0
1001
GENIUS_GENOREF_13
1005
0
  0
LINE
  5
13B26
  8
AM_4N
 10
541.65375274422934
 20
238.35313372250229
 30
0.0
 11
542.97375047925311
 21
238.35313372250229
 31
0.0
1001
GENIUS_GENOREF_13
1005
0
  0
LINE
  5
13B27
  8
AM_4N
 10
541.65375274422934
 20
231.88675872250229
 30
0.0
 11
542.97375047925311
 21
231.88675872250229
 31
0.0
1001
GENIUS_GENOREF_13
1005
0
  0
LINE
  5
13B28
  8
AM_0
 10
564.53965199764821
 20
212.80958109899291
 30
0.0
 11
564.21454412543972
 21
222.11945247182291
 31
0.0
  0
LINE
  5
13B29
  8
AM_0
 10
566.61021768675403
 20
212.78549719465249
 30
0.0
 11
566.93616658743451
 21
222.11945247182291
 31
0.0
  0
LINE
  5
13B2A
  8
AM_0
 10
566.65680043149985
 20
214.11945247182291
 30
0.0
 11
574.39222095919251
 21
214.11945247182291
 31
0.0
  0
ARC
  5
13B2B
  8
AM_0
 10
565.53904282466749
 20
212.8444805956951
 30
0.0
 40
1.0
 50
182.00000000000369
 51
251.433419198097
1001
GENIUS_GENODEF_13
1002
{
1000
HIER
1070
     0
1002
}
1002
{
1000
MANEDIT
1070
     0
1002
}
1002
{
1000
NOSEL
1070
     0
1002
}
1002
{
1000
BEHIND
1070
     0
1002
}
1002
{
1000
REACTOR
1002
}
1001
GENIUS_GENOBJ-N-FIL_13
1002
{
1000
OWNER
1000
GEN
1002
}
  0
ARC
  5
13B2C
  8
AM_0
 10
600.56375182035697
 20
317.11945247182302
 30
0.0
 40
111.0
 50
251.43341919810331
 51
251.47285768553181
  0
ARC
  5
13B2D
  8
AM_0
 10
565.61082685973508
 20
212.82039669135511
 30
0.0
 40
1.0
 50
251.47285768553181
 51
357.99999999999642
1001
GENIUS_GENODEF_13
1002
{
1000
HIER
1070
     0
1002
}
1002
{
1000
MANEDIT
1070
     0
1002
}
1002
{
1000
NOSEL
1070
     0
1002
}
1002
{
1000
BEHIND
1070
     0
1002
}
1002
{
1000
REACTOR
1002
}
1001
GENIUS_GENOBJ-N-FIL_13
1002
{
1000
OWNER
1000
GEN
1002
}
  0
LINE
  5
13B2E
  8
AM_0
 10
586.60219387426389
 20
208.1067111364772
 30
0.0
 11
586.78443696012982
 21
213.32547030240301
 31
0.0
  0
LINE
  5
13B2F
  8
AM_0
 10
584.53450446429076
 20
208.1161932888507
 30
0.0
 11
584.32896206044359
 21
214.0021576257995
 31
0.0
  0
ARC
  5
13B30
  8
AM_0
 10
575.60654691638217
 20
209.988047536664
 30
0.0
 40
1.0
 50
256.88632985670159
 51
357.99999999999642
1001
GENIUS_GENODEF_13
1002
{
1000
HIER
1070
     0
1002
}
1002
{
1000
MANEDIT
1070
     0
1002
}
1002
{
1000
NOSEL
1070
     0
1002
}
1002
{
1000
BEHIND
1070
     0
1002
}
1002
{
1000
REACTOR
1002
}
1001
GENIUS_GENOBJ-N-FIL_13
1002
{
1000
OWNER
1000
GEN
1002
}
  0
ARC
  5
13B31
  8
AM_0
 10
575.53653192141701
 20
210.0043822709867
 30
0.0
 40
1.0
 50
181.99999999999071
 51
256.84888173935212
1001
GENIUS_GENODEF_13
1002
{
1000
HIER
1070
     0
1002
}
1002
{
1000
MANEDIT
1070
     0
1002
}
1002
{
1000
NOSEL
1070
     0
1002
}
1002
{
1000
BEHIND
1070
     0
1002
}
1002
{
1000
REACTOR
1002
}
1001
GENIUS_GENOBJ-N-FIL_13
1002
{
1000
OWNER
1000
GEN
1002
}
  0
ARC
  5
13B32
  8
AM_0
 10
600.56375182035697
 20
317.11945247182302
 30
0.0
 40
111.0
 50
256.84888173935212
 51
256.88632985669381
  0
ARC
  5
13B33
  8
AM_0
 10
585.60280304724472
 20
208.14161063317979
 30
0.0
 40
1.0
 50
262.1830521683051
 51
357.99999999999642
1001
GENIUS_GENODEF_13
1002
{
1000
HIER
1070
     0
1002
}
1002
{
1000
MANEDIT
1070
     0
1002
}
1002
{
1000
NOSEL
1070
     0
1002
}
1002
{
1000
BEHIND
1070
     0
1002
}
1002
{
1000
REACTOR
1002
}
1001
GENIUS_GENOBJ-N-FIL_13
1002
{
1000
OWNER
1000
GEN
1002
}
  0
ARC
  5
13B34
  8
AM_0
 10
585.53389529131005
 20
208.15109278555329
 30
0.0
 40
1.0
 50
181.99999999999071
 51
262.14682191119419
1001
GENIUS_GENODEF_13
1002
{
1000
HIER
1070
     0
1002
}
1002
{
1000
MANEDIT
1070
     0
1002
}
1002
{
1000
NOSEL
1070
     0
1002
}
1002
{
1000
BEHIND
1070
     0
1002
}
1002
{
1000
REACTOR
1002
}
1001
GENIUS_GENOBJ-N-FIL_13
1002
{
1000
OWNER
1000
GEN
1002
}
  0
ARC
  5
13B35
  8
AM_0
 10
600.56375182035697
 20
317.11945247182302
 30
0.0
 40
111.0
 50
262.14682191118692
 51
262.1830521683051
  0
LINE
  5
13B36
  8
AM_0
 10
576.60593774340146
 20
209.95314803996129
 30
0.0
 11
576.84637947667295
 21
216.83849841370269
 31
0.0
  0
LINE
  5
13B37
  8
AM_0
 10
574.53714109439784
 20
209.9694827742841
 30
0.0
 11
574.25252721633274
 21
218.1197578743899
 31
0.0
  0
LINE
  5
13B38
  8
AM_0
 10
567.28087333907229
 20
222.11945247182291
 30
0.0
 11
559.5637518203572
 21
222.11945247182291
 31
0.0
1001
GENIUS_GENODEF_13
1002
{
1000
HIER
1070
     0
1002
}
1002
{
1000
MANEDIT
1070
     0
1002
}
1002
{
1000
NOSEL
1070
     0
1002
}
1002
{
1000
BEHIND
1070
     0
1002
}
1002
{
1000
REACTOR
1002
}
1001
GENIUS_GENOBJ-N-CEN_13
1002
{
1000
OWNER
1000
GEN
1002
}
  0
ARC
  5
13B39
  8
AM_0
 10
567.28087333907229
 20
220.619452471823
 30
0.0
 40
1.5
 50
54.981371737918423
 51
90.0
1001
GENIUS_GENODEF_13
1002
{
1000
HIER
1070
     0
1002
}
1002
{
1000
MANEDIT
1070
     0
1002
}
1002
{
1000
NOSEL
1070
     0
1002
}
1002
{
1000
BEHIND
1070
     0
1002
}
1002
{
1000
REACTOR
1002
}
1001
GENIUS_GENOBJ-N-FIL_13
1002
{
1000
OWNER
1000
GEN
1002
}
  0
LINE
  5
13B3C
  8
AM_0
 10
542.97375047925311
 20
242.61994622250239
 30
0.0
 11
549.473750479253
 21
242.61994622250219
 31
0.0
  0
LINE
  5
13B3D
  8
AM_0
 10
555.56375047925246
 20
247.11945158011551
 30
0.0
 11
551.5637503600434
 21
247.11945158011551
 31
0.0
  0
LINE
  5
13B3E
  8
AM_0
 10
551.06375047925258
 20
246.61994622250279
 30
0.0
 11
555.56375047925314
 21
246.61994622250279
 31
0.0
  0
LINE
  5
13B3F
  8
AM_0
 10
549.47375047925254
 20
243.61994622250231
 30
0.0
 11
551.06375047925269
 21
243.61994622250231
 31
0.0
  0
LINE
  5
13B40
  8
AM_0
 10
650.0637531614617
 20
246.61994622250279
 30
0.0
 11
650.06375316146136
 21
207.11994769771729
 31
0.0
  0
LINE
  5
13B41
  8
AM_0
 10
651.65375316146151
 20
243.61994622250231
 30
0.0
 11
651.65375316146151
 21
226.61994622250219
 31
0.0
  0
LINE
  5
13B42
  8
AM_0
 10
606.59580929925573
 20
207.19973934570629
 30
0.0
 11
606.76205777310372
 21
211.960472750712
 31
0.0
  0
LINE
  5
13B43
  8
AM_0
 10
604.52865361110173
 20
207.1966291672455
 30
0.0
 11
604.36972364974065
 21
211.74778779501949
 31
0.0
  0
LINE
  5
13B44
  8
AM_0
 10
594.53169434145877
 20
207.19973934570629
 30
0.0
 11
594.3654458676109
 21
211.960472750712
 31
0.0
  0
LINE
  5
13B45
  8
AM_0
 10
596.59885002961312
 20
207.1966291672455
 30
0.0
 11
596.75777999097375
 21
211.74778779501949
 31
0.0
  0
ARC
  5
13B46
  8
AM_0
 10
595.59945920259383
 20
207.23152866394861
 30
0.0
 40
1.0
 50
267.41336677122672
 51
357.99999999999642
1001
GENIUS_GENODEF_13
1002
{
1000
HIER
1070
     0
1002
}
1002
{
1000
MANEDIT
1070
     0
1002
}
1002
{
1000
NOSEL
1070
     0
1002
}
1002
{
1000
BEHIND
1070
     0
1002
}
1002
{
1000
REACTOR
1002
}
1001
GENIUS_GENOBJ-N-FIL_13
1002
{
1000
OWNER
1000
GEN
1002
}
  0
ARC
  5
13B47
  8
AM_0
 10
595.53108516847783
 20
207.2346388424088
 30
0.0
 40
1.0
 50
182.00000000000369
 51
267.37771591204699
1001
GENIUS_GENODEF_13
1002
{
1000
HIER
1070
     0
1002
}
1002
{
1000
MANEDIT
1070
     0
1002
}
1002
{
1000
NOSEL
1070
     0
1002
}
1002
{
1000
BEHIND
1070
     0
1002
}
1002
{
1000
REACTOR
1002
}
1001
GENIUS_GENOBJ-N-FIL_13
1002
{
1000
OWNER
1000
GEN
1002
}
  0
ARC
  5
13B48
  8
AM_0
 10
600.56375182035697
 20
317.11945247182302
 30
0.0
 40
111.0
 50
267.37771591204699
 51
267.41336677122672
  0
ARC
  5
13B49
  8
AM_0
 10
600.56375182035697
 20
317.11945247182302
 30
0.0
 40
111.0
 50
272.58663322877328
 51
272.62228408795301
  0
ARC
  5
13B4A
  8
AM_0
 10
605.59641847223656
 20
207.2346388424088
 30
0.0
 40
1.0
 50
272.62228408795301
 51
357.99999999999642
1001
GENIUS_GENODEF_13
1002
{
1000
HIER
1070
     0
1002
}
1002
{
1000
MANEDIT
1070
     0
1002
}
1002
{
1000
NOSEL
1070
     0
1002
}
1002
{
1000
BEHIND
1070
     0
1002
}
1002
{
1000
REACTOR
1002
}
1001
GENIUS_GENOBJ-N-FIL_13
1002
{
1000
OWNER
1000
GEN
1002
}
  0
ARC
  5
13B4B
  8
AM_0
 10
605.52804443812067
 20
207.23152866394861
 30
0.0
 40
1.0
 50
182.00000000000369
 51
272.58663322877328
1001
GENIUS_GENODEF_13
1002
{
1000
HIER
1070
     0
1002
}
1002
{
1000
MANEDIT
1070
     0
1002
}
1002
{
1000
NOSEL
1070
     0
1002
}
1002
{
1000
BEHIND
1070
     0
1002
}
1002
{
1000
REACTOR
1002
}
1001
GENIUS_GENOBJ-N-FIL_13
1002
{
1000
OWNER
1000
GEN
1002
}
  0
LINE
  5
13B4C
  8
AM_0
 10
616.59299917642318
 20
208.1161932888507
 30
0.0
 11
616.79854158027081
 21
214.0021576257995
 31
0.0
  0
LINE
  5
13B4D
  8
AM_0
 10
614.52530976645085
 20
208.1067111364772
 30
0.0
 11
614.34306668058446
 21
213.32547030240301
 31
0.0
  0
ARC
  5
13B4E
  8
AM_0
 10
615.5247005934699
 20
208.14161063317979
 30
0.0
 40
1.0
 50
182.00000000000369
 51
277.81694783169502
1001
GENIUS_GENODEF_13
1002
{
1000
HIER
1070
     0
1002
}
1002
{
1000
MANEDIT
1070
     0
1002
}
1002
{
1000
NOSEL
1070
     0
1002
}
1002
{
1000
BEHIND
1070
     0
1002
}
1002
{
1000
REACTOR
1002
}
1001
GENIUS_GENOBJ-N-FIL_13
1002
{
1000
OWNER
1000
GEN
1002
}
  0
ARC
  5
13B4F
  8
AM_0
 10
615.59360834940446
 20
208.15109278555329
 30
0.0
 40
1.0
 50
277.85317808880581
 51
357.99999999999642
1001
GENIUS_GENODEF_13
1002
{
1000
HIER
1070
     0
1002
}
1002
{
1000
MANEDIT
1070
     0
1002
}
1002
{
1000
NOSEL
1070
     0
1002
}
1002
{
1000
BEHIND
1070
     0
1002
}
1002
{
1000
REACTOR
1002
}
1001
GENIUS_GENOBJ-N-FIL_13
1002
{
1000
OWNER
1000
GEN
1002
}
  0
ARC
  5
13B50
  8
AM_0
 10
600.56375182035697
 20
317.11945247182302
 30
0.0
 40
111.0
 50
277.81694783169502
 51
277.85317808881319
  0
LINE
  5
13B51
  8
AM_0
 10
634.5172859539606
 20
212.78549719465249
 30
0.0
 11
634.19133705328022
 21
222.1194524718228
 31
0.0
  0
LINE
  5
13B52
  8
AM_0
 10
636.5878516430663
 20
212.80958109899251
 30
0.0
 11
636.91295951527502
 21
222.11945247182291
 31
0.0
  0
ARC
  5
13B54
  8
AM_0
 10
625.59097171929773
 20
210.0043822709867
 30
0.0
 40
1.0
 50
283.15111826064788
 51
357.99999999999642
1001
GENIUS_GENODEF_13
1002
{
1000
HIER
1070
     0
1002
}
1002
{
1000
MANEDIT
1070
     0
1002
}
1002
{
1000
NOSEL
1070
     0
1002
}
1002
{
1000
BEHIND
1070
     0
1002
}
1002
{
1000
REACTOR
1002
}
1001
GENIUS_GENOBJ-N-FIL_13
1002
{
1000
OWNER
1000
GEN
1002
}
  0
ARC
  5
13B55
  8
AM_0
 10
625.52095672433234
 20
209.988047536664
 30
0.0
 40
1.0
 50
182.00000000000369
 51
283.11367014329829
1001
GENIUS_GENODEF_13
1002
{
1000
HIER
1070
     0
1002
}
1002
{
1000
MANEDIT
1070
     0
1002
}
1002
{
1000
NOSEL
1070
     0
1002
}
1002
{
1000
BEHIND
1070
     0
1002
}
1002
{
1000
REACTOR
1002
}
1001
GENIUS_GENOBJ-N-FIL_13
1002
{
1000
OWNER
1000
GEN
1002
}
  0
ARC
  5
13B56
  8
AM_0
 10
600.56375182035697
 20
317.11945247182302
 30
0.0
 40
111.0
 50
283.11367014330631
 51
283.15111826064788
  0
LINE
  5
13B57
  8
AM_0
 10
634.47070320921409
 20
214.11945247182291
 30
0.0
 11
626.73528268152211
 21
214.11945247182291
 31
0.0
  0
LINE
  5
13B58
  8
AM_0
 10
624.52156589731305
 20
209.95314803996089
 30
0.0
 11
624.28112416404144
 21
216.83849841370269
 31
0.0
  0
LINE
  5
13B59
  8
AM_0
 10
626.59036254631678
 20
209.9694827742841
 30
0.0
 11
626.87497642438154
 21
218.1197578743899
 31
0.0
  0
ARC
  5
13B5A
  8
AM_0
 10
600.56375182035697
 20
317.11945247182302
 30
0.0
 40
111.0
 50
288.52714231446828
 51
288.56658080189681
  0
ARC
  5
13B5B
  8
AM_0
 10
635.51667678097965
 20
212.82039669135511
 30
0.0
 40
1.0
 50
182.00000000000369
 51
288.52714231446828
1001
GENIUS_GENODEF_13
1002
{
1000
HIER
1070
     0
1002
}
1002
{
1000
MANEDIT
1070
     0
1002
}
1002
{
1000
NOSEL
1070
     0
1002
}
1002
{
1000
BEHIND
1070
     0
1002
}
1002
{
1000
REACTOR
1002
}
1001
GENIUS_GENOBJ-N-FIL_13
1002
{
1000
OWNER
1000
GEN
1002
}
  0
ARC
  5
13B5C
  8
AM_0
 10
635.58846081604725
 20
212.8444805956951
 30
0.0
 40
1.0
 50
288.56658080190289
 51
357.99999999999642
1001
GENIUS_GENODEF_13
1002
{
1000
HIER
1070
     0
1002
}
1002
{
1000
MANEDIT
1070
     0
1002
}
1002
{
1000
NOSEL
1070
     0
1002
}
1002
{
1000
BEHIND
1070
     0
1002
}
1002
{
1000
REACTOR
1002
}
1001
GENIUS_GENOBJ-N-FIL_13
1002
{
1000
OWNER
1000
GEN
1002
}
  0
LINE
  5
13B5D
  8
AM_0
 10
655.76476194713371
 20
204.11994769771729
 30
0.0
 11
650.0637531614617
 21
209.82095648338949
 31
0.0
  0
ARC
  5
13B5E
  8
AM_0
 10
653.06375316146148
 20
207.11994769771729
 30
0.0
 40
3.0
 50
180.0
 51
270.0
1001
GENIUS_GENOBJ-N-FIL_13
1002
{
1000
OWNER
1000
GEN
1002
}
1001
GENIUS_GENODEF_13
1002
{
1000
HIER
1070
     0
1002
}
1002
{
1000
MANEDIT
1070
     0
1002
}
1002
{
1000
NOSEL
1070
     0
1002
}
1002
{
1000
BEHIND
1070
     0
1002
}
1002
{
1000
OTHER
1070
     0
1002
}
1002
{
1000
REACTOR
1002
}
  0
LINE
  5
13B5F
  8
AM_0
 10
633.84663030164222
 20
222.11945247182291
 30
0.0
 11
641.56375182035697
 21
222.11945247182291
 31
0.0
1001
GENIUS_GENODEF_13
1002
{
1000
HIER
1070
     0
1002
}
1002
{
1000
MANEDIT
1070
     0
1002
}
1002
{
1000
NOSEL
1070
     0
1002
}
1002
{
1000
BEHIND
1070
     0
1002
}
1002
{
1000
REACTOR
1002
}
1001
GENIUS_GENOBJ-N-CEN_13
1002
{
1000
OWNER
1000
GEN
1002
}
  0
ARC
  5
13B60
  8
AM_0
 10
633.84663030164222
 20
220.61945247182291
 30
0.0
 40
1.5
 50
90.0
 51
125.01862826208161
1001
GENIUS_GENOBJ-N-FIL_13
1002
{
1000
OWNER
1000
GEN
1002
}
1001
GENIUS_GENODEF_13
1002
{
1000
HIER
1070
     0
1002
}
1002
{
1000
MANEDIT
1070
     0
1002
}
1002
{
1000
NOSEL
1070
     0
1002
}
1002
{
1000
BEHIND
1070
     0
1002
}
1002
{
1000
OTHER
1070
     0
1002
}
1002
{
1000
REACTOR
1002
}
  0
ARC
  5
13B61
  8
AM_0
 10
641.56375182035697
 20
227.119452471823
 30
0.0
 40
5.0
 50
270.0
 51
323.13012796736803
1001
GENIUS_GENODEF_13
1002
{
1000
HIER
1070
     0
1002
}
1002
{
1000
MANEDIT
1070
     0
1002
}
1002
{
1000
NOSEL
1070
     0
1002
}
1002
{
1000
BEHIND
1070
     0
1002
}
1002
{
1000
REACTOR
1002
}
1001
GENIUS_GENOBJ-N-FIL_13
1002
{
1000
OWNER
1000
GEN
1002
}
  0
LINE
  5
13B62
  8
AM_0
 10
655.0637531614617
 20
224.6199463566129
 30
0.0
 11
650.06375316146136
 21
224.6199463566129
 31
0.0
  0
LINE
  5
13B63
  8
AM_0
 10
651.65375316146151
 20
226.61994622250219
 30
0.0
 11
650.06375316146136
 21
226.61994622250219
 31
0.0
  0
LINE
  5
13B64
  8
AM_0
 10
645.5637531614617
 20
247.11945158011551
 30
0.0
 11
649.56375328067099
 21
247.11945158011551
 31
0.0
  0
LINE
  5
13B65
  8
AM_0
 10
650.0637531614617
 20
246.61994622250279
 30
0.0
 11
645.56375316146125
 21
246.61994622250279
 31
0.0
  0
LINE
  5
13B66
  8
AM_0
 10
651.65375316146151
 20
243.61994622250231
 30
0.0
 11
650.06375316146136
 21
243.61994622250231
 31
0.0
  0
LINE
  5
13B67
  8
AM_0
 10
653.56375339988006
 20
264.61965210166198
 30
0.0
 11
649.56375328067099
 21
264.61965210166198
 31
0.0
  0
LINE
  5
13B68
  8
ﾁｭｳｼﾝｾﾝ1
 10
665.5637518203572
 20
214.11994769771729
 30
0.0
 11
665.5637518203572
 21
189.61994769771741
 31
0.0
  0
ARC
  5
13B6D
  8
AM_0
 10
658.67882202119347
 20
243.09223257288249
 30
0.0
 40
1.0
 50
271.99999999999721
 51
346.84888173934428
1001
GENIUS_GENODEF_13
1002
{
1000
HIER
1070
     0
1002
}
1002
{
1000
MANEDIT
1070
     0
1002
}
1002
{
1000
NOSEL
1070
     0
1002
}
1002
{
1000
BEHIND
1070
     0
1002
}
1002
{
1000
REACTOR
1002
}
1001
GENIUS_GENOBJ-N-FIL_13
1002
{
1000
OWNER
1000
GEN
1002
}
  0
LINE
  5
13B6F
  8
ｶｸﾚｾﾝ2
 10
660.56375182035731
 20
199.61994769771741
 30
0.0
 11
660.56375182035731
 21
204.11994769771741
 31
0.0
  0
LINE
  5
13B70
  8
AM_0
 10
670.56375182035708
 20
204.11994769771729
 30
0.0
 11
670.56375182035708
 21
209.11994769771729
 31
0.0
  0
LINE
  5
13B71
  8
ｶｸﾚｾﾝ2
 10
670.56375182035708
 20
199.61994769771741
 30
0.0
 11
670.56375182035708
 21
204.11994769771741
 31
0.0
  0
LINE
  5
13B72
  8
AM_0
 10
675.56375316146057
 20
204.11994769771729
 30
0.0
 11
675.56375316146057
 21
199.61994769771729
 31
0.0
  0
LINE
  5
13B73
  8
AM_0
 10
659.6537531614614
 20
241.61994622250219
 30
0.0
 11
659.6537531614614
 21
228.61994622250231
 31
0.0
  0
LINE
  5
13B74
  8
0
 10
708.56375163024654
 20
272.61945264926072
 30
0.0
 11
668.56375163024654
 21
272.61945264926072
 31
0.0
  0
ARC
  5
13B75
  8
AM_0
 10
661.45167562823156
 20
263.15515985405949
 30
0.0
 40
1.0
 50
357.4133667712332
 51
87.999999999996248
1001
GENIUS_GENODEF_13
1002
{
1000
HIER
1070
     0
1002
}
1002
{
1000
MANEDIT
1070
     0
1002
}
1002
{
1000
NOSEL
1070
     0
1002
}
1002
{
1000
BEHIND
1070
     0
1002
}
1002
{
1000
REACTOR
1002
}
1001
GENIUS_GENOBJ-N-FIL_13
1002
{
1000
OWNER
1000
GEN
1002
}
  0
ARC
  5
13B77
  8
AM_0
 10
660.54159365900023
 20
253.15850369871021
 30
0.0
 40
1.0
 50
352.18305216831237
 51
88.000000000002785
1001
GENIUS_GENODEF_13
1002
{
1000
HIER
1070
     0
1002
}
1002
{
1000
MANEDIT
1070
     0
1002
}
1002
{
1000
NOSEL
1070
     0
1002
}
1002
{
1000
BEHIND
1070
     0
1002
}
1002
{
1000
REACTOR
1002
}
1001
GENIUS_GENOBJ-N-FIL_13
1002
{
1000
OWNER
1000
GEN
1002
}
  0
ARC
  5
13B7A
  8
AM_0
 10
658.69515675551611
 20
243.1622475678482
 30
0.0
 40
1.0
 50
346.88632985669381
 51
87.999999999996248
1001
GENIUS_GENODEF_13
1002
{
1000
HIER
1070
     0
1002
}
1002
{
1000
MANEDIT
1070
     0
1002
}
1002
{
1000
NOSEL
1070
     0
1002
}
1002
{
1000
BEHIND
1070
     0
1002
}
1002
{
1000
REACTOR
1002
}
1001
GENIUS_GENOBJ-N-FIL_13
1002
{
1000
OWNER
1000
GEN
1002
}
  0
ARC
  5
13B7B
  8
AM_0
 10
551.5637518203572
 20
268.11945247182302
 30
0.0
 40
111.0
 50
346.84888173934428
 51
346.88632985669381
  0
ARC
  5
13B7C
  8
AM_0
 10
551.5637518203572
 20
268.11945247182302
 30
0.0
 40
111.0
 50
352.14682191118692
 51
352.18305216831237
  0
ARC
  5
13B7D
  8
AM_0
 10
660.53211150662673
 20
253.0895959427757
 30
0.0
 40
1.0
 50
271.99999999999721
 51
352.14682191118692
1001
GENIUS_GENODEF_13
1002
{
1000
HIER
1070
     0
1002
}
1002
{
1000
MANEDIT
1070
     0
1002
}
1002
{
1000
NOSEL
1070
     0
1002
}
1002
{
1000
BEHIND
1070
     0
1002
}
1002
{
1000
REACTOR
1002
}
1001
GENIUS_GENOBJ-N-FIL_13
1002
{
1000
OWNER
1000
GEN
1002
}
  0
ARC
  5
13B7F
  8
AM_0
 10
661.44856544977131
 20
263.08678581994349
 30
0.0
 40
1.0
 50
271.99999999999721
 51
357.37771591205347
1001
GENIUS_GENODEF_13
1002
{
1000
HIER
1070
     0
1002
}
1002
{
1000
MANEDIT
1070
     0
1002
}
1002
{
1000
NOSEL
1070
     0
1002
}
1002
{
1000
BEHIND
1070
     0
1002
}
1002
{
1000
REACTOR
1002
}
1001
GENIUS_GENOBJ-N-FIL_13
1002
{
1000
OWNER
1000
GEN
1002
}
  0
ARC
  5
13B80
  8
AM_0
 10
551.5637518203572
 20
268.11945247182302
 30
0.0
 40
111.0
 50
357.37771591205347
 51
357.4133667712332
  0
LINE
  5
13B87
  8
AM_0
 10
661.48657512493401
 20
264.15455068107838
 30
0.0
 11
656.9354164971603
 21
264.31348064243952
 31
0.0
  0
LINE
  5
13B89
  8
0
 10
668.56375163024654
 20
299.61945266452892
 30
0.0
 11
653.56375339988006
 21
304.61925329374299
 31
0.0
  0
LINE
  5
13E88
  8
AM_0
 10
575.56375086668265
 20
344.6194544858418
 30
0.0
 11
645.5637531614617
 21
343.39761384742042
 31
0.0
  0
LINE
  5
13E8D
  8
AM_0
 10
543.52885232365463
 20
304.1531545240349
 30
0.0
 11
551.5637503600434
 21
304.43373934625328
 31
0.0
  0
LINE
  5
13E8E
  8
AM_0
 10
543.52885232365486
 20
302.08575041961092
 30
0.0
 11
551.5637503600434
 21
301.80516559739249
 31
0.0
  0
ARC
  5
13E8F
  8
AM_0
 10
544.60438769836617
 20
300.08200341580078
 30
0.0
 40
1.9655366667591301
 50
273.15847022607488
 51
89.350446788927925
  0
ARC
  5
13E90
  8
AM_0
 10
543.5637518203572
 20
303.15376369701602
 30
0.0
 40
1.0
 50
91.999999999997215
 51
180.0
1001
GENIUS_GENODEF_13
1002
{
1000
HIER
1070
     0
1002
}
1002
{
1000
MANEDIT
1070
     0
1002
}
1002
{
1000
NOSEL
1070
     0
1002
}
1002
{
1000
BEHIND
1070
     0
1002
}
1002
{
1000
REACTOR
1002
}
1001
GENIUS_GENOBJ-N-FIL_13
1002
{
1000
OWNER
1000
GEN
1002
}
  0
ARC
  5
13E91
  8
AM_0
 10
543.5637518203572
 20
303.08514124662992
 30
0.0
 40
1.0
 50
179.99999999998701
 51
267.99999999999631
1001
GENIUS_GENODEF_13
1002
{
1000
HIER
1070
     0
1002
}
1002
{
1000
MANEDIT
1070
     0
1002
}
1002
{
1000
NOSEL
1070
     0
1002
}
1002
{
1000
BEHIND
1070
     0
1002
}
1002
{
1000
REACTOR
1002
}
1001
GENIUS_GENOBJ-N-FIL_13
1002
{
1000
OWNER
1000
GEN
1002
}
  0
LINE
  5
13E92
  8
AM_0
 10
542.56375182035697
 20
303.08514124662992
 30
0.0
 11
542.56375182035697
 21
303.15376369701602
 31
0.0
  0
LINE
  5
13E93
  8
AM_0
 10
555.56375047925246
 20
322.11945381528949
 30
0.0
 11
551.5637503600434
 21
322.11945381528949
 31
0.0
  0
LINE
  5
13E94
  8
AM_0
 10
555.56375047925258
 20
344.27033338532908
 30
0.0
 11
575.56375086668265
 21
344.6194544858418
 31
0.0
  0
LINE
  5
13E95
  8
AM_0
 10
653.56375339988006
 20
304.61925329374299
 30
0.0
 11
649.56375328067099
 21
304.61925329374299
 31
0.0
  0
LINE
  5
13E96
  8
AM_0
 10
645.5637531614617
 20
322.11945381528949
 30
0.0
 11
649.56375328067099
 21
322.11945381528949
 31
0.0
  0
LINE
  5
13E98
  8
0
 10
708.56375163024654
 20
299.61945264926072
 30
0.0
 11
676.56375167308806
 21
299.61945264926072
 31
0.0
  0
LINE
  5
13E99
  8
0
 10
708.56375163024654
 20
296.61945264926072
 30
0.0
 11
668.56375163024654
 21
296.61945264324783
 31
0.0
  0
LINE
  5
13E9B
  8
0
 10
676.56375167308806
 20
299.61945264926072
 30
0.0
 11
676.56375167353929
 21
296.61945264445029
 31
0.0
  0
LINE
  5
14115
  8
AM_0
 10
511.06375182035731
 20
296.61945252804202
 30
0.0
 11
511.06375182035708
 21
239.6194525280419
 31
0.0
  0
LINE
  5
14116
  8
AM_0
 10
534.56375182035731
 20
299.61945252804202
 30
0.0
 11
534.56375182035686
 21
236.61945252804199
 31
0.0
  0
LINE
  5
14117
  8
AM_0
 10
531.06375182035731
 20
301.11945252804202
 30
0.0
 11
531.06375182035686
 21
235.11945252804171
 31
0.0
  0
LINE
  5
14118
  8
AM_0
 10
527.56375182035708
 20
236.61945252804199
 30
0.0
 11
527.56375182035731
 21
299.61945252804202
 31
0.0
  0
LINE
  5
14119
  8
AM_0
 10
538.06375182035731
 20
298.11945252804168
 30
0.0
 11
538.06375182035731
 21
238.11945252804171
 31
0.0
  0
LINE
  5
1411A
  8
AM_0
 10
551.5637503600434
 20
298.11945252804179
 30
0.0
 11
534.56375182035731
 21
298.11945252804168
 31
0.0
  0
LINE
  5
1411B
  8
AM_0
 10
515.06375182035731
 20
299.61945252804202
 30
0.0
 11
534.56375182035731
 21
299.61945252804202
 31
0.0
  0
LINE
  5
1411C
  8
AM_0
 10
527.56375182035731
 20
298.11945252804202
 30
0.0
 11
512.56375182035731
 21
298.11945252804202
 31
0.0
  0
LINE
  5
1411D
  8
AM_0
 10
508.06375182035708
 20
285.42335252804179
 30
0.0
 11
511.0637518203572
 21
290.61945252804202
 31
0.0
  0
ARC
  5
1411E
  8
AM_0
 10
512.56375182035731
 20
296.61945252804179
 30
0.0
 40
1.5
 50
90.0
 51
180.0
  0
LINE
  5
1411F
  8
AM_0
 10
515.06375182035731
 20
298.11945252804202
 30
0.0
 11
515.06375182035731
 21
299.61945252804202
 31
0.0
  0
LINE
  5
14120
  8
AM_0
 10
516.0637518203572
 20
301.11945252804202
 30
0.0
 11
531.06375182035731
 21
301.11945252804202
 31
0.0
  0
LINE
  5
14121
  8
AM_0
 10
516.0637518203572
 20
299.61945252804202
 30
0.0
 11
516.0637518203572
 21
301.11945252804202
 31
0.0
  0
LINE
  5
14122
  8
AM_0
 10
508.06375182035708
 20
250.8156525280418
 30
0.0
 11
508.06375182035708
 21
285.42335252804179
 31
0.0
  0
LINE
  5
14123
  8
AM_0
 10
541.65375274422945
 20
238.11945252804159
 30
0.0
 11
534.56375182035686
 21
238.11945252804171
 31
0.0
  0
LINE
  5
14124
  8
AM_0
 10
534.56375182035686
 20
236.61945252804199
 30
0.0
 11
515.06375182035708
 21
236.61945252804199
 31
0.0
  0
LINE
  5
14125
  8
AM_0
 10
527.56375182035708
 20
238.11945252804199
 30
0.0
 11
512.56375182035697
 21
238.11945252804199
 31
0.0
  0
LINE
  5
14126
  8
AM_0
 10
511.06375182035708
 20
245.61658710748279
 30
0.0
 11
508.06375182035708
 21
250.8156525280418
 31
0.0
  0
LINE
  5
14127
  8
AM_0
 10
515.06375182035708
 20
236.61945252804199
 30
0.0
 11
515.06375182035708
 21
238.11945252804199
 31
0.0
  0
ARC
  5
14128
  8
AM_0
 10
512.56375182035731
 20
239.6194525280419
 30
0.0
 40
1.5
 50
180.0
 51
270.0
  0
LINE
  5
14129
  8
AM_0
 10
516.06375182035708
 20
235.11945252804171
 30
0.0
 11
531.06375182035686
 21
235.11945252804171
 31
0.0
  0
LINE
  5
1412A
  8
AM_0
 10
516.06375182035708
 20
236.61945252804171
 30
0.0
 11
516.06375182035708
 21
235.11945252804171
 31
0.0
  0
LINE
  5
14F6E
  8
AM_0
 10
821.71675419288192
 20
246.61994622250219
 30
0.0
 11
793.321472092661
 21
246.61994622250219
 31
0.0
  0
LINE
  5
14F6F
  8
AM_0
 10
788.32150261024174
 20
204.11994769771729
 30
0.0
 11
942.32147668221864
 21
204.11994769771729
 31
0.0
  0
LINE
  5
14F70
  8
AM_0
 10
788.32150261024174
 20
199.61994769771721
 30
0.0
 11
942.32147668221864
 21
199.61994769771729
 31
0.0
  0
LINE
  5
14F71
  8
ﾁｭｳｼﾝｾﾝ1
 10
783.32147209266134
 20
284.61945269770251
 30
0.0
 11
945.57852593789721
 21
284.61945269770251
 31
0.0
  0
LINE
  5
14F72
  8
AM_0
 10
932.32144586661525
 20
344.61885448582387
 30
0.0
 11
798.32147239068433
 21
344.61885448582387
 31
0.0
  0
LINE
  5
14F73
  8
AM_0
 10
959.8214766822183
 20
212.11945220596411
 30
0.0
 11
959.8214766822183
 21
324.11945220596408
 31
0.0
  0
LINE
  5
14F74
  8
AM_0
 10
948.31537316659319
 20
214.11945220596411
 30
0.0
 11
948.31537316659274
 21
322.11945220596408
 31
0.0
  0
LINE
  5
14F75
  8
ﾁｭｳｼﾝｾﾝ1
 10
845.82147380629431
 20
349.61885448582387
 30
0.0
 11
845.82147380629431
 21
189.61994769771709
 31
0.0
  0
LINE
  5
14F76
  8
AM_0
 10
942.32144616463825
 20
334.61895418780358
 30
0.0
 11
942.32144616463825
 21
199.61994769771729
 31
0.0
  0
ARC
  5
14F77
  8
AM_0
 10
716.31538842538259
 20
268.11945220596408
 30
0.0
 40
236.0
 50
359.99999499104308
 51
10.56396171235771
  0
LINE
  5
14F79
  8
ﾁｭｳｼﾝｾﾝ1
 10
910.60090381094892
 20
268.11945220596408
 30
0.0
 11
1096.564641055242
 21
268.11945220596408
 31
0.0
  0
LINE
  5
14F7A
  8
AM_0
 10
959.8214766822183
 20
236.1795122059641
 30
0.0
 11
950.14072632122475
 21
236.1795122059641
 31
0.0
  0
LINE
  5
14F7B
  8
AM_0
 10
959.8214766822183
 20
222.11945220596411
 30
0.0
 11
948.31537316659319
 21
222.11945220596411
 31
0.0
  0
LINE
  5
14F7C
  8
AM_0
 10
959.8214766822183
 20
212.11945220596411
 30
0.0
 11
950.31537316659319
 21
212.11945220596411
 31
0.0
  0
ARC
  5
14F7D
  8
AM_0
 10
716.31538842538259
 20
268.11945220596408
 30
0.0
 40
236.0
 50
349.43602826973262
 51
359.99999499104308
  0
LINE
  5
14F7E
  8
ﾁｭｳｼﾝｾﾝ1
 10
912.82147380629465
 20
214.11994769771721
 30
0.0
 11
912.82147380629465
 21
189.61994769771729
 31
0.0
  0
LINE
  5
14F7F
  8
AM_0
 10
885.32147380629544
 20
224.6200509095809
 30
0.0
 11
889.82147380629544
 21
224.6200509095809
 31
0.0
  0
LINE
  5
14F80
  8
AM_0
 10
885.32147380629544
 20
209.11994769771729
 30
0.0
 11
889.82147380629544
 21
209.11994769771729
 31
0.0
  0
ARC
  5
14F81
  8
AM_0
 10
884.82150548616607
 20
284.61945269770251
 30
0.0
 40
45.0
 50
270.0
 51
302.38871163716129
  0
CIRCLE
  5
14F82
  8
AM_0
 10
931.82144585171397
 20
235.11994622250231
 30
0.0
 40
7.9999999999999956
  0
ARC
  5
14F84
  8
AM_0
 10
937.32144616463836
 20
241.61994622250219
 30
0.0
 40
5.0
 50
0.000000000000007
 51
90.0
1001
GENIUS_GENOBJ-N-FIL_13
1002
{
1000
OWNER
1000
GEN
1002
}
1001
GENIUS_GENODEF_13
1002
{
1000
HIER
1070
     0
1002
}
1002
{
1000
MANEDIT
1070
     0
1002
}
1002
{
1000
NOSEL
1070
     0
1002
}
1002
{
1000
BEHIND
1070
     0
1002
}
1002
{
1000
OTHER
1070
     0
1002
}
1002
{
1000
REACTOR
1002
}
  0
ARC
  5
14F85
  8
AM_0
 10
950.31537316659319
 20
214.11945220596411
 30
0.0
 40
2.0
 50
180.0
 51
270.0
1001
GENIUS_GENOBJ-N-FIL_13
1002
{
1000
OWNER
1000
GEN
1002
}
1001
GENIUS_GENODEF_13
1002
{
1000
HIER
1070
     0
1002
}
1002
{
1000
MANEDIT
1070
     0
1002
}
1002
{
1000
NOSEL
1070
     0
1002
}
1002
{
1000
BEHIND
1070
     0
1002
}
1002
{
1000
OTHER
1070
     0
1002
}
1002
{
1000
REACTOR
1002
}
  0
LINE
  5
14F86
  8
AM_0
 10
946.31537316659364
 20
224.61945220596411
 30
0.0
 11
942.32144616463825
 21
224.61945220596411
 31
0.0
  0
ARC
  5
14F87
  8
AM_0
 10
946.31537316659364
 20
222.61945220596411
 30
0.0
 40
2.0
 50
0.000000000000007
 51
90.0
1001
GENIUS_GENOBJ-N-FIL_13
1002
{
1000
OWNER
1000
GEN
1002
}
1001
GENIUS_GENODEF_13
1002
{
1000
HIER
1070
     0
1002
}
1002
{
1000
MANEDIT
1070
     0
1002
}
1002
{
1000
NOSEL
1070
     0
1002
}
1002
{
1000
BEHIND
1070
     0
1002
}
1002
{
1000
OTHER
1070
     0
1002
}
1002
{
1000
REACTOR
1002
}
  0
LINE
  5
14F8A
  8
AM_0
 10
889.82147380629544
 20
224.6200509095809
 30
0.0
 11
889.82147380629499
 21
204.11994769771729
 31
0.0
  0
LINE
  5
14F8B
  8
ｶｸﾚｾﾝ2
 10
917.82147380629533
 20
199.61994769771729
 30
0.0
 11
917.82147380629533
 21
204.11994769771729
 31
0.0
  0
LINE
  5
14F8C
  8
ｶｸﾚｾﾝ2
 10
907.82147380629476
 20
199.61994769771729
 30
0.0
 11
907.82147380629476
 21
204.11994769771729
 31
0.0
  0
LINE
  5
14F8D
  8
AM_0
 10
908.92622509957835
 20
246.61994622250219
 30
0.0
 11
937.32144616463836
 21
246.61994622250219
 31
0.0
  0
ARC
  5
14F9C
  8
AM_0
 10
845.82147380629431
 20
284.61945269770251
 30
0.0
 40
45.0
 50
237.61128836283859
 51
270.0
  0
LINE
  5
14F9D
  8
AM_0
 10
884.82150548616607
 20
239.61945269770251
 30
0.0
 11
845.82147380629431
 21
239.61945269770251
 31
0.0
  0
LINE
  5
14F9E
  8
AM_0
 10
885.32147380629567
 20
224.6200509095809
 30
0.0
 11
885.32147380629499
 21
204.11994769771729
 31
0.0
  0
LINE
  5
14F9F
  8
AM_0
 10
845.32147636929415
 20
224.6200509095809
 30
0.0
 11
845.32147636929415
 21
204.11994769771729
 31
0.0
  0
LINE
  5
14FA0
  8
AM_0
 10
840.82147636929415
 20
224.6200509095809
 30
0.0
 11
840.82147636929437
 21
204.11994769771729
 31
0.0
  0
LINE
  5
14FA1
  8
AM_0
 10
840.82147636929437
 20
209.11994769771721
 30
0.0
 11
845.32147636929415
 21
209.11994769771721
 31
0.0
  0
LINE
  5
14FA2
  8
ｶｸﾚｾﾝ2
 10
822.82147380629544
 20
199.61994769771729
 30
0.0
 11
822.82147380629544
 21
204.11994769771729
 31
0.0
  0
LINE
  5
14FA3
  8
AM_0
 10
840.82147636929415
 20
224.6200509095809
 30
0.0
 11
845.32147636929403
 21
224.6200509095809
 31
0.0
  0
LINE
  5
14FA4
  8
AM_0
 10
959.8214766822183
 20
324.11945220596408
 30
0.0
 11
950.31537316659296
 21
324.11945220596408
 31
0.0
  0
LINE
  5
14FA5
  8
AM_0
 10
959.8214766822183
 20
314.11945220596408
 30
0.0
 11
948.31537316659274
 21
314.11945220596408
 31
0.0
  0
LINE
  5
14FA6
  8
AM_0
 10
959.8214766822183
 20
300.05940220596398
 30
0.0
 11
950.21546054625549
 21
300.05940220596398
 31
0.0
  0
LINE
  5
14FB3
  8
AM_0
 10
947.81537316659296
 20
311.38606902725309
 30
0.0
 11
942.32147668221796
 21
311.38606902725309
 31
0.0
  0
ARC
  5
14FB5
  8
AM_0
 10
944.32147668221796
 20
324.11945220596408
 30
0.0
 40
2.0
 50
180.0
 51
270.0
1001
GENIUS_GENODEF_13
1002
{
1000
HIER
1070
     0
1002
}
1002
{
1000
MANEDIT
1070
     0
1002
}
1002
{
1000
NOSEL
1070
     0
1002
}
1002
{
1000
BEHIND
1070
     0
1002
}
1002
{
1000
OTHER
1070
     0
1002
}
1002
{
1000
REACTOR
1002
}
1001
GENIUS_GENOBJ-N-FIL_13
1002
{
1000
OWNER
1000
GEN
1002
}
  0
ARC
  5
14FB6
  8
AM_0
 10
946.85127155145517
 20
324.11945220596408
 30
0.0
 40
2.0
 50
270.0
 51
330.00000000000267
1001
GENIUS_GENOBJ-N-FIL_13
1002
{
1000
OWNER
1000
GEN
1002
}
1001
GENIUS_GENODEF_13
1002
{
1000
HIER
1070
     0
1002
}
1002
{
1000
MANEDIT
1070
     0
1002
}
1002
{
1000
NOSEL
1070
     0
1002
}
1002
{
1000
BEHIND
1070
     0
1002
}
1002
{
1000
OTHER
1070
     0
1002
}
1002
{
1000
REACTOR
1002
}
  0
ARC
  5
14FB7
  8
AM_0
 10
950.31537316659296
 20
322.11945220596408
 30
0.0
 40
2.0
 50
90.0
 51
150.0000000000027
1001
GENIUS_GENOBJ-N-FIL_13
1002
{
1000
OWNER
1000
GEN
1002
}
1001
GENIUS_GENODEF_13
1002
{
1000
HIER
1070
     0
1002
}
1002
{
1000
MANEDIT
1070
     0
1002
}
1002
{
1000
NOSEL
1070
     0
1002
}
1002
{
1000
BEHIND
1070
     0
1002
}
1002
{
1000
OTHER
1070
     0
1002
}
1002
{
1000
REACTOR
1002
}
  0
LINE
  5
14FB8
  8
AM_0
 10
944.32147668221796
 20
322.11945220596408
 30
0.0
 11
946.85127155145517
 21
322.11945220596408
 31
0.0
  0
POLYLINE
  5
14FBE
  8
AM_0
 10
927.32144571760352
 20
334.11895917290252
 30
0.0
 66
     1
 70
     8
  0
VERTEX
  8
AM_0
  5
15945
 10
927.321
 20
334.119
 30
0.000000
  70
    32
  0
VERTEX
  8
AM_0
  5
15946
 10
927.327
 20
334.340
 30
0.000000
  70
    32
  0
VERTEX
  8
AM_0
  5
15947
 10
927.343
 20
334.560
 30
0.000000
  70
    32
  0
VERTEX
  8
AM_0
  5
15948
 10
927.370
 20
334.779
 30
0.000000
  70
    32
  0
VERTEX
  8
AM_0
  5
15949
 10
927.408
 20
334.997
 30
0.000000
  70
    32
  0
VERTEX
  8
AM_0
  5
1594A
 10
927.456
 20
335.212
 30
0.000000
  70
    32
  0
VERTEX
  8
AM_0
  5
1594B
 10
927.515
 20
335.425
 30
0.000000
  70
    32
  0
VERTEX
  8
AM_0
  5
1594C
 10
927.584
 20
335.635
 30
0.000000
  70
    32
  0
VERTEX
  8
AM_0
  5
1594D
 10
927.664
 20
335.841
 30
0.000000
  70
    32
  0
VERTEX
  8
AM_0
  5
1594E
 10
927.753
 20
336.043
 30
0.000000
  70
    32
  0
VERTEX
  8
AM_0
  5
1594F
 10
927.853
 20
336.240
 30
0.000000
  70
    32
  0
VERTEX
  8
AM_0
  5
15950
 10
927.962
 20
336.432
 30
0.000000
  70
    32
  0
VERTEX
  8
AM_0
  5
15951
 10
928.080
 20
336.619
 30
0.000000
  70
    32
  0
VERTEX
  8
AM_0
  5
15952
 10
928.207
 20
336.800
 30
0.000000
  70
    32
  0
VERTEX
  8
AM_0
  5
15953
 10
928.343
 20
336.974
 30
0.000000
  70
    32
  0
VERTEX
  8
AM_0
  5
15954
 10
928.487
 20
337.141
 30
0.000000
  70
    32
  0
VERTEX
  8
AM_0
  5
15955
 10
928.639
 20
337.301
 30
0.000000
  70
    32
  0
VERTEX
  8
AM_0
  5
15956
 10
928.799
 20
337.453
 30
0.000000
  70
    32
  0
VERTEX
  8
AM_0
  5
15957
 10
928.967
 20
337.597
 30
0.000000
  70
    32
  0
VERTEX
  8
AM_0
  5
15958
 10
929.141
 20
337.733
 30
0.000000
  70
    32
  0
VERTEX
  8
AM_0
  5
15959
 10
929.321
 20
337.861
 30
0.000000
  70
    32
  0
VERTEX
  8
AM_0
  5
1595A
 10
929.508
 20
337.979
 30
0.000000
  70
    32
  0
VERTEX
  8
AM_0
  5
1595B
 10
929.700
 20
338.088
 30
0.000000
  70
    32
  0
VERTEX
  8
AM_0
  5
1595C
 10
929.897
 20
338.187
 30
0.000000
  70
    32
  0
VERTEX
  8
AM_0
  5
1595D
 10
930.099
 20
338.276
 30
0.000000
  70
    32
  0
VERTEX
  8
AM_0
  5
1595E
 10
930.305
 20
338.356
 30
0.000000
  70
    32
  0
VERTEX
  8
AM_0
  5
1595F
 10
930.515
 20
338.425
 30
0.000000
  70
    32
  0
VERTEX
  8
AM_0
  5
15960
 10
930.728
 20
338.484
 30
0.000000
  70
    32
  0
VERTEX
  8
AM_0
  5
15961
 10
930.944
 20
338.532
 30
0.000000
  70
    32
  0
VERTEX
  8
AM_0
  5
15962
 10
931.161
 20
338.570
 30
0.000000
  70
    32
  0
VERTEX
  8
AM_0
  5
15963
 10
931.380
 20
338.597
 30
0.000000
  70
    32
  0
VERTEX
  8
AM_0
  5
15964
 10
931.601
 20
338.613
 30
0.000000
  70
    32
  0
VERTEX
  8
AM_0
  5
15965
 10
931.821
 20
338.619
 30
0.000000
  70
    32
  0
VERTEX
  8
AM_0
  5
15966
 10
932.042
 20
338.613
 30
0.000000
  70
    32
  0
VERTEX
  8
AM_0
  5
15967
 10
932.263
 20
338.597
 30
0.000000
  70
    32
  0
VERTEX
  8
AM_0
  5
15968
 10
932.482
 20
338.570
 30
0.000000
  70
    32
  0
VERTEX
  8
AM_0
  5
15969
 10
932.699
 20
338.532
 30
0.000000
  70
    32
  0
VERTEX
  8
AM_0
  5
1596A
 10
932.915
 20
338.484
 30
0.000000
  70
    32
  0
VERTEX
  8
AM_0
  5
1596B
 10
933.128
 20
338.425
 30
0.000000
  70
    32
  0
VERTEX
  8
AM_0
  5
1596C
 10
933.337
 20
338.356
 30
0.000000
  70
    32
  0
VERTEX
  8
AM_0
  5
1596D
 10
933.544
 20
338.276
 30
0.000000
  70
    32
  0
VERTEX
  8
AM_0
  5
1596E
 10
933.745
 20
338.187
 30
0.000000
  70
    32
  0
VERTEX
  8
AM_0
  5
1596F
 10
933.943
 20
338.088
 30
0.000000
  70
    32
  0
VERTEX
  8
AM_0
  5
15970
 10
934.135
 20
337.979
 30
0.000000
  70
    32
  0
VERTEX
  8
AM_0
  5
15971
 10
934.322
 20
337.861
 30
0.000000
  70
    32
  0
VERTEX
  8
AM_0
  5
15972
 10
934.502
 20
337.733
 30
0.000000
  70
    32
  0
VERTEX
  8
AM_0
  5
15973
 10
934.676
 20
337.597
 30
0.000000
  70
    32
  0
VERTEX
  8
AM_0
  5
15974
 10
934.843
 20
337.453
 30
0.000000
  70
    32
  0
VERTEX
  8
AM_0
  5
15975
 10
935.003
 20
337.301
 30
0.000000
  70
    32
  0
VERTEX
  8
AM_0
  5
15976
 10
935.156
 20
337.141
 30
0.000000
  70
    32
  0
VERTEX
  8
AM_0
  5
15977
 10
935.300
 20
336.974
 30
0.000000
  70
    32
  0
VERTEX
  8
AM_0
  5
15978
 10
935.436
 20
336.800
 30
0.000000
  70
    32
  0
VERTEX
  8
AM_0
  5
15979
 10
935.563
 20
336.619
 30
0.000000
  70
    32
  0
VERTEX
  8
AM_0
  5
1597A
 10
935.681
 20
336.432
 30
0.000000
  70
    32
  0
VERTEX
  8
AM_0
  5
1597B
 10
935.790
 20
336.240
 30
0.000000
  70
    32
  0
VERTEX
  8
AM_0
  5
1597C
 10
935.889
 20
336.043
 30
0.000000
  70
    32
  0
VERTEX
  8
AM_0
  5
1597D
 10
935.979
 20
335.841
 30
0.000000
  70
    32
  0
VERTEX
  8
AM_0
  5
1597E
 10
936.058
 20
335.635
 30
0.000000
  70
    32
  0
VERTEX
  8
AM_0
  5
1597F
 10
936.128
 20
335.425
 30
0.000000
  70
    32
  0
VERTEX
  8
AM_0
  5
15980
 10
936.187
 20
335.212
 30
0.000000
  70
    32
  0
VERTEX
  8
AM_0
  5
15981
 10
936.235
 20
334.997
 30
0.000000
  70
    32
  0
VERTEX
  8
AM_0
  5
15982
 10
936.273
 20
334.779
 30
0.000000
  70
    32
  0
VERTEX
  8
AM_0
  5
15983
 10
936.300
 20
334.560
 30
0.000000
  70
    32
  0
VERTEX
  8
AM_0
  5
15984
 10
936.316
 20
334.340
 30
0.000000
  70
    32
  0
VERTEX
  8
AM_0
  5
15985
 10
936.321
 20
334.119
 30
0.000000
  70
    32
  0
VERTEX
  8
AM_0
  5
15986
 10
936.316
 20
333.898
 30
0.000000
  70
    32
  0
VERTEX
  8
AM_0
  5
15987
 10
936.300
 20
333.678
 30
0.000000
  70
    32
  0
VERTEX
  8
AM_0
  5
15988
 10
936.273
 20
333.459
 30
0.000000
  70
    32
  0
VERTEX
  8
AM_0
  5
15989
 10
936.235
 20
333.241
 30
0.000000
  70
    32
  0
VERTEX
  8
AM_0
  5
1598A
 10
936.187
 20
333.026
 30
0.000000
  70
    32
  0
VERTEX
  8
AM_0
  5
1598B
 10
936.128
 20
332.813
 30
0.000000
  70
    32
  0
VERTEX
  8
AM_0
  5
1598C
 10
936.058
 20
332.603
 30
0.000000
  70
    32
  0
VERTEX
  8
AM_0
  5
1598D
 10
935.979
 20
332.397
 30
0.000000
  70
    32
  0
VERTEX
  8
AM_0
  5
1598E
 10
935.889
 20
332.195
 30
0.000000
  70
    32
  0
VERTEX
  8
AM_0
  5
1598F
 10
935.790
 20
331.998
 30
0.000000
  70
    32
  0
VERTEX
  8
AM_0
  5
15990
 10
935.681
 20
331.806
 30
0.000000
  70
    32
  0
VERTEX
  8
AM_0
  5
15991
 10
935.563
 20
331.619
 30
0.000000
  70
    32
  0
VERTEX
  8
AM_0
  5
15992
 10
935.436
 20
331.438
 30
0.000000
  70
    32
  0
VERTEX
  8
AM_0
  5
15993
 10
935.300
 20
331.264
 30
0.000000
  70
    32
  0
VERTEX
  8
AM_0
  5
15994
 10
935.156
 20
331.097
 30
0.000000
  70
    32
  0
VERTEX
  8
AM_0
  5
15995
 10
935.003
 20
330.937
 30
0.000000
  70
    32
  0
VERTEX
  8
AM_0
  5
15996
 10
934.843
 20
330.785
 30
0.000000
  70
    32
  0
VERTEX
  8
AM_0
  5
15997
 10
934.676
 20
330.640
 30
0.000000
  70
    32
  0
VERTEX
  8
AM_0
  5
15998
 10
934.502
 20
330.505
 30
0.000000
  70
    32
  0
VERTEX
  8
AM_0
  5
15999
 10
934.322
 20
330.377
 30
0.000000
  70
    32
  0
VERTEX
  8
AM_0
  5
1599A
 10
934.135
 20
330.259
 30
0.000000
  70
    32
  0
VERTEX
  8
AM_0
  5
1599B
 10
933.943
 20
330.150
 30
0.000000
  70
    32
  0
VERTEX
  8
AM_0
  5
1599C
 10
933.745
 20
330.051
 30
0.000000
  70
    32
  0
VERTEX
  8
AM_0
  5
1599D
 10
933.544
 20
329.962
 30
0.000000
  70
    32
  0
VERTEX
  8
AM_0
  5
1599E
 10
933.337
 20
329.882
 30
0.000000
  70
    32
  0
VERTEX
  8
AM_0
  5
1599F
 10
933.128
 20
329.813
 30
0.000000
  70
    32
  0
VERTEX
  8
AM_0
  5
159A0
 10
932.915
 20
329.754
 30
0.000000
  70
    32
  0
VERTEX
  8
AM_0
  5
159A1
 10
932.699
 20
329.705
 30
0.000000
  70
    32
  0
VERTEX
  8
AM_0
  5
159A2
 10
932.482
 20
329.668
 30
0.000000
  70
    32
  0
VERTEX
  8
AM_0
  5
159A3
 10
932.263
 20
329.641
 30
0.000000
  70
    32
  0
VERTEX
  8
AM_0
  5
159A4
 10
932.042
 20
329.624
 30
0.000000
  70
    32
  0
VERTEX
  8
AM_0
  5
159A5
 10
931.821
 20
329.619
 30
0.000000
  70
    32
  0
VERTEX
  8
AM_0
  5
159A6
 10
931.601
 20
329.624
 30
0.000000
  70
    32
  0
VERTEX
  8
AM_0
  5
159A7
 10
931.380
 20
329.641
 30
0.000000
  70
    32
  0
VERTEX
  8
AM_0
  5
159A8
 10
931.161
 20
329.668
 30
0.000000
  70
    32
  0
VERTEX
  8
AM_0
  5
159A9
 10
930.944
 20
329.705
 30
0.000000
  70
    32
  0
VERTEX
  8
AM_0
  5
159AA
 10
930.728
 20
329.754
 30
0.000000
  70
    32
  0
VERTEX
  8
AM_0
  5
159AB
 10
930.515
 20
329.813
 30
0.000000
  70
    32
  0
VERTEX
  8
AM_0
  5
159AC
 10
930.305
 20
329.882
 30
0.000000
  70
    32
  0
VERTEX
  8
AM_0
  5
159AD
 10
930.099
 20
329.962
 30
0.000000
  70
    32
  0
VERTEX
  8
AM_0
  5
159AE
 10
929.897
 20
330.051
 30
0.000000
  70
    32
  0
VERTEX
  8
AM_0
  5
159AF
 10
929.700
 20
330.150
 30
0.000000
  70
    32
  0
VERTEX
  8
AM_0
  5
159B0
 10
929.508
 20
330.259
 30
0.000000
  70
    32
  0
VERTEX
  8
AM_0
  5
159B1
 10
929.321
 20
330.377
 30
0.000000
  70
    32
  0
VERTEX
  8
AM_0
  5
159B2
 10
929.141
 20
330.505
 30
0.000000
  70
    32
  0
VERTEX
  8
AM_0
  5
159B3
 10
928.967
 20
330.640
 30
0.000000
  70
    32
  0
VERTEX
  8
AM_0
  5
159B4
 10
928.799
 20
330.785
 30
0.000000
  70
    32
  0
VERTEX
  8
AM_0
  5
159B5
 10
928.639
 20
330.937
 30
0.000000
  70
    32
  0
VERTEX
  8
AM_0
  5
159B6
 10
928.487
 20
331.097
 30
0.000000
  70
    32
  0
VERTEX
  8
AM_0
  5
159B7
 10
928.343
 20
331.264
 30
0.000000
  70
    32
  0
VERTEX
  8
AM_0
  5
159B8
 10
928.207
 20
331.438
 30
0.000000
  70
    32
  0
VERTEX
  8
AM_0
  5
159B9
 10
928.080
 20
331.619
 30
0.000000
  70
    32
  0
VERTEX
  8
AM_0
  5
159BA
 10
927.962
 20
331.806
 30
0.000000
  70
    32
  0
VERTEX
  8
AM_0
  5
159BB
 10
927.853
 20
331.998
 30
0.000000
  70
    32
  0
VERTEX
  8
AM_0
  5
159BC
 10
927.753
 20
332.195
 30
0.000000
  70
    32
  0
VERTEX
  8
AM_0
  5
159BD
 10
927.664
 20
332.397
 30
0.000000
  70
    32
  0
VERTEX
  8
AM_0
  5
159BE
 10
927.584
 20
332.603
 30
0.000000
  70
    32
  0
VERTEX
  8
AM_0
  5
159BF
 10
927.515
 20
332.813
 30
0.000000
  70
    32
  0
VERTEX
  8
AM_0
  5
159C0
 10
927.456
 20
333.026
 30
0.000000
  70
    32
  0
VERTEX
  8
AM_0
  5
159C1
 10
927.408
 20
333.241
 30
0.000000
  70
    32
  0
VERTEX
  8
AM_0
  5
159C2
 10
927.370
 20
333.459
 30
0.000000
  70
    32
  0
VERTEX
  8
AM_0
  5
159C3
 10
927.343
 20
333.678
 30
0.000000
  70
    32
  0
VERTEX
  8
AM_0
  5
159C4
 10
927.327
 20
333.898
 30
0.000000
  70
    32
  0
VERTEX
  8
AM_0
  5
159C5
 10
927.321
 20
334.119
 30
0.000000
  70
    32
  0
SEQEND
  8
AM_0
  5
159C6
  0
POLYLINE
  5
14FBF
  8
AM_0
 10
932.32144630372864
 20
344.61885448582382
 30
0.0
 66
     1
 70
     8
  0
VERTEX
  8
AM_0
  5
159C7
 10
932.321
 20
344.619
 30
0.000000
  70
    32
  0
VERTEX
  8
AM_0
  5
159C8
 10
932.444
 20
344.618
 30
0.000000
  70
    32
  0
VERTEX
  8
AM_0
  5
159C9
 10
932.567
 20
344.616
 30
0.000000
  70
    32
  0
VERTEX
  8
AM_0
  5
159CA
 10
932.690
 20
344.612
 30
0.000000
  70
    32
  0
VERTEX
  8
AM_0
  5
159CB
 10
932.812
 20
344.607
 30
0.000000
  70
    32
  0
VERTEX
  8
AM_0
  5
159CC
 10
932.935
 20
344.600
 30
0.000000
  70
    32
  0
VERTEX
  8
AM_0
  5
159CD
 10
933.057
 20
344.592
 30
0.000000
  70
    32
  0
VERTEX
  8
AM_0
  5
159CE
 10
933.179
 20
344.582
 30
0.000000
  70
    32
  0
VERTEX
  8
AM_0
  5
159CF
 10
933.302
 20
344.571
 30
0.000000
  70
    32
  0
VERTEX
  8
AM_0
  5
159D0
 10
933.424
 20
344.558
 30
0.000000
  70
    32
  0
VERTEX
  8
AM_0
  5
159D1
 10
933.546
 20
344.544
 30
0.000000
  70
    32
  0
VERTEX
  8
AM_0
  5
159D2
 10
933.667
 20
344.528
 30
0.000000
  70
    32
  0
VERTEX
  8
AM_0
  5
159D3
 10
933.789
 20
344.511
 30
0.000000
  70
    32
  0
VERTEX
  8
AM_0
  5
159D4
 10
933.910
 20
344.492
 30
0.000000
  70
    32
  0
VERTEX
  8
AM_0
  5
159D5
 10
934.031
 20
344.472
 30
0.000000
  70
    32
  0
VERTEX
  8
AM_0
  5
159D6
 10
934.152
 20
344.450
 30
0.000000
  70
    32
  0
VERTEX
  8
AM_0
  5
159D7
 10
934.272
 20
344.427
 30
0.000000
  70
    32
  0
VERTEX
  8
AM_0
  5
159D8
 10
934.393
 20
344.402
 30
0.000000
  70
    32
  0
VERTEX
  8
AM_0
  5
159D9
 10
934.512
 20
344.376
 30
0.000000
  70
    32
  0
VERTEX
  8
AM_0
  5
159DA
 10
934.632
 20
344.348
 30
0.000000
  70
    32
  0
VERTEX
  8
AM_0
  5
159DB
 10
934.751
 20
344.319
 30
0.000000
  70
    32
  0
VERTEX
  8
AM_0
  5
159DC
 10
934.870
 20
344.289
 30
0.000000
  70
    32
  0
VERTEX
  8
AM_0
  5
159DD
 10
934.989
 20
344.257
 30
0.000000
  70
    32
  0
VERTEX
  8
AM_0
  5
159DE
 10
935.107
 20
344.223
 30
0.000000
  70
    32
  0
VERTEX
  8
AM_0
  5
159DF
 10
935.224
 20
344.188
 30
0.000000
  70
    32
  0
VERTEX
  8
AM_0
  5
159E0
 10
935.342
 20
344.152
 30
0.000000
  70
    32
  0
VERTEX
  8
AM_0
  5
159E1
 10
935.458
 20
344.114
 30
0.000000
  70
    32
  0
VERTEX
  8
AM_0
  5
159E2
 10
935.575
 20
344.075
 30
0.000000
  70
    32
  0
VERTEX
  8
AM_0
  5
159E3
 10
935.690
 20
344.034
 30
0.000000
  70
    32
  0
VERTEX
  8
AM_0
  5
159E4
 10
935.806
 20
343.992
 30
0.000000
  70
    32
  0
VERTEX
  8
AM_0
  5
159E5
 10
935.920
 20
343.949
 30
0.000000
  70
    32
  0
VERTEX
  8
AM_0
  5
159E6
 10
936.035
 20
343.904
 30
0.000000
  70
    32
  0
VERTEX
  8
AM_0
  5
159E7
 10
936.148
 20
343.858
 30
0.000000
  70
    32
  0
VERTEX
  8
AM_0
  5
159E8
 10
936.261
 20
343.810
 30
0.000000
  70
    32
  0
VERTEX
  8
AM_0
  5
159E9
 10
936.374
 20
343.761
 30
0.000000
  70
    32
  0
VERTEX
  8
AM_0
  5
159EA
 10
936.486
 20
343.711
 30
0.000000
  70
    32
  0
VERTEX
  8
AM_0
  5
159EB
 10
936.597
 20
343.659
 30
0.000000
  70
    32
  0
VERTEX
  8
AM_0
  5
159EC
 10
936.708
 20
343.606
 30
0.000000
  70
    32
  0
VERTEX
  8
AM_0
  5
159ED
 10
936.818
 20
343.551
 30
0.000000
  70
    32
  0
VERTEX
  8
AM_0
  5
159EE
 10
936.927
 20
343.495
 30
0.000000
  70
    32
  0
VERTEX
  8
AM_0
  5
159EF
 10
937.035
 20
343.438
 30
0.000000
  70
    32
  0
VERTEX
  8
AM_0
  5
159F0
 10
937.143
 20
343.380
 30
0.000000
  70
    32
  0
VERTEX
  8
AM_0
  5
159F1
 10
937.250
 20
343.320
 30
0.000000
  70
    32
  0
VERTEX
  8
AM_0
  5
159F2
 10
937.357
 20
343.259
 30
0.000000
  70
    32
  0
VERTEX
  8
AM_0
  5
159F3
 10
937.462
 20
343.196
 30
0.000000
  70
    32
  0
VERTEX
  8
AM_0
  5
159F4
 10
937.567
 20
343.132
 30
0.000000
  70
    32
  0
VERTEX
  8
AM_0
  5
159F5
 10
937.671
 20
343.067
 30
0.000000
  70
    32
  0
VERTEX
  8
AM_0
  5
159F6
 10
937.775
 20
343.001
 30
0.000000
  70
    32
  0
VERTEX
  8
AM_0
  5
159F7
 10
937.877
 20
342.934
 30
0.000000
  70
    32
  0
VERTEX
  8
AM_0
  5
159F8
 10
937.979
 20
342.865
 30
0.000000
  70
    32
  0
VERTEX
  8
AM_0
  5
159F9
 10
938.080
 20
342.795
 30
0.000000
  70
    32
  0
VERTEX
  8
AM_0
  5
159FA
 10
938.179
 20
342.723
 30
0.000000
  70
    32
  0
VERTEX
  8
AM_0
  5
159FB
 10
938.278
 20
342.651
 30
0.000000
  70
    32
  0
VERTEX
  8
AM_0
  5
159FC
 10
938.377
 20
342.577
 30
0.000000
  70
    32
  0
VERTEX
  8
AM_0
  5
159FD
 10
938.474
 20
342.502
 30
0.000000
  70
    32
  0
VERTEX
  8
AM_0
  5
159FE
 10
938.570
 20
342.426
 30
0.000000
  70
    32
  0
VERTEX
  8
AM_0
  5
159FF
 10
938.665
 20
342.349
 30
0.000000
  70
    32
  0
VERTEX
  8
AM_0
  5
15A00
 10
938.760
 20
342.271
 30
0.000000
  70
    32
  0
VERTEX
  8
AM_0
  5
15A01
 10
938.853
 20
342.191
 30
0.000000
  70
    32
  0
VERTEX
  8
AM_0
  5
15A02
 10
938.946
 20
342.110
 30
0.000000
  70
    32
  0
VERTEX
  8
AM_0
  5
15A03
 10
939.037
 20
342.028
 30
0.000000
  70
    32
  0
VERTEX
  8
AM_0
  5
15A04
 10
939.127
 20
341.945
 30
0.000000
  70
    32
  0
VERTEX
  8
AM_0
  5
15A05
 10
939.217
 20
341.861
 30
0.000000
  70
    32
  0
VERTEX
  8
AM_0
  5
15A06
 10
939.305
 20
341.776
 30
0.000000
  70
    32
  0
VERTEX
  8
AM_0
  5
15A07
 10
939.393
 20
341.690
 30
0.000000
  70
    32
  0
VERTEX
  8
AM_0
  5
15A08
 10
939.479
 20
341.603
 30
0.000000
  70
    32
  0
VERTEX
  8
AM_0
  5
15A09
 10
939.564
 20
341.514
 30
0.000000
  70
    32
  0
VERTEX
  8
AM_0
  5
15A0A
 10
939.648
 20
341.425
 30
0.000000
  70
    32
  0
VERTEX
  8
AM_0
  5
15A0B
 10
939.731
 20
341.334
 30
0.000000
  70
    32
  0
VERTEX
  8
AM_0
  5
15A0C
 10
939.813
 20
341.243
 30
0.000000
  70
    32
  0
VERTEX
  8
AM_0
  5
15A0D
 10
939.894
 20
341.151
 30
0.000000
  70
    32
  0
VERTEX
  8
AM_0
  5
15A0E
 10
939.973
 20
341.057
 30
0.000000
  70
    32
  0
VERTEX
  8
AM_0
  5
15A0F
 10
940.052
 20
340.963
 30
0.000000
  70
    32
  0
VERTEX
  8
AM_0
  5
15A10
 10
940.129
 20
340.867
 30
0.000000
  70
    32
  0
VERTEX
  8
AM_0
  5
15A11
 10
940.205
 20
340.771
 30
0.000000
  70
    32
  0
VERTEX
  8
AM_0
  5
15A12
 10
940.280
 20
340.674
 30
0.000000
  70
    32
  0
VERTEX
  8
AM_0
  5
15A13
 10
940.354
 20
340.576
 30
0.000000
  70
    32
  0
VERTEX
  8
AM_0
  5
15A14
 10
940.426
 20
340.477
 30
0.000000
  70
    32
  0
VERTEX
  8
AM_0
  5
15A15
 10
940.497
 20
340.377
 30
0.000000
  70
    32
  0
VERTEX
  8
AM_0
  5
15A16
 10
940.567
 20
340.276
 30
0.000000
  70
    32
  0
VERTEX
  8
AM_0
  5
15A17
 10
940.636
 20
340.175
 30
0.000000
  70
    32
  0
VERTEX
  8
AM_0
  5
15A18
 10
940.704
 20
340.072
 30
0.000000
  70
    32
  0
VERTEX
  8
AM_0
  5
15A19
 10
940.770
 20
339.969
 30
0.000000
  70
    32
  0
VERTEX
  8
AM_0
  5
15A1A
 10
940.835
 20
339.865
 30
0.000000
  70
    32
  0
VERTEX
  8
AM_0
  5
15A1B
 10
940.899
 20
339.760
 30
0.000000
  70
    32
  0
VERTEX
  8
AM_0
  5
15A1C
 10
940.961
 20
339.654
 30
0.000000
  70
    32
  0
VERTEX
  8
AM_0
  5
15A1D
 10
941.022
 20
339.548
 30
0.000000
  70
    32
  0
VERTEX
  8
AM_0
  5
15A1E
 10
941.082
 20
339.441
 30
0.000000
  70
    32
  0
VERTEX
  8
AM_0
  5
15A1F
 10
941.141
 20
339.333
 30
0.000000
  70
    32
  0
VERTEX
  8
AM_0
  5
15A20
 10
941.198
 20
339.224
 30
0.000000
  70
    32
  0
VERTEX
  8
AM_0
  5
15A21
 10
941.254
 20
339.115
 30
0.000000
  70
    32
  0
VERTEX
  8
AM_0
  5
15A22
 10
941.308
 20
339.005
 30
0.000000
  70
    32
  0
VERTEX
  8
AM_0
  5
15A23
 10
941.361
 20
338.894
 30
0.000000
  70
    32
  0
VERTEX
  8
AM_0
  5
15A24
 10
941.413
 20
338.783
 30
0.000000
  70
    32
  0
VERTEX
  8
AM_0
  5
15A25
 10
941.464
 20
338.671
 30
0.000000
  70
    32
  0
VERTEX
  8
AM_0
  5
15A26
 10
941.513
 20
338.559
 30
0.000000
  70
    32
  0
VERTEX
  8
AM_0
  5
15A27
 10
941.560
 20
338.446
 30
0.000000
  70
    32
  0
VERTEX
  8
AM_0
  5
15A28
 10
941.607
 20
338.332
 30
0.000000
  70
    32
  0
VERTEX
  8
AM_0
  5
15A29
 10
941.651
 20
338.218
 30
0.000000
  70
    32
  0
VERTEX
  8
AM_0
  5
15A2A
 10
941.695
 20
338.103
 30
0.000000
  70
    32
  0
VERTEX
  8
AM_0
  5
15A2B
 10
941.737
 20
337.988
 30
0.000000
  70
    32
  0
VERTEX
  8
AM_0
  5
15A2C
 10
941.778
 20
337.872
 30
0.000000
  70
    32
  0
VERTEX
  8
AM_0
  5
15A2D
 10
941.817
 20
337.756
 30
0.000000
  70
    32
  0
VERTEX
  8
AM_0
  5
15A2E
 10
941.855
 20
337.639
 30
0.000000
  70
    32
  0
VERTEX
  8
AM_0
  5
15A2F
 10
941.891
 20
337.522
 30
0.000000
  70
    32
  0
VERTEX
  8
AM_0
  5
15A30
 10
941.926
 20
337.404
 30
0.000000
  70
    32
  0
VERTEX
  8
AM_0
  5
15A31
 10
941.959
 20
337.286
 30
0.000000
  70
    32
  0
VERTEX
  8
AM_0
  5
15A32
 10
941.991
 20
337.168
 30
0.000000
  70
    32
  0
VERTEX
  8
AM_0
  5
15A33
 10
942.022
 20
337.049
 30
0.000000
  70
    32
  0
VERTEX
  8
AM_0
  5
15A34
 10
942.051
 20
336.930
 30
0.000000
  70
    32
  0
VERTEX
  8
AM_0
  5
15A35
 10
942.078
 20
336.810
 30
0.000000
  70
    32
  0
VERTEX
  8
AM_0
  5
15A36
 10
942.105
 20
336.690
 30
0.000000
  70
    32
  0
VERTEX
  8
AM_0
  5
15A37
 10
942.129
 20
336.570
 30
0.000000
  70
    32
  0
VERTEX
  8
AM_0
  5
15A38
 10
942.153
 20
336.449
 30
0.000000
  70
    32
  0
VERTEX
  8
AM_0
  5
15A39
 10
942.174
 20
336.329
 30
0.000000
  70
    32
  0
VERTEX
  8
AM_0
  5
15A3A
 10
942.194
 20
336.208
 30
0.000000
  70
    32
  0
VERTEX
  8
AM_0
  5
15A3B
 10
942.213
 20
336.086
 30
0.000000
  70
    32
  0
VERTEX
  8
AM_0
  5
15A3C
 10
942.230
 20
335.965
 30
0.000000
  70
    32
  0
VERTEX
  8
AM_0
  5
15A3D
 10
942.246
 20
335.843
 30
0.000000
  70
    32
  0
VERTEX
  8
AM_0
  5
15A3E
 10
942.261
 20
335.721
 30
0.000000
  70
    32
  0
VERTEX
  8
AM_0
  5
15A3F
 10
942.273
 20
335.599
 30
0.000000
  70
    32
  0
VERTEX
  8
AM_0
  5
15A40
 10
942.285
 20
335.477
 30
0.000000
  70
    32
  0
VERTEX
  8
AM_0
  5
15A41
 10
942.294
 20
335.355
 30
0.000000
  70
    32
  0
VERTEX
  8
AM_0
  5
15A42
 10
942.303
 20
335.232
 30
0.000000
  70
    32
  0
VERTEX
  8
AM_0
  5
15A43
 10
942.309
 20
335.110
 30
0.000000
  70
    32
  0
VERTEX
  8
AM_0
  5
15A44
 10
942.315
 20
334.987
 30
0.000000
  70
    32
  0
VERTEX
  8
AM_0
  5
15A45
 10
942.318
 20
334.864
 30
0.000000
  70
    32
  0
VERTEX
  8
AM_0
  5
15A46
 10
942.321
 20
334.742
 30
0.000000
  70
    32
  0
VERTEX
  8
AM_0
  5
15A47
 10
942.321
 20
334.619
 30
0.000000
  70
    32
  0
SEQEND
  8
AM_0
  5
15A48
  0
LINE
  5
14FC3
  8
AM_0
 10
788.32147209266134
 20
334.61895418780358
 30
0.0
 11
788.321472092661
 21
199.61994769771729
 31
0.0
  0
LINE
  5
14FC4
  8
ﾁｭｳｼﾝｾﾝ1
 10
817.8214738062951
 20
214.11994769771721
 30
0.0
 11
817.8214738062951
 21
189.61994769771729
 31
0.0
  0
CIRCLE
  5
14FC5
  8
AM_0
 10
798.82147240558561
 20
235.11994622250231
 30
0.0
 40
7.9999999999999956
  0
ARC
  5
14FC7
  8
AM_0
 10
793.321472092661
 20
241.61994622250219
 30
0.0
 40
5.0
 50
90.0
 51
180.0
1001
GENIUS_GENOBJ-N-FIL_13
1002
{
1000
OWNER
1000
GEN
1002
}
1001
GENIUS_GENODEF_13
1002
{
1000
HIER
1070
     0
1002
}
1002
{
1000
MANEDIT
1070
     0
1002
}
1002
{
1000
NOSEL
1070
     0
1002
}
1002
{
1000
BEHIND
1070
     0
1002
}
1002
{
1000
OTHER
1070
     0
1002
}
1002
{
1000
REACTOR
1002
}
  0
LINE
  5
14FC8
  8
ｶｸﾚｾﾝ2
 10
812.82147380629522
 20
199.61994769771729
 30
0.0
 11
812.82147380629522
 21
204.11994769771729
 31
0.0
  0
POLYLINE
  5
14FCE
  8
AM_0
 10
794.32147227147516
 20
334.11895917290252
 30
0.0
 66
     1
 70
     8
  0
VERTEX
  8
AM_0
  5
15A49
 10
794.321
 20
334.119
 30
0.000000
  70
    32
  0
VERTEX
  8
AM_0
  5
15A4A
 10
794.327
 20
334.340
 30
0.000000
  70
    32
  0
VERTEX
  8
AM_0
  5
15A4B
 10
794.343
 20
334.560
 30
0.000000
  70
    32
  0
VERTEX
  8
AM_0
  5
15A4C
 10
794.370
 20
334.779
 30
0.000000
  70
    32
  0
VERTEX
  8
AM_0
  5
15A4D
 10
794.408
 20
334.997
 30
0.000000
  70
    32
  0
VERTEX
  8
AM_0
  5
15A4E
 10
794.456
 20
335.212
 30
0.000000
  70
    32
  0
VERTEX
  8
AM_0
  5
15A4F
 10
794.515
 20
335.425
 30
0.000000
  70
    32
  0
VERTEX
  8
AM_0
  5
15A50
 10
794.585
 20
335.635
 30
0.000000
  70
    32
  0
VERTEX
  8
AM_0
  5
15A51
 10
794.664
 20
335.841
 30
0.000000
  70
    32
  0
VERTEX
  8
AM_0
  5
15A52
 10
794.754
 20
336.043
 30
0.000000
  70
    32
  0
VERTEX
  8
AM_0
  5
15A53
 10
794.853
 20
336.240
 30
0.000000
  70
    32
  0
VERTEX
  8
AM_0
  5
15A54
 10
794.962
 20
336.432
 30
0.000000
  70
    32
  0
VERTEX
  8
AM_0
  5
15A55
 10
795.080
 20
336.619
 30
0.000000
  70
    32
  0
VERTEX
  8
AM_0
  5
15A56
 10
795.207
 20
336.800
 30
0.000000
  70
    32
  0
VERTEX
  8
AM_0
  5
15A57
 10
795.343
 20
336.974
 30
0.000000
  70
    32
  0
VERTEX
  8
AM_0
  5
15A58
 10
795.487
 20
337.141
 30
0.000000
  70
    32
  0
VERTEX
  8
AM_0
  5
15A59
 10
795.639
 20
337.301
 30
0.000000
  70
    32
  0
VERTEX
  8
AM_0
  5
15A5A
 10
795.799
 20
337.453
 30
0.000000
  70
    32
  0
VERTEX
  8
AM_0
  5
15A5B
 10
795.967
 20
337.597
 30
0.000000
  70
    32
  0
VERTEX
  8
AM_0
  5
15A5C
 10
796.141
 20
337.733
 30
0.000000
  70
    32
  0
VERTEX
  8
AM_0
  5
15A5D
 10
796.321
 20
337.861
 30
0.000000
  70
    32
  0
VERTEX
  8
AM_0
  5
15A5E
 10
796.508
 20
337.979
 30
0.000000
  70
    32
  0
VERTEX
  8
AM_0
  5
15A5F
 10
796.700
 20
338.088
 30
0.000000
  70
    32
  0
VERTEX
  8
AM_0
  5
15A60
 10
796.897
 20
338.187
 30
0.000000
  70
    32
  0
VERTEX
  8
AM_0
  5
15A61
 10
797.099
 20
338.276
 30
0.000000
  70
    32
  0
VERTEX
  8
AM_0
  5
15A62
 10
797.305
 20
338.356
 30
0.000000
  70
    32
  0
VERTEX
  8
AM_0
  5
15A63
 10
797.515
 20
338.425
 30
0.000000
  70
    32
  0
VERTEX
  8
AM_0
  5
15A64
 10
797.728
 20
338.484
 30
0.000000
  70
    32
  0
VERTEX
  8
AM_0
  5
15A65
 10
797.944
 20
338.532
 30
0.000000
  70
    32
  0
VERTEX
  8
AM_0
  5
15A66
 10
798.161
 20
338.570
 30
0.000000
  70
    32
  0
VERTEX
  8
AM_0
  5
15A67
 10
798.380
 20
338.597
 30
0.000000
  70
    32
  0
VERTEX
  8
AM_0
  5
15A68
 10
798.601
 20
338.613
 30
0.000000
  70
    32
  0
VERTEX
  8
AM_0
  5
15A69
 10
798.821
 20
338.619
 30
0.000000
  70
    32
  0
VERTEX
  8
AM_0
  5
15A6A
 10
799.042
 20
338.613
 30
0.000000
  70
    32
  0
VERTEX
  8
AM_0
  5
15A6B
 10
799.263
 20
338.597
 30
0.000000
  70
    32
  0
VERTEX
  8
AM_0
  5
15A6C
 10
799.482
 20
338.570
 30
0.000000
  70
    32
  0
VERTEX
  8
AM_0
  5
15A6D
 10
799.699
 20
338.532
 30
0.000000
  70
    32
  0
VERTEX
  8
AM_0
  5
15A6E
 10
799.915
 20
338.484
 30
0.000000
  70
    32
  0
VERTEX
  8
AM_0
  5
15A6F
 10
800.128
 20
338.425
 30
0.000000
  70
    32
  0
VERTEX
  8
AM_0
  5
15A70
 10
800.337
 20
338.356
 30
0.000000
  70
    32
  0
VERTEX
  8
AM_0
  5
15A71
 10
800.544
 20
338.276
 30
0.000000
  70
    32
  0
VERTEX
  8
AM_0
  5
15A72
 10
800.745
 20
338.187
 30
0.000000
  70
    32
  0
VERTEX
  8
AM_0
  5
15A73
 10
800.943
 20
338.088
 30
0.000000
  70
    32
  0
VERTEX
  8
AM_0
  5
15A74
 10
801.135
 20
337.979
 30
0.000000
  70
    32
  0
VERTEX
  8
AM_0
  5
15A75
 10
801.322
 20
337.861
 30
0.000000
  70
    32
  0
VERTEX
  8
AM_0
  5
15A76
 10
801.502
 20
337.733
 30
0.000000
  70
    32
  0
VERTEX
  8
AM_0
  5
15A77
 10
801.676
 20
337.597
 30
0.000000
  70
    32
  0
VERTEX
  8
AM_0
  5
15A78
 10
801.843
 20
337.453
 30
0.000000
  70
    32
  0
VERTEX
  8
AM_0
  5
15A79
 10
802.003
 20
337.301
 30
0.000000
  70
    32
  0
VERTEX
  8
AM_0
  5
15A7A
 10
802.156
 20
337.141
 30
0.000000
  70
    32
  0
VERTEX
  8
AM_0
  5
15A7B
 10
802.300
 20
336.974
 30
0.000000
  70
    32
  0
VERTEX
  8
AM_0
  5
15A7C
 10
802.436
 20
336.800
 30
0.000000
  70
    32
  0
VERTEX
  8
AM_0
  5
15A7D
 10
802.563
 20
336.619
 30
0.000000
  70
    32
  0
VERTEX
  8
AM_0
  5
15A7E
 10
802.681
 20
336.432
 30
0.000000
  70
    32
  0
VERTEX
  8
AM_0
  5
15A7F
 10
802.790
 20
336.240
 30
0.000000
  70
    32
  0
VERTEX
  8
AM_0
  5
15A80
 10
802.889
 20
336.043
 30
0.000000
  70
    32
  0
VERTEX
  8
AM_0
  5
15A81
 10
802.979
 20
335.841
 30
0.000000
  70
    32
  0
VERTEX
  8
AM_0
  5
15A82
 10
803.058
 20
335.635
 30
0.000000
  70
    32
  0
VERTEX
  8
AM_0
  5
15A83
 10
803.128
 20
335.425
 30
0.000000
  70
    32
  0
VERTEX
  8
AM_0
  5
15A84
 10
803.187
 20
335.212
 30
0.000000
  70
    32
  0
VERTEX
  8
AM_0
  5
15A85
 10
803.235
 20
334.997
 30
0.000000
  70
    32
  0
VERTEX
  8
AM_0
  5
15A86
 10
803.273
 20
334.779
 30
0.000000
  70
    32
  0
VERTEX
  8
AM_0
  5
15A87
 10
803.300
 20
334.560
 30
0.000000
  70
    32
  0
VERTEX
  8
AM_0
  5
15A88
 10
803.316
 20
334.340
 30
0.000000
  70
    32
  0
VERTEX
  8
AM_0
  5
15A89
 10
803.321
 20
334.119
 30
0.000000
  70
    32
  0
VERTEX
  8
AM_0
  5
15A8A
 10
803.316
 20
333.898
 30
0.000000
  70
    32
  0
VERTEX
  8
AM_0
  5
15A8B
 10
803.300
 20
333.678
 30
0.000000
  70
    32
  0
VERTEX
  8
AM_0
  5
15A8C
 10
803.273
 20
333.459
 30
0.000000
  70
    32
  0
VERTEX
  8
AM_0
  5
15A8D
 10
803.235
 20
333.241
 30
0.000000
  70
    32
  0
VERTEX
  8
AM_0
  5
15A8E
 10
803.187
 20
333.026
 30
0.000000
  70
    32
  0
VERTEX
  8
AM_0
  5
15A8F
 10
803.128
 20
332.813
 30
0.000000
  70
    32
  0
VERTEX
  8
AM_0
  5
15A90
 10
803.058
 20
332.603
 30
0.000000
  70
    32
  0
VERTEX
  8
AM_0
  5
15A91
 10
802.979
 20
332.397
 30
0.000000
  70
    32
  0
VERTEX
  8
AM_0
  5
15A92
 10
802.889
 20
332.195
 30
0.000000
  70
    32
  0
VERTEX
  8
AM_0
  5
15A93
 10
802.790
 20
331.998
 30
0.000000
  70
    32
  0
VERTEX
  8
AM_0
  5
15A94
 10
802.681
 20
331.806
 30
0.000000
  70
    32
  0
VERTEX
  8
AM_0
  5
15A95
 10
802.563
 20
331.619
 30
0.000000
  70
    32
  0
VERTEX
  8
AM_0
  5
15A96
 10
802.436
 20
331.438
 30
0.000000
  70
    32
  0
VERTEX
  8
AM_0
  5
15A97
 10
802.300
 20
331.264
 30
0.000000
  70
    32
  0
VERTEX
  8
AM_0
  5
15A98
 10
802.156
 20
331.097
 30
0.000000
  70
    32
  0
VERTEX
  8
AM_0
  5
15A99
 10
802.003
 20
330.937
 30
0.000000
  70
    32
  0
VERTEX
  8
AM_0
  5
15A9A
 10
801.843
 20
330.785
 30
0.000000
  70
    32
  0
VERTEX
  8
AM_0
  5
15A9B
 10
801.676
 20
330.640
 30
0.000000
  70
    32
  0
VERTEX
  8
AM_0
  5
15A9C
 10
801.502
 20
330.505
 30
0.000000
  70
    32
  0
VERTEX
  8
AM_0
  5
15A9D
 10
801.322
 20
330.377
 30
0.000000
  70
    32
  0
VERTEX
  8
AM_0
  5
15A9E
 10
801.135
 20
330.259
 30
0.000000
  70
    32
  0
VERTEX
  8
AM_0
  5
15A9F
 10
800.943
 20
330.150
 30
0.000000
  70
    32
  0
VERTEX
  8
AM_0
  5
15AA0
 10
800.745
 20
330.051
 30
0.000000
  70
    32
  0
VERTEX
  8
AM_0
  5
15AA1
 10
800.544
 20
329.962
 30
0.000000
  70
    32
  0
VERTEX
  8
AM_0
  5
15AA2
 10
800.337
 20
329.882
 30
0.000000
  70
    32
  0
VERTEX
  8
AM_0
  5
15AA3
 10
800.128
 20
329.813
 30
0.000000
  70
    32
  0
VERTEX
  8
AM_0
  5
15AA4
 10
799.915
 20
329.754
 30
0.000000
  70
    32
  0
VERTEX
  8
AM_0
  5
15AA5
 10
799.699
 20
329.705
 30
0.000000
  70
    32
  0
VERTEX
  8
AM_0
  5
15AA6
 10
799.482
 20
329.668
 30
0.000000
  70
    32
  0
VERTEX
  8
AM_0
  5
15AA7
 10
799.263
 20
329.641
 30
0.000000
  70
    32
  0
VERTEX
  8
AM_0
  5
15AA8
 10
799.042
 20
329.624
 30
0.000000
  70
    32
  0
VERTEX
  8
AM_0
  5
15AA9
 10
798.821
 20
329.619
 30
0.000000
  70
    32
  0
VERTEX
  8
AM_0
  5
15AAA
 10
798.601
 20
329.624
 30
0.000000
  70
    32
  0
VERTEX
  8
AM_0
  5
15AAB
 10
798.380
 20
329.641
 30
0.000000
  70
    32
  0
VERTEX
  8
AM_0
  5
15AAC
 10
798.161
 20
329.668
 30
0.000000
  70
    32
  0
VERTEX
  8
AM_0
  5
15AAD
 10
797.944
 20
329.705
 30
0.000000
  70
    32
  0
VERTEX
  8
AM_0
  5
15AAE
 10
797.728
 20
329.754
 30
0.000000
  70
    32
  0
VERTEX
  8
AM_0
  5
15AAF
 10
797.515
 20
329.813
 30
0.000000
  70
    32
  0
VERTEX
  8
AM_0
  5
15AB0
 10
797.305
 20
329.882
 30
0.000000
  70
    32
  0
VERTEX
  8
AM_0
  5
15AB1
 10
797.099
 20
329.962
 30
0.000000
  70
    32
  0
VERTEX
  8
AM_0
  5
15AB2
 10
796.897
 20
330.051
 30
0.000000
  70
    32
  0
VERTEX
  8
AM_0
  5
15AB3
 10
796.700
 20
330.150
 30
0.000000
  70
    32
  0
VERTEX
  8
AM_0
  5
15AB4
 10
796.508
 20
330.259
 30
0.000000
  70
    32
  0
VERTEX
  8
AM_0
  5
15AB5
 10
796.321
 20
330.377
 30
0.000000
  70
    32
  0
VERTEX
  8
AM_0
  5
15AB6
 10
796.141
 20
330.505
 30
0.000000
  70
    32
  0
VERTEX
  8
AM_0
  5
15AB7
 10
795.967
 20
330.640
 30
0.000000
  70
    32
  0
VERTEX
  8
AM_0
  5
15AB8
 10
795.799
 20
330.785
 30
0.000000
  70
    32
  0
VERTEX
  8
AM_0
  5
15AB9
 10
795.639
 20
330.937
 30
0.000000
  70
    32
  0
VERTEX
  8
AM_0
  5
15ABA
 10
795.487
 20
331.097
 30
0.000000
  70
    32
  0
VERTEX
  8
AM_0
  5
15ABB
 10
795.343
 20
331.264
 30
0.000000
  70
    32
  0
VERTEX
  8
AM_0
  5
15ABC
 10
795.207
 20
331.438
 30
0.000000
  70
    32
  0
VERTEX
  8
AM_0
  5
15ABD
 10
795.080
 20
331.619
 30
0.000000
  70
    32
  0
VERTEX
  8
AM_0
  5
15ABE
 10
794.962
 20
331.806
 30
0.000000
  70
    32
  0
VERTEX
  8
AM_0
  5
15ABF
 10
794.853
 20
331.998
 30
0.000000
  70
    32
  0
VERTEX
  8
AM_0
  5
15AC0
 10
794.754
 20
332.195
 30
0.000000
  70
    32
  0
VERTEX
  8
AM_0
  5
15AC1
 10
794.664
 20
332.397
 30
0.000000
  70
    32
  0
VERTEX
  8
AM_0
  5
15AC2
 10
794.585
 20
332.603
 30
0.000000
  70
    32
  0
VERTEX
  8
AM_0
  5
15AC3
 10
794.515
 20
332.813
 30
0.000000
  70
    32
  0
VERTEX
  8
AM_0
  5
15AC4
 10
794.456
 20
333.026
 30
0.000000
  70
    32
  0
VERTEX
  8
AM_0
  5
15AC5
 10
794.408
 20
333.241
 30
0.000000
  70
    32
  0
VERTEX
  8
AM_0
  5
15AC6
 10
794.370
 20
333.459
 30
0.000000
  70
    32
  0
VERTEX
  8
AM_0
  5
15AC7
 10
794.343
 20
333.678
 30
0.000000
  70
    32
  0
VERTEX
  8
AM_0
  5
15AC8
 10
794.327
 20
333.898
 30
0.000000
  70
    32
  0
VERTEX
  8
AM_0
  5
15AC9
 10
794.321
 20
334.119
 30
0.000000
  70
    32
  0
SEQEND
  8
AM_0
  5
15ACA
  0
POLYLINE
  5
14FD9
  8
AM_0
 10
788.32147209266122
 20
334.61895418780358
 30
0.0
 66
     1
 70
     8
  0
VERTEX
  8
AM_0
  5
15ACB
 10
788.321
 20
334.619
 30
0.000000
  70
    32
  0
VERTEX
  8
AM_0
  5
15ACC
 10
788.322
 20
334.742
 30
0.000000
  70
    32
  0
VERTEX
  8
AM_0
  5
15ACD
 10
788.324
 20
334.864
 30
0.000000
  70
    32
  0
VERTEX
  8
AM_0
  5
15ACE
 10
788.328
 20
334.987
 30
0.000000
  70
    32
  0
VERTEX
  8
AM_0
  5
15ACF
 10
788.334
 20
335.110
 30
0.000000
  70
    32
  0
VERTEX
  8
AM_0
  5
15AD0
 10
788.340
 20
335.232
 30
0.000000
  70
    32
  0
VERTEX
  8
AM_0
  5
15AD1
 10
788.349
 20
335.355
 30
0.000000
  70
    32
  0
VERTEX
  8
AM_0
  5
15AD2
 10
788.358
 20
335.477
 30
0.000000
  70
    32
  0
VERTEX
  8
AM_0
  5
15AD3
 10
788.370
 20
335.599
 30
0.000000
  70
    32
  0
VERTEX
  8
AM_0
  5
15AD4
 10
788.382
 20
335.721
 30
0.000000
  70
    32
  0
VERTEX
  8
AM_0
  5
15AD5
 10
788.397
 20
335.843
 30
0.000000
  70
    32
  0
VERTEX
  8
AM_0
  5
15AD6
 10
788.412
 20
335.965
 30
0.000000
  70
    32
  0
VERTEX
  8
AM_0
  5
15AD7
 10
788.430
 20
336.086
 30
0.000000
  70
    32
  0
VERTEX
  8
AM_0
  5
15AD8
 10
788.448
 20
336.208
 30
0.000000
  70
    32
  0
VERTEX
  8
AM_0
  5
15AD9
 10
788.469
 20
336.329
 30
0.000000
  70
    32
  0
VERTEX
  8
AM_0
  5
15ADA
 10
788.490
 20
336.449
 30
0.000000
  70
    32
  0
VERTEX
  8
AM_0
  5
15ADB
 10
788.514
 20
336.570
 30
0.000000
  70
    32
  0
VERTEX
  8
AM_0
  5
15ADC
 10
788.538
 20
336.690
 30
0.000000
  70
    32
  0
VERTEX
  8
AM_0
  5
15ADD
 10
788.564
 20
336.810
 30
0.000000
  70
    32
  0
VERTEX
  8
AM_0
  5
15ADE
 10
788.592
 20
336.930
 30
0.000000
  70
    32
  0
VERTEX
  8
AM_0
  5
15ADF
 10
788.621
 20
337.049
 30
0.000000
  70
    32
  0
VERTEX
  8
AM_0
  5
15AE0
 10
788.652
 20
337.168
 30
0.000000
  70
    32
  0
VERTEX
  8
AM_0
  5
15AE1
 10
788.684
 20
337.286
 30
0.000000
  70
    32
  0
VERTEX
  8
AM_0
  5
15AE2
 10
788.717
 20
337.404
 30
0.000000
  70
    32
  0
VERTEX
  8
AM_0
  5
15AE3
 10
788.752
 20
337.522
 30
0.000000
  70
    32
  0
VERTEX
  8
AM_0
  5
15AE4
 10
788.788
 20
337.639
 30
0.000000
  70
    32
  0
VERTEX
  8
AM_0
  5
15AE5
 10
788.826
 20
337.756
 30
0.000000
  70
    32
  0
VERTEX
  8
AM_0
  5
15AE6
 10
788.865
 20
337.872
 30
0.000000
  70
    32
  0
VERTEX
  8
AM_0
  5
15AE7
 10
788.906
 20
337.988
 30
0.000000
  70
    32
  0
VERTEX
  8
AM_0
  5
15AE8
 10
788.948
 20
338.103
 30
0.000000
  70
    32
  0
VERTEX
  8
AM_0
  5
15AE9
 10
788.992
 20
338.218
 30
0.000000
  70
    32
  0
VERTEX
  8
AM_0
  5
15AEA
 10
789.036
 20
338.332
 30
0.000000
  70
    32
  0
VERTEX
  8
AM_0
  5
15AEB
 10
789.083
 20
338.446
 30
0.000000
  70
    32
  0
VERTEX
  8
AM_0
  5
15AEC
 10
789.130
 20
338.559
 30
0.000000
  70
    32
  0
VERTEX
  8
AM_0
  5
15AED
 10
789.179
 20
338.671
 30
0.000000
  70
    32
  0
VERTEX
  8
AM_0
  5
15AEE
 10
789.230
 20
338.783
 30
0.000000
  70
    32
  0
VERTEX
  8
AM_0
  5
15AEF
 10
789.282
 20
338.894
 30
0.000000
  70
    32
  0
VERTEX
  8
AM_0
  5
15AF0
 10
789.335
 20
339.005
 30
0.000000
  70
    32
  0
VERTEX
  8
AM_0
  5
15AF1
 10
789.389
 20
339.115
 30
0.000000
  70
    32
  0
VERTEX
  8
AM_0
  5
15AF2
 10
789.445
 20
339.224
 30
0.000000
  70
    32
  0
VERTEX
  8
AM_0
  5
15AF3
 10
789.502
 20
339.333
 30
0.000000
  70
    32
  0
VERTEX
  8
AM_0
  5
15AF4
 10
789.561
 20
339.441
 30
0.000000
  70
    32
  0
VERTEX
  8
AM_0
  5
15AF5
 10
789.621
 20
339.548
 30
0.000000
  70
    32
  0
VERTEX
  8
AM_0
  5
15AF6
 10
789.682
 20
339.654
 30
0.000000
  70
    32
  0
VERTEX
  8
AM_0
  5
15AF7
 10
789.744
 20
339.760
 30
0.000000
  70
    32
  0
VERTEX
  8
AM_0
  5
15AF8
 10
789.808
 20
339.865
 30
0.000000
  70
    32
  0
VERTEX
  8
AM_0
  5
15AF9
 10
789.873
 20
339.969
 30
0.000000
  70
    32
  0
VERTEX
  8
AM_0
  5
15AFA
 10
789.939
 20
340.072
 30
0.000000
  70
    32
  0
VERTEX
  8
AM_0
  5
15AFB
 10
790.007
 20
340.175
 30
0.000000
  70
    32
  0
VERTEX
  8
AM_0
  5
15AFC
 10
790.076
 20
340.276
 30
0.000000
  70
    32
  0
VERTEX
  8
AM_0
  5
15AFD
 10
790.146
 20
340.377
 30
0.000000
  70
    32
  0
VERTEX
  8
AM_0
  5
15AFE
 10
790.217
 20
340.477
 30
0.000000
  70
    32
  0
VERTEX
  8
AM_0
  5
15AFF
 10
790.289
 20
340.576
 30
0.000000
  70
    32
  0
VERTEX
  8
AM_0
  5
15B00
 10
790.363
 20
340.674
 30
0.000000
  70
    32
  0
VERTEX
  8
AM_0
  5
15B01
 10
790.438
 20
340.771
 30
0.000000
  70
    32
  0
VERTEX
  8
AM_0
  5
15B02
 10
790.514
 20
340.867
 30
0.000000
  70
    32
  0
VERTEX
  8
AM_0
  5
15B03
 10
790.591
 20
340.963
 30
0.000000
  70
    32
  0
VERTEX
  8
AM_0
  5
15B04
 10
790.670
 20
341.057
 30
0.000000
  70
    32
  0
VERTEX
  8
AM_0
  5
15B05
 10
790.749
 20
341.151
 30
0.000000
  70
    32
  0
VERTEX
  8
AM_0
  5
15B06
 10
790.830
 20
341.243
 30
0.000000
  70
    32
  0
VERTEX
  8
AM_0
  5
15B07
 10
790.912
 20
341.334
 30
0.000000
  70
    32
  0
VERTEX
  8
AM_0
  5
15B08
 10
790.995
 20
341.425
 30
0.000000
  70
    32
  0
VERTEX
  8
AM_0
  5
15B09
 10
791.079
 20
341.514
 30
0.000000
  70
    32
  0
VERTEX
  8
AM_0
  5
15B0A
 10
791.164
 20
341.603
 30
0.000000
  70
    32
  0
VERTEX
  8
AM_0
  5
15B0B
 10
791.250
 20
341.690
 30
0.000000
  70
    32
  0
VERTEX
  8
AM_0
  5
15B0C
 10
791.338
 20
341.776
 30
0.000000
  70
    32
  0
VERTEX
  8
AM_0
  5
15B0D
 10
791.426
 20
341.861
 30
0.000000
  70
    32
  0
VERTEX
  8
AM_0
  5
15B0E
 10
791.515
 20
341.945
 30
0.000000
  70
    32
  0
VERTEX
  8
AM_0
  5
15B0F
 10
791.606
 20
342.028
 30
0.000000
  70
    32
  0
VERTEX
  8
AM_0
  5
15B10
 10
791.697
 20
342.110
 30
0.000000
  70
    32
  0
VERTEX
  8
AM_0
  5
15B11
 10
791.790
 20
342.191
 30
0.000000
  70
    32
  0
VERTEX
  8
AM_0
  5
15B12
 10
791.883
 20
342.271
 30
0.000000
  70
    32
  0
VERTEX
  8
AM_0
  5
15B13
 10
791.978
 20
342.349
 30
0.000000
  70
    32
  0
VERTEX
  8
AM_0
  5
15B14
 10
792.073
 20
342.426
 30
0.000000
  70
    32
  0
VERTEX
  8
AM_0
  5
15B15
 10
792.169
 20
342.502
 30
0.000000
  70
    32
  0
VERTEX
  8
AM_0
  5
15B16
 10
792.266
 20
342.577
 30
0.000000
  70
    32
  0
VERTEX
  8
AM_0
  5
15B17
 10
792.364
 20
342.651
 30
0.000000
  70
    32
  0
VERTEX
  8
AM_0
  5
15B18
 10
792.463
 20
342.723
 30
0.000000
  70
    32
  0
VERTEX
  8
AM_0
  5
15B19
 10
792.563
 20
342.795
 30
0.000000
  70
    32
  0
VERTEX
  8
AM_0
  5
15B1A
 10
792.664
 20
342.865
 30
0.000000
  70
    32
  0
VERTEX
  8
AM_0
  5
15B1B
 10
792.766
 20
342.934
 30
0.000000
  70
    32
  0
VERTEX
  8
AM_0
  5
15B1C
 10
792.868
 20
343.001
 30
0.000000
  70
    32
  0
VERTEX
  8
AM_0
  5
15B1D
 10
792.971
 20
343.067
 30
0.000000
  70
    32
  0
VERTEX
  8
AM_0
  5
15B1E
 10
793.076
 20
343.132
 30
0.000000
  70
    32
  0
VERTEX
  8
AM_0
  5
15B1F
 10
793.180
 20
343.196
 30
0.000000
  70
    32
  0
VERTEX
  8
AM_0
  5
15B20
 10
793.286
 20
343.259
 30
0.000000
  70
    32
  0
VERTEX
  8
AM_0
  5
15B21
 10
793.392
 20
343.320
 30
0.000000
  70
    32
  0
VERTEX
  8
AM_0
  5
15B22
 10
793.500
 20
343.380
 30
0.000000
  70
    32
  0
VERTEX
  8
AM_0
  5
15B23
 10
793.608
 20
343.438
 30
0.000000
  70
    32
  0
VERTEX
  8
AM_0
  5
15B24
 10
793.716
 20
343.495
 30
0.000000
  70
    32
  0
VERTEX
  8
AM_0
  5
15B25
 10
793.825
 20
343.551
 30
0.000000
  70
    32
  0
VERTEX
  8
AM_0
  5
15B26
 10
793.935
 20
343.606
 30
0.000000
  70
    32
  0
VERTEX
  8
AM_0
  5
15B27
 10
794.046
 20
343.659
 30
0.000000
  70
    32
  0
VERTEX
  8
AM_0
  5
15B28
 10
794.157
 20
343.711
 30
0.000000
  70
    32
  0
VERTEX
  8
AM_0
  5
15B29
 10
794.269
 20
343.761
 30
0.000000
  70
    32
  0
VERTEX
  8
AM_0
  5
15B2A
 10
794.382
 20
343.810
 30
0.000000
  70
    32
  0
VERTEX
  8
AM_0
  5
15B2B
 10
794.495
 20
343.858
 30
0.000000
  70
    32
  0
VERTEX
  8
AM_0
  5
15B2C
 10
794.608
 20
343.904
 30
0.000000
  70
    32
  0
VERTEX
  8
AM_0
  5
15B2D
 10
794.723
 20
343.949
 30
0.000000
  70
    32
  0
VERTEX
  8
AM_0
  5
15B2E
 10
794.837
 20
343.992
 30
0.000000
  70
    32
  0
VERTEX
  8
AM_0
  5
15B2F
 10
794.953
 20
344.034
 30
0.000000
  70
    32
  0
VERTEX
  8
AM_0
  5
15B30
 10
795.068
 20
344.075
 30
0.000000
  70
    32
  0
VERTEX
  8
AM_0
  5
15B31
 10
795.185
 20
344.114
 30
0.000000
  70
    32
  0
VERTEX
  8
AM_0
  5
15B32
 10
795.301
 20
344.152
 30
0.000000
  70
    32
  0
VERTEX
  8
AM_0
  5
15B33
 10
795.419
 20
344.188
 30
0.000000
  70
    32
  0
VERTEX
  8
AM_0
  5
15B34
 10
795.536
 20
344.223
 30
0.000000
  70
    32
  0
VERTEX
  8
AM_0
  5
15B35
 10
795.654
 20
344.257
 30
0.000000
  70
    32
  0
VERTEX
  8
AM_0
  5
15B36
 10
795.773
 20
344.289
 30
0.000000
  70
    32
  0
VERTEX
  8
AM_0
  5
15B37
 10
795.892
 20
344.319
 30
0.000000
  70
    32
  0
VERTEX
  8
AM_0
  5
15B38
 10
796.011
 20
344.348
 30
0.000000
  70
    32
  0
VERTEX
  8
AM_0
  5
15B39
 10
796.130
 20
344.376
 30
0.000000
  70
    32
  0
VERTEX
  8
AM_0
  5
15B3A
 10
796.250
 20
344.402
 30
0.000000
  70
    32
  0
VERTEX
  8
AM_0
  5
15B3B
 10
796.371
 20
344.427
 30
0.000000
  70
    32
  0
VERTEX
  8
AM_0
  5
15B3C
 10
796.491
 20
344.450
 30
0.000000
  70
    32
  0
VERTEX
  8
AM_0
  5
15B3D
 10
796.612
 20
344.472
 30
0.000000
  70
    32
  0
VERTEX
  8
AM_0
  5
15B3E
 10
796.733
 20
344.492
 30
0.000000
  70
    32
  0
VERTEX
  8
AM_0
  5
15B3F
 10
796.854
 20
344.511
 30
0.000000
  70
    32
  0
VERTEX
  8
AM_0
  5
15B40
 10
796.976
 20
344.528
 30
0.000000
  70
    32
  0
VERTEX
  8
AM_0
  5
15B41
 10
797.097
 20
344.544
 30
0.000000
  70
    32
  0
VERTEX
  8
AM_0
  5
15B42
 10
797.219
 20
344.558
 30
0.000000
  70
    32
  0
VERTEX
  8
AM_0
  5
15B43
 10
797.341
 20
344.571
 30
0.000000
  70
    32
  0
VERTEX
  8
AM_0
  5
15B44
 10
797.463
 20
344.582
 30
0.000000
  70
    32
  0
VERTEX
  8
AM_0
  5
15B45
 10
797.586
 20
344.592
 30
0.000000
  70
    32
  0
VERTEX
  8
AM_0
  5
15B46
 10
797.708
 20
344.600
 30
0.000000
  70
    32
  0
VERTEX
  8
AM_0
  5
15B47
 10
797.831
 20
344.607
 30
0.000000
  70
    32
  0
VERTEX
  8
AM_0
  5
15B48
 10
797.953
 20
344.612
 30
0.000000
  70
    32
  0
VERTEX
  8
AM_0
  5
15B49
 10
798.076
 20
344.616
 30
0.000000
  70
    32
  0
VERTEX
  8
AM_0
  5
15B4A
 10
798.199
 20
344.618
 30
0.000000
  70
    32
  0
VERTEX
  8
AM_0
  5
15B4B
 10
798.321
 20
344.619
 30
0.000000
  70
    32
  0
SEQEND
  8
AM_0
  5
15B4C
  0
CIRCLE
  5
14FDB
  8
AM_0
 10
845.82147380629362
 20
284.61945269770217
 30
0.0
 40
37.500001117587097
  0
LINE
  5
14FDC
  8
AM_0
 10
1092.315373166593
 20
518.29769367349286
 30
0.0
 11
1091.815373166593
 21
515.52770465982121
 31
0.0
  0
POLYLINE
  5
14FDD
  8
AM_0
 66
     1
 10
0.0
 20
0.0
 30
0.0
  0
VERTEX
  5
14FDE
  8
AM_0
 10
1072.943236682218
 20
517.17895594888375
 30
0.0
 42
-0.0007337051
  0
VERTEX
  5
14FDF
  8
AM_0
 10
1072.899096682218
 20
516.5765459488839
 30
0.0
 42
-0.00075211323
  0
VERTEX
  5
14FE0
  8
AM_0
 10
1072.853156682218
 20
515.97414594888346
 30
0.0
 42
-0.0007297491
  0
VERTEX
  5
14FE1
  8
AM_0
 10
1072.805426682218
 20
515.37194594888365
 30
0.0
 42
-0.00073593041
  0
VERTEX
  5
14FE2
  8
AM_0
 10
1072.7559466822181
 20
514.76995594888365
 30
0.0
 42
-0.00074742739
  0
VERTEX
  5
14FE3
  8
AM_0
 10
1072.704676682218
 20
514.16809594888355
 30
0.0
 42
-0.00073217363
  0
VERTEX
  5
14FE4
  8
AM_0
 10
1072.651616682218
 20
513.56628594888389
 30
0.0
 42
-0.00073754168
  0
VERTEX
  5
14FE5
  8
AM_0
 10
1072.5967966822179
 20
512.96474594888355
 30
0.0
 42
-0.00073075073
  0
VERTEX
  5
14FE6
  8
AM_0
 10
1072.540216682218
 20
512.36339594888375
 30
0.0
 42
-0.00074550816
  0
VERTEX
  5
14FE7
  8
AM_0
 10
1072.4818766822191
 20
511.76232594888347
 30
0.0
 42
-0.00074288416
  0
VERTEX
  5
14FE8
  8
AM_0
 10
1072.4217266822179
 20
511.16130594888381
 30
0.0
 42
-0.00072504001
  0
VERTEX
  5
14FE9
  8
AM_0
 10
1072.359816682218
 20
510.56056594888361
 30
0.0
 42
-0.00074640667
  0
VERTEX
  5
14FEA
  8
AM_0
 10
1072.296146682218
 20
509.95995594888359
 30
0.0
  0
SEQEND
  5
14FEB
  8
AM_0
  0
LINE
  5
14FEC
  8
AM_0
 10
1089.821476682218
 20
485.49950594888378
 30
0.0
 11
1089.821476682218
 21
528.51952594888371
 31
0.0
  0
LINE
  5
14FED
  8
AM_0
 10
1084.821476682218
 20
483.51952594888382
 30
0.0
 11
1084.821476682218
 21
583.51952594888371
 31
0.0
  0
LINE
  5
14FEE
  8
AM_0
 10
1083.821476682218
 20
480.5195259488836
 30
0.0
 11
1083.821476682218
 21
586.51952594888371
 31
0.0
  0
LINE
  5
14FEF
  8
AM_0
 10
1091.321476682218
 20
513.51952594888371
 30
0.0
 11
1091.321476682218
 21
553.51952594888371
 31
0.0
  0
LINE
  5
14FF0
  8
AM_0
 10
967.8214766822183
 20
477.5195259488836
 30
0.0
 11
967.8214766822183
 21
589.51952594888348
 31
0.0
  0
LINE
  5
14FF1
  8
AM_0
 10
1075.821476682218
 20
480.5195259488836
 30
0.0
 11
1075.821476682218
 21
586.51952594888371
 31
0.0
  0
LINE
  5
14FF2
  8
AM_0
 10
1083.821476682218
 20
586.51952594888371
 30
0.0
 11
1075.821476682218
 21
586.51952594888371
 31
0.0
  0
LINE
  5
14FF3
  8
AM_0
 10
1067.321476682218
 20
599.51952594888394
 30
0.0
 11
1067.321476682218
 21
619.01952594888371
 31
0.0
  0
LINE
  5
14FF4
  8
AM_0
 10
1058.321476682218
 20
603.01952594888371
 30
0.0
 11
1058.321476682218
 21
610.51952594888371
 31
0.0
  0
LINE
  5
14FF5
  8
AM_0
 10
1061.821476682218
 20
603.01952594888371
 30
0.0
 11
1061.821476682218
 21
610.51952594888371
 31
0.0
  0
LINE
  5
14FF6
  8
AM_0
 10
1046.821476682218
 20
610.51952594888371
 30
0.0
 11
1046.821476682218
 21
603.01952594888371
 31
0.0
  0
LINE
  5
14FF7
  8
AM_0
 10
1050.321476682218
 20
603.01952594888371
 30
0.0
 11
1050.321476682218
 21
610.51952594888371
 31
0.0
  0
LINE
  5
14FF8
  8
AM_0
 10
987.3214766822183
 20
599.51952594888394
 30
0.0
 11
987.3214766822183
 21
606.51952594888371
 31
0.0
  0
LINE
  5
14FF9
  8
AM_0
 10
989.8214766822183
 20
623.01952594888371
 30
0.0
 11
1064.821476682218
 21
623.01952594888371
 31
0.0
  0
LINE
  5
14FFA
  8
AM_0
 10
1001.017476682218
 20
626.01952594888371
 30
0.0
 11
1036.625476682218
 21
626.01952594888371
 31
0.0
  0
LINE
  5
14FFB
  8
AM_0
 10
987.3214766822183
 20
606.51952594888371
 30
0.0
 11
1044.821476682218
 21
606.51952594888371
 31
0.0
  0
LINE
  5
14FFC
  8
AM_0
 10
995.82147668221819
 20
623.01952594888371
 30
0.0
 11
1001.017476682218
 21
626.01952594888371
 31
0.0
  0
LINE
  5
14FFD
  8
AM_0
 10
988.82147668221842
 20
606.51952594888371
 30
0.0
 11
988.82147668221842
 21
622.01952594888371
 31
0.0
  0
ARC
  5
14FFE
  8
AM_0
 10
989.8214766822183
 20
622.01952594888394
 30
0.0
 40
1.0
 50
90.0
 51
180.0
  0
ARC
  5
14FFF
  8
AM_0
 10
1053.321476682218
 20
611.51952594888371
 30
0.0
 40
7.4999999999999956
 50
90.0
 51
180.0
  0
ARC
  5
15000
  8
AM_0
 10
1054.321476682218
 20
610.51952594888371
 30
0.0
 40
7.5000000000000018
 50
0.000000000000007
 51
180.0
  0
LINE
  5
15001
  8
AM_0
 10
1036.625476682218
 20
626.01952594888371
 30
0.0
 11
1041.814252192421
 21
623.01952594888371
 31
0.0
  0
ARC
  5
15002
  8
AM_0
 10
1044.821476682218
 20
607.51952594888371
 30
0.0
 40
1.0
 50
270.0
 51
0.000000000000007
  0
LINE
  5
15003
  8
AM_0
 10
1045.821476682218
 20
611.51952594888371
 30
0.0
 11
1045.821476682218
 21
607.51952594888371
 31
0.0
  0
LINE
  5
15004
  8
AM_0
 10
1067.321476682218
 20
606.51952594888371
 30
0.0
 11
1063.821476682218
 21
606.51952594888371
 31
0.0
  0
LINE
  5
15005
  8
AM_0
 10
1067.321476682218
 20
619.01952594888371
 30
0.0
 11
1065.821476682218
 21
619.01952594888371
 31
0.0
  0
LINE
  5
15006
  8
AM_0
 10
1065.821476682218
 20
606.51952594888371
 30
0.0
 11
1065.821476682218
 21
622.01952594888371
 31
0.0
  0
ARC
  5
15007
  8
AM_0
 10
1054.321476682218
 20
610.51952594888371
 30
0.0
 40
3.999999999999996
 50
0.000000000000007
 51
180.0
  0
ARC
  5
15008
  8
AM_0
 10
1055.321476682218
 20
611.51952594888371
 30
0.0
 40
7.499999999999992
 50
0.000000000000007
 51
90.0
  0
LINE
  5
15009
  8
AM_0
 10
1053.321476682218
 20
619.01952594888371
 30
0.0
 11
1055.321476682218
 21
619.01952594888371
 31
0.0
  0
ARC
  5
1500A
  8
AM_0
 10
1064.821476682218
 20
622.01952594888371
 30
0.0
 40
1.0
 50
0.000000000000007
 51
90.0
  0
LINE
  5
1500B
  8
AM_0
 10
1062.821476682218
 20
607.51952594888371
 30
0.0
 11
1062.821476682218
 21
611.51952594888371
 31
0.0
  0
ARC
  5
1500C
  8
AM_0
 10
1063.821476682218
 20
607.51952594888371
 30
0.0
 40
1.0
 50
180.0
 51
270.0
  0
LINE
  5
1500D
  8
AM_0
 10
1018.821476682218
 20
570.23949594888359
 30
0.0
 11
971.00146668221862
 21
570.23949594888359
 31
0.0
  0
LINE
  5
1500E
  8
AM_0
 10
974.48144668221858
 20
569.51952594888371
 30
0.0
 11
1018.821476682218
 21
569.51952594888371
 31
0.0
  0
LINE
  5
1500F
  8
AM_0
 10
974.48144668221858
 20
567.51952594888371
 30
0.0
 11
1018.821476682218
 21
567.51952594888371
 31
0.0
  0
LINE
  5
15010
  8
AM_0
 10
1072.611456682218
 20
589.79955594888372
 30
0.0
 11
975.69146668221833
 21
589.79955594888372
 31
0.0
  0
LINE
  5
15011
  8
AM_0
 10
974.48864668221825
 20
557.51952594888371
 30
0.0
 11
1073.461486682218
 21
557.51952594888371
 31
0.0
  0
LINE
  5
15012
  8
AM_0
 10
1074.1414866822181
 20
566.88952594888372
 30
0.0
 11
1006.801456682218
 21
566.88952594888372
 31
0.0
  0
LINE
  5
15013
  8
AM_0
 10
1074.361456682218
 20
560.00951594888363
 30
0.0
 11
1006.821476682218
 21
560.00951594888363
 31
0.0
  0
LINE
  5
15014
  8
AM_0
 10
987.3214766822183
 20
599.51952594888394
 30
0.0
 11
1067.321476682218
 21
599.51952594888394
 31
0.0
  0
LINE
  5
15015
  8
AM_0
 10
1067.321476682218
 20
603.01952594888371
 30
0.0
 11
987.3214766822183
 21
603.01952594888371
 31
0.0
  0
LINE
  5
15016
  8
AM_0
 10
1006.821476682218
 20
559.51952594888371
 30
0.0
 11
1073.461486682218
 21
559.51952594888371
 31
0.0
  0
LINE
  5
15017
  8
AM_0
 10
1074.361456682218
 20
557.07958594888362
 30
0.0
 11
970.78723668221835
 21
557.07958594888362
 31
0.0
  0
ARC
  5
15018
  8
AM_0
 10
1006.821476682218
 20
561.01952594888371
 30
0.0
 40
1.5
 50
180.0
 51
270.00000299999761
  0
ARC
  5
15019
  8
AM_0
 10
988.82147668221842
 20
561.01952594888371
 30
0.0
 40
1.5
 50
270.00000299999761
 51
0.0000100000010134
  0
ARC
  5
1501A
  8
AM_0
 10
970.78149668221818
 20
558.54955594888384
 30
0.0
 40
1.460011199999999
 50
89.77525000000314
 51
270.22474999999679
  0
LINE
  5
1501B
  8
AM_0
 10
971.00146668221862
 20
566.88952594888372
 30
0.0
 11
988.84143668221816
 21
566.88952594888372
 31
0.0
  0
LINE
  5
1501C
  8
AM_0
 10
988.82147668221842
 20
559.99950594888355
 30
0.0
 11
970.78723668221835
 21
559.99950594888355
 31
0.0
  0
LINE
  5
1501D
  8
AM_0
 10
987.24237787428217
 20
596.01952594888371
 30
0.0
 11
975.80523668221838
 21
596.01952594888371
 31
0.0
  0
LINE
  5
1501E
  8
AM_0
 10
970.98610900266908
 20
577.95560917308273
 30
0.0
 11
973.76147668221824
 21
588.31951594888358
 31
0.0
  0
LINE
  5
1501F
  8
AM_0
 10
967.8214766822183
 20
589.51952594888348
 30
0.0
 11
959.8214766822183
 21
589.51952594888348
 31
0.0
  0
LINE
  5
15020
  8
AM_0
 10
968.82147668221819
 20
586.51952594888371
 30
0.0
 11
974.54721668221816
 21
595.33642594888374
 31
0.0
  0
ARC
  5
15021
  8
AM_0
 10
975.80523668221838
 20
594.51952594888371
 30
0.0
 40
1.5
 50
89.999989999999016
 51
146.99999999999889
  0
ARC
  5
15022
  8
AM_0
 10
975.69629668221819
 20
587.79479594888335
 30
0.0
 40
2.0047290000000002
 50
90.138319999997705
 51
164.82650000000189
  0
LINE
  5
15023
  8
AM_0
 10
973.27942668221817
 20
586.51952594888371
 30
0.0
 11
967.8214766822183
 21
586.51952594888371
 31
0.0
  0
LINE
  5
15024
  8
AM_0
 10
967.8214766822183
 20
579.51952594888371
 30
0.0
 11
959.8214766822183
 21
579.51952594888371
 31
0.0
  0
LINE
  5
15025
  8
AM_0
 10
967.8214766822183
 20
565.45946594888369
 30
0.0
 11
959.8214766822183
 21
565.45946594888369
 31
0.0
  0
ARC
  5
15026
  8
AM_0
 10
969.72147668221805
 20
573.21950594888358
 30
0.0
 40
1.699996899999999
 50
270.00000299999761
 51
359.99998000000448
  0
ARC
  5
15027
  8
AM_0
 10
969.72147668221805
 20
576.81951594888392
 30
0.0
 40
1.7000007999999991
 50
0.0000100000010134
 51
89.999979999998004
  0
LINE
  5
15028
  8
AM_0
 10
971.42145668221826
 20
573.21950594888358
 30
0.0
 11
971.42145668221826
 21
576.81951594888392
 31
0.0
  0
LINE
  5
15029
  8
AM_0
 10
968.82147668221819
 20
571.21950594888369
 30
0.0
 11
967.8214766822183
 21
571.21950594888369
 31
0.0
  0
LINE
  5
1502A
  8
AM_0
 10
967.8214766822183
 20
575.24215594888346
 30
0.0
 11
968.82147668221819
 21
575.81951594888392
 31
0.0
  0
LINE
  5
1502B
  8
AM_0
 10
967.8214766822183
 20
574.24215594888346
 30
0.0
 11
968.82147668221819
 21
574.81951594888369
 31
0.0
  0
LINE
  5
1502C
  8
AM_0
 10
968.82147668221819
 20
578.81951594888392
 30
0.0
 11
967.8214766822183
 21
578.81951594888392
 31
0.0
  0
LINE
  5
1502D
  8
AM_0
 10
967.8214766822183
 20
571.21950594888369
 30
0.0
 11
967.8214766822183
 21
578.81951594888392
 31
0.0
  0
LINE
  5
1502E
  8
AM_0
 10
968.82147668221819
 20
571.21950594888369
 30
0.0
 11
968.82147668221819
 21
578.81951594888392
 31
0.0
  0
LINE
  5
1502F
  8
AM_0
 10
968.82147668221819
 20
571.51952594888371
 30
0.0
 11
969.72147668221805
 21
571.51952594888371
 31
0.0
  0
LINE
  5
15030
  8
AM_0
 10
968.82147668221819
 20
578.51952594888371
 30
0.0
 11
969.72147668221805
 21
578.51952594888371
 31
0.0
  0
ARC
  5
15031
  8
AM_0
 10
974.48144668221858
 20
568.51952594888348
 30
0.0
 40
1.0
 50
89.999989999999016
 51
270.00000299999761
  0
ARC
  5
15032
  8
AM_0
 10
971.00146668221817
 20
568.56457594888377
 30
0.0
 40
1.6750020000000001
 50
89.999989999999016
 51
270.00000299999761
  0
LINE
  5
15033
  8
AM_0
 10
988.79526126853068
 20
599.51952594888394
 30
0.0
 11
988.540747468463
 21
589.79955594888372
 31
0.0
  0
ARC
  5
15034
  8
AM_0
 10
987.24237787428217
 20
597.5195259488836
 30
0.0
 40
1.5
 50
270.0
 51
358.50007405675001
1001
GENIUS_GENODEF_13
1002
{
1000
HIER
1070
     0
1002
}
1002
{
1000
MANEDIT
1070
     0
1002
}
1002
{
1000
NOSEL
1070
     0
1002
}
1002
{
1000
BEHIND
1070
     0
1002
}
1002
{
1000
REACTOR
1002
}
1001
GENIUS_GENOBJ-N-FIL_13
1002
{
1000
OWNER
1000
GEN
1002
}
  0
CIRCLE
  5
15035
  8
AM_0
 10
1000.321476682218
 20
562.01952594888371
 30
0.0
 40
1.1000000000000001
  0
CIRCLE
  5
15036
  8
AM_0
 10
1000.321476682218
 20
562.01952594888371
 30
0.0
 40
1.149999999999999
  0
ARC
  5
15037
  8
AM_0
 10
988.82147668221842
 20
561.01952594888371
 30
0.0
 40
1.02
 50
270.00000299999761
 51
0.0000100000010134
  0
ARC
  5
15038
  8
AM_0
 10
988.82147668221842
 20
566.01952594888371
 30
0.0
 40
1.5
 50
359.999989999999
 51
90.0
  0
ARC
  5
15039
  8
AM_0
 10
988.84143668221816
 20
565.87951594888375
 30
0.0
 40
1.0
 50
359.999989999999
 51
90.0
  0
LINE
  5
1503A
  8
AM_0
 10
990.32147668221819
 20
561.01952594888371
 30
0.0
 11
990.32147668221819
 21
566.01952594888371
 31
0.0
  0
LINE
  5
1503B
  8
AM_0
 10
989.84143668221816
 20
561.01952594888371
 30
0.0
 11
989.84143668221816
 21
565.87951594888375
 31
0.0
  0
CIRCLE
  5
1503C
  8
AM_0
 10
995.3214766822183
 20
562.01952594888371
 30
0.0
 40
1.0
  0
ARC
  5
1503D
  8
AM_0
 10
1006.821476682218
 20
561.01952594888371
 30
0.0
 40
1.02
 50
180.0
 51
270.00000299999761
  0
ARC
  5
1503E
  8
AM_0
 10
1006.821476682218
 20
566.01952594888371
 30
0.0
 40
1.5
 50
89.999989999999016
 51
180.00000068324951
  0
ARC
  5
1503F
  8
AM_0
 10
1006.801456682218
 20
565.87951594888375
 30
0.0
 40
1.0
 50
89.999989999999016
 51
180.00000068324951
  0
LINE
  5
15040
  8
AM_0
 10
1005.801456682218
 20
561.01952594888371
 30
0.0
 11
1005.801456682218
 21
565.87951594888375
 31
0.0
  0
LINE
  5
15041
  8
AM_0
 10
1005.321476682218
 20
561.01952594888371
 30
0.0
 11
1005.321476682218
 21
566.01952594888371
 31
0.0
  0
LINE
  5
15042
  8
AM_0
 10
974.48864668221825
 20
559.51952594888371
 30
0.0
 11
988.82147668221842
 21
559.51952594888371
 31
0.0
  0
ARC
  5
15043
  8
AM_0
 10
974.4815066822182
 20
558.51952594888371
 30
0.0
 40
1.0000255999999981
 50
89.58946999999668
 51
270.41053099999777
  0
ARC
  5
15044
  8
AM_0
 10
1074.361456682218
 20
558.54455594888361
 30
0.0
 40
1.465004
 50
270.00000299999761
 51
90.0
  0
ARC
  5
15045
  8
AM_0
 10
1050.4887638608659
 20
594.14953594888379
 30
0.0
 40
1.5
 50
181.49972245098769
 51
270.0
1001
GENIUS_GENODEF_13
1002
{
1000
HIER
1070
     0
1002
}
1002
{
1000
MANEDIT
1070
     0
1002
}
1002
{
1000
NOSEL
1070
     0
1002
}
1002
{
1000
BEHIND
1070
     0
1002
}
1002
{
1000
REACTOR
1002
}
1001
GENIUS_GENOBJ-N-FIL_13
1002
{
1000
OWNER
1000
GEN
1002
}
  0
LINE
  5
15046
  8
AM_0
 10
1018.821476682218
 20
569.51952594888371
 30
0.0
 11
1073.461486682218
 21
569.51952594888371
 31
0.0
  0
LINE
  5
15047
  8
AM_0
 10
1018.821476682218
 20
567.51952594888371
 30
0.0
 11
1073.461486682218
 21
567.51952594888371
 31
0.0
  0
LINE
  5
15048
  8
AM_0
 10
1074.1414866822181
 20
570.23949594888359
 30
0.0
 11
1018.821476682218
 21
570.23949594888359
 31
0.0
  0
LINE
  5
15049
  8
AM_0
 10
1048.847657756322
 20
599.51952594888371
 30
0.0
 11
1049.102137011181
 21
589.79955594888372
 31
0.0
  0
LINE
  5
1504A
  8
AM_0
 10
1070.461486682218
 20
570.16955594888373
 30
0.0
 11
1075.8214166822179
 21
581.60946594888378
 31
0.0
  0
LINE
  5
1504B
  8
AM_0
 10
1072.915226682218
 20
592.64953594888368
 30
0.0
 11
1050.4887638608659
 21
592.64953594888368
 31
0.0
  0
ARC
  5
1504C
  8
AM_0
 10
1072.915226682218
 20
590.64953594888379
 30
0.0
 40
2.0
 50
7.9504400000034652
 51
89.999989999999016
  0
ARC
  5
1504D
  8
AM_0
 10
1072.8348466822181
 20
590.64953594888379
 30
0.0
 40
2.0
 50
8.6296199999980452
 51
89.999989999999016
  0
ARC
  5
1504E
  8
AM_0
 10
1072.565246682218
 20
590.64916594888348
 30
0.0
 40
2.000420099999999
 50
8.9268200000007738
 51
89.822709999996064
  0
ARC
  5
1504F
  8
AM_0
 10
1072.616576682218
 20
587.80029594888379
 30
0.0
 40
1.9992490000000001
 50
10.64310000000104
 51
90.147430000001364
  0
LINE
  5
15050
  8
AM_0
 10
1075.821476682218
 20
582.95956594888378
 30
0.0
 11
1074.5414466822181
 21
590.95947594888355
 31
0.0
  0
LINE
  5
15051
  8
AM_0
 10
1075.821476682218
 20
581.60955594888378
 30
0.0
 11
1074.5814266822181
 21
588.16955594888373
 31
0.0
  0
LINE
  5
15052
  8
AM_0
 10
1075.821476682218
 20
584.29946594888361
 30
0.0
 11
1074.812196682218
 21
590.9496459488837
 31
0.0
  0
LINE
  5
15053
  8
AM_0
 10
1075.8214166822179
 20
584.29949594888365
 30
0.0
 11
1074.8959966822181
 21
590.92608594888372
 31
0.0
  0
LINE
  5
15054
  8
AM_0
 10
1083.1214666822179
 20
576.70947594888355
 30
0.0
 11
1076.8914866822181
 21
576.70947594888355
 31
0.0
  0
ARC
  5
15055
  8
AM_0
 10
1074.1483166822179
 20
568.56457594888377
 30
0.0
 40
1.675014
 50
269.76649900000331
 51
90.233509999999441
  0
ARC
  5
15056
  8
AM_0
 10
1073.2768566822181
 20
568.51952594888348
 30
0.0
 40
1.0000138999999999
 50
269.69165999999939
 51
90.308340000000754
  0
POLYLINE
  5
15057
  8
AM_0
 66
     1
 10
0.0
 20
0.0
 30
0.0
  0
VERTEX
  5
15058
  8
AM_0
 10
1071.9605766822181
 20
560.00256594888378
 30
0.0
 42
0.0006890001
  0
VERTEX
  5
15059
  8
AM_0
 10
1071.8896966822181
 20
560.57731594888378
 30
0.0
 42
0.00070644651
  0
VERTEX
  5
1505A
  8
AM_0
 10
1071.8171966822181
 20
561.15199594888372
 30
0.0
 42
0.0006924559
  0
VERTEX
  5
1505B
  8
AM_0
 10
1071.743106682218
 20
561.72631594888355
 30
0.0
 42
0.00069587797
  0
VERTEX
  5
1505C
  8
AM_0
 10
1071.6674266822181
 20
562.30045594888384
 30
0.0
 42
0.00071687041
  0
VERTEX
  5
1505D
  8
AM_0
 10
1071.5901166822191
 20
562.87445594888391
 30
0.0
 42
0.00069759113
  0
VERTEX
  5
1505E
  8
AM_0
 10
1071.5111766822181
 20
563.44824594888371
 30
0.0
 42
0.00071003142
  0
VERTEX
  5
1505F
  8
AM_0
 10
1071.4306366822179
 20
564.02171594888375
 30
0.0
 42
0.00069954544
  0
VERTEX
  5
15060
  8
AM_0
 10
1071.348496682218
 20
564.59481594888359
 30
0.0
 42
0.0007188852
  0
VERTEX
  5
15061
  8
AM_0
 10
1071.264716682218
 20
565.16784594888372
 30
0.0
 42
0.00071266165
  0
VERTEX
  5
15062
  8
AM_0
 10
1071.1792866822179
 20
565.74060594888374
 30
0.0
 42
0.00071614577
  0
VERTEX
  5
15063
  8
AM_0
 10
1071.092256682218
 20
566.31295594888377
 30
0.0
 42
0.00072290806
  0
VERTEX
  5
15064
  8
AM_0
 10
1071.003546682218
 20
566.88525594888347
 30
0.0
  0
SEQEND
  5
15065
  8
AM_0
  0
LINE
  5
15066
  8
AM_0
 10
1074.551456682218
 20
529.77953594888345
 30
0.0
 11
1038.102786682218
 21
529.77953594888345
 31
0.0
  0
LINE
  5
15067
  8
AM_0
 10
1074.551456682218
 20
527.24950594888378
 30
0.0
 11
1038.102786682218
 21
527.24950594888378
 31
0.0
  0
LINE
  5
15068
  8
AM_0
 10
1039.3827566822181
 20
529.51952594888371
 30
0.0
 11
1073.461486682218
 21
529.51952594888371
 31
0.0
  0
LINE
  5
15069
  8
AM_0
 10
1039.3827566822181
 20
527.51952594888371
 30
0.0
 11
1073.461486682218
 21
527.51952594888371
 31
0.0
  0
LINE
  5
1506A
  8
AM_0
 10
1074.4914566822181
 20
519.83947594888355
 30
0.0
 11
1038.162786682218
 21
519.83947594888355
 31
0.0
  0
LINE
  5
1506B
  8
AM_0
 10
1039.3827566822181
 20
519.51952594888371
 30
0.0
 11
1073.461486682218
 21
519.51952594888371
 31
0.0
  0
LINE
  5
1506C
  8
AM_0
 10
1074.4914566822181
 20
517.17956594888369
 30
0.0
 11
1038.162786682218
 21
517.17956594888369
 31
0.0
  0
LINE
  5
1506D
  8
AM_0
 10
1039.3827566822181
 20
517.51952594888371
 30
0.0
 11
1073.461486682218
 21
517.51952594888371
 31
0.0
  0
LINE
  5
1506E
  8
AM_0
 10
1039.3827566822181
 20
537.51952594888371
 30
0.0
 11
1073.461486682218
 21
537.51952594888371
 31
0.0
  0
LINE
  5
1506F
  8
AM_0
 10
1074.551456682218
 20
537.24950594888355
 30
0.0
 11
1038.102786682218
 21
537.24950594888355
 31
0.0
  0
LINE
  5
15070
  8
AM_0
 10
1074.4914566822181
 20
549.8594959488837
 30
0.0
 11
1038.1502066822179
 21
549.8594959488837
 31
0.0
  0
LINE
  5
15071
  8
AM_0
 10
1039.3827566822181
 20
549.51952594888371
 30
0.0
 11
1073.461486682218
 21
549.51952594888371
 31
0.0
  0
LINE
  5
15072
  8
AM_0
 10
1039.3827566822181
 20
547.5195259488836
 30
0.0
 11
1073.461486682218
 21
547.5195259488836
 31
0.0
  0
LINE
  5
15073
  8
AM_0
 10
1074.4914566822181
 20
547.19958594888385
 30
0.0
 11
1038.162786682218
 21
547.19958594888385
 31
0.0
  0
LINE
  5
15074
  8
AM_0
 10
1074.551456682218
 20
539.78954594888387
 30
0.0
 11
1038.102786682218
 21
539.78954594888387
 31
0.0
  0
LINE
  5
15075
  8
AM_0
 10
1039.3827566822181
 20
539.51952594888348
 30
0.0
 11
1073.461486682218
 21
539.51952594888348
 31
0.0
  0
ARC
  5
15076
  8
AM_0
 10
1039.3827566822181
 20
538.51952594888371
 30
0.0
 40
1.000005699999998
 50
89.999989999999016
 51
270.00000299999761
  0
ARC
  5
15077
  8
AM_0
 10
1038.0945466822179
 20
538.51952594888371
 30
0.0
 40
1.2700266
 50
89.629319999999979
 51
270.37066999999809
  0
ARC
  5
15078
  8
AM_0
 10
1039.3827566822181
 20
548.51952594888371
 30
0.0
 40
1.000005699999998
 50
89.999989999999016
 51
270.00000299999761
  0
ARC
  5
15079
  8
AM_0
 10
1038.1564966822179
 20
548.52953594888345
 30
0.0
 40
1.3300148000000001
 50
89.72941999999864
 51
270.27056700000099
  0
ARC
  5
1507A
  8
AM_0
 10
1038.0945466822179
 20
528.50951594888363
 30
0.0
 40
1.2700266
 50
89.629319999999979
 51
270.37066999999809
  0
ARC
  5
1507B
  8
AM_0
 10
1039.3827566822181
 20
528.51952594888371
 30
0.0
 40
1.000005699999998
 50
89.999989999999016
 51
270.00000299999761
  0
ARC
  5
1507C
  8
AM_0
 10
1039.3827566822181
 20
518.51952594888348
 30
0.0
 40
1.000005699999998
 50
89.999989999999016
 51
270.00000299999761
  0
ARC
  5
1507D
  8
AM_0
 10
1038.1564966822179
 20
518.50451594888375
 30
0.0
 40
1.3350147999999999
 50
89.730429999999885
 51
270.26955599999479
  0
ARC
  5
1507E
  8
AM_0
 10
1073.2768566822181
 20
538.51952594888371
 30
0.0
 40
1.0000138999999999
 50
269.69165999999939
 51
90.308340000000754
  0
ARC
  5
1507F
  8
AM_0
 10
1074.557316682218
 20
538.51952594888371
 30
0.0
 40
1.2700129999999981
 50
269.73661699999508
 51
90.263369999999142
  0
ARC
  5
15080
  8
AM_0
 10
1073.2768566822181
 20
548.51952594888371
 30
0.0
 40
1.0000138999999999
 50
269.69165999999939
 51
90.308340000000754
  0
ARC
  5
15081
  8
AM_0
 10
1074.4914566822181
 20
548.52953594888345
 30
0.0
 40
1.3300049999999981
 50
270.00000299999761
 51
90.0
  0
ARC
  5
15082
  8
AM_0
 10
1073.2768566822181
 20
558.51952594888371
 30
0.0
 40
1.0000138999999999
 50
269.69165999999939
 51
90.308340000000754
  0
POLYLINE
  5
15083
  8
AM_0
 66
     1
 10
0.0
 20
0.0
 30
0.0
  0
VERTEX
  5
15084
  8
AM_0
 10
1072.943236682218
 20
549.86010594888364
 30
0.0
 42
0.00073721992
  0
VERTEX
  5
15085
  8
AM_0
 10
1072.899086682218
 20
550.46251594888372
 30
0.0
 42
0.00074398496
  0
VERTEX
  5
15086
  8
AM_0
 10
1072.853156682218
 20
551.0647859488837
 30
0.0
 42
0.00073322625
  0
VERTEX
  5
15087
  8
AM_0
 10
1072.805426682218
 20
551.66711594888363
 30
0.0
 42
0.00073594289
  0
VERTEX
  5
15088
  8
AM_0
 10
1072.7559466822181
 20
552.26910594888375
 30
0.0
 42
0.00074742568
  0
VERTEX
  5
15089
  8
AM_0
 10
1072.704676682218
 20
552.87096594888385
 30
0.0
 42
0.00073216749
  0
VERTEX
  5
1508A
  8
AM_0
 10
1072.651616682218
 20
553.47277594888362
 30
0.0
 42
0.00074184065
  0
VERTEX
  5
1508B
  8
AM_0
 10
1072.5967966822179
 20
554.07430594888376
 30
0.0
 42
0.00072077528
  0
VERTEX
  5
1508C
  8
AM_0
 10
1072.540216682218
 20
554.67553594888375
 30
0.0
 42
0.00074978179
  0
VERTEX
  5
1508D
  8
AM_0
 10
1072.4818766822191
 20
555.2767359488837
 30
0.0
 42
0.00074288888
  0
VERTEX
  5
1508E
  8
AM_0
 10
1072.4217266822179
 20
555.87775594888365
 30
0.0
 42
0.00072503679
  0
VERTEX
  5
1508F
  8
AM_0
 10
1072.359816682218
 20
556.47849594888385
 30
0.0
 42
0.00074640584
  0
VERTEX
  5
15090
  8
AM_0
 10
1072.296146682218
 20
557.07909594888383
 30
0.0
  0
SEQEND
  5
15091
  8
AM_0
  0
POLYLINE
  5
15092
  8
AM_0
 66
     1
 10
0.0
 20
0.0
 30
0.0
  0
VERTEX
  5
15093
  8
AM_0
 10
1073.4174266822181
 20
539.78991594888384
 30
0.0
 42
0.00076695232
  0
VERTEX
  5
15094
  8
AM_0
 10
1073.4026266822179
 20
540.40767594888371
 30
0.0
 42
0.00073263044
  0
VERTEX
  5
15095
  8
AM_0
 10
1073.3859866822179
 20
541.02527594888363
 30
0.0
 42
0.0007652599
  0
VERTEX
  5
15096
  8
AM_0
 10
1073.3674966822191
 20
541.64294594888383
 30
0.0
 42
0.00075144485
  0
VERTEX
  5
15097
  8
AM_0
 10
1073.347126682218
 20
542.26054594888376
 30
0.0
 42
0.00078594403
  0
VERTEX
  5
15098
  8
AM_0
 10
1073.324876682218
 20
542.87797594888355
 30
0.0
 42
0.00073349202
  0
VERTEX
  5
15099
  8
AM_0
 10
1073.3007266822181
 20
543.4953559488838
 30
0.0
 42
0.0007358075
  0
VERTEX
  5
1509A
  8
AM_0
 10
1073.2747866822181
 20
544.11275594888389
 30
0.0
 42
0.00078592699
  0
VERTEX
  5
1509B
  8
AM_0
 10
1073.2469566822181
 20
544.73014594888355
 30
0.0
 42
0.00074823144
  0
VERTEX
  5
1509C
  8
AM_0
 10
1073.2172266822181
 20
545.34753594888366
 30
0.0
 42
0.00074896603
  0
VERTEX
  5
1509D
  8
AM_0
 10
1073.1856666822191
 20
545.96466594888363
 30
0.0
 42
0.00076039765
  0
VERTEX
  5
1509E
  8
AM_0
 10
1073.152246682218
 20
546.58169594888375
 30
0.0
 42
0.00075616128
  0
VERTEX
  5
1509F
  8
AM_0
 10
1073.116946682218
 20
547.19872594888363
 30
0.0
  0
SEQEND
  5
150A0
  8
AM_0
  0
ARC
  5
150A1
  8
AM_0
 10
1074.557316682218
 20
528.51452594888383
 30
0.0
 40
1.2650129999999991
 50
269.73557900000827
 51
90.264409999995962
  0
ARC
  5
150A2
  8
AM_0
 10
1073.2768566822181
 20
528.51952594888371
 30
0.0
 40
1.0000138999999999
 50
269.69165999999939
 51
90.308340000000754
  0
POLYLINE
  5
150A3
  8
AM_0
 66
     1
 10
0.0
 20
0.0
 30
0.0
  0
VERTEX
  5
150A4
  8
AM_0
 10
1073.461486682218
 20
533.51952594888371
 30
0.0
 42
0.00039106593
  0
VERTEX
  5
150A5
  8
AM_0
 10
1073.463846682218
 20
533.83066594888362
 30
0.0
 42
0.00040574899
  0
VERTEX
  5
150A6
  8
AM_0
 10
1073.465716682218
 20
534.14177594888383
 30
0.0
 42
0.0003534546
  0
VERTEX
  5
150A7
  8
AM_0
 10
1073.4671066822179
 20
534.45287594888362
 30
0.0
 42
0.00034407327
  0
VERTEX
  5
150A8
  8
AM_0
 10
1073.468086682218
 20
534.76401594888364
 30
0.0
 42
0.00045699408
  0
VERTEX
  5
150A9
  8
AM_0
 10
1073.4685466822179
 20
535.07512594888385
 30
0.0
 42
0.00035571853
  0
VERTEX
  5
150AA
  8
AM_0
 10
1073.468506682218
 20
535.38622594888363
 30
0.0
 42
0.00038547362
  0
VERTEX
  5
150AB
  8
AM_0
 10
1073.4680166822179
 20
535.69736594888354
 30
0.0
 42
0.00035501498
  0
VERTEX
  5
150AC
  8
AM_0
 10
1073.4670566822181
 20
536.00846594888355
 30
0.0
 42
0.00040118614
  0
VERTEX
  5
150AD
  8
AM_0
 10
1073.465636682218
 20
536.31970594888389
 30
0.0
 42
0.00038319871
  0
VERTEX
  5
150AE
  8
AM_0
 10
1073.4637266822181
 20
536.6308359488836
 30
0.0
 42
0.00040742136
  0
VERTEX
  5
150AF
  8
AM_0
 10
1073.461326682218
 20
536.94206594888362
 30
0.0
 42
0.0003578071
  0
VERTEX
  5
150B0
  8
AM_0
 10
1073.458436682218
 20
537.25317594888384
 30
0.0
  0
SEQEND
  5
150B1
  8
AM_0
  0
POLYLINE
  5
150B2
  8
AM_0
 66
     1
 10
0.0
 20
0.0
 30
0.0
  0
VERTEX
  5
150B3
  8
AM_0
 10
1073.461486682218
 20
533.51952594888371
 30
0.0
 42
-0.00039106653
  0
VERTEX
  5
150B4
  8
AM_0
 10
1073.463846682218
 20
533.20839594888389
 30
0.0
 42
-0.00040574511
  0
VERTEX
  5
150B5
  8
AM_0
 10
1073.465716682218
 20
532.89728594888356
 30
0.0
 42
-0.00035346331
  0
VERTEX
  5
150B6
  8
AM_0
 10
1073.4671066822179
 20
532.58617594888358
 30
0.0
 42
-0.00034406545
  0
VERTEX
  5
150B7
  8
AM_0
 10
1073.468086682218
 20
532.27503594888367
 30
0.0
 42
-0.00045699059
  0
VERTEX
  5
150B8
  8
AM_0
 10
1073.4685466822179
 20
531.96393594888377
 30
0.0
 42
-0.00035573431
  0
VERTEX
  5
150B9
  8
AM_0
 10
1073.468506682218
 20
531.65283594888376
 30
0.0
 42
-0.00038545888
  0
VERTEX
  5
150BA
  8
AM_0
 10
1073.4680166822179
 20
531.34169594888385
 30
0.0
 42
-0.00035501203
  0
VERTEX
  5
150BB
  8
AM_0
 10
1073.4670566822181
 20
531.03058594888364
 30
0.0
 42
-0.00040120778
  0
VERTEX
  5
150BC
  8
AM_0
 10
1073.465636682218
 20
530.71935594888362
 30
0.0
 42
-0.00038317821
  0
VERTEX
  5
150BD
  8
AM_0
 10
1073.4637266822181
 20
530.40822594888346
 30
0.0
 42
-0.00040741862
  0
VERTEX
  5
150BE
  8
AM_0
 10
1073.461326682218
 20
530.09699594888366
 30
0.0
 42
-0.00035783324
  0
VERTEX
  5
150BF
  8
AM_0
 10
1073.458436682218
 20
529.78588594888379
 30
0.0
  0
SEQEND
  5
150C0
  8
AM_0
  0
ARC
  5
150C1
  8
AM_0
 10
1074.4914566822181
 20
518.50951594888363
 30
0.0
 40
1.3300049999999981
 50
270.00000299999761
 51
90.0
  0
POLYLINE
  5
150C2
  8
AM_0
 66
     1
 10
0.0
 20
0.0
 30
0.0
  0
VERTEX
  5
150C3
  8
AM_0
 10
1073.4174266822181
 20
527.24914594888355
 30
0.0
 42
-0.00076691987
  0
VERTEX
  5
150C4
  8
AM_0
 10
1073.4026266822179
 20
526.63138594888346
 30
0.0
 42
-0.00073262795
  0
VERTEX
  5
150C5
  8
AM_0
 10
1073.3859866822179
 20
526.01378594888365
 30
0.0
 42
-0.0007652954
  0
VERTEX
  5
150C6
  8
AM_0
 10
1073.3674966822191
 20
525.39611594888356
 30
0.0
 42
-0.00077334627
  0
VERTEX
  5
150C7
  8
AM_0
 10
1073.3470866822181
 20
524.77851594888364
 30
0.0
 42
-0.00073282897
  0
VERTEX
  5
150C8
  8
AM_0
 10
1073.3248266822179
 20
524.16109594888371
 30
0.0
 42
-0.0007571179
  0
VERTEX
  5
150C9
  8
AM_0
 10
1073.3007266822181
 20
523.54357594888359
 30
0.0
 42
-0.00073783152
  0
VERTEX
  5
150CA
  8
AM_0
 10
1073.2747866822181
 20
522.92618594888381
 30
0.0
 42
-0.0007835518
  0
VERTEX
  5
150CB
  8
AM_0
 10
1073.2469566822181
 20
522.30891594888385
 30
0.0
 42
-0.00074826133
  0
VERTEX
  5
150CC
  8
AM_0
 10
1073.2172266822181
 20
521.69152594888351
 30
0.0
 42
-0.00074893555
  0
VERTEX
  5
150CD
  8
AM_0
 10
1073.1856666822191
 20
521.07439594888376
 30
0.0
 42
-0.00076039841
  0
VERTEX
  5
150CE
  8
AM_0
 10
1073.152246682218
 20
520.45736594888365
 30
0.0
 42
-0.00075618789
  0
VERTEX
  5
150CF
  8
AM_0
 10
1073.116946682218
 20
519.84033594888376
 30
0.0
  0
SEQEND
  5
150D0
  8
AM_0
  0
ARC
  5
150D1
  8
AM_0
 10
1073.2768566822181
 20
518.51952594888348
 30
0.0
 40
1.0000138999999999
 50
269.69165999999939
 51
90.308340000000754
  0
ARC
  5
150D2
  8
AM_0
 10
1085.821296682218
 20
560.51940594888356
 30
0.0
 40
0.9998239899999999
 50
179.98991999999521
 51
270.01007700000042
  0
LINE
  5
150D3
  8
AM_0
 10
1089.821476682218
 20
581.53954594888376
 30
0.0
 11
1089.821476682218
 21
538.51952594888371
 31
0.0
  0
LINE
  5
150D4
  8
AM_0
 10
1088.0314966822179
 20
582.0095459488839
 30
0.0
 11
1089.271486682218
 21
581.37954594888367
 31
0.0
  0
LINE
  5
150D5
  8
AM_0
 10
1087.821476682218
 20
583.01952594888371
 30
0.0
 11
1087.821476682218
 21
582.4894959488837
 31
0.0
  0
LINE
  5
150D6
  8
AM_0
 10
1088.051456682218
 20
583.12951594888375
 30
0.0
 11
1089.3214166822179
 21
582.39953594888368
 31
0.0
  0
ARC
  5
150D7
  8
AM_0
 10
1088.8238566822181
 20
581.53491594888374
 30
0.0
 40
0.9976310099999999
 50
0.2678099999985827
 51
60.079239999998158
  0
ARC
  5
150D8
  8
AM_0
 10
1087.5407766822179
 20
582.26843594888373
 30
0.0
 40
1.001123999999999
 50
59.327820000001367
 51
89.387679999995484
  0
ARC
  5
150D9
  8
AM_0
 10
1087.5756266822179
 20
581.12023594888365
 30
0.0
 40
0.9993420200000001
 50
62.861999999995071
 51
89.665459999998404
  0
ARC
  5
150DA
  8
AM_0
 10
1085.3209866822181
 20
583.76904594888379
 30
0.0
 40
0.49952301
 50
179.94523000000129
 51
270.05477399999961
  0
ARC
  5
150DB
  8
AM_0
 10
1085.3248366822179
 20
581.61608594888389
 30
0.0
 40
0.5033929900000002
 50
90.384910000000545
 51
179.61509999999799
  0
LINE
  5
150DC
  8
AM_0
 10
1084.821476682218
 20
583.51952594888371
 30
0.0
 11
1083.821476682218
 21
583.51952594888371
 31
0.0
  0
LINE
  5
150DD
  8
AM_0
 10
1087.551456682218
 20
583.26952594888348
 30
0.0
 11
1085.321476682218
 21
583.26952594888348
 31
0.0
  0
LINE
  5
150DE
  8
AM_0
 10
1087.5814866822179
 20
582.1195059488839
 30
0.0
 11
1085.321476682218
 21
582.1195059488839
 31
0.0
  0
ARC
  5
150DF
  8
AM_0
 10
1088.8257466822181
 20
580.48913594888336
 30
0.0
 40
0.9956849800000001
 50
0.0211300000000465
 51
63.409139999994693
  0
LINE
  5
150E0
  8
AM_0
 10
1088.071536682218
 20
576.47955594888367
 30
0.0
 11
1089.371526682218
 21
575.62954594888367
 31
0.0
  0
LINE
  5
150E1
  8
AM_0
 10
1087.821476682218
 20
576.34948594888374
 30
0.0
 11
1087.821476682218
 21
575.87951594888386
 31
0.0
  0
LINE
  5
150E2
  8
AM_0
 10
1088.051456682218
 20
575.36947594888375
 30
0.0
 11
1089.3314266822181
 21
574.61950594888378
 31
0.0
  0
ARC
  5
150E3
  8
AM_0
 10
1088.8223866822179
 20
574.79479594888335
 30
0.0
 40
0.9990889999999998
 50
359.69508999999653
 51
56.662090000002891
  0
LINE
  5
150E4
  8
AM_0
 10
1089.3314866822179
 20
574.61953594888371
 30
0.0
 11
1089.3515066822181
 21
574.60955594888367
 31
0.0
  0
ARC
  5
150E5
  8
AM_0
 10
1088.822996682218
 20
573.7602559488837
 30
0.0
 40
0.9984580299999999
 50
359.95957999999848
 51
59.38656999999661
  0
ARC
  5
150E6
  8
AM_0
 10
1088.822996682218
 20
573.7602559488837
 30
0.0
 40
0.9984580299999999
 50
359.95957999999848
 51
59.38656999999661
  0
ARC
  5
150E7
  8
AM_0
 10
1087.5581066822181
 20
574.49853594888373
 30
0.0
 40
1.001044999999998
 50
60.471870000003896
 51
90.379709999999534
  0
LINE
  5
150E8
  8
AM_0
 10
1088.0414466822181
 20
579.89953594888379
 30
0.0
 11
1089.2914466822181
 21
579.23953594888349
 31
0.0
  0
LINE
  5
150E9
  8
AM_0
 10
1088.0614066822179
 20
581.01952594888348
 30
0.0
 11
1089.341436682218
 21
580.24950594888378
 31
0.0
  0
ARC
  5
150EA
  8
AM_0
 10
1088.8226966822181
 20
579.39599594888364
 30
0.0
 40
0.9987969999999998
 50
359.62728000000101
 51
58.707950000002938
  0
ARC
  5
150EB
  8
AM_0
 10
1088.8237366822179
 20
578.35827594888372
 30
0.0
 40
0.9977070099999998
 50
0.0740200000040407
 51
62.044810000000808
  0
LINE
  5
150EC
  8
AM_0
 10
1087.821476682218
 20
580.91955594888373
 30
0.0
 11
1087.821476682218
 21
580.3695059488839
 31
0.0
  0
ARC
  5
150ED
  8
AM_0
 10
1087.5662866822181
 20
579.01891594888366
 30
0.0
 40
1.0006820000000001
 50
61.650620000001943
 51
89.703929999995637
  0
ARC
  5
150EE
  8
AM_0
 10
1087.5500566822179
 20
580.15588594888345
 30
0.0
 40
1.003743999999998
 50
59.371130000000228
 51
90.491900000007135
  0
ARC
  5
150EF
  8
AM_0
 10
1087.528686682218
 20
575.6390359488837
 30
0.0
 40
1.000521999999999
 50
57.146179999996761
 51
90.413440000003618
  0
ARC
  5
150F0
  8
AM_0
 10
1085.8239166822179
 20
574.49706594888369
 30
0.0
 40
1.002470999999999
 50
90.141070000006593
 51
179.8589299999999
  0
ARC
  5
150F1
  8
AM_0
 10
1085.824706682218
 20
574.4927959488839
 30
0.0
 40
1.0032760000000001
 50
154.1981000000047
 51
179.6181100000048
  0
ARC
  5
150F2
  8
AM_0
 10
1085.8255666822181
 20
579.01537594888373
 30
0.0
 40
1.0041199999999999
 50
90.234610000000004
 51
179.76539
  0
LINE
  5
150F3
  8
AM_0
 10
1087.551456682218
 20
575.49950594888367
 30
0.0
 11
1085.821476682218
 21
575.49950594888367
 31
0.0
  0
LINE
  5
150F4
  8
AM_0
 10
1087.5214266822179
 20
576.63952594888372
 30
0.0
 11
1084.821476682218
 21
576.63952594888372
 31
0.0
  0
LINE
  5
150F5
  8
AM_0
 10
1087.5414466822181
 20
581.15954594888365
 30
0.0
 11
1084.821476682218
 21
581.15954594888365
 31
0.0
  0
LINE
  5
150F6
  8
AM_0
 10
1087.571476682218
 20
580.01952594888371
 30
0.0
 11
1085.821476682218
 21
580.01952594888371
 31
0.0
  0
ARC
  5
150F7
  8
AM_0
 10
1088.824956682218
 20
567.69103594888372
 30
0.0
 40
0.9965090199999998
 50
359.9137499999967
 51
67.17845000000213
  0
LINE
  5
150F8
  8
AM_0
 10
1088.0114166822191
 20
569.12948594888371
 30
0.0
 11
1089.211426682218
 21
568.60946594888367
 31
0.0
  0
LINE
  5
150F9
  8
AM_0
 10
1087.821476682218
 20
568.90954594888376
 30
0.0
 11
1087.821476682218
 21
567.84948594888374
 31
0.0
  0
LINE
  5
150FA
  8
AM_0
 10
1087.961486682218
 20
567.21954594888371
 30
0.0
 11
1089.111456682218
 21
566.85952594888374
 31
0.0
  0
ARC
  5
150FB
  8
AM_0
 10
1088.825076682218
 20
565.90514594888373
 30
0.0
 40
0.99638802
 50
0.2499099999989486
 51
73.296640000000323
  0
ARC
  5
150FC
  8
AM_0
 10
1087.618476682218
 20
568.20434594888388
 30
0.0
 40
1.005233
 50
66.986389999997314
 51
89.829249999999433
  0
ARC
  5
150FD
  8
AM_0
 10
1087.6809066822179
 20
566.25683594888369
 30
0.0
 40
1.002699
 50
73.752720000008225
 51
90.540640000001062
  0
ARC
  5
150FE
  8
AM_0
 10
1085.520936682218
 20
569.90893594888348
 30
0.0
 40
0.6994530000000001
 50
179.95517000000069
 51
270.04482899999749
  0
ARC
  5
150FF
  8
AM_0
 10
1085.8248366822179
 20
566.25622594888375
 30
0.0
 40
1.003352
 50
90.191109999996925
 51
179.8089000000011
  0
LINE
  5
15100
  8
AM_0
 10
1087.6214666822179
 20
569.20947594888378
 30
0.0
 11
1085.521486682218
 21
569.20947594888378
 31
0.0
  0
LINE
  5
15101
  8
AM_0
 10
1087.6714466822179
 20
567.25951594888375
 30
0.0
 11
1085.821476682218
 21
567.25951594888375
 31
0.0
  0
ARC
  5
15102
  8
AM_0
 10
1088.8263566822179
 20
538.51464594888364
 30
0.0
 40
0.9950770099999999
 50
269.71585999999951
 51
0.2841400000005327
  0
LINE
  5
15103
  8
AM_0
 10
1087.821476682218
 20
539.12951594888375
 30
0.0
 11
1087.821476682218
 21
537.96948594888374
 31
0.0
  0
LINE
  5
15104
  8
AM_0
 10
1092.315373166593
 20
548.74135822427434
 30
0.0
 11
1092.315373166593
 21
518.29772419107121
 31
0.0
  0
LINE
  5
15105
  8
AM_0
 10
1092.3153426490151
 20
548.74135822427434
 30
0.0
 11
1091.8153426490151
 21
551.51134723794621
 31
0.0
  0
ARC
  5
15106
  8
AM_0
 10
1088.8212266822179
 20
548.51928594888375
 30
0.0
 40
1.000199999999998
 50
0.0114599999986803
 51
89.988540000007845
  0
LINE
  5
15107
  8
AM_0
 10
1087.821476682218
 20
549.12951594888386
 30
0.0
 11
1087.821476682218
 21
547.90954594888387
 31
0.0
  0
LINE
  5
15108
  8
AM_0
 10
1091.815373166593
 20
551.51134723794621
 30
0.0
 11
1091.3153426490151
 21
551.47133869302434
 31
0.0
  0
LINE
  5
15109
  8
AM_0
 10
1091.321476682218
 20
553.51955594888386
 30
0.0
 11
1089.821476682218
 21
553.64956594888372
 31
0.0
  0
LINE
  5
1510A
  8
AM_0
 10
1091.321476682218
 20
550.79955594888384
 30
0.0
 11
1089.821476682218
 21
550.79955594888384
 31
0.0
  0
ARC
  5
1510B
  8
AM_0
 10
1088.8212266822179
 20
558.51928594888375
 30
0.0
 40
1.0001959999999981
 50
0.0112499999994784
 51
89.988750000007059
  0
ARC
  5
1510C
  8
AM_0
 10
1088.8263566822179
 20
558.51464594888375
 30
0.0
 40
0.9950849999999999
 50
269.71628299999611
 51
0.2837199999992792
  0
LINE
  5
1510D
  8
AM_0
 10
1087.821476682218
 20
559.14953594888368
 30
0.0
 11
1087.821476682218
 21
557.77953594888356
 31
0.0
  0
ARC
  5
1510E
  8
AM_0
 10
1085.821296682218
 20
550.51940594888379
 30
0.0
 40
0.9998210099999999
 50
179.98971999999799
 51
270.01028199999831
  0
ARC
  5
1510F
  8
AM_0
 10
1085.826416682218
 20
556.51464594888364
 30
0.0
 40
1.0049469
 50
90.281369999992734
 51
179.7186300000007
  0
LINE
  5
15110
  8
AM_0
 10
1085.821476682218
 20
549.51952594888371
 30
0.0
 11
1088.821476682218
 21
549.51952594888371
 31
0.0
  0
LINE
  5
15111
  8
AM_0
 10
1085.821476682218
 20
557.51952594888371
 30
0.0
 11
1088.821476682218
 21
557.51952594888371
 31
0.0
  0
LINE
  5
15112
  8
AM_0
 10
1085.821476682218
 20
559.51952594888371
 30
0.0
 11
1088.821476682218
 21
559.51952594888371
 31
0.0
  0
ARC
  5
15113
  8
AM_0
 10
1088.8212266822179
 20
538.51928594888375
 30
0.0
 40
1.0002040000000001
 50
0.0116599999968248
 51
89.988320000007306
  0
ARC
  5
15114
  8
AM_0
 10
1088.8263566822179
 20
548.51464594888364
 30
0.0
 40
0.9950810099999999
 50
269.71607199999681
 51
0.2839200000044463
  0
LINE
  5
15115
  8
AM_0
 10
1091.321476682218
 20
548.6695559488835
 30
0.0
 11
1089.821476682218
 21
548.6695559488835
 31
0.0
  0
ARC
  5
15116
  8
AM_0
 10
1085.821296682218
 20
540.51940594888356
 30
0.0
 40
0.9998279799999998
 50
179.99015999999699
 51
270.00983800000671
  0
ARC
  5
15117
  8
AM_0
 10
1085.826416682218
 20
546.51464594888364
 30
0.0
 40
1.004939
 50
90.280939999996434
 51
179.71907000000101
  0
LINE
  5
15118
  8
AM_0
 10
1085.821476682218
 20
539.51952594888348
 30
0.0
 11
1088.821476682218
 21
539.51952594888348
 31
0.0
  0
LINE
  5
15119
  8
AM_0
 10
1085.821476682218
 20
547.5195259488836
 30
0.0
 11
1088.821476682218
 21
547.5195259488836
 31
0.0
  0
ARC
  5
1511A
  8
AM_0
 10
1085.826416682218
 20
526.51464594888364
 30
0.0
 40
1.0049469
 50
90.281349999997119
 51
179.71866000000071
  0
ARC
  5
1511B
  8
AM_0
 10
1088.8263566822179
 20
528.51464594888364
 30
0.0
 40
0.9950849999999999
 50
269.71631100000093
 51
0.2836899999997458
  0
ARC
  5
1511C
  8
AM_0
 10
1088.8212266822179
 20
528.51928594888375
 30
0.0
 40
1.0001959999999981
 50
0.0112199999958738
 51
89.988779999997604
  0
LINE
  5
1511D
  8
AM_0
 10
1087.821476682218
 20
527.90954594888365
 30
0.0
 11
1087.821476682218
 21
529.06957594888365
 31
0.0
  0
ARC
  5
1511E
  8
AM_0
 10
1085.821296682218
 20
530.51940594888379
 30
0.0
 40
0.9998249999999999
 50
179.98994999999869
 51
270.01004999999469
  0
ARC
  5
1511F
  8
AM_0
 10
1085.826416682218
 20
536.51464594888364
 30
0.0
 40
1.004942999999999
 50
90.281139999999453
 51
179.71886999999811
  0
LINE
  5
15120
  8
AM_0
 10
1085.821476682218
 20
527.51952594888371
 30
0.0
 11
1088.821476682218
 21
527.51952594888371
 31
0.0
  0
LINE
  5
15121
  8
AM_0
 10
1085.821476682218
 20
529.51952594888371
 30
0.0
 11
1088.821476682218
 21
529.51952594888371
 31
0.0
  0
LINE
  5
15122
  8
AM_0
 10
1085.821476682218
 20
537.51952594888371
 30
0.0
 11
1088.821476682218
 21
537.51952594888371
 31
0.0
  0
ARC
  5
15123
  8
AM_0
 10
1088.8212266822179
 20
518.51928594888386
 30
0.0
 40
1.000199999999998
 50
0.0114300000015895
 51
89.988569999998418
  0
LINE
  5
15124
  8
AM_0
 10
1087.821476682218
 20
517.90954594888365
 30
0.0
 11
1087.821476682218
 21
519.1195059488839
 31
0.0
  0
ARC
  5
15125
  8
AM_0
 10
1088.8263566822179
 20
518.51464594888364
 30
0.0
 40
0.99508202
 50
269.71609899999493
 51
0.2839099999979694
  0
LINE
  5
15126
  8
AM_0
 10
1091.321476682218
 20
518.36950594888378
 30
0.0
 11
1089.821476682218
 21
518.36950594888378
 31
0.0
  0
ARC
  5
15127
  8
AM_0
 10
1085.821296682218
 20
520.51940594888379
 30
0.0
 40
0.9998210099999999
 50
179.98975000000149
 51
270.01025500000549
  0
ARC
  5
15128
  8
AM_0
 10
1085.826416682218
 20
516.51464594888364
 30
0.0
 40
1.004939
 50
90.280909999997604
 51
179.7190999999998
  0
LINE
  5
15129
  8
AM_0
 10
1085.821476682218
 20
519.51952594888371
 30
0.0
 11
1088.821476682218
 21
519.51952594888371
 31
0.0
  0
LINE
  5
1512A
  8
AM_0
 10
1085.821476682218
 20
517.51952594888371
 30
0.0
 11
1088.821476682218
 21
517.51952594888371
 31
0.0
  0
LINE
  5
1512B
  8
AM_0
 10
1083.821476682218
 20
480.5195259488836
 30
0.0
 11
1075.821476682218
 21
480.5195259488836
 31
0.0
  0
LINE
  5
1512C
  8
AM_0
 10
1074.361456682218
 20
509.95947594888361
 30
0.0
 11
970.78723668221835
 21
509.95947594888361
 31
0.0
  0
LINE
  5
1512D
  8
AM_0
 10
1074.1414866822181
 20
496.79955594888378
 30
0.0
 11
971.00146668221862
 21
496.79955594888378
 31
0.0
  0
LINE
  5
1512E
  8
AM_0
 10
974.48864668221825
 20
509.51952594888371
 30
0.0
 11
1073.461486682218
 21
509.51952594888371
 31
0.0
  0
LINE
  5
1512F
  8
AM_0
 10
974.48144668221858
 20
499.5195259488836
 30
0.0
 11
1073.461486682218
 21
499.5195259488836
 31
0.0
  0
LINE
  5
15130
  8
AM_0
 10
974.48144668221858
 20
497.5195259488836
 30
0.0
 11
1073.461486682218
 21
497.5195259488836
 31
0.0
  0
LINE
  5
15131
  8
AM_0
 10
1074.361456682218
 20
507.02953594888351
 30
0.0
 11
1006.821476682218
 21
507.02953594888351
 31
0.0
  0
LINE
  5
15132
  8
AM_0
 10
1074.1414866822181
 20
500.14953594888379
 30
0.0
 11
1006.801456682218
 21
500.14953594888379
 31
0.0
  0
LINE
  5
15133
  8
AM_0
 10
1006.821476682218
 20
507.5195259488836
 30
0.0
 11
1073.461486682218
 21
507.5195259488836
 31
0.0
  0
LINE
  5
15134
  8
AM_0
 10
1072.5314366822181
 20
471.62951594888358
 30
0.0
 11
975.69140668221826
 21
471.62951594888358
 31
0.0
  0
LINE
  5
15135
  8
AM_0
 10
1072.551456682218
 20
472.53954594888359
 30
0.0
 11
975.69146668221833
 21
472.53954594888359
 31
0.0
  0
LINE
  5
15136
  8
AM_0
 10
1072.611456682218
 20
477.23949594888359
 30
0.0
 11
975.69146668221833
 21
477.23949594888359
 31
0.0
  0
LINE
  5
15137
  8
AM_0
 10
1072.571476682218
 20
474.3895259488836
 30
0.0
 11
975.69146668221833
 21
474.3895259488836
 31
0.0
  0
ARC
  5
15138
  8
AM_0
 10
975.69629668221819
 20
473.63427594888378
 30
0.0
 40
2.0047290000000002
 50
195.17349599999631
 51
269.86167800000669
  0
ARC
  5
15139
  8
AM_0
 10
975.69629668221819
 20
474.54430594888379
 30
0.0
 40
2.0047290000000002
 50
195.17349599999631
 51
269.86167800000669
  0
LINE
  5
1513A
  8
AM_0
 10
988.82147668221842
 20
507.02953594888351
 30
0.0
 11
970.77575668221823
 21
507.02953594888351
 31
0.0
  0
LINE
  5
1513B
  8
AM_0
 10
988.84143668221816
 20
500.15954594888382
 30
0.0
 11
971.00146668221862
 21
500.15954594888382
 31
0.0
  0
LINE
  5
1513C
  8
AM_0
 10
974.4743066822183
 20
507.5195259488836
 30
0.0
 11
988.82147668221842
 21
507.5195259488836
 31
0.0
  0
ARC
  5
1513D
  8
AM_0
 10
969.72147668221828
 20
493.81954594888361
 30
0.0
 40
1.699996899999999
 50
0.0000199999955061
 51
89.999997000002296
  0
LINE
  5
1513E
  8
AM_0
 10
967.8214766822183
 20
495.81954594888379
 30
0.0
 11
967.8214766822183
 21
488.21953594888379
 31
0.0
  0
LINE
  5
1513F
  8
AM_0
 10
968.82147668221819
 20
495.81954594888379
 30
0.0
 11
968.82147668221819
 21
488.21953594888379
 31
0.0
  0
LINE
  5
15140
  8
AM_0
 10
967.8214766822183
 20
501.57958594888368
 30
0.0
 11
959.8214766822183
 21
501.57958594888368
 31
0.0
  0
ARC
  5
15141
  8
AM_0
 10
974.4815066822182
 20
508.5195259488836
 30
0.0
 40
1.0000255999999981
 50
89.58946999999668
 51
270.41053099999777
  0
ARC
  5
15142
  8
AM_0
 10
970.78149668221818
 20
508.48949594888359
 30
0.0
 40
1.460011199999999
 50
89.77525000000314
 51
270.22474999999679
  0
ARC
  5
15143
  8
AM_0
 10
974.48144668221858
 20
498.5195259488836
 30
0.0
 40
1.0
 50
89.999989999999016
 51
270.00000299999761
  0
ARC
  5
15144
  8
AM_0
 10
971.00146668221862
 20
498.47448594888363
 30
0.0
 40
1.6750020000000001
 50
89.999989999999016
 51
270.00000299999761
  0
LINE
  5
15145
  8
AM_0
 10
968.82147668221819
 20
495.81954594888379
 30
0.0
 11
967.8214766822183
 21
495.81954594888379
 31
0.0
  0
LINE
  5
15146
  8
AM_0
 10
968.82147668221819
 20
495.51952594888388
 30
0.0
 11
969.72147668221828
 21
495.51952594888388
 31
0.0
  0
LINE
  5
15147
  8
AM_0
 10
967.8214766822183
 20
487.51952594888382
 30
0.0
 11
959.8214766822183
 21
487.51952594888382
 31
0.0
  0
LINE
  5
15148
  8
AM_0
 10
967.8214766822183
 20
477.5195259488836
 30
0.0
 11
959.8214766822183
 21
477.5195259488836
 31
0.0
  0
LINE
  5
15149
  8
AM_0
 10
969.61572668221834
 20
488.59063594888369
 30
0.0
 11
973.76144668221832
 21
473.1095259488838
 31
0.0
  0
LINE
  5
1514A
  8
AM_0
 10
970.34243935882898
 20
488.63700377724962
 30
0.0
 11
973.76147668221824
 21
475.8694759488838
 31
0.0
  0
LINE
  5
1514B
  8
AM_0
 10
969.87658882632149
 20
488.52662634032441
 30
0.0
 11
973.76147668221824
 21
474.0195259488836
 31
0.0
  0
LINE
  5
1514C
  8
AM_0
 10
970.98609285493035
 20
489.08342475022619
 30
0.0
 11
973.76141668221862
 21
478.71954594888359
 31
0.0
  0
LINE
  5
1514D
  8
AM_0
 10
971.42145668221826
 20
493.81954594888361
 30
0.0
 11
971.42145668221826
 21
490.21953594888362
 31
0.0
  0
ARC
  5
1514E
  8
AM_0
 10
969.72147668221828
 20
490.21953594888362
 30
0.0
 40
1.7000007999999991
 50
270.000020000002
 51
359.999989999999
  0
LINE
  5
1514F
  8
AM_0
 10
968.82147668221819
 20
488.21953594888379
 30
0.0
 11
967.8214766822183
 21
488.21953594888379
 31
0.0
  0
LINE
  5
15150
  8
AM_0
 10
967.8214766822183
 20
491.79689594888362
 30
0.0
 11
968.82147668221819
 21
491.21953594888362
 31
0.0
  0
LINE
  5
15151
  8
AM_0
 10
967.8214766822183
 20
492.79689594888362
 30
0.0
 11
968.82147668221819
 21
492.21953594888367
 31
0.0
  0
LINE
  5
15152
  8
AM_0
 10
968.82147668221819
 20
488.51952594888371
 30
0.0
 11
969.72147668221828
 21
488.51952594888371
 31
0.0
  0
ARC
  5
15153
  8
AM_0
 10
975.6913466822183
 20
479.23779594888362
 30
0.0
 40
1.9982919999999991
 50
195.03254799999601
 51
270.00263200000791
  0
ARC
  5
15154
  8
AM_0
 10
975.69629668221819
 20
476.39428594888381
 30
0.0
 40
2.0047290000000002
 50
195.17349599999631
 51
269.86167800000669
  0
LINE
  5
15155
  8
AM_0
 10
971.77710672209935
 20
480.5195259488836
 30
0.0
 11
967.8214766822183
 21
480.5195259488836
 31
0.0
  0
CIRCLE
  5
15156
  8
AM_0
 10
1000.321476682218
 20
505.01952594888371
 30
0.0
 40
1.149999999999999
  0
CIRCLE
  5
15157
  8
AM_0
 10
1000.321476682218
 20
505.01952594888371
 30
0.0
 40
1.1000000000000001
  0
CIRCLE
  5
15158
  8
AM_0
 10
995.3214766822183
 20
505.01952594888371
 30
0.0
 40
1.0
  0
LINE
  5
15159
  8
AM_0
 10
990.32147668221819
 20
506.01952594888348
 30
0.0
 11
990.32147668221819
 21
501.01952594888371
 31
0.0
  0
LINE
  5
1515A
  8
AM_0
 10
989.84143668221816
 20
506.01952594888348
 30
0.0
 11
989.84143668221816
 21
501.1595459488837
 31
0.0
  0
ARC
  5
1515B
  8
AM_0
 10
988.82147668221842
 20
506.01952594888348
 30
0.0
 40
1.5
 50
359.999989999999
 51
90.0
  0
ARC
  5
1515C
  8
AM_0
 10
988.82147668221842
 20
506.01952594888348
 30
0.0
 40
1.02
 50
359.999989999999
 51
90.0
  0
ARC
  5
1515D
  8
AM_0
 10
988.82147668221842
 20
501.01952594888371
 30
0.0
 40
1.5
 50
270.00000299999761
 51
0.0000100000010134
  0
ARC
  5
1515E
  8
AM_0
 10
988.84143668221816
 20
501.1595459488837
 30
0.0
 40
1.0
 50
270.00000299999761
 51
0.0000100000010134
  0
LINE
  5
1515F
  8
AM_0
 10
1005.801456682218
 20
506.01952594888348
 30
0.0
 11
1005.801456682218
 21
501.1595459488837
 31
0.0
  0
LINE
  5
15160
  8
AM_0
 10
1005.321476682218
 20
506.01952594888348
 30
0.0
 11
1005.321476682218
 21
501.01952594888371
 31
0.0
  0
ARC
  5
15161
  8
AM_0
 10
1006.821476682218
 20
506.01952594888348
 30
0.0
 40
1.5
 50
89.999989999999016
 51
180.00000068324951
  0
ARC
  5
15162
  8
AM_0
 10
1006.821476682218
 20
506.01952594888348
 30
0.0
 40
1.02
 50
89.999989999999016
 51
180.000000683243
  0
ARC
  5
15163
  8
AM_0
 10
1006.821476682218
 20
501.01952594888371
 30
0.0
 40
1.5
 50
180.0
 51
270.00000299999761
  0
ARC
  5
15164
  8
AM_0
 10
1006.801456682218
 20
501.1595459488837
 30
0.0
 40
1.0
 50
180.0
 51
270.00000299999761
  0
ARC
  5
15165
  8
AM_0
 10
1072.556886682218
 20
474.53625594888382
 30
0.0
 40
1.9967330000000001
 50
269.84396700000542
 51
351.45388000000429
  0
ARC
  5
15166
  8
AM_0
 10
1072.534976682218
 20
473.62512594888369
 30
0.0
 40
1.995633
 50
269.89970799999583
 51
352.06112999999903
  0
LINE
  5
15167
  8
AM_0
 10
1070.461426682218
 20
496.8695059488839
 30
0.0
 11
1075.8214166822179
 21
485.41952594888392
 31
0.0
  0
POLYLINE
  5
15168
  8
AM_0
 66
     1
 10
0.0
 20
0.0
 30
0.0
  0
VERTEX
  5
15169
  8
AM_0
 10
1071.9605766822181
 20
507.03649594888378
 30
0.0
 42
-0.00068898283
  0
VERTEX
  5
1516A
  8
AM_0
 10
1071.8896966822181
 20
506.46174594888379
 30
0.0
 42
-0.00070644357
  0
VERTEX
  5
1516B
  8
AM_0
 10
1071.8171966822181
 20
505.88705594888359
 30
0.0
 42
-0.00069248074
  0
VERTEX
  5
1516C
  8
AM_0
 10
1071.743106682218
 20
505.31274594888367
 30
0.0
 42
-0.0006958566
  0
VERTEX
  5
1516D
  8
AM_0
 10
1071.6674266822181
 20
504.73860594888379
 30
0.0
 42
-0.00071687219
  0
VERTEX
  5
1516E
  8
AM_0
 10
1071.5901166822191
 20
504.16460594888372
 30
0.0
 42
-0.00069760022
  0
VERTEX
  5
1516F
  8
AM_0
 10
1071.5111766822181
 20
503.5908159488838
 30
0.0
 42
-0.00071002302
  0
VERTEX
  5
15170
  8
AM_0
 10
1071.4306366822179
 20
503.01734594888359
 30
0.0
 42
-0.00069954889
  0
VERTEX
  5
15171
  8
AM_0
 10
1071.348496682218
 20
502.44424594888352
 30
0.0
 42
-0.00071887947
  0
VERTEX
  5
15172
  8
AM_0
 10
1071.264716682218
 20
501.87121594888367
 30
0.0
 42
-0.00071266929
  0
VERTEX
  5
15173
  8
AM_0
 10
1071.1792866822179
 20
501.29844594888351
 30
0.0
 42
-0.00071614429
  0
VERTEX
  5
15174
  8
AM_0
 10
1071.092256682218
 20
500.72610594888363
 30
0.0
 42
-0.00072288978
  0
VERTEX
  5
15175
  8
AM_0
 10
1071.003546682218
 20
500.15380594888359
 30
0.0
  0
SEQEND
  5
15176
  8
AM_0
  0
ARC
  5
15177
  8
AM_0
 10
1074.361456682218
 20
508.4945059488839
 30
0.0
 40
1.465004
 50
270.00000299999761
 51
90.0
  0
ARC
  5
15178
  8
AM_0
 10
1073.2768566822181
 20
508.5195259488836
 30
0.0
 40
1.0000138999999999
 50
269.69165999999939
 51
90.308340000000754
  0
ARC
  5
15179
  8
AM_0
 10
1074.1488666822181
 20
498.47448594888363
 30
0.0
 40
1.6750160000000001
 50
269.7461450000045
 51
90.253870000000916
  0
ARC
  5
1517A
  8
AM_0
 10
1073.2768566822181
 20
498.5195259488836
 30
0.0
 40
1.0000138999999999
 50
269.69165999999939
 51
90.308340000000754
  0
LINE
  5
1517B
  8
AM_0
 10
1075.8214166822179
 20
484.07949594888379
 30
0.0
 11
1074.5414466822181
 21
476.06954594888379
 31
0.0
  0
LINE
  5
1517C
  8
AM_0
 10
1075.821476682218
 20
485.41946594888378
 30
0.0
 11
1074.5814866822179
 21
478.85946594888361
 31
0.0
  0
LINE
  5
1517D
  8
AM_0
 10
1083.1214666822179
 20
490.32958594888379
 30
0.0
 11
1076.8914866822181
 21
490.32958594888379
 31
0.0
  0
ARC
  5
1517E
  8
AM_0
 10
1072.6227466822179
 20
479.23364594888358
 30
0.0
 40
1.994108999999999
 50
269.67554800000278
 51
349.18776999999852
  0
LINE
  5
1517F
  8
AM_0
 10
1075.821476682218
 20
482.72952594888358
 30
0.0
 11
1074.511476682218
 21
473.34948594888363
 31
0.0
  0
LINE
  5
15180
  8
AM_0
 10
1075.8214166822179
 20
482.72955594888379
 30
0.0
 11
1074.5314366822181
 21
474.23946594888349
 31
0.0
  0
ARC
  5
15181
  8
AM_0
 10
1072.5712266822179
 20
476.38476594888368
 30
0.0
 40
1.9952829999999999
 50
270.00620400000338
 51
350.9083499999997
  0
LINE
  5
15182
  8
AM_0
 10
1091.8153426490151
 20
515.52770465982121
 30
0.0
 11
1091.315373166593
 21
515.56771320474286
 31
0.0
  0
ARC
  5
15183
  8
AM_0
 10
1088.8212266822179
 20
508.51928594888381
 30
0.0
 40
1.000203
 50
0.0116499999956148
 51
89.988349999997908
  0
ARC
  5
15184
  8
AM_0
 10
1088.8263566822179
 20
508.51464594888381
 30
0.0
 40
0.99507803
 50
269.71588699999808
 51
0.2841099999999052
  0
LINE
  5
15185
  8
AM_0
 10
1087.821476682218
 20
507.88952594888377
 30
0.0
 11
1087.821476682218
 21
509.25951594888357
 31
0.0
  0
LINE
  5
15186
  8
AM_0
 10
1091.321476682218
 20
516.23949594888381
 30
0.0
 11
1089.821476682218
 21
516.23949594888381
 31
0.0
  0
LINE
  5
15187
  8
AM_0
 10
1091.321476682218
 20
513.51955594888375
 30
0.0
 11
1089.821476682218
 21
513.38955594888364
 31
0.0
  0
ARC
  5
15188
  8
AM_0
 10
1085.821296682218
 20
510.51940594888362
 30
0.0
 40
0.9998289899999999
 50
179.99019000000041
 51
270.00981100000098
  0
ARC
  5
15189
  8
AM_0
 10
1085.826416682218
 20
506.51464594888358
 30
0.0
 40
1.004942999999999
 50
90.281110000000041
 51
179.7188899999999
  0
LINE
  5
1518A
  8
AM_0
 10
1085.821476682218
 20
509.51952594888371
 30
0.0
 11
1088.821476682218
 21
509.51952594888371
 31
0.0
  0
LINE
  5
1518B
  8
AM_0
 10
1085.821476682218
 20
507.5195259488836
 30
0.0
 11
1088.821476682218
 21
507.5195259488836
 31
0.0
  0
LINE
  5
1518C
  8
AM_0
 10
1087.961486682218
 20
499.81948594888382
 30
0.0
 11
1089.111456682218
 21
500.16949594888388
 31
0.0
  0
LINE
  5
1518D
  8
AM_0
 10
1088.011476682218
 20
497.90951594888378
 30
0.0
 11
1089.211426682218
 21
498.4195259488838
 31
0.0
  0
ARC
  5
1518E
  8
AM_0
 10
1088.825076682218
 20
499.33801594888382
 30
0.0
 40
0.9963999999999998
 50
292.81736000000677
 51
0.0904199999996011
  0
LINE
  5
1518F
  8
AM_0
 10
1087.821476682218
 20
498.12951594888381
 30
0.0
 11
1087.821476682218
 21
499.18957594888388
 31
0.0
  0
ARC
  5
15190
  8
AM_0
 10
1087.682316682218
 20
500.77221594888363
 30
0.0
 40
0.9927430199999999
 50
269.37455499999561
 51
286.33207000000169
  0
ARC
  5
15191
  8
AM_0
 10
1087.6204866822179
 20
498.82494594888368
 30
0.0
 40
0.9954450099999999
 50
270.05690499999639
 51
293.1274499999983
  0
ARC
  5
15192
  8
AM_0
 10
1088.8251966822179
 20
501.1237759488838
 30
0.0
 40
0.9962710099999999
 50
286.6979199999999
 51
0.3300499999999552
  0
ARC
  5
15193
  8
AM_0
 10
1085.5260066822179
 20
497.12499594888368
 30
0.0
 40
0.704566
 50
90.370100000003333
 51
179.62990999999781
  0
ARC
  5
15194
  8
AM_0
 10
1085.819766682218
 20
500.77783594888371
 30
0.0
 40
0.9982839799999999
 50
179.90142000000009
 51
270.0985760000014
  0
LINE
  5
15195
  8
AM_0
 10
1087.6214666822179
 20
497.82958594888362
 30
0.0
 11
1085.521486682218
 21
497.82958594888362
 31
0.0
  0
LINE
  5
15196
  8
AM_0
 10
1087.6714466822179
 20
499.77953594888362
 30
0.0
 11
1085.821476682218
 21
499.77953594888362
 31
0.0
  0
ARC
  5
15197
  8
AM_0
 10
1087.5594466822181
 20
484.76537594888379
 30
0.0
 40
0.9959030199999999
 50
269.5412669999991
 51
299.60716999999647
  0
LINE
  5
15198
  8
AM_0
 10
1088.0615266822181
 20
486.01946594888381
 30
0.0
 11
1089.3414966822179
 21
486.78948594888368
 31
0.0
  0
ARC
  5
15199
  8
AM_0
 10
1088.825866682218
 20
486.53979594888369
 30
0.0
 40
0.995579
 50
296.58708999999777
 51
359.98264
  0
LINE
  5
1519A
  8
AM_0
 10
1087.821476682218
 20
486.11950594888378
 30
0.0
 11
1087.821476682218
 21
486.66955594888378
 31
0.0
  0
LINE
  5
1519B
  8
AM_0
 10
1088.0414466822181
 20
487.12948594888383
 30
0.0
 11
1089.2914466822181
 21
487.79949594888359
 31
0.0
  0
ARC
  5
1519C
  8
AM_0
 10
1088.827026682218
 20
487.64050594888369
 30
0.0
 40
0.9944329899999999
 50
301.15212999999699
 51
359.94050999999899
  0
ARC
  5
1519D
  8
AM_0
 10
1088.8282466822179
 20
488.67809594888359
 30
0.0
 40
0.9932109699999999
 50
297.79932000000349
 51
0.081870000000068
  0
ARC
  5
1519E
  8
AM_0
 10
1088.8282466822179
 20
485.50158594888381
 30
0.0
 40
0.99319202
 50
299.77337999999719
 51
359.87958999999807
  0
LINE
  5
1519F
  8
AM_0
 10
1088.0314966822179
 20
485.0195259488836
 30
0.0
 11
1089.271486682218
 21
485.64953594888362
 31
0.0
  0
LINE
  5
151A0
  8
AM_0
 10
1088.051456682218
 20
483.89956594888361
 30
0.0
 11
1089.3214166822179
 21
484.63955594888381
 31
0.0
  0
LINE
  5
151A1
  8
AM_0
 10
1087.821476682218
 20
484.0195259488836
 30
0.0
 11
1087.821476682218
 21
484.54955594888378
 31
0.0
  0
ARC
  5
151A2
  8
AM_0
 10
1087.5863666822181
 20
488.01489594888358
 30
0.0
 40
0.99545902
 50
269.14129100000002
 51
297.20381999999961
  0
ARC
  5
151A3
  8
AM_0
 10
1087.596686682218
 20
485.91357594888387
 30
0.0
 40
0.99411702
 50
269.12264399999191
 51
295.93498000000181
  0
ARC
  5
151A4
  8
AM_0
 10
1087.5526166822181
 20
486.8737759488838
 30
0.0
 40
0.99427301
 50
269.3560660000033
 51
300.78090999999898
  0
LINE
  5
151A5
  8
AM_0
 10
1088.0515166822181
 20
491.66949594888348
 30
0.0
 11
1089.3314866822179
 21
492.41949594888348
 31
0.0
  0
LINE
  5
151A6
  8
AM_0
 10
1088.071536682218
 20
490.55950594888361
 30
0.0
 11
1089.371526682218
 21
491.40948594888363
 31
0.0
  0
ARC
  5
151A7
  8
AM_0
 10
1088.827396682218
 20
493.27636594888361
 30
0.0
 40
0.99404597
 50
300.46820000000622
 51
0.1856400000003633
  0
ARC
  5
151A8
  8
AM_0
 10
1088.826666682218
 20
492.2419459488836
 30
0.0
 40
0.9948369899999999
 50
303.2049600000056
 51
0.4378599999981084
  0
LINE
  5
151A9
  8
AM_0
 10
1087.821476682218
 20
490.68957594888388
 30
0.0
 11
1087.821476682218
 21
491.15954594888359
 31
0.0
  0
ARC
  5
151AA
  8
AM_0
 10
1087.5420566822179
 20
492.52599594888369
 30
0.0
 40
0.99648702
 50
270.54072100000189
 51
300.74377000000072
  0
ARC
  5
151AB
  8
AM_0
 10
1087.5148366822179
 20
491.38574594888382
 30
0.0
 40
0.99617702
 50
270.38131800000252
 51
303.97048999999998
  0
ARC
  5
151AC
  8
AM_0
 10
1085.8204966822179
 20
488.01855594888377
 30
0.0
 40
0.9990100299999999
 50
179.94319000000129
 51
270.0568089999968
  0
ARC
  5
151AD
  8
AM_0
 10
1085.319766682218
 20
485.41784594888378
 30
0.0
 40
0.4983060100000002
 50
179.80488999999781
 51
270.19510699999353
  0
ARC
  5
151AE
  8
AM_0
 10
1085.823796682218
 20
492.53185594888362
 30
0.0
 40
1.002353
 50
180.13432681999851
 51
269.86567300000593
  0
LINE
  5
151AF
  8
AM_0
 10
1087.571476682218
 20
487.0195259488836
 30
0.0
 11
1085.821476682218
 21
487.0195259488836
 31
0.0
  0
LINE
  5
151B0
  8
AM_0
 10
1087.5814866822179
 20
484.91955594888378
 30
0.0
 11
1085.321476682218
 21
484.91955594888378
 31
0.0
  0
LINE
  5
151B1
  8
AM_0
 10
1087.5414466822181
 20
485.87951594888369
 30
0.0
 11
1084.821476682218
 21
485.87951594888369
 31
0.0
  0
LINE
  5
151B2
  8
AM_0
 10
1087.5214266822179
 20
490.38952594888377
 30
0.0
 11
1084.821476682218
 21
490.38952594888377
 31
0.0
  0
LINE
  5
151B3
  8
AM_0
 10
1087.551456682218
 20
491.52953594888351
 30
0.0
 11
1085.821476682218
 21
491.52953594888351
 31
0.0
  0
ARC
  5
151B4
  8
AM_0
 10
1085.326056682218
 20
483.26489594888358
 30
0.0
 40
0.50463498
 50
90.523830000000444
 51
179.4761699999996
  0
LINE
  5
151B5
  8
AM_0
 10
1084.821476682218
 20
483.51952594888382
 30
0.0
 11
1083.821476682218
 21
483.51952594888382
 31
0.0
  0
LINE
  5
151B6
  8
AM_0
 10
1087.551456682218
 20
483.7695259488836
 30
0.0
 11
1085.321476682218
 21
483.7695259488836
 31
0.0
  0
ARC
  5
151B7
  8
AM_0
 10
845.82147380629431
 20
284.61945269770251
 30
0.0
 40
12.0
 50
109.4712206344867
 51
70.528779365513174
  0
CIRCLE
  5
151B8
  8
AM_0
 10
845.82147380629362
 20
284.61945269770217
 30
0.0
 40
19.999800629214029
  0
LINE
  5
151B9
  8
AM_0
 10
849.82147380629431
 20
299.61945269770251
 30
0.0
 11
841.82147380629431
 21
299.61945269770251
 31
0.0
  0
CIRCLE
  5
151BA
  8
ｽﾝﾎﾟｳｾﾝ
 10
845.82147380629397
 20
284.61945269770229
 30
0.0
 40
4.0
  0
LINE
  5
151BB
  8
AM_0
 10
841.82147380629431
 20
292.6194526977024
 30
0.0
 11
849.82147380629431
 21
292.6194526977024
 31
0.0
  0
LINE
  5
151BC
  8
AM_0
 10
849.82147380629431
 20
292.6194526977024
 30
0.0
 11
849.82147380629431
 21
299.61945269770251
 31
0.0
  0
LINE
  5
151BD
  8
AM_0
 10
841.82147380629431
 20
299.61945269770251
 30
0.0
 11
841.82147380629431
 21
292.6194526977024
 31
0.0
  0
CIRCLE
  5
151BE
  8
AM_0
 10
845.82147380629431
 20
284.61945269770251
 30
0.0
 40
3.399999999999999
  0
LINE
  5
151BF
  8
AM_0
 10
808.32147268870744
 20
582.519543337919
 30
0.0
 11
883.32147492388106
 21
582.519543337919
 31
0.0
  0
LINE
  5
151C0
  8
AM_0
 10
788.32148735145086
 20
578.51954321870971
 30
0.0
 11
942.32146142342799
 21
578.51954321870926
 31
0.0
  0
LINE
  5
151C1
  8
AM_0
 10
808.32147268870733
 20
484.51954041729152
 30
0.0
 11
883.32147492388106
 21
484.51954041729152
 31
0.0
  0
LINE
  5
151C2
  8
AM_0
 10
942.32146142342799
 20
488.51954053650059
 30
0.0
 11
788.32148735145086
 21
488.5195405365007
 31
0.0
  0
LINE
  5
151C3
  8
AM_0
 10
788.32147209266054
 20
558.51955788951034
 30
0.0
 11
942.32147668221819
 21
558.51955788951034
 31
0.0
  0
LINE
  5
151C4
  8
ﾁｭｳｼﾝｾﾝ1
 10
1096.321476682218
 20
533.5195059571455
 30
0.0
 11
783.32147209266054
 21
533.51954940672056
 31
0.0
1001
GENIUS_GENODEF_13
1002
{
1000
HIER
1070
     0
1002
}
1002
{
1000
MANEDIT
1070
     0
1002
}
1002
{
1000
NOSEL
1070
     0
1002
}
1002
{
1000
BEHIND
1070
     0
1002
}
1002
{
1000
REACTOR
1002
}
1001
GENIUS_GENOBJ-N-CEN_13
1002
{
1000
OWNER
1000
GEN
1002
}
  0
LINE
  5
151C5
  8
AM_0
 10
942.32147668221819
 20
558.51955788951034
 30
0.0
 11
941.09963604379664
 21
488.51955559473163
 31
0.0
  0
ARC
  5
151C6
  8
AM_0
 10
943.0999406929302
 20
488.51955559473168
 30
0.0
 40
2.0
 50
90.000000000000057
 51
179.00001141197629
1001
GENIUS_GENODEF_13
1002
{
1000
HIER
1070
     0
1002
}
1002
{
1000
MANEDIT
1070
     0
1002
}
1002
{
1000
NOSEL
1070
     0
1002
}
1002
{
1000
BEHIND
1070
     0
1002
}
1002
{
1000
OTHER
1070
     0
1002
}
1002
{
1000
REACTOR
1002
}
1001
GENIUS_GENOBJ-N-FIL_13
1002
{
1000
OWNER
1000
GEN
1002
}
  0
LINE
  5
151C7
  8
AM_0
 10
951.18389950670348
 20
477.98748437788493
 30
0.0
 11
951.18388424858927
 21
589.05166215036115
 31
0.0
  0
LINE
  5
151C8
  8
AM_0
 10
959.8214766822183
 20
589.51953595714576
 30
0.0
 11
959.8214766822183
 21
477.5195149571457
 31
0.0
  0
LINE
  5
151C9
  8
AM_0
 10
950.49984357374024
 20
587.86686688707505
 30
0.0
 11
945.11817988422581
 21
557.34590985306011
 31
0.0
1001
GENIUS_GENODEF_13
1002
{
1000
HIER
1070
     0
1002
}
1002
{
1000
MANEDIT
1070
     0
1002
}
1002
{
1000
NOSEL
1070
     0
1002
}
1002
{
1000
BEHIND
1070
     0
1002
}
1002
{
1000
REACTOR
1002
}
1001
GENIUS_GENOBJ-N-CEN_13
1002
{
1000
OWNER
1000
GEN
1002
}
  0
LINE
  5
151CA
  8
AM_0
 10
959.8214766822183
 20
589.51957335629572
 30
0.0
 11
952.46945957780929
 21
589.51957335629572
 31
0.0
  0
ARC
  5
151CB
  8
AM_0
 10
952.46945957780929
 20
587.51957335629572
 30
0.0
 40
2.0
 50
90.000000000000057
 51
170.0000082159259
1001
GENIUS_GENOBJ-N-CEN_13
1002
{
1000
OWNER
1000
GEN
1002
}
1001
GENIUS_GENODEF_13
1002
{
1000
HIER
1070
     0
1002
}
1002
{
1000
MANEDIT
1070
     0
1002
}
1002
{
1000
NOSEL
1070
     0
1002
}
1002
{
1000
BEHIND
1070
     0
1002
}
1002
{
1000
OTHER
1070
     0
1002
}
1002
{
1000
REACTOR
1002
}
1001
GENIUS_GENOBJ-N-FIL_13
1002
{
1000
OWNER
1000
GEN
1002
}
  0
LINE
  5
151CC
  8
AM_0
 10
959.8214766822183
 20
565.45703085629566
 30
0.0
 11
951.18388748974053
 21
565.45924585145303
 31
0.0
  0
LINE
  5
151CD
  8
AM_0
 10
959.8214766822183
 20
579.51959885629583
 30
0.0
 11
951.18388555811669
 21
579.51957971353613
 31
0.0
  0
LINE
  5
151CE
  8
AM_0
 10
941.97235558170541
 20
578.51955827694064
 30
0.0
 11
942.32147668221819
 21
558.51955788951034
 31
0.0
  0
LINE
  5
151CF
  8
AM_0
 10
943.30417414109399
 20
556.51955788951034
 30
0.0
 11
944.13337210631323
 21
556.51955788951034
 31
0.0
  0
ARC
  5
151D0
  8
AM_0
 10
944.13337210631323
 20
557.51955788951034
 30
0.0
 40
1.0
 50
270.0
 51
350.0000082159325
1001
GENIUS_GENODEF_13
1002
{
1000
HIER
1070
     0
1002
}
1002
{
1000
MANEDIT
1070
     0
1002
}
1002
{
1000
NOSEL
1070
     0
1002
}
1002
{
1000
BEHIND
1070
     0
1002
}
1002
{
1000
OTHER
1070
     0
1002
}
1002
{
1000
REACTOR
1002
}
1001
GENIUS_GENOBJ-N-FIL_13
1002
{
1000
OWNER
1000
GEN
1002
}
  0
ARC
  5
151D1
  8
AM_0
 10
943.30417414109399
 20
557.51955788951034
 30
0.0
 40
1.0
 50
179.00001141197629
 51
270.0
1001
GENIUS_GENOBJ-N-FIL_13
1002
{
1000
OWNER
1000
GEN
1002
}
1001
GENIUS_GENODEF_13
1002
{
1000
HIER
1070
     0
1002
}
1002
{
1000
MANEDIT
1070
     0
1002
}
1002
{
1000
NOSEL
1070
     0
1002
}
1002
{
1000
BEHIND
1070
     0
1002
}
1002
{
1000
OTHER
1070
     0
1002
}
1002
{
1000
REACTOR
1002
}
  0
LINE
  5
151D2
  8
AM_0
 10
883.32147492388106
 20
488.51954053650059
 30
0.0
 11
883.32147492388106
 21
484.51954041729152
 31
0.0
  0
LINE
  5
151D3
  8
AM_0
 10
950.49985916000583
 20
479.17227671852862
 30
0.0
 11
948.79044249700155
 21
488.8668522324985
 31
0.0
1001
GENIUS_GENODEF_13
1002
{
1000
HIER
1070
     0
1002
}
1002
{
1000
MANEDIT
1070
     0
1002
}
1002
{
1000
NOSEL
1070
     0
1002
}
1002
{
1000
BEHIND
1070
     0
1002
}
1002
{
1000
REACTOR
1002
}
1001
GENIUS_GENOBJ-N-CEN_13
1002
{
1000
OWNER
1000
GEN
1002
}
  0
LINE
  5
151D4
  8
AM_0
 10
959.8214766822183
 20
501.57962335629583
 30
0.0
 11
951.18389626559019
 21
501.57962335629583
 31
0.0
  0
LINE
  5
151D5
  8
AM_0
 10
959.8214766822183
 20
487.51957335629572
 30
0.0
 11
951.18389819717515
 21
487.51957335629572
 31
0.0
  0
LINE
  5
151D6
  8
AM_0
 10
943.0999406929302
 20
490.5195555947318
 30
0.0
 11
946.82082704077777
 21
490.51955559473151
 31
0.0
  0
ARC
  5
151D7
  8
AM_0
 10
946.82082704077777
 20
488.51955559473163
 30
0.0
 40
2.0
 50
10.00000821592967
 51
90.000000000000057
1001
GENIUS_GENOBJ-N-CEN_13
1002
{
1000
OWNER
1000
GEN
1002
}
1001
GENIUS_GENODEF_13
1002
{
1000
HIER
1070
     0
1002
}
1002
{
1000
MANEDIT
1070
     0
1002
}
1002
{
1000
NOSEL
1070
     0
1002
}
1002
{
1000
BEHIND
1070
     0
1002
}
1002
{
1000
OTHER
1070
     0
1002
}
1002
{
1000
REACTOR
1002
}
1001
GENIUS_GENOBJ-N-FIL_13
1002
{
1000
OWNER
1000
GEN
1002
}
  0
LINE
  5
151D8
  8
AM_0
 10
959.8214766822183
 20
477.51957335629572
 30
0.0
 11
952.4694746162296
 21
477.51957335629572
 31
0.0
  0
ARC
  5
151D9
  8
AM_0
 10
952.4694746162296
 20
479.51957335629572
 30
0.0
 40
2.0
 50
190.0000082159296
 51
270.0
1001
GENIUS_GENOBJ-N-CEN_13
1002
{
1000
OWNER
1000
GEN
1002
}
1001
GENIUS_GENOBJ-N-FIL_13
1002
{
1000
OWNER
1000
GEN
1002
}
1001
GENIUS_GENODEF_13
1002
{
1000
HIER
1070
     0
1002
}
1002
{
1000
MANEDIT
1070
     0
1002
}
1002
{
1000
NOSEL
1070
     0
1002
}
1002
{
1000
BEHIND
1070
     0
1002
}
1002
{
1000
OTHER
1070
     0
1002
}
1002
{
1000
REACTOR
1002
}
  0
LINE
  5
151DA
  8
AM_0
 10
883.32147492388106
 20
578.51954321870971
 30
0.0
 11
883.32147492388106
 21
582.519543337919
 31
0.0
  0
LINE
  5
151DB
  8
ﾁｭｳｼﾝｾﾝ1
 10
845.82147380629431
 20
420.5195396599587
 30
0.0
 11
845.82147380629431
 21
587.51954104408264
 31
0.0
  0
LINE
  5
151DC
  8
AM_0
 10
788.32147209266054
 20
558.51955788951034
 30
0.0
 11
789.54334047433599
 21
488.51955559473163
 31
0.0
  0
LINE
  5
151DD
  8
AM_0
 10
808.32147268870733
 20
488.5195405365007
 30
0.0
 11
808.32147268870733
 21
484.51954041729152
 31
0.0
  0
LINE
  5
151DE
  8
AM_0
 10
788.67059319317298
 20
578.51955827694042
 30
0.0
 11
788.32147209266054
 21
558.51955788951034
 31
0.0
  0
LINE
  5
151DF
  8
AM_0
 10
808.32147268870744
 20
578.51954321870971
 30
0.0
 11
808.32147268870744
 21
582.519543337919
 31
0.0
  0
LINE
  5
151E0
  8
AM_0
 10
825.82167319403152
 20
480.51953789032473
 30
0.0
 11
825.82167319403152
 21
484.51953800953402
 31
0.0
  0
LINE
  5
151E1
  8
AM_0
 10
825.82167319403152
 20
480.51953789032473
 30
0.0
 11
865.82127438611224
 21
480.51953789032473
 31
0.0
  0
LINE
  5
151E2
  8
AM_0
 10
825.82167319403152
 20
480.51953789032473
 30
0.0
 11
830.82147382324479
 21
465.5195396599587
 31
0.0
  0
LINE
  5
151E3
  8
AM_0
 10
860.8214738232449
 20
465.51953965995858
 30
0.0
 11
830.82147382324479
 21
465.5195396599587
 31
0.0
  0
LINE
  5
151E4
  8
AM_0
 10
865.82127438611224
 20
480.51953789032473
 30
0.0
 11
860.8214738232449
 21
465.51953965995858
 31
0.0
  0
LINE
  5
151E5
  8
AM_0
 10
865.82127438611224
 20
480.51953789032473
 30
0.0
 11
865.82127438611224
 21
484.51953800953402
 31
0.0
  0
LINE
  5
151E6
  8
0
 10
857.82147383851384
 20
425.51953969423198
 30
0.0
 11
833.82147383851361
 21
425.5195396256853
 31
0.0
  0
LINE
  5
151E7
  8
0
 10
857.82147383851384
 20
425.51953965995881
 30
0.0
 11
857.82147383851384
 21
465.51953965995858
 31
0.0
  0
LINE
  5
151E8
  8
0
 10
833.82147383851361
 20
425.51953965995881
 30
0.0
 11
833.82147384452605
 21
465.5195396599587
 31
0.0
  0
LINE
  5
151E9
  8
0
 10
841.82147380629431
 20
457.51953961666618
 30
0.0
 11
849.82147380629408
 21
457.51953961666618
 31
0.0
  0
LINE
  5
151EA
  8
AM_0
 10
841.82147380629408
 20
425.51953964853419
 30
0.0
 11
841.82147380629431
 21
457.51953961666618
 31
0.0
  0
LINE
  5
151EB
  8
AM_0
 10
849.82147380629408
 20
425.5195396713832
 30
0.0
 11
849.82147380629408
 21
457.51953961666629
 31
0.0
  0
ARC
  5
151EC
  8
AM_0
 10
845.82147380629397
 20
457.51953961666618
 30
0.0
 40
3.9999999999999432
 50
0.000000000000007
 51
180.0
  0
LINE
  5
151ED
  8
AM_0
 10
788.32148735145086
 20
463.51954053650132
 30
0.0
 11
788.32148735145086
 21
488.51954053650059
 31
0.0
  0
LINE
  5
151EE
  8
AM_0
 10
942.32146142342799
 20
488.51954053650059
 30
0.0
 11
942.32146142342799
 21
463.51954053650132
 31
0.0
  0
LINE
  5
151EF
  8
AM_0
 10
937.32146142342799
 20
458.51954053650138
 30
0.0
 11
857.82147383851384
 21
458.51954053650138
 31
0.0
  0
LINE
  5
151F0
  8
AM_0
 10
833.82147384347411
 20
458.51954053650138
 30
0.0
 11
793.32148735145086
 21
458.51954053650138
 31
0.0
  0
LINE
  5
151F1
  8
AM_0
 10
788.32148735145086
 20
484.01954053650059
 30
0.0
 11
825.82167319403106
 21
484.0195405365007
 31
0.0
  0
LINE
  5
151F2
  8
AM_0
 10
865.82127438611224
 20
484.0195405365007
 30
0.0
 11
942.32146142342799
 21
484.01954053650059
 31
0.0
  0
ARC
  5
151F3
  8
AM_0
 10
793.32148735145086
 20
463.51954053650132
 30
0.0
 40
5.0
 50
180.0
 51
270.0
1001
GENIUS_GENODEF_13
1002
{
1000
HIER
1070
     0
1002
}
1002
{
1000
MANEDIT
1070
     0
1002
}
1002
{
1000
NOSEL
1070
     0
1002
}
1002
{
1000
BEHIND
1070
     0
1002
}
1002
{
1000
OTHER
1070
     0
1002
}
1002
{
1000
REACTOR
1002
}
1001
GENIUS_GENOBJ-N-FIL_13
1002
{
1000
OWNER
1000
GEN
1002
}
  0
ARC
  5
151F4
  8
AM_0
 10
937.32146142342799
 20
463.51954053650132
 30
0.0
 40
5.0
 50
270.0
 51
0.000000000000007
1001
GENIUS_GENODEF_13
1002
{
1000
HIER
1070
     0
1002
}
1002
{
1000
MANEDIT
1070
     0
1002
}
1002
{
1000
NOSEL
1070
     0
1002
}
1002
{
1000
BEHIND
1070
     0
1002
}
1002
{
1000
OTHER
1070
     0
1002
}
1002
{
1000
REACTOR
1002
}
1001
GENIUS_GENOBJ-N-FIL_13
1002
{
1000
OWNER
1000
GEN
1002
}
  0
LINE
  5
151F5
  8
ﾁｭｳｼﾝｾﾝ1
 10
817.82148906508473
 20
456.51954187760492
 30
0.0
 11
817.82148906508473
 21
480.51954187760492
 31
0.0
  0
LINE
  5
151F6
  8
ﾁｭｳｼﾝｾﾝ1
 10
829.82148906508473
 20
468.51954187760492
 30
0.0
 11
805.82148906508462
 21
468.51954187760492
 31
0.0
  0
LINE
  5
151F7
  8
AM_0
 10
885.3214890650853
 20
462.01954053650081
 30
0.0
 11
885.32148906508439
 21
484.01954053650059
 31
0.0
  0
LINE
  5
151F8
  8
AM_0
 10
889.82148906508496
 20
462.01954053650081
 30
0.0
 11
889.82148906508462
 21
484.01954053650059
 31
0.0
  0
LINE
  5
151F9
  8
AM_0
 10
885.32148906508496
 20
478.0195405365007
 30
0.0
 11
889.82148906508462
 21
478.0195405365007
 31
0.0
  0
LINE
  5
151FA
  8
AM_0
 10
885.3214890650853
 20
462.01954053650081
 30
0.0
 11
889.82148906508496
 21
462.01954053650081
 31
0.0
  0
CIRCLE
  5
151FB
  8
AM_0
 10
817.82148906508473
 20
468.51954187760492
 30
0.0
 40
5.0
  0
CIRCLE
  5
151FC
  8
AM_0
 10
912.82145970979366
 20
468.51954187760492
 30
0.0
 40
5.0
  0
INSERT
  5
151FD
  8
AM_0
  6
CONTINUOUS
  2
*U5
 10
0.0
 20
0.0
 30
0.0
1001
GENIUS_GENODEF_13
1002
{
1000
HIER
1070
     0
1002
}
1002
{
1000
MANEDIT
1070
     0
1002
}
1002
{
1000
NOSEL
1070
     0
1002
}
1002
{
1000
BEHIND
1070
     0
1002
}
1002
{
1000
OTHER
1070
     0
1002
}
1002
{
1000
REACTOR
1002
}
1001
GENIUS_GENOBJ-N-HTC_13
1002
{
1000
OWNER
1000
GEN
1002
}
1001
GENIUS_GENHATCH_13
1002
{
1000
DATA
1040
0.0
1042
-1.0
1000
SOLID
1070
     0
1011
884.36968602417585
1021
0.0
1031
0.0
1021
483.16296589598318
1031
0.0
1002
}
1002
{
1000
UCS
1010
0.0
1020
0.0
1030
0.0
1010
1.0
1020
0.0
1030
0.0
1010
0.0
1020
1.0
1030
0.0
1002
}
1001
ACAD
1002
{
1000
R14_HATCH_DATA
1000
151FD
1011
1.0
1021
0.0
1031
0.0
1021
0.0
1031
0.0
1011
0.0
1021
0.0
1031
0.0
1021
1.0
1031
0.0
1011
0.0
1021
0.0
1031
0.0
1021
0.0
1031
1.0
1040
0.0
1010
0.0
1020
0.0
1030
1.0
1000
SOLID
1070
     1
1070
     0
1071
        2
1071
        1
1071
        3
1070
     1
1040
885.32151818195598
1040
484.01954053650059
1040
882.82151818195598
1040
484.01954053650059
1070
     1
1040
882.82151818195598
1040
484.01954053650059
1040
885.32151818195598
1040
481.5195405365007
1070
     1
1040
885.32151818195598
1040
481.5195405365007
1040
885.32151818195598
1040
484.01954053650059
1071
        0
1071
       33
1071
        1
1070
     1
1040
832.82154442290334
1040
484.0195405365007
1040
986.82151849488037
1040
484.0195405365007
1071
        0
1070
     0
1070
     1
1071
        1
1040
1060.8634795324069
1040
576.45016086719011
1040
0.0
1002
}
  0
LINE
  5
151FE
  8
AM_0
 10
885.32151818195598
 20
481.5195405365007
 30
0.0
 11
882.82151818195598
 21
484.01954053650059
 31
0.0
1001
GENIUS_GENFIL_13
1070
     0
1040
2.5
1040
2.5
1040
20.0
1040
0.0
1002
{
1002
}
1001
GENIUS_GENODEF_13
1002
{
1000
HIER
1070
     0
1002
}
1002
{
1000
MANEDIT
1070
     0
1002
}
1002
{
1000
NOSEL
1070
     0
1002
}
1002
{
1000
BEHIND
1070
     0
1002
}
1002
{
1000
OTHER
1070
     0
1002
}
1002
{
1000
REACTOR
1002
}
1001
GENIUS_GENOBJ-N-CHA_13
1002
{
1000
OWNER
1000
GEN
1002
}
  0
LINE
  5
151FF
  8
AM_0
 10
889.82151818195553
 20
481.5195405365007
 30
0.0
 11
892.32151818195553
 21
484.01954053650059
 31
0.0
1001
GENIUS_GENFIL_13
1070
     0
1040
2.5
1040
2.5
1040
20.0
1040
0.0
1002
{
1002
}
1001
GENIUS_GENODEF_13
1002
{
1000
HIER
1070
     0
1002
}
1002
{
1000
MANEDIT
1070
     0
1002
}
1002
{
1000
NOSEL
1070
     0
1002
}
1002
{
1000
BEHIND
1070
     0
1002
}
1002
{
1000
OTHER
1070
     0
1002
}
1002
{
1000
REACTOR
1002
}
1001
GENIUS_GENOBJ-N-CHA_13
1002
{
1000
OWNER
1000
GEN
1002
}
  0
INSERT
  5
15200
  8
AM_0
  6
CONTINUOUS
  2
*U6
 10
0.0
 20
0.0
 30
0.0
1001
GENIUS_GENODEF_13
1002
{
1000
HIER
1070
     0
1002
}
1002
{
1000
MANEDIT
1070
     0
1002
}
1002
{
1000
NOSEL
1070
     0
1002
}
1002
{
1000
BEHIND
1070
     0
1002
}
1002
{
1000
OTHER
1070
     0
1002
}
1002
{
1000
REACTOR
1002
}
1001
GENIUS_GENOBJ-N-HTC_13
1002
{
1000
OWNER
1000
GEN
1002
}
1001
GENIUS_GENHATCH_13
1002
{
1000
DATA
1040
0.0
1042
-1.0
1000
SOLID
1070
     0
1011
890.77335033973566
1021
0.0
1031
0.0
1021
483.16296589598318
1031
0.0
1002
}
1002
{
1000
UCS
1010
0.0
1020
0.0
1030
0.0
1010
1.0
1020
0.0
1030
0.0
1010
0.0
1020
1.0
1030
0.0
1002
}
1001
ACAD
1002
{
1000
R14_HATCH_DATA
1000
15200
1011
1.0
1021
0.0
1031
0.0
1021
0.0
1031
0.0
1011
0.0
1021
0.0
1031
0.0
1021
1.0
1031
0.0
1011
0.0
1021
0.0
1031
0.0
1021
0.0
1031
1.0
1040
0.0
1010
0.0
1020
0.0
1030
1.0
1000
SOLID
1070
     1
1070
     0
1071
        2
1071
        1
1071
        3
1070
     1
1040
889.82151818195553
1040
484.01954053650059
1040
892.32151818195553
1040
484.01954053650059
1070
     1
1040
892.32151818195553
1040
484.01954053650059
1040
889.82151818195553
1040
481.5195405365007
1070
     1
1040
889.82151818195553
1040
481.5195405365007
1040
889.82151818195553
1040
484.01954053650059
1071
        0
1071
       33
1071
        1
1070
     1
1040
942.32149194100828
1040
484.0195405365007
1040
788.32151786903125
1040
484.0195405365007
1071
        0
1070
     0
1070
     1
1071
        1
1040
714.2795568315039
1040
576.45016086719011
1040
0.0
1002
}
  0
LINE
  5
15201
  8
AM_5
 10
884.82145970979479
 20
484.01954053650059
 30
0.0
 11
884.82145970979479
 21
488.51954053650059
 31
0.0
  0
LINE
  5
15202
  8
AM_5
 10
908.92617932320786
 20
484.01954053650059
 30
0.0
 11
908.92617932320786
 21
488.51954053650059
 31
0.0
  0
LINE
  5
15203
  8
ﾁｭｳｼﾝｾﾝ1
 10
912.82145970979366
 20
456.51954187760492
 30
0.0
 11
912.82145970979366
 21
480.51954187760492
 31
0.0
  0
LINE
  5
15204
  8
ﾁｭｳｼﾝｾﾝ1
 10
924.82145970979354
 20
468.51954187760492
 30
0.0
 11
900.82145970979354
 21
468.51954187760492
 31
0.0
  0
LINE
  5
15205
  8
AM_0
 10
788.32148735145086
 20
603.51955827693973
 30
0.0
 11
788.32148735145086
 21
578.51955827694042
 31
0.0
  0
LINE
  5
15206
  8
AM_0
 10
942.32146142342799
 20
578.51955827694042
 30
0.0
 11
942.32146142342799
 21
603.51955827693973
 31
0.0
  0
LINE
  5
15207
  8
AM_0
 10
937.32146142342799
 20
608.51955827693973
 30
0.0
 11
793.32148735145086
 21
608.51955827693973
 31
0.0
  0
LINE
  5
15208
  8
AM_0
 10
788.32148735145086
 20
583.01955827694042
 30
0.0
 11
942.32146142342799
 21
583.01955827694042
 31
0.0
  0
ARC
  5
15209
  8
AM_0
 10
793.32148735145086
 20
603.51955827693973
 30
0.0
 40
5.0
 50
90.0
 51
180.0
1001
GENIUS_GENODEF_13
1002
{
1000
HIER
1070
     0
1002
}
1002
{
1000
MANEDIT
1070
     0
1002
}
1002
{
1000
NOSEL
1070
     0
1002
}
1002
{
1000
BEHIND
1070
     0
1002
}
1002
{
1000
OTHER
1070
     0
1002
}
1002
{
1000
REACTOR
1002
}
1001
GENIUS_GENOBJ-N-FIL_13
1002
{
1000
OWNER
1000
GEN
1002
}
  0
ARC
  5
1520A
  8
AM_0
 10
937.32146142342799
 20
603.51955827693973
 30
0.0
 40
5.0
 50
0.000000000000007
 51
90.0
1001
GENIUS_GENODEF_13
1002
{
1000
HIER
1070
     0
1002
}
1002
{
1000
MANEDIT
1070
     0
1002
}
1002
{
1000
NOSEL
1070
     0
1002
}
1002
{
1000
BEHIND
1070
     0
1002
}
1002
{
1000
OTHER
1070
     0
1002
}
1002
{
1000
REACTOR
1002
}
1001
GENIUS_GENOBJ-N-FIL_13
1002
{
1000
OWNER
1000
GEN
1002
}
  0
LINE
  5
1520B
  8
ﾁｭｳｼﾝｾﾝ1
 10
817.82148906508473
 20
610.51955693583614
 30
0.0
 11
817.82148906508473
 21
586.51955693583614
 31
0.0
  0
LINE
  5
1520C
  8
ﾁｭｳｼﾝｾﾝ1
 10
829.82148906508473
 20
598.51955693583614
 30
0.0
 11
805.82148906508462
 21
598.51955693583614
 31
0.0
  0
LINE
  5
1520D
  8
AM_0
 10
885.3214890650853
 20
605.01955827694042
 30
0.0
 11
885.32148906508439
 21
583.01955827694042
 31
0.0
  0
LINE
  5
1520E
  8
AM_0
 10
889.82148906508496
 20
605.01955827694042
 30
0.0
 11
889.82148906508462
 21
583.01955827694042
 31
0.0
  0
LINE
  5
1520F
  8
AM_0
 10
885.32148906508496
 20
589.01955827694042
 30
0.0
 11
889.82148906508462
 21
589.01955827694042
 31
0.0
  0
LINE
  5
15210
  8
AM_0
 10
885.3214890650853
 20
605.01955827694042
 30
0.0
 11
889.82148906508496
 21
605.01955827694042
 31
0.0
  0
LINE
  5
15211
  8
AM_0
 10
840.821491628084
 20
605.01955827694042
 30
0.0
 11
845.32149162808378
 21
605.01955827694042
 31
0.0
  0
LINE
  5
15212
  8
AM_0
 10
840.821491628084
 20
589.01955827694042
 30
0.0
 11
845.32149162808378
 21
589.01955827694042
 31
0.0
  0
LINE
  5
15213
  8
AM_0
 10
845.321491628084
 20
605.01955827694042
 30
0.0
 11
845.321491628084
 21
583.01955827694042
 31
0.0
  0
LINE
  5
15214
  8
AM_0
 10
840.821491628084
 20
605.01955827694042
 30
0.0
 11
840.821491628084
 21
583.01955827694042
 31
0.0
  0
CIRCLE
  5
15215
  8
AM_0
 10
817.82148906508473
 20
598.51955693583614
 30
0.0
 40
5.0
  0
CIRCLE
  5
15216
  8
AM_0
 10
912.82145970979366
 20
598.51955693583614
 30
0.0
 40
5.0
  0
INSERT
  5
15217
  8
AM_0
  6
CONTINUOUS
  2
*U7
 10
0.0
 20
0.0
 30
0.0
1001
GENIUS_GENODEF_13
1002
{
1000
HIER
1070
     0
1002
}
1002
{
1000
MANEDIT
1070
     0
1002
}
1002
{
1000
NOSEL
1070
     0
1002
}
1002
{
1000
BEHIND
1070
     0
1002
}
1002
{
1000
OTHER
1070
     0
1002
}
1002
{
1000
REACTOR
1002
}
1001
GENIUS_GENOBJ-N-HTC_13
1002
{
1000
OWNER
1000
GEN
1002
}
1001
GENIUS_GENHATCH_13
1002
{
1000
DATA
1040
0.0
1042
1.0
1000
SOLID
1070
     0
1011
839.86965947030376
1021
0.0
1031
0.0
1021
583.87613291745788
1031
0.0
1002
}
1002
{
1000
UCS
1010
0.0
1020
0.0
1030
0.0
1010
1.0
1020
0.0
1030
0.0
1010
0.0
1020
1.0
1030
0.0
1002
}
1001
ACAD
1002
{
1000
R14_HATCH_DATA
1000
15217
1011
1.0
1021
0.0
1031
0.0
1021
0.0
1031
0.0
1011
0.0
1021
0.0
1031
0.0
1021
1.0
1031
0.0
1011
0.0
1021
0.0
1031
0.0
1021
0.0
1031
1.0
1040
0.0
1010
0.0
1020
0.0
1030
1.0
1000
SOLID
1070
     1
1070
     0
1071
        2
1071
        1
1071
        3
1070
     1
1040
840.821491628084
1040
583.01955827694042
1040
838.321491628084
1040
583.01955827694042
1070
     1
1040
838.321491628084
1040
583.01955827694042
1040
840.821491628084
1040
585.51955827694042
1070
     1
1040
840.821491628084
1040
585.51955827694042
1040
840.821491628084
1040
583.01955827694042
1071
        0
1071
       33
1071
        1
1070
     1
1040
788.32151786903125
1040
583.01955827694042
1040
942.32149194100828
1040
583.01955827694042
1071
        0
1070
     0
1070
     1
1071
        1
1040
1016.363452978535
1040
490.58893794625118
1040
0.0
1002
}
  0
LINE
  5
15218
  8
AM_0
 10
840.821491628084
 20
585.51955827694042
 30
0.0
 11
838.321491628084
 21
583.01955827694042
 31
0.0
1001
GENIUS_GENFIL_13
1070
     0
1040
2.5
1040
2.5
1040
20.0
1040
0.0
1002
{
1002
}
1001
GENIUS_GENODEF_13
1002
{
1000
HIER
1070
     0
1002
}
1002
{
1000
MANEDIT
1070
     0
1002
}
1002
{
1000
NOSEL
1070
     0
1002
}
1002
{
1000
BEHIND
1070
     0
1002
}
1002
{
1000
OTHER
1070
     0
1002
}
1002
{
1000
REACTOR
1002
}
1001
GENIUS_GENOBJ-N-CHA_13
1002
{
1000
OWNER
1000
GEN
1002
}
  0
LINE
  5
15219
  8
AM_0
 10
845.32149162808355
 20
585.51955827694042
 30
0.0
 11
847.82149162808355
 21
583.01955827694042
 31
0.0
1001
GENIUS_GENFIL_13
1070
     0
1040
2.5
1040
2.5
1040
20.0
1040
0.0
1002
{
1002
}
1001
GENIUS_GENODEF_13
1002
{
1000
HIER
1070
     0
1002
}
1002
{
1000
MANEDIT
1070
     0
1002
}
1002
{
1000
NOSEL
1070
     0
1002
}
1002
{
1000
BEHIND
1070
     0
1002
}
1002
{
1000
OTHER
1070
     0
1002
}
1002
{
1000
REACTOR
1002
}
1001
GENIUS_GENOBJ-N-CHA_13
1002
{
1000
OWNER
1000
GEN
1002
}
  0
INSERT
  5
1521A
  8
AM_0
  6
CONTINUOUS
  2
*U8
 10
0.0
 20
0.0
 30
0.0
1001
GENIUS_GENODEF_13
1002
{
1000
HIER
1070
     0
1002
}
1002
{
1000
MANEDIT
1070
     0
1002
}
1002
{
1000
NOSEL
1070
     0
1002
}
1002
{
1000
BEHIND
1070
     0
1002
}
1002
{
1000
OTHER
1070
     0
1002
}
1002
{
1000
REACTOR
1002
}
1001
GENIUS_GENOBJ-N-HTC_13
1002
{
1000
OWNER
1000
GEN
1002
}
1001
GENIUS_GENHATCH_13
1002
{
1000
DATA
1040
0.0
1042
1.0
1000
SOLID
1070
     0
1011
846.27332378586368
1021
0.0
1031
0.0
1021
583.87613291745788
1031
0.0
1002
}
1002
{
1000
UCS
1010
0.0
1020
0.0
1030
0.0
1010
1.0
1020
0.0
1030
0.0
1010
0.0
1020
1.0
1030
0.0
1002
}
1001
ACAD
1002
{
1000
R14_HATCH_DATA
1000
1521A
1011
1.0
1021
0.0
1031
0.0
1021
0.0
1031
0.0
1011
0.0
1021
0.0
1031
0.0
1021
1.0
1031
0.0
1011
0.0
1021
0.0
1031
0.0
1021
0.0
1031
1.0
1040
0.0
1010
0.0
1020
0.0
1030
1.0
1000
SOLID
1070
     1
1070
     0
1071
        2
1071
        1
1071
        3
1070
     1
1040
845.32149162808355
1040
583.01955827694042
1040
847.82149162808355
1040
583.01955827694042
1070
     1
1040
847.82149162808355
1040
583.01955827694042
1040
845.32149162808355
1040
585.51955827694042
1070
     1
1040
845.32149162808355
1040
585.51955827694042
1040
845.32149162808355
1040
583.01955827694042
1071
        0
1071
       33
1071
        1
1070
     1
1040
897.82146538713607
1040
583.01955827694042
1040
743.82149131515916
1040
583.01955827694042
1071
        0
1070
     0
1070
     1
1071
        1
1040
669.77953027763215
1040
490.58893794625118
1040
0.0
1002
}
  0
INSERT
  5
1521B
  8
AM_0
  6
CONTINUOUS
  2
*U9
 10
0.0
 20
0.0
 30
0.0
1001
GENIUS_GENODEF_13
1002
{
1000
HIER
1070
     0
1002
}
1002
{
1000
MANEDIT
1070
     0
1002
}
1002
{
1000
NOSEL
1070
     0
1002
}
1002
{
1000
BEHIND
1070
     0
1002
}
1002
{
1000
OTHER
1070
     0
1002
}
1002
{
1000
REACTOR
1002
}
1001
GENIUS_GENOBJ-N-HTC_13
1002
{
1000
OWNER
1000
GEN
1002
}
1001
GENIUS_GENHATCH_13
1002
{
1000
DATA
1040
0.0
1042
1.0
1000
SOLID
1070
     0
1011
884.36968602417585
1021
0.0
1031
0.0
1021
583.87613291745788
1031
0.0
1002
}
1002
{
1000
UCS
1010
0.0
1020
0.0
1030
0.0
1010
1.0
1020
0.0
1030
0.0
1010
0.0
1020
1.0
1030
0.0
1002
}
1001
ACAD
1002
{
1000
R14_HATCH_DATA
1000
1521B
1011
1.0
1021
0.0
1031
0.0
1021
0.0
1031
0.0
1011
0.0
1021
0.0
1031
0.0
1021
1.0
1031
0.0
1011
0.0
1021
0.0
1031
0.0
1021
0.0
1031
1.0
1040
0.0
1010
0.0
1020
0.0
1030
1.0
1000
SOLID
1070
     1
1070
     0
1071
        2
1071
        1
1071
        3
1070
     1
1040
885.32151818195598
1040
583.01955827694042
1040
882.82151818195598
1040
583.01955827694042
1070
     1
1040
882.82151818195598
1040
583.01955827694042
1040
885.32151818195598
1040
585.51955827694042
1070
     1
1040
885.32151818195598
1040
585.51955827694042
1040
885.32151818195598
1040
583.01955827694042
1071
        0
1071
       33
1071
        1
1070
     1
1040
832.82154442290334
1040
583.01955827694042
1040
986.82151849488037
1040
583.01955827694042
1071
        0
1070
     0
1070
     1
1071
        1
1040
1060.8634795324069
1040
490.58893794625118
1040
0.0
1002
}
  0
LINE
  5
1521C
  8
AM_0
 10
885.32151818195598
 20
585.51955827694042
 30
0.0
 11
882.82151818195598
 21
583.01955827694042
 31
0.0
1001
GENIUS_GENFIL_13
1070
     0
1040
2.5
1040
2.5
1040
20.0
1040
0.0
1002
{
1002
}
1001
GENIUS_GENODEF_13
1002
{
1000
HIER
1070
     0
1002
}
1002
{
1000
MANEDIT
1070
     0
1002
}
1002
{
1000
NOSEL
1070
     0
1002
}
1002
{
1000
BEHIND
1070
     0
1002
}
1002
{
1000
OTHER
1070
     0
1002
}
1002
{
1000
REACTOR
1002
}
1001
GENIUS_GENOBJ-N-CHA_13
1002
{
1000
OWNER
1000
GEN
1002
}
  0
LINE
  5
1521D
  8
AM_0
 10
889.82151818195553
 20
585.51955827694042
 30
0.0
 11
892.32151818195553
 21
583.01955827694042
 31
0.0
1001
GENIUS_GENFIL_13
1070
     0
1040
2.5
1040
2.5
1040
20.0
1040
0.0
1002
{
1002
}
1001
GENIUS_GENODEF_13
1002
{
1000
HIER
1070
     0
1002
}
1002
{
1000
MANEDIT
1070
     0
1002
}
1002
{
1000
NOSEL
1070
     0
1002
}
1002
{
1000
BEHIND
1070
     0
1002
}
1002
{
1000
OTHER
1070
     0
1002
}
1002
{
1000
REACTOR
1002
}
1001
GENIUS_GENOBJ-N-CHA_13
1002
{
1000
OWNER
1000
GEN
1002
}
  0
INSERT
  5
1521E
  8
AM_0
  6
CONTINUOUS
  2
*U10
 10
0.0
 20
0.0
 30
0.0
1001
GENIUS_GENODEF_13
1002
{
1000
HIER
1070
     0
1002
}
1002
{
1000
MANEDIT
1070
     0
1002
}
1002
{
1000
NOSEL
1070
     0
1002
}
1002
{
1000
BEHIND
1070
     0
1002
}
1002
{
1000
OTHER
1070
     0
1002
}
1002
{
1000
REACTOR
1002
}
1001
GENIUS_GENOBJ-N-HTC_13
1002
{
1000
OWNER
1000
GEN
1002
}
1001
GENIUS_GENHATCH_13
1002
{
1000
DATA
1040
0.0
1042
1.0
1000
SOLID
1070
     0
1011
890.77335033973566
1021
0.0
1031
0.0
1021
583.87613291745788
1031
0.0
1002
}
1002
{
1000
UCS
1010
0.0
1020
0.0
1030
0.0
1010
1.0
1020
0.0
1030
0.0
1010
0.0
1020
1.0
1030
0.0
1002
}
1001
ACAD
1002
{
1000
R14_HATCH_DATA
1000
1521E
1011
1.0
1021
0.0
1031
0.0
1021
0.0
1031
0.0
1011
0.0
1021
0.0
1031
0.0
1021
1.0
1031
0.0
1011
0.0
1021
0.0
1031
0.0
1021
0.0
1031
1.0
1040
0.0
1010
0.0
1020
0.0
1030
1.0
1000
SOLID
1070
     1
1070
     0
1071
        2
1071
        1
1071
        3
1070
     1
1040
889.82151818195553
1040
583.01955827694042
1040
892.32151818195553
1040
583.01955827694042
1070
     1
1040
892.32151818195553
1040
583.01955827694042
1040
889.82151818195553
1040
585.51955827694042
1070
     1
1040
889.82151818195553
1040
585.51955827694042
1040
889.82151818195553
1040
583.01955827694042
1071
        0
1071
       33
1071
        1
1070
     1
1040
942.32149194100828
1040
583.01955827694042
1040
788.32151786903125
1040
583.01955827694042
1071
        0
1070
     0
1070
     1
1071
        1
1040
714.2795568315039
1040
490.58893794625118
1040
0.0
1002
}
  0
LINE
  5
1521F
  8
AM_5
 10
884.82145970979479
 20
583.01955827694042
 30
0.0
 11
884.82145970979479
 21
578.51955827694042
 31
0.0
  0
LINE
  5
15220
  8
AM_5
 10
908.92617932320786
 20
583.01955827694042
 30
0.0
 11
908.92617932320786
 21
578.51955827694042
 31
0.0
  0
LINE
  5
15221
  8
ﾁｭｳｼﾝｾﾝ1
 10
912.82145970979366
 20
610.51955693583614
 30
0.0
 11
912.82145970979366
 21
586.51955693583614
 31
0.0
  0
LINE
  5
15222
  8
ﾁｭｳｼﾝｾﾝ1
 10
924.82145970979354
 20
598.51955693583614
 30
0.0
 11
900.82145970979354
 21
598.51955693583614
 31
0.0
  0
LINE
  5
15223
  8
AM_0
 10
805.32147240558459
 20
482.42954053650101
 30
0.0
 11
805.32147240558459
 21
474.42954053650101
 31
0.0
  0
LINE
  5
15224
  8
AM_0
 10
792.3214724055847
 20
482.42954053650101
 30
0.0
 11
792.3214724055847
 21
474.42954053650101
 31
0.0
  0
LINE
  5
15225
  8
AM_0
 10
807.32147240558504
 20
482.42954053650101
 30
0.0
 11
790.32147240558481
 21
482.42954053650101
 31
0.0
  0
LINE
  5
15226
  8
AM_0
 10
790.32147240558481
 20
482.42954053650101
 30
0.0
 11
790.32147240558481
 21
484.01954053650081
 31
0.0
  0
LINE
  5
15227
  8
AM_0
 10
807.32147240558504
 20
482.42954053650101
 30
0.0
 11
807.32147240558504
 21
484.01954053650081
 31
0.0
  0
LINE
  5
15228
  8
AM_0
 10
805.32147240558459
 20
474.42954053650101
 30
0.0
 11
792.3214724055847
 21
474.42954053650101
 31
0.0
  0
LINE
  5
15229
  8
AM_0
 10
938.3214763692938
 20
482.42954053650101
 30
0.0
 11
938.3214763692938
 21
474.42954053650101
 31
0.0
  0
LINE
  5
1522A
  8
AM_0
 10
925.3214763692938
 20
482.42954053650101
 30
0.0
 11
925.3214763692938
 21
474.42954053650101
 31
0.0
  0
LINE
  5
1522B
  8
AM_0
 10
940.3214763692938
 20
482.42954053650101
 30
0.0
 11
923.3214763692938
 21
482.42954053650101
 31
0.0
  0
LINE
  5
1522C
  8
AM_0
 10
923.3214763692938
 20
482.42954053650101
 30
0.0
 11
923.3214763692938
 21
484.01954053650081
 31
0.0
  0
LINE
  5
1522D
  8
AM_0
 10
940.3214763692938
 20
482.42954053650101
 30
0.0
 11
940.3214763692938
 21
484.01954053650081
 31
0.0
  0
LINE
  5
1522E
  8
AM_0
 10
938.3214763692938
 20
474.42954053650101
 30
0.0
 11
925.3214763692938
 21
474.42954053650101
 31
0.0
  0
LINE
  5
1522F
  8
AM_0
 10
806.32147240558459
 20
591.10955827694022
 30
0.0
 11
791.3214724055847
 21
591.10955827694022
 31
0.0
  0
LINE
  5
15230
  8
AM_0
 10
807.32147240558459
 20
584.60955827694056
 30
0.0
 11
790.3214724055847
 21
584.60955827694067
 31
0.0
  0
LINE
  5
15231
  8
AM_0N
 10
802.82147240558459
 20
591.66274351196387
 30
0.0
 11
794.8214724055847
 21
591.66274351196387
 31
0.0
  0
LINE
  5
15232
  8
AM_0N
 10
794.8214724055847
 20
591.66274351196387
 30
0.0
 11
795.58828490558471
 21
592.429556011964
 31
0.0
  0
LINE
  5
15233
  8
AM_0
 10
791.3214724055847
 20
591.10955827694022
 30
0.0
 11
791.32147240558481
 21
584.60955827694056
 31
0.0
  0
LINE
  5
15234
  8
AM_0
 10
795.07147240558459
 20
591.10955827694022
 30
0.0
 11
795.07147240558459
 21
584.60955827694067
 31
0.0
  0
LINE
  5
15235
  8
AM_0N
 10
794.8214724055847
 20
591.10955827694022
 30
0.0
 11
794.8214724055847
 21
591.66274351196387
 31
0.0
  0
LINE
  5
15236
  8
AM_0
 10
790.3214724055847
 20
584.60955827694067
 30
0.0
 11
790.3214724055847
 21
583.01955827694064
 31
0.0
  0
LINE
  5
15237
  8
AM_0
 10
802.5714724055847
 20
591.10955827694022
 30
0.0
 11
802.5714724055847
 21
584.60955827694056
 31
0.0
  0
LINE
  5
15238
  8
AM_0N
 10
802.05465990558457
 20
592.429556011964
 30
0.0
 11
795.58828490558471
 21
592.429556011964
 31
0.0
  0
LINE
  5
15239
  8
AM_0N
 10
802.82147240558459
 20
591.10955827694022
 30
0.0
 11
802.82147240558459
 21
591.66274351196387
 31
0.0
  0
LINE
  5
1523A
  8
AM_0N
 10
802.82147240558459
 20
591.66274351196387
 30
0.0
 11
802.05465990558457
 21
592.429556011964
 31
0.0
  0
LINE
  5
1523B
  8
AM_4N
 10
802.05465990558457
 20
592.429556011964
 30
0.0
 11
802.05465990558457
 21
591.10955827694022
 31
0.0
  0
LINE
  5
1523C
  8
AM_4N
 10
795.58828490558471
 20
592.429556011964
 30
0.0
 11
795.58828490558471
 21
591.10955827694022
 31
0.0
  0
LINE
  5
1523D
  8
AM_0
 10
806.32147240558459
 20
591.10955827694022
 30
0.0
 11
806.32147240558459
 21
584.60955827694056
 31
0.0
  0
LINE
  5
1523E
  8
AM_0
 10
807.32147240558459
 20
584.60955827694067
 30
0.0
 11
807.32147240558459
 21
583.01955827694064
 31
0.0
  0
LINE
  5
1523F
  8
AM_0
 10
939.3214763692938
 20
591.10955827694022
 30
0.0
 11
924.3214763692938
 21
591.10955827694022
 31
0.0
  0
LINE
  5
15240
  8
AM_0
 10
940.3214763692938
 20
584.60955827694056
 30
0.0
 11
923.3214763692938
 21
584.60955827694067
 31
0.0
  0
LINE
  5
15241
  8
AM_0N
 10
935.8214763692938
 20
591.66274351196387
 30
0.0
 11
927.8214763692938
 21
591.66274351196387
 31
0.0
  0
LINE
  5
15242
  8
AM_0N
 10
927.8214763692938
 20
591.66274351196387
 30
0.0
 11
928.58828886929382
 21
592.429556011964
 31
0.0
  0
LINE
  5
15243
  8
AM_0
 10
924.3214763692938
 20
591.10955827694022
 30
0.0
 11
924.32147636929403
 21
584.60955827694056
 31
0.0
  0
LINE
  5
15244
  8
AM_0
 10
928.07147636929369
 20
591.10955827694022
 30
0.0
 11
928.07147636929369
 21
584.60955827694067
 31
0.0
  0
LINE
  5
15245
  8
AM_0N
 10
927.8214763692938
 20
591.10955827694022
 30
0.0
 11
927.8214763692938
 21
591.66274351196387
 31
0.0
  0
LINE
  5
15246
  8
AM_0
 10
923.3214763692938
 20
584.60955827694067
 30
0.0
 11
923.3214763692938
 21
583.01955827694064
 31
0.0
  0
LINE
  5
15247
  8
AM_0
 10
935.5714763692938
 20
591.10955827694022
 30
0.0
 11
935.5714763692938
 21
584.60955827694056
 31
0.0
  0
LINE
  5
15248
  8
AM_0N
 10
935.05466386929379
 20
592.429556011964
 30
0.0
 11
928.58828886929382
 21
592.429556011964
 31
0.0
  0
LINE
  5
15249
  8
AM_0N
 10
935.8214763692938
 20
591.10955827694022
 30
0.0
 11
935.8214763692938
 21
591.66274351196387
 31
0.0
  0
LINE
  5
1524A
  8
AM_0N
 10
935.8214763692938
 20
591.66274351196387
 30
0.0
 11
935.05466386929379
 21
592.429556011964
 31
0.0
  0
LINE
  5
1524B
  8
AM_4N
 10
935.05466386929379
 20
592.429556011964
 30
0.0
 11
935.05466386929379
 21
591.10955827694022
 31
0.0
  0
LINE
  5
1524C
  8
AM_4N
 10
928.58828886929382
 20
592.429556011964
 30
0.0
 11
928.58828886929382
 21
591.10955827694022
 31
0.0
  0
LINE
  5
1524D
  8
AM_0
 10
939.3214763692938
 20
591.10955827694022
 30
0.0
 11
939.3214763692938
 21
584.60955827694056
 31
0.0
  0
LINE
  5
1524E
  8
AM_0
 10
940.3214763692938
 20
584.60955827694067
 30
0.0
 11
940.3214763692938
 21
583.01955827694064
 31
0.0
  0
LINE
  5
1524F
  8
AM_0
 10
971.42142668221845
 20
228.41950765454081
 30
0.0
 11
971.42142668221845
 21
224.8194976545407
 31
0.0
  0
LINE
  5
15250
  8
AM_0
 10
968.82144668221815
 20
230.41950765454081
 30
0.0
 11
968.82144668221815
 21
222.81949765454061
 31
0.0
  0
LINE
  5
15251
  8
AM_0
 10
967.82144668221815
 20
230.41950765454081
 30
0.0
 11
967.82144668221815
 21
222.81949765454061
 31
0.0
  0
ARC
  5
15252
  8
AM_0
 10
969.7214466822179
 20
224.8194976545407
 30
0.0
 40
1.7000007999999991
 50
270.000020000002
 51
359.999989999999
  0
LINE
  5
15253
  8
AM_0
 10
968.82144668221815
 20
223.1194876545409
 30
0.0
 11
969.7214466822179
 21
223.1194876545409
 31
0.0
  0
LINE
  5
15254
  8
AM_0
 10
968.82144668221815
 20
222.81949765454061
 30
0.0
 11
967.82144668221815
 21
222.81949765454061
 31
0.0
  0
ARC
  5
15255
  8
AM_0
 10
969.7214466822179
 20
228.41950765454081
 30
0.0
 40
1.699996899999999
 50
0.0000199999955061
 51
89.999997000002296
  0
LINE
  5
15256
  8
AM_0
 10
968.82144668221815
 20
230.1194876545409
 30
0.0
 11
969.7214466822179
 21
230.1194876545409
 31
0.0
  0
LINE
  5
15257
  8
AM_0
 10
967.82144668221815
 20
227.3968576545409
 30
0.0
 11
968.82144668221815
 21
226.8194976545407
 31
0.0
  0
LINE
  5
15258
  8
AM_0
 10
967.82144668221815
 20
226.3968576545409
 30
0.0
 11
968.82144668221815
 21
225.8194976545407
 31
0.0
  0
LINE
  5
15259
  8
AM_0
 10
968.82144668221815
 20
230.41950765454081
 30
0.0
 11
967.82144668221815
 21
230.41950765454081
 31
0.0
  0
ARC
  5
1525A
  8
AM_0
 10
969.7214466822179
 20
311.4194776545408
 30
0.0
 40
1.7000007999999991
 50
0.0000100000010134
 51
89.999979999998004
  0
LINE
  5
1525B
  8
AM_0
 10
968.82144668221815
 20
305.8194676545408
 30
0.0
 11
968.82144668221815
 21
313.41947765454091
 31
0.0
  0
LINE
  5
1525C
  8
AM_0
 10
967.82144668221815
 20
305.8194676545408
 30
0.0
 11
967.82144668221815
 21
313.41947765454091
 31
0.0
  0
LINE
  5
1525D
  8
AM_0
 10
971.42142668221845
 20
307.81946765454097
 30
0.0
 11
971.42142668221845
 21
311.41947765454091
 31
0.0
  0
LINE
  5
1525E
  8
AM_0
 10
967.82144668221815
 20
308.84211765454091
 30
0.0
 11
968.82144668221815
 21
309.41947765454091
 31
0.0
  0
LINE
  5
1525F
  8
AM_0
 10
967.82144668221815
 20
309.84211765454091
 30
0.0
 11
968.82144668221815
 21
310.4194776545408
 31
0.0
  0
LINE
  5
15260
  8
AM_0
 10
968.82144668221815
 20
306.11948765454082
 30
0.0
 11
969.72144668221836
 21
306.11948765454082
 31
0.0
  0
LINE
  5
15261
  8
AM_0
 10
968.82144668221815
 20
305.8194676545408
 30
0.0
 11
967.82144668221815
 21
305.8194676545408
 31
0.0
  0
ARC
  5
15262
  8
AM_0
 10
969.7214466822179
 20
307.8194676545408
 30
0.0
 40
1.699996899999999
 50
270.00000300001068
 51
359.99998000000448
  0
LINE
  5
15263
  8
AM_0
 10
968.82144668221815
 20
313.11948765454088
 30
0.0
 11
969.72144668221836
 21
313.11948765454088
 31
0.0
  0
LINE
  5
15264
  8
AM_0
 10
968.82144668221815
 20
313.41947765454091
 30
0.0
 11
967.82144668221815
 21
313.41947765454091
 31
0.0
  0
LINE
  5
15265
  8
AM_0
 10
1036.821446682218
 20
208.23449565454089
 30
0.0
 11
1036.821446682218
 21
211.8344856545408
 31
0.0
  0
ARC
  5
15266
  8
AM_0
 10
1038.8218766822181
 20
210.9949056545409
 30
0.0
 40
2.000407899999999
 50
180.01164900000069
 51
269.98834999999792
  0
LINE
  5
15267
  8
AM_0
 10
1075.821386682218
 20
217.33446565454091
 30
0.0
 11
1074.5314066822179
 21
208.84447565454079
 31
0.0
  0
LINE
  5
15268
  8
AM_0
 10
1075.821446682218
 20
217.33450565454081
 30
0.0
 11
1074.5114466822181
 21
207.95449565454089
 31
0.0
  0
ARC
  5
15269
  8
AM_0
 10
1072.5730366822179
 20
210.98762565454101
 30
0.0
 40
1.9931281000000001
 50
269.95337300000699
 51
350.9611800000003
  0
LINE
  5
1526A
  8
AM_0
 10
1072.571446682218
 20
208.99448565454091
 30
0.0
 11
1038.821446682218
 21
208.99448565454091
 31
0.0
  0
LINE
  5
1526B
  8
AM_0
 10
1072.5514266822181
 20
207.14448565454089
 30
0.0
 11
1038.821446682218
 21
207.14448565454089
 31
0.0
  0
LINE
  5
1526C
  8
AM_0
 10
1072.531466682218
 20
206.23447565454089
 30
0.0
 11
1038.821446682218
 21
206.23447565454089
 31
0.0
  0
ARC
  5
1526D
  8
AM_0
 10
1072.536776682218
 20
208.2279656545409
 30
0.0
 40
1.9934921000000001
 50
269.84609099999489
 51
352.1147400000026
  0
ARC
  5
1526E
  8
AM_0
 10
1072.558746682218
 20
209.1390556545409
 30
0.0
 40
1.994588
 50
269.79075300000238
 51
351.50708999999512
  0
ARC
  5
1526F
  8
AM_0
 10
1038.822726682218
 20
208.2357756545409
 30
0.0
 40
2.001287899999999
 50
180.03687199900219
 51
269.96312600000448
  0
ARC
  5
15270
  8
AM_0
 10
1038.8230366822179
 20
209.14603565454101
 30
0.0
 40
2.0015439999999991
 50
180.0442139990009
 51
269.95578399999908
  0
LINE
  5
15271
  8
AM_0
 10
1083.821446682218
 20
215.11948565454091
 30
0.0
 11
1075.821446682218
 21
215.11948565454091
 31
0.0
  0
LINE
  5
15272
  8
AM_0
 10
1083.821446682218
 20
215.12447565454079
 30
0.0
 11
1075.821446682218
 21
215.12447565454079
 31
0.0
  0
LINE
  5
15273
  8
AM_0
 10
1083.131446682218
 20
224.93449565454091
 30
0.0
 11
1076.9014666822179
 21
224.93449565454091
 31
0.0
  0
LINE
  5
15274
  8
AM_0
 10
1083.821446682218
 20
321.11948965454093
 30
0.0
 11
1075.821446682218
 21
321.11948965454093
 31
0.0
  0
LINE
  5
15275
  8
AM_0
 10
1083.821446682218
 20
321.12447865454089
 30
0.0
 11
1075.821446682218
 21
321.12447865454089
 31
0.0
  0
LINE
  5
15276
  8
AM_0
 10
1083.131446682218
 20
311.31448965454098
 30
0.0
 11
1076.9014666822179
 21
311.31448965454098
 31
0.0
  0
LINE
  5
15277
  8
AM_0
 10
1087.821476682218
 20
273.73275233093142
 30
0.0
 11
1087.821476682218
 21
272.57186233093148
 31
0.0
  0
ARC
  5
15278
  8
AM_0
 10
1088.821476682218
 20
273.11946233093153
 30
0.0
 40
1.0
 50
270.00000300001068
 51
0.0000100000010134
  0
LINE
  5
15279
  8
AM_0
 10
1083.821476682218
 20
215.11948233093139
 30
0.0
 11
1083.821476682218
 21
321.11946333093158
 31
0.0
  0
LINE
  5
1527A
  8
AM_0
 10
1091.321476682218
 20
248.11948233093139
 30
0.0
 11
1091.321476682218
 21
288.11946233093153
 31
0.0
  0
LINE
  5
1527B
  8
AM_0
 10
1084.821476682218
 20
218.1194823309315
 30
0.0
 11
1084.821476682218
 21
319.24270133093148
 31
0.0
  0
LINE
  5
1527C
  8
AM_0
 10
1092.315373166593
 20
283.34130460632213
 30
0.0
 11
1092.315373166593
 21
252.897670573119
 31
0.0
  0
ARC
  5
1527D
  8
AM_0
 10
1085.821476682218
 20
241.11947233093159
 30
0.0
 40
1.0
 50
90.0
 51
180.0
  0
LINE
  5
1527E
  8
AM_0
 10
1089.821476682218
 20
220.10311233093151
 30
0.0
 11
1089.821476682218
 21
263.11948233093148
 31
0.0
  0
LINE
  5
1527F
  8
AM_0
 10
1087.821476682218
 20
225.2890223309314
 30
0.0
 11
1087.821476682218
 21
225.7612123309315
 31
0.0
  0
LINE
  5
15280
  8
AM_0
 10
1088.0712266822179
 20
225.1583223309315
 30
0.0
 11
1089.369816682218
 21
226.0098823309315
 31
0.0
  0
LINE
  5
15281
  8
AM_0
 10
1088.0536566822179
 20
218.50436233093151
 30
0.0
 11
1089.321836682218
 21
219.2373123309315
 31
0.0
  0
LINE
  5
15282
  8
AM_0
 10
1088.059026682218
 20
220.6203723309315
 30
0.0
 11
1089.336066682218
 21
221.3866723309315
 31
0.0
  0
LINE
  5
15283
  8
AM_0
 10
1088.034796682218
 20
219.62466233093139
 30
0.0
 11
1089.2740466822181
 21
220.25368233093141
 31
0.0
  0
LINE
  5
15284
  8
AM_0
 10
1088.0411366822179
 20
221.7343123309314
 30
0.0
 11
1089.2897966822179
 21
222.39617233093151
 31
0.0
  0
ARC
  5
15285
  8
AM_0
 10
1088.821476682218
 20
220.10311233093151
 30
0.0
 40
1.0
 50
300.02639999999673
 51
0.0000100000010134
  0
ARC
  5
15286
  8
AM_0
 10
1088.821476682218
 20
221.14541233093161
 30
0.0
 40
1.0
 50
296.91125999999599
 51
0.0000100000010134
  0
ARC
  5
15287
  8
AM_0
 10
1088.821476682218
 20
222.24416233093149
 30
0.0
 40
1.0
 50
300.96660000000691
 51
0.0000100000010134
  0
ARC
  5
15288
  8
AM_0
 10
1088.821476682218
 20
223.27976233093159
 30
0.0
 40
1.0
 50
297.9266000000037
 51
0.0000100000010134
  0
ARC
  5
15289
  8
AM_0
 10
1087.553286682218
 20
219.37009233093161
 30
0.0
 40
1.0
 50
270.00000300001068
 51
300.02639999999673
  0
ARC
  5
1528A
  8
AM_0
 10
1087.5822166822179
 20
220.51638233093149
 30
0.0
 40
1.0
 50
270.00000300001068
 51
296.91125999999599
  0
ARC
  5
1528B
  8
AM_0
 10
1087.544436682218
 20
221.47787233093149
 30
0.0
 40
1.0
 50
270.00000300001068
 51
300.96660000000691
  0
ARC
  5
1528C
  8
AM_0
 10
1087.572816682218
 20
222.61784233093161
 30
0.0
 40
1.0
 50
270.00000300001068
 51
297.9266000000037
  0
LINE
  5
1528D
  8
AM_0
 10
1087.821476682218
 20
220.7229223309314
 30
0.0
 11
1087.821476682218
 21
221.2690023309315
 31
0.0
  0
LINE
  5
1528E
  8
AM_0
 10
1087.821476682218
 20
218.62331233093141
 30
0.0
 11
1087.821476682218
 21
219.1490923309315
 31
0.0
  0
ARC
  5
1528F
  8
AM_0
 10
1085.321476682218
 20
220.01638233093149
 30
0.0
 40
0.5
 50
180.0
 51
270.00000300001068
  0
ARC
  5
15290
  8
AM_0
 10
1085.321476682218
 20
217.87009233093161
 30
0.0
 40
0.5
 50
90.0
 51
180.0
  0
LINE
  5
15291
  8
AM_0
 10
1087.553286682218
 20
218.3700823309315
 30
0.0
 11
1085.321476682218
 21
218.3700823309315
 31
0.0
  0
LINE
  5
15292
  8
AM_0
 10
1087.544436682218
 20
220.47788233093149
 30
0.0
 11
1084.821476682218
 21
220.47788233093149
 31
0.0
  0
LINE
  5
15293
  8
AM_0
 10
1087.572816682218
 20
221.6178223309314
 30
0.0
 11
1085.821476682218
 21
221.6178223309314
 31
0.0
  0
LINE
  5
15294
  8
AM_0
 10
1087.5822166822179
 20
219.5164023309315
 30
0.0
 11
1085.321476682218
 21
219.5164023309315
 31
0.0
  0
LINE
  5
15295
  8
AM_0
 10
1084.821476682218
 20
218.1194823309315
 30
0.0
 11
1083.821476682218
 21
218.1194823309315
 31
0.0
  0
ARC
  5
15296
  8
AM_0
 10
1087.522826682218
 20
225.99459233093151
 30
0.0
 40
1.0
 50
270.00000300001068
 51
303.25472999999891
  0
LINE
  5
15297
  8
AM_0
 10
1087.522826682218
 20
224.99459233093151
 30
0.0
 11
1084.821476682218
 21
224.99459233093151
 31
0.0
  0
ARC
  5
15298
  8
AM_0
 10
1085.821476682218
 20
222.61784233093161
 30
0.0
 40
1.0
 50
180.0
 51
270.00000300001068
  0
LINE
  5
15299
  8
AM_0
 10
1087.821476682218
 20
232.72659233093151
 30
0.0
 11
1087.821476682218
 21
233.7865423309315
 31
0.0
  0
ARC
  5
1529A
  8
AM_0
 10
1088.821476682218
 20
233.9447423309316
 30
0.0
 40
1.0
 50
293.12702999999561
 51
0.0000100000010134
  0
LINE
  5
1529B
  8
AM_0
 10
1088.055606682218
 20
226.27169233093139
 30
0.0
 11
1089.3269066822179
 21
227.0163623309314
 31
0.0
  0
LINE
  5
1529C
  8
AM_0
 10
1088.0096466822181
 20
232.5105823309315
 30
0.0
 11
1089.2142366822179
 21
233.0250523309314
 31
0.0
  0
ARC
  5
1529D
  8
AM_0
 10
1088.821476682218
 20
227.8792323309315
 30
0.0
 40
1.0
 50
300.35950000000429
 51
0.0000100000010134
  0
ARC
  5
1529E
  8
AM_0
 10
1088.821476682218
 20
226.8461523309316
 30
0.0
 40
1.0
 50
303.25472999999891
 51
0.0000100000010134
  0
ARC
  5
1529F
  8
AM_0
 10
1087.5501766822181
 20
227.13454233093151
 30
0.0
 40
1.0
 50
270.00000300001068
 51
300.35950000000429
  0
ARC
  5
152A0
  8
AM_0
 10
1085.821476682218
 20
227.13454233093151
 30
0.0
 40
1.0
 50
180.0
 51
270.00000300001068
  0
LINE
  5
152A1
  8
AM_0
 10
1087.5501766822181
 20
226.13456233093149
 30
0.0
 11
1085.821476682218
 21
226.13456233093149
 31
0.0
  0
ARC
  5
152A2
  8
AM_0
 10
1087.6168266822181
 20
233.43026233093161
 30
0.0
 40
1.0
 50
270.00000300001068
 51
293.12702999999561
  0
ARC
  5
152A3
  8
AM_0
 10
1085.521486682218
 20
231.73026233093151
 30
0.0
 40
0.6999999900000002
 50
90.0
 51
180.0
  0
LINE
  5
152A4
  8
AM_0
 10
1087.6168266822181
 20
232.43027233093139
 30
0.0
 11
1085.521486682218
 21
232.43027233093139
 31
0.0
  0
LINE
  5
152A5
  8
AM_0
 10
1087.9651566822181
 20
234.42054233093151
 30
0.0
 11
1089.1154766822181
 21
234.77438233093139
 31
0.0
  0
ARC
  5
152A6
  8
AM_0
 10
1088.821476682218
 20
235.73020233093149
 30
0.0
 40
1.0
 50
287.09763000000362
 51
0.0000100000010134
  0
ARC
  5
152A7
  8
AM_0
 10
1087.671146682218
 20
235.37637233093139
 30
0.0
 40
1.0
 50
270.00000300001068
 51
287.09763000000362
  0
ARC
  5
152A8
  8
AM_0
 10
1085.821476682218
 20
235.37637233093139
 30
0.0
 40
1.0
 50
180.0
 51
270.00000300001068
  0
LINE
  5
152A9
  8
AM_0
 10
1087.671146682218
 20
234.3763723309315
 30
0.0
 11
1085.821476682218
 21
234.3763723309315
 31
0.0
  0
LINE
  5
152AA
  8
AM_0
 10
1085.821476682218
 20
242.11948233093139
 30
0.0
 11
1088.821476682218
 21
242.11948233093139
 31
0.0
  0
LINE
  5
152AB
  8
AM_0
 10
1085.821476682218
 20
244.1194723309315
 30
0.0
 11
1088.821476682218
 21
244.1194723309315
 31
0.0
  0
ARC
  5
152AC
  8
AM_0
 10
1088.821476682218
 20
243.11947233093159
 30
0.0
 40
1.0
 50
270.00000300001068
 51
0.0000100000010134
  0
ARC
  5
152AD
  8
AM_0
 10
1088.821476682218
 20
243.11947233093159
 30
0.0
 40
1.0
 50
359.999989999999
 51
90.0
  0
LINE
  5
152AE
  8
AM_0
 10
1091.321476682218
 20
248.11948233093139
 30
0.0
 11
1089.821476682218
 21
247.98826233093149
 31
0.0
  0
LINE
  5
152AF
  8
AM_0
 10
1087.821476682218
 20
242.49331233093139
 30
0.0
 11
1087.821476682218
 21
243.85610233093149
 31
0.0
  0
ARC
  5
152B0
  8
AM_0
 10
1085.821476682218
 20
245.1194823309315
 30
0.0
 40
1.0
 50
180.0
 51
270.00000300001068
  0
LINE
  5
152B1
  8
AM_0
 10
1085.821476682218
 20
252.1194723309315
 30
0.0
 11
1088.821476682218
 21
252.1194723309315
 31
0.0
  0
LINE
  5
152B2
  8
AM_0
 10
1085.821476682218
 20
254.11948233093139
 30
0.0
 11
1088.821476682218
 21
254.11948233093139
 31
0.0
  0
LINE
  5
152B3
  8
AM_0
 10
1091.321476682218
 20
252.96944233093151
 30
0.0
 11
1086.6439866822179
 21
252.96944233093151
 31
0.0
  0
ARC
  5
152B4
  8
AM_0
 10
1088.821476682218
 20
253.11947233093159
 30
0.0
 40
1.0
 50
270.00000300001068
 51
0.0000100000010134
  0
LINE
  5
152B5
  8
AM_0
 10
1091.321476682218
 20
250.8375023309315
 30
0.0
 11
1089.821476682218
 21
250.8375023309315
 31
0.0
  0
LINE
  5
152B6
  8
AM_0
 10
1092.315373166593
 20
252.89764005554079
 30
0.0
 11
1091.815373166593
 21
250.127651041869
 31
0.0
  0
LINE
  5
152B7
  8
AM_0
 10
1091.8153426490151
 20
250.127651041869
 30
0.0
 11
1091.315373166593
 21
250.1676595867909
 31
0.0
  0
ARC
  5
152B8
  8
AM_0
 10
1088.821476682218
 20
253.11947233093159
 30
0.0
 40
1.0
 50
359.999989999999
 51
90.0
  0
LINE
  5
152B9
  8
AM_0
 10
1087.821476682218
 20
252.5123723309315
 30
0.0
 11
1087.821476682218
 21
253.7237923309315
 31
0.0
  0
ARC
  5
152BA
  8
AM_0
 10
1085.821476682218
 20
251.1194823309315
 30
0.0
 40
1.0
 50
90.0
 51
180.0
  0
ARC
  5
152BB
  8
AM_0
 10
1085.821476682218
 20
255.1194723309315
 30
0.0
 40
1.0
 50
180.0
 51
270.00000300001068
  0
ARC
  5
152BC
  8
AM_0
 10
1085.821476682218
 20
265.1194723309315
 30
0.0
 40
1.0
 50
180.0
 51
270.00000300001068
  0
LINE
  5
152BD
  8
AM_0
 10
1085.821476682218
 20
262.1194723309315
 30
0.0
 11
1088.821476682218
 21
262.1194723309315
 31
0.0
  0
LINE
  5
152BE
  8
AM_0
 10
1085.821476682218
 20
264.1194723309315
 30
0.0
 11
1088.821476682218
 21
264.1194723309315
 31
0.0
  0
ARC
  5
152BF
  8
AM_0
 10
1088.821476682218
 20
263.11948233093148
 30
0.0
 40
1.0
 50
359.999989999999
 51
90.0
  0
ARC
  5
152C0
  8
AM_0
 10
1088.821476682218
 20
263.11948233093148
 30
0.0
 40
1.0
 50
270.00000300001068
 51
0.0000100000010134
  0
LINE
  5
152C1
  8
AM_0
 10
1087.821476682218
 20
262.50626233093152
 30
0.0
 11
1087.821476682218
 21
263.66715233093151
 31
0.0
  0
ARC
  5
152C2
  8
AM_0
 10
1085.821476682218
 20
261.11947233093139
 30
0.0
 40
1.0
 50
90.0
 51
180.0
  0
LINE
  5
152C3
  8
AM_0
 10
1085.821476682218
 20
272.11948233093142
 30
0.0
 11
1088.821476682218
 21
272.11948233093142
 31
0.0
  0
ARC
  5
152C4
  8
AM_0
 10
1085.821476682218
 20
271.1194723309315
 30
0.0
 40
1.0
 50
90.0
 51
180.0
  0
LINE
  5
152C5
  8
AM_0
 10
1089.821476682218
 20
316.13588133093162
 30
0.0
 11
1089.821476682218
 21
273.11946233093141
 31
0.0
  0
LINE
  5
152C6
  8
AM_0
 10
1085.821476682218
 20
274.11947233093139
 30
0.0
 11
1088.821476682218
 21
274.11947233093139
 31
0.0
  0
ARC
  5
152C7
  8
AM_0
 10
1088.821476682218
 20
273.11946233093153
 30
0.0
 40
1.0
 50
359.999989999999
 51
90.0
  0
ARC
  5
152C8
  8
AM_0
 10
1085.821476682218
 20
275.11948233093148
 30
0.0
 40
1.0
 50
180.0
 51
270.00000300001068
  0
LINE
  5
152C9
  8
AM_0
 10
1085.821476682218
 20
284.11948233093148
 30
0.0
 11
1088.821476682218
 21
284.11948233093148
 31
0.0
  0
LINE
  5
152CA
  8
AM_0
 10
1085.821476682218
 20
282.11946233093141
 30
0.0
 11
1088.821476682218
 21
282.11946233093141
 31
0.0
  0
LINE
  5
152CB
  8
AM_0
 10
1091.321476682218
 20
283.26950233093152
 30
0.0
 11
1088.027776682218
 21
283.26950233093152
 31
0.0
  0
ARC
  5
152CC
  8
AM_0
 10
1088.821476682218
 20
283.1194723309315
 30
0.0
 40
1.0
 50
359.999989999999
 51
90.0
  0
LINE
  5
152CD
  8
AM_0
 10
1091.321476682218
 20
285.40151233093161
 30
0.0
 11
1089.821476682218
 21
285.40151233093161
 31
0.0
  0
ARC
  5
152CE
  8
AM_0
 10
1088.821476682218
 20
283.1194723309315
 30
0.0
 40
1.0
 50
270.00000300001068
 51
0.0000100000010134
  0
LINE
  5
152CF
  8
AM_0
 10
1091.3214166822179
 20
288.11946233093153
 30
0.0
 11
1089.821476682218
 21
288.25069233093149
 31
0.0
  0
LINE
  5
152D0
  8
AM_0
 10
1091.815373166593
 20
286.111293619994
 30
0.0
 11
1091.3153426490151
 21
286.07128507507213
 31
0.0
  0
LINE
  5
152D1
  8
AM_0
 10
1092.3153426490151
 20
283.34130460632213
 30
0.0
 11
1091.8153426490151
 21
286.111293619994
 31
0.0
  0
LINE
  5
152D2
  8
AM_0
 10
1087.821476682218
 20
283.72658233093171
 30
0.0
 11
1087.821476682218
 21
282.51522233093158
 31
0.0
  0
ARC
  5
152D3
  8
AM_0
 10
1085.821476682218
 20
285.11946233093153
 30
0.0
 40
1.0
 50
180.0
 51
270.00000300001068
  0
ARC
  5
152D4
  8
AM_0
 10
1085.821476682218
 20
281.11948233093148
 30
0.0
 40
1.0
 50
90.0
 51
180.0
  0
LINE
  5
152D5
  8
AM_0
 10
1085.821476682218
 20
292.1194723309315
 30
0.0
 11
1088.821476682218
 21
292.1194723309315
 31
0.0
  0
LINE
  5
152D6
  8
AM_0
 10
1085.821476682218
 20
294.11946233093153
 30
0.0
 11
1088.821476682218
 21
294.11946233093153
 31
0.0
  0
ARC
  5
152D7
  8
AM_0
 10
1088.821476682218
 20
293.11948233093148
 30
0.0
 40
1.0
 50
270.00000300001068
 51
0.0000100000010134
  0
ARC
  5
152D8
  8
AM_0
 10
1088.821476682218
 20
293.11948233093148
 30
0.0
 40
1.0
 50
359.999989999999
 51
90.0
  0
ARC
  5
152D9
  8
AM_0
 10
1085.821476682218
 20
291.11946233093153
 30
0.0
 40
1.0
 50
90.0
 51
180.0
  0
LINE
  5
152DA
  8
AM_0
 10
1087.821476682218
 20
293.74570233093158
 30
0.0
 11
1087.821476682218
 21
292.38284233093162
 31
0.0
  0
ARC
  5
152DB
  8
AM_0
 10
1085.821476682218
 20
295.1194723309315
 30
0.0
 40
1.0
 50
180.0
 51
270.00000300001068
  0
LINE
  5
152DC
  8
AM_0
 10
1087.9651566822181
 20
301.81840733093162
 30
0.0
 11
1089.1155466822181
 21
301.46455633093149
 31
0.0
  0
LINE
  5
152DD
  8
AM_0
 10
1088.009586682218
 20
303.72837333093162
 30
0.0
 11
1089.214296682218
 21
303.21386133093159
 31
0.0
  0
ARC
  5
152DE
  8
AM_0
 10
1088.821476682218
 20
300.5087453309315
 30
0.0
 40
1.0
 50
359.999989999999
 51
72.902369999996424
  0
ARC
  5
152DF
  8
AM_0
 10
1088.821476682218
 20
302.2942073309315
 30
0.0
 40
1.0
 50
359.999989999999
 51
66.872979999998819
  0
ARC
  5
152E0
  8
AM_0
 10
1087.6168266822181
 20
302.80873333093149
 30
0.0
 40
1.0
 50
66.872970000004372
 51
90.0
  0
LINE
  5
152E1
  8
AM_0
 10
1087.821476682218
 20
303.51236233093169
 30
0.0
 11
1087.821476682218
 21
302.45241033093151
 31
0.0
  0
ARC
  5
152E2
  8
AM_0
 10
1085.521486682218
 20
304.5086843309316
 30
0.0
 40
0.6999999900000002
 50
180.0
 51
270.00000300001068
  0
LINE
  5
152E3
  8
AM_0
 10
1087.6168266822181
 20
303.80874133093153
 30
0.0
 11
1085.521486682218
 21
303.80874133093153
 31
0.0
  0
LINE
  5
152E4
  8
AM_0
 10
1087.671146682218
 20
301.86262733093162
 30
0.0
 11
1085.821476682218
 21
301.86262733093162
 31
0.0
  0
ARC
  5
152E5
  8
AM_0
 10
1087.671146682218
 20
300.86264233093152
 30
0.0
 40
1.0
 50
72.902369999996424
 51
90.0
  0
ARC
  5
152E6
  8
AM_0
 10
1085.821476682218
 20
300.86264233093152
 30
0.0
 40
1.0
 50
90.0
 51
180.0
  0
LINE
  5
152E7
  8
AM_0
 10
1088.0712266822179
 20
311.08063733093161
 30
0.0
 11
1089.3698766822181
 21
310.2290743309315
 31
0.0
  0
LINE
  5
152E8
  8
AM_0
 10
1088.0555466822179
 20
309.96730233093149
 30
0.0
 11
1089.3269066822179
 21
309.2226203309317
 31
0.0
  0
ARC
  5
152E9
  8
AM_0
 10
1088.821476682218
 20
308.3597133309317
 30
0.0
 40
1.0
 50
359.999989999999
 51
59.640489999998287
  0
ARC
  5
152EA
  8
AM_0
 10
1088.821476682218
 20
308.3597133309317
 30
0.0
 40
1.0
 50
359.999989999999
 51
59.640489999998287
  0
LINE
  5
152EB
  8
AM_0
 10
1089.3269066822179
 20
309.22258233093152
 30
0.0
 11
1089.350466682218
 21
309.20875733093152
 31
0.0
  0
ARC
  5
152EC
  8
AM_0
 10
1088.821476682218
 20
309.39283933093151
 30
0.0
 40
1.0
 50
359.999989999999
 51
56.745280000001401
  0
ARC
  5
152ED
  8
AM_0
 10
1085.821476682218
 20
309.10440333093158
 30
0.0
 40
1.0
 50
154.63675999999941
 51
180.0
  0
ARC
  5
152EE
  8
AM_0
 10
1087.522826682218
 20
310.24441733093153
 30
0.0
 40
1.0
 50
56.745270000001049
 51
90.0
  0
ARC
  5
152EF
  8
AM_0
 10
1087.5501766822181
 20
309.10440333093158
 30
0.0
 40
1.0
 50
59.640499999995733
 51
90.0
  0
LINE
  5
152F0
  8
AM_0
 10
1087.821476682218
 20
310.94992333093148
 30
0.0
 11
1087.821476682218
 21
310.47780833093151
 31
0.0
  0
LINE
  5
152F1
  8
AM_0
 10
1087.522826682218
 20
311.24440233093162
 30
0.0
 11
1084.821476682218
 21
311.24440233093162
 31
0.0
  0
LINE
  5
152F2
  8
AM_0
 10
1087.5501766822181
 20
310.1043873309315
 30
0.0
 11
1085.821476682218
 21
310.1043873309315
 31
0.0
  0
ARC
  5
152F3
  8
AM_0
 10
1085.821476682218
 20
309.10440333093158
 30
0.0
 40
1.0
 50
90.0
 51
180.0
  0
LINE
  5
152F4
  8
AM_0
 10
1088.059026682218
 20
315.61856333093158
 30
0.0
 11
1089.3359366822181
 21
314.8523203309316
 31
0.0
  0
LINE
  5
152F5
  8
AM_0
 10
1088.0348566822181
 20
316.61420633093161
 30
0.0
 11
1089.2741166822179
 21
315.98517833093149
 31
0.0
  0
LINE
  5
152F6
  8
AM_0
 10
1088.0411366822179
 20
314.50467133093161
 30
0.0
 11
1089.2897366822181
 21
313.84280633093152
 31
0.0
  0
LINE
  5
152F7
  8
AM_0
 10
1088.053716682218
 20
317.73462933093163
 30
0.0
 11
1089.321906682218
 21
317.00165033093162
 31
0.0
  0
ARC
  5
152F8
  8
AM_0
 10
1088.821476682218
 20
316.13588133093162
 30
0.0
 40
1.0
 50
359.999989999999
 51
59.973609999995389
  0
ARC
  5
152F9
  8
AM_0
 10
1088.821476682218
 20
315.09353133093163
 30
0.0
 40
1.0
 50
359.999989999999
 51
63.08875000000274
  0
ARC
  5
152FA
  8
AM_0
 10
1088.821476682218
 20
312.95925333093157
 30
0.0
 40
1.0
 50
359.999989999999
 51
62.073410000006788
  0
ARC
  5
152FB
  8
AM_0
 10
1088.821476682218
 20
313.99482933093162
 30
0.0
 40
1.0
 50
359.999989999999
 51
59.033399999993158
  0
LINE
  5
152FC
  8
AM_0
 10
1087.821476682218
 20
317.61562533093149
 30
0.0
 11
1087.821476682218
 21
317.08986133093151
 31
0.0
  0
ARC
  5
152FD
  8
AM_0
 10
1087.5822166822179
 20
315.72256733093161
 30
0.0
 40
1.0
 50
63.08874000000403
 51
90.0
  0
ARC
  5
152FE
  8
AM_0
 10
1087.544436682218
 20
314.76112633093152
 30
0.0
 40
1.0
 50
59.033399999993158
 51
90.0
  0
ARC
  5
152FF
  8
AM_0
 10
1087.572816682218
 20
313.62111133093163
 30
0.0
 40
1.0
 50
62.073399999996361
 51
90.0
  0
LINE
  5
15300
  8
AM_0
 10
1087.821476682218
 20
315.51602433093149
 30
0.0
 11
1087.821476682218
 21
314.97000333093149
 31
0.0
  0
ARC
  5
15301
  8
AM_0
 10
1085.821476682218
 20
313.62111133093163
 30
0.0
 40
1.0
 50
90.0
 51
180.0
  0
ARC
  5
15302
  8
AM_0
 10
1085.321476682218
 20
316.22255933093157
 30
0.0
 40
0.5
 50
90.0
 51
180.0
  0
LINE
  5
15303
  8
AM_0
 10
1087.544436682218
 20
315.76113333093161
 30
0.0
 11
1084.821476682218
 21
315.76113333093161
 31
0.0
  0
LINE
  5
15304
  8
AM_0
 10
1087.572816682218
 20
314.62111933093161
 30
0.0
 11
1085.821476682218
 21
314.62111933093161
 31
0.0
  0
LINE
  5
15305
  8
AM_0
 10
1087.5822166822179
 20
316.72255133093148
 30
0.0
 11
1085.321476682218
 21
316.72255133093148
 31
0.0
  0
ARC
  5
15306
  8
AM_0
 10
1087.553286682218
 20
316.8688533309317
 30
0.0
 40
1.0
 50
59.973600000003429
 51
90.0
  0
ARC
  5
15307
  8
AM_0
 10
1085.321476682218
 20
318.36885333093159
 30
0.0
 40
0.5
 50
180.0
 51
270.00000300001068
  0
LINE
  5
15308
  8
AM_0
 10
1087.553286682218
 20
317.86886033093162
 30
0.0
 11
1085.321476682218
 21
317.86886033093162
 31
0.0
  0
LINE
  5
15309
  8
AM_0
 10
1084.821476682218
 20
318.11946333093169
 30
0.0
 11
1083.821476682218
 21
318.11946333093169
 31
0.0
  0
LINE
  5
1530A
  8
AM_0
 10
1072.621436682218
 20
324.40449265454089
 30
0.0
 11
975.70147668221819
 21
324.40449265454077
 31
0.0
  0
LINE
  5
1530B
  8
AM_0
 10
1050.321446682218
 20
306.34448065454097
 30
0.0
 11
970.56667020877228
 21
306.34448065454092
 31
0.0
  0
LINE
  5
1530C
  8
AM_0
 10
1050.321446682218
 20
229.894495654541
 30
0.0
 11
970.56666846368421
 21
229.894495654541
 31
0.0
  0
LINE
  5
1530D
  8
AM_0
 10
974.48144668221835
 20
304.119453744981
 30
0.0
 11
1073.461486682218
 21
304.11945374498112
 31
0.0
  0
LINE
  5
1530E
  8
AM_0
 10
974.48144668221835
 20
302.119453744981
 30
0.0
 11
1073.461486682218
 21
302.11945374498112
 31
0.0
  0
LINE
  5
1530F
  8
AM_0
 10
974.48864668221802
 20
292.119453744981
 30
0.0
 11
1073.461486682218
 21
292.11945374498112
 31
0.0
  0
LINE
  5
15310
  8
AM_0
 10
1074.1414866822181
 20
304.83942374498122
 30
0.0
 11
971.00146668221817
 21
304.8394237449811
 31
0.0
  0
LINE
  5
15311
  8
AM_0
 10
1074.361456682218
 20
291.67951374498119
 30
0.0
 11
970.78723668221789
 21
291.67951374498102
 31
0.0
  0
LINE
  5
15312
  8
AM_0
 10
1074.361456682218
 20
294.60944374498109
 30
0.0
 11
970.77581668221819
 21
294.60944374498109
 31
0.0
  0
LINE
  5
15313
  8
AM_0
 10
974.47430668221807
 20
294.119453744981
 30
0.0
 11
1073.461486682218
 21
294.11945374498112
 31
0.0
  0
LINE
  5
15314
  8
AM_0
 10
1074.1414866822181
 20
301.48944374498109
 30
0.0
 11
971.00146668221817
 21
301.4894437449808
 31
0.0
  0
LINE
  5
15315
  8
AM_0
 10
1074.4914566822181
 20
284.45941374498108
 30
0.0
 11
970.49287872581806
 21
284.45941374498102
 31
0.0
  0
LINE
  5
15316
  8
AM_0
 10
1074.4914566822181
 20
281.79950374498088
 30
0.0
 11
970.64440422422456
 21
281.79950374498088
 31
0.0
  0
LINE
  5
15317
  8
AM_0
 10
1074.551456682218
 20
274.38947374498088
 30
0.0
 11
970.43535742871109
 21
274.38947374498088
 31
0.0
  0
LINE
  5
15318
  8
AM_0
 10
1074.551456682218
 20
271.85944374498098
 30
0.0
 11
970.5986447062088
 21
271.85944374498109
 31
0.0
  0
LINE
  5
15319
  8
AM_0
 10
974.47811038880673
 20
272.119453744981
 30
0.0
 11
1073.461486682218
 21
272.119453744981
 31
0.0
  0
LINE
  5
1531A
  8
AM_0
 10
974.47811038880673
 20
274.119453744981
 30
0.0
 11
1073.461486682218
 21
274.119453744981
 31
0.0
  0
LINE
  5
1531B
  8
AM_0
 10
974.47811038881036
 20
282.11945374498089
 30
0.0
 11
1073.461486682218
 21
282.11945374498089
 31
0.0
  0
LINE
  5
1531C
  8
AM_0
 10
974.47811038878581
 20
284.11945374498089
 30
0.0
 11
1073.461486682218
 21
284.11945374498112
 31
0.0
  0
LINE
  5
1531D
  8
AM_0
 10
974.47811433867855
 20
252.11945538829349
 30
0.0
 11
1073.4614906321081
 21
252.1194798241531
 31
0.0
  0
LINE
  5
1531E
  8
AM_0
 10
974.47811384496674
 20
254.11945538829349
 30
0.0
 11
1073.4614901383709
 21
254.1194798241531
 31
0.0
  0
LINE
  5
1531F
  8
AM_0
 10
974.47811187001616
 20
262.11945538829309
 30
0.0
 11
1073.461488163425
 21
262.11947982415279
 31
0.0
  0
LINE
  5
15320
  8
AM_0
 10
974.47811137627991
 20
264.11945538829298
 30
0.0
 11
1073.461487669688
 21
264.11947982415262
 31
0.0
  0
LINE
  5
15321
  8
AM_0
 10
1074.5514576055
 20
264.37949009323171
 30
0.0
 11
970.59864562949349
 21
264.37946443057569
 31
0.0
  0
LINE
  5
15322
  8
AM_0
 10
1074.5514582300841
 20
261.84946009323193
 30
0.0
 11
970.43535897658035
 21
261.84943439026551
 31
0.0
  0
LINE
  5
15323
  8
AM_0
 10
1074.4914600593861
 20
254.43943007842
 30
0.0
 11
970.64440760139553
 21
254.43940444187291
 31
0.0
  0
LINE
  5
15324
  8
AM_0
 10
1074.4914607160331
 20
251.77952007842001
 30
0.0
 11
970.49288275963602
 21
251.77949440446591
 31
0.0
  0
LINE
  5
15325
  8
AM_0
 10
1074.1414949202081
 20
234.749489992024
 30
0.0
 11
971.00147492021119
 21
234.7494645300209
 31
0.0
  0
LINE
  5
15326
  8
AM_0
 10
974.47431310079412
 20
242.11945538735469
 30
0.0
 11
1073.4614931007909
 21
242.1194798241533
 31
0.0
  0
LINE
  5
15327
  8
AM_0
 10
1074.3614632217541
 20
241.62949004632731
 30
0.0
 11
970.77582322175715
 21
241.62946447431469
 31
0.0
  0
LINE
  5
15328
  8
AM_0
 10
1074.3614624984471
 20
244.55942004632729
 30
0.0
 11
970.78724249845015
 21
244.55939447713391
 31
0.0
  0
LINE
  5
15329
  8
AM_0
 10
1074.141495747212
 20
231.39950999202409
 30
0.0
 11
971.0014757472153
 21
231.39948453002069
 31
0.0
  0
LINE
  5
1532A
  8
AM_0
 10
974.48865260705759
 20
244.11945539089481
 30
0.0
 11
1073.461492607054
 21
244.1194798241533
 31
0.0
  0
LINE
  5
1532B
  8
AM_0
 10
974.48145507574066
 20
234.11945538911749
 30
0.0
 11
1073.461495075737
 21
234.1194798241535
 31
0.0
  0
LINE
  5
1532C
  8
AM_0
 10
974.48145556947713
 20
232.11945538911769
 30
0.0
 11
1073.461495569474
 21
232.1194798241537
 31
0.0
  0
LINE
  5
1532D
  8
AM_0
 10
1072.621436682218
 20
211.8344856545408
 30
0.0
 11
975.70147668221819
 21
211.8344856545408
 31
0.0
  0
LINE
  5
1532E
  8
ｶｸﾚｾﾝ2
 10
987.32144668221827
 20
296.61945010469498
 30
0.0
 11
987.32144668221827
 21
239.61945010469489
 31
0.0
  0
LINE
  5
1532F
  8
ｶｸﾚｾﾝ2
 10
1067.321446682218
 20
239.61945010469501
 30
0.0
 11
1067.321446682218
 21
296.6194501046952
 31
0.0
  0
LINE
  5
15330
  8
AM_0
 10
1075.821446682218
 20
215.12447565454079
 30
0.0
 11
1075.821446682218
 21
317.56447365454079
 31
0.0
  0
LINE
  5
15331
  8
ﾁｭｳｼﾝｾﾝ1
 10
1018.821446682218
 20
227.4944588398443
 30
0.0
 11
1018.821446682218
 21
308.7444618398444
 31
0.0
  0
ARC
  5
15332
  8
AM_0
 10
1074.557316682218
 20
273.12445374498111
 30
0.0
 40
1.2650129999999991
 50
269.73558999999102
 51
90.264420999991756
  0
ARC
  5
15333
  8
AM_0
 10
1073.2768566822181
 20
273.11945374498112
 30
0.0
 40
1.0000138999999999
 50
269.69165999999939
 51
90.308340000000754
  0
LINE
  5
15334
  8
ｶｸﾚｾﾝ2
 10
990.32144668221838
 20
236.61945010469489
 30
0.0
 11
1064.321446682218
 21
236.61945010469489
 31
0.0
  0
POLYLINE
  5
15335
  8
AM_0
 66
     1
 10
0.0
 20
0.0
 30
0.0
  0
VERTEX
  5
15336
  8
AM_0
 10
1071.9605832200359
 20
241.6364494536264
 30
0.0
 42
-0.00068898288
  0
VERTEX
  5
15337
  8
AM_0
 10
1071.889703361923
 20
241.06169943612829
 30
0.0
 42
-0.00070644354
  0
VERTEX
  5
15338
  8
AM_0
 10
1071.817203503796
 20
240.48700941823029
 30
0.0
 42
-0.00069248071
  0
VERTEX
  5
15339
  8
AM_0
 10
1071.743113645575
 20
239.9126993999399
 30
0.0
 42
-0.00069585665
  0
VERTEX
  5
1533A
  8
AM_0
 10
1071.6674337873119
 20
239.3385593812568
 30
0.0
 42
-0.00068980191
  0
VERTEX
  5
1533B
  8
AM_0
 10
1071.5901339290151
 20
238.764559362174
 30
0.0
 42
-0.00072080104
  0
VERTEX
  5
1533C
  8
AM_0
 10
1071.511244070665
 20
238.19076934269859
 30
0.0
 42
-0.00071002307
  0
VERTEX
  5
1533D
  8
AM_0
 10
1071.4307042122371
 20
237.61729932281591
 30
0.0
 42
-0.00072659056
  0
VERTEX
  5
1533E
  8
AM_0
 10
1071.348544353717
 20
237.04419930253309
 30
0.0
 42
-0.00069570481
  0
VERTEX
  5
1533F
  8
AM_0
 10
1071.26472449518
 20
236.4711692818405
 30
0.0
 42
-0.00071266935
  0
VERTEX
  5
15340
  8
AM_0
 10
1071.179294636579
 20
235.89839926075069
 30
0.0
 42
-0.00071614426
  0
VERTEX
  5
15341
  8
AM_0
 10
1071.0922647778709
 20
235.32605923926579
 30
0.0
 42
-0.00072288975
  0
VERTEX
  5
15342
  8
AM_0
 10
1071.0035549191541
 20
234.753759217366
 30
0.0
  0
SEQEND
  5
15343
  8
AM_0
  0
LINE
  5
15344
  8
AM_0
 10
1050.3215066822179
 20
229.89448565454089
 30
0.0
 11
1070.4989366822181
 21
231.39448565454089
 31
0.0
  0
LINE
  5
15345
  8
AM_0
 10
1070.4965594659061
 20
231.3995090922048
 30
0.0
 11
1075.821446682218
 21
220.02448565454091
 31
0.0
  0
LINE
  5
15346
  8
AM_0
 10
1075.821446682218
 20
220.02447565454091
 30
0.0
 11
1074.581456682218
 21
213.46447565454099
 31
0.0
  0
LINE
  5
15347
  8
AM_0
 10
1075.821446682218
 20
218.6844756545409
 30
0.0
 11
1074.541476682218
 21
210.674485654541
 31
0.0
  0
ARC
  5
15348
  8
AM_0
 10
1072.618566682218
 20
213.8313856545409
 30
0.0
 40
1.9969039999999989
 50
270.08347399999963
 51
349.41256000000033
  0
ARC
  5
15349
  8
AM_0
 10
1073.276865322606
 20
233.1194797785744
 30
0.0
 40
1.0000138999999999
 50
269.69167414451692
 51
90.308354144518404
  0
ARC
  5
1534A
  8
AM_0
 10
1074.1488753337251
 20
233.074439993846
 30
0.0
 40
1.6750160000000001
 50
269.74615914452119
 51
90.25388414451777
  0
ARC
  5
1534B
  8
ｶｸﾚｾﾝ2
 10
1064.321446682218
 20
239.61945010469501
 30
0.0
 40
3.0
 50
270.0
 51
0.000000000000007
  0
POLYLINE
  5
1534C
  8
AM_0
 66
     1
 10
0.0
 20
0.0
 30
0.0
  0
VERTEX
  5
1534D
  8
AM_0
 10
1073.4174282301731
 20
261.84909981327581
 30
0.0
 42
-0.00076691992
  0
VERTEX
  5
1534E
  8
AM_0
 10
1073.4026283826811
 20
261.23132980962208
 30
0.0
 42
-0.00073262792
  0
VERTEX
  5
1534F
  8
AM_0
 10
1073.385988535144
 20
260.61373980551417
 30
0.0
 42
-0.00076529537
  0
VERTEX
  5
15350
  8
AM_0
 10
1073.3674986876281
 20
259.99606980094973
 30
0.0
 42
-0.00075141097
  0
VERTEX
  5
15351
  8
AM_0
 10
1073.3471288400931
 20
259.37846979592098
 30
0.0
 42
-0.00075841687
  0
VERTEX
  5
15352
  8
AM_0
 10
1073.3248989925171
 20
258.76103979043307
 30
0.0
 42
-0.00075711788
  0
VERTEX
  5
15353
  8
AM_0
 10
1073.3007891449611
 20
258.14352978448107
 30
0.0
 42
-0.00075976003
  0
VERTEX
  5
15354
  8
AM_0
 10
1073.274799297375
 20
257.52613977806499
 30
0.0
 42
-0.00075797311
  0
VERTEX
  5
15355
  8
AM_0
 10
1073.246959449762
 20
256.90885977119211
 30
0.0
 42
-0.0007482613
  0
VERTEX
  5
15356
  8
AM_0
 10
1073.2172296021729
 20
256.29147976385292
 30
0.0
 42
-0.00074893561
  0
VERTEX
  5
15357
  8
AM_0
 10
1073.1856697545229
 20
255.6743497560617
 30
0.0
 42
-0.00076039839
  0
VERTEX
  5
15358
  8
AM_0
 10
1073.1522499068481
 20
255.0573197478115
 30
0.0
 42
-0.00075618786
  0
VERTEX
  5
15359
  8
AM_0
 10
1073.1169500591759
 20
254.44027973909689
 30
0.0
  0
SEQEND
  5
1535A
  8
AM_0
  0
POLYLINE
  5
1535B
  8
AM_0
 66
     1
 10
0.0
 20
0.0
 30
0.0
  0
VERTEX
  5
1535C
  8
AM_0
 10
1072.9432407161839
 20
251.77890969621359
 30
0.0
 42
-0.0007337051
  0
VERTEX
  5
1535D
  8
AM_0
 10
1072.899100864902
 20
251.1764896853168
 30
0.0
 42
-0.00075211323
  0
VERTEX
  5
1535E
  8
AM_0
 10
1072.8531610136131
 20
250.57409967397589
 30
0.0
 42
-0.0007297491
  0
VERTEX
  5
1535F
  8
AM_0
 10
1072.805431162278
 20
249.9718996621927
 30
0.0
 42
-0.00073593041
  0
VERTEX
  5
15360
  8
AM_0
 10
1072.7559513108899
 20
249.3699096499777
 30
0.0
 42
-0.00074742739
  0
VERTEX
  5
15361
  8
AM_0
 10
1072.7046814594721
 20
248.7680396373209
 30
0.0
 42
-0.00073217363
  0
VERTEX
  5
15362
  8
AM_0
 10
1072.6516216080381
 20
248.1662396242221
 30
0.0
 42
-0.00073754168
  0
VERTEX
  5
15363
  8
AM_0
 10
1072.596801756539
 20
247.56469961068871
 30
0.0
 42
-0.00073075073
  0
VERTEX
  5
15364
  8
AM_0
 10
1072.540221904995
 20
246.963339596721
 30
0.0
 42
-0.00074550816
  0
VERTEX
  5
15365
  8
AM_0
 10
1072.4818820533781
 20
246.36227958231851
 30
0.0
 42
-0.00074288416
  0
VERTEX
  5
15366
  8
AM_0
 10
1072.421732201751
 20
245.76125956746941
 30
0.0
 42
-0.00072504001
  0
VERTEX
  5
15367
  8
AM_0
 10
1072.3598223500569
 20
245.16050955218591
 30
0.0
 42
-0.00074640667
  0
VERTEX
  5
15368
  8
AM_0
 10
1072.2961524983259
 20
244.55990953646781
 30
0.0
  0
SEQEND
  5
15369
  8
AM_0
  0
ARC
  5
1536A
  8
AM_0
 10
1073.2768628539229
 20
243.11947977857409
 30
0.0
 40
1.0000138999999999
 50
269.69167414451692
 51
90.308354144518404
  0
ARC
  5
1536B
  8
AM_0
 10
1074.361462860099
 20
243.09446004632741
 30
0.0
 40
1.465004
 50
270.00001714451889
 51
90.000014144521259
  0
ARC
  5
1536C
  8
AM_0
 10
1073.2768603852389
 20
253.1194797785738
 30
0.0
 40
1.0000138999999999
 50
269.69167414451692
 51
90.308354144518404
  0
ARC
  5
1536D
  8
AM_0
 10
1074.491460387711
 20
253.10947007842009
 30
0.0
 40
1.3300049999999981
 50
270.00001714451889
 51
90.000014144521259
  0
POLYLINE
  5
1536E
  8
AM_0
 66
     1
 10
0.0
 20
0.0
 30
0.0
  0
VERTEX
  5
1536F
  8
AM_0
 10
1073.4614866822151
 20
268.11947982415262
 30
0.0
 42
-0.00039106649
  0
VERTEX
  5
15370
  8
AM_0
 10
1073.463846759023
 20
267.8083498247351
 30
0.0
 42
-0.00035488198
  0
VERTEX
  5
15371
  8
AM_0
 10
1073.465736835826
 20
267.49723982520192
 30
0.0
 42
-0.00039706113
  0
VERTEX
  5
15372
  8
AM_0
 10
1073.467166912629
 20
267.18612982555481
 30
0.0
 42
-0.00038765718
  0
VERTEX
  5
15373
  8
AM_0
 10
1073.46809698944
 20
266.8749898257845
 30
0.0
 42
-0.00040613432
  0
VERTEX
  5
15374
  8
AM_0
 10
1073.4685470662409
 20
266.56388982589561
 30
0.0
 42
-0.00035573434
  0
VERTEX
  5
15375
  8
AM_0
 10
1073.468507143044
 20
266.25277982588563
 30
0.0
 42
-0.00038545884
  0
VERTEX
  5
15376
  8
AM_0
 10
1073.4680172198521
 20
265.94164982576473
 30
0.0
 42
-0.00035501205
  0
VERTEX
  5
15377
  8
AM_0
 10
1073.467057296655
 20
265.63053982552782
 30
0.0
 42
-0.00040120779
  0
VERTEX
  5
15378
  8
AM_0
 10
1073.4656373734881
 20
265.31930982517719
 30
0.0
 42
-0.00038317817
  0
VERTEX
  5
15379
  8
AM_0
 10
1073.4637274502959
 20
265.00817982470568
 30
0.0
 42
-0.00035656084
  0
VERTEX
  5
1537A
  8
AM_0
 10
1073.461347527131
 20
264.6969398241182
 30
0.0
 42
-0.00040143615
  0
VERTEX
  5
1537B
  8
AM_0
 10
1073.4584976039321
 20
264.38583982341459
 30
0.0
  0
SEQEND
  5
1537C
  8
AM_0
  0
ARC
  5
1537D
  8
AM_0
 10
1073.2768579165561
 20
263.11947977857352
 30
0.0
 40
1.0000138999999999
 50
269.69167414451692
 51
90.308354144518404
  0
ARC
  5
1537E
  8
AM_0
 10
1074.5573179177909
 20
263.11448009467853
 30
0.0
 40
1.2650129999999991
 50
269.7355931445108
 51
90.264424144511509
  0
POLYLINE
  5
1537F
  8
AM_0
 66
     1
 10
0.0
 20
0.0
 30
0.0
  0
VERTEX
  5
15380
  8
AM_0
 10
1073.461486682218
 20
268.119453744981
 30
0.0
 42
0.00039106649
  0
VERTEX
  5
15381
  8
AM_0
 10
1073.463846682218
 20
268.43058374498111
 30
0.0
 42
0.00035488198
  0
VERTEX
  5
15382
  8
AM_0
 10
1073.465736682218
 20
268.74169374498098
 30
0.0
 42
0.00039706113
  0
VERTEX
  5
15383
  8
AM_0
 10
1073.467166682218
 20
269.05280374498108
 30
0.0
 42
0.00038765718
  0
VERTEX
  5
15384
  8
AM_0
 10
1073.4680966822179
 20
269.3639437449811
 30
0.0
 42
0.00040613432
  0
VERTEX
  5
15385
  8
AM_0
 10
1073.4685466822179
 20
269.675043744981
 30
0.0
 42
0.00035573434
  0
VERTEX
  5
15386
  8
AM_0
 10
1073.468506682218
 20
269.9861537449811
 30
0.0
 42
0.00038545884
  0
VERTEX
  5
15387
  8
AM_0
 10
1073.4680166822179
 20
270.29728374498097
 30
0.0
 42
0.00035501205
  0
VERTEX
  5
15388
  8
AM_0
 10
1073.4670566822181
 20
270.60839374498102
 30
0.0
 42
0.00040120779
  0
VERTEX
  5
15389
  8
AM_0
 10
1073.465636682218
 20
270.91962374498098
 30
0.0
 42
0.00038317817
  0
VERTEX
  5
1538A
  8
AM_0
 10
1073.4637266822181
 20
271.23075374498109
 30
0.0
 42
0.00035656084
  0
VERTEX
  5
1538B
  8
AM_0
 10
1073.4613466822179
 20
271.54199374498108
 30
0.0
 42
0.00040143615
  0
VERTEX
  5
1538C
  8
AM_0
 10
1073.4584966822181
 20
271.85309374498098
 30
0.0
  0
SEQEND
  5
1538D
  8
AM_0
  0
ARC
  5
1538E
  8
ｶｸﾚｾﾝ2
 10
990.32144668221838
 20
239.61945010469501
 30
0.0
 40
3.0
 50
180.0
 51
270.0
  0
LINE
  5
1538F
  8
ｶｸﾚｾﾝ2
 10
990.32144668221838
 20
299.61945010469498
 30
0.0
 11
1064.321446682218
 21
299.6194501046952
 31
0.0
  0
ARC
  5
15390
  8
AM_0
 10
1074.1488666822181
 20
303.16449374498097
 30
0.0
 40
1.6750160000000001
 50
269.74612999999908
 51
90.253854999995511
  0
POLYLINE
  5
15391
  8
AM_0
 66
     1
 10
0.0
 20
0.0
 30
0.0
  0
VERTEX
  5
15392
  8
AM_0
 10
1072.943236682218
 20
284.46002374498107
 30
0.0
 42
0.0007337051
  0
VERTEX
  5
15393
  8
AM_0
 10
1072.899096682218
 20
285.06244374498112
 30
0.0
 42
0.00075211323
  0
VERTEX
  5
15394
  8
AM_0
 10
1072.853156682218
 20
285.66483374498108
 30
0.0
 42
0.0007297491
  0
VERTEX
  5
15395
  8
AM_0
 10
1072.805426682218
 20
286.26703374498112
 30
0.0
 42
0.00073593041
  0
VERTEX
  5
15396
  8
AM_0
 10
1072.7559466822181
 20
286.86902374498101
 30
0.0
 42
0.00074742739
  0
VERTEX
  5
15397
  8
AM_0
 10
1072.704676682218
 20
287.47089374498103
 30
0.0
 42
0.00073217363
  0
VERTEX
  5
15398
  8
AM_0
 10
1072.651616682218
 20
288.072693744981
 30
0.0
 42
0.00073754168
  0
VERTEX
  5
15399
  8
AM_0
 10
1072.5967966822179
 20
288.674233744981
 30
0.0
 42
0.00073075073
  0
VERTEX
  5
1539A
  8
AM_0
 10
1072.540216682218
 20
289.27559374498099
 30
0.0
 42
0.00074550816
  0
VERTEX
  5
1539B
  8
AM_0
 10
1072.4818766822179
 20
289.87665374498113
 30
0.0
 42
0.00074288416
  0
VERTEX
  5
1539C
  8
AM_0
 10
1072.4217266822179
 20
290.47767374498108
 30
0.0
 42
0.00072504001
  0
VERTEX
  5
1539D
  8
AM_0
 10
1072.359816682218
 20
291.07842374498108
 30
0.0
 42
0.00074640667
  0
VERTEX
  5
1539E
  8
AM_0
 10
1072.296146682218
 20
291.67902374498112
 30
0.0
  0
SEQEND
  5
1539F
  8
AM_0
  0
POLYLINE
  5
153A0
  8
AM_0
 66
     1
 10
0.0
 20
0.0
 30
0.0
  0
VERTEX
  5
153A1
  8
AM_0
 10
1073.4174266822181
 20
274.38983374498099
 30
0.0
 42
0.00076691992
  0
VERTEX
  5
153A2
  8
AM_0
 10
1073.4026266822179
 20
275.00760374498111
 30
0.0
 42
0.00073262792
  0
VERTEX
  5
153A3
  8
AM_0
 10
1073.3859866822179
 20
275.625193744981
 30
0.0
 42
0.00076529537
  0
VERTEX
  5
153A4
  8
AM_0
 10
1073.367496682218
 20
276.24286374498098
 30
0.0
 42
0.00075141097
  0
VERTEX
  5
153A5
  8
AM_0
 10
1073.347126682218
 20
276.86046374498102
 30
0.0
 42
0.00075841687
  0
VERTEX
  5
153A6
  8
AM_0
 10
1073.324896682218
 20
277.47789374498097
 30
0.0
 42
0.00075711788
  0
VERTEX
  5
153A7
  8
AM_0
 10
1073.3007866822179
 20
278.09540374498113
 30
0.0
 42
0.00075976003
  0
VERTEX
  5
153A8
  8
AM_0
 10
1073.274796682218
 20
278.71279374498113
 30
0.0
 42
0.00075797311
  0
VERTEX
  5
153A9
  8
AM_0
 10
1073.2469566822181
 20
279.33007374498112
 30
0.0
 42
0.0007482613
  0
VERTEX
  5
153AA
  8
AM_0
 10
1073.2172266822181
 20
279.94745374498098
 30
0.0
 42
0.00074893561
  0
VERTEX
  5
153AB
  8
AM_0
 10
1073.185666682218
 20
280.56458374498101
 30
0.0
 42
0.00076039839
  0
VERTEX
  5
153AC
  8
AM_0
 10
1073.152246682218
 20
281.18161374498101
 30
0.0
 42
0.00075618786
  0
VERTEX
  5
153AD
  8
AM_0
 10
1073.116946682218
 20
281.7986537449811
 30
0.0
  0
SEQEND
  5
153AE
  8
AM_0
  0
ARC
  5
153AF
  8
AM_0
 10
1074.4914566822181
 20
283.12946374498102
 30
0.0
 40
1.3300049999999981
 50
270.0
 51
89.999997000002296
  0
ARC
  5
153B0
  8
AM_0
 10
1073.2768566822181
 20
283.119453744981
 30
0.0
 40
1.0000138999999999
 50
269.69165999999939
 51
90.308340000000754
  0
POLYLINE
  5
153B1
  8
AM_0
 66
     1
 10
0.0
 20
0.0
 30
0.0
  0
VERTEX
  5
153B2
  8
AM_0
 10
1071.9605766822181
 20
294.60248374498099
 30
0.0
 42
0.00068898288
  0
VERTEX
  5
153B3
  8
AM_0
 10
1071.8896966822181
 20
295.17723374498098
 30
0.0
 42
0.00070644354
  0
VERTEX
  5
153B4
  8
AM_0
 10
1071.8171966822181
 20
295.75192374498113
 30
0.0
 42
0.00069248071
  0
VERTEX
  5
153B5
  8
AM_0
 10
1071.743106682218
 20
296.32623374498098
 30
0.0
 42
0.00069585665
  0
VERTEX
  5
153B6
  8
AM_0
 10
1071.6674266822181
 20
296.9003737449811
 30
0.0
 42
0.00068980191
  0
VERTEX
  5
153B7
  8
AM_0
 10
1071.5901266822179
 20
297.47437374498111
 30
0.0
 42
0.00072080104
  0
VERTEX
  5
153B8
  8
AM_0
 10
1071.5112366822179
 20
298.04816374498091
 30
0.0
 42
0.00071002307
  0
VERTEX
  5
153B9
  8
AM_0
 10
1071.430696682218
 20
298.62163374498101
 30
0.0
 42
0.00072659056
  0
VERTEX
  5
153BA
  8
AM_0
 10
1071.3485366822181
 20
299.19473374498108
 30
0.0
 42
0.00069570481
  0
VERTEX
  5
153BB
  8
AM_0
 10
1071.264716682218
 20
299.7677637449811
 30
0.0
 42
0.00071266935
  0
VERTEX
  5
153BC
  8
AM_0
 10
1071.1792866822179
 20
300.34053374498109
 30
0.0
 42
0.00071614426
  0
VERTEX
  5
153BD
  8
AM_0
 10
1071.092256682218
 20
300.91287374498103
 30
0.0
 42
0.00072288975
  0
VERTEX
  5
153BE
  8
AM_0
 10
1071.003546682218
 20
301.48517374498113
 30
0.0
  0
SEQEND
  5
153BF
  8
AM_0
  0
ARC
  5
153C0
  8
AM_0
 10
1073.2768566822181
 20
293.119453744981
 30
0.0
 40
1.0000138999999999
 50
269.69165999999939
 51
90.308340000000754
  0
ARC
  5
153C1
  8
AM_0
 10
1074.361456682218
 20
293.1444737449811
 30
0.0
 40
1.465004
 50
270.0
 51
89.999997000002296
  0
ARC
  5
153C2
  8
AM_0
 10
1073.2768566822181
 20
303.11945374498112
 30
0.0
 40
1.0000138999999999
 50
269.69165999999939
 51
90.308340000000754
  0
ARC
  5
153C3
  8
ｶｸﾚｾﾝ2
 10
1064.321446682218
 20
296.61945010469498
 30
0.0
 40
3.0
 50
0.000000000000007
 51
90.0
  0
LINE
  5
153C4
  8
AM_0
 10
1072.571446682218
 20
327.25448365454088
 30
0.0
 11
1038.821446682218
 21
327.25448365454088
 31
0.0
  0
LINE
  5
153C5
  8
AM_0
 10
1072.5514266822181
 20
329.09448765454101
 30
0.0
 11
1038.821446682218
 21
329.09448765454101
 31
0.0
  0
LINE
  5
153C6
  8
AM_0
 10
1072.531466682218
 20
330.01447865454099
 30
0.0
 11
1038.821446682218
 21
330.01447865454099
 31
0.0
  0
LINE
  5
153C7
  8
AM_0
 10
1050.321446682218
 20
306.34448065454097
 30
0.0
 11
1070.494296682218
 21
304.84448065454097
 31
0.0
  0
LINE
  5
153C8
  8
AM_0
 10
1075.821446682218
 20
316.21449865454088
 30
0.0
 11
1074.581456682218
 21
322.77449565454089
 31
0.0
  0
LINE
  5
153C9
  8
AM_0
 10
1075.821446682218
 20
317.56448965454098
 30
0.0
 11
1074.541476682218
 21
325.56448165454088
 31
0.0
  0
LINE
  5
153CA
  8
AM_0
 10
1075.821386682218
 20
318.90448565454102
 30
0.0
 11
1074.5314066822179
 21
327.4044776545411
 31
0.0
  0
LINE
  5
153CB
  8
AM_0
 10
1075.821446682218
 20
318.90446265454102
 30
0.0
 11
1074.5114466822181
 21
328.28446765454089
 31
0.0
  0
LINE
  5
153CC
  8
AM_0
 10
1070.4918993429339
 20
304.83942374498127
 30
0.0
 11
1075.8215066822179
 21
316.21446065454091
 31
0.0
  0
ARC
  5
153CD
  8
AM_0
 10
1072.529326682218
 20
328.01400565454088
 30
0.0
 40
2.0004758999999992
 50
7.770460000000349
 51
89.939690000002528
  0
ARC
  5
153CE
  8
AM_0
 10
1072.5578966822179
 20
327.09715065454088
 30
0.0
 40
1.9973480999999991
 50
8.8514699999996456
 51
90.184679999997584
  0
ARC
  5
153CF
  8
AM_0
 10
1072.5654666822179
 20
325.25430865454109
 30
0.0
 40
2.0001840999999998
 50
8.9210000000021843
 51
89.828529999999176
  0
ARC
  5
153D0
  8
AM_0
 10
1072.6167966822179
 20
322.40548465454083
 30
0.0
 40
1.9990078999999989
 50
10.63740999999699
 51
89.866550000002974
  0
ARC
  5
153D1
  8
AM_0
 10
1038.8294366822181
 20
328.00647565454079
 30
0.0
 40
2.0080360999999991
 50
90.228789999999435
 51
179.77121000000059
  0
ARC
  5
153D2
  8
AM_0
 10
1038.8247366822179
 20
327.09119965454079
 30
0.0
 40
2.003279899999999
 50
90.093789999997114
 51
179.9062100000028
  0
ARC
  5
153D3
  8
AM_0
 10
1038.8286466822181
 20
325.24730465454093
 30
0.0
 40
2.0071799999999991
 50
90.204619999991195
 51
179.7953800000023
  0
LINE
  5
153D4
  8
AM_0
 10
1036.821446682218
 20
328.01448565454092
 30
0.0
 11
1036.821446682218
 21
324.40449265454089
 31
0.0
  0
ARC
  5
153D5
  8
ｶｸﾚｾﾝ2
 10
990.32144668221838
 20
296.61945010469498
 30
0.0
 40
3.0
 50
90.0
 51
180.0
  0
LINE
  5
153D6
  8
AM_0
 10
967.82144668221815
 20
212.11948565454091
 30
0.0
 11
967.82144668221815
 21
324.11948965454093
 31
0.0
  0
ARC
  5
153D7
  8
AM_0
 10
970.59455028221805
 20
273.12946374498091
 30
0.0
 40
1.2700266
 50
89.629330000001815
 51
270.37067999999999
  0
ARC
  5
153D8
  8
AM_0
 10
974.48148678221798
 20
273.11945374498089
 30
0.0
 40
1.000005699999998
 50
89.999997000002296
 51
270.000010000001
  0
LINE
  5
153D9
  8
AM_0
 10
967.82144668221815
 20
212.11948565454091
 30
0.0
 11
959.8214766822183
 21
212.11948565454091
 31
0.0
  0
LINE
  5
153DA
  8
AM_0
 10
967.82144668221815
 20
236.17947565454091
 30
0.0
 11
959.8214766822183
 21
236.17947565454091
 31
0.0
  0
LINE
  5
153DB
  8
AM_0
 10
967.82144668221815
 20
222.11948565454091
 30
0.0
 11
959.8214766822183
 21
222.11948565454091
 31
0.0
  0
LINE
  5
153DC
  8
AM_0
 10
970.98966194559353
 20
223.6874054472795
 30
0.0
 11
973.77142668221836
 21
213.32447565454081
 31
0.0
  0
ARC
  5
153DD
  8
AM_0
 10
975.70425668221844
 20
213.83308565454089
 30
0.0
 40
1.9986041000000001
 50
194.74271599999929
 51
269.91951600000112
  0
LINE
  5
153DE
  8
AM_0
 10
973.28146668221802
 20
215.12447565454079
 30
0.0
 11
967.82144668221815
 21
215.12447565454079
 31
0.0
  0
ARC
  5
153DF
  8
AM_0
 10
974.48145532260878
 20
233.1194553891176
 30
0.0
 40
1.0
 50
90.000004144520219
 51
270.00001714451889
  0
ARC
  5
153E0
  8
AM_0
 10
971.00149550148797
 20
233.07443853002661
 30
0.0
 40
1.675026000120903
 50
90.000704001170405
 51
269.9993272878047
  0
ARC
  5
153E1
  8
AM_0
 10
974.48149048524272
 20
253.1194553891269
 30
0.0
 40
1.000005699999998
 50
90.000004144520219
 51
270.00001714451889
  0
ARC
  5
153E2
  8
AM_0
 10
974.48151285392578
 20
243.11945538913221
 30
0.0
 40
1.0000255999999981
 50
89.589484144516277
 51
270.41054514451741
  0
ARC
  5
153E3
  8
AM_0
 10
970.78150286133939
 20
243.0894244757171
 30
0.0
 40
1.460011199999999
 50
89.775264144516015
 51
270.22476414452268
  0
ARC
  5
153E4
  8
AM_0
 10
970.65650398894832
 20
253.10444444485901
 30
0.0
 40
1.3350147999999999
 50
89.730444144521385
 51
270.26957014451631
  0
ARC
  5
153E5
  8
AM_0
 10
974.48148801655975
 20
263.11945538912647
 30
0.0
 40
1.000005699999998
 50
90.000004144520219
 51
270.00001714451889
  0
ARC
  5
153E6
  8
AM_0
 10
970.5945515190308
 20
263.10944442956509
 30
0.0
 40
1.2700266
 50
89.629334144517586
 51
270.37068414451579
  0
ARC
  5
153E7
  8
AM_0
 10
971.00148684998385
 20
303.16446974498029
 30
0.0
 40
1.675026000120903
 50
90.000686856703538
 51
269.99931014333782
  0
LINE
  5
153E8
  8
AM_0
 10
967.82144668221815
 20
300.05947665454079
 30
0.0
 11
959.8214766822183
 21
300.05947665454079
 31
0.0
  0
ARC
  5
153E9
  8
AM_0
 10
974.48148678221798
 20
283.11945374498089
 30
0.0
 40
1.000005699999998
 50
89.999997000002296
 51
270.000010000001
  0
ARC
  5
153EA
  8
AM_0
 10
970.65650028221819
 20
283.13446374498091
 30
0.0
 40
1.3350147999999999
 50
89.730444000005164
 51
270.2695700000001
  0
ARC
  5
153EB
  8
AM_0
 10
974.4815066822182
 20
293.119453744981
 30
0.0
 40
1.0000255999999981
 50
89.589469000002211
 51
270.41052999999027
  0
ARC
  5
153EC
  8
AM_0
 10
974.48144668221801
 20
303.119453744981
 30
0.0
 40
1.0
 50
89.999997000002296
 51
270.000010000001
  0
ARC
  5
153ED
  8
AM_0
 10
970.78149668221818
 20
293.14948374498078
 30
0.0
 40
1.460011199999999
 50
89.77525000000314
 51
270.22474999999679
  0
LINE
  5
153EE
  8
AM_0
 10
967.82144668221815
 20
324.11948965454093
 30
0.0
 11
959.8214766822183
 21
324.11948965454093
 31
0.0
  0
LINE
  5
153EF
  8
AM_0
 10
967.82144668221815
 20
314.11948165454089
 30
0.0
 11
959.8214766822183
 21
314.11948165454089
 31
0.0
  0
LINE
  5
153F0
  8
AM_0
 10
970.98792853911402
 20
312.55350870621203
 30
0.0
 11
973.77145668221817
 21
322.92447465454092
 31
0.0
  0
ARC
  5
153F1
  8
AM_0
 10
975.70431668221829
 20
322.4023496545409
 30
0.0
 40
2.0021281000000002
 50
90.081519999999855
 51
164.88330000000411
  0
LINE
  5
153F2
  8
AM_0
 10
973.28146668221802
 20
321.12447865454089
 30
0.0
 11
967.82144668221815
 21
321.12447865454089
 31
0.0
  0
LINE
  5
15409
  8
AM_0
 10
794.32147227147459
 20
318.12726857700488
 30
0.0
 11
794.32147227147459
 21
251.1116368184
 31
0.0
  0
LINE
  5
1540A
  8
AM_0
 10
936.32147650340437
 20
318.12726857700488
 30
0.0
 11
936.32147650340437
 21
251.1116368184
 31
0.0
  0
ARC
  5
1540C
  8
AM_0
 10
931.32147650340426
 20
251.1116368184
 30
0.0
 40
5.0
 50
296.05952698213213
 51
0.000000000000007
1001
GENIUS_GENOBJ-N-FIL_13
1002
{
1000
OWNER
1000
GEN
1002
}
1001
GENIUS_GENODEF_13
1002
{
1000
HIER
1070
     0
1002
}
1002
{
1000
MANEDIT
1070
     0
1002
}
1002
{
1000
NOSEL
1070
     0
1002
}
1002
{
1000
BEHIND
1070
     0
1002
}
1002
{
1000
OTHER
1070
     0
1002
}
1002
{
1000
REACTOR
1002
}
  0
ARC
  5
1540E
  8
AM_0
 10
799.32147227147482
 20
251.1116368184
 30
0.0
 40
5.0
 50
180.0
 51
243.9404730178619
1001
GENIUS_GENOBJ-N-FIL_13
1002
{
1000
OWNER
1000
GEN
1002
}
1001
GENIUS_GENODEF_13
1002
{
1000
HIER
1070
     0
1002
}
1002
{
1000
MANEDIT
1070
     0
1002
}
1002
{
1000
NOSEL
1070
     0
1002
}
1002
{
1000
BEHIND
1070
     0
1002
}
1002
{
1000
OTHER
1070
     0
1002
}
1002
{
1000
REACTOR
1002
}
  0
ARC
  5
1540F
  8
AM_0
 10
915.82929077338122
 20
333.61945430702792
 30
0.0
 40
5.0
 50
1.7907841788467811
 51
90.0
1001
GENIUS_GENOBJ-N-FIL_13
1002
{
1000
OWNER
1000
GEN
1002
}
1001
GENIUS_GENODEF_13
1002
{
1000
HIER
1070
     0
1002
}
1002
{
1000
MANEDIT
1070
     0
1002
}
1002
{
1000
NOSEL
1070
     0
1002
}
1002
{
1000
BEHIND
1070
     0
1002
}
1002
{
1000
OTHER
1070
     0
1002
}
1002
{
1000
REACTOR
1002
}
  0
ARC
  5
15410
  8
AM_0
 10
931.32147650340426
 20
318.12726857700488
 30
0.0
 40
5.0
 50
0.000000000000007
 51
88.209215821153435
1001
GENIUS_GENOBJ-N-FIL_13
1002
{
1000
OWNER
1000
GEN
1002
}
1001
GENIUS_GENODEF_13
1002
{
1000
HIER
1070
     0
1002
}
1002
{
1000
MANEDIT
1070
     0
1002
}
1002
{
1000
NOSEL
1070
     0
1002
}
1002
{
1000
BEHIND
1070
     0
1002
}
1002
{
1000
OTHER
1070
     0
1002
}
1002
{
1000
REACTOR
1002
}
  0
ARC
  5
15411
  8
AM_0
 10
931.82147636929369
 20
334.11945417291741
 30
0.0
 40
11.0
 50
181.79078417884679
 51
268.20921582115352
  0
LINE
  5
15412
  8
AM_0
 10
915.82929077338122
 20
338.61945430702792
 30
0.0
 11
814.81365800149717
 21
338.61945430702792
 31
0.0
  0
ARC
  5
15413
  8
AM_0
 10
799.32147227147482
 20
318.12726857700488
 30
0.0
 40
5.0
 50
91.790784178846565
 51
180.0
1001
GENIUS_GENOBJ-N-FIL_13
1002
{
1000
OWNER
1000
GEN
1002
}
1001
GENIUS_GENODEF_13
1002
{
1000
HIER
1070
     0
1002
}
1002
{
1000
MANEDIT
1070
     0
1002
}
1002
{
1000
NOSEL
1070
     0
1002
}
1002
{
1000
BEHIND
1070
     0
1002
}
1002
{
1000
OTHER
1070
     0
1002
}
1002
{
1000
REACTOR
1002
}
  0
ARC
  5
15414
  8
AM_0
 10
798.8214724055847
 20
334.11945417291741
 30
0.0
 40
11.0
 50
271.79078417884648
 51
358.20921582115329
  0
ARC
  5
15415
  8
AM_0
 10
814.81365800149717
 20
333.61945430702769
 30
0.0
 40
5.0
 50
90.0
 51
178.20921582115321
1001
GENIUS_GENOBJ-N-FIL_13
1002
{
1000
OWNER
1000
GEN
1002
}
1001
GENIUS_GENODEF_13
1002
{
1000
HIER
1070
     0
1002
}
1002
{
1000
MANEDIT
1070
     0
1002
}
1002
{
1000
NOSEL
1070
     0
1002
}
1002
{
1000
BEHIND
1070
     0
1002
}
1002
{
1000
OTHER
1070
     0
1002
}
1002
{
1000
REACTOR
1002
}
  0
CIRCLE
  5
154C0
  8
AM_0
 10
798.82147240558561
 20
235.11994622250231
 30
0.0
 40
6.5
  0
CIRCLE
  5
154C1
  8
AM_0
 10
798.82147240558561
 20
235.11994622250231
 30
0.0
 40
3.4641016151377508
  0
LINE
  5
154C2
  8
AM_0
 10
802.2855740207234
 20
235.11994622250231
 30
0.0
 11
800.55352321315615
 21
238.11994622250231
 31
0.0
  0
LINE
  5
154C3
  8
AM_0
 10
797.08942159801666
 20
238.11994622250231
 30
0.0
 11
795.35737079044827
 21
235.11994622250299
 31
0.0
  0
LINE
  5
154C5
  8
AM_0
 10
797.08942159801575
 20
232.11994622250239
 30
0.0
 11
800.55352321315445
 21
232.11994622250239
 31
0.0
  0
LINE
  5
154C6
  8
AM_0
 10
795.35737079044827
 20
235.11994622250299
 30
0.0
 11
797.08942159801575
 21
232.11994622250239
 31
0.0
  0
LINE
  5
154C7
  8
AM_0
 10
800.55352321315445
 20
232.11994622250239
 30
0.0
 11
802.2855740207234
 21
235.11994622250231
 31
0.0
  0
LINE
  5
154C8
  8
AM_0
 10
800.55352321315615
 20
238.11994622250231
 30
0.0
 11
797.08942159801666
 21
238.11994622250231
 31
0.0
  0
CIRCLE
  5
154F3
  8
AM_0
 10
931.82144585171397
 20
235.11994622250231
 30
0.0
 40
6.5
  0
CIRCLE
  5
154F4
  8
AM_0
 10
931.82144585171397
 20
235.11994622250231
 30
0.0
 40
3.4641016151377508
  0
LINE
  5
154F5
  8
AM_0
 10
935.28554746685188
 20
235.11994622250231
 30
0.0
 11
933.55349665928429
 21
238.11994622250231
 31
0.0
  0
LINE
  5
154F6
  8
AM_0
 10
930.08939504414525
 20
238.11994622250231
 30
0.0
 11
928.35734423657652
 21
235.11994622250299
 31
0.0
  0
LINE
  5
154F7
  8
AM_0
 10
930.08939504414445
 20
232.11994622250239
 30
0.0
 11
933.5534966592827
 21
232.11994622250239
 31
0.0
  0
LINE
  5
154F8
  8
AM_0
 10
928.35734423657652
 20
235.11994622250299
 30
0.0
 11
930.08939504414445
 21
232.11994622250239
 31
0.0
  0
LINE
  5
154F9
  8
AM_0
 10
933.5534966592827
 20
232.11994622250239
 30
0.0
 11
935.28554746685188
 21
235.11994622250231
 31
0.0
  0
LINE
  5
154FA
  8
AM_0
 10
933.55349665928429
 20
238.11994622250231
 30
0.0
 11
930.08939504414525
 21
238.11994622250231
 31
0.0
  0
TEXT
  5
158C4
  8
AM_0
 10
486.04345634582859
 20
535.36038366860282
 30
0.0
 40
10.0
  1
VC01-080KMR~VC01-240KMR
1001
ACAD
1000
MTEXTBEGIN
1070
    73
1070
     1
1070
    44
1040
1.0
1070
    74
1070
     0
1000
MTEXTEND
  0
VIEWPORT
  5
89
 67
     1
  8
0
 10
210.0
 20
148.5
 30
0.0
 40
420.0
 41
297.0
 68
     1
 69
     1
1001
ACAD
1000
MVIEW
1002
{
1070
    16
1010
0.0
1020
0.0
1030
0.0
1010
0.0
1020
0.0
1030
1.0
1040
0.0
1040
297.0
1040
221.70154043645701
1040
148.5
1040
50.0
1040
0.0
1040
0.0
1070
     0
1070
   100
1070
     1
1070
     1
1070
     0
1070
     0
1070
     0
1070
     0
1040
0.0
1040
0.0
1040
0.0
1040
10.0
1040
10.0
1040
10.0
1040
10.0
1070
     0
1002
{
1002
}
1002
}
1001
GENIUS_GENOREF_13
1005
1B94
1001
GENIUS_GENSCREG_15
1000
PF
1040
1.0
1000
DF
1040
1.0
1000
MIN
1011
0.0
1021
0.0
1031
0.0
1021
0.0
1031
0.0
1000
MAX
1011
420.0
1021
0.0
1031
0.0
1021
297.0
1031
0.0
1000
FLAGS
1070
     4
  0
ENDSEC
  0
EOF
