  0
SECTION
  2
HEADER
  9
$ACADVER
  1
AC1009
  9
$INSBASE
 10
0.0
 20
0.0
 30
0.0
  9
$EXTMIN
 10
514.7877064071713
 20
176.25404805971721
 30
-0.0015258207003583
  9
$EXTMAX
 10
1219.6130772400029
 20
627.51725985622193
 30
0.0000000349246037
  9
$LIMMIN
 10
0.0
 20
0.0
  9
$LIMMAX
 10
853.5
 20
555.00000000000011
  9
$ORTHOMODE
 70
     0
  9
$REGENMODE
 70
     1
  9
$FILLMODE
 70
     1
  9
$QTEXTMODE
 70
     0
  9
$MIRRTEXT
 70
     1
  9
$DRAGMODE
 70
     2
  9
$LTSCALE
 40
3.0
  9
$OSMODE
 70
   551
  9
$ATTMODE
 70
     1
  9
$TEXTSIZE
 40
2.5
  9
$TRACEWID
 40
1.0
  9
$TEXTSTYLE
  7
STANDARD
  9
$CLAYER
  8
AM_0
  9
$CELTYPE
  6
BYLAYER
  9
$CECOLOR
 62
   256
  9
$DIMSCALE
 40
3.0
  9
$DIMASZ
 40
2.5
  9
$DIMEXO
 40
1.0
  9
$DIMDLI
 40
7.0
  9
$DIMRND
 40
0.0
  9
$DIMDLE
 40
0.0
  9
$DIMEXE
 40
1.0
  9
$DIMTP
 40
0.1
  9
$DIMTM
 40
0.1000000001
  9
$DIMTXT
 40
2.5
  9
$DIMCEN
 40
0.0
  9
$DIMTSZ
 40
0.0
  9
$DIMTOL
 70
     0
  9
$DIMLIM
 70
     0
  9
$DIMTIH
 70
     0
  9
$DIMTOH
 70
     0
  9
$DIMSE1
 70
     0
  9
$DIMSE2
 70
     0
  9
$DIMTAD
 70
     3
  9
$DIMZIN
 70
     8
  9
$DIMBLK
  1

  9
$DIMASO
 70
     1
  9
$DIMSHO
 70
     1
  9
$DIMPOST
  1

  9
$DIMAPOST
  1
"
  9
$DIMALT
 70
     0
  9
$DIMALTD
 70
     2
  9
$DIMALTF
 40
0.0393701
  9
$DIMLFAC
 40
1.0
  9
$DIMTOFL
 70
     1
  9
$DIMTVP
 40
0.0
  9
$DIMTIX
 70
     0
  9
$DIMSOXD
 70
     0
  9
$DIMSAH
 70
     0
  9
$DIMBLK1
  1

  9
$DIMBLK2
  1

  9
$DIMSTYLE
  2
AM_JIS
  9
$DIMCLRD
 70
   256
  9
$DIMCLRE
 70
   256
  9
$DIMCLRT
 70
     4
  9
$DIMTFAC
 40
0.71
  9
$DIMGAP
 40
1.0
  9
$LUNITS
 70
     2
  9
$LUPREC
 70
     2
  9
$SKETCHINC
 40
1.0
  9
$FILLETRAD
 40
7.5
  9
$AUNITS
 70
     0
  9
$AUPREC
 70
     3
  9
$MENU
  1
.
  9
$ELEVATION
 40
0.0
  9
$PELEVATION
 40
0.0
  9
$THICKNESS
 40
0.0
  9
$LIMCHECK
 70
     0
  9
$BLIPMODE
 70
     0
  9
$CHAMFERA
 40
7.5
  9
$CHAMFERB
 40
7.5
  9
$SKPOLY
 70
     0
  9
$TDCREATE
 40
2452753.643349607
  9
$TDUPDATE
 40
2458543.4601570489
  9
$TDINDWG
 40
0.5095077894
  9
$TDUSRTIMER
 40
0.5095076042
  9
$USRTIMER
 70
     1
  9
$ANGBASE
 50
0.0
  9
$ANGDIR
 70
     0
  9
$PDMODE
 70
     0
  9
$PDSIZE
 40
0.0
  9
$PLINEWID
 40
0.0
  9
$COORDS
 70
     1
  9
$SPLFRAME
 70
     0
  9
$SPLINETYPE
 70
     6
  9
$SPLINESEGS
 70
     8
  9
$ATTDIA
 70
     1
  9
$ATTREQ
 70
     1
  9
$HANDLING
 70
     1
  9
$HANDSEED
  5
1EEDB
  9
$SURFTAB1
 70
     6
  9
$SURFTAB2
 70
     6
  9
$SURFTYPE
 70
     6
  9
$SURFU
 70
     6
  9
$SURFV
 70
     6
  9
$UCSNAME
  2

  9
$UCSORG
 10
0.0
 20
0.0
 30
0.0
  9
$UCSXDIR
 10
1.0
 20
0.0
 30
0.0
  9
$UCSYDIR
 10
0.0
 20
1.0
 30
0.0
  9
$PUCSNAME
  2

  9
$PUCSORG
 10
0.0
 20
0.0
 30
0.0
  9
$PUCSXDIR
 10
1.0
 20
0.0
 30
0.0
  9
$PUCSYDIR
 10
0.0
 20
1.0
 30
0.0
  9
$USERI1
 70
     0
  9
$USERI2
 70
     0
  9
$USERI3
 70
     0
  9
$USERI4
 70
     0
  9
$USERI5
 70
     0
  9
$USERR1
 40
0.0
  9
$USERR2
 40
0.0
  9
$USERR3
 40
0.0
  9
$USERR4
 40
0.0
  9
$USERR5
 40
0.0
  9
$WORLDVIEW
 70
     1
  9
$SHADEDGE
 70
     3
  9
$SHADEDIF
 70
    70
  9
$TILEMODE
 70
     1
  9
$MAXACTVP
 70
    48
  9
$PLIMCHECK
 70
     0
  9
$PEXTMIN
 10
1.0000000000000000E+020
 20
1.0000000000000000E+020
 30
1.0000000000000000E+020
  9
$PEXTMAX
 10
-1.0000000000000000E+020
 20
-1.0000000000000000E+020
 30
-1.0000000000000000E+020
  9
$PLIMMIN
 10
0.0
 20
0.0
  9
$PLIMMAX
 10
420.0
 20
297.0
  9
$UNITMODE
 70
     0
  9
$VISRETAIN
 70
     1
  9
$PLINEGEN
 70
     0
  9
$PSLTSCALE
 70
     1
  0
ENDSEC
  0
SECTION
  2
TABLES
  0
TABLE
  2
VPORT
 70
     1
  0
VPORT
  2
*ACTIVE
 70
     0
 10
0.0
 20
0.0
 11
1.0
 21
1.0
 12
867.20039182358755
 22
401.88565395796962
 13
0.0
 23
0.0
 14
7.5
 24
7.5
 15
30.0
 25
30.0
 16
0.0
 26
0.0
 36
1.0
 17
0.0
 27
0.0
 37
0.0
 40
454.36112858229302
 41
1.7571592210767459
 42
50.0
 43
0.0
 44
0.0
 50
0.0
 51
0.0
 71
    16
 72
   100
 73
     1
 74
     1
 75
     0
 76
     0
 77
     0
 78
     0
  0
ENDTAB
  0
TABLE
  2
LTYPE
 70
    21
  0
LTYPE
  2
CONTINUOUS
 70
     0
  3
Solid line
 72
    65
 73
     0
 40
0.0
  0
LTYPE
  2
PHANTOM2
 70
     0
  3
Phantom (.5x) ___ _ _ ___ _ _ ___ _ _ ___ _ _
 72
    65
 73
     6
 40
31.75
 49
15.875
 49
-3.174999999999998
 49
3.174999999999998
 49
-3.174999999999998
 49
3.174999999999998
 49
-3.174999999999998
  0
LTYPE
  2
CENTER
 70
     0
  3
Center ____ _ ____ _ ____ _ ____ _ ____ _ ____
 72
    65
 73
     4
 40
50.799999999999997
 49
31.75
 49
-6.3499999999999979
 49
6.3499999999999979
 49
-6.3499999999999979
  0
LTYPE
  2
ACANSTGBM
 70
     0
  3
__ . . __ . .
 72
    65
 73
     6
 40
9.0
 49
4.0
 49
-1.0
 49
1.0
 49
-1.0
 49
1.0
 49
-1.0
  0
LTYPE
  2
ACANSTGLM
 70
     0
  3
_ _ _ _ _
 72
    65
 73
     2
 40
3.0
 49
2.0
 49
-1.0
  0
LTYPE
  2
GEN3B
 70
     0
  3
 - - - - -
 72
    65
 73
     2
 40
1.0
 49
0.5
 49
-0.5
  0
LTYPE
  2
GEN7A
 70
     0
  3
__ . __ . __
 72
    65
 73
     4
 40
7.375
 49
4.75
 49
-0.875
 49
0.875
 49
-0.875
  0
LTYPE
  2
AM_ISO02W050
 70
     0
  3
__ __ __ __ __ __ __ __ __ __ __ __ __ __ __
 72
    65
 73
     2
 40
7.5
 49
6.0
 49
-1.5
  0
LTYPE
  2
AM_ISO08W050
 70
     0
  3
____ . ____ . ____ . ____ . ____ . ____ . ____
 72
    65
 73
     4
 40
18.0
 49
12.0
 49
-1.5
 49
3.0
 49
-1.5
  0
LTYPE
  2
AM_ISO09W050
 70
     0
  3
_____ . . _____ . . _____ . . ____ .. ____
 72
    65
 73
     6
 40
22.5
 49
12.0
 49
-1.5
 49
3.0
 49
-1.5
 49
3.0
 49
-1.5
  0
LTYPE
  2
AMCONSTR
 70
     0
  3
_______________________
 72
    65
 73
     2
 40
9999.0
 49
9999.0
 49
0.0
  0
LTYPE
  2
AM_ISO02W050X2
 70
     0
  3
 _ _ _ _ _ _ _ _ _ _ _ _
 72
    65
 73
     2
 40
3.75
 49
3.0
 49
-0.75
  0
LTYPE
  2
AM_ISO08W050X2
 70
     0
  3
__ . __ . __ . __ . __ . __
 72
    65
 73
     4
 40
9.0
 49
6.0
 49
-0.75
 49
1.5
 49
-0.75
  0
LTYPE
  2
AMZIGZAG
 70
     0
  3
/\/-/\/-/\/-/\/-/\/-/\/
 72
    65
 73
     2
 40
11.0001
 49
0.0001
 49
-11.0
  0
LTYPE
  2
ACJISTGB
 70
     0
  3
__ . . __ . .
 72
    65
 73
     6
 40
9.0
 49
4.0
 49
-1.0
 49
1.0
 49
-1.0
 49
1.0
 49
-1.0
  0
LTYPE
  2
ACJISTGL
 70
     0
  3
_ _ _ _ _
 72
    65
 73
     2
 40
3.0
 49
2.0
 49
-1.0
  0
LTYPE
  2
ACISOWELD
 70
     0
  3
_ _ _ _ _
 72
    65
 73
     2
 40
2.0
 49
2.0
 49
-1.0
  0
LTYPE
  2
ACISOTGB
 70
     0
  3
__ . . __ . .
 72
    65
 73
     6
 40
9.0
 49
4.0
 49
-1.0
 49
1.0
 49
-1.0
 49
1.0
 49
-1.0
  0
LTYPE
  2
ACISOTGL
 70
     0
  3
_ _ _ _ _
 72
    65
 73
     2
 40
3.0
 49
2.0
 49
-1.0
  0
LTYPE
  2
HIDDEN
 70
     0
  3
Hidden __ __ __ __ __ __ __ __ __ __ __ __ __ _
 72
    65
 73
     2
 40
9.5249999999999968
 49
6.3499999999999979
 49
-3.174999999999998
  0
ENDTAB
  0
TABLE
  2
LAYER
 70
     9
  0
LAYER
  2
0
 70
     0
 62
     7
  6
CONTINUOUS
  0
LAYER
  2
ｽﾝﾎﾟｳｾﾝ
 70
     0
 62
     2
  6
CONTINUOUS
  0
LAYER
  2
DEFPOINTS
 70
     0
 62
     7
  6
CONTINUOUS
  0
LAYER
  2
ｶｸﾚｾﾝ2
 70
     0
 62
     3
  6
GEN3B
  0
LAYER
  2
ﾁｭｳｼﾝｾﾝ1
 70
     0
 62
     1
  6
GEN7A
  0
LAYER
  2
AM_0
 70
     0
 62
     7
  6
CONTINUOUS
  0
LAYER
  2
AM_0N
 70
     0
 62
     7
  6
CONTINUOUS
  0
LAYER
  2
AM_5
 70
     0
 62
     2
  6
CONTINUOUS
  0
LAYER
  2
AM_4N
 70
     0
 62
     2
  6
CONTINUOUS
  0
ENDTAB
  0
TABLE
  2
STYLE
 70
     8
  0
STYLE
  2
STANDARD
 70
     0
 40
0.0
 41
0.8299999999999999
 50
0.0
 71
     0
 42
2.5
  3
txt.shx
  4
bigfont.shx
  0
STYLE
  2
ACANSTS
 70
     0
 40
1.0
 41
1.0
 50
0.0
 71
     0
 42
2.5
  3
romans.shx
  4
bigfont.shx
  0
STYLE
  2
ACANSGDT
 70
     0
 40
0.0
 41
1.0
 50
0.0
 71
     0
 42
2.5
  3
amgdtans.shx
  4

  0
STYLE
  2

 70
     1
 40
0.0
 41
1.0
 50
0.0
 71
     0
 42
2.5
  3
ltypeshp.shx
  4

  0
STYLE
  2
ACJISTS
 70
     0
 40
1.0
 41
1.0
 50
0.0
 71
     0
 42
2.5
  3
isocp.shx
  4
bigfont.shx
  0
STYLE
  2
ACJISGDT
 70
     0
 40
0.0
 41
1.0
 50
0.0
 71
     0
 42
2.5
  3
amgdt.shx
  4

  0
STYLE
  2
ACISOTS
 70
     0
 40
3.0
 41
1.0
 50
0.0
 71
     0
 42
2.5
  3
isocp.shx
  4
extfont.shx
  0
STYLE
  2
ACISOGDT
 70
     0
 40
0.0
 41
1.0
 50
0.0
 71
     0
 42
2.5
  3
amgdt.shx
  4

  0
ENDTAB
  0
TABLE
  2
VIEW
 70
    12
  0
VIEW
  2
GEN1
 70
     0
 40
95.824742268041234
 10
71.5
 20
137.08762886597941
 41
143.0
 11
0.0
 21
0.0
 31
1.0
 12
0.0
 22
0.0
 32
0.0
 42
50.0
 43
0.0
 44
0.0
 50
0.0
 71
     0
  0
VIEW
  2
GEN2
 70
     0
 40
95.824742268041234
 10
214.5
 20
137.08762886597941
 41
143.0
 11
0.0
 21
0.0
 31
1.0
 12
0.0
 22
0.0
 32
0.0
 42
50.0
 43
0.0
 44
0.0
 50
0.0
 71
     0
  0
VIEW
  2
GEN3
 70
     0
 40
95.824742268041234
 10
71.5
 20
47.912371134020603
 41
143.0
 11
0.0
 21
0.0
 31
1.0
 12
0.0
 22
0.0
 32
0.0
 42
50.0
 43
0.0
 44
0.0
 50
0.0
 71
     0
  0
VIEW
  2
GEN4
 70
     0
 40
95.824742268041234
 10
214.5
 20
47.912371134020603
 41
143.0
 11
0.0
 21
0.0
 31
1.0
 12
0.0
 22
0.0
 32
0.0
 42
50.0
 43
0.0
 44
0.0
 50
0.0
 71
     0
  0
VIEW
  2
GEN5
 70
     0
 40
95.824742268041234
 10
143.0
 20
92.500000000000057
 41
143.0
 11
0.0
 21
0.0
 31
1.0
 12
0.0
 22
0.0
 32
0.0
 42
50.0
 43
0.0
 44
0.0
 50
0.0
 71
     0
  0
VIEW
  2
GEN6
 70
     0
 40
191.64756804123709
 10
143.0
 20
92.5
 41
285.99714
 11
0.0
 21
0.0
 31
1.0
 12
0.0
 22
0.0
 32
0.0
 42
50.0
 43
0.0
 44
0.0
 50
0.0
 71
     0
  0
VIEW
  2
AM_VIEW1
 70
     0
 40
277.50000000000011
 10
249.64779005524869
 20
416.25000000000011
 41
499.29558011049721
 11
0.0
 21
0.0
 31
1.0
 12
0.0
 22
0.0
 32
0.0
 42
50.0
 43
0.0
 44
0.0
 50
0.0
 71
    16
  0
VIEW
  2
AM_VIEW2
 70
     0
 40
277.50000000000011
 10
603.85220994475117
 20
416.25000000000011
 41
499.29558011049721
 11
0.0
 21
0.0
 31
1.0
 12
0.0
 22
0.0
 32
0.0
 42
50.0
 43
0.0
 44
0.0
 50
0.0
 71
    16
  0
VIEW
  2
AM_VIEW3
 70
     0
 40
277.50000000000011
 10
249.64779005524869
 20
138.75
 41
499.29558011049721
 11
0.0
 21
0.0
 31
1.0
 12
0.0
 22
0.0
 32
0.0
 42
50.0
 43
0.0
 44
0.0
 50
0.0
 71
    16
  0
VIEW
  2
AM_VIEW4
 70
     0
 40
277.50000000000011
 10
603.85220994475117
 20
138.75
 41
499.29558011049721
 11
0.0
 21
0.0
 31
1.0
 12
0.0
 22
0.0
 32
0.0
 42
50.0
 43
0.0
 44
0.0
 50
0.0
 71
    16
  0
VIEW
  2
AM_VIEW5
 70
     0
 40
277.50000000000011
 10
426.75
 20
277.50000000000011
 41
499.2955801104971
 11
0.0
 21
0.0
 31
1.0
 12
0.0
 22
0.0
 32
0.0
 42
50.0
 43
0.0
 44
0.0
 50
0.0
 71
    16
  0
VIEW
  2
AM_VIEW6
 70
     0
 40
554.99445000000014
 10
426.75
 20
277.5
 41
998.5811743093924
 11
0.0
 21
0.0
 31
1.0
 12
0.0
 22
0.0
 32
0.0
 42
50.0
 43
0.0
 44
0.0
 50
0.0
 71
    16
  0
ENDTAB
  0
TABLE
  2
UCS
 70
     0
  0
ENDTAB
  0
TABLE
  2
APPID
 70
    96
  0
APPID
  2
ACAD
 70
     0
  0
APPID
  2
MCAD_NO_VIS
 70
     0
  0
APPID
  2
ACAD_TEMP_GRAPHIC
 70
     0
  0
APPID
  2
AD_DRAW
 70
     0
  0
APPID
  2
DESIGNERASSEMBLIES
 70
     0
  0
APPID
  2
ASURF_PCURVE_APPNAME
 70
     0
  0
APPID
  2
GENIUS_GE3SECT_13
 70
     0
  0
APPID
  2
GENIUS_GENCFG_13
 70
     0
  0
APPID
  2
GENIUS_GE3CFG0_13
 70
     0
  0
APPID
  2
GENIUS_GENCFG0_13
 70
     0
  0
APPID
  2
GENIUS_GENCFG1_13
 70
     0
  0
APPID
  2
GENIUS_GENCFG2_13
 70
     0
  0
APPID
  2
GENIUS_GENCFG3_13
 70
     0
  0
APPID
  2
GENIUS_GENCFG4_13
 70
     0
  0
APPID
  2
GENIUS_GEVCFG0_13
 70
     0
  0
APPID
  2
GENIUS_GENOENT_13
 70
     0
  0
APPID
  2
GENIUS_GENREC_14
 70
     0
  0
APPID
  2
GENIUS_GENODEF_13
 70
     0
  0
APPID
  2
GENIUS_GENOBJ-N-REC_13
 70
     0
  0
APPID
  2
GENIUS_GENHINW_13
 70
     0
  0
APPID
  2
GENIUS_FIRSTVISTXT_14
 70
     0
  0
APPID
  2
GENIUS_GENOBJ-N-LEADER_13
 70
     0
  0
APPID
  2
GENIUS_GENOREF_13
 70
     0
  0
APPID
  2
GENIUS_GENOLIS_13
 70
     0
  0
APPID
  2
GEV_VCCNULL_SWITCH_OFF
 70
     0
  0
APPID
  2
GENIUS_GENDTOL_13
 70
     0
  0
APPID
  2
GENIUS_GEFCFG0_13
 70
     0
  0
APPID
  2
GENIUS_GENOBJ-N-TIT_13
 70
     0
  0
APPID
  2
GENIUS_GENTITLE_13
 70
     0
  0
APPID
  2
GENIUS_GENZVEED_13
 70
     0
  0
APPID
  2
GENIUS_GENOBJ-N-SDF_13
 70
     0
  0
APPID
  2
GENIUS_GENSCREG_13
 70
     0
  0
APPID
  2
GENIUS_DUMCFG0_13
 70
     0
  0
APPID
  2
GEVID936201362
 70
     0
  0
APPID
  2
GEVDC
 70
     0
  0
APPID
  2
GEVCON
 70
     0
  0
APPID
  2
VCC
 70
     0
  0
APPID
  2
GEVPT
 70
     0
  0
APPID
  2
GEVIT
 70
     0
  0
APPID
  2
GENBH
 70
     0
  0
APPID
  2
GEVMK
 70
     0
  0
APPID
  2
GENIUS_GENBH_13
 70
     0
  0
APPID
  2
GENIUS_GENOBJ-NBEHI-BHF_13
 70
     0
  0
APPID
  2
GENIUS_GENOBJ-NBEHI-BHB_13
 70
     0
  0
APPID
  2
GENIUS_GENOBJ-F-DESC_13
 70
     0
  0
APPID
  2
GENIUS_GEFDESC_14
 70
     0
  0
APPID
  2
GENIUS_GENOBJ-F-PART_13
 70
     0
  0
APPID
  2
GENIUS_GEFSTDP_13
 70
     0
  0
APPID
  2
GENIUS_GEFPARTINS_13
 70
     0
  0
APPID
  2
GENIUS_GENTRA_14
 70
     0
  0
APPID
  2
GENIUS_GENINF13_13
 70
     0
  0
APPID
  2
GENIUS_GENOBJ-N-INFOPT_13
 70
     0
  0
APPID
  2
GENIUS_GENOBJ-N-RSSYM_13
 70
     0
  0
APPID
  2
GENIUS_GENSYMENT_13
 70
     0
  0
APPID
  2
GENIUS_GENSCSYM_13
 70
     0
  0
APPID
  2
GENIUS_GEFINFNAM_13
 70
     0
  0
APPID
  2
GENIUS_GENSCREG_15
 70
     0
  0
APPID
  2
GENIUS_GENOBJ-N-CEN_13
 70
     0
  0
APPID
  2
GENIUS_GENOBJ-N-CRS_13
 70
     0
  0
APPID
  2
GENIUS_GENOBJ-N-CRC_13
 70
     0
  0
APPID
  2
GENIUS_GENCRC_14
 70
     0
  0
APPID
  2
GEVID942827039
 70
     0
  0
APPID
  2
GEVID942827040
 70
     0
  0
APPID
  2
GEVID942827041
 70
     0
  0
APPID
  2
GENIUS_GENOBJ-F-SCPASSM_13
 70
     0
  0
APPID
  2
GENIUS_GENDIMSH_14
 70
     0
  0
APPID
  2
GENIUS_GENFIL_13
 70
     0
  0
APPID
  2
GENIUS_GENOBJ-N-CHA_13
 70
     0
  0
APPID
  2
GENIUS_GENOBJ-N-FIL_13
 70
     0
  0
APPID
  2
GEVID942827042
 70
     0
  0
APPID
  2
GEVID946020473
 70
     0
  0
APPID
  2
GEVID946020474
 70
     0
  0
APPID
  2
GEVID946020475
 70
     0
  0
APPID
  2
GENIUS_GENOBJ-N-HTC_13
 70
     0
  0
APPID
  2
GENIUS_GENHATCH_13
 70
     0
  0
APPID
  2
GEVID948854295
 70
     0
  0
APPID
  2
GEVID939402019
 70
     0
  0
APPID
  2
GEVID952919491
 70
     0
  0
APPID
  2
GEVID952919492
 70
     0
  0
APPID
  2
GENIUS_GEFWELD_13
 70
     0
  0
APPID
  2
GENIUS_GENOBJ-F-WELS_13
 70
     0
  0
APPID
  2
GEVID952919493
 70
     0
  0
APPID
  2
GENIUS_GENOBJ-N-RSBK_13
 70
     0
  0
APPID
  2
GENIUS_GENOBJ-N-LIB_13
 70
     0
  0
APPID
  2
GENIUS_GENSCALE_13
 70
     0
  0
APPID
  2
GEVID986376691
 70
     0
  0
APPID
  2
ACATTRIBSERVICES
 70
     0
  0
APPID
  2
DCO15
 70
     0
  0
APPID
  2
ACADM_DIM_EDIT
 70
     0
  0
APPID
  2
AMDT_DM_ADJ
 70
     0
  0
APPID
  2
ACAD_MLEADERVER
 70
     0
  0
APPID
  2
ACAD_DSTYLE_DIMBREAK
 70
     0
  0
APPID
  2
ACAD_DSTYLE_DIMJAG
 70
     0
  0
APPID
  2
ACAD_NAV_VCDISPLAY
 70
     0
  0
APPID
  2
ACADANNOPO
 70
     0
  0
APPID
  2
ACAD_EXEMPT_FROM_CAD_STANDARDS
 70
     0
  0
ENDTAB
  0
TABLE
  2
DIMSTYLE
 70
    15
  0
DIMSTYLE
  2
STANDARD
 70
     0
  3

  4

  5

  6

  7

 40
1.0
 41
0.18
 42
0.0625
 43
0.38
 44
0.18
 45
0.0
 46
0.0
 47
0.0
 48
0.0
140
0.18
141
0.09
142
0.0
143
25.399999999999999
144
1.0
145
0.0
146
1.0
147
0.09
 71
     0
 72
     0
 73
     1
 74
     1
 75
     0
 76
     0
 77
     0
 78
     0
170
     0
171
     2
172
     0
173
     0
174
     0
175
     0
176
     0
177
     0
178
     0
  0
DIMSTYLE
  2
AM_JIS
 70
     0
  3

  4
"
  5

  6

  7

 40
1.0
 41
2.5
 42
1.0
 43
7.0
 44
1.0
 45
0.0
 46
0.0
 47
0.1
 48
0.1000000001
140
2.5
141
0.0
142
0.0
143
0.0393701
144
1.0
145
0.0
146
0.71
147
1.0
 71
     0
 72
     0
 73
     0
 74
     0
 75
     0
 76
     0
 77
     3
 78
     8
170
     0
171
     2
172
     1
173
     0
174
     0
175
     0
176
   256
177
   256
178
     4
  0
DIMSTYLE
  2
AM_JIS$3
 70
     0
  3

  4
"
  5

  6

  7

 40
1.0
 41
2.5
 42
1.0
 43
7.0
 44
1.0
 45
0.0
 46
0.0
 47
0.1
 48
0.1000000001
140
2.5
141
0.0
142
0.0
143
0.0393701
144
1.0
145
0.0
146
0.71
147
1.0
 71
     0
 72
     0
 73
     0
 74
     1
 75
     0
 76
     0
 77
     3
 78
     8
170
     0
171
     2
172
     0
173
     0
174
     0
175
     0
176
   256
177
   256
178
     4
  0
DIMSTYLE
  2
AM_JIS$4
 70
     0
  3

  4
"
  5

  6

  7

 40
1.0
 41
2.5
 42
1.0
 43
7.0
 44
1.0
 45
0.0
 46
0.0
 47
0.1
 48
0.1000000001
140
2.5
141
0.0
142
0.0
143
0.0393701
144
1.0
145
0.0
146
0.71
147
1.0
 71
     0
 72
     0
 73
     0
 74
     0
 75
     0
 76
     0
 77
     3
 78
     8
170
     0
171
     2
172
     0
173
     0
174
     0
175
     0
176
   256
177
   256
178
     4
  0
DIMSTYLE
  2
AM_JIS$6
 70
     0
  3

  4
"
  5

  6

  7

 40
1.0
 41
2.5
 42
1.0
 43
7.0
 44
1.0
 45
0.0
 46
0.0
 47
0.1
 48
0.1000000001
140
2.5
141
0.0
142
0.0
143
0.0393701
144
1.0
145
0.0
146
0.71
147
1.0
 71
     0
 72
     0
 73
     0
 74
     0
 75
     0
 76
     0
 77
     0
 78
     8
170
     0
171
     2
172
     1
173
     0
174
     0
175
     0
176
   256
177
   256
178
     4
  0
DIMSTYLE
  2
AM_JIS$7
 70
     0
  3

  4
"
  5

  6

  7

 40
1.0
 41
2.5
 42
1.0
 43
7.0
 44
1.0
 45
0.0
 46
0.0
 47
0.1
 48
0.1000000001
140
2.5
141
0.0
142
0.0
143
0.0393701
144
1.0
145
0.0
146
0.71
147
1.0
 71
     0
 72
     0
 73
     0
 74
     0
 75
     0
 76
     0
 77
     3
 78
     8
170
     0
171
     2
172
     1
173
     0
174
     0
175
     0
176
   256
177
   256
178
     4
  0
DIMSTYLE
  2
AM_JIS$SF
 70
     0
  3

  4
"
  5
OPEN30
  6
OPEN30
  7
OPEN30
 40
1.0
 41
2.5
 42
1.0
 43
10.0
 44
1.0
 45
0.0
 46
0.0
 47
0.1
 48
0.1
140
3.5
141
0.0
142
0.0
143
0.0393701
144
1.0
145
0.0
146
0.71
147
1.5
 71
     0
 72
     0
 73
     0
 74
     0
 75
     1
 76
     1
 77
     3
 78
     8
170
     0
171
     2
172
     1
173
     0
174
     0
175
     0
176
   256
177
   256
178
     4
  0
DIMSTYLE
  2
AM_JIS$SH
 70
     0
  3

  4
"
  5

  6
NONE
  7

 40
1.0
 41
2.5
 42
1.0
 43
10.0
 44
1.0
 45
0.0
 46
0.0
 47
0.1
 48
0.1
140
3.5
141
0.0
142
0.0
143
0.0393701
144
1.0
145
0.0
146
0.71
147
1.5
 71
     0
 72
     0
 73
     0
 74
     0
 75
     1
 76
     0
 77
     3
 78
     8
170
     0
171
     2
172
     1
173
     1
174
     0
175
     0
176
   256
177
   256
178
     4
  0
DIMSTYLE
  2
AM_ISO
 70
     0
  3

  4
"
  5

  6

  7

 40
1.0
 41
2.5
 42
1.0
 43
10.0
 44
1.0
 45
0.0
 46
0.0
 47
0.0
 48
0.000000001
140
3.0
141
0.0
142
0.0
143
0.0393701
144
1.0
145
0.0
146
0.71
147
1.299999999999998
 71
     1
 72
     0
 73
     0
 74
     0
 75
     0
 76
     0
 77
     1
 78
     8
170
     0
171
     2
172
     1
173
     0
174
     0
175
     0
176
   256
177
   256
178
     4
  0
DIMSTYLE
  2
AM_ISO$3
 70
     0
  3

  4
"
  5

  6

  7

 40
1.0
 41
2.5
 42
1.0
 43
10.0
 44
1.0
 45
0.0
 46
0.0
 47
0.0
 48
0.000000001
140
2.5
141
0.0
142
0.0
143
0.0393701
144
1.0
145
0.0
146
0.71
147
1.299999999999998
 71
     1
 72
     0
 73
     0
 74
     1
 75
     0
 76
     0
 77
     1
 78
     8
170
     0
171
     2
172
     0
173
     0
174
     0
175
     0
176
   256
177
   256
178
     4
  0
DIMSTYLE
  2
AM_ISO$4
 70
     0
  3

  4
"
  5

  6

  7

 40
1.0
 41
2.5
 42
1.0
 43
10.0
 44
1.0
 45
0.0
 46
0.0
 47
0.0
 48
0.000000001
140
2.5
141
0.0
142
0.0
143
0.0393701
144
1.0
145
0.0
146
0.71
147
1.299999999999998
 71
     1
 72
     0
 73
     0
 74
     1
 75
     0
 76
     0
 77
     1
 78
     8
170
     0
171
     2
172
     0
173
     0
174
     0
175
     0
176
   256
177
   256
178
     4
  0
DIMSTYLE
  2
AM_ISO$6
 70
     0
  3

  4
"
  5

  6

  7

 40
1.0
 41
2.5
 42
1.0
 43
10.0
 44
1.0
 45
0.0
 46
0.0
 47
0.0
 48
0.000000001
140
2.5
141
0.0
142
0.0
143
0.0393701
144
1.0
145
0.0
146
0.71
147
1.299999999999998
 71
     1
 72
     0
 73
     0
 74
     0
 75
     0
 76
     0
 77
     0
 78
     8
170
     0
171
     2
172
     1
173
     0
174
     0
175
     0
176
   256
177
   256
178
     4
  0
DIMSTYLE
  2
AM_ISO$7
 70
     0
  3

  4
"
  5

  6

  7

 40
1.0
 41
2.5
 42
1.0
 43
10.0
 44
1.0
 45
0.0
 46
0.0
 47
0.0
 48
0.000000001
140
2.5
141
0.0
142
0.0
143
0.0393701
144
1.0
145
0.0
146
0.71
147
1.299999999999998
 71
     1
 72
     0
 73
     0
 74
     0
 75
     0
 76
     0
 77
     1
 78
     8
170
     0
171
     2
172
     1
173
     0
174
     0
175
     0
176
   256
177
   256
178
     4
  0
DIMSTYLE
  2
AM_ISO$SF
 70
     0
  3

  4
"
  5

  6

  7

 40
1.0
 41
2.5
 42
1.0
 43
10.0
 44
1.0
 45
0.0
 46
0.0
 47
0.1
 48
0.1
140
3.5
141
0.0
142
0.0
143
0.0393701
144
1.0
145
0.0
146
0.71
147
1.5
 71
     0
 72
     0
 73
     0
 74
     0
 75
     1
 76
     1
 77
     1
 78
     8
170
     0
171
     2
172
     1
173
     0
174
     0
175
     0
176
   256
177
   256
178
     4
  0
DIMSTYLE
  2
AM_ISO$SH
 70
     0
  3

  4
"
  5

  6
GENAXEH
  7

 40
1.0
 41
2.5
 42
1.0
 43
10.0
 44
1.0
 45
0.0
 46
0.0
 47
0.1
 48
0.1
140
3.5
141
0.0
142
0.0
143
0.0393701
144
2.0
145
0.0
146
0.71
147
1.5
 71
     0
 72
     0
 73
     0
 74
     0
 75
     1
 76
     1
 77
     1
 78
     8
170
     0
171
     2
172
     1
173
     1
174
     0
175
     0
176
   256
177
   256
178
     4
  0
ENDTAB
  0
ENDSEC
  0
SECTION
  2
BLOCKS
  0
BLOCK
  8
0
  2
$MODEL_SPACE
 70
     0
 10
0.0
 20
0.0
 30
0.0
  3
$MODEL_SPACE
  1

  0
ENDBLK
  5
1A
  8
0
  0
BLOCK
 67
     1
  8
0
  2
$PAPER_SPACE
 70
     0
 10
0.0
 20
0.0
 30
0.0
  3
$PAPER_SPACE
  1

  0
ENDBLK
  5
17
 67
     1
  8
0
  0
BLOCK
  8
0
  2
_OPEN30
 70
     0
 10
0.0
 20
0.0
 30
0.0
  3
_OPEN30
  1

  0
LINE
  5
21C5
  8
0
 62
     0
 10
-1.0
 20
0.26794919
 30
0.0
 11
0.0
 21
0.0
 31
0.0
  0
LINE
  5
21C6
  8
0
 62
     0
 10
0.0
 20
0.0
 30
0.0
 11
-1.0
 21
-0.26794919
 31
0.0
  0
LINE
  5
21C7
  8
0
 62
     0
 10
0.0
 20
0.0
 30
0.0
 11
-1.0
 21
0.0
 31
0.0
  0
ENDBLK
  5
21C9
  8
0
  0
BLOCK
  8
0
  2
GENAXEH
 70
     0
 10
0.0
 20
0.0
 30
0.0
  3
GENAXEH
  1

  0
LINE
  5
21D0
  8
0
 10
-1.0
 20
0.0
 30
0.0
 11
1.0
 21
0.0
 31
0.0
  0
ENDBLK
  5
21D2
  8
0
  0
BLOCK
  8
0
  2
_NONE
 70
     0
 10
0.0
 20
0.0
 30
0.0
  3
_NONE
  1

  0
ENDBLK
  5
8193
  8
0
  0
BLOCK
  8
0
  2
*U5
 70
     1
 10
0.0
 20
0.0
 30
0.0
  3
*U5
  1

  0
SOLID
  5
1EC82
  8
AM_0
  6
CONTINUOUS
 10
-960.45511602187946
 20
473.99810894148669
 30
0.0
 11
-964.45511602187958
 21
473.99810894148669
 31
0.0
 12
-964.45511602187958
 22
469.99810894148681
 32
0.0
 13
-964.45511602187958
 23
469.99810894148681
 33
0.0
210
0.0
220
0.0
230
-1.0
  0
LINE
  5
1EC83
  8
AM_0
  6
CONTINUOUS
 10
964.45511602187958
 20
473.99810894148669
 30
0.0
 11
964.45511602187958
 21
469.99810894148681
 31
0.0
  0
LINE
  5
1EC84
  8
AM_0
  6
CONTINUOUS
 10
964.45511602187958
 20
469.99810894148681
 30
0.0
 11
960.45511602187946
 21
473.99810894148669
 31
0.0
  0
ENDBLK
  5
1EC86
  8
0
  0
BLOCK
  8
0
  2
*U6
 70
     1
 10
0.0
 20
0.0
 30
0.0
  3
*U6
  1

  0
SOLID
  5
1EC88
  8
AM_0
  6
CONTINUOUS
 10
-968.95511602187958
 20
473.99810894148669
 30
0.0
 11
-972.95511602187946
 21
473.99810894148669
 31
0.0
 12
-968.95511602187958
 22
469.99810894148681
 32
0.0
 13
-968.95511602187958
 23
469.99810894148681
 33
0.0
210
0.0
220
0.0
230
-1.0
  0
LINE
  5
1EC89
  8
AM_0
  6
CONTINUOUS
 10
972.95511602187946
 20
473.99810894148669
 30
0.0
 11
968.95511602187958
 21
469.99810894148681
 31
0.0
  0
LINE
  5
1EC8A
  8
AM_0
  6
CONTINUOUS
 10
968.95511602187958
 20
469.99810894148681
 30
0.0
 11
968.95511602187958
 21
473.99810894148669
 31
0.0
  0
ENDBLK
  5
1EC8C
  8
0
  0
BLOCK
  8
0
  2
*U7
 70
     1
 10
0.0
 20
0.0
 30
0.0
  3
*U7
  1

  0
SOLID
  5
1EC8E
  8
AM_0
  6
CONTINUOUS
 10
-964.45511602187958
 20
584.99812787340966
 30
0.0
 11
-964.45511602187958
 21
580.99812787340966
 31
0.0
 12
-960.45511602187946
 22
580.99812787340966
 32
0.0
 13
-960.45511602187946
 23
580.99812787340966
 33
0.0
210
0.0
220
0.0
230
-1.0
  0
LINE
  5
1EC8F
  8
AM_0
  6
CONTINUOUS
 10
964.45511602187958
 20
584.99812787340966
 30
0.0
 11
964.45511602187958
 21
580.99812787340966
 31
0.0
  0
LINE
  5
1EC90
  8
AM_0
  6
CONTINUOUS
 10
960.45511602187946
 20
580.99812787340966
 30
0.0
 11
964.45511602187958
 21
584.99812787340966
 31
0.0
  0
ENDBLK
  5
1EC92
  8
0
  0
BLOCK
  8
0
  2
*U8
 70
     1
 10
0.0
 20
0.0
 30
0.0
  3
*U8
  1

  0
SOLID
  5
1EC94
  8
AM_0
  6
CONTINUOUS
 10
-968.95511602187958
 20
584.99812787340966
 30
0.0
 11
-972.95511602187946
 21
580.99812787340966
 31
0.0
 12
-968.95511602187958
 22
580.99812787340966
 32
0.0
 13
-968.95511602187958
 23
580.99812787340966
 33
0.0
210
0.0
220
0.0
230
-1.0
  0
LINE
  5
1EC95
  8
AM_0
  6
CONTINUOUS
 10
968.95511602187958
 20
584.99812787340966
 30
0.0
 11
972.95511602187946
 21
580.99812787340966
 31
0.0
  0
LINE
  5
1EC96
  8
AM_0
  6
CONTINUOUS
 10
968.95511602187958
 20
580.99812787340966
 30
0.0
 11
968.95511602187958
 21
584.99812787340966
 31
0.0
  0
ENDBLK
  5
1EC98
  8
0
  0
ENDSEC
  0
SECTION
  2
ENTITIES
  0
POINT
  5
1B94
  8
0
 10
0.0
 20
0.0
 30
0.0
1001
GENIUS_GENODEF_13
1002
{
1000
HIER
1070
     1
1002
}
1002
{
1000
MANEDIT
1070
     0
1002
}
1002
{
1000
NOSEL
1070
     0
1002
}
1002
{
1000
BEHIND
1070
     0
1002
}
1002
{
1000
REACTOR
1002
}
1001
GENIUS_GENOBJ-N-SDF_13
1002
{
1000
OWNER
1000
GEN
1002
}
1001
GENIUS_GENOENT_13
1002
{
1000
MYREF
1005
1B94
1002
}
1002
{
1000
GRP
1005
0
1002
}
1001
GENIUS_GENOLIS_13
1002
{
1000
ENT
1005
89
1002
}
  0
ARC
  5
1C8BF
  8
AM_0
 10
638.54492277978125
 20
270.78531651499912
 30
0.0
 40
63.989566999999987
 50
145.916448582323
 51
180.0238263955865
  0
LINE
  5
1C8C6
  8
AM_0
 10
585.54740362386349
 20
308.25408972163922
 30
0.0
 11
585.54740362386349
 21
233.25483748648699
 31
0.0
  0
LINE
  5
1C8C7
  8
AM_0
 10
691.54741430630463
 20
308.25408972163922
 30
0.0
 11
691.54741430630463
 21
233.25483748648699
 31
0.0
  0
LINE
  5
1C8C8
  8
AM_0
 10
687.54742182048994
 20
195.75446360406329
 30
0.0
 11
687.54742182048983
 21
333.39235837273429
 31
0.0
  0
LINE
  5
1C8C9
  8
AM_0
 10
589.54741136846724
 20
334.40473841572327
 30
0.0
 11
589.54741136846712
 21
195.75446360406329
 31
0.0
  0
LINE
  5
1C8CA
  8
AM_0
 10
609.54741194451401
 20
206.7551016967337
 30
0.0
 11
609.54741194451401
 21
334.75382551139268
 31
0.0
  0
LINE
  5
1C8CB
  8
ﾁｭｳｼﾝｾﾝ1
 10
638.54741277978121
 20
340.02146200893861
 30
0.0
 11
638.54741277978121
 21
189.24446875723791
 31
0.0
  0
LINE
  5
1C8CD
  8
0
 10
706.5544188157661
 20
288.25446360406301
 30
0.0
 11
706.5544188157661
 21
253.25446360406301
 31
0.0
  0
LINE
  5
1C8CE
  8
AM_0
 10
748.55441881576598
 20
256.75446360406278
 30
0.0
 11
748.55441881576598
 21
287.75446360406289
 31
0.0
  0
LINE
  5
1C8CF
  8
AM_0
 10
695.54741442551392
 20
293.25446427461532
 30
0.0
 11
695.54741442551392
 21
248.25446293351081
 31
0.0
  0
LINE
  5
1C8D3
  8
ﾁｭｳｼﾝｾﾝ1
 10
755.00729940174153
 20
270.75446360406329
 30
0.0
 11
535.14824365490188
 21
270.74780328139349
 31
0.0
  0
LINE
  5
1C8D6
  8
AM_0
 10
609.54741194451401
 20
206.7551016967339
 30
0.0
 11
687.54742182048983
 21
208.11656883539229
 31
0.0
  0
LINE
  5
1CBAB
  8
AM_0
 10
553.54741277978098
 20
200.2544636040632
 30
0.0
 11
553.5474127797811
 21
190.2544636040632
 31
0.0
  0
LINE
  5
1CBAC
  8
ﾁｭｳｼﾝｾﾝ1
 10
561.04741277978121
 20
198.75446360406329
 30
0.0
 11
561.04741277978121
 21
177.25446360406329
 31
0.0
  0
ARC
  5
1CBAD
  8
AM_0
 10
579.54741136846724
 20
195.75446360406329
 30
0.0
 40
10.0
 50
270.0
 51
0.0
1001
GENIUS_GENODEF_13
1002
{
1000
HIER
1070
     0
1002
}
1002
{
1000
MANEDIT
1070
     0
1002
}
1002
{
1000
NOSEL
1070
     0
1002
}
1002
{
1000
BEHIND
1070
     0
1002
}
1002
{
1000
OTHER
1070
     0
1002
}
1002
{
1000
REACTOR
1002
}
1001
GENIUS_GENOBJ-N-FIL_13
1002
{
1000
OWNER
1000
GEN
1002
}
  0
LINE
  5
1CBAE
  8
AM_0
 10
578.90275183910853
 20
190.25446360406329
 30
0.0
 11
585.04740373907225
 21
196.39911550402729
 31
0.0
  0
ARC
  5
1CBAF
  8
AM_0
 10
580.04740373907225
 20
195.25446360406329
 30
0.0
 40
5.0
 50
270.0
 51
0.0
1001
GENIUS_GENOBJ-N-FIL_13
1002
{
1000
OWNER
1000
GEN
1002
}
1001
GENIUS_GENODEF_13
1002
{
1000
HIER
1070
     0
1002
}
1002
{
1000
MANEDIT
1070
     0
1002
}
1002
{
1000
NOSEL
1070
     0
1002
}
1002
{
1000
BEHIND
1070
     0
1002
}
1002
{
1000
OTHER
1070
     0
1002
}
1002
{
1000
REACTOR
1002
}
  0
LINE
  5
1CBB1
  8
AM_0
 10
546.0474127797811
 20
190.2544636040632
 30
0.0
 11
580.04740373907225
 21
190.25446360406329
 31
0.0
  0
LINE
  5
1CBB2
  8
AM_0
 10
546.0474127797811
 20
185.75446360406329
 30
0.0
 11
579.54741136846724
 21
185.75446360406329
 31
0.0
  0
LINE
  5
1CBB3
  8
AM_0
 10
546.0474127797811
 20
190.25446360406329
 30
0.0
 11
546.0474127797811
 21
185.75446360406329
 31
0.0
  0
LINE
  5
1CBB4
  8
ｶｸﾚｾﾝ2
 10
555.04741277978098
 20
190.25446360406329
 30
0.0
 11
555.04741277978133
 21
185.7544636040632
 31
0.0
  0
LINE
  5
1CBB5
  8
ｶｸﾚｾﾝ2
 10
567.0474127797811
 20
190.2544636040632
 30
0.0
 11
567.04741277978133
 21
185.7544636040632
 31
0.0
  0
ARC
  5
1CBB8
  8
AM_0
 10
638.54492277978125
 20
270.78531651499912
 30
0.0
 40
63.989566999999987
 50
180.0238263955865
 51
214.083551417677
  0
LINE
  5
1CBB9
  8
AM_0
 10
590.54741136746736
 20
229.7548836040632
 30
0.0
 11
590.54741136746736
 21
237.75478360406331
 31
0.0
  0
LINE
  5
1CBBA
  8
AM_0
 10
596.54741136146731
 20
239.7547736040633
 30
0.0
 11
596.54741136146731
 21
227.7548936040632
 31
0.0
  0
LINE
  5
1CBBB
  8
AM_0
 10
583.04740373907237
 20
223.66373205435769
 30
0.0
 11
575.80806271872973
 21
223.66373205435769
 31
0.0
1001
GENIUS_GENOREF_13
1005
0
  0
LINE
  5
1CBBC
  8
AM_0
 10
583.04740373907237
 20
228.57248205435769
 30
0.0
 11
575.80806271872973
 21
228.57248205435769
 31
0.0
1001
GENIUS_GENOREF_13
1005
0
  0
LINE
  5
1CBBD
  8
AM_0
 10
583.04740373907237
 20
213.8462320543577
 30
0.0
 11
575.80806271872973
 21
213.8462320543577
 31
0.0
1001
GENIUS_GENOREF_13
1005
0
  0
LINE
  5
1CBBE
  8
AM_0
 10
583.04740373907237
 20
208.9374820543577
 30
0.0
 11
575.80806271872973
 21
208.9374820543577
 31
0.0
1001
GENIUS_GENOREF_13
1005
0
  0
LINE
  5
1CBBF
  8
AM_0
 10
575.04740373907225
 20
210.2549820543577
 30
0.0
 11
575.04740373907225
 21
227.2549820543577
 31
0.0
1001
GENIUS_GENOREF_13
1005
0
  0
ARC
  5
1CBC0
  8
AM_0
 10
579.38742923047766
 20
211.3918570543577
 30
0.0
 40
4.3400254914053003
 50
145.5615305952663
 51
214.43846940473361
1001
GENIUS_GENOREF_13
1005
0
  0
LINE
  5
1CBC1
  8
AM_0
 10
553.54741277978098
 20
200.2544636040632
 30
0.0
 11
574.04742182049006
 21
220.75447264477239
 31
0.0
  0
LINE
  5
1CBC2
  8
AM_0
 10
575.80806271872973
 20
208.9374820543577
 30
0.0
 11
575.04740373907225
 21
210.2549820543577
 31
0.0
1001
GENIUS_GENOREF_13
1005
0
  0
ARC
  5
1CBC3
  8
AM_0
 10
591.26651723520763
 20
218.7549820543577
 30
0.0
 40
16.219113496135169
 50
162.38303115960881
 51
197.61696884039111
1001
GENIUS_GENOREF_13
1005
0
  0
LINE
  5
1CBC4
  8
AM_0N
 10
574.96759682049003
 20
223.7549820543577
 30
0.0
 11
574.96759682049003
 21
213.7549820543577
 31
0.0
1001
GENIUS_GENOREF_13
1005
0
  0
LINE
  5
1CBC5
  8
AM_0N
 10
574.96759682049003
 20
223.7549820543577
 30
0.0
 11
574.04742182049006
 21
222.8348070543577
 31
0.0
1001
GENIUS_GENOREF_13
1005
0
  0
LINE
  5
1CBC6
  8
AM_0N
 10
574.04742182049006
 20
222.8348070543577
 30
0.0
 11
574.04742182049006
 21
214.6751570543577
 31
0.0
1001
GENIUS_GENOREF_13
1005
0
  0
LINE
  5
1CBC7
  8
AM_0N
 10
575.04740373907225
 20
213.7549820543577
 30
0.0
 11
574.96759682049003
 21
213.7549820543577
 31
0.0
1001
GENIUS_GENOREF_13
1005
0
  0
LINE
  5
1CBC8
  8
AM_0N
 10
574.96759682049003
 20
213.7549820543577
 30
0.0
 11
574.04742182049006
 21
214.6751570543577
 31
0.0
1001
GENIUS_GENOREF_13
1005
0
  0
LINE
  5
1CBC9
  8
AM_4N
 10
574.04742182049006
 20
214.6751570543577
 30
0.0
 11
575.04740373907225
 21
214.6751570543577
 31
0.0
1001
GENIUS_GENOREF_13
1005
0
  0
LINE
  5
1CBCA
  8
AM_4N
 10
574.04742182049006
 20
222.8348070543577
 30
0.0
 11
575.04740373907225
 21
222.8348070543577
 31
0.0
1001
GENIUS_GENOREF_13
1005
0
  0
LINE
  5
1CBCB
  8
AM_0
 10
575.80806271872973
 20
228.57248205435769
 30
0.0
 11
575.04740373907225
 21
227.2549820543577
 31
0.0
1001
GENIUS_GENOREF_13
1005
0
  0
ARC
  5
1CBCC
  8
AM_0
 10
579.38742923047766
 20
226.11810705435769
 30
0.0
 40
4.3400254914053003
 50
154.4384694047331
 51
214.43846940473361
1001
GENIUS_GENOREF_13
1005
0
  0
LINE
  5
1CBCD
  8
AM_0N
 10
575.04740373907225
 20
223.7549820543577
 30
0.0
 11
574.96759682049003
 21
223.7549820543577
 31
0.0
1001
GENIUS_GENOREF_13
1005
0
  0
LINE
  5
1CBCE
  8
AM_0
 10
585.04740373907225
 20
195.25446360406329
 30
0.0
 11
585.04740373907225
 21
230.75446360406329
 31
0.0
  0
LINE
  5
1CBCF
  8
AM_0
 10
583.04740373907237
 20
208.2549820543577
 30
0.0
 11
583.04740373907237
 21
229.2549820543577
 31
0.0
  0
LINE
  5
1CBD0
  8
AM_0
 10
589.54741136846724
 20
207.1041887924037
 30
0.0
 11
609.54741194451401
 21
206.7551016967339
 31
0.0
  0
LINE
  5
1CBD1
  8
AM_0
 10
585.04740373907225
 20
208.2549820543577
 30
0.0
 11
583.04740373907237
 21
208.2549820543577
 31
0.0
  0
LINE
  5
1CBD2
  8
AM_0
 10
589.54741136846724
 20
227.7548936040632
 30
0.0
 11
596.54741136146731
 21
227.7548936040632
 31
0.0
  0
LINE
  5
1CBD3
  8
AM_0
 10
596.54741136146731
 20
228.7548836040632
 30
0.0
 11
591.54741136746725
 21
228.7548836040632
 31
0.0
  0
LINE
  5
1CBD4
  8
AM_0
 10
585.04740373907225
 20
230.75446360406329
 30
0.0
 11
589.54740373907248
 21
230.7544636040632
 31
0.0
  0
LINE
  5
1CBD5
  8
AM_0
 10
585.54740362386349
 20
233.25483748648699
 30
0.0
 11
589.54740373907271
 21
233.25483748648699
 31
0.0
  0
LINE
  5
1CBD6
  8
AM_0
 10
583.04740373907237
 20
229.2549820543577
 30
0.0
 11
585.04740373907225
 21
229.2549820543577
 31
0.0
  0
ARC
  5
1CBD7
  8
AM_0
 10
591.54741136746725
 20
229.7548836040632
 30
0.0
 40
1.0
 50
180.0
 51
270.0
1001
GENIUS_GENODEF_13
1002
{
1000
HIER
1070
     0
1002
}
1002
{
1000
MANEDIT
1070
     0
1002
}
1002
{
1000
NOSEL
1070
     0
1002
}
1002
{
1000
BEHIND
1070
     0
1002
}
1002
{
1000
OTHER
1070
     0
1002
}
1002
{
1000
REACTOR
1002
}
1001
GENIUS_GENOBJ-N-FIL_13
1002
{
1000
OWNER
1000
GEN
1002
}
  0
LINE
  5
1CBE1
  8
AM_0
 10
589.54741136846724
 20
239.7547736040633
 30
0.0
 11
596.54741136146731
 21
239.7547736040633
 31
0.0
  0
LINE
  5
1CBE2
  8
AM_0
 10
591.54741136746736
 20
238.75478360406331
 30
0.0
 11
596.54741136146731
 21
238.75478360406331
 31
0.0
  0
ARC
  5
1CBE3
  8
AM_0
 10
591.54741136746736
 20
237.75478360406331
 30
0.0
 40
1.0
 50
90.0
 51
180.0
1001
GENIUS_GENODEF_13
1002
{
1000
HIER
1070
     0
1002
}
1002
{
1000
MANEDIT
1070
     0
1002
}
1002
{
1000
NOSEL
1070
     0
1002
}
1002
{
1000
BEHIND
1070
     0
1002
}
1002
{
1000
OTHER
1070
     0
1002
}
1002
{
1000
REACTOR
1002
}
1001
GENIUS_GENOBJ-N-FIL_13
1002
{
1000
OWNER
1000
GEN
1002
}
  0
ARC
  5
1CBE5
  8
AM_0
 10
638.53741277978111
 20
270.74179651499941
 30
0.0
 40
64.003665999999996
 50
263.60293419190413
 51
278.39702454108073
  0
LINE
  5
1CBE6
  8
AM_0
 10
624.56598407639672
 20
207.0172464382492
 30
0.0
 11
624.54741277978144
 21
206.47867651499931
 31
0.0
  0
LINE
  5
1CBE7
  8
AM_0
 10
622.52970142329275
 20
206.98170372586199
 30
0.0
 11
622.54741277978087
 21
206.47870651499949
 31
0.0
  0
ARC
  5
1CBE8
  8
AM_0
 10
623.5475127797813
 20
206.49866651499951
 30
0.0
 40
1.000099699999998
 50
179.99821999998991
 51
358.8559099999971
  0
ARC
  5
1CBE9
  8
AM_0
 10
633.54755277978131
 20
205.82578651499969
 30
0.0
 40
1.000225199999998
 50
179.26081999999141
 51
358.4476500000012
  0
LINE
  5
1CBEA
  8
AM_0
 10
634.57576380216574
 20
206.91857481142421
 30
0.0
 11
634.54741277978121
 21
205.79871651499931
 31
0.0
  0
LINE
  5
1CBEB
  8
AM_0
 10
632.50321081893514
 20
207.08056601254609
 30
0.0
 11
632.54741277978121
 21
205.79871651499931
 31
0.0
  0
ARC
  5
1CBEC
  8
AM_0
 10
643.54727277978122
 20
205.82563651499959
 30
0.0
 40
1.000223999999998
 50
181.54276079999551
 51
0.7487699999954799
  0
LINE
  5
1CBED
  8
AM_0
 10
642.50481601754063
 20
206.92041545292801
 30
0.0
 11
642.54741277978121
 21
205.7986865149997
 31
0.0
  0
LINE
  5
1CBEE
  8
AM_0
 10
644.591751416639
 20
207.08474393200001
 30
0.0
 11
644.54741277978121
 21
205.79871651499931
 31
0.0
  0
ARC
  5
1CBEF
  8
AM_0
 10
653.54732277978121
 20
206.49857651499951
 30
0.0
 40
1.0000987999999991
 50
181.1393037999992
 51
0.006579999999261
  0
LINE
  5
1CBF0
  8
AM_0
 10
652.5120212168498
 20
207.50503626395499
 30
0.0
 11
652.5474127797811
 21
206.47867651499931
 31
0.0
  0
LINE
  5
1CBF1
  8
AM_0
 10
654.58482576275003
 20
207.54121645519589
 30
0.0
 11
654.54741277978144
 21
206.47867651499931
 31
0.0
  0
ARC
  5
1CBF2
  8
AM_0
 10
697.54742182048983
 20
195.75446360406329
 30
0.0
 40
10.0
 50
180.0
 51
270.0
1001
GENIUS_GENOBJ-N-FIL_13
1002
{
1000
OWNER
1000
GEN
1002
}
1001
GENIUS_GENODEF_13
1002
{
1000
HIER
1070
     0
1002
}
1002
{
1000
MANEDIT
1070
     0
1002
}
1002
{
1000
NOSEL
1070
     0
1002
}
1002
{
1000
BEHIND
1070
     0
1002
}
1002
{
1000
OTHER
1070
     0
1002
}
1002
{
1000
REACTOR
1002
}
  0
LINE
  5
1CBF5
  8
AM_0
 10
723.54741277978133
 20
200.2544636040632
 30
0.0
 11
723.54741277978121
 21
190.2544636040632
 31
0.0
  0
LINE
  5
1CBF6
  8
ﾁｭｳｼﾝｾﾝ1
 10
716.04741277978121
 20
198.75446360406329
 30
0.0
 11
716.04741277978121
 21
177.25446360406329
 31
0.0
  0
LINE
  5
1CBF7
  8
AM_0
 10
698.19207372045366
 20
190.25446360406329
 30
0.0
 11
692.04742182048983
 21
196.39911550402729
 31
0.0
  0
ARC
  5
1CBF8
  8
AM_0
 10
697.04742182048983
 20
195.25446360406329
 30
0.0
 40
5.0
 50
180.0
 51
270.0
1001
GENIUS_GENOBJ-N-FIL_13
1002
{
1000
OWNER
1000
GEN
1002
}
1001
GENIUS_GENODEF_13
1002
{
1000
HIER
1070
     0
1002
}
1002
{
1000
MANEDIT
1070
     0
1002
}
1002
{
1000
NOSEL
1070
     0
1002
}
1002
{
1000
BEHIND
1070
     0
1002
}
1002
{
1000
OTHER
1070
     0
1002
}
1002
{
1000
REACTOR
1002
}
  0
LINE
  5
1CBFA
  8
AM_0
 10
731.04741277978121
 20
190.2544636040632
 30
0.0
 11
697.04742182048983
 21
190.25446360406329
 31
0.0
  0
LINE
  5
1CBFB
  8
AM_0
 10
731.04741277978121
 20
185.7544636040632
 30
0.0
 11
697.54742182048983
 21
185.75446360406329
 31
0.0
  0
LINE
  5
1CBFC
  8
ｶｸﾚｾﾝ2
 10
710.04741277978087
 20
190.2544636040632
 30
0.0
 11
710.04741277978076
 21
185.7544636040632
 31
0.0
  0
LINE
  5
1CBFD
  8
ｶｸﾚｾﾝ2
 10
722.04741277978121
 20
190.25446360406329
 30
0.0
 11
722.04741277978087
 21
185.7544636040632
 31
0.0
  0
LINE
  5
1CBFE
  8
AM_0
 10
731.04741277978121
 20
190.25446360406329
 30
0.0
 11
731.04741277978121
 21
185.75446360406329
 31
0.0
  0
LINE
  5
1CBFF
  8
0
 10
748.55441881576598
 20
256.75446360406301
 30
0.0
 11
706.5544188157661
 21
256.75446360406301
 31
0.0
  0
LINE
  5
1CC02
  8
AM_0
 10
723.54741277978133
 20
200.2544636040632
 30
0.0
 11
704.04742182048983
 21
219.7544545633551
 31
0.0
  0
LINE
  5
1CC03
  8
AM_0
 10
692.04742182048983
 20
195.25446360406329
 30
0.0
 11
692.04742182048994
 21
230.75446360406329
 31
0.0
  0
LINE
  5
1CC04
  8
AM_0
 10
704.04742182048983
 20
211.75498205435761
 30
0.0
 11
704.04742182048983
 21
225.7549820543577
 31
0.0
1001
GENIUS_GENOREF_13
1005
0
  0
LINE
  5
1CC05
  8
AM_0
 10
694.04742182048983
 20
208.2549820543577
 30
0.0
 11
694.04742182048983
 21
229.2549820543577
 31
0.0
1001
GENIUS_GENOREF_13
1005
0
  0
LINE
  5
1CC06
  8
AM_0
 10
703.04742182048983
 20
210.7549820543577
 30
0.0
 11
694.04742182048983
 21
210.7549820543577
 31
0.0
1001
GENIUS_GENOREF_13
1005
0
  0
LINE
  5
1CC07
  8
AM_0
 10
692.04742182048983
 20
208.2549820543577
 30
0.0
 11
694.04742182048983
 21
208.2549820543577
 31
0.0
1001
GENIUS_GENOREF_13
1005
0
  0
ARC
  5
1CC08
  8
AM_0
 10
703.04742182048983
 20
211.75498205435761
 30
0.0
 40
1.0
 50
270.0
 51
0.0
1001
GENIUS_GENOREF_13
1005
0
  0
LINE
  5
1CC09
  8
AM_0
 10
703.04742182048983
 20
226.7549820543577
 30
0.0
 11
694.04742182048983
 21
226.7549820543577
 31
0.0
1001
GENIUS_GENOREF_13
1005
0
  0
LINE
  5
1CC0A
  8
AM_0
 10
694.04742182048983
 20
229.2549820543577
 30
0.0
 11
692.04742182048983
 21
229.2549820543577
 31
0.0
1001
GENIUS_GENOREF_13
1005
0
  0
LINE
  5
1CC0B
  8
AM_0
 10
692.04742182048994
 20
230.75446360406329
 30
0.0
 11
687.54742182048994
 21
230.7544636040632
 31
0.0
  0
LINE
  5
1CC0C
  8
AM_0
 10
691.54741430630463
 20
233.25483748648699
 30
0.0
 11
687.54741419109519
 21
233.25483748648699
 31
0.0
  0
ARC
  5
1CC0D
  8
AM_0
 10
703.04742182048983
 20
225.7549820543577
 30
0.0
 40
1.0
 50
0.0
 51
90.0
1001
GENIUS_GENOREF_13
1005
0
  0
ARC
  5
1CC0E
  8
AM_0
 10
638.54106277978099
 20
270.76874651499929
 30
0.0
 40
64.006351000000123
 50
325.90835326013388
 51
340.91001245077439
  0
LINE
  5
1CC0F
  8
AM_0
 10
695.54741442551392
 20
248.25446293351081
 30
0.0
 11
691.54741430630463
 21
248.25446293351081
 31
0.0
  0
LINE
  5
1CC10
  8
AM_0
 10
691.54741430630463
 20
234.48521682145579
 30
0.0
 11
699.42741277978132
 21
234.75446060406341
 31
0.0
  0
LINE
  5
1CC11
  8
AM_0
 10
692.91076230977558
 20
236.99377440023221
 30
0.0
 11
699.42741277978132
 21
236.75446060406341
 31
0.0
  0
ARC
  5
1CC13
  8
AM_0
 10
701.43086177978114
 20
245.75472760406339
 30
0.0
 40
1.0004024999999981
 50
270.94790999999992
 51
87.906208000000021
  0
ARC
  5
1CC15
  8
AM_0
 10
699.37400377978122
 20
235.75513160406339
 30
0.0
 40
1.0007581000000001
 50
270.76782999999381
 51
86.940644999992145
  0
LINE
  5
1CC16
  8
AM_0
 10
696.95880248344258
 20
244.6118992995865
 30
0.0
 11
701.46741377978105
 21
244.7544606040633
 31
0.0
  0
LINE
  5
1CC17
  8
0
 10
706.5544188157661
 20
253.25446360406301
 30
0.0
 11
695.54741442551392
 21
248.25446293351081
 31
0.0
  0
LINE
  5
1CC19
  8
AM_0
 10
697.92798896211639
 20
246.89394877870311
 30
0.0
 11
701.46741377978105
 21
246.7544606040633
 31
0.0
  0
LINE
  5
1CC1C
  8
AM_0
 10
609.54741194451401
 20
334.75382551139279
 30
0.0
 11
687.54742182048983
 21
333.39232785546062
 31
0.0
  0
ARC
  5
1CF1E
  8
AM_0
 10
592.03051277978125
 20
317.25869651499949
 30
0.0
 40
5.0
 50
119.7766504456819
 51
180.0
1001
GENIUS_GENODEF_13
1002
{
1000
HIER
1070
     0
1002
}
1002
{
1000
MANEDIT
1070
     0
1002
}
1002
{
1000
NOSEL
1070
     0
1002
}
1002
{
1000
BEHIND
1070
     0
1002
}
1002
{
1000
OTHER
1070
     0
1002
}
1002
{
1000
REACTOR
1002
}
1001
GENIUS_GENOBJ-N-FIL_13
1002
{
1000
OWNER
1000
GEN
1002
}
  0
LINE
  5
1CF29
  8
AM_0
 10
589.54741136846724
 20
313.7540336040633
 30
0.0
 11
596.54741136146731
 21
313.7540336040633
 31
0.0
  0
LINE
  5
1CF2A
  8
AM_0
 10
596.54741136146731
 20
312.75404360406333
 30
0.0
 11
591.54741136746736
 21
312.75404360406333
 31
0.0
  0
LINE
  5
1CF2B
  8
AM_0
 10
589.54741136846724
 20
301.75415360406328
 30
0.0
 11
596.54741136146731
 21
301.75415360406328
 31
0.0
  0
LINE
  5
1CF2C
  8
AM_0
 10
591.54741136746725
 20
302.7541436040633
 30
0.0
 11
596.54741136146731
 21
302.7541436040633
 31
0.0
  0
LINE
  5
1CF2D
  8
AM_0
 10
590.54741136746736
 20
311.75404360406333
 30
0.0
 11
590.54741136746736
 21
303.7541436040633
 31
0.0
  0
LINE
  5
1CF2E
  8
AM_0
 10
587.03051277978125
 20
309.71835119249772
 30
0.0
 11
587.03051277978125
 21
317.25869651499949
 31
0.0
  0
ARC
  5
1CF2F
  8
AM_0
 10
584.03051277978125
 20
309.71835119249772
 30
0.0
 40
3.0
 50
330.7850666920919
 51
0.0
1001
GENIUS_GENODEF_13
1002
{
1000
HIER
1070
     0
1002
}
1002
{
1000
MANEDIT
1070
     0
1002
}
1002
{
1000
NOSEL
1070
     0
1002
}
1002
{
1000
BEHIND
1070
     0
1002
}
1002
{
1000
OTHER
1070
     0
1002
}
1002
{
1000
REACTOR
1002
}
1001
GENIUS_GENOBJ-N-FIL_13
1002
{
1000
OWNER
1000
GEN
1002
}
  0
LINE
  5
1CF30
  8
AM_0
 10
585.54740362386349
 20
308.25408972163922
 30
0.0
 11
589.54740373907271
 21
308.25408972163922
 31
0.0
  0
ARC
  5
1CF31
  8
AM_0
 10
591.54741136746725
 20
303.7541436040633
 30
0.0
 40
1.0
 50
180.0
 51
270.0
1001
GENIUS_GENODEF_13
1002
{
1000
HIER
1070
     0
1002
}
1002
{
1000
MANEDIT
1070
     0
1002
}
1002
{
1000
NOSEL
1070
     0
1002
}
1002
{
1000
BEHIND
1070
     0
1002
}
1002
{
1000
OTHER
1070
     0
1002
}
1002
{
1000
REACTOR
1002
}
1001
GENIUS_GENOBJ-N-FIL_13
1002
{
1000
OWNER
1000
GEN
1002
}
  0
ARC
  5
1CF32
  8
AM_0
 10
591.54741136746736
 20
311.75404360406333
 30
0.0
 40
1.0
 50
90.0
 51
180.0
1001
GENIUS_GENODEF_13
1002
{
1000
HIER
1070
     0
1002
}
1002
{
1000
MANEDIT
1070
     0
1002
}
1002
{
1000
NOSEL
1070
     0
1002
}
1002
{
1000
BEHIND
1070
     0
1002
}
1002
{
1000
OTHER
1070
     0
1002
}
1002
{
1000
REACTOR
1002
}
1001
GENIUS_GENOBJ-N-FIL_13
1002
{
1000
OWNER
1000
GEN
1002
}
  0
LINE
  5
1CF33
  8
AM_0
 10
596.54741136146731
 20
301.75415360406328
 30
0.0
 11
596.54741136146731
 21
313.7540336040633
 31
0.0
  0
LINE
  5
1CF34
  8
AM_0
 10
589.54741136846724
 20
334.40473841572327
 30
0.0
 11
609.54741194451401
 21
334.75382551139279
 31
0.0
  0
ARC
  5
1CF35
  8
AM_0
 10
638.53741277978111
 20
270.74179651499941
 30
0.0
 40
64.014987999999974
 50
81.701566403719767
 51
96.298430043342222
  0
LINE
  5
1CF36
  8
AM_0
 10
624.56558596600178
 20
334.49168184296059
 30
0.0
 11
624.54741277978144
 21
335.01870651499939
 31
0.0
  0
LINE
  5
1CF37
  8
AM_0
 10
622.53010661130895
 20
334.52721133038648
 30
0.0
 11
622.54741277978121
 21
335.01870651499939
 31
0.0
  0
ARC
  5
1CF38
  8
AM_0
 10
623.54764277978131
 20
334.98490651499969
 30
0.0
 40
1.000333199999998
 50
1.936239999993228
 51
179.2096300000002
  0
LINE
  5
1CF39
  8
AM_0
 10
632.50615768011471
 20
334.5023055005218
 30
0.0
 11
632.54741277978144
 21
335.69869651499948
 31
0.0
  0
LINE
  5
1CF3A
  8
AM_0
 10
634.57361053887621
 20
334.6638850307487
 30
0.0
 11
634.54741277978121
 21
335.69869651499948
 31
0.0
  0
ARC
  5
1CF3B
  8
AM_0
 10
633.54783277978129
 20
335.65779651499952
 30
0.0
 40
1.000418199999999
 50
2.3425900000021951
 51
179.9489399999969
  0
ARC
  5
1CF3C
  8
AM_0
 10
643.54700277978134
 20
335.65796651499932
 30
0.0
 40
1.0004146999999981
 50
0.0414799999945912
 51
177.6669899999952
  0
LINE
  5
1CF3D
  8
AM_0
 10
642.50805020762618
 20
334.66197599483388
 30
0.0
 11
642.54741277978144
 21
335.69869651499948
 31
0.0
  0
LINE
  5
1CF3E
  8
AM_0
 10
644.58881152953506
 20
334.49812897255492
 30
0.0
 11
644.54741277978121
 21
335.69870651499969
 31
0.0
  0
ARC
  5
1CF3F
  8
AM_0
 10
653.54718277978134
 20
334.98497651499929
 30
0.0
 40
1.000331199999998
 50
0.7855899999899875
 51
178.06853999999311
  0
LINE
  5
1CF40
  8
AM_0
 10
652.51241847149026
 20
334.00386720027723
 30
0.0
 11
652.54741277978121
 21
335.01870651499939
 31
0.0
  0
LINE
  5
1CF41
  8
AM_0
 10
654.58441978312692
 20
333.96770021858879
 30
0.0
 11
654.54741277978144
 21
335.01870651499939
 31
0.0
  0
LINE
  5
1CF43
  8
0
 10
748.55441881576598
 20
284.75446360406312
 30
0.0
 11
706.5544188157661
 21
284.75446360406312
 31
0.0
  0
LINE
  5
1CF44
  8
0
 10
748.55441881576598
 20
287.75446360406289
 30
0.0
 11
716.55441881576587
 21
287.75446360406289
 31
0.0
  0
ARC
  5
1CF46
  8
AM_0
 10
685.03050277978105
 20
317.25869651499937
 30
0.0
 40
5.0
 50
0.0
 51
59.775875399487852
1001
GENIUS_GENOBJ-N-FIL_13
1002
{
1000
OWNER
1000
GEN
1002
}
1001
GENIUS_GENODEF_13
1002
{
1000
HIER
1070
     0
1002
}
1002
{
1000
MANEDIT
1070
     0
1002
}
1002
{
1000
NOSEL
1070
     0
1002
}
1002
{
1000
BEHIND
1070
     0
1002
}
1002
{
1000
OTHER
1070
     0
1002
}
1002
{
1000
REACTOR
1002
}
  0
ARC
  5
1CF47
  8
AM_0
 10
638.54106277978099
 20
270.76874651499929
 30
0.0
 40
64.006351000000123
 50
19.05788957908678
 51
34.091646739866057
  0
LINE
  5
1CF48
  8
AM_0
 10
695.54741442551392
 20
293.25446427461532
 30
0.0
 11
691.54741430630463
 21
293.25446427461532
 31
0.0
  0
LINE
  5
1CF49
  8
0
 10
706.5544188157661
 20
288.25446360406301
 30
0.0
 11
695.54741442551392
 21
293.25446427461532
 31
0.0
  0
LINE
  5
1CF4A
  8
AM_0
 10
697.93240502493165
 20
294.63255666037622
 30
0.0
 11
701.46741377978105
 21
294.75445360406337
 31
0.0
  0
ARC
  5
1CF4B
  8
AM_0
 10
701.43120077978131
 20
295.7541936040634
 30
0.0
 40
1.000393499999999
 50
272.07443999999481
 51
89.071438000003027
  0
LINE
  5
1CF4C
  8
AM_0
 10
696.96368609104525
 20
296.9146841299584
 30
0.0
 11
701.46741377978105
 21
296.7544636040634
 31
0.0
  0
LINE
  5
1CF4D
  8
AM_0
 10
691.54741430630463
 20
307.04166071881201
 30
0.0
 11
699.42740877978133
 21
306.75445360406337
 31
0.0
  0
LINE
  5
1CF4E
  8
AM_0
 10
692.91694204528028
 20
304.53376868941899
 30
0.0
 11
699.42741277978132
 21
304.75445360406337
 31
0.0
  0
LINE
  5
1CF4F
  8
AM_0
 10
690.03050277978105
 20
317.25869651499937
 30
0.0
 11
690.03050277978105
 21
309.76556693438158
 31
0.0
  0
ARC
  5
1CF50
  8
AM_0
 10
693.03050277978105
 20
309.76556693438158
 30
0.0
 40
3.0
 50
180.0
 51
210.25343319072169
1001
GENIUS_GENOBJ-N-FIL_13
1002
{
1000
OWNER
1000
GEN
1002
}
1001
GENIUS_GENODEF_13
1002
{
1000
HIER
1070
     0
1002
}
1002
{
1000
MANEDIT
1070
     0
1002
}
1002
{
1000
NOSEL
1070
     0
1002
}
1002
{
1000
BEHIND
1070
     0
1002
}
1002
{
1000
OTHER
1070
     0
1002
}
1002
{
1000
REACTOR
1002
}
  0
LINE
  5
1CF51
  8
AM_0
 10
691.54741430630463
 20
308.25408972163922
 30
0.0
 11
687.54741419109519
 21
308.25408972163922
 31
0.0
  0
ARC
  5
1CF52
  8
AM_0
 10
699.37467877978122
 20
305.75381360406328
 30
0.0
 40
1.0007357999999991
 50
273.02069999999998
 51
89.270831999999231
  0
LINE
  5
1CF53
  8
0
 10
716.55441881576587
 20
287.75446360406289
 30
0.0
 11
716.55441881576587
 21
284.75446360406312
 31
0.0
  0
ARC
  5
1D61D
  8
AM_0
 10
542.54741277978098
 20
241.75093561464149
 30
0.0
 40
0.9999999999999998
 50
179.999989999999
 51
270.0
  0
ARC
  5
1D61E
  8
AM_0
 10
542.54741277978098
 20
299.75093561464149
 30
0.0
 40
0.9999999999999998
 50
90.00000299999769
 51
180.00001000000091
  0
LINE
  5
1D61F
  8
AM_0
 10
538.54741277978087
 20
252.95094561464151
 30
0.0
 11
538.54741277978087
 21
288.56093561464172
 31
0.0
  0
LINE
  5
1D620
  8
AM_0
 10
541.54741277978133
 20
241.75093561464149
 30
0.0
 11
541.54741277978133
 21
299.75093561464149
 31
0.0
  0
LINE
  5
1D621
  8
AM_0
 10
541.54741277978133
 20
293.75093561464172
 30
0.0
 11
538.54741277978087
 21
288.56093561464172
 31
0.0
  0
LINE
  5
1D622
  8
AM_0
 10
541.54743277978105
 20
247.75093561464149
 30
0.0
 11
538.54741277978087
 21
252.95094561464151
 31
0.0
  0
LINE
  5
1D626
  8
AM_0
 10
563.54741277978087
 20
237.25093561464149
 30
0.0
 11
563.54741277978087
 21
304.25093561464149
 31
0.0
  0
LINE
  5
1D627
  8
AM_0
 10
568.54741277978087
 20
300.75093561464149
 30
0.0
 11
568.54741277978087
 21
240.71095561464151
 31
0.0
  0
LINE
  5
1D628
  8
AM_0
 10
566.5474127797811
 20
239.25093561464149
 30
0.0
 11
566.5474127797811
 21
302.25093561464149
 31
0.0
  0
LINE
  5
1D629
  8
AM_0
 10
560.04741277978133
 20
240.25093561464149
 30
0.0
 11
560.04741277978133
 21
301.25093561464172
 31
0.0
  0
LINE
  5
1D62C
  8
AM_0
 10
548.5474127797811
 20
302.25093561464149
 30
0.0
 11
548.5474127797811
 21
304.25093561464149
 31
0.0
  0
LINE
  5
1D62D
  8
AM_0
 10
563.54741277978087
 20
304.25093561464149
 30
0.0
 11
548.5474127797811
 21
304.25093561464149
 31
0.0
  0
LINE
  5
1D631
  8
AM_0
 10
548.5474127797811
 20
302.25093561464149
 30
0.0
 11
566.5474127797811
 21
302.25093561464149
 31
0.0
  0
LINE
  5
1D632
  8
AM_0
 10
542.54741277978133
 20
300.75093561464149
 30
0.0
 11
560.04741277978133
 21
300.75093561464149
 31
0.0
  0
ARC
  5
1D633
  8
AM_0
 10
548.5474127797811
 20
301.25093561464172
 30
0.0
 40
0.9999999999999998
 50
90.00000299999769
 51
180.00001000000091
  0
LINE
  5
1D634
  8
AM_0
 10
547.54741277978133
 20
300.75093561464149
 30
0.0
 11
547.54741277978133
 21
301.25093561464172
 31
0.0
  0
ARC
  5
1D635
  8
AM_0
 10
561.0474127797811
 20
301.25093561464172
 30
0.0
 40
0.9999999999999998
 50
90.00000299999769
 51
180.00001000000091
  0
LINE
  5
1D636
  8
AM_0
 10
582.22967559513268
 20
301.1704711037026
 30
0.0
 11
566.54741277978121
 21
300.75093410301349
 31
0.0
  0
LINE
  5
1D63D
  8
AM_0
 10
548.5474127797811
 20
239.25093561464149
 30
0.0
 11
566.5474127797811
 21
239.25093561464149
 31
0.0
  0
LINE
  5
1D63E
  8
AM_0
 10
542.54741277978133
 20
240.75093561464149
 30
0.0
 11
560.04741277978133
 21
240.75093561464149
 31
0.0
  0
LINE
  5
1D63F
  8
AM_0
 10
563.54741277978087
 20
237.25093561464149
 30
0.0
 11
548.5474127797811
 21
237.25093561464149
 31
0.0
  0
LINE
  5
1D640
  8
AM_0
 10
548.5474127797811
 20
239.25093561464149
 30
0.0
 11
548.5474127797811
 21
237.25093561464149
 31
0.0
  0
LINE
  5
1D641
  8
AM_0
 10
547.54741277978133
 20
240.25093561464149
 30
0.0
 11
547.54741277978133
 21
240.75093561464149
 31
0.0
  0
ARC
  5
1D642
  8
AM_0
 10
548.5474127797811
 20
240.25093561464149
 30
0.0
 40
0.9999999999999998
 50
179.999989999999
 51
270.0
  0
ARC
  5
1D643
  8
AM_0
 10
561.0474127797811
 20
240.25093561464149
 30
0.0
 40
0.9999999999999998
 50
179.999989999999
 51
270.0
  0
LINE
  5
1D646
  8
AM_0
 10
582.25638182230693
 20
240.35071709712869
 30
0.0
 11
566.54741277978121
 21
240.75095764951831
 31
0.0
  0
LINE
  5
1D771
  8
AM_0
 10
585.54740362386349
 20
307.17535005304239
 30
0.0
 11
573.62740277978116
 21
306.75093561464149
 31
0.0
  0
LINE
  5
1D772
  8
AM_0
 10
584.09081343943467
 20
304.39208161961869
 30
0.0
 11
573.40741277978123
 21
304.7709256146415
 31
0.0
  0
ARC
  5
1D773
  8
AM_0
 10
572.62506277978105
 20
302.91972561464121
 30
0.0
 40
2.0097484999999988
 50
271.777909999992
 51
67.090346000001603
  0
ARC
  5
1D774
  8
AM_0
 10
573.65464277978106
 20
305.75081561464162
 30
0.0
 40
1.000226099999999
 50
89.268666999994409
 51
268.43981999999932
  0
LINE
  5
1D775
  8
AM_0
 10
585.5474036238636
 20
234.34502165400619
 30
0.0
 11
573.62741277978125
 21
234.75096561464139
 31
0.0
  0
ARC
  5
1D776
  8
AM_0
 10
572.62943277978127
 20
238.59257561464159
 30
0.0
 40
1.9992131999999989
 50
292.90133000000452
 51
88.337977999997776
  0
LINE
  5
1D777
  8
AM_0
 10
584.12028456746793
 20
237.1308451879035
 30
0.0
 11
573.40741277978123
 21
236.75096561464139
 31
0.0
  0
ARC
  5
1D778
  8
AM_0
 10
573.65532277978116
 20
235.75108561464131
 30
0.0
 40
1.000231299999998
 50
91.598943000005576
 51
270.6925799999924
  0
LINE
  5
1E1F7
  8
AM_0
 10
949.3319539754068
 20
225.25446360406329
 30
0.0
 11
903.33192213292057
 21
225.25446360406329
 31
0.0
  0
LINE
  5
1E1F8
  8
ﾁｭｳｼﾝｾﾝ1
 10
1216.431755301998
 20
270.75446360406329
 30
0.0
 11
835.33192031837461
 21
270.75446360406329
 31
0.0
  0
LINE
  5
1E1F9
  8
AM_0
 10
840.33192031837461
 20
190.25443315703299
 30
0.0
 11
1012.331955789953
 21
190.25443315703299
 31
0.0
  0
LINE
  5
1E1FA
  8
AM_0
 10
840.33192031837461
 20
185.75443315703299
 30
0.0
 11
1012.331955789953
 21
185.75443315703311
 31
0.0
  0
LINE
  5
1E1FC
  8
AM_0
 10
1000.331955444325
 20
334.75382551139279
 30
0.0
 11
852.33192066400261
 21
334.75382551139279
 31
0.0
  0
LINE
  5
1E1FD
  8
AM_0
 10
1049.8319558989531
 20
206.75446759788289
 30
0.0
 11
1049.8319558989531
 21
334.75445759788278
 31
0.0
  0
LINE
  5
1E1FE
  8
AM_0
 10
1038.8319558989531
 20
332.2544575978834
 30
0.0
 11
1038.8319558989531
 21
209.2544775978831
 31
0.0
  0
LINE
  5
1E1FF
  8
AM_0
 10
1020.421432724703
 20
316.4831862359772
 30
0.0
 11
1020.421432724701
 21
225.02574895978921
 31
0.0
  0
ARC
  5
1E200
  8
AM_0
 10
626.1734293729503
 20
270.75446759787752
 30
0.0
 40
397.24800335175252
 50
353.33928567968383
 51
6.6607143203161288
  0
LINE
  5
1E201
  8
AM_0
 10
1012.331955789953
 20
322.75394515376888
 30
0.0
 11
1012.331955789953
 21
185.75443315703311
 31
0.0
  0
ARC
  5
1E203
  8
AM_0
 10
1040.705353071357
 20
209.7544775978831
 30
0.0
 40
2.9999999999999978
 50
215.68533471265849
 51
270.0
1001
GENIUS_GENOBJ-N-FIL_13
1002
{
1000
OWNER
1000
GEN
1002
}
1001
GENIUS_GENODEF_13
1002
{
1000
HIER
1070
     0
1002
}
1002
{
1000
MANEDIT
1070
     0
1002
}
1002
{
1000
NOSEL
1070
     0
1002
}
1002
{
1000
BEHIND
1070
     0
1002
}
1002
{
1000
OTHER
1070
     0
1002
}
1002
{
1000
REACTOR
1002
}
  0
LINE
  5
1E204
  8
AM_0
 10
1049.8319558989531
 20
206.7544775978831
 30
0.0
 11
1040.705353071357
 21
206.7544775978831
 31
0.0
  0
LINE
  5
1E205
  8
AM_0
 10
1049.8319558989531
 20
206.75443759788291
 30
0.0
 11
1049.8319558989531
 21
210.754437597883
 31
0.0
  0
LINE
  5
1E206
  8
AM_0
 10
1049.8320137211699
 20
218.71446759791479
 30
0.0
 11
1039.8320137211761
 21
218.7144564868035
 31
0.0
  0
LINE
  5
1E207
  8
AM_0
 10
1049.8319558989531
 20
218.71447759788319
 30
0.0
 11
1039.8319558989531
 21
218.71447759788319
 31
0.0
  0
LINE
  5
1E208
  8
AM_0
 10
1049.8319971656031
 20
233.6144775979057
 30
0.0
 11
1039.8319971656099
 21
233.61446648679441
 31
0.0
  0
LINE
  5
1E209
  8
AM_0
 10
1049.8319558989531
 20
233.6144875978832
 30
0.0
 11
1039.8319558989531
 21
233.6144875978832
 31
0.0
  0
LINE
  5
1E20A
  8
AM_0
 10
968.8319539754068
 20
221.75442411632429
 30
0.0
 11
968.8319539754068
 21
190.25443315703299
 31
0.0
  0
LINE
  5
1E20B
  8
AM_0
 10
964.3319539754068
 20
221.75442411632429
 30
0.0
 11
964.3319539754068
 21
190.25443315703299
 31
0.0
  0
LINE
  5
1E20C
  8
ﾁｭｳｼﾝｾﾝ1
 10
993.83192213292068
 20
198.75443315703299
 30
0.0
 11
993.83192213292068
 21
177.25443315703311
 31
0.0
  0
LINE
  5
1E20D
  8
ｶｸﾚｾﾝ2
 10
999.83192213292068
 20
190.25443315703299
 30
0.0
 11
999.83192213292068
 21
185.75443315703299
 31
0.0
  0
LINE
  5
1E20E
  8
ｶｸﾚｾﾝ2
 10
987.83192213292057
 20
190.25443315703299
 30
0.0
 11
987.83192213292034
 21
185.75443315703299
 31
0.0
  0
LINE
  5
1E20F
  8
AM_0
 10
970.8899593257097
 20
230.75443315703311
 30
0.0
 11
1007.331955789953
 21
230.75443315703311
 31
0.0
  0
CIRCLE
  5
1E219
  8
AM_0
 10
1000.331955444325
 20
218.75498205435821
 30
0.0
 40
10.5
  0
LINE
  5
1E21B
  8
AM_0
 10
1035.8319558989531
 20
209.2544775978831
 30
0.0
 11
1012.331955789953
 21
209.25447759788361
 31
0.0
  0
ARC
  5
1E21C
  8
AM_0
 10
1035.8319558989531
 20
206.2544775978831
 30
0.0
 40
2.9999999999999978
 50
35.685334712658431
 51
90.0
1001
GENIUS_GENOBJ-N-FIL_13
1002
{
1000
OWNER
1000
GEN
1002
}
1001
GENIUS_GENODEF_13
1002
{
1000
HIER
1070
     0
1002
}
1002
{
1000
MANEDIT
1070
     0
1002
}
1002
{
1000
NOSEL
1070
     0
1002
}
1002
{
1000
BEHIND
1070
     0
1002
}
1002
{
1000
OTHER
1070
     0
1002
}
1002
{
1000
REACTOR
1002
}
  0
ARC
  5
1E21E
  8
AM_0
 10
1017.760421545266
 20
225.02574895978921
 30
0.0
 40
2.9999999999999978
 50
270.0
 51
353.33928567968383
1001
GENIUS_GENOBJ-N-FIL_13
1002
{
1000
OWNER
1000
GEN
1002
}
1001
GENIUS_GENODEF_13
1002
{
1000
HIER
1070
     0
1002
}
1002
{
1000
MANEDIT
1070
     0
1002
}
1002
{
1000
NOSEL
1070
     0
1002
}
1002
{
1000
BEHIND
1070
     0
1002
}
1002
{
1000
OTHER
1070
     0
1002
}
1002
{
1000
REACTOR
1002
}
  0
LINE
  5
1E21F
  8
AM_0
 10
1017.760421545266
 20
222.02574895978921
 30
0.0
 11
1013.331955898953
 21
222.02574895978921
 31
0.0
  0
ARC
  5
1E220
  8
AM_0
 10
1007.331955789953
 20
225.75443315703311
 30
0.0
 40
5.0
 50
0.000000000000007
 51
90.0
1001
GENIUS_GENOBJ-N-FIL_13
1002
{
1000
OWNER
1000
GEN
1002
}
1001
GENIUS_GENODEF_13
1002
{
1000
HIER
1070
     0
1002
}
1002
{
1000
MANEDIT
1070
     0
1002
}
1002
{
1000
NOSEL
1070
     0
1002
}
1002
{
1000
BEHIND
1070
     0
1002
}
1002
{
1000
OTHER
1070
     0
1002
}
1002
{
1000
REACTOR
1002
}
  0
LINE
  5
1E22D
  8
AM_0
 10
968.8319539754068
 20
200.25443315703299
 30
0.0
 11
964.3319539754068
 21
200.25443315703299
 31
0.0
  0
ARC
  5
1E22E
  8
AM_0
 10
949.3319539754068
 20
270.25446360406329
 30
0.0
 40
45.0
 50
270.0
 51
298.62447003294773
  0
LINE
  5
1E22F
  8
AM_0
 10
968.8319539754068
 20
221.75442411632429
 30
0.0
 11
964.3319539754068
 21
221.75442411632429
 31
0.0
  0
ARC
  5
1E230
  8
AM_0
 10
1040.705353071357
 20
331.75445759788329
 30
0.0
 40
2.9999999999999978
 50
90.0
 51
144.3146652873416
1001
GENIUS_GENOBJ-N-FIL_13
1002
{
1000
OWNER
1000
GEN
1002
}
1001
GENIUS_GENODEF_13
1002
{
1000
HIER
1070
     0
1002
}
1002
{
1000
MANEDIT
1070
     0
1002
}
1002
{
1000
NOSEL
1070
     0
1002
}
1002
{
1000
BEHIND
1070
     0
1002
}
1002
{
1000
OTHER
1070
     0
1002
}
1002
{
1000
REACTOR
1002
}
  0
LINE
  5
1E231
  8
AM_0
 10
1049.8319558989531
 20
307.89444759788307
 30
0.0
 11
1039.8319558989531
 21
307.89444759788307
 31
0.0
  0
LINE
  5
1E232
  8
AM_0
 10
1049.8319558989531
 20
322.79445759788319
 30
0.0
 11
1039.8319558989531
 21
322.79445759788319
 31
0.0
  0
LINE
  5
1E233
  8
AM_0
 10
1049.8319558989531
 20
334.75445759788329
 30
0.0
 11
1040.705353071357
 21
334.75445759788329
 31
0.0
  0
POLYLINE
  5
1E236
  8
AM_0
 10
994.83195528591216
 20
322.75394515376888
 30
0.0
 66
     1
 70
     8
  0
VERTEX
  8
AM_0
  5
1ECD3
 10
994.832
 20
322.754
 30
0.000000
  70
    32
  0
VERTEX
  8
AM_0
  5
1ECD4
 10
994.839
 20
323.024
 30
0.000000
  70
    32
  0
VERTEX
  8
AM_0
  5
1ECD5
 10
994.858
 20
323.293
 30
0.000000
  70
    32
  0
VERTEX
  8
AM_0
  5
1ECD6
 10
994.891
 20
323.561
 30
0.000000
  70
    32
  0
VERTEX
  8
AM_0
  5
1ECD7
 10
994.938
 20
323.827
 30
0.000000
  70
    32
  0
VERTEX
  8
AM_0
  5
1ECD8
 10
994.997
 20
324.090
 30
0.000000
  70
    32
  0
VERTEX
  8
AM_0
  5
1ECD9
 10
995.069
 20
324.350
 30
0.000000
  70
    32
  0
VERTEX
  8
AM_0
  5
1ECDA
 10
995.153
 20
324.607
 30
0.000000
  70
    32
  0
VERTEX
  8
AM_0
  5
1ECDB
 10
995.251
 20
324.859
 30
0.000000
  70
    32
  0
VERTEX
  8
AM_0
  5
1ECDC
 10
995.360
 20
325.105
 30
0.000000
  70
    32
  0
VERTEX
  8
AM_0
  5
1ECDD
 10
995.481
 20
325.347
 30
0.000000
  70
    32
  0
VERTEX
  8
AM_0
  5
1ECDE
 10
995.614
 20
325.581
 30
0.000000
  70
    32
  0
VERTEX
  8
AM_0
  5
1ECDF
 10
995.759
 20
325.810
 30
0.000000
  70
    32
  0
VERTEX
  8
AM_0
  5
1ECE0
 10
995.914
 20
326.030
 30
0.000000
  70
    32
  0
VERTEX
  8
AM_0
  5
1ECE1
 10
996.080
 20
326.243
 30
0.000000
  70
    32
  0
VERTEX
  8
AM_0
  5
1ECE2
 10
996.257
 20
326.447
 30
0.000000
  70
    32
  0
VERTEX
  8
AM_0
  5
1ECE3
 10
996.443
 20
326.643
 30
0.000000
  70
    32
  0
VERTEX
  8
AM_0
  5
1ECE4
 10
996.638
 20
326.829
 30
0.000000
  70
    32
  0
VERTEX
  8
AM_0
  5
1ECE5
 10
996.843
 20
327.005
 30
0.000000
  70
    32
  0
VERTEX
  8
AM_0
  5
1ECE6
 10
997.056
 20
327.172
 30
0.000000
  70
    32
  0
VERTEX
  8
AM_0
  5
1ECE7
 10
997.276
 20
327.327
 30
0.000000
  70
    32
  0
VERTEX
  8
AM_0
  5
1ECE8
 10
997.504
 20
327.471
 30
0.000000
  70
    32
  0
VERTEX
  8
AM_0
  5
1ECE9
 10
997.739
 20
327.604
 30
0.000000
  70
    32
  0
VERTEX
  8
AM_0
  5
1ECEA
 10
997.980
 20
327.726
 30
0.000000
  70
    32
  0
VERTEX
  8
AM_0
  5
1ECEB
 10
998.227
 20
327.835
 30
0.000000
  70
    32
  0
VERTEX
  8
AM_0
  5
1ECEC
 10
998.479
 20
327.932
 30
0.000000
  70
    32
  0
VERTEX
  8
AM_0
  5
1ECED
 10
998.735
 20
328.017
 30
0.000000
  70
    32
  0
VERTEX
  8
AM_0
  5
1ECEE
 10
998.996
 20
328.089
 30
0.000000
  70
    32
  0
VERTEX
  8
AM_0
  5
1ECEF
 10
999.259
 20
328.148
 30
0.000000
  70
    32
  0
VERTEX
  8
AM_0
  5
1ECF0
 10
999.525
 20
328.194
 30
0.000000
  70
    32
  0
VERTEX
  8
AM_0
  5
1ECF1
 10
999.793
 20
328.227
 30
0.000000
  70
    32
  0
VERTEX
  8
AM_0
  5
1ECF2
 10
1000.06
 20
328.247
 30
0.000000
  70
    32
  0
VERTEX
  8
AM_0
  5
1ECF3
 10
1000.33
 20
328.254
 30
0.000000
  70
    32
  0
VERTEX
  8
AM_0
  5
1ECF4
 10
1000.60
 20
328.247
 30
0.000000
  70
    32
  0
VERTEX
  8
AM_0
  5
1ECF5
 10
1000.87
 20
328.227
 30
0.000000
  70
    32
  0
VERTEX
  8
AM_0
  5
1ECF6
 10
1001.14
 20
328.194
 30
0.000000
  70
    32
  0
VERTEX
  8
AM_0
  5
1ECF7
 10
1001.40
 20
328.148
 30
0.000000
  70
    32
  0
VERTEX
  8
AM_0
  5
1ECF8
 10
1001.67
 20
328.089
 30
0.000000
  70
    32
  0
VERTEX
  8
AM_0
  5
1ECF9
 10
1001.93
 20
328.017
 30
0.000000
  70
    32
  0
VERTEX
  8
AM_0
  5
1ECFA
 10
1002.18
 20
327.932
 30
0.000000
  70
    32
  0
VERTEX
  8
AM_0
  5
1ECFB
 10
1002.44
 20
327.835
 30
0.000000
  70
    32
  0
VERTEX
  8
AM_0
  5
1ECFC
 10
1002.68
 20
327.726
 30
0.000000
  70
    32
  0
VERTEX
  8
AM_0
  5
1ECFD
 10
1002.92
 20
327.604
 30
0.000000
  70
    32
  0
VERTEX
  8
AM_0
  5
1ECFE
 10
1003.16
 20
327.471
 30
0.000000
  70
    32
  0
VERTEX
  8
AM_0
  5
1ECFF
 10
1003.39
 20
327.327
 30
0.000000
  70
    32
  0
VERTEX
  8
AM_0
  5
1ED00
 10
1003.61
 20
327.172
 30
0.000000
  70
    32
  0
VERTEX
  8
AM_0
  5
1ED01
 10
1003.82
 20
327.005
 30
0.000000
  70
    32
  0
VERTEX
  8
AM_0
  5
1ED02
 10
1004.03
 20
326.829
 30
0.000000
  70
    32
  0
VERTEX
  8
AM_0
  5
1ED03
 10
1004.22
 20
326.643
 30
0.000000
  70
    32
  0
VERTEX
  8
AM_0
  5
1ED04
 10
1004.41
 20
326.447
 30
0.000000
  70
    32
  0
VERTEX
  8
AM_0
  5
1ED05
 10
1004.58
 20
326.243
 30
0.000000
  70
    32
  0
VERTEX
  8
AM_0
  5
1ED06
 10
1004.75
 20
326.030
 30
0.000000
  70
    32
  0
VERTEX
  8
AM_0
  5
1ED07
 10
1004.91
 20
325.810
 30
0.000000
  70
    32
  0
VERTEX
  8
AM_0
  5
1ED08
 10
1005.05
 20
325.581
 30
0.000000
  70
    32
  0
VERTEX
  8
AM_0
  5
1ED09
 10
1005.18
 20
325.347
 30
0.000000
  70
    32
  0
VERTEX
  8
AM_0
  5
1ED0A
 10
1005.30
 20
325.105
 30
0.000000
  70
    32
  0
VERTEX
  8
AM_0
  5
1ED0B
 10
1005.41
 20
324.859
 30
0.000000
  70
    32
  0
VERTEX
  8
AM_0
  5
1ED0C
 10
1005.51
 20
324.607
 30
0.000000
  70
    32
  0
VERTEX
  8
AM_0
  5
1ED0D
 10
1005.60
 20
324.350
 30
0.000000
  70
    32
  0
VERTEX
  8
AM_0
  5
1ED0E
 10
1005.67
 20
324.090
 30
0.000000
  70
    32
  0
VERTEX
  8
AM_0
  5
1ED0F
 10
1005.73
 20
323.827
 30
0.000000
  70
    32
  0
VERTEX
  8
AM_0
  5
1ED10
 10
1005.77
 20
323.561
 30
0.000000
  70
    32
  0
VERTEX
  8
AM_0
  5
1ED11
 10
1005.81
 20
323.293
 30
0.000000
  70
    32
  0
VERTEX
  8
AM_0
  5
1ED12
 10
1005.83
 20
323.024
 30
0.000000
  70
    32
  0
VERTEX
  8
AM_0
  5
1ED13
 10
1005.83
 20
322.754
 30
0.000000
  70
    32
  0
VERTEX
  8
AM_0
  5
1ED14
 10
1005.83
 20
322.484
 30
0.000000
  70
    32
  0
VERTEX
  8
AM_0
  5
1ED15
 10
1005.81
 20
322.215
 30
0.000000
  70
    32
  0
VERTEX
  8
AM_0
  5
1ED16
 10
1005.77
 20
321.947
 30
0.000000
  70
    32
  0
VERTEX
  8
AM_0
  5
1ED17
 10
1005.73
 20
321.681
 30
0.000000
  70
    32
  0
VERTEX
  8
AM_0
  5
1ED18
 10
1005.67
 20
321.418
 30
0.000000
  70
    32
  0
VERTEX
  8
AM_0
  5
1ED19
 10
1005.60
 20
321.157
 30
0.000000
  70
    32
  0
VERTEX
  8
AM_0
  5
1ED1A
 10
1005.51
 20
320.901
 30
0.000000
  70
    32
  0
VERTEX
  8
AM_0
  5
1ED1B
 10
1005.41
 20
320.649
 30
0.000000
  70
    32
  0
VERTEX
  8
AM_0
  5
1ED1C
 10
1005.30
 20
320.402
 30
0.000000
  70
    32
  0
VERTEX
  8
AM_0
  5
1ED1D
 10
1005.18
 20
320.161
 30
0.000000
  70
    32
  0
VERTEX
  8
AM_0
  5
1ED1E
 10
1005.05
 20
319.926
 30
0.000000
  70
    32
  0
VERTEX
  8
AM_0
  5
1ED1F
 10
1004.91
 20
319.698
 30
0.000000
  70
    32
  0
VERTEX
  8
AM_0
  5
1ED20
 10
1004.75
 20
319.478
 30
0.000000
  70
    32
  0
VERTEX
  8
AM_0
  5
1ED21
 10
1004.58
 20
319.265
 30
0.000000
  70
    32
  0
VERTEX
  8
AM_0
  5
1ED22
 10
1004.41
 20
319.060
 30
0.000000
  70
    32
  0
VERTEX
  8
AM_0
  5
1ED23
 10
1004.22
 20
318.865
 30
0.000000
  70
    32
  0
VERTEX
  8
AM_0
  5
1ED24
 10
1004.03
 20
318.679
 30
0.000000
  70
    32
  0
VERTEX
  8
AM_0
  5
1ED25
 10
1003.82
 20
318.502
 30
0.000000
  70
    32
  0
VERTEX
  8
AM_0
  5
1ED26
 10
1003.61
 20
318.336
 30
0.000000
  70
    32
  0
VERTEX
  8
AM_0
  5
1ED27
 10
1003.39
 20
318.181
 30
0.000000
  70
    32
  0
VERTEX
  8
AM_0
  5
1ED28
 10
1003.16
 20
318.036
 30
0.000000
  70
    32
  0
VERTEX
  8
AM_0
  5
1ED29
 10
1002.92
 20
317.903
 30
0.000000
  70
    32
  0
VERTEX
  8
AM_0
  5
1ED2A
 10
1002.68
 20
317.782
 30
0.000000
  70
    32
  0
VERTEX
  8
AM_0
  5
1ED2B
 10
1002.44
 20
317.673
 30
0.000000
  70
    32
  0
VERTEX
  8
AM_0
  5
1ED2C
 10
1002.18
 20
317.576
 30
0.000000
  70
    32
  0
VERTEX
  8
AM_0
  5
1ED2D
 10
1001.93
 20
317.491
 30
0.000000
  70
    32
  0
VERTEX
  8
AM_0
  5
1ED2E
 10
1001.67
 20
317.419
 30
0.000000
  70
    32
  0
VERTEX
  8
AM_0
  5
1ED2F
 10
1001.40
 20
317.360
 30
0.000000
  70
    32
  0
VERTEX
  8
AM_0
  5
1ED30
 10
1001.14
 20
317.314
 30
0.000000
  70
    32
  0
VERTEX
  8
AM_0
  5
1ED31
 10
1000.87
 20
317.280
 30
0.000000
  70
    32
  0
VERTEX
  8
AM_0
  5
1ED32
 10
1000.60
 20
317.261
 30
0.000000
  70
    32
  0
VERTEX
  8
AM_0
  5
1ED33
 10
1000.33
 20
317.254
 30
0.000000
  70
    32
  0
VERTEX
  8
AM_0
  5
1ED34
 10
1000.06
 20
317.261
 30
0.000000
  70
    32
  0
VERTEX
  8
AM_0
  5
1ED35
 10
999.793
 20
317.280
 30
0.000000
  70
    32
  0
VERTEX
  8
AM_0
  5
1ED36
 10
999.525
 20
317.314
 30
0.000000
  70
    32
  0
VERTEX
  8
AM_0
  5
1ED37
 10
999.259
 20
317.360
 30
0.000000
  70
    32
  0
VERTEX
  8
AM_0
  5
1ED38
 10
998.996
 20
317.419
 30
0.000000
  70
    32
  0
VERTEX
  8
AM_0
  5
1ED39
 10
998.735
 20
317.491
 30
0.000000
  70
    32
  0
VERTEX
  8
AM_0
  5
1ED3A
 10
998.479
 20
317.576
 30
0.000000
  70
    32
  0
VERTEX
  8
AM_0
  5
1ED3B
 10
998.227
 20
317.673
 30
0.000000
  70
    32
  0
VERTEX
  8
AM_0
  5
1ED3C
 10
997.980
 20
317.782
 30
0.000000
  70
    32
  0
VERTEX
  8
AM_0
  5
1ED3D
 10
997.739
 20
317.903
 30
0.000000
  70
    32
  0
VERTEX
  8
AM_0
  5
1ED3E
 10
997.504
 20
318.036
 30
0.000000
  70
    32
  0
VERTEX
  8
AM_0
  5
1ED3F
 10
997.276
 20
318.181
 30
0.000000
  70
    32
  0
VERTEX
  8
AM_0
  5
1ED40
 10
997.056
 20
318.336
 30
0.000000
  70
    32
  0
VERTEX
  8
AM_0
  5
1ED41
 10
996.843
 20
318.502
 30
0.000000
  70
    32
  0
VERTEX
  8
AM_0
  5
1ED42
 10
996.638
 20
318.679
 30
0.000000
  70
    32
  0
VERTEX
  8
AM_0
  5
1ED43
 10
996.443
 20
318.865
 30
0.000000
  70
    32
  0
VERTEX
  8
AM_0
  5
1ED44
 10
996.257
 20
319.060
 30
0.000000
  70
    32
  0
VERTEX
  8
AM_0
  5
1ED45
 10
996.080
 20
319.265
 30
0.000000
  70
    32
  0
VERTEX
  8
AM_0
  5
1ED46
 10
995.914
 20
319.478
 30
0.000000
  70
    32
  0
VERTEX
  8
AM_0
  5
1ED47
 10
995.759
 20
319.698
 30
0.000000
  70
    32
  0
VERTEX
  8
AM_0
  5
1ED48
 10
995.614
 20
319.926
 30
0.000000
  70
    32
  0
VERTEX
  8
AM_0
  5
1ED49
 10
995.481
 20
320.161
 30
0.000000
  70
    32
  0
VERTEX
  8
AM_0
  5
1ED4A
 10
995.360
 20
320.402
 30
0.000000
  70
    32
  0
VERTEX
  8
AM_0
  5
1ED4B
 10
995.251
 20
320.649
 30
0.000000
  70
    32
  0
VERTEX
  8
AM_0
  5
1ED4C
 10
995.153
 20
320.901
 30
0.000000
  70
    32
  0
VERTEX
  8
AM_0
  5
1ED4D
 10
995.069
 20
321.157
 30
0.000000
  70
    32
  0
VERTEX
  8
AM_0
  5
1ED4E
 10
994.997
 20
321.418
 30
0.000000
  70
    32
  0
VERTEX
  8
AM_0
  5
1ED4F
 10
994.938
 20
321.681
 30
0.000000
  70
    32
  0
VERTEX
  8
AM_0
  5
1ED50
 10
994.891
 20
321.947
 30
0.000000
  70
    32
  0
VERTEX
  8
AM_0
  5
1ED51
 10
994.858
 20
322.215
 30
0.000000
  70
    32
  0
VERTEX
  8
AM_0
  5
1ED52
 10
994.839
 20
322.484
 30
0.000000
  70
    32
  0
VERTEX
  8
AM_0
  5
1ED53
 10
994.832
 20
322.754
 30
0.000000
  70
    32
  0
SEQEND
  8
AM_0
  5
1ED54
  0
LINE
  5
1E242
  8
AM_0
 10
1017.760421545265
 20
319.4831862359772
 30
0.0
 11
1013.331955898953
 21
319.48318623597709
 31
0.0
  0
ARC
  5
1E243
  8
AM_0
 10
1017.760421545265
 20
316.48318623597731
 30
0.0
 40
2.9999999999999978
 50
6.6607143203161288
 51
90.0
1001
GENIUS_GENODEF_13
1002
{
1000
HIER
1070
     0
1002
}
1002
{
1000
MANEDIT
1070
     0
1002
}
1002
{
1000
NOSEL
1070
     0
1002
}
1002
{
1000
BEHIND
1070
     0
1002
}
1002
{
1000
OTHER
1070
     0
1002
}
1002
{
1000
REACTOR
1002
}
1001
GENIUS_GENOBJ-N-FIL_13
1002
{
1000
OWNER
1000
GEN
1002
}
  0
POLYLINE
  5
1E248
  8
AM_0
 10
1000.3319559688611
 20
334.75382551139313
 30
0.0
 66
     1
 70
     8
  0
VERTEX
  8
AM_0
  5
1ED55
 10
1000.33
 20
334.754
 30
0.000000
  70
    32
  0
VERTEX
  8
AM_0
  5
1ED56
 10
1000.48
 20
334.753
 30
0.000000
  70
    32
  0
VERTEX
  8
AM_0
  5
1ED57
 10
1000.63
 20
334.750
 30
0.000000
  70
    32
  0
VERTEX
  8
AM_0
  5
1ED58
 10
1000.77
 20
334.746
 30
0.000000
  70
    32
  0
VERTEX
  8
AM_0
  5
1ED59
 10
1000.92
 20
334.739
 30
0.000000
  70
    32
  0
VERTEX
  8
AM_0
  5
1ED5A
 10
1001.07
 20
334.731
 30
0.000000
  70
    32
  0
VERTEX
  8
AM_0
  5
1ED5B
 10
1001.21
 20
334.721
 30
0.000000
  70
    32
  0
VERTEX
  8
AM_0
  5
1ED5C
 10
1001.36
 20
334.710
 30
0.000000
  70
    32
  0
VERTEX
  8
AM_0
  5
1ED5D
 10
1001.51
 20
334.696
 30
0.000000
  70
    32
  0
VERTEX
  8
AM_0
  5
1ED5E
 10
1001.65
 20
334.681
 30
0.000000
  70
    32
  0
VERTEX
  8
AM_0
  5
1ED5F
 10
1001.80
 20
334.664
 30
0.000000
  70
    32
  0
VERTEX
  8
AM_0
  5
1ED60
 10
1001.95
 20
334.645
 30
0.000000
  70
    32
  0
VERTEX
  8
AM_0
  5
1ED61
 10
1002.09
 20
334.624
 30
0.000000
  70
    32
  0
VERTEX
  8
AM_0
  5
1ED62
 10
1002.24
 20
334.601
 30
0.000000
  70
    32
  0
VERTEX
  8
AM_0
  5
1ED63
 10
1002.38
 20
334.577
 30
0.000000
  70
    32
  0
VERTEX
  8
AM_0
  5
1ED64
 10
1002.53
 20
334.551
 30
0.000000
  70
    32
  0
VERTEX
  8
AM_0
  5
1ED65
 10
1002.67
 20
334.523
 30
0.000000
  70
    32
  0
VERTEX
  8
AM_0
  5
1ED66
 10
1002.82
 20
334.494
 30
0.000000
  70
    32
  0
VERTEX
  8
AM_0
  5
1ED67
 10
1002.96
 20
334.462
 30
0.000000
  70
    32
  0
VERTEX
  8
AM_0
  5
1ED68
 10
1003.10
 20
334.429
 30
0.000000
  70
    32
  0
VERTEX
  8
AM_0
  5
1ED69
 10
1003.25
 20
334.394
 30
0.000000
  70
    32
  0
VERTEX
  8
AM_0
  5
1ED6A
 10
1003.39
 20
334.358
 30
0.000000
  70
    32
  0
VERTEX
  8
AM_0
  5
1ED6B
 10
1003.53
 20
334.319
 30
0.000000
  70
    32
  0
VERTEX
  8
AM_0
  5
1ED6C
 10
1003.67
 20
334.279
 30
0.000000
  70
    32
  0
VERTEX
  8
AM_0
  5
1ED6D
 10
1003.82
 20
334.237
 30
0.000000
  70
    32
  0
VERTEX
  8
AM_0
  5
1ED6E
 10
1003.96
 20
334.194
 30
0.000000
  70
    32
  0
VERTEX
  8
AM_0
  5
1ED6F
 10
1004.10
 20
334.148
 30
0.000000
  70
    32
  0
VERTEX
  8
AM_0
  5
1ED70
 10
1004.24
 20
334.101
 30
0.000000
  70
    32
  0
VERTEX
  8
AM_0
  5
1ED71
 10
1004.37
 20
334.052
 30
0.000000
  70
    32
  0
VERTEX
  8
AM_0
  5
1ED72
 10
1004.51
 20
334.002
 30
0.000000
  70
    32
  0
VERTEX
  8
AM_0
  5
1ED73
 10
1004.65
 20
333.950
 30
0.000000
  70
    32
  0
VERTEX
  8
AM_0
  5
1ED74
 10
1004.79
 20
333.896
 30
0.000000
  70
    32
  0
VERTEX
  8
AM_0
  5
1ED75
 10
1004.92
 20
333.840
 30
0.000000
  70
    32
  0
VERTEX
  8
AM_0
  5
1ED76
 10
1005.06
 20
333.783
 30
0.000000
  70
    32
  0
VERTEX
  8
AM_0
  5
1ED77
 10
1005.19
 20
333.724
 30
0.000000
  70
    32
  0
VERTEX
  8
AM_0
  5
1ED78
 10
1005.33
 20
333.664
 30
0.000000
  70
    32
  0
VERTEX
  8
AM_0
  5
1ED79
 10
1005.46
 20
333.602
 30
0.000000
  70
    32
  0
VERTEX
  8
AM_0
  5
1ED7A
 10
1005.60
 20
333.538
 30
0.000000
  70
    32
  0
VERTEX
  8
AM_0
  5
1ED7B
 10
1005.73
 20
333.473
 30
0.000000
  70
    32
  0
VERTEX
  8
AM_0
  5
1ED7C
 10
1005.86
 20
333.406
 30
0.000000
  70
    32
  0
VERTEX
  8
AM_0
  5
1ED7D
 10
1005.99
 20
333.337
 30
0.000000
  70
    32
  0
VERTEX
  8
AM_0
  5
1ED7E
 10
1006.12
 20
333.267
 30
0.000000
  70
    32
  0
VERTEX
  8
AM_0
  5
1ED7F
 10
1006.25
 20
333.195
 30
0.000000
  70
    32
  0
VERTEX
  8
AM_0
  5
1ED80
 10
1006.37
 20
333.122
 30
0.000000
  70
    32
  0
VERTEX
  8
AM_0
  5
1ED81
 10
1006.50
 20
333.047
 30
0.000000
  70
    32
  0
VERTEX
  8
AM_0
  5
1ED82
 10
1006.63
 20
332.970
 30
0.000000
  70
    32
  0
VERTEX
  8
AM_0
  5
1ED83
 10
1006.75
 20
332.892
 30
0.000000
  70
    32
  0
VERTEX
  8
AM_0
  5
1ED84
 10
1006.88
 20
332.813
 30
0.000000
  70
    32
  0
VERTEX
  8
AM_0
  5
1ED85
 10
1007.00
 20
332.731
 30
0.000000
  70
    32
  0
VERTEX
  8
AM_0
  5
1ED86
 10
1007.12
 20
332.649
 30
0.000000
  70
    32
  0
VERTEX
  8
AM_0
  5
1ED87
 10
1007.24
 20
332.565
 30
0.000000
  70
    32
  0
VERTEX
  8
AM_0
  5
1ED88
 10
1007.36
 20
332.479
 30
0.000000
  70
    32
  0
VERTEX
  8
AM_0
  5
1ED89
 10
1007.48
 20
332.392
 30
0.000000
  70
    32
  0
VERTEX
  8
AM_0
  5
1ED8A
 10
1007.60
 20
332.304
 30
0.000000
  70
    32
  0
VERTEX
  8
AM_0
  5
1ED8B
 10
1007.71
 20
332.214
 30
0.000000
  70
    32
  0
VERTEX
  8
AM_0
  5
1ED8C
 10
1007.83
 20
332.123
 30
0.000000
  70
    32
  0
VERTEX
  8
AM_0
  5
1ED8D
 10
1007.94
 20
332.030
 30
0.000000
  70
    32
  0
VERTEX
  8
AM_0
  5
1ED8E
 10
1008.06
 20
331.936
 30
0.000000
  70
    32
  0
VERTEX
  8
AM_0
  5
1ED8F
 10
1008.17
 20
331.840
 30
0.000000
  70
    32
  0
VERTEX
  8
AM_0
  5
1ED90
 10
1008.28
 20
331.743
 30
0.000000
  70
    32
  0
VERTEX
  8
AM_0
  5
1ED91
 10
1008.39
 20
331.645
 30
0.000000
  70
    32
  0
VERTEX
  8
AM_0
  5
1ED92
 10
1008.50
 20
331.546
 30
0.000000
  70
    32
  0
VERTEX
  8
AM_0
  5
1ED93
 10
1008.61
 20
331.445
 30
0.000000
  70
    32
  0
VERTEX
  8
AM_0
  5
1ED94
 10
1008.71
 20
331.343
 30
0.000000
  70
    32
  0
VERTEX
  8
AM_0
  5
1ED95
 10
1008.82
 20
331.239
 30
0.000000
  70
    32
  0
VERTEX
  8
AM_0
  5
1ED96
 10
1008.92
 20
331.134
 30
0.000000
  70
    32
  0
VERTEX
  8
AM_0
  5
1ED97
 10
1009.02
 20
331.028
 30
0.000000
  70
    32
  0
VERTEX
  8
AM_0
  5
1ED98
 10
1009.12
 20
330.921
 30
0.000000
  70
    32
  0
VERTEX
  8
AM_0
  5
1ED99
 10
1009.22
 20
330.813
 30
0.000000
  70
    32
  0
VERTEX
  8
AM_0
  5
1ED9A
 10
1009.32
 20
330.703
 30
0.000000
  70
    32
  0
VERTEX
  8
AM_0
  5
1ED9B
 10
1009.42
 20
330.592
 30
0.000000
  70
    32
  0
VERTEX
  8
AM_0
  5
1ED9C
 10
1009.51
 20
330.480
 30
0.000000
  70
    32
  0
VERTEX
  8
AM_0
  5
1ED9D
 10
1009.61
 20
330.367
 30
0.000000
  70
    32
  0
VERTEX
  8
AM_0
  5
1ED9E
 10
1009.70
 20
330.252
 30
0.000000
  70
    32
  0
VERTEX
  8
AM_0
  5
1ED9F
 10
1009.79
 20
330.137
 30
0.000000
  70
    32
  0
VERTEX
  8
AM_0
  5
1EDA0
 10
1009.88
 20
330.020
 30
0.000000
  70
    32
  0
VERTEX
  8
AM_0
  5
1EDA1
 10
1009.97
 20
329.902
 30
0.000000
  70
    32
  0
VERTEX
  8
AM_0
  5
1EDA2
 10
1010.06
 20
329.783
 30
0.000000
  70
    32
  0
VERTEX
  8
AM_0
  5
1EDA3
 10
1010.14
 20
329.664
 30
0.000000
  70
    32
  0
VERTEX
  8
AM_0
  5
1EDA4
 10
1010.23
 20
329.543
 30
0.000000
  70
    32
  0
VERTEX
  8
AM_0
  5
1EDA5
 10
1010.31
 20
329.421
 30
0.000000
  70
    32
  0
VERTEX
  8
AM_0
  5
1EDA6
 10
1010.39
 20
329.298
 30
0.000000
  70
    32
  0
VERTEX
  8
AM_0
  5
1EDA7
 10
1010.47
 20
329.174
 30
0.000000
  70
    32
  0
VERTEX
  8
AM_0
  5
1EDA8
 10
1010.55
 20
329.049
 30
0.000000
  70
    32
  0
VERTEX
  8
AM_0
  5
1EDA9
 10
1010.62
 20
328.923
 30
0.000000
  70
    32
  0
VERTEX
  8
AM_0
  5
1EDAA
 10
1010.70
 20
328.796
 30
0.000000
  70
    32
  0
VERTEX
  8
AM_0
  5
1EDAB
 10
1010.77
 20
328.669
 30
0.000000
  70
    32
  0
VERTEX
  8
AM_0
  5
1EDAC
 10
1010.84
 20
328.540
 30
0.000000
  70
    32
  0
VERTEX
  8
AM_0
  5
1EDAD
 10
1010.92
 20
328.411
 30
0.000000
  70
    32
  0
VERTEX
  8
AM_0
  5
1EDAE
 10
1010.98
 20
328.280
 30
0.000000
  70
    32
  0
VERTEX
  8
AM_0
  5
1EDAF
 10
1011.05
 20
328.149
 30
0.000000
  70
    32
  0
VERTEX
  8
AM_0
  5
1EDB0
 10
1011.12
 20
328.017
 30
0.000000
  70
    32
  0
VERTEX
  8
AM_0
  5
1EDB1
 10
1011.18
 20
327.885
 30
0.000000
  70
    32
  0
VERTEX
  8
AM_0
  5
1EDB2
 10
1011.24
 20
327.751
 30
0.000000
  70
    32
  0
VERTEX
  8
AM_0
  5
1EDB3
 10
1011.30
 20
327.617
 30
0.000000
  70
    32
  0
VERTEX
  8
AM_0
  5
1EDB4
 10
1011.36
 20
327.482
 30
0.000000
  70
    32
  0
VERTEX
  8
AM_0
  5
1EDB5
 10
1011.42
 20
327.346
 30
0.000000
  70
    32
  0
VERTEX
  8
AM_0
  5
1EDB6
 10
1011.47
 20
327.210
 30
0.000000
  70
    32
  0
VERTEX
  8
AM_0
  5
1EDB7
 10
1011.53
 20
327.073
 30
0.000000
  70
    32
  0
VERTEX
  8
AM_0
  5
1EDB8
 10
1011.58
 20
326.935
 30
0.000000
  70
    32
  0
VERTEX
  8
AM_0
  5
1EDB9
 10
1011.63
 20
326.797
 30
0.000000
  70
    32
  0
VERTEX
  8
AM_0
  5
1EDBA
 10
1011.68
 20
326.658
 30
0.000000
  70
    32
  0
VERTEX
  8
AM_0
  5
1EDBB
 10
1011.73
 20
326.518
 30
0.000000
  70
    32
  0
VERTEX
  8
AM_0
  5
1EDBC
 10
1011.77
 20
326.378
 30
0.000000
  70
    32
  0
VERTEX
  8
AM_0
  5
1EDBD
 10
1011.82
 20
326.237
 30
0.000000
  70
    32
  0
VERTEX
  8
AM_0
  5
1EDBE
 10
1011.86
 20
326.096
 30
0.000000
  70
    32
  0
VERTEX
  8
AM_0
  5
1EDBF
 10
1011.90
 20
325.954
 30
0.000000
  70
    32
  0
VERTEX
  8
AM_0
  5
1EDC0
 10
1011.94
 20
325.812
 30
0.000000
  70
    32
  0
VERTEX
  8
AM_0
  5
1EDC1
 10
1011.97
 20
325.670
 30
0.000000
  70
    32
  0
VERTEX
  8
AM_0
  5
1EDC2
 10
1012.01
 20
325.527
 30
0.000000
  70
    32
  0
VERTEX
  8
AM_0
  5
1EDC3
 10
1012.04
 20
325.383
 30
0.000000
  70
    32
  0
VERTEX
  8
AM_0
  5
1EDC4
 10
1012.07
 20
325.239
 30
0.000000
  70
    32
  0
VERTEX
  8
AM_0
  5
1EDC5
 10
1012.10
 20
325.095
 30
0.000000
  70
    32
  0
VERTEX
  8
AM_0
  5
1EDC6
 10
1012.13
 20
324.950
 30
0.000000
  70
    32
  0
VERTEX
  8
AM_0
  5
1EDC7
 10
1012.16
 20
324.805
 30
0.000000
  70
    32
  0
VERTEX
  8
AM_0
  5
1EDC8
 10
1012.18
 20
324.660
 30
0.000000
  70
    32
  0
VERTEX
  8
AM_0
  5
1EDC9
 10
1012.20
 20
324.515
 30
0.000000
  70
    32
  0
VERTEX
  8
AM_0
  5
1EDCA
 10
1012.22
 20
324.369
 30
0.000000
  70
    32
  0
VERTEX
  8
AM_0
  5
1EDCB
 10
1012.24
 20
324.223
 30
0.000000
  70
    32
  0
VERTEX
  8
AM_0
  5
1EDCC
 10
1012.26
 20
324.077
 30
0.000000
  70
    32
  0
VERTEX
  8
AM_0
  5
1EDCD
 10
1012.27
 20
323.930
 30
0.000000
  70
    32
  0
VERTEX
  8
AM_0
  5
1EDCE
 10
1012.29
 20
323.784
 30
0.000000
  70
    32
  0
VERTEX
  8
AM_0
  5
1EDCF
 10
1012.30
 20
323.637
 30
0.000000
  70
    32
  0
VERTEX
  8
AM_0
  5
1EDD0
 10
1012.31
 20
323.490
 30
0.000000
  70
    32
  0
VERTEX
  8
AM_0
  5
1EDD1
 10
1012.32
 20
323.343
 30
0.000000
  70
    32
  0
VERTEX
  8
AM_0
  5
1EDD2
 10
1012.32
 20
323.196
 30
0.000000
  70
    32
  0
VERTEX
  8
AM_0
  5
1EDD3
 10
1012.33
 20
323.048
 30
0.000000
  70
    32
  0
VERTEX
  8
AM_0
  5
1EDD4
 10
1012.33
 20
322.901
 30
0.000000
  70
    32
  0
VERTEX
  8
AM_0
  5
1EDD5
 10
1012.33
 20
322.754
 30
0.000000
  70
    32
  0
SEQEND
  8
AM_0
  5
1EDD6
  0
LINE
  5
1E249
  8
AM_0
 10
1035.8319558989531
 20
332.25445759788329
 30
0.0
 11
1008.6235329503889
 21
332.25445759788278
 31
0.0
  0
ARC
  5
1E24A
  8
AM_0
 10
1035.8319558989531
 20
335.25445759788317
 30
0.0
 40
2.9999999999999978
 50
270.0
 51
324.3146652873416
1001
GENIUS_GENOBJ-N-FIL_13
1002
{
1000
OWNER
1000
GEN
1002
}
1001
GENIUS_GENODEF_13
1002
{
1000
HIER
1070
     0
1002
}
1002
{
1000
MANEDIT
1070
     0
1002
}
1002
{
1000
NOSEL
1070
     0
1002
}
1002
{
1000
BEHIND
1070
     0
1002
}
1002
{
1000
OTHER
1070
     0
1002
}
1002
{
1000
REACTOR
1002
}
  0
ARC
  5
1E24B
  8
AM_0
 10
1008.6235329503889
 20
335.25445759788289
 30
0.0
 40
2.9999999999999978
 50
236.4426211368301
 51
270.0
1001
GENIUS_GENOBJ-N-FIL_13
1002
{
1000
OWNER
1000
GEN
1002
}
1001
GENIUS_GENODEF_13
1002
{
1000
HIER
1070
     0
1002
}
1002
{
1000
MANEDIT
1070
     0
1002
}
1002
{
1000
NOSEL
1070
     0
1002
}
1002
{
1000
BEHIND
1070
     0
1002
}
1002
{
1000
OTHER
1070
     0
1002
}
1002
{
1000
REACTOR
1002
}
  0
LINE
  5
1E25D
  8
AM_0
 10
840.33192031837461
 20
322.75394515376888
 30
0.0
 11
840.33192031837461
 21
185.75443315703291
 31
0.0
  0
LINE
  5
1E25F
  8
ﾁｭｳｼﾝｾﾝ1
 10
903.33192213292057
 20
339.7538255113929
 30
0.0
 11
903.33192213292057
 21
176.25443315703299
 31
0.0
  0
LINE
  5
1E260
  8
AM_0
 10
888.33192213292068
 20
221.75442411632429
 30
0.0
 11
888.33192213292068
 21
190.25443315703299
 31
0.0
  0
LINE
  5
1E261
  8
AM_0
 10
883.83192213292068
 20
221.75442411632429
 30
0.0
 11
883.83192213292068
 21
190.25443315703299
 31
0.0
  0
LINE
  5
1E262
  8
ﾁｭｳｼﾝｾﾝ1
 10
858.83192213292068
 20
198.75443315703299
 30
0.0
 11
858.83192213292068
 21
177.25443315703299
 31
0.0
  0
LINE
  5
1E263
  8
ｶｸﾚｾﾝ2
 10
864.83192213292057
 20
190.25443315703299
 30
0.0
 11
864.83192213292057
 21
185.75443315703299
 31
0.0
  0
LINE
  5
1E264
  8
ｶｸﾚｾﾝ2
 10
852.83192213292068
 20
190.25443315703299
 30
0.0
 11
852.83192213292045
 21
185.75443315703299
 31
0.0
  0
LINE
  5
1E26B
  8
AM_0
 10
845.3319203183745
 20
230.75443315703299
 30
0.0
 11
881.7739167826179
 21
230.75443315703299
 31
0.0
  0
LINE
  5
1E26C
  8
AM_0
 10
883.83192213292068
 20
200.25443315703299
 30
0.0
 11
888.33192213292068
 21
200.25443315703299
 31
0.0
  0
ARC
  5
1E26D
  8
AM_0
 10
903.33192213292057
 20
270.25446360406329
 30
0.0
 40
45.0
 50
241.3755299670523
 51
270.0
  0
LINE
  5
1E26E
  8
AM_0
 10
883.83192213292068
 20
221.75442411632429
 30
0.0
 11
888.33192213292068
 21
221.75442411632429
 31
0.0
  0
CIRCLE
  5
1E271
  8
AM_0
 10
852.33192066400227
 20
218.75498205435821
 30
0.0
 40
10.5
  0
ARC
  5
1E27C
  8
AM_0
 10
845.3319203183745
 20
225.75443315703299
 30
0.0
 40
5.0
 50
90.0
 51
180.0
1001
GENIUS_GENODEF_13
1002
{
1000
HIER
1070
     0
1002
}
1002
{
1000
MANEDIT
1070
     0
1002
}
1002
{
1000
NOSEL
1070
     0
1002
}
1002
{
1000
BEHIND
1070
     0
1002
}
1002
{
1000
OTHER
1070
     0
1002
}
1002
{
1000
REACTOR
1002
}
1001
GENIUS_GENOBJ-N-FIL_13
1002
{
1000
OWNER
1000
GEN
1002
}
  0
POLYLINE
  5
1E283
  8
AM_0
 10
846.83192050558989
 20
322.75394515376888
 30
0.0
 66
     1
 70
     8
  0
VERTEX
  8
AM_0
  5
1EDD7
 10
846.832
 20
322.754
 30
0.000000
  70
    32
  0
VERTEX
  8
AM_0
  5
1EDD8
 10
846.839
 20
323.024
 30
0.000000
  70
    32
  0
VERTEX
  8
AM_0
  5
1EDD9
 10
846.858
 20
323.293
 30
0.000000
  70
    32
  0
VERTEX
  8
AM_0
  5
1EDDA
 10
846.891
 20
323.561
 30
0.000000
  70
    32
  0
VERTEX
  8
AM_0
  5
1EDDB
 10
846.938
 20
323.827
 30
0.000000
  70
    32
  0
VERTEX
  8
AM_0
  5
1EDDC
 10
846.997
 20
324.090
 30
0.000000
  70
    32
  0
VERTEX
  8
AM_0
  5
1EDDD
 10
847.069
 20
324.350
 30
0.000000
  70
    32
  0
VERTEX
  8
AM_0
  5
1EDDE
 10
847.153
 20
324.607
 30
0.000000
  70
    32
  0
VERTEX
  8
AM_0
  5
1EDDF
 10
847.251
 20
324.859
 30
0.000000
  70
    32
  0
VERTEX
  8
AM_0
  5
1EDE0
 10
847.360
 20
325.105
 30
0.000000
  70
    32
  0
VERTEX
  8
AM_0
  5
1EDE1
 10
847.481
 20
325.347
 30
0.000000
  70
    32
  0
VERTEX
  8
AM_0
  5
1EDE2
 10
847.614
 20
325.581
 30
0.000000
  70
    32
  0
VERTEX
  8
AM_0
  5
1EDE3
 10
847.759
 20
325.810
 30
0.000000
  70
    32
  0
VERTEX
  8
AM_0
  5
1EDE4
 10
847.914
 20
326.030
 30
0.000000
  70
    32
  0
VERTEX
  8
AM_0
  5
1EDE5
 10
848.080
 20
326.243
 30
0.000000
  70
    32
  0
VERTEX
  8
AM_0
  5
1EDE6
 10
848.257
 20
326.447
 30
0.000000
  70
    32
  0
VERTEX
  8
AM_0
  5
1EDE7
 10
848.443
 20
326.643
 30
0.000000
  70
    32
  0
VERTEX
  8
AM_0
  5
1EDE8
 10
848.638
 20
326.829
 30
0.000000
  70
    32
  0
VERTEX
  8
AM_0
  5
1EDE9
 10
848.843
 20
327.005
 30
0.000000
  70
    32
  0
VERTEX
  8
AM_0
  5
1EDEA
 10
849.056
 20
327.172
 30
0.000000
  70
    32
  0
VERTEX
  8
AM_0
  5
1EDEB
 10
849.276
 20
327.327
 30
0.000000
  70
    32
  0
VERTEX
  8
AM_0
  5
1EDEC
 10
849.504
 20
327.471
 30
0.000000
  70
    32
  0
VERTEX
  8
AM_0
  5
1EDED
 10
849.739
 20
327.604
 30
0.000000
  70
    32
  0
VERTEX
  8
AM_0
  5
1EDEE
 10
849.980
 20
327.726
 30
0.000000
  70
    32
  0
VERTEX
  8
AM_0
  5
1EDEF
 10
850.227
 20
327.835
 30
0.000000
  70
    32
  0
VERTEX
  8
AM_0
  5
1EDF0
 10
850.479
 20
327.932
 30
0.000000
  70
    32
  0
VERTEX
  8
AM_0
  5
1EDF1
 10
850.735
 20
328.017
 30
0.000000
  70
    32
  0
VERTEX
  8
AM_0
  5
1EDF2
 10
850.996
 20
328.089
 30
0.000000
  70
    32
  0
VERTEX
  8
AM_0
  5
1EDF3
 10
851.259
 20
328.148
 30
0.000000
  70
    32
  0
VERTEX
  8
AM_0
  5
1EDF4
 10
851.525
 20
328.194
 30
0.000000
  70
    32
  0
VERTEX
  8
AM_0
  5
1EDF5
 10
851.793
 20
328.227
 30
0.000000
  70
    32
  0
VERTEX
  8
AM_0
  5
1EDF6
 10
852.062
 20
328.247
 30
0.000000
  70
    32
  0
VERTEX
  8
AM_0
  5
1EDF7
 10
852.332
 20
328.254
 30
0.000000
  70
    32
  0
VERTEX
  8
AM_0
  5
1EDF8
 10
852.602
 20
328.247
 30
0.000000
  70
    32
  0
VERTEX
  8
AM_0
  5
1EDF9
 10
852.871
 20
328.227
 30
0.000000
  70
    32
  0
VERTEX
  8
AM_0
  5
1EDFA
 10
853.139
 20
328.194
 30
0.000000
  70
    32
  0
VERTEX
  8
AM_0
  5
1EDFB
 10
853.405
 20
328.148
 30
0.000000
  70
    32
  0
VERTEX
  8
AM_0
  5
1EDFC
 10
853.668
 20
328.089
 30
0.000000
  70
    32
  0
VERTEX
  8
AM_0
  5
1EDFD
 10
853.928
 20
328.017
 30
0.000000
  70
    32
  0
VERTEX
  8
AM_0
  5
1EDFE
 10
854.185
 20
327.932
 30
0.000000
  70
    32
  0
VERTEX
  8
AM_0
  5
1EDFF
 10
854.437
 20
327.835
 30
0.000000
  70
    32
  0
VERTEX
  8
AM_0
  5
1EE00
 10
854.683
 20
327.726
 30
0.000000
  70
    32
  0
VERTEX
  8
AM_0
  5
1EE01
 10
854.925
 20
327.604
 30
0.000000
  70
    32
  0
VERTEX
  8
AM_0
  5
1EE02
 10
855.159
 20
327.471
 30
0.000000
  70
    32
  0
VERTEX
  8
AM_0
  5
1EE03
 10
855.388
 20
327.327
 30
0.000000
  70
    32
  0
VERTEX
  8
AM_0
  5
1EE04
 10
855.608
 20
327.172
 30
0.000000
  70
    32
  0
VERTEX
  8
AM_0
  5
1EE05
 10
855.821
 20
327.005
 30
0.000000
  70
    32
  0
VERTEX
  8
AM_0
  5
1EE06
 10
856.025
 20
326.829
 30
0.000000
  70
    32
  0
VERTEX
  8
AM_0
  5
1EE07
 10
856.221
 20
326.643
 30
0.000000
  70
    32
  0
VERTEX
  8
AM_0
  5
1EE08
 10
856.407
 20
326.447
 30
0.000000
  70
    32
  0
VERTEX
  8
AM_0
  5
1EE09
 10
856.583
 20
326.243
 30
0.000000
  70
    32
  0
VERTEX
  8
AM_0
  5
1EE0A
 10
856.750
 20
326.030
 30
0.000000
  70
    32
  0
VERTEX
  8
AM_0
  5
1EE0B
 10
856.905
 20
325.810
 30
0.000000
  70
    32
  0
VERTEX
  8
AM_0
  5
1EE0C
 10
857.049
 20
325.581
 30
0.000000
  70
    32
  0
VERTEX
  8
AM_0
  5
1EE0D
 10
857.182
 20
325.347
 30
0.000000
  70
    32
  0
VERTEX
  8
AM_0
  5
1EE0E
 10
857.304
 20
325.105
 30
0.000000
  70
    32
  0
VERTEX
  8
AM_0
  5
1EE0F
 10
857.413
 20
324.859
 30
0.000000
  70
    32
  0
VERTEX
  8
AM_0
  5
1EE10
 10
857.510
 20
324.607
 30
0.000000
  70
    32
  0
VERTEX
  8
AM_0
  5
1EE11
 10
857.595
 20
324.350
 30
0.000000
  70
    32
  0
VERTEX
  8
AM_0
  5
1EE12
 10
857.667
 20
324.090
 30
0.000000
  70
    32
  0
VERTEX
  8
AM_0
  5
1EE13
 10
857.726
 20
323.827
 30
0.000000
  70
    32
  0
VERTEX
  8
AM_0
  5
1EE14
 10
857.772
 20
323.561
 30
0.000000
  70
    32
  0
VERTEX
  8
AM_0
  5
1EE15
 10
857.805
 20
323.293
 30
0.000000
  70
    32
  0
VERTEX
  8
AM_0
  5
1EE16
 10
857.825
 20
323.024
 30
0.000000
  70
    32
  0
VERTEX
  8
AM_0
  5
1EE17
 10
857.832
 20
322.754
 30
0.000000
  70
    32
  0
VERTEX
  8
AM_0
  5
1EE18
 10
857.825
 20
322.484
 30
0.000000
  70
    32
  0
VERTEX
  8
AM_0
  5
1EE19
 10
857.805
 20
322.215
 30
0.000000
  70
    32
  0
VERTEX
  8
AM_0
  5
1EE1A
 10
857.772
 20
321.947
 30
0.000000
  70
    32
  0
VERTEX
  8
AM_0
  5
1EE1B
 10
857.726
 20
321.681
 30
0.000000
  70
    32
  0
VERTEX
  8
AM_0
  5
1EE1C
 10
857.667
 20
321.418
 30
0.000000
  70
    32
  0
VERTEX
  8
AM_0
  5
1EE1D
 10
857.595
 20
321.157
 30
0.000000
  70
    32
  0
VERTEX
  8
AM_0
  5
1EE1E
 10
857.510
 20
320.901
 30
0.000000
  70
    32
  0
VERTEX
  8
AM_0
  5
1EE1F
 10
857.413
 20
320.649
 30
0.000000
  70
    32
  0
VERTEX
  8
AM_0
  5
1EE20
 10
857.304
 20
320.402
 30
0.000000
  70
    32
  0
VERTEX
  8
AM_0
  5
1EE21
 10
857.182
 20
320.161
 30
0.000000
  70
    32
  0
VERTEX
  8
AM_0
  5
1EE22
 10
857.049
 20
319.926
 30
0.000000
  70
    32
  0
VERTEX
  8
AM_0
  5
1EE23
 10
856.905
 20
319.698
 30
0.000000
  70
    32
  0
VERTEX
  8
AM_0
  5
1EE24
 10
856.750
 20
319.478
 30
0.000000
  70
    32
  0
VERTEX
  8
AM_0
  5
1EE25
 10
856.583
 20
319.265
 30
0.000000
  70
    32
  0
VERTEX
  8
AM_0
  5
1EE26
 10
856.407
 20
319.060
 30
0.000000
  70
    32
  0
VERTEX
  8
AM_0
  5
1EE27
 10
856.221
 20
318.865
 30
0.000000
  70
    32
  0
VERTEX
  8
AM_0
  5
1EE28
 10
856.025
 20
318.679
 30
0.000000
  70
    32
  0
VERTEX
  8
AM_0
  5
1EE29
 10
855.821
 20
318.502
 30
0.000000
  70
    32
  0
VERTEX
  8
AM_0
  5
1EE2A
 10
855.608
 20
318.336
 30
0.000000
  70
    32
  0
VERTEX
  8
AM_0
  5
1EE2B
 10
855.388
 20
318.181
 30
0.000000
  70
    32
  0
VERTEX
  8
AM_0
  5
1EE2C
 10
855.159
 20
318.036
 30
0.000000
  70
    32
  0
VERTEX
  8
AM_0
  5
1EE2D
 10
854.925
 20
317.903
 30
0.000000
  70
    32
  0
VERTEX
  8
AM_0
  5
1EE2E
 10
854.683
 20
317.782
 30
0.000000
  70
    32
  0
VERTEX
  8
AM_0
  5
1EE2F
 10
854.437
 20
317.673
 30
0.000000
  70
    32
  0
VERTEX
  8
AM_0
  5
1EE30
 10
854.185
 20
317.576
 30
0.000000
  70
    32
  0
VERTEX
  8
AM_0
  5
1EE31
 10
853.928
 20
317.491
 30
0.000000
  70
    32
  0
VERTEX
  8
AM_0
  5
1EE32
 10
853.668
 20
317.419
 30
0.000000
  70
    32
  0
VERTEX
  8
AM_0
  5
1EE33
 10
853.405
 20
317.360
 30
0.000000
  70
    32
  0
VERTEX
  8
AM_0
  5
1EE34
 10
853.139
 20
317.314
 30
0.000000
  70
    32
  0
VERTEX
  8
AM_0
  5
1EE35
 10
852.871
 20
317.280
 30
0.000000
  70
    32
  0
VERTEX
  8
AM_0
  5
1EE36
 10
852.602
 20
317.261
 30
0.000000
  70
    32
  0
VERTEX
  8
AM_0
  5
1EE37
 10
852.332
 20
317.254
 30
0.000000
  70
    32
  0
VERTEX
  8
AM_0
  5
1EE38
 10
852.062
 20
317.261
 30
0.000000
  70
    32
  0
VERTEX
  8
AM_0
  5
1EE39
 10
851.793
 20
317.280
 30
0.000000
  70
    32
  0
VERTEX
  8
AM_0
  5
1EE3A
 10
851.525
 20
317.314
 30
0.000000
  70
    32
  0
VERTEX
  8
AM_0
  5
1EE3B
 10
851.259
 20
317.360
 30
0.000000
  70
    32
  0
VERTEX
  8
AM_0
  5
1EE3C
 10
850.996
 20
317.419
 30
0.000000
  70
    32
  0
VERTEX
  8
AM_0
  5
1EE3D
 10
850.735
 20
317.491
 30
0.000000
  70
    32
  0
VERTEX
  8
AM_0
  5
1EE3E
 10
850.479
 20
317.576
 30
0.000000
  70
    32
  0
VERTEX
  8
AM_0
  5
1EE3F
 10
850.227
 20
317.673
 30
0.000000
  70
    32
  0
VERTEX
  8
AM_0
  5
1EE40
 10
849.980
 20
317.782
 30
0.000000
  70
    32
  0
VERTEX
  8
AM_0
  5
1EE41
 10
849.739
 20
317.903
 30
0.000000
  70
    32
  0
VERTEX
  8
AM_0
  5
1EE42
 10
849.504
 20
318.036
 30
0.000000
  70
    32
  0
VERTEX
  8
AM_0
  5
1EE43
 10
849.276
 20
318.181
 30
0.000000
  70
    32
  0
VERTEX
  8
AM_0
  5
1EE44
 10
849.056
 20
318.336
 30
0.000000
  70
    32
  0
VERTEX
  8
AM_0
  5
1EE45
 10
848.843
 20
318.502
 30
0.000000
  70
    32
  0
VERTEX
  8
AM_0
  5
1EE46
 10
848.638
 20
318.679
 30
0.000000
  70
    32
  0
VERTEX
  8
AM_0
  5
1EE47
 10
848.443
 20
318.865
 30
0.000000
  70
    32
  0
VERTEX
  8
AM_0
  5
1EE48
 10
848.257
 20
319.060
 30
0.000000
  70
    32
  0
VERTEX
  8
AM_0
  5
1EE49
 10
848.080
 20
319.265
 30
0.000000
  70
    32
  0
VERTEX
  8
AM_0
  5
1EE4A
 10
847.914
 20
319.478
 30
0.000000
  70
    32
  0
VERTEX
  8
AM_0
  5
1EE4B
 10
847.759
 20
319.698
 30
0.000000
  70
    32
  0
VERTEX
  8
AM_0
  5
1EE4C
 10
847.614
 20
319.926
 30
0.000000
  70
    32
  0
VERTEX
  8
AM_0
  5
1EE4D
 10
847.481
 20
320.161
 30
0.000000
  70
    32
  0
VERTEX
  8
AM_0
  5
1EE4E
 10
847.360
 20
320.402
 30
0.000000
  70
    32
  0
VERTEX
  8
AM_0
  5
1EE4F
 10
847.251
 20
320.649
 30
0.000000
  70
    32
  0
VERTEX
  8
AM_0
  5
1EE50
 10
847.153
 20
320.901
 30
0.000000
  70
    32
  0
VERTEX
  8
AM_0
  5
1EE51
 10
847.069
 20
321.157
 30
0.000000
  70
    32
  0
VERTEX
  8
AM_0
  5
1EE52
 10
846.997
 20
321.418
 30
0.000000
  70
    32
  0
VERTEX
  8
AM_0
  5
1EE53
 10
846.938
 20
321.681
 30
0.000000
  70
    32
  0
VERTEX
  8
AM_0
  5
1EE54
 10
846.891
 20
321.947
 30
0.000000
  70
    32
  0
VERTEX
  8
AM_0
  5
1EE55
 10
846.858
 20
322.215
 30
0.000000
  70
    32
  0
VERTEX
  8
AM_0
  5
1EE56
 10
846.839
 20
322.484
 30
0.000000
  70
    32
  0
VERTEX
  8
AM_0
  5
1EE57
 10
846.832
 20
322.754
 30
0.000000
  70
    32
  0
SEQEND
  8
AM_0
  5
1EE58
  0
POLYLINE
  5
1E294
  8
AM_0
 10
840.33192031837473
 20
322.75394515376888
 30
0.0
 66
     1
 70
     8
  0
VERTEX
  8
AM_0
  5
1EE59
 10
840.332
 20
322.754
 30
0.000000
  70
    32
  0
VERTEX
  8
AM_0
  5
1EE5A
 10
840.333
 20
322.901
 30
0.000000
  70
    32
  0
VERTEX
  8
AM_0
  5
1EE5B
 10
840.336
 20
323.048
 30
0.000000
  70
    32
  0
VERTEX
  8
AM_0
  5
1EE5C
 10
840.340
 20
323.196
 30
0.000000
  70
    32
  0
VERTEX
  8
AM_0
  5
1EE5D
 10
840.346
 20
323.343
 30
0.000000
  70
    32
  0
VERTEX
  8
AM_0
  5
1EE5E
 10
840.355
 20
323.490
 30
0.000000
  70
    32
  0
VERTEX
  8
AM_0
  5
1EE5F
 10
840.364
 20
323.637
 30
0.000000
  70
    32
  0
VERTEX
  8
AM_0
  5
1EE60
 10
840.376
 20
323.784
 30
0.000000
  70
    32
  0
VERTEX
  8
AM_0
  5
1EE61
 10
840.390
 20
323.930
 30
0.000000
  70
    32
  0
VERTEX
  8
AM_0
  5
1EE62
 10
840.405
 20
324.077
 30
0.000000
  70
    32
  0
VERTEX
  8
AM_0
  5
1EE63
 10
840.422
 20
324.223
 30
0.000000
  70
    32
  0
VERTEX
  8
AM_0
  5
1EE64
 10
840.441
 20
324.369
 30
0.000000
  70
    32
  0
VERTEX
  8
AM_0
  5
1EE65
 10
840.462
 20
324.515
 30
0.000000
  70
    32
  0
VERTEX
  8
AM_0
  5
1EE66
 10
840.484
 20
324.660
 30
0.000000
  70
    32
  0
VERTEX
  8
AM_0
  5
1EE67
 10
840.509
 20
324.805
 30
0.000000
  70
    32
  0
VERTEX
  8
AM_0
  5
1EE68
 10
840.535
 20
324.950
 30
0.000000
  70
    32
  0
VERTEX
  8
AM_0
  5
1EE69
 10
840.562
 20
325.095
 30
0.000000
  70
    32
  0
VERTEX
  8
AM_0
  5
1EE6A
 10
840.592
 20
325.239
 30
0.000000
  70
    32
  0
VERTEX
  8
AM_0
  5
1EE6B
 10
840.623
 20
325.383
 30
0.000000
  70
    32
  0
VERTEX
  8
AM_0
  5
1EE6C
 10
840.657
 20
325.527
 30
0.000000
  70
    32
  0
VERTEX
  8
AM_0
  5
1EE6D
 10
840.692
 20
325.670
 30
0.000000
  70
    32
  0
VERTEX
  8
AM_0
  5
1EE6E
 10
840.728
 20
325.812
 30
0.000000
  70
    32
  0
VERTEX
  8
AM_0
  5
1EE6F
 10
840.767
 20
325.954
 30
0.000000
  70
    32
  0
VERTEX
  8
AM_0
  5
1EE70
 10
840.807
 20
326.096
 30
0.000000
  70
    32
  0
VERTEX
  8
AM_0
  5
1EE71
 10
840.849
 20
326.237
 30
0.000000
  70
    32
  0
VERTEX
  8
AM_0
  5
1EE72
 10
840.892
 20
326.378
 30
0.000000
  70
    32
  0
VERTEX
  8
AM_0
  5
1EE73
 10
840.938
 20
326.518
 30
0.000000
  70
    32
  0
VERTEX
  8
AM_0
  5
1EE74
 10
840.985
 20
326.658
 30
0.000000
  70
    32
  0
VERTEX
  8
AM_0
  5
1EE75
 10
841.033
 20
326.797
 30
0.000000
  70
    32
  0
VERTEX
  8
AM_0
  5
1EE76
 10
841.084
 20
326.935
 30
0.000000
  70
    32
  0
VERTEX
  8
AM_0
  5
1EE77
 10
841.136
 20
327.073
 30
0.000000
  70
    32
  0
VERTEX
  8
AM_0
  5
1EE78
 10
841.190
 20
327.210
 30
0.000000
  70
    32
  0
VERTEX
  8
AM_0
  5
1EE79
 10
841.245
 20
327.346
 30
0.000000
  70
    32
  0
VERTEX
  8
AM_0
  5
1EE7A
 10
841.303
 20
327.482
 30
0.000000
  70
    32
  0
VERTEX
  8
AM_0
  5
1EE7B
 10
841.361
 20
327.617
 30
0.000000
  70
    32
  0
VERTEX
  8
AM_0
  5
1EE7C
 10
841.422
 20
327.751
 30
0.000000
  70
    32
  0
VERTEX
  8
AM_0
  5
1EE7D
 10
841.484
 20
327.885
 30
0.000000
  70
    32
  0
VERTEX
  8
AM_0
  5
1EE7E
 10
841.548
 20
328.017
 30
0.000000
  70
    32
  0
VERTEX
  8
AM_0
  5
1EE7F
 10
841.613
 20
328.149
 30
0.000000
  70
    32
  0
VERTEX
  8
AM_0
  5
1EE80
 10
841.680
 20
328.280
 30
0.000000
  70
    32
  0
VERTEX
  8
AM_0
  5
1EE81
 10
841.749
 20
328.411
 30
0.000000
  70
    32
  0
VERTEX
  8
AM_0
  5
1EE82
 10
841.819
 20
328.540
 30
0.000000
  70
    32
  0
VERTEX
  8
AM_0
  5
1EE83
 10
841.891
 20
328.669
 30
0.000000
  70
    32
  0
VERTEX
  8
AM_0
  5
1EE84
 10
841.964
 20
328.796
 30
0.000000
  70
    32
  0
VERTEX
  8
AM_0
  5
1EE85
 10
842.039
 20
328.923
 30
0.000000
  70
    32
  0
VERTEX
  8
AM_0
  5
1EE86
 10
842.116
 20
329.049
 30
0.000000
  70
    32
  0
VERTEX
  8
AM_0
  5
1EE87
 10
842.194
 20
329.174
 30
0.000000
  70
    32
  0
VERTEX
  8
AM_0
  5
1EE88
 10
842.273
 20
329.298
 30
0.000000
  70
    32
  0
VERTEX
  8
AM_0
  5
1EE89
 10
842.354
 20
329.421
 30
0.000000
  70
    32
  0
VERTEX
  8
AM_0
  5
1EE8A
 10
842.437
 20
329.543
 30
0.000000
  70
    32
  0
VERTEX
  8
AM_0
  5
1EE8B
 10
842.521
 20
329.664
 30
0.000000
  70
    32
  0
VERTEX
  8
AM_0
  5
1EE8C
 10
842.606
 20
329.783
 30
0.000000
  70
    32
  0
VERTEX
  8
AM_0
  5
1EE8D
 10
842.693
 20
329.902
 30
0.000000
  70
    32
  0
VERTEX
  8
AM_0
  5
1EE8E
 10
842.782
 20
330.020
 30
0.000000
  70
    32
  0
VERTEX
  8
AM_0
  5
1EE8F
 10
842.872
 20
330.137
 30
0.000000
  70
    32
  0
VERTEX
  8
AM_0
  5
1EE90
 10
842.963
 20
330.252
 30
0.000000
  70
    32
  0
VERTEX
  8
AM_0
  5
1EE91
 10
843.056
 20
330.367
 30
0.000000
  70
    32
  0
VERTEX
  8
AM_0
  5
1EE92
 10
843.150
 20
330.480
 30
0.000000
  70
    32
  0
VERTEX
  8
AM_0
  5
1EE93
 10
843.245
 20
330.592
 30
0.000000
  70
    32
  0
VERTEX
  8
AM_0
  5
1EE94
 10
843.342
 20
330.703
 30
0.000000
  70
    32
  0
VERTEX
  8
AM_0
  5
1EE95
 10
843.441
 20
330.813
 30
0.000000
  70
    32
  0
VERTEX
  8
AM_0
  5
1EE96
 10
843.540
 20
330.921
 30
0.000000
  70
    32
  0
VERTEX
  8
AM_0
  5
1EE97
 10
843.641
 20
331.028
 30
0.000000
  70
    32
  0
VERTEX
  8
AM_0
  5
1EE98
 10
843.743
 20
331.134
 30
0.000000
  70
    32
  0
VERTEX
  8
AM_0
  5
1EE99
 10
843.847
 20
331.239
 30
0.000000
  70
    32
  0
VERTEX
  8
AM_0
  5
1EE9A
 10
843.951
 20
331.343
 30
0.000000
  70
    32
  0
VERTEX
  8
AM_0
  5
1EE9B
 10
844.057
 20
331.445
 30
0.000000
  70
    32
  0
VERTEX
  8
AM_0
  5
1EE9C
 10
844.165
 20
331.546
 30
0.000000
  70
    32
  0
VERTEX
  8
AM_0
  5
1EE9D
 10
844.273
 20
331.645
 30
0.000000
  70
    32
  0
VERTEX
  8
AM_0
  5
1EE9E
 10
844.383
 20
331.743
 30
0.000000
  70
    32
  0
VERTEX
  8
AM_0
  5
1EE9F
 10
844.494
 20
331.840
 30
0.000000
  70
    32
  0
VERTEX
  8
AM_0
  5
1EEA0
 10
844.606
 20
331.936
 30
0.000000
  70
    32
  0
VERTEX
  8
AM_0
  5
1EEA1
 10
844.719
 20
332.030
 30
0.000000
  70
    32
  0
VERTEX
  8
AM_0
  5
1EEA2
 10
844.834
 20
332.123
 30
0.000000
  70
    32
  0
VERTEX
  8
AM_0
  5
1EEA3
 10
844.949
 20
332.214
 30
0.000000
  70
    32
  0
VERTEX
  8
AM_0
  5
1EEA4
 10
845.066
 20
332.304
 30
0.000000
  70
    32
  0
VERTEX
  8
AM_0
  5
1EEA5
 10
845.184
 20
332.392
 30
0.000000
  70
    32
  0
VERTEX
  8
AM_0
  5
1EEA6
 10
845.302
 20
332.479
 30
0.000000
  70
    32
  0
VERTEX
  8
AM_0
  5
1EEA7
 10
845.422
 20
332.565
 30
0.000000
  70
    32
  0
VERTEX
  8
AM_0
  5
1EEA8
 10
845.543
 20
332.649
 30
0.000000
  70
    32
  0
VERTEX
  8
AM_0
  5
1EEA9
 10
845.665
 20
332.731
 30
0.000000
  70
    32
  0
VERTEX
  8
AM_0
  5
1EEAA
 10
845.788
 20
332.813
 30
0.000000
  70
    32
  0
VERTEX
  8
AM_0
  5
1EEAB
 10
845.912
 20
332.892
 30
0.000000
  70
    32
  0
VERTEX
  8
AM_0
  5
1EEAC
 10
846.037
 20
332.970
 30
0.000000
  70
    32
  0
VERTEX
  8
AM_0
  5
1EEAD
 10
846.163
 20
333.047
 30
0.000000
  70
    32
  0
VERTEX
  8
AM_0
  5
1EEAE
 10
846.289
 20
333.122
 30
0.000000
  70
    32
  0
VERTEX
  8
AM_0
  5
1EEAF
 10
846.417
 20
333.195
 30
0.000000
  70
    32
  0
VERTEX
  8
AM_0
  5
1EEB0
 10
846.546
 20
333.267
 30
0.000000
  70
    32
  0
VERTEX
  8
AM_0
  5
1EEB1
 10
846.675
 20
333.337
 30
0.000000
  70
    32
  0
VERTEX
  8
AM_0
  5
1EEB2
 10
846.805
 20
333.406
 30
0.000000
  70
    32
  0
VERTEX
  8
AM_0
  5
1EEB3
 10
846.937
 20
333.473
 30
0.000000
  70
    32
  0
VERTEX
  8
AM_0
  5
1EEB4
 10
847.069
 20
333.538
 30
0.000000
  70
    32
  0
VERTEX
  8
AM_0
  5
1EEB5
 10
847.201
 20
333.602
 30
0.000000
  70
    32
  0
VERTEX
  8
AM_0
  5
1EEB6
 10
847.335
 20
333.664
 30
0.000000
  70
    32
  0
VERTEX
  8
AM_0
  5
1EEB7
 10
847.469
 20
333.724
 30
0.000000
  70
    32
  0
VERTEX
  8
AM_0
  5
1EEB8
 10
847.604
 20
333.783
 30
0.000000
  70
    32
  0
VERTEX
  8
AM_0
  5
1EEB9
 10
847.740
 20
333.840
 30
0.000000
  70
    32
  0
VERTEX
  8
AM_0
  5
1EEBA
 10
847.876
 20
333.896
 30
0.000000
  70
    32
  0
VERTEX
  8
AM_0
  5
1EEBB
 10
848.013
 20
333.950
 30
0.000000
  70
    32
  0
VERTEX
  8
AM_0
  5
1EEBC
 10
848.151
 20
334.002
 30
0.000000
  70
    32
  0
VERTEX
  8
AM_0
  5
1EEBD
 10
848.289
 20
334.052
 30
0.000000
  70
    32
  0
VERTEX
  8
AM_0
  5
1EEBE
 10
848.428
 20
334.101
 30
0.000000
  70
    32
  0
VERTEX
  8
AM_0
  5
1EEBF
 10
848.568
 20
334.148
 30
0.000000
  70
    32
  0
VERTEX
  8
AM_0
  5
1EEC0
 10
848.708
 20
334.194
 30
0.000000
  70
    32
  0
VERTEX
  8
AM_0
  5
1EEC1
 10
848.849
 20
334.237
 30
0.000000
  70
    32
  0
VERTEX
  8
AM_0
  5
1EEC2
 10
848.990
 20
334.279
 30
0.000000
  70
    32
  0
VERTEX
  8
AM_0
  5
1EEC3
 10
849.131
 20
334.319
 30
0.000000
  70
    32
  0
VERTEX
  8
AM_0
  5
1EEC4
 10
849.274
 20
334.358
 30
0.000000
  70
    32
  0
VERTEX
  8
AM_0
  5
1EEC5
 10
849.416
 20
334.394
 30
0.000000
  70
    32
  0
VERTEX
  8
AM_0
  5
1EEC6
 10
849.559
 20
334.429
 30
0.000000
  70
    32
  0
VERTEX
  8
AM_0
  5
1EEC7
 10
849.703
 20
334.462
 30
0.000000
  70
    32
  0
VERTEX
  8
AM_0
  5
1EEC8
 10
849.847
 20
334.494
 30
0.000000
  70
    32
  0
VERTEX
  8
AM_0
  5
1EEC9
 10
849.991
 20
334.523
 30
0.000000
  70
    32
  0
VERTEX
  8
AM_0
  5
1EECA
 10
850.135
 20
334.551
 30
0.000000
  70
    32
  0
VERTEX
  8
AM_0
  5
1EECB
 10
850.280
 20
334.577
 30
0.000000
  70
    32
  0
VERTEX
  8
AM_0
  5
1EECC
 10
850.426
 20
334.601
 30
0.000000
  70
    32
  0
VERTEX
  8
AM_0
  5
1EECD
 10
850.571
 20
334.624
 30
0.000000
  70
    32
  0
VERTEX
  8
AM_0
  5
1EECE
 10
850.717
 20
334.645
 30
0.000000
  70
    32
  0
VERTEX
  8
AM_0
  5
1EECF
 10
850.863
 20
334.664
 30
0.000000
  70
    32
  0
VERTEX
  8
AM_0
  5
1EED0
 10
851.009
 20
334.681
 30
0.000000
  70
    32
  0
VERTEX
  8
AM_0
  5
1EED1
 10
851.156
 20
334.696
 30
0.000000
  70
    32
  0
VERTEX
  8
AM_0
  5
1EED2
 10
851.302
 20
334.710
 30
0.000000
  70
    32
  0
VERTEX
  8
AM_0
  5
1EED3
 10
851.449
 20
334.721
 30
0.000000
  70
    32
  0
VERTEX
  8
AM_0
  5
1EED4
 10
851.596
 20
334.731
 30
0.000000
  70
    32
  0
VERTEX
  8
AM_0
  5
1EED5
 10
851.743
 20
334.739
 30
0.000000
  70
    32
  0
VERTEX
  8
AM_0
  5
1EED6
 10
851.890
 20
334.746
 30
0.000000
  70
    32
  0
VERTEX
  8
AM_0
  5
1EED7
 10
852.037
 20
334.750
 30
0.000000
  70
    32
  0
VERTEX
  8
AM_0
  5
1EED8
 10
852.185
 20
334.753
 30
0.000000
  70
    32
  0
VERTEX
  8
AM_0
  5
1EED9
 10
852.332
 20
334.754
 30
0.000000
  70
    32
  0
SEQEND
  8
AM_0
  5
1EEDA
  0
CIRCLE
  5
1E295
  8
AM_0
 10
903.33192213292057
 20
270.75446360406329
 30
0.0
 40
22.50000067055224
  0
LINE
  5
1E296
  8
AM_0
 10
1095.3319558989519
 20
500.49813867263703
 30
0.0
 11
1095.3319558989519
 21
495.12813867263702
 31
0.0
  0
LINE
  5
1E297
  8
AM_0
 10
1080.3319558989531
 20
500.49813867263691
 30
0.0
 11
1080.3319558989531
 21
495.12813867263702
 31
0.0
  0
LINE
  5
1E298
  8
AM_0
 10
1058.8319558989519
 20
587.99813867263697
 30
0.0
 11
1058.8319561552
 21
464.49813837232932
 31
0.0
  0
LINE
  5
1E299
  8
AM_0
 10
1204.8319558989519
 20
470.07815867263702
 30
0.0
 11
1204.8319558989519
 21
584.92815867263698
 31
0.0
  0
LINE
  5
1E29A
  8
AM_0
 10
1210.8319558989519
 20
479.4785486726372
 30
0.0
 11
1210.8319558989519
 21
522.49813867263686
 31
0.0
  0
LINE
  5
1E29B
  8
AM_0
 10
1096.3319558989531
 20
501.4981386726372
 30
0.0
 11
1197.281935898952
 21
501.4981386726372
 31
0.0
  0
LINE
  5
1E29C
  8
AM_0
 10
1061.9071698124269
 20
503.49813867263708
 30
0.0
 11
1197.281935898952
 21
503.49813867263708
 31
0.0
  0
LINE
  5
1E29D
  8
AM_0
 10
1198.371935898952
 20
503.9281586726371
 30
0.0
 11
1060.9871997503969
 21
503.9281586726371
 31
0.0
  0
LINE
  5
1E29E
  8
AM_0
 10
1198.371935898952
 20
501.00814867263699
 30
0.0
 11
1095.47178742714
 21
501.00814867263699
 31
0.0
  0
LINE
  5
1E29F
  8
AM_0
 10
1198.501945898952
 20
513.80813867263714
 30
0.0
 11
1126.1019292292369
 21
513.80813867263714
 31
0.0
  0
LINE
  5
1E2A0
  8
AM_0
 10
1127.3919237045061
 20
513.4981386726372
 30
0.0
 11
1197.281935898952
 21
513.4981386726372
 31
0.0
  0
LINE
  5
1E2A1
  8
AM_0
 10
1127.3919237045061
 20
511.4981386726372
 30
0.0
 11
1197.281935898952
 21
511.4981386726372
 31
0.0
  0
LINE
  5
1E2A2
  8
AM_0
 10
1198.501945898952
 20
511.14815867263701
 30
0.0
 11
1126.1019292292369
 21
511.14815867263701
 31
0.0
  0
LINE
  5
1E2A3
  8
AM_0
 10
1157.8319558989519
 20
573.84814867263731
 30
0.0
 11
1194.8319558989519
 21
571.70214683320683
 31
0.0
  0
LINE
  5
1E2A4
  8
AM_0
 10
1158.8319558989519
 20
573.83807867263727
 30
0.0
 11
1065.011945898952
 21
573.83807867263727
 31
0.0
  0
LINE
  5
1E2A5
  8
AM_0
 10
1096.321001612125
 20
553.49813867263708
 30
0.0
 11
1188.281935898952
 21
553.49813867263708
 31
0.0
  0
LINE
  5
1E2A6
  8
AM_0
 10
1061.9071698124269
 20
551.4981386726372
 30
0.0
 11
1188.281935898952
 21
551.4981386726372
 31
0.0
  0
LINE
  5
1E2A7
  8
AM_0
 10
1189.371935898952
 20
553.98815867263716
 30
0.0
 11
1095.4717340708171
 21
553.98815867263716
 31
0.0
  0
LINE
  5
1E2A8
  8
AM_0
 10
1189.371935898952
 20
551.05813867263714
 30
0.0
 11
1060.817169864787
 21
551.05813867263714
 31
0.0
  0
LINE
  5
1E2A9
  8
AM_0
 10
1189.1519358989519
 20
564.21813867263688
 30
0.0
 11
1124.8319558989531
 21
564.21813867263688
 31
0.0
  0
LINE
  5
1E2AA
  8
AM_0
 10
1179.8319558989519
 20
593.41814867263724
 30
0.0
 11
1138.8319558989519
 21
593.41814867263724
 31
0.0
  0
LINE
  5
1E2AB
  8
AM_0
 10
1179.8319558989519
 20
592.73815867263716
 30
0.0
 11
1138.8319558989519
 21
592.73815867263716
 31
0.0
  0
LINE
  5
1E2AC
  8
AM_0
 10
1179.8319558989519
 20
591.38814867263716
 30
0.0
 11
1138.8319558989519
 21
591.38814867263716
 31
0.0
  0
LINE
  5
1E2AD
  8
AM_0
 10
1179.8319558989519
 20
589.35815867263705
 30
0.0
 11
1124.8319558989531
 21
589.35815867263705
 31
0.0
  0
LINE
  5
1E2AE
  8
AM_0
 10
1124.8319558989531
 20
563.4981386726372
 30
0.0
 11
1188.281935898952
 21
563.4981386726372
 31
0.0
  0
LINE
  5
1E2AF
  8
AM_0
 10
1198.571945898952
 20
523.75814867263705
 30
0.0
 11
1126.1019292292369
 21
523.75814867263705
 31
0.0
  0
LINE
  5
1E2B0
  8
AM_0
 10
1127.3919237045061
 20
523.4981386726372
 30
0.0
 11
1197.281935898952
 21
523.4981386726372
 31
0.0
  0
LINE
  5
1E2B1
  8
AM_0
 10
1127.3919237045061
 20
521.49813867263697
 30
0.0
 11
1197.281935898952
 21
521.49813867263697
 31
0.0
  0
LINE
  5
1E2B2
  8
AM_0
 10
1198.571945898952
 20
521.21813867263711
 30
0.0
 11
1126.1019292292369
 21
521.21813867263711
 31
0.0
  0
LINE
  5
1E2B3
  8
AM_0
 10
1127.3901959553391
 20
543.4981386726372
 30
0.0
 11
1197.2719258989521
 21
543.4981386726372
 31
0.0
  0
LINE
  5
1E2B4
  8
AM_0
 10
1127.3892724555731
 20
541.49813867263697
 30
0.0
 11
1197.2719258989521
 21
541.49813867263697
 31
0.0
  0
LINE
  5
1E2B5
  8
AM_0
 10
1127.3919271099419
 20
533.49813867263697
 30
0.0
 11
1197.2719258989521
 21
533.49813867263697
 31
0.0
  0
LINE
  5
1E2B6
  8
AM_0
 10
1127.3919271099439
 20
531.4981386726372
 30
0.0
 11
1197.2719258989521
 21
531.4981386726372
 31
0.0
  0
LINE
  5
1E2B7
  8
AM_0
 10
1189.1519358989519
 20
560.86812867263723
 30
0.0
 11
1124.8319558989531
 21
560.86812867263711
 31
0.0
  0
LINE
  5
1E2B8
  8
AM_0
 10
1198.501945898952
 20
543.83813867263723
 30
0.0
 11
1126.296742631416
 21
543.83813867263711
 31
0.0
  0
LINE
  5
1E2B9
  8
AM_0
 10
1198.501945898952
 20
541.17815867263698
 30
0.0
 11
1126.296742631416
 21
541.17815867263698
 31
0.0
  0
LINE
  5
1E2BA
  8
AM_0
 10
1198.561935898952
 20
533.76815867263713
 30
0.0
 11
1126.296742631416
 21
533.76815867263713
 31
0.0
  0
LINE
  5
1E2BB
  8
AM_0
 10
1198.561935898952
 20
531.23815867263716
 30
0.0
 11
1126.296742631416
 21
531.23815867263716
 31
0.0
  0
LINE
  5
1E2BC
  8
AM_0
 10
1124.8319558989531
 20
561.4981386726372
 30
0.0
 11
1188.281935898952
 21
561.4981386726372
 31
0.0
  0
LINE
  5
1E2BD
  8
AM_0
 10
1063.071945898952
 20
587.85807867263713
 30
0.0
 11
1060.3361358989521
 21
577.6580786726372
 31
0.0
  0
LINE
  5
1E2BE
  8
AM_0
 10
1124.8319558989531
 20
589.35806867263705
 30
0.0
 11
1065.011945898952
 21
589.35806867263705
 31
0.0
  0
LINE
  5
1E2BF
  8
AM_0
 10
1091.027955898953
 20
627.49810867263704
 30
0.0
 11
1126.6359558989529
 21
627.49810867263704
 31
0.0
  0
LINE
  5
1E2C0
  8
AM_0
 10
1077.3319558989531
 20
607.99810867263704
 30
0.0
 11
1134.8319558989531
 21
607.99810867263704
 31
0.0
  0
LINE
  5
1E2C1
  8
AM_0
 10
1079.8319558989531
 20
624.49810867263704
 30
0.0
 11
1154.8319558989531
 21
624.49810867263704
 31
0.0
  0
LINE
  5
1E2C2
  8
AM_0
 10
1157.3319558989519
 20
604.49810867263704
 30
0.0
 11
1077.3319558989531
 21
604.49810867263704
 31
0.0
  0
LINE
  5
1E2C3
  8
AM_0
 10
1077.3319558989519
 20
600.99810867263716
 30
0.0
 11
1157.3319558989519
 21
600.99810867263716
 31
0.0
  0
ARC
  5
1E2C4
  8
AM_0
 10
1057.8319558989531
 20
590.49813867263708
 30
0.0
 40
0.9999999999999998
 50
359.999989999999
 51
89.999997000002296
  0
LINE
  5
1E2C5
  8
0
  6
CONTINUOUS
 62
     7
 10
1058.8320174935509
 20
591.49813960785468
 30
0.0
 11
1049.8319558989531
 21
591.49813960785468
 31
0.0
  0
LINE
  5
1E2C6
  8
AM_0
 10
1078.8319558989519
 20
607.99810867263704
 30
0.0
 11
1078.8319558989519
 21
623.49810867263704
 31
0.0
  0
ARC
  5
1E2C7
  8
AM_0
 10
1079.8319558989531
 20
623.49810867263727
 30
0.0
 40
1.0
 50
90.0
 51
180.0
  0
LINE
  5
1E2C8
  8
AM_0
 10
1085.8319558989519
 20
624.49810867263704
 30
0.0
 11
1091.027955898953
 21
627.49810867263704
 31
0.0
  0
LINE
  5
1E2C9
  8
AM_0
 10
1078.8319558989519
 20
596.49810867263704
 30
0.0
 11
1066.531234602704
 21
596.49810867263704
 31
0.0
  0
ARC
  5
1E2CA
  8
AM_0
 10
1065.0215958989529
 20
587.34107867263697
 30
0.0
 40
2.0170177999999992
 50
90.273700000009228
 51
165.14839999999191
  0
LINE
  5
1E2CB
  8
AM_0
 10
1058.8319558989519
 20
590.49813867263708
 30
0.0
 11
1058.8319558989519
 21
587.99813867263697
 31
0.0
  0
LINE
  5
1E2CC
  8
AM_0
 10
1058.8319558989519
 20
591.49813862027702
 30
0.0
 11
1066.531234602704
 21
596.49810867263704
 31
0.0
  0
LINE
  5
1E2CD
  8
AM_0
 10
1063.1119558989531
 20
587.99806867263703
 30
0.0
 11
1058.8319558989531
 21
587.99806867263703
 31
0.0
  0
LINE
  5
1E2CE
  8
AM_0
 10
1078.8319558989519
 20
600.99810867263716
 30
0.0
 11
1078.8319558989519
 21
596.49810867263704
 31
0.0
  0
LINE
  5
1E2CF
  8
AM_0
 10
1077.3319558989531
 20
600.99810867263716
 30
0.0
 11
1077.3319558989531
 21
607.99810867263704
 31
0.0
  0
ARC
  5
1E2D0
  8
AM_0
 10
1153.8319558989531
 20
608.99810867263704
 30
0.0
 40
1.0
 50
180.0
 51
270.0
  0
LINE
  5
1E2D1
  8
AM_0
 10
1155.8319558989531
 20
607.99810867263704
 30
0.0
 11
1155.8319558989519
 21
623.49810867263704
 31
0.0
  0
LINE
  5
1E2D2
  8
AM_0
 10
1151.8319558989531
 20
604.49810867263704
 30
0.0
 11
1151.8319558989531
 21
611.99810867263704
 31
0.0
  0
LINE
  5
1E2D3
  8
AM_0
 10
1157.3319558989519
 20
600.99810867263716
 30
0.0
 11
1157.3319558989519
 21
620.49810867263704
 31
0.0
  0
ARC
  5
1E2D4
  8
AM_0
 10
1144.3319558989531
 20
611.99810867263704
 30
0.0
 40
3.9999999999999978
 50
0.000000000000007
 51
180.0
  0
ARC
  5
1E2D5
  8
AM_0
 10
1134.8319558989531
 20
608.99810867263704
 30
0.0
 40
1.0
 50
270.0
 51
0.000000000000007
  0
LINE
  5
1E2D6
  8
AM_0
 10
1148.3319558989531
 20
604.49810867263704
 30
0.0
 11
1148.3319558989531
 21
611.99810867263704
 31
0.0
  0
LINE
  5
1E2D7
  8
AM_0
 10
1136.8319558989531
 20
611.99810867263704
 30
0.0
 11
1136.8319558989531
 21
604.49810867263704
 31
0.0
  0
LINE
  5
1E2D8
  8
AM_0
 10
1140.3319558989531
 20
604.49810867263704
 30
0.0
 11
1140.3319558989531
 21
611.99810867263704
 31
0.0
  0
ARC
  5
1E2D9
  8
AM_0
 10
1144.3319558989531
 20
611.99810867263704
 30
0.0
 40
7.5000000000000018
 50
0.000000000000007
 51
180.0
  0
ARC
  5
1E2DA
  8
AM_0
 10
1143.3319558989531
 20
612.99810867263704
 30
0.0
 40
7.4999999999999956
 50
90.0
 51
180.0
  0
LINE
  5
1E2DB
  8
AM_0
 10
1126.6359558989529
 20
627.49810867263704
 30
0.0
 11
1131.8247314091559
 21
624.49810867263704
 31
0.0
  0
LINE
  5
1E2DC
  8
AM_0
 10
1135.8319558989531
 20
612.99810867263704
 30
0.0
 11
1135.8319558989531
 21
608.99810867263704
 31
0.0
  0
ARC
  5
1E2DD
  8
AM_0
 10
1145.3319558989531
 20
612.99810867263704
 30
0.0
 40
7.499999999999992
 50
0.000000000000007
 51
90.0
  0
LINE
  5
1E2DE
  8
AM_0
 10
1143.3319558989519
 20
620.49810867263704
 30
0.0
 11
1145.3319558989531
 21
620.49810867263704
 31
0.0
  0
ARC
  5
1E2DF
  8
AM_0
 10
1154.8319558989531
 20
623.49810867263704
 30
0.0
 40
1.0
 50
0.000000000000007
 51
90.0
  0
LINE
  5
1E2E0
  8
AM_0
 10
1157.3319558989519
 20
620.49810867263704
 30
0.0
 11
1155.8319558989519
 21
620.49810867263704
 31
0.0
  0
LINE
  5
1E2E1
  8
AM_0
 10
1152.8319558989531
 20
608.99810867263704
 30
0.0
 11
1152.8319558989531
 21
612.99810867263704
 31
0.0
  0
LINE
  5
1E2E2
  8
AM_0
 10
1138.8319558989519
 20
600.99810867263739
 30
0.0
 11
1138.8319558989519
 21
589.3580686726375
 31
0.0
  0
LINE
  5
1E2E3
  8
AM_0
 10
1157.3319558989519
 20
607.99810867263704
 30
0.0
 11
1153.8319558989531
 21
607.99810867263704
 31
0.0
  0
LINE
  5
1E2E4
  8
AM_0
 10
1080.3319558989531
 20
560.86807867263713
 30
0.0
 11
1095.3319558989519
 21
560.86807867263713
 31
0.0
  0
LINE
  5
1E2E5
  8
AM_0
 10
1080.3319558989531
 20
560.86807867263713
 30
0.0
 11
1095.3319558989519
 21
560.86807867263713
 31
0.0
  0
LINE
  5
1E2E6
  8
AM_0
 10
1065.011945898952
 20
561.49807867263712
 30
0.0
 11
1124.8319558989531
 21
561.49807867263712
 31
0.0
  0
LINE
  5
1E2E7
  8
AM_0
 10
1065.011945898952
 20
563.49807867263723
 30
0.0
 11
1124.8319558989531
 21
563.49807867263723
 31
0.0
  0
LINE
  5
1E2E8
  8
AM_0
 10
1124.8319558989531
 20
564.22805867263708
 30
0.0
 11
1065.011945898952
 21
564.22805867263708
 31
0.0
  0
ARC
  5
1E2E9
  8
AM_0
 10
1057.8235358989521
 20
578.52966867263694
 30
0.0
 40
1.008444499999998
 50
9.5460700000028602
 51
89.522200000000439
  0
LINE
  5
1E2EA
  8
0
  6
CONTINUOUS
 62
     7
 10
1057.8319558989531
 20
579.53806994538502
 30
0.0
 11
1049.8319558989531
 21
579.53806994538502
 31
0.0
  0
LINE
  5
1E2EB
  8
0
  6
CONTINUOUS
 62
     7
 10
1057.8319558989531
 20
564.63805994538495
 30
0.0
 11
1049.8319558989531
 21
564.63805994538495
 31
0.0
  0
LINE
  5
1E2EC
  8
AM_0
 10
1058.8319558989519
 20
570.35806867263727
 30
0.0
 11
1058.8319558989519
 21
577.95806867263707
 31
0.0
  0
LINE
  5
1E2ED
  8
AM_0
 10
1059.8319558989519
 20
570.35806867263727
 30
0.0
 11
1059.8319558989519
 21
577.95806867263707
 31
0.0
  0
LINE
  5
1E2EE
  8
AM_0
 10
1062.4319358989519
 20
572.35806867263705
 30
0.0
 11
1062.4319358989519
 21
575.9580686726373
 31
0.0
  0
ARC
  5
1E2EF
  8
AM_0
 10
1060.731955898952
 20
575.9580686726373
 30
0.0
 40
1.7000007999999991
 50
0.0000100000010134
 51
89.999979999998004
  0
LINE
  5
1E2F0
  8
AM_0
 10
1059.8319558989519
 20
577.95806867263707
 30
0.0
 11
1058.8319558989519
 21
577.95806867263707
 31
0.0
  0
LINE
  5
1E2F1
  8
AM_0
 10
1059.8319558989519
 20
577.65806867263723
 30
0.0
 11
1060.731955898952
 21
577.65806867263723
 31
0.0
  0
LINE
  5
1E2F2
  8
AM_0
 10
1065.011945898952
 20
573.83807867263727
 30
0.0
 11
1062.4319358989519
 21
573.83807867263727
 31
0.0
  0
ARC
  5
1E2F3
  8
AM_0
 10
1060.731955898952
 20
572.35806867263705
 30
0.0
 40
1.699996899999999
 50
270.00000300001068
 51
359.99998000000448
  0
LINE
  5
1E2F4
  8
AM_0
 10
1059.8319558989519
 20
570.35806867263727
 30
0.0
 11
1058.8319558989519
 21
570.35806867263727
 31
0.0
  0
LINE
  5
1E2F5
  8
AM_0
 10
1058.8319558989519
 20
573.38070867263696
 30
0.0
 11
1059.8319558989519
 21
573.95803867263703
 31
0.0
  0
LINE
  5
1E2F6
  8
AM_0
 10
1058.8319558989519
 20
574.3807086726373
 30
0.0
 11
1059.8319558989519
 21
574.95806867263695
 31
0.0
  0
ARC
  5
1E2F7
  8
AM_0
 10
1058.171095898952
 20
575.32485867263688
 30
0.0
 40
1.4868058999999989
 50
296.38977999999901
 51
345.71726000000092
  0
LINE
  5
1E2F8
  8
AM_0
 10
1059.8319558989519
 20
570.65807867263709
 30
0.0
 11
1060.731955898952
 21
570.65807867263709
 31
0.0
  0
LINE
  5
1E2F9
  8
AM_0
 10
1080.192177727087
 20
553.98815867263716
 30
0.0
 11
1060.8182524543099
 21
553.98815867263716
 31
0.0
  0
LINE
  5
1E2FA
  8
AM_0
 10
1061.9071698124269
 20
553.49813867263708
 30
0.0
 11
1079.342910185776
 21
553.49813867263708
 31
0.0
  0
LINE
  5
1E2FB
  8
AM_0
 10
1065.011945898952
 20
560.86807867263713
 30
0.0
 11
1079.3319558989519
 21
560.86807867263713
 31
0.0
  0
ARC
  5
1E2FC
  8
AM_0
 10
1064.4919358989521
 20
562.49807867263712
 30
0.0
 40
1.0000073999999981
 50
90.0
 51
270.00000300001068
  0
LINE
  5
1E2FD
  8
AM_0
 10
1061.011945898952
 20
560.86807867263713
 30
0.0
 11
1065.011945898952
 21
560.86807867263713
 31
0.0
  0
LINE
  5
1E2FE
  8
AM_0
 10
1064.4919358989521
 20
563.49807867263723
 30
0.0
 11
1065.011945898952
 21
563.49807867263723
 31
0.0
  0
LINE
  5
1E2FF
  8
AM_0
 10
1064.4919358989521
 20
561.49807867263712
 30
0.0
 11
1065.011945898952
 21
561.49807867263712
 31
0.0
  0
LINE
  5
1E300
  8
AM_0
 10
1065.011945898952
 20
564.22805867263708
 30
0.0
 11
1058.8319559482729
 21
564.22805867263708
 31
0.0
  0
ARC
  5
1E301
  8
AM_0
 10
1061.0180558989521
 20
562.54806867263721
 30
0.0
 40
1.680010999999999
 50
90.208029999998146
 51
269.79196900000039
  0
ARC
  5
1E302
  8
AM_0
 10
1061.907169864787
 20
552.49813867263708
 30
0.0
 40
1.0000031999999981
 50
90.00000299999769
 51
270.0
  0
ARC
  5
1E303
  8
AM_0
 10
1060.817169864787
 20
552.52315867263712
 30
0.0
 40
1.465000399999999
 50
90.00000299999769
 51
270.0
  0
ARC
  5
1E304
  8
AM_0
 10
1079.3319558989519
 20
554.49807867263701
 30
0.0
 40
0.9999999999999998
 50
270.0
 51
0.000000000000007
1001
GENIUS_GENOBJ-N-FIL_13
1002
{
1000
OWNER
1000
GEN
1002
}
1001
GENIUS_GENODEF_13
1002
{
1000
HIER
1070
     0
1002
}
1002
{
1000
MANEDIT
1070
     0
1002
}
1002
{
1000
NOSEL
1070
     0
1002
}
1002
{
1000
BEHIND
1070
     0
1002
}
1002
{
1000
OTHER
1070
     0
1002
}
1002
{
1000
REACTOR
1002
}
  0
ARC
  5
1E305
  8
AM_0
 10
1079.3319558989519
 20
559.86807867263713
 30
0.0
 40
0.9999999999999998
 50
0.000000000000007
 51
90.0
1001
GENIUS_GENOBJ-N-FIL_13
1002
{
1000
OWNER
1000
GEN
1002
}
1001
GENIUS_GENODEF_13
1002
{
1000
HIER
1070
     0
1002
}
1002
{
1000
MANEDIT
1070
     0
1002
}
1002
{
1000
NOSEL
1070
     0
1002
}
1002
{
1000
BEHIND
1070
     0
1002
}
1002
{
1000
OTHER
1070
     0
1002
}
1002
{
1000
REACTOR
1002
}
  0
LINE
  5
1E306
  8
AM_0
 10
1080.3319558989531
 20
554.49807867263701
 30
0.0
 11
1080.3319558989531
 21
559.86807867263713
 31
0.0
  0
CIRCLE
  5
1E307
  8
AM_0
 10
1090.3319558989519
 20
555.99810867263704
 30
0.0
 40
0.75
  0
CIRCLE
  5
1E308
  8
AM_0
 10
1085.3319558989519
 20
555.99810867263704
 30
0.0
 40
0.75
  0
LINE
  5
1E309
  8
AM_0
 10
1080.192124370765
 20
501.00814867263699
 30
0.0
 11
1060.833444504563
 21
501.00814867263699
 31
0.0
  0
LINE
  5
1E30A
  8
AM_0
 10
1061.9071698124269
 20
501.49813867263703
 30
0.0
 11
1079.3319558989519
 21
501.49813867263703
 31
0.0
  0
ARC
  5
1E30B
  8
AM_0
 10
1061.907169864787
 20
502.49807867263718
 30
0.0
 40
1.0000031999999981
 50
90.0
 51
269.99999700000228
  0
ARC
  5
1E30C
  8
AM_0
 10
1060.817169864787
 20
502.47305867263719
 30
0.0
 40
1.465000399999999
 50
90.0
 51
269.99999700000228
  0
ARC
  5
1E30D
  8
AM_0
 10
1079.3319558989519
 20
500.49813867263691
 30
0.0
 40
0.9999999999999998
 50
0.000000000000007
 51
90.0
1001
GENIUS_GENOBJ-N-FIL_13
1002
{
1000
OWNER
1000
GEN
1002
}
1001
GENIUS_GENODEF_13
1002
{
1000
HIER
1070
     0
1002
}
1002
{
1000
MANEDIT
1070
     0
1002
}
1002
{
1000
NOSEL
1070
     0
1002
}
1002
{
1000
BEHIND
1070
     0
1002
}
1002
{
1000
OTHER
1070
     0
1002
}
1002
{
1000
REACTOR
1002
}
  0
ARC
  5
1E30E
  8
AM_0
 10
1126.161919229236
 20
542.50814867263705
 30
0.0
 40
1.330000999999998
 50
90.00000299999769
 51
270.0
  0
ARC
  5
1E30F
  8
AM_0
 10
1127.3832092292371
 20
542.49813867263731
 30
0.0
 40
1.000037999999998
 50
89.500716000006676
 51
270.49928999999509
  0
LINE
  5
1E310
  8
AM_0
 10
1096.3319558989531
 20
560.86807867263713
 30
0.0
 11
1124.8319558989531
 21
560.86807867263713
 31
0.0
  0
ARC
  5
1E311
  8
AM_0
 10
1096.3319558989531
 20
554.49807867263701
 30
0.0
 40
0.9999999999999998
 50
180.0
 51
270.0
1001
GENIUS_GENOBJ-N-FIL_13
1002
{
1000
OWNER
1000
GEN
1002
}
1001
GENIUS_GENODEF_13
1002
{
1000
HIER
1070
     0
1002
}
1002
{
1000
MANEDIT
1070
     0
1002
}
1002
{
1000
NOSEL
1070
     0
1002
}
1002
{
1000
BEHIND
1070
     0
1002
}
1002
{
1000
OTHER
1070
     0
1002
}
1002
{
1000
REACTOR
1002
}
  0
ARC
  5
1E312
  8
AM_0
 10
1096.3319558989531
 20
559.86807867263713
 30
0.0
 40
0.9999999999999998
 50
90.0
 51
180.0
1001
GENIUS_GENOBJ-N-FIL_13
1002
{
1000
OWNER
1000
GEN
1002
}
1001
GENIUS_GENODEF_13
1002
{
1000
HIER
1070
     0
1002
}
1002
{
1000
MANEDIT
1070
     0
1002
}
1002
{
1000
NOSEL
1070
     0
1002
}
1002
{
1000
BEHIND
1070
     0
1002
}
1002
{
1000
OTHER
1070
     0
1002
}
1002
{
1000
REACTOR
1002
}
  0
LINE
  5
1E313
  8
AM_0
 10
1095.3319558989519
 20
554.49807867263701
 30
0.0
 11
1095.3319558989519
 21
559.86807867263713
 31
0.0
  0
ARC
  5
1E314
  8
AM_0
 10
1127.3832092292371
 20
552.49813867263708
 30
0.0
 40
1.000037999999998
 50
89.500716000006676
 51
270.49928999999509
  0
ARC
  5
1E315
  8
AM_0
 10
1126.161919229236
 20
512.48806867263716
 30
0.0
 40
1.330000999999998
 50
90.0
 51
269.99999700000228
  0
ARC
  5
1E316
  8
AM_0
 10
1126.1019292292369
 20
522.49307867263713
 30
0.0
 40
1.265004999999999
 50
90.0
 51
269.99999700000228
  0
ARC
  5
1E317
  8
AM_0
 10
1126.1019292292369
 20
532.50313867263696
 30
0.0
 40
1.265004999999999
 50
90.00000299999769
 51
270.0
  0
ARC
  5
1E318
  8
AM_0
 10
1096.3319558989531
 20
500.49813867263703
 30
0.0
 40
0.9999999999999998
 50
90.0
 51
180.0
1001
GENIUS_GENOBJ-N-FIL_13
1002
{
1000
OWNER
1000
GEN
1002
}
1001
GENIUS_GENODEF_13
1002
{
1000
HIER
1070
     0
1002
}
1002
{
1000
MANEDIT
1070
     0
1002
}
1002
{
1000
NOSEL
1070
     0
1002
}
1002
{
1000
BEHIND
1070
     0
1002
}
1002
{
1000
OTHER
1070
     0
1002
}
1002
{
1000
REACTOR
1002
}
  0
ARC
  5
1E319
  8
AM_0
 10
1127.3832092292371
 20
522.49807867263712
 30
0.0
 40
1.000037999999998
 50
89.500710000004958
 51
270.49928400000641
  0
ARC
  5
1E31A
  8
AM_0
 10
1127.3832092292371
 20
532.49813867263708
 30
0.0
 40
1.000037999999998
 50
89.500716000006676
 51
270.49928999999509
  0
ARC
  5
1E31B
  8
AM_0
 10
1127.3832092292371
 20
512.49807867263712
 30
0.0
 40
1.000037999999998
 50
89.500710000004958
 51
270.49928400000641
  0
ARC
  5
1E31C
  8
AM_0
 10
1127.3832092292371
 20
502.4981387032322
 30
0.0
 40
1.000037999999998
 50
89.500710000004958
 51
270.49928400000641
  0
LINE
  5
1E31D
  8
AM_0
 10
1198.641925898952
 20
587.62813867263731
 30
0.0
 11
1199.561935898952
 21
583.74813867263708
 31
0.0
  0
LINE
  5
1E31E
  8
AM_0
 10
1198.661915898952
 20
589.28814867263713
 30
0.0
 11
1199.5419158989521
 21
585.75814867263705
 31
0.0
  0
LINE
  5
1E31F
  8
AM_0
 10
1181.8319558989519
 20
589.38814867263704
 30
0.0
 11
1181.8319558989519
 21
581.97814867263708
 31
0.0
  0
ARC
  5
1E320
  8
AM_0
 10
1183.333725898952
 20
587.26995867263713
 30
0.0
 40
1.5017978999999979
 50
180.06854999999891
 51
269.93145000000101
  0
LINE
  5
1E321
  8
AM_0
 10
1196.6919458989521
 20
589.16814867263713
 30
0.0
 11
1183.3319558989519
 21
589.16814867263713
 31
0.0
  0
LINE
  5
1E322
  8
AM_0
 10
1196.7219458989521
 20
590.79815867263699
 30
0.0
 11
1183.2219458989521
 21
590.79815867263699
 31
0.0
  0
ARC
  5
1E323
  8
AM_0
 10
1179.834735898952
 20
589.39092867263696
 30
0.0
 40
1.9972083999999981
 50
359.91986000000099
 51
90.080142999999538
  0
ARC
  5
1E324
  8
AM_0
 10
1179.8294558989519
 20
591.42330867263695
 30
0.0
 40
1.994845199999999
 50
14.36280000000006
 51
89.928341999995595
  0
ARC
  5
1E325
  8
AM_0
 10
1179.8373858989521
 20
590.74358867263697
 30
0.0
 40
1.9945768999999991
 50
359.84400999999718
 51
90.155991999999998
  0
ARC
  5
1E326
  8
AM_0
 10
1179.835555898952
 20
587.36175867263705
 30
0.0
 40
1.9963852999999989
 50
359.89615999999739
 51
90.103837000006493
  0
ARC
  5
1E327
  8
AM_0
 10
1183.2183058989519
 20
592.30501867263717
 30
0.0
 40
1.5068882999999991
 50
194.87692999999749
 51
270.1377700000005
  0
ARC
  5
1E328
  8
AM_0
 10
1183.3357758989521
 20
590.67199867263696
 30
0.0
 40
1.5038474999999989
 50
180.1463999999965
 51
269.85360000000998
  0
ARC
  5
1E329
  8
AM_0
 10
1196.7246258989519
 20
588.80034867263714
 30
0.0
 40
1.9977811999999979
 50
14.132230000003119
 51
90.076919000002235
  0
ARC
  5
1E32A
  8
AM_0
 10
1196.6991458989521
 20
587.1726686726372
 30
0.0
 40
1.995482299999999
 50
13.194079999997459
 51
90.206542000000866
  0
LINE
  5
1E32B
  8
AM_0
 10
1213.3258558989521
 20
542.71996867263704
 30
0.0
 11
1212.8258558989521
 21
545.48995867263704
 31
0.0
  0
ARC
  5
1E32C
  8
AM_0
 10
1205.822925898952
 20
544.48910867263714
 30
0.0
 40
0.9910124499999998
 50
179.4779976199998
 51
270.52199999999573
  0
ARC
  5
1E32D
  8
AM_0
 10
1197.2806558989521
 20
542.49813867263731
 30
0.0
 40
1.000037999999998
 50
269.50071000000491
 51
90.499284000006355
  0
ARC
  5
1E32E
  8
AM_0
 10
1198.501945898952
 20
542.50814867263705
 30
0.0
 40
1.330000999999998
 50
270.0
 51
89.999997000002296
  0
ARC
  5
1E32F
  8
AM_0
 10
1209.8228658989519
 20
542.4890486726373
 30
0.0
 40
1.009131199999999
 50
0.5161299999996344
 51
89.483873999999005
  0
ARC
  5
1E330
  8
AM_0
 10
1180.8319558989519
 20
542.49813867263731
 30
0.0
 40
1.0000031999999981
 50
270.0
 51
89.999997000002296
  0
LINE
  5
1E331
  8
AM_0
 10
1210.8319558989519
 20
575.51775867263711
 30
0.0
 11
1210.8319558989519
 21
532.49813867263708
 31
0.0
  0
LINE
  5
1E332
  8
AM_0
 10
1212.3319558989519
 20
507.49813867263708
 30
0.0
 11
1212.3319558989519
 21
547.49813867263686
 31
0.0
  0
ARC
  5
1E333
  8
AM_0
 10
1195.210759899599
 20
565.16619867263705
 30
0.0
 40
6.0039071999999978
 50
93.617286000010822
 51
134.7763070000029
  0
LINE
  5
1E334
  8
AM_0
 10
1196.6619458989519
 20
585.76815867263701
 30
0.0
 11
1183.3319558989519
 21
585.76815867263701
 31
0.0
  0
LINE
  5
1E335
  8
AM_0
 10
1196.601945898952
 20
580.47814867263696
 30
0.0
 11
1183.3319558989519
 21
580.47814867263696
 31
0.0
  0
ARC
  5
1E336
  8
AM_0
 10
1195.666989899599
 20
569.09591867263703
 30
0.0
 40
5.0078935999999974
 50
185.47467999999949
 51
260.40127999999243
  0
ARC
  5
1E337
  8
AM_0
 10
1183.337605898952
 20
581.98382867263729
 30
0.0
 40
1.5056744999999989
 50
180.21552999999901
 51
269.78448000000759
  0
ARC
  5
1E338
  8
AM_0
 10
1191.682039899599
 20
568.70830867263703
 30
0.0
 40
1.0041366999999981
 50
134.20256399999809
 51
185.15116000000401
  0
ARC
  5
1E339
  8
AM_0
 10
1180.8319558989519
 20
562.49813867263697
 30
0.0
 40
1.0000031999999981
 50
270.0
 51
89.999997000002296
  0
ARC
  5
1E33A
  8
AM_0
 10
1188.281935898952
 20
562.49813867263697
 30
0.0
 40
1.0000031999999981
 50
270.0
 51
89.999997000002296
  0
ARC
  5
1E33B
  8
AM_0
 10
1189.1519358989519
 20
562.54314867263713
 30
0.0
 40
1.6750062999999991
 50
270.0
 51
89.999997000002296
  0
ARC
  5
1E33C
  8
AM_0
 10
1180.8319558989519
 20
552.49813867263708
 30
0.0
 40
1.0000031999999981
 50
270.0
 51
89.999997000002296
  0
ARC
  5
1E33D
  8
AM_0
 10
1189.371935898952
 20
552.52315867263712
 30
0.0
 40
1.465000399999999
 50
270.0
 51
89.999997000002296
  0
ARC
  5
1E33E
  8
AM_0
 10
1188.281935898952
 20
552.49813867263708
 30
0.0
 40
1.0000031999999981
 50
270.0
 51
89.999997000002296
  0
LINE
  5
1E33F
  8
AM_0
 10
1194.8319558989519
 20
575.84814867263697
 30
0.0
 11
1194.8319558989519
 21
561.80813867263714
 31
0.0
  0
ARC
  5
1E340
  8
AM_0
 10
1208.526295898952
 20
569.60784867263715
 30
0.0
 40
1.0103179999999981
 50
57.31141999999334
 51
89.679860000005249
  0
ARC
  5
1E341
  8
AM_0
 10
1208.539695898952
 20
568.47149867263715
 30
0.0
 40
1.0067359999999981
 50
59.413569999998501
 51
89.301939000001482
  0
ARC
  5
1E342
  8
AM_0
 10
1208.573655898952
 20
572.98495867263728
 30
0.0
 40
1.0131911999999981
 50
61.831239999999291
 51
90.096276000001168
  0
ARC
  5
1E343
  8
AM_0
 10
1208.5410658989531
 20
576.23638867263708
 30
0.0
 40
1.001807999999998
 50
59.33833000000525
 51
89.377180000009162
  0
ARC
  5
1E344
  8
AM_0
 10
1208.554365898952
 20
575.09371867263712
 30
0.0
 40
1.005138299999998
 50
61.632060000003641
 51
87.857709000009095
  0
ARC
  5
1E345
  8
AM_0
 10
1208.538435898952
 20
574.1270486726371
 30
0.0
 40
1.0112084999999991
 50
59.481190000002357
 51
89.234312999994373
  0
LINE
  5
1E346
  8
AM_0
 10
1201.0419458989529
 20
578.53814867263713
 30
0.0
 11
1198.621935898952
 21
578.53814867263713
 31
0.0
  0
ARC
  5
1E347
  8
AM_0
 10
1201.0036458989521
 20
586.12524867263721
 30
0.0
 40
1.507096899999999
 50
194.0978200000026
 51
269.93518000001131
  0
LINE
  5
1E348
  8
AM_0
 10
1201.001945898952
 20
584.61812867263723
 30
0.0
 11
1199.351945898952
 21
584.61812867263723
 31
0.0
  0
ARC
  5
1E349
  8
AM_0
 10
1201.022755898952
 20
584.10094867263695
 30
0.0
 40
1.5028080999999991
 50
193.57782000000131
 51
269.96921000000498
  0
LINE
  5
1E34A
  8
AM_0
 10
1201.0219258989521
 20
582.59814867263697
 30
0.0
 11
1198.9619358989521
 21
582.59814867263697
 31
0.0
  0
ARC
  5
1E34B
  8
AM_0
 10
1201.0407258989519
 20
580.04229867263723
 30
0.0
 40
1.504139799999999
 50
192.44474999999551
 51
270.04575000000801
  0
LINE
  5
1E34C
  8
AM_0
 10
1204.8319558989519
 20
575.84814867263697
 30
0.0
 11
1194.8319558989519
 21
575.84814867263697
 31
0.0
  0
LINE
  5
1E34D
  8
AM_0
 10
1204.8319558989519
 20
584.8785263704932
 30
0.0
 11
1200.011945898952
 21
584.99813867263686
 31
0.0
  0
ARC
  5
1E34E
  8
AM_0
 10
1196.6100958989521
 20
578.48473867263704
 30
0.0
 40
1.9934333999999989
 50
10.211969999999811
 51
90.23411600000729
  0
LINE
  5
1E34F
  8
AM_0
 10
1199.111925898952
 20
575.84817867263723
 30
0.0
 11
1198.5719158989521
 21
578.83816867263715
 31
0.0
  0
LINE
  5
1E350
  8
AM_0
 10
1198.611925898952
 20
584.18813867263714
 30
0.0
 11
1199.571945898952
 21
579.71813867263711
 31
0.0
  0
ARC
  5
1E351
  8
AM_0
 10
1196.660265898952
 20
583.77276867263697
 30
0.0
 40
1.995389499999999
 50
12.01538000000023
 51
89.951933000008736
  0
LINE
  5
1E352
  8
AM_0
 10
1208.591935898952
 20
576.09814867263708
 30
0.0
 11
1205.3319558989519
 21
576.09814867263708
 31
0.0
  0
LINE
  5
1E353
  8
AM_0
 10
1208.551955898952
 20
577.23815867263716
 30
0.0
 11
1205.3319558989519
 21
577.23815867263716
 31
0.0
  0
LINE
  5
1E354
  8
AM_0
 10
1204.8319558989519
 20
570.18813867263714
 30
0.0
 11
1194.8319558989519
 21
570.18813867263714
 31
0.0
  0
LINE
  5
1E355
  8
AM_0
 10
1208.531935898952
 20
570.61812867263723
 30
0.0
 11
1204.8319558989519
 21
570.61812867263723
 31
0.0
  0
ARC
  5
1E356
  8
AM_0
 10
1205.837355898952
 20
568.47274867263695
 30
0.0
 40
1.005422699999998
 50
90.308189000006934
 51
179.69180761999789
  0
LINE
  5
1E357
  8
AM_0
 10
1208.551955898952
 20
575.13814867263704
 30
0.0
 11
1204.8319558989519
 21
575.13814867263704
 31
0.0
  0
ARC
  5
1E358
  8
AM_0
 10
1205.8390058989521
 20
572.99108867263715
 30
0.0
 40
1.0070831999999981
 50
90.401577999998594
 51
179.59842201999899
  0
LINE
  5
1E359
  8
AM_0
 10
1208.551955898952
 20
569.47814867263708
 30
0.0
 11
1205.8319558989519
 21
569.47814867263708
 31
0.0
  0
LINE
  5
1E35A
  8
AM_0
 10
1208.571945898952
 20
573.9981386726372
 30
0.0
 11
1205.8319558989519
 21
573.9981386726372
 31
0.0
  0
ARC
  5
1E35B
  8
AM_0
 10
1209.8247858989521
 20
575.50796867263716
 30
0.0
 40
1.007194199999998
 50
359.44232
 51
59.76658000000203
  0
LINE
  5
1E35C
  8
AM_0
 10
1209.031935898952
 20
575.9781486726373
 30
0.0
 11
1210.271955898952
 21
575.35815867263716
 31
0.0
  0
LINE
  5
1E35D
  8
AM_0
 10
1208.8319558989519
 20
576.9781486726373
 30
0.0
 11
1208.8319558989519
 21
576.45815867263707
 31
0.0
  0
LINE
  5
1E35E
  8
AM_0
 10
1209.051925898952
 20
577.09814867263719
 30
0.0
 11
1210.331925898952
 21
576.37813867263696
 31
0.0
  0
ARC
  5
1E35F
  8
AM_0
 10
1209.830215898952
 20
568.75551867263698
 30
0.0
 40
1.0017338999999981
 50
0.1495399999974156
 51
57.262369999995819
  0
ARC
  5
1E360
  8
AM_0
 10
1209.8264058989521
 20
567.72887867263705
 30
0.0
 40
1.005592899999999
 50
0.5283799999989122
 51
59.818670000007153
  0
ARC
  5
1E361
  8
AM_0
 10
1209.8269558989521
 20
572.32711867263697
 30
0.0
 40
1.0050607999999981
 50
0.6283999999990106
 51
62.441189999990328
  0
ARC
  5
1E362
  8
AM_0
 10
1209.8329658989519
 20
573.35268867263699
 30
0.0
 40
0.9989832599999996
 50
0.3123899999990058
 51
60.03464000000244
  0
LINE
  5
1E363
  8
AM_0
 10
1208.8319558989519
 20
570.31814867263711
 30
0.0
 11
1208.8319558989519
 21
569.83813867263723
 31
0.0
  0
LINE
  5
1E364
  8
AM_0
 10
1208.8319558989519
 20
574.87813867263708
 30
0.0
 11
1208.8319558989519
 21
574.33813867263711
 31
0.0
  0
LINE
  5
1E365
  8
AM_0
 10
1209.051925898952
 20
569.33813867263723
 30
0.0
 11
1210.331925898952
 21
568.59810867263695
 31
0.0
  0
LINE
  5
1E366
  8
AM_0
 10
1209.051955898952
 20
574.99816867263723
 30
0.0
 11
1210.3319558989519
 21
574.21816867263715
 31
0.0
  0
LINE
  5
1E367
  8
AM_0
 10
1209.071945898952
 20
570.45815867263696
 30
0.0
 11
1210.3719658989521
 21
569.59817867263723
 31
0.0
  0
LINE
  5
1E368
  8
AM_0
 10
1209.051955898952
 20
573.87813867263731
 30
0.0
 11
1210.291945898952
 21
573.21816867263715
 31
0.0
  0
ARC
  5
1E369
  8
AM_0
 10
1209.8289058989519
 20
574.4582486726373
 30
0.0
 40
1.003051899999998
 50
359.99423000000229
 51
63.787349999992507
  0
LINE
  5
1E36A
  8
AM_0
 10
1205.8319558989519
 20
551.4981386726372
 30
0.0
 11
1209.8319558989519
 21
551.4981386726372
 31
0.0
  0
LINE
  5
1E36B
  8
AM_0
 10
1205.8319558989519
 20
543.49813867263731
 30
0.0
 11
1209.8319558989519
 21
543.49813867263731
 31
0.0
  0
ARC
  5
1E36C
  8
AM_0
 10
1208.6187058989531
 20
562.17193867263722
 30
0.0
 40
1.0062370999999981
 50
66.99538000000112
 51
90.384755999997537
  0
ARC
  5
1E36D
  8
AM_0
 10
1208.689285898952
 20
560.22314867263697
 30
0.0
 40
1.015145099999998
 50
73.832329999994485
 51
90.978381000000923
  0
LINE
  5
1E36E
  8
AM_0
 10
1205.8319558989519
 20
553.49813867263708
 30
0.0
 11
1209.8319558989519
 21
553.49813867263708
 31
0.0
  0
ARC
  5
1E36F
  8
AM_0
 10
1205.822925898952
 20
554.48910867263714
 30
0.0
 40
0.9910124499999998
 50
179.4779976199998
 51
270.52199999999573
  0
LINE
  5
1E370
  8
AM_0
 10
1204.8319558989519
 20
561.80813867263714
 30
0.0
 11
1194.8319558989519
 21
561.80813867263714
 31
0.0
  0
LINE
  5
1E371
  8
AM_0
 10
1208.6119558989519
 20
563.17815867263721
 30
0.0
 11
1205.531935898952
 21
563.17815867263721
 31
0.0
  0
ARC
  5
1E372
  8
AM_0
 10
1205.838245898952
 20
560.23183867263708
 30
0.0
 40
1.0063294999999981
 50
90.359251999998989
 51
179.6407462400027
  0
LINE
  5
1E373
  8
AM_0
 10
1208.6719558989521
 20
561.23815867263716
 30
0.0
 11
1205.8319558989519
 21
561.23815867263716
 31
0.0
  0
ARC
  5
1E374
  8
AM_0
 10
1205.8398358989521
 20
550.49026867263717
 30
0.0
 40
1.0079203999999991
 50
90.448488000004716
 51
179.55151003999859
  0
ARC
  5
1E375
  8
AM_0
 10
1209.8324158989519
 20
561.65346867263713
 30
0.0
 40
0.9995326999999996
 50
0.2681300000001788
 51
67.684949999999489
  0
LINE
  5
1E376
  8
AM_0
 10
1208.8319558989519
 20
562.87813867263696
 30
0.0
 11
1208.8319558989519
 21
561.81814867263711
 31
0.0
  0
LINE
  5
1E377
  8
AM_0
 10
1208.9719458989521
 20
561.1981486726371
 30
0.0
 11
1210.1119558989519
 21
560.83816867263738
 31
0.0
  0
ARC
  5
1E378
  8
AM_0
 10
1209.827505898952
 20
559.87481867263705
 30
0.0
 40
1.004450099999999
 50
0.1901499999997233
 51
73.549649999990464
  0
LINE
  5
1E379
  8
AM_0
 10
1209.011945898952
 20
563.09814867263731
 30
0.0
 11
1210.2119358989521
 21
562.57815867263719
 31
0.0
  0
LINE
  5
1E37A
  8
AM_0
 10
1212.3319558989519
 20
547.49816867263712
 30
0.0
 11
1210.8319558989519
 21
547.61816867263713
 31
0.0
  0
LINE
  5
1E37B
  8
AM_0
 10
1212.8258558989521
 20
545.48995867263704
 30
0.0
 11
1212.325825898952
 21
545.44994867263711
 31
0.0
  0
LINE
  5
1E37C
  8
AM_0
 10
1208.8319558989519
 20
553.11812867263723
 30
0.0
 11
1208.8319558989519
 21
551.75814867263705
 31
0.0
  0
ARC
  5
1E37D
  8
AM_0
 10
1209.8397358989521
 20
552.49032867263713
 30
0.0
 40
0.9922232599999995
 50
269.54914999999261
 51
0.45084000000297
  0
ARC
  5
1E37E
  8
AM_0
 10
1209.8228658989519
 20
552.48904867263718
 30
0.0
 40
1.009131199999999
 50
0.5161299999996344
 51
89.483873999999005
  0
ARC
  5
1E37F
  8
AM_0
 10
1180.8319558989519
 20
522.49813867263686
 30
0.0
 40
1.000000699999998
 50
270.0
 51
89.999997000002296
  0
ARC
  5
1E380
  8
AM_0
 10
1180.8319558989519
 20
532.49813867263708
 30
0.0
 40
1.0000031999999981
 50
270.0
 51
89.999997000002296
  0
ARC
  5
1E381
  8
AM_0
 10
1180.8319558989519
 20
512.49813867263731
 30
0.0
 40
1.000000699999998
 50
270.0
 51
89.999997000002296
  0
ARC
  5
1E382
  8
AM_0
 10
1180.8319558989519
 20
502.49813867263708
 30
0.0
 40
1.000000699999998
 50
270.0
 51
89.999997000002296
  0
ARC
  5
1E383
  8
AM_0
 10
1209.8228658989519
 20
522.50722867263721
 30
0.0
 40
1.009131199999999
 50
270.51612999999958
 51
359.48387000000042
  0
ARC
  5
1E384
  8
AM_0
 10
1198.5618158989521
 20
522.50814867263705
 30
0.0
 40
1.270038399999998
 50
269.55481000000742
 51
90.445188999993647
  0
ARC
  5
1E385
  8
AM_0
 10
1197.2719258989521
 20
522.49813867263686
 30
0.0
 40
1.000012399999999
 50
270.0
 51
89.999997000002296
  0
ARC
  5
1E386
  8
AM_0
 10
1205.822925898952
 20
520.50716867263714
 30
0.0
 40
0.9910124499999998
 50
89.478000000004315
 51
180.5219999999957
  0
LINE
  5
1E387
  8
AM_0
 10
1213.3258558989521
 20
542.71999867263696
 30
0.0
 11
1213.3258558989521
 21
512.27636867263686
 31
0.0
  0
LINE
  5
1E388
  8
AM_0
 10
1205.8319558989519
 20
531.4981386726372
 30
0.0
 11
1209.8319558989519
 21
531.4981386726372
 31
0.0
  0
LINE
  5
1E389
  8
AM_0
 10
1205.8319558989519
 20
523.4981386726372
 30
0.0
 11
1209.8319558989519
 21
523.4981386726372
 31
0.0
  0
LINE
  5
1E38A
  8
AM_0
 10
1205.8319558989519
 20
533.49813867263697
 30
0.0
 11
1209.8319558989519
 21
533.49813867263697
 31
0.0
  0
LINE
  5
1E38B
  8
AM_0
 10
1205.8319558989519
 20
541.49813867263697
 30
0.0
 11
1209.8319558989519
 21
541.49813867263697
 31
0.0
  0
ARC
  5
1E38C
  8
AM_0
 10
1197.2806558989521
 20
532.49813867263708
 30
0.0
 40
1.000037999999998
 50
269.50071000000491
 51
90.499284000006355
  0
ARC
  5
1E38D
  8
AM_0
 10
1198.561935898952
 20
532.50313867263696
 30
0.0
 40
1.265004999999999
 50
270.0
 51
89.999997000002296
  0
ARC
  5
1E38E
  8
AM_0
 10
1205.8398358989521
 20
540.49026867263694
 30
0.0
 40
1.0079203999999991
 50
90.448488000004716
 51
179.55151003999859
  0
ARC
  5
1E38F
  8
AM_0
 10
1205.822925898952
 20
534.48910867263714
 30
0.0
 40
0.9910124499999998
 50
179.4779976199998
 51
270.52199999999573
  0
ARC
  5
1E390
  8
AM_0
 10
1205.8398358989521
 20
524.50603867263715
 30
0.0
 40
1.0079203999999991
 50
180.44848999999721
 51
269.55151000000927
  0
ARC
  5
1E391
  8
AM_0
 10
1205.8398358989521
 20
530.49026867263706
 30
0.0
 40
1.0079203999999991
 50
90.448488000004716
 51
179.55151003999859
  0
LINE
  5
1E392
  8
AM_0
 10
1208.8319558989519
 20
533.09814867263697
 30
0.0
 11
1208.8319558989519
 21
531.93813867263714
 31
0.0
  0
ARC
  5
1E393
  8
AM_0
 10
1209.8397358989521
 20
532.49032867263713
 30
0.0
 40
0.9922232599999995
 50
269.54914999999261
 51
0.45084000000297
  0
ARC
  5
1E394
  8
AM_0
 10
1209.8397358989521
 20
542.49032867263702
 30
0.0
 40
0.9922232599999995
 50
269.54914999999261
 51
0.45084000000297
  0
ARC
  5
1E395
  8
AM_0
 10
1209.8228658989519
 20
532.48904867263707
 30
0.0
 40
1.009131199999999
 50
0.5161299999996344
 51
89.483873999999005
  0
LINE
  5
1E396
  8
AM_0
 10
1208.8319558989519
 20
543.09814867263719
 30
0.0
 11
1208.8319558989519
 21
541.87813867263696
 31
0.0
  0
POINT
  5
1E397
  8
AM_0
 10
1213.3258558989521
 20
527.49813867263708
 30
0.0
  0
LINE
  5
1E398
  8
AM_0
 10
1208.8319558989519
 20
521.89815867263701
 30
0.0
 11
1208.8319558989519
 21
523.05813867263691
 31
0.0
  0
ARC
  5
1E399
  8
AM_0
 10
1209.8397358989521
 20
522.50594867263715
 30
0.0
 40
0.9922232599999995
 50
359.5491499999992
 51
90.450845000008428
  0
LINE
  5
1E39A
  8
AM_0
 10
1205.8319558989519
 20
503.49813867263708
 30
0.0
 11
1209.8319558989519
 21
503.49813867263708
 31
0.0
  0
LINE
  5
1E39B
  8
AM_0
 10
1205.8319558989519
 20
501.4981386726372
 30
0.0
 11
1209.8319558989519
 21
501.4981386726372
 31
0.0
  0
LINE
  5
1E39C
  8
AM_0
 10
1205.8319558989519
 20
513.4981386726372
 30
0.0
 11
1209.8319558989519
 21
513.4981386726372
 31
0.0
  0
LINE
  5
1E39D
  8
AM_0
 10
1205.8319558989519
 20
511.4981386726372
 30
0.0
 11
1209.8319558989519
 21
511.4981386726372
 31
0.0
  0
LINE
  5
1E39E
  8
AM_0
 10
1205.8319558989519
 20
521.49813867263697
 30
0.0
 11
1209.8319558989519
 21
521.49813867263697
 31
0.0
  0
ARC
  5
1E39F
  8
AM_0
 10
1205.822925898952
 20
510.50716867263702
 30
0.0
 40
0.9910124499999998
 50
89.478000000004315
 51
180.5219999999957
  0
ARC
  5
1E3A0
  8
AM_0
 10
1198.499805898952
 20
512.48815867263716
 30
0.0
 40
1.3300231999999981
 50
269.66151999998948
 51
90.338468000005719
  0
ARC
  5
1E3A1
  8
AM_0
 10
1197.2719258989521
 20
512.49813867263731
 30
0.0
 40
1.000012399999999
 50
270.0
 51
89.999997000002296
  0
ARC
  5
1E3A2
  8
AM_0
 10
1205.8398358989521
 20
514.50603867263715
 30
0.0
 40
1.0079203999999991
 50
180.44848999999721
 51
269.55151000000927
  0
ARC
  5
1E3A3
  8
AM_0
 10
1197.2807458989521
 20
502.49813867263708
 30
0.0
 40
1.0000386999999991
 50
269.49566000000971
 51
90.504332000007864
  0
ARC
  5
1E3A4
  8
AM_0
 10
1198.3692458989531
 20
502.47814867263708
 30
0.0
 40
1.460102599999999
 50
269.32100000000872
 51
90.678993000004596
  0
ARC
  5
1E3A5
  8
AM_0
 10
1205.822925898952
 20
500.50716867263702
 30
0.0
 40
0.9910124499999998
 50
89.478000000004315
 51
180.5219999999957
  0
ARC
  5
1E3A6
  8
AM_0
 10
1205.8398358989521
 20
504.50603867263709
 30
0.0
 40
1.0079203999999991
 50
180.44848999999721
 51
269.55151000000927
  0
LINE
  5
1E3A7
  8
AM_0
 10
1213.3258558989521
 20
512.27636867263686
 30
0.0
 11
1212.8258558989521
 21
509.50634867263699
 31
0.0
  0
LINE
  5
1E3A8
  8
AM_0
 10
1208.8319558989519
 20
511.89815867263712
 30
0.0
 11
1208.8319558989519
 21
513.11812867263711
 31
0.0
  0
ARC
  5
1E3A9
  8
AM_0
 10
1209.8397358989521
 20
512.50594867263715
 30
0.0
 40
0.9922232599999995
 50
359.5491499999992
 51
90.450845000008428
  0
ARC
  5
1E3AA
  8
AM_0
 10
1209.8228658989519
 20
512.50722867263698
 30
0.0
 40
1.009131199999999
 50
270.51612999999958
 51
359.48387000000042
  0
LINE
  5
1E3AB
  8
AM_0
 10
1212.8258558989521
 20
509.50634867263699
 30
0.0
 11
1212.3258558989521
 21
509.54635867263721
 31
0.0
  0
LINE
  5
1E3AC
  8
AM_0
 10
1212.3319558989519
 20
507.49813867263708
 30
0.0
 11
1210.8319558989519
 21
507.37813867263708
 31
0.0
  0
LINE
  5
1E3AD
  8
AM_0
 10
1208.8319558989519
 20
501.87813867263719
 30
0.0
 11
1208.8319558989519
 21
503.2381586726371
 31
0.0
  0
ARC
  5
1E3AE
  8
AM_0
 10
1209.8228658989519
 20
502.5072286726371
 30
0.0
 40
1.009131199999999
 50
270.51612999999958
 51
359.48387000000042
  0
ARC
  5
1E3AF
  8
AM_0
 10
1209.8397358989521
 20
502.50594867263698
 30
0.0
 40
0.9922232599999995
 50
359.5491499999992
 51
90.450845000008428
  0
LINE
  5
1E3B0
  8
AM_0
 10
1158.8319558989519
 20
481.15813867263722
 30
0.0
 11
1065.011945898952
 21
481.15813867263699
 31
0.0
  0
LINE
  5
1E3B1
  8
AM_0
 10
1179.8319558989519
 20
463.61814867263701
 30
0.0
 11
1065.032185772249
 21
463.61814867263701
 31
0.0
  0
LINE
  5
1E3B2
  8
AM_0
 10
1179.8319558989519
 20
462.25814867263728
 30
0.0
 11
1065.032185772249
 21
462.25814867263711
 31
0.0
  0
LINE
  5
1E3B3
  8
AM_0
 10
1179.8319558989519
 20
461.59814867263702
 30
0.0
 11
1065.032185772249
 21
461.59814867263702
 31
0.0
  0
LINE
  5
1E3B4
  8
AM_0
 10
1197.2719434180519
 20
493.49813863155111
 30
0.0
 11
1124.8319558989531
 21
493.49813863155111
 31
0.0
  0
LINE
  5
1E3B5
  8
AM_0
 10
1198.1619458989519
 20
494.12813867263702
 30
0.0
 11
1124.8319558989531
 21
494.12813867263702
 31
0.0
  0
LINE
  5
1E3B6
  8
AM_0
 10
1198.1619458989519
 20
490.76815867263713
 30
0.0
 11
1124.8319558989531
 21
490.76815867263713
 31
0.0
  0
LINE
  5
1E3B7
  8
AM_0
 10
1124.8319558989531
 20
491.49813867263703
 30
0.0
 11
1197.281935898952
 21
491.49813867263703
 31
0.0
  0
LINE
  5
1E3B8
  8
AM_0
 10
1179.8319558989519
 20
465.63814867263699
 30
0.0
 11
1124.8319558989531
 21
465.63814867263699
 31
0.0
  0
LINE
  5
1E3B9
  8
AM_0
 10
1080.3319558989531
 20
494.12813867263702
 30
0.0
 11
1095.3319558989519
 21
494.12813867263702
 31
0.0
  0
LINE
  5
1E3BA
  8
AM_0
 10
1065.011945898952
 20
491.49813867263703
 30
0.0
 11
1124.8319558989531
 21
491.49813867263703
 31
0.0
  0
LINE
  5
1E3BB
  8
AM_0
 10
1065.011945898952
 20
493.49813867263703
 30
0.0
 11
1124.8319558989531
 21
493.4981386726372
 31
0.0
  0
LINE
  5
1E3BC
  8
AM_0
 10
1124.8319558989531
 20
465.63814867263699
 30
0.0
 11
1065.011945898952
 21
465.63814867263699
 31
0.0
  0
LINE
  5
1E3BD
  8
AM_0
 10
1124.8319558989531
 20
490.76815867263713
 30
0.0
 11
1065.011945898952
 21
490.76815867263713
 31
0.0
  0
ARC
  5
1E3BE
  8
AM_0
 10
1057.8228658989531
 20
464.5072286726371
 30
0.0
 40
1.009131199999999
 50
270.51612999999958
 51
359.48387000000042
  0
ARC
  5
1E3BF
  8
AM_0
 10
1057.8235358989521
 20
476.46654867263709
 30
0.0
 40
1.008444499999998
 50
270.4777999999996
 51
350.45392999999717
  0
LINE
  5
1E3C0
  8
0
  6
CONTINUOUS
 62
     7
 10
1057.8319558989531
 20
490.35815960785447
 30
0.0
 11
1049.8319558989531
 21
490.35815960785447
 31
0.0
  0
LINE
  5
1E3C1
  8
0
  6
CONTINUOUS
 62
     7
 10
1057.8319558989531
 20
475.45814960785458
 30
0.0
 11
1049.8319558989531
 21
475.45814960785458
 31
0.0
  0
LINE
  5
1E3C2
  8
0
  6
CONTINUOUS
 62
     7
 10
1057.8319558989531
 20
463.49814960785449
 30
0.0
 11
1049.8319558989531
 21
463.49814960785449
 31
0.0
  0
LINE
  5
1E3C3
  8
AM_0
 10
1059.8319558989519
 20
484.63814867263682
 30
0.0
 11
1059.8319558989519
 21
477.03814867263702
 31
0.0
  0
LINE
  5
1E3C4
  8
AM_0
 10
1058.8319558989519
 20
484.63814867263682
 30
0.0
 11
1058.8319558989519
 21
477.03814867263702
 31
0.0
  0
ARC
  5
1E3C5
  8
AM_0
 10
1060.731955898952
 20
479.03814867263708
 30
0.0
 40
1.7000007999999991
 50
270.000020000002
 51
359.999989999999
  0
LINE
  5
1E3C6
  8
AM_0
 10
1065.011945898952
 20
494.12813867263702
 30
0.0
 11
1079.3319558989519
 21
494.12813867263702
 31
0.0
  0
ARC
  5
1E3C7
  8
AM_0
 10
1064.4919358989521
 20
492.49813867263703
 30
0.0
 40
1.0000073999999981
 50
89.999997000002296
 51
270.0
  0
LINE
  5
1E3C8
  8
AM_0
 10
1061.011945898952
 20
494.12813867263702
 30
0.0
 11
1065.011945898952
 21
494.12813867263702
 31
0.0
  0
LINE
  5
1E3C9
  8
AM_0
 10
1064.491935898953
 20
491.49813867263703
 30
0.0
 11
1065.011945898952
 21
491.49813867263703
 31
0.0
  0
LINE
  5
1E3CA
  8
AM_0
 10
1064.491935898953
 20
493.49813867263703
 30
0.0
 11
1065.011945898952
 21
493.49813867263703
 31
0.0
  0
LINE
  5
1E3CB
  8
AM_0
 10
1065.011945898952
 20
490.76815867263713
 30
0.0
 11
1058.8319561006931
 21
490.76815867263713
 31
0.0
  0
ARC
  5
1E3CC
  8
AM_0
 10
1061.0180558989521
 20
492.4481486726371
 30
0.0
 40
1.680010999999999
 50
90.208030999999565
 51
269.79197000000192
  0
LINE
  5
1E3CD
  8
AM_0
 10
1065.011945898952
 20
481.15813867263699
 30
0.0
 11
1062.4319358989519
 21
481.15813867263699
 31
0.0
  0
ARC
  5
1E3CE
  8
AM_0
 10
1060.731955898952
 20
482.63814867263699
 30
0.0
 40
1.699996899999999
 50
0.0000199999955061
 51
89.999997000002296
  0
LINE
  5
1E3CF
  8
AM_0
 10
1062.4319358989519
 20
482.63814867263699
 30
0.0
 11
1062.4319358989519
 21
479.03814867263708
 31
0.0
  0
LINE
  5
1E3D0
  8
AM_0
 10
1059.8319558989519
 20
484.63814867263682
 30
0.0
 11
1058.8319558989519
 21
484.63814867263682
 31
0.0
  0
LINE
  5
1E3D1
  8
AM_0
 10
1058.8319558989519
 20
481.61550867263702
 30
0.0
 11
1059.8319558989519
 21
481.03817867263712
 31
0.0
  0
ARC
  5
1E3D2
  8
AM_0
 10
1058.171095898952
 20
479.6713586726371
 30
0.0
 40
1.4868058999999989
 50
14.282739999999119
 51
63.610220000000922
  0
LINE
  5
1E3D3
  8
AM_0
 10
1058.8319558989519
 20
480.61550867263702
 30
0.0
 11
1059.8319558989519
 21
480.03814867263702
 31
0.0
  0
LINE
  5
1E3D4
  8
AM_0
 10
1059.8319558989519
 20
484.33813867263689
 30
0.0
 11
1060.731955898952
 21
484.33813867263689
 31
0.0
  0
ARC
  5
1E3D5
  8
AM_0
 10
1079.3319558989519
 20
495.12813867263702
 30
0.0
 40
0.9999999999999998
 50
270.0
 51
0.000000000000007
1001
GENIUS_GENOBJ-N-FIL_13
1002
{
1000
OWNER
1000
GEN
1002
}
1001
GENIUS_GENODEF_13
1002
{
1000
HIER
1070
     0
1002
}
1002
{
1000
MANEDIT
1070
     0
1002
}
1002
{
1000
NOSEL
1070
     0
1002
}
1002
{
1000
BEHIND
1070
     0
1002
}
1002
{
1000
OTHER
1070
     0
1002
}
1002
{
1000
REACTOR
1002
}
  0
CIRCLE
  5
1E3D6
  8
AM_0
 10
1090.3319558989519
 20
498.99810867263722
 30
0.0
 40
0.75
  0
CIRCLE
  5
1E3D7
  8
AM_0
 10
1085.3319558989519
 20
498.99810867263722
 30
0.0
 40
0.75
  0
LINE
  5
1E3D8
  8
AM_0
 10
1063.071945898952
 20
467.13813867263718
 30
0.0
 11
1060.3361358989521
 21
477.33813867263711
 31
0.0
  0
LINE
  5
1E3D9
  8
AM_0
 10
1063.071945898952
 20
463.09813867263722
 30
0.0
 11
1061.5167934397441
 21
468.89625882130571
 31
0.0
  0
LINE
  5
1E3DA
  8
AM_0
 10
1063.071945898952
 20
463.7581386726373
 30
0.0
 11
1061.146651757577
 21
470.93626882130582
 31
0.0
  0
LINE
  5
1E3DB
  8
AM_0
 10
1063.071945898952
 20
465.1181386726372
 30
0.0
 11
1060.422466757577
 21
474.99626882130559
 31
0.0
  0
LINE
  5
1E3DC
  8
AM_0
 10
1059.8319558989519
 20
477.03814867263702
 30
0.0
 11
1058.8319558989519
 21
477.03814867263702
 31
0.0
  0
ARC
  5
1E3DD
  8
AM_0
 10
1059.585071018809
 20
468.37813867263719
 30
0.0
 40
2.0
 50
15.014297598421431
 51
90.0
1001
GENIUS_GENOBJ-N-FIL_13
1002
{
1000
OWNER
1000
GEN
1002
}
1001
GENIUS_GENODEF_13
1002
{
1000
HIER
1070
     0
1002
}
1002
{
1000
MANEDIT
1070
     0
1002
}
1002
{
1000
NOSEL
1070
     0
1002
}
1002
{
1000
BEHIND
1070
     0
1002
}
1002
{
1000
OTHER
1070
     0
1002
}
1002
{
1000
REACTOR
1002
}
  0
LINE
  5
1E3DE
  8
AM_0
 10
1061.113961550119
 20
472.41814867263702
 30
0.0
 11
1059.2149293366419
 21
472.41814867263702
 31
0.0
  0
LINE
  5
1E3DF
  8
AM_0
 10
1061.296351565619
 20
470.37813867263719
 30
0.0
 11
1059.585071018809
 21
470.37813867263719
 31
0.0
  0
ARC
  5
1E3E0
  8
AM_0
 10
1058.4907443366419
 20
474.47814867263702
 30
0.0
 40
2.0
 50
15.014297598421431
 51
80.176950960278162
1001
GENIUS_GENOBJ-N-FIL_13
1002
{
1000
OWNER
1000
GEN
1002
}
1001
GENIUS_GENODEF_13
1002
{
1000
HIER
1070
     0
1002
}
1002
{
1000
MANEDIT
1070
     0
1002
}
1002
{
1000
NOSEL
1070
     0
1002
}
1002
{
1000
BEHIND
1070
     0
1002
}
1002
{
1000
OTHER
1070
     0
1002
}
1002
{
1000
REACTOR
1002
}
  0
LINE
  5
1E3E1
  8
AM_0
 10
1060.566799550119
 20
476.47814867263702
 30
0.0
 11
1058.8319561303431
 21
476.47814867263702
 31
0.0
  0
LINE
  5
1E3E2
  8
AM_0
 10
1059.8319558989519
 20
477.33814867263698
 30
0.0
 11
1060.731955898952
 21
477.33814867263698
 31
0.0
  0
ARC
  5
1E3E3
  8
AM_0
 10
1059.2149293366419
 20
470.41814867263702
 30
0.0
 40
2.0
 50
15.014297598421431
 51
90.0
1001
GENIUS_GENODEF_13
1002
{
1000
HIER
1070
     0
1002
}
1002
{
1000
MANEDIT
1070
     0
1002
}
1002
{
1000
NOSEL
1070
     0
1002
}
1002
{
1000
BEHIND
1070
     0
1002
}
1002
{
1000
OTHER
1070
     0
1002
}
1002
{
1000
REACTOR
1002
}
1001
GENIUS_GENOBJ-N-FIL_13
1002
{
1000
OWNER
1000
GEN
1002
}
  0
ARC
  5
1E3E4
  8
AM_0
 10
1065.0215958989529
 20
463.6151386726371
 30
0.0
 40
2.0170177999999992
 50
194.85160000000809
 51
269.72629999999072
  0
ARC
  5
1E3E5
  8
AM_0
 10
1065.0215958989529
 20
464.27513867263713
 30
0.0
 40
2.0170177999999992
 50
194.85160000000809
 51
269.72629999999072
  0
ARC
  5
1E3E6
  8
AM_0
 10
1065.0215958989529
 20
465.63513867263708
 30
0.0
 40
2.0170177999999992
 50
194.85160000000809
 51
269.72629999999072
  0
LINE
  5
1E3E7
  8
AM_0
 10
1062.0258982167859
 20
466.99814867263723
 30
0.0
 11
1058.831956150013
 21
466.99814867263723
 31
0.0
  0
ARC
  5
1E3E8
  8
AM_0
 10
1065.0215958989529
 20
467.65513867263712
 30
0.0
 40
2.0170177999999992
 50
194.85160000000809
 51
269.72629999999072
  0
LINE
  5
1E3E9
  8
AM_0
 10
1096.3319558989531
 20
494.12813867263702
 30
0.0
 11
1124.8319558989531
 21
494.12813867263702
 31
0.0
  0
ARC
  5
1E3EA
  8
AM_0
 10
1096.3319558989531
 20
495.12813867263702
 30
0.0
 40
0.9999999999999998
 50
180.0
 51
270.0
1001
GENIUS_GENOBJ-N-FIL_13
1002
{
1000
OWNER
1000
GEN
1002
}
1001
GENIUS_GENODEF_13
1002
{
1000
HIER
1070
     0
1002
}
1002
{
1000
MANEDIT
1070
     0
1002
}
1002
{
1000
NOSEL
1070
     0
1002
}
1002
{
1000
BEHIND
1070
     0
1002
}
1002
{
1000
OTHER
1070
     0
1002
}
1002
{
1000
REACTOR
1002
}
  0
LINE
  5
1E3EB
  8
AM_0
 10
1196.6519358989519
 20
469.23813867263709
 30
0.0
 11
1183.3319558989519
 21
469.23813867263709
 31
0.0
  0
LINE
  5
1E3EC
  8
AM_0
 10
1196.591935898952
 20
474.51813867263729
 30
0.0
 11
1183.3319558989519
 21
474.51813867263729
 31
0.0
  0
LINE
  5
1E3ED
  8
AM_0
 10
1196.7119358989521
 20
464.1981486726371
 30
0.0
 11
1183.211935898953
 21
464.1981486726371
 31
0.0
  0
LINE
  5
1E3EE
  8
AM_0
 10
1196.6919458989521
 20
465.8381486726372
 30
0.0
 11
1183.3319558989519
 21
465.8381486726372
 31
0.0
  0
ARC
  5
1E3EF
  8
AM_0
 10
1195.192569899599
 20
489.85869867263699
 30
0.0
 40
6.0113901999999966
 50
225.40404000000549
 51
266.56085000000547
  0
ARC
  5
1E3F0
  8
AM_0
 10
1195.6483798995989
 20
485.90655867263712
 30
0.0
 40
4.9987220999999984
 50
99.400059000008085
 51
174.58643649999621
  0
LINE
  5
1E3F1
  8
AM_0
 10
1158.8319558989519
 20
481.15813867263722
 30
0.0
 11
1194.8319558989519
 21
482.81087895446672
 31
0.0
  0
ARC
  5
1E3F2
  8
AM_0
 10
1180.8319558989519
 20
492.49813867263703
 30
0.0
 40
1.000000699999998
 50
270.0
 51
89.999997000002296
  0
ARC
  5
1E3F3
  8
AM_0
 10
1191.6817298995991
 20
486.30056867263721
 30
0.0
 40
1.0127640999999981
 50
175.6067472000023
 51
225.50533999999439
  0
ARC
  5
1E3F4
  8
AM_0
 10
1179.8226158989521
 20
467.64747867263708
 30
0.0
 40
2.0093488999999991
 50
270.2659600000004
 51
359.73403999999971
  0
LINE
  5
1E3F5
  8
AM_0
 10
1181.8319558989519
 20
465.61814867263718
 30
0.0
 11
1181.8319558989519
 21
473.01813867263701
 31
0.0
  0
ARC
  5
1E3F6
  8
AM_0
 10
1183.324635898952
 20
473.0254486726372
 30
0.0
 40
1.4927157999999989
 50
89.719721000006373
 51
180.28028000000049
  0
ARC
  5
1E3F7
  8
AM_0
 10
1183.325795898952
 20
467.7443086726372
 30
0.0
 40
1.4938501999999989
 50
89.763639000008595
 51
180.23636000000101
  0
ARC
  5
1E3F8
  8
AM_0
 10
1179.824025898952
 20
463.59382867263702
 30
0.0
 40
1.9956942999999989
 50
270.22735000000159
 51
345.02512000000161
  0
ARC
  5
1E3F9
  8
AM_0
 10
1179.824445898952
 20
464.26563867263712
 30
0.0
 40
2.007501099999998
 50
270.21368999999891
 51
359.7863000000022
  0
ARC
  5
1E3FA
  8
AM_0
 10
1179.8267958989529
 20
465.62330867263722
 30
0.0
 40
2.0051612999999988
 50
270.14729000000619
 51
359.85271000000029
  0
ARC
  5
1E3FB
  8
AM_0
 10
1183.327805898952
 20
464.34226867263709
 30
0.0
 40
1.4958794999999989
 50
89.841954000008684
 51
180.1580399999992
  0
ARC
  5
1E3FC
  8
AM_0
 10
1183.2000258989531
 20
462.7020886726371
 30
0.0
 40
1.4961156999999989
 50
89.543495000010495
 51
165.44181399999911
  0
LINE
  5
1E3FD
  8
AM_0
 10
1208.8319558989519
 20
478.01813867263712
 30
0.0
 11
1208.8319558989519
 21
478.53814867263719
 31
0.0
  0
LINE
  5
1E3FE
  8
AM_0
 10
1209.051955898952
 20
477.89814867263721
 30
0.0
 11
1210.331925898952
 21
478.61812867263711
 31
0.0
  0
LINE
  5
1E3FF
  8
AM_0
 10
1199.0919358989529
 20
479.15813867263699
 30
0.0
 11
1198.571945898952
 21
476.17814867263712
 31
0.0
  0
ARC
  5
1E400
  8
AM_0
 10
1208.538435898952
 20
480.8692586726371
 30
0.0
 40
1.0112084999999991
 50
270.76568999999762
 51
300.5188099999977
  0
ARC
  5
1E401
  8
AM_0
 10
1208.554365898952
 20
479.90258867263702
 30
0.0
 40
1.005138299999998
 50
272.14229000000063
 51
298.36793999999628
  0
ARC
  5
1E402
  8
AM_0
 10
1208.539695898952
 20
486.52480867263722
 30
0.0
 40
1.0067359999999981
 50
270.69805999999448
 51
300.58643000000149
  0
ARC
  5
1E403
  8
AM_0
 10
1208.526295898952
 20
485.38845867263723
 30
0.0
 40
1.0103179999999981
 50
270.32014000000783
 51
302.68858000000671
  0
ARC
  5
1E404
  8
AM_0
 10
1208.573655898952
 20
482.0113486726371
 30
0.0
 40
1.0131911999999981
 50
269.90372000000059
 51
298.1687600000007
  0
ARC
  5
1E405
  8
AM_0
 10
1208.6187058989531
 20
492.82436867263709
 30
0.0
 40
1.0062370999999981
 50
269.61524000001089
 51
293.00461999999879
  0
ARC
  5
1E406
  8
AM_0
 10
1208.689285898952
 20
494.7731286726372
 30
0.0
 40
1.015145099999998
 50
269.02162000000948
 51
286.16767000000561
  0
LINE
  5
1E407
  8
AM_0
 10
1194.8319558989519
 20
487.99813867263691
 30
0.0
 11
1194.8319558989519
 21
490.778138672637
 31
0.0
  0
LINE
  5
1E408
  8
AM_0
 10
1194.8319558989519
 20
479.15813867263699
 30
0.0
 11
1194.8319558989519
 21
490.76815867263713
 31
0.0
  0
LINE
  5
1E409
  8
AM_0
 10
1204.8319558989519
 20
493.19814867263699
 30
0.0
 11
1199.6601850401421
 21
493.19814867263699
 31
0.0
  0
ARC
  5
1E40A
  8
AM_0
 10
1197.2807458989521
 20
492.49813867263703
 30
0.0
 40
1.0000386999999991
 50
269.49566000000971
 51
90.504332000007864
  0
ARC
  5
1E40B
  8
AM_0
 10
1198.1519358989519
 20
492.45815867263718
 30
0.0
 40
1.6800001999999989
 50
270.0
 51
89.999997000002296
  0
LINE
  5
1E40C
  8
AM_0
 10
1208.6119558989519
 20
491.81814867263699
 30
0.0
 11
1205.531935898952
 21
491.81814867263699
 31
0.0
  0
ARC
  5
1E40D
  8
AM_0
 10
1205.838245898952
 20
494.76446867263718
 30
0.0
 40
1.0063294999999981
 50
180.359249999996
 51
269.640750000004
  0
LINE
  5
1E40E
  8
AM_0
 10
1208.6719558989521
 20
493.75814867263699
 30
0.0
 11
1205.8319558989519
 21
493.75814867263699
 31
0.0
  0
ARC
  5
1E40F
  8
AM_0
 10
1205.5275158989521
 20
491.12258867263711
 30
0.0
 40
0.69557893
 50
89.634664000002786
 51
180.36533999999941
  0
LINE
  5
1E410
  8
AM_0
 10
1204.8319558989519
 20
484.81814867263711
 30
0.0
 11
1194.8319558989519
 21
484.81814867263711
 31
0.0
  0
LINE
  5
1E411
  8
AM_0
 10
1204.8319558989519
 20
479.15813867263699
 30
0.0
 11
1194.8319558989519
 21
479.15813867263699
 31
0.0
  0
LINE
  5
1E412
  8
AM_0
 10
1208.591935898952
 20
478.89814867263698
 30
0.0
 11
1205.3319558989531
 21
478.89814867263698
 31
0.0
  0
LINE
  5
1E413
  8
AM_0
 10
1208.551955898952
 20
479.8581586726371
 30
0.0
 11
1204.8319558989519
 21
479.8581586726371
 31
0.0
  0
ARC
  5
1E414
  8
AM_0
 10
1205.8390058989521
 20
482.005218672637
 30
0.0
 40
1.0070831999999981
 50
180.4015799999984
 51
269.59842000000162
  0
LINE
  5
1E415
  8
AM_0
 10
1208.531935898952
 20
484.37813867263702
 30
0.0
 11
1204.8319558989519
 21
484.37813867263702
 31
0.0
  0
ARC
  5
1E416
  8
AM_0
 10
1205.837355898952
 20
486.52355867263708
 30
0.0
 40
1.005422699999998
 50
180.30818999999661
 51
269.69181000000981
  0
LINE
  5
1E417
  8
AM_0
 10
1208.551955898952
 20
485.51815867263713
 30
0.0
 11
1205.8319558989519
 21
485.51815867263713
 31
0.0
  0
LINE
  5
1E418
  8
AM_0
 10
1208.571945898952
 20
480.9981386726372
 30
0.0
 11
1205.8319558989519
 21
480.9981386726372
 31
0.0
  0
ARC
  5
1E419
  8
AM_0
 10
1205.3383058989521
 20
479.40450867263712
 30
0.0
 40
0.50640076
 50
180.71970000000459
 51
269.28030000000177
  0
ARC
  5
1E41A
  8
AM_0
 10
1209.8324158989519
 20
493.34283867263707
 30
0.0
 40
0.9995326999999996
 50
292.3150500000005
 51
359.73186999999979
  0
LINE
  5
1E41B
  8
AM_0
 10
1208.8319558989519
 20
492.11812867263723
 30
0.0
 11
1208.8319558989519
 21
493.1781586726371
 31
0.0
  0
LINE
  5
1E41C
  8
AM_0
 10
1208.971975898952
 20
493.79815867263721
 30
0.0
 11
1210.1119558989519
 21
494.15816867263709
 31
0.0
  0
ARC
  5
1E41D
  8
AM_0
 10
1209.827505898952
 20
495.12148867263699
 30
0.0
 40
1.004450099999999
 50
286.45035000000951
 51
359.80985000000021
  0
LINE
  5
1E41E
  8
AM_0
 10
1209.011945898952
 20
491.89815867263712
 30
0.0
 11
1210.2119358989521
 21
492.41814867263707
 31
0.0
  0
ARC
  5
1E41F
  8
AM_0
 10
1209.8247858989521
 20
479.4883386726371
 30
0.0
 40
1.007194199999998
 50
300.23341999999798
 51
0.557679999999959
  0
ARC
  5
1E420
  8
AM_0
 10
1209.8269558989521
 20
482.66915867263702
 30
0.0
 40
1.0050607999999981
 50
297.55881000000971
 51
359.37160000000102
  0
ARC
  5
1E421
  8
AM_0
 10
1209.830215898952
 20
486.2407486726371
 30
0.0
 40
1.0017338999999981
 50
302.7376299999915
 51
359.85046000000261
  0
ARC
  5
1E422
  8
AM_0
 10
1209.8264058989521
 20
487.2674286726371
 30
0.0
 40
1.005592899999999
 50
300.18132999999278
 51
359.47162000000122
  0
ARC
  5
1E423
  8
AM_0
 10
1209.8329658989519
 20
481.64358867263712
 30
0.0
 40
0.9989832599999996
 50
299.96535999999747
 51
359.68761000000097
  0
ARC
  5
1E424
  8
AM_0
 10
1209.8289058989519
 20
480.53805867263708
 30
0.0
 40
1.003051899999998
 50
296.2126500000075
 51
0.005769999997708
  0
LINE
  5
1E425
  8
AM_0
 10
1208.8319558989519
 20
484.6781586726371
 30
0.0
 11
1208.8319558989519
 21
485.15813867263722
 31
0.0
  0
LINE
  5
1E426
  8
AM_0
 10
1208.8319558989519
 20
480.11812867263711
 30
0.0
 11
1208.8319558989519
 21
480.65813867263711
 31
0.0
  0
LINE
  5
1E427
  8
AM_0
 10
1209.051925898952
 20
481.11812867263711
 30
0.0
 11
1210.291945898952
 21
481.77816867263698
 31
0.0
  0
LINE
  5
1E428
  8
AM_0
 10
1209.051955898952
 20
485.65813867263722
 30
0.0
 11
1210.3319558989519
 21
486.39815867263718
 31
0.0
  0
LINE
  5
1E429
  8
AM_0
 10
1209.071945898952
 20
484.538178672637
 30
0.0
 11
1210.3719658989521
 21
485.39815867263712
 31
0.0
  0
LINE
  5
1E42A
  8
AM_0
 10
1209.031935898952
 20
479.01813867263729
 30
0.0
 11
1210.2719258989521
 21
479.63811867263712
 31
0.0
  0
LINE
  5
1E42B
  8
AM_0
 10
1209.051955898952
 20
479.99816867263712
 30
0.0
 11
1210.331925898952
 21
480.77813867263723
 31
0.0
  0
ARC
  5
1E42C
  8
AM_0
 10
1208.5410658989531
 20
478.75989867263712
 30
0.0
 40
1.001807999999998
 50
270.62282000000391
 51
300.66166999999479
  0
LINE
  5
1E42D
  8
AM_0
 10
1198.6319458989519
 20
467.37813867263702
 30
0.0
 11
1199.551925898952
 21
471.25814867263711
 31
0.0
  0
LINE
  5
1E42E
  8
AM_0
 10
1198.6519358989519
 20
465.71816867263732
 30
0.0
 11
1199.531935898953
 21
469.25815867263719
 31
0.0
  0
ARC
  5
1E42F
  8
AM_0
 10
1200.9821058989521
 20
468.87937867263707
 30
0.0
 40
1.4987989999999991
 50
89.623442000009589
 51
165.36186499999789
  0
LINE
  5
1E430
  8
AM_0
 10
1200.9919358989521
 20
470.37813867263719
 30
0.0
 11
1199.351945898952
 21
470.37813867263719
 31
0.0
  0
LINE
  5
1E431
  8
AM_0
 10
1201.011945898952
 20
472.41814867263707
 30
0.0
 11
1198.9519558989521
 21
472.41814867263707
 31
0.0
  0
ARC
  5
1E432
  8
AM_0
 10
1201.040785898952
 20
474.97919867263698
 30
0.0
 40
1.498966199999999
 50
90.338468000005719
 51
168.49632400000141
  0
LINE
  5
1E433
  8
AM_0
 10
1201.031935898952
 20
476.47814867263719
 30
0.0
 11
1198.6119558989519
 21
476.47814867263719
 31
0.0
  0
ARC
  5
1E434
  8
AM_0
 10
1201.0156158989521
 20
470.91474867263702
 30
0.0
 40
1.5034073999999991
 50
90.139585999999795
 51
166.79614399999519
  0
LINE
  5
1E435
  8
AM_0
 10
1204.8319558989519
 20
470.1204123425444
 30
0.0
 11
1199.991965898952
 21
470.01815867263713
 31
0.0
  0
ARC
  5
1E436
  8
AM_0
 10
1196.6528458989519
 20
471.2427186726373
 30
0.0
 40
2.0045697999999992
 50
269.97404000000353
 51
347.77209000000317
  0
ARC
  5
1E437
  8
AM_0
 10
1196.5955358989529
 20
476.52469867263721
 30
0.0
 40
2.0065659999999981
 50
269.89753000000422
 51
350.05432000000008
  0
LINE
  5
1E438
  8
AM_0
 10
1198.611925898952
 20
470.8181586726372
 30
0.0
 11
1199.571945898952
 21
475.27814867263697
 31
0.0
  0
LINE
  5
1E439
  8
AM_0
 10
1208.551955898952
 20
477.75814867263699
 30
0.0
 11
1205.3319558989531
 21
477.75814867263699
 31
0.0
  0
ARC
  5
1E43A
  8
AM_0
 10
1205.327595898952
 20
477.26249867263709
 30
0.0
 40
0.4956644499999998
 50
89.496618999999583
 51
180.50337999999951
  0
ARC
  5
1E43B
  8
AM_0
 10
1196.704665898952
 20
466.20547867263713
 30
0.0
 40
2.007332599999998
 50
270.20782000000122
 51
345.94993999999821
  0
ARC
  5
1E43C
  8
AM_0
 10
1196.6856558989521
 20
467.83802867263728
 30
0.0
 40
1.9998908999999989
 50
270.18042000000139
 51
346.70569999999861
  0
ARC
  5
1E43D
  8
AM_0
 10
903.33192213292057
 20
270.75446360406329
 30
0.0
 40
14.0
 50
106.6015495990162
 51
73.398450400983734
  0
CIRCLE
  5
1E43E
  8
ｽﾝﾎﾟｳｾﾝ
 10
903.33192213292057
 20
270.75446360406329
 30
0.0
 40
4.0
  0
LINE
  5
1E43F
  8
AM_0
 10
907.33192213292068
 20
287.75446360406329
 30
0.0
 11
899.33192213292068
 21
287.75446360406329
 31
0.0
  0
LINE
  5
1E440
  8
AM_0
 10
899.33192213292068
 20
280.75446360406329
 30
0.0
 11
907.33192213292068
 21
280.75446360406329
 31
0.0
  0
LINE
  5
1E441
  8
AM_0
 10
907.33192213292068
 20
280.75446360406329
 30
0.0
 11
907.33192213292068
 21
287.75446360406329
 31
0.0
  0
LINE
  5
1E442
  8
AM_0
 10
899.33192213292068
 20
287.75446360406329
 30
0.0
 11
899.33192213292068
 21
280.75446360406329
 31
0.0
  0
ARC
  5
1E443
  8
0
  6
CONTINUOUS
 62
     7
 10
903.33192213292057
 20
270.75446360406329
 30
0.0
 40
37.5
 50
180.0
 51
0.000000000000007
  0
ARC
  5
1E444
  8
0
  6
CONTINUOUS
 62
     7
 10
903.33192213292057
 20
270.75446360406329
 30
0.0
 40
37.5
 50
0.000000000000007
 51
180.0
  0
CIRCLE
  5
1E445
  8
AM_0
 10
903.33192213292057
 20
270.75446360406329
 30
0.0
 40
3.399999999999999
  0
LINE
  5
1E446
  8
AM_0
 10
940.33192213292068
 20
575.49811058506805
 30
0.0
 11
932.33192213292011
 21
575.49811058506805
 31
0.0
  0
LINE
  5
1E447
  8
AM_0
 10
930.33192213292023
 20
569.49811058506759
 30
0.0
 11
942.33192213292057
 21
569.49811058506759
 31
0.0
  0
LINE
  5
1E448
  8
AM_0
 10
940.83192325050766
 20
580.49811070427722
 30
0.0
 11
865.83192101533325
 21
580.49811070427722
 31
0.0
  0
LINE
  5
1E449
  8
AM_0
 10
940.83192325050766
 20
474.49809991583618
 30
0.0
 11
865.83192101533325
 21
474.49809991583641
 31
0.0
  0
LINE
  5
1E44A
  8
AM_0
 10
1012.455117836426
 20
576.49811821446315
 30
0.0
 11
840.45508236484716
 21
576.49811821446292
 31
0.0
  0
LINE
  5
1E44B
  8
AM_0
 10
1012.455117836426
 20
478.49810766444028
 30
0.0
 11
840.45508236484716
 21
478.49810766444062
 31
0.0
  0
LINE
  5
1E44C
  8
AM_0
 10
1012.331955898953
 20
556.4981099890216
 30
0.0
 11
840.33192025537437
 21
556.49810998902115
 31
0.0
  0
LINE
  5
1E44D
  8
ﾁｭｳｼﾝｾﾝ1
 10
1219.5758558989521
 20
527.49810912475402
 30
0.0
 11
834.08192025537437
 21
527.49810912475414
 31
0.0
1001
GENIUS_GENODEF_13
1002
{
1000
HIER
1070
     0
1002
}
1002
{
1000
MANEDIT
1070
     0
1002
}
1002
{
1000
NOSEL
1070
     0
1002
}
1002
{
1000
BEHIND
1070
     0
1002
}
1002
{
1000
REACTOR
1002
}
1001
GENIUS_GENOBJ-N-CEN_13
1002
{
1000
OWNER
1000
GEN
1002
}
  0
LINE
  5
1E44E
  8
AM_0
 10
1038.8319558989531
 20
465.9981141247539
 30
0.0
 11
1038.8319558989531
 21
588.99809412475395
 31
0.0
  0
LINE
  5
1E44F
  8
AM_0
 10
1012.331955898877
 20
556.4981099890216
 30
0.0
 11
1010.970444627908
 21
478.49810003504541
 31
0.0
  0
LINE
  5
1E450
  8
AM_0
 10
1049.8319558989531
 20
591.49813912475463
 30
0.0
 11
1049.8319558989531
 21
463.49812412475433
 31
0.0
  0
LINE
  5
1E451
  8
AM_0
 10
1049.8319558989531
 20
564.63808412475396
 30
0.0
 11
1039.8319558989519
 21
564.63808412475396
 31
0.0
  0
LINE
  5
1E452
  8
AM_0
 10
1049.8319971656031
 20
564.63809412473177
 30
0.0
 11
1039.831997165609
 21
564.638105235843
 31
0.0
  0
LINE
  5
1E453
  8
AM_0
 10
1049.8319558989531
 20
579.53809412475414
 30
0.0
 11
1039.8319558989519
 21
579.53809412475414
 31
0.0
  0
LINE
  5
1E454
  8
AM_0
 10
1049.8320137211699
 20
579.53810412472251
 30
0.0
 11
1039.8320137211761
 21
579.53811523583374
 31
0.0
  0
LINE
  5
1E455
  8
AM_0
 10
1049.8319558989531
 20
591.49809412475418
 30
0.0
 11
1040.705353071357
 21
591.49809412475418
 31
0.0
  0
LINE
  5
1E456
  8
AM_0
 10
1019.9733254434
 20
556.32379850352629
 30
0.0
 11
1022.672228850804
 21
587.17240561024926
 31
0.0
  0
LINE
  5
1E457
  8
AM_0
 10
1035.8319558989531
 20
588.99809412475395
 30
0.0
 11
1024.6646182469869
 21
588.99809412475383
 31
0.0
  0
ARC
  5
1E458
  8
AM_0
 10
1035.8319558989531
 20
591.99809412475406
 30
0.0
 40
2.9999999999999978
 50
270.0
 51
324.3146652873416
1001
GENIUS_GENOBJ-N-FIL_13
1002
{
1000
OWNER
1000
GEN
1002
}
1001
GENIUS_GENODEF_13
1002
{
1000
HIER
1070
     0
1002
}
1002
{
1000
MANEDIT
1070
     0
1002
}
1002
{
1000
NOSEL
1070
     0
1002
}
1002
{
1000
BEHIND
1070
     0
1002
}
1002
{
1000
OTHER
1070
     0
1002
}
1002
{
1000
REACTOR
1002
}
  0
ARC
  5
1E459
  8
AM_0
 10
1040.705353071357
 20
588.4980941247544
 30
0.0
 40
2.9999999999999978
 50
90.000000000000057
 51
144.31466528734151
1001
GENIUS_GENOBJ-N-FIL_13
1002
{
1000
OWNER
1000
GEN
1002
}
1001
GENIUS_GENODEF_13
1002
{
1000
HIER
1070
     0
1002
}
1002
{
1000
MANEDIT
1070
     0
1002
}
1002
{
1000
NOSEL
1070
     0
1002
}
1002
{
1000
BEHIND
1070
     0
1002
}
1002
{
1000
OTHER
1070
     0
1002
}
1002
{
1000
REACTOR
1002
}
  0
ARC
  5
1E45A
  8
AM_0
 10
1024.6646182469869
 20
586.99809412475383
 30
0.0
 40
2.0
 50
90.000000000000057
 51
175.00000000000051
1001
GENIUS_GENOBJ-N-FIL_13
1002
{
1000
OWNER
1000
GEN
1002
}
1001
GENIUS_GENODEF_13
1002
{
1000
HIER
1070
     0
1002
}
1002
{
1000
MANEDIT
1070
     0
1002
}
1002
{
1000
NOSEL
1070
     0
1002
}
1002
{
1000
BEHIND
1070
     0
1002
}
1002
{
1000
OTHER
1070
     0
1002
}
1002
{
1000
REACTOR
1002
}
  0
ARC
  5
1E45B
  8
AM_0
 10
1017.980936047217
 20
556.4981099890216
 30
0.0
 40
2.0
 50
270.0
 51
355.00000000000051
1001
GENIUS_GENOBJ-N-FIL_13
1002
{
1000
OWNER
1000
GEN
1002
}
1001
GENIUS_GENODEF_13
1002
{
1000
HIER
1070
     0
1002
}
1002
{
1000
MANEDIT
1070
     0
1002
}
1002
{
1000
NOSEL
1070
     0
1002
}
1002
{
1000
BEHIND
1070
     0
1002
}
1002
{
1000
OTHER
1070
     0
1002
}
1002
{
1000
REACTOR
1002
}
  0
LINE
  5
1E45C
  8
AM_0
 10
1011.982865312377
 20
576.49811058506793
 30
0.0
 11
1012.331955898953
 21
556.4981099890216
 31
0.0
  0
ARC
  5
1E45D
  8
AM_0
 10
1013.314652960031
 20
555.49810998902137
 30
0.0
 40
1.0
 50
178.99998822650241
 51
270.0
1001
GENIUS_GENOBJ-N-FIL_13
1002
{
1000
OWNER
1000
GEN
1002
}
1001
GENIUS_GENODEF_13
1002
{
1000
HIER
1070
     0
1002
}
1002
{
1000
MANEDIT
1070
     0
1002
}
1002
{
1000
NOSEL
1070
     0
1002
}
1002
{
1000
BEHIND
1070
     0
1002
}
1002
{
1000
OTHER
1070
     0
1002
}
1002
{
1000
REACTOR
1002
}
  0
LINE
  5
1E45E
  8
AM_0
 10
1017.980936047217
 20
554.4981099890216
 30
0.0
 11
1013.314652960031
 21
554.4981099890216
 31
0.0
  0
LINE
  5
1E45F
  8
AM_0
 10
941.33192213292057
 20
569.49811058506759
 30
0.0
 11
941.33192213292057
 21
574.49811058506793
 31
0.0
  0
LINE
  5
1E460
  8
AM_0
 10
942.33192213292057
 20
576.49811058506793
 30
0.0
 11
942.33192213292057
 21
569.49811058506759
 31
0.0
  0
ARC
  5
1E461
  8
AM_0
 10
940.33192213292068
 20
574.49811058506793
 30
0.0
 40
1.0
 50
0.0
 51
90.000000000000057
1001
GENIUS_GENOBJ-N-FIL_13
1002
{
1000
OWNER
1000
GEN
1002
}
1001
GENIUS_GENODEF_13
1002
{
1000
HIER
1070
     0
1002
}
1002
{
1000
MANEDIT
1070
     0
1002
}
1002
{
1000
NOSEL
1070
     0
1002
}
1002
{
1000
BEHIND
1070
     0
1002
}
1002
{
1000
OTHER
1070
     0
1002
}
1002
{
1000
REACTOR
1002
}
  0
LINE
  5
1E462
  8
AM_0
 10
940.83192325050766
 20
474.49809991583618
 30
0.0
 11
940.83192325050766
 21
478.49810003504541
 31
0.0
  0
LINE
  5
1E463
  8
AM_0
 10
1049.8319558989531
 20
463.49811412475373
 30
0.0
 11
1040.705353071357
 21
463.49811412475373
 31
0.0
  0
LINE
  5
1E464
  8
AM_0
 10
1049.8319558989531
 20
475.45811412475399
 30
0.0
 11
1039.8319558989519
 21
475.45811412475399
 31
0.0
  0
LINE
  5
1E465
  8
AM_0
 10
1049.8319558989531
 20
490.35812412475411
 30
0.0
 11
1039.8319558989519
 21
490.35812412475411
 31
0.0
  0
LINE
  5
1E466
  8
AM_0
 10
1025.999259784885
 20
480.49810003504541
 30
0.0
 11
1012.97074929117
 21
480.49810003504541
 31
0.0
  0
LINE
  5
1E467
  8
AM_0
 10
1028.9407794732081
 20
467.82380263925882
 30
0.0
 11
1027.9916491810691
 21
478.67241152054078
 31
0.0
  0
ARC
  5
1E468
  8
AM_0
 10
1025.9992597848859
 20
478.49810003504558
 30
0.0
 40
2.0
 50
4.9999999999994511
 51
90.000000000000057
1001
GENIUS_GENOBJ-N-FIL_13
1002
{
1000
OWNER
1000
GEN
1002
}
1001
GENIUS_GENODEF_13
1002
{
1000
HIER
1070
     0
1002
}
1002
{
1000
MANEDIT
1070
     0
1002
}
1002
{
1000
NOSEL
1070
     0
1002
}
1002
{
1000
BEHIND
1070
     0
1002
}
1002
{
1000
OTHER
1070
     0
1002
}
1002
{
1000
REACTOR
1002
}
  0
LINE
  5
1E469
  8
AM_0
 10
1035.8319558989531
 20
465.9981141247539
 30
0.0
 11
1030.933168869391
 21
465.99811412475401
 31
0.0
  0
ARC
  5
1E46A
  8
AM_0
 10
1040.705353071357
 20
466.49811412475412
 30
0.0
 40
2.9999999999999978
 50
215.68533471265849
 51
270.0
1001
GENIUS_GENOBJ-N-FIL_13
1002
{
1000
OWNER
1000
GEN
1002
}
1001
GENIUS_GENODEF_13
1002
{
1000
HIER
1070
     0
1002
}
1002
{
1000
MANEDIT
1070
     0
1002
}
1002
{
1000
NOSEL
1070
     0
1002
}
1002
{
1000
BEHIND
1070
     0
1002
}
1002
{
1000
OTHER
1070
     0
1002
}
1002
{
1000
REACTOR
1002
}
  0
ARC
  5
1E46B
  8
AM_0
 10
1035.8319558989531
 20
462.99811412475412
 30
0.0
 40
2.9999999999999978
 50
35.685334712658467
 51
90.000000000000057
1001
GENIUS_GENOBJ-N-FIL_13
1002
{
1000
OWNER
1000
GEN
1002
}
1001
GENIUS_GENODEF_13
1002
{
1000
HIER
1070
     0
1002
}
1002
{
1000
MANEDIT
1070
     0
1002
}
1002
{
1000
NOSEL
1070
     0
1002
}
1002
{
1000
BEHIND
1070
     0
1002
}
1002
{
1000
OTHER
1070
     0
1002
}
1002
{
1000
REACTOR
1002
}
  0
ARC
  5
1E46C
  8
AM_0
 10
1030.933168869391
 20
467.99811412475412
 30
0.0
 40
2.0
 50
184.9999999999994
 51
270.0
1001
GENIUS_GENOBJ-N-FIL_13
1002
{
1000
OWNER
1000
GEN
1002
}
1001
GENIUS_GENODEF_13
1002
{
1000
HIER
1070
     0
1002
}
1002
{
1000
MANEDIT
1070
     0
1002
}
1002
{
1000
NOSEL
1070
     0
1002
}
1002
{
1000
BEHIND
1070
     0
1002
}
1002
{
1000
OTHER
1070
     0
1002
}
1002
{
1000
REACTOR
1002
}
  0
ARC
  5
1E46D
  8
AM_0
 10
1012.97074929117
 20
478.49810003504558
 30
0.0
 40
2.0
 50
90.000000000000057
 51
178.9999882264438
1001
GENIUS_GENOBJ-N-FIL_13
1002
{
1000
OWNER
1000
GEN
1002
}
1001
GENIUS_GENODEF_13
1002
{
1000
HIER
1070
     0
1002
}
1002
{
1000
MANEDIT
1070
     0
1002
}
1002
{
1000
NOSEL
1070
     0
1002
}
1002
{
1000
BEHIND
1070
     0
1002
}
1002
{
1000
OTHER
1070
     0
1002
}
1002
{
1000
REACTOR
1002
}
  0
LINE
  5
1E46E
  8
AM_0
 10
940.83192325050766
 20
580.49811070427722
 30
0.0
 11
940.83192325050766
 21
576.49811058506793
 31
0.0
  0
LINE
  5
1E46F
  8
ﾁｭｳｼﾝｾﾝ1
 10
903.33192213292057
 20
412.49110303576919
 30
0.0
 11
903.33192213292057
 21
589.49811845288104
 31
0.0
  0
LINE
  5
1E470
  8
AM_0
 10
840.33192025537437
 20
556.49810998902115
 30
0.0
 11
841.69340100884017
 21
478.49810003504541
 31
0.0
  0
LINE
  5
1E471
  8
AM_0
 10
880.83192146236809
 20
470.49809979662678
 30
0.0
 11
880.83192146236809
 21
474.49809991583618
 31
0.0
  0
LINE
  5
1E472
  8
AM_0
 10
925.83192280347271
 20
470.49809979662678
 30
0.0
 11
925.83192280347271
 21
474.49809991583618
 31
0.0
  0
LINE
  5
1E473
  8
AM_0
 10
880.83192146236809
 20
470.49809979662678
 30
0.0
 11
925.83192280347271
 21
470.49809979662678
 31
0.0
  0
LINE
  5
1E474
  8
AM_0
 10
931.33192213292011
 20
574.49811058506793
 30
0.0
 11
931.33192213292011
 21
569.49811058506759
 31
0.0
  0
LINE
  5
1E475
  8
AM_0
 10
930.33192213292023
 20
576.49811058506793
 30
0.0
 11
930.33192213292023
 21
569.49811058506759
 31
0.0
  0
ARC
  5
1E476
  8
AM_0
 10
932.33192213292011
 20
574.49811058506793
 30
0.0
 40
1.0
 50
90.000000000000057
 51
180.0
1001
GENIUS_GENOBJ-N-FIL_13
1002
{
1000
OWNER
1000
GEN
1002
}
1001
GENIUS_GENODEF_13
1002
{
1000
HIER
1070
     0
1002
}
1002
{
1000
MANEDIT
1070
     0
1002
}
1002
{
1000
NOSEL
1070
     0
1002
}
1002
{
1000
BEHIND
1070
     0
1002
}
1002
{
1000
OTHER
1070
     0
1002
}
1002
{
1000
REACTOR
1002
}
  0
LINE
  5
1E477
  8
AM_0
 10
865.83192101533325
 20
474.49809991583641
 30
0.0
 11
865.83192101533325
 21
478.49810003504558
 31
0.0
  0
LINE
  5
1E478
  8
AM_0
 10
840.68101084194996
 20
576.49811058506771
 30
0.0
 11
840.33192025537437
 21
556.49810998902115
 31
0.0
  0
LINE
  5
1E479
  8
AM_0
 10
865.83192101533325
 20
580.49811070427722
 30
0.0
 11
865.83192101533325
 21
576.49811058506793
 31
0.0
  0
LINE
  5
1E47A
  8
ｶｸﾚｾﾝ2
 10
1081.3320158989529
 20
239.25444110406289
 30
0.0
 11
1155.3320158989529
 21
239.25444110406289
 31
0.0
  0
LINE
  5
1E47B
  8
ｶｸﾚｾﾝ2
 10
1078.3320158989529
 20
242.25444110406289
 30
0.0
 11
1078.3320158989529
 21
299.25444110406289
 31
0.0
  0
ARC
  5
1E47C
  8
ｶｸﾚｾﾝ2
 10
1081.3320158989529
 20
242.25444110406309
 30
0.0
 40
3.0
 50
180.0
 51
270.0
  0
LINE
  5
1E47D
  8
ｶｸﾚｾﾝ2
 10
1081.3320158989529
 20
302.25444110406289
 30
0.0
 11
1155.3320158989529
 21
302.25444110406289
 31
0.0
  0
ARC
  5
1E47E
  8
ｶｸﾚｾﾝ2
 10
1081.3320158989529
 20
299.25444110406312
 30
0.0
 40
3.0
 50
90.0
 51
180.0
  0
LINE
  5
1E47F
  8
ｶｸﾚｾﾝ2
 10
1158.3320158989529
 20
299.25444110406289
 30
0.0
 11
1158.3320158989529
 21
242.25444110406289
 31
0.0
  0
ARC
  5
1E480
  8
ｶｸﾚｾﾝ2
 10
1155.3320158989529
 20
299.25444110406289
 30
0.0
 40
3.0
 50
0.000000000000007
 51
90.0
  0
ARC
  5
1E481
  8
ｶｸﾚｾﾝ2
 10
1155.3320158989529
 20
242.25444110406289
 30
0.0
 40
3.0
 50
270.0
 51
0.000000000000007
  0
LINE
  5
1E482
  8
AM_0
 10
1182.831985898953
 20
334.64442110406299
 30
0.0
 11
1129.831985898953
 21
334.64442110406299
 31
0.0
  0
LINE
  5
1E483
  8
AM_0
 10
1182.831985898953
 20
335.99443110406293
 30
0.0
 11
1129.831985898953
 21
335.99443110406293
 31
0.0
  0
LINE
  5
1E484
  8
AM_0
 10
1182.831985898953
 20
336.67442110406301
 30
0.0
 11
1129.831985898953
 21
336.67442110406301
 31
0.0
  0
LINE
  5
1E485
  8
AM_0
 10
1182.831985898953
 20
206.8644301040629
 30
0.0
 11
1129.831985898953
 21
206.8644301040629
 31
0.0
  0
LINE
  5
1E486
  8
AM_0
 10
1182.831985898953
 20
205.514416104063
 30
0.0
 11
1129.831985898953
 21
205.514416104063
 31
0.0
  0
LINE
  5
1E487
  8
AM_0
 10
1182.831985898953
 20
204.84443410406291
 30
0.0
 11
1129.831985898953
 21
204.84443410406291
 31
0.0
  0
LINE
  5
1E488
  8
AM_0
 10
1160.831985898953
 20
224.404421104063
 30
0.0
 11
1062.4319657653259
 21
224.404421104063
 31
0.0
  0
LINE
  5
1E489
  8
AM_0
 10
1160.831985898953
 20
317.10443110406311
 30
0.0
 11
1062.4319657653259
 21
317.10443110406311
 31
0.0
  0
LINE
  5
1E48A
  8
AM_0
 10
1065.4819558989529
 20
234.75444110406289
 30
0.0
 11
1200.281935898952
 21
234.75444110406289
 31
0.0
  0
LINE
  5
1E48B
  8
AM_0
 10
1182.831985898953
 20
332.61442110406313
 30
0.0
 11
1066.021995898953
 21
332.61442110406313
 31
0.0
  0
LINE
  5
1E48C
  8
AM_0
 10
1182.831985898953
 20
208.89442910406299
 30
0.0
 11
1066.021995898953
 21
208.89442910406299
 31
0.0
  0
LINE
  5
1E48D
  8
AM_0
 10
1192.1519958989529
 20
307.47442110406303
 30
0.0
 11
1062.0119858989531
 21
307.47442110406303
 31
0.0
  0
LINE
  5
1E48E
  8
AM_0
 10
1065.4819558989529
 20
306.75444110406289
 30
0.0
 11
1191.281935898953
 21
306.75444110406289
 31
0.0
  0
LINE
  5
1E48F
  8
AM_0
 10
1065.4819558989529
 20
236.75443110406289
 30
0.0
 11
1200.281935898952
 21
236.75443110406289
 31
0.0
  0
LINE
  5
1E490
  8
AM_0
 10
1062.0119858989531
 20
237.384431104063
 30
0.0
 11
1201.1519958989529
 21
237.384431104063
 31
0.0
  0
LINE
  5
1E491
  8
AM_0
 10
1201.1519958989529
 20
234.03442110406289
 30
0.0
 11
1062.0119858989531
 21
234.03442110406289
 31
0.0
  0
LINE
  5
1E492
  8
AM_0
 10
1062.0119858989531
 20
304.12442110406312
 30
0.0
 11
1192.1519958989529
 21
304.12442110406312
 31
0.0
  0
LINE
  5
1E493
  8
AM_0
 10
1062.887015898953
 20
244.75442700406299
 30
0.0
 11
1200.281935898953
 21
244.754421104063
 31
0.0
  0
LINE
  5
1E494
  8
AM_0
 10
1062.8870158465929
 20
246.75443520406299
 30
0.0
 11
1200.281935898953
 21
246.75444110406289
 31
0.0
  0
LINE
  5
1E495
  8
AM_0
 10
1201.371965898953
 20
244.2744311040629
 30
0.0
 11
1061.7969858989529
 21
244.2744211040629
 31
0.0
  0
LINE
  5
1E496
  8
AM_0
 10
1201.371965898953
 20
247.194441104063
 30
0.0
 11
1061.7969858225081
 21
247.194421104063
 31
0.0
  0
LINE
  5
1E497
  8
AM_0
 10
1201.5019758989531
 20
254.414421104063
 30
0.0
 11
1061.6669758989531
 21
254.414441104063
 31
0.0
  0
LINE
  5
1E498
  8
AM_0
 10
1062.897010356794
 20
254.7544430743047
 30
0.0
 11
1200.271995898953
 21
254.75444110406289
 31
0.0
  0
LINE
  5
1E499
  8
AM_0
 10
1062.897010252075
 20
256.75443913473379
 30
0.0
 11
1200.271995898953
 21
256.754421104063
 31
0.0
  0
LINE
  5
1E49A
  8
AM_0
 10
1201.5019758989531
 20
257.07443110406291
 30
0.0
 11
1061.666975829314
 21
257.07444110406283
 31
0.0
  0
LINE
  5
1E49B
  8
AM_0
 10
1201.5619658989531
 20
264.48443110406288
 30
0.0
 11
1061.6069858989531
 21
264.48441710406303
 31
0.0
  0
LINE
  5
1E49C
  8
AM_0
 10
1062.897010356794
 20
264.75442307430473
 30
0.0
 11
1200.271995898953
 21
264.75444110406289
 31
0.0
  0
LINE
  5
1E49D
  8
AM_0
 10
1062.897010252075
 20
266.75441913473378
 30
0.0
 11
1200.271995898953
 21
266.75444110406289
 31
0.0
  0
LINE
  5
1E49E
  8
AM_0
 10
1201.5619658989531
 20
267.0244311040629
 30
0.0
 11
1061.6069858324561
 21
267.02442510406291
 31
0.0
  0
LINE
  5
1E49F
  8
AM_0
 10
1201.5619658989531
 20
274.49443110406293
 30
0.0
 11
1061.6069858989531
 21
274.49440710406299
 31
0.0
  0
LINE
  5
1E4A0
  8
AM_0
 10
1062.897010356794
 20
274.75442307430473
 30
0.0
 11
1200.271995898953
 21
274.75442110406289
 31
0.0
  0
LINE
  5
1E4A1
  8
AM_0
 10
1062.897010252075
 20
276.75441913473378
 30
0.0
 11
1200.271995898953
 21
276.75444110406289
 31
0.0
  0
LINE
  5
1E4A2
  8
AM_0
 10
1201.5619658989531
 20
277.0244311040629
 30
0.0
 11
1061.6069858327171
 21
277.02441510406288
 31
0.0
  0
LINE
  5
1E4A3
  8
AM_0
 10
1201.5019758989531
 20
284.43443110406298
 30
0.0
 11
1061.6669758989531
 21
284.43443110406298
 31
0.0
  0
LINE
  5
1E4A4
  8
AM_0
 10
1062.897010356794
 20
284.75444307430467
 30
0.0
 11
1200.271995898953
 21
284.75442110406289
 31
0.0
  0
LINE
  5
1E4A5
  8
AM_0
 10
1062.897010252075
 20
286.75443913473379
 30
0.0
 11
1200.271995898953
 21
286.75442110406289
 31
0.0
  0
LINE
  5
1E4A6
  8
AM_0
 10
1201.5019758989531
 20
287.09442110406292
 30
0.0
 11
1061.666975829314
 21
287.09443110406289
 31
0.0
  0
LINE
  5
1E4A7
  8
AM_0
 10
1192.371965898953
 20
294.31443110406292
 30
0.0
 11
1061.8019758989531
 21
294.31443110406292
 31
0.0
  0
LINE
  5
1E4A8
  8
AM_0
 10
1062.8920058989529
 20
294.75441700406287
 30
0.0
 11
1191.281935898953
 21
294.75444110406289
 31
0.0
  0
LINE
  5
1E4A9
  8
AM_0
 10
1062.8920058465931
 20
296.75442520406301
 30
0.0
 11
1191.281935898953
 21
296.754421104063
 31
0.0
  0
LINE
  5
1E4AA
  8
AM_0
 10
1192.371965898953
 20
297.24441110406298
 30
0.0
 11
1061.801975822246
 21
297.24443110406293
 31
0.0
  0
LINE
  5
1E4AB
  8
AM_0
 10
1065.4819748990751
 20
304.75442274979503
 30
0.0
 11
1191.281935898953
 21
304.754421104063
 31
0.0
  0
LINE
  5
1E4AC
  8
AM_0
 10
1210.8319558989531
 20
222.164431104063
 30
0.0
 11
1210.8319558989531
 21
265.75445110406292
 31
0.0
  0
LINE
  5
1E4AD
  8
AM_0
 10
1205.8320158989529
 20
213.32444210406291
 30
0.0
 11
1205.8320158989529
 21
270.75444110406289
 31
0.0
  0
LINE
  5
1E4AE
  8
AM_0
 10
1212.3319558989531
 20
290.75443110406292
 30
0.0
 11
1212.3319558989531
 21
250.75445110406289
 31
0.0
  0
LINE
  5
1E4AF
  8
AM_0
 10
1213.325855898953
 20
255.53255110406261
 30
0.0
 11
1213.325855898953
 21
285.9761811040629
 31
0.0
  0
LINE
  5
1E4B0
  8
AM_0
 10
1202.1119558989531
 20
319.10443110406311
 30
0.0
 11
1201.571915898953
 21
322.09443110406312
 31
0.0
  0
LINE
  5
1E4B1
  8
AM_0
 10
1208.8320158989529
 20
320.25444110406289
 30
0.0
 11
1208.8320158989529
 21
319.72444110406292
 31
0.0
  0
LINE
  5
1E4B2
  8
AM_0
 10
1209.061995898953
 20
320.37444110406301
 30
0.0
 11
1210.3320158989529
 21
319.63443110406291
 31
0.0
  0
LINE
  5
1E4B3
  8
AM_0
 10
1205.8320158989529
 20
328.18443110406298
 30
0.0
 11
1205.8320158989529
 21
270.75444110406289
 31
0.0
  0
ARC
  5
1E4B4
  8
AM_0
 10
1182.8374258989529
 20
333.99986110406292
 30
0.0
 40
1.9945760999999991
 50
359.84400999999718
 51
90.155991999999998
  0
ARC
  5
1E4B5
  8
AM_0
 10
1182.829485898953
 20
334.67958110406289
 30
0.0
 40
1.994844099999999
 50
14.36280000000006
 51
89.928342000008641
  0
LINE
  5
1E4B6
  8
AM_0
 10
1199.7220058989531
 20
334.0544211040629
 30
0.0
 11
1186.2220058989531
 21
334.0544211040629
 31
0.0
  0
LINE
  5
1E4B7
  8
AM_0
 10
1199.6919758989529
 20
332.42442110406301
 30
0.0
 11
1186.331985898953
 21
332.42442110406301
 31
0.0
  0
LINE
  5
1E4B8
  8
AM_0
 10
1199.661945898953
 20
329.0244311040629
 30
0.0
 11
1186.331985898953
 21
329.0244311040629
 31
0.0
  0
LINE
  5
1E4B9
  8
AM_0
 10
1199.6020058989529
 20
323.73442110406302
 30
0.0
 11
1186.331985898953
 21
323.73442110406302
 31
0.0
  0
ARC
  5
1E4BA
  8
AM_0
 10
1199.6602958989531
 20
327.02903110406288
 30
0.0
 40
1.9953879999999991
 50
12.01538000000023
 51
89.951933000008736
  0
LINE
  5
1E4BB
  8
AM_0
 10
1201.641985898953
 20
330.88443110406303
 30
0.0
 11
1202.5620258989529
 21
327.00444110406289
 31
0.0
  0
ARC
  5
1E4BC
  8
AM_0
 10
1204.0036858989531
 20
329.38153110406307
 30
0.0
 40
1.5070961
 50
194.0978200000026
 51
269.93517999999841
  0
LINE
  5
1E4BD
  8
AM_0
 10
1204.0019758989531
 20
327.87443110406298
 30
0.0
 11
1202.3519458989531
 21
327.87443110406298
 31
0.0
  0
LINE
  5
1E4BE
  8
AM_0
 10
1205.8320458989531
 20
328.18443110406298
 30
0.0
 11
1203.0119858989531
 21
328.25442110406289
 31
0.0
  0
ARC
  5
1E4BF
  8
AM_0
 10
1199.7246858989531
 20
332.05665110406301
 30
0.0
 40
1.9977800999999991
 50
14.132230000003119
 51
90.076919000002235
  0
LINE
  5
1E4C0
  8
AM_0
 10
1201.6620058989531
 20
332.54444110406291
 30
0.0
 11
1202.542015898953
 21
329.01445110406291
 31
0.0
  0
ARC
  5
1E4C1
  8
AM_0
 10
1199.6991758989529
 20
330.4289711040629
 30
0.0
 40
1.9954841000000001
 50
13.194079999997459
 51
90.206542000000866
  0
LINE
  5
1E4C2
  8
AM_0
 10
1204.042015898953
 20
321.79441110406287
 30
0.0
 11
1201.621965898953
 21
321.79441110406287
 31
0.0
  0
ARC
  5
1E4C3
  8
AM_0
 10
1204.0407858989529
 20
323.2985611040628
 30
0.0
 40
1.50414
 50
192.4447500000048
 51
270.04575000000801
  0
LINE
  5
1E4C4
  8
AM_0
 10
1204.021995898953
 20
325.85441110406288
 30
0.0
 11
1201.9619958989531
 21
325.85441110406288
 31
0.0
  0
ARC
  5
1E4C5
  8
AM_0
 10
1204.0227858989531
 20
327.35723110406298
 30
0.0
 40
1.5028081
 50
193.57782000000131
 51
269.96921000000498
  0
ARC
  5
1E4C6
  8
AM_0
 10
1208.5699858989531
 20
319.50856110406289
 30
0.0
 40
0.9959119600000002
 50
60.393009999997091
 51
90.458556000002645
  0
ARC
  5
1E4C7
  8
AM_0
 10
1206.336595898953
 20
321.00906110406311
 30
0.0
 40
0.5046359900000002
 50
180.5237599999995
 51
269.47624000000047
  0
LINE
  5
1E4C8
  8
AM_0
 10
1208.561995898953
 20
320.50444110406289
 30
0.0
 11
1206.3319558989531
 21
320.50444110406289
 31
0.0
  0
ARC
  5
1E4C9
  8
AM_0
 10
1199.6101258989529
 20
321.74099110406303
 30
0.0
 40
1.993431999999999
 50
10.211969999999811
 51
90.23411600000729
  0
LINE
  5
1E4CA
  8
AM_0
 10
1201.6119558989531
 20
327.444421104063
 30
0.0
 11
1202.571975898953
 21
322.97442110406303
 31
0.0
  0
LINE
  5
1E4CB
  8
AM_0
 10
1184.831985898953
 20
332.6444211040631
 30
0.0
 11
1184.831985898953
 21
325.23442110406302
 31
0.0
  0
ARC
  5
1E4CC
  8
AM_0
 10
1182.8347358989531
 20
332.64721110406299
 30
0.0
 40
1.9972080000000001
 50
359.91986000000099
 51
90.080142999999538
  0
ARC
  5
1E4CD
  8
AM_0
 10
1182.835585898953
 20
330.61804110406302
 30
0.0
 40
1.996383999999999
 50
359.89615999999739
 51
90.103837000006493
  0
ARC
  5
1E4CE
  8
AM_0
 10
1186.218345898953
 20
335.56132110406298
 30
0.0
 40
1.506888
 50
194.8769300000038
 51
270.1377700000005
  0
ARC
  5
1E4CF
  8
AM_0
 10
1186.3358358989531
 20
333.92826110406293
 30
0.0
 40
1.503848099999999
 50
180.14640000000301
 51
269.85359999999702
  0
ARC
  5
1E4D0
  8
AM_0
 10
1186.3337558989531
 20
330.5262111040629
 30
0.0
 40
1.5017959999999979
 50
180.06854999999891
 51
269.93145000000101
  0
ARC
  5
1E4D1
  8
AM_0
 10
1186.337665898953
 20
325.24009110406303
 30
0.0
 40
1.505676
 50
180.21552999999901
 51
269.78448000000759
  0
LINE
  5
1E4D2
  8
AM_0
 10
1212.3319558989531
 20
285.90445110406301
 30
0.0
 11
1208.051985898953
 21
285.90445110406301
 31
0.0
  0
LINE
  5
1E4D3
  8
AM_0
 10
1206.8320158989529
 20
286.75444110406289
 30
0.0
 11
1209.8320158989529
 21
286.75444110406289
 31
0.0
  0
LINE
  5
1E4D4
  8
AM_0
 10
1206.8320158989529
 20
284.7544311040628
 30
0.0
 11
1209.8320158989529
 21
284.7544311040628
 31
0.0
  0
LINE
  5
1E4D5
  8
AM_0
 10
1206.8320158989529
 20
296.7544311040628
 30
0.0
 11
1209.8320158989529
 21
296.7544311040628
 31
0.0
  0
LINE
  5
1E4D6
  8
AM_0
 10
1206.8320158989529
 20
294.75444110406289
 30
0.0
 11
1209.8320158989529
 21
294.75444110406289
 31
0.0
  0
LINE
  5
1E4D7
  8
AM_0
 10
1209.022015898953
 20
306.36446110406303
 30
0.0
 11
1210.222025898953
 21
305.85446110406298
 31
0.0
  0
LINE
  5
1E4D8
  8
AM_0
 10
1208.9719658989529
 20
304.45444110406288
 30
0.0
 11
1210.1219958989529
 21
304.10443110406283
 31
0.0
  0
LINE
  5
1E4D9
  8
AM_0
 10
1209.072005898953
 20
318.25444110406289
 30
0.0
 11
1210.3520358989531
 21
317.48445110406288
 31
0.0
  0
LINE
  5
1E4DA
  8
AM_0
 10
1209.0820158989529
 20
313.71440110406297
 30
0.0
 11
1210.3820058989529
 21
312.86441110406292
 31
0.0
  0
LINE
  5
1E4DB
  8
AM_0
 10
1209.061995898953
 20
312.60442110406291
 30
0.0
 11
1210.3420258989529
 21
311.85442110406279
 31
0.0
  0
LINE
  5
1E4DC
  8
AM_0
 10
1209.0419758989531
 20
319.25447110406282
 30
0.0
 11
1210.2819658989531
 21
318.62447110406288
 31
0.0
  0
LINE
  5
1E4DD
  8
AM_0
 10
1209.051985898953
 20
317.14446110406288
 30
0.0
 11
1210.3020458989531
 21
316.47446110406281
 31
0.0
  0
LINE
  5
1E4DE
  8
AM_0
 10
1206.8320158989529
 20
264.75444110406289
 30
0.0
 11
1209.8320158989529
 21
264.75444110406289
 31
0.0
  0
LINE
  5
1E4DF
  8
AM_0
 10
1206.8320158989529
 20
266.75443110406292
 30
0.0
 11
1209.8320158989529
 21
266.75443110406292
 31
0.0
  0
LINE
  5
1E4E0
  8
AM_0
 10
1206.8320158989529
 20
276.75444110406289
 30
0.0
 11
1209.8320158989529
 21
276.75444110406289
 31
0.0
  0
LINE
  5
1E4E1
  8
AM_0
 10
1206.8320158989529
 20
274.75444110406289
 30
0.0
 11
1209.8320158989529
 21
274.75444110406289
 31
0.0
  0
LINE
  5
1E4E2
  8
AM_0
 10
1210.8319558989531
 20
318.77445110406279
 30
0.0
 11
1210.8319558989531
 21
275.75443110406292
 31
0.0
  0
ARC
  5
1E4E3
  8
AM_0
 10
1209.837205898953
 20
312.03204110406301
 30
0.0
 40
0.9948279899999999
 50
359.56186999999977
 51
56.795310000000541
  0
ARC
  5
1E4E4
  8
AM_0
 10
1209.8387858989529
 20
318.7723611040629
 30
0.0
 40
0.99319202
 50
0.1204399999995766
 51
60.226599999995997
  0
ARC
  5
1E4E5
  8
AM_0
 10
1209.836405898953
 20
317.73413110406301
 30
0.0
 40
0.99558806
 50
0.0177499999989462
 51
63.412510000001397
  0
ARC
  5
1E4E6
  8
AM_0
 10
1209.837565898953
 20
316.63341110406287
 30
0.0
 40
0.9944360299999999
 50
0.0595100000007121
 51
58.847829999993849
  0
ARC
  5
1E4E7
  8
AM_0
 10
1209.8387858989529
 20
315.59587110406289
 30
0.0
 40
0.9932120399999999
 50
359.91816999999918
 51
62.200659999997107
  0
ARC
  5
1E4E8
  8
AM_0
 10
1209.837935898953
 20
310.99764110406301
 30
0.0
 40
0.99407601
 50
359.81535999999909
 51
59.530799999997051
  0
ARC
  5
1E4E9
  8
AM_0
 10
1209.8356158989529
 20
304.93602110406289
 30
0.0
 40
0.99640006
 50
359.90960000000132
 51
67.182610000001333
  0
ARC
  5
1E4EA
  8
AM_0
 10
1209.8357358989531
 20
303.15019110406303
 30
0.0
 40
0.9962600499999998
 50
359.66950999999978
 51
73.302510000000026
  0
ARC
  5
1E4EB
  8
AM_0
 10
1209.836955898953
 20
295.75937110406301
 30
0.0
 40
0.9950800499999999
 50
359.7159300000007
 51
90.284078999992204
  0
ARC
  5
1E4EC
  8
AM_0
 10
1209.8318358989529
 20
295.75466110406302
 30
0.0
 40
1.0002040000000001
 50
270.01168000000581
 51
359.98832999999553
  0
LINE
  5
1E4ED
  8
AM_0
 10
1212.3320158989529
 20
290.75446110406278
 30
0.0
 11
1210.8320158989529
 21
290.88446110406289
 31
0.0
  0
ARC
  5
1E4EE
  8
AM_0
 10
1209.836955898953
 20
285.759351104063
 30
0.0
 40
0.99508399
 50
359.71613000000212
 51
90.283866999995979
  0
LINE
  5
1E4EF
  8
AM_0
 10
1212.3319558989531
 20
288.03444110406292
 30
0.0
 11
1210.8319558989531
 21
288.03444110406292
 31
0.0
  0
LINE
  5
1E4F0
  8
AM_0
 10
1212.825855898953
 20
288.74620110406278
 30
0.0
 11
1212.325855898953
 21
288.70619110406261
 31
0.0
  0
LINE
  5
1E4F1
  8
AM_0
 10
1213.325855898953
 20
285.9761811040629
 30
0.0
 11
1212.825855898953
 21
288.74620110406278
 31
0.0
  0
ARC
  5
1E4F2
  8
AM_0
 10
1209.8318358989529
 20
285.75464110406278
 30
0.0
 40
1.000199999999998
 50
270.0114700000064
 51
359.98853000000008
  0
ARC
  5
1E4F3
  8
AM_0
 10
1209.836955898953
 20
275.75937110406289
 30
0.0
 40
0.9950879799999999
 50
359.71634999999952
 51
90.283655000003648
  0
ARC
  5
1E4F4
  8
AM_0
 10
1209.8318358989529
 20
275.75464110406278
 30
0.0
 40
1.0001959999999981
 50
270.01125999999419
 51
359.98875000000061
  0
ARC
  5
1E4F5
  8
AM_0
 10
1209.836955898953
 20
265.75937110406289
 30
0.0
 40
0.9950800499999999
 50
359.71590000000032
 51
90.284106000003717
  0
POINT
  5
1E4F6
  8
AM_0
 10
1213.325855898953
 20
270.75441110406268
 30
0.0
  0
ARC
  5
1E4F7
  8
AM_0
 10
1209.8318358989529
 20
265.75466110406302
 30
0.0
 40
1.0002040000000001
 50
270.0117000000082
 51
359.98829999999828
  0
LINE
  5
1E4F8
  8
AM_0
 10
1160.831985898953
 20
317.10441110406288
 30
0.0
 11
1195.831985898953
 21
315.0744111040629
 31
0.0
  0
ARC
  5
1E4F9
  8
AM_0
 10
1183.831985898953
 20
305.75442110406289
 30
0.0
 40
1.0000040999999991
 50
270.0
 51
89.999997000002296
  0
ARC
  5
1E4FA
  8
AM_0
 10
1191.281935898953
 20
305.75442110406289
 30
0.0
 40
1.0000040999999991
 50
270.0
 51
89.999997000002296
  0
ARC
  5
1E4FB
  8
AM_0
 10
1192.1519958989529
 20
305.79942110406301
 30
0.0
 40
1.6750081000000001
 50
270.0
 51
89.999997000002296
  0
LINE
  5
1E4FC
  8
AM_0
 10
1205.831985898953
 20
305.06442110406289
 30
0.0
 11
1195.831985898953
 21
305.06442110406289
 31
0.0
  0
LINE
  5
1E4FD
  8
AM_0
 10
1205.831985898953
 20
319.10441110406288
 30
0.0
 11
1195.831985898953
 21
319.10441110406288
 31
0.0
  0
LINE
  5
1E4FE
  8
AM_0
 10
1205.831985898953
 20
313.444421104063
 30
0.0
 11
1195.831985898953
 21
313.444421104063
 31
0.0
  0
ARC
  5
1E4FF
  8
AM_0
 10
1206.8343958989531
 20
311.74207110406297
 30
0.0
 40
1.002375999999999
 50
90.135590000000704
 51
179.864408009996
  0
ARC
  5
1E500
  8
AM_0
 10
1208.6072258989529
 20
318.36041110406302
 30
0.0
 40
0.9941280500000002
 50
64.065190000002104
 51
90.87719199999151
  0
ARC
  5
1E501
  8
AM_0
 10
1208.563155898953
 20
317.4002411040629
 30
0.0
 40
0.9942600099999999
 50
59.218910000003319
 51
90.644117999997562
  0
ARC
  5
1E502
  8
AM_0
 10
1208.5969058989531
 20
316.259081104063
 30
0.0
 40
0.99546796
 50
62.796340000005848
 51
90.858552000004934
  0
ARC
  5
1E503
  8
AM_0
 10
1206.8309758989531
 20
316.25543110406289
 30
0.0
 40
0.9990080599999998
 50
89.943157000003893
 51
180.05685000000281
  0
ARC
  5
1E504
  8
AM_0
 10
1206.330365898953
 20
318.85608110406298
 30
0.0
 40
0.4983640000000002
 50
89.811402000005629
 51
180.18858999999841
  0
LINE
  5
1E505
  8
AM_0
 10
1208.551985898953
 20
318.39443110406302
 30
0.0
 11
1205.8320158989529
 21
318.39443110406302
 31
0.0
  0
LINE
  5
1E506
  8
AM_0
 10
1208.5819558989531
 20
317.25444110406289
 30
0.0
 11
1206.8320158989529
 21
317.25444110406289
 31
0.0
  0
LINE
  5
1E507
  8
AM_0
 10
1208.5920258989529
 20
319.35443110406283
 30
0.0
 11
1206.3319558989531
 21
319.35443110406283
 31
0.0
  0
LINE
  5
1E508
  8
AM_0
 10
1208.8320158989529
 20
318.1544511040629
 30
0.0
 11
1208.8320158989529
 21
317.604451104063
 31
0.0
  0
ARC
  5
1E509
  8
AM_0
 10
1208.5253758989529
 20
312.88825110406287
 30
0.0
 40
0.9962120099999999
 50
56.030099999999152
 51
89.618094000004675
  0
ARC
  5
1E50A
  8
AM_0
 10
1208.5525958989531
 20
311.74796110406288
 30
0.0
 40
0.9965200400000001
 50
59.256719999999412
 51
89.458787000007035
  0
LINE
  5
1E50B
  8
AM_0
 10
1208.5319658989531
 20
313.88445110406298
 30
0.0
 11
1205.8320158989529
 21
313.88445110406298
 31
0.0
  0
LINE
  5
1E50C
  8
AM_0
 10
1208.561995898953
 20
312.74443110406293
 30
0.0
 11
1206.8320158989529
 21
312.74443110406293
 31
0.0
  0
LINE
  5
1E50D
  8
AM_0
 10
1208.8320158989529
 20
313.58443110406279
 30
0.0
 11
1208.8320158989529
 21
313.11444110406302
 31
0.0
  0
ARC
  5
1E50E
  8
AM_0
 10
1208.6310258989531
 20
305.4489611040629
 30
0.0
 40
0.99548006
 50
66.872969999991113
 51
89.942678999994754
  0
ARC
  5
1E50F
  8
AM_0
 10
1206.5365458989529
 20
307.14899110406287
 30
0.0
 40
0.7045519900000002
 50
180.36910999999949
 51
269.63089000000701
  0
LINE
  5
1E510
  8
AM_0
 10
1208.6320058989529
 20
306.44444110406289
 30
0.0
 11
1206.532025898953
 21
306.44444110406289
 31
0.0
  0
LINE
  5
1E511
  8
AM_0
 10
1208.8320158989529
 20
306.14444110406299
 30
0.0
 11
1208.8320158989529
 21
305.08444110406299
 31
0.0
  0
ARC
  5
1E512
  8
AM_0
 10
1192.6820858989529
 20
311.96458110406297
 30
0.0
 40
1.004135999999999
 50
134.20256399999809
 51
185.15116000000401
  0
LINE
  5
1E513
  8
AM_0
 10
1195.831985898953
 20
319.10441110406288
 30
0.0
 11
1195.831985898953
 21
305.06442110406289
 31
0.0
  0
ARC
  5
1E514
  8
AM_0
 10
1196.210775898953
 20
308.42248110406291
 30
0.0
 40
6.0039081999999979
 50
93.617285999997804
 51
134.7763070000029
  0
ARC
  5
1E515
  8
AM_0
 10
1196.667075898953
 20
312.352201104063
 30
0.0
 40
5.0078917000000001
 50
185.47467999999949
 51
260.40127999999243
  0
ARC
  5
1E516
  8
AM_0
 10
1206.8368958989529
 20
297.759351104063
 30
0.0
 40
1.0049318999999981
 50
180.2804200000034
 51
269.71958000000308
  0
ARC
  5
1E517
  8
AM_0
 10
1208.692855898953
 20
303.50173110406291
 30
0.0
 40
0.99277198
 50
73.66818000000049
 51
90.625191999999927
  0
ARC
  5
1E518
  8
AM_0
 10
1206.8303058989529
 20
303.49614110406287
 30
0.0
 40
0.99829602
 50
89.902039000001025
 51
180.09795999999611
  0
LINE
  5
1E519
  8
AM_0
 10
1208.6819858989529
 20
304.49443110406293
 30
0.0
 11
1206.8320158989529
 21
304.49443110406293
 31
0.0
  0
ARC
  5
1E51A
  8
AM_0
 10
1206.8318358989529
 20
293.75459110406302
 30
0.0
 40
0.99985206
 50
89.991453000004427
 51
180.00854999999979
  0
LINE
  5
1E51B
  8
AM_0
 10
1208.8320158989529
 20
296.38445110406298
 30
0.0
 11
1208.8320158989529
 21
295.01445110406291
 31
0.0
  0
ARC
  5
1E51C
  8
AM_0
 10
1192.371965898953
 20
295.77943110406301
 30
0.0
 40
1.4650000000000001
 50
270.0
 51
89.999997000002296
  0
ARC
  5
1E51D
  8
AM_0
 10
1191.281935898953
 20
295.75442110406289
 30
0.0
 40
1.0000040999999991
 50
270.0
 51
89.999997000002296
  0
ARC
  5
1E51E
  8
AM_0
 10
1183.831985898953
 20
295.75442110406289
 30
0.0
 40
1.0000040999999991
 50
270.0
 51
89.999997000002296
  0
ARC
  5
1E51F
  8
AM_0
 10
1206.8318358989529
 20
273.75459110406302
 30
0.0
 40
0.99984801
 50
89.991221000001872
 51
180.00877999999949
  0
ARC
  5
1E520
  8
AM_0
 10
1201.5019758989531
 20
285.76443110406291
 30
0.0
 40
1.3300000000000001
 50
270.0
 51
89.999997000002296
  0
ARC
  5
1E521
  8
AM_0
 10
1206.8368958989529
 20
287.759351104063
 30
0.0
 40
1.004928
 50
180.28021999999979
 51
269.71978000000678
  0
ARC
  5
1E522
  8
AM_0
 10
1206.8318358989529
 20
283.75458110406299
 30
0.0
 40
0.9998440099999999
 50
89.991009000001426
 51
180.00899000000371
  0
LINE
  5
1E523
  8
AM_0
 10
1208.8320158989529
 20
286.36443110406299
 30
0.0
 11
1208.8320158989529
 21
285.1544511040629
 31
0.0
  0
ARC
  5
1E524
  8
AM_0
 10
1200.280655898953
 20
285.75444110406289
 30
0.0
 40
1.000035999999999
 50
269.50071000000491
 51
90.499284000006355
  0
ARC
  5
1E525
  8
AM_0
 10
1201.5619658989531
 20
275.75941110406308
 30
0.0
 40
1.265004
 50
270.0
 51
89.999997000002296
  0
LINE
  5
1E526
  8
AM_0
 10
1208.8320158989529
 20
276.36444110406302
 30
0.0
 11
1208.8320158989529
 21
275.20442110406299
 31
0.0
  0
ARC
  5
1E527
  8
AM_0
 10
1206.8368958989529
 20
277.75934110406303
 30
0.0
 40
1.0049238999999981
 50
180.2800100000029
 51
269.71998999999721
  0
ARC
  5
1E528
  8
AM_0
 10
1200.280655898953
 20
275.754421104063
 30
0.0
 40
1.000035999999999
 50
269.50071000000491
 51
90.499284000006355
  0
ARC
  5
1E529
  8
AM_0
 10
1183.831985898953
 20
285.75444110406289
 30
0.0
 40
1.0000040999999991
 50
270.0
 51
89.999997000002296
  0
ARC
  5
1E52A
  8
AM_0
 10
1183.831985898953
 20
275.754421104063
 30
0.0
 40
1.0000040999999991
 50
270.0
 51
89.999997000002296
  0
ARC
  5
1E52B
  8
AM_0
 10
1200.280655898953
 20
265.75442110406289
 30
0.0
 40
1.000035999999999
 50
269.50071000000491
 51
90.499284000006355
  0
ARC
  5
1E52C
  8
AM_0
 10
1201.5619658989531
 20
265.75442110406289
 30
0.0
 40
1.270003999999999
 50
270.0
 51
89.999997000002296
  0
ARC
  5
1E52D
  8
AM_0
 10
1206.836955898953
 20
267.75936110406298
 30
0.0
 40
1.0049318999999981
 50
180.280450000001
 51
269.71955000000548
  0
ARC
  5
1E52E
  8
AM_0
 10
1206.8318358989529
 20
263.75459110406302
 30
0.0
 40
0.99985206
 50
89.991425999998796
 51
180.00857000000201
  0
LINE
  5
1E52F
  8
AM_0
 10
1208.8320158989529
 20
265.14443110406302
 30
0.0
 11
1208.8320158989529
 21
266.30445110406282
 31
0.0
  0
ARC
  5
1E530
  8
AM_0
 10
1183.831985898953
 20
265.75442110406289
 30
0.0
 40
1.0000040999999991
 50
270.0
 51
89.999997000002296
  0
LINE
  5
1E531
  8
AM_0
 10
1209.061995898953
 20
221.144472104063
 30
0.0
 11
1210.3320158989529
 21
221.8744681040628
 31
0.0
  0
LINE
  5
1E532
  8
AM_0
 10
1209.0420358989529
 20
222.26446710406279
 30
0.0
 11
1210.282025898953
 21
222.8944651040629
 31
0.0
  0
LINE
  5
1E533
  8
AM_0
 10
1209.0820158989529
 20
227.7944511040628
 30
0.0
 11
1210.3820058989529
 21
228.64445710406289
 31
0.0
  0
LINE
  5
1E534
  8
AM_0
 10
1209.072005898953
 20
223.25447310406309
 30
0.0
 11
1210.3520358989531
 21
224.02448510406299
 31
0.0
  0
LINE
  5
1E535
  8
AM_0
 10
1209.061995898953
 20
228.90445910406291
 30
0.0
 11
1210.341965898953
 21
229.65444410406289
 31
0.0
  0
LINE
  5
1E536
  8
AM_0
 10
1209.051985898953
 20
224.3744381040629
 30
0.0
 11
1210.301985898953
 21
225.03442610406299
 31
0.0
  0
LINE
  5
1E537
  8
AM_0
 10
1209.022015898953
 20
235.1444651040629
 30
0.0
 11
1210.2219658989529
 21
235.664431104063
 31
0.0
  0
LINE
  5
1E538
  8
AM_0
 10
1208.9719658989529
 20
237.05446110406299
 30
0.0
 11
1210.1219958989529
 21
237.41446110406289
 31
0.0
  0
LINE
  5
1E539
  8
AM_0
 10
1212.3319558989531
 20
255.6044311040628
 30
0.0
 11
1207.7519958989531
 21
255.6044311040628
 31
0.0
  0
LINE
  5
1E53A
  8
AM_0
 10
1206.8320158989529
 20
244.75445110406289
 30
0.0
 11
1209.8320158989529
 21
244.75445110406289
 31
0.0
  0
LINE
  5
1E53B
  8
AM_0
 10
1206.8320158989529
 20
246.75444110406289
 30
0.0
 11
1209.8320158989529
 21
246.75444110406289
 31
0.0
  0
LINE
  5
1E53C
  8
AM_0
 10
1206.8320158989529
 20
254.75443110406289
 30
0.0
 11
1209.8320158989529
 21
254.75443110406289
 31
0.0
  0
LINE
  5
1E53D
  8
AM_0
 10
1206.8320158989529
 20
256.75445110406292
 30
0.0
 11
1209.8320158989529
 21
256.75445110406292
 31
0.0
  0
ARC
  5
1E53E
  8
AM_0
 10
1209.836955898953
 20
255.759361104063
 30
0.0
 40
0.99508399
 50
359.71610999999569
 51
90.283894000007024
  0
LINE
  5
1E53F
  8
AM_0
 10
1212.3319558989531
 20
253.47444110406289
 30
0.0
 11
1210.8319558989531
 21
253.47444110406289
 31
0.0
  0
LINE
  5
1E540
  8
AM_0
 10
1212.825855898953
 20
252.76259110406261
 30
0.0
 11
1212.3258258989531
 21
252.80260110406269
 31
0.0
  0
ARC
  5
1E541
  8
AM_0
 10
1209.8318358989529
 20
255.75465110406279
 30
0.0
 40
1.000199999999998
 50
270.01148999999577
 51
359.98849999999652
  0
LINE
  5
1E542
  8
AM_0
 10
1213.325855898953
 20
255.53258110406281
 30
0.0
 11
1212.825855898953
 21
252.76259110406261
 31
0.0
  0
LINE
  5
1E543
  8
AM_0
 10
1212.3319558989531
 20
250.75444110406289
 30
0.0
 11
1210.8320158989529
 21
250.62444110406301
 31
0.0
  0
ARC
  5
1E544
  8
AM_0
 10
1209.8318358989529
 20
245.75464110406281
 30
0.0
 40
1.0001959999999981
 50
270.01127999999659
 51
359.98871999999687
  0
ARC
  5
1E545
  8
AM_0
 10
1209.836955898953
 20
245.7593811040629
 30
0.0
 40
0.99508399
 50
359.71632000000022
 51
90.283675999997385
  0
ARC
  5
1E546
  8
AM_0
 10
1209.835495898953
 20
236.5829111040631
 30
0.0
 40
0.9964760499999998
 50
292.8203400000001
 51
0.0874199999992909
  0
ARC
  5
1E547
  8
AM_0
 10
1209.8356158989529
 20
238.36878410406291
 30
0.0
 40
0.9963800299999999
 50
286.70293000000493
 51
359.75050999999979
  0
ARC
  5
1E548
  8
AM_0
 10
1209.8329258989529
 20
229.47912810406299
 30
0.0
 40
0.9991000299999999
 50
303.33822999999751
 51
0.3045799999989382
  0
ARC
  5
1E549
  8
AM_0
 10
1209.833535898953
 20
230.5137431040628
 30
0.0
 40
0.9984599899999999
 50
300.61344999999829
 51
0.0403800000005402
  0
ARC
  5
1E54A
  8
AM_0
 10
1209.8342758989529
 20
225.91573510406289
 30
0.0
 40
0.99770796
 50
297.95523999999318
 51
359.9259500000004
  0
ARC
  5
1E54B
  8
AM_0
 10
1209.8363458989529
 20
223.78480010406301
 30
0.0
 40
0.99566799
 50
296.5901700000058
 51
359.97956999999923
  0
ARC
  5
1E54C
  8
AM_0
 10
1209.8343958989531
 20
222.73910710406301
 30
0.0
 40
0.9976240400000001
 50
299.92046000000022
 51
359.73248999999612
  0
ARC
  5
1E54D
  8
AM_0
 10
1209.833235898953
 20
224.87793910406279
 30
0.0
 40
0.9987800700000001
 50
301.29144999999551
 51
0.3733299999998945
  0
ARC
  5
1E54E
  8
AM_0
 10
1196.2017358989531
 20
233.10093110406299
 30
0.0
 40
6.007896399999999
 50
225.38273000000569
 51
266.47155000000168
  0
LINE
  5
1E54F
  8
AM_0
 10
1195.831985898953
 20
222.40443110406301
 30
0.0
 11
1195.831985898953
 21
234.0944314919316
 31
0.0
  0
ARC
  5
1E550
  8
AM_0
 10
1206.8318358989529
 20
243.75460110406291
 30
0.0
 40
0.99984801
 50
89.991193000001289
 51
180.00881000000291
  0
ARC
  5
1E551
  8
AM_0
 10
1201.5019758989531
 20
255.7444411040629
 30
0.0
 40
1.3300000000000001
 50
270.0
 51
89.999997000002296
  0
ARC
  5
1E552
  8
AM_0
 10
1206.8368958989529
 20
257.759351104063
 30
0.0
 40
1.004928
 50
180.28023999999999
 51
269.71976000000001
  0
LINE
  5
1E553
  8
AM_0
 10
1208.8320158989529
 20
255.14445110406299
 30
0.0
 11
1208.8320158989529
 21
256.36443110406282
 31
0.0
  0
ARC
  5
1E554
  8
AM_0
 10
1206.8318358989529
 20
253.754591104063
 30
0.0
 40
0.9998440099999999
 50
89.990982000008813
 51
180.00902000000059
  0
ARC
  5
1E555
  8
AM_0
 10
1200.280655898953
 20
255.75444110406289
 30
0.0
 40
1.000035999999999
 50
269.50071000000491
 51
90.499284000006355
  0
ARC
  5
1E556
  8
AM_0
 10
1201.371965898953
 20
245.73442110406299
 30
0.0
 40
1.4599999999999991
 50
270.0
 51
89.999997000002296
  0
LINE
  5
1E557
  8
AM_0
 10
1208.8320158989529
 20
245.12444110406301
 30
0.0
 11
1208.8320158989529
 21
246.4944311040629
 31
0.0
  0
ARC
  5
1E558
  8
AM_0
 10
1206.8368958989529
 20
247.759351104063
 30
0.0
 40
1.0049238999999981
 50
180.28003000000271
 51
269.7199600000007
  0
ARC
  5
1E559
  8
AM_0
 10
1200.281935898953
 20
245.75443110406289
 30
0.0
 40
1.0000040999999991
 50
270.0
 51
89.999997000002296
  0
ARC
  5
1E55A
  8
AM_0
 10
1183.831985898953
 20
255.75444110406289
 30
0.0
 40
1.0000040999999991
 50
270.0
 51
89.999997000002296
  0
ARC
  5
1E55B
  8
AM_0
 10
1183.831985898953
 20
245.75443110406289
 30
0.0
 40
1.0000040999999991
 50
270.0
 51
89.999997000002296
  0
ARC
  5
1E55C
  8
AM_0
 10
1200.281933269031
 20
235.75442405406289
 30
0.0
 40
1.000007050003423
 50
270.00015068234609
 51
89.999849317653869
  0
ARC
  5
1E55D
  8
AM_0
 10
1201.1519958989529
 20
235.70942110406281
 30
0.0
 40
1.6750081000000001
 50
270.0
 51
89.999997000002296
  0
LINE
  5
1E55E
  8
AM_0
 10
1208.8320158989529
 20
235.36443510406301
 30
0.0
 11
1208.8320158989529
 21
236.42443310406301
 31
0.0
  0
LINE
  5
1E55F
  8
AM_0
 10
1205.831985898953
 20
236.45443110406299
 30
0.0
 11
1202.661945898953
 21
236.45443110406299
 31
0.0
  0
ARC
  5
1E560
  8
AM_0
 10
1206.835305898953
 20
238.017794104063
 30
0.0
 40
1.003363999999999
 50
180.19171999999699
 51
269.80829000000779
  0
ARC
  5
1E561
  8
AM_0
 10
1208.6914458989529
 20
238.017130104063
 30
0.0
 40
1.0027280000000001
 50
269.45960000000707
 51
286.24702999999818
  0
LINE
  5
1E562
  8
AM_0
 10
1208.6819858989529
 20
237.0144451040629
 30
0.0
 11
1206.8320158989529
 21
237.0144451040629
 31
0.0
  0
ARC
  5
1E563
  8
AM_0
 10
1206.5314158989529
 20
234.36500010406289
 30
0.0
 40
0.69944
 50
89.954160000006354
 51
180.0458400000002
  0
ARC
  5
1E564
  8
AM_0
 10
1208.629015898953
 20
236.069666104063
 30
0.0
 40
1.005223999999999
 50
270.1706399999963
 51
293.01371000000171
  0
LINE
  5
1E565
  8
AM_0
 10
1208.6320058989529
 20
235.0644401040629
 30
0.0
 11
1206.532025898953
 21
235.0644401040629
 31
0.0
  0
ARC
  5
1E566
  8
AM_0
 10
1208.568645898953
 20
229.77543910406291
 30
0.0
 40
1.001012
 50
269.61980000000278
 51
299.5286400000054
  0
ARC
  5
1E567
  8
AM_0
 10
1206.8344558989529
 20
229.776903104063
 30
0.0
 40
1.0024599999999999
 50
180.1403799999988
 51
269.85962000000762
  0
LINE
  5
1E568
  8
AM_0
 10
1208.561995898953
 20
228.77444710406289
 30
0.0
 11
1206.8320158989529
 21
228.77444710406289
 31
0.0
  0
ARC
  5
1E569
  8
AM_0
 10
1183.831985898953
 20
235.75442110406291
 30
0.0
 40
1.0000040999999991
 50
270.0
 51
89.999997000002296
  0
ARC
  5
1E56A
  8
AM_0
 10
1192.685445898953
 20
229.5455211040628
 30
0.0
 40
1.007376
 50
174.93659510000271
 51
225.7096799999976
  0
ARC
  5
1E56B
  8
AM_0
 10
1196.661765898953
 20
229.16155110406299
 30
0.0
 40
5.0021839000000003
 50
99.548574999998365
 51
174.57547400000229
  0
LINE
  5
1E56C
  8
AM_0
 10
1160.8319258989529
 20
224.40443110406301
 30
0.0
 11
1195.8319258989529
 21
226.43443110406301
 31
0.0
  0
ARC
  5
1E56D
  8
AM_0
 10
1199.660055898953
 20
214.49013210406301
 30
0.0
 40
1.995695899999999
 50
270.05521999999718
 51
347.9774700000001
  0
LINE
  5
1E56E
  8
AM_0
 10
1205.831985898953
 20
213.32442210406299
 30
0.0
 11
1203.0119858989531
 21
213.254422104063
 31
0.0
  0
ARC
  5
1E56F
  8
AM_0
 10
1203.9970258989531
 20
212.13264910406301
 30
0.0
 40
1.501779999999999
 50
89.810617000007383
 51
165.66716399999919
  0
LINE
  5
1E570
  8
AM_0
 10
1184.831985898953
 20
208.86442310406309
 30
0.0
 11
1184.831985898953
 21
216.274426104063
 31
0.0
  0
LINE
  5
1E571
  8
AM_0
 10
1201.641985898953
 20
210.6244171040631
 30
0.0
 11
1202.5620258989529
 21
214.50441410406279
 31
0.0
  0
LINE
  5
1E572
  8
AM_0
 10
1205.831985898953
 20
222.40443110406301
 30
0.0
 11
1195.831985898953
 21
222.40443110406301
 31
0.0
  0
LINE
  5
1E573
  8
AM_0
 10
1199.6020058989529
 20
217.774426104063
 30
0.0
 11
1186.331985898953
 21
217.774426104063
 31
0.0
  0
LINE
  5
1E574
  8
AM_0
 10
1205.831985898953
 20
228.06443110406281
 30
0.0
 11
1195.831985898953
 21
228.06443110406281
 31
0.0
  0
LINE
  5
1E575
  8
AM_0
 10
1202.1119558989531
 20
222.40443110406301
 30
0.0
 11
1201.571915898953
 21
219.41441010406291
 31
0.0
  0
ARC
  5
1E576
  8
AM_0
 10
1206.3315858989531
 20
220.5048771040629
 30
0.0
 40
0.49955601
 50
89.949105999995936
 51
180.05088999999691
  0
ARC
  5
1E577
  8
AM_0
 10
1208.539225898953
 20
228.6349431040629
 30
0.0
 40
1.0005360000000001
 50
269.58677999999787
 51
302.85360000000622
  0
LINE
  5
1E578
  8
AM_0
 10
1208.5319658989531
 20
227.63443210406291
 30
0.0
 11
1205.8320158989529
 21
227.63443210406291
 31
0.0
  0
LINE
  5
1E579
  8
AM_0
 10
1208.8320158989529
 20
227.9244481040628
 30
0.0
 11
1208.8320158989529
 21
228.3944341040629
 31
0.0
  0
ARC
  5
1E57A
  8
AM_0
 10
1208.5513158989529
 20
222.00551810406299
 30
0.0
 40
1.001135899999998
 50
270.61249000000061
 51
300.67199999999252
  0
ARC
  5
1E57B
  8
AM_0
 10
1208.5861658989529
 20
223.15370410406291
 30
0.0
 40
0.99928796
 50
270.33380999999213
 51
297.1387300000074
  0
ARC
  5
1E57C
  8
AM_0
 10
1206.3354358989529
 20
222.65783110406281
 30
0.0
 40
0.50340396
 50
180.3861299999981
 51
269.61387000000832
  0
LINE
  5
1E57D
  8
AM_0
 10
1208.561995898953
 20
221.00443510406291
 30
0.0
 11
1206.3319558989531
 21
221.00443510406291
 31
0.0
  0
LINE
  5
1E57E
  8
AM_0
 10
1208.5920258989529
 20
222.1544521040629
 30
0.0
 11
1206.3319558989531
 21
222.1544521040629
 31
0.0
  0
LINE
  5
1E57F
  8
AM_0
 10
1208.8320158989529
 20
221.254442104063
 30
0.0
 11
1208.8320158989529
 21
221.78444110406289
 31
0.0
  0
ARC
  5
1E580
  8
AM_0
 10
1208.560655898953
 20
224.11809810406299
 30
0.0
 40
1.003687999999999
 50
269.5072500000025
 51
300.62973000000488
  0
LINE
  5
1E581
  8
AM_0
 10
1208.551985898953
 20
223.11445110406299
 30
0.0
 11
1205.8320158989529
 21
223.11445110406299
 31
0.0
  0
LINE
  5
1E582
  8
AM_0
 10
1208.5819558989531
 20
224.254442104063
 30
0.0
 11
1206.8320158989529
 21
224.254442104063
 31
0.0
  0
LINE
  5
1E583
  8
AM_0
 10
1208.8320158989529
 20
223.35443310406279
 30
0.0
 11
1208.8320158989529
 21
223.90443610406291
 31
0.0
  0
ARC
  5
1E584
  8
AM_0
 10
1208.5768258989531
 20
225.25506810406301
 30
0.0
 40
1.0006280000000001
 50
270.29529000000059
 51
298.35013999999939
  0
ARC
  5
1E585
  8
AM_0
 10
1206.836045898953
 20
225.2585241040629
 30
0.0
 40
1.004083999999998
 50
180.23263000000361
 51
269.76736999999639
  0
LINE
  5
1E586
  8
AM_0
 10
1204.0019758989531
 20
213.6344341040629
 30
0.0
 11
1202.3519458989531
 21
213.6344341040629
 31
0.0
  0
LINE
  5
1E587
  8
AM_0
 10
1204.021995898953
 20
215.65443110406301
 30
0.0
 11
1201.9619958989531
 21
215.65443110406301
 31
0.0
  0
ARC
  5
1E588
  8
AM_0
 10
1204.0176558989531
 20
214.1580931040628
 30
0.0
 40
1.4963319999999991
 50
89.835410000005695
 51
166.61756199999891
  0
LINE
  5
1E589
  8
AM_0
 10
1204.042015898953
 20
219.724431104063
 30
0.0
 11
1201.621965898953
 21
219.724431104063
 31
0.0
  0
ARC
  5
1E58A
  8
AM_0
 10
1204.041825898953
 20
218.221638104063
 30
0.0
 40
1.5027881000000001
 50
89.995331999996637
 51
167.98665799999711
  0
ARC
  5
1E58B
  8
AM_0
 10
1199.6049958989529
 20
219.77405210406309
 30
0.0
 40
1.9996280999999989
 50
269.91467000000659
 51
349.63923999999838
  0
LINE
  5
1E58C
  8
AM_0
 10
1201.6119558989531
 20
214.07442210406299
 30
0.0
 11
1202.571975898953
 21
218.53443610406299
 31
0.0
  0
ARC
  5
1E58D
  8
AM_0
 10
1186.332355898953
 20
216.27406010406301
 30
0.0
 40
1.5003600999999991
 50
90.013814999999994
 51
179.9861839999985
  0
LINE
  5
1E58E
  8
AM_0
 10
1199.6919758989529
 20
209.084424104063
 30
0.0
 11
1186.331985898953
 21
209.084424104063
 31
0.0
  0
LINE
  5
1E58F
  8
AM_0
 10
1199.7220058989531
 20
207.45441910406299
 30
0.0
 11
1186.2220058989531
 21
207.45441910406299
 31
0.0
  0
LINE
  5
1E590
  8
AM_0
 10
1199.661945898953
 20
212.49442010406301
 30
0.0
 11
1186.331985898953
 21
212.49442010406301
 31
0.0
  0
ARC
  5
1E591
  8
AM_0
 10
1199.6940458989529
 20
211.0863621040628
 30
0.0
 40
2.001947899999998
 50
269.94052000000539
 51
346.6588600000016
  0
ARC
  5
1E592
  8
AM_0
 10
1199.7195658989531
 20
209.458737104063
 30
0.0
 40
2.0043239999999991
 50
270.06891000000758
 51
345.72194999999931
  0
LINE
  5
1E593
  8
AM_0
 10
1201.661945898953
 20
208.96443610406311
 30
0.0
 11
1202.5419458989529
 21
212.5044371040629
 31
0.0
  0
ARC
  5
1E594
  8
AM_0
 10
1182.8308858989531
 20
206.840855104063
 30
0.0
 40
1.996427999999999
 50
270.03239000000849
 51
345.30537000000101
  0
ARC
  5
1E595
  8
AM_0
 10
1182.832175898953
 20
207.51424910406291
 30
0.0
 40
1.999824
 50
269.99494000000527
 51
0.0050600000012617
  0
ARC
  5
1E596
  8
AM_0
 10
1182.8303458989531
 20
210.896069104063
 30
0.0
 40
2.001640099999999
 50
270.0469599999916
 51
359.95303999999533
  0
ARC
  5
1E597
  8
AM_0
 10
1186.3305858989529
 20
207.58586610406289
 30
0.0
 40
1.498559999999999
 50
89.944884999996916
 51
180.05511999999939
  0
ARC
  5
1E598
  8
AM_0
 10
1186.333515898953
 20
210.9929091040629
 30
0.0
 40
1.5015080999999979
 50
90.057548999996854
 51
179.94245300200021
  0
ARC
  5
1E599
  8
AM_0
 10
1182.829485898953
 20
208.86694010406291
 30
0.0
 40
2.0025157999999981
 50
270.0718999999998
 51
359.92810000000009
  0
ARC
  5
1E59A
  8
AM_0
 10
1186.213275898953
 20
205.95414410406289
 30
0.0
 40
1.5003120000000001
 50
89.668337000005593
 51
165.31696600000069
  0
LINE
  5
1E59B
  8
AM_0
 10
1058.831985898953
 20
333.75443610406319
 30
0.0
 11
1058.8319858827599
 21
207.7544671282283
 31
0.0
  0
LINE
  5
1E59C
  8
ﾁｭｳｼﾝｾﾝ1
 10
1109.8320158989529
 20
305.25444110406289
 30
0.0
 11
1109.8320158989529
 21
236.25444110406289
 31
0.0
1001
GENIUS_GENODEF_13
1002
{
1000
HIER
1070
     0
1002
}
1002
{
1000
MANEDIT
1070
     0
1002
}
1002
{
1000
NOSEL
1070
     0
1002
}
1002
{
1000
BEHIND
1070
     0
1002
}
1002
{
1000
REACTOR
1002
}
1001
GENIUS_GENOBJ-N-CEN_13
1002
{
1000
OWNER
1000
GEN
1002
}
  0
LINE
  5
1E59D
  8
AM_0
 10
1064.091965898953
 20
331.13443110406303
 30
0.0
 11
1061.3263102183671
 21
320.80713920255829
 31
0.0
  0
ARC
  5
1E59E
  8
AM_0
 10
1129.8325958989531
 20
334.67381110406302
 30
0.0
 40
2.000623899999999
 50
90.017824000002136
 51
179.98217599900121
  0
ARC
  5
1E59F
  8
AM_0
 10
1129.8290558989529
 20
333.99734110406291
 30
0.0
 40
1.9970881
 50
89.916374999999235
 51
180.0836200000015
  0
ARC
  5
1E5A0
  8
AM_0
 10
1129.8317458989529
 20
332.64469110406299
 30
0.0
 40
1.9997199999999991
 50
89.991938000006229
 51
180.00806000000401
  0
LINE
  5
1E5A1
  8
AM_0
 10
1127.831985898953
 20
334.67442110406301
 30
0.0
 11
1127.831985898953
 21
332.61442110406313
 31
0.0
  0
LINE
  5
1E5A2
  8
AM_0
 10
1059.121965898953
 20
321.79441110406287
 30
0.0
 11
1061.5319658989531
 21
321.79441110406287
 31
0.0
  0
LINE
  5
1E5A3
  8
AM_0
 10
1064.1219958989529
 20
331.25442110406289
 30
0.0
 11
1058.831985898953
 21
331.25442110406289
 31
0.0
  0
ARC
  5
1E5A4
  8
AM_0
 10
1059.1261458989529
 20
323.29490110406311
 30
0.0
 40
1.500475999999999
 50
269.84172000000018
 51
347.66777000000133
  0
LINE
  5
1E5A5
  8
AM_0
 10
1062.021995898953
 20
329.67446110406291
 30
0.0
 11
1060.581985898953
 21
322.97447110406313
 31
0.0
  0
ARC
  5
1E5A6
  8
AM_0
 10
1063.977525898953
 20
329.25425110406292
 30
0.0
 40
2.0001799999999981
 50
89.872485000008538
 51
167.8736480000027
  0
ARC
  5
1E5A7
  8
AM_0
 10
1066.0215358989531
 20
330.61662110406297
 30
0.0
 40
1.997795899999999
 50
89.986419000009377
 51
164.9784029999978
  0
LINE
  5
1E5A8
  8
AM_0
 10
1057.831985898953
 20
334.7544361040633
 30
0.0
 11
1049.8319558989531
 21
334.7544361040633
 31
0.0
  0
ARC
  5
1E5A9
  8
AM_0
 10
1057.836935898953
 20
333.75939610406323
 30
0.0
 40
0.9950640200000001
 50
359.714940000002
 51
90.285061999993019
  0
LINE
  5
1E5AA
  8
AM_0
 10
1057.831985898953
 20
322.79443110406288
 30
0.0
 11
1049.8319558989531
 21
322.79443110406288
 31
0.0
  0
ARC
  5
1E5AB
  8
AM_0
 10
1057.837575898953
 20
321.80004110406298
 30
0.0
 40
0.9944000200000001
 50
359.67649000000222
 51
90.323508999993436
  0
ARC
  5
1E5AC
  8
AM_0
 10
1065.4901658989529
 20
305.75442110406289
 30
0.0
 40
1.000031899999998
 50
90.469299999997844
 51
269.53070000000201
  0
ARC
  5
1E5AD
  8
AM_0
 10
1062.0119858989531
 20
305.79942110406301
 30
0.0
 40
1.675
 50
89.999997000002296
 51
270.0
  0
LINE
  5
1E5AE
  8
AM_0
 10
1058.831985898953
 20
307.90443110406301
 30
0.0
 11
1049.8319558989531
 21
307.90443110406301
 31
0.0
  0
ARC
  5
1E5AF
  8
AM_0
 10
1061.8019758989531
 20
295.77943110406301
 30
0.0
 40
1.4650000000000001
 50
90.00000299999769
 51
270.0
  0
ARC
  5
1E5B0
  8
AM_0
 10
1062.8920058989529
 20
295.75442110406289
 30
0.0
 40
1.0000040999999991
 50
90.00000299999769
 51
270.0
  0
ARC
  5
1E5B1
  8
AM_0
 10
1061.6669758989531
 20
285.76443110406291
 30
0.0
 40
1.3300000000000001
 50
90.00000299999769
 51
270.0
  0
ARC
  5
1E5B2
  8
AM_0
 10
1062.8882958989529
 20
285.75444110406289
 30
0.0
 40
1.000035999999999
 50
89.500716000006676
 51
270.49928999999509
  0
ARC
  5
1E5B3
  8
AM_0
 10
1062.8882958989529
 20
275.754421104063
 30
0.0
 40
1.000035999999999
 50
89.500716000006676
 51
270.49928999999509
  0
ARC
  5
1E5B4
  8
AM_0
 10
1061.6069858989531
 20
275.75941110406308
 30
0.0
 40
1.265004
 50
90.00000299999769
 51
270.0
  0
ARC
  5
1E5B5
  8
AM_0
 10
1061.6069858989531
 20
265.75442110406289
 30
0.0
 40
1.270003999999999
 50
90.00000299999769
 51
270.0
  0
ARC
  5
1E5B6
  8
AM_0
 10
1062.8882958989529
 20
265.75442110406289
 30
0.0
 40
1.000035999999999
 50
89.500716000006676
 51
270.49928999999509
  0
ARC
  5
1E5B7
  8
AM_0
 10
1129.8328458989531
 20
206.84529610406301
 30
0.0
 40
2.0008759
 50
180.0251100000024
 51
269.97489000000411
  0
ARC
  5
1E5B8
  8
AM_0
 10
1129.8343058989531
 20
207.51676610406301
 30
0.0
 40
2.002332
 50
180.06674000000129
 51
269.93325999999871
  0
ARC
  5
1E5B9
  8
AM_0
 10
1129.8369958989531
 20
208.86943510406289
 30
0.0
 40
2.0050240000000001
 50
180.1434100000013
 51
269.85658999999868
  0
LINE
  5
1E5BA
  8
AM_0
 10
1127.831985898953
 20
206.8444261040629
 30
0.0
 11
1127.831985898953
 21
208.89442910406299
 31
0.0
  0
ARC
  5
1E5BB
  8
AM_0
 10
1061.6669758989531
 20
255.7444411040629
 30
0.0
 40
1.3300000000000001
 50
90.00000299999769
 51
270.0
  0
ARC
  5
1E5BC
  8
AM_0
 10
1062.8882958989529
 20
255.75444110406289
 30
0.0
 40
1.000035999999999
 50
89.500716000006676
 51
270.49928999999509
  0
ARC
  5
1E5BD
  8
AM_0
 10
1062.887015898953
 20
245.75443110406289
 30
0.0
 40
1.0000040999999991
 50
90.00000299999769
 51
270.0
  0
ARC
  5
1E5BE
  8
AM_0
 10
1061.7969858989529
 20
245.73442110406299
 30
0.0
 40
1.4599999999999991
 50
90.00000299999769
 51
270.0
  0
ARC
  5
1E5BF
  8
AM_0
 10
1065.4901658989529
 20
235.75442110406291
 30
0.0
 40
1.000031899999998
 50
90.469299999997844
 51
269.53070000000201
  0
ARC
  5
1E5C0
  8
AM_0
 10
1062.0119858989531
 20
235.70942110406281
 30
0.0
 40
1.675
 50
89.999997000002296
 51
270.0
  0
LINE
  5
1E5C1
  8
AM_0
 10
1058.831985898953
 20
233.60442110406291
 30
0.0
 11
1049.8319558989531
 21
233.60442110406291
 31
0.0
  0
LINE
  5
1E5C2
  8
AM_0
 10
1062.0219658989531
 20
211.834416104063
 30
0.0
 11
1060.5819558989531
 21
218.53441310406291
 31
0.0
  0
LINE
  5
1E5C3
  8
AM_0
 10
1064.091965898953
 20
210.3744171040631
 30
0.0
 11
1061.3262940969821
 21
220.70175801415061
 31
0.0
  0
LINE
  5
1E5C4
  8
AM_0
 10
1059.121965898953
 20
219.724431104063
 30
0.0
 11
1061.5319658989531
 21
219.724431104063
 31
0.0
  0
ARC
  5
1E5C5
  8
AM_0
 10
1059.1248958989529
 20
218.22509510406289
 30
0.0
 40
1.499328
 50
11.906159999998639
 51
90.111849000006444
  0
LINE
  5
1E5C6
  8
AM_0
 10
1057.831985898953
 20
218.71442110406301
 30
0.0
 11
1049.8319558989531
 21
218.71442110406301
 31
0.0
  0
ARC
  5
1E5C7
  8
AM_0
 10
1057.8325058989531
 20
219.71390210406301
 30
0.0
 40
0.9994760199999999
 50
269.97007999999312
 51
0.02990999999797
  0
LINE
  5
1E5C8
  8
AM_0
 10
1064.1219958989529
 20
210.25442210406311
 30
0.0
 11
1058.831985898953
 21
210.25442210406311
 31
0.0
  0
ARC
  5
1E5C9
  8
AM_0
 10
1066.0265658989531
 20
210.898839104063
 30
0.0
 40
2.0044159999999991
 50
195.16666000000049
 51
269.86852000000772
  0
ARC
  5
1E5CA
  8
AM_0
 10
1063.982655898953
 20
212.26096010406289
 30
0.0
 40
2.0065319999999991
 50
192.27313000000319
 51
269.98073000000318
  0
LINE
  5
1E5CB
  8
AM_0
 10
1057.831985898953
 20
206.75445610406319
 30
0.0
 11
1049.8319558989531
 21
206.75445610406319
 31
0.0
  0
ARC
  5
1E5CC
  8
AM_0
 10
1057.831805898953
 20
207.754647104063
 30
0.0
 40
1.000179999999999
 50
270.01032000000009
 51
359.98968999999448
  0
LINE
  5
1E5CD
  8
0
 10
889.33192213292023
 20
417.49110303576919
 30
0.0
 11
889.33192213292023
 21
459.49110303576919
 31
0.0
  0
LINE
  5
1E5CE
  8
0
 10
917.33192213292034
 20
417.49110303576919
 30
0.0
 11
917.33192213292034
 21
459.49110303576919
 31
0.0
  0
LINE
  5
1E5CF
  8
AM_0
 10
917.33192213292034
 20
417.49110303576919
 30
0.0
 11
889.33192213292023
 21
417.49110303576919
 31
0.0
  0
LINE
  5
1E5D0
  8
0
 10
899.33192213292011
 20
449.49110303576907
 30
0.0
 11
907.33192213292011
 21
449.49110303576907
 31
0.0
  0
LINE
  5
1E5D1
  8
0
 10
885.83192213292045
 20
459.49110303576919
 30
0.0
 11
920.83192213292034
 21
459.49110303576919
 31
0.0
  0
LINE
  5
1E5D2
  8
0
 10
885.83192213292045
 20
459.49110303576919
 30
0.0
 11
880.83192146236854
 21
470.49810742602142
 31
0.0
  0
LINE
  5
1E5D3
  8
AM_0
 10
880.83192146236854
 20
470.49810742602142
 30
0.0
 11
925.83192280347248
 21
470.49810742602142
 31
0.0
  0
LINE
  5
1E5D4
  8
AM_0
 10
880.83192146236854
 20
470.49810742602142
 30
0.0
 11
880.83192146236854
 21
474.49810754523082
 31
0.0
  0
LINE
  5
1E5D5
  8
0
 10
920.83192213292034
 20
459.49110303576919
 30
0.0
 11
925.83192280347248
 21
470.49810742602142
 31
0.0
  0
LINE
  5
1E5D6
  8
AM_0
 10
925.83192280347248
 20
470.49810742602142
 30
0.0
 11
925.83192280347248
 21
474.49810754523082
 31
0.0
  0
LINE
  5
1E5D7
  8
AM_0
 10
899.33192213292045
 20
417.49110303576919
 30
0.0
 11
899.33192213292011
 21
449.49110303576907
 31
0.0
  0
LINE
  5
1E5D8
  8
AM_0
 10
907.33192213292034
 20
417.49110303576919
 30
0.0
 11
907.33192213292011
 21
449.49110303576907
 31
0.0
  0
ARC
  5
1E5D9
  8
AM_0
 10
903.33192213292023
 20
449.49110303576907
 30
0.0
 40
4.0
 50
0.000000000000007
 51
180.0
  0
LINE
  5
1E5DA
  8
AM_0
 10
1058.831985765326
 20
313.61441161614613
 30
0.0
 11
1058.831985765326
 21
321.21441161614598
 31
0.0
  0
LINE
  5
1E5DB
  8
AM_0
 10
1059.831985765326
 20
313.61441161614613
 30
0.0
 11
1059.831985765326
 21
321.21441161614598
 31
0.0
  0
LINE
  5
1E5DC
  8
AM_0
 10
1062.4319657653259
 20
315.61441161614579
 30
0.0
 11
1062.4319657653259
 21
319.21441161614598
 31
0.0
  0
LINE
  5
1E5DD
  8
AM_0
 10
1059.831985765326
 20
321.21441161614598
 30
0.0
 11
1058.831985765326
 21
321.21441161614598
 31
0.0
  0
ARC
  5
1E5DE
  8
AM_0
 10
1060.731985765326
 20
319.21441161614581
 30
0.0
 40
1.7000007999999991
 50
0.0000100000010134
 51
89.999979999998004
  0
LINE
  5
1E5DF
  8
AM_0
 10
1059.831985765326
 20
320.9144116161462
 30
0.0
 11
1060.731985765326
 21
320.9144116161462
 31
0.0
  0
LINE
  5
1E5E0
  8
AM_0
 10
1059.831985765326
 20
313.61441161614613
 30
0.0
 11
1058.831985765326
 21
313.61441161614613
 31
0.0
  0
LINE
  5
1E5E1
  8
AM_0
 10
1058.831985765326
 20
316.63705161614598
 30
0.0
 11
1059.831985765326
 21
317.21438161614589
 31
0.0
  0
LINE
  5
1E5E2
  8
AM_0
 10
1058.831985765326
 20
317.6370516161461
 30
0.0
 11
1059.831985765326
 21
318.21441161614598
 31
0.0
  0
ARC
  5
1E5E3
  8
AM_0
 10
1060.731985765326
 20
315.61441161614579
 30
0.0
 40
1.699996899999999
 50
270.00000300001068
 51
359.99998000000448
  0
LINE
  5
1E5E4
  8
AM_0
 10
1059.831985765326
 20
313.91442161614611
 30
0.0
 11
1060.731985765326
 21
313.91442161614611
 31
0.0
  0
LINE
  5
1E5E5
  8
AM_0
 10
1059.831985765326
 20
227.8944916161459
 30
0.0
 11
1059.831985765326
 21
220.29449161614599
 31
0.0
  0
LINE
  5
1E5E6
  8
AM_0
 10
1058.831985765326
 20
227.8944916161459
 30
0.0
 11
1058.831985765326
 21
220.29449161614599
 31
0.0
  0
ARC
  5
1E5E7
  8
AM_0
 10
1060.731985765326
 20
222.29449161614599
 30
0.0
 40
1.7000007999999991
 50
270.000020000002
 51
359.999989999999
  0
LINE
  5
1E5E8
  8
AM_0
 10
1059.831985765326
 20
227.8944916161459
 30
0.0
 11
1058.831985765326
 21
227.8944916161459
 31
0.0
  0
LINE
  5
1E5E9
  8
AM_0
 10
1058.831985765326
 20
224.87185161614599
 30
0.0
 11
1059.831985765326
 21
224.29452161614611
 31
0.0
  0
LINE
  5
1E5EA
  8
AM_0
 10
1058.831985765326
 20
223.87185161614599
 30
0.0
 11
1059.831985765326
 21
223.29449161614599
 31
0.0
  0
ARC
  5
1E5EB
  8
AM_0
 10
1060.731985765326
 20
225.8944916161459
 30
0.0
 40
1.699996899999999
 50
0.0000199999955061
 51
89.999997000002296
  0
LINE
  5
1E5EC
  8
AM_0
 10
1062.4319657653259
 20
225.8944916161459
 30
0.0
 11
1062.4319657653259
 21
222.29449161614599
 31
0.0
  0
LINE
  5
1E5ED
  8
AM_0
 10
1059.831985765326
 20
227.594481616146
 30
0.0
 11
1060.731985765326
 21
227.594481616146
 31
0.0
  0
LINE
  5
1E5EE
  8
AM_0
 10
1059.831985765326
 20
220.29449161614599
 30
0.0
 11
1058.831985765326
 21
220.29449161614599
 31
0.0
  0
LINE
  5
1E5EF
  8
AM_0
 10
1059.831985765326
 20
220.594491616146
 30
0.0
 11
1060.731985765326
 21
220.594491616146
 31
0.0
  0
LINE
  5
1E5F1
  8
AM_0
 10
840.45508236484716
 20
439.99811798219542
 30
0.0
 11
840.45508236484716
 21
478.49810894148658
 31
0.0
  0
LINE
  5
1E5F2
  8
AM_0
 10
1012.455117836426
 20
478.49810894148658
 30
0.0
 11
1012.455117836426
 21
439.99811798219542
 31
0.0
  0
LINE
  5
1E5F3
  8
AM_0
 10
1007.455117836425
 20
434.9981179821952
 30
0.0
 11
917.33192213292057
 21
434.99811798219548
 31
0.0
  0
LINE
  5
1E5F4
  8
AM_0
 10
889.33192213292068
 20
434.99811798219548
 30
0.0
 11
845.45508236484704
 21
434.9981179821952
 31
0.0
  0
LINE
  5
1E5F5
  8
AM_0
 10
840.45508236484716
 20
473.99810894148658
 30
0.0
 11
880.83192146236854
 21
473.99810894148658
 31
0.0
  0
LINE
  5
1E5F6
  8
AM_0
 10
925.83192280347271
 20
473.99810894148658
 30
0.0
 11
1012.455117836426
 21
473.99810894148658
 31
0.0
  0
LINE
  5
1E5F7
  8
AM_5
 10
970.07064414996785
 20
473.99810894148658
 30
0.0
 11
970.07064414996785
 21
478.49810894148658
 31
0.0
  0
LINE
  5
1E5F8
  8
AM_5
 10
949.45511602187946
 20
473.99810894148658
 30
0.0
 11
949.45511602187935
 21
478.49810894148658
 31
0.0
  0
INSERT
  5
1E5F9
  8
AM_0
  6
CONTINUOUS
  2
*U5
 10
0.0
 20
0.0
 30
0.0
1001
GENIUS_GENOBJ-N-HTC_13
1002
{
1000
OWNER
1000
GEN
1002
}
1001
GENIUS_GENODEF_13
1002
{
1000
HIER
1070
     0
1002
}
1002
{
1000
MANEDIT
1070
     0
1002
}
1002
{
1000
NOSEL
1070
     0
1002
}
1002
{
1000
BEHIND
1070
     0
1002
}
1002
{
1000
OTHER
1070
     0
1002
}
1002
{
1000
REACTOR
1002
}
1001
GENIUS_GENHATCH_13
1002
{
1000
DATA
1040
0.0
1042
-0.9999999999999998
1000
SOLID
1070
     0
1011
963.37544290617598
1021
0.0
1031
0.0
1021
472.69982192276387
1031
0.0
1002
}
1002
{
1000
UCS
1010
0.0
1020
0.0
1030
0.0
1010
1.0
1020
0.0
1030
0.0
1010
0.0
1020
1.0
1030
0.0
1002
}
1001
ACAD
1002
{
1000
R14_HATCH_DATA
1000
1E5F9
1011
1.0
1021
0.0
1031
0.0
1021
0.0
1031
0.0
1011
0.0
1021
0.0
1031
0.0
1021
1.0
1031
0.0
1011
0.0
1021
0.0
1031
0.0
1021
0.0
1031
1.0
1040
0.0
1010
0.0
1020
0.0
1030
1.0
1000
SOLID
1070
     1
1070
     0
1071
        1
1071
        1
1071
        3
1070
     1
1040
960.45511602187946
1040
473.99810894148669
1040
964.45511602187958
1040
469.99810894148681
1070
     1
1040
964.45511602187958
1040
469.99810894148681
1040
964.45511602187958
1040
473.99810894148669
1070
     1
1040
964.45511602187958
1040
473.99810894148669
1040
960.45511602187946
1040
473.99810894148669
1071
        0
1070
     0
1070
     1
1071
        1
1040
1162.8466714392521
1040
571.51674740739816
1040
0.0
1002
}
  0
LINE
  5
1E5FA
  8
AM_0
 10
964.45511602187958
 20
469.99810894148681
 30
0.0
 11
960.45511602187946
 21
473.99810894148669
 31
0.0
1001
GENIUS_GENFIL_13
1070
     0
1040
4.0
1040
4.0
1040
20.0
1040
0.0
1002
{
1002
}
1001
GENIUS_GENOBJ-N-CHA_13
1002
{
1000
OWNER
1000
GEN
1002
}
1001
GENIUS_GENODEF_13
1002
{
1000
HIER
1070
     0
1002
}
1002
{
1000
MANEDIT
1070
     0
1002
}
1002
{
1000
NOSEL
1070
     0
1002
}
1002
{
1000
BEHIND
1070
     0
1002
}
1002
{
1000
OTHER
1070
     0
1002
}
1002
{
1000
REACTOR
1002
}
  0
LINE
  5
1E5FB
  8
AM_0
 10
968.95511602187958
 20
469.99810894148681
 30
0.0
 11
972.95511602187946
 21
473.99810894148669
 31
0.0
1001
GENIUS_GENFIL_13
1070
     0
1040
4.0
1040
4.0
1040
20.0
1040
0.0
1002
{
1002
}
1001
GENIUS_GENOBJ-N-CHA_13
1002
{
1000
OWNER
1000
GEN
1002
}
1001
GENIUS_GENODEF_13
1002
{
1000
HIER
1070
     0
1002
}
1002
{
1000
MANEDIT
1070
     0
1002
}
1002
{
1000
NOSEL
1070
     0
1002
}
1002
{
1000
BEHIND
1070
     0
1002
}
1002
{
1000
OTHER
1070
     0
1002
}
1002
{
1000
REACTOR
1002
}
  0
INSERT
  5
1E5FC
  8
AM_0
  6
CONTINUOUS
  2
*U6
 10
0.0
 20
0.0
 30
0.0
1001
GENIUS_GENOBJ-N-HTC_13
1002
{
1000
OWNER
1000
GEN
1002
}
1001
GENIUS_GENODEF_13
1002
{
1000
HIER
1070
     0
1002
}
1002
{
1000
MANEDIT
1070
     0
1002
}
1002
{
1000
NOSEL
1070
     0
1002
}
1002
{
1000
BEHIND
1070
     0
1002
}
1002
{
1000
OTHER
1070
     0
1002
}
1002
{
1000
REACTOR
1002
}
1001
GENIUS_GENHATCH_13
1002
{
1000
DATA
1040
0.0
1042
-0.9999999999999998
1000
SOLID
1070
     0
1011
970.03478913758272
1021
0.0
1031
0.0
1021
472.69982192276387
1031
0.0
1002
}
1002
{
1000
UCS
1010
0.0
1020
0.0
1030
0.0
1010
1.0
1020
0.0
1030
0.0
1010
0.0
1020
1.0
1030
0.0
1002
}
1001
ACAD
1002
{
1000
R14_HATCH_DATA
1000
1E5FC
1011
1.0
1021
0.0
1031
0.0
1021
0.0
1031
0.0
1011
0.0
1021
0.0
1031
0.0
1021
1.0
1031
0.0
1011
0.0
1021
0.0
1031
0.0
1021
0.0
1031
1.0
1040
0.0
1010
0.0
1020
0.0
1030
1.0
1000
SOLID
1070
     1
1070
     0
1071
        1
1071
        1
1071
        3
1070
     1
1040
972.95511602187946
1040
473.99810894148669
1040
968.95511602187958
1040
469.99810894148681
1070
     1
1040
968.95511602187958
1040
469.99810894148681
1040
968.95511602187958
1040
473.99810894148669
1070
     1
1040
968.95511602187958
1040
473.99810894148669
1040
972.95511602187946
1040
473.99810894148669
1071
        0
1070
     0
1070
     1
1071
        1
1040
770.56356060450719
1040
571.51674740739816
1040
0.0
1002
}
  0
LINE
  5
1E5FD
  8
AM_0
 10
968.95511602187958
 20
441.99810894148669
 30
0.0
 11
968.95511602187958
 21
473.99810894148669
 31
0.0
  0
LINE
  5
1E5FE
  8
AM_0
 10
964.45511602187958
 20
441.99810894148669
 30
0.0
 11
964.45511602187958
 21
473.99810894148669
 31
0.0
  0
LINE
  5
1E5FF
  8
AM_0
 10
968.95511602187958
 20
463.99810894148681
 30
0.0
 11
964.45511602187958
 21
463.99810894148681
 31
0.0
  0
LINE
  5
1E600
  8
AM_0
 10
968.95511602187958
 20
441.99810894148669
 30
0.0
 11
964.45511602187958
 21
441.99810894148669
 31
0.0
  0
LINE
  5
1E601
  8
AM_0
 10
883.95508417939334
 20
441.99810894148669
 30
0.0
 11
883.95508417939334
 21
463.62978006147108
 31
0.0
  0
LINE
  5
1E602
  8
AM_0
 10
888.45508417939334
 20
441.99810894148669
 30
0.0
 11
888.45508417939334
 21
459.49810789671761
 31
0.0
  0
LINE
  5
1E603
  8
AM_0
 10
883.95508417939334
 20
441.99810894148669
 30
0.0
 11
888.45508417939334
 21
441.99810894148669
 31
0.0
  0
LINE
  5
1E604
  8
ﾁｭｳｼﾝｾﾝ1
 10
871.83192213292057
 20
449.99811798219531
 30
0.0
 11
845.83192213292057
 21
449.99811798219531
 31
0.0
  0
LINE
  5
1E605
  8
ﾁｭｳｼﾝｾﾝ1
 10
858.83192213292068
 20
462.99811798219531
 30
0.0
 11
858.83192213292068
 21
436.99811798219531
 31
0.0
  0
CIRCLE
  5
1E606
  8
AM_0
 10
858.83192213292045
 20
449.99811798219531
 30
0.0
 40
6.0
  0
CIRCLE
  5
1E607
  8
AM_0
 10
993.83192213292068
 20
449.99811798219548
 30
0.0
 40
6.0
  0
ARC
  5
1E608
  8
AM_0
 10
845.45508236484704
 20
439.99811798219542
 30
0.0
 40
5.0
 50
180.0
 51
270.0
1001
GENIUS_GENOBJ-N-FIL_13
1002
{
1000
OWNER
1000
GEN
1002
}
1001
GENIUS_GENODEF_13
1002
{
1000
HIER
1070
     0
1002
}
1002
{
1000
MANEDIT
1070
     0
1002
}
1002
{
1000
NOSEL
1070
     0
1002
}
1002
{
1000
BEHIND
1070
     0
1002
}
1002
{
1000
OTHER
1070
     0
1002
}
1002
{
1000
REACTOR
1002
}
  0
ARC
  5
1E609
  8
AM_0
 10
1007.455117836425
 20
439.99811798219542
 30
0.0
 40
5.0
 50
270.0
 51
0.000000000000007
1001
GENIUS_GENOBJ-N-FIL_13
1002
{
1000
OWNER
1000
GEN
1002
}
1001
GENIUS_GENODEF_13
1002
{
1000
HIER
1070
     0
1002
}
1002
{
1000
MANEDIT
1070
     0
1002
}
1002
{
1000
NOSEL
1070
     0
1002
}
1002
{
1000
BEHIND
1070
     0
1002
}
1002
{
1000
OTHER
1070
     0
1002
}
1002
{
1000
REACTOR
1002
}
  0
LINE
  5
1E60A
  8
ﾁｭｳｼﾝｾﾝ1
 10
1006.83192213292
 20
449.99811798219548
 30
0.0
 11
980.83192213292057
 21
449.99811798219548
 31
0.0
  0
LINE
  5
1E60B
  8
ﾁｭｳｼﾝｾﾝ1
 10
993.83192213292068
 20
462.99811798219548
 30
0.0
 11
993.83192213292068
 21
436.99811798219548
 31
0.0
  0
LINE
  5
1E60C
  8
AM_0
 10
840.45508236484716
 20
614.99811883270127
 30
0.0
 11
840.45508236484716
 21
576.49812787341
 31
0.0
  0
LINE
  5
1E60D
  8
AM_0
 10
1012.455117836426
 20
576.49812787341
 30
0.0
 11
1012.455117836426
 21
614.99811883270127
 31
0.0
  0
LINE
  5
1E60E
  8
AM_0
 10
1007.455117836425
 20
619.99811883270115
 30
0.0
 11
845.45508236484704
 21
619.99811883270115
 31
0.0
  0
LINE
  5
1E60F
  8
AM_0
 10
840.45508236484716
 20
580.99812787341
 30
0.0
 11
903.33192213292057
 21
580.99812787340966
 31
0.0
  0
LINE
  5
1E610
  8
AM_0
 10
903.33192213292057
 20
580.99812787340966
 30
0.0
 11
1012.455117836426
 21
580.99812787341
 31
0.0
  0
LINE
  5
1E611
  8
AM_5
 10
970.07064414996785
 20
580.99812787341
 30
0.0
 11
970.07064414996785
 21
576.49812787341
 31
0.0
  0
LINE
  5
1E612
  8
AM_5
 10
949.45511602187946
 20
580.99812787341
 30
0.0
 11
949.45511602187935
 21
576.49812787341
 31
0.0
  0
INSERT
  5
1E613
  8
AM_0
  6
CONTINUOUS
  2
*U7
 10
0.0
 20
0.0
 30
0.0
1001
GENIUS_GENOBJ-N-HTC_13
1002
{
1000
OWNER
1000
GEN
1002
}
1001
GENIUS_GENODEF_13
1002
{
1000
HIER
1070
     0
1002
}
1002
{
1000
MANEDIT
1070
     0
1002
}
1002
{
1000
NOSEL
1070
     0
1002
}
1002
{
1000
BEHIND
1070
     0
1002
}
1002
{
1000
OTHER
1070
     0
1002
}
1002
{
1000
REACTOR
1002
}
1001
GENIUS_GENHATCH_13
1002
{
1000
DATA
1040
0.0
1042
0.9999999999999998
1000
SOLID
1070
     0
1011
963.37544290617598
1021
0.0
1031
0.0
1021
582.2964148921327
1031
0.0
1002
}
1002
{
1000
UCS
1010
0.0
1020
0.0
1030
0.0
1010
1.0
1020
0.0
1030
0.0
1010
0.0
1020
1.0
1030
0.0
1002
}
1001
ACAD
1002
{
1000
R14_HATCH_DATA
1000
1E613
1011
1.0
1021
0.0
1031
0.0
1021
0.0
1031
0.0
1011
0.0
1021
0.0
1031
0.0
1021
1.0
1031
0.0
1011
0.0
1021
0.0
1031
0.0
1021
0.0
1031
1.0
1040
0.0
1010
0.0
1020
0.0
1030
1.0
1000
SOLID
1070
     1
1070
     0
1071
        1
1071
        1
1071
        3
1070
     1
1040
960.45511602187946
1040
580.99812787340966
1040
964.45511602187958
1040
584.99812787340966
1070
     1
1040
964.45511602187958
1040
584.99812787340966
1040
964.45511602187958
1040
580.99812787340966
1070
     1
1040
964.45511602187958
1040
580.99812787340966
1040
960.45511602187946
1040
580.99812787340966
1071
        0
1070
     0
1070
     1
1071
        1
1040
1162.8466714392521
1040
483.47948940749859
1040
0.0
1002
}
  0
LINE
  5
1E614
  8
AM_0
 10
964.45511602187958
 20
584.99812787340966
 30
0.0
 11
960.45511602187946
 21
580.99812787340966
 31
0.0
1001
GENIUS_GENFIL_13
1070
     0
1040
4.0
1040
4.0
1040
20.0
1040
0.0
1002
{
1002
}
1001
GENIUS_GENOBJ-N-CHA_13
1002
{
1000
OWNER
1000
GEN
1002
}
1001
GENIUS_GENODEF_13
1002
{
1000
HIER
1070
     0
1002
}
1002
{
1000
MANEDIT
1070
     0
1002
}
1002
{
1000
NOSEL
1070
     0
1002
}
1002
{
1000
BEHIND
1070
     0
1002
}
1002
{
1000
OTHER
1070
     0
1002
}
1002
{
1000
REACTOR
1002
}
  0
LINE
  5
1E615
  8
AM_0
 10
968.95511602187958
 20
584.99812787340966
 30
0.0
 11
972.95511602187946
 21
580.99812787340966
 31
0.0
1001
GENIUS_GENFIL_13
1070
     0
1040
4.0
1040
4.0
1040
20.0
1040
0.0
1002
{
1002
}
1001
GENIUS_GENOBJ-N-CHA_13
1002
{
1000
OWNER
1000
GEN
1002
}
1001
GENIUS_GENODEF_13
1002
{
1000
HIER
1070
     0
1002
}
1002
{
1000
MANEDIT
1070
     0
1002
}
1002
{
1000
NOSEL
1070
     0
1002
}
1002
{
1000
BEHIND
1070
     0
1002
}
1002
{
1000
OTHER
1070
     0
1002
}
1002
{
1000
REACTOR
1002
}
  0
INSERT
  5
1E616
  8
AM_0
  6
CONTINUOUS
  2
*U8
 10
0.0
 20
0.0
 30
0.0
1001
GENIUS_GENOBJ-N-HTC_13
1002
{
1000
OWNER
1000
GEN
1002
}
1001
GENIUS_GENODEF_13
1002
{
1000
HIER
1070
     0
1002
}
1002
{
1000
MANEDIT
1070
     0
1002
}
1002
{
1000
NOSEL
1070
     0
1002
}
1002
{
1000
BEHIND
1070
     0
1002
}
1002
{
1000
OTHER
1070
     0
1002
}
1002
{
1000
REACTOR
1002
}
1001
GENIUS_GENHATCH_13
1002
{
1000
DATA
1040
0.0
1042
0.9999999999999998
1000
SOLID
1070
     0
1011
970.03478913758272
1021
0.0
1031
0.0
1021
582.2964148921327
1031
0.0
1002
}
1002
{
1000
UCS
1010
0.0
1020
0.0
1030
0.0
1010
1.0
1020
0.0
1030
0.0
1010
0.0
1020
1.0
1030
0.0
1002
}
1001
ACAD
1002
{
1000
R14_HATCH_DATA
1000
1E616
1011
1.0
1021
0.0
1031
0.0
1021
0.0
1031
0.0
1011
0.0
1021
0.0
1031
0.0
1021
1.0
1031
0.0
1011
0.0
1021
0.0
1031
0.0
1021
0.0
1031
1.0
1040
0.0
1010
0.0
1020
0.0
1030
1.0
1000
SOLID
1070
     1
1070
     0
1071
        1
1071
        1
1071
        3
1070
     1
1040
972.95511602187946
1040
580.99812787340966
1040
968.95511602187958
1040
584.99812787340966
1070
     1
1040
968.95511602187958
1040
584.99812787340966
1040
968.95511602187958
1040
580.99812787340966
1070
     1
1040
968.95511602187958
1040
580.99812787340966
1040
972.95511602187946
1040
580.99812787340966
1071
        0
1070
     0
1070
     1
1071
        1
1040
770.56356060450719
1040
483.47948940749859
1040
0.0
1002
}
  0
LINE
  5
1E617
  8
AM_0
 10
968.95511602187958
 20
612.99812787340977
 30
0.0
 11
968.95511602187958
 21
580.99812787340966
 31
0.0
  0
LINE
  5
1E618
  8
AM_0
 10
964.45511602187958
 20
612.99812787340977
 30
0.0
 11
964.45511602187958
 21
580.99812787340966
 31
0.0
  0
LINE
  5
1E619
  8
AM_0
 10
968.95511602187958
 20
590.99812787340989
 30
0.0
 11
964.45511602187958
 21
590.99812787340989
 31
0.0
  0
LINE
  5
1E61A
  8
AM_0
 10
968.95511602187958
 20
612.99812787340977
 30
0.0
 11
964.45511602187958
 21
612.99812787340977
 31
0.0
  0
LINE
  5
1E61B
  8
AM_0
 10
883.95508417939334
 20
612.99812787340977
 30
0.0
 11
883.95508417939334
 21
580.99812787341
 31
0.0
  0
LINE
  5
1E61C
  8
AM_0
 10
888.45508417939334
 20
612.99812787340977
 30
0.0
 11
888.45508417939334
 21
580.99812787341
 31
0.0
  0
LINE
  5
1E61D
  8
AM_0
 10
883.95508417939334
 20
590.99812787340989
 30
0.0
 11
888.45508417939334
 21
590.99812787340989
 31
0.0
  0
LINE
  5
1E61E
  8
AM_0
 10
883.95508417939334
 20
612.99812787340977
 30
0.0
 11
888.45508417939334
 21
612.99812787340977
 31
0.0
  0
LINE
  5
1E61F
  8
ﾁｭｳｼﾝｾﾝ1
 10
871.83192213292057
 20
604.99811883270115
 30
0.0
 11
845.83192213292057
 21
604.99811883270115
 31
0.0
  0
LINE
  5
1E620
  8
ﾁｭｳｼﾝｾﾝ1
 10
858.83192213292068
 20
591.99811883270115
 30
0.0
 11
858.83192213292068
 21
617.99811883270115
 31
0.0
  0
CIRCLE
  5
1E621
  8
AM_0
 10
858.83192213292045
 20
604.99811883270115
 30
0.0
 40
6.0
  0
CIRCLE
  5
1E622
  8
AM_0
 10
993.83192213292068
 20
604.99811883270115
 30
0.0
 40
6.0
  0
ARC
  5
1E623
  8
AM_0
 10
845.45508236484704
 20
614.99811883270127
 30
0.0
 40
5.0
 50
90.0
 51
180.0
1001
GENIUS_GENOBJ-N-FIL_13
1002
{
1000
OWNER
1000
GEN
1002
}
1001
GENIUS_GENODEF_13
1002
{
1000
HIER
1070
     0
1002
}
1002
{
1000
MANEDIT
1070
     0
1002
}
1002
{
1000
NOSEL
1070
     0
1002
}
1002
{
1000
BEHIND
1070
     0
1002
}
1002
{
1000
OTHER
1070
     0
1002
}
1002
{
1000
REACTOR
1002
}
  0
ARC
  5
1E624
  8
AM_0
 10
1007.455117836425
 20
614.99811883270127
 30
0.0
 40
5.0
 50
0.000000000000007
 51
90.0
1001
GENIUS_GENOBJ-N-FIL_13
1002
{
1000
OWNER
1000
GEN
1002
}
1001
GENIUS_GENODEF_13
1002
{
1000
HIER
1070
     0
1002
}
1002
{
1000
MANEDIT
1070
     0
1002
}
1002
{
1000
NOSEL
1070
     0
1002
}
1002
{
1000
BEHIND
1070
     0
1002
}
1002
{
1000
OTHER
1070
     0
1002
}
1002
{
1000
REACTOR
1002
}
  0
LINE
  5
1E625
  8
ﾁｭｳｼﾝｾﾝ1
 10
1006.83192213292
 20
604.99811883270115
 30
0.0
 11
980.83192213292057
 21
604.99811883270115
 31
0.0
  0
LINE
  5
1E626
  8
ﾁｭｳｼﾝｾﾝ1
 10
993.83192213292068
 20
591.99811883270115
 30
0.0
 11
993.83192213292068
 21
617.99811883270115
 31
0.0
  0
LINE
  5
1E627
  8
AM_0
 10
845.45508271047515
 20
461.9980903760985
 30
0.0
 11
859.45508271047515
 21
461.9980903760985
 31
0.0
  0
LINE
  5
1E628
  8
AM_0
 10
841.95508271047515
 20
471.99809037609828
 30
0.0
 11
862.95508271047504
 21
471.99809037609828
 31
0.0
  0
LINE
  5
1E629
  8
AM_0
 10
844.45508271047515
 20
462.99809037609839
 30
0.0
 11
844.45508271047515
 21
471.99809037609828
 31
0.0
  0
LINE
  5
1E62A
  8
AM_0
 10
841.95508271047515
 20
473.9980903760985
 30
0.0
 11
841.95508271047515
 21
471.99809037609828
 31
0.0
  0
ARC
  5
1E62B
  8
AM_0
 10
845.45508271047504
 20
462.99809037609839
 30
0.0
 40
1.0
 50
180.0
 51
270.0
  0
LINE
  5
1E62C
  8
AM_0
 10
860.45508271047515
 20
462.99809037609839
 30
0.0
 11
860.45508271047515
 21
471.99809037609828
 31
0.0
  0
LINE
  5
1E62D
  8
AM_0
 10
862.95508271047504
 20
471.99809037609828
 30
0.0
 11
862.95508271047504
 21
473.9980903760985
 31
0.0
  0
ARC
  5
1E62E
  8
AM_0
 10
859.45508271047493
 20
462.99809037609839
 30
0.0
 40
1.0
 50
270.0
 51
0.0
  0
LINE
  5
1E62F
  8
AM_0
 10
993.45511749079776
 20
461.9980903760985
 30
0.0
 11
1007.455117490798
 21
461.9980903760985
 31
0.0
  0
LINE
  5
1E630
  8
AM_0
 10
989.95511749079776
 20
471.99809037609828
 30
0.0
 11
1010.955117490798
 21
471.99809037609828
 31
0.0
  0
LINE
  5
1E631
  8
AM_0
 10
992.45511749079765
 20
462.99809037609839
 30
0.0
 11
992.45511749079765
 21
471.99809037609828
 31
0.0
  0
LINE
  5
1E632
  8
AM_0
 10
989.95511749079776
 20
473.9980903760985
 30
0.0
 11
989.95511749079776
 21
471.99809037609828
 31
0.0
  0
ARC
  5
1E633
  8
AM_0
 10
993.45511749079776
 20
462.99809037609839
 30
0.0
 40
1.0
 50
180.0
 51
270.0
  0
LINE
  5
1E634
  8
AM_0
 10
1008.455117490798
 20
462.99809037609839
 30
0.0
 11
1008.455117490798
 21
471.99809037609828
 31
0.0
  0
LINE
  5
1E635
  8
AM_0
 10
1010.955117490798
 20
471.99809037609828
 30
0.0
 11
1010.955117490798
 21
473.9980903760985
 31
0.0
  0
ARC
  5
1E636
  8
AM_0
 10
1007.455117490798
 20
462.99809037609839
 30
0.0
 40
1.0
 50
270.0
 51
0.0
  0
LINE
  5
1E637
  8
AM_0
 10
843.95508271047515
 20
590.99810930802175
 30
0.0
 11
860.95508271047515
 21
590.99810930802175
 31
0.0
  0
LINE
  5
1E638
  8
AM_0
 10
841.95508271047515
 20
582.99810930802175
 30
0.0
 11
862.95508271047504
 21
582.99810930802175
 31
0.0
  0
ARC
  5
1E639
  8
AM_0
 10
845.09195771047496
 20
586.65808381661634
 30
0.0
 40
4.3400254914053003
 50
55.561530595266369
 51
124.4384694047336
  0
LINE
  5
1E63A
  8
AM_0
 10
842.63758271047504
 20
582.99810930802175
 30
0.0
 11
842.63758271047504
 21
590.23745032836439
 31
0.0
  0
LINE
  5
1E63B
  8
AM_0
 10
842.63758271047504
 20
590.23745032836439
 30
0.0
 11
843.95508271047515
 21
590.99810930802175
 31
0.0
  0
LINE
  5
1E63C
  8
AM_0
 10
841.95508271047515
 20
580.99810930802175
 30
0.0
 11
841.95508271047515
 21
582.99810930802175
 31
0.0
  0
LINE
  5
1E63D
  8
AM_0N
 10
857.45508271047515
 20
591.0779162266042
 30
0.0
 11
856.53490771047541
 21
591.99809122660417
 31
0.0
  0
ARC
  5
1E63E
  8
AM_0
 10
852.45508271047515
 20
574.7789958118866
 30
0.0
 40
16.219113496135169
 50
72.383031159608834
 51
107.6169688403911
  0
LINE
  5
1E63F
  8
AM_0N
 10
857.45508271047515
 20
591.0779162266042
 30
0.0
 11
847.45508271047515
 21
591.0779162266042
 31
0.0
  0
LINE
  5
1E640
  8
AM_0
 10
847.5463327104751
 20
582.99810930802175
 30
0.0
 11
847.5463327104751
 21
590.23745032836439
 31
0.0
  0
LINE
  5
1E641
  8
AM_4N
 10
856.53490771047541
 20
591.99809122660417
 30
0.0
 11
856.53490771047541
 21
590.99810930802175
 31
0.0
  0
LINE
  5
1E642
  8
AM_0N
 10
847.45508271047515
 20
590.99810930802175
 30
0.0
 11
847.45508271047515
 21
591.0779162266042
 31
0.0
  0
LINE
  5
1E643
  8
AM_0N
 10
847.45508271047515
 20
591.0779162266042
 30
0.0
 11
848.37525771047501
 21
591.99809122660417
 31
0.0
  0
LINE
  5
1E644
  8
AM_4N
 10
848.37525771047501
 20
591.99809122660417
 30
0.0
 11
848.37525771047501
 21
590.99810930802175
 31
0.0
  0
LINE
  5
1E645
  8
AM_0N
 10
856.53490771047541
 20
591.99809122660417
 30
0.0
 11
848.37525771047501
 21
591.99809122660417
 31
0.0
  0
LINE
  5
1E646
  8
AM_0
 10
857.36383271047487
 20
582.99810930802175
 30
0.0
 11
857.36383271047487
 21
590.23745032836439
 31
0.0
  0
LINE
  5
1E647
  8
AM_0
 10
862.27258271047481
 20
582.99810930802175
 30
0.0
 11
862.27258271047481
 21
590.23745032836439
 31
0.0
  0
LINE
  5
1E648
  8
AM_0
 10
862.27258271047481
 20
590.23745032836439
 30
0.0
 11
860.95508271047515
 21
590.99810930802175
 31
0.0
  0
ARC
  5
1E649
  8
AM_0
 10
859.81820771047501
 20
586.65808381661634
 30
0.0
 40
4.3400254914053003
 50
64.438469404727272
 51
124.4384694047336
  0
LINE
  5
1E64A
  8
AM_0N
 10
857.45508271047515
 20
590.99810930802175
 30
0.0
 11
857.45508271047515
 21
591.0779162266042
 31
0.0
  0
LINE
  5
1E64B
  8
AM_0
 10
862.95508271047504
 20
582.99810930802175
 30
0.0
 11
862.95508271047504
 21
580.99810930802175
 31
0.0
  0
LINE
  5
1E64C
  8
AM_0
 10
991.95511749079776
 20
590.99810930802175
 30
0.0
 11
1008.955117490798
 21
590.99810930802175
 31
0.0
  0
LINE
  5
1E64D
  8
AM_0
 10
989.95511749079776
 20
582.99810930802175
 30
0.0
 11
1010.955117490798
 21
582.99810930802175
 31
0.0
  0
ARC
  5
1E64E
  8
AM_0
 10
993.09199249079768
 20
586.65808381661634
 30
0.0
 40
4.3400254914053003
 50
55.561530595266369
 51
124.4384694047336
  0
LINE
  5
1E64F
  8
AM_0
 10
990.63761749079754
 20
582.99810930802175
 30
0.0
 11
990.63761749079754
 21
590.23745032836439
 31
0.0
  0
LINE
  5
1E650
  8
AM_0
 10
990.63761749079754
 20
590.23745032836439
 30
0.0
 11
991.95511749079776
 21
590.99810930802175
 31
0.0
  0
LINE
  5
1E651
  8
AM_0
 10
989.95511749079776
 20
580.99810930802175
 30
0.0
 11
989.95511749079776
 21
582.99810930802175
 31
0.0
  0
LINE
  5
1E652
  8
AM_0N
 10
1005.455117490798
 20
591.0779162266042
 30
0.0
 11
1004.534942490798
 21
591.99809122660417
 31
0.0
  0
ARC
  5
1E653
  8
AM_0
 10
1000.455117490798
 20
574.7789958118866
 30
0.0
 40
16.219113496135169
 50
72.383031159608834
 51
107.6169688403911
  0
LINE
  5
1E654
  8
AM_0N
 10
1005.455117490798
 20
591.0779162266042
 30
0.0
 11
995.45511749079776
 21
591.0779162266042
 31
0.0
  0
LINE
  5
1E655
  8
AM_0
 10
995.54636749079759
 20
582.99810930802175
 30
0.0
 11
995.54636749079759
 21
590.23745032836439
 31
0.0
  0
LINE
  5
1E656
  8
AM_4N
 10
1004.534942490798
 20
591.99809122660417
 30
0.0
 11
1004.534942490798
 21
590.99810930802175
 31
0.0
  0
LINE
  5
1E657
  8
AM_0N
 10
995.45511749079776
 20
590.99810930802175
 30
0.0
 11
995.45511749079776
 21
591.0779162266042
 31
0.0
  0
LINE
  5
1E658
  8
AM_0N
 10
995.45511749079776
 20
591.0779162266042
 30
0.0
 11
996.37529249079796
 21
591.99809122660417
 31
0.0
  0
LINE
  5
1E659
  8
AM_4N
 10
996.37529249079796
 20
591.99809122660417
 30
0.0
 11
996.37529249079796
 21
590.99810930802175
 31
0.0
  0
LINE
  5
1E65A
  8
AM_0N
 10
1004.534942490798
 20
591.99809122660417
 30
0.0
 11
996.37529249079796
 21
591.99809122660417
 31
0.0
  0
LINE
  5
1E65B
  8
AM_0
 10
1005.363867490798
 20
582.99810930802175
 30
0.0
 11
1005.363867490798
 21
590.23745032836439
 31
0.0
  0
LINE
  5
1E65C
  8
AM_0
 10
1010.272617490798
 20
582.99810930802175
 30
0.0
 11
1010.272617490798
 21
590.23745032836439
 31
0.0
  0
LINE
  5
1E65D
  8
AM_0
 10
1010.272617490798
 20
590.23745032836439
 30
0.0
 11
1008.955117490798
 21
590.99810930802175
 31
0.0
  0
ARC
  5
1E65E
  8
AM_0
 10
1007.818242490797
 20
586.65808381661634
 30
0.0
 40
4.3400254914053003
 50
64.438469404727272
 51
124.4384694047336
  0
LINE
  5
1E65F
  8
AM_0N
 10
1005.455117490798
 20
590.99810930802175
 30
0.0
 11
1005.455117490798
 21
591.0779162266042
 31
0.0
  0
LINE
  5
1E660
  8
AM_0
 10
1010.955117490798
 20
582.99810930802175
 30
0.0
 11
1010.955117490798
 21
580.99810930802175
 31
0.0
  0
LINE
  5
1E67B
  8
AM_0
 10
983.36139280338386
 20
328.75446297440249
 30
0.0
 11
869.30248335094359
 21
328.75446297440249
 31
0.0
  0
LINE
  5
1E67C
  8
AM_0
 10
1006.331955720139
 20
305.78390005764732
 30
0.0
 11
1006.331955720139
 21
235.72502243408849
 31
0.0
  0
ARC
  5
1E67D
  8
AM_0
 10
1001.331955720139
 20
235.72502243408849
 30
0.0
 40
5.0
 50
266.62771271285618
 51
0.000000000000007
1001
GENIUS_GENODEF_13
1002
{
1000
HIER
1070
     0
1002
}
1002
{
1000
MANEDIT
1070
     0
1002
}
1002
{
1000
NOSEL
1070
     0
1002
}
1002
{
1000
BEHIND
1070
     0
1002
}
1002
{
1000
OTHER
1070
     0
1002
}
1002
{
1000
REACTOR
1002
}
1001
GENIUS_GENOBJ-N-FIL_13
1002
{
1000
OWNER
1000
GEN
1002
}
  0
ARC
  5
1E67E
  8
AM_0
 10
1000.331955541325
 20
218.75445969614699
 30
0.0
 40
12.0
 50
86.627712712856194
 51
90.120500901853106
  0
ARC
  5
1E67F
  8
AM_0
 10
1000.331955541325
 20
322.75446279558878
 30
0.0
 40
12.0
 50
176.62771271285609
 51
273.37228728714382
  0
ARC
  5
1E680
  8
AM_0
 10
1001.331955720139
 20
305.78390005764732
 30
0.0
 40
5.0
 50
0.000000000000007
 51
93.37228728714382
1001
GENIUS_GENOBJ-N-FIL_13
1002
{
1000
OWNER
1000
GEN
1002
}
1001
GENIUS_GENODEF_13
1002
{
1000
HIER
1070
     0
1002
}
1002
{
1000
MANEDIT
1070
     0
1002
}
1002
{
1000
NOSEL
1070
     0
1002
}
1002
{
1000
BEHIND
1070
     0
1002
}
1002
{
1000
OTHER
1070
     0
1002
}
1002
{
1000
REACTOR
1002
}
  0
ARC
  5
1E681
  8
AM_0
 10
983.36139280338386
 20
323.75446297440249
 30
0.0
 40
5.0
 50
356.62771271285618
 51
90.0
1001
GENIUS_GENOBJ-N-FIL_13
1002
{
1000
OWNER
1000
GEN
1002
}
1001
GENIUS_GENODEF_13
1002
{
1000
HIER
1070
     0
1002
}
1002
{
1000
MANEDIT
1070
     0
1002
}
1002
{
1000
NOSEL
1070
     0
1002
}
1002
{
1000
BEHIND
1070
     0
1002
}
1002
{
1000
OTHER
1070
     0
1002
}
1002
{
1000
REACTOR
1002
}
  0
LINE
  5
1E682
  8
AM_0
 10
846.33192043418853
 20
305.78390005764749
 30
0.0
 11
846.33192043418853
 21
235.7250224340884
 31
0.0
  0
ARC
  5
1E683
  8
AM_0
 10
851.33192043418842
 20
235.7250224340884
 30
0.0
 40
5.0
 50
180.0
 51
273.37228728714382
1001
GENIUS_GENODEF_13
1002
{
1000
HIER
1070
     0
1002
}
1002
{
1000
MANEDIT
1070
     0
1002
}
1002
{
1000
NOSEL
1070
     0
1002
}
1002
{
1000
BEHIND
1070
     0
1002
}
1002
{
1000
OTHER
1070
     0
1002
}
1002
{
1000
REACTOR
1002
}
1001
GENIUS_GENOBJ-N-FIL_13
1002
{
1000
OWNER
1000
GEN
1002
}
  0
ARC
  5
1E684
  8
AM_0
 10
852.33192061300269
 20
218.75445969614699
 30
0.0
 40
12.0
 50
89.879499098146937
 51
93.37228728714382
  0
ARC
  5
1E685
  8
AM_0
 10
852.33192061300269
 20
322.75446279558878
 30
0.0
 40
12.0
 50
266.62771271285618
 51
3.3722872871438212
  0
ARC
  5
1E686
  8
AM_0
 10
851.33192043418842
 20
305.78390005764749
 30
0.0
 40
5.0
 50
86.627712712856194
 51
180.0
1001
GENIUS_GENODEF_13
1002
{
1000
HIER
1070
     0
1002
}
1002
{
1000
MANEDIT
1070
     0
1002
}
1002
{
1000
NOSEL
1070
     0
1002
}
1002
{
1000
BEHIND
1070
     0
1002
}
1002
{
1000
OTHER
1070
     0
1002
}
1002
{
1000
REACTOR
1002
}
1001
GENIUS_GENOBJ-N-FIL_13
1002
{
1000
OWNER
1000
GEN
1002
}
  0
ARC
  5
1E687
  8
AM_0
 10
869.30248335094359
 20
323.7544629744026
 30
0.0
 40
5.0
 50
90.0
 51
183.37228728714379
1001
GENIUS_GENOBJ-N-FIL_13
1002
{
1000
OWNER
1000
GEN
1002
}
1001
GENIUS_GENODEF_13
1002
{
1000
HIER
1070
     0
1002
}
1002
{
1000
MANEDIT
1070
     0
1002
}
1002
{
1000
NOSEL
1070
     0
1002
}
1002
{
1000
BEHIND
1070
     0
1002
}
1002
{
1000
OTHER
1070
     0
1002
}
1002
{
1000
REACTOR
1002
}
  0
CIRCLE
  5
1E7C0
  8
AM_0
 10
852.33192066400227
 20
218.75498205435821
 30
0.0
 40
8.0
  0
CIRCLE
  5
1E7C1
  8
AM_0
 10
852.33192066400227
 20
218.75498205435821
 30
0.0
 40
4.6188021535170041
  0
LINE
  5
1E7C2
  8
AM_0
 10
856.95072281751936
 20
218.75498205435821
 30
0.0
 11
854.64132174076292
 21
222.75498205435821
 31
0.0
  0
LINE
  5
1E7C3
  8
AM_0
 10
850.02251958724378
 20
222.75498205435821
 30
0.0
 11
847.71311851048586
 21
218.75498205435909
 31
0.0
  0
LINE
  5
1E7C4
  8
AM_0
 10
850.02251958724275
 20
214.75498205435821
 30
0.0
 11
854.64132174076065
 21
214.75498205435821
 31
0.0
  0
LINE
  5
1E7C5
  8
AM_0
 10
847.71311851048586
 20
218.75498205435909
 30
0.0
 11
850.02251958724275
 21
214.75498205435821
 31
0.0
  0
LINE
  5
1E7C6
  8
AM_0
 10
854.64132174076065
 20
214.75498205435821
 30
0.0
 11
856.95072281751936
 21
218.75498205435821
 31
0.0
  0
LINE
  5
1E7C7
  8
AM_0
 10
854.64132174076292
 20
222.75498205435821
 30
0.0
 11
850.02251958724378
 21
222.75498205435821
 31
0.0
  0
CIRCLE
  5
1E7C8
  8
AM_0
 10
1000.331955444325
 20
218.75498205435821
 30
0.0
 40
8.0
  0
CIRCLE
  5
1E7C9
  8
AM_0
 10
1000.331955444325
 20
218.75498205435821
 30
0.0
 40
4.6188021535170041
  0
LINE
  5
1E7CA
  8
AM_0
 10
1004.950757597842
 20
218.75498205435821
 30
0.0
 11
1002.641356521086
 21
222.75498205435821
 31
0.0
  0
LINE
  5
1E7CB
  8
AM_0
 10
998.02255436756673
 20
222.75498205435821
 30
0.0
 11
995.71315329080869
 21
218.75498205435909
 31
0.0
  0
LINE
  5
1E7CC
  8
AM_0
 10
998.02255436756559
 20
214.75498205435821
 30
0.0
 11
1002.641356521084
 21
214.75498205435821
 31
0.0
  0
LINE
  5
1E7CD
  8
AM_0
 10
995.71315329080869
 20
218.75498205435909
 30
0.0
 11
998.02255436756559
 21
214.75498205435821
 31
0.0
  0
LINE
  5
1E7CE
  8
AM_0
 10
1002.641356521084
 20
214.75498205435821
 30
0.0
 11
1004.950757597842
 21
218.75498205435821
 31
0.0
  0
LINE
  5
1E7CF
  8
AM_0
 10
1002.641356521086
 20
222.75498205435821
 30
0.0
 11
998.02255436756673
 21
222.75498205435821
 31
0.0
  0
TEXT
  5
1EC5E
  8
AM_0
 10
514.81849735763888
 20
535.75063199834574
 30
0.0
 40
10.0
  1
VC04-007KMR~VC04-060KMR
1001
ACAD
1000
MTEXTBEGIN
1070
    73
1070
     1
1070
    44
1040
1.0
1070
    74
1070
     0
1000
MTEXTEND
  0
VIEWPORT
  5
89
 67
     1
  8
0
 10
210.0
 20
148.5
 30
0.0
 40
420.0
 41
297.0
 68
     1
 69
     1
1001
ACAD
1000
MVIEW
1002
{
1070
    16
1010
0.0
1020
0.0
1030
0.0
1010
0.0
1020
0.0
1030
1.0
1040
0.0
1040
297.0
1040
221.70154043645701
1040
148.5
1040
50.0
1040
0.0
1040
0.0
1070
     0
1070
   100
1070
     1
1070
     1
1070
     0
1070
     0
1070
     0
1070
     0
1040
0.0
1040
0.0
1040
0.0
1040
10.0
1040
10.0
1040
10.0
1040
10.0
1070
     0
1002
{
1002
}
1002
}
1001
GENIUS_GENOREF_13
1005
1B94
1001
GENIUS_GENSCREG_15
1000
PF
1040
1.0
1000
DF
1040
1.0
1000
MIN
1011
0.0
1021
0.0
1031
0.0
1021
0.0
1031
0.0
1000
MAX
1011
420.0
1021
0.0
1031
0.0
1021
297.0
1031
0.0
1000
FLAGS
1070
     4
  0
ENDSEC
  0
EOF
