  0
SECTION
  2
HEADER
  9
$ACADVER
  1
AC1009
  9
$INSBASE
 10
0.0
 20
0.0
 30
0.0
  9
$EXTMIN
 10
625.90544838551295
 20
253.08421247208341
 30
-0.0000000349181948
  9
$EXTMAX
 10
1462.253274192436
 20
797.51096329520533
 30
0.0000000814935747
  9
$LIMMIN
 10
0.0
 20
0.0
  9
$LIMMAX
 10
1138.0
 20
740.00000000000011
  9
$ORTHOMODE
 70
     0
  9
$REGENMODE
 70
     1
  9
$FILLMODE
 70
     1
  9
$QTEXTMODE
 70
     0
  9
$MIRRTEXT
 70
     1
  9
$DRAGMODE
 70
     2
  9
$LTSCALE
 40
4.0
  9
$OSMODE
 70
   551
  9
$ATTMODE
 70
     1
  9
$TEXTSIZE
 40
2.5
  9
$TRACEWID
 40
1.0
  9
$TEXTSTYLE
  7
STANDARD
  9
$CLAYER
  8
AM_0
  9
$CELTYPE
  6
BYLAYER
  9
$CECOLOR
 62
   256
  9
$DIMSCALE
 40
4.0
  9
$DIMASZ
 40
2.5
  9
$DIMEXO
 40
1.0
  9
$DIMDLI
 40
7.0
  9
$DIMRND
 40
0.0
  9
$DIMDLE
 40
0.0
  9
$DIMEXE
 40
1.0
  9
$DIMTP
 40
0.1
  9
$DIMTM
 40
0.1000000001
  9
$DIMTXT
 40
2.5
  9
$DIMCEN
 40
0.0
  9
$DIMTSZ
 40
0.0
  9
$DIMTOL
 70
     0
  9
$DIMLIM
 70
     0
  9
$DIMTIH
 70
     0
  9
$DIMTOH
 70
     0
  9
$DIMSE1
 70
     0
  9
$DIMSE2
 70
     0
  9
$DIMTAD
 70
     3
  9
$DIMZIN
 70
     8
  9
$DIMBLK
  1

  9
$DIMASO
 70
     1
  9
$DIMSHO
 70
     1
  9
$DIMPOST
  1

  9
$DIMAPOST
  1
"
  9
$DIMALT
 70
     0
  9
$DIMALTD
 70
     2
  9
$DIMALTF
 40
0.0393701
  9
$DIMLFAC
 40
1.0
  9
$DIMTOFL
 70
     1
  9
$DIMTVP
 40
0.0
  9
$DIMTIX
 70
     0
  9
$DIMSOXD
 70
     0
  9
$DIMSAH
 70
     0
  9
$DIMBLK1
  1

  9
$DIMBLK2
  1

  9
$DIMSTYLE
  2
AM_JIS
  9
$DIMCLRD
 70
   256
  9
$DIMCLRE
 70
   256
  9
$DIMCLRT
 70
     4
  9
$DIMTFAC
 40
0.71
  9
$DIMGAP
 40
1.0
  9
$LUNITS
 70
     2
  9
$LUPREC
 70
     2
  9
$SKETCHINC
 40
1.0
  9
$FILLETRAD
 40
10.0
  9
$AUNITS
 70
     0
  9
$AUPREC
 70
     3
  9
$MENU
  1
.
  9
$ELEVATION
 40
0.0
  9
$PELEVATION
 40
0.0
  9
$THICKNESS
 40
0.0
  9
$LIMCHECK
 70
     0
  9
$BLIPMODE
 70
     0
  9
$CHAMFERA
 40
10.0
  9
$CHAMFERB
 40
10.0
  9
$SKPOLY
 70
     0
  9
$TDCREATE
 40
2452753.643349607
  9
$TDUPDATE
 40
2458543.4607939469
  9
$TDINDWG
 40
0.573211794
  9
$TDUSRTIMER
 40
0.5732115972
  9
$USRTIMER
 70
     1
  9
$ANGBASE
 50
0.0
  9
$ANGDIR
 70
     0
  9
$PDMODE
 70
     0
  9
$PDSIZE
 40
0.0
  9
$PLINEWID
 40
0.0
  9
$COORDS
 70
     1
  9
$SPLFRAME
 70
     0
  9
$SPLINETYPE
 70
     6
  9
$SPLINESEGS
 70
     8
  9
$ATTDIA
 70
     1
  9
$ATTREQ
 70
     1
  9
$HANDLING
 70
     1
  9
$HANDSEED
  5
1884E
  9
$SURFTAB1
 70
     6
  9
$SURFTAB2
 70
     6
  9
$SURFTYPE
 70
     6
  9
$SURFU
 70
     6
  9
$SURFV
 70
     6
  9
$UCSNAME
  2

  9
$UCSORG
 10
0.0
 20
0.0
 30
0.0
  9
$UCSXDIR
 10
1.0
 20
0.0
 30
0.0
  9
$UCSYDIR
 10
0.0
 20
1.0
 30
0.0
  9
$PUCSNAME
  2

  9
$PUCSORG
 10
0.0
 20
0.0
 30
0.0
  9
$PUCSXDIR
 10
1.0
 20
0.0
 30
0.0
  9
$PUCSYDIR
 10
0.0
 20
1.0
 30
0.0
  9
$USERI1
 70
     0
  9
$USERI2
 70
     0
  9
$USERI3
 70
     0
  9
$USERI4
 70
     0
  9
$USERI5
 70
     0
  9
$USERR1
 40
0.0
  9
$USERR2
 40
0.0
  9
$USERR3
 40
0.0
  9
$USERR4
 40
0.0
  9
$USERR5
 40
0.0
  9
$WORLDVIEW
 70
     1
  9
$SHADEDGE
 70
     3
  9
$SHADEDIF
 70
    70
  9
$TILEMODE
 70
     1
  9
$MAXACTVP
 70
    48
  9
$PLIMCHECK
 70
     0
  9
$PEXTMIN
 10
1.0000000000000000E+020
 20
1.0000000000000000E+020
 30
1.0000000000000000E+020
  9
$PEXTMAX
 10
-1.0000000000000000E+020
 20
-1.0000000000000000E+020
 30
-1.0000000000000000E+020
  9
$PLIMMIN
 10
0.0
 20
0.0
  9
$PLIMMAX
 10
420.0
 20
297.0
  9
$UNITMODE
 70
     0
  9
$VISRETAIN
 70
     1
  9
$PLINEGEN
 70
     0
  9
$PSLTSCALE
 70
     1
  0
ENDSEC
  0
SECTION
  2
TABLES
  0
TABLE
  2
VPORT
 70
     1
  0
VPORT
  2
*ACTIVE
 70
     0
 10
0.0
 20
0.0
 11
1.0
 21
1.0
 12
1044.079361288974
 22
525.29758788364427
 13
0.0
 23
0.0
 14
10.0
 24
10.0
 15
40.0
 25
40.0
 16
0.0
 26
0.0
 36
1.0
 17
0.0
 27
0.0
 37
0.0
 40
548.16423423838364
 41
1.7571592210767459
 42
50.0
 43
0.0
 44
0.0
 50
0.0
 51
0.0
 71
     0
 72
   100
 73
     1
 74
     1
 75
     0
 76
     0
 77
     0
 78
     0
  0
ENDTAB
  0
TABLE
  2
LTYPE
 70
    21
  0
LTYPE
  2
CONTINUOUS
 70
     0
  3
Solid line
 72
    65
 73
     0
 40
0.0
  0
LTYPE
  2
PHANTOM2
 70
     0
  3
Phantom (.5x) ___ _ _ ___ _ _ ___ _ _ ___ _ _
 72
    65
 73
     6
 40
31.75
 49
15.875
 49
-3.174999999999998
 49
3.174999999999998
 49
-3.174999999999998
 49
3.174999999999998
 49
-3.174999999999998
  0
LTYPE
  2
CENTER
 70
     0
  3
Center ____ _ ____ _ ____ _ ____ _ ____ _ ____
 72
    65
 73
     4
 40
50.799999999999997
 49
31.75
 49
-6.3499999999999979
 49
6.3499999999999979
 49
-6.3499999999999979
  0
LTYPE
  2
ACANSTGBM
 70
     0
  3
__ . . __ . .
 72
    65
 73
     6
 40
9.0
 49
4.0
 49
-1.0
 49
1.0
 49
-1.0
 49
1.0
 49
-1.0
  0
LTYPE
  2
ACANSTGLM
 70
     0
  3
_ _ _ _ _
 72
    65
 73
     2
 40
3.0
 49
2.0
 49
-1.0
  0
LTYPE
  2
GEN3B
 70
     0
  3
 - - - - -
 72
    65
 73
     2
 40
1.0
 49
0.5
 49
-0.5
  0
LTYPE
  2
GEN7A
 70
     0
  3
__ . __ . __
 72
    65
 73
     4
 40
7.375
 49
4.75
 49
-0.875
 49
0.875
 49
-0.875
  0
LTYPE
  2
AM_ISO02W050
 70
     0
  3
__ __ __ __ __ __ __ __ __ __ __ __ __ __ __
 72
    65
 73
     2
 40
7.5
 49
6.0
 49
-1.5
  0
LTYPE
  2
AM_ISO08W050
 70
     0
  3
____ . ____ . ____ . ____ . ____ . ____ . ____
 72
    65
 73
     4
 40
18.0
 49
12.0
 49
-1.5
 49
3.0
 49
-1.5
  0
LTYPE
  2
AM_ISO09W050
 70
     0
  3
_____ . . _____ . . _____ . . ____ .. ____
 72
    65
 73
     6
 40
22.5
 49
12.0
 49
-1.5
 49
3.0
 49
-1.5
 49
3.0
 49
-1.5
  0
LTYPE
  2
AMCONSTR
 70
     0
  3
_______________________
 72
    65
 73
     2
 40
9999.0
 49
9999.0
 49
0.0
  0
LTYPE
  2
AM_ISO02W050X2
 70
     0
  3
 _ _ _ _ _ _ _ _ _ _ _ _
 72
    65
 73
     2
 40
3.75
 49
3.0
 49
-0.75
  0
LTYPE
  2
AM_ISO08W050X2
 70
     0
  3
__ . __ . __ . __ . __ . __
 72
    65
 73
     4
 40
9.0
 49
6.0
 49
-0.75
 49
1.5
 49
-0.75
  0
LTYPE
  2
AMZIGZAG
 70
     0
  3
/\/-/\/-/\/-/\/-/\/-/\/
 72
    65
 73
     2
 40
11.0001
 49
0.0001
 49
-11.0
  0
LTYPE
  2
ACJISTGB
 70
     0
  3
__ . . __ . .
 72
    65
 73
     6
 40
9.0
 49
4.0
 49
-1.0
 49
1.0
 49
-1.0
 49
1.0
 49
-1.0
  0
LTYPE
  2
ACJISTGL
 70
     0
  3
_ _ _ _ _
 72
    65
 73
     2
 40
3.0
 49
2.0
 49
-1.0
  0
LTYPE
  2
ACISOWELD
 70
     0
  3
_ _ _ _ _
 72
    65
 73
     2
 40
2.0
 49
2.0
 49
-1.0
  0
LTYPE
  2
ACISOTGB
 70
     0
  3
__ . . __ . .
 72
    65
 73
     6
 40
9.0
 49
4.0
 49
-1.0
 49
1.0
 49
-1.0
 49
1.0
 49
-1.0
  0
LTYPE
  2
ACISOTGL
 70
     0
  3
_ _ _ _ _
 72
    65
 73
     2
 40
3.0
 49
2.0
 49
-1.0
  0
LTYPE
  2
HIDDEN
 70
     0
  3
Hidden __ __ __ __ __ __ __ __ __ __ __ __ __ _
 72
    65
 73
     2
 40
9.5249999999999968
 49
6.3499999999999979
 49
-3.174999999999998
  0
ENDTAB
  0
TABLE
  2
LAYER
 70
     8
  0
LAYER
  2
0
 70
     0
 62
     7
  6
CONTINUOUS
  0
LAYER
  2
ｽﾝﾎﾟｳｾﾝ
 70
     0
 62
     2
  6
CONTINUOUS
  0
LAYER
  2
DEFPOINTS
 70
     0
 62
     7
  6
CONTINUOUS
  0
LAYER
  2
ｶｸﾚｾﾝ2
 70
     0
 62
     3
  6
GEN3B
  0
LAYER
  2
ﾁｭｳｼﾝｾﾝ1
 70
     0
 62
     1
  6
GEN7A
  0
LAYER
  2
AM_0
 70
     0
 62
     7
  6
CONTINUOUS
  0
LAYER
  2
AM_0N
 70
     0
 62
     7
  6
CONTINUOUS
  0
LAYER
  2
AM_5
 70
     0
 62
     2
  6
CONTINUOUS
  0
ENDTAB
  0
TABLE
  2
STYLE
 70
     8
  0
STYLE
  2
STANDARD
 70
     0
 40
0.0
 41
0.8299999999999999
 50
0.0
 71
     0
 42
2.5
  3
txt.shx
  4
bigfont.shx
  0
STYLE
  2
ACANSTS
 70
     0
 40
1.0
 41
1.0
 50
0.0
 71
     0
 42
2.5
  3
romans.shx
  4
bigfont.shx
  0
STYLE
  2
ACANSGDT
 70
     0
 40
0.0
 41
1.0
 50
0.0
 71
     0
 42
2.5
  3
amgdtans.shx
  4

  0
STYLE
  2

 70
     1
 40
0.0
 41
1.0
 50
0.0
 71
     0
 42
2.5
  3
ltypeshp.shx
  4

  0
STYLE
  2
ACJISTS
 70
     0
 40
1.0
 41
1.0
 50
0.0
 71
     0
 42
2.5
  3
isocp.shx
  4
bigfont.shx
  0
STYLE
  2
ACJISGDT
 70
     0
 40
0.0
 41
1.0
 50
0.0
 71
     0
 42
2.5
  3
amgdt.shx
  4

  0
STYLE
  2
ACISOTS
 70
     0
 40
3.0
 41
1.0
 50
0.0
 71
     0
 42
2.5
  3
isocp.shx
  4
extfont.shx
  0
STYLE
  2
ACISOGDT
 70
     0
 40
0.0
 41
1.0
 50
0.0
 71
     0
 42
2.5
  3
amgdt.shx
  4

  0
ENDTAB
  0
TABLE
  2
VIEW
 70
    12
  0
VIEW
  2
GEN1
 70
     0
 40
95.824742268041234
 10
71.5
 20
137.08762886597941
 41
143.0
 11
0.0
 21
0.0
 31
1.0
 12
0.0
 22
0.0
 32
0.0
 42
50.0
 43
0.0
 44
0.0
 50
0.0
 71
     0
  0
VIEW
  2
GEN2
 70
     0
 40
95.824742268041234
 10
214.5
 20
137.08762886597941
 41
143.0
 11
0.0
 21
0.0
 31
1.0
 12
0.0
 22
0.0
 32
0.0
 42
50.0
 43
0.0
 44
0.0
 50
0.0
 71
     0
  0
VIEW
  2
GEN3
 70
     0
 40
95.824742268041234
 10
71.5
 20
47.912371134020603
 41
143.0
 11
0.0
 21
0.0
 31
1.0
 12
0.0
 22
0.0
 32
0.0
 42
50.0
 43
0.0
 44
0.0
 50
0.0
 71
     0
  0
VIEW
  2
GEN4
 70
     0
 40
95.824742268041234
 10
214.5
 20
47.912371134020603
 41
143.0
 11
0.0
 21
0.0
 31
1.0
 12
0.0
 22
0.0
 32
0.0
 42
50.0
 43
0.0
 44
0.0
 50
0.0
 71
     0
  0
VIEW
  2
GEN5
 70
     0
 40
95.824742268041234
 10
143.0
 20
92.500000000000057
 41
143.0
 11
0.0
 21
0.0
 31
1.0
 12
0.0
 22
0.0
 32
0.0
 42
50.0
 43
0.0
 44
0.0
 50
0.0
 71
     0
  0
VIEW
  2
GEN6
 70
     0
 40
191.64756804123709
 10
143.0
 20
92.5
 41
285.99714
 11
0.0
 21
0.0
 31
1.0
 12
0.0
 22
0.0
 32
0.0
 42
50.0
 43
0.0
 44
0.0
 50
0.0
 71
     0
  0
VIEW
  2
AM_VIEW1
 70
     0
 40
370.00000000000023
 10
332.86372007366492
 20
555.00000000000011
 41
665.72744014732973
 11
0.0
 21
0.0
 31
1.0
 12
0.0
 22
0.0
 32
0.0
 42
50.0
 43
0.0
 44
0.0
 50
0.0
 71
     0
  0
VIEW
  2
AM_VIEW2
 70
     0
 40
370.00000000000023
 10
805.13627992633508
 20
555.00000000000011
 41
665.72744014732973
 11
0.0
 21
0.0
 31
1.0
 12
0.0
 22
0.0
 32
0.0
 42
50.0
 43
0.0
 44
0.0
 50
0.0
 71
     0
  0
VIEW
  2
AM_VIEW3
 70
     0
 40
370.00000000000023
 10
332.86372007366492
 20
185.0
 41
665.72744014732973
 11
0.0
 21
0.0
 31
1.0
 12
0.0
 22
0.0
 32
0.0
 42
50.0
 43
0.0
 44
0.0
 50
0.0
 71
     0
  0
VIEW
  2
AM_VIEW4
 70
     0
 40
370.00000000000023
 10
805.13627992633508
 20
185.0
 41
665.72744014732973
 11
0.0
 21
0.0
 31
1.0
 12
0.0
 22
0.0
 32
0.0
 42
50.0
 43
0.0
 44
0.0
 50
0.0
 71
     0
  0
VIEW
  2
AM_VIEW5
 70
     0
 40
370.00000000000023
 10
569.0
 20
370.00000000000023
 41
665.72744014732962
 11
0.0
 21
0.0
 31
1.0
 12
0.0
 22
0.0
 32
0.0
 42
50.0
 43
0.0
 44
0.0
 50
0.0
 71
     0
  0
VIEW
  2
AM_VIEW6
 70
     0
 40
739.99260000000015
 10
569.0
 20
370.00000000000023
 41
1331.4415657458569
 11
0.0
 21
0.0
 31
1.0
 12
0.0
 22
0.0
 32
0.0
 42
50.0
 43
0.0
 44
0.0
 50
0.0
 71
     0
  0
ENDTAB
  0
TABLE
  2
UCS
 70
     0
  0
ENDTAB
  0
TABLE
  2
APPID
 70
    96
  0
APPID
  2
ACAD
 70
     0
  0
APPID
  2
MCAD_NO_VIS
 70
     0
  0
APPID
  2
ACAD_TEMP_GRAPHIC
 70
     0
  0
APPID
  2
AD_DRAW
 70
     0
  0
APPID
  2
DESIGNERASSEMBLIES
 70
     0
  0
APPID
  2
ASURF_PCURVE_APPNAME
 70
     0
  0
APPID
  2
GENIUS_GE3SECT_13
 70
     0
  0
APPID
  2
GENIUS_GENCFG_13
 70
     0
  0
APPID
  2
GENIUS_GE3CFG0_13
 70
     0
  0
APPID
  2
GENIUS_GENCFG0_13
 70
     0
  0
APPID
  2
GENIUS_GENCFG1_13
 70
     0
  0
APPID
  2
GENIUS_GENCFG2_13
 70
     0
  0
APPID
  2
GENIUS_GENCFG3_13
 70
     0
  0
APPID
  2
GENIUS_GENCFG4_13
 70
     0
  0
APPID
  2
GENIUS_GEVCFG0_13
 70
     0
  0
APPID
  2
GENIUS_GENOENT_13
 70
     0
  0
APPID
  2
GENIUS_GENREC_14
 70
     0
  0
APPID
  2
GENIUS_GENODEF_13
 70
     0
  0
APPID
  2
GENIUS_GENOBJ-N-REC_13
 70
     0
  0
APPID
  2
GENIUS_GENHINW_13
 70
     0
  0
APPID
  2
GENIUS_FIRSTVISTXT_14
 70
     0
  0
APPID
  2
GENIUS_GENOBJ-N-LEADER_13
 70
     0
  0
APPID
  2
GENIUS_GENOREF_13
 70
     0
  0
APPID
  2
GENIUS_GENOLIS_13
 70
     0
  0
APPID
  2
GEV_VCCNULL_SWITCH_OFF
 70
     0
  0
APPID
  2
GENIUS_GENDTOL_13
 70
     0
  0
APPID
  2
GENIUS_GEFCFG0_13
 70
     0
  0
APPID
  2
GENIUS_GENOBJ-N-TIT_13
 70
     0
  0
APPID
  2
GENIUS_GENTITLE_13
 70
     0
  0
APPID
  2
GENIUS_GENZVEED_13
 70
     0
  0
APPID
  2
GENIUS_GENOBJ-N-SDF_13
 70
     0
  0
APPID
  2
GENIUS_GENSCREG_13
 70
     0
  0
APPID
  2
GENIUS_DUMCFG0_13
 70
     0
  0
APPID
  2
GEVID936201362
 70
     0
  0
APPID
  2
GEVDC
 70
     0
  0
APPID
  2
GEVCON
 70
     0
  0
APPID
  2
VCC
 70
     0
  0
APPID
  2
GEVPT
 70
     0
  0
APPID
  2
GEVIT
 70
     0
  0
APPID
  2
GENBH
 70
     0
  0
APPID
  2
GEVMK
 70
     0
  0
APPID
  2
GENIUS_GENBH_13
 70
     0
  0
APPID
  2
GENIUS_GENOBJ-NBEHI-BHF_13
 70
     0
  0
APPID
  2
GENIUS_GENOBJ-NBEHI-BHB_13
 70
     0
  0
APPID
  2
GENIUS_GENOBJ-F-DESC_13
 70
     0
  0
APPID
  2
GENIUS_GEFDESC_14
 70
     0
  0
APPID
  2
GENIUS_GENOBJ-F-PART_13
 70
     0
  0
APPID
  2
GENIUS_GEFSTDP_13
 70
     0
  0
APPID
  2
GENIUS_GEFPARTINS_13
 70
     0
  0
APPID
  2
GENIUS_GENTRA_14
 70
     0
  0
APPID
  2
GENIUS_GENINF13_13
 70
     0
  0
APPID
  2
GENIUS_GENOBJ-N-INFOPT_13
 70
     0
  0
APPID
  2
GENIUS_GENOBJ-N-RSSYM_13
 70
     0
  0
APPID
  2
GENIUS_GENSYMENT_13
 70
     0
  0
APPID
  2
GENIUS_GENSCSYM_13
 70
     0
  0
APPID
  2
GENIUS_GEFINFNAM_13
 70
     0
  0
APPID
  2
GENIUS_GENSCREG_15
 70
     0
  0
APPID
  2
GENIUS_GENOBJ-N-CEN_13
 70
     0
  0
APPID
  2
GENIUS_GENOBJ-N-CRS_13
 70
     0
  0
APPID
  2
GENIUS_GENOBJ-N-CRC_13
 70
     0
  0
APPID
  2
GENIUS_GENCRC_14
 70
     0
  0
APPID
  2
GEVID942827039
 70
     0
  0
APPID
  2
GEVID942827040
 70
     0
  0
APPID
  2
GEVID942827041
 70
     0
  0
APPID
  2
GENIUS_GENOBJ-F-SCPASSM_13
 70
     0
  0
APPID
  2
GENIUS_GENDIMSH_14
 70
     0
  0
APPID
  2
GENIUS_GENFIL_13
 70
     0
  0
APPID
  2
GENIUS_GENOBJ-N-CHA_13
 70
     0
  0
APPID
  2
GENIUS_GENOBJ-N-FIL_13
 70
     0
  0
APPID
  2
GEVID942827042
 70
     0
  0
APPID
  2
GEVID946020473
 70
     0
  0
APPID
  2
GEVID946020474
 70
     0
  0
APPID
  2
GEVID946020475
 70
     0
  0
APPID
  2
GENIUS_GENOBJ-N-HTC_13
 70
     0
  0
APPID
  2
GENIUS_GENHATCH_13
 70
     0
  0
APPID
  2
GEVID948854295
 70
     0
  0
APPID
  2
GEVID939402019
 70
     0
  0
APPID
  2
GEVID952919491
 70
     0
  0
APPID
  2
GEVID952919492
 70
     0
  0
APPID
  2
GENIUS_GEFWELD_13
 70
     0
  0
APPID
  2
GENIUS_GENOBJ-F-WELS_13
 70
     0
  0
APPID
  2
GEVID952919493
 70
     0
  0
APPID
  2
GENIUS_GENOBJ-N-RSBK_13
 70
     0
  0
APPID
  2
GENIUS_GENOBJ-N-LIB_13
 70
     0
  0
APPID
  2
GENIUS_GENSCALE_13
 70
     0
  0
APPID
  2
GEVID986376691
 70
     0
  0
APPID
  2
ACATTRIBSERVICES
 70
     0
  0
APPID
  2
DCO15
 70
     0
  0
APPID
  2
ACADM_DIM_EDIT
 70
     0
  0
APPID
  2
AMDT_DM_ADJ
 70
     0
  0
APPID
  2
ACAD_MLEADERVER
 70
     0
  0
APPID
  2
ACAD_DSTYLE_DIMBREAK
 70
     0
  0
APPID
  2
ACAD_DSTYLE_DIMJAG
 70
     0
  0
APPID
  2
ACAD_NAV_VCDISPLAY
 70
     0
  0
APPID
  2
ACADANNOPO
 70
     0
  0
APPID
  2
ACAD_EXEMPT_FROM_CAD_STANDARDS
 70
     0
  0
ENDTAB
  0
TABLE
  2
DIMSTYLE
 70
    15
  0
DIMSTYLE
  2
STANDARD
 70
     0
  3

  4

  5

  6

  7

 40
1.0
 41
0.18
 42
0.0625
 43
0.38
 44
0.18
 45
0.0
 46
0.0
 47
0.0
 48
0.0
140
0.18
141
0.09
142
0.0
143
25.399999999999999
144
1.0
145
0.0
146
1.0
147
0.09
 71
     0
 72
     0
 73
     1
 74
     1
 75
     0
 76
     0
 77
     0
 78
     0
170
     0
171
     2
172
     0
173
     0
174
     0
175
     0
176
     0
177
     0
178
     0
  0
DIMSTYLE
  2
AM_JIS
 70
     0
  3

  4
"
  5

  6

  7

 40
1.0
 41
2.5
 42
1.0
 43
7.0
 44
1.0
 45
0.0
 46
0.0
 47
0.1
 48
0.1000000001
140
2.5
141
0.0
142
0.0
143
0.0393701
144
1.0
145
0.0
146
0.71
147
1.0
 71
     0
 72
     0
 73
     0
 74
     0
 75
     0
 76
     0
 77
     3
 78
     8
170
     0
171
     2
172
     1
173
     0
174
     0
175
     0
176
   256
177
   256
178
     4
  0
DIMSTYLE
  2
AM_JIS$3
 70
     0
  3

  4
"
  5

  6

  7

 40
1.0
 41
2.5
 42
1.0
 43
7.0
 44
1.0
 45
0.0
 46
0.0
 47
0.1
 48
0.1000000001
140
2.5
141
0.0
142
0.0
143
0.0393701
144
1.0
145
0.0
146
0.71
147
1.0
 71
     0
 72
     0
 73
     0
 74
     1
 75
     0
 76
     0
 77
     3
 78
     8
170
     0
171
     2
172
     0
173
     0
174
     0
175
     0
176
   256
177
   256
178
     4
  0
DIMSTYLE
  2
AM_JIS$4
 70
     0
  3

  4
"
  5

  6

  7

 40
1.0
 41
2.5
 42
1.0
 43
7.0
 44
1.0
 45
0.0
 46
0.0
 47
0.1
 48
0.1000000001
140
2.5
141
0.0
142
0.0
143
0.0393701
144
1.0
145
0.0
146
0.71
147
1.0
 71
     0
 72
     0
 73
     0
 74
     0
 75
     0
 76
     0
 77
     3
 78
     8
170
     0
171
     2
172
     0
173
     0
174
     0
175
     0
176
   256
177
   256
178
     4
  0
DIMSTYLE
  2
AM_JIS$6
 70
     0
  3

  4
"
  5

  6

  7

 40
1.0
 41
2.5
 42
1.0
 43
7.0
 44
1.0
 45
0.0
 46
0.0
 47
0.1
 48
0.1000000001
140
2.5
141
0.0
142
0.0
143
0.0393701
144
1.0
145
0.0
146
0.71
147
1.0
 71
     0
 72
     0
 73
     0
 74
     0
 75
     0
 76
     0
 77
     0
 78
     8
170
     0
171
     2
172
     1
173
     0
174
     0
175
     0
176
   256
177
   256
178
     4
  0
DIMSTYLE
  2
AM_JIS$7
 70
     0
  3

  4
"
  5

  6

  7

 40
1.0
 41
2.5
 42
1.0
 43
7.0
 44
1.0
 45
0.0
 46
0.0
 47
0.1
 48
0.1000000001
140
2.5
141
0.0
142
0.0
143
0.0393701
144
1.0
145
0.0
146
0.71
147
1.0
 71
     0
 72
     0
 73
     0
 74
     0
 75
     0
 76
     0
 77
     3
 78
     8
170
     0
171
     2
172
     1
173
     0
174
     0
175
     0
176
   256
177
   256
178
     4
  0
DIMSTYLE
  2
AM_JIS$SF
 70
     0
  3

  4
"
  5
OPEN30
  6
OPEN30
  7
OPEN30
 40
1.0
 41
2.5
 42
1.0
 43
10.0
 44
1.0
 45
0.0
 46
0.0
 47
0.1
 48
0.1
140
3.5
141
0.0
142
0.0
143
0.0393701
144
1.0
145
0.0
146
0.71
147
1.5
 71
     0
 72
     0
 73
     0
 74
     0
 75
     1
 76
     1
 77
     3
 78
     8
170
     0
171
     2
172
     1
173
     0
174
     0
175
     0
176
   256
177
   256
178
     4
  0
DIMSTYLE
  2
AM_JIS$SH
 70
     0
  3

  4
"
  5

  6
NONE
  7

 40
1.0
 41
2.5
 42
1.0
 43
10.0
 44
1.0
 45
0.0
 46
0.0
 47
0.1
 48
0.1
140
3.5
141
0.0
142
0.0
143
0.0393701
144
1.0
145
0.0
146
0.71
147
1.5
 71
     0
 72
     0
 73
     0
 74
     0
 75
     1
 76
     0
 77
     3
 78
     8
170
     0
171
     2
172
     1
173
     1
174
     0
175
     0
176
   256
177
   256
178
     4
  0
DIMSTYLE
  2
AM_ISO
 70
     0
  3

  4
"
  5

  6

  7

 40
1.0
 41
2.5
 42
1.0
 43
10.0
 44
1.0
 45
0.0
 46
0.0
 47
0.0
 48
0.000000001
140
3.0
141
0.0
142
0.0
143
0.0393701
144
1.0
145
0.0
146
0.71
147
1.299999999999998
 71
     1
 72
     0
 73
     0
 74
     0
 75
     0
 76
     0
 77
     1
 78
     8
170
     0
171
     2
172
     1
173
     0
174
     0
175
     0
176
   256
177
   256
178
     4
  0
DIMSTYLE
  2
AM_ISO$3
 70
     0
  3

  4
"
  5

  6

  7

 40
1.0
 41
2.5
 42
1.0
 43
10.0
 44
1.0
 45
0.0
 46
0.0
 47
0.0
 48
0.000000001
140
2.5
141
0.0
142
0.0
143
0.0393701
144
1.0
145
0.0
146
0.71
147
1.299999999999998
 71
     1
 72
     0
 73
     0
 74
     1
 75
     0
 76
     0
 77
     1
 78
     8
170
     0
171
     2
172
     0
173
     0
174
     0
175
     0
176
   256
177
   256
178
     4
  0
DIMSTYLE
  2
AM_ISO$4
 70
     0
  3

  4
"
  5

  6

  7

 40
1.0
 41
2.5
 42
1.0
 43
10.0
 44
1.0
 45
0.0
 46
0.0
 47
0.0
 48
0.000000001
140
2.5
141
0.0
142
0.0
143
0.0393701
144
1.0
145
0.0
146
0.71
147
1.299999999999998
 71
     1
 72
     0
 73
     0
 74
     1
 75
     0
 76
     0
 77
     1
 78
     8
170
     0
171
     2
172
     0
173
     0
174
     0
175
     0
176
   256
177
   256
178
     4
  0
DIMSTYLE
  2
AM_ISO$6
 70
     0
  3

  4
"
  5

  6

  7

 40
1.0
 41
2.5
 42
1.0
 43
10.0
 44
1.0
 45
0.0
 46
0.0
 47
0.0
 48
0.000000001
140
2.5
141
0.0
142
0.0
143
0.0393701
144
1.0
145
0.0
146
0.71
147
1.299999999999998
 71
     1
 72
     0
 73
     0
 74
     0
 75
     0
 76
     0
 77
     0
 78
     8
170
     0
171
     2
172
     1
173
     0
174
     0
175
     0
176
   256
177
   256
178
     4
  0
DIMSTYLE
  2
AM_ISO$7
 70
     0
  3

  4
"
  5

  6

  7

 40
1.0
 41
2.5
 42
1.0
 43
10.0
 44
1.0
 45
0.0
 46
0.0
 47
0.0
 48
0.000000001
140
2.5
141
0.0
142
0.0
143
0.0393701
144
1.0
145
0.0
146
0.71
147
1.299999999999998
 71
     1
 72
     0
 73
     0
 74
     0
 75
     0
 76
     0
 77
     1
 78
     8
170
     0
171
     2
172
     1
173
     0
174
     0
175
     0
176
   256
177
   256
178
     4
  0
DIMSTYLE
  2
AM_ISO$SF
 70
     0
  3

  4
"
  5

  6

  7

 40
1.0
 41
2.5
 42
1.0
 43
10.0
 44
1.0
 45
0.0
 46
0.0
 47
0.1
 48
0.1
140
3.5
141
0.0
142
0.0
143
0.0393701
144
1.0
145
0.0
146
0.71
147
1.5
 71
     0
 72
     0
 73
     0
 74
     0
 75
     1
 76
     1
 77
     1
 78
     8
170
     0
171
     2
172
     1
173
     0
174
     0
175
     0
176
   256
177
   256
178
     4
  0
DIMSTYLE
  2
AM_ISO$SH
 70
     0
  3

  4
"
  5

  6
GENAXEH
  7

 40
1.0
 41
2.5
 42
1.0
 43
10.0
 44
1.0
 45
0.0
 46
0.0
 47
0.1
 48
0.1
140
3.5
141
0.0
142
0.0
143
0.0393701
144
2.0
145
0.0
146
0.71
147
1.5
 71
     0
 72
     0
 73
     0
 74
     0
 75
     1
 76
     1
 77
     1
 78
     8
170
     0
171
     2
172
     1
173
     1
174
     0
175
     0
176
   256
177
   256
178
     4
  0
ENDTAB
  0
ENDSEC
  0
SECTION
  2
BLOCKS
  0
BLOCK
  8
0
  2
$MODEL_SPACE
 70
     0
 10
0.0
 20
0.0
 30
0.0
  3
$MODEL_SPACE
  1

  0
ENDBLK
  5
1A
  8
0
  0
BLOCK
 67
     1
  8
0
  2
$PAPER_SPACE
 70
     0
 10
0.0
 20
0.0
 30
0.0
  3
$PAPER_SPACE
  1

  0
ENDBLK
  5
17
 67
     1
  8
0
  0
BLOCK
  8
0
  2
_OPEN30
 70
     0
 10
0.0
 20
0.0
 30
0.0
  3
_OPEN30
  1

  0
LINE
  5
21C5
  8
0
 62
     0
 10
-1.0
 20
0.26794919
 30
0.0
 11
0.0
 21
0.0
 31
0.0
  0
LINE
  5
21C6
  8
0
 62
     0
 10
0.0
 20
0.0
 30
0.0
 11
-1.0
 21
-0.26794919
 31
0.0
  0
LINE
  5
21C7
  8
0
 62
     0
 10
0.0
 20
0.0
 30
0.0
 11
-1.0
 21
0.0
 31
0.0
  0
ENDBLK
  5
21C9
  8
0
  0
BLOCK
  8
0
  2
GENAXEH
 70
     0
 10
0.0
 20
0.0
 30
0.0
  3
GENAXEH
  1

  0
LINE
  5
21D0
  8
0
 10
-1.0
 20
0.0
 30
0.0
 11
1.0
 21
0.0
 31
0.0
  0
ENDBLK
  5
21D2
  8
0
  0
BLOCK
  8
0
  2
_NONE
 70
     0
 10
0.0
 20
0.0
 30
0.0
  3
_NONE
  1

  0
ENDBLK
  5
8193
  8
0
  0
BLOCK
  8
0
  2
*U5
 70
     1
 10
0.0
 20
0.0
 30
0.0
  3
*U5
  1

  0
SOLID
  5
18267
  8
AM_0
  6
CONTINUOUS
 10
-1212.4193488805031
 20
624.9622820846289
 30
0.0
 11
-1217.4193488805031
 21
624.9622820846289
 31
0.0
 12
-1212.4193488805031
 22
619.9622820846289
 32
0.0
 13
-1212.4193488805031
 23
619.9622820846289
 33
0.0
210
0.0
220
0.0
230
-1.0
  0
LINE
  5
18268
  8
AM_0
  6
CONTINUOUS
 10
1217.4193488805031
 20
624.9622820846289
 30
0.0
 11
1212.4193488805031
 21
619.9622820846289
 31
0.0
  0
LINE
  5
18269
  8
AM_0
  6
CONTINUOUS
 10
1212.4193488805031
 20
619.9622820846289
 30
0.0
 11
1212.4193488805031
 21
624.9622820846289
 31
0.0
  0
ENDBLK
  5
1826B
  8
0
  0
BLOCK
  8
0
  2
*U6
 70
     1
 10
0.0
 20
0.0
 30
0.0
  3
*U6
  1

  0
SOLID
  5
1826D
  8
AM_0
  6
CONTINUOUS
 10
-1201.4193488805031
 20
624.9622820846289
 30
0.0
 11
-1206.4193488805031
 21
624.9622820846289
 31
0.0
 12
-1206.4193488805031
 22
619.9622820846289
 32
0.0
 13
-1206.4193488805031
 23
619.9622820846289
 33
0.0
210
0.0
220
0.0
230
-1.0
  0
LINE
  5
1826E
  8
AM_0
  6
CONTINUOUS
 10
1206.4193488805031
 20
624.9622820846289
 30
0.0
 11
1206.4193488805031
 21
619.9622820846289
 31
0.0
  0
LINE
  5
1826F
  8
AM_0
  6
CONTINUOUS
 10
1206.4193488805031
 20
619.9622820846289
 30
0.0
 11
1201.4193488805031
 21
624.9622820846289
 31
0.0
  0
ENDBLK
  5
18271
  8
0
  0
BLOCK
  8
0
  2
*U7
 70
     1
 10
0.0
 20
0.0
 30
0.0
  3
*U7
  1

  0
SOLID
  5
18273
  8
AM_0
  6
CONTINUOUS
 10
-1212.4193488805031
 20
759.96228560366228
 30
0.0
 11
-1217.4193488805031
 21
754.96228560366205
 31
0.0
 12
-1212.4193488805031
 22
754.96228560366205
 32
0.0
 13
-1212.4193488805031
 23
754.96228560366205
 33
0.0
210
0.0
220
0.0
230
-1.0
  0
LINE
  5
18274
  8
AM_0
  6
CONTINUOUS
 10
1212.4193488805031
 20
759.96228560366228
 30
0.0
 11
1217.4193488805031
 21
754.96228560366205
 31
0.0
  0
LINE
  5
18275
  8
AM_0
  6
CONTINUOUS
 10
1212.4193488805031
 20
754.96228560366205
 30
0.0
 11
1212.4193488805031
 21
759.96228560366228
 31
0.0
  0
ENDBLK
  5
18277
  8
0
  0
BLOCK
  8
0
  2
*U8
 70
     1
 10
0.0
 20
0.0
 30
0.0
  3
*U8
  1

  0
SOLID
  5
18279
  8
AM_0
  6
CONTINUOUS
 10
-1206.4193488805031
 20
759.96228560366228
 30
0.0
 11
-1206.4193488805031
 21
754.96228560366205
 31
0.0
 12
-1201.4193488805031
 22
754.96228560366205
 32
0.0
 13
-1201.4193488805031
 23
754.96228560366205
 33
0.0
210
0.0
220
0.0
230
-1.0
  0
LINE
  5
1827A
  8
AM_0
  6
CONTINUOUS
 10
1206.4193488805031
 20
759.96228560366228
 30
0.0
 11
1206.4193488805031
 21
754.96228560366205
 31
0.0
  0
LINE
  5
1827B
  8
AM_0
  6
CONTINUOUS
 10
1201.4193488805031
 20
754.96228560366205
 30
0.0
 11
1206.4193488805031
 21
759.96228560366228
 31
0.0
  0
ENDBLK
  5
1827D
  8
0
  0
ENDSEC
  0
SECTION
  2
ENTITIES
  0
POINT
  5
1B94
  8
0
 10
0.0
 20
0.0
 30
0.0
1001
GENIUS_GENODEF_13
1002
{
1000
HIER
1070
     1
1002
}
1002
{
1000
MANEDIT
1070
     0
1002
}
1002
{
1000
NOSEL
1070
     0
1002
}
1002
{
1000
BEHIND
1070
     0
1002
}
1002
{
1000
REACTOR
1002
}
1001
GENIUS_GENOBJ-N-SDF_13
1002
{
1000
OWNER
1000
GEN
1002
}
1001
GENIUS_GENOENT_13
1002
{
1000
MYREF
1005
1B94
1002
}
1002
{
1000
GRP
1005
0
1002
}
1001
GENIUS_GENOLIS_13
1002
{
1000
ENT
1005
89
1002
}
  0
LINE
  5
1622B
  8
ﾁｭｳｼﾝｾﾝ1
 10
807.26158438689606
 20
450.8098075132807
 30
0.0
 11
807.26158438689606
 21
268.45847235835618
 31
0.0
  0
LINE
  5
1622C
  8
AM_0
 10
871.26158629552492
 20
414.86525874944329
 30
0.0
 11
871.26158629552492
 21
314.86365636320971
 31
0.0
  0
LINE
  5
1622D
  8
AM_0
 10
748.26158262737931
 20
444.55187518242411
 30
0.0
 11
748.26158262737965
 21
274.86445755632622
 31
0.0
  0
LINE
  5
1622E
  8
AM_0
 10
773.26158337293748
 20
444.86445755792619
 30
0.0
 11
773.26158337293725
 21
284.86445755472602
 31
0.0
  0
LINE
  5
1622F
  8
AM_0
 10
866.26158614641338
 20
443.12051106380977
 30
0.0
 11
866.26158614641361
 21
274.86445755632622
 31
0.0
  0
LINE
  5
16230
  8
AM_0
 10
743.26158247826766
 20
414.86525874944329
 30
0.0
 11
743.26158247826766
 21
314.86365636320971
 31
0.0
  0
LINE
  5
16231
  8
AM_0
 10
876.26158644603561
 20
389.86445830888471
 30
0.0
 11
876.26158644603561
 21
339.86445680376852
 31
0.0
  0
LINE
  5
16233
  8
0
 10
904.26158436897595
 20
384.86445755632599
 30
0.0
 11
876.26158644603561
 21
389.86445830888471
 31
0.0
  0
LINE
  5
16236
  8
ﾁｭｳｼﾝｾﾝ1
 10
732.26158342043175
 20
364.86445755632622
 30
0.0
 11
967.07064465040935
 21
364.86445755632622
 31
0.0
  0
LINE
  5
16238
  8
AM_0
 10
914.7615861629331
 20
264.8644575563261
 30
0.0
 11
876.26158614641349
 21
264.8644575563261
 31
0.0
  0
LINE
  5
16239
  8
AM_0
 10
914.7615861629331
 20
270.86445755632627
 30
0.0
 11
877.2615861629331
 21
270.86445755632627
 31
0.0
  0
LINE
  5
1623B
  8
0
 10
962.26158436897595
 20
348.86445755632582
 30
0.0
 11
904.26158436897595
 21
348.86445755632582
 31
0.0
  0
LINE
  5
1623C
  8
0
 10
962.26158436897595
 20
380.86445755632627
 30
0.0
 11
904.26158436897595
 21
380.86445755632627
 31
0.0
  0
LINE
  5
1623F
  8
AM_0N
 10
729.96698623637883
 20
305.06065561913653
 30
0.0
 11
739.15617898533981
 21
305.06065561913653
 31
0.0
1001
GENIUS_GENOREF_13
1005
0
  0
LINE
  5
16240
  8
AM_0N
 10
729.96698623637883
 20
310.25815561913652
 30
0.0
 11
739.15617898533981
 21
310.25815561913652
 31
0.0
1001
GENIUS_GENOREF_13
1005
0
  0
LINE
  5
16241
  8
AM_0N
 10
729.96698623637883
 20
289.4681556191365
 30
0.0
 11
739.15617898533981
 21
289.4681556191365
 31
0.0
1001
GENIUS_GENOREF_13
1005
0
  0
LINE
  5
16242
  8
AM_0N
 10
729.96698623637883
 20
294.66565561913649
 30
0.0
 11
739.15617898533981
 21
294.66565561913649
 31
0.0
1001
GENIUS_GENOREF_13
1005
0
  0
LINE
  5
16243
  8
AM_0
 10
735.11692167018634
 20
270.86445755632627
 30
0.0
 11
742.26158261085925
 21
278.00911849699901
 31
0.0
  0
LINE
  5
16245
  8
AM_0
 10
699.76158261085902
 20
264.8644575563261
 30
0.0
 11
738.26158262737943
 21
264.8644575563261
 31
0.0
  0
LINE
  5
16246
  8
AM_0
 10
699.76158261085925
 20
270.8644575563261
 30
0.0
 11
737.26158261085925
 21
270.86445755632627
 31
0.0
  0
LINE
  5
16247
  8
ﾁｭｳｼﾝｾﾝ1
 10
704.04943087335766
 20
346.86409701951379
 30
0.0
 11
853.09731044562488
 21
346.86409701951379
 31
0.0
  0
LINE
  5
16248
  8
ﾁｭｳｼﾝｾﾝ1
 10
714.76158261085936
 20
282.61445755632639
 30
0.0
 11
714.76158261085925
 21
253.11445755632641
 31
0.0
  0
LINE
  5
16249
  8
ｶｸﾚｾﾝ2
 10
707.26158261085925
 20
270.86445755632661
 30
0.0
 11
707.26158261085902
 21
264.86445755632627
 31
0.0
  0
LINE
  5
1624A
  8
AM_0
 10
699.76158261085925
 20
270.86445755632627
 30
0.0
 11
699.76158261085902
 21
264.8644575563265
 31
0.0
  0
LINE
  5
1624B
  8
ｶｸﾚｾﾝ2
 10
722.26158261085936
 20
270.8644575563265
 30
0.0
 11
722.26158261085902
 21
264.86445755632599
 31
0.0
  0
LINE
  5
16262
  8
AM_0N
 10
729.16158261085923
 20
308.86315561913648
 30
0.0
 11
729.16158261085923
 21
290.86315561913648
 31
0.0
1001
GENIUS_GENOREF_13
1005
0
  0
ARC
  5
16263
  8
AM_0N
 10
746.33476160673274
 20
299.86315561913648
 30
0.0
 40
17.173178995873389
 50
162.383031159582
 51
197.616968840418
1001
GENIUS_GENOREF_13
1005
0
  0
LINE
  5
16264
  8
AM_0
 10
709.76158261085925
 20
280.8644575563265
 30
0.0
 11
729.16158261085923
 21
300.26445755632682
 31
0.0
  0
LINE
  5
16265
  8
AM_0
 10
709.76158261085925
 20
280.8644575563265
 30
0.0
 11
709.76158261085902
 21
270.8644575563261
 31
0.0
  0
ARC
  5
16266
  8
AM_0N
 10
733.75690371939845
 20
292.06690561913888
 30
0.0
 40
4.5953211085391104
 50
145.5615305952428
 51
205.5615305956195
1001
GENIUS_GENOREF_13
1005
0
  0
LINE
  5
16267
  8
AM_0N
 10
729.96698623637883
 20
289.4681556191365
 30
0.0
 11
729.16158261085923
 21
290.86315561913648
 31
0.0
1001
GENIUS_GENOREF_13
1005
0
  0
ARC
  5
16511
  8
AM_0N
 10
733.75690371939845
 20
307.65940561913641
 30
0.0
 40
4.5953211085391104
 50
154.438469404567
 51
214.43846940478599
1001
GENIUS_GENOREF_13
1005
0
  0
LINE
  5
16512
  8
AM_0N
 10
729.96698623637883
 20
310.25815561913652
 30
0.0
 11
729.16158261085923
 21
308.86315561913648
 31
0.0
1001
GENIUS_GENOREF_13
1005
0
  0
LINE
  5
16808
  8
ｶｸﾚｾﾝ2
 10
907.26158616293299
 20
270.86445755632627
 30
0.0
 11
907.26158616293321
 21
264.86445755632627
 31
0.0
  0
LINE
  5
16809
  8
ｶｸﾚｾﾝ2
 10
892.2615861629331
 20
270.86445755632627
 30
0.0
 11
892.2615861629331
 21
264.86445755632599
 31
0.0
  0
ARC
  5
1680A
  8
AM_0
 10
876.26158614641349
 20
274.86445755632622
 30
0.0
 40
10.0
 50
180.0
 51
270.0
1001
GENIUS_GENODEF_13
1002
{
1000
HIER
1070
     0
1002
}
1002
{
1000
MANEDIT
1070
     0
1002
}
1002
{
1000
NOSEL
1070
     0
1002
}
1002
{
1000
BEHIND
1070
     0
1002
}
1002
{
1000
OTHER
1070
     0
1002
}
1002
{
1000
REACTOR
1002
}
1001
GENIUS_GENOBJ-N-FIL_13
1002
{
1000
OWNER
1000
GEN
1002
}
  0
ARC
  5
1680B
  8
AM_0
 10
738.26158262737943
 20
274.86445755632622
 30
0.0
 40
10.0
 50
270.0
 51
0.0
1001
GENIUS_GENOBJ-N-FIL_13
1002
{
1000
OWNER
1000
GEN
1002
}
1001
GENIUS_GENODEF_13
1002
{
1000
HIER
1070
     0
1002
}
1002
{
1000
MANEDIT
1070
     0
1002
}
1002
{
1000
NOSEL
1070
     0
1002
}
1002
{
1000
BEHIND
1070
     0
1002
}
1002
{
1000
OTHER
1070
     0
1002
}
1002
{
1000
REACTOR
1002
}
  0
LINE
  5
1680C
  8
ﾁｭｳｼﾝｾﾝ1
 10
899.76158616293321
 20
282.61445755632639
 30
0.0
 11
899.76158616293321
 21
253.11445755632641
 31
0.0
  0
LINE
  5
1680E
  8
AM_0
 10
866.26158614641338
 20
286.60840404884289
 30
0.0
 11
773.26158337293725
 21
284.86445755472602
 31
0.0
  0
ARC
  5
1680F
  8
AM_0
 10
807.25158438689607
 20
346.85142993044968
 30
0.0
 40
64.003665999999996
 50
254.48258537434569
 51
287.66599658687608
  0
LINE
  5
16811
  8
AM_0
 10
757.26158289578007
 20
327.36370643796681
 30
0.0
 11
757.26158289578007
 21
312.36340599062311
 31
0.0
  0
LINE
  5
16812
  8
AM_0N
 10
739.96158261085918
 20
311.86315561913648
 30
0.0
 11
739.96158261085918
 21
287.86315561913648
 31
0.0
1001
GENIUS_GENOREF_13
1005
0
  0
ARC
  5
16813
  8
AM_0N
 10
722.78840361498601
 20
299.86315561913648
 30
0.0
 40
17.17317899587335
 50
342.38303115958212
 51
17.616968840417961
1001
GENIUS_GENOREF_13
1005
0
  0
LINE
  5
16814
  8
AM_0
 10
742.26158261085891
 20
314.86345636420953
 30
0.0
 11
742.26158261085925
 21
275.86445755632627
 31
0.0
  0
LINE
  5
16815
  8
AM_0
 10
773.26158337293725
 20
284.86445755472602
 30
0.0
 11
748.26158262737931
 21
285.17707044841808
 31
0.0
  0
ARC
  5
16816
  8
AM_0
 10
737.26158261085925
 20
275.86445755632627
 30
0.0
 40
5.0
 50
270.0
 51
0.0
1001
GENIUS_GENOBJ-N-FIL_13
1002
{
1000
OWNER
1000
GEN
1002
}
1001
GENIUS_GENODEF_13
1002
{
1000
HIER
1070
     0
1002
}
1002
{
1000
MANEDIT
1070
     0
1002
}
1002
{
1000
NOSEL
1070
     0
1002
}
1002
{
1000
BEHIND
1070
     0
1002
}
1002
{
1000
OTHER
1070
     0
1002
}
1002
{
1000
REACTOR
1002
}
  0
LINE
  5
16817
  8
AM_0N
 10
739.96158261085918
 20
287.86315561913648
 30
0.0
 11
742.26158261085925
 21
287.86315561913648
 31
0.0
1001
GENIUS_GENOREF_13
1005
0
  0
ARC
  5
16818
  8
AM_0N
 10
735.36626150231245
 20
292.06690561913649
 30
0.0
 40
4.5953211085467949
 50
334.43846940473588
 51
34.438469404733659
1001
GENIUS_GENOREF_13
1005
0
  0
LINE
  5
16819
  8
AM_0N
 10
739.15617898533981
 20
289.4681556191365
 30
0.0
 11
739.96158261085918
 21
290.86315561913648
 31
0.0
1001
GENIUS_GENOREF_13
1005
0
  0
LINE
  5
1681A
  8
AM_0N
 10
742.26158261085925
 20
311.86315561913648
 30
0.0
 11
739.96158261085918
 21
311.86315561913648
 31
0.0
1001
GENIUS_GENOREF_13
1005
0
  0
ARC
  5
1681B
  8
AM_0N
 10
735.36626150232019
 20
307.65940561913641
 30
0.0
 40
4.5953211085391104
 50
325.56153059521398
 51
25.561530595432959
1001
GENIUS_GENOREF_13
1005
0
  0
LINE
  5
1681C
  8
AM_0N
 10
739.15617898533981
 20
310.25815561913652
 30
0.0
 11
739.96158261085918
 21
308.86315561913648
 31
0.0
1001
GENIUS_GENOREF_13
1005
0
  0
LINE
  5
1681D
  8
AM_0
 10
748.26158262737931
 20
312.36340599062311
 30
0.0
 11
757.26158289578007
 21
312.36340599062311
 31
0.0
  0
LINE
  5
1681E
  8
AM_0
 10
743.26158247826766
 20
314.86365636320971
 30
0.0
 11
748.26158262737931
 21
314.86365636320971
 31
0.0
  0
LINE
  5
1681F
  8
AM_0
 10
742.26158261085925
 20
314.86345636420953
 30
0.0
 11
748.26158261085902
 21
314.86345636420953
 31
0.0
  0
LINE
  5
16820
  8
AM_0
 10
751.26158271684619
 20
326.36368640814379
 30
0.0
 11
757.26158289578007
 21
326.36368640814379
 31
0.0
  0
LINE
  5
16821
  8
AM_0
 10
751.26158271684619
 20
313.36342602044601
 30
0.0
 11
757.26158289578007
 21
313.36342602044601
 31
0.0
  0
LINE
  5
16822
  8
AM_0
 10
749.26158265720153
 20
315.36346608009171
 30
0.0
 11
749.26158265720153
 21
324.36364634849792
 31
0.0
  0
POLYLINE
  5
16823
  8
AM_0
 10
751.26158262942351
 20
326.36368640814374
 30
0.0
 66
     1
 70
     8
  0
VERTEX
  8
AM_0
  5
182B8
 10
751.262
 20
326.364
 30
0.000000
  70
    32
  0
VERTEX
  8
AM_0
  5
182B9
 10
751.237
 20
326.364
 30
0.000000
  70
    32
  0
VERTEX
  8
AM_0
  5
182BA
 10
751.213
 20
326.363
 30
0.000000
  70
    32
  0
VERTEX
  8
AM_0
  5
182BB
 10
751.188
 20
326.362
 30
0.000000
  70
    32
  0
VERTEX
  8
AM_0
  5
182BC
 10
751.163
 20
326.361
 30
0.000000
  70
    32
  0
VERTEX
  8
AM_0
  5
182BD
 10
751.139
 20
326.360
 30
0.000000
  70
    32
  0
VERTEX
  8
AM_0
  5
182BE
 10
751.114
 20
326.358
 30
0.000000
  70
    32
  0
VERTEX
  8
AM_0
  5
182BF
 10
751.090
 20
326.356
 30
0.000000
  70
    32
  0
VERTEX
  8
AM_0
  5
182C0
 10
751.066
 20
326.354
 30
0.000000
  70
    32
  0
VERTEX
  8
AM_0
  5
182C1
 10
751.041
 20
326.352
 30
0.000000
  70
    32
  0
VERTEX
  8
AM_0
  5
182C2
 10
751.017
 20
326.349
 30
0.000000
  70
    32
  0
VERTEX
  8
AM_0
  5
182C3
 10
750.992
 20
326.345
 30
0.000000
  70
    32
  0
VERTEX
  8
AM_0
  5
182C4
 10
750.968
 20
326.342
 30
0.000000
  70
    32
  0
VERTEX
  8
AM_0
  5
182C5
 10
750.944
 20
326.338
 30
0.000000
  70
    32
  0
VERTEX
  8
AM_0
  5
182C6
 10
750.920
 20
326.334
 30
0.000000
  70
    32
  0
VERTEX
  8
AM_0
  5
182C7
 10
750.896
 20
326.330
 30
0.000000
  70
    32
  0
VERTEX
  8
AM_0
  5
182C8
 10
750.871
 20
326.325
 30
0.000000
  70
    32
  0
VERTEX
  8
AM_0
  5
182C9
 10
750.847
 20
326.320
 30
0.000000
  70
    32
  0
VERTEX
  8
AM_0
  5
182CA
 10
750.823
 20
326.315
 30
0.000000
  70
    32
  0
VERTEX
  8
AM_0
  5
182CB
 10
750.799
 20
326.310
 30
0.000000
  70
    32
  0
VERTEX
  8
AM_0
  5
182CC
 10
750.776
 20
326.304
 30
0.000000
  70
    32
  0
VERTEX
  8
AM_0
  5
182CD
 10
750.752
 20
326.298
 30
0.000000
  70
    32
  0
VERTEX
  8
AM_0
  5
182CE
 10
750.728
 20
326.291
 30
0.000000
  70
    32
  0
VERTEX
  8
AM_0
  5
182CF
 10
750.705
 20
326.285
 30
0.000000
  70
    32
  0
VERTEX
  8
AM_0
  5
182D0
 10
750.681
 20
326.278
 30
0.000000
  70
    32
  0
VERTEX
  8
AM_0
  5
182D1
 10
750.658
 20
326.270
 30
0.000000
  70
    32
  0
VERTEX
  8
AM_0
  5
182D2
 10
750.634
 20
326.263
 30
0.000000
  70
    32
  0
VERTEX
  8
AM_0
  5
182D3
 10
750.611
 20
326.255
 30
0.000000
  70
    32
  0
VERTEX
  8
AM_0
  5
182D4
 10
750.588
 20
326.247
 30
0.000000
  70
    32
  0
VERTEX
  8
AM_0
  5
182D5
 10
750.565
 20
326.238
 30
0.000000
  70
    32
  0
VERTEX
  8
AM_0
  5
182D6
 10
750.542
 20
326.230
 30
0.000000
  70
    32
  0
VERTEX
  8
AM_0
  5
182D7
 10
750.519
 20
326.221
 30
0.000000
  70
    32
  0
VERTEX
  8
AM_0
  5
182D8
 10
750.496
 20
326.211
 30
0.000000
  70
    32
  0
VERTEX
  8
AM_0
  5
182D9
 10
750.474
 20
326.202
 30
0.000000
  70
    32
  0
VERTEX
  8
AM_0
  5
182DA
 10
750.451
 20
326.192
 30
0.000000
  70
    32
  0
VERTEX
  8
AM_0
  5
182DB
 10
750.429
 20
326.182
 30
0.000000
  70
    32
  0
VERTEX
  8
AM_0
  5
182DC
 10
750.406
 20
326.172
 30
0.000000
  70
    32
  0
VERTEX
  8
AM_0
  5
182DD
 10
750.384
 20
326.161
 30
0.000000
  70
    32
  0
VERTEX
  8
AM_0
  5
182DE
 10
750.362
 20
326.150
 30
0.000000
  70
    32
  0
VERTEX
  8
AM_0
  5
182DF
 10
750.341
 20
326.139
 30
0.000000
  70
    32
  0
VERTEX
  8
AM_0
  5
182E0
 10
750.319
 20
326.128
 30
0.000000
  70
    32
  0
VERTEX
  8
AM_0
  5
182E1
 10
750.297
 20
326.116
 30
0.000000
  70
    32
  0
VERTEX
  8
AM_0
  5
182E2
 10
750.276
 20
326.104
 30
0.000000
  70
    32
  0
VERTEX
  8
AM_0
  5
182E3
 10
750.255
 20
326.092
 30
0.000000
  70
    32
  0
VERTEX
  8
AM_0
  5
182E4
 10
750.233
 20
326.079
 30
0.000000
  70
    32
  0
VERTEX
  8
AM_0
  5
182E5
 10
750.212
 20
326.066
 30
0.000000
  70
    32
  0
VERTEX
  8
AM_0
  5
182E6
 10
750.192
 20
326.053
 30
0.000000
  70
    32
  0
VERTEX
  8
AM_0
  5
182E7
 10
750.171
 20
326.040
 30
0.000000
  70
    32
  0
VERTEX
  8
AM_0
  5
182E8
 10
750.150
 20
326.027
 30
0.000000
  70
    32
  0
VERTEX
  8
AM_0
  5
182E9
 10
750.130
 20
326.013
 30
0.000000
  70
    32
  0
VERTEX
  8
AM_0
  5
182EA
 10
750.110
 20
325.999
 30
0.000000
  70
    32
  0
VERTEX
  8
AM_0
  5
182EB
 10
750.090
 20
325.985
 30
0.000000
  70
    32
  0
VERTEX
  8
AM_0
  5
182EC
 10
750.070
 20
325.970
 30
0.000000
  70
    32
  0
VERTEX
  8
AM_0
  5
182ED
 10
750.051
 20
325.955
 30
0.000000
  70
    32
  0
VERTEX
  8
AM_0
  5
182EE
 10
750.031
 20
325.940
 30
0.000000
  70
    32
  0
VERTEX
  8
AM_0
  5
182EF
 10
750.012
 20
325.925
 30
0.000000
  70
    32
  0
VERTEX
  8
AM_0
  5
182F0
 10
749.993
 20
325.910
 30
0.000000
  70
    32
  0
VERTEX
  8
AM_0
  5
182F1
 10
749.974
 20
325.894
 30
0.000000
  70
    32
  0
VERTEX
  8
AM_0
  5
182F2
 10
749.955
 20
325.878
 30
0.000000
  70
    32
  0
VERTEX
  8
AM_0
  5
182F3
 10
749.937
 20
325.862
 30
0.000000
  70
    32
  0
VERTEX
  8
AM_0
  5
182F4
 10
749.918
 20
325.846
 30
0.000000
  70
    32
  0
VERTEX
  8
AM_0
  5
182F5
 10
749.900
 20
325.829
 30
0.000000
  70
    32
  0
VERTEX
  8
AM_0
  5
182F6
 10
749.883
 20
325.812
 30
0.000000
  70
    32
  0
VERTEX
  8
AM_0
  5
182F7
 10
749.865
 20
325.795
 30
0.000000
  70
    32
  0
VERTEX
  8
AM_0
  5
182F8
 10
749.847
 20
325.778
 30
0.000000
  70
    32
  0
VERTEX
  8
AM_0
  5
182F9
 10
749.830
 20
325.760
 30
0.000000
  70
    32
  0
VERTEX
  8
AM_0
  5
182FA
 10
749.813
 20
325.743
 30
0.000000
  70
    32
  0
VERTEX
  8
AM_0
  5
182FB
 10
749.796
 20
325.725
 30
0.000000
  70
    32
  0
VERTEX
  8
AM_0
  5
182FC
 10
749.780
 20
325.707
 30
0.000000
  70
    32
  0
VERTEX
  8
AM_0
  5
182FD
 10
749.763
 20
325.689
 30
0.000000
  70
    32
  0
VERTEX
  8
AM_0
  5
182FE
 10
749.747
 20
325.670
 30
0.000000
  70
    32
  0
VERTEX
  8
AM_0
  5
182FF
 10
749.731
 20
325.651
 30
0.000000
  70
    32
  0
VERTEX
  8
AM_0
  5
18300
 10
749.716
 20
325.632
 30
0.000000
  70
    32
  0
VERTEX
  8
AM_0
  5
18301
 10
749.700
 20
325.613
 30
0.000000
  70
    32
  0
VERTEX
  8
AM_0
  5
18302
 10
749.685
 20
325.594
 30
0.000000
  70
    32
  0
VERTEX
  8
AM_0
  5
18303
 10
749.670
 20
325.575
 30
0.000000
  70
    32
  0
VERTEX
  8
AM_0
  5
18304
 10
749.655
 20
325.555
 30
0.000000
  70
    32
  0
VERTEX
  8
AM_0
  5
18305
 10
749.641
 20
325.535
 30
0.000000
  70
    32
  0
VERTEX
  8
AM_0
  5
18306
 10
749.626
 20
325.515
 30
0.000000
  70
    32
  0
VERTEX
  8
AM_0
  5
18307
 10
749.612
 20
325.495
 30
0.000000
  70
    32
  0
VERTEX
  8
AM_0
  5
18308
 10
749.599
 20
325.475
 30
0.000000
  70
    32
  0
VERTEX
  8
AM_0
  5
18309
 10
749.585
 20
325.454
 30
0.000000
  70
    32
  0
VERTEX
  8
AM_0
  5
1830A
 10
749.572
 20
325.434
 30
0.000000
  70
    32
  0
VERTEX
  8
AM_0
  5
1830B
 10
749.559
 20
325.413
 30
0.000000
  70
    32
  0
VERTEX
  8
AM_0
  5
1830C
 10
749.546
 20
325.392
 30
0.000000
  70
    32
  0
VERTEX
  8
AM_0
  5
1830D
 10
749.534
 20
325.371
 30
0.000000
  70
    32
  0
VERTEX
  8
AM_0
  5
1830E
 10
749.521
 20
325.349
 30
0.000000
  70
    32
  0
VERTEX
  8
AM_0
  5
1830F
 10
749.509
 20
325.328
 30
0.000000
  70
    32
  0
VERTEX
  8
AM_0
  5
18310
 10
749.498
 20
325.306
 30
0.000000
  70
    32
  0
VERTEX
  8
AM_0
  5
18311
 10
749.486
 20
325.285
 30
0.000000
  70
    32
  0
VERTEX
  8
AM_0
  5
18312
 10
749.475
 20
325.263
 30
0.000000
  70
    32
  0
VERTEX
  8
AM_0
  5
18313
 10
749.464
 20
325.241
 30
0.000000
  70
    32
  0
VERTEX
  8
AM_0
  5
18314
 10
749.454
 20
325.219
 30
0.000000
  70
    32
  0
VERTEX
  8
AM_0
  5
18315
 10
749.443
 20
325.197
 30
0.000000
  70
    32
  0
VERTEX
  8
AM_0
  5
18316
 10
749.433
 20
325.174
 30
0.000000
  70
    32
  0
VERTEX
  8
AM_0
  5
18317
 10
749.423
 20
325.152
 30
0.000000
  70
    32
  0
VERTEX
  8
AM_0
  5
18318
 10
749.414
 20
325.129
 30
0.000000
  70
    32
  0
VERTEX
  8
AM_0
  5
18319
 10
749.405
 20
325.106
 30
0.000000
  70
    32
  0
VERTEX
  8
AM_0
  5
1831A
 10
749.396
 20
325.083
 30
0.000000
  70
    32
  0
VERTEX
  8
AM_0
  5
1831B
 10
749.387
 20
325.060
 30
0.000000
  70
    32
  0
VERTEX
  8
AM_0
  5
1831C
 10
749.378
 20
325.037
 30
0.000000
  70
    32
  0
VERTEX
  8
AM_0
  5
1831D
 10
749.370
 20
325.014
 30
0.000000
  70
    32
  0
VERTEX
  8
AM_0
  5
1831E
 10
749.363
 20
324.991
 30
0.000000
  70
    32
  0
VERTEX
  8
AM_0
  5
1831F
 10
749.355
 20
324.968
 30
0.000000
  70
    32
  0
VERTEX
  8
AM_0
  5
18320
 10
749.348
 20
324.944
 30
0.000000
  70
    32
  0
VERTEX
  8
AM_0
  5
18321
 10
749.341
 20
324.921
 30
0.000000
  70
    32
  0
VERTEX
  8
AM_0
  5
18322
 10
749.334
 20
324.897
 30
0.000000
  70
    32
  0
VERTEX
  8
AM_0
  5
18323
 10
749.328
 20
324.873
 30
0.000000
  70
    32
  0
VERTEX
  8
AM_0
  5
18324
 10
749.322
 20
324.850
 30
0.000000
  70
    32
  0
VERTEX
  8
AM_0
  5
18325
 10
749.316
 20
324.826
 30
0.000000
  70
    32
  0
VERTEX
  8
AM_0
  5
18326
 10
749.310
 20
324.802
 30
0.000000
  70
    32
  0
VERTEX
  8
AM_0
  5
18327
 10
749.305
 20
324.778
 30
0.000000
  70
    32
  0
VERTEX
  8
AM_0
  5
18328
 10
749.300
 20
324.754
 30
0.000000
  70
    32
  0
VERTEX
  8
AM_0
  5
18329
 10
749.295
 20
324.730
 30
0.000000
  70
    32
  0
VERTEX
  8
AM_0
  5
1832A
 10
749.291
 20
324.706
 30
0.000000
  70
    32
  0
VERTEX
  8
AM_0
  5
1832B
 10
749.287
 20
324.681
 30
0.000000
  70
    32
  0
VERTEX
  8
AM_0
  5
1832C
 10
749.283
 20
324.657
 30
0.000000
  70
    32
  0
VERTEX
  8
AM_0
  5
1832D
 10
749.280
 20
324.633
 30
0.000000
  70
    32
  0
VERTEX
  8
AM_0
  5
1832E
 10
749.277
 20
324.608
 30
0.000000
  70
    32
  0
VERTEX
  8
AM_0
  5
1832F
 10
749.274
 20
324.584
 30
0.000000
  70
    32
  0
VERTEX
  8
AM_0
  5
18330
 10
749.271
 20
324.560
 30
0.000000
  70
    32
  0
VERTEX
  8
AM_0
  5
18331
 10
749.269
 20
324.535
 30
0.000000
  70
    32
  0
VERTEX
  8
AM_0
  5
18332
 10
749.267
 20
324.511
 30
0.000000
  70
    32
  0
VERTEX
  8
AM_0
  5
18333
 10
749.265
 20
324.486
 30
0.000000
  70
    32
  0
VERTEX
  8
AM_0
  5
18334
 10
749.264
 20
324.462
 30
0.000000
  70
    32
  0
VERTEX
  8
AM_0
  5
18335
 10
749.263
 20
324.437
 30
0.000000
  70
    32
  0
VERTEX
  8
AM_0
  5
18336
 10
749.262
 20
324.413
 30
0.000000
  70
    32
  0
VERTEX
  8
AM_0
  5
18337
 10
749.262
 20
324.388
 30
0.000000
  70
    32
  0
VERTEX
  8
AM_0
  5
18338
 10
749.262
 20
324.364
 30
0.000000
  70
    32
  0
SEQEND
  8
AM_0
  5
18339
  0
POLYLINE
  5
16824
  8
AM_0
 10
749.26158265720153
 20
315.36346590524261
 30
0.0
 66
     1
 70
     8
  0
VERTEX
  8
AM_0
  5
1833A
 10
749.262
 20
315.363
 30
0.000000
  70
    32
  0
VERTEX
  8
AM_0
  5
1833B
 10
749.262
 20
315.339
 30
0.000000
  70
    32
  0
VERTEX
  8
AM_0
  5
1833C
 10
749.262
 20
315.314
 30
0.000000
  70
    32
  0
VERTEX
  8
AM_0
  5
1833D
 10
749.263
 20
315.290
 30
0.000000
  70
    32
  0
VERTEX
  8
AM_0
  5
1833E
 10
749.264
 20
315.265
 30
0.000000
  70
    32
  0
VERTEX
  8
AM_0
  5
1833F
 10
749.265
 20
315.241
 30
0.000000
  70
    32
  0
VERTEX
  8
AM_0
  5
18340
 10
749.267
 20
315.216
 30
0.000000
  70
    32
  0
VERTEX
  8
AM_0
  5
18341
 10
749.269
 20
315.192
 30
0.000000
  70
    32
  0
VERTEX
  8
AM_0
  5
18342
 10
749.271
 20
315.167
 30
0.000000
  70
    32
  0
VERTEX
  8
AM_0
  5
18343
 10
749.274
 20
315.143
 30
0.000000
  70
    32
  0
VERTEX
  8
AM_0
  5
18344
 10
749.277
 20
315.119
 30
0.000000
  70
    32
  0
VERTEX
  8
AM_0
  5
18345
 10
749.280
 20
315.094
 30
0.000000
  70
    32
  0
VERTEX
  8
AM_0
  5
18346
 10
749.283
 20
315.070
 30
0.000000
  70
    32
  0
VERTEX
  8
AM_0
  5
18347
 10
749.287
 20
315.046
 30
0.000000
  70
    32
  0
VERTEX
  8
AM_0
  5
18348
 10
749.291
 20
315.022
 30
0.000000
  70
    32
  0
VERTEX
  8
AM_0
  5
18349
 10
749.295
 20
314.997
 30
0.000000
  70
    32
  0
VERTEX
  8
AM_0
  5
1834A
 10
749.300
 20
314.973
 30
0.000000
  70
    32
  0
VERTEX
  8
AM_0
  5
1834B
 10
749.305
 20
314.949
 30
0.000000
  70
    32
  0
VERTEX
  8
AM_0
  5
1834C
 10
749.310
 20
314.925
 30
0.000000
  70
    32
  0
VERTEX
  8
AM_0
  5
1834D
 10
749.316
 20
314.901
 30
0.000000
  70
    32
  0
VERTEX
  8
AM_0
  5
1834E
 10
749.322
 20
314.877
 30
0.000000
  70
    32
  0
VERTEX
  8
AM_0
  5
1834F
 10
749.328
 20
314.854
 30
0.000000
  70
    32
  0
VERTEX
  8
AM_0
  5
18350
 10
749.334
 20
314.830
 30
0.000000
  70
    32
  0
VERTEX
  8
AM_0
  5
18351
 10
749.341
 20
314.806
 30
0.000000
  70
    32
  0
VERTEX
  8
AM_0
  5
18352
 10
749.348
 20
314.783
 30
0.000000
  70
    32
  0
VERTEX
  8
AM_0
  5
18353
 10
749.355
 20
314.759
 30
0.000000
  70
    32
  0
VERTEX
  8
AM_0
  5
18354
 10
749.363
 20
314.736
 30
0.000000
  70
    32
  0
VERTEX
  8
AM_0
  5
18355
 10
749.370
 20
314.713
 30
0.000000
  70
    32
  0
VERTEX
  8
AM_0
  5
18356
 10
749.378
 20
314.690
 30
0.000000
  70
    32
  0
VERTEX
  8
AM_0
  5
18357
 10
749.387
 20
314.667
 30
0.000000
  70
    32
  0
VERTEX
  8
AM_0
  5
18358
 10
749.396
 20
314.644
 30
0.000000
  70
    32
  0
VERTEX
  8
AM_0
  5
18359
 10
749.405
 20
314.621
 30
0.000000
  70
    32
  0
VERTEX
  8
AM_0
  5
1835A
 10
749.414
 20
314.598
 30
0.000000
  70
    32
  0
VERTEX
  8
AM_0
  5
1835B
 10
749.423
 20
314.575
 30
0.000000
  70
    32
  0
VERTEX
  8
AM_0
  5
1835C
 10
749.433
 20
314.553
 30
0.000000
  70
    32
  0
VERTEX
  8
AM_0
  5
1835D
 10
749.443
 20
314.531
 30
0.000000
  70
    32
  0
VERTEX
  8
AM_0
  5
1835E
 10
749.454
 20
314.508
 30
0.000000
  70
    32
  0
VERTEX
  8
AM_0
  5
1835F
 10
749.464
 20
314.486
 30
0.000000
  70
    32
  0
VERTEX
  8
AM_0
  5
18360
 10
749.475
 20
314.464
 30
0.000000
  70
    32
  0
VERTEX
  8
AM_0
  5
18361
 10
749.486
 20
314.442
 30
0.000000
  70
    32
  0
VERTEX
  8
AM_0
  5
18362
 10
749.498
 20
314.421
 30
0.000000
  70
    32
  0
VERTEX
  8
AM_0
  5
18363
 10
749.509
 20
314.399
 30
0.000000
  70
    32
  0
VERTEX
  8
AM_0
  5
18364
 10
749.521
 20
314.378
 30
0.000000
  70
    32
  0
VERTEX
  8
AM_0
  5
18365
 10
749.534
 20
314.356
 30
0.000000
  70
    32
  0
VERTEX
  8
AM_0
  5
18366
 10
749.546
 20
314.335
 30
0.000000
  70
    32
  0
VERTEX
  8
AM_0
  5
18367
 10
749.559
 20
314.314
 30
0.000000
  70
    32
  0
VERTEX
  8
AM_0
  5
18368
 10
749.572
 20
314.293
 30
0.000000
  70
    32
  0
VERTEX
  8
AM_0
  5
18369
 10
749.585
 20
314.273
 30
0.000000
  70
    32
  0
VERTEX
  8
AM_0
  5
1836A
 10
749.599
 20
314.252
 30
0.000000
  70
    32
  0
VERTEX
  8
AM_0
  5
1836B
 10
749.612
 20
314.232
 30
0.000000
  70
    32
  0
VERTEX
  8
AM_0
  5
1836C
 10
749.626
 20
314.212
 30
0.000000
  70
    32
  0
VERTEX
  8
AM_0
  5
1836D
 10
749.641
 20
314.192
 30
0.000000
  70
    32
  0
VERTEX
  8
AM_0
  5
1836E
 10
749.655
 20
314.172
 30
0.000000
  70
    32
  0
VERTEX
  8
AM_0
  5
1836F
 10
749.670
 20
314.152
 30
0.000000
  70
    32
  0
VERTEX
  8
AM_0
  5
18370
 10
749.685
 20
314.133
 30
0.000000
  70
    32
  0
VERTEX
  8
AM_0
  5
18371
 10
749.700
 20
314.114
 30
0.000000
  70
    32
  0
VERTEX
  8
AM_0
  5
18372
 10
749.716
 20
314.095
 30
0.000000
  70
    32
  0
VERTEX
  8
AM_0
  5
18373
 10
749.731
 20
314.076
 30
0.000000
  70
    32
  0
VERTEX
  8
AM_0
  5
18374
 10
749.747
 20
314.057
 30
0.000000
  70
    32
  0
VERTEX
  8
AM_0
  5
18375
 10
749.763
 20
314.039
 30
0.000000
  70
    32
  0
VERTEX
  8
AM_0
  5
18376
 10
749.780
 20
314.020
 30
0.000000
  70
    32
  0
VERTEX
  8
AM_0
  5
18377
 10
749.796
 20
314.002
 30
0.000000
  70
    32
  0
VERTEX
  8
AM_0
  5
18378
 10
749.813
 20
313.984
 30
0.000000
  70
    32
  0
VERTEX
  8
AM_0
  5
18379
 10
749.830
 20
313.967
 30
0.000000
  70
    32
  0
VERTEX
  8
AM_0
  5
1837A
 10
749.847
 20
313.949
 30
0.000000
  70
    32
  0
VERTEX
  8
AM_0
  5
1837B
 10
749.865
 20
313.932
 30
0.000000
  70
    32
  0
VERTEX
  8
AM_0
  5
1837C
 10
749.883
 20
313.915
 30
0.000000
  70
    32
  0
VERTEX
  8
AM_0
  5
1837D
 10
749.900
 20
313.898
 30
0.000000
  70
    32
  0
VERTEX
  8
AM_0
  5
1837E
 10
749.918
 20
313.882
 30
0.000000
  70
    32
  0
VERTEX
  8
AM_0
  5
1837F
 10
749.937
 20
313.865
 30
0.000000
  70
    32
  0
VERTEX
  8
AM_0
  5
18380
 10
749.955
 20
313.849
 30
0.000000
  70
    32
  0
VERTEX
  8
AM_0
  5
18381
 10
749.974
 20
313.833
 30
0.000000
  70
    32
  0
VERTEX
  8
AM_0
  5
18382
 10
749.993
 20
313.817
 30
0.000000
  70
    32
  0
VERTEX
  8
AM_0
  5
18383
 10
750.012
 20
313.802
 30
0.000000
  70
    32
  0
VERTEX
  8
AM_0
  5
18384
 10
750.031
 20
313.787
 30
0.000000
  70
    32
  0
VERTEX
  8
AM_0
  5
18385
 10
750.051
 20
313.772
 30
0.000000
  70
    32
  0
VERTEX
  8
AM_0
  5
18386
 10
750.070
 20
313.757
 30
0.000000
  70
    32
  0
VERTEX
  8
AM_0
  5
18387
 10
750.090
 20
313.743
 30
0.000000
  70
    32
  0
VERTEX
  8
AM_0
  5
18388
 10
750.110
 20
313.728
 30
0.000000
  70
    32
  0
VERTEX
  8
AM_0
  5
18389
 10
750.130
 20
313.714
 30
0.000000
  70
    32
  0
VERTEX
  8
AM_0
  5
1838A
 10
750.150
 20
313.700
 30
0.000000
  70
    32
  0
VERTEX
  8
AM_0
  5
1838B
 10
750.171
 20
313.687
 30
0.000000
  70
    32
  0
VERTEX
  8
AM_0
  5
1838C
 10
750.192
 20
313.674
 30
0.000000
  70
    32
  0
VERTEX
  8
AM_0
  5
1838D
 10
750.212
 20
313.661
 30
0.000000
  70
    32
  0
VERTEX
  8
AM_0
  5
1838E
 10
750.233
 20
313.648
 30
0.000000
  70
    32
  0
VERTEX
  8
AM_0
  5
1838F
 10
750.255
 20
313.635
 30
0.000000
  70
    32
  0
VERTEX
  8
AM_0
  5
18390
 10
750.276
 20
313.623
 30
0.000000
  70
    32
  0
VERTEX
  8
AM_0
  5
18391
 10
750.297
 20
313.611
 30
0.000000
  70
    32
  0
VERTEX
  8
AM_0
  5
18392
 10
750.319
 20
313.600
 30
0.000000
  70
    32
  0
VERTEX
  8
AM_0
  5
18393
 10
750.341
 20
313.588
 30
0.000000
  70
    32
  0
VERTEX
  8
AM_0
  5
18394
 10
750.362
 20
313.577
 30
0.000000
  70
    32
  0
VERTEX
  8
AM_0
  5
18395
 10
750.384
 20
313.566
 30
0.000000
  70
    32
  0
VERTEX
  8
AM_0
  5
18396
 10
750.406
 20
313.555
 30
0.000000
  70
    32
  0
VERTEX
  8
AM_0
  5
18397
 10
750.429
 20
313.545
 30
0.000000
  70
    32
  0
VERTEX
  8
AM_0
  5
18398
 10
750.451
 20
313.535
 30
0.000000
  70
    32
  0
VERTEX
  8
AM_0
  5
18399
 10
750.474
 20
313.525
 30
0.000000
  70
    32
  0
VERTEX
  8
AM_0
  5
1839A
 10
750.496
 20
313.516
 30
0.000000
  70
    32
  0
VERTEX
  8
AM_0
  5
1839B
 10
750.519
 20
313.506
 30
0.000000
  70
    32
  0
VERTEX
  8
AM_0
  5
1839C
 10
750.542
 20
313.497
 30
0.000000
  70
    32
  0
VERTEX
  8
AM_0
  5
1839D
 10
750.565
 20
313.489
 30
0.000000
  70
    32
  0
VERTEX
  8
AM_0
  5
1839E
 10
750.588
 20
313.480
 30
0.000000
  70
    32
  0
VERTEX
  8
AM_0
  5
1839F
 10
750.611
 20
313.472
 30
0.000000
  70
    32
  0
VERTEX
  8
AM_0
  5
183A0
 10
750.634
 20
313.464
 30
0.000000
  70
    32
  0
VERTEX
  8
AM_0
  5
183A1
 10
750.658
 20
313.457
 30
0.000000
  70
    32
  0
VERTEX
  8
AM_0
  5
183A2
 10
750.681
 20
313.450
 30
0.000000
  70
    32
  0
VERTEX
  8
AM_0
  5
183A3
 10
750.705
 20
313.443
 30
0.000000
  70
    32
  0
VERTEX
  8
AM_0
  5
183A4
 10
750.728
 20
313.436
 30
0.000000
  70
    32
  0
VERTEX
  8
AM_0
  5
183A5
 10
750.752
 20
313.429
 30
0.000000
  70
    32
  0
VERTEX
  8
AM_0
  5
183A6
 10
750.776
 20
313.423
 30
0.000000
  70
    32
  0
VERTEX
  8
AM_0
  5
183A7
 10
750.799
 20
313.418
 30
0.000000
  70
    32
  0
VERTEX
  8
AM_0
  5
183A8
 10
750.823
 20
313.412
 30
0.000000
  70
    32
  0
VERTEX
  8
AM_0
  5
183A9
 10
750.847
 20
313.407
 30
0.000000
  70
    32
  0
VERTEX
  8
AM_0
  5
183AA
 10
750.871
 20
313.402
 30
0.000000
  70
    32
  0
VERTEX
  8
AM_0
  5
183AB
 10
750.896
 20
313.397
 30
0.000000
  70
    32
  0
VERTEX
  8
AM_0
  5
183AC
 10
750.920
 20
313.393
 30
0.000000
  70
    32
  0
VERTEX
  8
AM_0
  5
183AD
 10
750.944
 20
313.389
 30
0.000000
  70
    32
  0
VERTEX
  8
AM_0
  5
183AE
 10
750.968
 20
313.385
 30
0.000000
  70
    32
  0
VERTEX
  8
AM_0
  5
183AF
 10
750.992
 20
313.382
 30
0.000000
  70
    32
  0
VERTEX
  8
AM_0
  5
183B0
 10
751.017
 20
313.378
 30
0.000000
  70
    32
  0
VERTEX
  8
AM_0
  5
183B1
 10
751.041
 20
313.376
 30
0.000000
  70
    32
  0
VERTEX
  8
AM_0
  5
183B2
 10
751.066
 20
313.373
 30
0.000000
  70
    32
  0
VERTEX
  8
AM_0
  5
183B3
 10
751.090
 20
313.371
 30
0.000000
  70
    32
  0
VERTEX
  8
AM_0
  5
183B4
 10
751.114
 20
313.369
 30
0.000000
  70
    32
  0
VERTEX
  8
AM_0
  5
183B5
 10
751.139
 20
313.367
 30
0.000000
  70
    32
  0
VERTEX
  8
AM_0
  5
183B6
 10
751.163
 20
313.366
 30
0.000000
  70
    32
  0
VERTEX
  8
AM_0
  5
183B7
 10
751.188
 20
313.365
 30
0.000000
  70
    32
  0
VERTEX
  8
AM_0
  5
183B8
 10
751.213
 20
313.364
 30
0.000000
  70
    32
  0
VERTEX
  8
AM_0
  5
183B9
 10
751.237
 20
313.364
 30
0.000000
  70
    32
  0
VERTEX
  8
AM_0
  5
183BA
 10
751.262
 20
313.363
 30
0.000000
  70
    32
  0
SEQEND
  8
AM_0
  5
183BB
  0
ARC
  5
16825
  8
AM_0
 10
802.26172438689605
 20
281.93541993044983
 30
0.0
 40
1.000225199999998
 50
179.2608199999913
 51
358.44765000000081
  0
LINE
  5
16826
  8
AM_0
 10
781.21636459091667
 20
285.01362650529421
 30
0.0
 11
781.26158938689616
 21
283.92833993044979
 31
0.0
  0
LINE
  5
16827
  8
AM_0
 10
783.30016310198926
 20
285.0527021289443
 30
0.0
 11
783.26158138689607
 21
283.92830993044993
 31
0.0
  0
LINE
  5
16828
  8
AM_0
 10
791.17826715917727
 20
284.9545242024941
 30
0.0
 11
791.26158438689606
 21
282.58833993044988
 31
0.0
  0
LINE
  5
16829
  8
AM_0
 10
793.32533907210859
 20
284.43720377094962
 30
0.0
 11
793.26158438689595
 21
282.58830993044973
 31
0.0
  0
ARC
  5
1682A
  8
AM_0
 10
782.26189438689607
 20
283.96367993044981
 30
0.0
 40
1.000317799999999
 50
179.73379000000131
 51
357.97469000000888
  0
LINE
  5
1682B
  8
AM_0
 10
801.21738242604965
 20
283.19019942799628
 30
0.0
 11
801.26158438689617
 21
281.9083499304499
 31
0.0
  0
ARC
  5
1682C
  8
AM_0
 10
792.26168438689615
 20
282.6082999304499
 30
0.0
 40
1.000099699999998
 50
179.99821999998991
 51
358.8559099999971
  0
LINE
  5
1682D
  8
AM_0
 10
823.34530597962907
 20
284.96602828054631
 30
0.0
 11
823.26158438689606
 21
282.58830993044973
 31
0.0
  0
LINE
  5
1682E
  8
AM_0
 10
821.19749451829637
 20
284.4469241310743
 30
0.0
 11
821.26158438689595
 21
282.58830993044973
 31
0.0
  0
ARC
  5
1682F
  8
AM_0
 10
812.26144438689607
 20
281.93526993044981
 30
0.0
 40
1.000223999999998
 50
181.54276079999551
 51
0.7487699999955649
  0
LINE
  5
16830
  8
AM_0
 10
811.21898762465548
 20
283.03004886837817
 30
0.0
 11
811.26158438689617
 21
281.90831993044992
 31
0.0
  0
LINE
  5
16831
  8
AM_0
 10
803.28993540928047
 20
283.0282082268746
 30
0.0
 11
803.26158438689617
 21
281.9083499304499
 31
0.0
  0
ARC
  5
16832
  8
AM_0
 10
822.26149438689595
 20
282.60820993044979
 30
0.0
 40
1.0000987999999991
 50
181.13930379999911
 51
0.0065799999992618
  0
LINE
  5
16833
  8
AM_0
 10
813.30592302375362
 20
283.1943773474502
 30
0.0
 11
813.26158438689595
 21
281.9083499304499
 31
0.0
  0
LINE
  5
16835
  8
AM_0
 10
748.26158262737931
 20
327.36370643796681
 30
0.0
 11
757.26158289578007
 21
327.36370643796681
 31
0.0
  0
LINE
  5
16838
  8
AM_0
 10
872.26158616293299
 20
314.86345636420953
 30
0.0
 11
866.26158616293321
 21
314.86345636420953
 31
0.0
  0
LINE
  5
16839
  8
AM_0
 10
871.26158629552492
 20
314.86365636320971
 30
0.0
 11
866.26158614641338
 21
314.86365636320971
 31
0.0
  0
LINE
  5
1683A
  8
AM_0
 10
833.31885668626103
 20
285.99065828717221
 30
0.0
 11
833.26158438689606
 21
283.92833993044979
 31
0.0
  0
LINE
  5
1683B
  8
AM_0
 10
831.19218663686695
 20
285.95077873162199
 30
0.0
 11
831.26158438689606
 21
283.92833993044979
 31
0.0
  0
ARC
  5
1683C
  8
AM_0
 10
832.26127438689616
 20
283.96351993044982
 30
0.0
 40
1.000315299999998
 50
182.01573779999001
 51
0.2757899999910607
  0
LINE
  5
1683D
  8
AM_0
 10
904.7615861629331
 20
280.8644575563265
 30
0.0
 11
886.56158616293305
 21
299.06445755632649
 31
0.0
  0
LINE
  5
1683E
  8
AM_0N
 10
874.56158616293317
 20
287.86315561913659
 30
0.0
 11
874.56158616293317
 21
311.86315561913659
 31
0.0
  0
LINE
  5
1683F
  8
AM_0N
 10
886.56158616293305
 20
292.06315561913658
 30
0.0
 11
886.56158616293305
 21
307.6631556191366
 31
0.0
1001
GENIUS_GENOREF_13
1005
0
  0
LINE
  5
16840
  8
AM_0
 10
872.26158616293321
 20
314.86345636420953
 30
0.0
 11
872.26158616293287
 21
275.86445755632627
 31
0.0
  0
ARC
  5
16841
  8
AM_0
 10
877.2615861629331
 20
275.86445755632627
 30
0.0
 40
5.0
 50
180.0
 51
270.0
1001
GENIUS_GENOBJ-N-FIL_13
1002
{
1000
OWNER
1000
GEN
1002
}
1001
GENIUS_GENODEF_13
1002
{
1000
HIER
1070
     0
1002
}
1002
{
1000
MANEDIT
1070
     0
1002
}
1002
{
1000
NOSEL
1070
     0
1002
}
1002
{
1000
BEHIND
1070
     0
1002
}
1002
{
1000
OTHER
1070
     0
1002
}
1002
{
1000
REACTOR
1002
}
  0
LINE
  5
16842
  8
AM_0
 10
879.40624710360578
 20
270.86445755632627
 30
0.0
 11
872.26158616293299
 21
278.00911849699901
 31
0.0
  0
LINE
  5
16843
  8
AM_0N
 10
885.36158616293324
 20
290.86315561913659
 30
0.0
 11
874.56158616293317
 21
290.86315561913659
 31
0.0
1001
GENIUS_GENOREF_13
1005
0
  0
LINE
  5
16844
  8
AM_0N
 10
872.26158616293321
 20
287.86315561913659
 30
0.0
 11
874.56158616293317
 21
287.86315561913659
 31
0.0
  0
ARC
  5
16845
  8
AM_0N
 10
885.36158616293324
 20
292.06315561913658
 30
0.0
 40
1.1999999999999991
 50
270.0
 51
0.0
1001
GENIUS_GENOREF_13
1005
0
  0
LINE
  5
16846
  8
AM_0
 10
904.7615861629331
 20
280.8644575563265
 30
0.0
 11
904.7615861629331
 21
270.8644575563261
 31
0.0
  0
LINE
  5
16847
  8
AM_0N
 10
885.36158616293324
 20
308.86315561913659
 30
0.0
 11
874.56158616293317
 21
308.86315561913659
 31
0.0
1001
GENIUS_GENOREF_13
1005
0
  0
LINE
  5
16848
  8
AM_0N
 10
874.56158616293317
 20
311.86315561913659
 30
0.0
 11
872.26158616293321
 21
311.86315561913659
 31
0.0
  0
ARC
  5
16849
  8
AM_0N
 10
885.36158616293324
 20
307.6631556191366
 30
0.0
 40
1.1999999999999991
 50
0.0
 51
90.0
1001
GENIUS_GENOREF_13
1005
0
  0
LINE
  5
1684B
  8
0
 10
904.26158436897595
 20
384.86445755632599
 30
0.0
 11
904.26158436897595
 21
344.86445755632599
 31
0.0
  0
LINE
  5
1684C
  8
0
 10
904.26158436897595
 20
344.86445755632599
 30
0.0
 11
876.26158644603561
 21
339.86445680376852
 31
0.0
  0
LINE
  5
1684D
  8
AM_0
 10
871.26158629552413
 20
339.86445680376852
 30
0.0
 11
876.26158644603561
 21
339.86445680376852
 31
0.0
  0
LINE
  5
16850
  8
AM_0
 10
914.7615861629331
 20
270.86445755632627
 30
0.0
 11
914.7615861629331
 21
264.8644575563265
 31
0.0
  0
LINE
  5
16851
  8
0
 10
962.26158436897595
 20
383.86445755632582
 30
0.0
 11
917.26158436897595
 21
383.86445755632582
 31
0.0
  0
LINE
  5
16852
  8
0
 10
917.26158436897595
 20
383.86445755632582
 30
0.0
 11
917.26158436897595
 21
380.86445755632627
 31
0.0
  0
LINE
  5
16853
  8
AM_0
 10
962.26158436897595
 20
348.86445755632599
 30
0.0
 11
962.26158436897595
 21
383.8644575563261
 31
0.0
  0
LINE
  5
16860
  8
AM_0
 10
866.26158614641338
 20
443.12051106380977
 30
0.0
 11
773.26158337293748
 21
444.86605994215972
 31
0.0
  0
LINE
  5
16861
  8
AM_0
 10
749.26158265720153
 20
414.365449032561
 30
0.0
 11
749.26158265720153
 21
405.36526876415451
 31
0.0
  0
LINE
  5
16862
  8
AM_0
 10
757.26158289578007
 20
417.36550912202978
 30
0.0
 11
757.26158289578007
 21
402.3652086746859
 31
0.0
  0
LINE
  5
16864
  8
AM_0
 10
751.26158271684619
 20
403.36522870450852
 30
0.0
 11
757.26158289578007
 21
403.36522870450852
 31
0.0
  0
LINE
  5
16865
  8
AM_0
 10
748.26158262737931
 20
402.3652086746859
 30
0.0
 11
757.26158289578007
 21
402.3652086746859
 31
0.0
  0
POLYLINE
  5
16866
  8
AM_0
 10
749.26158265720153
 20
405.36526858930546
 30
0.0
 66
     1
 70
     8
  0
VERTEX
  8
AM_0
  5
183BC
 10
749.262
 20
405.365
 30
0.000000
  70
    32
  0
VERTEX
  8
AM_0
  5
183BD
 10
749.262
 20
405.341
 30
0.000000
  70
    32
  0
VERTEX
  8
AM_0
  5
183BE
 10
749.262
 20
405.316
 30
0.000000
  70
    32
  0
VERTEX
  8
AM_0
  5
183BF
 10
749.263
 20
405.292
 30
0.000000
  70
    32
  0
VERTEX
  8
AM_0
  5
183C0
 10
749.264
 20
405.267
 30
0.000000
  70
    32
  0
VERTEX
  8
AM_0
  5
183C1
 10
749.265
 20
405.243
 30
0.000000
  70
    32
  0
VERTEX
  8
AM_0
  5
183C2
 10
749.267
 20
405.218
 30
0.000000
  70
    32
  0
VERTEX
  8
AM_0
  5
183C3
 10
749.269
 20
405.194
 30
0.000000
  70
    32
  0
VERTEX
  8
AM_0
  5
183C4
 10
749.271
 20
405.169
 30
0.000000
  70
    32
  0
VERTEX
  8
AM_0
  5
183C5
 10
749.274
 20
405.145
 30
0.000000
  70
    32
  0
VERTEX
  8
AM_0
  5
183C6
 10
749.277
 20
405.120
 30
0.000000
  70
    32
  0
VERTEX
  8
AM_0
  5
183C7
 10
749.280
 20
405.096
 30
0.000000
  70
    32
  0
VERTEX
  8
AM_0
  5
183C8
 10
749.283
 20
405.072
 30
0.000000
  70
    32
  0
VERTEX
  8
AM_0
  5
183C9
 10
749.287
 20
405.048
 30
0.000000
  70
    32
  0
VERTEX
  8
AM_0
  5
183CA
 10
749.291
 20
405.023
 30
0.000000
  70
    32
  0
VERTEX
  8
AM_0
  5
183CB
 10
749.295
 20
404.999
 30
0.000000
  70
    32
  0
VERTEX
  8
AM_0
  5
183CC
 10
749.300
 20
404.975
 30
0.000000
  70
    32
  0
VERTEX
  8
AM_0
  5
183CD
 10
749.305
 20
404.951
 30
0.000000
  70
    32
  0
VERTEX
  8
AM_0
  5
183CE
 10
749.310
 20
404.927
 30
0.000000
  70
    32
  0
VERTEX
  8
AM_0
  5
183CF
 10
749.316
 20
404.903
 30
0.000000
  70
    32
  0
VERTEX
  8
AM_0
  5
183D0
 10
749.322
 20
404.879
 30
0.000000
  70
    32
  0
VERTEX
  8
AM_0
  5
183D1
 10
749.328
 20
404.856
 30
0.000000
  70
    32
  0
VERTEX
  8
AM_0
  5
183D2
 10
749.334
 20
404.832
 30
0.000000
  70
    32
  0
VERTEX
  8
AM_0
  5
183D3
 10
749.341
 20
404.808
 30
0.000000
  70
    32
  0
VERTEX
  8
AM_0
  5
183D4
 10
749.348
 20
404.785
 30
0.000000
  70
    32
  0
VERTEX
  8
AM_0
  5
183D5
 10
749.355
 20
404.761
 30
0.000000
  70
    32
  0
VERTEX
  8
AM_0
  5
183D6
 10
749.363
 20
404.738
 30
0.000000
  70
    32
  0
VERTEX
  8
AM_0
  5
183D7
 10
749.370
 20
404.715
 30
0.000000
  70
    32
  0
VERTEX
  8
AM_0
  5
183D8
 10
749.378
 20
404.691
 30
0.000000
  70
    32
  0
VERTEX
  8
AM_0
  5
183D9
 10
749.387
 20
404.668
 30
0.000000
  70
    32
  0
VERTEX
  8
AM_0
  5
183DA
 10
749.396
 20
404.645
 30
0.000000
  70
    32
  0
VERTEX
  8
AM_0
  5
183DB
 10
749.405
 20
404.623
 30
0.000000
  70
    32
  0
VERTEX
  8
AM_0
  5
183DC
 10
749.414
 20
404.600
 30
0.000000
  70
    32
  0
VERTEX
  8
AM_0
  5
183DD
 10
749.423
 20
404.577
 30
0.000000
  70
    32
  0
VERTEX
  8
AM_0
  5
183DE
 10
749.433
 20
404.555
 30
0.000000
  70
    32
  0
VERTEX
  8
AM_0
  5
183DF
 10
749.443
 20
404.532
 30
0.000000
  70
    32
  0
VERTEX
  8
AM_0
  5
183E0
 10
749.454
 20
404.510
 30
0.000000
  70
    32
  0
VERTEX
  8
AM_0
  5
183E1
 10
749.464
 20
404.488
 30
0.000000
  70
    32
  0
VERTEX
  8
AM_0
  5
183E2
 10
749.475
 20
404.466
 30
0.000000
  70
    32
  0
VERTEX
  8
AM_0
  5
183E3
 10
749.486
 20
404.444
 30
0.000000
  70
    32
  0
VERTEX
  8
AM_0
  5
183E4
 10
749.498
 20
404.422
 30
0.000000
  70
    32
  0
VERTEX
  8
AM_0
  5
183E5
 10
749.509
 20
404.401
 30
0.000000
  70
    32
  0
VERTEX
  8
AM_0
  5
183E6
 10
749.521
 20
404.379
 30
0.000000
  70
    32
  0
VERTEX
  8
AM_0
  5
183E7
 10
749.534
 20
404.358
 30
0.000000
  70
    32
  0
VERTEX
  8
AM_0
  5
183E8
 10
749.546
 20
404.337
 30
0.000000
  70
    32
  0
VERTEX
  8
AM_0
  5
183E9
 10
749.559
 20
404.316
 30
0.000000
  70
    32
  0
VERTEX
  8
AM_0
  5
183EA
 10
749.572
 20
404.295
 30
0.000000
  70
    32
  0
VERTEX
  8
AM_0
  5
183EB
 10
749.585
 20
404.275
 30
0.000000
  70
    32
  0
VERTEX
  8
AM_0
  5
183EC
 10
749.599
 20
404.254
 30
0.000000
  70
    32
  0
VERTEX
  8
AM_0
  5
183ED
 10
749.612
 20
404.234
 30
0.000000
  70
    32
  0
VERTEX
  8
AM_0
  5
183EE
 10
749.626
 20
404.214
 30
0.000000
  70
    32
  0
VERTEX
  8
AM_0
  5
183EF
 10
749.641
 20
404.194
 30
0.000000
  70
    32
  0
VERTEX
  8
AM_0
  5
183F0
 10
749.655
 20
404.174
 30
0.000000
  70
    32
  0
VERTEX
  8
AM_0
  5
183F1
 10
749.670
 20
404.154
 30
0.000000
  70
    32
  0
VERTEX
  8
AM_0
  5
183F2
 10
749.685
 20
404.135
 30
0.000000
  70
    32
  0
VERTEX
  8
AM_0
  5
183F3
 10
749.700
 20
404.116
 30
0.000000
  70
    32
  0
VERTEX
  8
AM_0
  5
183F4
 10
749.716
 20
404.096
 30
0.000000
  70
    32
  0
VERTEX
  8
AM_0
  5
183F5
 10
749.731
 20
404.078
 30
0.000000
  70
    32
  0
VERTEX
  8
AM_0
  5
183F6
 10
749.747
 20
404.059
 30
0.000000
  70
    32
  0
VERTEX
  8
AM_0
  5
183F7
 10
749.763
 20
404.040
 30
0.000000
  70
    32
  0
VERTEX
  8
AM_0
  5
183F8
 10
749.780
 20
404.022
 30
0.000000
  70
    32
  0
VERTEX
  8
AM_0
  5
183F9
 10
749.796
 20
404.004
 30
0.000000
  70
    32
  0
VERTEX
  8
AM_0
  5
183FA
 10
749.813
 20
403.986
 30
0.000000
  70
    32
  0
VERTEX
  8
AM_0
  5
183FB
 10
749.830
 20
403.968
 30
0.000000
  70
    32
  0
VERTEX
  8
AM_0
  5
183FC
 10
749.847
 20
403.951
 30
0.000000
  70
    32
  0
VERTEX
  8
AM_0
  5
183FD
 10
749.865
 20
403.934
 30
0.000000
  70
    32
  0
VERTEX
  8
AM_0
  5
183FE
 10
749.883
 20
403.917
 30
0.000000
  70
    32
  0
VERTEX
  8
AM_0
  5
183FF
 10
749.900
 20
403.900
 30
0.000000
  70
    32
  0
VERTEX
  8
AM_0
  5
18400
 10
749.918
 20
403.883
 30
0.000000
  70
    32
  0
VERTEX
  8
AM_0
  5
18401
 10
749.937
 20
403.867
 30
0.000000
  70
    32
  0
VERTEX
  8
AM_0
  5
18402
 10
749.955
 20
403.851
 30
0.000000
  70
    32
  0
VERTEX
  8
AM_0
  5
18403
 10
749.974
 20
403.835
 30
0.000000
  70
    32
  0
VERTEX
  8
AM_0
  5
18404
 10
749.993
 20
403.819
 30
0.000000
  70
    32
  0
VERTEX
  8
AM_0
  5
18405
 10
750.012
 20
403.804
 30
0.000000
  70
    32
  0
VERTEX
  8
AM_0
  5
18406
 10
750.031
 20
403.789
 30
0.000000
  70
    32
  0
VERTEX
  8
AM_0
  5
18407
 10
750.051
 20
403.774
 30
0.000000
  70
    32
  0
VERTEX
  8
AM_0
  5
18408
 10
750.070
 20
403.759
 30
0.000000
  70
    32
  0
VERTEX
  8
AM_0
  5
18409
 10
750.090
 20
403.744
 30
0.000000
  70
    32
  0
VERTEX
  8
AM_0
  5
1840A
 10
750.110
 20
403.730
 30
0.000000
  70
    32
  0
VERTEX
  8
AM_0
  5
1840B
 10
750.130
 20
403.716
 30
0.000000
  70
    32
  0
VERTEX
  8
AM_0
  5
1840C
 10
750.150
 20
403.702
 30
0.000000
  70
    32
  0
VERTEX
  8
AM_0
  5
1840D
 10
750.171
 20
403.689
 30
0.000000
  70
    32
  0
VERTEX
  8
AM_0
  5
1840E
 10
750.192
 20
403.676
 30
0.000000
  70
    32
  0
VERTEX
  8
AM_0
  5
1840F
 10
750.212
 20
403.663
 30
0.000000
  70
    32
  0
VERTEX
  8
AM_0
  5
18410
 10
750.233
 20
403.650
 30
0.000000
  70
    32
  0
VERTEX
  8
AM_0
  5
18411
 10
750.255
 20
403.637
 30
0.000000
  70
    32
  0
VERTEX
  8
AM_0
  5
18412
 10
750.276
 20
403.625
 30
0.000000
  70
    32
  0
VERTEX
  8
AM_0
  5
18413
 10
750.297
 20
403.613
 30
0.000000
  70
    32
  0
VERTEX
  8
AM_0
  5
18414
 10
750.319
 20
403.601
 30
0.000000
  70
    32
  0
VERTEX
  8
AM_0
  5
18415
 10
750.341
 20
403.590
 30
0.000000
  70
    32
  0
VERTEX
  8
AM_0
  5
18416
 10
750.362
 20
403.579
 30
0.000000
  70
    32
  0
VERTEX
  8
AM_0
  5
18417
 10
750.384
 20
403.568
 30
0.000000
  70
    32
  0
VERTEX
  8
AM_0
  5
18418
 10
750.406
 20
403.557
 30
0.000000
  70
    32
  0
VERTEX
  8
AM_0
  5
18419
 10
750.429
 20
403.547
 30
0.000000
  70
    32
  0
VERTEX
  8
AM_0
  5
1841A
 10
750.451
 20
403.537
 30
0.000000
  70
    32
  0
VERTEX
  8
AM_0
  5
1841B
 10
750.474
 20
403.527
 30
0.000000
  70
    32
  0
VERTEX
  8
AM_0
  5
1841C
 10
750.496
 20
403.517
 30
0.000000
  70
    32
  0
VERTEX
  8
AM_0
  5
1841D
 10
750.519
 20
403.508
 30
0.000000
  70
    32
  0
VERTEX
  8
AM_0
  5
1841E
 10
750.542
 20
403.499
 30
0.000000
  70
    32
  0
VERTEX
  8
AM_0
  5
1841F
 10
750.565
 20
403.491
 30
0.000000
  70
    32
  0
VERTEX
  8
AM_0
  5
18420
 10
750.588
 20
403.482
 30
0.000000
  70
    32
  0
VERTEX
  8
AM_0
  5
18421
 10
750.611
 20
403.474
 30
0.000000
  70
    32
  0
VERTEX
  8
AM_0
  5
18422
 10
750.634
 20
403.466
 30
0.000000
  70
    32
  0
VERTEX
  8
AM_0
  5
18423
 10
750.658
 20
403.459
 30
0.000000
  70
    32
  0
VERTEX
  8
AM_0
  5
18424
 10
750.681
 20
403.451
 30
0.000000
  70
    32
  0
VERTEX
  8
AM_0
  5
18425
 10
750.705
 20
403.444
 30
0.000000
  70
    32
  0
VERTEX
  8
AM_0
  5
18426
 10
750.728
 20
403.438
 30
0.000000
  70
    32
  0
VERTEX
  8
AM_0
  5
18427
 10
750.752
 20
403.431
 30
0.000000
  70
    32
  0
VERTEX
  8
AM_0
  5
18428
 10
750.776
 20
403.425
 30
0.000000
  70
    32
  0
VERTEX
  8
AM_0
  5
18429
 10
750.799
 20
403.419
 30
0.000000
  70
    32
  0
VERTEX
  8
AM_0
  5
1842A
 10
750.823
 20
403.414
 30
0.000000
  70
    32
  0
VERTEX
  8
AM_0
  5
1842B
 10
750.847
 20
403.409
 30
0.000000
  70
    32
  0
VERTEX
  8
AM_0
  5
1842C
 10
750.871
 20
403.404
 30
0.000000
  70
    32
  0
VERTEX
  8
AM_0
  5
1842D
 10
750.896
 20
403.399
 30
0.000000
  70
    32
  0
VERTEX
  8
AM_0
  5
1842E
 10
750.920
 20
403.395
 30
0.000000
  70
    32
  0
VERTEX
  8
AM_0
  5
1842F
 10
750.944
 20
403.391
 30
0.000000
  70
    32
  0
VERTEX
  8
AM_0
  5
18430
 10
750.968
 20
403.387
 30
0.000000
  70
    32
  0
VERTEX
  8
AM_0
  5
18431
 10
750.992
 20
403.383
 30
0.000000
  70
    32
  0
VERTEX
  8
AM_0
  5
18432
 10
751.017
 20
403.380
 30
0.000000
  70
    32
  0
VERTEX
  8
AM_0
  5
18433
 10
751.041
 20
403.377
 30
0.000000
  70
    32
  0
VERTEX
  8
AM_0
  5
18434
 10
751.066
 20
403.375
 30
0.000000
  70
    32
  0
VERTEX
  8
AM_0
  5
18435
 10
751.090
 20
403.373
 30
0.000000
  70
    32
  0
VERTEX
  8
AM_0
  5
18436
 10
751.114
 20
403.371
 30
0.000000
  70
    32
  0
VERTEX
  8
AM_0
  5
18437
 10
751.139
 20
403.369
 30
0.000000
  70
    32
  0
VERTEX
  8
AM_0
  5
18438
 10
751.163
 20
403.368
 30
0.000000
  70
    32
  0
VERTEX
  8
AM_0
  5
18439
 10
751.188
 20
403.367
 30
0.000000
  70
    32
  0
VERTEX
  8
AM_0
  5
1843A
 10
751.213
 20
403.366
 30
0.000000
  70
    32
  0
VERTEX
  8
AM_0
  5
1843B
 10
751.237
 20
403.365
 30
0.000000
  70
    32
  0
VERTEX
  8
AM_0
  5
1843C
 10
751.262
 20
403.365
 30
0.000000
  70
    32
  0
SEQEND
  8
AM_0
  5
1843D
  0
LINE
  5
16867
  8
AM_0
 10
743.26158247826766
 20
414.86525874944329
 30
0.0
 11
748.26158262737931
 21
414.86525874944329
 31
0.0
  0
LINE
  5
16868
  8
AM_0
 10
751.26158271684619
 20
416.3654890922071
 30
0.0
 11
757.26158289578007
 21
416.3654890922071
 31
0.0
  0
LINE
  5
16869
  8
AM_0
 10
748.26158262737931
 20
417.36550912202978
 30
0.0
 11
757.26158289578007
 21
417.36550912202978
 31
0.0
  0
POLYLINE
  5
1686A
  8
AM_0
 10
751.26158262942351
 20
416.36548909220681
 30
0.0
 66
     1
 70
     8
  0
VERTEX
  8
AM_0
  5
1843E
 10
751.262
 20
416.365
 30
0.000000
  70
    32
  0
VERTEX
  8
AM_0
  5
1843F
 10
751.237
 20
416.365
 30
0.000000
  70
    32
  0
VERTEX
  8
AM_0
  5
18440
 10
751.213
 20
416.365
 30
0.000000
  70
    32
  0
VERTEX
  8
AM_0
  5
18441
 10
751.188
 20
416.364
 30
0.000000
  70
    32
  0
VERTEX
  8
AM_0
  5
18442
 10
751.163
 20
416.363
 30
0.000000
  70
    32
  0
VERTEX
  8
AM_0
  5
18443
 10
751.139
 20
416.362
 30
0.000000
  70
    32
  0
VERTEX
  8
AM_0
  5
18444
 10
751.114
 20
416.360
 30
0.000000
  70
    32
  0
VERTEX
  8
AM_0
  5
18445
 10
751.090
 20
416.358
 30
0.000000
  70
    32
  0
VERTEX
  8
AM_0
  5
18446
 10
751.066
 20
416.356
 30
0.000000
  70
    32
  0
VERTEX
  8
AM_0
  5
18447
 10
751.041
 20
416.353
 30
0.000000
  70
    32
  0
VERTEX
  8
AM_0
  5
18448
 10
751.017
 20
416.350
 30
0.000000
  70
    32
  0
VERTEX
  8
AM_0
  5
18449
 10
750.992
 20
416.347
 30
0.000000
  70
    32
  0
VERTEX
  8
AM_0
  5
1844A
 10
750.968
 20
416.344
 30
0.000000
  70
    32
  0
VERTEX
  8
AM_0
  5
1844B
 10
750.944
 20
416.340
 30
0.000000
  70
    32
  0
VERTEX
  8
AM_0
  5
1844C
 10
750.920
 20
416.336
 30
0.000000
  70
    32
  0
VERTEX
  8
AM_0
  5
1844D
 10
750.896
 20
416.332
 30
0.000000
  70
    32
  0
VERTEX
  8
AM_0
  5
1844E
 10
750.871
 20
416.327
 30
0.000000
  70
    32
  0
VERTEX
  8
AM_0
  5
1844F
 10
750.847
 20
416.322
 30
0.000000
  70
    32
  0
VERTEX
  8
AM_0
  5
18450
 10
750.823
 20
416.317
 30
0.000000
  70
    32
  0
VERTEX
  8
AM_0
  5
18451
 10
750.799
 20
416.311
 30
0.000000
  70
    32
  0
VERTEX
  8
AM_0
  5
18452
 10
750.776
 20
416.306
 30
0.000000
  70
    32
  0
VERTEX
  8
AM_0
  5
18453
 10
750.752
 20
416.299
 30
0.000000
  70
    32
  0
VERTEX
  8
AM_0
  5
18454
 10
750.728
 20
416.293
 30
0.000000
  70
    32
  0
VERTEX
  8
AM_0
  5
18455
 10
750.705
 20
416.286
 30
0.000000
  70
    32
  0
VERTEX
  8
AM_0
  5
18456
 10
750.681
 20
416.279
 30
0.000000
  70
    32
  0
VERTEX
  8
AM_0
  5
18457
 10
750.658
 20
416.272
 30
0.000000
  70
    32
  0
VERTEX
  8
AM_0
  5
18458
 10
750.634
 20
416.265
 30
0.000000
  70
    32
  0
VERTEX
  8
AM_0
  5
18459
 10
750.611
 20
416.257
 30
0.000000
  70
    32
  0
VERTEX
  8
AM_0
  5
1845A
 10
750.588
 20
416.249
 30
0.000000
  70
    32
  0
VERTEX
  8
AM_0
  5
1845B
 10
750.565
 20
416.240
 30
0.000000
  70
    32
  0
VERTEX
  8
AM_0
  5
1845C
 10
750.542
 20
416.231
 30
0.000000
  70
    32
  0
VERTEX
  8
AM_0
  5
1845D
 10
750.519
 20
416.222
 30
0.000000
  70
    32
  0
VERTEX
  8
AM_0
  5
1845E
 10
750.496
 20
416.213
 30
0.000000
  70
    32
  0
VERTEX
  8
AM_0
  5
1845F
 10
750.474
 20
416.204
 30
0.000000
  70
    32
  0
VERTEX
  8
AM_0
  5
18460
 10
750.451
 20
416.194
 30
0.000000
  70
    32
  0
VERTEX
  8
AM_0
  5
18461
 10
750.429
 20
416.184
 30
0.000000
  70
    32
  0
VERTEX
  8
AM_0
  5
18462
 10
750.406
 20
416.173
 30
0.000000
  70
    32
  0
VERTEX
  8
AM_0
  5
18463
 10
750.384
 20
416.163
 30
0.000000
  70
    32
  0
VERTEX
  8
AM_0
  5
18464
 10
750.362
 20
416.152
 30
0.000000
  70
    32
  0
VERTEX
  8
AM_0
  5
18465
 10
750.341
 20
416.141
 30
0.000000
  70
    32
  0
VERTEX
  8
AM_0
  5
18466
 10
750.319
 20
416.129
 30
0.000000
  70
    32
  0
VERTEX
  8
AM_0
  5
18467
 10
750.297
 20
416.118
 30
0.000000
  70
    32
  0
VERTEX
  8
AM_0
  5
18468
 10
750.276
 20
416.106
 30
0.000000
  70
    32
  0
VERTEX
  8
AM_0
  5
18469
 10
750.255
 20
416.093
 30
0.000000
  70
    32
  0
VERTEX
  8
AM_0
  5
1846A
 10
750.233
 20
416.081
 30
0.000000
  70
    32
  0
VERTEX
  8
AM_0
  5
1846B
 10
750.212
 20
416.068
 30
0.000000
  70
    32
  0
VERTEX
  8
AM_0
  5
1846C
 10
750.192
 20
416.055
 30
0.000000
  70
    32
  0
VERTEX
  8
AM_0
  5
1846D
 10
750.171
 20
416.042
 30
0.000000
  70
    32
  0
VERTEX
  8
AM_0
  5
1846E
 10
750.150
 20
416.028
 30
0.000000
  70
    32
  0
VERTEX
  8
AM_0
  5
1846F
 10
750.130
 20
416.015
 30
0.000000
  70
    32
  0
VERTEX
  8
AM_0
  5
18470
 10
750.110
 20
416.001
 30
0.000000
  70
    32
  0
VERTEX
  8
AM_0
  5
18471
 10
750.090
 20
415.986
 30
0.000000
  70
    32
  0
VERTEX
  8
AM_0
  5
18472
 10
750.070
 20
415.972
 30
0.000000
  70
    32
  0
VERTEX
  8
AM_0
  5
18473
 10
750.051
 20
415.957
 30
0.000000
  70
    32
  0
VERTEX
  8
AM_0
  5
18474
 10
750.031
 20
415.942
 30
0.000000
  70
    32
  0
VERTEX
  8
AM_0
  5
18475
 10
750.012
 20
415.927
 30
0.000000
  70
    32
  0
VERTEX
  8
AM_0
  5
18476
 10
749.993
 20
415.912
 30
0.000000
  70
    32
  0
VERTEX
  8
AM_0
  5
18477
 10
749.974
 20
415.896
 30
0.000000
  70
    32
  0
VERTEX
  8
AM_0
  5
18478
 10
749.955
 20
415.880
 30
0.000000
  70
    32
  0
VERTEX
  8
AM_0
  5
18479
 10
749.937
 20
415.864
 30
0.000000
  70
    32
  0
VERTEX
  8
AM_0
  5
1847A
 10
749.918
 20
415.847
 30
0.000000
  70
    32
  0
VERTEX
  8
AM_0
  5
1847B
 10
749.900
 20
415.831
 30
0.000000
  70
    32
  0
VERTEX
  8
AM_0
  5
1847C
 10
749.883
 20
415.814
 30
0.000000
  70
    32
  0
VERTEX
  8
AM_0
  5
1847D
 10
749.865
 20
415.797
 30
0.000000
  70
    32
  0
VERTEX
  8
AM_0
  5
1847E
 10
749.847
 20
415.780
 30
0.000000
  70
    32
  0
VERTEX
  8
AM_0
  5
1847F
 10
749.830
 20
415.762
 30
0.000000
  70
    32
  0
VERTEX
  8
AM_0
  5
18480
 10
749.813
 20
415.745
 30
0.000000
  70
    32
  0
VERTEX
  8
AM_0
  5
18481
 10
749.796
 20
415.727
 30
0.000000
  70
    32
  0
VERTEX
  8
AM_0
  5
18482
 10
749.780
 20
415.709
 30
0.000000
  70
    32
  0
VERTEX
  8
AM_0
  5
18483
 10
749.763
 20
415.690
 30
0.000000
  70
    32
  0
VERTEX
  8
AM_0
  5
18484
 10
749.747
 20
415.672
 30
0.000000
  70
    32
  0
VERTEX
  8
AM_0
  5
18485
 10
749.731
 20
415.653
 30
0.000000
  70
    32
  0
VERTEX
  8
AM_0
  5
18486
 10
749.716
 20
415.634
 30
0.000000
  70
    32
  0
VERTEX
  8
AM_0
  5
18487
 10
749.700
 20
415.615
 30
0.000000
  70
    32
  0
VERTEX
  8
AM_0
  5
18488
 10
749.685
 20
415.596
 30
0.000000
  70
    32
  0
VERTEX
  8
AM_0
  5
18489
 10
749.670
 20
415.576
 30
0.000000
  70
    32
  0
VERTEX
  8
AM_0
  5
1848A
 10
749.655
 20
415.557
 30
0.000000
  70
    32
  0
VERTEX
  8
AM_0
  5
1848B
 10
749.641
 20
415.537
 30
0.000000
  70
    32
  0
VERTEX
  8
AM_0
  5
1848C
 10
749.626
 20
415.517
 30
0.000000
  70
    32
  0
VERTEX
  8
AM_0
  5
1848D
 10
749.612
 20
415.497
 30
0.000000
  70
    32
  0
VERTEX
  8
AM_0
  5
1848E
 10
749.599
 20
415.477
 30
0.000000
  70
    32
  0
VERTEX
  8
AM_0
  5
1848F
 10
749.585
 20
415.456
 30
0.000000
  70
    32
  0
VERTEX
  8
AM_0
  5
18490
 10
749.572
 20
415.435
 30
0.000000
  70
    32
  0
VERTEX
  8
AM_0
  5
18491
 10
749.559
 20
415.415
 30
0.000000
  70
    32
  0
VERTEX
  8
AM_0
  5
18492
 10
749.546
 20
415.394
 30
0.000000
  70
    32
  0
VERTEX
  8
AM_0
  5
18493
 10
749.534
 20
415.373
 30
0.000000
  70
    32
  0
VERTEX
  8
AM_0
  5
18494
 10
749.521
 20
415.351
 30
0.000000
  70
    32
  0
VERTEX
  8
AM_0
  5
18495
 10
749.509
 20
415.330
 30
0.000000
  70
    32
  0
VERTEX
  8
AM_0
  5
18496
 10
749.498
 20
415.308
 30
0.000000
  70
    32
  0
VERTEX
  8
AM_0
  5
18497
 10
749.486
 20
415.287
 30
0.000000
  70
    32
  0
VERTEX
  8
AM_0
  5
18498
 10
749.475
 20
415.265
 30
0.000000
  70
    32
  0
VERTEX
  8
AM_0
  5
18499
 10
749.464
 20
415.243
 30
0.000000
  70
    32
  0
VERTEX
  8
AM_0
  5
1849A
 10
749.454
 20
415.221
 30
0.000000
  70
    32
  0
VERTEX
  8
AM_0
  5
1849B
 10
749.443
 20
415.198
 30
0.000000
  70
    32
  0
VERTEX
  8
AM_0
  5
1849C
 10
749.433
 20
415.176
 30
0.000000
  70
    32
  0
VERTEX
  8
AM_0
  5
1849D
 10
749.423
 20
415.153
 30
0.000000
  70
    32
  0
VERTEX
  8
AM_0
  5
1849E
 10
749.414
 20
415.131
 30
0.000000
  70
    32
  0
VERTEX
  8
AM_0
  5
1849F
 10
749.405
 20
415.108
 30
0.000000
  70
    32
  0
VERTEX
  8
AM_0
  5
184A0
 10
749.396
 20
415.085
 30
0.000000
  70
    32
  0
VERTEX
  8
AM_0
  5
184A1
 10
749.387
 20
415.062
 30
0.000000
  70
    32
  0
VERTEX
  8
AM_0
  5
184A2
 10
749.378
 20
415.039
 30
0.000000
  70
    32
  0
VERTEX
  8
AM_0
  5
184A3
 10
749.370
 20
415.016
 30
0.000000
  70
    32
  0
VERTEX
  8
AM_0
  5
184A4
 10
749.363
 20
414.993
 30
0.000000
  70
    32
  0
VERTEX
  8
AM_0
  5
184A5
 10
749.355
 20
414.969
 30
0.000000
  70
    32
  0
VERTEX
  8
AM_0
  5
184A6
 10
749.348
 20
414.946
 30
0.000000
  70
    32
  0
VERTEX
  8
AM_0
  5
184A7
 10
749.341
 20
414.922
 30
0.000000
  70
    32
  0
VERTEX
  8
AM_0
  5
184A8
 10
749.334
 20
414.899
 30
0.000000
  70
    32
  0
VERTEX
  8
AM_0
  5
184A9
 10
749.328
 20
414.875
 30
0.000000
  70
    32
  0
VERTEX
  8
AM_0
  5
184AA
 10
749.322
 20
414.851
 30
0.000000
  70
    32
  0
VERTEX
  8
AM_0
  5
184AB
 10
749.316
 20
414.828
 30
0.000000
  70
    32
  0
VERTEX
  8
AM_0
  5
184AC
 10
749.310
 20
414.804
 30
0.000000
  70
    32
  0
VERTEX
  8
AM_0
  5
184AD
 10
749.305
 20
414.780
 30
0.000000
  70
    32
  0
VERTEX
  8
AM_0
  5
184AE
 10
749.300
 20
414.756
 30
0.000000
  70
    32
  0
VERTEX
  8
AM_0
  5
184AF
 10
749.295
 20
414.732
 30
0.000000
  70
    32
  0
VERTEX
  8
AM_0
  5
184B0
 10
749.291
 20
414.707
 30
0.000000
  70
    32
  0
VERTEX
  8
AM_0
  5
184B1
 10
749.287
 20
414.683
 30
0.000000
  70
    32
  0
VERTEX
  8
AM_0
  5
184B2
 10
749.283
 20
414.659
 30
0.000000
  70
    32
  0
VERTEX
  8
AM_0
  5
184B3
 10
749.280
 20
414.635
 30
0.000000
  70
    32
  0
VERTEX
  8
AM_0
  5
184B4
 10
749.277
 20
414.610
 30
0.000000
  70
    32
  0
VERTEX
  8
AM_0
  5
184B5
 10
749.274
 20
414.586
 30
0.000000
  70
    32
  0
VERTEX
  8
AM_0
  5
184B6
 10
749.271
 20
414.561
 30
0.000000
  70
    32
  0
VERTEX
  8
AM_0
  5
184B7
 10
749.269
 20
414.537
 30
0.000000
  70
    32
  0
VERTEX
  8
AM_0
  5
184B8
 10
749.267
 20
414.513
 30
0.000000
  70
    32
  0
VERTEX
  8
AM_0
  5
184B9
 10
749.265
 20
414.488
 30
0.000000
  70
    32
  0
VERTEX
  8
AM_0
  5
184BA
 10
749.264
 20
414.464
 30
0.000000
  70
    32
  0
VERTEX
  8
AM_0
  5
184BB
 10
749.263
 20
414.439
 30
0.000000
  70
    32
  0
VERTEX
  8
AM_0
  5
184BC
 10
749.262
 20
414.415
 30
0.000000
  70
    32
  0
VERTEX
  8
AM_0
  5
184BD
 10
749.262
 20
414.390
 30
0.000000
  70
    32
  0
VERTEX
  8
AM_0
  5
184BE
 10
749.262
 20
414.365
 30
0.000000
  70
    32
  0
SEQEND
  8
AM_0
  5
184BF
  0
LINE
  5
1686B
  8
AM_0
 10
773.26158337293748
 20
444.86605994215972
 30
0.0
 11
748.26158262737931
 21
444.55187518242411
 31
0.0
  0
LINE
  5
1686C
  8
AM_0
 10
871.26158629552492
 20
414.86525874944329
 30
0.0
 11
866.26158614641338
 21
414.86525874944329
 31
0.0
  0
LINE
  5
1686D
  8
AM_0
 10
871.26158629552413
 20
389.86445830888471
 30
0.0
 11
876.26158644603561
 21
389.86445830888471
 31
0.0
  0
LINE
  5
16F59
  8
AM_0
 10
728.76158438689606
 20
316.36409701951391
 30
0.0
 11
728.76158438689606
 21
377.36409701951408
 31
0.0
  0
LINE
  5
16F5A
  8
AM_0
 10
735.26158438689595
 20
315.36409701951391
 30
0.0
 11
735.26158438689595
 21
378.36409701951391
 31
0.0
  0
LINE
  5
16F5B
  8
AM_0
 10
737.26158438689595
 20
376.86409701951379
 30
0.0
 11
737.26158438689595
 21
316.82411701951389
 31
0.0
  0
LINE
  5
16F5C
  8
AM_0
 10
732.26158438689595
 20
313.36409701951391
 30
0.0
 11
732.26158438689595
 21
380.36409701951391
 31
0.0
  0
LINE
  5
16F5D
  8
AM_0
 10
710.26158438689595
 20
317.86409701951391
 30
0.0
 11
710.26158438689595
 21
375.86409701951391
 31
0.0
  0
LINE
  5
16F5E
  8
AM_0
 10
707.26158438689595
 20
329.06410701951393
 30
0.0
 11
707.26158438689595
 21
364.67409701951408
 31
0.0
  0
ARC
  5
16F5F
  8
AM_0
 10
729.76158438689595
 20
316.36409701951391
 30
0.0
 40
0.9999999999999998
 50
179.999989999999
 51
270.0
  0
LINE
  5
16F60
  8
AM_0
 10
732.26158438689595
 20
313.36409701951391
 30
0.0
 11
717.26158438689595
 21
313.36409701951391
 31
0.0
  0
LINE
  5
16F61
  8
AM_0
 10
717.26158438689595
 20
315.36409701951391
 30
0.0
 11
735.26158438689595
 21
315.36409701951391
 31
0.0
  0
LINE
  5
16F62
  8
AM_0
 10
711.26158438689617
 20
316.86409701951391
 30
0.0
 11
728.76158438689606
 21
316.86409701951391
 31
0.0
  0
ARC
  5
16F63
  8
AM_0
 10
711.26158438689595
 20
317.86409701951391
 30
0.0
 40
0.9999999999999998
 50
179.999989999999
 51
270.0
  0
LINE
  5
16F64
  8
AM_0
 10
710.26160438689601
 20
323.86409701951391
 30
0.0
 11
707.26158438689595
 21
329.06410701951393
 31
0.0
  0
ARC
  5
16F65
  8
AM_0
 10
717.26158438689595
 20
316.36409701951391
 30
0.0
 40
0.9999999999999998
 50
179.999989999999
 51
270.0
  0
LINE
  5
16F66
  8
AM_0
 10
716.26158438689606
 20
316.36409701951391
 30
0.0
 11
716.26158438689606
 21
316.86409701951391
 31
0.0
  0
LINE
  5
16F67
  8
AM_0
 10
717.26158438689595
 20
315.36409701951391
 30
0.0
 11
717.26158438689595
 21
313.36409701951391
 31
0.0
  0
LINE
  5
16F68
  8
AM_0
 10
743.26158247826766
 20
316.66029131454741
 30
0.0
 11
735.26158438689595
 21
316.8641190543907
 31
0.0
  0
ARC
  5
16F69
  8
AM_0
 10
729.76158438689595
 20
377.36409701951408
 30
0.0
 40
0.9999999999999998
 50
90.00000299999769
 51
180.00001000000091
  0
LINE
  5
16F6A
  8
AM_0
 10
717.26158438689595
 20
378.36409701951391
 30
0.0
 11
735.26158438689595
 21
378.36409701951391
 31
0.0
  0
LINE
  5
16F6B
  8
AM_0
 10
732.26158438689595
 20
380.36409701951391
 30
0.0
 11
717.26158438689595
 21
380.36409701951391
 31
0.0
  0
LINE
  5
16F6C
  8
AM_0
 10
710.26158438689595
 20
369.86409701951408
 30
0.0
 11
707.26158438689595
 21
364.67409701951408
 31
0.0
  0
LINE
  5
16F6D
  8
AM_0
 10
711.26158438689617
 20
376.86409701951379
 30
0.0
 11
728.76158438689606
 21
376.86409701951379
 31
0.0
  0
ARC
  5
16F6E
  8
AM_0
 10
711.26158438689595
 20
375.86409701951391
 30
0.0
 40
0.9999999999999998
 50
90.00000299999769
 51
180.00001000000091
  0
LINE
  5
16F6F
  8
AM_0
 10
716.26158438689606
 20
376.86409701951379
 30
0.0
 11
716.26158438689606
 21
377.36409701951408
 31
0.0
  0
ARC
  5
16F70
  8
AM_0
 10
717.26158438689595
 20
377.36409701951408
 30
0.0
 40
0.9999999999999998
 50
90.00000299999769
 51
180.00001000000091
  0
LINE
  5
16F71
  8
AM_0
 10
717.26158438689595
 20
378.36409701951391
 30
0.0
 11
717.26158438689595
 21
380.36409701951391
 31
0.0
  0
LINE
  5
16F72
  8
AM_0
 10
743.26158247826766
 20
377.07811406147692
 30
0.0
 11
735.26158438689595
 21
376.86409550788591
 31
0.0
  0
LINE
  5
1738B
  8
AM_0
 10
1068.416533524121
 20
322.35065213672129
 30
0.0
 11
1068.416533524121
 21
407.37826297593102
 31
0.0
  0
LINE
  5
1738C
  8
AM_0
 10
1257.4165086429609
 20
322.35065213672129
 30
0.0
 11
1257.4165086429609
 21
407.37826297593102
 31
0.0
  0
ARC
  5
1738D
  8
AM_0
 10
1250.4165084342051
 20
299.8631556178363
 30
0.0
 40
16.25
 50
88.089786296393953
 51
112.61710774916151
  0
ARC
  5
1738E
  8
AM_0
 10
1251.1665086429609
 20
322.35065213672129
 30
0.0
 40
6.25
 50
268.08978629640688
 51
0.000000000000007
1001
GENIUS_GENODEF_13
1002
{
1000
HIER
1070
     0
1002
}
1002
{
1000
MANEDIT
1070
     0
1002
}
1002
{
1000
NOSEL
1070
     0
1002
}
1002
{
1000
BEHIND
1070
     0
1002
}
1002
{
1000
OTHER
1070
     0
1002
}
1002
{
1000
REACTOR
1002
}
1001
GENIUS_GENOBJ-N-FIL_13
1002
{
1000
OWNER
1000
GEN
1002
}
  0
ARC
  5
1738F
  8
AM_0
 10
1075.416533732877
 20
299.8631556178363
 30
0.0
 40
16.25
 50
67.382892250843668
 51
91.910213703606075
  0
ARC
  5
17390
  8
AM_0
 10
1074.666533524121
 20
322.35065213672129
 30
0.0
 40
6.25
 50
180.0
 51
271.91021370360608
1001
GENIUS_GENOBJ-N-FIL_13
1002
{
1000
OWNER
1000
GEN
1002
}
1001
GENIUS_GENODEF_13
1002
{
1000
HIER
1070
     0
1002
}
1002
{
1000
MANEDIT
1070
     0
1002
}
1002
{
1000
NOSEL
1070
     0
1002
}
1002
{
1000
BEHIND
1070
     0
1002
}
1002
{
1000
OTHER
1070
     0
1002
}
1002
{
1000
REACTOR
1002
}
  0
ARC
  5
17391
  8
AM_0
 10
1250.4165084342051
 20
429.8657594948159
 30
0.0
 40
16.25
 50
178.08942959105599
 51
271.91021370360608
  0
ARC
  5
17392
  8
AM_0
 10
1227.9290165850191
 20
430.61589970357642
 30
0.0
 40
6.25
 50
358.08942959105622
 51
90.0
1001
GENIUS_GENOBJ-N-FIL_13
1002
{
1000
OWNER
1000
GEN
1002
}
1001
GENIUS_GENODEF_13
1002
{
1000
HIER
1070
     0
1002
}
1002
{
1000
MANEDIT
1070
     0
1002
}
1002
{
1000
NOSEL
1070
     0
1002
}
1002
{
1000
BEHIND
1070
     0
1002
}
1002
{
1000
OTHER
1070
     0
1002
}
1002
{
1000
REACTOR
1002
}
  0
ARC
  5
17393
  8
AM_0
 10
1251.1665086429609
 20
407.37826297593102
 30
0.0
 40
6.25
 50
0.000000000000007
 51
91.910213703606075
1001
GENIUS_GENODEF_13
1002
{
1000
HIER
1070
     0
1002
}
1002
{
1000
MANEDIT
1070
     0
1002
}
1002
{
1000
NOSEL
1070
     0
1002
}
1002
{
1000
BEHIND
1070
     0
1002
}
1002
{
1000
OTHER
1070
     0
1002
}
1002
{
1000
REACTOR
1002
}
1001
GENIUS_GENOBJ-N-FIL_13
1002
{
1000
OWNER
1000
GEN
1002
}
  0
LINE
  5
17394
  8
AM_0
 10
1227.9290165850191
 20
436.86589970357619
 30
0.0
 11
1097.904025582063
 21
436.86589970357642
 31
0.0
  0
ARC
  5
17395
  8
AM_0
 10
1075.416533732877
 20
429.8657594948159
 30
0.0
 40
16.25
 50
268.08978629640688
 51
1.9105704089439179
  0
ARC
  5
17396
  8
AM_0
 10
1074.666533524121
 20
407.37826297593102
 30
0.0
 40
6.25
 50
88.089786296393953
 51
180.0
1001
GENIUS_GENOBJ-N-FIL_13
1002
{
1000
OWNER
1000
GEN
1002
}
1001
GENIUS_GENODEF_13
1002
{
1000
HIER
1070
     0
1002
}
1002
{
1000
MANEDIT
1070
     0
1002
}
1002
{
1000
NOSEL
1070
     0
1002
}
1002
{
1000
BEHIND
1070
     0
1002
}
1002
{
1000
OTHER
1070
     0
1002
}
1002
{
1000
REACTOR
1002
}
  0
ARC
  5
17397
  8
AM_0
 10
1097.904025582063
 20
430.61589970357642
 30
0.0
 40
6.25
 50
90.0
 51
181.9105704089439
1001
GENIUS_GENOBJ-N-FIL_13
1002
{
1000
OWNER
1000
GEN
1002
}
1001
GENIUS_GENODEF_13
1002
{
1000
HIER
1070
     0
1002
}
1002
{
1000
MANEDIT
1070
     0
1002
}
1002
{
1000
NOSEL
1070
     0
1002
}
1002
{
1000
BEHIND
1070
     0
1002
}
1002
{
1000
OTHER
1070
     0
1002
}
1002
{
1000
REACTOR
1002
}
  0
POLYLINE
  5
177FB
  8
AM_0
 10
1068.4165335053617
 20
429.86575949351612
 30
0.0
 66
     1
 70
     8
  0
VERTEX
  8
AM_0
  5
184C0
 10
1068.42
 20
429.866
 30
0.000000
  70
    32
  0
VERTEX
  8
AM_0
  5
184C1
 10
1068.42
 20
430.209
 30
0.000000
  70
    32
  0
VERTEX
  8
AM_0
  5
184C2
 10
1068.45
 20
430.552
 30
0.000000
  70
    32
  0
VERTEX
  8
AM_0
  5
184C3
 10
1068.49
 20
430.893
 30
0.000000
  70
    32
  0
VERTEX
  8
AM_0
  5
184C4
 10
1068.55
 20
431.231
 30
0.000000
  70
    32
  0
VERTEX
  8
AM_0
  5
184C5
 10
1068.63
 20
431.567
 30
0.000000
  70
    32
  0
VERTEX
  8
AM_0
  5
184C6
 10
1068.72
 20
431.898
 30
0.000000
  70
    32
  0
VERTEX
  8
AM_0
  5
184C7
 10
1068.83
 20
432.224
 30
0.000000
  70
    32
  0
VERTEX
  8
AM_0
  5
184C8
 10
1068.95
 20
432.545
 30
0.000000
  70
    32
  0
VERTEX
  8
AM_0
  5
184C9
 10
1069.09
 20
432.859
 30
0.000000
  70
    32
  0
VERTEX
  8
AM_0
  5
184CA
 10
1069.24
 20
433.166
 30
0.000000
  70
    32
  0
VERTEX
  8
AM_0
  5
184CB
 10
1069.41
 20
433.465
 30
0.000000
  70
    32
  0
VERTEX
  8
AM_0
  5
184CC
 10
1069.60
 20
433.755
 30
0.000000
  70
    32
  0
VERTEX
  8
AM_0
  5
184CD
 10
1069.79
 20
434.036
 30
0.000000
  70
    32
  0
VERTEX
  8
AM_0
  5
184CE
 10
1070.01
 20
434.307
 30
0.000000
  70
    32
  0
VERTEX
  8
AM_0
  5
184CF
 10
1070.23
 20
434.567
 30
0.000000
  70
    32
  0
VERTEX
  8
AM_0
  5
184D0
 10
1070.47
 20
434.816
 30
0.000000
  70
    32
  0
VERTEX
  8
AM_0
  5
184D1
 10
1070.72
 20
435.053
 30
0.000000
  70
    32
  0
VERTEX
  8
AM_0
  5
184D2
 10
1070.98
 20
435.277
 30
0.000000
  70
    32
  0
VERTEX
  8
AM_0
  5
184D3
 10
1071.25
 20
435.488
 30
0.000000
  70
    32
  0
VERTEX
  8
AM_0
  5
184D4
 10
1071.53
 20
435.686
 30
0.000000
  70
    32
  0
VERTEX
  8
AM_0
  5
184D5
 10
1071.82
 20
435.870
 30
0.000000
  70
    32
  0
VERTEX
  8
AM_0
  5
184D6
 10
1072.12
 20
436.039
 30
0.000000
  70
    32
  0
VERTEX
  8
AM_0
  5
184D7
 10
1072.42
 20
436.194
 30
0.000000
  70
    32
  0
VERTEX
  8
AM_0
  5
184D8
 10
1072.74
 20
436.333
 30
0.000000
  70
    32
  0
VERTEX
  8
AM_0
  5
184D9
 10
1073.06
 20
436.457
 30
0.000000
  70
    32
  0
VERTEX
  8
AM_0
  5
184DA
 10
1073.38
 20
436.564
 30
0.000000
  70
    32
  0
VERTEX
  8
AM_0
  5
184DB
 10
1073.72
 20
436.656
 30
0.000000
  70
    32
  0
VERTEX
  8
AM_0
  5
184DC
 10
1074.05
 20
436.731
 30
0.000000
  70
    32
  0
VERTEX
  8
AM_0
  5
184DD
 10
1074.39
 20
436.790
 30
0.000000
  70
    32
  0
VERTEX
  8
AM_0
  5
184DE
 10
1074.73
 20
436.832
 30
0.000000
  70
    32
  0
VERTEX
  8
AM_0
  5
184DF
 10
1075.07
 20
436.857
 30
0.000000
  70
    32
  0
VERTEX
  8
AM_0
  5
184E0
 10
1075.42
 20
436.866
 30
0.000000
  70
    32
  0
VERTEX
  8
AM_0
  5
184E1
 10
1075.76
 20
436.857
 30
0.000000
  70
    32
  0
VERTEX
  8
AM_0
  5
184E2
 10
1076.10
 20
436.832
 30
0.000000
  70
    32
  0
VERTEX
  8
AM_0
  5
184E3
 10
1076.44
 20
436.790
 30
0.000000
  70
    32
  0
VERTEX
  8
AM_0
  5
184E4
 10
1076.78
 20
436.731
 30
0.000000
  70
    32
  0
VERTEX
  8
AM_0
  5
184E5
 10
1077.12
 20
436.656
 30
0.000000
  70
    32
  0
VERTEX
  8
AM_0
  5
184E6
 10
1077.45
 20
436.564
 30
0.000000
  70
    32
  0
VERTEX
  8
AM_0
  5
184E7
 10
1077.77
 20
436.457
 30
0.000000
  70
    32
  0
VERTEX
  8
AM_0
  5
184E8
 10
1078.10
 20
436.333
 30
0.000000
  70
    32
  0
VERTEX
  8
AM_0
  5
184E9
 10
1078.41
 20
436.194
 30
0.000000
  70
    32
  0
VERTEX
  8
AM_0
  5
184EA
 10
1078.72
 20
436.039
 30
0.000000
  70
    32
  0
VERTEX
  8
AM_0
  5
184EB
 10
1079.02
 20
435.870
 30
0.000000
  70
    32
  0
VERTEX
  8
AM_0
  5
184EC
 10
1079.31
 20
435.686
 30
0.000000
  70
    32
  0
VERTEX
  8
AM_0
  5
184ED
 10
1079.59
 20
435.488
 30
0.000000
  70
    32
  0
VERTEX
  8
AM_0
  5
184EE
 10
1079.86
 20
435.277
 30
0.000000
  70
    32
  0
VERTEX
  8
AM_0
  5
184EF
 10
1080.12
 20
435.053
 30
0.000000
  70
    32
  0
VERTEX
  8
AM_0
  5
184F0
 10
1080.37
 20
434.816
 30
0.000000
  70
    32
  0
VERTEX
  8
AM_0
  5
184F1
 10
1080.60
 20
434.567
 30
0.000000
  70
    32
  0
VERTEX
  8
AM_0
  5
184F2
 10
1080.83
 20
434.307
 30
0.000000
  70
    32
  0
VERTEX
  8
AM_0
  5
184F3
 10
1081.04
 20
434.036
 30
0.000000
  70
    32
  0
VERTEX
  8
AM_0
  5
184F4
 10
1081.24
 20
433.755
 30
0.000000
  70
    32
  0
VERTEX
  8
AM_0
  5
184F5
 10
1081.42
 20
433.465
 30
0.000000
  70
    32
  0
VERTEX
  8
AM_0
  5
184F6
 10
1081.59
 20
433.166
 30
0.000000
  70
    32
  0
VERTEX
  8
AM_0
  5
184F7
 10
1081.74
 20
432.859
 30
0.000000
  70
    32
  0
VERTEX
  8
AM_0
  5
184F8
 10
1081.88
 20
432.545
 30
0.000000
  70
    32
  0
VERTEX
  8
AM_0
  5
184F9
 10
1082.01
 20
432.224
 30
0.000000
  70
    32
  0
VERTEX
  8
AM_0
  5
184FA
 10
1082.12
 20
431.898
 30
0.000000
  70
    32
  0
VERTEX
  8
AM_0
  5
184FB
 10
1082.21
 20
431.567
 30
0.000000
  70
    32
  0
VERTEX
  8
AM_0
  5
184FC
 10
1082.28
 20
431.231
 30
0.000000
  70
    32
  0
VERTEX
  8
AM_0
  5
184FD
 10
1082.34
 20
430.893
 30
0.000000
  70
    32
  0
VERTEX
  8
AM_0
  5
184FE
 10
1082.38
 20
430.552
 30
0.000000
  70
    32
  0
VERTEX
  8
AM_0
  5
184FF
 10
1082.41
 20
430.209
 30
0.000000
  70
    32
  0
VERTEX
  8
AM_0
  5
18500
 10
1082.42
 20
429.866
 30
0.000000
  70
    32
  0
VERTEX
  8
AM_0
  5
18501
 10
1082.41
 20
429.522
 30
0.000000
  70
    32
  0
VERTEX
  8
AM_0
  5
18502
 10
1082.38
 20
429.180
 30
0.000000
  70
    32
  0
VERTEX
  8
AM_0
  5
18503
 10
1082.34
 20
428.839
 30
0.000000
  70
    32
  0
VERTEX
  8
AM_0
  5
18504
 10
1082.28
 20
428.500
 30
0.000000
  70
    32
  0
VERTEX
  8
AM_0
  5
18505
 10
1082.21
 20
428.165
 30
0.000000
  70
    32
  0
VERTEX
  8
AM_0
  5
18506
 10
1082.12
 20
427.834
 30
0.000000
  70
    32
  0
VERTEX
  8
AM_0
  5
18507
 10
1082.01
 20
427.507
 30
0.000000
  70
    32
  0
VERTEX
  8
AM_0
  5
18508
 10
1081.88
 20
427.187
 30
0.000000
  70
    32
  0
VERTEX
  8
AM_0
  5
18509
 10
1081.74
 20
426.873
 30
0.000000
  70
    32
  0
VERTEX
  8
AM_0
  5
1850A
 10
1081.59
 20
426.566
 30
0.000000
  70
    32
  0
VERTEX
  8
AM_0
  5
1850B
 10
1081.42
 20
426.267
 30
0.000000
  70
    32
  0
VERTEX
  8
AM_0
  5
1850C
 10
1081.24
 20
425.977
 30
0.000000
  70
    32
  0
VERTEX
  8
AM_0
  5
1850D
 10
1081.04
 20
425.696
 30
0.000000
  70
    32
  0
VERTEX
  8
AM_0
  5
1850E
 10
1080.83
 20
425.425
 30
0.000000
  70
    32
  0
VERTEX
  8
AM_0
  5
1850F
 10
1080.60
 20
425.165
 30
0.000000
  70
    32
  0
VERTEX
  8
AM_0
  5
18510
 10
1080.37
 20
424.916
 30
0.000000
  70
    32
  0
VERTEX
  8
AM_0
  5
18511
 10
1080.12
 20
424.679
 30
0.000000
  70
    32
  0
VERTEX
  8
AM_0
  5
18512
 10
1079.86
 20
424.455
 30
0.000000
  70
    32
  0
VERTEX
  8
AM_0
  5
18513
 10
1079.59
 20
424.243
 30
0.000000
  70
    32
  0
VERTEX
  8
AM_0
  5
18514
 10
1079.31
 20
424.045
 30
0.000000
  70
    32
  0
VERTEX
  8
AM_0
  5
18515
 10
1079.02
 20
423.862
 30
0.000000
  70
    32
  0
VERTEX
  8
AM_0
  5
18516
 10
1078.72
 20
423.692
 30
0.000000
  70
    32
  0
VERTEX
  8
AM_0
  5
18517
 10
1078.41
 20
423.538
 30
0.000000
  70
    32
  0
VERTEX
  8
AM_0
  5
18518
 10
1078.10
 20
423.398
 30
0.000000
  70
    32
  0
VERTEX
  8
AM_0
  5
18519
 10
1077.77
 20
423.275
 30
0.000000
  70
    32
  0
VERTEX
  8
AM_0
  5
1851A
 10
1077.45
 20
423.167
 30
0.000000
  70
    32
  0
VERTEX
  8
AM_0
  5
1851B
 10
1077.12
 20
423.075
 30
0.000000
  70
    32
  0
VERTEX
  8
AM_0
  5
1851C
 10
1076.78
 20
423.000
 30
0.000000
  70
    32
  0
VERTEX
  8
AM_0
  5
1851D
 10
1076.44
 20
422.941
 30
0.000000
  70
    32
  0
VERTEX
  8
AM_0
  5
1851E
 10
1076.10
 20
422.899
 30
0.000000
  70
    32
  0
VERTEX
  8
AM_0
  5
1851F
 10
1075.76
 20
422.874
 30
0.000000
  70
    32
  0
VERTEX
  8
AM_0
  5
18520
 10
1075.42
 20
422.866
 30
0.000000
  70
    32
  0
VERTEX
  8
AM_0
  5
18521
 10
1075.07
 20
422.874
 30
0.000000
  70
    32
  0
VERTEX
  8
AM_0
  5
18522
 10
1074.73
 20
422.899
 30
0.000000
  70
    32
  0
VERTEX
  8
AM_0
  5
18523
 10
1074.39
 20
422.941
 30
0.000000
  70
    32
  0
VERTEX
  8
AM_0
  5
18524
 10
1074.05
 20
423.000
 30
0.000000
  70
    32
  0
VERTEX
  8
AM_0
  5
18525
 10
1073.72
 20
423.075
 30
0.000000
  70
    32
  0
VERTEX
  8
AM_0
  5
18526
 10
1073.38
 20
423.167
 30
0.000000
  70
    32
  0
VERTEX
  8
AM_0
  5
18527
 10
1073.06
 20
423.275
 30
0.000000
  70
    32
  0
VERTEX
  8
AM_0
  5
18528
 10
1072.74
 20
423.398
 30
0.000000
  70
    32
  0
VERTEX
  8
AM_0
  5
18529
 10
1072.42
 20
423.538
 30
0.000000
  70
    32
  0
VERTEX
  8
AM_0
  5
1852A
 10
1072.12
 20
423.692
 30
0.000000
  70
    32
  0
VERTEX
  8
AM_0
  5
1852B
 10
1071.82
 20
423.862
 30
0.000000
  70
    32
  0
VERTEX
  8
AM_0
  5
1852C
 10
1071.53
 20
424.045
 30
0.000000
  70
    32
  0
VERTEX
  8
AM_0
  5
1852D
 10
1071.25
 20
424.243
 30
0.000000
  70
    32
  0
VERTEX
  8
AM_0
  5
1852E
 10
1070.98
 20
424.455
 30
0.000000
  70
    32
  0
VERTEX
  8
AM_0
  5
1852F
 10
1070.72
 20
424.679
 30
0.000000
  70
    32
  0
VERTEX
  8
AM_0
  5
18530
 10
1070.47
 20
424.916
 30
0.000000
  70
    32
  0
VERTEX
  8
AM_0
  5
18531
 10
1070.23
 20
425.165
 30
0.000000
  70
    32
  0
VERTEX
  8
AM_0
  5
18532
 10
1070.01
 20
425.425
 30
0.000000
  70
    32
  0
VERTEX
  8
AM_0
  5
18533
 10
1069.79
 20
425.696
 30
0.000000
  70
    32
  0
VERTEX
  8
AM_0
  5
18534
 10
1069.60
 20
425.977
 30
0.000000
  70
    32
  0
VERTEX
  8
AM_0
  5
18535
 10
1069.41
 20
426.267
 30
0.000000
  70
    32
  0
VERTEX
  8
AM_0
  5
18536
 10
1069.24
 20
426.566
 30
0.000000
  70
    32
  0
VERTEX
  8
AM_0
  5
18537
 10
1069.09
 20
426.873
 30
0.000000
  70
    32
  0
VERTEX
  8
AM_0
  5
18538
 10
1068.95
 20
427.187
 30
0.000000
  70
    32
  0
VERTEX
  8
AM_0
  5
18539
 10
1068.83
 20
427.507
 30
0.000000
  70
    32
  0
VERTEX
  8
AM_0
  5
1853A
 10
1068.72
 20
427.834
 30
0.000000
  70
    32
  0
VERTEX
  8
AM_0
  5
1853B
 10
1068.63
 20
428.165
 30
0.000000
  70
    32
  0
VERTEX
  8
AM_0
  5
1853C
 10
1068.55
 20
428.500
 30
0.000000
  70
    32
  0
VERTEX
  8
AM_0
  5
1853D
 10
1068.49
 20
428.839
 30
0.000000
  70
    32
  0
VERTEX
  8
AM_0
  5
1853E
 10
1068.45
 20
429.180
 30
0.000000
  70
    32
  0
VERTEX
  8
AM_0
  5
1853F
 10
1068.42
 20
429.522
 30
0.000000
  70
    32
  0
VERTEX
  8
AM_0
  5
18540
 10
1068.42
 20
429.866
 30
0.000000
  70
    32
  0
SEQEND
  8
AM_0
  5
18541
  0
POLYLINE
  5
177FF
  8
AM_0
 10
1060.4165332645432
 20
429.86575949351612
 30
0.0
 66
     1
 70
     8
  0
VERTEX
  8
AM_0
  5
18542
 10
1060.42
 20
429.866
 30
0.000000
  70
    32
  0
VERTEX
  8
AM_0
  5
18543
 10
1060.42
 20
430.050
 30
0.000000
  70
    32
  0
VERTEX
  8
AM_0
  5
18544
 10
1060.42
 20
430.234
 30
0.000000
  70
    32
  0
VERTEX
  8
AM_0
  5
18545
 10
1060.43
 20
430.418
 30
0.000000
  70
    32
  0
VERTEX
  8
AM_0
  5
18546
 10
1060.43
 20
430.602
 30
0.000000
  70
    32
  0
VERTEX
  8
AM_0
  5
18547
 10
1060.44
 20
430.786
 30
0.000000
  70
    32
  0
VERTEX
  8
AM_0
  5
18548
 10
1060.46
 20
430.969
 30
0.000000
  70
    32
  0
VERTEX
  8
AM_0
  5
18549
 10
1060.47
 20
431.153
 30
0.000000
  70
    32
  0
VERTEX
  8
AM_0
  5
1854A
 10
1060.49
 20
431.336
 30
0.000000
  70
    32
  0
VERTEX
  8
AM_0
  5
1854B
 10
1060.51
 20
431.519
 30
0.000000
  70
    32
  0
VERTEX
  8
AM_0
  5
1854C
 10
1060.53
 20
431.702
 30
0.000000
  70
    32
  0
VERTEX
  8
AM_0
  5
1854D
 10
1060.55
 20
431.885
 30
0.000000
  70
    32
  0
VERTEX
  8
AM_0
  5
1854E
 10
1060.58
 20
432.067
 30
0.000000
  70
    32
  0
VERTEX
  8
AM_0
  5
1854F
 10
1060.61
 20
432.249
 30
0.000000
  70
    32
  0
VERTEX
  8
AM_0
  5
18550
 10
1060.64
 20
432.430
 30
0.000000
  70
    32
  0
VERTEX
  8
AM_0
  5
18551
 10
1060.67
 20
432.611
 30
0.000000
  70
    32
  0
VERTEX
  8
AM_0
  5
18552
 10
1060.70
 20
432.792
 30
0.000000
  70
    32
  0
VERTEX
  8
AM_0
  5
18553
 10
1060.74
 20
432.972
 30
0.000000
  70
    32
  0
VERTEX
  8
AM_0
  5
18554
 10
1060.78
 20
433.152
 30
0.000000
  70
    32
  0
VERTEX
  8
AM_0
  5
18555
 10
1060.82
 20
433.332
 30
0.000000
  70
    32
  0
VERTEX
  8
AM_0
  5
18556
 10
1060.87
 20
433.511
 30
0.000000
  70
    32
  0
VERTEX
  8
AM_0
  5
18557
 10
1060.91
 20
433.689
 30
0.000000
  70
    32
  0
VERTEX
  8
AM_0
  5
18558
 10
1060.96
 20
433.867
 30
0.000000
  70
    32
  0
VERTEX
  8
AM_0
  5
18559
 10
1061.01
 20
434.044
 30
0.000000
  70
    32
  0
VERTEX
  8
AM_0
  5
1855A
 10
1061.06
 20
434.220
 30
0.000000
  70
    32
  0
VERTEX
  8
AM_0
  5
1855B
 10
1061.12
 20
434.396
 30
0.000000
  70
    32
  0
VERTEX
  8
AM_0
  5
1855C
 10
1061.17
 20
434.571
 30
0.000000
  70
    32
  0
VERTEX
  8
AM_0
  5
1855D
 10
1061.23
 20
434.746
 30
0.000000
  70
    32
  0
VERTEX
  8
AM_0
  5
1855E
 10
1061.29
 20
434.919
 30
0.000000
  70
    32
  0
VERTEX
  8
AM_0
  5
1855F
 10
1061.36
 20
435.092
 30
0.000000
  70
    32
  0
VERTEX
  8
AM_0
  5
18560
 10
1061.42
 20
435.264
 30
0.000000
  70
    32
  0
VERTEX
  8
AM_0
  5
18561
 10
1061.49
 20
435.436
 30
0.000000
  70
    32
  0
VERTEX
  8
AM_0
  5
18562
 10
1061.56
 20
435.606
 30
0.000000
  70
    32
  0
VERTEX
  8
AM_0
  5
18563
 10
1061.63
 20
435.776
 30
0.000000
  70
    32
  0
VERTEX
  8
AM_0
  5
18564
 10
1061.70
 20
435.945
 30
0.000000
  70
    32
  0
VERTEX
  8
AM_0
  5
18565
 10
1061.78
 20
436.112
 30
0.000000
  70
    32
  0
VERTEX
  8
AM_0
  5
18566
 10
1061.86
 20
436.279
 30
0.000000
  70
    32
  0
VERTEX
  8
AM_0
  5
18567
 10
1061.94
 20
436.445
 30
0.000000
  70
    32
  0
VERTEX
  8
AM_0
  5
18568
 10
1062.02
 20
436.610
 30
0.000000
  70
    32
  0
VERTEX
  8
AM_0
  5
18569
 10
1062.10
 20
436.774
 30
0.000000
  70
    32
  0
VERTEX
  8
AM_0
  5
1856A
 10
1062.19
 20
436.937
 30
0.000000
  70
    32
  0
VERTEX
  8
AM_0
  5
1856B
 10
1062.28
 20
437.099
 30
0.000000
  70
    32
  0
VERTEX
  8
AM_0
  5
1856C
 10
1062.37
 20
437.259
 30
0.000000
  70
    32
  0
VERTEX
  8
AM_0
  5
1856D
 10
1062.46
 20
437.419
 30
0.000000
  70
    32
  0
VERTEX
  8
AM_0
  5
1856E
 10
1062.55
 20
437.577
 30
0.000000
  70
    32
  0
VERTEX
  8
AM_0
  5
1856F
 10
1062.65
 20
437.735
 30
0.000000
  70
    32
  0
VERTEX
  8
AM_0
  5
18570
 10
1062.74
 20
437.891
 30
0.000000
  70
    32
  0
VERTEX
  8
AM_0
  5
18571
 10
1062.84
 20
438.046
 30
0.000000
  70
    32
  0
VERTEX
  8
AM_0
  5
18572
 10
1062.94
 20
438.199
 30
0.000000
  70
    32
  0
VERTEX
  8
AM_0
  5
18573
 10
1063.05
 20
438.352
 30
0.000000
  70
    32
  0
VERTEX
  8
AM_0
  5
18574
 10
1063.15
 20
438.503
 30
0.000000
  70
    32
  0
VERTEX
  8
AM_0
  5
18575
 10
1063.26
 20
438.653
 30
0.000000
  70
    32
  0
VERTEX
  8
AM_0
  5
18576
 10
1063.37
 20
438.801
 30
0.000000
  70
    32
  0
VERTEX
  8
AM_0
  5
18577
 10
1063.48
 20
438.949
 30
0.000000
  70
    32
  0
VERTEX
  8
AM_0
  5
18578
 10
1063.59
 20
439.094
 30
0.000000
  70
    32
  0
VERTEX
  8
AM_0
  5
18579
 10
1063.71
 20
439.239
 30
0.000000
  70
    32
  0
VERTEX
  8
AM_0
  5
1857A
 10
1063.82
 20
439.382
 30
0.000000
  70
    32
  0
VERTEX
  8
AM_0
  5
1857B
 10
1063.94
 20
439.523
 30
0.000000
  70
    32
  0
VERTEX
  8
AM_0
  5
1857C
 10
1064.06
 20
439.664
 30
0.000000
  70
    32
  0
VERTEX
  8
AM_0
  5
1857D
 10
1064.18
 20
439.802
 30
0.000000
  70
    32
  0
VERTEX
  8
AM_0
  5
1857E
 10
1064.30
 20
439.939
 30
0.000000
  70
    32
  0
VERTEX
  8
AM_0
  5
1857F
 10
1064.43
 20
440.075
 30
0.000000
  70
    32
  0
VERTEX
  8
AM_0
  5
18580
 10
1064.55
 20
440.209
 30
0.000000
  70
    32
  0
VERTEX
  8
AM_0
  5
18581
 10
1064.68
 20
440.342
 30
0.000000
  70
    32
  0
VERTEX
  8
AM_0
  5
18582
 10
1064.81
 20
440.473
 30
0.000000
  70
    32
  0
VERTEX
  8
AM_0
  5
18583
 10
1064.94
 20
440.602
 30
0.000000
  70
    32
  0
VERTEX
  8
AM_0
  5
18584
 10
1065.07
 20
440.730
 30
0.000000
  70
    32
  0
VERTEX
  8
AM_0
  5
18585
 10
1065.21
 20
440.856
 30
0.000000
  70
    32
  0
VERTEX
  8
AM_0
  5
18586
 10
1065.34
 20
440.980
 30
0.000000
  70
    32
  0
VERTEX
  8
AM_0
  5
18587
 10
1065.48
 20
441.103
 30
0.000000
  70
    32
  0
VERTEX
  8
AM_0
  5
18588
 10
1065.62
 20
441.224
 30
0.000000
  70
    32
  0
VERTEX
  8
AM_0
  5
18589
 10
1065.76
 20
441.343
 30
0.000000
  70
    32
  0
VERTEX
  8
AM_0
  5
1858A
 10
1065.90
 20
441.461
 30
0.000000
  70
    32
  0
VERTEX
  8
AM_0
  5
1858B
 10
1066.04
 20
441.577
 30
0.000000
  70
    32
  0
VERTEX
  8
AM_0
  5
1858C
 10
1066.19
 20
441.691
 30
0.000000
  70
    32
  0
VERTEX
  8
AM_0
  5
1858D
 10
1066.33
 20
441.804
 30
0.000000
  70
    32
  0
VERTEX
  8
AM_0
  5
1858E
 10
1066.48
 20
441.914
 30
0.000000
  70
    32
  0
VERTEX
  8
AM_0
  5
1858F
 10
1066.63
 20
442.023
 30
0.000000
  70
    32
  0
VERTEX
  8
AM_0
  5
18590
 10
1066.78
 20
442.130
 30
0.000000
  70
    32
  0
VERTEX
  8
AM_0
  5
18591
 10
1066.93
 20
442.235
 30
0.000000
  70
    32
  0
VERTEX
  8
AM_0
  5
18592
 10
1067.08
 20
442.338
 30
0.000000
  70
    32
  0
VERTEX
  8
AM_0
  5
18593
 10
1067.24
 20
442.439
 30
0.000000
  70
    32
  0
VERTEX
  8
AM_0
  5
18594
 10
1067.39
 20
442.539
 30
0.000000
  70
    32
  0
VERTEX
  8
AM_0
  5
18595
 10
1067.55
 20
442.636
 30
0.000000
  70
    32
  0
VERTEX
  8
AM_0
  5
18596
 10
1067.70
 20
442.732
 30
0.000000
  70
    32
  0
VERTEX
  8
AM_0
  5
18597
 10
1067.86
 20
442.826
 30
0.000000
  70
    32
  0
VERTEX
  8
AM_0
  5
18598
 10
1068.02
 20
442.917
 30
0.000000
  70
    32
  0
VERTEX
  8
AM_0
  5
18599
 10
1068.18
 20
443.007
 30
0.000000
  70
    32
  0
VERTEX
  8
AM_0
  5
1859A
 10
1068.35
 20
443.095
 30
0.000000
  70
    32
  0
VERTEX
  8
AM_0
  5
1859B
 10
1068.51
 20
443.181
 30
0.000000
  70
    32
  0
VERTEX
  8
AM_0
  5
1859C
 10
1068.67
 20
443.264
 30
0.000000
  70
    32
  0
VERTEX
  8
AM_0
  5
1859D
 10
1068.84
 20
443.346
 30
0.000000
  70
    32
  0
VERTEX
  8
AM_0
  5
1859E
 10
1069.00
 20
443.426
 30
0.000000
  70
    32
  0
VERTEX
  8
AM_0
  5
1859F
 10
1069.17
 20
443.504
 30
0.000000
  70
    32
  0
VERTEX
  8
AM_0
  5
185A0
 10
1069.34
 20
443.579
 30
0.000000
  70
    32
  0
VERTEX
  8
AM_0
  5
185A1
 10
1069.51
 20
443.653
 30
0.000000
  70
    32
  0
VERTEX
  8
AM_0
  5
185A2
 10
1069.68
 20
443.724
 30
0.000000
  70
    32
  0
VERTEX
  8
AM_0
  5
185A3
 10
1069.85
 20
443.794
 30
0.000000
  70
    32
  0
VERTEX
  8
AM_0
  5
185A4
 10
1070.02
 20
443.861
 30
0.000000
  70
    32
  0
VERTEX
  8
AM_0
  5
185A5
 10
1070.19
 20
443.926
 30
0.000000
  70
    32
  0
VERTEX
  8
AM_0
  5
185A6
 10
1070.36
 20
443.989
 30
0.000000
  70
    32
  0
VERTEX
  8
AM_0
  5
185A7
 10
1070.54
 20
444.050
 30
0.000000
  70
    32
  0
VERTEX
  8
AM_0
  5
185A8
 10
1070.71
 20
444.109
 30
0.000000
  70
    32
  0
VERTEX
  8
AM_0
  5
185A9
 10
1070.89
 20
444.166
 30
0.000000
  70
    32
  0
VERTEX
  8
AM_0
  5
185AA
 10
1071.06
 20
444.220
 30
0.000000
  70
    32
  0
VERTEX
  8
AM_0
  5
185AB
 10
1071.24
 20
444.273
 30
0.000000
  70
    32
  0
VERTEX
  8
AM_0
  5
185AC
 10
1071.42
 20
444.323
 30
0.000000
  70
    32
  0
VERTEX
  8
AM_0
  5
185AD
 10
1071.59
 20
444.371
 30
0.000000
  70
    32
  0
VERTEX
  8
AM_0
  5
185AE
 10
1071.77
 20
444.417
 30
0.000000
  70
    32
  0
VERTEX
  8
AM_0
  5
185AF
 10
1071.95
 20
444.460
 30
0.000000
  70
    32
  0
VERTEX
  8
AM_0
  5
185B0
 10
1072.13
 20
444.502
 30
0.000000
  70
    32
  0
VERTEX
  8
AM_0
  5
185B1
 10
1072.31
 20
444.541
 30
0.000000
  70
    32
  0
VERTEX
  8
AM_0
  5
185B2
 10
1072.49
 20
444.578
 30
0.000000
  70
    32
  0
VERTEX
  8
AM_0
  5
185B3
 10
1072.67
 20
444.613
 30
0.000000
  70
    32
  0
VERTEX
  8
AM_0
  5
185B4
 10
1072.85
 20
444.645
 30
0.000000
  70
    32
  0
VERTEX
  8
AM_0
  5
185B5
 10
1073.03
 20
444.676
 30
0.000000
  70
    32
  0
VERTEX
  8
AM_0
  5
185B6
 10
1073.22
 20
444.704
 30
0.000000
  70
    32
  0
VERTEX
  8
AM_0
  5
185B7
 10
1073.40
 20
444.730
 30
0.000000
  70
    32
  0
VERTEX
  8
AM_0
  5
185B8
 10
1073.58
 20
444.753
 30
0.000000
  70
    32
  0
VERTEX
  8
AM_0
  5
185B9
 10
1073.76
 20
444.775
 30
0.000000
  70
    32
  0
VERTEX
  8
AM_0
  5
185BA
 10
1073.95
 20
444.794
 30
0.000000
  70
    32
  0
VERTEX
  8
AM_0
  5
185BB
 10
1074.13
 20
444.811
 30
0.000000
  70
    32
  0
VERTEX
  8
AM_0
  5
185BC
 10
1074.31
 20
444.825
 30
0.000000
  70
    32
  0
VERTEX
  8
AM_0
  5
185BD
 10
1074.50
 20
444.838
 30
0.000000
  70
    32
  0
VERTEX
  8
AM_0
  5
185BE
 10
1074.68
 20
444.848
 30
0.000000
  70
    32
  0
VERTEX
  8
AM_0
  5
185BF
 10
1074.86
 20
444.856
 30
0.000000
  70
    32
  0
VERTEX
  8
AM_0
  5
185C0
 10
1075.05
 20
444.862
 30
0.000000
  70
    32
  0
VERTEX
  8
AM_0
  5
185C1
 10
1075.23
 20
444.865
 30
0.000000
  70
    32
  0
VERTEX
  8
AM_0
  5
185C2
 10
1075.42
 20
444.866
 30
0.000000
  70
    32
  0
SEQEND
  8
AM_0
  5
185C3
  0
CIRCLE
  5
17808
  8
AM_0N
 10
1075.416533716078
 20
299.86315561913682
 30
0.0
 40
12.0
  0
LINE
  5
17809
  8
AM_0
 10
1070.416533264543
 20
314.86345636420981
 30
0.0
 11
1102.2517970220269
 21
314.8634563642097
 31
0.0
  0
LINE
  5
1780A
  8
AM_0
 10
1060.4165332645421
 20
270.86445755632639
 30
0.0
 11
1265.4165089179401
 21
270.86445755632639
 31
0.0
  0
LINE
  5
1780B
  8
AM_0
 10
1060.4165332645421
 20
264.86445755632639
 30
0.0
 11
1265.4165089179401
 21
264.86445755632639
 31
0.0
  0
LINE
  5
1780C
  8
ﾁｭｳｼﾝｾﾝ1
 10
1286.6523689296239
 20
364.86445755632627
 30
0.0
 11
1055.4165332645409
 21
364.86445755632622
 31
0.0
  0
LINE
  5
1780E
  8
AM_0
 10
1281.416508881859
 20
408.36408702074442
 30
0.0
 11
1281.416508881859
 21
285.36410701828419
 31
0.0
  0
LINE
  5
1780F
  8
AM_0
 10
1292.4165088820789
 20
410.86409702079408
 30
0.0
 11
1292.4165088820789
 21
282.86410701823422
 31
0.0
  0
ARC
  5
17810
  8
AM_0
 10
878.25798234779359
 20
346.86409701950862
 30
0.0
 40
397.24800335969758
 50
353.33928567967592
 51
6.6607143203241188
  0
LINE
  5
17811
  8
AM_0
 10
1272.5059857074309
 20
392.59281565852262
 30
0.0
 11
1272.50598570743
 21
301.13537838050547
 31
0.0
  0
LINE
  5
17812
  8
ﾁｭｳｼﾝｾﾝ1
 10
1135.4165355222169
 20
449.86605994055992
 30
0.0
 11
1135.4165355222169
 21
254.8644575563265
 31
0.0
  0
LINE
  5
17813
  8
AM_0
 10
1265.4165089179401
 20
429.86575949351612
 30
0.0
 11
1265.4165089179401
 21
264.86445755632639
 31
0.0
  0
LINE
  5
17814
  8
ﾁｭｳｼﾝｾﾝ1
 10
1461.475105749523
 20
346.8640970195143
 30
0.0
 11
1229.4101172632579
 21
346.8640970195143
 31
0.0
  0
LINE
  5
17816
  8
AM_0
 10
1223.581245160455
 20
314.86345636420981
 30
0.0
 11
1255.4165089179401
 21
314.86345636420981
 31
0.0
  0
CIRCLE
  5
1781E
  8
AM_0N
 10
1250.416508466405
 20
299.86315561913659
 30
0.0
 40
12.0
  0
ARC
  5
17821
  8
AM_0
 10
1269.8449745279411
 20
301.13537838050547
 30
0.0
 40
3.00000000006
 50
270.0
 51
353.33928567967592
1001
GENIUS_GENOBJ-N-FIL_13
1002
{
1000
OWNER
1000
GEN
1002
}
1001
GENIUS_GENODEF_13
1002
{
1000
HIER
1070
     0
1002
}
1002
{
1000
MANEDIT
1070
     0
1002
}
1002
{
1000
NOSEL
1070
     0
1002
}
1002
{
1000
BEHIND
1070
     0
1002
}
1002
{
1000
OTHER
1070
     0
1002
}
1002
{
1000
REACTOR
1002
}
  0
LINE
  5
17822
  8
AM_0
 10
1278.4165088817999
 20
285.36410701828419
 30
0.0
 11
1265.4165089179401
 21
285.36410701828419
 31
0.0
  0
ARC
  5
17823
  8
AM_0
 10
1283.2899060543009
 20
285.86410701829419
 30
0.0
 40
3.00000000006
 50
215.68533471264831
 51
270.0
1001
GENIUS_GENOBJ-N-FIL_13
1002
{
1000
OWNER
1000
GEN
1002
}
1001
GENIUS_GENODEF_13
1002
{
1000
HIER
1070
     0
1002
}
1002
{
1000
MANEDIT
1070
     0
1002
}
1002
{
1000
NOSEL
1070
     0
1002
}
1002
{
1000
BEHIND
1070
     0
1002
}
1002
{
1000
OTHER
1070
     0
1002
}
1002
{
1000
REACTOR
1002
}
  0
LINE
  5
17824
  8
AM_0
 10
1292.4165088820789
 20
282.86410701823422
 30
0.0
 11
1283.2899060543009
 21
282.86410701823422
 31
0.0
  0
LINE
  5
17825
  8
AM_0
 10
1292.4165088820789
 20
294.82410701847328
 30
0.0
 11
1282.4165088818791
 21
294.82410701847328
 31
0.0
  0
ARC
  5
17826
  8
AM_0
 10
1278.4165088817999
 20
282.36410701822388
 30
0.0
 40
3.00000000006
 50
35.685334712648199
 51
90.0
1001
GENIUS_GENOBJ-N-FIL_13
1002
{
1000
OWNER
1000
GEN
1002
}
1001
GENIUS_GENODEF_13
1002
{
1000
HIER
1070
     0
1002
}
1002
{
1000
MANEDIT
1070
     0
1002
}
1002
{
1000
NOSEL
1070
     0
1002
}
1002
{
1000
BEHIND
1070
     0
1002
}
1002
{
1000
OTHER
1070
     0
1002
}
1002
{
1000
REACTOR
1002
}
  0
LINE
  5
17827
  8
AM_0
 10
1269.8449745279411
 20
298.13537838044567
 30
0.0
 11
1266.4165088815589
 21
298.13537838044567
 31
0.0
  0
LINE
  5
17828
  8
AM_0
 10
1292.4165088820789
 20
309.72411701877132
 30
0.0
 11
1282.4165088818791
 21
309.72411701877132
 31
0.0
  0
ARC
  5
17829
  8
AM_0
 10
1255.4165089179401
 20
304.86345636420981
 30
0.0
 40
10.0
 50
0.000000000000007
 51
90.0
1001
GENIUS_GENODEF_13
1002
{
1000
HIER
1070
     0
1002
}
1002
{
1000
MANEDIT
1070
     0
1002
}
1002
{
1000
NOSEL
1070
     0
1002
}
1002
{
1000
BEHIND
1070
     0
1002
}
1002
{
1000
OTHER
1070
     0
1002
}
1002
{
1000
REACTOR
1002
}
1001
GENIUS_GENOBJ-N-FIL_13
1002
{
1000
OWNER
1000
GEN
1002
}
  0
LINE
  5
17835
  8
AM_0
 10
1292.4165088820789
 20
384.00407702025711
 30
0.0
 11
1282.4165088818791
 21
384.00407702025711
 31
0.0
  0
LINE
  5
17836
  8
ﾁｭｳｼﾝｾﾝ1
 10
1080.9165332645421
 20
282.61445755632661
 30
0.0
 11
1080.9165332645421
 21
253.11445755632661
 31
0.0
  0
LINE
  5
17837
  8
ｶｸﾚｾﾝ2
 10
1252.4165089179389
 20
270.86445755632752
 30
0.0
 11
1252.4165089179401
 21
264.8644575563265
 31
0.0
  0
LINE
  5
17838
  8
ｶｸﾚｾﾝ2
 10
1237.4165089179389
 20
270.86445755632752
 30
0.0
 11
1237.4165089179401
 21
264.8644575563261
 31
0.0
  0
LINE
  5
17839
  8
ｶｸﾚｾﾝ2
 10
1088.416533264543
 20
270.8644575563273
 30
0.0
 11
1088.416533264543
 21
264.8644575563265
 31
0.0
  0
LINE
  5
1783A
  8
ﾁｭｳｼﾝｾﾝ1
 10
1244.9165089179389
 20
282.61445755632661
 30
0.0
 11
1244.9165089179389
 21
253.11445755632661
 31
0.0
  0
LINE
  5
1783C
  8
AM_0
 10
1190.416506660265
 20
304.86445755632627
 30
0.0
 11
1135.4165355222169
 21
304.86445755632627
 31
0.0
  0
LINE
  5
1783D
  8
AM_0
 10
1206.4165210912411
 20
303.36445755632678
 30
0.0
 11
1212.4165210912411
 21
303.36445755632678
 31
0.0
  0
LINE
  5
1783E
  8
AM_0
 10
1206.4165210912411
 20
280.86445755632678
 30
0.0
 11
1212.4165210912411
 21
280.86445755632678
 31
0.0
  0
ARC
  5
1783F
  8
AM_0
 10
1190.416506660265
 20
364.86445755632627
 30
0.0
 40
60.0
 50
270.0
 51
303.555580130392
  0
LINE
  5
17840
  8
AM_0
 10
1212.4165210912411
 20
270.86445755632639
 30
0.0
 11
1212.4165210912411
 21
303.36445755632678
 31
0.0
  0
LINE
  5
17845
  8
AM_0
 10
1206.4165210912411
 20
270.86445755632639
 30
0.0
 11
1206.4165210912411
 21
303.36445755632678
 31
0.0
  0
LINE
  5
17846
  8
AM_0
 10
1119.4165210912411
 20
303.36445755632678
 30
0.0
 11
1113.4165210912411
 21
303.36445755632678
 31
0.0
  0
LINE
  5
17847
  8
AM_0
 10
1119.4165210912411
 20
280.86445755632678
 30
0.0
 11
1113.4165210912411
 21
280.86445755632678
 31
0.0
  0
ARC
  5
17848
  8
AM_0
 10
1135.4165355222169
 20
364.86445755632627
 30
0.0
 40
60.0
 50
236.44441986960811
 51
270.0
  0
LINE
  5
17849
  8
AM_0
 10
1119.4165210912411
 20
270.86445755632639
 30
0.0
 11
1119.4165210912411
 21
303.36445755632678
 31
0.0
  0
LINE
  5
1784A
  8
AM_0
 10
1113.4165210912411
 20
270.86445755632639
 30
0.0
 11
1113.4165210912411
 21
303.36445755632678
 31
0.0
  0
POLYLINE
  5
1784F
  8
AM_0
 10
1243.4165082556888
 20
429.86575949351612
 30
0.0
 66
     1
 70
     8
  0
VERTEX
  8
AM_0
  5
185C4
 10
1243.42
 20
429.866
 30
0.000000
  70
    32
  0
VERTEX
  8
AM_0
  5
185C5
 10
1243.42
 20
430.209
 30
0.000000
  70
    32
  0
VERTEX
  8
AM_0
  5
185C6
 10
1243.45
 20
430.552
 30
0.000000
  70
    32
  0
VERTEX
  8
AM_0
  5
185C7
 10
1243.49
 20
430.893
 30
0.000000
  70
    32
  0
VERTEX
  8
AM_0
  5
185C8
 10
1243.55
 20
431.231
 30
0.000000
  70
    32
  0
VERTEX
  8
AM_0
  5
185C9
 10
1243.63
 20
431.567
 30
0.000000
  70
    32
  0
VERTEX
  8
AM_0
  5
185CA
 10
1243.72
 20
431.898
 30
0.000000
  70
    32
  0
VERTEX
  8
AM_0
  5
185CB
 10
1243.83
 20
432.224
 30
0.000000
  70
    32
  0
VERTEX
  8
AM_0
  5
185CC
 10
1243.95
 20
432.545
 30
0.000000
  70
    32
  0
VERTEX
  8
AM_0
  5
185CD
 10
1244.09
 20
432.859
 30
0.000000
  70
    32
  0
VERTEX
  8
AM_0
  5
185CE
 10
1244.24
 20
433.166
 30
0.000000
  70
    32
  0
VERTEX
  8
AM_0
  5
185CF
 10
1244.41
 20
433.465
 30
0.000000
  70
    32
  0
VERTEX
  8
AM_0
  5
185D0
 10
1244.60
 20
433.755
 30
0.000000
  70
    32
  0
VERTEX
  8
AM_0
  5
185D1
 10
1244.79
 20
434.036
 30
0.000000
  70
    32
  0
VERTEX
  8
AM_0
  5
185D2
 10
1245.01
 20
434.307
 30
0.000000
  70
    32
  0
VERTEX
  8
AM_0
  5
185D3
 10
1245.23
 20
434.567
 30
0.000000
  70
    32
  0
VERTEX
  8
AM_0
  5
185D4
 10
1245.47
 20
434.816
 30
0.000000
  70
    32
  0
VERTEX
  8
AM_0
  5
185D5
 10
1245.72
 20
435.053
 30
0.000000
  70
    32
  0
VERTEX
  8
AM_0
  5
185D6
 10
1245.98
 20
435.277
 30
0.000000
  70
    32
  0
VERTEX
  8
AM_0
  5
185D7
 10
1246.25
 20
435.488
 30
0.000000
  70
    32
  0
VERTEX
  8
AM_0
  5
185D8
 10
1246.53
 20
435.686
 30
0.000000
  70
    32
  0
VERTEX
  8
AM_0
  5
185D9
 10
1246.82
 20
435.870
 30
0.000000
  70
    32
  0
VERTEX
  8
AM_0
  5
185DA
 10
1247.12
 20
436.039
 30
0.000000
  70
    32
  0
VERTEX
  8
AM_0
  5
185DB
 10
1247.42
 20
436.194
 30
0.000000
  70
    32
  0
VERTEX
  8
AM_0
  5
185DC
 10
1247.74
 20
436.333
 30
0.000000
  70
    32
  0
VERTEX
  8
AM_0
  5
185DD
 10
1248.06
 20
436.457
 30
0.000000
  70
    32
  0
VERTEX
  8
AM_0
  5
185DE
 10
1248.38
 20
436.564
 30
0.000000
  70
    32
  0
VERTEX
  8
AM_0
  5
185DF
 10
1248.72
 20
436.656
 30
0.000000
  70
    32
  0
VERTEX
  8
AM_0
  5
185E0
 10
1249.05
 20
436.731
 30
0.000000
  70
    32
  0
VERTEX
  8
AM_0
  5
185E1
 10
1249.39
 20
436.790
 30
0.000000
  70
    32
  0
VERTEX
  8
AM_0
  5
185E2
 10
1249.73
 20
436.832
 30
0.000000
  70
    32
  0
VERTEX
  8
AM_0
  5
185E3
 10
1250.07
 20
436.857
 30
0.000000
  70
    32
  0
VERTEX
  8
AM_0
  5
185E4
 10
1250.42
 20
436.866
 30
0.000000
  70
    32
  0
VERTEX
  8
AM_0
  5
185E5
 10
1250.76
 20
436.857
 30
0.000000
  70
    32
  0
VERTEX
  8
AM_0
  5
185E6
 10
1251.10
 20
436.832
 30
0.000000
  70
    32
  0
VERTEX
  8
AM_0
  5
185E7
 10
1251.44
 20
436.790
 30
0.000000
  70
    32
  0
VERTEX
  8
AM_0
  5
185E8
 10
1251.78
 20
436.731
 30
0.000000
  70
    32
  0
VERTEX
  8
AM_0
  5
185E9
 10
1252.12
 20
436.656
 30
0.000000
  70
    32
  0
VERTEX
  8
AM_0
  5
185EA
 10
1252.45
 20
436.564
 30
0.000000
  70
    32
  0
VERTEX
  8
AM_0
  5
185EB
 10
1252.77
 20
436.457
 30
0.000000
  70
    32
  0
VERTEX
  8
AM_0
  5
185EC
 10
1253.10
 20
436.333
 30
0.000000
  70
    32
  0
VERTEX
  8
AM_0
  5
185ED
 10
1253.41
 20
436.194
 30
0.000000
  70
    32
  0
VERTEX
  8
AM_0
  5
185EE
 10
1253.72
 20
436.039
 30
0.000000
  70
    32
  0
VERTEX
  8
AM_0
  5
185EF
 10
1254.02
 20
435.870
 30
0.000000
  70
    32
  0
VERTEX
  8
AM_0
  5
185F0
 10
1254.31
 20
435.686
 30
0.000000
  70
    32
  0
VERTEX
  8
AM_0
  5
185F1
 10
1254.59
 20
435.488
 30
0.000000
  70
    32
  0
VERTEX
  8
AM_0
  5
185F2
 10
1254.86
 20
435.277
 30
0.000000
  70
    32
  0
VERTEX
  8
AM_0
  5
185F3
 10
1255.12
 20
435.053
 30
0.000000
  70
    32
  0
VERTEX
  8
AM_0
  5
185F4
 10
1255.37
 20
434.816
 30
0.000000
  70
    32
  0
VERTEX
  8
AM_0
  5
185F5
 10
1255.60
 20
434.567
 30
0.000000
  70
    32
  0
VERTEX
  8
AM_0
  5
185F6
 10
1255.83
 20
434.307
 30
0.000000
  70
    32
  0
VERTEX
  8
AM_0
  5
185F7
 10
1256.04
 20
434.036
 30
0.000000
  70
    32
  0
VERTEX
  8
AM_0
  5
185F8
 10
1256.24
 20
433.755
 30
0.000000
  70
    32
  0
VERTEX
  8
AM_0
  5
185F9
 10
1256.42
 20
433.465
 30
0.000000
  70
    32
  0
VERTEX
  8
AM_0
  5
185FA
 10
1256.59
 20
433.166
 30
0.000000
  70
    32
  0
VERTEX
  8
AM_0
  5
185FB
 10
1256.74
 20
432.859
 30
0.000000
  70
    32
  0
VERTEX
  8
AM_0
  5
185FC
 10
1256.88
 20
432.545
 30
0.000000
  70
    32
  0
VERTEX
  8
AM_0
  5
185FD
 10
1257.01
 20
432.224
 30
0.000000
  70
    32
  0
VERTEX
  8
AM_0
  5
185FE
 10
1257.12
 20
431.898
 30
0.000000
  70
    32
  0
VERTEX
  8
AM_0
  5
185FF
 10
1257.21
 20
431.567
 30
0.000000
  70
    32
  0
VERTEX
  8
AM_0
  5
18600
 10
1257.28
 20
431.231
 30
0.000000
  70
    32
  0
VERTEX
  8
AM_0
  5
18601
 10
1257.34
 20
430.893
 30
0.000000
  70
    32
  0
VERTEX
  8
AM_0
  5
18602
 10
1257.38
 20
430.552
 30
0.000000
  70
    32
  0
VERTEX
  8
AM_0
  5
18603
 10
1257.41
 20
430.209
 30
0.000000
  70
    32
  0
VERTEX
  8
AM_0
  5
18604
 10
1257.42
 20
429.866
 30
0.000000
  70
    32
  0
VERTEX
  8
AM_0
  5
18605
 10
1257.41
 20
429.522
 30
0.000000
  70
    32
  0
VERTEX
  8
AM_0
  5
18606
 10
1257.38
 20
429.180
 30
0.000000
  70
    32
  0
VERTEX
  8
AM_0
  5
18607
 10
1257.34
 20
428.839
 30
0.000000
  70
    32
  0
VERTEX
  8
AM_0
  5
18608
 10
1257.28
 20
428.500
 30
0.000000
  70
    32
  0
VERTEX
  8
AM_0
  5
18609
 10
1257.21
 20
428.165
 30
0.000000
  70
    32
  0
VERTEX
  8
AM_0
  5
1860A
 10
1257.12
 20
427.834
 30
0.000000
  70
    32
  0
VERTEX
  8
AM_0
  5
1860B
 10
1257.01
 20
427.507
 30
0.000000
  70
    32
  0
VERTEX
  8
AM_0
  5
1860C
 10
1256.88
 20
427.187
 30
0.000000
  70
    32
  0
VERTEX
  8
AM_0
  5
1860D
 10
1256.74
 20
426.873
 30
0.000000
  70
    32
  0
VERTEX
  8
AM_0
  5
1860E
 10
1256.59
 20
426.566
 30
0.000000
  70
    32
  0
VERTEX
  8
AM_0
  5
1860F
 10
1256.42
 20
426.267
 30
0.000000
  70
    32
  0
VERTEX
  8
AM_0
  5
18610
 10
1256.24
 20
425.977
 30
0.000000
  70
    32
  0
VERTEX
  8
AM_0
  5
18611
 10
1256.04
 20
425.696
 30
0.000000
  70
    32
  0
VERTEX
  8
AM_0
  5
18612
 10
1255.83
 20
425.425
 30
0.000000
  70
    32
  0
VERTEX
  8
AM_0
  5
18613
 10
1255.60
 20
425.165
 30
0.000000
  70
    32
  0
VERTEX
  8
AM_0
  5
18614
 10
1255.37
 20
424.916
 30
0.000000
  70
    32
  0
VERTEX
  8
AM_0
  5
18615
 10
1255.12
 20
424.679
 30
0.000000
  70
    32
  0
VERTEX
  8
AM_0
  5
18616
 10
1254.86
 20
424.455
 30
0.000000
  70
    32
  0
VERTEX
  8
AM_0
  5
18617
 10
1254.59
 20
424.243
 30
0.000000
  70
    32
  0
VERTEX
  8
AM_0
  5
18618
 10
1254.31
 20
424.045
 30
0.000000
  70
    32
  0
VERTEX
  8
AM_0
  5
18619
 10
1254.02
 20
423.862
 30
0.000000
  70
    32
  0
VERTEX
  8
AM_0
  5
1861A
 10
1253.72
 20
423.692
 30
0.000000
  70
    32
  0
VERTEX
  8
AM_0
  5
1861B
 10
1253.41
 20
423.538
 30
0.000000
  70
    32
  0
VERTEX
  8
AM_0
  5
1861C
 10
1253.10
 20
423.398
 30
0.000000
  70
    32
  0
VERTEX
  8
AM_0
  5
1861D
 10
1252.77
 20
423.275
 30
0.000000
  70
    32
  0
VERTEX
  8
AM_0
  5
1861E
 10
1252.45
 20
423.167
 30
0.000000
  70
    32
  0
VERTEX
  8
AM_0
  5
1861F
 10
1252.12
 20
423.075
 30
0.000000
  70
    32
  0
VERTEX
  8
AM_0
  5
18620
 10
1251.78
 20
423.000
 30
0.000000
  70
    32
  0
VERTEX
  8
AM_0
  5
18621
 10
1251.44
 20
422.941
 30
0.000000
  70
    32
  0
VERTEX
  8
AM_0
  5
18622
 10
1251.10
 20
422.899
 30
0.000000
  70
    32
  0
VERTEX
  8
AM_0
  5
18623
 10
1250.76
 20
422.874
 30
0.000000
  70
    32
  0
VERTEX
  8
AM_0
  5
18624
 10
1250.42
 20
422.866
 30
0.000000
  70
    32
  0
VERTEX
  8
AM_0
  5
18625
 10
1250.07
 20
422.874
 30
0.000000
  70
    32
  0
VERTEX
  8
AM_0
  5
18626
 10
1249.73
 20
422.899
 30
0.000000
  70
    32
  0
VERTEX
  8
AM_0
  5
18627
 10
1249.39
 20
422.941
 30
0.000000
  70
    32
  0
VERTEX
  8
AM_0
  5
18628
 10
1249.05
 20
423.000
 30
0.000000
  70
    32
  0
VERTEX
  8
AM_0
  5
18629
 10
1248.72
 20
423.075
 30
0.000000
  70
    32
  0
VERTEX
  8
AM_0
  5
1862A
 10
1248.38
 20
423.167
 30
0.000000
  70
    32
  0
VERTEX
  8
AM_0
  5
1862B
 10
1248.06
 20
423.275
 30
0.000000
  70
    32
  0
VERTEX
  8
AM_0
  5
1862C
 10
1247.74
 20
423.398
 30
0.000000
  70
    32
  0
VERTEX
  8
AM_0
  5
1862D
 10
1247.42
 20
423.538
 30
0.000000
  70
    32
  0
VERTEX
  8
AM_0
  5
1862E
 10
1247.12
 20
423.692
 30
0.000000
  70
    32
  0
VERTEX
  8
AM_0
  5
1862F
 10
1246.82
 20
423.862
 30
0.000000
  70
    32
  0
VERTEX
  8
AM_0
  5
18630
 10
1246.53
 20
424.045
 30
0.000000
  70
    32
  0
VERTEX
  8
AM_0
  5
18631
 10
1246.25
 20
424.243
 30
0.000000
  70
    32
  0
VERTEX
  8
AM_0
  5
18632
 10
1245.98
 20
424.455
 30
0.000000
  70
    32
  0
VERTEX
  8
AM_0
  5
18633
 10
1245.72
 20
424.679
 30
0.000000
  70
    32
  0
VERTEX
  8
AM_0
  5
18634
 10
1245.47
 20
424.916
 30
0.000000
  70
    32
  0
VERTEX
  8
AM_0
  5
18635
 10
1245.23
 20
425.165
 30
0.000000
  70
    32
  0
VERTEX
  8
AM_0
  5
18636
 10
1245.01
 20
425.425
 30
0.000000
  70
    32
  0
VERTEX
  8
AM_0
  5
18637
 10
1244.79
 20
425.696
 30
0.000000
  70
    32
  0
VERTEX
  8
AM_0
  5
18638
 10
1244.60
 20
425.977
 30
0.000000
  70
    32
  0
VERTEX
  8
AM_0
  5
18639
 10
1244.41
 20
426.267
 30
0.000000
  70
    32
  0
VERTEX
  8
AM_0
  5
1863A
 10
1244.24
 20
426.566
 30
0.000000
  70
    32
  0
VERTEX
  8
AM_0
  5
1863B
 10
1244.09
 20
426.873
 30
0.000000
  70
    32
  0
VERTEX
  8
AM_0
  5
1863C
 10
1243.95
 20
427.187
 30
0.000000
  70
    32
  0
VERTEX
  8
AM_0
  5
1863D
 10
1243.83
 20
427.507
 30
0.000000
  70
    32
  0
VERTEX
  8
AM_0
  5
1863E
 10
1243.72
 20
427.834
 30
0.000000
  70
    32
  0
VERTEX
  8
AM_0
  5
1863F
 10
1243.63
 20
428.165
 30
0.000000
  70
    32
  0
VERTEX
  8
AM_0
  5
18640
 10
1243.55
 20
428.500
 30
0.000000
  70
    32
  0
VERTEX
  8
AM_0
  5
18641
 10
1243.49
 20
428.839
 30
0.000000
  70
    32
  0
VERTEX
  8
AM_0
  5
18642
 10
1243.45
 20
429.180
 30
0.000000
  70
    32
  0
VERTEX
  8
AM_0
  5
18643
 10
1243.42
 20
429.522
 30
0.000000
  70
    32
  0
VERTEX
  8
AM_0
  5
18644
 10
1243.42
 20
429.866
 30
0.000000
  70
    32
  0
SEQEND
  8
AM_0
  5
18645
  0
POLYLINE
  5
17853
  8
AM_0
 10
1250.416509122075
 20
444.86605994055998
 30
0.0
 66
     1
 70
     8
  0
VERTEX
  8
AM_0
  5
18646
 10
1250.42
 20
444.866
 30
0.000000
  70
    32
  0
VERTEX
  8
AM_0
  5
18647
 10
1250.60
 20
444.865
 30
0.000000
  70
    32
  0
VERTEX
  8
AM_0
  5
18648
 10
1250.78
 20
444.862
 30
0.000000
  70
    32
  0
VERTEX
  8
AM_0
  5
18649
 10
1250.97
 20
444.856
 30
0.000000
  70
    32
  0
VERTEX
  8
AM_0
  5
1864A
 10
1251.15
 20
444.848
 30
0.000000
  70
    32
  0
VERTEX
  8
AM_0
  5
1864B
 10
1251.34
 20
444.838
 30
0.000000
  70
    32
  0
VERTEX
  8
AM_0
  5
1864C
 10
1251.52
 20
444.825
 30
0.000000
  70
    32
  0
VERTEX
  8
AM_0
  5
1864D
 10
1251.70
 20
444.811
 30
0.000000
  70
    32
  0
VERTEX
  8
AM_0
  5
1864E
 10
1251.89
 20
444.794
 30
0.000000
  70
    32
  0
VERTEX
  8
AM_0
  5
1864F
 10
1252.07
 20
444.775
 30
0.000000
  70
    32
  0
VERTEX
  8
AM_0
  5
18650
 10
1252.25
 20
444.753
 30
0.000000
  70
    32
  0
VERTEX
  8
AM_0
  5
18651
 10
1252.44
 20
444.730
 30
0.000000
  70
    32
  0
VERTEX
  8
AM_0
  5
18652
 10
1252.62
 20
444.704
 30
0.000000
  70
    32
  0
VERTEX
  8
AM_0
  5
18653
 10
1252.80
 20
444.676
 30
0.000000
  70
    32
  0
VERTEX
  8
AM_0
  5
18654
 10
1252.98
 20
444.645
 30
0.000000
  70
    32
  0
VERTEX
  8
AM_0
  5
18655
 10
1253.16
 20
444.613
 30
0.000000
  70
    32
  0
VERTEX
  8
AM_0
  5
18656
 10
1253.34
 20
444.578
 30
0.000000
  70
    32
  0
VERTEX
  8
AM_0
  5
18657
 10
1253.52
 20
444.541
 30
0.000000
  70
    32
  0
VERTEX
  8
AM_0
  5
18658
 10
1253.70
 20
444.502
 30
0.000000
  70
    32
  0
VERTEX
  8
AM_0
  5
18659
 10
1253.88
 20
444.460
 30
0.000000
  70
    32
  0
VERTEX
  8
AM_0
  5
1865A
 10
1254.06
 20
444.417
 30
0.000000
  70
    32
  0
VERTEX
  8
AM_0
  5
1865B
 10
1254.24
 20
444.371
 30
0.000000
  70
    32
  0
VERTEX
  8
AM_0
  5
1865C
 10
1254.42
 20
444.323
 30
0.000000
  70
    32
  0
VERTEX
  8
AM_0
  5
1865D
 10
1254.59
 20
444.273
 30
0.000000
  70
    32
  0
VERTEX
  8
AM_0
  5
1865E
 10
1254.77
 20
444.220
 30
0.000000
  70
    32
  0
VERTEX
  8
AM_0
  5
1865F
 10
1254.95
 20
444.166
 30
0.000000
  70
    32
  0
VERTEX
  8
AM_0
  5
18660
 10
1255.12
 20
444.109
 30
0.000000
  70
    32
  0
VERTEX
  8
AM_0
  5
18661
 10
1255.30
 20
444.050
 30
0.000000
  70
    32
  0
VERTEX
  8
AM_0
  5
18662
 10
1255.47
 20
443.989
 30
0.000000
  70
    32
  0
VERTEX
  8
AM_0
  5
18663
 10
1255.64
 20
443.926
 30
0.000000
  70
    32
  0
VERTEX
  8
AM_0
  5
18664
 10
1255.81
 20
443.861
 30
0.000000
  70
    32
  0
VERTEX
  8
AM_0
  5
18665
 10
1255.99
 20
443.794
 30
0.000000
  70
    32
  0
VERTEX
  8
AM_0
  5
18666
 10
1256.16
 20
443.724
 30
0.000000
  70
    32
  0
VERTEX
  8
AM_0
  5
18667
 10
1256.33
 20
443.653
 30
0.000000
  70
    32
  0
VERTEX
  8
AM_0
  5
18668
 10
1256.50
 20
443.579
 30
0.000000
  70
    32
  0
VERTEX
  8
AM_0
  5
18669
 10
1256.66
 20
443.504
 30
0.000000
  70
    32
  0
VERTEX
  8
AM_0
  5
1866A
 10
1256.83
 20
443.426
 30
0.000000
  70
    32
  0
VERTEX
  8
AM_0
  5
1866B
 10
1257.00
 20
443.346
 30
0.000000
  70
    32
  0
VERTEX
  8
AM_0
  5
1866C
 10
1257.16
 20
443.264
 30
0.000000
  70
    32
  0
VERTEX
  8
AM_0
  5
1866D
 10
1257.32
 20
443.181
 30
0.000000
  70
    32
  0
VERTEX
  8
AM_0
  5
1866E
 10
1257.49
 20
443.095
 30
0.000000
  70
    32
  0
VERTEX
  8
AM_0
  5
1866F
 10
1257.65
 20
443.007
 30
0.000000
  70
    32
  0
VERTEX
  8
AM_0
  5
18670
 10
1257.81
 20
442.917
 30
0.000000
  70
    32
  0
VERTEX
  8
AM_0
  5
18671
 10
1257.97
 20
442.826
 30
0.000000
  70
    32
  0
VERTEX
  8
AM_0
  5
18672
 10
1258.13
 20
442.732
 30
0.000000
  70
    32
  0
VERTEX
  8
AM_0
  5
18673
 10
1258.29
 20
442.636
 30
0.000000
  70
    32
  0
VERTEX
  8
AM_0
  5
18674
 10
1258.44
 20
442.539
 30
0.000000
  70
    32
  0
VERTEX
  8
AM_0
  5
18675
 10
1258.60
 20
442.439
 30
0.000000
  70
    32
  0
VERTEX
  8
AM_0
  5
18676
 10
1258.75
 20
442.338
 30
0.000000
  70
    32
  0
VERTEX
  8
AM_0
  5
18677
 10
1258.90
 20
442.235
 30
0.000000
  70
    32
  0
VERTEX
  8
AM_0
  5
18678
 10
1259.05
 20
442.130
 30
0.000000
  70
    32
  0
VERTEX
  8
AM_0
  5
18679
 10
1259.20
 20
442.023
 30
0.000000
  70
    32
  0
VERTEX
  8
AM_0
  5
1867A
 10
1259.35
 20
441.914
 30
0.000000
  70
    32
  0
VERTEX
  8
AM_0
  5
1867B
 10
1259.50
 20
441.804
 30
0.000000
  70
    32
  0
VERTEX
  8
AM_0
  5
1867C
 10
1259.64
 20
441.691
 30
0.000000
  70
    32
  0
VERTEX
  8
AM_0
  5
1867D
 10
1259.79
 20
441.577
 30
0.000000
  70
    32
  0
VERTEX
  8
AM_0
  5
1867E
 10
1259.93
 20
441.461
 30
0.000000
  70
    32
  0
VERTEX
  8
AM_0
  5
1867F
 10
1260.07
 20
441.343
 30
0.000000
  70
    32
  0
VERTEX
  8
AM_0
  5
18680
 10
1260.21
 20
441.224
 30
0.000000
  70
    32
  0
VERTEX
  8
AM_0
  5
18681
 10
1260.35
 20
441.103
 30
0.000000
  70
    32
  0
VERTEX
  8
AM_0
  5
18682
 10
1260.49
 20
440.980
 30
0.000000
  70
    32
  0
VERTEX
  8
AM_0
  5
18683
 10
1260.63
 20
440.856
 30
0.000000
  70
    32
  0
VERTEX
  8
AM_0
  5
18684
 10
1260.76
 20
440.730
 30
0.000000
  70
    32
  0
VERTEX
  8
AM_0
  5
18685
 10
1260.89
 20
440.602
 30
0.000000
  70
    32
  0
VERTEX
  8
AM_0
  5
18686
 10
1261.02
 20
440.473
 30
0.000000
  70
    32
  0
VERTEX
  8
AM_0
  5
18687
 10
1261.15
 20
440.342
 30
0.000000
  70
    32
  0
VERTEX
  8
AM_0
  5
18688
 10
1261.28
 20
440.209
 30
0.000000
  70
    32
  0
VERTEX
  8
AM_0
  5
18689
 10
1261.41
 20
440.075
 30
0.000000
  70
    32
  0
VERTEX
  8
AM_0
  5
1868A
 10
1261.53
 20
439.939
 30
0.000000
  70
    32
  0
VERTEX
  8
AM_0
  5
1868B
 10
1261.65
 20
439.802
 30
0.000000
  70
    32
  0
VERTEX
  8
AM_0
  5
1868C
 10
1261.77
 20
439.664
 30
0.000000
  70
    32
  0
VERTEX
  8
AM_0
  5
1868D
 10
1261.89
 20
439.523
 30
0.000000
  70
    32
  0
VERTEX
  8
AM_0
  5
1868E
 10
1262.01
 20
439.382
 30
0.000000
  70
    32
  0
VERTEX
  8
AM_0
  5
1868F
 10
1262.13
 20
439.239
 30
0.000000
  70
    32
  0
VERTEX
  8
AM_0
  5
18690
 10
1262.24
 20
439.094
 30
0.000000
  70
    32
  0
VERTEX
  8
AM_0
  5
18691
 10
1262.35
 20
438.949
 30
0.000000
  70
    32
  0
VERTEX
  8
AM_0
  5
18692
 10
1262.46
 20
438.801
 30
0.000000
  70
    32
  0
VERTEX
  8
AM_0
  5
18693
 10
1262.57
 20
438.653
 30
0.000000
  70
    32
  0
VERTEX
  8
AM_0
  5
18694
 10
1262.68
 20
438.503
 30
0.000000
  70
    32
  0
VERTEX
  8
AM_0
  5
18695
 10
1262.79
 20
438.352
 30
0.000000
  70
    32
  0
VERTEX
  8
AM_0
  5
18696
 10
1262.89
 20
438.199
 30
0.000000
  70
    32
  0
VERTEX
  8
AM_0
  5
18697
 10
1262.99
 20
438.046
 30
0.000000
  70
    32
  0
VERTEX
  8
AM_0
  5
18698
 10
1263.09
 20
437.891
 30
0.000000
  70
    32
  0
VERTEX
  8
AM_0
  5
18699
 10
1263.19
 20
437.735
 30
0.000000
  70
    32
  0
VERTEX
  8
AM_0
  5
1869A
 10
1263.28
 20
437.577
 30
0.000000
  70
    32
  0
VERTEX
  8
AM_0
  5
1869B
 10
1263.38
 20
437.419
 30
0.000000
  70
    32
  0
VERTEX
  8
AM_0
  5
1869C
 10
1263.47
 20
437.259
 30
0.000000
  70
    32
  0
VERTEX
  8
AM_0
  5
1869D
 10
1263.56
 20
437.099
 30
0.000000
  70
    32
  0
VERTEX
  8
AM_0
  5
1869E
 10
1263.65
 20
436.937
 30
0.000000
  70
    32
  0
VERTEX
  8
AM_0
  5
1869F
 10
1263.73
 20
436.774
 30
0.000000
  70
    32
  0
VERTEX
  8
AM_0
  5
186A0
 10
1263.81
 20
436.610
 30
0.000000
  70
    32
  0
VERTEX
  8
AM_0
  5
186A1
 10
1263.90
 20
436.445
 30
0.000000
  70
    32
  0
VERTEX
  8
AM_0
  5
186A2
 10
1263.98
 20
436.279
 30
0.000000
  70
    32
  0
VERTEX
  8
AM_0
  5
186A3
 10
1264.05
 20
436.112
 30
0.000000
  70
    32
  0
VERTEX
  8
AM_0
  5
186A4
 10
1264.13
 20
435.944
 30
0.000000
  70
    32
  0
VERTEX
  8
AM_0
  5
186A5
 10
1264.20
 20
435.776
 30
0.000000
  70
    32
  0
VERTEX
  8
AM_0
  5
186A6
 10
1264.27
 20
435.606
 30
0.000000
  70
    32
  0
VERTEX
  8
AM_0
  5
186A7
 10
1264.34
 20
435.436
 30
0.000000
  70
    32
  0
VERTEX
  8
AM_0
  5
186A8
 10
1264.41
 20
435.264
 30
0.000000
  70
    32
  0
VERTEX
  8
AM_0
  5
186A9
 10
1264.48
 20
435.092
 30
0.000000
  70
    32
  0
VERTEX
  8
AM_0
  5
186AA
 10
1264.54
 20
434.919
 30
0.000000
  70
    32
  0
VERTEX
  8
AM_0
  5
186AB
 10
1264.60
 20
434.746
 30
0.000000
  70
    32
  0
VERTEX
  8
AM_0
  5
186AC
 10
1264.66
 20
434.571
 30
0.000000
  70
    32
  0
VERTEX
  8
AM_0
  5
186AD
 10
1264.72
 20
434.396
 30
0.000000
  70
    32
  0
VERTEX
  8
AM_0
  5
186AE
 10
1264.77
 20
434.220
 30
0.000000
  70
    32
  0
VERTEX
  8
AM_0
  5
186AF
 10
1264.82
 20
434.044
 30
0.000000
  70
    32
  0
VERTEX
  8
AM_0
  5
186B0
 10
1264.87
 20
433.867
 30
0.000000
  70
    32
  0
VERTEX
  8
AM_0
  5
186B1
 10
1264.92
 20
433.689
 30
0.000000
  70
    32
  0
VERTEX
  8
AM_0
  5
186B2
 10
1264.97
 20
433.511
 30
0.000000
  70
    32
  0
VERTEX
  8
AM_0
  5
186B3
 10
1265.01
 20
433.332
 30
0.000000
  70
    32
  0
VERTEX
  8
AM_0
  5
186B4
 10
1265.05
 20
433.152
 30
0.000000
  70
    32
  0
VERTEX
  8
AM_0
  5
186B5
 10
1265.09
 20
432.972
 30
0.000000
  70
    32
  0
VERTEX
  8
AM_0
  5
186B6
 10
1265.13
 20
432.792
 30
0.000000
  70
    32
  0
VERTEX
  8
AM_0
  5
186B7
 10
1265.16
 20
432.611
 30
0.000000
  70
    32
  0
VERTEX
  8
AM_0
  5
186B8
 10
1265.20
 20
432.430
 30
0.000000
  70
    32
  0
VERTEX
  8
AM_0
  5
186B9
 10
1265.23
 20
432.249
 30
0.000000
  70
    32
  0
VERTEX
  8
AM_0
  5
186BA
 10
1265.25
 20
432.067
 30
0.000000
  70
    32
  0
VERTEX
  8
AM_0
  5
186BB
 10
1265.28
 20
431.885
 30
0.000000
  70
    32
  0
VERTEX
  8
AM_0
  5
186BC
 10
1265.30
 20
431.702
 30
0.000000
  70
    32
  0
VERTEX
  8
AM_0
  5
186BD
 10
1265.33
 20
431.519
 30
0.000000
  70
    32
  0
VERTEX
  8
AM_0
  5
186BE
 10
1265.34
 20
431.336
 30
0.000000
  70
    32
  0
VERTEX
  8
AM_0
  5
186BF
 10
1265.36
 20
431.153
 30
0.000000
  70
    32
  0
VERTEX
  8
AM_0
  5
186C0
 10
1265.38
 20
430.969
 30
0.000000
  70
    32
  0
VERTEX
  8
AM_0
  5
186C1
 10
1265.39
 20
430.786
 30
0.000000
  70
    32
  0
VERTEX
  8
AM_0
  5
186C2
 10
1265.40
 20
430.602
 30
0.000000
  70
    32
  0
VERTEX
  8
AM_0
  5
186C3
 10
1265.41
 20
430.418
 30
0.000000
  70
    32
  0
VERTEX
  8
AM_0
  5
186C4
 10
1265.41
 20
430.234
 30
0.000000
  70
    32
  0
VERTEX
  8
AM_0
  5
186C5
 10
1265.42
 20
430.050
 30
0.000000
  70
    32
  0
VERTEX
  8
AM_0
  5
186C6
 10
1265.42
 20
429.866
 30
0.000000
  70
    32
  0
SEQEND
  8
AM_0
  5
186C7
  0
LINE
  5
17855
  8
AM_0
 10
1278.4165088817999
 20
408.36408702074442
 30
0.0
 11
1268.4165088815989
 21
408.36408702074419
 31
0.0
  0
LINE
  5
17856
  8
AM_0
 10
1292.4165088820789
 20
398.90408702055498
 30
0.0
 11
1282.4165088818791
 21
398.90408702055498
 31
0.0
  0
LINE
  5
17857
  8
AM_0
 10
1292.4165088820789
 20
410.86408702079422
 30
0.0
 11
1283.2899060543009
 21
410.86408702079422
 31
0.0
  0
LINE
  5
17858
  8
AM_0
 10
1292.4165088820789
 20
410.864127020794
 30
0.0
 11
1292.4165088820789
 21
406.86412702071402
 31
0.0
  0
ARC
  5
17859
  8
AM_0
 10
1283.2899060543009
 20
407.86408702073402
 30
0.0
 40
3.00000000006
 50
90.0
 51
144.3146652873518
1001
GENIUS_GENOBJ-N-FIL_13
1002
{
1000
OWNER
1000
GEN
1002
}
1001
GENIUS_GENODEF_13
1002
{
1000
HIER
1070
     0
1002
}
1002
{
1000
MANEDIT
1070
     0
1002
}
1002
{
1000
NOSEL
1070
     0
1002
}
1002
{
1000
BEHIND
1070
     0
1002
}
1002
{
1000
OTHER
1070
     0
1002
}
1002
{
1000
REACTOR
1002
}
  0
ARC
  5
1785A
  8
AM_0
 10
1278.4165088817999
 20
411.36408702080422
 30
0.0
 40
3.00000000006
 50
270.0
 51
324.31466528735177
1001
GENIUS_GENOBJ-N-FIL_13
1002
{
1000
OWNER
1000
GEN
1002
}
1001
GENIUS_GENODEF_13
1002
{
1000
HIER
1070
     0
1002
}
1002
{
1000
MANEDIT
1070
     0
1002
}
1002
{
1000
NOSEL
1070
     0
1002
}
1002
{
1000
BEHIND
1070
     0
1002
}
1002
{
1000
OTHER
1070
     0
1002
}
1002
{
1000
REACTOR
1002
}
  0
LINE
  5
1785B
  8
AM_0
 10
1269.8449745279399
 20
395.59281565858282
 30
0.0
 11
1266.4165088815589
 21
395.59281565858282
 31
0.0
  0
ARC
  5
1785C
  8
AM_0
 10
1269.8449745279399
 20
392.59281565852262
 30
0.0
 40
3.00000000006
 50
6.6607143203241188
 51
90.0
1001
GENIUS_GENODEF_13
1002
{
1000
HIER
1070
     0
1002
}
1002
{
1000
MANEDIT
1070
     0
1002
}
1002
{
1000
NOSEL
1070
     0
1002
}
1002
{
1000
BEHIND
1070
     0
1002
}
1002
{
1000
OTHER
1070
     0
1002
}
1002
{
1000
REACTOR
1002
}
1001
GENIUS_GENOBJ-N-FIL_13
1002
{
1000
OWNER
1000
GEN
1002
}
  0
ARC
  5
1785F
  8
AM_0
 10
1268.4165088815989
 20
411.36408702080422
 30
0.0
 40
3.00000000006
 50
180.0
 51
270.0
1001
GENIUS_GENODEF_13
1002
{
1000
HIER
1070
     0
1002
}
1002
{
1000
MANEDIT
1070
     0
1002
}
1002
{
1000
NOSEL
1070
     0
1002
}
1002
{
1000
BEHIND
1070
     0
1002
}
1002
{
1000
OTHER
1070
     0
1002
}
1002
{
1000
REACTOR
1002
}
1001
GENIUS_GENOBJ-N-FIL_13
1002
{
1000
OWNER
1000
GEN
1002
}
  0
LINE
  5
1786B
  8
AM_0
 10
1250.416508466405
 20
444.86605994055998
 30
0.0
 11
1075.416533716078
 21
444.86605994055998
 31
0.0
  0
LINE
  5
17881
  8
AM_0
 10
1060.4165332645421
 20
429.86575949351612
 30
0.0
 11
1060.4165332645421
 21
264.86445755632639
 31
0.0
  0
LINE
  5
17882
  8
ｶｸﾚｾﾝ2
 10
1073.4165332645421
 20
270.86445755632718
 30
0.0
 11
1073.416533264543
 21
264.8644575563261
 31
0.0
  0
ARC
  5
17885
  8
AM_0
 10
1070.416533264543
 20
304.86345636420981
 30
0.0
 40
10.0
 50
90.0
 51
180.0
1001
GENIUS_GENOBJ-N-FIL_13
1002
{
1000
OWNER
1000
GEN
1002
}
1001
GENIUS_GENODEF_13
1002
{
1000
HIER
1070
     0
1002
}
1002
{
1000
MANEDIT
1070
     0
1002
}
1002
{
1000
NOSEL
1070
     0
1002
}
1002
{
1000
BEHIND
1070
     0
1002
}
1002
{
1000
OTHER
1070
     0
1002
}
1002
{
1000
REACTOR
1002
}
  0
ARC
  5
1789D
  8
AM_0
 10
1440.7401026150289
 20
654.92235659163316
 30
0.0
 40
1.6800002000336001
 50
270.0
 51
89.999997000002296
  0
ARC
  5
1789E
  8
AM_0
 10
1438.2365326149791
 20
648.37075659150219
 30
0.0
 40
4.9987221000999753
 50
99.400058999994712
 51
174.58643649999621
  0
ARC
  5
1789F
  8
AM_0
 10
1303.606222612286
 20
654.91234659163274
 30
0.0
 40
1.680011000033599
 50
90.208030999999565
 51
269.79197000000192
  0
LINE
  5
178A0
  8
AM_0
 10
1447.4201226151631
 20
632.54235659118547
 30
0.0
 11
1447.4201226151631
 21
747.39235659348253
 31
0.0
  0
LINE
  5
178A1
  8
AM_0
 10
1301.4201226122429
 20
750.46233659354414
 30
0.0
 11
1301.4201228684899
 21
626.96233629076619
 31
0.0
  0
LINE
  5
178A2
  8
AM_0
 10
1453.4201226152829
 20
641.94274659137363
 30
0.0
 11
1453.4201226152829
 21
684.96233659223401
 31
0.0
  0
ARC
  5
178A3
  8
AM_0
 10
1423.420122614682
 20
654.96233659163408
 30
0.0
 40
1.0000007000199991
 50
270.0
 51
89.999997000002296
  0
ARC
  5
178A4
  8
AM_0
 10
1423.420122614682
 20
664.96233659183406
 30
0.0
 40
1.0000007000199991
 50
270.0
 51
89.999997000002296
  0
LINE
  5
178A5
  8
AM_0
 10
1439.860110134111
 20
655.9623365505679
 30
0.0
 11
1367.4201226135631
 21
655.96233655056778
 31
0.0
  0
LINE
  5
178A6
  8
AM_0
 10
1440.7501126150289
 20
656.59233659166659
 30
0.0
 11
1367.4201226135631
 21
656.59233659166659
 31
0.0
  0
LINE
  5
178A7
  8
AM_0
 10
1367.4201226135631
 20
653.96233659161385
 30
0.0
 11
1439.870102615012
 21
653.96233659161385
 31
0.0
  0
LINE
  5
178A8
  8
AM_0
 10
1338.9201226129931
 20
663.96233659181394
 30
0.0
 11
1439.870102615012
 21
663.96233659181394
 31
0.0
  0
LINE
  5
178A9
  8
AM_0
 10
1440.960102615034
 20
663.47234659180424
 30
0.0
 11
1338.059954141163
 21
663.47234659180424
 31
0.0
  0
LINE
  5
178AA
  8
AM_0
 10
1304.4953365257791
 20
665.96233659185373
 30
0.0
 11
1439.870102615012
 21
665.96233659185373
 31
0.0
  0
LINE
  5
178AB
  8
AM_0
 10
1440.960102615034
 20
666.39235659186272
 30
0.0
 11
1303.57536646373
 21
666.39235659186272
 31
0.0
  0
ARC
  5
178AC
  8
AM_0
 10
1423.420122614682
 20
674.96233659203381
 30
0.0
 40
1.0000007000199991
 50
270.0
 51
89.999997000002296
  0
ARC
  5
178AD
  8
AM_0
 10
1423.420122614682
 20
684.96233659223401
 30
0.0
 40
1.0000007000199991
 50
270.0
 51
89.999997000002296
  0
ARC
  5
178AE
  8
AM_0
 10
1423.420122614682
 20
694.9623365924341
 30
0.0
 40
1.0000032000200001
 50
270.0
 51
89.999997000002296
  0
ARC
  5
178AF
  8
AM_0
 10
1423.420122614682
 20
704.96233659263419
 30
0.0
 40
1.0000032000200001
 50
270.0
 51
89.999997000002296
  0
ARC
  5
178B0
  8
AM_0
 10
1423.420122614682
 20
724.96233659303391
 30
0.0
 40
1.0000032000200001
 50
270.0
 51
89.999997000002296
  0
ARC
  5
178B1
  8
AM_0
 10
1423.420122614682
 20
714.96233659283405
 30
0.0
 40
1.0000032000200001
 50
270.0
 51
89.999997000002296
  0
ARC
  5
178B2
  8
AM_0
 10
1422.423722614662
 20
749.82595659353126
 30
0.0
 40
1.9963853000399261
 50
359.89615999999739
 51
90.103836999993476
  0
ARC
  5
178B3
  8
AM_0
 10
1422.4176226146631
 20
753.88750659361222
 30
0.0
 40
1.9948452000398971
 50
14.36280000000006
 51
89.928341999995595
  0
ARC
  5
178B4
  8
AM_0
 10
1422.425552614663
 20
753.20778659359894
 30
0.0
 40
1.9945769000398901
 50
359.84401000000378
 51
90.155991999999998
  0
ARC
  5
178B5
  8
AM_0
 10
1422.4229026146629
 20
751.85512659357175
 30
0.0
 40
1.9972084000399439
 50
359.91986000000099
 51
90.080142999999538
  0
LINE
  5
178B6
  8
AM_0
 10
1400.4201226142229
 20
736.31234659326083
 30
0.0
 11
1437.420122614963
 21
734.16634475378805
 31
0.0
  0
LINE
  5
178B7
  8
AM_0
 10
1441.0901126150361
 20
676.27233659206024
 30
0.0
 11
1368.6900959438731
 21
676.27233659206024
 31
0.0
  0
LINE
  5
178B8
  8
AM_0
 10
1369.9800904191679
 20
675.96233659205393
 30
0.0
 11
1439.870102615012
 21
675.96233659205393
 31
0.0
  0
LINE
  5
178B9
  8
AM_0
 10
1369.9800904191679
 20
673.9623365920138
 30
0.0
 11
1439.870102615012
 21
673.9623365920138
 31
0.0
  0
LINE
  5
178BA
  8
AM_0
 10
1441.0901126150361
 20
673.61235659200713
 30
0.0
 11
1368.6900959438731
 21
673.6123565920069
 31
0.0
  0
LINE
  5
178BB
  8
AM_0
 10
1431.7401026148491
 20
723.33232659300154
 30
0.0
 11
1367.4201226135619
 21
723.33232659300154
 31
0.0
  0
LINE
  5
178BC
  8
AM_0
 10
1367.4201226135619
 20
725.96233659305415
 30
0.0
 11
1430.8701026148319
 21
725.96233659305415
 31
0.0
  0
LINE
  5
178BD
  8
AM_0
 10
1367.4201226135619
 20
723.9623365930139
 30
0.0
 11
1430.8701026148319
 21
723.9623365930139
 31
0.0
  0
LINE
  5
178BE
  8
AM_0
 10
1431.7401026148491
 20
726.6823365930685
 30
0.0
 11
1367.4201226135619
 21
726.6823365930685
 31
0.0
  0
LINE
  5
178BF
  8
AM_0
 10
1369.9783626700009
 20
705.96233659265386
 30
0.0
 11
1439.860092615012
 21
705.96233659265397
 31
0.0
  0
LINE
  5
178C0
  8
AM_0
 10
1369.977439170234
 20
703.96233659261384
 30
0.0
 11
1439.860092615012
 21
703.96233659261384
 31
0.0
  0
LINE
  5
178C1
  8
AM_0
 10
1369.980093824604
 20
695.96233659245388
 30
0.0
 11
1439.860092615012
 21
695.96233659245411
 31
0.0
  0
LINE
  5
178C2
  8
AM_0
 10
1369.980093824606
 20
693.96233659241386
 30
0.0
 11
1439.860092615012
 21
693.96233659241386
 31
0.0
  0
LINE
  5
178C3
  8
AM_0
 10
1441.0901126150361
 20
706.30233659266071
 30
0.0
 11
1368.8849093460551
 21
706.30233659266071
 31
0.0
  0
LINE
  5
178C4
  8
AM_0
 10
1441.0901126150361
 20
703.64235659260748
 30
0.0
 11
1368.8849093460551
 21
703.64235659260748
 31
0.0
  0
LINE
  5
178C5
  8
AM_0
 10
1441.150102615037
 20
696.23235659245927
 30
0.0
 11
1368.8849093460551
 21
696.23235659245927
 31
0.0
  0
LINE
  5
178C6
  8
AM_0
 10
1441.150102615037
 20
693.70235659240871
 30
0.0
 11
1368.8849093460551
 21
693.70235659240871
 31
0.0
  0
LINE
  5
178C7
  8
AM_0
 10
1441.1601126150381
 20
686.22234659225921
 30
0.0
 11
1368.6900959438731
 21
686.22234659225921
 31
0.0
  0
LINE
  5
178C8
  8
AM_0
 10
1369.9800904191679
 20
685.96233659225402
 30
0.0
 11
1439.870102615012
 21
685.96233659225402
 31
0.0
  0
LINE
  5
178C9
  8
AM_0
 10
1369.9800904191679
 20
683.962336592214
 30
0.0
 11
1439.870102615012
 21
683.962336592214
 31
0.0
  0
LINE
  5
178CA
  8
AM_0
 10
1441.1601126150381
 20
683.68233659220823
 30
0.0
 11
1368.6900959438731
 21
683.68233659220823
 31
0.0
  0
LINE
  5
178CB
  8
AM_0
 10
1338.9091683261649
 20
715.96233659285394
 30
0.0
 11
1430.8701026148319
 21
715.96233659285394
 31
0.0
  0
LINE
  5
178CC
  8
AM_0
 10
1431.960102614853
 20
716.45235659286391
 30
0.0
 11
1338.05990078484
 21
716.45235659286379
 31
0.0
  0
LINE
  5
178CD
  8
AM_0
 10
1304.4953365257791
 20
713.96233659281404
 30
0.0
 11
1430.8701026148319
 21
713.96233659281404
 31
0.0
  0
LINE
  5
178CE
  8
AM_0
 10
1431.960102614853
 20
713.52233659280523
 30
0.0
 11
1303.4053365781169
 21
713.52233659280523
 31
0.0
  0
POLYLINE
  5
178CF
  8
AM_0
 10
1110.4165347766589
 20
364.8644575563265
 30
0.0
 66
     1
 70
     8
  0
VERTEX
  8
AM_0
  5
186C8
 10
1110.42
 20
364.864
 30
0.000000
  70
    32
  0
VERTEX
  8
AM_0
  5
186C9
 10
1110.45
 20
363.638
 30
0.000000
  70
    32
  0
VERTEX
  8
AM_0
  5
186CA
 10
1110.54
 20
362.414
 30
0.000000
  70
    32
  0
VERTEX
  8
AM_0
  5
186CB
 10
1110.69
 20
361.196
 30
0.000000
  70
    32
  0
VERTEX
  8
AM_0
  5
186CC
 10
1110.90
 20
359.987
 30
0.000000
  70
    32
  0
VERTEX
  8
AM_0
  5
186CD
 10
1111.17
 20
358.790
 30
0.000000
  70
    32
  0
VERTEX
  8
AM_0
  5
186CE
 10
1111.49
 20
357.607
 30
0.000000
  70
    32
  0
VERTEX
  8
AM_0
  5
186CF
 10
1111.88
 20
356.442
 30
0.000000
  70
    32
  0
VERTEX
  8
AM_0
  5
186D0
 10
1112.32
 20
355.297
 30
0.000000
  70
    32
  0
VERTEX
  8
AM_0
  5
186D1
 10
1112.82
 20
354.175
 30
0.000000
  70
    32
  0
VERTEX
  8
AM_0
  5
186D2
 10
1113.37
 20
353.079
 30
0.000000
  70
    32
  0
VERTEX
  8
AM_0
  5
186D3
 10
1113.97
 20
352.012
 30
0.000000
  70
    32
  0
VERTEX
  8
AM_0
  5
186D4
 10
1114.63
 20
350.975
 30
0.000000
  70
    32
  0
VERTEX
  8
AM_0
  5
186D5
 10
1115.34
 20
349.972
 30
0.000000
  70
    32
  0
VERTEX
  8
AM_0
  5
186D6
 10
1116.09
 20
349.004
 30
0.000000
  70
    32
  0
VERTEX
  8
AM_0
  5
186D7
 10
1116.89
 20
348.075
 30
0.000000
  70
    32
  0
VERTEX
  8
AM_0
  5
186D8
 10
1117.74
 20
347.186
 30
0.000000
  70
    32
  0
VERTEX
  8
AM_0
  5
186D9
 10
1118.63
 20
346.340
 30
0.000000
  70
    32
  0
VERTEX
  8
AM_0
  5
186DA
 10
1119.56
 20
345.539
 30
0.000000
  70
    32
  0
VERTEX
  8
AM_0
  5
186DB
 10
1120.52
 20
344.784
 30
0.000000
  70
    32
  0
VERTEX
  8
AM_0
  5
186DC
 10
1121.53
 20
344.077
 30
0.000000
  70
    32
  0
VERTEX
  8
AM_0
  5
186DD
 10
1122.56
 20
343.421
 30
0.000000
  70
    32
  0
VERTEX
  8
AM_0
  5
186DE
 10
1123.63
 20
342.816
 30
0.000000
  70
    32
  0
VERTEX
  8
AM_0
  5
186DF
 10
1124.73
 20
342.264
 30
0.000000
  70
    32
  0
VERTEX
  8
AM_0
  5
186E0
 10
1125.85
 20
341.767
 30
0.000000
  70
    32
  0
VERTEX
  8
AM_0
  5
186E1
 10
1126.99
 20
341.325
 30
0.000000
  70
    32
  0
VERTEX
  8
AM_0
  5
186E2
 10
1128.16
 20
340.940
 30
0.000000
  70
    32
  0
VERTEX
  8
AM_0
  5
186E3
 10
1129.34
 20
340.613
 30
0.000000
  70
    32
  0
VERTEX
  8
AM_0
  5
186E4
 10
1130.54
 20
340.344
 30
0.000000
  70
    32
  0
VERTEX
  8
AM_0
  5
186E5
 10
1131.75
 20
340.135
 30
0.000000
  70
    32
  0
VERTEX
  8
AM_0
  5
186E6
 10
1132.97
 20
339.984
 30
0.000000
  70
    32
  0
VERTEX
  8
AM_0
  5
186E7
 10
1134.19
 20
339.894
 30
0.000000
  70
    32
  0
VERTEX
  8
AM_0
  5
186E8
 10
1135.42
 20
339.864
 30
0.000000
  70
    32
  0
VERTEX
  8
AM_0
  5
186E9
 10
1136.64
 20
339.894
 30
0.000000
  70
    32
  0
VERTEX
  8
AM_0
  5
186EA
 10
1137.87
 20
339.984
 30
0.000000
  70
    32
  0
VERTEX
  8
AM_0
  5
186EB
 10
1139.08
 20
340.135
 30
0.000000
  70
    32
  0
VERTEX
  8
AM_0
  5
186EC
 10
1140.29
 20
340.344
 30
0.000000
  70
    32
  0
VERTEX
  8
AM_0
  5
186ED
 10
1141.49
 20
340.613
 30
0.000000
  70
    32
  0
VERTEX
  8
AM_0
  5
186EE
 10
1142.67
 20
340.940
 30
0.000000
  70
    32
  0
VERTEX
  8
AM_0
  5
186EF
 10
1143.84
 20
341.325
 30
0.000000
  70
    32
  0
VERTEX
  8
AM_0
  5
186F0
 10
1144.98
 20
341.767
 30
0.000000
  70
    32
  0
VERTEX
  8
AM_0
  5
186F1
 10
1146.11
 20
342.264
 30
0.000000
  70
    32
  0
VERTEX
  8
AM_0
  5
186F2
 10
1147.20
 20
342.816
 30
0.000000
  70
    32
  0
VERTEX
  8
AM_0
  5
186F3
 10
1148.27
 20
343.421
 30
0.000000
  70
    32
  0
VERTEX
  8
AM_0
  5
186F4
 10
1149.31
 20
344.077
 30
0.000000
  70
    32
  0
VERTEX
  8
AM_0
  5
186F5
 10
1150.31
 20
344.784
 30
0.000000
  70
    32
  0
VERTEX
  8
AM_0
  5
186F6
 10
1151.28
 20
345.539
 30
0.000000
  70
    32
  0
VERTEX
  8
AM_0
  5
186F7
 10
1152.21
 20
346.340
 30
0.000000
  70
    32
  0
VERTEX
  8
AM_0
  5
186F8
 10
1153.09
 20
347.186
 30
0.000000
  70
    32
  0
VERTEX
  8
AM_0
  5
186F9
 10
1153.94
 20
348.075
 30
0.000000
  70
    32
  0
VERTEX
  8
AM_0
  5
186FA
 10
1154.74
 20
349.004
 30
0.000000
  70
    32
  0
VERTEX
  8
AM_0
  5
186FB
 10
1155.50
 20
349.972
 30
0.000000
  70
    32
  0
VERTEX
  8
AM_0
  5
186FC
 10
1156.20
 20
350.975
 30
0.000000
  70
    32
  0
VERTEX
  8
AM_0
  5
186FD
 10
1156.86
 20
352.012
 30
0.000000
  70
    32
  0
VERTEX
  8
AM_0
  5
186FE
 10
1157.46
 20
353.079
 30
0.000000
  70
    32
  0
VERTEX
  8
AM_0
  5
186FF
 10
1158.02
 20
354.175
 30
0.000000
  70
    32
  0
VERTEX
  8
AM_0
  5
18700
 10
1158.51
 20
355.297
 30
0.000000
  70
    32
  0
VERTEX
  8
AM_0
  5
18701
 10
1158.96
 20
356.442
 30
0.000000
  70
    32
  0
VERTEX
  8
AM_0
  5
18702
 10
1159.34
 20
357.607
 30
0.000000
  70
    32
  0
VERTEX
  8
AM_0
  5
18703
 10
1159.67
 20
358.790
 30
0.000000
  70
    32
  0
VERTEX
  8
AM_0
  5
18704
 10
1159.94
 20
359.987
 30
0.000000
  70
    32
  0
VERTEX
  8
AM_0
  5
18705
 10
1160.15
 20
361.196
 30
0.000000
  70
    32
  0
VERTEX
  8
AM_0
  5
18706
 10
1160.30
 20
362.414
 30
0.000000
  70
    32
  0
VERTEX
  8
AM_0
  5
18707
 10
1160.39
 20
363.638
 30
0.000000
  70
    32
  0
VERTEX
  8
AM_0
  5
18708
 10
1160.42
 20
364.864
 30
0.000000
  70
    32
  0
VERTEX
  8
AM_0
  5
18709
 10
1160.39
 20
366.091
 30
0.000000
  70
    32
  0
VERTEX
  8
AM_0
  5
1870A
 10
1160.30
 20
367.315
 30
0.000000
  70
    32
  0
VERTEX
  8
AM_0
  5
1870B
 10
1160.15
 20
368.533
 30
0.000000
  70
    32
  0
VERTEX
  8
AM_0
  5
1870C
 10
1159.94
 20
369.742
 30
0.000000
  70
    32
  0
VERTEX
  8
AM_0
  5
1870D
 10
1159.67
 20
370.939
 30
0.000000
  70
    32
  0
VERTEX
  8
AM_0
  5
1870E
 10
1159.34
 20
372.122
 30
0.000000
  70
    32
  0
VERTEX
  8
AM_0
  5
1870F
 10
1158.96
 20
373.287
 30
0.000000
  70
    32
  0
VERTEX
  8
AM_0
  5
18710
 10
1158.51
 20
374.432
 30
0.000000
  70
    32
  0
VERTEX
  8
AM_0
  5
18711
 10
1158.02
 20
375.554
 30
0.000000
  70
    32
  0
VERTEX
  8
AM_0
  5
18712
 10
1157.46
 20
376.650
 30
0.000000
  70
    32
  0
VERTEX
  8
AM_0
  5
18713
 10
1156.86
 20
377.717
 30
0.000000
  70
    32
  0
VERTEX
  8
AM_0
  5
18714
 10
1156.20
 20
378.754
 30
0.000000
  70
    32
  0
VERTEX
  8
AM_0
  5
18715
 10
1155.50
 20
379.757
 30
0.000000
  70
    32
  0
VERTEX
  8
AM_0
  5
18716
 10
1154.74
 20
380.725
 30
0.000000
  70
    32
  0
VERTEX
  8
AM_0
  5
18717
 10
1153.94
 20
381.654
 30
0.000000
  70
    32
  0
VERTEX
  8
AM_0
  5
18718
 10
1153.09
 20
382.542
 30
0.000000
  70
    32
  0
VERTEX
  8
AM_0
  5
18719
 10
1152.21
 20
383.389
 30
0.000000
  70
    32
  0
VERTEX
  8
AM_0
  5
1871A
 10
1151.28
 20
384.190
 30
0.000000
  70
    32
  0
VERTEX
  8
AM_0
  5
1871B
 10
1150.31
 20
384.945
 30
0.000000
  70
    32
  0
VERTEX
  8
AM_0
  5
1871C
 10
1149.31
 20
385.652
 30
0.000000
  70
    32
  0
VERTEX
  8
AM_0
  5
1871D
 10
1148.27
 20
386.308
 30
0.000000
  70
    32
  0
VERTEX
  8
AM_0
  5
1871E
 10
1147.20
 20
386.913
 30
0.000000
  70
    32
  0
VERTEX
  8
AM_0
  5
1871F
 10
1146.11
 20
387.465
 30
0.000000
  70
    32
  0
VERTEX
  8
AM_0
  5
18720
 10
1144.98
 20
387.962
 30
0.000000
  70
    32
  0
VERTEX
  8
AM_0
  5
18721
 10
1143.84
 20
388.404
 30
0.000000
  70
    32
  0
VERTEX
  8
AM_0
  5
18722
 10
1142.67
 20
388.788
 30
0.000000
  70
    32
  0
VERTEX
  8
AM_0
  5
18723
 10
1141.49
 20
389.116
 30
0.000000
  70
    32
  0
VERTEX
  8
AM_0
  5
18724
 10
1140.29
 20
389.385
 30
0.000000
  70
    32
  0
VERTEX
  8
AM_0
  5
18725
 10
1139.08
 20
389.594
 30
0.000000
  70
    32
  0
VERTEX
  8
AM_0
  5
18726
 10
1137.87
 20
389.745
 30
0.000000
  70
    32
  0
VERTEX
  8
AM_0
  5
18727
 10
1136.64
 20
389.835
 30
0.000000
  70
    32
  0
VERTEX
  8
AM_0
  5
18728
 10
1135.42
 20
389.865
 30
0.000000
  70
    32
  0
VERTEX
  8
AM_0
  5
18729
 10
1134.19
 20
389.835
 30
0.000000
  70
    32
  0
VERTEX
  8
AM_0
  5
1872A
 10
1132.97
 20
389.745
 30
0.000000
  70
    32
  0
VERTEX
  8
AM_0
  5
1872B
 10
1131.75
 20
389.594
 30
0.000000
  70
    32
  0
VERTEX
  8
AM_0
  5
1872C
 10
1130.54
 20
389.385
 30
0.000000
  70
    32
  0
VERTEX
  8
AM_0
  5
1872D
 10
1129.34
 20
389.116
 30
0.000000
  70
    32
  0
VERTEX
  8
AM_0
  5
1872E
 10
1128.16
 20
388.788
 30
0.000000
  70
    32
  0
VERTEX
  8
AM_0
  5
1872F
 10
1126.99
 20
388.404
 30
0.000000
  70
    32
  0
VERTEX
  8
AM_0
  5
18730
 10
1125.85
 20
387.962
 30
0.000000
  70
    32
  0
VERTEX
  8
AM_0
  5
18731
 10
1124.73
 20
387.465
 30
0.000000
  70
    32
  0
VERTEX
  8
AM_0
  5
18732
 10
1123.63
 20
386.913
 30
0.000000
  70
    32
  0
VERTEX
  8
AM_0
  5
18733
 10
1122.56
 20
386.308
 30
0.000000
  70
    32
  0
VERTEX
  8
AM_0
  5
18734
 10
1121.53
 20
385.652
 30
0.000000
  70
    32
  0
VERTEX
  8
AM_0
  5
18735
 10
1120.52
 20
384.945
 30
0.000000
  70
    32
  0
VERTEX
  8
AM_0
  5
18736
 10
1119.56
 20
384.190
 30
0.000000
  70
    32
  0
VERTEX
  8
AM_0
  5
18737
 10
1118.63
 20
383.389
 30
0.000000
  70
    32
  0
VERTEX
  8
AM_0
  5
18738
 10
1117.74
 20
382.542
 30
0.000000
  70
    32
  0
VERTEX
  8
AM_0
  5
18739
 10
1116.89
 20
381.654
 30
0.000000
  70
    32
  0
VERTEX
  8
AM_0
  5
1873A
 10
1116.09
 20
380.725
 30
0.000000
  70
    32
  0
VERTEX
  8
AM_0
  5
1873B
 10
1115.34
 20
379.757
 30
0.000000
  70
    32
  0
VERTEX
  8
AM_0
  5
1873C
 10
1114.63
 20
378.754
 30
0.000000
  70
    32
  0
VERTEX
  8
AM_0
  5
1873D
 10
1113.97
 20
377.717
 30
0.000000
  70
    32
  0
VERTEX
  8
AM_0
  5
1873E
 10
1113.37
 20
376.650
 30
0.000000
  70
    32
  0
VERTEX
  8
AM_0
  5
1873F
 10
1112.82
 20
375.554
 30
0.000000
  70
    32
  0
VERTEX
  8
AM_0
  5
18740
 10
1112.32
 20
374.432
 30
0.000000
  70
    32
  0
VERTEX
  8
AM_0
  5
18741
 10
1111.88
 20
373.287
 30
0.000000
  70
    32
  0
VERTEX
  8
AM_0
  5
18742
 10
1111.49
 20
372.122
 30
0.000000
  70
    32
  0
VERTEX
  8
AM_0
  5
18743
 10
1111.17
 20
370.939
 30
0.000000
  70
    32
  0
VERTEX
  8
AM_0
  5
18744
 10
1110.90
 20
369.742
 30
0.000000
  70
    32
  0
VERTEX
  8
AM_0
  5
18745
 10
1110.69
 20
368.533
 30
0.000000
  70
    32
  0
VERTEX
  8
AM_0
  5
18746
 10
1110.54
 20
367.315
 30
0.000000
  70
    32
  0
VERTEX
  8
AM_0
  5
18747
 10
1110.45
 20
366.091
 30
0.000000
  70
    32
  0
VERTEX
  8
AM_0
  5
18748
 10
1110.42
 20
364.864
 30
0.000000
  70
    32
  0
SEQEND
  8
AM_0
  5
18749
  0
LINE
  5
178D0
  8
AM_0
 10
1394.4201226141031
 20
766.96230659387402
 30
0.0
 11
1394.4201226141031
 21
774.4623065940242
 31
0.0
  0
LINE
  5
178D1
  8
AM_0
 10
1399.9201226142129
 20
763.46230659380433
 30
0.0
 11
1399.9201226142129
 21
782.96230659419405
 31
0.0
  0
LINE
  5
178D2
  8
AM_0
 10
1390.9201226140331
 20
766.96230659387402
 30
0.0
 11
1390.9201226140331
 21
774.4623065940242
 31
0.0
  0
LINE
  5
178D3
  8
AM_0
 10
1379.420122613803
 20
774.4623065940242
 30
0.0
 11
1379.420122613803
 21
766.96230659387402
 31
0.0
  0
LINE
  5
178D4
  8
AM_0
 10
1382.920122613873
 20
766.96230659387402
 30
0.0
 11
1382.920122613873
 21
774.4623065940242
 31
0.0
  0
ARC
  5
178D5
  8
AM_0
 10
1386.920122613953
 20
774.4623065940242
 30
0.0
 40
7.5000000001500027
 50
0.000000000000007
 51
180.0
  0
LINE
  5
178D6
  8
AM_0
 10
1319.9201226126131
 20
763.46230659380433
 30
0.0
 11
1319.9201226126131
 21
770.46230659394428
 31
0.0
  0
LINE
  5
178D7
  8
AM_0
 10
1333.616122612887
 20
789.96230659433422
 30
0.0
 11
1369.2241226135991
 21
789.96230659433422
 31
0.0
  0
LINE
  5
178D8
  8
AM_0
 10
1319.9201226126131
 20
770.46230659394428
 30
0.0
 11
1377.4201226137629
 21
770.46230659394428
 31
0.0
  0
LINE
  5
178D9
  8
AM_0
 10
1322.4201226126629
 20
786.96230659427431
 30
0.0
 11
1397.4201226141629
 21
786.96230659427431
 31
0.0
  0
LINE
  5
178DA
  8
AM_0
 10
1321.4201226126429
 20
770.46230659394428
 30
0.0
 11
1321.4201226126429
 21
785.9623065942543
 31
0.0
  0
ARC
  5
178DB
  8
AM_0
 10
1322.4201226126629
 20
785.9623065942543
 30
0.0
 40
1.00000000002
 50
90.0
 51
180.0
  0
LINE
  5
178DC
  8
AM_0
 10
1328.420122612783
 20
786.96230659427431
 30
0.0
 11
1333.616122612887
 21
789.96230659433422
 31
0.0
  0
ARC
  5
178DD
  8
AM_0
 10
1385.920122613933
 20
775.46230659404398
 30
0.0
 40
7.5000000001499956
 50
90.0
 51
180.0
  0
LINE
  5
178DE
  8
AM_0
 10
1369.2241226135991
 20
789.96230659433422
 30
0.0
 11
1374.412898123906
 21
786.96230659427431
 31
0.0
  0
ARC
  5
178DF
  8
AM_0
 10
1377.4201226137629
 20
771.46230659396394
 30
0.0
 40
1.00000000002
 50
270.0
 51
0.000000000000007
  0
LINE
  5
178E0
  8
AM_0
 10
1378.420122613783
 20
775.46230659404398
 30
0.0
 11
1378.420122613783
 21
771.46230659396394
 31
0.0
  0
LINE
  5
178E1
  8
AM_0
 10
1398.4201226141829
 20
770.46230659394428
 30
0.0
 11
1398.4201226141829
 21
785.9623065942543
 31
0.0
  0
ARC
  5
178E2
  8
AM_0
 10
1387.920122613973
 20
775.46230659404398
 30
0.0
 40
7.500000000149992
 50
0.000000000000007
 51
90.0
  0
ARC
  5
178E3
  8
AM_0
 10
1397.4201226141629
 20
785.9623065942543
 30
0.0
 40
1.00000000002
 50
0.000000000000007
 51
90.0
  0
ARC
  5
178E4
  8
AM_0
 10
1386.920122613953
 20
774.4623065940242
 30
0.0
 40
4.0000000000799973
 50
0.000000000000007
 51
180.0
  0
LINE
  5
178E5
  8
AM_0
 10
1385.920122613933
 20
782.96230659419405
 30
0.0
 11
1387.920122613973
 21
782.96230659419405
 31
0.0
  0
LINE
  5
178E6
  8
AM_0
 10
1399.9201226142129
 20
770.46230659394428
 30
0.0
 11
1396.4201226141431
 21
770.46230659394428
 31
0.0
  0
ARC
  5
178E7
  8
AM_0
 10
1396.4201226141431
 20
771.46230659396394
 30
0.0
 40
1.00000000002
 50
180.0
 51
270.0
  0
LINE
  5
178E8
  8
AM_0
 10
1399.9201226142129
 20
782.96230659419405
 30
0.0
 11
1398.4201226141829
 21
782.96230659419405
 31
0.0
  0
LINE
  5
178E9
  8
AM_0
 10
1395.4201226141231
 20
771.46230659396394
 30
0.0
 11
1395.4201226141231
 21
775.46230659404398
 31
0.0
  0
LINE
  5
178EA
  8
AM_0
 10
1307.600112612366
 20
653.96233659161385
 30
0.0
 11
1367.4201226135631
 21
653.96233659161385
 31
0.0
  0
LINE
  5
178EB
  8
AM_0
 10
1307.600112612366
 20
655.96233659165387
 30
0.0
 11
1367.4201226135631
 21
655.96233659165387
 31
0.0
  0
LINE
  5
178EC
  8
AM_0
 10
1322.920122612672
 20
656.59233659166659
 30
0.0
 11
1337.920122612973
 21
656.59233659166659
 31
0.0
  0
LINE
  5
178ED
  8
AM_0
 10
1307.600112612366
 20
723.96227659301405
 30
0.0
 11
1367.4201226135619
 21
723.96227659301405
 31
0.0
  0
LINE
  5
178EE
  8
AM_0
 10
1307.600112612366
 20
725.96227659305396
 30
0.0
 11
1367.4201226135619
 21
725.96227659305396
 31
0.0
  0
LINE
  5
178EF
  8
AM_0
 10
1367.4201226135619
 20
726.69225659306869
 30
0.0
 11
1307.600112612366
 21
726.69225659306869
 31
0.0
  0
LINE
  5
178F0
  8
AM_0
 10
1322.920122612672
 20
723.33227659300144
 30
0.0
 11
1337.920122612973
 21
723.33227659300144
 31
0.0
  0
LINE
  5
178F1
  8
AM_0
 10
1322.920122612672
 20
723.33227659300144
 30
0.0
 11
1337.920122612973
 21
723.33227659300144
 31
0.0
  0
LINE
  5
178F2
  8
AM_0
 10
1367.4201226135619
 20
751.82226659357116
 30
0.0
 11
1307.600112612366
 21
751.82226659357116
 31
0.0
  0
LINE
  5
178F3
  8
AM_0
 10
1401.4201226142429
 20
736.30227659326067
 30
0.0
 11
1307.600112612366
 21
736.30227659326067
 31
0.0
  0
LINE
  5
178F4
  8
AM_0
 10
1319.920122612612
 20
763.46230659380433
 30
0.0
 11
1399.9201226142129
 21
763.46230659380433
 31
0.0
  0
LINE
  5
178F5
  8
AM_0
 10
1399.9201226142129
 20
766.96230659387402
 30
0.0
 11
1319.9201226126131
 21
766.96230659387402
 31
0.0
  0
LINE
  5
178F6
  8
AM_0
 10
1301.4201226122429
 20
732.82226659319122
 30
0.0
 11
1301.4201226122429
 21
740.42226659334324
 31
0.0
  0
LINE
  5
178F7
  8
AM_0
 10
1302.420122612263
 20
732.82226659319122
 30
0.0
 11
1302.420122612263
 21
740.42226659334324
 31
0.0
  0
LINE
  5
178F8
  8
AM_0
 10
1305.6601126123271
 20
750.32227659354123
 30
0.0
 11
1302.9243026122731
 21
740.12227659333723
 31
0.0
  0
ARC
  5
178F9
  8
AM_0
 10
1303.3201226122801
 20
738.42226659330299
 30
0.0
 40
1.700000800033999
 50
0.0000100000010134
 51
89.999979999998004
  0
LINE
  5
178FA
  8
AM_0
 10
1321.4201226126429
 20
758.96230659371429
 30
0.0
 11
1309.119401316148
 21
758.96230659371429
 31
0.0
  0
LINE
  5
178FB
  8
AM_0
 10
1301.4201226122429
 20
753.96233654125388
 30
0.0
 11
1309.119401316148
 21
758.96230659371429
 31
0.0
  0
LINE
  5
178FC
  8
AM_0
 10
1302.420122612263
 20
740.42226659334324
 30
0.0
 11
1301.4201226122429
 21
740.42226659334324
 31
0.0
  0
ARC
  5
178FD
  8
AM_0
 10
1300.4117026122231
 20
740.99386659335448
 30
0.0
 40
1.0084445000201681
 50
9.5460700000028567
 51
89.522200000000439
  0
ARC
  5
178FE
  8
AM_0
 10
1300.420122612222
 20
752.96233659359393
 30
0.0
 40
1.00000000002
 50
359.999989999999
 51
89.999997000002296
  0
LINE
  5
178FF
  8
AM_0
 10
1305.700122612328
 20
750.4622665935442
 30
0.0
 11
1301.4201226122429
 21
750.4622665935442
 31
0.0
  0
LINE
  5
17900
  8
AM_0
 10
1301.4201226122429
 20
752.96233659359393
 30
0.0
 11
1301.4201226122429
 21
750.46233659354414
 31
0.0
  0
LINE
  5
17901
  8
0
  6
CONTINUOUS
 62
     7
 10
1300.4201226120631
 20
742.00226716477675
 30
0.0
 11
1292.4201226120631
 21
742.00226716477675
 31
0.0
  0
LINE
  5
17902
  8
0
  6
CONTINUOUS
 62
     7
 10
1301.4201842066609
 20
753.96233682724619
 30
0.0
 11
1292.4201226120631
 21
753.96233682724619
 31
0.0
  0
ARC
  5
17903
  8
AM_0
 10
1307.609762612366
 20
749.80527659353083
 30
0.0
 40
2.0170178000403398
 50
90.273699999996239
 51
165.14839999999819
  0
LINE
  5
17904
  8
AM_0
 10
1321.4201226126429
 20
763.46230659380433
 30
0.0
 11
1321.4201226126429
 21
758.96230659371429
 31
0.0
  0
LINE
  5
17905
  8
AM_0
 10
1304.4953365257791
 20
715.96233659285394
 30
0.0
 11
1321.9310768994769
 21
715.96233659285394
 31
0.0
  0
LINE
  5
17906
  8
AM_0
 10
1307.600112612366
 20
723.33227659300144
 30
0.0
 11
1321.9201226126529
 21
723.33227659300144
 31
0.0
  0
LINE
  5
17907
  8
AM_0
 10
1322.780344440805
 20
716.45235659286379
 30
0.0
 11
1303.40641916764
 21
716.45235659286379
 31
0.0
  0
ARC
  5
17908
  8
AM_0
 10
1307.0801026123561
 20
724.96227659303395
 30
0.0
 40
1.0000074000200001
 50
90.0
 51
270.00000299999761
  0
ARC
  5
17909
  8
AM_0
 10
1303.606222612286
 20
725.01226659303484
 30
0.0
 40
1.680011000033599
 50
90.208029999998146
 51
269.79196900000039
  0
LINE
  5
1790A
  8
AM_0
 10
1307.600112612366
 20
726.69225659306869
 30
0.0
 11
1301.420122661563
 21
726.69225659306869
 31
0.0
  0
LINE
  5
1790B
  8
AM_0
 10
1301.4201226122429
 20
735.84490659325184
 30
0.0
 11
1302.420122612263
 21
736.42223659326305
 31
0.0
  0
LINE
  5
1790C
  8
AM_0
 10
1301.4201226122429
 20
736.84490659327184
 30
0.0
 11
1302.420122612263
 21
737.42226659328321
 31
0.0
  0
ARC
  5
1790D
  8
AM_0
 10
1300.7592626122289
 20
737.78905659329052
 30
0.0
 40
1.4868059000297349
 50
296.38977999999901
 51
345.71726000000092
  0
LINE
  5
1790E
  8
AM_0
 10
1302.420122612263
 20
732.82226659319122
 30
0.0
 11
1301.4201226122429
 21
732.82226659319122
 31
0.0
  0
LINE
  5
1790F
  8
0
  6
CONTINUOUS
 62
     7
 10
1300.4201226120631
 20
727.10225716477646
 30
0.0
 11
1292.4201226120631
 21
727.10225716477646
 31
0.0
  0
LINE
  5
17910
  8
AM_0
 10
1307.0801026123561
 20
725.96227659305396
 30
0.0
 11
1307.600112612366
 21
725.96227659305396
 31
0.0
  0
LINE
  5
17911
  8
AM_0
 10
1307.600112612366
 20
736.30227659326067
 30
0.0
 11
1305.0201026123141
 21
736.30227659326067
 31
0.0
  0
LINE
  5
17912
  8
AM_0
 10
1305.0201026123141
 20
734.82226659323123
 30
0.0
 11
1305.0201026123141
 21
738.42226659330299
 31
0.0
  0
LINE
  5
17913
  8
AM_0
 10
1302.420122612263
 20
740.12226659333726
 30
0.0
 11
1303.3201226122801
 21
740.12226659333726
 31
0.0
  0
LINE
  5
17914
  8
AM_0
 10
1302.420122612263
 20
733.12227659319706
 30
0.0
 11
1303.3201226122801
 21
733.12227659319706
 31
0.0
  0
ARC
  5
17915
  8
AM_0
 10
1303.3201226122801
 20
734.82226659323123
 30
0.0
 40
1.6999969000339989
 50
270.00000299999761
 51
359.999979999998
  0
LINE
  5
17916
  8
AM_0
 10
1307.0801026123561
 20
723.96227659301405
 30
0.0
 11
1307.600112612366
 21
723.96227659301405
 31
0.0
  0
ARC
  5
17917
  8
AM_0
 10
1303.4053365781169
 20
714.98735659283443
 30
0.0
 40
1.465000400029298
 50
90.00000299999769
 51
270.0
  0
ARC
  5
17918
  8
AM_0
 10
1304.4953365781389
 20
714.96233659283405
 30
0.0
 40
1.0000032000200001
 50
90.00000299999769
 51
270.0
  0
LINE
  5
17919
  8
AM_0
 10
1303.600112612286
 20
723.33227659300144
 30
0.0
 11
1307.600112612366
 21
723.33227659300144
 31
0.0
  0
ARC
  5
1791A
  8
AM_0
 10
1321.9201226126529
 20
716.96227659287399
 30
0.0
 40
1.00000000002
 50
270.0
 51
0.000000000000007
1001
GENIUS_GENOBJ-N-FIL_13
1002
{
1000
OWNER
1000
GEN
1002
}
1001
GENIUS_GENODEF_13
1002
{
1000
HIER
1070
     0
1002
}
1002
{
1000
MANEDIT
1070
     0
1002
}
1002
{
1000
NOSEL
1070
     0
1002
}
1002
{
1000
BEHIND
1070
     0
1002
}
1002
{
1000
OTHER
1070
     0
1002
}
1002
{
1000
REACTOR
1002
}
  0
ARC
  5
1791B
  8
AM_0
 10
1321.9201226126529
 20
722.33227659298143
 30
0.0
 40
1.00000000002
 50
0.000000000000007
 51
90.0
1001
GENIUS_GENOBJ-N-FIL_13
1002
{
1000
OWNER
1000
GEN
1002
}
1001
GENIUS_GENODEF_13
1002
{
1000
HIER
1070
     0
1002
}
1002
{
1000
MANEDIT
1070
     0
1002
}
1002
{
1000
NOSEL
1070
     0
1002
}
1002
{
1000
BEHIND
1070
     0
1002
}
1002
{
1000
OTHER
1070
     0
1002
}
1002
{
1000
REACTOR
1002
}
  0
LINE
  5
1791C
  8
AM_0
 10
1322.920122612672
 20
716.96227659287399
 30
0.0
 11
1322.920122612672
 21
722.33227659298143
 31
0.0
  0
CIRCLE
  5
1791D
  8
AM_0
 10
1332.920122612873
 20
718.46230659290404
 30
0.0
 40
0.750000000015
  0
CIRCLE
  5
1791E
  8
AM_0
 10
1327.920122612773
 20
718.46230659290404
 30
0.0
 40
0.750000000015
  0
LINE
  5
1791F
  8
AM_0
 10
1307.600112612366
 20
656.59233659166659
 30
0.0
 11
1321.9201226126529
 21
656.59233659166659
 31
0.0
  0
LINE
  5
17920
  8
AM_0
 10
1304.4953365257791
 20
663.96233659181394
 30
0.0
 11
1321.9201226126529
 21
663.96233659181394
 31
0.0
  0
LINE
  5
17921
  8
AM_0
 10
1322.7802910844821
 20
663.47234659180424
 30
0.0
 11
1303.421611217894
 21
663.47234659180424
 31
0.0
  0
LINE
  5
17922
  8
AM_0
 10
1307.0801026123561
 20
653.96233659161385
 30
0.0
 11
1307.600112612366
 21
653.96233659161385
 31
0.0
  0
LINE
  5
17923
  8
AM_0
 10
1307.0801026123561
 20
655.96233659165387
 30
0.0
 11
1307.600112612366
 21
655.96233659165387
 31
0.0
  0
ARC
  5
17924
  8
AM_0
 10
1307.0801026123561
 20
654.96233659163374
 30
0.0
 40
1.0000074000200001
 50
89.999997000002296
 51
270.0
  0
ARC
  5
17925
  8
AM_0
 10
1303.4053365781169
 20
664.93725659183337
 30
0.0
 40
1.465000400029298
 50
90.0
 51
269.99999700000228
  0
ARC
  5
17926
  8
AM_0
 10
1304.4953365781389
 20
664.96227659183398
 30
0.0
 40
1.0000032000200001
 50
90.0
 51
269.99999700000228
  0
LINE
  5
17927
  8
AM_0
 10
1303.600112612286
 20
656.59233659166659
 30
0.0
 11
1307.600112612366
 21
656.59233659166659
 31
0.0
  0
LINE
  5
17928
  8
AM_0
 10
1322.920122612672
 20
662.96233659179393
 30
0.0
 11
1322.920122612672
 21
657.5923365916866
 31
0.0
  0
ARC
  5
17929
  8
AM_0
 10
1321.9201226126529
 20
662.96233659179393
 30
0.0
 40
1.00000000002
 50
0.000000000000007
 51
90.0
1001
GENIUS_GENOBJ-N-FIL_13
1002
{
1000
OWNER
1000
GEN
1002
}
1001
GENIUS_GENODEF_13
1002
{
1000
HIER
1070
     0
1002
}
1002
{
1000
MANEDIT
1070
     0
1002
}
1002
{
1000
NOSEL
1070
     0
1002
}
1002
{
1000
BEHIND
1070
     0
1002
}
1002
{
1000
OTHER
1070
     0
1002
}
1002
{
1000
REACTOR
1002
}
  0
ARC
  5
1792A
  8
AM_0
 10
1321.9201226126529
 20
657.5923365916866
 30
0.0
 40
1.00000000002
 50
270.0
 51
0.000000000000007
1001
GENIUS_GENOBJ-N-FIL_13
1002
{
1000
OWNER
1000
GEN
1002
}
1001
GENIUS_GENODEF_13
1002
{
1000
HIER
1070
     0
1002
}
1002
{
1000
MANEDIT
1070
     0
1002
}
1002
{
1000
NOSEL
1070
     0
1002
}
1002
{
1000
BEHIND
1070
     0
1002
}
1002
{
1000
OTHER
1070
     0
1002
}
1002
{
1000
REACTOR
1002
}
  0
CIRCLE
  5
1792B
  8
AM_0
 10
1332.920122612873
 20
661.4623065917641
 30
0.0
 40
0.750000000015
  0
CIRCLE
  5
1792C
  8
AM_0
 10
1327.920122612773
 20
661.4623065917641
 30
0.0
 40
0.750000000015
  0
LINE
  5
1792D
  8
AM_0
 10
1422.4201226146629
 20
751.8223565935715
 30
0.0
 11
1367.4201226135619
 21
751.82235659357127
 31
0.0
  0
LINE
  5
1792E
  8
AM_0
 10
1400.4201226142229
 20
736.31234659326083
 30
0.0
 11
1367.4201226135619
 21
736.31234659326083
 31
0.0
  0
LINE
  5
1792F
  8
AM_0
 10
1338.9201226129919
 20
723.33227659300144
 30
0.0
 11
1367.4201226135619
 21
723.33227659300144
 31
0.0
  0
ARC
  5
17930
  8
AM_0
 10
1338.9201226129919
 20
716.96227659287399
 30
0.0
 40
1.00000000002
 50
179.99999999999349
 51
270.0
1001
GENIUS_GENOBJ-N-FIL_13
1002
{
1000
OWNER
1000
GEN
1002
}
1001
GENIUS_GENODEF_13
1002
{
1000
HIER
1070
     0
1002
}
1002
{
1000
MANEDIT
1070
     0
1002
}
1002
{
1000
NOSEL
1070
     0
1002
}
1002
{
1000
BEHIND
1070
     0
1002
}
1002
{
1000
OTHER
1070
     0
1002
}
1002
{
1000
REACTOR
1002
}
  0
ARC
  5
17931
  8
AM_0
 10
1338.9201226129919
 20
722.33227659298143
 30
0.0
 40
1.00000000002
 50
90.0
 51
180.0
1001
GENIUS_GENOBJ-N-FIL_13
1002
{
1000
OWNER
1000
GEN
1002
}
1001
GENIUS_GENODEF_13
1002
{
1000
HIER
1070
     0
1002
}
1002
{
1000
MANEDIT
1070
     0
1002
}
1002
{
1000
NOSEL
1070
     0
1002
}
1002
{
1000
BEHIND
1070
     0
1002
}
1002
{
1000
OTHER
1070
     0
1002
}
1002
{
1000
REACTOR
1002
}
  0
LINE
  5
17932
  8
AM_0
 10
1337.920122612973
 20
716.96227659287399
 30
0.0
 11
1337.920122612973
 21
722.33227659298143
 31
0.0
  0
ARC
  5
17933
  8
AM_0
 10
1369.971375943898
 20
714.96233659283405
 30
0.0
 40
1.0000380000199991
 50
89.500715999993631
 51
270.49928999999509
  0
LINE
  5
17934
  8
AM_0
 10
1422.4201226146629
 20
755.8823465936523
 30
0.0
 11
1381.420122613843
 21
755.8823465936523
 31
0.0
  0
LINE
  5
17935
  8
AM_0
 10
1422.4201226146629
 20
755.20235659363891
 30
0.0
 11
1381.420122613843
 21
755.20235659363891
 31
0.0
  0
LINE
  5
17936
  8
AM_0
 10
1422.4201226146629
 20
753.85234659361174
 30
0.0
 11
1381.420122613843
 21
753.85234659361174
 31
0.0
  0
LINE
  5
17937
  8
AM_0
 10
1381.420122613843
 20
763.46230659380433
 30
0.0
 11
1381.420122613843
 21
751.82226659357161
 31
0.0
  0
ARC
  5
17938
  8
AM_0
 10
1368.750085943874
 20
704.97234659263415
 30
0.0
 40
1.3300010000266
 50
90.00000299999769
 51
270.0
  0
ARC
  5
17939
  8
AM_0
 10
1369.971375943898
 20
704.96233659263385
 30
0.0
 40
1.0000380000199991
 50
89.500715999993631
 51
270.49928999999509
  0
ARC
  5
1793A
  8
AM_0
 10
1368.6900959438731
 20
694.96733659243398
 30
0.0
 40
1.2650050000252999
 50
90.00000299999769
 51
270.0
  0
ARC
  5
1793B
  8
AM_0
 10
1368.6900959438731
 20
684.95727659223394
 30
0.0
 40
1.2650050000252999
 50
90.0
 51
269.99999700000228
  0
ARC
  5
1793C
  8
AM_0
 10
1369.971375943898
 20
694.96233659243364
 30
0.0
 40
1.0000380000199991
 50
89.500715999993631
 51
270.49928999999509
  0
ARC
  5
1793D
  8
AM_0
 10
1369.971375943898
 20
684.96227659223393
 30
0.0
 40
1.0000380000199991
 50
89.500710000004958
 51
270.49928400000641
  0
LINE
  5
1793E
  8
AM_0
 10
1338.9201226129931
 20
656.59233659166659
 30
0.0
 11
1367.4201226135631
 21
656.59233659166659
 31
0.0
  0
LINE
  5
1793F
  8
AM_0
 10
1337.920122612973
 20
662.96233659179393
 30
0.0
 11
1337.920122612973
 21
657.5923365916866
 31
0.0
  0
ARC
  5
17940
  8
AM_0
 10
1338.9201226129931
 20
662.96233659179393
 30
0.0
 40
1.00000000002
 50
90.0
 51
180.0
1001
GENIUS_GENOBJ-N-FIL_13
1002
{
1000
OWNER
1000
GEN
1002
}
1001
GENIUS_GENODEF_13
1002
{
1000
HIER
1070
     0
1002
}
1002
{
1000
MANEDIT
1070
     0
1002
}
1002
{
1000
NOSEL
1070
     0
1002
}
1002
{
1000
BEHIND
1070
     0
1002
}
1002
{
1000
OTHER
1070
     0
1002
}
1002
{
1000
REACTOR
1002
}
  0
ARC
  5
17941
  8
AM_0
 10
1338.9201226129931
 20
657.5923365916866
 30
0.0
 40
1.00000000002
 50
180.0
 51
270.0
1001
GENIUS_GENOBJ-N-FIL_13
1002
{
1000
OWNER
1000
GEN
1002
}
1001
GENIUS_GENODEF_13
1002
{
1000
HIER
1070
     0
1002
}
1002
{
1000
MANEDIT
1070
     0
1002
}
1002
{
1000
NOSEL
1070
     0
1002
}
1002
{
1000
BEHIND
1070
     0
1002
}
1002
{
1000
OTHER
1070
     0
1002
}
1002
{
1000
REACTOR
1002
}
  0
ARC
  5
17942
  8
AM_0
 10
1368.750085943874
 20
674.95226659203388
 30
0.0
 40
1.3300010000266
 50
90.0
 51
269.99999700000228
  0
ARC
  5
17943
  8
AM_0
 10
1369.971375943898
 20
674.96227659203396
 30
0.0
 40
1.0000380000199991
 50
89.500710000004958
 51
270.49928400000641
  0
ARC
  5
17944
  8
AM_0
 10
1369.971375943898
 20
664.96233662242901
 30
0.0
 40
1.0000380000199991
 50
89.500710000004958
 51
270.49928400000641
  0
LINE
  5
17945
  8
AM_0
 10
1453.420122615282
 20
737.98195659329451
 30
0.0
 11
1453.4201226152829
 21
694.9623365924341
 31
0.0
  0
LINE
  5
17946
  8
AM_0
 10
1441.7000926150481
 20
738.31237659330111
 30
0.0
 11
1441.160082615037
 21
741.30236659336094
 31
0.0
  0
LINE
  5
17947
  8
AM_0
 10
1447.4201226151631
 20
747.34272429133773
 30
0.0
 11
1442.6001126150661
 21
747.462336593484
 31
0.0
  0
LINE
  5
17948
  8
AM_0
 10
1439.2501126149989
 20
748.23235659349939
 30
0.0
 11
1425.9201226147329
 21
748.23235659349939
 31
0.0
  0
LINE
  5
17949
  8
AM_0
 10
1439.190112614998
 20
742.94234659339372
 30
0.0
 11
1425.9201226147329
 21
742.94234659339372
 31
0.0
  0
LINE
  5
1794A
  8
AM_0
 10
1439.280112615
 20
751.6323465935676
 30
0.0
 11
1425.9201226147329
 21
751.6323465935676
 31
0.0
  0
LINE
  5
1794B
  8
AM_0
 10
1439.310112615
 20
753.26235659360032
 30
0.0
 11
1425.8101126147301
 21
753.26235659360032
 31
0.0
  0
LINE
  5
1794C
  8
AM_0
 10
1424.4201226147029
 20
751.85234659357195
 30
0.0
 11
1424.4201226147029
 21
744.44234659342374
 31
0.0
  0
ARC
  5
1794D
  8
AM_0
 10
1425.921892614733
 20
749.73415659352952
 30
0.0
 40
1.501797900030035
 50
180.06854999999891
 51
269.93145000000101
  0
ARC
  5
1794E
  8
AM_0
 10
1425.80647261473
 20
754.76921659362995
 30
0.0
 40
1.5068883000301361
 50
194.87692999999749
 51
270.1377700000005
  0
ARC
  5
1794F
  8
AM_0
 10
1425.9239426147319
 20
753.13619659359745
 30
0.0
 40
1.5038475000300759
 50
180.1463999999965
 51
269.85360000000998
  0
ARC
  5
17950
  8
AM_0
 10
1425.9257726147321
 20
744.44802659342349
 30
0.0
 40
1.505674500030113
 50
180.21552999999901
 51
269.78448000000759
  0
LINE
  5
17951
  8
AM_0
 10
1443.630112615087
 20
741.00234659335456
 30
0.0
 11
1441.2101026150381
 21
741.00234659335456
 31
0.0
  0
ARC
  5
17952
  8
AM_0
 10
1443.6288926150869
 20
742.5064965933849
 30
0.0
 40
1.504139800030081
 50
192.4447500000048
 51
270.04574999999488
  0
ARC
  5
17953
  8
AM_0
 10
1439.1982626149979
 20
740.94893659335378
 30
0.0
 40
1.9934334000398679
 50
10.211969999999811
 51
90.234115999994245
  0
ARC
  5
17954
  8
AM_0
 10
1443.6109226150861
 20
746.56514659346624
 30
0.0
 40
1.502808100030055
 50
193.57782000000131
 51
269.96921000000498
  0
ARC
  5
17955
  8
AM_0
 10
1443.5918126150859
 20
748.58944659350652
 30
0.0
 40
1.5070969000301411
 50
194.09781999999629
 51
269.93517999999841
  0
LINE
  5
17956
  8
AM_0
 10
1443.5901126150859
 20
747.08232659347652
 30
0.0
 11
1441.9401126150531
 21
747.08232659347652
 31
0.0
  0
LINE
  5
17957
  8
AM_0
 10
1443.6100926150859
 20
745.06234659343602
 30
0.0
 11
1441.5501026150439
 21
745.06234659343602
 31
0.0
  0
ARC
  5
17958
  8
AM_0
 10
1439.248432614999
 20
746.23696659345933
 30
0.0
 40
1.9953895000399069
 50
12.01538000000023
 51
89.951933000008736
  0
ARC
  5
17959
  8
AM_0
 10
1439.287312615
 20
749.63686659352754
 30
0.0
 40
1.9954823000399089
 50
13.194079999997459
 51
90.206542000000866
  0
LINE
  5
1795A
  8
AM_0
 10
1441.230092615039
 20
750.0923365935364
 30
0.0
 11
1442.150102615057
 21
746.21233659345921
 31
0.0
  0
LINE
  5
1795B
  8
AM_0
 10
1441.250082615039
 20
751.75234659356965
 30
0.0
 11
1442.1300826150571
 21
748.22234659349931
 31
0.0
  0
ARC
  5
1795C
  8
AM_0
 10
1439.312792615
 20
751.26454659356023
 30
0.0
 40
1.9977812000399551
 50
14.132230000003119
 51
90.076919000002235
  0
LINE
  5
1795D
  8
AM_0
 10
1441.2000926150381
 20
746.65233659346757
 30
0.0
 11
1442.160112615057
 21
742.18233659337841
 31
0.0
  0
LINE
  5
1795E
  8
AM_0
 10
1447.4201226151631
 20
724.27233659302033
 30
0.0
 11
1437.420122614963
 21
724.27233659302033
 31
0.0
  0
LINE
  5
1795F
  8
AM_0
 10
1447.4201226151631
 20
732.65233659318812
 30
0.0
 11
1437.420122614963
 21
732.65233659318812
 31
0.0
  0
LINE
  5
17960
  8
AM_0
 10
1447.4201226151631
 20
738.31234659330084
 30
0.0
 11
1437.420122614963
 21
738.31234659330084
 31
0.0
  0
ARC
  5
17961
  8
AM_0
 10
1431.7401026148491
 20
725.00734659303487
 30
0.0
 40
1.6750063000334989
 50
270.0
 51
89.999997000002296
  0
ARC
  5
17962
  8
AM_0
 10
1430.8701026148319
 20
724.96233659303391
 30
0.0
 40
1.0000032000200001
 50
270.0
 51
89.999997000002296
  0
LINE
  5
17963
  8
AM_0
 10
1437.420122614963
 20
738.31234659330084
 30
0.0
 11
1437.420122614963
 21
724.27233659302033
 31
0.0
  0
ARC
  5
17964
  8
AM_0
 10
1437.79891261497
 20
727.63039659308731
 30
0.0
 40
6.0039072001200786
 50
93.617285999997804
 51
134.77630699998909
  0
ARC
  5
17965
  8
AM_0
 10
1438.2551426149789
 20
731.56011659316596
 30
0.0
 40
5.0078936001001573
 50
185.47467999999949
 51
260.40128000000527
  0
LINE
  5
17966
  8
AM_0
 10
1424.4201226147029
 20
727.20235659307889
 30
0.0
 11
1424.4201226147029
 21
727.13234659307716
 31
0.0
  0
ARC
  5
17967
  8
AM_0
 10
1434.2701926148991
 20
731.17250659315823
 30
0.0
 40
1.004136700020082
 50
134.20256399999809
 51
185.15116000000401
  0
ARC
  5
17968
  8
AM_0
 10
1431.960102614853
 20
714.98735659283443
 30
0.0
 40
1.465000400029298
 50
270.0
 51
89.999997000002296
  0
ARC
  5
17969
  8
AM_0
 10
1430.8701026148319
 20
714.96233659283405
 30
0.0
 40
1.0000032000200001
 50
270.0
 51
89.999997000002296
  0
LINE
  5
1796A
  8
AM_0
 10
1451.160112615237
 20
736.46233659326401
 30
0.0
 11
1448.420122615182
 21
736.46233659326401
 31
0.0
  0
LINE
  5
1796B
  8
AM_0
 10
1451.640122615247
 20
736.34233659326173
 30
0.0
 11
1452.8801126152721
 21
735.68236659324828
 31
0.0
  0
ARC
  5
1796C
  8
AM_0
 10
1452.4211326152631
 20
735.81688659325096
 30
0.0
 40
0.99898326001998
 50
0.3123899999990056
 51
60.03464000000406
  0
ARC
  5
1796D
  8
AM_0
 10
1452.4151226152619
 20
734.79131659323059
 30
0.0
 40
1.0050608000201
 50
0.6283999999990103
 51
62.441190000003381
  0
LINE
  5
1796E
  8
AM_0
 10
1451.640122615247
 20
737.46236659328406
 30
0.0
 11
1452.920122615272
 21
736.6823665932684
 31
0.0
  0
LINE
  5
1796F
  8
AM_0
 10
1451.4201226152429
 20
737.34233659328174
 30
0.0
 11
1451.4201226152429
 21
736.80233659327087
 31
0.0
  0
ARC
  5
17970
  8
AM_0
 10
1451.1266026152371
 20
736.59124659326665
 30
0.0
 40
1.011208500020224
 50
59.481189999986192
 51
89.234313000007404
  0
ARC
  5
17971
  8
AM_0
 10
1451.161822615237
 20
735.44915659324352
 30
0.0
 40
1.0131912000202621
 50
61.831239999999291
 51
90.096276000001168
  0
ARC
  5
17972
  8
AM_0
 10
1452.4129526152619
 20
737.97216659329422
 30
0.0
 40
1.007194200020143
 50
359.44232
 51
59.76658000000203
  0
LINE
  5
17973
  8
AM_0
 10
1451.6201026152471
 20
738.44234659330368
 30
0.0
 11
1452.8601226152709
 21
737.82235659329137
 31
0.0
  0
LINE
  5
17974
  8
AM_0
 10
1451.6400926152471
 20
739.56234659332586
 30
0.0
 11
1452.9200926152721
 21
738.8423365933113
 31
0.0
  0
LINE
  5
17975
  8
AM_0
 10
1451.4201226152429
 20
739.4423465933238
 30
0.0
 11
1451.4201226152429
 21
738.92235659331334
 31
0.0
  0
ARC
  5
17976
  8
AM_0
 10
1451.129232615237
 20
738.70058659330891
 30
0.0
 40
1.001808000020036
 50
59.33833000000525
 51
89.377180000009162
  0
ARC
  5
17977
  8
AM_0
 10
1451.1425326152371
 20
737.557916593286
 30
0.0
 40
1.005138300020102
 50
61.632060000005211
 51
87.857709000009095
  0
ARC
  5
17978
  8
AM_0
 10
1452.417072615262
 20
736.92244659327332
 30
0.0
 40
1.0030519000200611
 50
359.99423000000229
 51
63.787349999991029
  0
LINE
  5
17979
  8
AM_0
 10
1451.140122615237
 20
731.94234659317362
 30
0.0
 11
1448.420122615182
 21
731.94234659317362
 31
0.0
  0
ARC
  5
1797A
  8
AM_0
 10
1452.4183826152621
 20
731.21971659315932
 30
0.0
 40
1.001733900020034
 50
0.1495399999974155
 51
57.262369999995819
  0
LINE
  5
1797B
  8
AM_0
 10
1451.660112615247
 20
732.92235659319317
 30
0.0
 11
1452.9601326152731
 21
732.06237659317605
 31
0.0
  0
LINE
  5
1797C
  8
AM_0
 10
1451.4201226152429
 20
732.78234659319025
 30
0.0
 11
1451.4201226152429
 21
732.30233659318083
 31
0.0
  0
LINE
  5
1797D
  8
AM_0
 10
1451.6400926152471
 20
731.80233659317093
 30
0.0
 11
1452.9200926152721
 21
731.06230659315599
 31
0.0
  0
ARC
  5
1797E
  8
AM_0
 10
1451.1144626152361
 20
732.07204659317631
 30
0.0
 40
1.010318000020205
 50
57.311419999991578
 51
89.679860000005249
  0
ARC
  5
1797F
  8
AM_0
 10
1451.1278626152371
 20
730.93569659315335
 30
0.0
 40
1.0067360000201351
 50
59.413569999998501
 51
89.301939000001482
  0
ARC
  5
17980
  8
AM_0
 10
1452.4145726152631
 20
730.19307659313893
 30
0.0
 40
1.00559290002011
 50
0.5283799999989121
 51
59.818669999992608
  0
LINE
  5
17981
  8
AM_0
 10
1451.140122615237
 20
737.60234659328671
 30
0.0
 11
1447.4201226151631
 21
737.60234659328671
 31
0.0
  0
ARC
  5
17982
  8
AM_0
 10
1448.4271726151819
 20
735.45528659324373
 30
0.0
 40
1.0070832000201411
 50
90.401577999998594
 51
179.59842201999899
  0
LINE
  5
17983
  8
AM_0
 10
1451.180102615238
 20
738.56234659330585
 30
0.0
 11
1447.920122615172
 21
738.56234659330585
 31
0.0
  0
LINE
  5
17984
  8
AM_0
 10
1451.140122615237
 20
739.70235659332855
 30
0.0
 11
1447.920122615172
 21
739.70235659332855
 31
0.0
  0
LINE
  5
17985
  8
AM_0
 10
1451.1201026152371
 20
733.0823265931964
 30
0.0
 11
1447.4201226151631
 21
733.0823265931964
 31
0.0
  0
ARC
  5
17986
  8
AM_0
 10
1448.4255226151829
 20
730.93694659315372
 30
0.0
 40
1.005422700020107
 50
90.308188999993916
 51
179.69180761999789
  0
LINE
  5
17987
  8
AM_0
 10
1448.4201226151829
 20
713.96233659281404
 30
0.0
 11
1452.420122615262
 21
713.96233659281404
 31
0.0
  0
ARC
  5
17988
  8
AM_0
 10
1452.4279026152631
 20
714.95452659283364
 30
0.0
 40
0.9922232600198446
 50
269.54914999999261
 51
0.4508400000029697
  0
ARC
  5
17989
  8
AM_0
 10
1448.428002615183
 20
712.95446659279366
 30
0.0
 40
1.007920400020158
 50
90.448488000004716
 51
179.55151003999859
  0
LINE
  5
1798A
  8
AM_0
 10
1448.4201226151829
 20
715.96233659285394
 30
0.0
 11
1452.420122615262
 21
715.96233659285394
 31
0.0
  0
ARC
  5
1798B
  8
AM_0
 10
1452.4156726152621
 20
722.33901659298147
 30
0.0
 40
1.0044501000200889
 50
0.1901499999997232
 51
73.54965000000297
  0
LINE
  5
1798C
  8
AM_0
 10
1451.260122615239
 20
723.70235659300874
 30
0.0
 11
1448.420122615182
 21
723.70235659300874
 31
0.0
  0
ARC
  5
1798D
  8
AM_0
 10
1452.420582615262
 20
724.11766659301713
 30
0.0
 40
0.999532700019991
 50
0.2681300000001787
 51
67.684949999999489
  0
LINE
  5
1798E
  8
AM_0
 10
1451.600112615246
 20
725.56234659304607
 30
0.0
 11
1452.8001026152699
 21
725.04235659303561
 31
0.0
  0
LINE
  5
1798F
  8
AM_0
 10
1451.4201226152429
 20
725.34233659304164
 30
0.0
 11
1451.4201226152429
 21
724.28234659302063
 31
0.0
  0
ARC
  5
17990
  8
AM_0
 10
1451.27745261524
 20
722.68734659298843
 30
0.0
 40
1.015145100020302
 50
73.832329999994485
 51
90.978381000000923
  0
LINE
  5
17991
  8
AM_0
 10
1451.5601126152451
 20
723.66234659300801
 30
0.0
 11
1452.7001226152679
 21
723.3023665930009
 31
0.0
  0
ARC
  5
17992
  8
AM_0
 10
1451.2068726152379
 20
724.63613659302735
 30
0.0
 40
1.006237100020124
 50
66.99538000000112
 51
90.384755999997537
  0
ARC
  5
17993
  8
AM_0
 10
1448.411092615182
 20
716.95330659287356
 30
0.0
 40
0.9910124500198204
 50
179.4779976199998
 51
270.52199999999573
  0
ARC
  5
17994
  8
AM_0
 10
1448.4264126151829
 20
722.69603659298855
 30
0.0
 40
1.0063295000201249
 50
90.359251999998989
 51
179.64074623999619
  0
LINE
  5
17995
  8
AM_0
 10
1451.2001226152379
 20
725.64235659304779
 30
0.0
 11
1448.1201026151759
 21
725.64235659304779
 31
0.0
  0
LINE
  5
17996
  8
AM_0
 10
1451.4201226152429
 20
715.58232659284624
 30
0.0
 11
1451.4201226152429
 21
714.22234659281924
 31
0.0
  0
ARC
  5
17997
  8
AM_0
 10
1452.411032615262
 20
714.95324659283369
 30
0.0
 40
1.0091312000201811
 50
0.5161299999996342
 51
89.483873999999005
  0
LINE
  5
17998
  8
AM_0
 10
1455.914022615332
 20
705.18419659263816
 30
0.0
 11
1455.914022615332
 21
674.74056659202972
 31
0.0
  0
LINE
  5
17999
  8
AM_0
 10
1454.920122615312
 20
669.96233659193388
 30
0.0
 11
1454.920122615312
 21
709.96233659273412
 31
0.0
  0
ARC
  5
1799A
  8
AM_0
 10
1441.0901126150361
 20
704.97234659263415
 30
0.0
 40
1.3300010000266
 50
270.0
 51
89.999997000002296
  0
ARC
  5
1799B
  8
AM_0
 10
1439.868822615012
 20
704.96233659263419
 30
0.0
 40
1.0000380000199991
 50
269.50071000000491
 51
90.499284000006355
  0
ARC
  5
1799C
  8
AM_0
 10
1439.860092615012
 20
684.96233659223401
 30
0.0
 40
1.0000124000199999
 50
270.0
 51
89.999997000002296
  0
ARC
  5
1799D
  8
AM_0
 10
1441.150102615037
 20
694.96733659243421
 30
0.0
 40
1.2650050000252999
 50
270.0
 51
89.999997000002296
  0
ARC
  5
1799E
  8
AM_0
 10
1439.868822615012
 20
694.9623365924341
 30
0.0
 40
1.0000380000199991
 50
269.50071000000491
 51
90.499284000006355
  0
ARC
  5
1799F
  8
AM_0
 10
1441.1499826150371
 20
684.97234659223432
 30
0.0
 40
1.270038400025399
 50
269.55480999999429
 51
90.445189000006664
  0
ARC
  5
179A0
  8
AM_0
 10
1448.411092615182
 20
696.95330659247395
 30
0.0
 40
0.9910124500198204
 50
179.4779976199998
 51
270.52199999999573
  0
LINE
  5
179A1
  8
AM_0
 10
1454.920122615312
 20
709.96236659273393
 30
0.0
 11
1453.4201226152829
 21
710.08236659273655
 31
0.0
  0
LINE
  5
179A2
  8
AM_0
 10
1455.914022615332
 20
705.18416659263835
 30
0.0
 11
1455.414022615322
 21
707.95415659269395
 31
0.0
  0
LINE
  5
179A3
  8
AM_0
 10
1455.414022615322
 20
707.95415659269395
 30
0.0
 11
1454.913992615313
 21
707.91414659269287
 31
0.0
  0
LINE
  5
179A4
  8
AM_0
 10
1448.4201226151829
 20
703.96233659261384
 30
0.0
 11
1452.420122615262
 21
703.96233659261384
 31
0.0
  0
ARC
  5
179A5
  8
AM_0
 10
1452.4279026152631
 20
704.95452659263378
 30
0.0
 40
0.9922232600198446
 50
269.54914999999261
 51
0.4508400000029697
  0
LINE
  5
179A6
  8
AM_0
 10
1448.4201226151829
 20
705.96233659265397
 30
0.0
 11
1452.420122615262
 21
705.96233659265397
 31
0.0
  0
ARC
  5
179A7
  8
AM_0
 10
1452.411032615262
 20
704.95324659263383
 30
0.0
 40
1.0091312000201811
 50
0.5161299999996342
 51
89.483873999999005
  0
LINE
  5
179A8
  8
AM_0
 10
1451.4201226152429
 20
705.56234659264624
 30
0.0
 11
1451.4201226152429
 21
704.34233659262156
 31
0.0
  0
ARC
  5
179A9
  8
AM_0
 10
1448.428002615183
 20
702.95446659259369
 30
0.0
 40
1.007920400020158
 50
90.448488000004716
 51
179.55151003999859
  0
ARC
  5
179AA
  8
AM_0
 10
1448.411092615182
 20
706.95330659267381
 30
0.0
 40
0.9910124500198204
 50
179.4779976199998
 51
270.52199999999573
  0
LINE
  5
179AB
  8
AM_0
 10
1448.4201226151829
 20
683.962336592214
 30
0.0
 11
1452.420122615262
 21
683.962336592214
 31
0.0
  0
LINE
  5
179AC
  8
AM_0
 10
1448.4201226151829
 20
685.96233659225402
 30
0.0
 11
1452.420122615262
 21
685.96233659225402
 31
0.0
  0
ARC
  5
179AD
  8
AM_0
 10
1452.411032615262
 20
684.97142659223425
 30
0.0
 40
1.0091312000201811
 50
270.51612999999958
 51
359.48387000000042
  0
LINE
  5
179AE
  8
AM_0
 10
1451.4201226152429
 20
684.36235659222211
 30
0.0
 11
1451.4201226152429
 21
685.5223365922451
 31
0.0
  0
ARC
  5
179AF
  8
AM_0
 10
1448.411092615182
 20
682.97136659219404
 30
0.0
 40
0.9910124500198204
 50
89.478000000004315
 51
180.5219999999957
  0
POINT
  5
179B0
  8
AM_0
 10
1455.914022615332
 20
689.96233659233394
 30
0.0
  0
LINE
  5
179B1
  8
AM_0
 10
1448.4201226151829
 20
693.96233659241386
 30
0.0
 11
1452.420122615262
 21
693.96233659241386
 31
0.0
  0
LINE
  5
179B2
  8
AM_0
 10
1448.4201226151829
 20
695.96233659245411
 30
0.0
 11
1452.420122615262
 21
695.96233659245411
 31
0.0
  0
ARC
  5
179B3
  8
AM_0
 10
1452.411032615262
 20
694.95324659243363
 30
0.0
 40
1.0091312000201811
 50
0.5161299999996342
 51
89.483873999999005
  0
LINE
  5
179B4
  8
AM_0
 10
1451.4201226152429
 20
695.56234659244603
 30
0.0
 11
1451.4201226152429
 21
694.40233659242278
 31
0.0
  0
ARC
  5
179B5
  8
AM_0
 10
1452.4279026152631
 20
694.95452659243381
 30
0.0
 40
0.9922232600198446
 50
269.54914999999261
 51
0.4508400000029697
  0
ARC
  5
179B6
  8
AM_0
 10
1448.428002615183
 20
692.95446659239383
 30
0.0
 40
1.007920400020158
 50
90.448488000004716
 51
179.55151003999859
  0
ARC
  5
179B7
  8
AM_0
 10
1452.4279026152631
 20
684.97014659223407
 30
0.0
 40
0.9922232600198446
 50
359.5491499999992
 51
90.450844999995397
  0
ARC
  5
179B8
  8
AM_0
 10
1448.428002615183
 20
686.97023659227409
 30
0.0
 40
1.007920400020158
 50
180.44848999999721
 51
269.55151000000927
  0
ARC
  5
179B9
  8
AM_0
 10
1439.860092615012
 20
674.96233659203381
 30
0.0
 40
1.0000124000199999
 50
270.0
 51
89.999997000002296
  0
ARC
  5
179BA
  8
AM_0
 10
1441.0879726150361
 20
674.95235659203377
 30
0.0
 40
1.3300232000265999
 50
269.66151999998948
 51
90.338467999992716
  0
LINE
  5
179BB
  8
AM_0
 10
1445.4201226151231
 20
655.66234659164775
 30
0.0
 11
1442.240102615059
 21
655.66234659164775
 31
0.0
  0
ARC
  5
179BC
  8
AM_0
 10
1439.8689126150121
 20
654.96233659163408
 30
0.0
 40
1.0000387000199991
 50
269.49565999999669
 51
90.504331999994875
  0
ARC
  5
179BD
  8
AM_0
 10
1439.8689126150121
 20
664.96233659183406
 30
0.0
 40
1.0000387000199991
 50
269.49565999999669
 51
90.504331999994875
  0
ARC
  5
179BE
  8
AM_0
 10
1440.957412615033
 20
664.9423465918336
 30
0.0
 40
1.460102600029201
 50
269.32099999999571
 51
90.678993000004596
  0
LINE
  5
179BF
  8
AM_0
 10
1454.920122615312
 20
669.96233659193388
 30
0.0
 11
1453.4201226152829
 21
669.84233659193171
 31
0.0
  0
LINE
  5
179C0
  8
AM_0
 10
1455.914022615332
 20
674.74056659202972
 30
0.0
 11
1455.414022615322
 21
671.97054659197431
 31
0.0
  0
LINE
  5
179C1
  8
AM_0
 10
1455.414022615322
 20
671.97054659197431
 30
0.0
 11
1454.914022615312
 21
672.01055659197482
 31
0.0
  0
LINE
  5
179C2
  8
AM_0
 10
1448.4201226151829
 20
675.96233659205393
 30
0.0
 11
1452.420122615262
 21
675.96233659205393
 31
0.0
  0
LINE
  5
179C3
  8
AM_0
 10
1448.4201226151829
 20
673.9623365920138
 30
0.0
 11
1452.420122615262
 21
673.9623365920138
 31
0.0
  0
ARC
  5
179C4
  8
AM_0
 10
1452.411032615262
 20
674.97142659203439
 30
0.0
 40
1.0091312000201811
 50
270.51612999999958
 51
359.48387000000042
  0
ARC
  5
179C5
  8
AM_0
 10
1452.4279026152631
 20
674.97014659203376
 30
0.0
 40
0.9922232600198446
 50
359.5491499999992
 51
90.450844999995397
  0
LINE
  5
179C6
  8
AM_0
 10
1451.4201226152429
 20
674.36235659202214
 30
0.0
 11
1451.4201226152429
 21
675.58232659204623
 31
0.0
  0
ARC
  5
179C7
  8
AM_0
 10
1448.411092615182
 20
672.97136659199396
 30
0.0
 40
0.9910124500198204
 50
89.478000000004315
 51
180.5219999999957
  0
ARC
  5
179C8
  8
AM_0
 10
1448.428002615183
 20
676.970236592074
 30
0.0
 40
1.007920400020158
 50
180.44848999999721
 51
269.55151000000927
  0
ARC
  5
179C9
  8
AM_0
 10
1451.2068726152379
 20
655.28856659164057
 30
0.0
 40
1.006237100020124
 50
269.61523999999793
 51
293.00461999999879
  0
LINE
  5
179CA
  8
AM_0
 10
1451.260122615239
 20
656.22234659165917
 30
0.0
 11
1448.4201226151829
 21
656.22234659165917
 31
0.0
  0
ARC
  5
179CB
  8
AM_0
 10
1452.420582615262
 20
655.80703659165101
 30
0.0
 40
0.999532700019991
 50
292.3150500000005
 51
359.73186999999979
  0
LINE
  5
179CC
  8
AM_0
 10
1451.560142615245
 20
656.26235659166014
 30
0.0
 11
1452.7001226152679
 21
656.62236659166717
 31
0.0
  0
ARC
  5
179CD
  8
AM_0
 10
1451.27745261524
 20
657.23732659167945
 30
0.0
 40
1.015145100020302
 50
269.02162000000948
 51
286.16767000000561
  0
LINE
  5
179CE
  8
AM_0
 10
1451.600112615246
 20
654.36235659162185
 30
0.0
 11
1452.8001026152699
 21
654.88234659163243
 31
0.0
  0
LINE
  5
179CF
  8
AM_0
 10
1451.4201226152429
 20
654.5823265916265
 30
0.0
 11
1451.4201226152429
 21
655.64235659164763
 31
0.0
  0
ARC
  5
179D0
  8
AM_0
 10
1448.115682615176
 20
653.58678659160626
 30
0.0
 40
0.6955789300139117
 50
89.634663999989783
 51
180.36533999999941
  0
LINE
  5
179D1
  8
AM_0
 10
1451.2001226152379
 20
654.28234659162035
 30
0.0
 11
1448.1201026151771
 21
654.28234659162035
 31
0.0
  0
LINE
  5
179D2
  8
AM_0
 10
1448.4201226151829
 20
663.96233659181394
 30
0.0
 11
1452.420122615262
 21
663.96233659181394
 31
0.0
  0
ARC
  5
179D3
  8
AM_0
 10
1452.411032615262
 20
664.97142659183419
 30
0.0
 40
1.0091312000201811
 50
270.51612999999958
 51
359.48387000000042
  0
LINE
  5
179D4
  8
AM_0
 10
1448.4201226151829
 20
665.96233659185373
 30
0.0
 11
1452.420122615262
 21
665.96233659185373
 31
0.0
  0
ARC
  5
179D5
  8
AM_0
 10
1452.4279026152631
 20
664.97014659183424
 30
0.0
 40
0.9922232600198446
 50
359.5491499999992
 51
90.450844999995397
  0
LINE
  5
179D6
  8
AM_0
 10
1451.4201226152429
 20
664.34233659182155
 30
0.0
 11
1451.4201226152429
 21
665.70235659184902
 31
0.0
  0
ARC
  5
179D7
  8
AM_0
 10
1448.411092615182
 20
662.97136659179398
 30
0.0
 40
0.9910124500198204
 50
89.478000000004315
 51
180.5219999999957
  0
ARC
  5
179D8
  8
AM_0
 10
1448.428002615183
 20
666.97023659187369
 30
0.0
 40
1.007920400020158
 50
180.44848999999721
 51
269.55151000000927
  0
ARC
  5
179D9
  8
AM_0
 10
1452.4156726152621
 20
657.58568659168645
 30
0.0
 40
1.0044501000200889
 50
286.45034999999712
 51
359.80985000000021
  0
ARC
  5
179DA
  8
AM_0
 10
1448.4264126151829
 20
657.22866659167914
 30
0.0
 40
1.0063295000201249
 50
180.359249999996
 51
269.640750000004
  0
ARC
  5
179DB
  8
AM_0
 10
1422.412612614663
 20
626.72983659106922
 30
0.0
 40
2.007501100040149
 50
270.21368999999891
 51
359.78629999999572
  0
ARC
  5
179DC
  8
AM_0
 10
1422.414962614663
 20
628.08750659109626
 30
0.0
 40
2.0051613000401018
 50
270.14728999999318
 51
359.85271000000029
  0
ARC
  5
179DD
  8
AM_0
 10
1422.412192614662
 20
626.05802659105598
 30
0.0
 40
1.995694300039913
 50
270.22735000000159
 51
345.02512000000161
  0
ARC
  5
179DE
  8
AM_0
 10
1422.410782614663
 20
630.11167659113721
 30
0.0
 40
2.0093489000401861
 50
270.2659600000004
 51
359.73403999999971
  0
LINE
  5
179DF
  8
AM_0
 10
1401.4201226142429
 20
643.62233659140713
 30
0.0
 11
1437.420122614963
 21
645.27507687326965
 31
0.0
  0
LINE
  5
179E0
  8
AM_0
 10
1440.7501126150289
 20
653.23235659159923
 30
0.0
 11
1367.4201226135631
 21
653.23235659159923
 31
0.0
  0
LINE
  5
179E1
  8
AM_0
 10
1367.4201226135631
 20
653.23235659159923
 30
0.0
 11
1307.600112612366
 21
653.23235659159923
 31
0.0
  0
LINE
  5
179E2
  8
AM_0
 10
1367.4201226135631
 20
628.10234659109665
 30
0.0
 11
1307.600112612366
 21
628.10234659109665
 31
0.0
  0
LINE
  5
179E3
  8
AM_0
 10
1422.4201226146629
 20
626.08234659105642
 30
0.0
 11
1307.6203522419869
 21
626.08234659105608
 31
0.0
  0
LINE
  5
179E4
  8
AM_0
 10
1422.4201226146629
 20
624.72234659102924
 30
0.0
 11
1307.6203522367989
 21
624.72234659102912
 31
0.0
  0
LINE
  5
179E5
  8
AM_0
 10
1422.4201226146629
 20
624.06234659101585
 30
0.0
 11
1307.620352234296
 21
624.06234659101619
 31
0.0
  0
LINE
  5
179E6
  8
AM_0
 10
1401.4201226142429
 20
643.62233659140713
 30
0.0
 11
1307.600112612366
 21
643.62233659140713
 31
0.0
  0
ARC
  5
179E7
  8
AM_0
 10
1307.6097626120629
 20
626.73933659233387
 30
0.0
 40
2.0170177999999992
 50
194.85160000000181
 51
269.72630000000368
  0
ARC
  5
179E8
  8
AM_0
 10
1307.6097626120629
 20
626.07933659233424
 30
0.0
 40
2.0170177999999992
 50
194.85160000000181
 51
269.72630000000368
  0
ARC
  5
179E9
  8
AM_0
 10
1301.0789110497519
 20
636.94234659233393
 30
0.0
 40
2.0
 50
15.01429759842142
 51
80.176950960278162
1001
GENIUS_GENOBJ-N-FIL_13
1002
{
1000
OWNER
1000
GEN
1002
}
1001
GENIUS_GENODEF_13
1002
{
1000
HIER
1070
     0
1002
}
1002
{
1000
MANEDIT
1070
     0
1002
}
1002
{
1000
NOSEL
1070
     0
1002
}
1002
{
1000
BEHIND
1070
     0
1002
}
1002
{
1000
OTHER
1070
     0
1002
}
1002
{
1000
REACTOR
1002
}
  0
LINE
  5
179EA
  8
AM_0
 10
1305.660112612328
 20
629.60233659112635
 30
0.0
 11
1302.9243026122731
 21
639.80233659133069
 31
0.0
  0
LINE
  5
179EB
  8
AM_0
 10
1302.420122612263
 20
639.50234659132468
 30
0.0
 11
1301.4201226122429
 21
639.50234659132468
 31
0.0
  0
LINE
  5
179EC
  8
AM_0
 10
1302.420122612263
 20
647.10234659147659
 30
0.0
 11
1301.4201226122429
 21
647.10234659147659
 31
0.0
  0
LINE
  5
179ED
  8
AM_0
 10
1301.4201226122429
 20
644.0797065914162
 30
0.0
 11
1302.420122612263
 21
643.50237659140475
 31
0.0
  0
LINE
  5
179EE
  8
AM_0
 10
1307.600112612366
 20
653.23235659159923
 30
0.0
 11
1301.420122813983
 21
653.23235659159923
 31
0.0
  0
ARC
  5
179EF
  8
AM_0
 10
1300.75926261223
 20
642.13555659137717
 30
0.0
 40
1.4868059000297349
 50
14.28273999999911
 51
63.610220000000922
  0
LINE
  5
179F0
  8
AM_0
 10
1301.4201226122429
 20
643.0797065913963
 30
0.0
 11
1302.420122612263
 21
642.50234659138471
 31
0.0
  0
LINE
  5
179F1
  8
AM_0
 10
1301.4201226122429
 20
647.10234659147659
 30
0.0
 11
1301.4201226122429
 21
639.50234659132468
 31
0.0
  0
LINE
  5
179F2
  8
0
  6
CONTINUOUS
 62
     7
 10
1300.4201226120631
 20
652.82235682724661
 30
0.0
 11
1292.4201226120631
 21
652.82235682724661
 31
0.0
  0
LINE
  5
179F3
  8
AM_0
 10
1302.420122612263
 20
639.80234659133077
 30
0.0
 11
1303.320122612281
 21
639.80234659133077
 31
0.0
  0
ARC
  5
179F4
  8
AM_0
 10
1303.320122612281
 20
641.50234659136459
 30
0.0
 40
1.700000800033999
 50
270.000020000002
 51
359.999989999999
  0
LINE
  5
179F5
  8
AM_0
 10
1307.600112612366
 20
643.62233659140713
 30
0.0
 11
1305.020102612315
 21
643.62233659140713
 31
0.0
  0
LINE
  5
179F6
  8
AM_0
 10
1302.420122612263
 20
646.80233659147063
 30
0.0
 11
1303.320122612281
 21
646.80233659147063
 31
0.0
  0
ARC
  5
179F7
  8
AM_0
 10
1303.320122612281
 20
645.10234659143646
 30
0.0
 40
1.6999969000339989
 50
0.0000199999955061
 51
89.999997000002296
  0
LINE
  5
179F8
  8
AM_0
 10
1305.020102612315
 20
645.10234659143646
 30
0.0
 11
1305.020102612315
 21
641.50234659136459
 31
0.0
  0
LINE
  5
179F9
  8
AM_0
 10
1302.420122612263
 20
647.10234659147659
 30
0.0
 11
1302.420122612263
 21
639.50234659132468
 31
0.0
  0
ARC
  5
179FA
  8
AM_0
 10
1300.411032612222
 20
626.97142659107396
 30
0.0
 40
1.0091312000201811
 50
270.51612999999958
 51
359.48387000000042
  0
ARC
  5
179FB
  8
AM_0
 10
1300.4117026122231
 20
638.93074659131321
 30
0.0
 40
1.0084445000201681
 50
270.4777999999996
 51
350.45392999999717
  0
LINE
  5
179FC
  8
AM_0
 10
1303.1549662632301
 20
638.94234659233405
 30
0.0
 11
1301.4201228434531
 21
638.94234659233393
 31
0.0
  0
LINE
  5
179FD
  8
AM_0
 10
1304.6140649298959
 20
629.46234659233426
 30
0.0
 11
1301.420122863123
 21
629.46234659233426
 31
0.0
  0
LINE
  5
179FE
  8
0
  6
CONTINUOUS
 62
     7
 10
1300.4201226120631
 20
625.96234682724651
 30
0.0
 11
1292.4201226120631
 21
625.96234682724651
 31
0.0
  0
LINE
  5
179FF
  8
0
  6
CONTINUOUS
 62
     7
 10
1300.4201226120631
 20
637.9223468272462
 30
0.0
 11
1292.4201226120631
 21
637.9223468272462
 31
0.0
  0
ARC
  5
17A00
  8
AM_0
 10
1307.6097626120629
 20
628.09933659233423
 30
0.0
 40
2.0170177999999992
 50
194.85160000000181
 51
269.72630000000368
  0
ARC
  5
17A01
  8
AM_0
 10
1307.6097626123669
 20
630.11933659113708
 30
0.0
 40
2.0170178000403398
 50
194.85160000000181
 51
269.72630000000368
  0
LINE
  5
17A02
  8
AM_0
 10
1305.6601126120629
 20
625.56233659233442
 30
0.0
 11
1304.1049601528539
 21
631.36045674100262
 31
0.0
  0
LINE
  5
17A03
  8
AM_0
 10
1303.884518278729
 20
632.84233659233416
 30
0.0
 11
1302.173237731919
 21
632.84233659233416
 31
0.0
  0
LINE
  5
17A04
  8
AM_0
 10
1303.702128263229
 20
634.8823465923341
 30
0.0
 11
1301.803096049752
 21
634.8823465923341
 31
0.0
  0
LINE
  5
17A05
  8
AM_0
 10
1305.6601126120629
 20
627.58233659233417
 30
0.0
 11
1303.010633470687
 21
637.46046674100273
 31
0.0
  0
LINE
  5
17A06
  8
AM_0
 10
1305.6601126120629
 20
626.22233659233405
 30
0.0
 11
1303.7348184706871
 21
633.40046674100267
 31
0.0
  0
ARC
  5
17A07
  8
AM_0
 10
1301.803096049752
 20
632.88234659233422
 30
0.0
 40
2.0
 50
15.01429759842142
 51
90.0
1001
GENIUS_GENODEF_13
1002
{
1000
HIER
1070
     0
1002
}
1002
{
1000
MANEDIT
1070
     0
1002
}
1002
{
1000
NOSEL
1070
     0
1002
}
1002
{
1000
BEHIND
1070
     0
1002
}
1002
{
1000
OTHER
1070
     0
1002
}
1002
{
1000
REACTOR
1002
}
1001
GENIUS_GENOBJ-N-FIL_13
1002
{
1000
OWNER
1000
GEN
1002
}
  0
ARC
  5
17A08
  8
AM_0
 10
1302.173237731919
 20
630.84233659233405
 30
0.0
 40
2.0
 50
15.01429759842142
 51
90.0
1001
GENIUS_GENOBJ-N-FIL_13
1002
{
1000
OWNER
1000
GEN
1002
}
1001
GENIUS_GENODEF_13
1002
{
1000
HIER
1070
     0
1002
}
1002
{
1000
MANEDIT
1070
     0
1002
}
1002
{
1000
NOSEL
1070
     0
1002
}
1002
{
1000
BEHIND
1070
     0
1002
}
1002
{
1000
OTHER
1070
     0
1002
}
1002
{
1000
REACTOR
1002
}
  0
LINE
  5
17A09
  8
AM_0
 10
1422.4201226146629
 20
628.10234659109665
 30
0.0
 11
1367.4201226135631
 21
628.10234659109665
 31
0.0
  0
LINE
  5
17A0A
  8
AM_0
 10
1447.4201226151631
 20
632.58461026109364
 30
0.0
 11
1442.5801326150661
 21
632.48235659118427
 31
0.0
  0
LINE
  5
17A0B
  8
AM_0
 10
1447.4201226151631
 20
641.62233659136723
 30
0.0
 11
1437.420122614963
 21
641.62233659136723
 31
0.0
  0
LINE
  5
17A0C
  8
AM_0
 10
1447.4201226151631
 20
647.2823465914804
 30
0.0
 11
1437.420122614963
 21
647.2823465914804
 31
0.0
  0
ARC
  5
17A0D
  8
AM_0
 10
1443.628952615087
 20
637.44339659128354
 30
0.0
 40
1.498966200029979
 50
90.338467999992716
 51
168.49632400000141
  0
LINE
  5
17A0E
  8
AM_0
 10
1441.6801026150481
 20
641.62233659136723
 30
0.0
 11
1441.1601126150381
 21
638.64234659130739
 31
0.0
  0
ARC
  5
17A0F
  8
AM_0
 10
1437.78072261497
 20
652.32289659158096
 30
0.0
 40
6.0113902001202266
 50
225.40403999999171
 51
266.56085000000547
  0
ARC
  5
17A10
  8
AM_0
 10
1434.2698826149001
 20
648.76476659151012
 30
0.0
 40
1.0127641000202541
 50
175.6067472000023
 51
225.5053399999899
  0
LINE
  5
17A11
  8
AM_0
 10
1437.420122614963
 20
650.46233659154404
 30
0.0
 11
1437.420122614963
 21
653.24233659159938
 31
0.0
  0
LINE
  5
17A12
  8
AM_0
 10
1437.420122614963
 20
641.62233659136723
 30
0.0
 11
1437.420122614963
 21
653.23235659159923
 31
0.0
  0
LINE
  5
17A13
  8
AM_0
 10
1439.3001026150009
 20
626.66234659106794
 30
0.0
 11
1425.8001026147299
 21
626.66234659106794
 31
0.0
  0
LINE
  5
17A14
  8
AM_0
 10
1439.280112615
 20
628.3023465911009
 30
0.0
 11
1425.9201226147329
 21
628.3023465911009
 31
0.0
  0
LINE
  5
17A15
  8
AM_0
 10
1439.2401026149989
 20
631.70233659116889
 30
0.0
 11
1425.9201226147329
 21
631.70233659116889
 31
0.0
  0
LINE
  5
17A16
  8
AM_0
 10
1439.1801026149981
 20
636.98233659127425
 30
0.0
 11
1425.9201226147329
 21
636.98233659127425
 31
0.0
  0
ARC
  5
17A17
  8
AM_0
 10
1425.78819261473
 20
625.16628659103833
 30
0.0
 40
1.496115700029921
 50
89.543494999997478
 51
165.44181399999911
  0
ARC
  5
17A18
  8
AM_0
 10
1425.913962614733
 20
630.20850659113887
 30
0.0
 40
1.4938502000298759
 50
89.763639000008595
 51
180.23636000000101
  0
ARC
  5
17A19
  8
AM_0
 10
1425.9128026147321
 20
635.48964659124454
 30
0.0
 40
1.492715800029853
 50
89.719720999993342
 51
180.28028000000049
  0
ARC
  5
17A1A
  8
AM_0
 10
1425.915972614732
 20
626.80646659107083
 30
0.0
 40
1.4958795000299161
 50
89.841954000008684
 51
180.1580399999992
  0
LINE
  5
17A1B
  8
AM_0
 10
1424.4201226147029
 20
628.08234659109621
 30
0.0
 11
1424.4201226147029
 21
635.48233659124435
 31
0.0
  0
ARC
  5
17A1C
  8
AM_0
 10
1439.292832615
 20
628.66967659110821
 30
0.0
 40
2.0073326000401459
 50
270.20782000000122
 51
345.94993999999821
  0
LINE
  5
17A1D
  8
AM_0
 10
1443.5801026150859
 20
632.84233659119184
 30
0.0
 11
1441.9401126150531
 21
632.84233659119184
 31
0.0
  0
LINE
  5
17A1E
  8
AM_0
 10
1443.620102615087
 20
638.94234659131382
 30
0.0
 11
1441.200122615038
 21
638.94234659131382
 31
0.0
  0
ARC
  5
17A1F
  8
AM_0
 10
1443.6037826150859
 20
633.37894659120229
 30
0.0
 40
1.5034074000300679
 50
90.139585999999795
 51
166.79614399999519
  0
LINE
  5
17A20
  8
AM_0
 10
1443.600112615087
 20
634.88234659123236
 30
0.0
 11
1441.540122615045
 21
634.88234659123236
 31
0.0
  0
ARC
  5
17A21
  8
AM_0
 10
1443.5702726150851
 20
631.34357659116165
 30
0.0
 40
1.4987990000299749
 50
89.623441999996544
 51
165.36186499999789
  0
LINE
  5
17A22
  8
AM_0
 10
1441.2000926150381
 20
633.28235659120026
 30
0.0
 11
1442.1601126150581
 21
637.74234659128956
 31
0.0
  0
ARC
  5
17A23
  8
AM_0
 10
1439.1837026149981
 20
638.98889659131441
 30
0.0
 40
2.00656600004013
 50
269.89753000000422
 51
350.05432000000008
  0
LINE
  5
17A24
  8
AM_0
 10
1441.2201126150389
 20
629.84233659113158
 30
0.0
 11
1442.140092615057
 21
633.72234659120898
 31
0.0
  0
ARC
  5
17A25
  8
AM_0
 10
1439.2410126149989
 20
633.70691659120882
 30
0.0
 40
2.0045698000400902
 50
269.97404000000353
 51
347.77208999999681
  0
LINE
  5
17A26
  8
AM_0
 10
1441.2401026150389
 20
628.18236659109834
 30
0.0
 11
1442.120102615057
 21
631.72235659116916
 31
0.0
  0
ARC
  5
17A27
  8
AM_0
 10
1439.273822615
 20
630.30222659114065
 30
0.0
 40
1.999890900039996
 50
270.18042000000139
 51
346.70569999999861
  0
ARC
  5
17A28
  8
AM_0
 10
1452.4129526152619
 20
641.95253659137359
 30
0.0
 40
1.007194200020143
 50
300.23341999999798
 51
0.557679999999959
  0
LINE
  5
17A29
  8
AM_0
 10
1451.6201026152471
 20
641.4823365913644
 30
0.0
 11
1452.860092615271
 21
642.10231659137673
 31
0.0
  0
ARC
  5
17A2A
  8
AM_0
 10
1451.1266026152371
 20
643.3334565914015
 30
0.0
 40
1.011208500020224
 50
270.76568999999762
 51
300.51881000001379
  0
LINE
  5
17A2B
  8
AM_0
 10
1451.640122615247
 20
640.36234659134175
 30
0.0
 11
1452.9200926152721
 21
641.08232659135615
 31
0.0
  0
LINE
  5
17A2C
  8
AM_0
 10
1451.4201226152429
 20
640.48233659134428
 30
0.0
 11
1451.4201226152429
 21
641.00234659135481
 31
0.0
  0
ARC
  5
17A2D
  8
AM_0
 10
1451.1425326152371
 20
642.36678659138215
 30
0.0
 40
1.005138300020102
 50
272.14229000000063
 51
298.3679399999948
  0
ARC
  5
17A2E
  8
AM_0
 10
1451.129232615237
 20
641.22409659135928
 30
0.0
 40
1.001808000020036
 50
270.62282000000391
 51
300.66166999999479
  0
ARC
  5
17A2F
  8
AM_0
 10
1447.926472615173
 20
641.86870659137196
 30
0.0
 40
0.506400760010128
 50
180.71970000000459
 51
269.28030000000177
  0
ARC
  5
17A30
  8
AM_0
 10
1447.9157626151721
 20
639.7266965913293
 30
0.0
 40
0.4956644500099134
 50
89.496618999999583
 51
180.50337999999951
  0
LINE
  5
17A31
  8
AM_0
 10
1451.180102615238
 20
641.36234659136187
 30
0.0
 11
1447.920122615172
 21
641.36234659136187
 31
0.0
  0
LINE
  5
17A32
  8
AM_0
 10
1451.140122615237
 20
640.22234659133915
 30
0.0
 11
1447.920122615172
 21
640.22234659133915
 31
0.0
  0
LINE
  5
17A33
  8
AM_0
 10
1451.140122615237
 20
642.32235659138109
 30
0.0
 11
1447.4201226151631
 21
642.32235659138109
 31
0.0
  0
LINE
  5
17A34
  8
AM_0
 10
1451.160112615237
 20
643.4623365914041
 30
0.0
 11
1448.4201226151829
 21
643.4623365914041
 31
0.0
  0
ARC
  5
17A35
  8
AM_0
 10
1451.161822615237
 20
644.47554659142418
 30
0.0
 40
1.0131912000202621
 50
269.90372000000059
 51
298.1687600000007
  0
LINE
  5
17A36
  8
AM_0
 10
1451.660112615247
 20
647.00237659147467
 30
0.0
 11
1452.9601326152731
 21
647.86235659149202
 31
0.0
  0
LINE
  5
17A37
  8
AM_0
 10
1451.4201226152429
 20
647.14235659147755
 30
0.0
 11
1451.4201226152429
 21
647.62233659148706
 31
0.0
  0
LINE
  5
17A38
  8
AM_0
 10
1451.140122615237
 20
647.98235659149418
 30
0.0
 11
1448.4201226151829
 21
647.98235659149418
 31
0.0
  0
ARC
  5
17A39
  8
AM_0
 10
1452.4183826152621
 20
648.70494659150881
 30
0.0
 40
1.001733900020034
 50
302.73763000000417
 51
359.85045999999608
  0
ARC
  5
17A3A
  8
AM_0
 10
1452.4145726152631
 20
649.73162659152933
 30
0.0
 40
1.00559290002011
 50
300.18133000000728
 51
359.47162000000122
  0
LINE
  5
17A3B
  8
AM_0
 10
1451.640122615247
 20
648.12233659149706
 30
0.0
 11
1452.9201226152729
 21
648.86235659151203
 31
0.0
  0
ARC
  5
17A3C
  8
AM_0
 10
1451.1278626152371
 20
648.98900659151434
 30
0.0
 40
1.0067360000201351
 50
270.69805999999448
 51
300.58643000000149
  0
ARC
  5
17A3D
  8
AM_0
 10
1452.415122615263
 20
645.1333565914374
 30
0.0
 40
1.0050608000201
 50
297.5588099999967
 51
359.37160000000102
  0
ARC
  5
17A3E
  8
AM_0
 10
1451.1144626152361
 20
647.85265659149184
 30
0.0
 40
1.010318000020205
 50
270.32013999999481
 51
302.68858000000841
  0
ARC
  5
17A3F
  8
AM_0
 10
1452.4211326152631
 20
644.1077865914167
 30
0.0
 40
0.99898326001998
 50
299.96535999999588
 51
359.68761000000097
  0
LINE
  5
17A40
  8
AM_0
 10
1451.6400926152471
 20
643.5823265914064
 30
0.0
 11
1452.8801126152721
 21
644.2423665914198
 31
0.0
  0
ARC
  5
17A41
  8
AM_0
 10
1448.4255226151829
 20
648.98775659151454
 30
0.0
 40
1.005422700020107
 50
180.30819000000329
 51
269.69181000000981
  0
LINE
  5
17A42
  8
AM_0
 10
1451.1201026152371
 20
646.84233659147162
 30
0.0
 11
1447.4201226151631
 21
646.84233659147162
 31
0.0
  0
ARC
  5
17A43
  8
AM_0
 10
1448.4271726151831
 20
644.46941659142431
 30
0.0
 40
1.0070832000201411
 50
180.4015799999984
 51
269.59842000000162
  0
ARC
  5
17A44
  8
AM_0
 10
1452.417072615262
 20
643.0022565913946
 30
0.0
 40
1.0030519000200611
 50
296.21265000000881
 51
0.005769999997708
  0
LINE
  5
17A45
  8
AM_0
 10
1451.640122615247
 20
642.46236659138401
 30
0.0
 11
1452.9200926152721
 21
643.24233659139963
 31
0.0
  0
LINE
  5
17A46
  8
AM_0
 10
1451.4201226152429
 20
642.58232659138662
 30
0.0
 11
1451.4201226152429
 21
643.12233659139724
 31
0.0
  0
CIRCLE
  5
17A47
  8
ｽﾝﾎﾟｳｾﾝ
 10
1135.4165355222169
 20
364.86445755632673
 30
0.0
 40
4.0
  0
ARC
  5
17A48
  8
AM_0
 10
1135.4165355222169
 20
364.86445755632622
 30
0.0
 40
16.0
 50
108.2099568642828
 51
71.790043135717227
  0
LINE
  5
17A49
  8
AM_0
 10
1130.4165355222169
 20
383.86445755632622
 30
0.0
 11
1130.4165355222169
 21
375.86445755632622
 31
0.0
  0
LINE
  5
17A4A
  8
AM_0
 10
1140.4165355222169
 20
375.86445755632622
 30
0.0
 11
1140.4165355222169
 21
383.86445755632622
 31
0.0
  0
LINE
  5
17A4B
  8
AM_0
 10
1130.4165355222169
 20
375.86445755632622
 30
0.0
 11
1140.4165355222169
 21
375.86445755632622
 31
0.0
  0
LINE
  5
17A4C
  8
AM_0
 10
1140.4165355222169
 20
383.86445755632622
 30
0.0
 11
1130.4165355222169
 21
383.86445755632622
 31
0.0
  0
CIRCLE
  5
17A4D
  8
0
 10
1135.4165355222169
 20
364.86445755632673
 30
0.0
 40
49.999999500000001
  0
CIRCLE
  5
17A4E
  8
AM_0
 10
1135.4165355222169
 20
364.86445755632673
 30
0.0
 40
3.399999999999999
  0
LINE
  5
17A4F
  8
AM_0
 10
1265.419336707201
 20
748.96228560366262
 30
0.0
 11
1060.4193610538041
 21
748.96228560366274
 31
0.0
  0
LINE
  5
17A50
  8
AM_0
 10
1185.4173367153339
 20
753.96228575277405
 30
0.0
 11
1085.4157343290999
 21
753.96228575277405
 31
0.0
  0
LINE
  5
17A51
  8
AM_0
 10
1185.4173367153339
 20
625.96228193551713
 30
0.0
 11
1085.4157343290999
 21
625.96228193551713
 31
0.0
  0
POLYLINE
  5
17A52
  8
AM_0
 10
1165.9164452131649
 20
747.96228557383961
 30
0.0
 66
     1
 70
     8
  0
VERTEX
  8
AM_0
  5
1874A
 10
1165.92
 20
747.962
 30
0.000000
  70
    32
  0
VERTEX
  8
AM_0
  5
1874B
 10
1165.89
 20
747.962
 30
0.000000
  70
    32
  0
VERTEX
  8
AM_0
  5
1874C
 10
1165.87
 20
747.962
 30
0.000000
  70
    32
  0
VERTEX
  8
AM_0
  5
1874D
 10
1165.84
 20
747.961
 30
0.000000
  70
    32
  0
VERTEX
  8
AM_0
  5
1874E
 10
1165.82
 20
747.960
 30
0.000000
  70
    32
  0
VERTEX
  8
AM_0
  5
1874F
 10
1165.79
 20
747.959
 30
0.000000
  70
    32
  0
VERTEX
  8
AM_0
  5
18750
 10
1165.77
 20
747.957
 30
0.000000
  70
    32
  0
VERTEX
  8
AM_0
  5
18751
 10
1165.74
 20
747.955
 30
0.000000
  70
    32
  0
VERTEX
  8
AM_0
  5
18752
 10
1165.72
 20
747.953
 30
0.000000
  70
    32
  0
VERTEX
  8
AM_0
  5
18753
 10
1165.70
 20
747.950
 30
0.000000
  70
    32
  0
VERTEX
  8
AM_0
  5
18754
 10
1165.67
 20
747.947
 30
0.000000
  70
    32
  0
VERTEX
  8
AM_0
  5
18755
 10
1165.65
 20
747.944
 30
0.000000
  70
    32
  0
VERTEX
  8
AM_0
  5
18756
 10
1165.62
 20
747.941
 30
0.000000
  70
    32
  0
VERTEX
  8
AM_0
  5
18757
 10
1165.60
 20
747.937
 30
0.000000
  70
    32
  0
VERTEX
  8
AM_0
  5
18758
 10
1165.57
 20
747.933
 30
0.000000
  70
    32
  0
VERTEX
  8
AM_0
  5
18759
 10
1165.55
 20
747.928
 30
0.000000
  70
    32
  0
VERTEX
  8
AM_0
  5
1875A
 10
1165.53
 20
747.924
 30
0.000000
  70
    32
  0
VERTEX
  8
AM_0
  5
1875B
 10
1165.50
 20
747.919
 30
0.000000
  70
    32
  0
VERTEX
  8
AM_0
  5
1875C
 10
1165.48
 20
747.914
 30
0.000000
  70
    32
  0
VERTEX
  8
AM_0
  5
1875D
 10
1165.45
 20
747.908
 30
0.000000
  70
    32
  0
VERTEX
  8
AM_0
  5
1875E
 10
1165.43
 20
747.902
 30
0.000000
  70
    32
  0
VERTEX
  8
AM_0
  5
1875F
 10
1165.41
 20
747.896
 30
0.000000
  70
    32
  0
VERTEX
  8
AM_0
  5
18760
 10
1165.38
 20
747.890
 30
0.000000
  70
    32
  0
VERTEX
  8
AM_0
  5
18761
 10
1165.36
 20
747.883
 30
0.000000
  70
    32
  0
VERTEX
  8
AM_0
  5
18762
 10
1165.34
 20
747.876
 30
0.000000
  70
    32
  0
VERTEX
  8
AM_0
  5
18763
 10
1165.31
 20
747.869
 30
0.000000
  70
    32
  0
VERTEX
  8
AM_0
  5
18764
 10
1165.29
 20
747.861
 30
0.000000
  70
    32
  0
VERTEX
  8
AM_0
  5
18765
 10
1165.27
 20
747.854
 30
0.000000
  70
    32
  0
VERTEX
  8
AM_0
  5
18766
 10
1165.24
 20
747.845
 30
0.000000
  70
    32
  0
VERTEX
  8
AM_0
  5
18767
 10
1165.22
 20
747.837
 30
0.000000
  70
    32
  0
VERTEX
  8
AM_0
  5
18768
 10
1165.20
 20
747.828
 30
0.000000
  70
    32
  0
VERTEX
  8
AM_0
  5
18769
 10
1165.17
 20
747.819
 30
0.000000
  70
    32
  0
VERTEX
  8
AM_0
  5
1876A
 10
1165.15
 20
747.810
 30
0.000000
  70
    32
  0
VERTEX
  8
AM_0
  5
1876B
 10
1165.13
 20
747.801
 30
0.000000
  70
    32
  0
VERTEX
  8
AM_0
  5
1876C
 10
1165.11
 20
747.791
 30
0.000000
  70
    32
  0
VERTEX
  8
AM_0
  5
1876D
 10
1165.08
 20
747.781
 30
0.000000
  70
    32
  0
VERTEX
  8
AM_0
  5
1876E
 10
1165.06
 20
747.770
 30
0.000000
  70
    32
  0
VERTEX
  8
AM_0
  5
1876F
 10
1165.04
 20
747.760
 30
0.000000
  70
    32
  0
VERTEX
  8
AM_0
  5
18770
 10
1165.02
 20
747.749
 30
0.000000
  70
    32
  0
VERTEX
  8
AM_0
  5
18771
 10
1165.00
 20
747.738
 30
0.000000
  70
    32
  0
VERTEX
  8
AM_0
  5
18772
 10
1164.97
 20
747.726
 30
0.000000
  70
    32
  0
VERTEX
  8
AM_0
  5
18773
 10
1164.95
 20
747.714
 30
0.000000
  70
    32
  0
VERTEX
  8
AM_0
  5
18774
 10
1164.93
 20
747.702
 30
0.000000
  70
    32
  0
VERTEX
  8
AM_0
  5
18775
 10
1164.91
 20
747.690
 30
0.000000
  70
    32
  0
VERTEX
  8
AM_0
  5
18776
 10
1164.89
 20
747.678
 30
0.000000
  70
    32
  0
VERTEX
  8
AM_0
  5
18777
 10
1164.87
 20
747.665
 30
0.000000
  70
    32
  0
VERTEX
  8
AM_0
  5
18778
 10
1164.85
 20
747.652
 30
0.000000
  70
    32
  0
VERTEX
  8
AM_0
  5
18779
 10
1164.83
 20
747.639
 30
0.000000
  70
    32
  0
VERTEX
  8
AM_0
  5
1877A
 10
1164.81
 20
747.625
 30
0.000000
  70
    32
  0
VERTEX
  8
AM_0
  5
1877B
 10
1164.78
 20
747.611
 30
0.000000
  70
    32
  0
VERTEX
  8
AM_0
  5
1877C
 10
1164.76
 20
747.597
 30
0.000000
  70
    32
  0
VERTEX
  8
AM_0
  5
1877D
 10
1164.74
 20
747.583
 30
0.000000
  70
    32
  0
VERTEX
  8
AM_0
  5
1877E
 10
1164.73
 20
747.569
 30
0.000000
  70
    32
  0
VERTEX
  8
AM_0
  5
1877F
 10
1164.71
 20
747.554
 30
0.000000
  70
    32
  0
VERTEX
  8
AM_0
  5
18780
 10
1164.69
 20
747.539
 30
0.000000
  70
    32
  0
VERTEX
  8
AM_0
  5
18781
 10
1164.67
 20
747.524
 30
0.000000
  70
    32
  0
VERTEX
  8
AM_0
  5
18782
 10
1164.65
 20
747.508
 30
0.000000
  70
    32
  0
VERTEX
  8
AM_0
  5
18783
 10
1164.63
 20
747.493
 30
0.000000
  70
    32
  0
VERTEX
  8
AM_0
  5
18784
 10
1164.61
 20
747.477
 30
0.000000
  70
    32
  0
VERTEX
  8
AM_0
  5
18785
 10
1164.59
 20
747.461
 30
0.000000
  70
    32
  0
VERTEX
  8
AM_0
  5
18786
 10
1164.57
 20
747.444
 30
0.000000
  70
    32
  0
VERTEX
  8
AM_0
  5
18787
 10
1164.56
 20
747.428
 30
0.000000
  70
    32
  0
VERTEX
  8
AM_0
  5
18788
 10
1164.54
 20
747.411
 30
0.000000
  70
    32
  0
VERTEX
  8
AM_0
  5
18789
 10
1164.52
 20
747.394
 30
0.000000
  70
    32
  0
VERTEX
  8
AM_0
  5
1878A
 10
1164.50
 20
747.376
 30
0.000000
  70
    32
  0
VERTEX
  8
AM_0
  5
1878B
 10
1164.48
 20
747.359
 30
0.000000
  70
    32
  0
VERTEX
  8
AM_0
  5
1878C
 10
1164.47
 20
747.341
 30
0.000000
  70
    32
  0
VERTEX
  8
AM_0
  5
1878D
 10
1164.45
 20
747.323
 30
0.000000
  70
    32
  0
VERTEX
  8
AM_0
  5
1878E
 10
1164.43
 20
747.305
 30
0.000000
  70
    32
  0
VERTEX
  8
AM_0
  5
1878F
 10
1164.42
 20
747.287
 30
0.000000
  70
    32
  0
VERTEX
  8
AM_0
  5
18790
 10
1164.40
 20
747.269
 30
0.000000
  70
    32
  0
VERTEX
  8
AM_0
  5
18791
 10
1164.39
 20
747.250
 30
0.000000
  70
    32
  0
VERTEX
  8
AM_0
  5
18792
 10
1164.37
 20
747.231
 30
0.000000
  70
    32
  0
VERTEX
  8
AM_0
  5
18793
 10
1164.35
 20
747.212
 30
0.000000
  70
    32
  0
VERTEX
  8
AM_0
  5
18794
 10
1164.34
 20
747.193
 30
0.000000
  70
    32
  0
VERTEX
  8
AM_0
  5
18795
 10
1164.32
 20
747.173
 30
0.000000
  70
    32
  0
VERTEX
  8
AM_0
  5
18796
 10
1164.31
 20
747.154
 30
0.000000
  70
    32
  0
VERTEX
  8
AM_0
  5
18797
 10
1164.30
 20
747.134
 30
0.000000
  70
    32
  0
VERTEX
  8
AM_0
  5
18798
 10
1164.28
 20
747.114
 30
0.000000
  70
    32
  0
VERTEX
  8
AM_0
  5
18799
 10
1164.27
 20
747.094
 30
0.000000
  70
    32
  0
VERTEX
  8
AM_0
  5
1879A
 10
1164.25
 20
747.073
 30
0.000000
  70
    32
  0
VERTEX
  8
AM_0
  5
1879B
 10
1164.24
 20
747.053
 30
0.000000
  70
    32
  0
VERTEX
  8
AM_0
  5
1879C
 10
1164.23
 20
747.032
 30
0.000000
  70
    32
  0
VERTEX
  8
AM_0
  5
1879D
 10
1164.21
 20
747.011
 30
0.000000
  70
    32
  0
VERTEX
  8
AM_0
  5
1879E
 10
1164.20
 20
746.990
 30
0.000000
  70
    32
  0
VERTEX
  8
AM_0
  5
1879F
 10
1164.19
 20
746.969
 30
0.000000
  70
    32
  0
VERTEX
  8
AM_0
  5
187A0
 10
1164.18
 20
746.948
 30
0.000000
  70
    32
  0
VERTEX
  8
AM_0
  5
187A1
 10
1164.16
 20
746.927
 30
0.000000
  70
    32
  0
VERTEX
  8
AM_0
  5
187A2
 10
1164.15
 20
746.905
 30
0.000000
  70
    32
  0
VERTEX
  8
AM_0
  5
187A3
 10
1164.14
 20
746.883
 30
0.000000
  70
    32
  0
VERTEX
  8
AM_0
  5
187A4
 10
1164.13
 20
746.862
 30
0.000000
  70
    32
  0
VERTEX
  8
AM_0
  5
187A5
 10
1164.12
 20
746.840
 30
0.000000
  70
    32
  0
VERTEX
  8
AM_0
  5
187A6
 10
1164.11
 20
746.817
 30
0.000000
  70
    32
  0
VERTEX
  8
AM_0
  5
187A7
 10
1164.10
 20
746.795
 30
0.000000
  70
    32
  0
VERTEX
  8
AM_0
  5
187A8
 10
1164.09
 20
746.773
 30
0.000000
  70
    32
  0
VERTEX
  8
AM_0
  5
187A9
 10
1164.08
 20
746.750
 30
0.000000
  70
    32
  0
VERTEX
  8
AM_0
  5
187AA
 10
1164.07
 20
746.728
 30
0.000000
  70
    32
  0
VERTEX
  8
AM_0
  5
187AB
 10
1164.06
 20
746.705
 30
0.000000
  70
    32
  0
VERTEX
  8
AM_0
  5
187AC
 10
1164.05
 20
746.682
 30
0.000000
  70
    32
  0
VERTEX
  8
AM_0
  5
187AD
 10
1164.04
 20
746.659
 30
0.000000
  70
    32
  0
VERTEX
  8
AM_0
  5
187AE
 10
1164.03
 20
746.636
 30
0.000000
  70
    32
  0
VERTEX
  8
AM_0
  5
187AF
 10
1164.03
 20
746.613
 30
0.000000
  70
    32
  0
VERTEX
  8
AM_0
  5
187B0
 10
1164.02
 20
746.590
 30
0.000000
  70
    32
  0
VERTEX
  8
AM_0
  5
187B1
 10
1164.01
 20
746.566
 30
0.000000
  70
    32
  0
VERTEX
  8
AM_0
  5
187B2
 10
1164.00
 20
746.543
 30
0.000000
  70
    32
  0
VERTEX
  8
AM_0
  5
187B3
 10
1164.00
 20
746.519
 30
0.000000
  70
    32
  0
VERTEX
  8
AM_0
  5
187B4
 10
1163.99
 20
746.496
 30
0.000000
  70
    32
  0
VERTEX
  8
AM_0
  5
187B5
 10
1163.98
 20
746.472
 30
0.000000
  70
    32
  0
VERTEX
  8
AM_0
  5
187B6
 10
1163.98
 20
746.448
 30
0.000000
  70
    32
  0
VERTEX
  8
AM_0
  5
187B7
 10
1163.97
 20
746.424
 30
0.000000
  70
    32
  0
VERTEX
  8
AM_0
  5
187B8
 10
1163.97
 20
746.400
 30
0.000000
  70
    32
  0
VERTEX
  8
AM_0
  5
187B9
 10
1163.96
 20
746.377
 30
0.000000
  70
    32
  0
VERTEX
  8
AM_0
  5
187BA
 10
1163.95
 20
746.352
 30
0.000000
  70
    32
  0
VERTEX
  8
AM_0
  5
187BB
 10
1163.95
 20
746.328
 30
0.000000
  70
    32
  0
VERTEX
  8
AM_0
  5
187BC
 10
1163.95
 20
746.304
 30
0.000000
  70
    32
  0
VERTEX
  8
AM_0
  5
187BD
 10
1163.94
 20
746.280
 30
0.000000
  70
    32
  0
VERTEX
  8
AM_0
  5
187BE
 10
1163.94
 20
746.256
 30
0.000000
  70
    32
  0
VERTEX
  8
AM_0
  5
187BF
 10
1163.93
 20
746.231
 30
0.000000
  70
    32
  0
VERTEX
  8
AM_0
  5
187C0
 10
1163.93
 20
746.207
 30
0.000000
  70
    32
  0
VERTEX
  8
AM_0
  5
187C1
 10
1163.93
 20
746.183
 30
0.000000
  70
    32
  0
VERTEX
  8
AM_0
  5
187C2
 10
1163.93
 20
746.158
 30
0.000000
  70
    32
  0
VERTEX
  8
AM_0
  5
187C3
 10
1163.92
 20
746.134
 30
0.000000
  70
    32
  0
VERTEX
  8
AM_0
  5
187C4
 10
1163.92
 20
746.109
 30
0.000000
  70
    32
  0
VERTEX
  8
AM_0
  5
187C5
 10
1163.92
 20
746.085
 30
0.000000
  70
    32
  0
VERTEX
  8
AM_0
  5
187C6
 10
1163.92
 20
746.060
 30
0.000000
  70
    32
  0
VERTEX
  8
AM_0
  5
187C7
 10
1163.92
 20
746.036
 30
0.000000
  70
    32
  0
VERTEX
  8
AM_0
  5
187C8
 10
1163.92
 20
746.011
 30
0.000000
  70
    32
  0
VERTEX
  8
AM_0
  5
187C9
 10
1163.92
 20
745.987
 30
0.000000
  70
    32
  0
VERTEX
  8
AM_0
  5
187CA
 10
1163.92
 20
745.962
 30
0.000000
  70
    32
  0
SEQEND
  8
AM_0
  5
187CB
  0
LINE
  5
17A53
  8
AM_0
 10
1177.916685745889
 20
739.96228533526164
 30
0.0
 11
1162.916385298545
 21
739.96228533526164
 31
0.0
  0
LINE
  5
17A54
  8
AM_0
 10
1265.419336707201
 20
630.96228208462867
 30
0.0
 11
1060.4193610538041
 21
630.96228208462912
 31
0.0
  0
LINE
  5
17A55
  8
AM_0
 10
1265.4201226115231
 20
723.96228485810445
 30
0.0
 11
1060.420147015526
 21
723.96228485810445
 31
0.0
  0
LINE
  5
17A56
  8
ﾁｭｳｼﾝｾﾝ1
 10
1462.164022612063
 20
689.96228384414553
 30
0.0
 11
1055.420147015526
 21
689.96228384414553
 31
0.0
1001
GENIUS_GENODEF_13
1002
{
1000
HIER
1070
     0
1002
}
1002
{
1000
MANEDIT
1070
     0
1002
}
1002
{
1000
NOSEL
1070
     0
1002
}
1002
{
1000
BEHIND
1070
     0
1002
}
1002
{
1000
REACTOR
1002
}
1001
GENIUS_GENOBJ-N-CEN_13
1002
{
1000
OWNER
1000
GEN
1002
}
  0
LINE
  5
17A57
  8
AM_0
 10
1263.674573733173
 20
630.96228208462855
 30
0.0
 11
1265.420122611675
 21
723.96228485810445
 31
0.0
  0
LINE
  5
17A58
  8
AM_0
 10
1281.4201226120631
 20
628.46228884414495
 30
0.0
 11
1281.4201226120631
 21
751.46226884414546
 31
0.0
  0
LINE
  5
17A59
  8
AM_0
 10
1292.4201226120631
 20
753.96231384414614
 30
0.0
 11
1292.4201226120631
 21
625.96229884414561
 31
0.0
  0
ARC
  5
17A5A
  8
AM_0
 10
1278.4201226120631
 20
754.46226884414523
 30
0.0
 40
2.9999999999999978
 50
270.0
 51
324.3146652873416
1001
GENIUS_GENOBJ-N-FIL_13
1002
{
1000
OWNER
1000
GEN
1002
}
1001
GENIUS_GENODEF_13
1002
{
1000
HIER
1070
     0
1002
}
1002
{
1000
MANEDIT
1070
     0
1002
}
1002
{
1000
NOSEL
1070
     0
1002
}
1002
{
1000
BEHIND
1070
     0
1002
}
1002
{
1000
OTHER
1070
     0
1002
}
1002
{
1000
REACTOR
1002
}
  0
LINE
  5
17A5B
  8
AM_0
 10
1292.4201226120631
 20
753.96226884414534
 30
0.0
 11
1283.293519784467
 21
753.96226884414534
 31
0.0
  0
ARC
  5
17A5C
  8
AM_0
 10
1283.293519784467
 20
750.96226884414534
 30
0.0
 40
2.9999999999999978
 50
90.000000000000057
 51
144.31466528734151
1001
GENIUS_GENOBJ-N-FIL_13
1002
{
1000
OWNER
1000
GEN
1002
}
1001
GENIUS_GENODEF_13
1002
{
1000
HIER
1070
     0
1002
}
1002
{
1000
MANEDIT
1070
     0
1002
}
1002
{
1000
NOSEL
1070
     0
1002
}
1002
{
1000
BEHIND
1070
     0
1002
}
1002
{
1000
OTHER
1070
     0
1002
}
1002
{
1000
REACTOR
1002
}
  0
LINE
  5
17A5D
  8
AM_0
 10
1292.4201226120631
 20
742.00226884414496
 30
0.0
 11
1282.4201226120631
 21
742.00226884414496
 31
0.0
  0
LINE
  5
17A5E
  8
AM_0
 10
1292.4201804342799
 20
742.00227884411345
 30
0.0
 11
1282.4201804342861
 21
742.0022899552248
 31
0.0
  0
LINE
  5
17A5F
  8
AM_0
 10
1292.4201226120631
 20
727.10225884414524
 30
0.0
 11
1282.4201226120631
 21
727.10225884414524
 31
0.0
  0
LINE
  5
17A60
  8
AM_0
 10
1292.4201638787131
 20
727.1022688441227
 30
0.0
 11
1282.4201638787199
 21
727.10227995523405
 31
0.0
  0
ARC
  5
17A61
  8
AM_0
 10
1275.8336991330721
 20
749.46226884414523
 30
0.0
 40
2.0
 50
90.000000000000057
 51
175.00000000000051
1001
GENIUS_GENODEF_13
1002
{
1000
HIER
1070
     0
1002
}
1002
{
1000
MANEDIT
1070
     0
1002
}
1002
{
1000
NOSEL
1070
     0
1002
}
1002
{
1000
BEHIND
1070
     0
1002
}
1002
{
1000
OTHER
1070
     0
1002
}
1002
{
1000
REACTOR
1002
}
1001
GENIUS_GENOBJ-N-FIL_13
1002
{
1000
OWNER
1000
GEN
1002
}
  0
LINE
  5
17A62
  8
AM_0
 10
1185.4173367153339
 20
625.96228193551713
 30
0.0
 11
1185.4173367153339
 21
630.96228208462867
 31
0.0
  0
LINE
  5
17A63
  8
AM_0
 10
1278.4201226120631
 20
751.46226884414546
 30
0.0
 11
1275.8336991330721
 21
751.46226884414523
 31
0.0
  0
LINE
  5
17A64
  8
AM_0
 10
1271.579849660211
 20
723.78797337260914
 30
0.0
 11
1273.8413097368889
 21
749.63658032964054
 31
0.0
  0
LINE
  5
17A65
  8
AM_0
 10
1265.4201226115231
 20
723.96228485810445
 30
0.0
 11
1265.1059378517871
 21
748.96228560366205
 31
0.0
  0
ARC
  5
17A66
  8
AM_0
 10
1266.4015293980481
 20
722.96228485810445
 30
0.0
 40
1.0
 50
178.92472216393861
 51
270.0
1001
GENIUS_GENODEF_13
1002
{
1000
HIER
1070
     0
1002
}
1002
{
1000
MANEDIT
1070
     0
1002
}
1002
{
1000
NOSEL
1070
     0
1002
}
1002
{
1000
BEHIND
1070
     0
1002
}
1002
{
1000
OTHER
1070
     0
1002
}
1002
{
1000
REACTOR
1002
}
1001
GENIUS_GENOBJ-N-FIL_13
1002
{
1000
OWNER
1000
GEN
1002
}
  0
ARC
  5
17A67
  8
AM_0
 10
1269.5874602640281
 20
723.96228485810445
 30
0.0
 40
2.0
 50
270.0
 51
355.00000000000051
1001
GENIUS_GENOBJ-N-FIL_13
1002
{
1000
OWNER
1000
GEN
1002
}
1001
GENIUS_GENODEF_13
1002
{
1000
HIER
1070
     0
1002
}
1002
{
1000
MANEDIT
1070
     0
1002
}
1002
{
1000
NOSEL
1070
     0
1002
}
1002
{
1000
BEHIND
1070
     0
1002
}
1002
{
1000
OTHER
1070
     0
1002
}
1002
{
1000
REACTOR
1002
}
  0
LINE
  5
17A68
  8
AM_0
 10
1269.5874602640281
 20
721.96228485810445
 30
0.0
 11
1266.4015293980481
 21
721.96228485810445
 31
0.0
  0
LINE
  5
17A69
  8
AM_0
 10
1176.9166657160661
 20
745.96228551419495
 30
0.0
 11
1176.9166657160661
 21
739.96228533526164
 31
0.0
  0
LINE
  5
17A6A
  8
AM_0
 10
1177.916685745889
 20
748.96228560366205
 30
0.0
 11
1177.916685745889
 21
739.96228533526164
 31
0.0
  0
LINE
  5
17A6B
  8
AM_0
 10
1165.916445388013
 20
747.96228557384006
 30
0.0
 11
1174.9166256564199
 21
747.96228557384006
 31
0.0
  0
POLYLINE
  5
17A6C
  8
AM_0
 10
1176.9166657160656
 20
745.96228560161762
 30
0.0
 66
     1
 70
     8
  0
VERTEX
  8
AM_0
  5
187CC
 10
1176.92
 20
745.962
 30
0.000000
  70
    32
  0
VERTEX
  8
AM_0
  5
187CD
 10
1176.92
 20
745.987
 30
0.000000
  70
    32
  0
VERTEX
  8
AM_0
  5
187CE
 10
1176.92
 20
746.011
 30
0.000000
  70
    32
  0
VERTEX
  8
AM_0
  5
187CF
 10
1176.92
 20
746.036
 30
0.000000
  70
    32
  0
VERTEX
  8
AM_0
  5
187D0
 10
1176.91
 20
746.060
 30
0.000000
  70
    32
  0
VERTEX
  8
AM_0
  5
187D1
 10
1176.91
 20
746.085
 30
0.000000
  70
    32
  0
VERTEX
  8
AM_0
  5
187D2
 10
1176.91
 20
746.109
 30
0.000000
  70
    32
  0
VERTEX
  8
AM_0
  5
187D3
 10
1176.91
 20
746.134
 30
0.000000
  70
    32
  0
VERTEX
  8
AM_0
  5
187D4
 10
1176.91
 20
746.158
 30
0.000000
  70
    32
  0
VERTEX
  8
AM_0
  5
187D5
 10
1176.90
 20
746.183
 30
0.000000
  70
    32
  0
VERTEX
  8
AM_0
  5
187D6
 10
1176.90
 20
746.207
 30
0.000000
  70
    32
  0
VERTEX
  8
AM_0
  5
187D7
 10
1176.90
 20
746.231
 30
0.000000
  70
    32
  0
VERTEX
  8
AM_0
  5
187D8
 10
1176.90
 20
746.256
 30
0.000000
  70
    32
  0
VERTEX
  8
AM_0
  5
187D9
 10
1176.89
 20
746.280
 30
0.000000
  70
    32
  0
VERTEX
  8
AM_0
  5
187DA
 10
1176.89
 20
746.304
 30
0.000000
  70
    32
  0
VERTEX
  8
AM_0
  5
187DB
 10
1176.88
 20
746.328
 30
0.000000
  70
    32
  0
VERTEX
  8
AM_0
  5
187DC
 10
1176.88
 20
746.352
 30
0.000000
  70
    32
  0
VERTEX
  8
AM_0
  5
187DD
 10
1176.87
 20
746.377
 30
0.000000
  70
    32
  0
VERTEX
  8
AM_0
  5
187DE
 10
1176.87
 20
746.400
 30
0.000000
  70
    32
  0
VERTEX
  8
AM_0
  5
187DF
 10
1176.86
 20
746.424
 30
0.000000
  70
    32
  0
VERTEX
  8
AM_0
  5
187E0
 10
1176.86
 20
746.448
 30
0.000000
  70
    32
  0
VERTEX
  8
AM_0
  5
187E1
 10
1176.85
 20
746.472
 30
0.000000
  70
    32
  0
VERTEX
  8
AM_0
  5
187E2
 10
1176.84
 20
746.496
 30
0.000000
  70
    32
  0
VERTEX
  8
AM_0
  5
187E3
 10
1176.84
 20
746.519
 30
0.000000
  70
    32
  0
VERTEX
  8
AM_0
  5
187E4
 10
1176.83
 20
746.543
 30
0.000000
  70
    32
  0
VERTEX
  8
AM_0
  5
187E5
 10
1176.82
 20
746.566
 30
0.000000
  70
    32
  0
VERTEX
  8
AM_0
  5
187E6
 10
1176.82
 20
746.590
 30
0.000000
  70
    32
  0
VERTEX
  8
AM_0
  5
187E7
 10
1176.81
 20
746.613
 30
0.000000
  70
    32
  0
VERTEX
  8
AM_0
  5
187E8
 10
1176.80
 20
746.636
 30
0.000000
  70
    32
  0
VERTEX
  8
AM_0
  5
187E9
 10
1176.79
 20
746.659
 30
0.000000
  70
    32
  0
VERTEX
  8
AM_0
  5
187EA
 10
1176.78
 20
746.682
 30
0.000000
  70
    32
  0
VERTEX
  8
AM_0
  5
187EB
 10
1176.77
 20
746.705
 30
0.000000
  70
    32
  0
VERTEX
  8
AM_0
  5
187EC
 10
1176.76
 20
746.728
 30
0.000000
  70
    32
  0
VERTEX
  8
AM_0
  5
187ED
 10
1176.75
 20
746.750
 30
0.000000
  70
    32
  0
VERTEX
  8
AM_0
  5
187EE
 10
1176.75
 20
746.773
 30
0.000000
  70
    32
  0
VERTEX
  8
AM_0
  5
187EF
 10
1176.73
 20
746.795
 30
0.000000
  70
    32
  0
VERTEX
  8
AM_0
  5
187F0
 10
1176.72
 20
746.817
 30
0.000000
  70
    32
  0
VERTEX
  8
AM_0
  5
187F1
 10
1176.71
 20
746.840
 30
0.000000
  70
    32
  0
VERTEX
  8
AM_0
  5
187F2
 10
1176.70
 20
746.862
 30
0.000000
  70
    32
  0
VERTEX
  8
AM_0
  5
187F3
 10
1176.69
 20
746.883
 30
0.000000
  70
    32
  0
VERTEX
  8
AM_0
  5
187F4
 10
1176.68
 20
746.905
 30
0.000000
  70
    32
  0
VERTEX
  8
AM_0
  5
187F5
 10
1176.67
 20
746.927
 30
0.000000
  70
    32
  0
VERTEX
  8
AM_0
  5
187F6
 10
1176.66
 20
746.948
 30
0.000000
  70
    32
  0
VERTEX
  8
AM_0
  5
187F7
 10
1176.64
 20
746.969
 30
0.000000
  70
    32
  0
VERTEX
  8
AM_0
  5
187F8
 10
1176.63
 20
746.990
 30
0.000000
  70
    32
  0
VERTEX
  8
AM_0
  5
187F9
 10
1176.62
 20
747.011
 30
0.000000
  70
    32
  0
VERTEX
  8
AM_0
  5
187FA
 10
1176.61
 20
747.032
 30
0.000000
  70
    32
  0
VERTEX
  8
AM_0
  5
187FB
 10
1176.59
 20
747.053
 30
0.000000
  70
    32
  0
VERTEX
  8
AM_0
  5
187FC
 10
1176.58
 20
747.073
 30
0.000000
  70
    32
  0
VERTEX
  8
AM_0
  5
187FD
 10
1176.57
 20
747.094
 30
0.000000
  70
    32
  0
VERTEX
  8
AM_0
  5
187FE
 10
1176.55
 20
747.114
 30
0.000000
  70
    32
  0
VERTEX
  8
AM_0
  5
187FF
 10
1176.54
 20
747.134
 30
0.000000
  70
    32
  0
VERTEX
  8
AM_0
  5
18800
 10
1176.52
 20
747.154
 30
0.000000
  70
    32
  0
VERTEX
  8
AM_0
  5
18801
 10
1176.51
 20
747.173
 30
0.000000
  70
    32
  0
VERTEX
  8
AM_0
  5
18802
 10
1176.49
 20
747.193
 30
0.000000
  70
    32
  0
VERTEX
  8
AM_0
  5
18803
 10
1176.48
 20
747.212
 30
0.000000
  70
    32
  0
VERTEX
  8
AM_0
  5
18804
 10
1176.46
 20
747.231
 30
0.000000
  70
    32
  0
VERTEX
  8
AM_0
  5
18805
 10
1176.45
 20
747.250
 30
0.000000
  70
    32
  0
VERTEX
  8
AM_0
  5
18806
 10
1176.43
 20
747.269
 30
0.000000
  70
    32
  0
VERTEX
  8
AM_0
  5
18807
 10
1176.41
 20
747.287
 30
0.000000
  70
    32
  0
VERTEX
  8
AM_0
  5
18808
 10
1176.40
 20
747.305
 30
0.000000
  70
    32
  0
VERTEX
  8
AM_0
  5
18809
 10
1176.38
 20
747.323
 30
0.000000
  70
    32
  0
VERTEX
  8
AM_0
  5
1880A
 10
1176.37
 20
747.341
 30
0.000000
  70
    32
  0
VERTEX
  8
AM_0
  5
1880B
 10
1176.35
 20
747.359
 30
0.000000
  70
    32
  0
VERTEX
  8
AM_0
  5
1880C
 10
1176.33
 20
747.376
 30
0.000000
  70
    32
  0
VERTEX
  8
AM_0
  5
1880D
 10
1176.31
 20
747.394
 30
0.000000
  70
    32
  0
VERTEX
  8
AM_0
  5
1880E
 10
1176.30
 20
747.411
 30
0.000000
  70
    32
  0
VERTEX
  8
AM_0
  5
1880F
 10
1176.28
 20
747.428
 30
0.000000
  70
    32
  0
VERTEX
  8
AM_0
  5
18810
 10
1176.26
 20
747.444
 30
0.000000
  70
    32
  0
VERTEX
  8
AM_0
  5
18811
 10
1176.24
 20
747.461
 30
0.000000
  70
    32
  0
VERTEX
  8
AM_0
  5
18812
 10
1176.22
 20
747.477
 30
0.000000
  70
    32
  0
VERTEX
  8
AM_0
  5
18813
 10
1176.20
 20
747.493
 30
0.000000
  70
    32
  0
VERTEX
  8
AM_0
  5
18814
 10
1176.19
 20
747.508
 30
0.000000
  70
    32
  0
VERTEX
  8
AM_0
  5
18815
 10
1176.17
 20
747.524
 30
0.000000
  70
    32
  0
VERTEX
  8
AM_0
  5
18816
 10
1176.15
 20
747.539
 30
0.000000
  70
    32
  0
VERTEX
  8
AM_0
  5
18817
 10
1176.13
 20
747.554
 30
0.000000
  70
    32
  0
VERTEX
  8
AM_0
  5
18818
 10
1176.11
 20
747.569
 30
0.000000
  70
    32
  0
VERTEX
  8
AM_0
  5
18819
 10
1176.09
 20
747.583
 30
0.000000
  70
    32
  0
VERTEX
  8
AM_0
  5
1881A
 10
1176.07
 20
747.597
 30
0.000000
  70
    32
  0
VERTEX
  8
AM_0
  5
1881B
 10
1176.05
 20
747.611
 30
0.000000
  70
    32
  0
VERTEX
  8
AM_0
  5
1881C
 10
1176.03
 20
747.625
 30
0.000000
  70
    32
  0
VERTEX
  8
AM_0
  5
1881D
 10
1176.01
 20
747.639
 30
0.000000
  70
    32
  0
VERTEX
  8
AM_0
  5
1881E
 10
1175.99
 20
747.652
 30
0.000000
  70
    32
  0
VERTEX
  8
AM_0
  5
1881F
 10
1175.97
 20
747.665
 30
0.000000
  70
    32
  0
VERTEX
  8
AM_0
  5
18820
 10
1175.94
 20
747.678
 30
0.000000
  70
    32
  0
VERTEX
  8
AM_0
  5
18821
 10
1175.92
 20
747.690
 30
0.000000
  70
    32
  0
VERTEX
  8
AM_0
  5
18822
 10
1175.90
 20
747.702
 30
0.000000
  70
    32
  0
VERTEX
  8
AM_0
  5
18823
 10
1175.88
 20
747.714
 30
0.000000
  70
    32
  0
VERTEX
  8
AM_0
  5
18824
 10
1175.86
 20
747.726
 30
0.000000
  70
    32
  0
VERTEX
  8
AM_0
  5
18825
 10
1175.84
 20
747.738
 30
0.000000
  70
    32
  0
VERTEX
  8
AM_0
  5
18826
 10
1175.82
 20
747.749
 30
0.000000
  70
    32
  0
VERTEX
  8
AM_0
  5
18827
 10
1175.79
 20
747.760
 30
0.000000
  70
    32
  0
VERTEX
  8
AM_0
  5
18828
 10
1175.77
 20
747.770
 30
0.000000
  70
    32
  0
VERTEX
  8
AM_0
  5
18829
 10
1175.75
 20
747.781
 30
0.000000
  70
    32
  0
VERTEX
  8
AM_0
  5
1882A
 10
1175.73
 20
747.791
 30
0.000000
  70
    32
  0
VERTEX
  8
AM_0
  5
1882B
 10
1175.70
 20
747.801
 30
0.000000
  70
    32
  0
VERTEX
  8
AM_0
  5
1882C
 10
1175.68
 20
747.810
 30
0.000000
  70
    32
  0
VERTEX
  8
AM_0
  5
1882D
 10
1175.66
 20
747.819
 30
0.000000
  70
    32
  0
VERTEX
  8
AM_0
  5
1882E
 10
1175.64
 20
747.828
 30
0.000000
  70
    32
  0
VERTEX
  8
AM_0
  5
1882F
 10
1175.61
 20
747.837
 30
0.000000
  70
    32
  0
VERTEX
  8
AM_0
  5
18830
 10
1175.59
 20
747.845
 30
0.000000
  70
    32
  0
VERTEX
  8
AM_0
  5
18831
 10
1175.57
 20
747.854
 30
0.000000
  70
    32
  0
VERTEX
  8
AM_0
  5
18832
 10
1175.54
 20
747.861
 30
0.000000
  70
    32
  0
VERTEX
  8
AM_0
  5
18833
 10
1175.52
 20
747.869
 30
0.000000
  70
    32
  0
VERTEX
  8
AM_0
  5
18834
 10
1175.50
 20
747.876
 30
0.000000
  70
    32
  0
VERTEX
  8
AM_0
  5
18835
 10
1175.47
 20
747.883
 30
0.000000
  70
    32
  0
VERTEX
  8
AM_0
  5
18836
 10
1175.45
 20
747.890
 30
0.000000
  70
    32
  0
VERTEX
  8
AM_0
  5
18837
 10
1175.43
 20
747.896
 30
0.000000
  70
    32
  0
VERTEX
  8
AM_0
  5
18838
 10
1175.40
 20
747.902
 30
0.000000
  70
    32
  0
VERTEX
  8
AM_0
  5
18839
 10
1175.38
 20
747.908
 30
0.000000
  70
    32
  0
VERTEX
  8
AM_0
  5
1883A
 10
1175.35
 20
747.914
 30
0.000000
  70
    32
  0
VERTEX
  8
AM_0
  5
1883B
 10
1175.33
 20
747.919
 30
0.000000
  70
    32
  0
VERTEX
  8
AM_0
  5
1883C
 10
1175.31
 20
747.924
 30
0.000000
  70
    32
  0
VERTEX
  8
AM_0
  5
1883D
 10
1175.28
 20
747.928
 30
0.000000
  70
    32
  0
VERTEX
  8
AM_0
  5
1883E
 10
1175.26
 20
747.933
 30
0.000000
  70
    32
  0
VERTEX
  8
AM_0
  5
1883F
 10
1175.23
 20
747.937
 30
0.000000
  70
    32
  0
VERTEX
  8
AM_0
  5
18840
 10
1175.21
 20
747.941
 30
0.000000
  70
    32
  0
VERTEX
  8
AM_0
  5
18841
 10
1175.19
 20
747.944
 30
0.000000
  70
    32
  0
VERTEX
  8
AM_0
  5
18842
 10
1175.16
 20
747.947
 30
0.000000
  70
    32
  0
VERTEX
  8
AM_0
  5
18843
 10
1175.14
 20
747.950
 30
0.000000
  70
    32
  0
VERTEX
  8
AM_0
  5
18844
 10
1175.11
 20
747.953
 30
0.000000
  70
    32
  0
VERTEX
  8
AM_0
  5
18845
 10
1175.09
 20
747.955
 30
0.000000
  70
    32
  0
VERTEX
  8
AM_0
  5
18846
 10
1175.06
 20
747.957
 30
0.000000
  70
    32
  0
VERTEX
  8
AM_0
  5
18847
 10
1175.04
 20
747.959
 30
0.000000
  70
    32
  0
VERTEX
  8
AM_0
  5
18848
 10
1175.01
 20
747.960
 30
0.000000
  70
    32
  0
VERTEX
  8
AM_0
  5
18849
 10
1174.99
 20
747.961
 30
0.000000
  70
    32
  0
VERTEX
  8
AM_0
  5
1884A
 10
1174.97
 20
747.962
 30
0.000000
  70
    32
  0
VERTEX
  8
AM_0
  5
1884B
 10
1174.94
 20
747.962
 30
0.000000
  70
    32
  0
VERTEX
  8
AM_0
  5
1884C
 10
1174.92
 20
747.962
 30
0.000000
  70
    32
  0
SEQEND
  8
AM_0
  5
1884D
  0
ARC
  5
17A6D
  8
AM_0
 10
1278.4201226120631
 20
625.46228884414529
 30
0.0
 40
2.9999999999999978
 50
35.685334712658388
 51
90.000000000000057
1001
GENIUS_GENOBJ-N-FIL_13
1002
{
1000
OWNER
1000
GEN
1002
}
1001
GENIUS_GENODEF_13
1002
{
1000
HIER
1070
     0
1002
}
1002
{
1000
MANEDIT
1070
     0
1002
}
1002
{
1000
NOSEL
1070
     0
1002
}
1002
{
1000
BEHIND
1070
     0
1002
}
1002
{
1000
OTHER
1070
     0
1002
}
1002
{
1000
REACTOR
1002
}
  0
LINE
  5
17A6E
  8
AM_0
 10
1292.4201226120631
 20
652.82229884414539
 30
0.0
 11
1282.4201226120631
 21
652.82229884414539
 31
0.0
  0
LINE
  5
17A6F
  8
AM_0
 10
1292.4201226120631
 20
637.92228884414556
 30
0.0
 11
1282.4201226120631
 21
637.92228884414556
 31
0.0
  0
LINE
  5
17A70
  8
AM_0
 10
1292.4201226120631
 20
625.96228884414495
 30
0.0
 11
1283.293519784467
 21
625.96228884414495
 31
0.0
  0
ARC
  5
17A71
  8
AM_0
 10
1283.293519784467
 20
628.96228884414495
 30
0.0
 40
2.9999999999999978
 50
215.6853347126584
 51
270.0
1001
GENIUS_GENOBJ-N-FIL_13
1002
{
1000
OWNER
1000
GEN
1002
}
1001
GENIUS_GENODEF_13
1002
{
1000
HIER
1070
     0
1002
}
1002
{
1000
MANEDIT
1070
     0
1002
}
1002
{
1000
NOSEL
1070
     0
1002
}
1002
{
1000
BEHIND
1070
     0
1002
}
1002
{
1000
OTHER
1070
     0
1002
}
1002
{
1000
REACTOR
1002
}
  0
ARC
  5
17A72
  8
AM_0
 10
1265.674925990359
 20
630.96228208462855
 30
0.0
 40
2.0
 50
90.000000000000057
 51
178.9247221640299
1001
GENIUS_GENODEF_13
1002
{
1000
HIER
1070
     0
1002
}
1002
{
1000
MANEDIT
1070
     0
1002
}
1002
{
1000
NOSEL
1070
     0
1002
}
1002
{
1000
BEHIND
1070
     0
1002
}
1002
{
1000
OTHER
1070
     0
1002
}
1002
{
1000
REACTOR
1002
}
1001
GENIUS_GENOBJ-N-FIL_13
1002
{
1000
OWNER
1000
GEN
1002
}
  0
LINE
  5
17A73
  8
AM_0
 10
1271.6540939583999
 20
630.28797735864975
 30
0.0
 11
1271.579849660211
 21
631.13659357012375
 31
0.0
  0
ARC
  5
17A74
  8
AM_0
 10
1269.5874602640281
 20
630.96228208462855
 30
0.0
 40
2.0
 50
4.9999999999994484
 51
90.000000000000057
1001
GENIUS_GENODEF_13
1002
{
1000
HIER
1070
     0
1002
}
1002
{
1000
MANEDIT
1070
     0
1002
}
1002
{
1000
NOSEL
1070
     0
1002
}
1002
{
1000
BEHIND
1070
     0
1002
}
1002
{
1000
OTHER
1070
     0
1002
}
1002
{
1000
REACTOR
1002
}
1001
GENIUS_GENOBJ-N-FIL_13
1002
{
1000
OWNER
1000
GEN
1002
}
  0
LINE
  5
17A75
  8
AM_0
 10
1269.5874602640281
 20
632.96228208462855
 30
0.0
 11
1265.674925990359
 21
632.96228208462855
 31
0.0
  0
ARC
  5
17A76
  8
AM_0
 10
1273.6464833545831
 20
630.46228884414529
 30
0.0
 40
2.0
 50
184.9999999999994
 51
270.0
1001
GENIUS_GENOBJ-N-FIL_13
1002
{
1000
OWNER
1000
GEN
1002
}
1001
GENIUS_GENODEF_13
1002
{
1000
HIER
1070
     0
1002
}
1002
{
1000
MANEDIT
1070
     0
1002
}
1002
{
1000
NOSEL
1070
     0
1002
}
1002
{
1000
BEHIND
1070
     0
1002
}
1002
{
1000
OTHER
1070
     0
1002
}
1002
{
1000
REACTOR
1002
}
  0
LINE
  5
17A77
  8
AM_0
 10
1278.4201226120631
 20
628.46228884414495
 30
0.0
 11
1273.6464833545831
 21
628.46228884414529
 31
0.0
  0
LINE
  5
17A78
  8
AM_0
 10
1185.4173367153339
 20
753.96228575277405
 30
0.0
 11
1185.4173367153339
 21
748.96228560366262
 31
0.0
  0
LINE
  5
17A79
  8
ﾁｭｳｼﾝｾﾝ1
 10
1135.4165355222169
 20
763.96228590188548
 30
0.0
 11
1135.4165355222169
 21
529.96228384414496
 31
0.0
  0
LINE
  5
17A7A
  8
AM_0
 10
1062.164093509643
 20
630.96228208462855
 30
0.0
 11
1060.420147015526
 21
723.96228485810445
 31
0.0
  0
LINE
  5
17A7B
  8
AM_0
 10
1085.4157343290999
 20
625.96228193551713
 30
0.0
 11
1085.4157343290999
 21
630.96228208462867
 31
0.0
  0
LINE
  5
17A7C
  8
AM_0
 10
1160.4170362677901
 20
620.96228178640547
 30
0.0
 11
1110.416034776644
 21
620.96228178640547
 31
0.0
  0
LINE
  5
17A7D
  8
AM_0
 10
1160.4170362677901
 20
620.96228178640547
 30
0.0
 11
1160.4170362677901
 21
625.96228193551713
 31
0.0
  0
LINE
  5
17A7E
  8
AM_0
 10
1110.416034776644
 20
620.96228178640547
 30
0.0
 11
1110.416034776644
 21
625.96228193551713
 31
0.0
  0
LINE
  5
17A7F
  8
AM_0
 10
1163.916405328368
 20
745.96228551419495
 30
0.0
 11
1163.916405328368
 21
739.96228533526164
 31
0.0
  0
LINE
  5
17A80
  8
AM_0
 10
1162.916385298545
 20
748.96228560366205
 30
0.0
 11
1162.916385298545
 21
739.96228533526164
 31
0.0
  0
LINE
  5
17A81
  8
AM_0
 10
1060.420147015526
 20
723.96228485810445
 30
0.0
 11
1060.732759909218
 21
748.96228560366205
 31
0.0
  0
LINE
  5
17A82
  8
AM_0
 10
1085.4157343290999
 20
753.96228575277405
 30
0.0
 11
1085.4157343290999
 21
748.96228560366262
 31
0.0
  0
LINE
  5
17A83
  8
ｶｸﾚｾﾝ2
 10
1323.916568882079
 20
315.36407951951372
 30
0.0
 11
1397.9165688820781
 21
315.36407951951372
 31
0.0
  0
LINE
  5
17A84
  8
ｶｸﾚｾﾝ2
 10
1323.916568882079
 20
378.36407951951372
 30
0.0
 11
1397.9165688820781
 21
378.36407951951372
 31
0.0
  0
LINE
  5
17A85
  8
AM_0
 10
1425.4165388820791
 20
282.97406851951371
 30
0.0
 11
1372.4165388820791
 21
282.97406851951371
 31
0.0
  0
LINE
  5
17A86
  8
AM_0
 10
1425.4165388820791
 20
281.62405451951378
 30
0.0
 11
1372.4165388820791
 21
281.62405451951378
 31
0.0
  0
LINE
  5
17A87
  8
AM_0
 10
1425.4165388820791
 20
280.9540725195136
 30
0.0
 11
1372.4165388820791
 21
280.9540725195136
 31
0.0
  0
LINE
  5
17A88
  8
AM_0
 10
1403.4165388820791
 20
300.51405951951369
 30
0.0
 11
1305.016518748525
 21
300.51405951951398
 31
0.0
  0
LINE
  5
17A89
  8
AM_0
 10
1403.4165388820791
 20
393.21406951951371
 30
0.0
 11
1305.016518748525
 21
393.21406951951383
 31
0.0
  0
LINE
  5
17A8A
  8
AM_0
 10
1308.066508882079
 20
310.86407951951372
 30
0.0
 11
1442.866488882079
 21
310.8640795195135
 31
0.0
  0
LINE
  5
17A8B
  8
AM_0
 10
1425.4165388820791
 20
285.00406751951368
 30
0.0
 11
1308.6065488820791
 21
285.00406751951368
 31
0.0
  0
LINE
  5
17A8C
  8
AM_0
 10
1434.7365488820799
 20
383.58405951951357
 30
0.0
 11
1304.5965388820789
 21
383.58405951951357
 31
0.0
  0
LINE
  5
17A8D
  8
AM_0
 10
1308.066508882079
 20
382.86407951951372
 30
0.0
 11
1433.866488882079
 21
382.8640795195135
 31
0.0
  0
LINE
  5
17A8E
  8
AM_0
 10
1308.066508882079
 20
312.86406951951352
 30
0.0
 11
1442.866488882079
 21
312.86406951951352
 31
0.0
  0
LINE
  5
17A8F
  8
AM_0
 10
1304.5965388820789
 20
313.49406951951357
 30
0.0
 11
1443.7365488820781
 21
313.49406951951357
 31
0.0
  0
LINE
  5
17A90
  8
AM_0
 10
1443.7365488820781
 20
310.14405951951352
 30
0.0
 11
1304.5965388820789
 21
310.14405951951352
 31
0.0
  0
LINE
  5
17A91
  8
AM_0
 10
1304.5965388820789
 20
380.23405951951372
 30
0.0
 11
1434.7365488820799
 21
380.23405951951372
 31
0.0
  0
LINE
  5
17A92
  8
AM_0
 10
1305.4715688820791
 20
320.86406541951368
 30
0.0
 11
1442.866488882079
 21
320.86405951951349
 31
0.0
  0
LINE
  5
17A93
  8
AM_0
 10
1305.471568829719
 20
322.86407361951382
 30
0.0
 11
1442.866488882079
 21
322.8640795195135
 31
0.0
  0
LINE
  5
17A94
  8
AM_0
 10
1443.9565188820791
 20
320.3840695195135
 30
0.0
 11
1304.381538882079
 21
320.38405951951381
 31
0.0
  0
LINE
  5
17A95
  8
AM_0
 10
1443.9565188820791
 20
323.30407951951349
 30
0.0
 11
1304.3815388056339
 21
323.30405951951383
 31
0.0
  0
LINE
  5
17A96
  8
AM_0
 10
1444.0865288820789
 20
330.52405951951363
 30
0.0
 11
1304.2515288820789
 21
330.52407951951358
 31
0.0
  0
LINE
  5
17A97
  8
AM_0
 10
1305.4815633399201
 20
330.86408148975528
 30
0.0
 11
1442.8565488820791
 21
330.8640795195135
 31
0.0
  0
LINE
  5
17A98
  8
AM_0
 10
1305.4815632352011
 20
332.86407755018439
 30
0.0
 11
1442.8565488820791
 21
332.86405951951349
 31
0.0
  0
LINE
  5
17A99
  8
AM_0
 10
1444.0865288820801
 20
333.1840695195134
 30
0.0
 11
1304.2515288124409
 21
333.18407951951338
 31
0.0
  0
LINE
  5
17A9A
  8
AM_0
 10
1444.1465188820789
 20
340.59406951951348
 30
0.0
 11
1304.1915388820789
 21
340.5940555195138
 31
0.0
  0
LINE
  5
17A9B
  8
AM_0
 10
1305.481563339921
 20
340.86406148975527
 30
0.0
 11
1442.8565488820791
 21
340.8640795195135
 31
0.0
  0
LINE
  5
17A9C
  8
AM_0
 10
1305.4815632352011
 20
342.86405755018438
 30
0.0
 11
1442.8565488820791
 21
342.8640795195135
 31
0.0
  0
LINE
  5
17A9D
  8
AM_0
 10
1444.1465188820789
 20
343.1340695195135
 30
0.0
 11
1304.1915388155819
 21
343.13406351951369
 31
0.0
  0
LINE
  5
17A9E
  8
AM_0
 10
1444.1465188820789
 20
350.60406951951347
 30
0.0
 11
1304.1915388820789
 21
350.60404551951382
 31
0.0
  0
LINE
  5
17A9F
  8
AM_0
 10
1305.481563339921
 20
350.86406148975527
 30
0.0
 11
1442.8565488820791
 21
350.8640595195136
 31
0.0
  0
LINE
  5
17AA0
  8
AM_0
 10
1305.4815632352011
 20
352.8640575501845
 30
0.0
 11
1442.8565488820791
 21
352.8640795195135
 31
0.0
  0
LINE
  5
17AA1
  8
AM_0
 10
1444.1465188820789
 20
353.13406951951339
 30
0.0
 11
1304.1915388158441
 21
353.13405351951349
 31
0.0
  0
LINE
  5
17AA2
  8
AM_0
 10
1444.0865288820801
 20
360.54406951951358
 30
0.0
 11
1304.2515288820789
 21
360.54406951951381
 31
0.0
  0
LINE
  5
17AA3
  8
AM_0
 10
1305.481563339921
 20
360.86408148975528
 30
0.0
 11
1442.8565488820791
 21
360.8640595195136
 31
0.0
  0
LINE
  5
17AA4
  8
AM_0
 10
1305.4815632352011
 20
362.86407755018439
 30
0.0
 11
1442.8565488820791
 21
362.8640595195136
 31
0.0
  0
LINE
  5
17AA5
  8
AM_0
 10
1444.0865288820801
 20
363.20405951951352
 30
0.0
 11
1304.2515288124409
 21
363.20406951951372
 31
0.0
  0
LINE
  5
17AA6
  8
AM_0
 10
1434.9565188820791
 20
370.42406951951352
 30
0.0
 11
1304.3865288820789
 21
370.42406951951352
 31
0.0
  0
LINE
  5
17AA7
  8
AM_0
 10
1305.4765588820801
 20
370.86405541951348
 30
0.0
 11
1433.866488882079
 21
370.8640795195135
 31
0.0
  0
LINE
  5
17AA8
  8
AM_0
 10
1305.4765588297189
 20
372.86406361951362
 30
0.0
 11
1433.866488882079
 21
372.86405951951349
 31
0.0
  0
LINE
  5
17AA9
  8
AM_0
 10
1434.9565188820791
 20
373.35404951951358
 30
0.0
 11
1304.3865288053721
 21
373.3540695195137
 31
0.0
  0
LINE
  5
17AAA
  8
AM_0
 10
1308.0665278822021
 20
380.8640611652458
 30
0.0
 11
1433.866488882079
 21
380.86405951951349
 31
0.0
  0
LINE
  5
17AAB
  8
AM_0
 10
1425.4165388820791
 20
410.75405951951359
 30
0.0
 11
1372.4165388820791
 21
410.75405951951359
 31
0.0
  0
LINE
  5
17AAC
  8
AM_0
 10
1425.4165388820791
 20
412.10406951951347
 30
0.0
 11
1372.4165388820791
 21
412.10406951951347
 31
0.0
  0
LINE
  5
17AAD
  8
AM_0
 10
1425.4165388820791
 20
412.78405951951362
 30
0.0
 11
1372.4165388820791
 21
412.78405951951362
 31
0.0
  0
LINE
  5
17AAE
  8
AM_0
 10
1425.4165388820791
 20
408.72405951951367
 30
0.0
 11
1308.6065488820791
 21
408.72405951951379
 31
0.0
  0
LINE
  5
17AAF
  8
ｶｸﾚｾﾝ2
 10
1400.916568882079
 20
375.36407951951372
 30
0.0
 11
1400.916568882079
 21
318.36407951951372
 31
0.0
  0
LINE
  5
17AB0
  8
AM_0
 10
1453.4165088820789
 20
298.27406951951372
 30
0.0
 11
1453.4165088820789
 21
341.86408951951353
 31
0.0
  0
LINE
  5
17AB1
  8
AM_0
 10
1448.416568882079
 20
289.4340805195136
 30
0.0
 11
1448.4165688820799
 21
346.86407951951372
 31
0.0
  0
LINE
  5
17AB2
  8
AM_0
 10
1454.9165088820789
 20
366.86406951951352
 30
0.0
 11
1454.9165088820789
 21
326.86408951951353
 31
0.0
  0
LINE
  5
17AB3
  8
AM_0
 10
1455.9104088820791
 20
331.64218951951341
 30
0.0
 11
1455.9104088820791
 21
362.08581951951339
 31
0.0
  0
LINE
  5
17AB4
  8
AM_0
 10
1444.69650888208
 20
395.2140695195136
 30
0.0
 11
1444.156468882079
 21
398.20406951951361
 31
0.0
  0
LINE
  5
17AB5
  8
AM_0
 10
1451.416568882079
 20
396.36407951951372
 30
0.0
 11
1451.416568882079
 21
395.83407951951352
 31
0.0
  0
LINE
  5
17AB6
  8
AM_0
 10
1451.64654888208
 20
396.48407951951361
 30
0.0
 11
1452.9165688820799
 21
395.74406951951357
 31
0.0
  0
LINE
  5
17AB7
  8
AM_0
 10
1448.4165688820799
 20
404.29406951951341
 30
0.0
 11
1448.4165688820799
 21
346.86407951951372
 31
0.0
  0
ARC
  5
17AB8
  8
AM_0
 10
1425.4219788820781
 20
410.10949951951341
 30
0.0
 40
1.9945760999999991
 50
359.84400999999718
 51
90.155991999999998
  0
ARC
  5
17AB9
  8
AM_0
 10
1425.414038882079
 20
410.78921951951349
 30
0.0
 40
1.994844099999999
 50
14.36280000000006
 51
89.928342000008641
  0
LINE
  5
17ABA
  8
AM_0
 10
1442.1865588820781
 20
399.84405951951362
 30
0.0
 11
1428.9165388820791
 21
399.84405951951362
 31
0.0
  0
LINE
  5
17ABB
  8
AM_0
 10
1442.3065588820789
 20
410.16405951951327
 30
0.0
 11
1428.8065588820789
 21
410.16405951951327
 31
0.0
  0
LINE
  5
17ABC
  8
AM_0
 10
1442.2765288820799
 20
408.53405951951362
 30
0.0
 11
1428.9165388820791
 21
408.53405951951362
 31
0.0
  0
LINE
  5
17ABD
  8
AM_0
 10
1442.2464988820791
 20
405.13406951951339
 30
0.0
 11
1428.9165388820791
 21
405.13406951951339
 31
0.0
  0
ARC
  5
17ABE
  8
AM_0
 10
1442.2448488820789
 20
403.13866951951371
 30
0.0
 40
1.9953879999999991
 50
12.01538000000023
 51
89.951933000008736
  0
LINE
  5
17ABF
  8
AM_0
 10
1444.226538882079
 20
406.99406951951357
 30
0.0
 11
1445.1465788820799
 21
403.1140795195135
 31
0.0
  0
ARC
  5
17AC0
  8
AM_0
 10
1446.5882388820789
 20
405.49116951951351
 30
0.0
 40
1.5070961
 50
194.0978200000026
 51
269.93517999999841
  0
LINE
  5
17AC1
  8
AM_0
 10
1446.5865288820789
 20
403.98406951951358
 30
0.0
 11
1444.9364988820801
 21
403.98406951951358
 31
0.0
  0
LINE
  5
17AC2
  8
AM_0
 10
1448.4165988820801
 20
404.29406951951341
 30
0.0
 11
1445.5965388820789
 21
404.36405951951338
 31
0.0
  0
LINE
  5
17AC3
  8
AM_0
 10
1444.2465588820801
 20
408.6540795195134
 30
0.0
 11
1445.126568882079
 21
405.12408951951329
 31
0.0
  0
ARC
  5
17AC4
  8
AM_0
 10
1442.283728882079
 20
406.5386095195135
 30
0.0
 40
1.9954841000000001
 50
13.194079999997459
 51
90.206542000000866
  0
ARC
  5
17AC5
  8
AM_0
 10
1442.3092388820801
 20
408.1662895195135
 30
0.0
 40
1.9977800999999991
 50
14.132230000003119
 51
90.076919000002235
  0
LINE
  5
17AC6
  8
AM_0
 10
1446.626568882079
 20
397.90404951951348
 30
0.0
 11
1444.2065188820791
 21
397.90404951951348
 31
0.0
  0
ARC
  5
17AC7
  8
AM_0
 10
1446.6253388820789
 20
399.40819951951369
 30
0.0
 40
1.50414
 50
192.4447500000048
 51
270.04575000000801
  0
LINE
  5
17AC8
  8
AM_0
 10
1446.6065488820791
 20
401.96404951951342
 30
0.0
 11
1444.5465488820789
 21
401.96404951951342
 31
0.0
  0
ARC
  5
17AC9
  8
AM_0
 10
1446.6073388820789
 20
403.46686951951358
 30
0.0
 40
1.5028081
 50
193.57782000000131
 51
269.96921000000498
  0
ARC
  5
17ACA
  8
AM_0
 10
1451.1545388820789
 20
395.61819951951378
 30
0.0
 40
0.9959119600000002
 50
60.393009999995471
 51
90.458556000002645
  0
ARC
  5
17ACB
  8
AM_0
 10
1448.9211488820799
 20
397.11869951951388
 30
0.0
 40
0.5046359900000002
 50
180.5237599999995
 51
269.47624000000047
  0
LINE
  5
17ACC
  8
AM_0
 10
1451.14654888208
 20
396.61407951951372
 30
0.0
 11
1448.9165088820789
 21
396.61407951951372
 31
0.0
  0
ARC
  5
17ACD
  8
AM_0
 10
1442.1946788820801
 20
397.8506295195138
 30
0.0
 40
1.993431999999999
 50
10.211969999999811
 51
90.23411600000729
  0
LINE
  5
17ACE
  8
AM_0
 10
1444.1965088820789
 20
403.55405951951349
 30
0.0
 11
1445.1565288820791
 21
399.08405951951357
 31
0.0
  0
LINE
  5
17ACF
  8
AM_0
 10
1427.4165388820791
 20
408.75405951951359
 30
0.0
 11
1427.4165388820791
 21
401.34405951951339
 31
0.0
  0
ARC
  5
17AD0
  8
AM_0
 10
1428.9183088820789
 20
406.63584951951339
 30
0.0
 40
1.5017959999999979
 50
180.06854999999891
 51
269.93145000000101
  0
ARC
  5
17AD1
  8
AM_0
 10
1428.802898882079
 20
411.67095951951359
 30
0.0
 40
1.506888
 50
194.8769300000038
 51
270.1377700000005
  0
ARC
  5
17AD2
  8
AM_0
 10
1425.4192888820789
 20
408.75684951951359
 30
0.0
 40
1.9972080000000001
 50
359.91986000000099
 51
90.080142999999538
  0
ARC
  5
17AD3
  8
AM_0
 10
1425.4201388820791
 20
406.72767951951369
 30
0.0
 40
1.996383999999999
 50
359.89615999999739
 51
90.103837000006493
  0
ARC
  5
17AD4
  8
AM_0
 10
1428.9203888820789
 20
410.0378995195137
 30
0.0
 40
1.503848099999999
 50
180.14640000000301
 51
269.85359999999702
  0
ARC
  5
17AD5
  8
AM_0
 10
1428.9222188820791
 20
401.34972951951357
 30
0.0
 40
1.505676
 50
180.21552999999901
 51
269.78448000000759
  0
LINE
  5
17AD6
  8
AM_0
 10
1454.9165088820789
 20
362.0140895195135
 30
0.0
 11
1450.63653888208
 21
362.0140895195135
 31
0.0
  0
LINE
  5
17AD7
  8
AM_0
 10
1449.416568882079
 20
362.86407951951372
 30
0.0
 11
1452.4165688820799
 21
362.86407951951372
 31
0.0
  0
LINE
  5
17AD8
  8
AM_0
 10
1449.416568882079
 20
360.86406951951352
 30
0.0
 11
1452.4165688820799
 21
360.86406951951352
 31
0.0
  0
LINE
  5
17AD9
  8
AM_0
 10
1449.416568882079
 20
372.86406951951352
 30
0.0
 11
1452.4165688820799
 21
372.86406951951352
 31
0.0
  0
LINE
  5
17ADA
  8
AM_0
 10
1449.416568882079
 20
370.86407951951372
 30
0.0
 11
1452.4165688820799
 21
370.86407951951372
 31
0.0
  0
LINE
  5
17ADB
  8
AM_0
 10
1451.60656888208
 20
382.47409951951357
 30
0.0
 11
1452.8065788820791
 21
381.9640995195137
 31
0.0
  0
LINE
  5
17ADC
  8
AM_0
 10
1451.5565188820799
 20
380.56407951951348
 30
0.0
 11
1452.7065488820799
 21
380.21406951951337
 31
0.0
  0
LINE
  5
17ADD
  8
AM_0
 10
1451.6565588820799
 20
394.36407951951372
 30
0.0
 11
1452.9365888820801
 21
393.59408951951349
 31
0.0
  0
LINE
  5
17ADE
  8
AM_0
 10
1451.6665688820799
 20
389.82403951951358
 30
0.0
 11
1452.966558882079
 21
388.9740495195137
 31
0.0
  0
LINE
  5
17ADF
  8
AM_0
 10
1451.64654888208
 20
388.71405951951368
 30
0.0
 11
1452.926578882079
 21
387.96405951951368
 31
0.0
  0
LINE
  5
17AE0
  8
AM_0
 10
1451.6265288820789
 20
395.36410951951342
 30
0.0
 11
1452.8665188820789
 21
394.73410951951348
 31
0.0
  0
LINE
  5
17AE1
  8
AM_0
 10
1451.63653888208
 20
393.2540995195136
 30
0.0
 11
1452.8865988820801
 21
392.58409951951347
 31
0.0
  0
LINE
  5
17AE2
  8
AM_0
 10
1449.416568882079
 20
340.86407951951372
 30
0.0
 11
1452.4165688820799
 21
340.86407951951372
 31
0.0
  0
LINE
  5
17AE3
  8
AM_0
 10
1449.416568882079
 20
342.86406951951352
 30
0.0
 11
1452.4165688820799
 21
342.86406951951352
 31
0.0
  0
LINE
  5
17AE4
  8
AM_0
 10
1449.416568882079
 20
352.86407951951372
 30
0.0
 11
1452.4165688820799
 21
352.86407951951372
 31
0.0
  0
LINE
  5
17AE5
  8
AM_0
 10
1449.416568882079
 20
350.86407951951372
 30
0.0
 11
1452.4165688820799
 21
350.86407951951372
 31
0.0
  0
LINE
  5
17AE6
  8
AM_0
 10
1453.4165088820789
 20
394.8840895195134
 30
0.0
 11
1453.4165088820789
 21
351.86406951951352
 31
0.0
  0
ARC
  5
17AE7
  8
AM_0
 10
1452.42175888208
 20
388.14167951951362
 30
0.0
 40
0.9948279899999999
 50
359.56186999999977
 51
56.795310000000541
  0
ARC
  5
17AE8
  8
AM_0
 10
1452.4233388820801
 20
391.70550951951361
 30
0.0
 40
0.9932120399999999
 50
359.91816999999918
 51
62.200659999995572
  0
ARC
  5
17AE9
  8
AM_0
 10
1452.4233388820801
 20
394.88199951951373
 30
0.0
 40
0.99319202
 50
0.1204399999995766
 51
60.226600000008929
  0
ARC
  5
17AEA
  8
AM_0
 10
1452.42095888208
 20
393.84376951951378
 30
0.0
 40
0.99558806
 50
0.0177499999989462
 51
63.412509999989759
  0
ARC
  5
17AEB
  8
AM_0
 10
1452.42211888208
 20
392.7430495195137
 30
0.0
 40
0.9944360299999999
 50
0.0595100000007121
 51
58.847829999993849
  0
ARC
  5
17AEC
  8
AM_0
 10
1452.4201688820799
 20
381.04565951951372
 30
0.0
 40
0.99640006
 50
359.90960000000132
 51
67.182610000001333
  0
ARC
  5
17AED
  8
AM_0
 10
1452.42248888208
 20
387.10727951951361
 30
0.0
 40
0.99407601
 50
359.81535999999909
 51
59.530799999997051
  0
ARC
  5
17AEE
  8
AM_0
 10
1452.4202888820789
 20
379.2598295195138
 30
0.0
 40
0.9962600499999998
 50
359.66950999999978
 51
73.302510000000026
  0
LINE
  5
17AEF
  8
AM_0
 10
1454.916568882079
 20
366.86409951951367
 30
0.0
 11
1453.4165688820799
 21
366.99409951951361
 31
0.0
  0
ARC
  5
17AF0
  8
AM_0
 10
1452.421508882079
 20
371.86900951951378
 30
0.0
 40
0.9950800499999999
 50
359.7159300000007
 51
90.284078999992204
  0
ARC
  5
17AF1
  8
AM_0
 10
1452.416388882079
 20
371.86429951951362
 30
0.0
 40
1.0002040000000001
 50
270.01168000000581
 51
359.98832999999553
  0
ARC
  5
17AF2
  8
AM_0
 10
1452.421508882079
 20
361.86898951951378
 30
0.0
 40
0.99508399
 50
359.71613000000212
 51
90.283866999995979
  0
ARC
  5
17AF3
  8
AM_0
 10
1452.416388882079
 20
361.86427951951367
 30
0.0
 40
1.000199999999998
 50
270.0114700000064
 51
359.98853000000008
  0
LINE
  5
17AF4
  8
AM_0
 10
1454.9165088820789
 20
364.14407951951353
 30
0.0
 11
1453.4165088820789
 21
364.14407951951353
 31
0.0
  0
LINE
  5
17AF5
  8
AM_0
 10
1455.4104088820791
 20
364.85583951951338
 30
0.0
 11
1454.9104088820791
 21
364.8158295195135
 31
0.0
  0
LINE
  5
17AF6
  8
AM_0
 10
1455.9104088820791
 20
362.08581951951339
 30
0.0
 11
1455.4104088820791
 21
364.85583951951338
 31
0.0
  0
ARC
  5
17AF7
  8
AM_0
 10
1452.421508882079
 20
351.86900951951378
 30
0.0
 40
0.9950879799999999
 50
359.71634999999952
 51
90.283654999990588
  0
ARC
  5
17AF8
  8
AM_0
 10
1452.416388882079
 20
351.86427951951379
 30
0.0
 40
1.0001959999999981
 50
270.01125999999419
 51
359.98875000000061
  0
ARC
  5
17AF9
  8
AM_0
 10
1452.421508882079
 20
341.8690095195139
 30
0.0
 40
0.9950800499999999
 50
359.71590000000032
 51
90.284105999990715
  0
POINT
  5
17AFA
  8
AM_0
 10
1455.9104088820791
 20
346.86404951951329
 30
0.0
  0
ARC
  5
17AFB
  8
AM_0
 10
1452.416388882079
 20
341.86429951951362
 30
0.0
 40
1.0002040000000001
 50
270.01169999999519
 51
359.98829999999828
  0
LINE
  5
17AFC
  8
AM_0
 10
1403.4165388820791
 20
393.21404951951348
 30
0.0
 11
1438.4165388820791
 21
391.18404951951339
 31
0.0
  0
ARC
  5
17AFD
  8
AM_0
 10
1426.4165388820791
 20
381.86405951951377
 30
0.0
 40
1.0000040999999991
 50
270.0
 51
89.999997000002296
  0
ARC
  5
17AFE
  8
AM_0
 10
1433.866488882079
 20
381.86405951951377
 30
0.0
 40
1.0000040999999991
 50
270.0
 51
89.999997000002296
  0
ARC
  5
17AFF
  8
AM_0
 10
1434.7365488820799
 20
381.90905951951379
 30
0.0
 40
1.6750081000000001
 50
270.0
 51
89.999997000002296
  0
LINE
  5
17B00
  8
AM_0
 10
1448.4165388820791
 20
381.17405951951349
 30
0.0
 11
1438.4165388820791
 21
381.17405951951349
 31
0.0
  0
LINE
  5
17B01
  8
AM_0
 10
1448.4165388820791
 20
395.21404951951348
 30
0.0
 11
1438.4165388820791
 21
395.21404951951348
 31
0.0
  0
LINE
  5
17B02
  8
AM_0
 10
1448.4165388820791
 20
389.5540595195136
 30
0.0
 11
1438.4165388820791
 21
389.5540595195136
 31
0.0
  0
ARC
  5
17B03
  8
AM_0
 10
1449.4189488820789
 20
387.8517095195138
 30
0.0
 40
1.002375999999999
 50
90.135590000000704
 51
179.864408009996
  0
ARC
  5
17B04
  8
AM_0
 10
1451.1814588820789
 20
392.36871951951377
 30
0.0
 40
0.99546796
 50
62.796340000005848
 51
90.858552000004934
  0
ARC
  5
17B05
  8
AM_0
 10
1449.4155288820789
 20
392.36506951951372
 30
0.0
 40
0.9990080599999998
 50
89.943157000003893
 51
180.05685000000281
  0
LINE
  5
17B06
  8
AM_0
 10
1451.1665088820801
 20
393.36407951951372
 30
0.0
 11
1449.416568882079
 21
393.36407951951372
 31
0.0
  0
ARC
  5
17B07
  8
AM_0
 10
1451.109928882079
 20
388.99788951951348
 30
0.0
 40
0.9962120099999999
 50
56.030099999999152
 51
89.618093999991629
  0
ARC
  5
17B08
  8
AM_0
 10
1451.1371488820789
 20
387.85759951951371
 30
0.0
 40
0.9965200400000001
 50
59.256719999997742
 51
89.458787000007035
  0
LINE
  5
17B09
  8
AM_0
 10
1451.1165188820801
 20
389.99408951951369
 30
0.0
 11
1448.4165688820799
 21
389.99408951951369
 31
0.0
  0
LINE
  5
17B0A
  8
AM_0
 10
1451.14654888208
 20
388.85406951951359
 30
0.0
 11
1449.416568882079
 21
388.85406951951359
 31
0.0
  0
LINE
  5
17B0B
  8
AM_0
 10
1451.416568882079
 20
389.6940695195135
 30
0.0
 11
1451.416568882079
 21
389.22407951951362
 31
0.0
  0
ARC
  5
17B0C
  8
AM_0
 10
1451.1917788820799
 20
394.47004951951379
 30
0.0
 40
0.9941280500000002
 50
64.065190000002104
 51
90.87719199999151
  0
ARC
  5
17B0D
  8
AM_0
 10
1451.14770888208
 20
393.50987951951367
 30
0.0
 40
0.9942600099999999
 50
59.218910000003319
 51
90.644117999997562
  0
ARC
  5
17B0E
  8
AM_0
 10
1448.91491888208
 20
394.9657195195137
 30
0.0
 40
0.4983640000000002
 50
89.811402000005629
 51
180.18858999999841
  0
LINE
  5
17B0F
  8
AM_0
 10
1451.13653888208
 20
394.50406951951362
 30
0.0
 11
1448.4165688820799
 21
394.50406951951362
 31
0.0
  0
LINE
  5
17B10
  8
AM_0
 10
1451.176578882079
 20
395.46406951951337
 30
0.0
 11
1448.9165088820789
 21
395.46406951951337
 31
0.0
  0
LINE
  5
17B11
  8
AM_0
 10
1451.416568882079
 20
394.26408951951362
 30
0.0
 11
1451.416568882079
 21
393.71408951951361
 31
0.0
  0
ARC
  5
17B12
  8
AM_0
 10
1451.2155788820789
 20
381.55859951951368
 30
0.0
 40
0.99548006
 50
66.872970000004386
 51
89.942678999994754
  0
ARC
  5
17B13
  8
AM_0
 10
1449.1210988820801
 20
383.2586295195137
 30
0.0
 40
0.7045519900000002
 50
180.36910999999949
 51
269.63089000000701
  0
LINE
  5
17B14
  8
AM_0
 10
1451.216558882079
 20
382.55407951951361
 30
0.0
 11
1449.1165788820799
 21
382.55407951951361
 31
0.0
  0
LINE
  5
17B15
  8
AM_0
 10
1451.416568882079
 20
382.2540795195136
 30
0.0
 11
1451.416568882079
 21
381.19407951951371
 31
0.0
  0
ARC
  5
17B16
  8
AM_0
 10
1435.2666388820801
 20
388.07421951951392
 30
0.0
 40
1.004135999999999
 50
134.20256399999809
 51
185.15116000000401
  0
LINE
  5
17B17
  8
AM_0
 10
1438.4165388820791
 20
395.21404951951348
 30
0.0
 11
1438.4165388820791
 21
381.17405951951349
 31
0.0
  0
ARC
  5
17B18
  8
AM_0
 10
1438.795328882079
 20
384.5321195195138
 30
0.0
 40
6.0039081999999979
 50
93.617285999997804
 51
134.7763070000029
  0
ARC
  5
17B19
  8
AM_0
 10
1439.2516288820791
 20
388.46183951951377
 30
0.0
 40
5.0078917000000001
 50
185.47467999999949
 51
260.40128000000527
  0
ARC
  5
17B1A
  8
AM_0
 10
1449.4214488820801
 20
373.86898951951378
 30
0.0
 40
1.0049318999999981
 50
180.2804200000034
 51
269.71958000000308
  0
ARC
  5
17B1B
  8
AM_0
 10
1451.27740888208
 20
379.61136951951352
 30
0.0
 40
0.99277198
 50
73.66818000000049
 51
90.625191999999927
  0
ARC
  5
17B1C
  8
AM_0
 10
1449.4148588820799
 20
379.6057795195137
 30
0.0
 40
0.99829602
 50
89.902038999988008
 51
180.09795999999611
  0
LINE
  5
17B1D
  8
AM_0
 10
1451.266538882079
 20
380.60406951951359
 30
0.0
 11
1449.416568882079
 21
380.60406951951359
 31
0.0
  0
LINE
  5
17B1E
  8
AM_0
 10
1451.416568882079
 20
372.49408951951358
 30
0.0
 11
1451.416568882079
 21
371.12408951951369
 31
0.0
  0
ARC
  5
17B1F
  8
AM_0
 10
1449.4163888820781
 20
369.86422951951357
 30
0.0
 40
0.99985206
 50
89.991453000004427
 51
180.00854999999979
  0
ARC
  5
17B20
  8
AM_0
 10
1434.9565188820791
 20
371.88906951951361
 30
0.0
 40
1.4650000000000001
 50
270.0
 51
89.999997000002296
  0
ARC
  5
17B21
  8
AM_0
 10
1433.866488882079
 20
371.86405951951377
 30
0.0
 40
1.0000040999999991
 50
270.0
 51
89.999997000002296
  0
ARC
  5
17B22
  8
AM_0
 10
1426.4165388820791
 20
371.86405951951377
 30
0.0
 40
1.0000040999999991
 50
270.0
 51
89.999997000002296
  0
ARC
  5
17B23
  8
ｶｸﾚｾﾝ2
 10
1397.9165688820799
 20
375.36407951951372
 30
0.0
 40
3.0
 50
0.000000000000007
 51
90.0
  0
ARC
  5
17B24
  8
AM_0
 10
1449.4163888820781
 20
349.86422951951357
 30
0.0
 40
0.99984801
 50
89.991221000001872
 51
180.00877999999949
  0
ARC
  5
17B25
  8
AM_0
 10
1444.0865288820801
 20
361.87406951951368
 30
0.0
 40
1.3300000000000001
 50
270.0
 51
89.999997000002296
  0
ARC
  5
17B26
  8
AM_0
 10
1449.4163888820781
 20
359.86421951951382
 30
0.0
 40
0.9998440099999999
 50
89.991009000001426
 51
180.00899000000371
  0
LINE
  5
17B27
  8
AM_0
 10
1451.416568882079
 20
362.47406951951371
 30
0.0
 11
1451.416568882079
 21
361.26408951951362
 31
0.0
  0
ARC
  5
17B28
  8
AM_0
 10
1449.4214488820801
 20
363.86898951951378
 30
0.0
 40
1.004928
 50
180.28021999999979
 51
269.71978000000678
  0
ARC
  5
17B29
  8
AM_0
 10
1442.8652088820791
 20
361.86407951951372
 30
0.0
 40
1.000035999999999
 50
269.50071000000491
 51
90.499284000006355
  0
ARC
  5
17B2A
  8
AM_0
 10
1444.1465188820789
 20
351.86904951951368
 30
0.0
 40
1.265004
 50
270.0
 51
89.999997000002296
  0
LINE
  5
17B2B
  8
AM_0
 10
1451.416568882079
 20
352.47407951951362
 30
0.0
 11
1451.416568882079
 21
351.31405951951371
 31
0.0
  0
ARC
  5
17B2C
  8
AM_0
 10
1449.4214488820801
 20
353.86897951951357
 30
0.0
 40
1.0049238999999981
 50
180.2800100000029
 51
269.71998999999721
  0
ARC
  5
17B2D
  8
AM_0
 10
1442.8652088820791
 20
351.86405951951377
 30
0.0
 40
1.000035999999999
 50
269.50071000000491
 51
90.499284000006355
  0
ARC
  5
17B2E
  8
AM_0
 10
1426.4165388820791
 20
361.86407951951372
 30
0.0
 40
1.0000040999999991
 50
270.0
 51
89.999997000002296
  0
ARC
  5
17B2F
  8
AM_0
 10
1426.4165388820791
 20
351.86405951951377
 30
0.0
 40
1.0000040999999991
 50
270.0
 51
89.999997000002296
  0
ARC
  5
17B30
  8
AM_0
 10
1442.8652088820791
 20
341.86405951951377
 30
0.0
 40
1.000035999999999
 50
269.50071000000491
 51
90.499284000006355
  0
ARC
  5
17B31
  8
AM_0
 10
1449.4215088820779
 20
343.86899951951369
 30
0.0
 40
1.0049318999999981
 50
180.280450000001
 51
269.71955000000548
  0
ARC
  5
17B32
  8
AM_0
 10
1444.1465188820789
 20
341.86405951951377
 30
0.0
 40
1.270003999999999
 50
270.0
 51
89.999997000002296
  0
LINE
  5
17B33
  8
AM_0
 10
1451.416568882079
 20
341.25406951951362
 30
0.0
 11
1451.416568882079
 21
342.41408951951371
 31
0.0
  0
ARC
  5
17B34
  8
AM_0
 10
1449.4163888820781
 20
339.86422951951357
 30
0.0
 40
0.99985206
 50
89.991425999998796
 51
180.00857000000201
  0
ARC
  5
17B35
  8
AM_0
 10
1426.4165388820791
 20
341.86405951951377
 30
0.0
 40
1.0000040999999991
 50
270.0
 51
89.999997000002296
  0
LINE
  5
17B36
  8
AM_0
 10
1451.6465488820791
 20
297.25411051951369
 30
0.0
 11
1452.916568882079
 21
297.98410651951377
 31
0.0
  0
LINE
  5
17B37
  8
AM_0
 10
1451.6265888820799
 20
298.37410551951371
 30
0.0
 11
1452.866578882079
 21
299.00410351951371
 31
0.0
  0
LINE
  5
17B38
  8
AM_0
 10
1451.666568882079
 20
303.9040895195136
 30
0.0
 11
1452.966558882079
 21
304.75409551951373
 31
0.0
  0
LINE
  5
17B39
  8
AM_0
 10
1451.656558882079
 20
299.36411151951381
 30
0.0
 11
1452.9365888820801
 21
300.13412351951371
 31
0.0
  0
LINE
  5
17B3A
  8
AM_0
 10
1451.6465488820791
 20
305.0140975195136
 30
0.0
 11
1452.9265188820791
 21
305.76408251951358
 31
0.0
  0
LINE
  5
17B3B
  8
AM_0
 10
1451.6365388820791
 20
300.48407651951362
 30
0.0
 11
1452.8865388820791
 21
301.14406451951368
 31
0.0
  0
LINE
  5
17B3C
  8
AM_0
 10
1451.606568882079
 20
311.25410351951348
 30
0.0
 11
1452.806518882079
 21
311.7740695195136
 31
0.0
  0
LINE
  5
17B3D
  8
AM_0
 10
1451.5565188820781
 20
313.16409951951363
 30
0.0
 11
1452.706548882079
 21
313.52409951951353
 31
0.0
  0
LINE
  5
17B3E
  8
AM_0
 10
1454.9165088820789
 20
331.71406951951337
 30
0.0
 11
1450.3365488820789
 21
331.71406951951337
 31
0.0
  0
LINE
  5
17B3F
  8
AM_0
 10
1449.416568882079
 20
320.86408951951353
 30
0.0
 11
1452.4165688820781
 21
320.86408951951353
 31
0.0
  0
LINE
  5
17B40
  8
AM_0
 10
1449.416568882079
 20
322.86407951951372
 30
0.0
 11
1452.4165688820781
 21
322.86407951951372
 31
0.0
  0
LINE
  5
17B41
  8
AM_0
 10
1449.416568882079
 20
330.86406951951352
 30
0.0
 11
1452.4165688820781
 21
330.86406951951352
 31
0.0
  0
LINE
  5
17B42
  8
AM_0
 10
1449.416568882079
 20
332.86408951951353
 30
0.0
 11
1452.4165688820799
 21
332.86408951951353
 31
0.0
  0
LINE
  5
17B43
  8
AM_0
 10
1454.9165088820789
 20
329.58407951951352
 30
0.0
 11
1453.4165088820789
 21
329.58407951951352
 31
0.0
  0
LINE
  5
17B44
  8
AM_0
 10
1455.4104088820791
 20
328.87222951951338
 30
0.0
 11
1454.9103788820789
 21
328.91223951951361
 31
0.0
  0
ARC
  5
17B45
  8
AM_0
 10
1452.416388882079
 20
331.86428951951359
 30
0.0
 40
1.000199999999998
 50
270.01148999999577
 51
359.98849999999652
  0
LINE
  5
17B46
  8
AM_0
 10
1455.9104088820791
 20
331.64221951951339
 30
0.0
 11
1455.4104088820791
 21
328.87222951951338
 31
0.0
  0
ARC
  5
17B47
  8
AM_0
 10
1452.421508882079
 20
331.86899951951358
 30
0.0
 40
0.99508399
 50
359.71610999999569
 51
90.283894000007024
  0
ARC
  5
17B48
  8
AM_0
 10
1452.416388882079
 20
321.86427951951367
 30
0.0
 40
1.0001959999999981
 50
270.01127999999659
 51
359.98871999999687
  0
ARC
  5
17B49
  8
AM_0
 10
1452.421508882079
 20
321.86901951951347
 30
0.0
 40
0.99508399
 50
359.71632000000022
 51
90.283675999997385
  0
LINE
  5
17B4A
  8
AM_0
 10
1454.9165088820789
 20
326.86407951951372
 30
0.0
 11
1453.416568882079
 21
326.73407951951361
 31
0.0
  0
ARC
  5
17B4B
  8
AM_0
 10
1452.4200488820791
 20
312.69254951951359
 30
0.0
 40
0.9964760499999998
 50
292.8203400000001
 51
0.0874199999992909
  0
ARC
  5
17B4C
  8
AM_0
 10
1452.4201688820799
 20
314.47842251951369
 30
0.0
 40
0.9963800299999999
 50
286.70293000000493
 51
359.75050999999979
  0
ARC
  5
17B4D
  8
AM_0
 10
1452.4174788820801
 20
305.58876651951368
 30
0.0
 40
0.9991000299999999
 50
303.3382299999958
 51
0.3045799999989381
  0
ARC
  5
17B4E
  8
AM_0
 10
1452.4180888820799
 20
306.62338151951383
 30
0.0
 40
0.9984599899999999
 50
300.61344999999829
 51
0.0403800000005402
  0
ARC
  5
17B4F
  8
AM_0
 10
1452.4188288820801
 20
302.02537351951378
 30
0.0
 40
0.99770796
 50
297.95523999999318
 51
359.9259500000004
  0
ARC
  5
17B50
  8
AM_0
 10
1452.4208988820801
 20
299.8944385195137
 30
0.0
 40
0.99566799
 50
296.59016999999261
 51
359.97956999999923
  0
ARC
  5
17B51
  8
AM_0
 10
1452.4189488820789
 20
298.84874551951373
 30
0.0
 40
0.9976240400000001
 50
299.92046000000192
 51
359.73248999999612
  0
ARC
  5
17B52
  8
AM_0
 10
1452.41778888208
 20
300.98757751951371
 30
0.0
 40
0.9987800700000001
 50
301.29144999999551
 51
0.3733299999998944
  0
ARC
  5
17B53
  8
AM_0
 10
1438.7862888820789
 20
309.2105695195138
 30
0.0
 40
6.007896399999999
 50
225.38273000000569
 51
266.47155000000168
  0
LINE
  5
17B54
  8
AM_0
 10
1438.4165388820791
 20
298.51406951951373
 30
0.0
 11
1438.4165388820791
 21
310.20406990738218
 31
0.0
  0
ARC
  5
17B55
  8
AM_0
 10
1449.4163888820781
 20
319.86423951951377
 30
0.0
 40
0.99984801
 50
89.991192999988286
 51
180.00881000000291
  0
ARC
  5
17B56
  8
AM_0
 10
1444.0865288820801
 20
331.8540795195135
 30
0.0
 40
1.3300000000000001
 50
270.0
 51
89.999997000002296
  0
LINE
  5
17B57
  8
AM_0
 10
1451.416568882079
 20
331.25408951951363
 30
0.0
 11
1451.416568882079
 21
332.47406951951359
 31
0.0
  0
ARC
  5
17B58
  8
AM_0
 10
1449.4163888820781
 20
329.86422951951357
 30
0.0
 40
0.9998440099999999
 50
89.990982000008813
 51
180.00902000000059
  0
ARC
  5
17B59
  8
AM_0
 10
1449.4214488820801
 20
333.86898951951378
 30
0.0
 40
1.004928
 50
180.28023999999999
 51
269.71976000000001
  0
ARC
  5
17B5A
  8
AM_0
 10
1442.8652088820791
 20
331.86407951951372
 30
0.0
 40
1.000035999999999
 50
269.50071000000491
 51
90.499284000006355
  0
ARC
  5
17B5B
  8
AM_0
 10
1443.9565188820791
 20
321.84405951951379
 30
0.0
 40
1.4599999999999991
 50
270.0
 51
89.999997000002296
  0
LINE
  5
17B5C
  8
AM_0
 10
1451.416568882079
 20
321.23407951951361
 30
0.0
 11
1451.416568882079
 21
322.60406951951347
 31
0.0
  0
ARC
  5
17B5D
  8
AM_0
 10
1449.4214488820801
 20
323.86898951951378
 30
0.0
 40
1.0049238999999981
 50
180.28003000000271
 51
269.7199600000007
  0
ARC
  5
17B5E
  8
AM_0
 10
1442.866488882079
 20
321.86406951951352
 30
0.0
 40
1.0000040999999991
 50
270.0
 51
89.999997000002296
  0
ARC
  5
17B5F
  8
AM_0
 10
1426.4165388820791
 20
331.86407951951372
 30
0.0
 40
1.0000040999999991
 50
270.0
 51
89.999997000002296
  0
ARC
  5
17B60
  8
AM_0
 10
1426.4165388820791
 20
321.86406951951352
 30
0.0
 40
1.0000040999999991
 50
270.0
 51
89.999997000002296
  0
ARC
  5
17B61
  8
AM_0
 10
1442.866486252158
 20
311.8640624695135
 30
0.0
 40
1.000007050003423
 50
270.00015068234609
 51
89.999849317653869
  0
LINE
  5
17B62
  8
AM_0
 10
1451.416568882079
 20
311.47407351951369
 30
0.0
 11
1451.416568882079
 21
312.53407151951359
 31
0.0
  0
ARC
  5
17B63
  8
AM_0
 10
1443.7365488820781
 20
311.8190595195137
 30
0.0
 40
1.6750081000000001
 50
270.0
 51
89.999997000002296
  0
LINE
  5
17B64
  8
AM_0
 10
1448.4165388820791
 20
312.56406951951362
 30
0.0
 11
1445.2464988820791
 21
312.56406951951362
 31
0.0
  0
ARC
  5
17B65
  8
AM_0
 10
1449.41985888208
 20
314.12743251951349
 30
0.0
 40
1.003363999999999
 50
180.19171999999699
 51
269.80829000000779
  0
ARC
  5
17B66
  8
AM_0
 10
1451.2759988820801
 20
314.12676851951392
 30
0.0
 40
1.0027280000000001
 50
269.45960000000707
 51
286.24702999999818
  0
LINE
  5
17B67
  8
AM_0
 10
1451.266538882079
 20
313.12408351951348
 30
0.0
 11
1449.416568882079
 21
313.12408351951348
 31
0.0
  0
ARC
  5
17B68
  8
AM_0
 10
1451.1531988820791
 20
305.8850775195138
 30
0.0
 40
1.001012
 50
269.61979999998982
 51
299.5286400000038
  0
ARC
  5
17B69
  8
AM_0
 10
1449.419008882079
 20
305.88654151951368
 30
0.0
 40
1.0024599999999999
 50
180.1403799999988
 51
269.85961999999461
  0
LINE
  5
17B6A
  8
AM_0
 10
1451.1465488820791
 20
304.88408551951358
 30
0.0
 11
1449.416568882079
 21
304.88408551951358
 31
0.0
  0
ARC
  5
17B6B
  8
AM_0
 10
1449.1159688820801
 20
310.47463851951369
 30
0.0
 40
0.69944
 50
89.954160000006354
 51
180.0458400000002
  0
ARC
  5
17B6C
  8
AM_0
 10
1451.2135688820799
 20
312.17930451951349
 30
0.0
 40
1.005223999999999
 50
270.1706399999963
 51
293.01371000000171
  0
LINE
  5
17B6D
  8
AM_0
 10
1451.216558882079
 20
311.17407851951361
 30
0.0
 11
1449.116578882079
 21
311.17407851951361
 31
0.0
  0
ARC
  5
17B6E
  8
AM_0
 10
1426.4165388820791
 20
311.86405951951389
 30
0.0
 40
1.0000040999999991
 50
270.0
 51
89.999997000002296
  0
ARC
  5
17B6F
  8
AM_0
 10
1435.2699988820791
 20
305.6551595195138
 30
0.0
 40
1.007376
 50
174.93659510000271
 51
225.7096799999976
  0
ARC
  5
17B70
  8
AM_0
 10
1439.2463188820791
 20
305.27118951951388
 30
0.0
 40
5.0021839000000003
 50
99.548574999998365
 51
174.57547400000229
  0
ARC
  5
17B71
  8
ｶｸﾚｾﾝ2
 10
1397.9165688820799
 20
318.36407951951372
 30
0.0
 40
3.0
 50
270.0
 51
0.000000000000007
  0
LINE
  5
17B72
  8
AM_0
 10
1403.416478882079
 20
300.51406951951373
 30
0.0
 11
1438.416478882079
 21
302.5440695195137
 31
0.0
  0
LINE
  5
17B73
  8
AM_0
 10
1427.4165388820791
 20
284.97406151951378
 30
0.0
 11
1427.4165388820791
 21
292.3840645195138
 31
0.0
  0
ARC
  5
17B74
  8
AM_0
 10
1442.2446088820791
 20
290.5997705195137
 30
0.0
 40
1.995695899999999
 50
270.05521999999718
 51
347.9774700000001
  0
LINE
  5
17B75
  8
AM_0
 10
1448.4165388820791
 20
289.43406051951371
 30
0.0
 11
1445.5965388820789
 21
289.36406051951371
 31
0.0
  0
ARC
  5
17B76
  8
AM_0
 10
1446.5815788820789
 20
288.24228751951392
 30
0.0
 40
1.501779999999999
 50
89.810617000007383
 51
165.66716399999919
  0
LINE
  5
17B77
  8
AM_0
 10
1444.226538882079
 20
286.73405551951379
 30
0.0
 11
1445.1465788820781
 21
290.61405251951351
 31
0.0
  0
LINE
  5
17B78
  8
AM_0
 10
1442.1865588820781
 20
293.8840645195138
 30
0.0
 11
1428.9165388820791
 21
293.8840645195138
 31
0.0
  0
LINE
  5
17B79
  8
AM_0
 10
1448.4165388820791
 20
298.51406951951373
 30
0.0
 11
1438.4165388820791
 21
298.51406951951373
 31
0.0
  0
LINE
  5
17B7A
  8
AM_0
 10
1448.4165388820791
 20
304.17406951951358
 30
0.0
 11
1438.4165388820791
 21
304.17406951951358
 31
0.0
  0
LINE
  5
17B7B
  8
AM_0
 10
1444.6965088820789
 20
298.51406951951373
 30
0.0
 11
1444.156468882079
 21
295.52404851951371
 31
0.0
  0
ARC
  5
17B7C
  8
AM_0
 10
1448.9161388820789
 20
296.61451551951359
 30
0.0
 40
0.49955601
 50
89.949105999995936
 51
180.05088999999691
  0
ARC
  5
17B7D
  8
AM_0
 10
1451.1358688820801
 20
298.11515651951368
 30
0.0
 40
1.001135899999998
 50
270.61249000000061
 51
300.67199999999252
  0
ARC
  5
17B7E
  8
AM_0
 10
1451.170718882079
 20
299.26334251951369
 30
0.0
 40
0.99928796
 50
270.33380999999213
 51
297.1387300000074
  0
ARC
  5
17B7F
  8
AM_0
 10
1448.9199888820799
 20
298.76746951951378
 30
0.0
 40
0.50340396
 50
180.3861299999981
 51
269.61387000000832
  0
LINE
  5
17B80
  8
AM_0
 10
1451.1465488820791
 20
297.11407351951362
 30
0.0
 11
1448.9165088820789
 21
297.11407351951362
 31
0.0
  0
LINE
  5
17B81
  8
AM_0
 10
1451.176578882079
 20
298.26409051951362
 30
0.0
 11
1448.9165088820789
 21
298.26409051951362
 31
0.0
  0
LINE
  5
17B82
  8
AM_0
 10
1451.416568882079
 20
297.36408051951372
 30
0.0
 11
1451.416568882079
 21
297.89407951951358
 31
0.0
  0
ARC
  5
17B83
  8
AM_0
 10
1451.1452088820799
 20
300.22773651951371
 30
0.0
 40
1.003687999999999
 50
269.5072500000025
 51
300.62973000000488
  0
LINE
  5
17B84
  8
AM_0
 10
1451.1365388820791
 20
299.22408951951371
 30
0.0
 11
1448.416568882079
 21
299.22408951951371
 31
0.0
  0
LINE
  5
17B85
  8
AM_0
 10
1451.1665088820801
 20
300.36408051951372
 30
0.0
 11
1449.416568882079
 21
300.36408051951372
 31
0.0
  0
LINE
  5
17B86
  8
AM_0
 10
1451.416568882079
 20
299.46407151951382
 30
0.0
 11
1451.416568882079
 21
300.0140745195136
 31
0.0
  0
ARC
  5
17B87
  8
AM_0
 10
1451.1613788820789
 20
301.36470651951367
 30
0.0
 40
1.0006280000000001
 50
270.29529000000059
 51
298.35013999999779
  0
ARC
  5
17B88
  8
AM_0
 10
1449.42059888208
 20
301.3681625195137
 30
0.0
 40
1.004083999999998
 50
180.23263000000361
 51
269.76736999999639
  0
ARC
  5
17B89
  8
AM_0
 10
1451.1237788820781
 20
304.74458151951382
 30
0.0
 40
1.0005360000000001
 50
269.58677999999787
 51
302.85360000000622
  0
LINE
  5
17B8A
  8
AM_0
 10
1451.1165188820801
 20
303.74407051951363
 30
0.0
 11
1448.416568882079
 21
303.74407051951363
 31
0.0
  0
LINE
  5
17B8B
  8
AM_0
 10
1451.416568882079
 20
304.03408651951361
 30
0.0
 11
1451.416568882079
 21
304.50407251951361
 31
0.0
  0
LINE
  5
17B8C
  8
AM_0
 10
1446.5865288820789
 20
289.74407251951362
 30
0.0
 11
1444.9364988820789
 21
289.74407251951362
 31
0.0
  0
LINE
  5
17B8D
  8
AM_0
 10
1446.6065488820791
 20
291.76406951951373
 30
0.0
 11
1444.5465488820789
 21
291.76406951951373
 31
0.0
  0
ARC
  5
17B8E
  8
AM_0
 10
1446.60220888208
 20
290.2677315195138
 30
0.0
 40
1.4963319999999991
 50
89.835410000005695
 51
166.61756199999891
  0
LINE
  5
17B8F
  8
AM_0
 10
1446.626568882079
 20
295.83406951951372
 30
0.0
 11
1444.2065188820791
 21
295.83406951951372
 31
0.0
  0
ARC
  5
17B90
  8
AM_0
 10
1446.6263788820779
 20
294.33127651951378
 30
0.0
 40
1.5027881000000001
 50
89.995331999996637
 51
167.98665799999711
  0
ARC
  5
17B91
  8
AM_0
 10
1442.189548882079
 20
295.883690519514
 30
0.0
 40
1.9996280999999989
 50
269.91467000000659
 51
349.63923999999838
  0
LINE
  5
17B92
  8
AM_0
 10
1444.1965088820789
 20
290.18406051951371
 30
0.0
 11
1445.1565288820791
 21
294.64407451951371
 31
0.0
  0
ARC
  5
17B93
  8
AM_0
 10
1428.916908882079
 20
292.38369851951398
 30
0.0
 40
1.5003600999999991
 50
90.013814999999994
 51
179.9861839999985
  0
LINE
  5
17B94
  8
AM_0
 10
1442.276528882079
 20
285.19406251951369
 30
0.0
 11
1428.9165388820791
 21
285.19406251951369
 31
0.0
  0
LINE
  5
17B95
  8
AM_0
 10
1442.3065588820789
 20
283.56405751951371
 30
0.0
 11
1428.8065588820789
 21
283.56405751951371
 31
0.0
  0
LINE
  5
17B96
  8
AM_0
 10
1442.2464988820791
 20
288.60405851951379
 30
0.0
 11
1428.9165388820791
 21
288.60405851951379
 31
0.0
  0
ARC
  5
17B97
  8
AM_0
 10
1442.2785988820799
 20
287.1960005195138
 30
0.0
 40
2.001947899999998
 50
269.94052000000539
 51
346.6588600000016
  0
ARC
  5
17B98
  8
AM_0
 10
1442.30411888208
 20
285.56837551951372
 30
0.0
 40
2.0043239999999991
 50
270.06891000000758
 51
345.72194999999931
  0
LINE
  5
17B99
  8
AM_0
 10
1444.2464988820791
 20
285.07407451951389
 30
0.0
 11
1445.126498882079
 21
288.61407551951362
 31
0.0
  0
ARC
  5
17B9A
  8
AM_0
 10
1425.4154388820789
 20
282.95049351951371
 30
0.0
 40
1.996427999999999
 50
270.03239000000849
 51
345.30537000000101
  0
ARC
  5
17B9B
  8
AM_0
 10
1425.416728882079
 20
283.62388751951357
 30
0.0
 40
1.999824
 50
269.99494000000527
 51
0.0050600000012617
  0
ARC
  5
17B9C
  8
AM_0
 10
1428.915138882079
 20
283.69550451951369
 30
0.0
 40
1.498559999999999
 50
89.944884999996916
 51
180.05511999999939
  0
ARC
  5
17B9D
  8
AM_0
 10
1425.414038882079
 20
284.97657851951368
 30
0.0
 40
2.0025157999999981
 50
270.0718999999998
 51
359.92810000000009
  0
ARC
  5
17B9E
  8
AM_0
 10
1428.7978288820791
 20
282.06378251951361
 30
0.0
 40
1.5003120000000001
 50
89.668337000005593
 51
165.31696600000069
  0
ARC
  5
17B9F
  8
AM_0
 10
1428.9180688820791
 20
287.10254751951391
 30
0.0
 40
1.5015080999999979
 50
90.057548999996854
 51
179.94245300200021
  0
ARC
  5
17BA0
  8
AM_0
 10
1425.41489888208
 20
287.00570751951369
 30
0.0
 40
2.001640099999999
 50
270.0469599999916
 51
359.95303999999533
  0
LINE
  5
17BA1
  8
ｶｸﾚｾﾝ2
 10
1320.916568882079
 20
318.36407951951372
 30
0.0
 11
1320.916568882079
 21
375.36407951951372
 31
0.0
  0
LINE
  5
17BA2
  8
ﾁｭｳｼﾝｾﾝ1
 10
1352.4165688820799
 20
381.36407951951372
 30
0.0
 11
1352.416568882079
 21
312.36407951951372
 31
0.0
1001
GENIUS_GENODEF_13
1002
{
1000
HIER
1070
     0
1002
}
1002
{
1000
MANEDIT
1070
     0
1002
}
1002
{
1000
NOSEL
1070
     0
1002
}
1002
{
1000
BEHIND
1070
     0
1002
}
1002
{
1000
REACTOR
1002
}
1001
GENIUS_GENOBJ-N-CEN_13
1002
{
1000
OWNER
1000
GEN
1002
}
  0
LINE
  5
17BA3
  8
AM_0
 10
1301.4165388820791
 20
409.86407451951379
 30
0.0
 11
1301.416538865886
 21
283.86410554367927
 31
0.0
  0
LINE
  5
17BA4
  8
AM_0
 10
1306.6765188820791
 20
407.24406951951357
 30
0.0
 11
1303.910863201741
 21
396.91677761893561
 31
0.0
  0
ARC
  5
17BA5
  8
AM_0
 10
1372.4171488820789
 20
410.78344951951362
 30
0.0
 40
2.000623899999999
 50
90.017824000002136
 51
179.98217599900121
  0
ARC
  5
17BA6
  8
AM_0
 10
1372.413608882079
 20
410.1069795195134
 30
0.0
 40
1.9970881
 50
89.916374999999235
 51
180.0836200000015
  0
ARC
  5
17BA7
  8
AM_0
 10
1372.4162988820799
 20
408.75432951951359
 30
0.0
 40
1.9997199999999991
 50
89.991938000006229
 51
180.00806000000401
  0
LINE
  5
17BA8
  8
AM_0
 10
1370.4165388820791
 20
410.78405951951362
 30
0.0
 11
1370.4165388820791
 21
408.72405951951367
 31
0.0
  0
LINE
  5
17BA9
  8
AM_0
 10
1301.7065188820791
 20
397.90404951951348
 30
0.0
 11
1304.1165188820801
 21
397.90404951951348
 31
0.0
  0
ARC
  5
17BAA
  8
AM_0
 10
1301.7106988820799
 20
399.40453951951378
 30
0.0
 40
1.500475999999999
 50
269.84172000000018
 51
347.66777000000133
  0
LINE
  5
17BAB
  8
AM_0
 10
1306.706548882079
 20
407.3640595195136
 30
0.0
 11
1301.4165388820791
 21
407.3640595195136
 31
0.0
  0
LINE
  5
17BAC
  8
AM_0
 10
1304.6065488820791
 20
405.78409951951357
 30
0.0
 11
1303.1665388820791
 21
399.08410951951367
 31
0.0
  0
ARC
  5
17BAD
  8
AM_0
 10
1306.562078882079
 20
405.36388951951341
 30
0.0
 40
2.0001799999999981
 50
89.872485000008538
 51
167.8736480000027
  0
ARC
  5
17BAE
  8
AM_0
 10
1308.6060888820789
 20
406.72625951951369
 30
0.0
 40
1.997795899999999
 50
89.986419000009377
 51
164.9784029999978
  0
LINE
  5
17BAF
  8
AM_0
 10
1300.4165388820791
 20
410.86407451951368
 30
0.0
 11
1292.4165088820801
 21
410.86407451951368
 31
0.0
  0
ARC
  5
17BB0
  8
AM_0
 10
1300.4214888820791
 20
409.869034519514
 30
0.0
 40
0.9950640200000001
 50
359.714940000002
 51
90.285061999993019
  0
LINE
  5
17BB1
  8
AM_0
 10
1300.4165388820791
 20
398.90406951951348
 30
0.0
 11
1292.4165088820801
 21
398.90406951951348
 31
0.0
  0
ARC
  5
17BB2
  8
AM_0
 10
1300.4221288820791
 20
397.90967951951359
 30
0.0
 40
0.9944000200000001
 50
359.67649000000222
 51
90.323508999993436
  0
ARC
  5
17BB3
  8
ｶｸﾚｾﾝ2
 10
1323.916568882079
 20
375.36407951951372
 30
0.0
 40
3.0
 50
90.0
 51
180.0
  0
ARC
  5
17BB4
  8
AM_0
 10
1308.074718882079
 20
381.86405951951377
 30
0.0
 40
1.000031899999998
 50
90.469299999997844
 51
269.53070000000201
  0
ARC
  5
17BB5
  8
AM_0
 10
1304.5965388820789
 20
381.90905951951379
 30
0.0
 40
1.675
 50
89.999997000002296
 51
270.0
  0
LINE
  5
17BB6
  8
AM_0
 10
1301.4165388820791
 20
384.01406951951361
 30
0.0
 11
1292.4165088820801
 21
384.01406951951361
 31
0.0
  0
ARC
  5
17BB7
  8
AM_0
 10
1304.3865288820789
 20
371.88906951951361
 30
0.0
 40
1.4650000000000001
 50
90.00000299999769
 51
270.0
  0
ARC
  5
17BB8
  8
AM_0
 10
1305.4765588820801
 20
371.86405951951377
 30
0.0
 40
1.0000040999999991
 50
90.00000299999769
 51
270.0
  0
ARC
  5
17BB9
  8
AM_0
 10
1305.4728488820799
 20
361.86407951951372
 30
0.0
 40
1.000035999999999
 50
89.500716000006676
 51
270.49928999999509
  0
ARC
  5
17BBA
  8
AM_0
 10
1304.2515288820789
 20
361.87406951951368
 30
0.0
 40
1.3300000000000001
 50
90.00000299999769
 51
270.0
  0
ARC
  5
17BBB
  8
AM_0
 10
1305.4728488820799
 20
351.86405951951377
 30
0.0
 40
1.000035999999999
 50
89.500716000006676
 51
270.49928999999509
  0
ARC
  5
17BBC
  8
AM_0
 10
1304.1915388820789
 20
351.86904951951368
 30
0.0
 40
1.265004
 50
90.00000299999769
 51
270.0
  0
ARC
  5
17BBD
  8
AM_0
 10
1304.1915388820789
 20
341.86405951951377
 30
0.0
 40
1.270003999999999
 50
90.00000299999769
 51
270.0
  0
ARC
  5
17BBE
  8
AM_0
 10
1305.4728488820799
 20
341.86405951951377
 30
0.0
 40
1.000035999999999
 50
89.500716000006676
 51
270.49928999999509
  0
ARC
  5
17BBF
  8
AM_0
 10
1372.4173988820801
 20
282.9549345195137
 30
0.0
 40
2.0008759
 50
180.0251100000024
 51
269.97489000000411
  0
ARC
  5
17BC0
  8
AM_0
 10
1372.41885888208
 20
283.62640451951398
 30
0.0
 40
2.002332
 50
180.06674000000129
 51
269.93325999999871
  0
ARC
  5
17BC1
  8
AM_0
 10
1372.4215488820789
 20
284.97907351951392
 30
0.0
 40
2.0050240000000001
 50
180.1434100000013
 51
269.85658999999868
  0
LINE
  5
17BC2
  8
AM_0
 10
1370.4165388820791
 20
282.95406451951368
 30
0.0
 11
1370.4165388820791
 21
285.00406751951368
 31
0.0
  0
ARC
  5
17BC3
  8
ｶｸﾚｾﾝ2
 10
1323.916568882079
 20
318.36407951951372
 30
0.0
 40
3.0
 50
180.0
 51
270.0
  0
ARC
  5
17BC4
  8
AM_0
 10
1304.2515288820789
 20
331.8540795195135
 30
0.0
 40
1.3300000000000001
 50
90.00000299999769
 51
270.0
  0
ARC
  5
17BC5
  8
AM_0
 10
1305.4728488820799
 20
331.86407951951372
 30
0.0
 40
1.000035999999999
 50
89.500716000006676
 51
270.49928999999509
  0
ARC
  5
17BC6
  8
AM_0
 10
1305.47156888208
 20
321.86406951951352
 30
0.0
 40
1.0000040999999991
 50
90.00000299999769
 51
270.0
  0
ARC
  5
17BC7
  8
AM_0
 10
1304.381538882079
 20
321.84405951951379
 30
0.0
 40
1.4599999999999991
 50
90.00000299999769
 51
270.0
  0
ARC
  5
17BC8
  8
AM_0
 10
1308.074718882079
 20
311.86405951951389
 30
0.0
 40
1.000031899999998
 50
90.469299999997844
 51
269.53070000000201
  0
ARC
  5
17BC9
  8
AM_0
 10
1304.5965388820789
 20
311.8190595195137
 30
0.0
 40
1.675
 50
89.999997000002296
 51
270.0
  0
LINE
  5
17BCA
  8
AM_0
 10
1301.4165388820791
 20
309.71405951951368
 30
0.0
 11
1292.4165088820789
 21
309.71405951951368
 31
0.0
  0
LINE
  5
17BCB
  8
AM_0
 10
1304.6065188820789
 20
287.94405451951388
 30
0.0
 11
1303.1665088820789
 21
294.64405151951371
 31
0.0
  0
LINE
  5
17BCC
  8
AM_0
 10
1306.6765188820791
 20
286.48405551951379
 30
0.0
 11
1303.9108470803569
 21
296.81139642867407
 31
0.0
  0
LINE
  5
17BCD
  8
AM_0
 10
1301.7065188820791
 20
295.83406951951389
 30
0.0
 11
1304.1165188820789
 21
295.83406951951389
 31
0.0
  0
ARC
  5
17BCE
  8
AM_0
 10
1301.709448882079
 20
294.33473351951358
 30
0.0
 40
1.499328
 50
11.906159999998639
 51
90.111849000006444
  0
LINE
  5
17BCF
  8
AM_0
 10
1300.4165388820791
 20
294.82405951951392
 30
0.0
 11
1292.4165088820801
 21
294.82405951951392
 31
0.0
  0
ARC
  5
17BD0
  8
AM_0
 10
1300.41705888208
 20
295.82354051951381
 30
0.0
 40
0.9994760199999999
 50
269.97007999999312
 51
0.02990999999797
  0
LINE
  5
17BD1
  8
AM_0
 10
1306.706548882079
 20
286.36406051951383
 30
0.0
 11
1301.4165388820791
 21
286.36406051951383
 31
0.0
  0
ARC
  5
17BD2
  8
AM_0
 10
1308.6111188820789
 20
287.0084775195138
 30
0.0
 40
2.0044159999999991
 50
195.16666000000049
 51
269.86852000000772
  0
ARC
  5
17BD3
  8
AM_0
 10
1306.5672088820791
 20
288.37059851951392
 30
0.0
 40
2.0065319999999991
 50
192.27313000000319
 51
269.98073000000318
  0
LINE
  5
17BD4
  8
AM_0
 10
1300.4165388820791
 20
282.86409451951391
 30
0.0
 11
1292.4165088820801
 21
282.86409451951391
 31
0.0
  0
ARC
  5
17BD5
  8
AM_0
 10
1300.4163588820791
 20
283.864285519514
 30
0.0
 40
1.000179999999999
 50
270.01032000000009
 51
359.98968999999448
  0
LINE
  5
17BD6
  8
0
 10
1115.4165355222169
 20
592.9622838441453
 30
0.0
 11
1110.416534769658
 21
620.96228176708576
 31
0.0
  0
LINE
  5
17BD7
  8
0
 10
1155.4165355222169
 20
592.9622838441453
 30
0.0
 11
1160.416536274774
 21
620.96228176708576
 31
0.0
  0
LINE
  5
17BD8
  8
0
 10
1119.416535522216
 20
534.96228384414519
 30
0.0
 11
1119.416535522216
 21
592.9622838441453
 31
0.0
  0
LINE
  5
17BD9
  8
0
 10
1151.4165355222169
 20
534.96228384414519
 30
0.0
 11
1151.4165355222169
 21
592.9622838441453
 31
0.0
  0
LINE
  5
17BDA
  8
AM_0
 10
1151.4165355222169
 20
534.96228384414519
 30
0.0
 11
1119.416535522216
 21
534.96228384414519
 31
0.0
  0
LINE
  5
17BDB
  8
0
 10
1115.4165355222169
 20
592.9622838441453
 30
0.0
 11
1155.4165355222169
 21
592.9622838441453
 31
0.0
  0
LINE
  5
17BDC
  8
0
 10
1130.4165355222169
 20
579.96228384414496
 30
0.0
 11
1140.4165355222169
 21
579.96228384414496
 31
0.0
  0
LINE
  5
17BDD
  8
AM_0
 10
1130.4165355222169
 20
534.96228384414519
 30
0.0
 11
1130.4165355222169
 21
579.96228384414496
 31
0.0
  0
LINE
  5
17BDE
  8
AM_0
 10
1140.4165355222169
 20
534.96228384414519
 30
0.0
 11
1140.4165355222169
 21
579.96228384414496
 31
0.0
  0
ARC
  5
17BDF
  8
AM_0
 10
1135.4165355222169
 20
579.96228384414496
 30
0.0
 40
4.9999999999999432
 50
0.000000000000007
 51
180.0
  0
LINE
  5
17BE1
  8
AM_0
 10
1301.4165387484529
 20
389.7240500324537
 30
0.0
 11
1301.4165387484529
 21
397.3240500326055
 31
0.0
  0
LINE
  5
17BE2
  8
AM_0
 10
1302.4165387484729
 20
389.7240500324537
 30
0.0
 11
1302.4165387484729
 21
397.3240500326055
 31
0.0
  0
LINE
  5
17BE3
  8
AM_0
 10
1301.4165387484529
 20
392.7466900325141
 30
0.0
 11
1302.4165387484729
 21
393.3240200325256
 31
0.0
  0
LINE
  5
17BE4
  8
AM_0
 10
1301.4165387484529
 20
393.7466900325341
 30
0.0
 11
1302.4165387484729
 21
394.3240500325457
 31
0.0
  0
LINE
  5
17BE5
  8
AM_0
 10
1302.4165387484729
 20
397.3240500326055
 30
0.0
 11
1301.4165387484529
 21
397.3240500326055
 31
0.0
  0
LINE
  5
17BE6
  8
AM_0
 10
1302.4165387484729
 20
397.02405003259969
 30
0.0
 11
1303.316538748491
 21
397.02405003259969
 31
0.0
  0
LINE
  5
17BE7
  8
AM_0
 10
1302.4165387484729
 20
389.7240500324537
 30
0.0
 11
1301.4165387484529
 21
389.7240500324537
 31
0.0
  0
LINE
  5
17BE8
  8
AM_0
 10
1302.4165387484729
 20
390.02406003245949
 30
0.0
 11
1303.316538748491
 21
390.02406003245949
 31
0.0
  0
LINE
  5
17BE9
  8
AM_0
 10
1305.016518748525
 20
391.72405003249372
 30
0.0
 11
1305.016518748525
 21
395.32405003256559
 31
0.0
  0
ARC
  5
17BEA
  8
AM_0
 10
1303.316538748491
 20
391.72405003249372
 30
0.0
 40
1.6999969000339989
 50
270.00000299999761
 51
359.999979999998
  0
ARC
  5
17BEB
  8
AM_0
 10
1303.316538748491
 20
395.32405003256559
 30
0.0
 40
1.700000800033999
 50
0.0000100000010134
 51
89.999979999998004
  0
LINE
  5
17BEC
  8
AM_0
 10
1301.4165387484529
 20
299.98149003065879
 30
0.0
 11
1302.4165387484729
 21
299.4041300306472
 31
0.0
  0
LINE
  5
17BED
  8
AM_0
 10
1305.016518748525
 20
302.00413003069917
 30
0.0
 11
1305.016518748525
 21
298.40413003062719
 31
0.0
  0
LINE
  5
17BEE
  8
AM_0
 10
1302.4165387484729
 20
304.00413003073919
 30
0.0
 11
1302.4165387484729
 21
296.40413003058723
 31
0.0
  0
LINE
  5
17BEF
  8
AM_0
 10
1301.4165387484529
 20
304.00413003073919
 30
0.0
 11
1301.4165387484529
 21
296.40413003058723
 31
0.0
  0
LINE
  5
17BF0
  8
AM_0
 10
1302.4165387484729
 20
303.70412003073312
 30
0.0
 11
1303.316538748491
 21
303.70412003073312
 31
0.0
  0
LINE
  5
17BF1
  8
AM_0
 10
1302.4165387484729
 20
304.00413003073919
 30
0.0
 11
1301.4165387484529
 21
304.00413003073919
 31
0.0
  0
ARC
  5
17BF2
  8
AM_0
 10
1303.316538748491
 20
302.00413003069917
 30
0.0
 40
1.6999969000339989
 50
0.0000199999955061
 51
89.999997000002296
  0
LINE
  5
17BF3
  8
AM_0
 10
1301.4165387484529
 20
300.9814900306788
 30
0.0
 11
1302.4165387484729
 21
300.40416003066741
 31
0.0
  0
LINE
  5
17BF4
  8
AM_0
 10
1302.4165387484729
 20
296.70413003059332
 30
0.0
 11
1303.316538748491
 21
296.70413003059332
 31
0.0
  0
LINE
  5
17BF5
  8
AM_0
 10
1302.4165387484729
 20
296.40413003058723
 30
0.0
 11
1301.4165387484529
 21
296.40413003058723
 31
0.0
  0
ARC
  5
17BF6
  8
AM_0
 10
1303.316538748491
 20
298.40413003062719
 30
0.0
 40
1.700000800033999
 50
270.000020000002
 51
359.999989999999
  0
LINE
  5
17BFA
  8
AM_0
 10
1060.4193610538041
 20
592.46228208462878
 30
0.0
 11
1060.4193610538041
 21
630.96228208462867
 31
0.0
  0
LINE
  5
17BFB
  8
AM_0
 10
1265.419336707201
 20
630.96228208462867
 30
0.0
 11
1265.419336707201
 21
592.46228208462912
 31
0.0
  0
LINE
  5
17BFC
  8
AM_0
 10
1255.419336707201
 20
582.46228208462912
 30
0.0
 11
1151.4165355222169
 21
582.46228208462912
 31
0.0
  0
LINE
  5
17BFD
  8
AM_0
 10
1119.416535522216
 20
582.46228208462912
 30
0.0
 11
1070.4193610538041
 21
582.46228208462901
 31
0.0
  0
LINE
  5
17BFE
  8
AM_0
 10
1060.4193610538041
 20
624.9622820846289
 30
0.0
 11
1110.416034776644
 21
624.9622820846289
 31
0.0
  0
LINE
  5
17BFF
  8
AM_0
 10
1160.4170362677901
 20
624.9622820846289
 30
0.0
 11
1265.419336707201
 21
624.9622820846289
 31
0.0
  0
ARC
  5
17C00
  8
AM_0
 10
1070.4193610538041
 20
592.46228208462878
 30
0.0
 40
10.0
 50
180.0
 51
270.0
1001
GENIUS_GENODEF_13
1002
{
1000
HIER
1070
     0
1002
}
1002
{
1000
MANEDIT
1070
     0
1002
}
1002
{
1000
NOSEL
1070
     0
1002
}
1002
{
1000
BEHIND
1070
     0
1002
}
1002
{
1000
OTHER
1070
     0
1002
}
1002
{
1000
REACTOR
1002
}
1001
GENIUS_GENOBJ-N-FIL_13
1002
{
1000
OWNER
1000
GEN
1002
}
  0
ARC
  5
17C01
  8
AM_0
 10
1255.419336707201
 20
592.46228208462912
 30
0.0
 40
10.0
 50
270.0
 51
0.000000000000007
1001
GENIUS_GENOBJ-N-FIL_13
1002
{
1000
OWNER
1000
GEN
1002
}
1001
GENIUS_GENODEF_13
1002
{
1000
HIER
1070
     0
1002
}
1002
{
1000
MANEDIT
1070
     0
1002
}
1002
{
1000
NOSEL
1070
     0
1002
}
1002
{
1000
BEHIND
1070
     0
1002
}
1002
{
1000
OTHER
1070
     0
1002
}
1002
{
1000
REACTOR
1002
}
  0
LINE
  5
17C02
  8
ﾁｭｳｼﾝｾﾝ1
 10
1095.9193610538041
 20
597.46228208462901
 30
0.0
 11
1065.9193610538041
 21
597.46228208462901
 31
0.0
  0
LINE
  5
17C03
  8
ﾁｭｳｼﾝｾﾝ1
 10
1080.9193610538041
 20
612.46228208462901
 30
0.0
 11
1080.9193610538041
 21
582.46228208462901
 31
0.0
  0
CIRCLE
  5
17C04
  8
AM_0
 10
1080.9193610538041
 20
597.46228208462867
 30
0.0
 40
7.5
  0
CIRCLE
  5
17C05
  8
AM_0
 10
1244.919336707201
 20
597.46228208462867
 30
0.0
 40
7.5
  0
LINE
  5
17C06
  8
AM_5
 10
1190.419334449527
 20
624.9622820846289
 30
0.0
 11
1190.419334449527
 21
630.96228208462867
 31
0.0
  0
LINE
  5
17C07
  8
AM_5
 10
1223.584072949717
 20
624.9622820846289
 30
0.0
 11
1223.584072949717
 21
630.96228208462867
 31
0.0
  0
LINE
  5
17C08
  8
AM_0
 10
1212.4193488805031
 20
624.9622820846289
 30
0.0
 11
1212.4193488805031
 21
592.96228208462878
 31
0.0
  0
LINE
  5
17C09
  8
AM_0
 10
1206.4193488805031
 20
624.9622820846289
 30
0.0
 11
1206.4193488805031
 21
592.96228208462878
 31
0.0
  0
LINE
  5
17C0A
  8
AM_0
 10
1212.4193488805031
 20
619.9622820846289
 30
0.0
 11
1217.4193488805031
 21
624.9622820846289
 31
0.0
1001
GENIUS_GENFIL_13
1070
     0
1040
5.0
1040
5.0
1040
20.0
1040
0.0
1002
{
1002
}
1001
GENIUS_GENOBJ-N-CHA_13
1002
{
1000
OWNER
1000
GEN
1002
}
1001
GENIUS_GENODEF_13
1002
{
1000
HIER
1070
     0
1002
}
1002
{
1000
MANEDIT
1070
     0
1002
}
1002
{
1000
NOSEL
1070
     0
1002
}
1002
{
1000
BEHIND
1070
     0
1002
}
1002
{
1000
OTHER
1070
     0
1002
}
1002
{
1000
REACTOR
1002
}
  0
INSERT
  5
17C0B
  8
AM_0
  6
CONTINUOUS
  2
*U5
 10
0.0
 20
0.0
 30
0.0
1001
GENIUS_GENODEF_13
1002
{
1000
HIER
1070
     0
1002
}
1002
{
1000
MANEDIT
1070
     0
1002
}
1002
{
1000
NOSEL
1070
     0
1002
}
1002
{
1000
BEHIND
1070
     0
1002
}
1002
{
1000
OTHER
1070
     0
1002
}
1002
{
1000
REACTOR
1002
}
1001
GENIUS_GENOBJ-N-HTC_13
1002
{
1000
OWNER
1000
GEN
1002
}
1001
GENIUS_GENHATCH_13
1002
{
1000
DATA
1040
0.0
1042
-0.9999999999999998
1000
SOLID
1070
     0
1011
1213.580253457221
1021
0.0
1031
0.0
1021
623.64992786184598
1031
0.0
1002
}
1002
{
1000
UCS
1010
0.0
1020
0.0
1030
0.0
1010
1.0
1020
0.0
1030
0.0
1010
0.0
1020
1.0
1030
0.0
1002
}
1001
ACAD
1002
{
1000
R14_HATCH_DATA
1000
17C0B
1011
1.0
1021
0.0
1031
0.0
1021
0.0
1031
0.0
1011
0.0
1021
0.0
1031
0.0
1021
1.0
1031
0.0
1011
0.0
1021
0.0
1031
0.0
1021
0.0
1031
1.0
1040
0.0
1010
0.0
1020
0.0
1030
1.0
1000
SOLID
1070
     1
1070
     0
1071
        2
1071
        1
1071
        3
1070
     1
1040
1217.4193488805031
1040
624.9622820846289
1040
1212.4193488805031
1040
619.9622820846289
1070
     1
1040
1212.4193488805031
1040
619.9622820846289
1040
1212.4193488805031
1040
624.9622820846289
1070
     1
1040
1212.4193488805031
1040
624.9622820846289
1040
1217.4193488805031
1040
624.9622820846289
1071
        0
1071
       33
1071
        1
1070
     1
1040
1265.419336707201
1040
624.9622820846289
1040
1060.4193610538041
1040
624.9622820846289
1071
        0
1070
     0
1070
     1
1071
        1
1040
1019.0962708965189
1040
750.89053173791808
1040
0.0
1002
}
  0
INSERT
  5
17C0C
  8
AM_0
  6
CONTINUOUS
  2
*U6
 10
0.0
 20
0.0
 30
0.0
1001
GENIUS_GENODEF_13
1002
{
1000
HIER
1070
     0
1002
}
1002
{
1000
MANEDIT
1070
     0
1002
}
1002
{
1000
NOSEL
1070
     0
1002
}
1002
{
1000
BEHIND
1070
     0
1002
}
1002
{
1000
OTHER
1070
     0
1002
}
1002
{
1000
REACTOR
1002
}
1001
GENIUS_GENOBJ-N-HTC_13
1002
{
1000
OWNER
1000
GEN
1002
}
1001
GENIUS_GENHATCH_13
1002
{
1000
DATA
1040
0.0
1042
-0.9999999999999998
1000
SOLID
1070
     0
1011
1205.2584443037849
1021
0.0
1031
0.0
1021
623.64992786184598
1031
0.0
1002
}
1002
{
1000
UCS
1010
0.0
1020
0.0
1030
0.0
1010
1.0
1020
0.0
1030
0.0
1010
0.0
1020
1.0
1030
0.0
1002
}
1001
ACAD
1002
{
1000
R14_HATCH_DATA
1000
17C0C
1011
1.0
1021
0.0
1031
0.0
1021
0.0
1031
0.0
1011
0.0
1021
0.0
1031
0.0
1021
1.0
1031
0.0
1011
0.0
1021
0.0
1031
0.0
1021
0.0
1031
1.0
1040
0.0
1010
0.0
1020
0.0
1030
1.0
1000
SOLID
1070
     1
1070
     0
1071
        2
1071
        1
1071
        3
1070
     1
1040
1201.4193488805031
1040
624.9622820846289
1040
1206.4193488805031
1040
619.9622820846289
1070
     1
1040
1206.4193488805031
1040
619.9622820846289
1040
1206.4193488805031
1040
624.9622820846289
1070
     1
1040
1206.4193488805031
1040
624.9622820846289
1040
1201.4193488805031
1040
624.9622820846289
1071
        0
1071
       33
1071
        1
1070
     1
1040
1153.4193610538041
1040
624.9622820846289
1040
1358.419336707201
1040
624.9622820846289
1071
        0
1070
     0
1070
     1
1071
        1
1040
1399.742426864487
1040
750.89053173791808
1040
0.0
1002
}
  0
LINE
  5
17C0D
  8
AM_0
 10
1206.4193488805031
 20
619.9622820846289
 30
0.0
 11
1201.4193488805031
 21
624.9622820846289
 31
0.0
1001
GENIUS_GENFIL_13
1070
     0
1040
5.0
1040
5.0
1040
20.0
1040
0.0
1002
{
1002
}
1001
GENIUS_GENOBJ-N-CHA_13
1002
{
1000
OWNER
1000
GEN
1002
}
1001
GENIUS_GENODEF_13
1002
{
1000
HIER
1070
     0
1002
}
1002
{
1000
MANEDIT
1070
     0
1002
}
1002
{
1000
NOSEL
1070
     0
1002
}
1002
{
1000
BEHIND
1070
     0
1002
}
1002
{
1000
OTHER
1070
     0
1002
}
1002
{
1000
REACTOR
1002
}
  0
LINE
  5
17C0E
  8
AM_0
 10
1206.4193488805031
 20
614.96228208462833
 30
0.0
 11
1212.4193488805031
 21
614.96228208462833
 31
0.0
  0
LINE
  5
17C0F
  8
AM_0
 10
1206.4193488805031
 20
592.96228208462878
 30
0.0
 11
1212.4193488805031
 21
592.96228208462878
 31
0.0
  0
LINE
  5
17C10
  8
ﾁｭｳｼﾝｾﾝ1
 10
1259.919336707201
 20
597.46228208462867
 30
0.0
 11
1229.919336707201
 21
597.46228208462867
 31
0.0
  0
LINE
  5
17C11
  8
ﾁｭｳｼﾝｾﾝ1
 10
1244.919336707201
 20
612.4622820846289
 30
0.0
 11
1244.919336707201
 21
582.4622820846289
 31
0.0
  0
LINE
  5
17C12
  8
AM_0
 10
1060.4193610538041
 20
787.46228560366194
 30
0.0
 11
1060.4193610538041
 21
748.96228560366205
 31
0.0
  0
LINE
  5
17C13
  8
AM_0
 10
1265.419336707201
 20
748.96228560366205
 30
0.0
 11
1265.419336707201
 21
787.46228560366183
 31
0.0
  0
LINE
  5
17C14
  8
AM_0
 10
1255.419336707201
 20
797.46228560366183
 30
0.0
 11
1070.4193610538041
 21
797.46228560366194
 31
0.0
  0
LINE
  5
17C15
  8
AM_0
 10
1060.4193610538041
 20
754.96228560366205
 30
0.0
 11
1135.4165355222169
 21
754.96228560366205
 31
0.0
  0
LINE
  5
17C16
  8
AM_0
 10
1135.4165355222169
 20
754.96228560366205
 30
0.0
 11
1265.419336707201
 21
754.96228560366205
 31
0.0
  0
ARC
  5
17C17
  8
AM_0
 10
1070.4193610538041
 20
787.46228560366194
 30
0.0
 40
10.0
 50
90.0
 51
180.0
1001
GENIUS_GENODEF_13
1002
{
1000
HIER
1070
     0
1002
}
1002
{
1000
MANEDIT
1070
     0
1002
}
1002
{
1000
NOSEL
1070
     0
1002
}
1002
{
1000
BEHIND
1070
     0
1002
}
1002
{
1000
OTHER
1070
     0
1002
}
1002
{
1000
REACTOR
1002
}
1001
GENIUS_GENOBJ-N-FIL_13
1002
{
1000
OWNER
1000
GEN
1002
}
  0
ARC
  5
17C18
  8
AM_0
 10
1255.419336707201
 20
787.46228560366183
 30
0.0
 40
10.0
 50
0.000000000000007
 51
90.0
1001
GENIUS_GENOBJ-N-FIL_13
1002
{
1000
OWNER
1000
GEN
1002
}
1001
GENIUS_GENODEF_13
1002
{
1000
HIER
1070
     0
1002
}
1002
{
1000
MANEDIT
1070
     0
1002
}
1002
{
1000
NOSEL
1070
     0
1002
}
1002
{
1000
BEHIND
1070
     0
1002
}
1002
{
1000
OTHER
1070
     0
1002
}
1002
{
1000
REACTOR
1002
}
  0
LINE
  5
17C19
  8
ﾁｭｳｼﾝｾﾝ1
 10
1095.9193610538041
 20
782.46228560366194
 30
0.0
 11
1065.9193610538041
 21
782.46228560366194
 31
0.0
  0
LINE
  5
17C1A
  8
ﾁｭｳｼﾝｾﾝ1
 10
1080.9193610538041
 20
767.46228560366194
 30
0.0
 11
1080.9193610538041
 21
797.46228560366194
 31
0.0
  0
CIRCLE
  5
17C1B
  8
AM_0
 10
1080.9193610538041
 20
782.46228560366205
 30
0.0
 40
7.5
  0
CIRCLE
  5
17C1C
  8
AM_0
 10
1244.919336707201
 20
782.46228560366205
 30
0.0
 40
7.5
  0
LINE
  5
17C1D
  8
AM_5
 10
1190.419334449527
 20
754.96228560366205
 30
0.0
 11
1190.419334449527
 21
748.96228560366205
 31
0.0
  0
LINE
  5
17C1E
  8
AM_5
 10
1223.584072949717
 20
754.96228560366205
 30
0.0
 11
1223.584072949717
 21
748.96228560366205
 31
0.0
  0
LINE
  5
17C1F
  8
AM_0
 10
1212.4193488805031
 20
754.96228560366205
 30
0.0
 11
1212.4193488805031
 21
786.96228560366205
 31
0.0
  0
LINE
  5
17C20
  8
AM_0
 10
1206.4193488805031
 20
754.96228560366205
 30
0.0
 11
1206.4193488805031
 21
786.96228560366205
 31
0.0
  0
LINE
  5
17C21
  8
AM_0
 10
1212.4193488805031
 20
759.96228560366228
 30
0.0
 11
1217.4193488805031
 21
754.96228560366205
 31
0.0
1001
GENIUS_GENFIL_13
1070
     0
1040
5.0
1040
5.0
1040
20.0
1040
0.0
1002
{
1002
}
1001
GENIUS_GENOBJ-N-CHA_13
1002
{
1000
OWNER
1000
GEN
1002
}
1001
GENIUS_GENODEF_13
1002
{
1000
HIER
1070
     0
1002
}
1002
{
1000
MANEDIT
1070
     0
1002
}
1002
{
1000
NOSEL
1070
     0
1002
}
1002
{
1000
BEHIND
1070
     0
1002
}
1002
{
1000
OTHER
1070
     0
1002
}
1002
{
1000
REACTOR
1002
}
  0
INSERT
  5
17C22
  8
AM_0
  6
CONTINUOUS
  2
*U7
 10
0.0
 20
0.0
 30
0.0
1001
GENIUS_GENODEF_13
1002
{
1000
HIER
1070
     0
1002
}
1002
{
1000
MANEDIT
1070
     0
1002
}
1002
{
1000
NOSEL
1070
     0
1002
}
1002
{
1000
BEHIND
1070
     0
1002
}
1002
{
1000
OTHER
1070
     0
1002
}
1002
{
1000
REACTOR
1002
}
1001
GENIUS_GENOBJ-N-HTC_13
1002
{
1000
OWNER
1000
GEN
1002
}
1001
GENIUS_GENHATCH_13
1002
{
1000
DATA
1040
0.0
1042
0.9999999999999998
1000
SOLID
1070
     0
1011
1213.580253457221
1021
0.0
1031
0.0
1021
756.2746398264452
1031
0.0
1002
}
1002
{
1000
UCS
1010
0.0
1020
0.0
1030
0.0
1010
1.0
1020
0.0
1030
0.0
1010
0.0
1020
1.0
1030
0.0
1002
}
1001
ACAD
1002
{
1000
R14_HATCH_DATA
1000
17C22
1011
1.0
1021
0.0
1031
0.0
1021
0.0
1031
0.0
1011
0.0
1021
0.0
1031
0.0
1021
1.0
1031
0.0
1011
0.0
1021
0.0
1031
0.0
1021
0.0
1031
1.0
1040
0.0
1010
0.0
1020
0.0
1030
1.0
1000
SOLID
1070
     1
1070
     0
1071
        2
1071
        1
1071
        3
1070
     1
1040
1217.4193488805031
1040
754.96228560366205
1040
1212.4193488805031
1040
759.96228560366228
1070
     1
1040
1212.4193488805031
1040
759.96228560366228
1040
1212.4193488805031
1040
754.96228560366205
1070
     1
1040
1212.4193488805031
1040
754.96228560366205
1040
1217.4193488805031
1040
754.96228560366205
1071
        0
1071
       33
1071
        1
1070
     1
1040
1265.419336707201
1040
754.96228560366205
1040
1060.4193610538041
1040
754.96228560366205
1071
        0
1070
     0
1070
     1
1071
        1
1040
1019.0962708965189
1040
629.03403595037275
1040
0.0
1002
}
  0
INSERT
  5
17C23
  8
AM_0
  6
CONTINUOUS
  2
*U8
 10
0.0
 20
0.0
 30
0.0
1001
GENIUS_GENODEF_13
1002
{
1000
HIER
1070
     0
1002
}
1002
{
1000
MANEDIT
1070
     0
1002
}
1002
{
1000
NOSEL
1070
     0
1002
}
1002
{
1000
BEHIND
1070
     0
1002
}
1002
{
1000
OTHER
1070
     0
1002
}
1002
{
1000
REACTOR
1002
}
1001
GENIUS_GENOBJ-N-HTC_13
1002
{
1000
OWNER
1000
GEN
1002
}
1001
GENIUS_GENHATCH_13
1002
{
1000
DATA
1040
0.0
1042
0.9999999999999998
1000
SOLID
1070
     0
1011
1205.2584443037849
1021
0.0
1031
0.0
1021
756.2746398264452
1031
0.0
1002
}
1002
{
1000
UCS
1010
0.0
1020
0.0
1030
0.0
1010
1.0
1020
0.0
1030
0.0
1010
0.0
1020
1.0
1030
0.0
1002
}
1001
ACAD
1002
{
1000
R14_HATCH_DATA
1000
17C23
1011
1.0
1021
0.0
1031
0.0
1021
0.0
1031
0.0
1011
0.0
1021
0.0
1031
0.0
1021
1.0
1031
0.0
1011
0.0
1021
0.0
1031
0.0
1021
0.0
1031
1.0
1040
0.0
1010
0.0
1020
0.0
1030
1.0
1000
SOLID
1070
     1
1070
     0
1071
        2
1071
        1
1071
        3
1070
     1
1040
1201.4193488805031
1040
754.96228560366205
1040
1206.4193488805031
1040
759.96228560366228
1070
     1
1040
1206.4193488805031
1040
759.96228560366228
1040
1206.4193488805031
1040
754.96228560366205
1070
     1
1040
1206.4193488805031
1040
754.96228560366205
1040
1201.4193488805031
1040
754.96228560366205
1071
        0
1071
       33
1071
        1
1070
     1
1040
1153.4193610538041
1040
754.96228560366205
1040
1358.419336707201
1040
754.96228560366205
1071
        0
1070
     0
1070
     1
1071
        1
1040
1399.742426864487
1040
629.03403595037275
1040
0.0
1002
}
  0
LINE
  5
17C24
  8
AM_0
 10
1206.4193488805031
 20
759.96228560366228
 30
0.0
 11
1201.4193488805031
 21
754.96228560366205
 31
0.0
1001
GENIUS_GENFIL_13
1070
     0
1040
5.0
1040
5.0
1040
20.0
1040
0.0
1002
{
1002
}
1001
GENIUS_GENOBJ-N-CHA_13
1002
{
1000
OWNER
1000
GEN
1002
}
1001
GENIUS_GENODEF_13
1002
{
1000
HIER
1070
     0
1002
}
1002
{
1000
MANEDIT
1070
     0
1002
}
1002
{
1000
NOSEL
1070
     0
1002
}
1002
{
1000
BEHIND
1070
     0
1002
}
1002
{
1000
OTHER
1070
     0
1002
}
1002
{
1000
REACTOR
1002
}
  0
LINE
  5
17C25
  8
AM_0
 10
1206.4193488805031
 20
764.96228560366262
 30
0.0
 11
1212.4193488805031
 21
764.96228560366262
 31
0.0
  0
LINE
  5
17C26
  8
AM_0
 10
1206.4193488805031
 20
786.96228560366205
 30
0.0
 11
1212.4193488805031
 21
786.96228560366205
 31
0.0
  0
LINE
  5
17C27
  8
AM_0
 10
1113.4193488805031
 20
754.96228560366205
 30
0.0
 11
1113.4193488805031
 21
786.96228560366205
 31
0.0
  0
LINE
  5
17C28
  8
AM_0
 10
1119.4193488805031
 20
754.96228560366205
 30
0.0
 11
1119.4193488805031
 21
786.96228560366205
 31
0.0
  0
LINE
  5
17C29
  8
AM_0
 10
1119.4193488805031
 20
764.96228560366262
 30
0.0
 11
1113.4193488805031
 21
764.96228560366262
 31
0.0
  0
LINE
  5
17C2A
  8
AM_0
 10
1119.4193488805031
 20
786.96228560366205
 30
0.0
 11
1113.4193488805031
 21
786.96228560366205
 31
0.0
  0
LINE
  5
17C2B
  8
ﾁｭｳｼﾝｾﾝ1
 10
1259.919336707201
 20
782.46228560366205
 30
0.0
 11
1229.919336707201
 21
782.46228560366205
 31
0.0
  0
LINE
  5
17C2C
  8
ﾁｭｳｼﾝｾﾝ1
 10
1244.919336707201
 20
767.46228560366205
 30
0.0
 11
1244.919336707201
 21
797.46228560366228
 31
0.0
  0
LINE
  5
17C2D
  8
AM_0N
 10
1063.4193615053391
 20
622.66228208462894
 30
0.0
 11
1087.4193615053391
 21
622.66228208462894
 31
0.0
  0
LINE
  5
17C2E
  8
AM_0N
 10
1067.6193615053389
 20
610.66228208462894
 30
0.0
 11
1083.2193615053391
 21
610.66228208462894
 31
0.0
  0
LINE
  5
17C2F
  8
AM_0N
 10
1066.4193615053391
 20
611.86228208462887
 30
0.0
 11
1066.4193615053391
 21
622.66228208462894
 31
0.0
  0
LINE
  5
17C30
  8
AM_0N
 10
1063.4193615053391
 20
624.9622820846289
 30
0.0
 11
1063.4193615053391
 21
622.66228208462894
 31
0.0
  0
ARC
  5
17C31
  8
AM_0N
 10
1067.6193615053389
 20
611.86228208462887
 30
0.0
 40
1.1999999999999991
 50
180.0
 51
270.0
  0
LINE
  5
17C32
  8
AM_0N
 10
1084.4193615053391
 20
611.86228208462887
 30
0.0
 11
1084.4193615053391
 21
622.66228208462894
 31
0.0
  0
LINE
  5
17C33
  8
AM_0N
 10
1087.4193615053391
 20
622.66228208462894
 30
0.0
 11
1087.4193615053391
 21
624.9622820846289
 31
0.0
  0
ARC
  5
17C34
  8
AM_0N
 10
1083.2193615053391
 20
611.86228208462887
 30
0.0
 40
1.1999999999999991
 50
270.0
 51
0.0
  0
LINE
  5
17C35
  8
AM_0N
 10
1238.4193362556659
 20
622.66228208462894
 30
0.0
 11
1262.4193362556659
 21
622.66228208462894
 31
0.0
  0
LINE
  5
17C36
  8
AM_0N
 10
1242.6193362556669
 20
610.66228208462894
 30
0.0
 11
1258.2193362556659
 21
610.66228208462894
 31
0.0
  0
LINE
  5
17C37
  8
AM_0N
 10
1241.4193362556659
 20
611.86228208462887
 30
0.0
 11
1241.4193362556659
 21
622.66228208462894
 31
0.0
  0
LINE
  5
17C38
  8
AM_0N
 10
1238.4193362556659
 20
624.9622820846289
 30
0.0
 11
1238.4193362556659
 21
622.66228208462894
 31
0.0
  0
ARC
  5
17C39
  8
AM_0N
 10
1242.619336255666
 20
611.86228208462887
 30
0.0
 40
1.1999999999999991
 50
180.0
 51
270.0
  0
LINE
  5
17C3A
  8
AM_0N
 10
1259.4193362556659
 20
611.86228208462887
 30
0.0
 11
1259.4193362556659
 21
622.66228208462894
 31
0.0
  0
LINE
  5
17C3B
  8
AM_0N
 10
1262.4193362556659
 20
622.66228208462894
 30
0.0
 11
1262.4193362556659
 21
624.9622820846289
 31
0.0
  0
ARC
  5
17C3C
  8
AM_0N
 10
1258.2193362556659
 20
611.86228208462887
 30
0.0
 40
1.1999999999999991
 50
270.0
 51
0.0
  0
LINE
  5
17C3D
  8
AM_0N
 10
1080.6168615053391
 20
767.25688197814259
 30
0.0
 11
1080.6168615053391
 21
757.26228560366224
 31
0.0
  0
LINE
  5
17C3E
  8
AM_0N
 10
1085.8143615053391
 20
767.25688197814259
 30
0.0
 11
1085.8143615053391
 21
757.26228560366224
 31
0.0
  0
LINE
  5
17C3F
  8
AM_0N
 10
1065.0243615053389
 20
767.25688197814259
 30
0.0
 11
1065.0243615053389
 21
757.26228560366224
 31
0.0
  0
LINE
  5
17C40
  8
AM_0N
 10
1070.2218615053389
 20
767.25688197814259
 30
0.0
 11
1070.2218615053389
 21
757.26228560366224
 31
0.0
  0
LINE
  5
17C41
  8
AM_0N
 10
1084.4193615053391
 20
768.0622856036623
 30
0.0
 11
1066.4193615053391
 21
768.0622856036623
 31
0.0
  0
ARC
  5
17C42
  8
AM_0N
 10
1075.4193615053391
 20
750.8891066077889
 30
0.0
 40
17.173178995873389
 50
72.38303115958206
 51
107.6169688404179
  0
ARC
  5
17C43
  8
AM_0N
 10
1067.623111505342
 20
763.46696449512285
 30
0.0
 40
4.5953211085391104
 50
55.5615305952375
 51
115.56153059562079
  0
LINE
  5
17C44
  8
AM_0N
 10
1065.0243615053389
 20
767.25688197814259
 30
0.0
 11
1066.4193615053391
 21
768.0622856036623
 31
0.0
  0
ARC
  5
17C45
  8
AM_0N
 10
1083.215611505339
 20
763.46696449512285
 30
0.0
 40
4.5953211085391104
 50
64.438469404567073
 51
124.4384694047824
  0
LINE
  5
17C46
  8
AM_0N
 10
1085.8143615053391
 20
767.25688197814259
 30
0.0
 11
1084.4193615053391
 21
768.0622856036623
 31
0.0
  0
LINE
  5
17C47
  8
AM_0N
 10
1087.4193615053391
 20
757.26228560366224
 30
0.0
 11
1063.4193615053391
 21
757.26228560366224
 31
0.0
  0
LINE
  5
17C48
  8
AM_0N
 10
1063.4193615053391
 20
757.26228560366224
 30
0.0
 11
1063.4193615053391
 21
754.96228560366239
 31
0.0
  0
LINE
  5
17C49
  8
AM_0N
 10
1087.4193615053391
 20
754.96228560366239
 30
0.0
 11
1087.4193615053391
 21
757.26228560366224
 31
0.0
  0
LINE
  5
17C4A
  8
AM_0N
 10
1255.6168362556671
 20
767.25688197814259
 30
0.0
 11
1255.6168362556671
 21
757.26228560366224
 31
0.0
  0
LINE
  5
17C4B
  8
AM_0N
 10
1260.8143362556659
 20
767.25688197814259
 30
0.0
 11
1260.8143362556659
 21
757.26228560366224
 31
0.0
  0
LINE
  5
17C4C
  8
AM_0N
 10
1240.024336255666
 20
767.25688197814259
 30
0.0
 11
1240.024336255666
 21
757.26228560366224
 31
0.0
  0
LINE
  5
17C4D
  8
AM_0N
 10
1245.2218362556659
 20
767.25688197814259
 30
0.0
 11
1245.2218362556659
 21
757.26228560366224
 31
0.0
  0
LINE
  5
17C4E
  8
AM_0N
 10
1259.4193362556659
 20
768.0622856036623
 30
0.0
 11
1241.4193362556659
 21
768.0622856036623
 31
0.0
  0
ARC
  5
17C4F
  8
AM_0N
 10
1250.4193362556659
 20
750.8891066077889
 30
0.0
 40
17.173178995873389
 50
72.38303115958206
 51
107.6169688404179
  0
ARC
  5
17C50
  8
AM_0N
 10
1242.623086255669
 20
763.46696449512285
 30
0.0
 40
4.5953211085391104
 50
55.5615305952375
 51
115.56153059562079
  0
LINE
  5
17C51
  8
AM_0N
 10
1240.024336255666
 20
767.25688197814259
 30
0.0
 11
1241.4193362556659
 21
768.0622856036623
 31
0.0
  0
ARC
  5
17C52
  8
AM_0N
 10
1258.215586255666
 20
763.46696449512285
 30
0.0
 40
4.5953211085391104
 50
64.438469404567073
 51
124.4384694047824
  0
LINE
  5
17C53
  8
AM_0N
 10
1260.8143362556659
 20
767.25688197814259
 30
0.0
 11
1259.4193362556659
 21
768.0622856036623
 31
0.0
  0
LINE
  5
17C54
  8
AM_0N
 10
1262.4193362556659
 20
757.26228560366224
 30
0.0
 11
1238.4193362556659
 21
757.26228560366224
 31
0.0
  0
LINE
  5
17C55
  8
AM_0N
 10
1238.4193362556659
 20
757.26228560366224
 30
0.0
 11
1238.4193362556659
 21
754.96228560366239
 31
0.0
  0
LINE
  5
17C56
  8
AM_0N
 10
1262.4193362556659
 20
754.96228560366239
 30
0.0
 11
1262.4193362556659
 21
757.26228560366224
 31
0.0
  0
CIRCLE
  5
17DBF
  8
AM_0
 10
1075.416533732877
 20
299.8631556178363
 30
0.0
 40
9.0
  0
CIRCLE
  5
17DC0
  8
AM_0
 10
1075.416533732877
 20
299.8631556178363
 30
0.0
 40
5.7735026918962644
  0
LINE
  5
17DC1
  8
AM_0
 10
1081.1900364247731
 20
299.8631556178363
 30
0.0
 11
1078.3032850788279
 21
304.86315561783641
 31
0.0
  0
LINE
  5
17DC2
  8
AM_0
 10
1072.5297823869289
 20
304.86315561783641
 30
0.0
 11
1069.6430310409819
 21
299.86315561783772
 31
0.0
  0
LINE
  5
17DC3
  8
AM_0
 10
1072.529782386928
 20
294.86315561783641
 30
0.0
 11
1078.303285078825
 21
294.86315561783641
 31
0.0
  0
LINE
  5
17DC4
  8
AM_0
 10
1069.6430310409819
 20
299.86315561783772
 30
0.0
 11
1072.529782386928
 21
294.86315561783641
 31
0.0
  0
LINE
  5
17DC5
  8
AM_0
 10
1078.303285078825
 20
294.86315561783641
 30
0.0
 11
1081.1900364247731
 21
299.8631556178363
 31
0.0
  0
LINE
  5
17DC6
  8
AM_0
 10
1078.3032850788279
 20
304.86315561783641
 30
0.0
 11
1072.5297823869289
 21
304.86315561783641
 31
0.0
  0
CIRCLE
  5
17DC7
  8
AM_0
 10
1250.416508466405
 20
299.86315561913659
 30
0.0
 40
9.0
  0
CIRCLE
  5
17DC8
  8
AM_0
 10
1250.416508466405
 20
299.86315561913659
 30
0.0
 40
5.7735026918962644
  0
LINE
  5
17DC9
  8
AM_0
 10
1256.1900111583011
 20
299.86315561913659
 30
0.0
 11
1253.3032598123559
 21
304.86315561913659
 31
0.0
  0
LINE
  5
17DCA
  8
AM_0
 10
1247.5297571204569
 20
304.86315561913659
 30
0.0
 11
1244.643005774509
 21
299.86315561913779
 31
0.0
  0
LINE
  5
17DCB
  8
AM_0
 10
1247.5297571204551
 20
294.86315561913659
 30
0.0
 11
1253.303259812353
 21
294.86315561913659
 31
0.0
  0
LINE
  5
17DCC
  8
AM_0
 10
1244.643005774509
 20
299.86315561913779
 30
0.0
 11
1247.5297571204551
 21
294.86315561913659
 31
0.0
  0
LINE
  5
17DCD
  8
AM_0
 10
1253.303259812353
 20
294.86315561913659
 30
0.0
 11
1256.1900111583011
 21
299.86315561913659
 31
0.0
  0
LINE
  5
17DCE
  8
AM_0
 10
1253.3032598123559
 20
304.86315561913659
 30
0.0
 11
1247.5297571204569
 21
304.86315561913659
 31
0.0
  0
TEXT
  5
18243
  8
AM_0
 10
625.94238316824419
 20
702.50401155197176
 30
0.0
 40
15.0
  1
VC04-080KMR~VC04-240KMR
1001
ACAD
1000
MTEXTBEGIN
1070
    73
1070
     1
1070
    44
1040
1.0
1070
    74
1070
     0
1000
MTEXTEND
  0
VIEWPORT
  5
89
 67
     1
  8
0
 10
210.0
 20
148.5
 30
0.0
 40
420.0
 41
297.0
 68
     1
 69
     1
1001
ACAD
1000
MVIEW
1002
{
1070
    16
1010
0.0
1020
0.0
1030
0.0
1010
0.0
1020
0.0
1030
1.0
1040
0.0
1040
297.0
1040
221.70154043645701
1040
148.5
1040
50.0
1040
0.0
1040
0.0
1070
     0
1070
   100
1070
     1
1070
     1
1070
     0
1070
     0
1070
     0
1070
     0
1040
0.0
1040
0.0
1040
0.0
1040
10.0
1040
10.0
1040
10.0
1040
10.0
1070
     0
1002
{
1002
}
1002
}
1001
GENIUS_GENOREF_13
1005
1B94
1001
GENIUS_GENSCREG_15
1000
PF
1040
1.0
1000
DF
1040
1.0
1000
MIN
1011
0.0
1021
0.0
1031
0.0
1021
0.0
1031
0.0
1000
MAX
1011
420.0
1021
0.0
1031
0.0
1021
297.0
1031
0.0
1000
FLAGS
1070
     4
  0
ENDSEC
  0
EOF
