  0
SECTION
  2
HEADER
  9
$ACADVER
  1
AC1009
  9
$INSBASE
 10
0.0
 20
0.0
 30
0.0
  9
$EXTMIN
 10
135.61242127350101
 20
166.3432090195063
 30
-0.0000000000000058
  9
$EXTMAX
 10
738.07381624492564
 20
586.65453134020345
 30
0.0000000000000104
  9
$LIMMIN
 10
0.0
 20
0.0
  9
$LIMMAX
 10
853.5
 20
555.00000000000011
  9
$ORTHOMODE
 70
     0
  9
$REGENMODE
 70
     1
  9
$FILLMODE
 70
     1
  9
$QTEXTMODE
 70
     0
  9
$MIRRTEXT
 70
     1
  9
$DRAGMODE
 70
     2
  9
$LTSCALE
 40
3.0
  9
$OSMODE
 70
   551
  9
$ATTMODE
 70
     1
  9
$TEXTSIZE
 40
2.5
  9
$TRACEWID
 40
1.0
  9
$TEXTSTYLE
  7
STANDARD
  9
$CLAYER
  8
AM_0
  9
$CELTYPE
  6
BYLAYER
  9
$CECOLOR
 62
   256
  9
$DIMSCALE
 40
3.0
  9
$DIMASZ
 40
2.5
  9
$DIMEXO
 40
1.0
  9
$DIMDLI
 40
7.0
  9
$DIMRND
 40
0.0
  9
$DIMDLE
 40
0.0
  9
$DIMEXE
 40
1.0
  9
$DIMTP
 40
0.1
  9
$DIMTM
 40
0.1000000001
  9
$DIMTXT
 40
2.5
  9
$DIMCEN
 40
0.0
  9
$DIMTSZ
 40
0.0
  9
$DIMTOL
 70
     0
  9
$DIMLIM
 70
     0
  9
$DIMTIH
 70
     0
  9
$DIMTOH
 70
     0
  9
$DIMSE1
 70
     0
  9
$DIMSE2
 70
     0
  9
$DIMTAD
 70
     3
  9
$DIMZIN
 70
     8
  9
$DIMBLK
  1

  9
$DIMASO
 70
     1
  9
$DIMSHO
 70
     1
  9
$DIMPOST
  1

  9
$DIMAPOST
  1
"
  9
$DIMALT
 70
     0
  9
$DIMALTD
 70
     2
  9
$DIMALTF
 40
0.0393701
  9
$DIMLFAC
 40
1.0
  9
$DIMTOFL
 70
     1
  9
$DIMTVP
 40
0.0
  9
$DIMTIX
 70
     0
  9
$DIMSOXD
 70
     0
  9
$DIMSAH
 70
     0
  9
$DIMBLK1
  1

  9
$DIMBLK2
  1

  9
$DIMSTYLE
  2
AM_JIS
  9
$DIMCLRD
 70
   256
  9
$DIMCLRE
 70
   256
  9
$DIMCLRT
 70
     4
  9
$DIMTFAC
 40
0.71
  9
$DIMGAP
 40
1.0
  9
$LUNITS
 70
     2
  9
$LUPREC
 70
     2
  9
$SKETCHINC
 40
1.0
  9
$FILLETRAD
 40
7.5
  9
$AUNITS
 70
     0
  9
$AUPREC
 70
     3
  9
$MENU
  1
.
  9
$ELEVATION
 40
0.0
  9
$PELEVATION
 40
0.0
  9
$THICKNESS
 40
0.0
  9
$LIMCHECK
 70
     0
  9
$BLIPMODE
 70
     0
  9
$CHAMFERA
 40
7.5
  9
$CHAMFERB
 40
7.5
  9
$SKPOLY
 70
     0
  9
$TDCREATE
 40
2452753.643349607
  9
$TDUPDATE
 40
2458543.4769809032
  9
$TDINDWG
 40
0.3277951042
  9
$TDUSRTIMER
 40
0.3277949074
  9
$USRTIMER
 70
     1
  9
$ANGBASE
 50
0.0
  9
$ANGDIR
 70
     0
  9
$PDMODE
 70
     0
  9
$PDSIZE
 40
0.0
  9
$PLINEWID
 40
0.0
  9
$COORDS
 70
     1
  9
$SPLFRAME
 70
     0
  9
$SPLINETYPE
 70
     6
  9
$SPLINESEGS
 70
     8
  9
$ATTDIA
 70
     1
  9
$ATTREQ
 70
     1
  9
$HANDLING
 70
     1
  9
$HANDSEED
  5
10C94
  9
$SURFTAB1
 70
     6
  9
$SURFTAB2
 70
     6
  9
$SURFTYPE
 70
     6
  9
$SURFU
 70
     6
  9
$SURFV
 70
     6
  9
$UCSNAME
  2

  9
$UCSORG
 10
0.0
 20
0.0
 30
0.0
  9
$UCSXDIR
 10
1.0
 20
0.0
 30
0.0
  9
$UCSYDIR
 10
0.0
 20
1.0
 30
0.0
  9
$PUCSNAME
  2

  9
$PUCSORG
 10
0.0
 20
0.0
 30
0.0
  9
$PUCSXDIR
 10
1.0
 20
0.0
 30
0.0
  9
$PUCSYDIR
 10
0.0
 20
1.0
 30
0.0
  9
$USERI1
 70
     0
  9
$USERI2
 70
     0
  9
$USERI3
 70
     0
  9
$USERI4
 70
     0
  9
$USERI5
 70
     0
  9
$USERR1
 40
0.0
  9
$USERR2
 40
0.0
  9
$USERR3
 40
0.0
  9
$USERR4
 40
0.0
  9
$USERR5
 40
0.0
  9
$WORLDVIEW
 70
     1
  9
$SHADEDGE
 70
     3
  9
$SHADEDIF
 70
    70
  9
$TILEMODE
 70
     1
  9
$MAXACTVP
 70
    48
  9
$PLIMCHECK
 70
     0
  9
$PEXTMIN
 10
1.0000000000000000E+020
 20
1.0000000000000000E+020
 30
1.0000000000000000E+020
  9
$PEXTMAX
 10
-1.0000000000000000E+020
 20
-1.0000000000000000E+020
 30
-1.0000000000000000E+020
  9
$PLIMMIN
 10
0.0
 20
0.0
  9
$PLIMMAX
 10
420.0
 20
297.0
  9
$UNITMODE
 70
     0
  9
$VISRETAIN
 70
     1
  9
$PLINEGEN
 70
     0
  9
$PSLTSCALE
 70
     1
  0
ENDSEC
  0
SECTION
  2
TABLES
  0
TABLE
  2
VPORT
 70
     1
  0
VPORT
  2
*ACTIVE
 70
     0
 10
0.0
 20
0.0
 11
1.0
 21
1.0
 12
436.84311875921333
 22
376.49887017985492
 13
0.0
 23
0.0
 14
7.5
 24
7.5
 15
30.0
 25
30.0
 16
0.0
 26
0.0
 36
1.0
 17
0.0
 27
0.0
 37
0.0
 40
423.19675473937468
 41
1.7571592210767459
 42
50.0
 43
0.0
 44
0.0
 50
0.0
 51
0.0
 71
    16
 72
   100
 73
     1
 74
     1
 75
     0
 76
     0
 77
     0
 78
     0
  0
ENDTAB
  0
TABLE
  2
LTYPE
 70
    21
  0
LTYPE
  2
CONTINUOUS
 70
     0
  3
Solid line
 72
    65
 73
     0
 40
0.0
  0
LTYPE
  2
PHANTOM2
 70
     0
  3
Phantom (.5x) ___ _ _ ___ _ _ ___ _ _ ___ _ _
 72
    65
 73
     6
 40
31.75
 49
15.875
 49
-3.174999999999998
 49
3.174999999999998
 49
-3.174999999999998
 49
3.174999999999998
 49
-3.174999999999998
  0
LTYPE
  2
CENTER
 70
     0
  3
Center ____ _ ____ _ ____ _ ____ _ ____ _ ____
 72
    65
 73
     4
 40
50.799999999999997
 49
31.75
 49
-6.3499999999999979
 49
6.3499999999999979
 49
-6.3499999999999979
  0
LTYPE
  2
ACANSTGBM
 70
     0
  3
__ . . __ . .
 72
    65
 73
     6
 40
9.0
 49
4.0
 49
-1.0
 49
1.0
 49
-1.0
 49
1.0
 49
-1.0
  0
LTYPE
  2
ACANSTGLM
 70
     0
  3
_ _ _ _ _
 72
    65
 73
     2
 40
3.0
 49
2.0
 49
-1.0
  0
LTYPE
  2
GEN3B
 70
     0
  3
 - - - - -
 72
    65
 73
     2
 40
1.0
 49
0.5
 49
-0.5
  0
LTYPE
  2
GEN7A
 70
     0
  3
__ . __ . __
 72
    65
 73
     4
 40
7.375
 49
4.75
 49
-0.875
 49
0.875
 49
-0.875
  0
LTYPE
  2
AM_ISO02W050
 70
     0
  3
__ __ __ __ __ __ __ __ __ __ __ __ __ __ __
 72
    65
 73
     2
 40
7.5
 49
6.0
 49
-1.5
  0
LTYPE
  2
AM_ISO08W050
 70
     0
  3
____ . ____ . ____ . ____ . ____ . ____ . ____
 72
    65
 73
     4
 40
18.0
 49
12.0
 49
-1.5
 49
3.0
 49
-1.5
  0
LTYPE
  2
AM_ISO09W050
 70
     0
  3
_____ . . _____ . . _____ . . ____ .. ____
 72
    65
 73
     6
 40
22.5
 49
12.0
 49
-1.5
 49
3.0
 49
-1.5
 49
3.0
 49
-1.5
  0
LTYPE
  2
AMCONSTR
 70
     0
  3
_______________________
 72
    65
 73
     2
 40
9999.0
 49
9999.0
 49
0.0
  0
LTYPE
  2
AM_ISO02W050X2
 70
     0
  3
 _ _ _ _ _ _ _ _ _ _ _ _
 72
    65
 73
     2
 40
3.75
 49
3.0
 49
-0.75
  0
LTYPE
  2
AM_ISO08W050X2
 70
     0
  3
__ . __ . __ . __ . __ . __
 72
    65
 73
     4
 40
9.0
 49
6.0
 49
-0.75
 49
1.5
 49
-0.75
  0
LTYPE
  2
AMZIGZAG
 70
     0
  3
/\/-/\/-/\/-/\/-/\/-/\/
 72
    65
 73
     2
 40
11.0001
 49
0.0001
 49
-11.0
  0
LTYPE
  2
ACJISTGB
 70
     0
  3
__ . . __ . .
 72
    65
 73
     6
 40
9.0
 49
4.0
 49
-1.0
 49
1.0
 49
-1.0
 49
1.0
 49
-1.0
  0
LTYPE
  2
ACJISTGL
 70
     0
  3
_ _ _ _ _
 72
    65
 73
     2
 40
3.0
 49
2.0
 49
-1.0
  0
LTYPE
  2
ACISOWELD
 70
     0
  3
_ _ _ _ _
 72
    65
 73
     2
 40
2.0
 49
2.0
 49
-1.0
  0
LTYPE
  2
ACISOTGB
 70
     0
  3
__ . . __ . .
 72
    65
 73
     6
 40
9.0
 49
4.0
 49
-1.0
 49
1.0
 49
-1.0
 49
1.0
 49
-1.0
  0
LTYPE
  2
ACISOTGL
 70
     0
  3
_ _ _ _ _
 72
    65
 73
     2
 40
3.0
 49
2.0
 49
-1.0
  0
LTYPE
  2
HIDDEN
 70
     0
  3
Hidden __ __ __ __ __ __ __ __ __ __ __ __ __ _
 72
    65
 73
     2
 40
9.5249999999999968
 49
6.3499999999999979
 49
-3.174999999999998
  0
ENDTAB
  0
TABLE
  2
LAYER
 70
     8
  0
LAYER
  2
0
 70
     0
 62
     7
  6
CONTINUOUS
  0
LAYER
  2
DEFPOINTS
 70
     0
 62
     7
  6
CONTINUOUS
  0
LAYER
  2
ｶｸﾚｾﾝ2
 70
     0
 62
     3
  6
GEN3B
  0
LAYER
  2
ﾁｭｳｼﾝｾﾝ1
 70
     0
 62
     1
  6
GEN7A
  0
LAYER
  2
AM_0
 70
     0
 62
     7
  6
CONTINUOUS
  0
LAYER
  2
AM_0N
 70
     0
 62
     7
  6
CONTINUOUS
  0
LAYER
  2
AM_5
 70
     0
 62
     2
  6
CONTINUOUS
  0
LAYER
  2
ｽﾝﾎﾟｳｾﾝ
 70
     0
 62
     2
  6
CONTINUOUS
  0
ENDTAB
  0
TABLE
  2
STYLE
 70
     8
  0
STYLE
  2
STANDARD
 70
     0
 40
0.0
 41
0.8299999999999999
 50
0.0
 71
     0
 42
2.5
  3
txt.shx
  4
bigfont.shx
  0
STYLE
  2
ACANSTS
 70
     0
 40
1.0
 41
1.0
 50
0.0
 71
     0
 42
2.5
  3
romans.shx
  4
bigfont.shx
  0
STYLE
  2
ACANSGDT
 70
     0
 40
0.0
 41
1.0
 50
0.0
 71
     0
 42
2.5
  3
amgdtans.shx
  4

  0
STYLE
  2

 70
     1
 40
0.0
 41
1.0
 50
0.0
 71
     0
 42
2.5
  3
ltypeshp.shx
  4

  0
STYLE
  2
ACJISTS
 70
     0
 40
1.0
 41
1.0
 50
0.0
 71
     0
 42
2.5
  3
isocp.shx
  4
bigfont.shx
  0
STYLE
  2
ACJISGDT
 70
     0
 40
0.0
 41
1.0
 50
0.0
 71
     0
 42
2.5
  3
amgdt.shx
  4

  0
STYLE
  2
ACISOTS
 70
     0
 40
3.0
 41
1.0
 50
0.0
 71
     0
 42
2.5
  3
isocp.shx
  4
extfont.shx
  0
STYLE
  2
ACISOGDT
 70
     0
 40
0.0
 41
1.0
 50
0.0
 71
     0
 42
2.5
  3
amgdt.shx
  4

  0
ENDTAB
  0
TABLE
  2
VIEW
 70
    12
  0
VIEW
  2
GEN1
 70
     0
 40
95.824742268041234
 10
71.5
 20
137.08762886597941
 41
143.0
 11
0.0
 21
0.0
 31
1.0
 12
0.0
 22
0.0
 32
0.0
 42
50.0
 43
0.0
 44
0.0
 50
0.0
 71
     0
  0
VIEW
  2
GEN2
 70
     0
 40
95.824742268041234
 10
214.5
 20
137.08762886597941
 41
143.0
 11
0.0
 21
0.0
 31
1.0
 12
0.0
 22
0.0
 32
0.0
 42
50.0
 43
0.0
 44
0.0
 50
0.0
 71
     0
  0
VIEW
  2
GEN3
 70
     0
 40
95.824742268041234
 10
71.5
 20
47.912371134020603
 41
143.0
 11
0.0
 21
0.0
 31
1.0
 12
0.0
 22
0.0
 32
0.0
 42
50.0
 43
0.0
 44
0.0
 50
0.0
 71
     0
  0
VIEW
  2
GEN4
 70
     0
 40
95.824742268041234
 10
214.5
 20
47.912371134020603
 41
143.0
 11
0.0
 21
0.0
 31
1.0
 12
0.0
 22
0.0
 32
0.0
 42
50.0
 43
0.0
 44
0.0
 50
0.0
 71
     0
  0
VIEW
  2
GEN5
 70
     0
 40
95.824742268041234
 10
143.0
 20
92.500000000000057
 41
143.0
 11
0.0
 21
0.0
 31
1.0
 12
0.0
 22
0.0
 32
0.0
 42
50.0
 43
0.0
 44
0.0
 50
0.0
 71
     0
  0
VIEW
  2
GEN6
 70
     0
 40
191.64756804123709
 10
143.0
 20
92.5
 41
285.99714
 11
0.0
 21
0.0
 31
1.0
 12
0.0
 22
0.0
 32
0.0
 42
50.0
 43
0.0
 44
0.0
 50
0.0
 71
     0
  0
VIEW
  2
AM_VIEW1
 70
     0
 40
277.50000000000011
 10
249.64779005524869
 20
416.25000000000011
 41
499.29558011049721
 11
0.0
 21
0.0
 31
1.0
 12
0.0
 22
0.0
 32
0.0
 42
50.0
 43
0.0
 44
0.0
 50
0.0
 71
    16
  0
VIEW
  2
AM_VIEW2
 70
     0
 40
277.50000000000011
 10
603.85220994475117
 20
416.25000000000011
 41
499.29558011049721
 11
0.0
 21
0.0
 31
1.0
 12
0.0
 22
0.0
 32
0.0
 42
50.0
 43
0.0
 44
0.0
 50
0.0
 71
    16
  0
VIEW
  2
AM_VIEW3
 70
     0
 40
277.50000000000011
 10
249.64779005524869
 20
138.75
 41
499.29558011049721
 11
0.0
 21
0.0
 31
1.0
 12
0.0
 22
0.0
 32
0.0
 42
50.0
 43
0.0
 44
0.0
 50
0.0
 71
    16
  0
VIEW
  2
AM_VIEW4
 70
     0
 40
277.50000000000011
 10
603.85220994475117
 20
138.75
 41
499.29558011049721
 11
0.0
 21
0.0
 31
1.0
 12
0.0
 22
0.0
 32
0.0
 42
50.0
 43
0.0
 44
0.0
 50
0.0
 71
    16
  0
VIEW
  2
AM_VIEW5
 70
     0
 40
277.50000000000011
 10
426.75
 20
277.50000000000011
 41
499.2955801104971
 11
0.0
 21
0.0
 31
1.0
 12
0.0
 22
0.0
 32
0.0
 42
50.0
 43
0.0
 44
0.0
 50
0.0
 71
    16
  0
VIEW
  2
AM_VIEW6
 70
     0
 40
554.99445000000014
 10
426.75
 20
277.5
 41
998.5811743093924
 11
0.0
 21
0.0
 31
1.0
 12
0.0
 22
0.0
 32
0.0
 42
50.0
 43
0.0
 44
0.0
 50
0.0
 71
    16
  0
ENDTAB
  0
TABLE
  2
UCS
 70
     0
  0
ENDTAB
  0
TABLE
  2
APPID
 70
    96
  0
APPID
  2
ACAD
 70
     0
  0
APPID
  2
MCAD_NO_VIS
 70
     0
  0
APPID
  2
ACAD_TEMP_GRAPHIC
 70
     0
  0
APPID
  2
AD_DRAW
 70
     0
  0
APPID
  2
DESIGNERASSEMBLIES
 70
     0
  0
APPID
  2
ASURF_PCURVE_APPNAME
 70
     0
  0
APPID
  2
GENIUS_GE3SECT_13
 70
     0
  0
APPID
  2
GENIUS_GENCFG_13
 70
     0
  0
APPID
  2
GENIUS_GE3CFG0_13
 70
     0
  0
APPID
  2
GENIUS_GENCFG0_13
 70
     0
  0
APPID
  2
GENIUS_GENCFG1_13
 70
     0
  0
APPID
  2
GENIUS_GENCFG2_13
 70
     0
  0
APPID
  2
GENIUS_GENCFG3_13
 70
     0
  0
APPID
  2
GENIUS_GENCFG4_13
 70
     0
  0
APPID
  2
GENIUS_GEVCFG0_13
 70
     0
  0
APPID
  2
GENIUS_GENOENT_13
 70
     0
  0
APPID
  2
GENIUS_GENREC_14
 70
     0
  0
APPID
  2
GENIUS_GENODEF_13
 70
     0
  0
APPID
  2
GENIUS_GENOBJ-N-REC_13
 70
     0
  0
APPID
  2
GENIUS_GENHINW_13
 70
     0
  0
APPID
  2
GENIUS_FIRSTVISTXT_14
 70
     0
  0
APPID
  2
GENIUS_GENOBJ-N-LEADER_13
 70
     0
  0
APPID
  2
GENIUS_GENOREF_13
 70
     0
  0
APPID
  2
GENIUS_GENOLIS_13
 70
     0
  0
APPID
  2
GEV_VCCNULL_SWITCH_OFF
 70
     0
  0
APPID
  2
GENIUS_GENDTOL_13
 70
     0
  0
APPID
  2
GENIUS_GEFCFG0_13
 70
     0
  0
APPID
  2
GENIUS_GENOBJ-N-TIT_13
 70
     0
  0
APPID
  2
GENIUS_GENTITLE_13
 70
     0
  0
APPID
  2
GENIUS_GENZVEED_13
 70
     0
  0
APPID
  2
GENIUS_GENOBJ-N-SDF_13
 70
     0
  0
APPID
  2
GENIUS_GENSCREG_13
 70
     0
  0
APPID
  2
GENIUS_DUMCFG0_13
 70
     0
  0
APPID
  2
GEVID936201362
 70
     0
  0
APPID
  2
GEVDC
 70
     0
  0
APPID
  2
GEVCON
 70
     0
  0
APPID
  2
VCC
 70
     0
  0
APPID
  2
GEVPT
 70
     0
  0
APPID
  2
GEVIT
 70
     0
  0
APPID
  2
GENBH
 70
     0
  0
APPID
  2
GEVMK
 70
     0
  0
APPID
  2
GENIUS_GENBH_13
 70
     0
  0
APPID
  2
GENIUS_GENOBJ-NBEHI-BHF_13
 70
     0
  0
APPID
  2
GENIUS_GENOBJ-NBEHI-BHB_13
 70
     0
  0
APPID
  2
GENIUS_GENOBJ-F-DESC_13
 70
     0
  0
APPID
  2
GENIUS_GEFDESC_14
 70
     0
  0
APPID
  2
GENIUS_GENOBJ-F-PART_13
 70
     0
  0
APPID
  2
GENIUS_GEFSTDP_13
 70
     0
  0
APPID
  2
GENIUS_GEFPARTINS_13
 70
     0
  0
APPID
  2
GENIUS_GENTRA_14
 70
     0
  0
APPID
  2
GENIUS_GENINF13_13
 70
     0
  0
APPID
  2
GENIUS_GENOBJ-N-INFOPT_13
 70
     0
  0
APPID
  2
GENIUS_GENOBJ-N-RSSYM_13
 70
     0
  0
APPID
  2
GENIUS_GENSYMENT_13
 70
     0
  0
APPID
  2
GENIUS_GENSCSYM_13
 70
     0
  0
APPID
  2
GENIUS_GEFINFNAM_13
 70
     0
  0
APPID
  2
GENIUS_GENSCREG_15
 70
     0
  0
APPID
  2
GENIUS_GENOBJ-N-CEN_13
 70
     0
  0
APPID
  2
GENIUS_GENOBJ-N-CRS_13
 70
     0
  0
APPID
  2
GENIUS_GENOBJ-N-CRC_13
 70
     0
  0
APPID
  2
GENIUS_GENCRC_14
 70
     0
  0
APPID
  2
GEVID942827039
 70
     0
  0
APPID
  2
GEVID942827040
 70
     0
  0
APPID
  2
GEVID942827041
 70
     0
  0
APPID
  2
GENIUS_GENOBJ-F-SCPASSM_13
 70
     0
  0
APPID
  2
GENIUS_GENDIMSH_14
 70
     0
  0
APPID
  2
GENIUS_GENFIL_13
 70
     0
  0
APPID
  2
GENIUS_GENOBJ-N-CHA_13
 70
     0
  0
APPID
  2
GENIUS_GENOBJ-N-FIL_13
 70
     0
  0
APPID
  2
GEVID942827042
 70
     0
  0
APPID
  2
GEVID946020473
 70
     0
  0
APPID
  2
GEVID946020474
 70
     0
  0
APPID
  2
GEVID946020475
 70
     0
  0
APPID
  2
GENIUS_GENOBJ-N-HTC_13
 70
     0
  0
APPID
  2
GENIUS_GENHATCH_13
 70
     0
  0
APPID
  2
GEVID948854295
 70
     0
  0
APPID
  2
GEVID939402019
 70
     0
  0
APPID
  2
GEVID952919491
 70
     0
  0
APPID
  2
GEVID952919492
 70
     0
  0
APPID
  2
GENIUS_GEFWELD_13
 70
     0
  0
APPID
  2
GENIUS_GENOBJ-F-WELS_13
 70
     0
  0
APPID
  2
GEVID952919493
 70
     0
  0
APPID
  2
GENIUS_GENOBJ-N-RSBK_13
 70
     0
  0
APPID
  2
GENIUS_GENOBJ-N-LIB_13
 70
     0
  0
APPID
  2
GENIUS_GENSCALE_13
 70
     0
  0
APPID
  2
GEVID986376691
 70
     0
  0
APPID
  2
ACATTRIBSERVICES
 70
     0
  0
APPID
  2
DCO15
 70
     0
  0
APPID
  2
ACADM_DIM_EDIT
 70
     0
  0
APPID
  2
AMDT_DM_ADJ
 70
     0
  0
APPID
  2
ACAD_MLEADERVER
 70
     0
  0
APPID
  2
ACAD_DSTYLE_DIMBREAK
 70
     0
  0
APPID
  2
ACAD_DSTYLE_DIMJAG
 70
     0
  0
APPID
  2
ACAD_NAV_VCDISPLAY
 70
     0
  0
APPID
  2
ACADANNOPO
 70
     0
  0
APPID
  2
ACAD_EXEMPT_FROM_CAD_STANDARDS
 70
     0
  0
ENDTAB
  0
TABLE
  2
DIMSTYLE
 70
    15
  0
DIMSTYLE
  2
STANDARD
 70
     0
  3

  4

  5

  6

  7

 40
1.0
 41
0.18
 42
0.0625
 43
0.38
 44
0.18
 45
0.0
 46
0.0
 47
0.0
 48
0.0
140
0.18
141
0.09
142
0.0
143
25.399999999999999
144
1.0
145
0.0
146
1.0
147
0.09
 71
     0
 72
     0
 73
     1
 74
     1
 75
     0
 76
     0
 77
     0
 78
     0
170
     0
171
     2
172
     0
173
     0
174
     0
175
     0
176
     0
177
     0
178
     0
  0
DIMSTYLE
  2
AM_JIS
 70
     0
  3

  4
"
  5

  6

  7

 40
1.0
 41
2.5
 42
1.0
 43
7.0
 44
1.0
 45
0.0
 46
0.0
 47
0.1
 48
0.1000000001
140
2.5
141
0.0
142
0.0
143
0.0393701
144
1.0
145
0.0
146
0.71
147
1.0
 71
     0
 72
     0
 73
     0
 74
     0
 75
     0
 76
     0
 77
     3
 78
     8
170
     0
171
     2
172
     1
173
     0
174
     0
175
     0
176
   256
177
   256
178
     4
  0
DIMSTYLE
  2
AM_JIS$3
 70
     0
  3

  4
"
  5

  6

  7

 40
1.0
 41
2.5
 42
1.0
 43
7.0
 44
1.0
 45
0.0
 46
0.0
 47
0.1
 48
0.1000000001
140
2.5
141
0.0
142
0.0
143
0.0393701
144
1.0
145
0.0
146
0.71
147
1.0
 71
     0
 72
     0
 73
     0
 74
     1
 75
     0
 76
     0
 77
     3
 78
     8
170
     0
171
     2
172
     0
173
     0
174
     0
175
     0
176
   256
177
   256
178
     4
  0
DIMSTYLE
  2
AM_JIS$4
 70
     0
  3

  4
"
  5

  6

  7

 40
1.0
 41
2.5
 42
1.0
 43
7.0
 44
1.0
 45
0.0
 46
0.0
 47
0.1
 48
0.1000000001
140
2.5
141
0.0
142
0.0
143
0.0393701
144
1.0
145
0.0
146
0.71
147
1.0
 71
     0
 72
     0
 73
     0
 74
     0
 75
     0
 76
     0
 77
     3
 78
     8
170
     0
171
     2
172
     0
173
     0
174
     0
175
     0
176
   256
177
   256
178
     4
  0
DIMSTYLE
  2
AM_JIS$6
 70
     0
  3

  4
"
  5

  6

  7

 40
1.0
 41
2.5
 42
1.0
 43
7.0
 44
1.0
 45
0.0
 46
0.0
 47
0.1
 48
0.1000000001
140
2.5
141
0.0
142
0.0
143
0.0393701
144
1.0
145
0.0
146
0.71
147
1.0
 71
     0
 72
     0
 73
     0
 74
     0
 75
     0
 76
     0
 77
     0
 78
     8
170
     0
171
     2
172
     1
173
     0
174
     0
175
     0
176
   256
177
   256
178
     4
  0
DIMSTYLE
  2
AM_JIS$7
 70
     0
  3

  4
"
  5

  6

  7

 40
1.0
 41
2.5
 42
1.0
 43
7.0
 44
1.0
 45
0.0
 46
0.0
 47
0.1
 48
0.1000000001
140
2.5
141
0.0
142
0.0
143
0.0393701
144
1.0
145
0.0
146
0.71
147
1.0
 71
     0
 72
     0
 73
     0
 74
     0
 75
     0
 76
     0
 77
     3
 78
     8
170
     0
171
     2
172
     1
173
     0
174
     0
175
     0
176
   256
177
   256
178
     4
  0
DIMSTYLE
  2
AM_JIS$SF
 70
     0
  3

  4
"
  5
OPEN30
  6
OPEN30
  7
OPEN30
 40
1.0
 41
2.5
 42
1.0
 43
10.0
 44
1.0
 45
0.0
 46
0.0
 47
0.1
 48
0.1
140
3.5
141
0.0
142
0.0
143
0.0393701
144
1.0
145
0.0
146
0.71
147
1.5
 71
     0
 72
     0
 73
     0
 74
     0
 75
     1
 76
     1
 77
     3
 78
     8
170
     0
171
     2
172
     1
173
     0
174
     0
175
     0
176
   256
177
   256
178
     4
  0
DIMSTYLE
  2
AM_JIS$SH
 70
     0
  3

  4
"
  5

  6
NONE
  7

 40
1.0
 41
2.5
 42
1.0
 43
10.0
 44
1.0
 45
0.0
 46
0.0
 47
0.1
 48
0.1
140
3.5
141
0.0
142
0.0
143
0.0393701
144
1.0
145
0.0
146
0.71
147
1.5
 71
     0
 72
     0
 73
     0
 74
     0
 75
     1
 76
     0
 77
     3
 78
     8
170
     0
171
     2
172
     1
173
     1
174
     0
175
     0
176
   256
177
   256
178
     4
  0
DIMSTYLE
  2
AM_ISO
 70
     0
  3

  4
"
  5

  6

  7

 40
1.0
 41
2.5
 42
1.0
 43
10.0
 44
1.0
 45
0.0
 46
0.0
 47
0.0
 48
0.000000001
140
3.0
141
0.0
142
0.0
143
0.0393701
144
1.0
145
0.0
146
0.71
147
1.299999999999998
 71
     1
 72
     0
 73
     0
 74
     0
 75
     0
 76
     0
 77
     1
 78
     8
170
     0
171
     2
172
     1
173
     0
174
     0
175
     0
176
   256
177
   256
178
     4
  0
DIMSTYLE
  2
AM_ISO$3
 70
     0
  3

  4
"
  5

  6

  7

 40
1.0
 41
2.5
 42
1.0
 43
10.0
 44
1.0
 45
0.0
 46
0.0
 47
0.0
 48
0.000000001
140
2.5
141
0.0
142
0.0
143
0.0393701
144
1.0
145
0.0
146
0.71
147
1.299999999999998
 71
     1
 72
     0
 73
     0
 74
     1
 75
     0
 76
     0
 77
     1
 78
     8
170
     0
171
     2
172
     0
173
     0
174
     0
175
     0
176
   256
177
   256
178
     4
  0
DIMSTYLE
  2
AM_ISO$4
 70
     0
  3

  4
"
  5

  6

  7

 40
1.0
 41
2.5
 42
1.0
 43
10.0
 44
1.0
 45
0.0
 46
0.0
 47
0.0
 48
0.000000001
140
2.5
141
0.0
142
0.0
143
0.0393701
144
1.0
145
0.0
146
0.71
147
1.299999999999998
 71
     1
 72
     0
 73
     0
 74
     1
 75
     0
 76
     0
 77
     1
 78
     8
170
     0
171
     2
172
     0
173
     0
174
     0
175
     0
176
   256
177
   256
178
     4
  0
DIMSTYLE
  2
AM_ISO$6
 70
     0
  3

  4
"
  5

  6

  7

 40
1.0
 41
2.5
 42
1.0
 43
10.0
 44
1.0
 45
0.0
 46
0.0
 47
0.0
 48
0.000000001
140
2.5
141
0.0
142
0.0
143
0.0393701
144
1.0
145
0.0
146
0.71
147
1.299999999999998
 71
     1
 72
     0
 73
     0
 74
     0
 75
     0
 76
     0
 77
     0
 78
     8
170
     0
171
     2
172
     1
173
     0
174
     0
175
     0
176
   256
177
   256
178
     4
  0
DIMSTYLE
  2
AM_ISO$7
 70
     0
  3

  4
"
  5

  6

  7

 40
1.0
 41
2.5
 42
1.0
 43
10.0
 44
1.0
 45
0.0
 46
0.0
 47
0.0
 48
0.000000001
140
2.5
141
0.0
142
0.0
143
0.0393701
144
1.0
145
0.0
146
0.71
147
1.299999999999998
 71
     1
 72
     0
 73
     0
 74
     0
 75
     0
 76
     0
 77
     1
 78
     8
170
     0
171
     2
172
     1
173
     0
174
     0
175
     0
176
   256
177
   256
178
     4
  0
DIMSTYLE
  2
AM_ISO$SF
 70
     0
  3

  4
"
  5

  6

  7

 40
1.0
 41
2.5
 42
1.0
 43
10.0
 44
1.0
 45
0.0
 46
0.0
 47
0.1
 48
0.1
140
3.5
141
0.0
142
0.0
143
0.0393701
144
1.0
145
0.0
146
0.71
147
1.5
 71
     0
 72
     0
 73
     0
 74
     0
 75
     1
 76
     1
 77
     1
 78
     8
170
     0
171
     2
172
     1
173
     0
174
     0
175
     0
176
   256
177
   256
178
     4
  0
DIMSTYLE
  2
AM_ISO$SH
 70
     0
  3

  4
"
  5

  6
GENAXEH
  7

 40
1.0
 41
2.5
 42
1.0
 43
10.0
 44
1.0
 45
0.0
 46
0.0
 47
0.1
 48
0.1
140
3.5
141
0.0
142
0.0
143
0.0393701
144
2.0
145
0.0
146
0.71
147
1.5
 71
     0
 72
     0
 73
     0
 74
     0
 75
     1
 76
     1
 77
     1
 78
     8
170
     0
171
     2
172
     1
173
     1
174
     0
175
     0
176
   256
177
   256
178
     4
  0
ENDTAB
  0
ENDSEC
  0
SECTION
  2
BLOCKS
  0
BLOCK
  8
0
  2
$MODEL_SPACE
 70
     0
 10
0.0
 20
0.0
 30
0.0
  3
$MODEL_SPACE
  1

  0
ENDBLK
  5
1A
  8
0
  0
BLOCK
 67
     1
  8
0
  2
$PAPER_SPACE
 70
     0
 10
0.0
 20
0.0
 30
0.0
  3
$PAPER_SPACE
  1

  0
ENDBLK
  5
17
 67
     1
  8
0
  0
BLOCK
  8
0
  2
_OPEN30
 70
     0
 10
0.0
 20
0.0
 30
0.0
  3
_OPEN30
  1

  0
LINE
  5
21C5
  8
0
 62
     0
 10
-1.0
 20
0.26794919
 30
0.0
 11
0.0
 21
0.0
 31
0.0
  0
LINE
  5
21C6
  8
0
 62
     0
 10
0.0
 20
0.0
 30
0.0
 11
-1.0
 21
-0.26794919
 31
0.0
  0
LINE
  5
21C7
  8
0
 62
     0
 10
0.0
 20
0.0
 30
0.0
 11
-1.0
 21
0.0
 31
0.0
  0
ENDBLK
  5
21C9
  8
0
  0
BLOCK
  8
0
  2
GENAXEH
 70
     0
 10
0.0
 20
0.0
 30
0.0
  3
GENAXEH
  1

  0
LINE
  5
21D0
  8
0
 10
-1.0
 20
0.0
 30
0.0
 11
1.0
 21
0.0
 31
0.0
  0
ENDBLK
  5
21D2
  8
0
  0
BLOCK
  8
0
  2
_NONE
 70
     0
 10
0.0
 20
0.0
 30
0.0
  3
_NONE
  1

  0
ENDBLK
  5
8193
  8
0
  0
BLOCK
  8
0
  2
*U5
 70
     1
 10
0.0
 20
0.0
 30
0.0
  3
*U5
  1

  0
SOLID
  5
10C43
  8
AM_0
  6
CONTINUOUS
 10
-340.14365983402422
 20
443.41214487758748
 30
0.0
 11
-342.64365983402422
 21
443.41214487758748
 31
0.0
 12
-342.64365983402422
 22
440.91214487758748
 32
0.0
 13
-342.64365983402422
 23
440.91214487758748
 33
0.0
210
0.0
220
0.0
230
-1.0
  0
LINE
  5
10C44
  8
AM_0
  6
CONTINUOUS
 10
342.64365983402422
 20
443.41214487758748
 30
0.0
 11
342.64365983402422
 21
440.91214487758748
 31
0.0
  0
LINE
  5
10C45
  8
AM_0
  6
CONTINUOUS
 10
342.64365983402422
 20
440.91214487758748
 30
0.0
 11
340.14365983402422
 21
443.41214487758748
 31
0.0
  0
ENDBLK
  5
10C47
  8
0
  0
BLOCK
  8
0
  2
*U6
 70
     1
 10
0.0
 20
0.0
 30
0.0
  3
*U6
  1

  0
SOLID
  5
10C49
  8
AM_0
  6
CONTINUOUS
 10
-347.14365983402467
 20
443.41214487758748
 30
0.0
 11
-349.64365983402467
 21
443.41214487758748
 31
0.0
 12
-347.14365983402467
 22
440.91214487758748
 32
0.0
 13
-347.14365983402467
 23
440.91214487758748
 33
0.0
210
0.0
220
0.0
230
-1.0
  0
LINE
  5
10C4A
  8
AM_0
  6
CONTINUOUS
 10
349.64365983402467
 20
443.41214487758748
 30
0.0
 11
347.14365983402467
 21
440.91214487758748
 31
0.0
  0
LINE
  5
10C4B
  8
AM_0
  6
CONTINUOUS
 10
347.14365983402467
 20
440.91214487758748
 30
0.0
 11
347.14365983402467
 21
443.41214487758748
 31
0.0
  0
ENDBLK
  5
10C4D
  8
0
  0
BLOCK
  8
0
  2
*U7
 70
     1
 10
0.0
 20
0.0
 30
0.0
  3
*U7
  1

  0
SOLID
  5
10C4F
  8
AM_0
  6
CONTINUOUS
 10
-342.64365983402422
 20
530.91217881212583
 30
0.0
 11
-342.64365983402422
 21
528.41217881212583
 31
0.0
 12
-340.14365983402422
 22
528.41217881212583
 32
0.0
 13
-340.14365983402422
 23
528.41217881212583
 33
0.0
210
0.0
220
0.0
230
-1.0
  0
LINE
  5
10C50
  8
AM_0
  6
CONTINUOUS
 10
342.64365983402422
 20
530.91217881212583
 30
0.0
 11
342.64365983402422
 21
528.41217881212583
 31
0.0
  0
LINE
  5
10C51
  8
AM_0
  6
CONTINUOUS
 10
340.14365983402422
 20
528.41217881212583
 30
0.0
 11
342.64365983402422
 21
530.91217881212583
 31
0.0
  0
ENDBLK
  5
10C53
  8
0
  0
BLOCK
  8
0
  2
*U8
 70
     1
 10
0.0
 20
0.0
 30
0.0
  3
*U8
  1

  0
SOLID
  5
10C55
  8
AM_0
  6
CONTINUOUS
 10
-347.14365983402467
 20
530.91217881212583
 30
0.0
 11
-349.64365983402467
 21
528.41217881212583
 31
0.0
 12
-347.14365983402467
 22
528.41217881212583
 32
0.0
 13
-347.14365983402467
 23
528.41217881212583
 33
0.0
210
0.0
220
0.0
230
-1.0
  0
LINE
  5
10C56
  8
AM_0
  6
CONTINUOUS
 10
347.14365983402467
 20
530.91217881212583
 30
0.0
 11
349.64365983402467
 21
528.41217881212583
 31
0.0
  0
LINE
  5
10C57
  8
AM_0
  6
CONTINUOUS
 10
347.14365983402467
 20
528.41217881212583
 30
0.0
 11
347.14365983402467
 21
530.91217881212583
 31
0.0
  0
ENDBLK
  5
10C59
  8
0
  0
ENDSEC
  0
SECTION
  2
ENTITIES
  0
POINT
  5
1B94
  8
0
 10
0.0
 20
0.0
 30
0.0
1001
GENIUS_GENODEF_13
1002
{
1000
HIER
1070
     1
1002
}
1002
{
1000
MANEDIT
1070
     0
1002
}
1002
{
1000
NOSEL
1070
     0
1002
}
1002
{
1000
BEHIND
1070
     0
1002
}
1002
{
1000
REACTOR
1002
}
1001
GENIUS_GENOBJ-N-SDF_13
1002
{
1000
OWNER
1000
GEN
1002
}
1001
GENIUS_GENOENT_13
1002
{
1000
MYREF
1005
1B94
1002
}
1002
{
1000
GRP
1005
0
1002
}
1001
GENIUS_GENOLIS_13
1002
{
1000
ENT
1005
89
1002
}
  0
LINE
  5
D411
  8
AM_0
 10
428.64365977395141
 20
270.67015304319449
 30
0.0
 11
428.64365977395141
 21
222.0908683752258
 31
0.0
  0
LINE
  5
D412
  8
AM_0
 10
303.6436597739513
 20
270.67015304319449
 30
0.0
 11
303.6436597739513
 21
222.5226463293273
 31
0.0
  0
CIRCLE
  5
D42B
  8
AM_0
 10
383.64365977395141
 20
246.38051070921011
 30
0.0
 40
27.500000819563869
  0
LINE
  5
D42D
  8
ﾁｭｳｼﾝｾﾝ1
 10
383.64365977395141
 20
302.38051222912873
 30
0.0
 11
383.64365977395141
 21
166.3805109923324
 31
0.0
  0
LINE
  5
D42E
  8
AM_0
 10
297.64365721095157
 20
286.38051190130301
 30
0.0
 11
297.64365721095157
 21
218.3805095171177
 31
0.0
  0
ARC
  5
D42F
  8
AM_0
 10
516.64364195216217
 20
246.38051070921011
 30
0.0
 40
236.0
 50
180.00000500895041
 51
190.56397173027369
  0
LINE
  5
D430
  8
AM_0
 10
273.13755369532657
 20
190.38051070921011
 30
0.0
 11
273.13755369532657
 21
302.38051070921011
 31
0.0
  0
LINE
  5
D431
  8
AM_0
 10
284.64365721095157
 20
195.74022903196399
 30
0.0
 11
284.64365721095157
 21
297.02080001585068
 31
0.0
  0
LINE
  5
D473
  8
AM_0
 10
307.713491622096
 20
217.6099342321593
 30
0.0
 11
314.20670524801483
 21
216.3805095171177
 31
0.0
  0
LINE
  5
D476
  8
AM_0
 10
326.14366032032677
 20
216.38050951711759
 30
0.0
 11
302.64365721095157
 21
216.3805095171177
 31
0.0
  0
LINE
  5
D477
  8
AM_0
 10
434.64366129386963
 20
180.88051099233249
 30
0.0
 11
297.64365721095157
 21
180.8805109923324
 31
0.0
  0
LINE
  5
D478
  8
AM_0
 10
434.64366129386963
 20
176.3805109923324
 30
0.0
 11
297.64365721095157
 21
176.3805109923324
 31
0.0
  0
CIRCLE
  5
D479
  8
AM_5
 10
308.64365753877712
 20
206.3805095171173
 30
0.0
 40
2.9999999999999978
  0
CIRCLE
  5
D47A
  8
AM_0
 10
308.64365753877712
 20
206.3805095171173
 30
0.0
 40
3.9999999999999978
  0
CIRCLE
  5
D47B
  8
AM_0
 10
308.64365753877712
 20
206.3805095171173
 30
0.0
 40
7.9999999999999956
  0
POLYLINE
  5
D47C
  8
AM_0
 66
     1
 10
0.0
 20
0.0
 30
0.0
 70
     1
  0
VERTEX
  5
10C33
  8
AM_0
 10
302.1484670103938
 20
210.1305095171173
 30
0.0
  0
VERTEX
  5
10C34
  8
AM_0
 10
302.14846701039397
 20
202.6305095171173
 30
0.0
  0
VERTEX
  5
10C35
  8
AM_0
 10
308.64365753877712
 20
198.8805095171173
 30
0.0
  0
VERTEX
  5
10C36
  8
AM_0
 10
315.1388480671605
 20
202.6305095171173
 30
0.0
  0
VERTEX
  5
10C37
  8
AM_0
 10
315.1388480671605
 20
210.1305095171173
 30
0.0
  0
VERTEX
  5
10C38
  8
AM_0
 10
308.64365753877712
 20
213.8805095171173
 30
0.0
  0
SEQEND
  5
10C39
  8
AM_0
  0
LINE
  5
D47D
  8
ﾁｭｳｼﾝｾﾝ1
 10
301.1436573152597
 20
206.3805095171173
 30
0.0
 11
316.14365776229459
 21
206.3805095171173
 31
0.0
  0
LINE
  5
D48E
  8
AM_0
 10
297.64365721095157
 20
218.3805095171177
 30
0.0
 11
297.64365721095157
 21
176.38051099233249
 31
0.0
  0
LINE
  5
D490
  8
AM_0
 10
273.13755369532657
 20
214.44057070921011
 30
0.0
 11
282.8183040563203
 21
214.44057070921011
 31
0.0
  0
LINE
  5
D491
  8
AM_0
 10
273.13755369532657
 20
200.38051070921011
 30
0.0
 11
284.64365721095157
 21
200.38051070921011
 31
0.0
  0
LINE
  5
D492
  8
AM_0
 10
273.13755369532657
 20
190.38051070921011
 30
0.0
 11
282.69478227412958
 21
190.38051070921011
 31
0.0
  0
LINE
  5
D4AB
  8
ﾁｭｳｼﾝｾﾝ1
 10
308.64365753877712
 20
213.88050974063469
 30
0.0
 11
308.64365753877712
 21
198.8805092935998
 31
0.0
  0
LINE
  5
D4AC
  8
AM_0
 10
285.83744378833393
 20
197.38051070921011
 30
0.0
 11
297.64365721095157
 21
197.38051070921011
 31
0.0
  0
ARC
  5
D4AD
  8
AM_0
 10
282.69478227412958
 20
192.38051070921011
 30
0.0
 40
2.0
 50
270.0
 51
357.99953469735499
1001
GENIUS_GENOBJ-N-FIL_13
1002
{
1000
OWNER
1000
GEN
1002
}
1001
GENIUS_GENODEF_13
1002
{
1000
HIER
1070
     0
1002
}
1002
{
1000
MANEDIT
1070
     0
1002
}
1002
{
1000
NOSEL
1070
     0
1002
}
1002
{
1000
BEHIND
1070
     0
1002
}
1002
{
1000
OTHER
1070
     0
1002
}
1002
{
1000
REACTOR
1002
}
  0
ARC
  5
D4AE
  8
AM_0
 10
285.83871109255949
 20
196.37715785361141
 30
0.0
 40
1.003353655944897
 50
90.072368503728555
 51
175.63494469419581
  0
LINE
  5
D4AF
  8
AM_0
 10
284.69356336125992
 20
192.3106954835753
 30
0.0
 11
284.8382678066547
 21
196.45352401487401
 31
0.0
  0
LINE
  5
D4B1
  8
AM_0
 10
285.14365721095157
 20
203.11390151731561
 30
0.0
 11
297.64365721095169
 21
203.11390151731561
 31
0.0
  0
ARC
  5
D4B2
  8
AM_0
 10
302.64365721095157
 20
211.3805095171177
 30
0.0
 40
5.0
 50
90.0
 51
180.0
1001
GENIUS_GENOBJ-N-FIL_13
1002
{
1000
OWNER
1000
GEN
1002
}
1001
GENIUS_GENODEF_13
1002
{
1000
HIER
1070
     0
1002
}
1002
{
1000
MANEDIT
1070
     0
1002
}
1002
{
1000
NOSEL
1070
     0
1002
}
1002
{
1000
BEHIND
1070
     0
1002
}
1002
{
1000
OTHER
1070
     0
1002
}
1002
{
1000
REACTOR
1002
}
  0
ARC
  5
D4B3
  8
AM_0
 10
308.6436597739513
 20
222.52264632932739
 30
0.0
 40
5.0000000000000044
 50
179.99999749551819
 51
259.27854448435272
  0
LINE
  5
D4B5
  8
AM_0
 10
348.64365873087007
 20
208.88051070921011
 30
0.0
 11
383.64365977395141
 21
208.88051070921011
 31
0.0
  0
LINE
  5
D4BC
  8
AM_0
 10
347.14366010177667
 20
201.88051099233209
 30
0.0
 11
347.1436601017769
 21
180.8805109923324
 31
0.0
  0
LINE
  5
D4BD
  8
AM_0
 10
342.64366010177679
 20
201.88051099233209
 30
0.0
 11
342.64366010177679
 21
180.8805109923324
 31
0.0
  0
LINE
  5
D4BE
  8
ﾁｭｳｼﾝｾﾝ1
 10
318.64366010177662
 20
190.8805109923324
 30
0.0
 11
318.64366010177662
 21
166.3805109923324
 31
0.0
  0
LINE
  5
D4BF
  8
AM_0
 10
347.14366010177707
 20
183.88051099233189
 30
0.0
 11
342.64366010177702
 21
183.88051099233189
 31
0.0
  0
LINE
  5
D4C0
  8
ｶｸﾚｾﾝ2
 10
313.6436601017765
 20
176.3805109923324
 30
0.0
 11
313.6436601017765
 21
180.8805109923324
 31
0.0
  0
LINE
  5
D4C2
  8
ｶｸﾚｾﾝ2
 10
323.64366010177662
 20
176.3805109923324
 30
0.0
 11
323.64366010177662
 21
180.8805109923324
 31
0.0
  0
ARC
  5
D4C3
  8
AM_0
 10
348.64365873087007
 20
246.38051070921011
 30
0.0
 40
37.5
 50
233.13010538979381
 51
270.0
  0
LINE
  5
D4C4
  8
AM_0
 10
347.14366010177707
 20
201.88051099233209
 30
0.0
 11
342.6436601017777
 21
201.88051099233209
 31
0.0
  0
LINE
  5
D4DF
  8
AM_0
 10
434.64366129386951
 20
211.3805095171177
 30
0.0
 11
434.64366129386963
 21
176.3805109923324
 31
0.0
  0
LINE
  5
D4E0
  8
AM_0
 10
389.64365840304453
 20
201.88051099233209
 30
0.0
 11
389.64365840304453
 21
180.8805109923324
 31
0.0
  0
LINE
  5
D4E1
  8
AM_0
 10
385.14365840304458
 20
201.88051099233209
 30
0.0
 11
385.14365840304441
 21
180.8805109923324
 31
0.0
  0
LINE
  5
D4E2
  8
ﾁｭｳｼﾝｾﾝ1
 10
413.64365944612581
 20
190.88051099233249
 30
0.0
 11
413.64365944612581
 21
166.3805109923324
 31
0.0
  0
LINE
  5
D4E5
  8
AM_0
 10
385.14365840304418
 20
183.88051099233189
 30
0.0
 11
389.64365840304441
 21
183.88051099233189
 31
0.0
  0
LINE
  5
D4E7
  8
ｶｸﾚｾﾝ2
 10
408.64365944612581
 20
176.3805109923324
 30
0.0
 11
408.64365944612581
 21
180.8805109923324
 31
0.0
  0
LINE
  5
D4E8
  8
ｶｸﾚｾﾝ2
 10
418.64365944612609
 20
176.3805109923324
 30
0.0
 11
418.64365944612609
 21
180.8805109923324
 31
0.0
  0
LINE
  5
D4F2
  8
AM_0
 10
429.64366129386968
 20
216.3805095171177
 30
0.0
 11
406.1436581844946
 21
216.3805095171177
 31
0.0
  0
LINE
  5
D4F6
  8
AM_0
 10
385.14365840304418
 20
201.88051099233209
 30
0.0
 11
389.64365840304367
 21
201.88051099233209
 31
0.0
  0
ARC
  5
D4FB
  8
AM_0
 10
383.64365977395141
 20
246.38051070921011
 30
0.0
 40
37.5
 50
270.0
 51
306.86989461020619
  0
CIRCLE
  5
D500
  8
AM_0
 10
423.64366096604408
 20
206.3805095171173
 30
0.0
 40
7.9999999999999956
  0
POLYLINE
  5
D501
  8
AM_0
 66
     1
 10
0.0
 20
0.0
 30
0.0
 70
     1
  0
VERTEX
  5
10C3A
  8
AM_0
 10
417.14847043766088
 20
210.1305095171173
 30
0.0
  0
VERTEX
  5
10C3B
  8
AM_0
 10
417.14847043766088
 20
202.6305095171173
 30
0.0
  0
VERTEX
  5
10C3C
  8
AM_0
 10
423.64366096604408
 20
198.8805095171173
 30
0.0
  0
VERTEX
  5
10C3D
  8
AM_0
 10
430.13885149442729
 20
202.6305095171173
 30
0.0
  0
VERTEX
  5
10C3E
  8
AM_0
 10
430.13885149442729
 20
210.1305095171173
 30
0.0
  0
VERTEX
  5
10C3F
  8
AM_0
 10
423.64366096604408
 20
213.8805095171173
 30
0.0
  0
SEQEND
  5
10C40
  8
AM_0
  0
LINE
  5
D503
  8
ﾁｭｳｼﾝｾﾝ1
 10
423.64366096604408
 20
213.88050974063469
 30
0.0
 11
423.64366096604408
 21
198.8805092935998
 31
0.0
  0
ARC
  5
D507
  8
AM_0
 10
423.6436597739513
 20
222.0908683752258
 30
0.0
 40
4.9999999999999947
 50
279.38664786785051
 51
0.0000025044687019
  0
CIRCLE
  5
D508
  8
AM_0
 10
423.64366096604408
 20
206.3805095171173
 30
0.0
 40
3.9999999999999978
  0
LINE
  5
D509
  8
ﾁｭｳｼﾝｾﾝ1
 10
416.143660742527
 20
206.3805095171173
 30
0.0
 11
431.14366118956161
 21
206.3805095171173
 31
0.0
  0
CIRCLE
  5
D50A
  8
AM_5
 10
423.64366096604408
 20
206.3805095171173
 30
0.0
 40
2.9999999999999978
  0
LINE
  5
D50B
  8
AM_0
 10
419.75699905718727
 20
216.3805095171177
 30
0.0
 11
424.45913523781849
 21
217.1578163122374
 31
0.0
  0
ARC
  5
D50C
  8
AM_0
 10
429.64366129386968
 20
211.3805095171177
 30
0.0
 40
5.0
 50
0.0
 51
90.0
1001
GENIUS_GENOBJ-N-FIL_13
1002
{
1000
OWNER
1000
GEN
1002
}
1001
GENIUS_GENODEF_13
1002
{
1000
HIER
1070
     0
1002
}
1002
{
1000
MANEDIT
1070
     0
1002
}
1002
{
1000
NOSEL
1070
     0
1002
}
1002
{
1000
BEHIND
1070
     0
1002
}
1002
{
1000
OTHER
1070
     0
1002
}
1002
{
1000
REACTOR
1002
}
  0
LINE
  5
D532
  8
ﾁｭｳｼﾝｾﾝ1
 10
439.64366129386963
 20
246.38051070921011
 30
0.0
 11
135.64365721095149
 21
246.3805107092102
 31
0.0
  0
LINE
  5
D5E2
  8
AM_0
 10
325.6008130942638
 20
278.5411857580383
 30
0.0
 11
307.82818431008423
 21
275.60319747678818
 31
0.0
  0
LINE
  5
D5E6
  8
ﾁｭｳｼﾝｾﾝ1
 10
301.1436573152597
 20
286.38051190130301
 30
0.0
 11
316.14365776229459
 21
286.38051190130301
 31
0.0
  0
CIRCLE
  5
D5E7
  8
AM_0
 10
308.64365753877712
 20
286.38051190130301
 30
0.0
 40
4.5000001341104507
  0
LINE
  5
D5E8
  8
AM_0
 10
308.64365753877712
 20
297.38051222912873
 30
0.0
 11
425.64366096604408
 21
297.38051222912861
 31
0.0
  0
ARC
  5
D606
  8
AM_0
 10
516.64364195216217
 20
246.38051070921011
 30
0.0
 40
236.0
 50
169.43603828764111
 51
180.00000500895041
  0
LINE
  5
D607
  8
AM_0
 10
273.13755369532657
 20
302.38051070921011
 30
0.0
 11
282.69478280710229
 21
302.38051070921011
 31
0.0
  0
LINE
  5
D608
  8
AM_0
 10
273.13755369532657
 20
292.38051070921011
 30
0.0
 11
284.64365721095157
 21
292.38051070921011
 31
0.0
  0
LINE
  5
D609
  8
AM_0
 10
273.13755369532657
 20
278.32046070921012
 30
0.0
 11
282.74356983128939
 21
278.32046070921012
 31
0.0
  0
LINE
  5
D61C
  8
ﾁｭｳｼﾝｾﾝ1
 10
308.64365753877712
 20
278.88051167778559
 30
0.0
 11
308.64365753877712
 21
293.8805121248206
 31
0.0
  0
ARC
  5
D61D
  8
AM_0
 10
308.64365753877712
 20
286.38051190130301
 30
0.0
 40
11.00000032782555
 50
90.000002504475205
 51
180.00000500895689
  0
ARC
  5
D61E
  8
AM_0
 10
308.6436597739513
 20
270.6701530431946
 30
0.0
 40
5.0000000000000107
 50
99.386642005123306
 51
179.99999749551819
  0
LINE
  5
D61F
  8
AM_0
 10
285.14365721095157
 20
289.64712753049918
 30
0.0
 11
297.64365721095157
 21
289.64712753049918
 31
0.0
  0
LINE
  5
D620
  8
AM_0
 10
285.83744378833393
 20
295.38051070921011
 30
0.0
 11
302.31910189061489
 21
295.38051070921011
 31
0.0
  0
LINE
  5
D621
  8
AM_0
 10
284.69356389423251
 20
300.4503259348449
 30
0.0
 11
284.8382678066547
 21
296.30751266233511
 31
0.0
  0
ARC
  5
D622
  8
AM_0
 10
285.83744383204532
 20
296.38051070921011
 30
0.0
 40
1.0000000000000091
 50
187.1807504503941
 51
269.99999749551819
  0
ARC
  5
D623
  8
AM_0
 10
282.69478280710229
 20
300.38051070921011
 30
0.0
 40
2.0
 50
2.0004653026450021
 51
90.0
1001
GENIUS_GENODEF_13
1002
{
1000
HIER
1070
     0
1002
}
1002
{
1000
MANEDIT
1070
     0
1002
}
1002
{
1000
NOSEL
1070
     0
1002
}
1002
{
1000
BEHIND
1070
     0
1002
}
1002
{
1000
OTHER
1070
     0
1002
}
1002
{
1000
REACTOR
1002
}
1001
GENIUS_GENOBJ-N-FIL_13
1002
{
1000
OWNER
1000
GEN
1002
}
  0
LINE
  5
D66B
  8
AM_0
 10
340.16638011086542
 20
291.38051070921011
 30
0.0
 11
392.12095469582641
 21
291.38051070921011
 31
0.0
  0
LINE
  5
D66E
  8
AM_0
 10
320.75690842800321
 20
290.38051070921023
 30
0.0
 11
322.20028410097723
 21
287.88051070921023
 31
0.0
  0
CIRCLE
  5
D66F
  8
AM_0
 10
323.6436597739513
 20
290.38051070921023
 30
0.0
 40
5.0
  0
CIRCLE
  5
D670
  8
AM_0
 10
323.6436597739513
 20
290.38051070921023
 30
0.0
 40
2.886751345948126
  0
LINE
  5
D671
  8
AM_0
 10
325.08703544692543
 20
287.88051070921023
 30
0.0
 11
326.53041111989938
 21
290.38051070921023
 31
0.0
  0
ARC
  5
D672
  8
AM_0
 10
340.16638011086542
 20
286.38051070921011
 30
0.0
 40
4.9999999999999911
 50
90.000005008956919
 51
166.39104000729481
  0
ARC
  5
D673
  8
AM_0
 10
323.6436597739513
 20
290.38051070921023
 30
0.0
 40
6.0000000000000062
 50
179.99999749551819
 51
0.0000025044687019
  0
ARC
  5
D674
  8
AM_0
 10
323.6436597739513
 20
290.38051070921023
 30
0.0
 40
11.999999999999989
 50
279.38664786785051
 51
346.39104182853202
  0
LINE
  5
D675
  8
AM_0
 10
322.20028410097723
 20
287.88051070921023
 30
0.0
 11
325.08703544692543
 21
287.88051070921023
 31
0.0
  0
ARC
  5
D676
  8
AM_0
 10
315.6436597739513
 20
295.38051070921023
 30
0.0
 40
2.0000000000000022
 50
0.0000025044687019
 51
90.000005008956919
  0
LINE
  5
D677
  8
AM_0
 10
317.6436597739513
 20
295.38051070921011
 30
0.0
 11
317.6436597739513
 21
290.38051070921011
 31
0.0
  0
LINE
  5
D678
  8
AM_0
 10
322.20028410097751
 20
292.88051070921028
 30
0.0
 11
320.75690842800321
 21
290.38051070921023
 31
0.0
  0
LINE
  5
D679
  8
AM_0
 10
325.0870354469252
 20
292.88051070921028
 30
0.0
 11
322.20028410097751
 21
292.88051070921028
 31
0.0
  0
LINE
  5
D67A
  8
AM_0
 10
326.53041111989938
 20
290.38051070921023
 30
0.0
 11
325.0870354469252
 21
292.88051070921028
 31
0.0
  0
ARC
  5
D67B
  8
AM_0
 10
331.6436597739513
 20
295.38051070921023
 30
0.0
 40
2.0000000000000062
 50
90.000005008956919
 51
180.000000683243
  0
LINE
  5
D67C
  8
AM_0
 10
329.6436597739513
 20
295.38051070921011
 30
0.0
 11
329.6436597739513
 21
290.38051070921011
 31
0.0
  0
LINE
  5
D680
  8
AM_0
 10
411.53041111989938
 20
290.38051070921011
 30
0.0
 11
410.08703544692509
 21
292.88051070921023
 31
0.0
1001
GENIUS_GENOREF_13
1005
0
  0
LINE
  5
D681
  8
AM_0
 10
410.0870354469252
 20
287.88051070921011
 30
0.0
 11
411.53041111989938
 21
290.38051070921011
 31
0.0
1001
GENIUS_GENOREF_13
1005
0
  0
CIRCLE
  5
D682
  8
AM_0
 10
408.64365977395119
 20
290.38051070921011
 30
0.0
 40
5.0
1001
GENIUS_GENOREF_13
1005
0
  0
CIRCLE
  5
D683
  8
AM_0
 10
408.64365977395119
 20
290.38051070921011
 30
0.0
 40
2.886751345948126
1001
GENIUS_GENOREF_13
1005
0
  0
LINE
  5
D684
  8
AM_0
 10
406.68650645363857
 20
278.5411857580383
 30
0.0
 11
424.45913523781849
 21
275.60319747678818
 31
0.0
  0
ARC
  5
D685
  8
AM_0
 10
408.64365977395119
 20
290.38051070921011
 30
0.0
 40
6.0000000000000062
 50
179.99999749551819
 51
0.0000025044687019
  0
LINE
  5
D686
  8
AM_0
 10
405.7569084280031
 20
290.38051070921011
 30
0.0
 11
407.20028410097711
 21
287.88051070921011
 31
0.0
1001
GENIUS_GENOREF_13
1005
0
  0
ARC
  5
D687
  8
AM_0
 10
392.12095469582641
 20
286.38051070921011
 30
0.0
 40
5.0
 50
13.608963180428949
 51
90.000005008956919
  0
ARC
  5
D688
  8
AM_0
 10
408.64365977395119
 20
290.38051070921011
 30
0.0
 40
12.0
 50
193.608958171468
 51
260.6133521321496
  0
LINE
  5
D689
  8
AM_0
 10
407.20028410097711
 20
287.88051070921011
 30
0.0
 11
410.0870354469252
 21
287.88051070921011
 31
0.0
1001
GENIUS_GENOREF_13
1005
0
  0
ARC
  5
D68A
  8
AM_0
 10
400.64365977395107
 20
295.38051070921011
 30
0.0
 40
2.0000000000000022
 50
0.0000025044687019
 51
90.000005008956919
  0
LINE
  5
D68B
  8
AM_0
 10
407.20028410097751
 20
292.88051070921023
 30
0.0
 11
405.7569084280031
 21
290.38051070921011
 31
0.0
1001
GENIUS_GENOREF_13
1005
0
  0
LINE
  5
D68C
  8
AM_0
 10
410.08703544692509
 20
292.88051070921023
 30
0.0
 11
407.20028410097751
 21
292.88051070921023
 31
0.0
1001
GENIUS_GENOREF_13
1005
0
  0
LINE
  5
D68D
  8
AM_0
 10
402.6436597739513
 20
295.38051070921011
 30
0.0
 11
402.6436597739513
 21
290.38051070921011
 31
0.0
  0
CIRCLE
  5
D68E
  8
AM_0
 10
423.64366096604408
 20
286.38051190130301
 30
0.0
 40
4.5000001341104507
  0
LINE
  5
D68F
  8
ﾁｭｳｼﾝｾﾝ1
 10
423.64366096604408
 20
278.88051167778559
 30
0.0
 11
423.64366096604408
 21
293.8805121248206
 31
0.0
  0
ARC
  5
D690
  8
AM_0
 10
425.64366096604408
 20
286.38051190130301
 30
0.0
 40
11.000000327825539
 50
0.0
 51
90.0
  0
ARC
  5
D691
  8
AM_0
 10
423.6436597739513
 20
270.67015304319449
 30
0.0
 40
5.0000000000000044
 50
0.0000025044687019
 51
80.613357994876694
  0
LINE
  5
D692
  8
ﾁｭｳｼﾝｾﾝ1
 10
416.143660742527
 20
286.38051190130301
 30
0.0
 11
431.14366118956161
 21
286.38051190130301
 31
0.0
  0
LINE
  5
D693
  8
AM_0
 10
414.6436597739513
 20
295.38051070921011
 30
0.0
 11
414.6436597739513
 21
290.38051070921011
 31
0.0
  0
ARC
  5
D694
  8
AM_0
 10
416.6436597739513
 20
295.38051070921011
 30
0.0
 40
2.0000000000000062
 50
90.000005008956919
 51
180.000000683243
  0
LINE
  5
D698
  8
AM_0
 10
671.63003249493931
 20
218.88050988964631
 30
0.0
 11
671.63003249493931
 21
273.88051152877398
 31
0.0
  0
LINE
  5
D699
  8
AM_0
 10
587.63002999154412
 20
218.88050988964631
 30
0.0
 11
587.63002999154412
 21
273.88051152877398
 31
0.0
  0
ARC
  5
D69A
  8
AM_0
 10
629.63003124324155
 20
246.3805107092102
 30
0.0
 40
56.5
 50
144.98137173791559
 51
165.88809156090261
  0
LINE
  5
D69B
  8
AM_0
 10
667.63003237573002
 20
183.88051099233229
 30
0.0
 11
667.63003237572991
 21
296.28084310587809
 31
0.0
  0
LINE
  5
D69C
  8
AM_0
 10
591.63003011075341
 20
183.88051099233229
 30
0.0
 11
591.63003011075341
 21
297.15359637829908
 31
0.0
  0
LINE
  5
D69D
  8
AM_0
 10
604.63003049818337
 20
195.38050918929159
 30
0.0
 11
604.63003049818337
 21
297.38051222912861
 31
0.0
  0
ARC
  5
D69E
  8
AM_0
 10
629.63003124324155
 20
246.3805107092102
 30
0.0
 40
56.5
 50
324.98137173791582
 51
345.88809156090252
  0
LINE
  5
D69F
  8
ﾁｭｳｼﾝｾﾝ1
 10
629.63003124324155
 20
343.1068599822749
 30
0.0
 11
629.63003124324155
 21
176.0101662167329
 31
0.0
  0
LINE
  5
D6A3
  8
AM_0
 10
604.63003049818212
 20
195.38050918929181
 30
0.0
 11
667.63003237572991
 21
196.48017831254219
 31
0.0
  0
LINE
  5
D6A9
  8
AM_0
 10
604.63003049818337
 20
195.38050918929181
 30
0.0
 11
591.63003011075341
 21
195.6074250401212
 31
0.0
  0
LINE
  5
D6AE
  8
AM_0
 10
587.13003011075261
 20
186.49573468148159
 30
0.0
 11
581.51480642160345
 21
180.88051099233229
 31
0.0
  0
LINE
  5
D6AF
  8
AM_0
 10
581.13002863553845
 20
198.8805095171175
 30
0.0
 11
566.13003011075284
 21
183.8805109923324
 31
0.0
  0
LINE
  5
D6B0
  8
ﾁｭｳｼﾝｾﾝ1
 10
564.63003145185701
 20
190.88051099233249
 30
0.0
 11
564.63003145185667
 21
166.38051099233229
 31
0.0
  0
LINE
  5
D6B1
  8
AM_0
 10
587.13003011075273
 20
216.38050951711779
 30
0.0
 11
587.13003011075273
 21
183.88051099233229
 31
0.0
  0
LINE
  5
D6B4
  8
AM_0
 10
554.63003011075375
 20
180.88051099233229
 30
0.0
 11
584.1300301107525
 21
180.88051099233229
 31
0.0
  0
LINE
  5
D6B5
  8
AM_0
 10
554.63003011075375
 20
176.38051099233229
 30
0.0
 11
584.1300301107533
 21
176.38051099233229
 31
0.0
  0
LINE
  5
D6B7
  8
AM_0
 10
554.63003011075375
 20
180.88051099233229
 30
0.0
 11
554.63003011075375
 21
176.38051099233229
 31
0.0
  0
LINE
  5
D6B8
  8
ｶｸﾚｾﾝ2
 10
559.63003145185735
 20
176.3805109923324
 30
0.0
 11
559.63003145185735
 21
180.8805109923324
 31
0.0
  0
LINE
  5
D6B9
  8
AM_0
 10
566.13003011075261
 20
183.88051099233201
 30
0.0
 11
566.13003011075261
 21
180.88051099233229
 31
0.0
  0
LINE
  5
D6BA
  8
ｶｸﾚｾﾝ2
 10
569.63003145185712
 20
176.3805109923324
 30
0.0
 11
569.63003145185712
 21
180.8805109923324
 31
0.0
  0
ARC
  5
D6BC
  8
AM_0
 10
584.1300301107533
 20
183.88051099233229
 30
0.0
 40
7.5
 50
270.0
 51
0.0
1001
GENIUS_GENOBJ-N-FIL_13
1002
{
1000
OWNER
1000
GEN
1002
}
1001
GENIUS_GENODEF_13
1002
{
1000
HIER
1070
     0
1002
}
1002
{
1000
MANEDIT
1070
     0
1002
}
1002
{
1000
NOSEL
1070
     0
1002
}
1002
{
1000
BEHIND
1070
     0
1002
}
1002
{
1000
OTHER
1070
     0
1002
}
1002
{
1000
REACTOR
1002
}
  0
ARC
  5
D6BD
  8
AM_0
 10
584.1300301107525
 20
183.88051099233229
 30
0.0
 40
3.0
 50
270.0
 51
0.0
1001
GENIUS_GENOBJ-N-FIL_13
1002
{
1000
OWNER
1000
GEN
1002
}
1001
GENIUS_GENODEF_13
1002
{
1000
HIER
1070
     0
1002
}
1002
{
1000
MANEDIT
1070
     0
1002
}
1002
{
1000
NOSEL
1070
     0
1002
}
1002
{
1000
BEHIND
1070
     0
1002
}
1002
{
1000
OTHER
1070
     0
1002
}
1002
{
1000
REACTOR
1002
}
  0
LINE
  5
D6C2
  8
AM_0
 10
579.04003011075315
 20
213.8805095171175
 30
0.0
 11
579.04003011075315
 21
198.88050951711739
 31
0.0
  0
LINE
  5
D6C3
  8
AM_0
 10
585.54003011075304
 20
214.88050951711739
 30
0.0
 11
585.54003011075258
 21
197.88050951711739
 31
0.0
  0
LINE
  5
D6C4
  8
AM_0
 10
579.04003011075315
 20
198.88050951711739
 30
0.0
 11
585.54003011075304
 21
198.8805095171175
 31
0.0
  0
LINE
  5
D6CD
  8
AM_0
 10
585.54003011075258
 20
197.88050951711739
 30
0.0
 11
587.13003011075284
 21
197.88050951711739
 31
0.0
  0
LINE
  5
D6CF
  8
AM_0
 10
579.04003011075315
 20
202.63050951711739
 30
0.0
 11
585.54003011075258
 21
202.63050951711739
 31
0.0
  0
LINE
  5
D6D0
  8
AM_0
 10
579.04003011075315
 20
210.13050951711739
 30
0.0
 11
585.54003011075304
 21
210.1305095171173
 31
0.0
  0
LINE
  5
D6D1
  8
AM_0
 10
579.04003011075315
 20
213.8805095171175
 30
0.0
 11
585.54003011075304
 21
213.8805095171173
 31
0.0
  0
LINE
  5
D6D2
  8
AM_0
 10
575.63003124324177
 20
212.4735593203531
 30
0.0
 11
575.63003124324155
 21
220.2089798480454
 31
0.0
  0
LINE
  5
D6D3
  8
AM_0
 10
578.72003237572949
 20
210.38050951711739
 30
0.0
 11
578.72003237572949
 21
202.38050951711739
 31
0.0
  0
LINE
  5
D6D4
  8
AM_5
 10
579.04003011075315
 20
203.3805095171175
 30
0.0
 11
578.72003237572915
 21
203.3805095171175
 31
0.0
  0
LINE
  5
D6D5
  8
AM_5
 10
579.04003011075315
 20
209.3805095171175
 30
0.0
 11
578.72003237572949
 21
209.3805095171175
 31
0.0
  0
LINE
  5
D6D6
  8
AM_0
 10
579.04003011075315
 20
202.38050951711739
 30
0.0
 11
578.72003237572915
 21
202.38050951711739
 31
0.0
  0
LINE
  5
D6D7
  8
AM_0
 10
579.04003011075315
 20
210.38050951711739
 30
0.0
 11
578.72003237572949
 21
210.38050951711739
 31
0.0
  0
ARC
  5
D6D8
  8
AM_0
 10
574.35505936711377
 20
211.35580171352021
 30
0.0
 40
1.0
 50
198.56658080190289
 51
267.99999999999642
1001
GENIUS_GENODEF_13
1002
{
1000
HIER
1070
     0
1002
}
1002
{
1000
MANEDIT
1070
     0
1002
}
1002
{
1000
NOSEL
1070
     0
1002
}
1002
{
1000
BEHIND
1070
     0
1002
}
1002
{
1000
REACTOR
1002
}
1001
GENIUS_GENOBJ-N-FIL_13
1002
{
1000
OWNER
1000
GEN
1002
}
  0
ARC
  5
D6D9
  8
AM_0
 10
574.33097546277395
 20
211.42758574858749
 30
0.0
 40
1.0
 50
92.000000000003581
 51
198.52714231446819
1001
GENIUS_GENODEF_13
1002
{
1000
HIER
1070
     0
1002
}
1002
{
1000
MANEDIT
1070
     0
1002
}
1002
{
1000
NOSEL
1070
     0
1002
}
1002
{
1000
BEHIND
1070
     0
1002
}
1002
{
1000
REACTOR
1002
}
1001
GENIUS_GENOBJ-N-FIL_13
1002
{
1000
OWNER
1000
GEN
1002
}
  0
ARC
  5
D6DA
  8
AM_0
 10
678.63003124324155
 20
246.38051070921011
 30
0.0
 40
111.0
 50
198.52714231446819
 51
198.56658080189669
  0
LINE
  5
D6DB
  8
AM_0
 10
574.32015987041143
 20
210.3564108865011
 30
0.0
 11
578.72003237572949
 21
210.20276395294979
 31
0.0
  0
LINE
  5
D6DC
  8
AM_0
 10
574.29607596607127
 20
212.4269765756068
 30
0.0
 11
579.04003011075315
 21
212.5926391047727
 31
0.0
  0
LINE
  5
D6DD
  8
AM_0
 10
571.4800615457026
 20
220.3538999832507
 30
0.0
 11
579.6303366458086
 21
220.06928610518571
 31
0.0
  0
LINE
  5
D6DE
  8
AM_0
 10
571.46372681137973
 20
222.4226966322544
 30
0.0
 11
578.34907718512125
 21
222.66313836552581
 31
0.0
  0
ARC
  5
D6DF
  8
AM_0
 10
678.63003124324155
 20
246.38051070921011
 30
0.0
 40
111.0
 50
193.11367014330619
 51
193.15111826064779
  0
ARC
  5
D6E0
  8
AM_0
 10
571.49862630808263
 20
221.42330580523509
 30
0.0
 40
1.0
 50
92.000000000003581
 51
193.11367014329841
1001
GENIUS_GENODEF_13
1002
{
1000
HIER
1070
     0
1002
}
1002
{
1000
MANEDIT
1070
     0
1002
}
1002
{
1000
NOSEL
1070
     0
1002
}
1002
{
1000
BEHIND
1070
     0
1002
}
1002
{
1000
REACTOR
1002
}
1001
GENIUS_GENOBJ-N-FIL_13
1002
{
1000
OWNER
1000
GEN
1002
}
  0
ARC
  5
D6E1
  8
AM_0
 10
571.51496104240516
 20
221.35329081026981
 30
0.0
 40
1.0
 50
193.15111826064779
 51
267.99999999999642
1001
GENIUS_GENODEF_13
1002
{
1000
HIER
1070
     0
1002
}
1002
{
1000
MANEDIT
1070
     0
1002
}
1002
{
1000
NOSEL
1070
     0
1002
}
1002
{
1000
BEHIND
1070
     0
1002
}
1002
{
1000
REACTOR
1002
}
1001
GENIUS_GENOBJ-N-FIL_13
1002
{
1000
OWNER
1000
GEN
1002
}
  0
LINE
  5
D6E2
  8
0
 10
587.13003011075261
 20
216.3805095171177
 30
0.0
 11
591.6300301107533
 21
216.3805095171177
 31
0.0
  0
LINE
  5
D6E3
  8
AM_0
 10
587.63002999154412
 20
218.88050988964631
 30
0.0
 11
591.63003011075341
 21
218.88050988964631
 31
0.0
  0
LINE
  5
D6E4
  8
AM_0
 10
585.54003011075258
 20
214.88050951711739
 30
0.0
 11
587.13003011075284
 21
214.88050951711739
 31
0.0
  0
LINE
  5
D71B
  8
AM_0
 10
672.13003237573025
 20
186.49573468148159
 30
0.0
 11
677.74525606487953
 21
180.88051099233229
 31
0.0
  0
LINE
  5
D71C
  8
AM_0
 10
677.13003385094487
 20
199.88050951711739
 30
0.0
 11
693.13003237573014
 21
183.8805109923324
 31
0.0
  0
LINE
  5
D71D
  8
ﾁｭｳｼﾝｾﾝ1
 10
694.63003103462484
 20
190.8805109923326
 30
0.0
 11
694.63003103462484
 21
166.38051099233229
 31
0.0
  0
LINE
  5
D71E
  8
AM_0
 10
672.13003237572946
 20
216.38050951711779
 30
0.0
 11
672.13003237572923
 21
183.88051099233229
 31
0.0
  0
LINE
  5
D721
  8
AM_0
 10
704.63003237572855
 20
180.88051099233229
 30
0.0
 11
675.13003237572934
 21
180.88051099233229
 31
0.0
  0
LINE
  5
D722
  8
AM_0
 10
704.63003237572855
 20
176.38051099233229
 30
0.0
 11
675.13003237572877
 21
176.38051099233229
 31
0.0
  0
ARC
  5
D723
  8
AM_0
 10
675.13003237572877
 20
183.88051099233229
 30
0.0
 40
7.5
 50
180.0
 51
270.0
1001
GENIUS_GENOBJ-N-FIL_13
1002
{
1000
OWNER
1000
GEN
1002
}
1001
GENIUS_GENODEF_13
1002
{
1000
HIER
1070
     0
1002
}
1002
{
1000
MANEDIT
1070
     0
1002
}
1002
{
1000
NOSEL
1070
     0
1002
}
1002
{
1000
BEHIND
1070
     0
1002
}
1002
{
1000
OTHER
1070
     0
1002
}
1002
{
1000
REACTOR
1002
}
  0
ARC
  5
D724
  8
AM_0
 10
675.13003237572934
 20
183.88051099233229
 30
0.0
 40
3.0
 50
180.0
 51
270.0
1001
GENIUS_GENOBJ-N-FIL_13
1002
{
1000
OWNER
1000
GEN
1002
}
1001
GENIUS_GENODEF_13
1002
{
1000
HIER
1070
     0
1002
}
1002
{
1000
MANEDIT
1070
     0
1002
}
1002
{
1000
NOSEL
1070
     0
1002
}
1002
{
1000
BEHIND
1070
     0
1002
}
1002
{
1000
OTHER
1070
     0
1002
}
1002
{
1000
REACTOR
1002
}
  0
LINE
  5
D726
  8
ｶｸﾚｾﾝ2
 10
689.63003103462461
 20
176.3805109923324
 30
0.0
 11
689.63003103462461
 21
180.8805109923324
 31
0.0
  0
LINE
  5
D727
  8
AM_0
 10
693.13003237573037
 20
183.88051099233201
 30
0.0
 11
693.13003237573014
 21
180.88051099233229
 31
0.0
  0
LINE
  5
D729
  8
AM_0
 10
704.63003237572855
 20
180.88051099233229
 30
0.0
 11
704.63003237572855
 21
176.38051099233229
 31
0.0
  0
LINE
  5
D72A
  8
ｶｸﾚｾﾝ2
 10
699.63003103462495
 20
176.3805109923324
 30
0.0
 11
699.63003103462495
 21
180.8805109923324
 31
0.0
  0
LINE
  5
D72D
  8
AM_0
 10
681.72003237572915
 20
212.88050951711739
 30
0.0
 11
681.72003237572915
 21
199.88050951711739
 31
0.0
  0
LINE
  5
D72E
  8
AM_0
 10
673.72003237572915
 20
214.88050951711739
 30
0.0
 11
673.72003237572915
 21
197.88050951711739
 31
0.0
  0
LINE
  5
D72F
  8
AM_0
 10
673.72003237572915
 20
199.88050951711739
 30
0.0
 11
681.72003237572915
 21
199.88050951711739
 31
0.0
  0
LINE
  5
D734
  8
AM_0
 10
673.72003237572915
 20
197.88050951711739
 30
0.0
 11
672.13003237572946
 21
197.88050951711739
 31
0.0
  0
LINE
  5
D737
  8
AM_0
 10
673.72003237572915
 20
212.88050951711739
 30
0.0
 11
681.72003237572915
 21
212.88050951711739
 31
0.0
  0
LINE
  5
D738
  8
AM_0
 10
687.78000094078038
 20
220.3538999832507
 30
0.0
 11
679.62972584067472
 21
220.0692861051856
 31
0.0
  0
LINE
  5
D739
  8
AM_0
 10
687.79633567510325
 20
222.42269663225429
 30
0.0
 11
680.91098530136173
 21
222.6631383655257
 31
0.0
  0
LINE
  5
D73A
  8
AM_0
 10
673.72003237572915
 20
214.88050951711739
 30
0.0
 11
672.13003237572946
 21
214.88050951711739
 31
0.0
  0
LINE
  5
D73B
  8
0
 10
672.13003237573025
 20
216.3805095171177
 30
0.0
 11
667.63003237572968
 21
216.3805095171177
 31
0.0
  0
LINE
  5
D73C
  8
AM_0
 10
671.63003249493931
 20
218.88050988964631
 30
0.0
 11
667.63003237572991
 21
218.88050988964631
 31
0.0
  0
LINE
  5
D73D
  8
AM_0
 10
675.63003124324155
 20
212.8805095171173
 30
0.0
 11
675.63003124324155
 21
213.09763222792469
 31
0.0
1001
GENIUS_GENODEF_13
1002
{
1000
HIER
1070
     0
1002
}
1002
{
1000
MANEDIT
1070
     0
1002
}
1002
{
1000
NOSEL
1070
     0
1002
}
1002
{
1000
BEHIND
1070
     0
1002
}
1002
{
1000
REACTOR
1002
}
1001
GENIUS_GENOBJ-N-CEN_13
1002
{
1000
OWNER
1000
GEN
1002
}
  0
ARC
  5
D73E
  8
AM_0
 10
677.13003124324155
 20
213.09763222792461
 30
0.0
 40
1.5
 50
144.98137173791559
 51
180.0
1001
GENIUS_GENODEF_13
1002
{
1000
HIER
1070
     0
1002
}
1002
{
1000
MANEDIT
1070
     0
1002
}
1002
{
1000
NOSEL
1070
     0
1002
}
1002
{
1000
BEHIND
1070
     0
1002
}
1002
{
1000
REACTOR
1002
}
1001
GENIUS_GENOBJ-N-FIL_13
1002
{
1000
OWNER
1000
GEN
1002
}
  0
LINE
  5
D73F
  8
AM_0
 10
683.63003124324155
 20
212.4735593203531
 30
0.0
 11
683.63003124324155
 21
220.2089798480454
 31
0.0
  0
ARC
  5
D740
  8
AM_0
 10
684.90500311936933
 20
211.35580171352021
 30
0.0
 40
1.0
 50
272.00000000000358
 51
341.433419198097
1001
GENIUS_GENODEF_13
1002
{
1000
HIER
1070
     0
1002
}
1002
{
1000
MANEDIT
1070
     0
1002
}
1002
{
1000
NOSEL
1070
     0
1002
}
1002
{
1000
BEHIND
1070
     0
1002
}
1002
{
1000
REACTOR
1002
}
1001
GENIUS_GENOBJ-N-FIL_13
1002
{
1000
OWNER
1000
GEN
1002
}
  0
ARC
  5
D741
  8
AM_0
 10
580.63003124324166
 20
246.3805107092102
 30
0.0
 40
111.0
 50
341.43341919810331
 51
341.47285768553172
  0
ARC
  5
D742
  8
AM_0
 10
684.92908702370914
 20
211.42758574858749
 30
0.0
 40
1.0
 50
341.47285768553172
 51
87.999999999996405
1001
GENIUS_GENODEF_13
1002
{
1000
HIER
1070
     0
1002
}
1002
{
1000
MANEDIT
1070
     0
1002
}
1002
{
1000
NOSEL
1070
     0
1002
}
1002
{
1000
BEHIND
1070
     0
1002
}
1002
{
1000
REACTOR
1002
}
1001
GENIUS_GENOBJ-N-FIL_13
1002
{
1000
OWNER
1000
GEN
1002
}
  0
LINE
  5
D743
  8
AM_0
 10
684.93990261607178
 20
210.3564108865011
 30
0.0
 11
681.72003237572915
 21
210.2439705400447
 31
0.0
  0
LINE
  5
D744
  8
AM_0
 10
684.96398652041194
 20
212.4269765756068
 30
0.0
 11
681.72003237572915
 21
212.54025795053499
 31
0.0
  0
ARC
  5
D745
  8
AM_0
 10
687.76143617840046
 20
221.42330580523509
 30
0.0
 40
1.0
 50
346.88632985670171
 51
87.999999999996405
1001
GENIUS_GENODEF_13
1002
{
1000
HIER
1070
     0
1002
}
1002
{
1000
MANEDIT
1070
     0
1002
}
1002
{
1000
NOSEL
1070
     0
1002
}
1002
{
1000
BEHIND
1070
     0
1002
}
1002
{
1000
REACTOR
1002
}
1001
GENIUS_GENOBJ-N-FIL_13
1002
{
1000
OWNER
1000
GEN
1002
}
  0
ARC
  5
D746
  8
AM_0
 10
580.63003124324166
 20
246.3805107092102
 30
0.0
 40
111.0
 50
346.84888173935212
 51
346.88632985669381
  0
ARC
  5
D747
  8
AM_0
 10
687.74510144407793
 20
221.35329081026981
 30
0.0
 40
1.0
 50
271.9999999999971
 51
346.84888173935212
1001
GENIUS_GENODEF_13
1002
{
1000
HIER
1070
     0
1002
}
1002
{
1000
MANEDIT
1070
     0
1002
}
1002
{
1000
NOSEL
1070
     0
1002
}
1002
{
1000
BEHIND
1070
     0
1002
}
1002
{
1000
REACTOR
1002
}
1001
GENIUS_GENOBJ-N-FIL_13
1002
{
1000
OWNER
1000
GEN
1002
}
  0
ARC
  5
D755
  8
AM_0
 10
664.66434246843471
 20
303.38051070921023
 30
0.0
 40
1.0
 50
1.9999999999972149
 51
90.0
1001
GENIUS_GENODEF_13
1002
{
1000
HIER
1070
     0
1002
}
1002
{
1000
MANEDIT
1070
     0
1002
}
1002
{
1000
NOSEL
1070
     0
1002
}
1002
{
1000
BEHIND
1070
     0
1002
}
1002
{
1000
REACTOR
1002
}
1001
GENIUS_GENOBJ-N-FIL_13
1002
{
1000
OWNER
1000
GEN
1002
}
  0
LINE
  5
D759
  8
AM_0
 10
604.63003049818224
 20
297.38051222912873
 30
0.0
 11
667.63003237573002
 21
296.28084310587809
 31
0.0
  0
LINE
  5
D75A
  8
ﾁｭｳｼﾝｾﾝ1
 10
527.83237555174105
 20
246.3805107092102
 30
0.0
 11
731.42768693474181
 21
246.3805107092102
 31
0.0
  0
LINE
  5
D762
  8
AM_0
 10
604.63003049818371
 20
297.38051222912861
 30
0.0
 11
591.63003011075352
 21
297.15359637829908
 31
0.0
  0
ARC
  5
D763
  8
AM_0
 10
597.66748029926373
 20
302.33987483120097
 30
0.0
 40
1.9655366667591301
 50
180.64955321106549
 51
356.841529773925
  0
LINE
  5
D764
  8
AM_0
 10
584.63002990213715
 20
231.38051026217539
 30
0.0
 11
584.63002990213715
 21
261.38051115624501
 31
0.0
  0
LINE
  5
D765
  8
AM_0
 10
569.62677206026945
 20
230.35126335314399
 30
0.0
 11
575.51273639721842
 21
230.14572094929659
 31
0.0
  0
LINE
  5
D766
  8
AM_0
 10
569.61728990789584
 20
232.41895276311649
 30
0.0
 11
574.83604907382175
 21
232.601195848983
 31
0.0
  0
ARC
  5
D767
  8
AM_0
 10
569.66167155697201
 20
231.35065418016291
 30
0.0
 40
1.0
 50
187.85317808880569
 51
267.99999999999642
1001
GENIUS_GENODEF_13
1002
{
1000
HIER
1070
     0
1002
}
1002
{
1000
MANEDIT
1070
     0
1002
}
1002
{
1000
NOSEL
1070
     0
1002
}
1002
{
1000
BEHIND
1070
     0
1002
}
1002
{
1000
REACTOR
1002
}
1001
GENIUS_GENOBJ-N-FIL_13
1002
{
1000
OWNER
1000
GEN
1002
}
  0
ARC
  5
D768
  8
AM_0
 10
678.63003124324155
 20
246.38051070921011
 30
0.0
 40
111.0
 50
187.81694783169499
 51
187.853178088813
  0
ARC
  5
D769
  8
AM_0
 10
569.65218940459852
 20
231.41956193609749
 30
0.0
 40
1.0
 50
92.000000000003581
 51
187.81694783169499
1001
GENIUS_GENODEF_13
1002
{
1000
HIER
1070
     0
1002
}
1002
{
1000
MANEDIT
1070
     0
1002
}
1002
{
1000
NOSEL
1070
     0
1002
}
1002
{
1000
BEHIND
1070
     0
1002
}
1002
{
1000
REACTOR
1002
}
1001
GENIUS_GENOBJ-N-FIL_13
1002
{
1000
OWNER
1000
GEN
1002
}
  0
LINE
  5
D76F
  8
AM_0
 10
584.63002990213715
 20
231.38051026217539
 30
0.0
 11
587.63002999154412
 21
231.38051026217531
 31
0.0
  0
LINE
  5
D775
  8
AM_0
 10
569.62677206026945
 20
262.40975806527638
 30
0.0
 11
575.51273639721842
 21
262.61530046912361
 31
0.0
  0
LINE
  5
D776
  8
AM_0
 10
569.61728990789584
 20
260.34206865530359
 30
0.0
 11
574.83604907382175
 21
260.15982556943749
 31
0.0
  0
ARC
  5
D777
  8
AM_0
 10
678.63003124324155
 20
246.38051070921011
 30
0.0
 40
111.0
 50
172.14682191118689
 51
172.18305216830501
  0
ARC
  5
D778
  8
AM_0
 10
569.66167155697201
 20
261.41036723825709
 30
0.0
 40
1.0
 50
91.999999999997087
 51
172.14682191119419
1001
GENIUS_GENODEF_13
1002
{
1000
HIER
1070
     0
1002
}
1002
{
1000
MANEDIT
1070
     0
1002
}
1002
{
1000
NOSEL
1070
     0
1002
}
1002
{
1000
BEHIND
1070
     0
1002
}
1002
{
1000
REACTOR
1002
}
1001
GENIUS_GENOBJ-N-FIL_13
1002
{
1000
OWNER
1000
GEN
1002
}
  0
ARC
  5
D779
  8
AM_0
 10
569.65218940459852
 20
261.34145948232259
 30
0.0
 40
1.0
 50
172.18305216830501
 51
267.99999999999642
1001
GENIUS_GENODEF_13
1002
{
1000
HIER
1070
     0
1002
}
1002
{
1000
MANEDIT
1070
     0
1002
}
1002
{
1000
NOSEL
1070
     0
1002
}
1002
{
1000
BEHIND
1070
     0
1002
}
1002
{
1000
REACTOR
1002
}
1001
GENIUS_GENOBJ-N-FIL_13
1002
{
1000
OWNER
1000
GEN
1002
}
  0
LINE
  5
D77A
  8
AM_0
 10
584.63002990213715
 20
261.38051115624501
 30
0.0
 11
587.63002999154412
 21
261.38051115624489
 31
0.0
  0
ARC
  5
D77B
  8
AM_0
 10
588.63003124324177
 20
287.38051070921023
 30
0.0
 40
5.0
 50
90.0
 51
180.0
1001
GENIUS_GENODEF_13
1002
{
1000
HIER
1070
     0
1002
}
1002
{
1000
MANEDIT
1070
     0
1002
}
1002
{
1000
NOSEL
1070
     0
1002
}
1002
{
1000
BEHIND
1070
     0
1002
}
1002
{
1000
REACTOR
1002
}
1001
GENIUS_GENOBJ-N-FIL_13
1002
{
1000
OWNER
1000
GEN
1002
}
  0
LINE
  5
D77C
  8
AM_0
 10
574.29607596607127
 20
280.3340448428134
 30
0.0
 11
583.63003124324155
 21
280.00809594213291
 31
0.0
  0
LINE
  5
D77D
  8
AM_0
 10
574.32015987041154
 20
282.40461053191922
 30
0.0
 11
583.63003124324155
 21
282.7297184041276
 31
0.0
  0
LINE
  5
D77E
  8
AM_0
 10
575.63003124324177
 20
280.28746209806741
 30
0.0
 11
575.63003124324155
 21
272.55204157037502
 31
0.0
  0
LINE
  5
D77F
  8
AM_0
 10
571.4800615457026
 20
272.40712143516947
 30
0.0
 11
579.6303366458086
 21
272.69173531323457
 31
0.0
  0
LINE
  5
D780
  8
AM_0
 10
571.46372681138018
 20
270.3383247861658
 30
0.0
 11
578.34907718512125
 21
270.09788305289447
 31
0.0
  0
ARC
  5
D781
  8
AM_0
 10
571.51496104240516
 20
271.40773060815019
 30
0.0
 40
1.0
 50
91.999999999997087
 51
166.84888173935209
1001
GENIUS_GENODEF_13
1002
{
1000
HIER
1070
     0
1002
}
1002
{
1000
MANEDIT
1070
     0
1002
}
1002
{
1000
NOSEL
1070
     0
1002
}
1002
{
1000
BEHIND
1070
     0
1002
}
1002
{
1000
REACTOR
1002
}
1001
GENIUS_GENOBJ-N-FIL_13
1002
{
1000
OWNER
1000
GEN
1002
}
  0
ARC
  5
D782
  8
AM_0
 10
678.63003124324155
 20
246.38051070921011
 30
0.0
 40
111.0
 50
166.84888173935209
 51
166.88632985669381
  0
ARC
  5
D783
  8
AM_0
 10
571.49862630808263
 20
271.33771561318503
 30
0.0
 40
1.0
 50
166.88632985670159
 51
267.99999999999642
1001
GENIUS_GENODEF_13
1002
{
1000
HIER
1070
     0
1002
}
1002
{
1000
MANEDIT
1070
     0
1002
}
1002
{
1000
NOSEL
1070
     0
1002
}
1002
{
1000
BEHIND
1070
     0
1002
}
1002
{
1000
REACTOR
1002
}
1001
GENIUS_GENOBJ-N-FIL_13
1002
{
1000
OWNER
1000
GEN
1002
}
  0
ARC
  5
D784
  8
AM_0
 10
574.35505936711377
 20
281.40521970489988
 30
0.0
 40
1.0
 50
92.000000000003581
 51
161.43341919809711
1001
GENIUS_GENODEF_13
1002
{
1000
HIER
1070
     0
1002
}
1002
{
1000
MANEDIT
1070
     0
1002
}
1002
{
1000
NOSEL
1070
     0
1002
}
1002
{
1000
BEHIND
1070
     0
1002
}
1002
{
1000
REACTOR
1002
}
1001
GENIUS_GENOBJ-N-FIL_13
1002
{
1000
OWNER
1000
GEN
1002
}
  0
ARC
  5
D785
  8
AM_0
 10
574.33097546277395
 20
281.33343566983228
 30
0.0
 40
1.0
 50
161.47285768553169
 51
267.99999999999642
1001
GENIUS_GENODEF_13
1002
{
1000
HIER
1070
     0
1002
}
1002
{
1000
MANEDIT
1070
     0
1002
}
1002
{
1000
NOSEL
1070
     0
1002
}
1002
{
1000
BEHIND
1070
     0
1002
}
1002
{
1000
REACTOR
1002
}
1001
GENIUS_GENOBJ-N-FIL_13
1002
{
1000
OWNER
1000
GEN
1002
}
  0
ARC
  5
D786
  8
AM_0
 10
678.63003124324155
 20
246.38051070921011
 30
0.0
 40
111.0
 50
161.43341919810311
 51
161.47285768553169
  0
LINE
  5
D787
  8
AM_0
 10
587.63002999154412
 20
273.88051152877398
 30
0.0
 11
591.63003011075341
 21
273.88051152877398
 31
0.0
  0
ARC
  5
D788
  8
AM_0
 10
582.13003124324155
 20
279.6633891904952
 30
0.0
 40
1.5
 50
324.98137173791582
 51
0.0
1001
GENIUS_GENODEF_13
1002
{
1000
HIER
1070
     0
1002
}
1002
{
1000
MANEDIT
1070
     0
1002
}
1002
{
1000
NOSEL
1070
     0
1002
}
1002
{
1000
BEHIND
1070
     0
1002
}
1002
{
1000
REACTOR
1002
}
1001
GENIUS_GENOBJ-N-FIL_13
1002
{
1000
OWNER
1000
GEN
1002
}
  0
LINE
  5
D789
  8
AM_0
 10
583.63003124324155
 20
279.6633891904952
 30
0.0
 11
583.63003124324155
 21
287.38051070921023
 31
0.0
1001
GENIUS_GENODEF_13
1002
{
1000
HIER
1070
     0
1002
}
1002
{
1000
MANEDIT
1070
     0
1002
}
1002
{
1000
NOSEL
1070
     0
1002
}
1002
{
1000
BEHIND
1070
     0
1002
}
1002
{
1000
REACTOR
1002
}
1001
GENIUS_GENOBJ-N-CEN_13
1002
{
1000
OWNER
1000
GEN
1002
}
  0
LINE
  5
D78B
  8
AM_0
 10
593.59632919102955
 20
303.41541020591279
 30
0.0
 11
593.37872774242692
 21
297.18412000899991
 31
0.0
  0
LINE
  5
D78C
  8
AM_0
 10
595.66373329545365
 20
303.41541020591262
 30
0.0
 11
595.87981022348913
 21
297.22777656609759
 31
0.0
  0
LINE
  5
D78D
  8
AM_0
 10
591.63003124324155
 20
292.38051070921023
 30
0.0
 11
588.63003124324177
 21
292.38051070921023
 31
0.0
  0
LINE
  5
D78E
  8
AM_0
 10
594.66434246843471
 20
304.38051070921023
 30
0.0
 11
594.59572001804861
 21
304.38051070921023
 31
0.0
  0
ARC
  5
D78F
  8
AM_0
 10
594.66434246843471
 20
303.38051070921023
 30
0.0
 40
1.0
 50
1.9999999999972149
 51
90.000000000006509
1001
GENIUS_GENODEF_13
1002
{
1000
HIER
1070
     0
1002
}
1002
{
1000
MANEDIT
1070
     0
1002
}
1002
{
1000
NOSEL
1070
     0
1002
}
1002
{
1000
BEHIND
1070
     0
1002
}
1002
{
1000
REACTOR
1002
}
1001
GENIUS_GENOBJ-N-FIL_13
1002
{
1000
OWNER
1000
GEN
1002
}
  0
ARC
  5
D790
  8
AM_0
 10
594.59572001804861
 20
303.38051070921023
 30
0.0
 40
1.0
 50
89.999999999993477
 51
177.99999999999619
1001
GENIUS_GENODEF_13
1002
{
1000
HIER
1070
     0
1002
}
1002
{
1000
MANEDIT
1070
     0
1002
}
1002
{
1000
NOSEL
1070
     0
1002
}
1002
{
1000
BEHIND
1070
     0
1002
}
1002
{
1000
REACTOR
1002
}
1001
GENIUS_GENOBJ-N-FIL_13
1002
{
1000
OWNER
1000
GEN
1002
}
  0
ARC
  5
D792
  8
AM_0
 10
629.63003124324155
 20
246.3805107092102
 30
0.0
 40
56.5
 50
62.48212463479782
 51
115.5178753651998
  0
LINE
  5
D793
  8
AM_0
 10
663.59632919102967
 20
303.41541020591262
 30
0.0
 11
663.34979361304124
 21
296.35555495138902
 31
0.0
  0
LINE
  5
D794
  8
AM_0
 10
664.59572001804861
 20
304.38051070921023
 30
0.0
 11
664.66434246843471
 21
304.38051070921023
 31
0.0
  0
ARC
  5
D795
  8
AM_0
 10
664.59572001804861
 20
303.38051070921023
 30
0.0
 40
1.0
 50
89.999999999993477
 51
177.99999999999619
1001
GENIUS_GENODEF_13
1002
{
1000
HIER
1070
     0
1002
}
1002
{
1000
MANEDIT
1070
     0
1002
}
1002
{
1000
NOSEL
1070
     0
1002
}
1002
{
1000
BEHIND
1070
     0
1002
}
1002
{
1000
REACTOR
1002
}
1001
GENIUS_GENOBJ-N-FIL_13
1002
{
1000
OWNER
1000
GEN
1002
}
  0
ARC
  5
D796
  8
AM_0
 10
661.59258218721948
 20
302.33987483120097
 30
0.0
 40
1.9655366667591301
 50
183.15847022607491
 51
359.35044678892791
  0
LINE
  5
DD35
  8
AM_0
 10
674.63003258434628
 20
231.38051026217531
 30
0.0
 11
674.63003258434628
 21
261.38051115624489
 31
0.0
  0
LINE
  5
DD36
  8
AM_0
 10
671.63003249493931
 20
231.38051026217531
 30
0.0
 11
674.63003258434628
 21
231.38051026217531
 31
0.0
  0
ARC
  5
DD37
  8
AM_0
 10
689.59839092951131
 20
231.35065418016291
 30
0.0
 40
1.0
 50
271.9999999999971
 51
352.14682191119408
1001
GENIUS_GENODEF_13
1002
{
1000
HIER
1070
     0
1002
}
1002
{
1000
MANEDIT
1070
     0
1002
}
1002
{
1000
NOSEL
1070
     0
1002
}
1002
{
1000
BEHIND
1070
     0
1002
}
1002
{
1000
REACTOR
1002
}
1001
GENIUS_GENOBJ-N-FIL_13
1002
{
1000
OWNER
1000
GEN
1002
}
  0
ARC
  5
DD38
  8
AM_0
 10
689.6078730818848
 20
231.41956193609741
 30
0.0
 40
1.0
 50
352.18305216830498
 51
88.000000000002899
1001
GENIUS_GENODEF_13
1002
{
1000
HIER
1070
     0
1002
}
1002
{
1000
MANEDIT
1070
     0
1002
}
1002
{
1000
NOSEL
1070
     0
1002
}
1002
{
1000
BEHIND
1070
     0
1002
}
1002
{
1000
REACTOR
1002
}
1001
GENIUS_GENOBJ-N-FIL_13
1002
{
1000
OWNER
1000
GEN
1002
}
  0
LINE
  5
DD39
  8
AM_0
 10
689.63329042621388
 20
230.35126335314399
 30
0.0
 11
683.74732608926479
 21
230.14572094929659
 31
0.0
  0
LINE
  5
DD3A
  8
AM_0
 10
689.64277257858737
 20
232.41895276311641
 30
0.0
 11
684.42401341266145
 21
232.60119584898291
 31
0.0
  0
ARC
  5
DD3B
  8
AM_0
 10
580.63003124324166
 20
246.3805107092102
 30
0.0
 40
111.0
 50
352.14682191118692
 51
352.18305216830498
  0
LINE
  5
DD41
  8
AM_0
 10
671.63003249493931
 20
261.38051115624489
 30
0.0
 11
674.63003258434628
 21
261.38051115624489
 31
0.0
  0
ARC
  5
DD47
  8
AM_0
 10
689.59839092951131
 20
261.41036723825709
 30
0.0
 40
1.0
 50
7.8531780888057723
 51
88.000000000002899
1001
GENIUS_GENODEF_13
1002
{
1000
HIER
1070
     0
1002
}
1002
{
1000
MANEDIT
1070
     0
1002
}
1002
{
1000
NOSEL
1070
     0
1002
}
1002
{
1000
BEHIND
1070
     0
1002
}
1002
{
1000
REACTOR
1002
}
1001
GENIUS_GENOBJ-N-FIL_13
1002
{
1000
OWNER
1000
GEN
1002
}
  0
ARC
  5
DD48
  8
AM_0
 10
689.6078730818848
 20
261.34145948232259
 30
0.0
 40
1.0
 50
271.9999999999971
 51
7.8169478316949537
1001
GENIUS_GENODEF_13
1002
{
1000
HIER
1070
     0
1002
}
1002
{
1000
MANEDIT
1070
     0
1002
}
1002
{
1000
NOSEL
1070
     0
1002
}
1002
{
1000
BEHIND
1070
     0
1002
}
1002
{
1000
REACTOR
1002
}
1001
GENIUS_GENOBJ-N-FIL_13
1002
{
1000
OWNER
1000
GEN
1002
}
  0
LINE
  5
DD49
  8
AM_0
 10
689.64277257858737
 20
260.34206865530348
 30
0.0
 11
684.42401341266145
 21
260.15982556943737
 31
0.0
  0
LINE
  5
DD4A
  8
AM_0
 10
689.63329042621388
 20
262.40975806527638
 30
0.0
 11
683.74732608926479
 21
262.61530046912361
 31
0.0
  0
ARC
  5
DD4B
  8
AM_0
 10
580.63003124324166
 20
246.3805107092102
 30
0.0
 40
111.0
 50
7.8169478316949537
 51
7.8531780888131131
  0
ARC
  5
DD4C
  8
AM_0
 10
670.63003124324155
 20
287.38051070921023
 30
0.0
 40
5.0
 50
0.0
 51
90.0
1001
GENIUS_GENOBJ-N-CEN_13
1002
{
1000
OWNER
1000
GEN
1002
}
1001
GENIUS_GENODEF_13
1002
{
1000
HIER
1070
     0
1002
}
1002
{
1000
MANEDIT
1070
     0
1002
}
1002
{
1000
NOSEL
1070
     0
1002
}
1002
{
1000
BEHIND
1070
     0
1002
}
1002
{
1000
REACTOR
1002
}
1001
GENIUS_GENOBJ-N-FIL_13
1002
{
1000
OWNER
1000
GEN
1002
}
  0
LINE
  5
DD4D
  8
AM_0
 10
687.78000094078038
 20
272.40712143516947
 30
0.0
 11
679.62972584067472
 21
272.69173531323457
 31
0.0
  0
LINE
  5
DD4E
  8
AM_0
 10
687.79633567510325
 20
270.3383247861658
 30
0.0
 11
680.91098530136173
 21
270.09788305289447
 31
0.0
  0
LINE
  5
DD4F
  8
AM_0
 10
684.96398652041194
 20
280.3340448428134
 30
0.0
 11
675.63003124324155
 21
280.00809594213291
 31
0.0
  0
LINE
  5
DD50
  8
AM_0
 10
684.93990261607178
 20
282.40461053191922
 30
0.0
 11
675.63003124324155
 21
282.7297184041276
 31
0.0
  0
LINE
  5
DD51
  8
AM_0
 10
671.63003249493931
 20
273.88051152877409
 30
0.0
 11
667.63003237572991
 21
273.88051152877409
 31
0.0
  0
ARC
  5
DD52
  8
AM_0
 10
677.13003124324155
 20
279.6633891904952
 30
0.0
 40
1.5
 50
180.0
 51
215.01862826208691
1001
GENIUS_GENODEF_13
1002
{
1000
HIER
1070
     0
1002
}
1002
{
1000
MANEDIT
1070
     0
1002
}
1002
{
1000
NOSEL
1070
     0
1002
}
1002
{
1000
BEHIND
1070
     0
1002
}
1002
{
1000
REACTOR
1002
}
1001
GENIUS_GENOBJ-N-FIL_13
1002
{
1000
OWNER
1000
GEN
1002
}
  0
LINE
  5
DD53
  8
AM_0
 10
675.63003124324155
 20
279.6633891904952
 30
0.0
 11
675.63003124324155
 21
287.38051070921023
 31
0.0
1001
GENIUS_GENODEF_13
1002
{
1000
HIER
1070
     0
1002
}
1002
{
1000
MANEDIT
1070
     0
1002
}
1002
{
1000
NOSEL
1070
     0
1002
}
1002
{
1000
BEHIND
1070
     0
1002
}
1002
{
1000
REACTOR
1002
}
1001
GENIUS_GENOBJ-N-CEN_13
1002
{
1000
OWNER
1000
GEN
1002
}
  0
LINE
  5
DD54
  8
AM_0
 10
683.63003124324155
 20
280.28746209806741
 30
0.0
 11
683.63003124324155
 21
272.55204157037502
 31
0.0
  0
ARC
  5
DD55
  8
AM_0
 10
687.74510144407793
 20
271.40773060815019
 30
0.0
 40
1.0
 50
13.15111826064787
 51
88.000000000002899
1001
GENIUS_GENODEF_13
1002
{
1000
HIER
1070
     0
1002
}
1002
{
1000
MANEDIT
1070
     0
1002
}
1002
{
1000
NOSEL
1070
     0
1002
}
1002
{
1000
BEHIND
1070
     0
1002
}
1002
{
1000
REACTOR
1002
}
1001
GENIUS_GENOBJ-N-FIL_13
1002
{
1000
OWNER
1000
GEN
1002
}
  0
ARC
  5
DD56
  8
AM_0
 10
687.76143617840046
 20
271.33771561318491
 30
0.0
 40
1.0
 50
272.00000000000358
 51
13.11367014329841
1001
GENIUS_GENODEF_13
1002
{
1000
HIER
1070
     0
1002
}
1002
{
1000
MANEDIT
1070
     0
1002
}
1002
{
1000
NOSEL
1070
     0
1002
}
1002
{
1000
BEHIND
1070
     0
1002
}
1002
{
1000
REACTOR
1002
}
1001
GENIUS_GENOBJ-N-FIL_13
1002
{
1000
OWNER
1000
GEN
1002
}
  0
ARC
  5
DD57
  8
AM_0
 10
580.63003124324166
 20
246.3805107092102
 30
0.0
 40
111.0
 50
13.11367014329841
 51
13.15111826064787
  0
ARC
  5
DD58
  8
AM_0
 10
580.63003124324166
 20
246.3805107092102
 30
0.0
 40
111.0
 50
18.52714231446825
 51
18.566580801896752
  0
ARC
  5
DD59
  8
AM_0
 10
684.90500311936933
 20
281.40521970489982
 30
0.0
 40
1.0
 50
18.56658080190293
 51
87.999999999996405
1001
GENIUS_GENODEF_13
1002
{
1000
HIER
1070
     0
1002
}
1002
{
1000
MANEDIT
1070
     0
1002
}
1002
{
1000
NOSEL
1070
     0
1002
}
1002
{
1000
BEHIND
1070
     0
1002
}
1002
{
1000
REACTOR
1002
}
1001
GENIUS_GENOBJ-N-FIL_13
1002
{
1000
OWNER
1000
GEN
1002
}
  0
ARC
  5
DD5A
  8
AM_0
 10
684.92908702370914
 20
281.33343566983223
 30
0.0
 40
1.0
 50
272.00000000000358
 51
18.52714231446825
1001
GENIUS_GENODEF_13
1002
{
1000
HIER
1070
     0
1002
}
1002
{
1000
MANEDIT
1070
     0
1002
}
1002
{
1000
NOSEL
1070
     0
1002
}
1002
{
1000
BEHIND
1070
     0
1002
}
1002
{
1000
REACTOR
1002
}
1001
GENIUS_GENOBJ-N-FIL_13
1002
{
1000
OWNER
1000
GEN
1002
}
  0
LINE
  5
DD5B
  8
AM_0
 10
665.66373329545365
 20
303.41541020591279
 30
0.0
 11
665.91183054844953
 21
296.31083443033299
 31
0.0
  0
LINE
  5
DD5C
  8
AM_0
 10
670.63003124324155
 20
292.38051070921023
 30
0.0
 11
667.63003124324177
 21
292.38051070921023
 31
0.0
  0
POLYLINE
  5
ED1D
  8
AM_0
 66
     1
 10
0.0
 20
0.0
 30
0.0
  0
VERTEX
  5
ED1E
  8
AM_0
 10
159.4975436953265
 20
246.3805107092102
 30
0.0
 42
-0.00039106593
  0
VERTEX
  5
ED1F
  8
AM_0
 10
159.49518369532649
 20
246.69165070921019
 30
0.0
 42
-0.00040574899
  0
VERTEX
  5
ED20
  8
AM_0
 10
159.49331369532649
 20
247.00276070921021
 30
0.0
 42
-0.0003534546
  0
VERTEX
  5
ED21
  8
AM_0
 10
159.49192369532659
 20
247.31386070921019
 30
0.0
 42
-0.00034407327
  0
VERTEX
  5
ED22
  8
AM_0
 10
159.49094369532651
 20
247.62500070921021
 30
0.0
 42
-0.00045699408
  0
VERTEX
  5
ED23
  8
AM_0
 10
159.49048369532659
 20
247.9361107092102
 30
0.0
 42
-0.00035571853
  0
VERTEX
  5
ED24
  8
AM_0
 10
159.4905236953264
 20
248.24721070921021
 30
0.0
 42
-0.00038547362
  0
VERTEX
  5
ED25
  8
AM_0
 10
159.49101369532639
 20
248.55835070921009
 30
0.0
 42
-0.00035501498
  0
VERTEX
  5
ED26
  8
AM_0
 10
159.49197369532669
 20
248.8694507092101
 30
0.0
 42
-0.00040118614
  0
VERTEX
  5
ED27
  8
AM_0
 10
159.49339369532649
 20
249.18069070921021
 30
0.0
 42
-0.00038319871
  0
VERTEX
  5
ED28
  8
AM_0
 10
159.4953036953267
 20
249.4918207092102
 30
0.0
 42
-0.00040742136
  0
VERTEX
  5
ED29
  8
AM_0
 10
159.49770369532649
 20
249.8030507092102
 30
0.0
 42
-0.0003578071
  0
VERTEX
  5
ED2A
  8
AM_0
 10
159.5005936953265
 20
250.11416070921021
 30
0.0
  0
SEQEND
  5
ED2B
  8
AM_0
  0
LINE
  5
ED2C
  8
AM_0
 10
157.1375536953266
 20
193.3805107092102
 30
0.0
 11
157.1375536953266
 21
299.38051070921023
 31
0.0
  0
LINE
  5
ED2D
  8
AM_0
 10
265.13755369532657
 20
190.3805107092102
 30
0.0
 11
265.13755369532657
 21
302.38051070921023
 31
0.0
  0
LINE
  5
ED30
  8
AM_0
 10
140.6436572109516
 20
261.60234298460091
 30
0.0
 11
140.6436572109516
 21
231.1587089513977
 31
0.0
  0
LINE
  5
ED31
  8
AM_0
 10
141.6375536953266
 20
226.3805107092102
 30
0.0
 11
141.6375536953266
 21
266.38051070921023
 31
0.0
  0
LINE
  5
ED32
  8
AM_0
 10
149.13755369532649
 20
193.3805107092102
 30
0.0
 11
149.13755369532649
 21
299.38051070921023
 31
0.0
  0
LINE
  5
ED33
  8
AM_0
 10
148.13755369532649
 20
196.38051070921011
 30
0.0
 11
148.13755369532649
 21
296.38051070921023
 31
0.0
  0
LINE
  5
ED37
  8
AM_0
 10
193.57627369532671
 20
252.3805107092102
 30
0.0
 11
159.4975436953265
 21
252.3805107092102
 31
0.0
  0
LINE
  5
ED38
  8
AM_0
 10
158.40757369532651
 20
252.65053070921019
 30
0.0
 11
194.8562436953267
 21
252.65053070921019
 31
0.0
  0
LINE
  5
ED39
  8
AM_0
 10
158.46757369532639
 20
260.0605707092102
 30
0.0
 11
194.7962436953265
 21
260.0605707092102
 31
0.0
  0
LINE
  5
ED3A
  8
AM_0
 10
193.57627369532671
 20
260.38051070921023
 30
0.0
 11
159.4975436953265
 21
260.38051070921023
 31
0.0
  0
LINE
  5
ED3B
  8
AM_0
 10
193.57627369532671
 20
262.38051070921023
 30
0.0
 11
159.4975436953265
 21
262.38051070921023
 31
0.0
  0
LINE
  5
ED3C
  8
AM_0
 10
158.46757369532639
 20
262.72048070921022
 30
0.0
 11
194.8088236953264
 21
262.72048070921022
 31
0.0
  0
LINE
  5
ED3D
  8
AM_0
 10
158.40757369532651
 20
250.11049070921021
 30
0.0
 11
194.8562436953267
 21
250.11049070921021
 31
0.0
  0
LINE
  5
ED3E
  8
AM_0
 10
193.57627369532671
 20
250.3805107092102
 30
0.0
 11
159.4975436953265
 21
250.3805107092102
 31
0.0
  0
ARC
  5
ED3F
  8
AM_0
 10
178.63755369532629
 20
323.38051070921028
 30
0.0
 40
7.5000000000000018
 50
0.0
 51
180.0
  0
LINE
  5
ED40
  8
AM_0
 10
160.04380369532649
 20
305.51052070921008
 30
0.0
 11
182.47026651667821
 21
305.51052070921008
 31
0.0
  0
ARC
  5
ED41
  8
AM_0
 10
178.63755369532629
 20
323.38051070921028
 30
0.0
 40
3.999999999999996
 50
0.0
 51
180.0
  0
LINE
  5
ED42
  8
AM_0
 10
165.63755369532629
 20
315.88051070921023
 30
0.0
 11
245.6375536953264
 21
315.88051070921023
 31
0.0
  0
LINE
  5
ED43
  8
AM_0
 10
245.6375536953264
 20
312.3805107092104
 30
0.0
 11
165.63755369532629
 21
312.3805107092104
 31
0.0
  0
LINE
  5
ED44
  8
AM_0
 10
226.1375536953266
 20
272.38051070921023
 30
0.0
 11
159.4975436953265
 21
272.38051070921023
 31
0.0
  0
LINE
  5
ED45
  8
AM_0
 10
158.5975736953265
 20
272.87050070921021
 30
0.0
 11
226.1375536953266
 21
272.87050070921021
 31
0.0
  0
LINE
  5
ED46
  8
AM_0
 10
158.81754369532661
 20
283.10048070921022
 30
0.0
 11
214.1375536953266
 21
283.10048070921022
 31
0.0
  0
LINE
  5
ED47
  8
AM_0
 10
214.1375536953266
 20
280.38051070921023
 30
0.0
 11
159.4975436953265
 21
280.38051070921023
 31
0.0
  0
LINE
  5
ED48
  8
AM_0
 10
214.1375536953266
 20
282.38051070921023
 30
0.0
 11
159.4975436953265
 21
282.38051070921023
 31
0.0
  0
LINE
  5
ED49
  8
AM_0
 10
158.81754369532661
 20
279.75051070921018
 30
0.0
 11
226.15757369532651
 21
279.75051070921018
 31
0.0
  0
LINE
  5
ED4A
  8
AM_0
 10
258.4703836953264
 20
270.38051070921023
 30
0.0
 11
159.4975436953265
 21
270.38051070921023
 31
0.0
  0
LINE
  5
ED4B
  8
AM_0
 10
158.5975736953265
 20
269.94057070921019
 30
0.0
 11
262.17179369532653
 21
269.94057070921019
 31
0.0
  0
LINE
  5
ED4C
  8
AM_0
 10
160.3475736953265
 20
302.66054070921018
 30
0.0
 11
257.26756369532637
 21
302.66054070921018
 31
0.0
  0
LINE
  5
ED4D
  8
AM_0
 10
243.13755369532649
 20
335.88051070921028
 30
0.0
 11
168.13755369532629
 21
335.88051070921028
 31
0.0
  0
ARC
  5
ED4E
  8
AM_0
 10
179.63755369532629
 20
324.38051070921023
 30
0.0
 40
7.4999999999999956
 50
0.0
 51
90.000000000000057
  0
ARC
  5
ED4F
  8
AM_0
 10
177.63755369532629
 20
324.38051070921023
 30
0.0
 40
7.499999999999992
 50
90.000000000000057
 51
180.0
  0
LINE
  5
ED50
  8
AM_0
 10
167.13755369532629
 20
319.38051070921023
 30
0.0
 11
167.13755369532629
 21
334.88051070921023
 31
0.0
  0
ARC
  5
ED56
  8
AM_0
 10
168.13755369532629
 20
334.88051070921023
 30
0.0
 40
1.0
 50
90.000000000000057
 51
180.0
  0
LINE
  5
ED57
  8
AM_0
 10
162.4975436953265
 20
283.03054070921019
 30
0.0
 11
157.13761369532639
 21
294.47045070921013
 31
0.0
  0
LINE
  5
ED58
  8
AM_0
 10
143.13755369532649
 20
294.40053070921022
 30
0.0
 11
143.13755369532649
 21
251.3805107092102
 31
0.0
  0
ARC
  5
ED59
  8
AM_0
 10
147.63419369532639
 20
294.47707070921018
 30
0.0
 40
0.5033929900000002
 50
0.3849000000019101
 51
89.615089999999441
  0
ARC
  5
ED5A
  8
AM_0
 10
147.63804369532639
 20
296.63003070921019
 30
0.0
 40
0.49952301
 50
269.9452260000005
 51
0.0547699999986686
  0
LINE
  5
ED5B
  8
AM_0
 10
148.13755369532649
 20
296.38051070921023
 30
0.0
 11
149.13755369532649
 21
296.38051070921023
 31
0.0
  0
ARC
  5
ED5C
  8
AM_0
 10
147.13346369532641
 20
291.87636070921019
 30
0.0
 40
1.0041199999999999
 50
0.2346100000000095
 51
89.765389999999996
  0
ARC
  5
ED5D
  8
AM_0
 10
144.1352936953266
 20
291.21926070921018
 30
0.0
 40
0.9977070099999998
 50
117.95518999999921
 51
179.92597999999589
  0
LINE
  5
ED5E
  8
AM_0
 10
145.41758369532641
 20
294.02053070921022
 30
0.0
 11
148.13755369532649
 21
294.02053070921022
 31
0.0
  0
LINE
  5
ED5F
  8
AM_0
 10
145.38755369532649
 20
292.88051070921023
 30
0.0
 11
147.13755369532649
 21
292.88051070921023
 31
0.0
  0
LINE
  5
ED60
  8
AM_0
 10
145.37754369532661
 20
294.9804907092103
 30
0.0
 11
147.6375536953266
 21
294.9804907092103
 31
0.0
  0
LINE
  5
ED61
  8
AM_0
 10
145.13755369532649
 20
293.78054070921019
 30
0.0
 11
145.13755369532649
 21
293.2304907092103
 31
0.0
  0
ARC
  5
ED62
  8
AM_0
 10
145.38340369532631
 20
293.98122070921022
 30
0.0
 40
0.9993420200000001
 50
90.334539999995144
 51
117.1379999999976
  0
ARC
  5
ED63
  8
AM_0
 10
145.40897369532661
 20
293.01687070921008
 30
0.0
 40
1.003743999999998
 50
89.508099999999402
 51
120.62887000000531
  0
ARC
  5
ED64
  8
AM_0
 10
145.3927436953264
 20
291.87990070921012
 30
0.0
 40
1.0006820000000001
 50
90.296070000004406
 51
118.34937999999811
  0
LINE
  5
ED65
  8
AM_0
 10
145.40757369532651
 20
296.13051070921023
 30
0.0
 11
147.6375536953266
 21
296.13051070921023
 31
0.0
  0
ARC
  5
ED66
  8
AM_0
 10
145.41825369532631
 20
295.12942070921019
 30
0.0
 40
1.001123999999999
 50
90.612319999998036
 51
120.6721799999986
  0
LINE
  5
ED67
  8
AM_0
 10
145.13755369532649
 20
295.88051070921023
 30
0.0
 11
145.13755369532649
 21
295.35048070921022
 31
0.0
  0
ARC
  5
ED68
  8
AM_0
 10
144.13517369532661
 20
294.3959007092102
 30
0.0
 40
0.9976310099999999
 50
119.9207600000051
 51
179.7321900000014
  0
ARC
  5
ED69
  8
AM_0
 10
144.13328369532661
 20
293.35012070921022
 30
0.0
 40
0.9956849800000001
 50
116.5908599999994
 51
179.97886999999989
  0
LINE
  5
ED6A
  8
AM_0
 10
144.89762369532639
 20
293.88051070921023
 30
0.0
 11
143.61759369532649
 21
293.11049070921018
 31
0.0
  0
LINE
  5
ED6B
  8
AM_0
 10
144.92753369532659
 20
294.87053070921019
 30
0.0
 11
143.6875436953265
 21
294.24053070921019
 31
0.0
  0
LINE
  5
ED6C
  8
AM_0
 10
144.90757369532651
 20
295.99050070921021
 30
0.0
 11
143.63761369532639
 21
295.26052070921008
 31
0.0
  0
ARC
  5
ED6D
  8
AM_0
 10
144.1363336953265
 20
292.25698070921021
 30
0.0
 40
0.9987969999999998
 50
121.2920500000026
 51
180.37271999999899
  0
LINE
  5
ED6E
  8
AM_0
 10
144.9175836953265
 20
292.76052070921008
 30
0.0
 11
143.6675836953265
 21
292.10052070921017
 31
0.0
  0
LINE
  5
ED6F
  8
AM_0
 10
170.13755369532629
 20
320.38051070921023
 30
0.0
 11
170.13755369532629
 21
324.38051070921023
 31
0.0
  0
LINE
  5
ED70
  8
AM_0
 10
171.13755369532629
 20
315.88051070921023
 30
0.0
 11
171.13755369532629
 21
323.38051070921028
 31
0.0
  0
LINE
  5
ED71
  8
AM_0
 10
165.63755369532629
 20
312.3805107092104
 30
0.0
 11
165.63755369532629
 21
331.88051070921023
 31
0.0
  0
LINE
  5
ED72
  8
AM_0
 10
174.63755369532629
 20
315.88051070921023
 30
0.0
 11
174.63755369532629
 21
323.38051070921028
 31
0.0
  0
LINE
  5
ED73
  8
AM_0
 10
165.63755369532629
 20
331.88051070921023
 30
0.0
 11
167.13755369532629
 21
331.88051070921023
 31
0.0
  0
LINE
  5
ED74
  8
AM_0
 10
179.63755369532629
 20
331.88051070921023
 30
0.0
 11
177.63755369532629
 21
331.88051070921023
 31
0.0
  0
ARC
  5
ED75
  8
AM_0
 10
169.13755369532629
 20
320.38051070921023
 30
0.0
 40
1.0
 50
270.0
 51
0.0
  0
LINE
  5
ED76
  8
AM_0
 10
165.63755369532629
 20
319.38051070921023
 30
0.0
 11
169.13755369532629
 21
319.38051070921023
 31
0.0
  0
LINE
  5
ED77
  8
AM_0
 10
157.1375536953266
 20
297.16045070921018
 30
0.0
 11
158.14683369532651
 21
303.8106307092101
 31
0.0
  0
LINE
  5
ED78
  8
AM_0
 10
157.13761369532639
 20
297.16048070921022
 30
0.0
 11
158.0630336953264
 21
303.78707070921018
 31
0.0
  0
LINE
  5
ED79
  8
AM_0
 10
157.1375536953266
 20
294.4705407092103
 30
0.0
 11
158.3776036953264
 21
301.03054070921019
 31
0.0
  0
LINE
  5
ED7A
  8
AM_0
 10
157.1375536953266
 20
295.82055070921012
 30
0.0
 11
158.4175836953265
 21
303.82046070921012
 31
0.0
  0
ARC
  5
ED7B
  8
AM_0
 10
160.3424536953265
 20
300.66128070921019
 30
0.0
 40
1.9992490000000001
 50
89.852569999998664
 51
169.35689999999889
  0
ARC
  5
ED7C
  8
AM_0
 10
160.3937836953265
 20
303.51015070921022
 30
0.0
 40
2.000420099999999
 50
90.17729000000395
 51
171.0731799999981
  0
ARC
  5
ED7D
  8
AM_0
 10
160.12418369532639
 20
303.51052070921008
 30
0.0
 40
2.0
 50
90.000010000001026
 51
171.37038000000189
  0
ARC
  5
ED7E
  8
AM_0
 10
160.04380369532649
 20
303.51052070921008
 30
0.0
 40
2.0
 50
90.000010000001026
 51
172.04955999999649
  0
LINE
  5
ED7F
  8
AM_0
 10
149.13755369532649
 20
299.38051070921023
 30
0.0
 11
157.1375536953266
 21
299.38051070921023
 31
0.0
  0
ARC
  5
ED80
  8
AM_0
 10
147.13261369532651
 20
249.37563070921021
 30
0.0
 40
1.004942999999999
 50
0.2811300000018184
 51
89.718860000000589
  0
ARC
  5
ED81
  8
AM_0
 10
147.13261369532651
 20
259.37563070921021
 30
0.0
 40
1.004939
 50
0.2809299999990431
 51
89.719059999997029
  0
ARC
  5
ED82
  8
AM_0
 10
147.13773369532649
 20
263.3803907092103
 30
0.0
 40
0.9998210099999999
 50
269.98971800000169
 51
0.0102800000019857
  0
ARC
  5
ED83
  8
AM_0
 10
147.13773369532649
 20
253.3803907092103
 30
0.0
 40
0.9998279799999998
 50
269.99016199999983
 51
0.0098400000030448
  0
ARC
  5
ED84
  8
AM_0
 10
147.13261369532651
 20
269.37563070921021
 30
0.0
 40
1.0049469
 50
0.2813699999993069
 51
89.718630000000701
  0
ARC
  5
ED85
  8
AM_0
 10
147.13773369532649
 20
273.38039070921019
 30
0.0
 40
0.9998239899999999
 50
269.98992299999958
 51
0.0100800000047571
  0
ARC
  5
ED86
  8
AM_0
 10
147.4380936953265
 20
282.76992070921023
 30
0.0
 40
0.6994530000000001
 50
269.95517100000251
 51
0.0448299999992627
  0
ARC
  5
ED87
  8
AM_0
 10
147.13419369532639
 20
279.11721070921021
 30
0.0
 40
1.003352
 50
0.1910999999989065
 51
89.808890000003132
  0
ARC
  5
ED88
  8
AM_0
 10
147.13432369532649
 20
287.35378070921018
 30
0.0
 40
1.0032760000000001
 50
0.3818899999953011
 51
25.801899999995239
  0
ARC
  5
ED89
  8
AM_0
 10
147.13511369532631
 20
287.3580507092102
 30
0.0
 40
1.002470999999999
 50
0.1410700000001141
 51
89.858929999999901
  0
ARC
  5
ED8A
  8
AM_0
 10
144.13395369532651
 20
278.76613070921019
 30
0.0
 40
0.99638802
 50
106.70335999999961
 51
179.75009000000111
  0
LINE
  5
ED8B
  8
AM_0
 10
145.2875836953263
 20
280.12050070921021
 30
0.0
 11
147.13755369532649
 21
280.12050070921021
 31
0.0
  0
ARC
  5
ED8C
  8
AM_0
 10
145.2781236953266
 20
279.11782070921021
 30
0.0
 40
1.002699
 50
89.459359999998938
 51
106.247279999998
  0
LINE
  5
ED8D
  8
AM_0
 10
145.33756369532659
 20
282.07046070921012
 30
0.0
 11
147.4375436953265
 21
282.07046070921012
 31
0.0
  0
ARC
  5
ED8E
  8
AM_0
 10
145.34055369532649
 20
281.06533070921017
 30
0.0
 40
1.005233
 50
90.170750000000567
 51
113.0136100000026
  0
LINE
  5
ED8F
  8
AM_0
 10
145.13755369532649
 20
281.77053070921022
 30
0.0
 11
145.13755369532649
 21
280.7104707092102
 31
0.0
  0
ARC
  5
ED90
  8
AM_0
 10
144.13407369532669
 20
280.55202070921018
 30
0.0
 40
0.9965090199999998
 50
112.8215500000051
 51
180.08625000000339
  0
LINE
  5
ED91
  8
AM_0
 10
144.9975436953265
 20
280.08053070921011
 30
0.0
 11
143.8475736953265
 21
279.7205107092102
 31
0.0
  0
LINE
  5
ED92
  8
AM_0
 10
144.94761369532631
 20
281.99047070921017
 30
0.0
 11
143.74760369532649
 21
281.47045070921018
 31
0.0
  0
LINE
  5
ED93
  8
AM_0
 10
145.4376036953264
 20
289.50051070921029
 30
0.0
 11
148.13755369532649
 21
289.50051070921029
 31
0.0
  0
LINE
  5
ED94
  8
AM_0
 10
145.40757369532651
 20
288.36049070921018
 30
0.0
 11
147.13755369532649
 21
288.36049070921018
 31
0.0
  0
LINE
  5
ED95
  8
AM_0
 10
145.13755369532649
 20
289.2104707092102
 30
0.0
 11
145.13755369532649
 21
288.74050070921021
 31
0.0
  0
ARC
  5
ED96
  8
AM_0
 10
145.4009236953267
 20
287.35952070921019
 30
0.0
 40
1.001044999999998
 50
89.620290000000495
 51
119.52813000000501
  0
ARC
  5
ED97
  8
AM_0
 10
145.43034369532651
 20
288.5000207092101
 30
0.0
 40
1.000521999999999
 50
89.586559999996396
 51
122.8538199999977
  0
ARC
  5
ED98
  8
AM_0
 10
144.1360336953264
 20
286.62124070921021
 30
0.0
 40
0.9984580299999999
 50
120.6134300000067
 51
180.04042000000149
  0
ARC
  5
ED99
  8
AM_0
 10
144.1360336953264
 20
286.62124070921021
 30
0.0
 40
0.9984580299999999
 50
120.6134300000067
 51
180.04042000000149
  0
LINE
  5
ED9A
  8
AM_0
 10
143.62754369532661
 20
287.48052070921011
 30
0.0
 11
143.60752369532659
 21
287.47054070921018
 31
0.0
  0
ARC
  5
ED9B
  8
AM_0
 10
144.1366436953266
 20
287.65578070921009
 30
0.0
 40
0.9990889999999998
 50
123.33790999999709
 51
180.3049100000035
  0
LINE
  5
ED9C
  8
AM_0
 10
144.90757369532651
 20
288.23046070921021
 30
0.0
 11
143.6276036953264
 21
287.48049070921019
 31
0.0
  0
LINE
  5
ED9D
  8
AM_0
 10
144.8874936953267
 20
289.3405407092103
 30
0.0
 11
143.58750369532649
 21
288.4905307092103
 31
0.0
  0
LINE
  5
ED9E
  8
AM_0
 10
145.13755369532649
 20
272.01052070921008
 30
0.0
 11
145.13755369532649
 21
270.64052070921008
 31
0.0
  0
ARC
  5
ED9F
  8
AM_0
 10
144.13267369532659
 20
271.37563070921021
 30
0.0
 40
0.9950849999999999
 50
179.71628000000069
 51
270.2837169999973
  0
ARC
  5
EDA0
  8
AM_0
 10
144.1378036953266
 20
271.38027070921021
 30
0.0
 40
1.0001959999999981
 50
90.011249999999436
 51
179.98875000000049
  0
LINE
  5
EDA1
  8
AM_0
 10
147.13755369532649
 20
272.38051070921023
 30
0.0
 11
144.1375536953264
 21
272.38051070921023
 31
0.0
  0
LINE
  5
EDA2
  8
AM_0
 10
147.13755369532649
 20
270.38051070921023
 30
0.0
 11
144.1375536953264
 21
270.38051070921023
 31
0.0
  0
LINE
  5
EDA3
  8
AM_0
 10
147.13755369532649
 20
260.38051070921023
 30
0.0
 11
144.1375536953264
 21
260.38051070921023
 31
0.0
  0
LINE
  5
EDA4
  8
AM_0
 10
145.13755369532649
 20
261.99050070921021
 30
0.0
 11
145.13755369532649
 21
260.77053070921022
 31
0.0
  0
LINE
  5
EDA5
  8
AM_0
 10
141.6375536953266
 20
261.53054070921019
 30
0.0
 11
143.13755369532649
 21
261.53054070921019
 31
0.0
  0
ARC
  5
EDA6
  8
AM_0
 10
144.1378036953266
 20
261.38027070921021
 30
0.0
 40
1.000199999999998
 50
90.011459999998664
 51
179.98854000000131
  0
LINE
  5
EDA7
  8
AM_0
 10
141.14365721095149
 20
264.37233199827273
 30
0.0
 11
141.64368772852961
 21
264.33232345335091
 31
0.0
  0
LINE
  5
EDA8
  8
AM_0
 10
141.6375536953266
 20
263.66054070921018
 30
0.0
 11
143.13755369532649
 21
263.66054070921018
 31
0.0
  0
LINE
  5
EDA9
  8
AM_0
 10
141.6375536953266
 20
266.38054070921021
 30
0.0
 11
143.13755369532649
 21
266.51055070921018
 31
0.0
  0
LINE
  5
EDAA
  8
AM_0
 10
140.6436877285297
 20
261.60234298460091
 30
0.0
 11
141.14368772852961
 21
264.37233199827273
 31
0.0
  0
LINE
  5
EDAB
  8
AM_0
 10
147.13755369532649
 20
262.38051070921023
 30
0.0
 11
144.1375536953264
 21
262.38051070921023
 31
0.0
  0
ARC
  5
EDAC
  8
AM_0
 10
144.13267369532659
 20
261.37563070921021
 30
0.0
 40
0.9950810099999999
 50
179.71607999999549
 51
270.28392800000307
  0
LINE
  5
EDAD
  8
AM_0
 10
145.13755369532649
 20
251.99050070921021
 30
0.0
 11
145.13755369532649
 21
250.8304707092102
 31
0.0
  0
ARC
  5
EDAE
  8
AM_0
 10
144.1378036953266
 20
251.38027070921021
 30
0.0
 40
1.0002040000000001
 50
90.011679999999274
 51
179.98834000000321
  0
ARC
  5
EDAF
  8
AM_0
 10
144.13267369532659
 20
251.37563070921021
 30
0.0
 40
0.9950770099999999
 50
179.71585999999951
 51
270.28414000000049
  0
LINE
  5
EDB0
  8
AM_0
 10
147.13755369532649
 20
252.3805107092102
 30
0.0
 11
144.1375536953264
 21
252.3805107092102
 31
0.0
  0
LINE
  5
EDB1
  8
AM_0
 10
147.13755369532649
 20
250.3805107092102
 30
0.0
 11
144.1375536953264
 21
250.3805107092102
 31
0.0
  0
POLYLINE
  5
EDB2
  8
AM_0
 66
     1
 10
0.0
 20
0.0
 30
0.0
  0
VERTEX
  5
EDB3
  8
AM_0
 10
160.01579369532661
 20
262.72109070921022
 30
0.0
 42
-0.00073721992
  0
VERTEX
  5
EDB4
  8
AM_0
 10
160.0599436953265
 20
263.32350070921018
 30
0.0
 42
-0.00074398496
  0
VERTEX
  5
EDB5
  8
AM_0
 10
160.10587369532649
 20
263.9257707092101
 30
0.0
 42
-0.00073322625
  0
VERTEX
  5
EDB6
  8
AM_0
 10
160.1536036953265
 20
264.52810070921021
 30
0.0
 42
-0.00073594289
  0
VERTEX
  5
EDB7
  8
AM_0
 10
160.2030836953264
 20
265.13009070921021
 30
0.0
 42
-0.00074742568
  0
VERTEX
  5
EDB8
  8
AM_0
 10
160.25435369532661
 20
265.7319507092102
 30
0.0
 42
-0.00073216749
  0
VERTEX
  5
EDB9
  8
AM_0
 10
160.30741369532649
 20
266.3337607092102
 30
0.0
 42
-0.00074184065
  0
VERTEX
  5
EDBA
  8
AM_0
 10
160.36223369532641
 20
266.93529070921022
 30
0.0
 42
-0.00072077528
  0
VERTEX
  5
EDBB
  8
AM_0
 10
160.41881369532649
 20
267.53652070921021
 30
0.0
 42
-0.00074978179
  0
VERTEX
  5
EDBC
  8
AM_0
 10
160.47715369532631
 20
268.13772070921021
 30
0.0
 42
-0.00074288888
  0
VERTEX
  5
EDBD
  8
AM_0
 10
160.53730369532661
 20
268.73874070921022
 30
0.0
 42
-0.00072503679
  0
VERTEX
  5
EDBE
  8
AM_0
 10
160.59921369532651
 20
269.33948070921019
 30
0.0
 42
-0.00074640584
  0
VERTEX
  5
EDBF
  8
AM_0
 10
160.66288369532651
 20
269.94008070921018
 30
0.0
  0
SEQEND
  5
EDC0
  8
AM_0
  0
POLYLINE
  5
EDC1
  8
AM_0
 66
     1
 10
0.0
 20
0.0
 30
0.0
  0
VERTEX
  5
EDC2
  8
AM_0
 10
160.9984536953267
 20
272.86355070921007
 30
0.0
 42
-0.0006890001
  0
VERTEX
  5
EDC3
  8
AM_0
 10
161.06933369532641
 20
273.43830070921013
 30
0.0
 42
-0.00070644651
  0
VERTEX
  5
EDC4
  8
AM_0
 10
161.14183369532671
 20
274.01298070921018
 30
0.0
 42
-0.0006924559
  0
VERTEX
  5
EDC5
  8
AM_0
 10
161.2159236953265
 20
274.58730070921013
 30
0.0
 42
-0.00069587797
  0
VERTEX
  5
EDC6
  8
AM_0
 10
161.29160369532659
 20
275.16144070921018
 30
0.0
 42
-0.00071687041
  0
VERTEX
  5
EDC7
  8
AM_0
 10
161.36891369532631
 20
275.7354407092102
 30
0.0
 42
-0.00069759113
  0
VERTEX
  5
EDC8
  8
AM_0
 10
161.44785369532659
 20
276.30923070921023
 30
0.0
 42
-0.00071003142
  0
VERTEX
  5
EDC9
  8
AM_0
 10
161.5283936953266
 20
276.88270070921021
 30
0.0
 42
-0.00069954544
  0
VERTEX
  5
EDCA
  8
AM_0
 10
161.61053369532661
 20
277.45580070921022
 30
0.0
 42
-0.0007188852
  0
VERTEX
  5
EDCB
  8
AM_0
 10
161.69431369532651
 20
278.02883070921018
 30
0.0
 42
-0.00071266165
  0
VERTEX
  5
EDCC
  8
AM_0
 10
161.7797436953266
 20
278.6015907092102
 30
0.0
 42
-0.00071614577
  0
VERTEX
  5
EDCD
  8
AM_0
 10
161.86677369532649
 20
279.17394070921023
 30
0.0
 42
-0.00072290806
  0
VERTEX
  5
EDCE
  8
AM_0
 10
161.95548369532651
 20
279.74624070921021
 30
0.0
  0
SEQEND
  5
EDCF
  8
AM_0
  0
LINE
  5
EDD0
  8
AM_0
 10
149.83756369532659
 20
289.57046070921012
 30
0.0
 11
156.06754369532661
 21
289.57046070921012
 31
0.0
  0
ARC
  5
EDD1
  8
AM_0
 10
159.6821736953267
 20
281.38051070921023
 30
0.0
 40
1.0000138999999999
 50
89.691659999999274
 51
270.30834000000073
  0
ARC
  5
EDD2
  8
AM_0
 10
158.8107136953264
 20
281.42556070921017
 30
0.0
 40
1.675014
 50
89.766490000000573
 51
270.23350100000317
  0
ARC
  5
EDD3
  8
AM_0
 10
159.6821736953267
 20
271.38051070921023
 30
0.0
 40
1.0000138999999999
 50
89.691659999999274
 51
270.30834000000073
  0
ARC
  5
EDD4
  8
AM_0
 10
158.5975736953265
 20
271.40554070921019
 30
0.0
 40
1.465004
 50
90.000000000000057
 51
269.99999700000228
  0
POLYLINE
  5
EDD5
  8
AM_0
 66
     1
 10
0.0
 20
0.0
 30
0.0
  0
VERTEX
  5
EDD6
  8
AM_0
 10
159.5416036953267
 20
252.65090070921019
 30
0.0
 42
-0.00076695232
  0
VERTEX
  5
EDD7
  8
AM_0
 10
159.55640369532659
 20
253.2686607092102
 30
0.0
 42
-0.00073263044
  0
VERTEX
  5
EDD8
  8
AM_0
 10
159.57304369532639
 20
253.88626070921021
 30
0.0
 42
-0.0007652599
  0
VERTEX
  5
EDD9
  8
AM_0
 10
159.59153369532629
 20
254.50393070921021
 30
0.0
 42
-0.00075144485
  0
VERTEX
  5
EDDA
  8
AM_0
 10
159.6119036953265
 20
255.12153070921019
 30
0.0
 42
-0.00078594403
  0
VERTEX
  5
EDDB
  8
AM_0
 10
159.63415369532649
 20
255.73896070921009
 30
0.0
 42
-0.00073349202
  0
VERTEX
  5
EDDC
  8
AM_0
 10
159.65830369532651
 20
256.3563407092102
 30
0.0
 42
-0.0007358075
  0
VERTEX
  5
EDDD
  8
AM_0
 10
159.6842436953267
 20
256.97374070921018
 30
0.0
 42
-0.00078592699
  0
VERTEX
  5
EDDE
  8
AM_0
 10
159.71207369532669
 20
257.59113070921018
 30
0.0
 42
-0.00074823144
  0
VERTEX
  5
EDDF
  8
AM_0
 10
159.74180369532641
 20
258.20852070921018
 30
0.0
 42
-0.00074896603
  0
VERTEX
  5
EDE0
  8
AM_0
 10
159.77336369532631
 20
258.82565070921021
 30
0.0
 42
-0.00076039765
  0
VERTEX
  5
EDE1
  8
AM_0
 10
159.80678369532649
 20
259.44268070921021
 30
0.0
 42
-0.00075616128
  0
VERTEX
  5
EDE2
  8
AM_0
 10
159.84208369532649
 20
260.05971070921021
 30
0.0
  0
SEQEND
  5
EDE3
  8
AM_0
  0
ARC
  5
EDE4
  8
AM_0
 10
158.46757369532639
 20
261.39052070921019
 30
0.0
 40
1.3300049999999981
 50
90.000000000000057
 51
269.99999700000228
  0
ARC
  5
EDE5
  8
AM_0
 10
159.6821736953267
 20
261.38051070921023
 30
0.0
 40
1.0000138999999999
 50
89.691659999999274
 51
270.30834000000073
  0
ARC
  5
EDE6
  8
AM_0
 10
159.6821736953267
 20
251.3805107092102
 30
0.0
 40
1.0000138999999999
 50
89.691659999999274
 51
270.30834000000073
  0
ARC
  5
EDE7
  8
AM_0
 10
158.40171369532649
 20
251.3805107092102
 30
0.0
 40
1.2700129999999981
 50
89.736630000000915
 51
270.26338300000492
  0
LINE
  5
EDEB
  8
AM_0
 10
244.13755369532629
 20
319.38051070921023
 30
0.0
 11
244.13755369532629
 21
334.88051070921023
 31
0.0
  0
LINE
  5
EDEC
  8
AM_0
 10
231.94155369532641
 20
338.88051070921023
 30
0.0
 11
196.33355369532649
 21
338.88051070921023
 31
0.0
  0
LINE
  5
EDED
  8
AM_0
 10
196.33355369532649
 20
338.88051070921023
 30
0.0
 11
191.14477818512341
 21
335.88051070921028
 31
0.0
  0
LINE
  5
EDEE
  8
AM_0
 10
237.1375536953264
 20
335.88051070921028
 30
0.0
 11
231.94155369532641
 21
338.88051070921023
 31
0.0
  0
ARC
  5
EDEF
  8
AM_0
 10
243.13755369532649
 20
334.8805107092104
 30
0.0
 40
1.0
 50
0.0
 51
90.000000000000057
  0
LINE
  5
EDF0
  8
AM_0
 10
261.95756369532648
 20
279.75051070921018
 30
0.0
 11
244.11759369532649
 21
279.75051070921018
 31
0.0
  0
LINE
  5
EDF1
  8
AM_0
 10
244.1375536953266
 20
272.8604907092103
 30
0.0
 11
262.17179369532653
 21
272.8604907092103
 31
0.0
  0
LINE
  5
EDF2
  8
AM_0
 10
258.4703836953264
 20
272.38051070921023
 30
0.0
 11
244.1375536953266
 21
272.38051070921023
 31
0.0
  0
LINE
  5
EDF3
  8
AM_0
 10
258.47758369532642
 20
280.38051070921023
 30
0.0
 11
214.1375536953266
 21
280.38051070921023
 31
0.0
  0
LINE
  5
EDF4
  8
AM_0
 10
258.47758369532642
 20
282.38051070921023
 30
0.0
 11
214.1375536953266
 21
282.38051070921023
 31
0.0
  0
LINE
  5
EDF5
  8
AM_0
 10
214.1375536953266
 20
283.10048070921022
 30
0.0
 11
261.95756369532648
 21
283.10048070921022
 31
0.0
  0
LINE
  5
EDF6
  8
AM_0
 10
245.71665250326271
 20
308.88051070921023
 30
0.0
 11
257.1537936953265
 21
308.88051070921023
 31
0.0
  0
LINE
  5
EDF7
  8
AM_0
 10
245.6375536953264
 20
319.38051070921023
 30
0.0
 11
188.13755369532629
 21
319.38051070921023
 31
0.0
  0
LINE
  5
EDF8
  8
AM_0
 10
184.11137262122261
 20
312.38051070921023
 30
0.0
 11
183.8568933663631
 21
302.6605407092103
 31
0.0
  0
LINE
  5
EDF9
  8
AM_0
 10
187.13755369532629
 20
324.38051070921023
 30
0.0
 11
187.13755369532629
 21
320.38051070921023
 31
0.0
  0
LINE
  5
EDFA
  8
AM_0
 10
182.63755369532629
 20
315.88051070921023
 30
0.0
 11
182.63755369532629
 21
323.38051070921028
 31
0.0
  0
LINE
  5
EDFB
  8
AM_0
 10
186.13755369532629
 20
323.38051070921028
 30
0.0
 11
186.13755369532629
 21
315.88051070921023
 31
0.0
  0
ARC
  5
EDFC
  8
AM_0
 10
188.13755369532629
 20
320.38051070921023
 30
0.0
 40
1.0
 50
180.0
 51
270.0
  0
ARC
  5
EDFD
  8
AM_0
 10
182.47026651667821
 20
307.01052070921008
 30
0.0
 40
1.5
 50
270.0
 51
358.5002775490122
1001
GENIUS_GENODEF_13
1002
{
1000
HIER
1070
     0
1002
}
1002
{
1000
MANEDIT
1070
     0
1002
}
1002
{
1000
NOSEL
1070
     0
1002
}
1002
{
1000
BEHIND
1070
     0
1002
}
1002
{
1000
REACTOR
1002
}
1001
GENIUS_GENOBJ-N-FIL_13
1002
{
1000
OWNER
1000
GEN
1002
}
  0
LINE
  5
EDFE
  8
AM_0
 10
244.1637691090142
 20
312.3805107092104
 30
0.0
 11
244.418282909082
 21
302.66054070921018
 31
0.0
  0
LINE
  5
EDFF
  8
AM_0
 10
245.6375536953264
 20
312.3805107092104
 30
0.0
 11
245.6375536953264
 21
319.38051070921023
 31
0.0
  0
ARC
  5
EE00
  8
AM_0
 10
245.71665250326271
 20
310.38051070921023
 30
0.0
 40
1.5
 50
181.49992594324999
 51
270.0
1001
GENIUS_GENODEF_13
1002
{
1000
HIER
1070
     0
1002
}
1002
{
1000
MANEDIT
1070
     0
1002
}
1002
{
1000
NOSEL
1070
     0
1002
}
1002
{
1000
BEHIND
1070
     0
1002
}
1002
{
1000
REACTOR
1002
}
1001
GENIUS_GENOBJ-N-FIL_13
1002
{
1000
OWNER
1000
GEN
1002
}
  0
ARC
  5
EE01
  8
AM_0
 10
194.80253369532659
 20
261.39052070921019
 30
0.0
 40
1.3300148000000001
 50
269.72943299999901
 51
90.270580000001374
  0
ARC
  5
EE02
  8
AM_0
 10
193.57627369532671
 20
261.38051070921023
 30
0.0
 40
1.000005699999998
 50
269.99999700000228
 51
90.000010000001026
  0
ARC
  5
EE03
  8
AM_0
 10
194.86448369532641
 20
251.3805107092102
 30
0.0
 40
1.2700266
 50
269.6293300000018
 51
90.370680000000064
  0
ARC
  5
EE04
  8
AM_0
 10
193.57627369532671
 20
251.3805107092102
 30
0.0
 40
1.000005699999998
 50
269.99999700000228
 51
90.000010000001026
  0
CIRCLE
  5
EE05
  8
AM_0
 10
232.6375536953266
 20
274.88051070921023
 30
0.0
 40
1.149999999999999
  0
ARC
  5
EE06
  8
AM_0
 10
226.1375536953266
 20
278.88051070921023
 30
0.0
 40
1.5
 50
359.99999931675052
 51
90.000010000001026
  0
ARC
  5
EE07
  8
AM_0
 10
226.15757369532651
 20
278.74050070921021
 30
0.0
 40
1.0
 50
359.99999931675052
 51
90.000010000001026
  0
ARC
  5
EE08
  8
AM_0
 10
226.1375536953266
 20
273.88051070921023
 30
0.0
 40
1.02
 50
269.99999700000228
 51
0.0
  0
ARC
  5
EE09
  8
AM_0
 10
226.1375536953266
 20
273.88051070921023
 30
0.0
 40
1.5
 50
269.99999700000228
 51
0.0
  0
LINE
  5
EE0A
  8
AM_0
 10
227.15757369532651
 20
273.88051070921023
 30
0.0
 11
227.15757369532651
 21
278.74050070921021
 31
0.0
  0
LINE
  5
EE0B
  8
AM_0
 10
227.6375536953266
 20
273.88051070921023
 30
0.0
 11
227.6375536953266
 21
278.88051070921023
 31
0.0
  0
ARC
  5
EE0C
  8
AM_0
 10
244.1375536953266
 20
278.88051070921023
 30
0.0
 40
1.5
 50
90.000000000000057
 51
180.00001000000091
  0
ARC
  5
EE0D
  8
AM_0
 10
244.11759369532649
 20
278.74050070921021
 30
0.0
 40
1.0
 50
90.000000000000057
 51
180.00001000000091
  0
CIRCLE
  5
EE0E
  8
AM_0
 10
237.6375536953266
 20
274.88051070921023
 30
0.0
 40
1.0
  0
CIRCLE
  5
EE0F
  8
AM_0
 10
232.6375536953266
 20
274.88051070921023
 30
0.0
 40
1.1000000000000001
  0
ARC
  5
EE10
  8
AM_0
 10
244.1375536953266
 20
273.88051070921023
 30
0.0
 40
1.02
 50
179.999989999999
 51
269.99999700000228
  0
ARC
  5
EE11
  8
AM_0
 10
244.1375536953266
 20
273.88051070921023
 30
0.0
 40
1.5
 50
179.999989999999
 51
269.99999700000228
  0
LINE
  5
EE12
  8
AM_0
 10
243.11759369532649
 20
273.88051070921023
 30
0.0
 11
243.11759369532649
 21
278.74050070921021
 31
0.0
  0
LINE
  5
EE13
  8
AM_0
 10
242.6375536953266
 20
273.88051070921023
 30
0.0
 11
242.6375536953266
 21
278.88051070921023
 31
0.0
  0
ARC
  5
EE17
  8
AM_0
 10
263.23755369532682
 20
289.68050070921038
 30
0.0
 40
1.7000007999999991
 50
90.000020000002039
 51
179.999989999999
  0
LINE
  5
EE18
  8
AM_0
 10
264.13755369532657
 20
284.08049070921021
 30
0.0
 11
264.13755369532657
 21
291.68050070921021
 31
0.0
  0
LINE
  5
EE19
  8
AM_0
 10
265.13755369532657
 20
284.08049070921021
 30
0.0
 11
265.13755369532657
 21
291.68050070921021
 31
0.0
  0
LINE
  5
EE1A
  8
AM_0
 10
265.13755369532657
 20
292.38051070921023
 30
0.0
 11
273.13755369532657
 21
292.38051070921023
 31
0.0
  0
LINE
  5
EE1C
  8
AM_0
 10
264.13755369532657
 20
291.68050070921021
 30
0.0
 11
265.13755369532657
 21
291.68050070921021
 31
0.0
  0
LINE
  5
EE1D
  8
AM_0
 10
259.67960369532659
 20
299.38051070921023
 30
0.0
 11
265.13755369532657
 21
299.38051070921023
 31
0.0
  0
LINE
  5
EE1E
  8
AM_0
 10
264.13755369532657
 20
299.38051070921023
 30
0.0
 11
258.41181369532649
 21
308.1974107092102
 31
0.0
  0
LINE
  5
EE1F
  8
AM_0
 10
261.97292137487563
 20
290.81659393340931
 30
0.0
 11
259.19755369532652
 21
301.18050070921009
 31
0.0
  0
ARC
  5
EE20
  8
AM_0
 10
257.1537936953265
 20
307.38051070921023
 30
0.0
 40
1.5
 50
33.00000000000113
 51
90.000010000001026
  0
ARC
  5
EE21
  8
AM_0
 10
257.26273369532657
 20
300.65578070921009
 30
0.0
 40
2.0047290000000002
 50
15.1734999999981
 51
89.861679999995786
  0
LINE
  5
EE22
  8
AM_0
 10
264.13755369532657
 20
291.38051070921023
 30
0.0
 11
263.23755369532682
 21
291.38051070921023
 31
0.0
  0
LINE
  5
EE23
  8
AM_0
 10
265.13755369532657
 20
302.38051070921023
 30
0.0
 11
273.13755369532657
 21
302.38051070921023
 31
0.0
  0
LINE
  5
EE28
  8
AM_0
 10
265.13755369532657
 20
278.32045070921021
 30
0.0
 11
273.13755369532657
 21
278.32045070921021
 31
0.0
  0
LINE
  5
EE29
  8
AM_0
 10
264.13755369532657
 20
284.08049070921021
 30
0.0
 11
265.13755369532657
 21
284.08049070921021
 31
0.0
  0
LINE
  5
EE2A
  8
AM_0
 10
265.13755369532657
 20
287.10314070921021
 30
0.0
 11
264.13755369532657
 21
287.68050070921021
 31
0.0
  0
LINE
  5
EE2B
  8
AM_0
 10
265.13755369532657
 20
288.10314070921021
 30
0.0
 11
264.13755369532657
 21
288.68050070921032
 31
0.0
  0
ARC
  5
EE2C
  8
AM_0
 10
261.95756369532648
 20
281.42556070921017
 30
0.0
 40
1.6750020000000001
 50
269.99999700000228
 51
90.000010000001026
  0
LINE
  5
EE2D
  8
AM_0
 10
264.13755369532657
 20
284.38051070921011
 30
0.0
 11
263.23755369532682
 21
284.38051070921011
 31
0.0
  0
ARC
  5
EE2E
  8
AM_0
 10
258.47758369532642
 20
281.38051070921023
 30
0.0
 40
1.0
 50
269.99999700000228
 51
90.000010000001026
  0
LINE
  5
EE2F
  8
AM_0
 10
261.53757369532661
 20
286.08049070921032
 30
0.0
 11
261.53757369532661
 21
289.68050070921038
 31
0.0
  0
ARC
  5
EE30
  8
AM_0
 10
263.23755369532682
 20
286.08049070921032
 30
0.0
 40
1.699996899999999
 50
180.00001999999549
 51
269.99999700000228
  0
ARC
  5
EE31
  8
AM_0
 10
262.17753369532659
 20
271.41054070921018
 30
0.0
 40
1.460011199999999
 50
269.77524999999667
 51
90.224750000003354
  0
ARC
  5
EE32
  8
AM_0
 10
258.47752369532662
 20
271.38051070921023
 30
0.0
 40
1.0000255999999981
 50
269.58946900000223
 51
90.410529999996797
  0
LINE
  5
EE40
  8
AM_0
 10
160.3875536953266
 20
187.25051070921009
 30
0.0
 11
257.26756369532637
 21
187.25051070921009
 31
0.0
  0
LINE
  5
EE41
  8
AM_0
 10
160.3475736953265
 20
190.1004807092101
 30
0.0
 11
257.26756369532637
 21
190.1004807092101
 31
0.0
  0
LINE
  5
EE42
  8
AM_0
 10
160.40757369532651
 20
185.4005307092101
 30
0.0
 11
257.26756369532637
 21
185.4005307092101
 31
0.0
  0
LINE
  5
EE43
  8
AM_0
 10
160.42759369532641
 20
184.49050070921021
 30
0.0
 11
257.26762369532651
 21
184.49050070921021
 31
0.0
  0
LINE
  5
EE44
  8
AM_0
 10
193.57627369532671
 20
230.3805107092102
 30
0.0
 11
159.4975436953265
 21
230.3805107092102
 31
0.0
  0
LINE
  5
EE45
  8
AM_0
 10
158.46757369532639
 20
230.04055070921021
 30
0.0
 11
194.7962436953265
 21
230.04055070921021
 31
0.0
  0
LINE
  5
EE46
  8
AM_0
 10
193.57627369532671
 20
232.3805107092102
 30
0.0
 11
159.4975436953265
 21
232.3805107092102
 31
0.0
  0
LINE
  5
EE47
  8
AM_0
 10
158.46757369532639
 20
232.70046070921009
 30
0.0
 11
194.7962436953265
 21
232.70046070921009
 31
0.0
  0
LINE
  5
EE48
  8
AM_0
 10
193.57627369532671
 20
240.3805107092102
 30
0.0
 11
159.4975436953265
 21
240.3805107092102
 31
0.0
  0
LINE
  5
EE49
  8
AM_0
 10
193.57627369532671
 20
242.3805107092102
 30
0.0
 11
159.4975436953265
 21
242.3805107092102
 31
0.0
  0
LINE
  5
EE4A
  8
AM_0
 10
158.40757369532651
 20
240.11049070921021
 30
0.0
 11
194.8562436953267
 21
240.11049070921021
 31
0.0
  0
LINE
  5
EE4B
  8
AM_0
 10
158.40757369532651
 20
242.64052070921019
 30
0.0
 11
194.8562436953267
 21
242.64052070921019
 31
0.0
  0
LINE
  5
EE4C
  8
AM_0
 10
226.1375536953266
 20
220.3805107092102
 30
0.0
 11
159.4975436953265
 21
220.3805107092102
 31
0.0
  0
LINE
  5
EE4D
  8
AM_0
 10
158.81754369532661
 20
213.0105207092102
 30
0.0
 11
226.15757369532651
 21
213.0105207092102
 31
0.0
  0
LINE
  5
EE4E
  8
AM_0
 10
158.5975736953265
 20
219.89052070921019
 30
0.0
 11
226.1375536953266
 21
219.89052070921019
 31
0.0
  0
LINE
  5
EE4F
  8
AM_0
 10
258.47758369532642
 20
210.3805107092102
 30
0.0
 11
159.4975436953265
 21
210.3805107092102
 31
0.0
  0
LINE
  5
EE50
  8
AM_0
 10
258.47758369532642
 20
212.3805107092102
 30
0.0
 11
159.4975436953265
 21
212.3805107092102
 31
0.0
  0
LINE
  5
EE51
  8
AM_0
 10
258.4703836953264
 20
222.3805107092102
 30
0.0
 11
159.4975436953265
 21
222.3805107092102
 31
0.0
  0
LINE
  5
EE52
  8
AM_0
 10
158.81754369532661
 20
209.66054070921021
 30
0.0
 11
261.95756369532648
 21
209.66054070921021
 31
0.0
  0
LINE
  5
EE53
  8
AM_0
 10
158.5975736953265
 20
222.8204607092101
 30
0.0
 11
262.17179369532653
 21
222.8204607092101
 31
0.0
  0
LINE
  5
EE56
  8
AM_0
 10
162.49760369532649
 20
209.7304907092103
 30
0.0
 11
157.13761369532639
 21
198.2805107092102
 31
0.0
  0
LINE
  5
EE57
  8
AM_0
 10
143.13755369532649
 20
198.36049070921021
 30
0.0
 11
143.13755369532649
 21
241.3805107092102
 31
0.0
  0
ARC
  5
EE58
  8
AM_0
 10
147.4330236953266
 20
209.98598070921011
 30
0.0
 40
0.704566
 50
0.3700900000021789
 51
89.629900000003204
  0
ARC
  5
EE59
  8
AM_0
 10
147.13261369532651
 20
219.37563070921021
 30
0.0
 40
1.004942999999999
 50
0.28111000000006
 51
89.718889999999945
  0
ARC
  5
EE5A
  8
AM_0
 10
147.13926369532649
 20
213.63882070921019
 30
0.0
 40
0.9982839799999999
 50
269.9014239999986
 51
0.0985799999998891
  0
ARC
  5
EE5B
  8
AM_0
 10
147.13773369532649
 20
223.38039070921019
 30
0.0
 40
0.9998289899999999
 50
269.99018899999902
 51
0.0098099999995675
  0
ARC
  5
EE5C
  8
AM_0
 10
147.13773369532649
 20
233.38039070921019
 30
0.0
 40
0.9998210099999999
 50
269.98974500000088
 51
0.0102499999984575
  0
ARC
  5
EE5D
  8
AM_0
 10
147.13261369532651
 20
229.37563070921021
 30
0.0
 40
1.004939
 50
0.2809000000001966
 51
89.719089999995873
  0
ARC
  5
EE5E
  8
AM_0
 10
147.13773369532649
 20
243.38039070921019
 30
0.0
 40
0.9998249999999999
 50
269.98994999999883
 51
0.0100500000012798
  0
ARC
  5
EE5F
  8
AM_0
 10
147.13261369532651
 20
239.37563070921021
 30
0.0
 40
1.0049469
 50
0.281339999999341
 51
89.718650000002881
  0
ARC
  5
EE60
  8
AM_0
 10
147.13523369532649
 20
205.39284070921019
 30
0.0
 40
1.002353
 50
270.13432700000061
 51
359.86567318000158
  0
LINE
  5
EE61
  8
AM_0
 10
145.13755369532649
 20
240.77053070921019
 30
0.0
 11
145.13755369532649
 21
241.9305607092102
 31
0.0
  0
ARC
  5
EE62
  8
AM_0
 10
144.1378036953266
 20
241.38027070921021
 30
0.0
 40
1.0001959999999981
 50
90.011220000002425
 51
179.98878000000411
  0
ARC
  5
EE63
  8
AM_0
 10
144.13267369532659
 20
241.37563070921021
 30
0.0
 40
0.9950849999999999
 50
179.71631000000019
 51
270.28368899999907
  0
LINE
  5
EE64
  8
AM_0
 10
147.13755369532649
 20
242.3805107092102
 30
0.0
 11
144.1375536953264
 21
242.3805107092102
 31
0.0
  0
LINE
  5
EE65
  8
AM_0
 10
147.13755369532649
 20
240.3805107092102
 30
0.0
 11
144.1375536953264
 21
240.3805107092102
 31
0.0
  0
LINE
  5
EE66
  8
AM_0
 10
141.14368772852961
 20
228.3886894201477
 30
0.0
 11
141.6436572109516
 21
228.42869796506949
 31
0.0
  0
LINE
  5
EE67
  8
AM_0
 10
141.6375536953266
 20
226.38054070921021
 30
0.0
 11
143.13755369532649
 21
226.25054070921021
 31
0.0
  0
LINE
  5
EE68
  8
AM_0
 10
145.13755369532649
 20
230.77053070921019
 30
0.0
 11
145.13755369532649
 21
231.98049070921019
 31
0.0
  0
LINE
  5
EE69
  8
AM_0
 10
141.6375536953266
 20
229.10048070921019
 30
0.0
 11
143.13755369532649
 21
229.10048070921019
 31
0.0
  0
LINE
  5
EE6A
  8
AM_0
 10
141.6375536953266
 20
231.23049070921019
 30
0.0
 11
143.13755369532649
 21
231.23049070921019
 31
0.0
  0
ARC
  5
EE6B
  8
AM_0
 10
144.1378036953266
 20
231.38027070921021
 30
0.0
 40
1.000199999999998
 50
90.011430000001596
 51
179.98856999999839
  0
ARC
  5
EE6C
  8
AM_0
 10
144.13267369532659
 20
231.37563070921021
 30
0.0
 40
0.99508202
 50
179.71609000000211
 51
270.28390100000507
  0
LINE
  5
EE6D
  8
AM_0
 10
147.13755369532649
 20
230.3805107092102
 30
0.0
 11
144.1375536953264
 21
230.3805107092102
 31
0.0
  0
LINE
  5
EE6E
  8
AM_0
 10
147.13755369532649
 20
232.3805107092102
 30
0.0
 11
144.1375536953264
 21
232.3805107092102
 31
0.0
  0
LINE
  5
EE6F
  8
AM_0
 10
140.6436572109516
 20
231.15867843381949
 30
0.0
 11
141.14365721095149
 21
228.3886894201477
 31
0.0
  0
LINE
  5
EE70
  8
AM_0
 10
147.13755369532649
 20
220.3805107092102
 30
0.0
 11
144.1375536953264
 21
220.3805107092102
 31
0.0
  0
ARC
  5
EE71
  8
AM_0
 10
144.1378036953266
 20
221.38027070921021
 30
0.0
 40
1.000203
 50
90.011649999995583
 51
179.9883500000044
  0
LINE
  5
EE72
  8
AM_0
 10
147.13755369532649
 20
222.3805107092102
 30
0.0
 11
144.1375536953264
 21
222.3805107092102
 31
0.0
  0
LINE
  5
EE73
  8
AM_0
 10
145.13755369532649
 20
220.7505107092102
 30
0.0
 11
145.13755369532649
 21
222.12050070921021
 31
0.0
  0
ARC
  5
EE74
  8
AM_0
 10
144.13267369532659
 20
221.37563070921021
 30
0.0
 40
0.99507803
 50
179.71589000000009
 51
270.28411300000192
  0
LINE
  5
EE75
  8
AM_0
 10
145.4376036953264
 20
203.2505107092102
 30
0.0
 11
148.13755369532649
 21
203.2505107092102
 31
0.0
  0
LINE
  5
EE76
  8
AM_0
 10
145.40757369532651
 20
204.39052070921011
 30
0.0
 11
147.13755369532649
 21
204.39052070921011
 31
0.0
  0
LINE
  5
EE77
  8
AM_0
 10
145.13755369532649
 20
203.5505607092102
 30
0.0
 11
145.13755369532649
 21
204.02053070921011
 31
0.0
  0
ARC
  5
EE78
  8
AM_0
 10
145.44419369532659
 20
204.2467307092102
 30
0.0
 40
0.99617702
 50
236.02951000000539
 51
269.61868200000413
  0
ARC
  5
EE79
  8
AM_0
 10
145.41697369532639
 20
205.38698070921009
 30
0.0
 40
0.99648702
 50
239.2562300000049
 51
269.45927899999811
  0
ARC
  5
EE7A
  8
AM_0
 10
144.13236369532649
 20
205.10293070921011
 30
0.0
 40
0.9948369899999999
 50
179.5621400000019
 51
236.7950400000033
  0
LINE
  5
EE7B
  8
AM_0
 10
144.8874936953267
 20
203.42049070921021
 30
0.0
 11
143.58750369532649
 21
204.27047070921009
 31
0.0
  0
LINE
  5
EE7C
  8
AM_0
 10
145.33756369532659
 20
210.69057070921019
 30
0.0
 11
147.4375436953265
 21
210.69057070921019
 31
0.0
  0
LINE
  5
EE7D
  8
AM_0
 10
145.2875836953263
 20
212.64052070921011
 30
0.0
 11
147.13755369532649
 21
212.64052070921011
 31
0.0
  0
LINE
  5
EE7E
  8
AM_0
 10
145.13755369532649
 20
210.99050070921021
 30
0.0
 11
145.13755369532649
 21
212.0505607092102
 31
0.0
  0
ARC
  5
EE7F
  8
AM_0
 10
145.33854369532659
 20
211.6859307092102
 30
0.0
 40
0.9954450099999999
 50
246.87254999999439
 51
269.94309500000361
  0
ARC
  5
EE80
  8
AM_0
 10
145.27671369532649
 20
213.6332007092102
 30
0.0
 40
0.9927430199999999
 50
253.66792999999831
 51
270.62544499999802
  0
ARC
  5
EE81
  8
AM_0
 10
144.13395369532651
 20
212.1990007092102
 30
0.0
 40
0.9963999999999998
 50
179.9095800000004
 51
247.1826399999992
  0
ARC
  5
EE82
  8
AM_0
 10
144.13163369532651
 20
206.13735070921021
 30
0.0
 40
0.99404597
 50
179.81435999999951
 51
239.53179999999949
  0
LINE
  5
EE83
  8
AM_0
 10
144.94755369532649
 20
210.77050070921021
 30
0.0
 11
143.74760369532649
 21
211.2805107092102
 31
0.0
  0
LINE
  5
EE84
  8
AM_0
 10
144.9975436953265
 20
212.6804707092102
 30
0.0
 11
143.8475736953265
 21
213.0304807092102
 31
0.0
  0
ARC
  5
EE85
  8
AM_0
 10
144.13383369532639
 20
213.98476070921009
 30
0.0
 40
0.9962710099999999
 50
179.66995
 51
253.30207999999999
  0
LINE
  5
EE86
  8
AM_0
 10
144.9075136953266
 20
204.53048070921011
 30
0.0
 11
143.62754369532661
 21
205.28048070921011
 31
0.0
  0
POLYLINE
  5
EE87
  8
AM_0
 66
     1
 10
0.0
 20
0.0
 30
0.0
  0
VERTEX
  5
EE88
  8
AM_0
 10
160.01579369532661
 20
230.03994070921021
 30
0.0
 42
0.0007337051
  0
VERTEX
  5
EE89
  8
AM_0
 10
160.05993369532649
 20
229.43753070921019
 30
0.0
 42
0.00075211323
  0
VERTEX
  5
EE8A
  8
AM_0
 10
160.10587369532649
 20
228.83513070921009
 30
0.0
 42
0.0007297491
  0
VERTEX
  5
EE8B
  8
AM_0
 10
160.1536036953265
 20
228.23293070921019
 30
0.0
 42
0.00073593041
  0
VERTEX
  5
EE8C
  8
AM_0
 10
160.2030836953264
 20
227.63094070921019
 30
0.0
 42
0.00074742739
  0
VERTEX
  5
EE8D
  8
AM_0
 10
160.25435369532661
 20
227.02908070921021
 30
0.0
 42
0.00073217363
  0
VERTEX
  5
EE8E
  8
AM_0
 10
160.30741369532649
 20
226.42727070921021
 30
0.0
 42
0.00073754168
  0
VERTEX
  5
EE8F
  8
AM_0
 10
160.36223369532641
 20
225.82573070921021
 30
0.0
 42
0.00073075073
  0
VERTEX
  5
EE90
  8
AM_0
 10
160.41881369532649
 20
225.22438070921021
 30
0.0
 42
0.00074550816
  0
VERTEX
  5
EE91
  8
AM_0
 10
160.47715369532631
 20
224.6233107092101
 30
0.0
 42
0.00074288416
  0
VERTEX
  5
EE92
  8
AM_0
 10
160.53730369532661
 20
224.02229070921021
 30
0.0
 42
0.00072504001
  0
VERTEX
  5
EE93
  8
AM_0
 10
160.59921369532651
 20
223.42155070921009
 30
0.0
 42
0.00074640667
  0
VERTEX
  5
EE94
  8
AM_0
 10
160.66288369532651
 20
222.82094070921011
 30
0.0
  0
SEQEND
  5
EE95
  8
AM_0
  0
POLYLINE
  5
EE96
  8
AM_0
 66
     1
 10
0.0
 20
0.0
 30
0.0
  0
VERTEX
  5
EE97
  8
AM_0
 10
159.5416036953267
 20
240.1101307092103
 30
0.0
 42
0.00076691987
  0
VERTEX
  5
EE98
  8
AM_0
 10
159.55640369532659
 20
239.49237070921021
 30
0.0
 42
0.00073262795
  0
VERTEX
  5
EE99
  8
AM_0
 10
159.57304369532639
 20
238.8747707092102
 30
0.0
 42
0.0007652954
  0
VERTEX
  5
EE9A
  8
AM_0
 10
159.59153369532629
 20
238.25710070921019
 30
0.0
 42
0.00077334627
  0
VERTEX
  5
EE9B
  8
AM_0
 10
159.6119436953264
 20
237.63950070921021
 30
0.0
 42
0.00073282897
  0
VERTEX
  5
EE9C
  8
AM_0
 10
159.63420369532659
 20
237.0220807092102
 30
0.0
 42
0.0007571179
  0
VERTEX
  5
EE9D
  8
AM_0
 10
159.65830369532651
 20
236.4045607092101
 30
0.0
 42
0.00073783152
  0
VERTEX
  5
EE9E
  8
AM_0
 10
159.6842436953267
 20
235.78717070921019
 30
0.0
 42
0.0007835518
  0
VERTEX
  5
EE9F
  8
AM_0
 10
159.71207369532669
 20
235.1699007092102
 30
0.0
 42
0.00074826133
  0
VERTEX
  5
EEA0
  8
AM_0
 10
159.74180369532641
 20
234.5525107092102
 30
0.0
 42
0.00074893555
  0
VERTEX
  5
EEA1
  8
AM_0
 10
159.77336369532631
 20
233.93538070921019
 30
0.0
 42
0.00076039841
  0
VERTEX
  5
EEA2
  8
AM_0
 10
159.80678369532649
 20
233.31835070921019
 30
0.0
 42
0.00075618789
  0
VERTEX
  5
EEA3
  8
AM_0
 10
159.84208369532649
 20
232.70132070921019
 30
0.0
  0
SEQEND
  5
EEA4
  8
AM_0
  0
ARC
  5
EEA5
  8
AM_0
 10
159.6821736953267
 20
241.3805107092102
 30
0.0
 40
1.0000138999999999
 50
89.691659999999274
 51
270.30834000000073
  0
ARC
  5
EEA6
  8
AM_0
 10
158.40171369532649
 20
241.3755107092102
 30
0.0
 40
1.2650129999999991
 50
89.735589999997515
 51
270.26442099999832
  0
POLYLINE
  5
EEA7
  8
AM_0
 66
     1
 10
0.0
 20
0.0
 30
0.0
  0
VERTEX
  5
EEA8
  8
AM_0
 10
159.4975436953265
 20
246.3805107092102
 30
0.0
 42
0.00039106653
  0
VERTEX
  5
EEA9
  8
AM_0
 10
159.49518369532649
 20
246.06938070921021
 30
0.0
 42
0.00040574511
  0
VERTEX
  5
EEAA
  8
AM_0
 10
159.49331369532649
 20
245.75827070921011
 30
0.0
 42
0.00035346331
  0
VERTEX
  5
EEAB
  8
AM_0
 10
159.49192369532659
 20
245.44716070921021
 30
0.0
 42
0.00034406545
  0
VERTEX
  5
EEAC
  8
AM_0
 10
159.49094369532651
 20
245.1360207092101
 30
0.0
 42
0.00045699059
  0
VERTEX
  5
EEAD
  8
AM_0
 10
159.49048369532659
 20
244.8249207092102
 30
0.0
 42
0.00035573431
  0
VERTEX
  5
EEAE
  8
AM_0
 10
159.4905236953264
 20
244.51382070921019
 30
0.0
 42
0.00038545888
  0
VERTEX
  5
EEAF
  8
AM_0
 10
159.49101369532639
 20
244.2026807092102
 30
0.0
 42
0.00035501203
  0
VERTEX
  5
EEB0
  8
AM_0
 10
159.49197369532669
 20
243.89157070921021
 30
0.0
 42
0.00040120778
  0
VERTEX
  5
EEB1
  8
AM_0
 10
159.49339369532649
 20
243.58034070921019
 30
0.0
 42
0.00038317821
  0
VERTEX
  5
EEB2
  8
AM_0
 10
159.4953036953267
 20
243.26921070921011
 30
0.0
 42
0.00040741862
  0
VERTEX
  5
EEB3
  8
AM_0
 10
159.49770369532649
 20
242.9579807092102
 30
0.0
 42
0.00035783324
  0
VERTEX
  5
EEB4
  8
AM_0
 10
159.5005936953265
 20
242.64687070921019
 30
0.0
  0
SEQEND
  5
EEB5
  8
AM_0
  0
ARC
  5
EEB6
  8
AM_0
 10
159.6821736953267
 20
231.3805107092102
 30
0.0
 40
1.0000138999999999
 50
89.691659999999274
 51
270.30834000000073
  0
ARC
  5
EEB7
  8
AM_0
 10
158.46757369532639
 20
231.37050070921021
 30
0.0
 40
1.3300049999999981
 50
90.000000000000057
 51
269.99999700000228
  0
POLYLINE
  5
EEB8
  8
AM_0
 66
     1
 10
0.0
 20
0.0
 30
0.0
  0
VERTEX
  5
EEB9
  8
AM_0
 10
160.9984536953267
 20
219.89748070921021
 30
0.0
 42
0.00068898283
  0
VERTEX
  5
EEBA
  8
AM_0
 10
161.06933369532641
 20
219.32273070921019
 30
0.0
 42
0.00070644357
  0
VERTEX
  5
EEBB
  8
AM_0
 10
161.14183369532671
 20
218.74804070921019
 30
0.0
 42
0.00069248074
  0
VERTEX
  5
EEBC
  8
AM_0
 10
161.2159236953265
 20
218.17373070921019
 30
0.0
 42
0.0006958566
  0
VERTEX
  5
EEBD
  8
AM_0
 10
161.29160369532659
 20
217.5995907092103
 30
0.0
 42
0.00071687219
  0
VERTEX
  5
EEBE
  8
AM_0
 10
161.36891369532631
 20
217.02559070921021
 30
0.0
 42
0.00069760022
  0
VERTEX
  5
EEBF
  8
AM_0
 10
161.44785369532659
 20
216.4518007092102
 30
0.0
 42
0.00071002302
  0
VERTEX
  5
EEC0
  8
AM_0
 10
161.5283936953266
 20
215.87833070921019
 30
0.0
 42
0.00069954889
  0
VERTEX
  5
EEC1
  8
AM_0
 10
161.61053369532661
 20
215.30523070921021
 30
0.0
 42
0.00071887947
  0
VERTEX
  5
EEC2
  8
AM_0
 10
161.69431369532651
 20
214.7322007092101
 30
0.0
 42
0.00071266929
  0
VERTEX
  5
EEC3
  8
AM_0
 10
161.7797436953266
 20
214.15943070921011
 30
0.0
 42
0.00071614429
  0
VERTEX
  5
EEC4
  8
AM_0
 10
161.86677369532649
 20
213.5870907092102
 30
0.0
 42
0.00072288978
  0
VERTEX
  5
EEC5
  8
AM_0
 10
161.95548369532651
 20
213.0147907092101
 30
0.0
  0
SEQEND
  5
EEC6
  8
AM_0
  0
ARC
  5
EEC7
  8
AM_0
 10
159.6821736953267
 20
221.3805107092102
 30
0.0
 40
1.0000138999999999
 50
89.691659999999274
 51
270.30834000000073
  0
ARC
  5
EEC8
  8
AM_0
 10
158.5975736953265
 20
221.3554907092103
 30
0.0
 40
1.465004
 50
90.000000000000057
 51
269.99999700000228
  0
LINE
  5
EEC9
  8
AM_0
 10
149.83756369532659
 20
203.19057070921019
 30
0.0
 11
156.06754369532661
 21
203.19057070921019
 31
0.0
  0
ARC
  5
EECA
  8
AM_0
 10
159.6821736953267
 20
211.3805107092102
 30
0.0
 40
1.0000138999999999
 50
89.691659999999274
 51
270.30834000000073
  0
ARC
  5
EECB
  8
AM_0
 10
158.81016369532659
 20
211.3354707092102
 30
0.0
 40
1.6750160000000001
 50
89.74612999999907
 51
270.2538549999955
  0
ARC
  5
EECC
  8
AM_0
 10
147.63297369532651
 20
196.12588070921009
 30
0.0
 40
0.50463498
 50
0.5238300000004187
 51
89.476169999999613
  0
LINE
  5
EECD
  8
AM_0
 10
148.13755369532649
 20
196.38051070921011
 30
0.0
 11
149.13755369532649
 21
196.38051070921011
 31
0.0
  0
ARC
  5
EECE
  8
AM_0
 10
147.13853369532629
 20
200.8795407092102
 30
0.0
 40
0.9990100299999999
 50
269.9431910000032
 51
0.0568099999986944
  0
ARC
  5
EECF
  8
AM_0
 10
147.6392636953266
 20
198.27883070921021
 30
0.0
 40
0.4983060100000002
 50
269.80489299999988
 51
0.1951100000021416
  0
LINE
  5
EED0
  8
AM_0
 10
145.40757369532651
 20
196.6305107092102
 30
0.0
 11
147.6375536953266
 21
196.6305107092102
 31
0.0
  0
ARC
  5
EED1
  8
AM_0
 10
145.39958369532641
 20
197.62636070921019
 30
0.0
 40
0.9959030199999999
 50
240.3928300000035
 51
270.4587330000009
  0
LINE
  5
EED2
  8
AM_0
 10
145.41758369532641
 20
198.74050070921021
 30
0.0
 11
148.13755369532649
 21
198.74050070921021
 31
0.0
  0
ARC
  5
EED3
  8
AM_0
 10
145.40641369532639
 20
199.73476070921021
 30
0.0
 40
0.99427301
 50
239.21909000000099
 51
270.6439340000033
  0
LINE
  5
EED4
  8
AM_0
 10
145.37754369532661
 20
197.78054070921019
 30
0.0
 11
147.6375536953266
 21
197.78054070921019
 31
0.0
  0
ARC
  5
EED5
  8
AM_0
 10
145.3623436953265
 20
198.77456070921031
 30
0.0
 40
0.99411702
 50
244.0650200000056
 51
270.8773560000015
  0
LINE
  5
EED6
  8
AM_0
 10
145.38755369532649
 20
199.8805107092102
 30
0.0
 11
147.13755369532649
 21
199.8805107092102
 31
0.0
  0
LINE
  5
EED7
  8
AM_0
 10
145.13755369532649
 20
198.98049070921019
 30
0.0
 11
145.13755369532649
 21
199.53054070921019
 31
0.0
  0
ARC
  5
EED8
  8
AM_0
 10
145.37266369532659
 20
200.87588070921009
 30
0.0
 40
0.99545902
 50
242.79618000000039
 51
270.85870899999998
  0
ARC
  5
EED9
  8
AM_0
 10
144.13078369532661
 20
201.53908070921011
 30
0.0
 40
0.9932109699999999
 50
179.91812999999991
 51
242.20067999999489
  0
ARC
  5
EEDA
  8
AM_0
 10
144.13316369532649
 20
199.4007807092101
 30
0.0
 40
0.995579
 50
180.01736
 51
243.4129100000022
  0
ARC
  5
EEDB
  8
AM_0
 10
144.13200369532649
 20
200.5014907092102
 30
0.0
 40
0.9944329899999999
 50
180.05949000000089
 51
238.84787000000301
  0
ARC
  5
EEDC
  8
AM_0
 10
144.13078369532661
 20
198.36257070921019
 30
0.0
 40
0.99319202
 50
180.1204100000019
 51
240.22661999999389
  0
LINE
  5
EEDD
  8
AM_0
 10
144.92753369532659
 20
197.88051070921011
 30
0.0
 11
143.6875436953265
 21
198.51052070921011
 31
0.0
  0
LINE
  5
EEDE
  8
AM_0
 10
144.89750369532669
 20
198.88045070921021
 30
0.0
 11
143.61753369532661
 21
199.65047070921011
 31
0.0
  0
LINE
  5
EEDF
  8
AM_0
 10
144.9175836953265
 20
199.99047070921009
 30
0.0
 11
143.6675836953265
 21
200.66048070921011
 31
0.0
  0
LINE
  5
EEE0
  8
AM_0
 10
145.13755369532649
 20
196.88051070921011
 30
0.0
 11
145.13755369532649
 21
197.41054070921021
 31
0.0
  0
LINE
  5
EEE1
  8
AM_0
 10
144.90757369532651
 20
196.76055070921021
 30
0.0
 11
143.63761369532639
 21
197.50054070921021
 31
0.0
  0
LINE
  5
EEE2
  8
AM_0
 10
157.1375536953266
 20
198.28045070921021
 30
0.0
 11
158.37754369532661
 21
191.7204507092101
 31
0.0
  0
LINE
  5
EEE3
  8
AM_0
 10
157.13761369532639
 20
195.59054070921019
 30
0.0
 11
158.42759369532641
 21
187.10045070921009
 31
0.0
  0
LINE
  5
EEE4
  8
AM_0
 10
157.13761369532639
 20
196.94048070921019
 30
0.0
 11
158.4175836953265
 21
188.93053070921019
 31
0.0
  0
LINE
  5
EEE5
  8
AM_0
 10
157.1375536953266
 20
195.59051070921021
 30
0.0
 11
158.44755369532649
 21
186.2104707092102
 31
0.0
  0
LINE
  5
EEE6
  8
AM_0
 10
149.13755369532649
 20
193.3805107092102
 30
0.0
 11
157.1375536953266
 21
193.3805107092102
 31
0.0
  0
ARC
  5
EEE7
  8
AM_0
 10
160.42405369532651
 20
186.48611070921021
 30
0.0
 40
1.995633
 50
187.93887000000001
 51
270.10029200000417
  0
ARC
  5
EEE8
  8
AM_0
 10
160.40214369532649
 20
187.39724070921019
 30
0.0
 40
1.9967330000000001
 50
188.54611999999651
 51
270.15603300000112
  0
ARC
  5
EEE9
  8
AM_0
 10
160.3878036953266
 20
189.24575070921011
 30
0.0
 40
1.9952829999999999
 50
189.09164999999931
 51
269.99379600000321
  0
ARC
  5
EEEA
  8
AM_0
 10
160.33628369532661
 20
192.09463070921009
 30
0.0
 40
1.994108999999999
 50
190.81223000000159
 51
270.32445199999722
  0
LINE
  5
EEF2
  8
AM_0
 10
244.1375536953266
 20
219.89052070921019
 30
0.0
 11
262.18327369532659
 21
219.89052070921019
 31
0.0
  0
LINE
  5
EEF3
  8
AM_0
 10
258.48472369532658
 20
220.3805107092102
 30
0.0
 11
244.1375536953266
 21
220.3805107092102
 31
0.0
  0
LINE
  5
EEF4
  8
AM_0
 10
244.11759369532649
 20
213.02053070921019
 30
0.0
 11
261.95756369532648
 21
213.02053070921019
 31
0.0
  0
ARC
  5
EEF5
  8
AM_0
 10
194.86448369532641
 20
241.37050070921021
 30
0.0
 40
1.2700266
 50
269.6293300000018
 51
90.370680000000064
  0
ARC
  5
EEF6
  8
AM_0
 10
193.57627369532671
 20
241.3805107092102
 30
0.0
 40
1.000005699999998
 50
269.99999700000228
 51
90.000010000001026
  0
ARC
  5
EEF7
  8
AM_0
 10
194.80253369532659
 20
231.36550070921021
 30
0.0
 40
1.3350147999999999
 50
269.73044399999873
 51
90.26957000000013
  0
ARC
  5
EEF8
  8
AM_0
 10
193.57627369532671
 20
231.3805107092102
 30
0.0
 40
1.000005699999998
 50
269.99999700000228
 51
90.000010000001026
  0
CIRCLE
  5
EEF9
  8
AM_0
 10
232.6375536953266
 20
217.8805107092102
 30
0.0
 40
1.149999999999999
  0
LINE
  5
EEFA
  8
AM_0
 10
227.6375536953266
 20
218.8805107092102
 30
0.0
 11
227.6375536953266
 21
213.8805107092102
 31
0.0
  0
ARC
  5
EEFB
  8
AM_0
 10
226.15757369532651
 20
214.02053070921019
 30
0.0
 40
1.0
 50
269.99999700000228
 51
0.0
  0
ARC
  5
EEFC
  8
AM_0
 10
226.1375536953266
 20
218.8805107092102
 30
0.0
 40
1.02
 50
359.999999316757
 51
90.000010000001026
  0
ARC
  5
EEFD
  8
AM_0
 10
226.1375536953266
 20
218.8805107092102
 30
0.0
 40
1.5
 50
359.99999931675052
 51
90.000010000001026
  0
LINE
  5
EEFE
  8
AM_0
 10
227.15757369532651
 20
218.8805107092102
 30
0.0
 11
227.15757369532651
 21
214.02053070921019
 31
0.0
  0
ARC
  5
EEFF
  8
AM_0
 10
226.1375536953266
 20
213.8805107092102
 30
0.0
 40
1.5
 50
269.99999700000228
 51
0.0
  0
LINE
  5
EF00
  8
AM_0
 10
242.6375536953266
 20
218.8805107092102
 30
0.0
 11
242.6375536953266
 21
213.8805107092102
 31
0.0
  0
ARC
  5
EF01
  8
AM_0
 10
244.11759369532649
 20
214.02053070921019
 30
0.0
 40
1.0
 50
179.999989999999
 51
269.99999700000228
  0
CIRCLE
  5
EF02
  8
AM_0
 10
237.6375536953266
 20
217.8805107092102
 30
0.0
 40
1.0
  0
CIRCLE
  5
EF03
  8
AM_0
 10
232.6375536953266
 20
217.8805107092102
 30
0.0
 40
1.1000000000000001
  0
LINE
  5
EF04
  8
AM_0
 10
243.11759369532649
 20
218.8805107092102
 30
0.0
 11
243.11759369532649
 21
214.02053070921019
 31
0.0
  0
ARC
  5
EF05
  8
AM_0
 10
244.1375536953266
 20
218.8805107092102
 30
0.0
 40
1.02
 50
90.000000000000057
 51
180.00001000000091
  0
ARC
  5
EF06
  8
AM_0
 10
244.1375536953266
 20
218.8805107092102
 30
0.0
 40
1.5
 50
90.000000000000057
 51
180.00001000000091
  0
ARC
  5
EF07
  8
AM_0
 10
244.1375536953266
 20
213.8805107092102
 30
0.0
 40
1.5
 50
179.999989999999
 51
269.99999700000228
  0
LINE
  5
EF09
  8
AM_0
 10
264.13755369532657
 20
208.68053070921019
 30
0.0
 11
264.13755369532657
 21
201.08052070921019
 31
0.0
  0
LINE
  5
EF0A
  8
AM_0
 10
265.13755369532657
 20
208.68053070921019
 30
0.0
 11
265.13755369532657
 21
201.08052070921019
 31
0.0
  0
LINE
  5
EF0B
  8
AM_0
 10
261.53757369532661
 20
206.6805307092101
 30
0.0
 11
261.53757369532661
 21
203.08052070921019
 31
0.0
  0
LINE
  5
EF0F
  8
AM_0
 10
265.13755369532657
 20
214.44056070921019
 30
0.0
 11
273.13755369532657
 21
214.44056070921019
 31
0.0
  0
LINE
  5
EF10
  8
AM_0
 10
265.13755369532657
 20
204.65788070921019
 30
0.0
 11
264.13755369532657
 21
204.08052070921019
 31
0.0
  0
LINE
  5
EF11
  8
AM_0
 10
264.13755369532657
 20
208.68053070921019
 30
0.0
 11
265.13755369532657
 21
208.68053070921019
 31
0.0
  0
LINE
  5
EF12
  8
AM_0
 10
265.13755369532657
 20
205.65788070921019
 30
0.0
 11
264.13755369532657
 21
205.08052070921019
 31
0.0
  0
ARC
  5
EF13
  8
AM_0
 10
262.17753369532659
 20
221.3504807092101
 30
0.0
 40
1.460011199999999
 50
269.77524999999667
 51
90.224750000003354
  0
ARC
  5
EF14
  8
AM_0
 10
258.47752369532662
 20
221.3805107092102
 30
0.0
 40
1.0000255999999981
 50
269.58946900000223
 51
90.410529999996797
  0
ARC
  5
EF15
  8
AM_0
 10
263.2375536953266
 20
206.6805307092101
 30
0.0
 40
1.699996899999999
 50
90.000003000004199
 51
179.99998000000451
  0
ARC
  5
EF16
  8
AM_0
 10
261.95756369532648
 20
211.3354707092102
 30
0.0
 40
1.6750020000000001
 50
269.99999700000228
 51
90.000010000001026
  0
LINE
  5
EF17
  8
AM_0
 10
264.13755369532657
 20
208.38051070921031
 30
0.0
 11
263.2375536953266
 21
208.38051070921031
 31
0.0
  0
ARC
  5
EF18
  8
AM_0
 10
258.47758369532642
 20
211.3805107092102
 30
0.0
 40
1.0
 50
269.99999700000228
 51
90.000010000001026
  0
LINE
  5
EF1B
  8
AM_0
 10
265.13755369532657
 20
200.3805107092102
 30
0.0
 11
273.13755369532657
 21
200.3805107092102
 31
0.0
  0
LINE
  5
EF1C
  8
AM_0
 10
261.1819236554457
 20
193.3805107092102
 30
0.0
 11
265.13755369532657
 21
193.3805107092102
 31
0.0
  0
LINE
  5
EF1D
  8
AM_0
 10
264.13755369532657
 20
201.08052070921019
 30
0.0
 11
265.13755369532657
 21
201.08052070921019
 31
0.0
  0
LINE
  5
EF1E
  8
AM_0
 10
261.97293752261419
 20
201.9444095105527
 30
0.0
 11
259.19761369532642
 21
191.58053070921011
 31
0.0
  0
LINE
  5
EF1F
  8
AM_0
 10
263.08244155122338
 20
201.3876111006509
 30
0.0
 11
259.19755369532652
 21
186.88051070921
 31
0.0
  0
LINE
  5
EF20
  8
AM_0
 10
262.61659101871572
 20
201.49798853757611
 30
0.0
 11
259.19755369532652
 21
188.73046070921021
 31
0.0
  0
LINE
  5
EF21
  8
AM_0
 10
263.34330369532671
 20
201.4516207092102
 30
0.0
 11
259.1975836953265
 21
185.9705107092102
 31
0.0
  0
ARC
  5
EF22
  8
AM_0
 10
263.2375536953266
 20
203.08052070921019
 30
0.0
 40
1.7000007999999991
 50
180.00001000000091
 51
269.999979999998
  0
LINE
  5
EF23
  8
AM_0
 10
264.13755369532657
 20
201.3805107092102
 30
0.0
 11
263.2375536953266
 21
201.3805107092102
 31
0.0
  0
ARC
  5
EF24
  8
AM_0
 10
257.26273369532657
 20
187.40529070921019
 30
0.0
 40
2.0047290000000002
 50
270.13832199999979
 51
344.82650400000358
  0
ARC
  5
EF25
  8
AM_0
 10
257.26273369532657
 20
189.25527070921021
 30
0.0
 40
2.0047290000000002
 50
270.13832199999979
 51
344.82650400000358
  0
ARC
  5
EF26
  8
AM_0
 10
257.26273369532657
 20
186.49526070921021
 30
0.0
 40
2.0047290000000002
 50
270.13832199999979
 51
344.82650400000358
  0
ARC
  5
EF27
  8
AM_0
 10
257.26768369532658
 20
192.0987807092101
 30
0.0
 40
1.9982919999999991
 50
269.99736799999857
 51
344.96745200000402
  0
LINE
  5
EF28
  8
AM_0
 10
265.13755369532657
 20
190.3805107092102
 30
0.0
 11
273.13755369532657
 21
190.3805107092102
 31
0.0
  0
LINE
  5
EF4C
  8
AM_0
 10
659.63003124324166
 20
319.38051070921023
 30
0.0
 11
659.63003124324166
 21
334.38051070921011
 31
0.0
  0
LINE
  5
EF4D
  8
AM_0
 10
599.63003124324189
 20
319.38051070921028
 30
0.0
 11
599.63003124324189
 21
334.38051070921028
 31
0.0
  0
LINE
  5
EF4E
  8
AM_0
 10
658.13003124324189
 20
335.88051070921011
 30
0.0
 11
601.13003124324177
 21
335.88051070921028
 31
0.0
  0
ARC
  5
EF4F
  8
AM_0
 10
658.13003124324155
 20
334.38051070921023
 30
0.0
 40
1.5
 50
0.0
 51
90.0
  0
LINE
  5
EF50
  8
AM_0
 10
612.32623124324175
 20
338.8805107092104
 30
0.0
 11
646.93393124324166
 21
338.8805107092104
 31
0.0
  0
LINE
  5
EF51
  8
AM_0
 10
646.93393124324166
 20
338.8805107092104
 30
0.0
 11
652.13003124324166
 21
335.88051070921028
 31
0.0
  0
LINE
  5
EF52
  8
AM_0
 10
607.12716582268274
 20
335.88051070921028
 30
0.0
 11
612.32623124324175
 21
338.8805107092104
 31
0.0
  0
ARC
  5
EF53
  8
AM_0
 10
601.13003124324177
 20
334.38051070921023
 30
0.0
 40
1.5
 50
90.0
 51
180.0
  0
LINE
  5
EF54
  8
AM_0
 10
659.63003124324166
 20
308.88051070921023
 30
0.0
 11
599.63003124324155
 21
308.88051070921023
 31
0.0
  0
LINE
  5
EF55
  8
AM_0
 10
598.13003124324166
 20
319.38051070921028
 30
0.0
 11
661.13003124324189
 21
319.38051070921023
 31
0.0
  0
LINE
  5
EF56
  8
AM_0
 10
662.63003124324189
 20
315.88051070921023
 30
0.0
 11
596.63003124324155
 21
315.88051070921028
 31
0.0
  0
LINE
  5
EF57
  8
AM_0
 10
661.13003124324189
 20
312.38051070921023
 30
0.0
 11
598.13003124324166
 21
312.3805107092104
 31
0.0
  0
LINE
  5
EF5C
  8
AM_0
 10
659.63003124324166
 20
296.42048364507139
 30
0.0
 11
659.63003124324166
 21
312.38051070921023
 31
0.0
  0
LINE
  5
EF5D
  8
AM_0
 10
662.63003124324189
 20
330.88051070921
 30
0.0
 11
662.63003124324189
 21
315.88051070921023
 31
0.0
  0
LINE
  5
EF5E
  8
AM_0
 10
661.13003124324189
 20
331.88051070921011
 30
0.0
 11
661.13003124324189
 21
312.38051070921023
 31
0.0
  0
LINE
  5
EF5F
  8
AM_0
 10
661.13003124324189
 20
330.88051070921
 30
0.0
 11
662.63003124324189
 21
330.88051070921
 31
0.0
  0
LINE
  5
EF60
  8
AM_0
 10
659.63003124324166
 20
331.88051070921011
 30
0.0
 11
661.13003124324189
 21
331.88051070921011
 31
0.0
  0
LINE
  5
EF82
  8
AM_0
 10
599.63003124324155
 20
297.29323691749249
 30
0.0
 11
599.63003124324155
 21
312.3805107092104
 31
0.0
  0
LINE
  5
EF83
  8
AM_0
 10
596.63003124324155
 20
330.8805107092104
 30
0.0
 11
596.63003124324155
 21
315.88051070921028
 31
0.0
  0
LINE
  5
EF84
  8
AM_0
 10
598.13003124324166
 20
312.3805107092104
 30
0.0
 11
598.13003124324166
 21
331.88051070921028
 31
0.0
  0
LINE
  5
EF85
  8
AM_0
 10
598.13003124324166
 20
331.88051070921028
 30
0.0
 11
599.63003124324189
 21
331.88051070921028
 31
0.0
  0
LINE
  5
EF86
  8
AM_0
 10
598.13003124324155
 20
330.8805107092104
 30
0.0
 11
596.63003124324155
 21
330.8805107092104
 31
0.0
  0
LINE
  5
EFD0
  8
AM_0
 10
665.65413106595065
 20
191.0706393363802
 30
0.0
 11
665.84194641198894
 21
196.44896715594791
 31
0.0
  0
LINE
  5
EFD1
  8
AM_0
 10
663.58356537684483
 20
191.04655543204001
 30
0.0
 11
663.39639967140783
 21
196.40627997880611
 31
0.0
  0
ARC
  5
EFD3
  8
AM_0
 10
664.65474023893125
 20
191.1055388330827
 30
0.0
 40
1.0
 50
288.56658080190289
 51
357.99999999999642
1001
GENIUS_GENODEF_13
1002
{
1000
HIER
1070
     0
1002
}
1002
{
1000
MANEDIT
1070
     0
1002
}
1002
{
1000
NOSEL
1070
     0
1002
}
1002
{
1000
BEHIND
1070
     0
1002
}
1002
{
1000
REACTOR
1002
}
1001
GENIUS_GENOBJ-N-FIL_13
1002
{
1000
OWNER
1000
GEN
1002
}
  0
ARC
  5
EFD4
  8
AM_0
 10
629.63003124324155
 20
295.38051070921023
 30
0.0
 40
111.0
 50
288.52714231446822
 51
288.56658080189681
  0
ARC
  5
EFD5
  8
AM_0
 10
664.582956203864
 20
191.0814549287428
 30
0.0
 40
1.0
 50
181.99999999999719
 51
288.52714231446822
1001
GENIUS_GENODEF_13
1002
{
1000
HIER
1070
     0
1002
}
1002
{
1000
MANEDIT
1070
     0
1002
}
1002
{
1000
NOSEL
1070
     0
1002
}
1002
{
1000
BEHIND
1070
     0
1002
}
1002
{
1000
REACTOR
1002
}
1001
GENIUS_GENOBJ-N-FIL_13
1002
{
1000
OWNER
1000
GEN
1002
}
  0
ARC
  5
EFD6
  8
AM_0
 10
624.59736459136218
 20
185.49569707979629
 30
0.0
 40
1.0
 50
181.99999999999719
 51
267.37771591204699
1001
GENIUS_GENODEF_13
1002
{
1000
HIER
1070
     0
1002
}
1002
{
1000
MANEDIT
1070
     0
1002
}
1002
{
1000
NOSEL
1070
     0
1002
}
1002
{
1000
BEHIND
1070
     0
1002
}
1002
{
1000
REACTOR
1002
}
1001
GENIUS_GENOBJ-N-FIL_13
1002
{
1000
OWNER
1000
GEN
1002
}
  0
ARC
  5
EFD7
  8
AM_0
 10
629.63003124324155
 20
246.3805107092102
 30
0.0
 40
56.5
 50
244.48212463479871
 51
297.51787536520368
  0
LINE
  5
EFD8
  8
AM_0
 10
653.5878453201974
 20
188.21420627734861
 30
0.0
 11
653.34740358692613
 21
195.09955665109001
 31
0.0
  0
LINE
  5
EFD9
  8
AM_0
 10
655.6566419692009
 20
188.23054101167131
 30
0.0
 11
655.93759859542524
 21
196.2760861217381
 31
0.0
  0
ARC
  5
EFDA
  8
AM_0
 10
654.65725114218185
 20
188.2654405083739
 30
0.0
 40
1.0
 50
283.15111826065572
 51
358.00000000000279
1001
GENIUS_GENODEF_13
1002
{
1000
HIER
1070
     0
1002
}
1002
{
1000
MANEDIT
1070
     0
1002
}
1002
{
1000
NOSEL
1070
     0
1002
}
1002
{
1000
BEHIND
1070
     0
1002
}
1002
{
1000
REACTOR
1002
}
1001
GENIUS_GENOBJ-N-FIL_13
1002
{
1000
OWNER
1000
GEN
1002
}
  0
ARC
  5
EFDB
  8
AM_0
 10
629.63003124324155
 20
295.38051070921023
 30
0.0
 40
111.0
 50
283.11367014329829
 51
283.15111826065572
  0
ARC
  5
EFDC
  8
AM_0
 10
654.58723614721634
 20
188.2491057740514
 30
0.0
 40
1.0
 50
182.00000000000369
 51
283.11367014329829
1001
GENIUS_GENODEF_13
1002
{
1000
HIER
1070
     0
1002
}
1002
{
1000
MANEDIT
1070
     0
1002
}
1002
{
1000
NOSEL
1070
     0
1002
}
1002
{
1000
BEHIND
1070
     0
1002
}
1002
{
1000
REACTOR
1002
}
1001
GENIUS_GENOBJ-N-FIL_13
1002
{
1000
OWNER
1000
GEN
1002
}
  0
ARC
  5
EFDD
  8
AM_0
 10
644.59098001635425
 20
186.4026688705672
 30
0.0
 40
1.0
 50
181.99999999999719
 51
277.81694783169502
1001
GENIUS_GENODEF_13
1002
{
1000
HIER
1070
     0
1002
}
1002
{
1000
MANEDIT
1070
     0
1002
}
1002
{
1000
NOSEL
1070
     0
1002
}
1002
{
1000
BEHIND
1070
     0
1002
}
1002
{
1000
REACTOR
1002
}
1001
GENIUS_GENOBJ-N-FIL_13
1002
{
1000
OWNER
1000
GEN
1002
}
  0
ARC
  5
EFDE
  8
AM_0
 10
644.65988777228893
 20
186.41215102294049
 30
0.0
 40
1.0
 50
277.85317808880581
 51
358.00000000000279
1001
GENIUS_GENODEF_13
1002
{
1000
HIER
1070
     0
1002
}
1002
{
1000
MANEDIT
1070
     0
1002
}
1002
{
1000
NOSEL
1070
     0
1002
}
1002
{
1000
BEHIND
1070
     0
1002
}
1002
{
1000
REACTOR
1002
}
1001
GENIUS_GENOBJ-N-FIL_13
1002
{
1000
OWNER
1000
GEN
1002
}
  0
ARC
  5
EFDF
  8
AM_0
 10
629.63003124324155
 20
295.38051070921023
 30
0.0
 40
111.0
 50
277.81694783169502
 51
277.85317808880581
  0
LINE
  5
EFE0
  8
AM_0
 10
645.65927859930787
 20
186.3772515262379
 30
0.0
 11
645.86482100315504
 21
192.2632158631871
 31
0.0
  0
LINE
  5
EFE1
  8
AM_0
 10
643.59158918933497
 20
186.36776937386441
 30
0.0
 11
643.40934610346881
 21
191.58652853979021
 31
0.0
  0
ARC
  5
EFE2
  8
AM_0
 10
634.66269789512114
 20
185.49569707979629
 30
0.0
 40
1.0
 50
272.62228408795301
 51
358.00000000000279
1001
GENIUS_GENODEF_13
1002
{
1000
HIER
1070
     0
1002
}
1002
{
1000
MANEDIT
1070
     0
1002
}
1002
{
1000
NOSEL
1070
     0
1002
}
1002
{
1000
BEHIND
1070
     0
1002
}
1002
{
1000
REACTOR
1002
}
1001
GENIUS_GENOBJ-N-FIL_13
1002
{
1000
OWNER
1000
GEN
1002
}
  0
ARC
  5
EFE3
  8
AM_0
 10
634.59432386100514
 20
185.49258690133581
 30
0.0
 40
1.0
 50
182.00000000000369
 51
272.58663322877328
1001
GENIUS_GENODEF_13
1002
{
1000
HIER
1070
     0
1002
}
1002
{
1000
MANEDIT
1070
     0
1002
}
1002
{
1000
NOSEL
1070
     0
1002
}
1002
{
1000
BEHIND
1070
     0
1002
}
1002
{
1000
REACTOR
1002
}
1001
GENIUS_GENOBJ-N-FIL_13
1002
{
1000
OWNER
1000
GEN
1002
}
  0
ARC
  5
EFE4
  8
AM_0
 10
629.63003124324155
 20
295.38051070921023
 30
0.0
 40
111.0
 50
272.58663322877328
 51
272.62228408795301
  0
LINE
  5
EFE5
  8
AM_0
 10
633.59493303398585
 20
185.45768740463319
 30
0.0
 11
633.43600307262511
 21
190.00884603240721
 31
0.0
  0
LINE
  5
EFE6
  8
AM_0
 10
635.66208872213997
 20
185.46079758309369
 30
0.0
 11
635.82833719598807
 21
190.22153098809929
 31
0.0
  0
ARC
  5
EFE7
  8
AM_0
 10
624.66573862547807
 20
185.49258690133581
 30
0.0
 40
1.0
 50
267.41336677122672
 51
357.99999999999642
1001
GENIUS_GENODEF_13
1002
{
1000
HIER
1070
     0
1002
}
1002
{
1000
MANEDIT
1070
     0
1002
}
1002
{
1000
NOSEL
1070
     0
1002
}
1002
{
1000
BEHIND
1070
     0
1002
}
1002
{
1000
REACTOR
1002
}
1001
GENIUS_GENOBJ-N-FIL_13
1002
{
1000
OWNER
1000
GEN
1002
}
  0
ARC
  5
EFE8
  8
AM_0
 10
629.63003124324155
 20
295.38051070921023
 30
0.0
 40
111.0
 50
267.37771591204699
 51
267.41336677122672
  0
LINE
  5
EFE9
  8
AM_0
 10
625.66512945249724
 20
185.45768740463319
 30
0.0
 11
625.82405941385821
 21
190.00884603240721
 31
0.0
  0
ARC
  5
EFEA
  8
AM_0
 10
614.66908247012884
 20
186.4026688705672
 30
0.0
 40
1.0
 50
262.1830521683051
 51
358.00000000000279
1001
GENIUS_GENODEF_13
1002
{
1000
HIER
1070
     0
1002
}
1002
{
1000
MANEDIT
1070
     0
1002
}
1002
{
1000
NOSEL
1070
     0
1002
}
1002
{
1000
BEHIND
1070
     0
1002
}
1002
{
1000
REACTOR
1002
}
1001
GENIUS_GENOBJ-N-FIL_13
1002
{
1000
OWNER
1000
GEN
1002
}
  0
LINE
  5
EFEB
  8
AM_0
 10
623.59797376434324
 20
185.46079758309369
 30
0.0
 11
623.43172529049514
 21
190.22153098809929
 31
0.0
  0
LINE
  5
EFEC
  8
AM_0
 10
615.66847329714813
 20
186.36776937386441
 30
0.0
 11
615.8507163830144
 21
191.58652853979021
 31
0.0
  0
ARC
  5
EFED
  8
AM_0
 10
614.60017471419428
 20
186.41215102294049
 30
0.0
 40
1.0
 50
181.99999999999719
 51
262.14682191119419
1001
GENIUS_GENODEF_13
1002
{
1000
HIER
1070
     0
1002
}
1002
{
1000
MANEDIT
1070
     0
1002
}
1002
{
1000
NOSEL
1070
     0
1002
}
1002
{
1000
BEHIND
1070
     0
1002
}
1002
{
1000
REACTOR
1002
}
1001
GENIUS_GENOBJ-N-FIL_13
1002
{
1000
OWNER
1000
GEN
1002
}
  0
ARC
  5
EFEE
  8
AM_0
 10
629.63003124324155
 20
295.38051070921023
 30
0.0
 40
111.0
 50
262.14682191119419
 51
262.1830521683051
  0
LINE
  5
EFEF
  8
AM_0
 10
613.60078388717534
 20
186.3772515262379
 30
0.0
 11
613.39524148332805
 21
192.2632158631871
 31
0.0
  0
LINE
  5
EFF0
  8
AM_0
 10
593.60593142053256
 20
191.0706393363802
 30
0.0
 11
593.44861187888762
 21
195.57568157728119
 31
0.0
  0
LINE
  5
EFF1
  8
AM_0
 10
595.67649710963849
 20
191.04655543204001
 30
0.0
 11
595.83320416512186
 21
195.5340583640976
 31
0.0
  0
LINE
  5
EFF2
  8
AM_0
 10
605.67221716628569
 20
188.21420627734861
 30
0.0
 11
605.9126588995573
 21
195.09955665109001
 31
0.0
  0
LINE
  5
EFF3
  8
AM_0
 10
603.60342051728242
 20
188.23054101167131
 30
0.0
 11
603.35295969545109
 21
195.40280054307141
 31
0.0
  0
ARC
  5
EFF5
  8
AM_0
 10
604.60281134430124
 20
188.2654405083739
 30
0.0
 40
1.0
 50
181.99999999999719
 51
256.84888173934428
1001
GENIUS_GENODEF_13
1002
{
1000
HIER
1070
     0
1002
}
1002
{
1000
MANEDIT
1070
     0
1002
}
1002
{
1000
NOSEL
1070
     0
1002
}
1002
{
1000
BEHIND
1070
     0
1002
}
1002
{
1000
REACTOR
1002
}
1001
GENIUS_GENOBJ-N-FIL_13
1002
{
1000
OWNER
1000
GEN
1002
}
  0
ARC
  5
EFF6
  8
AM_0
 10
629.63003124324155
 20
295.38051070921023
 30
0.0
 40
111.0
 50
256.84888173934428
 51
256.88632985670159
  0
ARC
  5
EFF7
  8
AM_0
 10
604.67282633926675
 20
188.2491057740514
 30
0.0
 40
1.0
 50
256.88632985670159
 51
357.99999999999642
1001
GENIUS_GENODEF_13
1002
{
1000
HIER
1070
     0
1002
}
1002
{
1000
MANEDIT
1070
     0
1002
}
1002
{
1000
NOSEL
1070
     0
1002
}
1002
{
1000
BEHIND
1070
     0
1002
}
1002
{
1000
REACTOR
1002
}
1001
GENIUS_GENOBJ-N-FIL_13
1002
{
1000
OWNER
1000
GEN
1002
}
  0
ARC
  5
EFF8
  8
AM_0
 10
629.63003124324155
 20
295.38051070921023
 30
0.0
 40
111.0
 50
251.43341919810331
 51
251.47285768553169
  0
ARC
  5
EFF9
  8
AM_0
 10
594.60532224755184
 20
191.1055388330827
 30
0.0
 40
1.0
 50
182.00000000000369
 51
251.433419198097
1001
GENIUS_GENODEF_13
1002
{
1000
HIER
1070
     0
1002
}
1002
{
1000
MANEDIT
1070
     0
1002
}
1002
{
1000
NOSEL
1070
     0
1002
}
1002
{
1000
BEHIND
1070
     0
1002
}
1002
{
1000
REACTOR
1002
}
1001
GENIUS_GENOBJ-N-FIL_13
1002
{
1000
OWNER
1000
GEN
1002
}
  0
ARC
  5
EFFA
  8
AM_0
 10
594.67710628261921
 20
191.0814549287428
 30
0.0
 40
1.0
 50
251.47285768553169
 51
358.00000000000279
1001
GENIUS_GENODEF_13
1002
{
1000
HIER
1070
     0
1002
}
1002
{
1000
MANEDIT
1070
     0
1002
}
1002
{
1000
NOSEL
1070
     0
1002
}
1002
{
1000
BEHIND
1070
     0
1002
}
1002
{
1000
REACTOR
1002
}
1001
GENIUS_GENOBJ-N-FIL_13
1002
{
1000
OWNER
1000
GEN
1002
}
  0
LINE
  5
100C3
  8
AM_0
 10
436.41704982744739
 20
447.91213698294229
 30
0.0
 11
297.64365694319901
 21
447.91215257300678
 31
0.0
  0
LINE
  5
100C4
  8
AM_0
 10
436.64396621771579
 20
460.91213759509048
 30
0.0
 11
297.64365667544621
 21
460.91213759509048
 31
0.0
  0
LINE
  5
100C5
  8
AM_0
 10
435.54429709446498
 20
523.91213947263668
 30
0.0
 11
297.64365694319901
 21
523.91213947263714
 31
0.0
  0
LINE
  5
100C6
  8
ﾁｭｳｼﾝｾﾝ1
 10
136.6375536953266
 20
485.91211839528148
 30
0.0
 11
439.64366129386963
 21
485.91216184485671
 31
0.0
1001
GENIUS_GENODEF_13
1002
{
1000
HIER
1070
     0
1002
}
1002
{
1000
MANEDIT
1070
     0
1002
}
1002
{
1000
NOSEL
1070
     0
1002
}
1002
{
1000
BEHIND
1070
     0
1002
}
1002
{
1000
REACTOR
1002
}
1001
GENIUS_GENOBJ-N-CEN_13
1002
{
1000
OWNER
1000
GEN
1002
}
  0
LINE
  5
100C7
  8
AM_0
 10
297.64365667544621
 20
460.91213759509048
 30
0.0
 11
298.74332606644401
 21
523.91215481249105
 31
0.0
  0
LINE
  5
100C8
  8
AM_0
 10
282.77513087084139
 20
541.44422687369195
 30
0.0
 11
282.77514612895578
 21
430.38004910121617
 31
0.0
  0
LINE
  5
100C9
  8
AM_0
 10
273.13755369532657
 20
541.91214839528152
 30
0.0
 11
273.13755369532657
 21
429.91212739528152
 31
0.0
  0
LINE
  5
100CA
  8
AM_0
 10
283.45918680380481
 20
431.56484436450211
 30
0.0
 11
288.69513968862202
 21
461.25943366799129
 31
0.0
1001
GENIUS_GENODEF_13
1002
{
1000
HIER
1070
     0
1002
}
1002
{
1000
MANEDIT
1070
     0
1002
}
1002
{
1000
NOSEL
1070
     0
1002
}
1002
{
1000
BEHIND
1070
     0
1002
}
1002
{
1000
REACTOR
1002
}
1001
GENIUS_GENOBJ-N-CEN_13
1002
{
1000
OWNER
1000
GEN
1002
}
  0
ARC
  5
100CB
  8
AM_0
 10
281.48957079973587
 20
431.91213789528149
 30
0.0
 40
2.0
 50
270.0
 51
350.00000821592602
1001
GENIUS_GENOBJ-N-CEN_13
1002
{
1000
OWNER
1000
GEN
1002
}
1001
GENIUS_GENODEF_13
1002
{
1000
HIER
1070
     0
1002
}
1002
{
1000
MANEDIT
1070
     0
1002
}
1002
{
1000
NOSEL
1070
     0
1002
}
1002
{
1000
BEHIND
1070
     0
1002
}
1002
{
1000
OTHER
1070
     0
1002
}
1002
{
1000
REACTOR
1002
}
1001
GENIUS_GENOBJ-N-FIL_13
1002
{
1000
OWNER
1000
GEN
1002
}
  0
LINE
  5
100CC
  8
AM_0
 10
273.13755369532657
 20
429.91213789528149
 30
0.0
 11
281.4895707997357
 21
429.91213789528149
 31
0.0
  0
LINE
  5
100CD
  8
AM_0
 10
296.66095941233033
 20
462.91213759509043
 30
0.0
 11
290.66475524444689
 21
462.91213759509043
 31
0.0
  0
LINE
  5
100CE
  8
AM_0
 10
273.13755369532657
 20
439.91211239528161
 30
0.0
 11
282.77514481942779
 21
439.91213375425622
 31
0.0
  0
LINE
  5
100CF
  8
AM_0
 10
273.13755369532657
 20
453.97468039528161
 30
0.0
 11
282.77514288783982
 21
453.97220896339059
 31
0.0
  0
ARC
  5
100D0
  8
AM_0
 10
290.66475524444689
 20
460.9121375950906
 30
0.0
 40
2.0
 50
90.0
 51
170.00000821592599
1001
GENIUS_GENODEF_13
1002
{
1000
HIER
1070
     0
1002
}
1002
{
1000
MANEDIT
1070
     0
1002
}
1002
{
1000
NOSEL
1070
     0
1002
}
1002
{
1000
BEHIND
1070
     0
1002
}
1002
{
1000
OTHER
1070
     0
1002
}
1002
{
1000
REACTOR
1002
}
1001
GENIUS_GENOBJ-N-FIL_13
1002
{
1000
OWNER
1000
GEN
1002
}
  0
LINE
  5
100D1
  8
AM_0
 10
297.64365694319349
 20
460.9121529349448
 30
0.0
 11
297.87057279402302
 21
447.91215254751472
 31
0.0
  0
ARC
  5
100D2
  8
AM_0
 10
296.66095941233033
 20
461.9121375950906
 30
0.0
 40
1.0
 50
359.00000000001131
 51
90.0
1001
GENIUS_GENODEF_13
1002
{
1000
HIER
1070
     0
1002
}
1002
{
1000
MANEDIT
1070
     0
1002
}
1002
{
1000
NOSEL
1070
     0
1002
}
1002
{
1000
BEHIND
1070
     0
1002
}
1002
{
1000
OTHER
1070
     0
1002
}
1002
{
1000
REACTOR
1002
}
1001
GENIUS_GENOBJ-N-FIL_13
1002
{
1000
OWNER
1000
GEN
1002
}
  0
LINE
  5
100D3
  8
AM_0
 10
296.74302114259802
 20
521.91213947263691
 30
0.0
 11
287.64365977395107
 21
521.91213947263691
 31
0.0
  0
LINE
  5
100D4
  8
AM_0
 10
283.45917121753899
 20
540.25943453304853
 30
0.0
 11
285.6436597739513
 21
527.87059468617213
 31
0.0
1001
GENIUS_GENODEF_13
1002
{
1000
HIER
1070
     0
1002
}
1002
{
1000
MANEDIT
1070
     0
1002
}
1002
{
1000
NOSEL
1070
     0
1002
}
1002
{
1000
BEHIND
1070
     0
1002
}
1002
{
1000
REACTOR
1002
}
1001
GENIUS_GENOBJ-N-CEN_13
1002
{
1000
OWNER
1000
GEN
1002
}
  0
LINE
  5
100D5
  8
AM_0
 10
273.13755369532657
 20
517.85208789528156
 30
0.0
 11
282.7751341119544
 21
517.85208789528156
 31
0.0
  0
ARC
  5
100D6
  8
AM_0
 10
287.6436597739513
 20
523.91213947263668
 30
0.0
 40
2.0
 50
180.0
 51
270.0
1001
GENIUS_GENODEF_13
1002
{
1000
HIER
1070
     0
1002
}
1002
{
1000
MANEDIT
1070
     0
1002
}
1002
{
1000
NOSEL
1070
     0
1002
}
1002
{
1000
BEHIND
1070
     0
1002
}
1002
{
1000
OTHER
1070
     0
1002
}
1002
{
1000
REACTOR
1002
}
1001
GENIUS_GENOBJ-N-FIL_13
1002
{
1000
OWNER
1000
GEN
1002
}
  0
LINE
  5
100D7
  8
AM_0
 10
285.64365977395107
 20
523.91213947263668
 30
0.0
 11
285.6436597739513
 21
527.87059468617213
 31
0.0
  0
ARC
  5
100D8
  8
AM_0
 10
281.48955576131527
 20
539.91213789528138
 30
0.0
 40
2.0
 50
10.000008215929659
 51
90.0
1001
GENIUS_GENOBJ-N-CEN_13
1002
{
1000
OWNER
1000
GEN
1002
}
1001
GENIUS_GENOBJ-N-FIL_13
1002
{
1000
OWNER
1000
GEN
1002
}
1001
GENIUS_GENODEF_13
1002
{
1000
HIER
1070
     0
1002
}
1002
{
1000
MANEDIT
1070
     0
1002
}
1002
{
1000
NOSEL
1070
     0
1002
}
1002
{
1000
BEHIND
1070
     0
1002
}
1002
{
1000
OTHER
1070
     0
1002
}
1002
{
1000
REACTOR
1002
}
  0
LINE
  5
100D9
  8
AM_0
 10
273.13755369532657
 20
531.91213789528138
 30
0.0
 11
282.77513218036978
 21
531.91213789528138
 31
0.0
  0
LINE
  5
100DA
  8
AM_0
 10
273.13755369532657
 20
541.9121378952816
 30
0.0
 11
281.4895557613151
 21
541.9121378952816
 31
0.0
  0
ARC
  5
100DB
  8
AM_0
 10
296.74302114259802
 20
523.91213947263668
 30
0.0
 40
2.0
 50
270.0
 51
359.0000000000046
1001
GENIUS_GENODEF_13
1002
{
1000
HIER
1070
     0
1002
}
1002
{
1000
MANEDIT
1070
     0
1002
}
1002
{
1000
NOSEL
1070
     0
1002
}
1002
{
1000
BEHIND
1070
     0
1002
}
1002
{
1000
OTHER
1070
     0
1002
}
1002
{
1000
REACTOR
1002
}
1001
GENIUS_GENOBJ-N-FIL_13
1002
{
1000
OWNER
1000
GEN
1002
}
  0
LINE
  5
100DD
  8
ﾁｭｳｼﾝｾﾝ1
 10
383.64365977395119
 20
586.62103255025943
 30
0.0
 11
383.64365977395141
 21
385.20327507920808
 31
0.0
  0
LINE
  5
100F5
  8
AM_0
 10
434.64366102611712
 20
415.91214487758782
 30
0.0
 11
434.64366102611712
 21
447.91214487758748
 31
0.0
  0
LINE
  5
100F6
  8
AM_0
 10
297.64365694319901
 20
447.91214487758748
 30
0.0
 11
297.64365694319901
 21
415.91214487758799
 31
0.0
  0
LINE
  5
100F7
  8
AM_0
 10
302.64365694319889
 20
410.91214487758782
 30
0.0
 11
374.14365977395141
 21
410.91214487758782
 31
0.0
  0
LINE
  5
100F9
  8
AM_0
 10
434.64366102611712
 20
443.41214487758748
 30
0.0
 11
398.64366022098631
 21
443.41214487758748
 31
0.0
  0
LINE
  5
100FA
  8
AM_0
 10
368.64365932691658
 20
443.41214487758748
 30
0.0
 11
297.64365694319901
 21
443.41214487758748
 31
0.0
  0
LINE
  5
100FB
  8
AM_0
 10
342.64365983402422
 20
421.41214487758748
 30
0.0
 11
342.64365983402422
 21
443.41214487758748
 31
0.0
  0
LINE
  5
100FC
  8
AM_0
 10
347.14365983402388
 20
421.41214487758748
 30
0.0
 11
347.14365983402428
 21
443.41214487758748
 31
0.0
  0
LINE
  5
100FD
  8
AM_0
 10
347.1436598340245
 20
440.41214487758799
 30
0.0
 11
342.64365983402428
 21
440.41214487758799
 31
0.0
  0
ARC
  5
100FE
  8
AM_0
 10
429.64366102611712
 20
415.91214487758782
 30
0.0
 40
5.0
 50
270.0
 51
0.0
1001
GENIUS_GENOBJ-N-FIL_13
1002
{
1000
OWNER
1000
GEN
1002
}
1001
GENIUS_GENODEF_13
1002
{
1000
HIER
1070
     0
1002
}
1002
{
1000
MANEDIT
1070
     0
1002
}
1002
{
1000
NOSEL
1070
     0
1002
}
1002
{
1000
BEHIND
1070
     0
1002
}
1002
{
1000
OTHER
1070
     0
1002
}
1002
{
1000
REACTOR
1002
}
  0
ARC
  5
100FF
  8
AM_0
 10
302.64365694319889
 20
415.91214487758799
 30
0.0
 40
5.0
 50
180.0
 51
270.0
1001
GENIUS_GENODEF_13
1002
{
1000
HIER
1070
     0
1002
}
1002
{
1000
MANEDIT
1070
     0
1002
}
1002
{
1000
NOSEL
1070
     0
1002
}
1002
{
1000
BEHIND
1070
     0
1002
}
1002
{
1000
OTHER
1070
     0
1002
}
1002
{
1000
REACTOR
1002
}
1001
GENIUS_GENOBJ-N-FIL_13
1002
{
1000
OWNER
1000
GEN
1002
}
  0
LINE
  5
10100
  8
ﾁｭｳｼﾝｾﾝ1
 10
426.6436591783733
 20
420.91214621869148
 30
0.0
 11
400.6436591783733
 21
420.91214621869148
 31
0.0
  0
LINE
  5
10101
  8
ﾁｭｳｼﾝｾﾝ1
 10
413.6436591783733
 20
433.91214621869142
 30
0.0
 11
413.6436591783733
 21
407.91214621869148
 31
0.0
  0
CIRCLE
  5
10102
  8
AM_0
 10
413.6436591783733
 20
420.91214621869148
 30
0.0
 40
5.0
  0
CIRCLE
  5
10103
  8
AM_0
 10
318.6436587909426
 20
420.91214621869148
 30
0.0
 40
5.0
  0
INSERT
  5
10104
  8
AM_0
  6
CONTINUOUS
  2
*U5
 10
0.0
 20
0.0
 30
0.0
1001
GENIUS_GENODEF_13
1002
{
1000
HIER
1070
     0
1002
}
1002
{
1000
MANEDIT
1070
     0
1002
}
1002
{
1000
NOSEL
1070
     0
1002
}
1002
{
1000
BEHIND
1070
     0
1002
}
1002
{
1000
OTHER
1070
     0
1002
}
1002
{
1000
REACTOR
1002
}
1001
GENIUS_GENOBJ-N-HTC_13
1002
{
1000
OWNER
1000
GEN
1002
}
1001
GENIUS_GENHATCH_13
1002
{
1000
DATA
1040
0.0
1042
1.0
1000
SOLID
1070
     0
1011
342.02590846213189
1021
0.0
1031
0.0
1021
442.56603697894241
1031
0.0
1002
}
1002
{
1000
UCS
1010
0.0
1020
0.0
1030
0.0
1010
1.0
1020
0.0
1030
0.0
1010
0.0
1020
1.0
1030
0.0
1002
}
1001
ACAD
1002
{
1000
R14_HATCH_DATA
1000
10104
1011
1.0
1021
0.0
1031
0.0
1021
0.0
1031
0.0
1011
0.0
1021
0.0
1031
0.0
1021
1.0
1031
0.0
1011
0.0
1021
0.0
1031
0.0
1021
0.0
1031
1.0
1040
0.0
1010
0.0
1020
0.0
1030
1.0
1000
SOLID
1070
     1
1070
     0
1071
        2
1071
        1
1071
        3
1070
     1
1040
340.14365983402422
1040
443.41214487758748
1040
342.64365983402422
1040
443.41214487758748
1070
     1
1040
342.64365983402422
1040
443.41214487758748
1040
342.64365983402422
1040
440.91214487758748
1070
     1
1040
342.64365983402422
1040
440.91214487758748
1040
340.14365983402422
1040
443.41214487758748
1071
        0
1071
       33
1071
        1
1070
     1
1040
297.64365694319889
1040
443.41214487758748
1040
434.64366102611712
1040
443.41214487758748
1071
        0
1070
     0
1070
     1
1071
        1
1040
532.16984276535845
1040
199.41452022762559
1040
0.0
1002
}
  0
LINE
  5
10105
  8
AM_0
 10
342.64365983402422
 20
440.91214487758748
 30
0.0
 11
340.14365983402422
 21
443.41214487758748
 31
0.0
1001
GENIUS_GENFIL_13
1070
     0
1040
2.5
1040
2.5
1040
20.0
1040
0.0
1002
{
1002
}
1001
GENIUS_GENODEF_13
1002
{
1000
HIER
1070
     0
1002
}
1002
{
1000
MANEDIT
1070
     0
1002
}
1002
{
1000
NOSEL
1070
     0
1002
}
1002
{
1000
BEHIND
1070
     0
1002
}
1002
{
1000
OTHER
1070
     0
1002
}
1002
{
1000
REACTOR
1002
}
1001
GENIUS_GENOBJ-N-CHA_13
1002
{
1000
OWNER
1000
GEN
1002
}
  0
LINE
  5
10106
  8
AM_0
 10
347.14365983402467
 20
440.91214487758748
 30
0.0
 11
349.64365983402467
 21
443.41214487758748
 31
0.0
1001
GENIUS_GENFIL_13
1070
     0
1040
2.5
1040
2.5
1040
20.0
1040
0.0
1002
{
1002
}
1001
GENIUS_GENODEF_13
1002
{
1000
HIER
1070
     0
1002
}
1002
{
1000
MANEDIT
1070
     0
1002
}
1002
{
1000
NOSEL
1070
     0
1002
}
1002
{
1000
BEHIND
1070
     0
1002
}
1002
{
1000
OTHER
1070
     0
1002
}
1002
{
1000
REACTOR
1002
}
1001
GENIUS_GENOBJ-N-CHA_13
1002
{
1000
OWNER
1000
GEN
1002
}
  0
INSERT
  5
10107
  8
AM_0
  6
CONTINUOUS
  2
*U6
 10
0.0
 20
0.0
 30
0.0
1001
GENIUS_GENODEF_13
1002
{
1000
HIER
1070
     0
1002
}
1002
{
1000
MANEDIT
1070
     0
1002
}
1002
{
1000
NOSEL
1070
     0
1002
}
1002
{
1000
BEHIND
1070
     0
1002
}
1002
{
1000
OTHER
1070
     0
1002
}
1002
{
1000
REACTOR
1002
}
1001
GENIUS_GENOBJ-N-HTC_13
1002
{
1000
OWNER
1000
GEN
1002
}
1001
GENIUS_GENHATCH_13
1002
{
1000
DATA
1040
0.0
1042
1.0
1000
SOLID
1070
     0
1011
347.761411205917
1021
0.0
1031
0.0
1021
442.56603697894241
1031
0.0
1002
}
1002
{
1000
UCS
1010
0.0
1020
0.0
1030
0.0
1010
1.0
1020
0.0
1030
0.0
1010
0.0
1020
1.0
1030
0.0
1002
}
1001
ACAD
1002
{
1000
R14_HATCH_DATA
1000
10107
1011
1.0
1021
0.0
1031
0.0
1021
0.0
1031
0.0
1011
0.0
1021
0.0
1031
0.0
1021
1.0
1031
0.0
1011
0.0
1021
0.0
1031
0.0
1021
0.0
1031
1.0
1040
0.0
1010
0.0
1020
0.0
1030
1.0
1000
SOLID
1070
     1
1070
     0
1071
        2
1071
        1
1071
        3
1070
     1
1040
349.64365983402467
1040
443.41214487758748
1040
347.14365983402467
1040
443.41214487758748
1070
     1
1040
347.14365983402467
1040
443.41214487758748
1040
347.14365983402467
1040
440.91214487758748
1070
     1
1040
347.14365983402467
1040
440.91214487758748
1040
349.64365983402467
1040
443.41214487758748
1071
        0
1071
       33
1071
        1
1070
     1
1040
392.14366272484978
1040
443.41214487758748
1040
255.14365864193169
1040
443.41214487758748
1071
        0
1070
     0
1070
     1
1071
        1
1040
157.6174769026905
1040
199.41452022762559
1040
0.0
1002
}
  0
LINE
  5
10108
  8
AM_5
 10
348.64365846311739
 20
443.41214487758748
 30
0.0
 11
348.64365846311739
 21
447.91214487758748
 31
0.0
  0
LINE
  5
10109
  8
AM_5
 10
326.14366005257398
 20
443.41214487758748
 30
0.0
 11
326.14366005257398
 21
447.91214487758748
 31
0.0
  0
LINE
  5
1010A
  8
AM_0
 10
347.14365983402388
 20
421.41214487758748
 30
0.0
 11
342.64365983402422
 21
421.41214487758748
 31
0.0
  0
LINE
  5
1010B
  8
ﾁｭｳｼﾝｾﾝ1
 10
331.6436587909426
 20
420.91214621869148
 30
0.0
 11
305.64365879094271
 21
420.91214621869148
 31
0.0
  0
LINE
  5
1010C
  8
ﾁｭｳｼﾝｾﾝ1
 10
318.64365879094271
 20
433.91214621869142
 30
0.0
 11
318.64365879094271
 21
407.91214621869148
 31
0.0
  0
LINE
  5
1010D
  8
AM_0
 10
434.64366102611712
 20
555.9121788121256
 30
0.0
 11
434.64366102611712
 21
523.91217881212583
 31
0.0
  0
LINE
  5
1010E
  8
AM_0
 10
297.64365694319901
 20
523.91217881212583
 30
0.0
 11
297.64365694319901
 21
555.91217881212526
 31
0.0
  0
LINE
  5
1010F
  8
AM_0
 10
302.64365694319889
 20
560.91217881212526
 30
0.0
 11
374.14365977395141
 21
560.91217881212549
 31
0.0
  0
LINE
  5
10110
  8
AM_0
 10
434.64366102611712
 20
528.41217881212583
 30
0.0
 11
398.64366022098608
 21
528.41217881212583
 31
0.0
  0
LINE
  5
10112
  8
AM_0
 10
342.64365983402422
 20
550.41217881212583
 30
0.0
 11
342.64365983402422
 21
528.41217881212583
 31
0.0
  0
LINE
  5
10113
  8
AM_0
 10
347.14365983402388
 20
550.41217881212583
 30
0.0
 11
347.14365983402428
 21
528.41217881212583
 31
0.0
  0
LINE
  5
10115
  8
AM_0
 10
347.1436598340245
 20
531.41217881212526
 30
0.0
 11
342.64365983402428
 21
531.41217881212526
 31
0.0
  0
ARC
  5
10117
  8
AM_0
 10
429.64366102611712
 20
555.9121788121256
 30
0.0
 40
5.0
 50
0.0
 51
90.0
1001
GENIUS_GENOBJ-N-FIL_13
1002
{
1000
OWNER
1000
GEN
1002
}
1001
GENIUS_GENODEF_13
1002
{
1000
HIER
1070
     0
1002
}
1002
{
1000
MANEDIT
1070
     0
1002
}
1002
{
1000
NOSEL
1070
     0
1002
}
1002
{
1000
BEHIND
1070
     0
1002
}
1002
{
1000
OTHER
1070
     0
1002
}
1002
{
1000
REACTOR
1002
}
  0
ARC
  5
10118
  8
AM_0
 10
302.64365694319889
 20
555.91217881212526
 30
0.0
 40
5.0
 50
90.0
 51
180.0
1001
GENIUS_GENODEF_13
1002
{
1000
HIER
1070
     0
1002
}
1002
{
1000
MANEDIT
1070
     0
1002
}
1002
{
1000
NOSEL
1070
     0
1002
}
1002
{
1000
BEHIND
1070
     0
1002
}
1002
{
1000
OTHER
1070
     0
1002
}
1002
{
1000
REACTOR
1002
}
1001
GENIUS_GENOBJ-N-FIL_13
1002
{
1000
OWNER
1000
GEN
1002
}
  0
LINE
  5
10119
  8
ﾁｭｳｼﾝｾﾝ1
 10
426.6436591783733
 20
550.91217747102189
 30
0.0
 11
400.6436591783733
 21
550.91217747102189
 31
0.0
  0
LINE
  5
1011A
  8
ﾁｭｳｼﾝｾﾝ1
 10
413.6436591783733
 20
537.91217747102201
 30
0.0
 11
413.6436591783733
 21
563.91217747102178
 31
0.0
  0
CIRCLE
  5
1011B
  8
AM_0
 10
413.6436591783733
 20
550.91217747102189
 30
0.0
 40
5.0
  0
CIRCLE
  5
1011C
  8
AM_0
 10
318.6436587909426
 20
550.91217747102189
 30
0.0
 40
5.0
  0
INSERT
  5
10121
  8
AM_0
  6
CONTINUOUS
  2
*U7
 10
0.0
 20
0.0
 30
0.0
1001
GENIUS_GENODEF_13
1002
{
1000
HIER
1070
     0
1002
}
1002
{
1000
MANEDIT
1070
     0
1002
}
1002
{
1000
NOSEL
1070
     0
1002
}
1002
{
1000
BEHIND
1070
     0
1002
}
1002
{
1000
OTHER
1070
     0
1002
}
1002
{
1000
REACTOR
1002
}
1001
GENIUS_GENOBJ-N-HTC_13
1002
{
1000
OWNER
1000
GEN
1002
}
1001
GENIUS_GENHATCH_13
1002
{
1000
DATA
1040
0.0
1042
-1.0
1000
SOLID
1070
     0
1011
342.02590846213189
1021
0.0
1031
0.0
1021
529.25828671077056
1031
0.0
1002
}
1002
{
1000
UCS
1010
0.0
1020
0.0
1030
0.0
1010
1.0
1020
0.0
1030
0.0
1010
0.0
1020
1.0
1030
0.0
1002
}
1001
ACAD
1002
{
1000
R14_HATCH_DATA
1000
10121
1011
1.0
1021
0.0
1031
0.0
1021
0.0
1031
0.0
1011
0.0
1021
0.0
1031
0.0
1021
1.0
1031
0.0
1011
0.0
1021
0.0
1031
0.0
1021
0.0
1031
1.0
1040
0.0
1010
0.0
1020
0.0
1030
1.0
1000
SOLID
1070
     1
1070
     0
1071
        2
1071
        1
1071
        3
1070
     1
1040
340.14365983402422
1040
528.41217881212583
1040
342.64365983402422
1040
528.41217881212583
1070
     1
1040
342.64365983402422
1040
528.41217881212583
1040
342.64365983402422
1040
530.91217881212583
1070
     1
1040
342.64365983402422
1040
530.91217881212583
1040
340.14365983402422
1040
528.41217881212583
1071
        0
1071
       33
1071
        1
1070
     1
1040
297.64365694319889
1040
528.41217881212583
1040
434.64366102611712
1040
528.41217881212583
1071
        0
1070
     0
1070
     1
1071
        1
1040
532.16984276535845
1040
772.40980346208755
1040
0.0
1002
}
  0
LINE
  5
10122
  8
AM_0
 10
342.64365983402422
 20
530.91217881212583
 30
0.0
 11
340.14365983402422
 21
528.41217881212583
 31
0.0
1001
GENIUS_GENFIL_13
1070
     0
1040
2.5
1040
2.5
1040
20.0
1040
0.0
1002
{
1002
}
1001
GENIUS_GENODEF_13
1002
{
1000
HIER
1070
     0
1002
}
1002
{
1000
MANEDIT
1070
     0
1002
}
1002
{
1000
NOSEL
1070
     0
1002
}
1002
{
1000
BEHIND
1070
     0
1002
}
1002
{
1000
OTHER
1070
     0
1002
}
1002
{
1000
REACTOR
1002
}
1001
GENIUS_GENOBJ-N-CHA_13
1002
{
1000
OWNER
1000
GEN
1002
}
  0
LINE
  5
10123
  8
AM_0
 10
347.14365983402467
 20
530.91217881212583
 30
0.0
 11
349.64365983402467
 21
528.41217881212583
 31
0.0
1001
GENIUS_GENFIL_13
1070
     0
1040
2.5
1040
2.5
1040
20.0
1040
0.0
1002
{
1002
}
1001
GENIUS_GENODEF_13
1002
{
1000
HIER
1070
     0
1002
}
1002
{
1000
MANEDIT
1070
     0
1002
}
1002
{
1000
NOSEL
1070
     0
1002
}
1002
{
1000
BEHIND
1070
     0
1002
}
1002
{
1000
OTHER
1070
     0
1002
}
1002
{
1000
REACTOR
1002
}
1001
GENIUS_GENOBJ-N-CHA_13
1002
{
1000
OWNER
1000
GEN
1002
}
  0
INSERT
  5
10124
  8
AM_0
  6
CONTINUOUS
  2
*U8
 10
0.0
 20
0.0
 30
0.0
1001
GENIUS_GENODEF_13
1002
{
1000
HIER
1070
     0
1002
}
1002
{
1000
MANEDIT
1070
     0
1002
}
1002
{
1000
NOSEL
1070
     0
1002
}
1002
{
1000
BEHIND
1070
     0
1002
}
1002
{
1000
OTHER
1070
     0
1002
}
1002
{
1000
REACTOR
1002
}
1001
GENIUS_GENOBJ-N-HTC_13
1002
{
1000
OWNER
1000
GEN
1002
}
1001
GENIUS_GENHATCH_13
1002
{
1000
DATA
1040
0.0
1042
-1.0
1000
SOLID
1070
     0
1011
347.761411205917
1021
0.0
1031
0.0
1021
529.25828671077056
1031
0.0
1002
}
1002
{
1000
UCS
1010
0.0
1020
0.0
1030
0.0
1010
1.0
1020
0.0
1030
0.0
1010
0.0
1020
1.0
1030
0.0
1002
}
1001
ACAD
1002
{
1000
R14_HATCH_DATA
1000
10124
1011
1.0
1021
0.0
1031
0.0
1021
0.0
1031
0.0
1011
0.0
1021
0.0
1031
0.0
1021
1.0
1031
0.0
1011
0.0
1021
0.0
1031
0.0
1021
0.0
1031
1.0
1040
0.0
1010
0.0
1020
0.0
1030
1.0
1000
SOLID
1070
     1
1070
     0
1071
        2
1071
        1
1071
        3
1070
     1
1040
349.64365983402467
1040
528.41217881212583
1040
347.14365983402467
1040
528.41217881212583
1070
     1
1040
347.14365983402467
1040
528.41217881212583
1040
347.14365983402467
1040
530.91217881212583
1070
     1
1040
347.14365983402467
1040
530.91217881212583
1040
349.64365983402467
1040
528.41217881212583
1071
        0
1071
       33
1071
        1
1070
     1
1040
392.14366272484978
1040
528.41217881212583
1040
255.14365864193169
1040
528.41217881212583
1071
        0
1070
     0
1070
     1
1071
        1
1040
157.6174769026905
1040
772.40980346208755
1040
0.0
1002
}
  0
LINE
  5
10125
  8
AM_5
 10
348.64365846311739
 20
528.41217881212583
 30
0.0
 11
348.64365846311739
 21
523.91217881212583
 31
0.0
  0
LINE
  5
10126
  8
AM_5
 10
326.14366005257398
 20
528.41217881212583
 30
0.0
 11
326.14366005257398
 21
523.91217881212583
 31
0.0
  0
LINE
  5
10128
  8
AM_0
 10
347.14365983402388
 20
550.41217881212583
 30
0.0
 11
342.64365983402422
 21
550.41217881212583
 31
0.0
  0
LINE
  5
10129
  8
ﾁｭｳｼﾝｾﾝ1
 10
331.6436587909426
 20
550.91217747102189
 30
0.0
 11
305.64365879094271
 21
550.91217747102189
 31
0.0
  0
LINE
  5
1012A
  8
ﾁｭｳｼﾝｾﾝ1
 10
318.64365879094271
 20
537.91217747102201
 30
0.0
 11
318.64365879094271
 21
563.91217747102178
 31
0.0
  0
LINE
  5
1012B
  8
AM_0
 10
415.1436606982914
 20
530.00217881212575
 30
0.0
 11
432.14366069829163
 21
530.0021788121262
 31
0.0
  0
LINE
  5
1012C
  8
AM_0
 10
432.14366069829163
 20
530.0021788121262
 30
0.0
 11
432.14366069829163
 21
528.41217881212583
 31
0.0
  0
LINE
  5
1012D
  8
AM_0
 10
415.1436606982914
 20
530.0021788121262
 30
0.0
 11
415.1436606982914
 21
528.41217881212583
 31
0.0
  0
LINE
  5
1012E
  8
AM_0
 10
417.14366069829163
 20
538.00217881212484
 30
0.0
 11
430.1436606982914
 21
538.00217881212484
 31
0.0
  0
LINE
  5
1012F
  8
AM_0
 10
430.1436606982914
 20
530.00217881212484
 30
0.0
 11
430.1436606982914
 21
538.00217881212484
 31
0.0
  0
LINE
  5
10130
  8
AM_0
 10
417.14366069829163
 20
530.00217881212484
 30
0.0
 11
417.14366069829163
 21
538.00217881212484
 31
0.0
  0
LINE
  5
10131
  8
AM_0
 10
300.14365727102438
 20
530.00217881212575
 30
0.0
 11
317.14365727102449
 21
530.0021788121262
 31
0.0
  0
LINE
  5
10132
  8
AM_0
 10
317.14365727102449
 20
530.0021788121262
 30
0.0
 11
317.14365727102449
 21
528.41217881212583
 31
0.0
  0
LINE
  5
10133
  8
AM_0
 10
300.14365727102438
 20
530.0021788121262
 30
0.0
 11
300.14365727102438
 21
528.41217881212583
 31
0.0
  0
LINE
  5
10134
  8
AM_0
 10
302.14365727102449
 20
538.00217881212484
 30
0.0
 11
315.14365727102438
 21
538.00217881212484
 31
0.0
  0
LINE
  5
10135
  8
AM_0
 10
315.14365727102438
 20
530.00217881212484
 30
0.0
 11
315.14365727102438
 21
538.00217881212484
 31
0.0
  0
LINE
  5
10136
  8
AM_0
 10
302.14365727102449
 20
530.00217881212484
 30
0.0
 11
302.14365727102449
 21
538.00217881212484
 31
0.0
  0
LINE
  5
10137
  8
AM_0
 10
427.3936606982914
 20
435.32214487758682
 30
0.0
 11
427.3936606982914
 21
441.82214487758648
 31
0.0
  0
LINE
  5
10138
  8
AM_0
 10
431.14366069829151
 20
435.32214487758682
 30
0.0
 11
431.14366069829151
 21
441.8221448775866
 31
0.0
  0
LINE
  5
10139
  8
AM_0
 10
419.89366069829163
 20
435.32214487758682
 30
0.0
 11
419.89366069829168
 21
441.8221448775866
 31
0.0
  0
LINE
  5
1013A
  8
AM_0
 10
416.1436606982914
 20
435.32214487758682
 30
0.0
 11
416.14366069829163
 21
441.8221448775866
 31
0.0
  0
LINE
  5
1013B
  8
AM_0
 10
419.6436606982914
 20
435.0021471425631
 30
0.0
 11
427.6436606982914
 21
435.0021471425631
 31
0.0
  0
LINE
  5
1013C
  8
AM_0
 10
416.1436606982914
 20
435.32214487758682
 30
0.0
 11
431.14366069829151
 21
435.32214487758682
 31
0.0
  0
LINE
  5
1013D
  8
AM_0
 10
427.6436606982914
 20
435.32214487758682
 30
0.0
 11
427.6436606982914
 21
435.00214714256288
 31
0.0
  0
LINE
  5
1013E
  8
AM_5
 10
420.6436606982914
 20
435.32214487758682
 30
0.0
 11
420.6436606982914
 21
435.0021471425631
 31
0.0
  0
LINE
  5
1013F
  8
AM_0
 10
419.6436606982914
 20
435.32214487758682
 30
0.0
 11
419.6436606982914
 21
435.0021471425631
 31
0.0
  0
LINE
  5
10140
  8
AM_5
 10
426.64366069829163
 20
435.32214487758682
 30
0.0
 11
426.64366069829163
 21
435.00214714256288
 31
0.0
  0
LINE
  5
10141
  8
AM_0
 10
415.1436606982914
 20
441.82214487758762
 30
0.0
 11
432.1436606982914
 21
441.82214487758762
 31
0.0
  0
LINE
  5
10142
  8
AM_0
 10
432.1436606982914
 20
441.82214487758762
 30
0.0
 11
432.1436606982914
 21
443.41214487758759
 31
0.0
  0
LINE
  5
10143
  8
AM_0
 10
415.1436606982914
 20
441.82214487758762
 30
0.0
 11
415.1436606982914
 21
443.41214487758759
 31
0.0
  0
LINE
  5
10144
  8
AM_0
 10
312.39365727102449
 20
435.32214487758682
 30
0.0
 11
312.39365727102449
 21
441.82214487758648
 31
0.0
  0
LINE
  5
10145
  8
AM_0
 10
316.14365727102449
 20
435.32214487758682
 30
0.0
 11
316.14365727102438
 21
441.8221448775866
 31
0.0
  0
LINE
  5
10146
  8
AM_0
 10
304.89365727102449
 20
435.32214487758682
 30
0.0
 11
304.89365727102461
 21
441.8221448775866
 31
0.0
  0
LINE
  5
10147
  8
AM_0
 10
301.14365727102449
 20
435.32214487758682
 30
0.0
 11
301.14365727102461
 21
441.8221448775866
 31
0.0
  0
LINE
  5
10148
  8
AM_0
 10
304.64365727102449
 20
435.0021471425631
 30
0.0
 11
312.64365727102449
 21
435.0021471425631
 31
0.0
  0
LINE
  5
10149
  8
AM_0
 10
301.14365727102449
 20
435.32214487758682
 30
0.0
 11
316.14365727102449
 21
435.32214487758682
 31
0.0
  0
LINE
  5
1014A
  8
AM_0
 10
312.64365727102449
 20
435.32214487758682
 30
0.0
 11
312.64365727102449
 21
435.00214714256288
 31
0.0
  0
LINE
  5
1014B
  8
AM_5
 10
305.64365727102449
 20
435.32214487758682
 30
0.0
 11
305.64365727102449
 21
435.0021471425631
 31
0.0
  0
LINE
  5
1014C
  8
AM_0
 10
304.64365727102449
 20
435.32214487758682
 30
0.0
 11
304.64365727102449
 21
435.0021471425631
 31
0.0
  0
LINE
  5
1014D
  8
AM_5
 10
311.64365727102449
 20
435.32214487758682
 30
0.0
 11
311.64365727102449
 21
435.00214714256288
 31
0.0
  0
LINE
  5
1014E
  8
AM_0
 10
300.14365727102449
 20
441.82214487758762
 30
0.0
 11
317.14365727102449
 21
441.82214487758762
 31
0.0
  0
LINE
  5
1014F
  8
AM_0
 10
317.14365727102449
 20
441.82214487758762
 30
0.0
 11
317.14365727102449
 21
443.41214487758759
 31
0.0
  0
LINE
  5
10150
  8
AM_0
 10
300.14365727102449
 20
441.82214487758762
 30
0.0
 11
300.14365727102449
 21
443.41214487758759
 31
0.0
  0
LINE
  5
102F2
  8
AM_0
 10
265.13755369532657
 20
541.91210839528139
 30
0.0
 11
265.13755369532657
 21
429.91212739528152
 31
0.0
  0
LINE
  5
102F3
  8
AM_0
 10
149.13755369532669
 20
538.91210839528162
 30
0.0
 11
149.13755369532669
 21
432.91212739528152
 31
0.0
  0
LINE
  5
102F4
  8
AM_0
 10
157.13755369532669
 20
538.91210839528162
 30
0.0
 11
157.13755369532669
 21
436.47188039528157
 31
0.0
  0
LINE
  5
102F5
  8
AM_0
 10
157.13755369532669
 20
534.00781839528145
 30
0.0
 11
158.37882369532659
 21
540.56725839528156
 31
0.0
  0
LINE
  5
102F6
  8
AM_0
 10
157.13761369532659
 20
535.35234839528164
 30
0.0
 11
158.4176436953266
 21
543.35753839528161
 31
0.0
  0
LINE
  5
102F7
  8
AM_0
 10
157.13755369532669
 20
536.69698839528155
 30
0.0
 11
158.42857369532669
 21
545.19002839528162
 31
0.0
  0
LINE
  5
102F8
  8
AM_0
 10
157.13755369532669
 20
536.69698839528155
 30
0.0
 11
158.44639369532669
 21
546.0764283952816
 31
0.0
  0
LINE
  5
102F9
  8
AM_0
 10
263.33967369532672
 20
525.24692839528166
 30
0.0
 11
259.19553369532667
 21
540.71300839528146
 31
0.0
  0
ARC
  5
102FC
  8
AM_0
 10
158.81486369532661
 20
520.95722839528162
 30
0.0
 40
1.6779127
 50
90.000003000000945
 51
270.0
  0
ARC
  5
102FD
  8
AM_0
 10
158.59904369532671
 20
510.93677839528158
 30
0.0
 40
1.4614868000000001
 50
90.000003000000945
 51
270.0
  0
ARC
  5
102FE
  8
AM_0
 10
158.4684836953266
 20
500.9246783952816
 30
0.0
 40
1.3309325999999999
 50
90.000003000000945
 51
270.0
  0
ARC
  5
102FF
  8
AM_0
 10
158.40647369532661
 20
490.91594839528159
 30
0.0
 40
1.268920899999999
 50
90.000003000000945
 51
270.0
  0
ARC
  5
10300
  8
AM_0
 10
158.40647369532661
 20
480.90821839528161
 30
0.0
 40
1.268920899999999
 50
90.000003000000945
 51
270.0
  0
ARC
  5
10301
  8
AM_0
 10
158.4684836953266
 20
470.89955839528147
 30
0.0
 40
1.3309325999999999
 50
90.000003000000945
 51
270.0
  0
ARC
  5
10302
  8
AM_0
 10
158.5991036953267
 20
460.88738839528162
 30
0.0
 40
1.4615020999999999
 50
90.000003000000945
 51
270.0
  0
ARC
  5
10303
  8
AM_0
 10
158.8154736953266
 20
450.8669463952815
 30
0.0
 40
1.6779174999999991
 50
90.000003000000945
 51
270.0
  0
LINE
  5
10304
  8
AM_0
 10
162.5029736953266
 20
522.56330839528164
 30
0.0
 11
157.13755369532669
 21
534.00777839528155
 31
0.0
  0
LINE
  5
10305
  8
AM_0
 10
162.50303369532659
 20
449.26087439528152
 30
0.0
 11
157.13761369532659
 21
437.81640139528162
 31
0.0
  0
LINE
  5
10306
  8
AM_0
 10
157.13755369532669
 20
437.81637139528152
 30
0.0
 11
158.37882369532659
 21
431.25699939528153
 31
0.0
  0
LINE
  5
10307
  8
AM_0
 10
157.13755369532669
 20
436.47183539528157
 30
0.0
 11
158.41758369532661
 21
428.46666239528162
 31
0.0
  0
LINE
  5
10308
  8
AM_0
 10
157.1374936953267
 20
435.12728439528161
 30
0.0
 11
158.42857369532669
 21
426.63415039528161
 31
0.0
  0
LINE
  5
10309
  8
AM_0
 10
157.13755369532669
 20
435.12723839528161
 30
0.0
 11
158.44639369532669
 21
425.74779839528151
 31
0.0
  0
ARC
  5
1030A
  8
AM_0
 10
144.13755369532669
 20
470.9121183952816
 30
0.0
 40
1.0
 50
179.999989999999
 51
270.0
  0
LINE
  5
1030B
  8
AM_0
 10
141.63755369532669
 20
505.91210839528162
 30
0.0
 11
141.63755369532669
 21
465.91212839528163
 31
0.0
  0
LINE
  5
1030C
  8
AM_0
 10
145.13755369532669
 20
470.30500839528162
 30
0.0
 11
145.13755369532669
 21
471.51636839528152
 31
0.0
  0
LINE
  5
1030D
  8
AM_0
 10
148.13755369532669
 20
535.91210839528162
 30
0.0
 11
148.13755369532669
 21
434.78888939528161
 31
0.0
  0
LINE
  5
1030E
  8
AM_0
 10
143.1375536953266
 20
437.89570939528147
 30
0.0
 11
143.1375536953266
 21
480.91212839528163
 31
0.0
  0
ARC
  5
1030F
  8
AM_0
 10
144.13755369532669
 20
437.89570939528147
 30
0.0
 40
1.0
 50
179.999989999999
 51
239.97360999999819
  0
LINE
  5
10310
  8
AM_0
 10
149.13755369532669
 20
432.91212739528152
 30
0.0
 11
157.13755369532669
 21
432.91212739528152
 31
0.0
  0
ARC
  5
10311
  8
AM_0
 10
145.40574369532669
 20
437.16273739528168
 30
0.0
 40
1.0
 50
239.9736000000006
 51
270.0
  0
LINE
  5
10312
  8
AM_0
 10
144.9053136953265
 20
436.29696139528158
 30
0.0
 11
143.63712369532661
 21
437.0299403952817
 31
0.0
  0
LINE
  5
10313
  8
AM_0
 10
145.13755369532669
 20
436.41596539528172
 30
0.0
 11
145.13755369532669
 21
436.9417293952817
 31
0.0
  0
ARC
  5
10314
  8
AM_0
 10
147.63755369532669
 20
435.66273739528162
 30
0.0
 40
0.5
 50
0.0
 51
90.000003000000945
  0
LINE
  5
10315
  8
AM_0
 10
145.40574369532669
 20
436.16273039528159
 30
0.0
 11
147.63755369532669
 21
436.16273039528159
 31
0.0
  0
LINE
  5
10316
  8
AM_0
 10
148.13755369532669
 20
435.91212739528157
 30
0.0
 11
149.13755369532669
 21
435.91212739528157
 31
0.0
  0
ARC
  5
10317
  8
AM_0
 10
144.13755369532669
 20
445.67187739528163
 30
0.0
 40
1.0
 50
179.999989999999
 51
239.64048999999821
  0
ARC
  5
10318
  8
AM_0
 10
144.13755369532669
 20
445.67187739528163
 30
0.0
 40
1.0
 50
179.999989999999
 51
239.64048999999821
  0
ARC
  5
10319
  8
AM_0
 10
145.3768136953266
 20
438.3090233952816
 30
0.0
 40
1.0
 50
243.08874000000111
 51
270.0
  0
ARC
  5
1031A
  8
AM_0
 10
145.4145936953266
 20
439.27046439528152
 30
0.0
 40
1.0
 50
239.03339999999869
 51
270.0
  0
ARC
  5
1031B
  8
AM_0
 10
145.3862136953266
 20
440.4104793952817
 30
0.0
 40
1.0
 50
242.07340000000079
 51
270.0
  0
ARC
  5
1031C
  8
AM_0
 10
145.43620369532661
 20
443.78717339528163
 30
0.0
 40
1.0
 50
236.74527000000111
 51
270.0
  0
ARC
  5
1031D
  8
AM_0
 10
145.40885369532671
 20
444.92718739528158
 30
0.0
 40
1.0
 50
239.64049999999861
 51
270.0
  0
ARC
  5
1031E
  8
AM_0
 10
144.13755369532669
 20
438.93805939528153
 30
0.0
 40
1.0
 50
179.999989999999
 51
243.08874999999981
  0
ARC
  5
1031F
  8
AM_0
 10
144.13755369532669
 20
444.63875139528147
 30
0.0
 40
1.0
 50
179.999989999999
 51
236.74528000000049
  0
ARC
  5
10320
  8
AM_0
 10
144.13755369532669
 20
441.07233739528158
 30
0.0
 40
1.0
 50
179.999989999999
 51
242.07341000000091
  0
ARC
  5
10321
  8
AM_0
 10
144.13755369532669
 20
440.03676139528147
 30
0.0
 40
1.0
 50
179.999989999999
 51
239.03339999999869
  0
LINE
  5
10322
  8
AM_0
 10
143.63212369532661
 20
444.80900839528152
 30
0.0
 11
143.60856369532661
 21
444.82283339528152
 31
0.0
  0
LINE
  5
10323
  8
AM_0
 10
144.9000036953266
 20
438.41302739528152
 30
0.0
 11
143.6230936953267
 21
439.17927039528149
 31
0.0
  0
LINE
  5
10324
  8
AM_0
 10
144.8878036953266
 20
442.9509533952816
 30
0.0
 11
143.58915369532659
 21
443.8025163952816
 31
0.0
  0
LINE
  5
10325
  8
AM_0
 10
144.9034836953266
 20
444.06428839528161
 30
0.0
 11
143.63212369532661
 21
444.80897039528162
 31
0.0
  0
LINE
  5
10326
  8
AM_0
 10
144.9241736953266
 20
437.41738439528149
 30
0.0
 11
143.6849136953266
 21
438.04641239528161
 31
0.0
  0
LINE
  5
10327
  8
AM_0
 10
144.91789369532671
 20
439.5269193952816
 30
0.0
 11
143.6692936953267
 21
440.18878439528152
 31
0.0
  0
LINE
  5
10328
  8
AM_0
 10
145.13755369532669
 20
443.08166739528161
 30
0.0
 11
145.13755369532669
 21
443.55378239528159
 31
0.0
  0
LINE
  5
10329
  8
AM_0
 10
145.13755369532669
 20
438.51556639528161
 30
0.0
 11
145.13755369532669
 21
439.06158739528172
 31
0.0
  0
ARC
  5
1032A
  8
AM_0
 10
147.13755369532669
 20
444.92718739528158
 30
0.0
 40
1.0
 50
334.63675999999953
 51
0.0
  0
ARC
  5
1032B
  8
AM_0
 10
147.13755369532669
 20
444.92718739528158
 30
0.0
 40
1.0
 50
270.0
 51
0.0
  0
ARC
  5
1032C
  8
AM_0
 10
147.13755369532669
 20
440.4104793952817
 30
0.0
 40
1.0
 50
270.0
 51
0.0
  0
ARC
  5
1032D
  8
AM_0
 10
147.63755369532669
 20
437.80903139528158
 30
0.0
 40
0.5
 50
270.0
 51
0.0
  0
LINE
  5
1032E
  8
AM_0
 10
145.4145936953266
 20
438.2704573952816
 30
0.0
 11
148.13755369532669
 21
438.2704573952816
 31
0.0
  0
LINE
  5
1032F
  8
AM_0
 10
145.43620369532661
 20
442.78718839528159
 30
0.0
 11
148.13755369532669
 21
442.78718839528159
 31
0.0
  0
LINE
  5
10330
  8
AM_0
 10
145.40885369532671
 20
443.92720339528159
 30
0.0
 11
147.13755369532669
 21
443.92720339528159
 31
0.0
  0
LINE
  5
10331
  8
AM_0
 10
145.3862136953266
 20
439.4104713952816
 30
0.0
 11
147.13755369532669
 21
439.4104713952816
 31
0.0
  0
LINE
  5
10332
  8
AM_0
 10
145.3768136953266
 20
437.30903939528162
 30
0.0
 11
147.63755369532669
 21
437.30903939528162
 31
0.0
  0
ARC
  5
10333
  8
AM_0
 10
145.3422036953267
 20
451.22285739528172
 30
0.0
 40
1.0
 50
246.87297000000149
 51
270.0
  0
ARC
  5
10334
  8
AM_0
 10
145.2878836953266
 20
453.16894839528152
 30
0.0
 40
1.0
 50
252.9023700000005
 51
270.0
  0
ARC
  5
10335
  8
AM_0
 10
144.13755369532669
 20
453.52284539528148
 30
0.0
 40
1.0
 50
179.999989999999
 51
252.9023700000005
  0
ARC
  5
10336
  8
AM_0
 10
144.13755369532669
 20
451.7373833952816
 30
0.0
 40
1.0
 50
179.999989999999
 51
246.8729800000018
  0
LINE
  5
10337
  8
AM_0
 10
144.94944369532661
 20
450.30321739528148
 30
0.0
 11
143.7447336953266
 21
450.81772939528162
 31
0.0
  0
LINE
  5
10338
  8
AM_0
 10
144.99387369532661
 20
452.21318339528159
 30
0.0
 11
143.8434836953266
 21
452.56703439528172
 31
0.0
  0
LINE
  5
10339
  8
AM_0
 10
145.13755369532669
 20
450.51922839528157
 30
0.0
 11
145.13755369532669
 21
451.57918039528153
 31
0.0
  0
ARC
  5
1033A
  8
AM_0
 10
147.13755369532669
 20
453.16894839528152
 30
0.0
 40
1.0
 50
270.0
 51
0.0
  0
ARC
  5
1033B
  8
AM_0
 10
147.4375436953265
 20
449.52290639528161
 30
0.0
 40
0.6999999900000002
 50
0.0
 51
90.000003000000945
  0
LINE
  5
1033C
  8
AM_0
 10
145.3422036953267
 20
450.22284939528163
 30
0.0
 11
147.4375436953265
 21
450.22284939528163
 31
0.0
  0
LINE
  5
1033D
  8
AM_0
 10
145.2878836953266
 20
452.16896339528148
 30
0.0
 11
147.13755369532669
 21
452.16896339528148
 31
0.0
  0
LINE
  5
1033E
  8
AM_0
 10
149.8356736953267
 20
442.72065239528172
 30
0.0
 11
156.0654736953266
 21
442.72065239528172
 31
0.0
  0
ARC
  5
1033F
  8
AM_0
 10
147.13755369532669
 20
462.91212839528163
 30
0.0
 40
1.0
 50
270.0
 51
0.0
  0
LINE
  5
10340
  8
AM_0
 10
147.13755369532669
 20
459.91212839528163
 30
0.0
 11
144.13755369532669
 21
459.91212839528163
 31
0.0
  0
LINE
  5
10341
  8
AM_0
 10
147.13755369532669
 20
461.9121183952816
 30
0.0
 11
144.13755369532669
 21
461.9121183952816
 31
0.0
  0
ARC
  5
10342
  8
AM_0
 10
144.13755369532669
 20
460.91210839528168
 30
0.0
 40
1.0
 50
179.999989999999
 51
270.0
  0
ARC
  5
10343
  8
AM_0
 10
144.13755369532669
 20
460.91210839528168
 30
0.0
 40
1.0
 50
90.000003000000945
 51
180.00000999999449
  0
LINE
  5
10344
  8
AM_0
 10
145.13755369532669
 20
460.28588839528169
 30
0.0
 11
145.13755369532669
 21
461.64874839528147
 31
0.0
  0
ARC
  5
10345
  8
AM_0
 10
147.13755369532669
 20
458.9121183952816
 30
0.0
 40
1.0
 50
0.0
 51
90.000003000000945
  0
LINE
  5
10346
  8
AM_0
 10
147.13755369532669
 20
469.91210839528168
 30
0.0
 11
144.13755369532669
 21
469.91210839528168
 31
0.0
  0
LINE
  5
10347
  8
AM_0
 10
141.63761369532659
 20
465.91212839528163
 30
0.0
 11
143.1375536953266
 21
465.78089839528172
 31
0.0
  0
LINE
  5
10348
  8
AM_0
 10
141.63755369532669
 20
468.6300783952816
 30
0.0
 11
143.1375536953266
 21
468.6300783952816
 31
0.0
  0
ARC
  5
10349
  8
AM_0
 10
147.13755369532669
 20
468.91212839528163
 30
0.0
 40
1.0
 50
0.0
 51
90.000003000000945
  0
LINE
  5
1034A
  8
AM_0
 10
143.1375536953266
 20
533.92847839528145
 30
0.0
 11
143.1375536953266
 21
490.91210839528162
 31
0.0
  0
LINE
  5
1034B
  8
AM_0
 10
147.13755369532669
 20
471.91212839528163
 30
0.0
 11
144.13755369532669
 21
471.91212839528163
 31
0.0
  0
ARC
  5
1034C
  8
AM_0
 10
144.13755369532669
 20
470.9121183952816
 30
0.0
 40
1.0
 50
90.000003000000945
 51
180.00000999999449
  0
LINE
  5
1034D
  8
AM_0
 10
141.63755369532669
 20
470.76208839528158
 30
0.0
 11
144.9312536953266
 21
470.76208839528158
 31
0.0
  0
ARC
  5
1034E
  8
AM_0
 10
147.13755369532669
 20
472.91210839528168
 30
0.0
 40
1.0
 50
270.0
 51
0.0
  0
LINE
  5
1034F
  8
AM_0
 10
147.13755369532669
 20
479.9121183952816
 30
0.0
 11
144.13755369532669
 21
479.9121183952816
 31
0.0
  0
LINE
  5
10350
  8
AM_0
 10
147.13755369532669
 20
481.91210839528168
 30
0.0
 11
144.13755369532669
 21
481.91210839528168
 31
0.0
  0
ARC
  5
10351
  8
AM_0
 10
144.13755369532669
 20
480.91212839528163
 30
0.0
 40
1.0
 50
179.999989999999
 51
270.0
  0
ARC
  5
10352
  8
AM_0
 10
144.13755369532669
 20
480.91212839528163
 30
0.0
 40
1.0
 50
90.000003000000945
 51
180.00000999999449
  0
LINE
  5
10353
  8
AM_0
 10
145.13755369532669
 20
480.29883839528168
 30
0.0
 11
145.13755369532669
 21
481.4597283952815
 31
0.0
  0
ARC
  5
10354
  8
AM_0
 10
147.13755369532669
 20
482.9121183952816
 30
0.0
 40
1.0
 50
270.0
 51
0.0
  0
ARC
  5
10355
  8
AM_0
 10
147.13755369532669
 20
478.91210839528151
 30
0.0
 40
1.0
 50
0.0
 51
90.000003000000945
  0
LINE
  5
10356
  8
AM_0
 10
147.13755369532669
 20
491.91211839528171
 30
0.0
 11
144.13755369532669
 21
491.91211839528171
 31
0.0
  0
LINE
  5
10357
  8
AM_0
 10
147.13755369532669
 20
489.91211839528148
 30
0.0
 11
144.13755369532669
 21
489.91211839528148
 31
0.0
  0
ARC
  5
10358
  8
AM_0
 10
144.13755369532669
 20
490.91210839528162
 30
0.0
 40
1.0
 50
90.000003000000945
 51
180.00000999999449
  0
ARC
  5
10359
  8
AM_0
 10
144.13755369532669
 20
490.91210839528162
 30
0.0
 40
1.0
 50
179.999989999999
 51
270.0
  0
LINE
  5
1035A
  8
AM_0
 10
145.13755369532669
 20
491.52532839528152
 30
0.0
 11
145.13755369532669
 21
490.36443839528158
 31
0.0
  0
ARC
  5
1035B
  8
AM_0
 10
147.13755369532669
 20
488.91211839528148
 30
0.0
 40
1.0
 50
0.0
 51
90.000003000000945
  0
ARC
  5
1035C
  8
AM_0
 10
147.13755369532669
 20
492.91211839528148
 30
0.0
 40
1.0
 50
270.0
 51
0.0
  0
LINE
  5
1035D
  8
AM_0
 10
147.13755369532669
 20
501.91211839528148
 30
0.0
 11
144.13755369532669
 21
501.91211839528148
 31
0.0
  0
LINE
  5
1035E
  8
AM_0
 10
147.13755369532669
 20
499.91210839528151
 30
0.0
 11
144.13755369532669
 21
499.91210839528151
 31
0.0
  0
LINE
  5
1035F
  8
AM_0
 10
141.63755369532669
 20
501.06214839528161
 30
0.0
 11
146.31504369532669
 21
501.06214839528161
 31
0.0
  0
ARC
  5
10360
  8
AM_0
 10
144.13755369532669
 20
500.9121183952816
 30
0.0
 40
1.0
 50
90.000003000000945
 51
180.00000999999449
  0
ARC
  5
10361
  8
AM_0
 10
144.13755369532669
 20
500.9121183952816
 30
0.0
 40
1.0
 50
179.999989999999
 51
270.0
  0
LINE
  5
10362
  8
AM_0
 10
145.13755369532669
 20
501.5192183952816
 30
0.0
 11
145.13755369532669
 21
500.30779839528162
 31
0.0
  0
LINE
  5
10363
  8
AM_0
 10
141.63755369532669
 20
503.1940883952816
 30
0.0
 11
143.1375536953266
 21
503.1940883952816
 31
0.0
  0
ARC
  5
10364
  8
AM_0
 10
147.13755369532669
 20
498.9121183952816
 30
0.0
 40
1.0
 50
0.0
 51
90.000003000000945
  0
ARC
  5
10365
  8
AM_0
 10
147.13755369532669
 20
502.91210839528168
 30
0.0
 40
1.0
 50
270.0
 51
0.0
  0
ARC
  5
10366
  8
AM_0
 10
144.13755369532669
 20
520.08684839528155
 30
0.0
 40
1.0
 50
113.1270299999986
 51
180.00000999999449
  0
LINE
  5
10367
  8
AM_0
 10
145.13755369532669
 20
521.30499839528147
 30
0.0
 11
145.13755369532669
 21
520.24504839528163
 31
0.0
  0
ARC
  5
10368
  8
AM_0
 10
147.13755369532669
 20
512.9121183952816
 30
0.0
 40
1.0
 50
270.0
 51
0.0
  0
LINE
  5
10369
  8
AM_0
 10
147.13755369532669
 20
511.91210839528162
 30
0.0
 11
144.13755369532669
 21
511.91210839528162
 31
0.0
  0
LINE
  5
1036A
  8
AM_0
 10
147.13755369532669
 20
509.91211839528148
 30
0.0
 11
144.13755369532669
 21
509.91211839528148
 31
0.0
  0
ARC
  5
1036B
  8
AM_0
 10
144.13755369532669
 20
510.91211839528148
 30
0.0
 40
1.0
 50
90.000003000000945
 51
180.00000999999449
  0
ARC
  5
1036C
  8
AM_0
 10
144.13755369532669
 20
510.91211839528148
 30
0.0
 40
1.0
 50
179.999989999999
 51
270.0
  0
LINE
  5
1036D
  8
AM_0
 10
145.13755369532669
 20
511.53827839528162
 30
0.0
 11
145.13755369532669
 21
510.1754883952816
 31
0.0
  0
LINE
  5
1036E
  8
AM_0
 10
141.63755369532669
 20
505.91210839528162
 30
0.0
 11
143.1375536953266
 21
506.04332839528161
 31
0.0
  0
ARC
  5
1036F
  8
AM_0
 10
147.13755369532669
 20
508.91210839528162
 30
0.0
 40
1.0
 50
0.0
 51
90.000003000000945
  0
ARC
  5
10370
  8
AM_0
 10
145.2878836953266
 20
518.65521839528162
 30
0.0
 40
1.0
 50
90.000003000000945
 51
107.0976299999995
  0
ARC
  5
10371
  8
AM_0
 10
144.13755369532669
 20
518.30138839528172
 30
0.0
 40
1.0
 50
107.0976299999995
 51
180.00000999999449
  0
LINE
  5
10372
  8
AM_0
 10
144.99387369532661
 20
519.61104839528161
 30
0.0
 11
143.8435536953267
 21
519.25720839528162
 31
0.0
  0
ARC
  5
10373
  8
AM_0
 10
147.13755369532669
 20
518.65521839528162
 30
0.0
 40
1.0
 50
0.0
 51
90.000003000000945
  0
LINE
  5
10374
  8
AM_0
 10
145.2878836953266
 20
519.65521839528162
 30
0.0
 11
147.13755369532669
 21
519.65521839528162
 31
0.0
  0
ARC
  5
10375
  8
AM_0
 10
145.43620369532661
 20
528.03699839528144
 30
0.0
 40
1.0
 50
90.000003000000945
 51
123.2547299999989
  0
ARC
  5
10376
  8
AM_0
 10
145.40885369532671
 20
526.89704839528144
 30
0.0
 40
1.0
 50
90.000003000000945
 51
120.3595000000014
  0
ARC
  5
10377
  8
AM_0
 10
145.3422036953267
 20
520.6013283952816
 30
0.0
 40
1.0
 50
90.000003000000945
 51
113.1270299999986
  0
ARC
  5
10378
  8
AM_0
 10
144.13755369532669
 20
526.15235839528168
 30
0.0
 40
1.0
 50
120.3595000000014
 51
180.00000999999449
  0
ARC
  5
10379
  8
AM_0
 10
144.13755369532669
 20
527.18543839528161
 30
0.0
 40
1.0
 50
123.2547299999989
 51
180.00000999999449
  0
LINE
  5
1037A
  8
AM_0
 10
144.8878036953266
 20
528.87326839528146
 30
0.0
 11
143.58921369532661
 21
528.02170839528162
 31
0.0
  0
LINE
  5
1037B
  8
AM_0
 10
144.9493836953267
 20
521.52100839528157
 30
0.0
 11
143.74479369532671
 21
521.00653839528172
 31
0.0
  0
LINE
  5
1037C
  8
AM_0
 10
144.90342369532661
 20
527.75989839528165
 30
0.0
 11
143.63212369532661
 21
527.01522839528161
 31
0.0
  0
LINE
  5
1037D
  8
AM_0
 10
145.13755369532669
 20
528.74256839528164
 30
0.0
 11
145.13755369532669
 21
528.27037839528157
 31
0.0
  0
ARC
  5
1037E
  8
AM_0
 10
147.13755369532669
 20
526.89704839528144
 30
0.0
 40
1.0
 50
0.0
 51
90.000003000000945
  0
ARC
  5
1037F
  8
AM_0
 10
147.4375436953265
 20
522.30132839528164
 30
0.0
 40
0.6999999900000002
 50
270.0
 51
0.0
  0
LINE
  5
10380
  8
AM_0
 10
145.3422036953267
 20
521.60131839528162
 30
0.0
 11
147.4375436953265
 21
521.60131839528162
 31
0.0
  0
LINE
  5
10381
  8
AM_0
 10
145.40885369532671
 20
527.89702839528161
 30
0.0
 11
147.13755369532669
 21
527.89702839528161
 31
0.0
  0
ARC
  5
10382
  8
AM_0
 10
145.40574369532669
 20
534.66149839528146
 30
0.0
 40
1.0
 50
90.000003000000945
 51
120.0263999999994
  0
ARC
  5
10383
  8
AM_0
 10
145.3768136953266
 20
533.51520839528166
 30
0.0
 40
1.0
 50
90.000003000000945
 51
116.9112599999988
  0
ARC
  5
10384
  8
AM_0
 10
145.4145936953266
 20
532.55371839528163
 30
0.0
 40
1.0
 50
90.000003000000945
 51
120.96660000000119
  0
ARC
  5
10385
  8
AM_0
 10
145.3862136953266
 20
531.41374839528157
 30
0.0
 40
1.0
 50
90.000003000000945
 51
117.9265999999992
  0
ARC
  5
10386
  8
AM_0
 10
144.13755369532669
 20
533.92847839528145
 30
0.0
 40
1.0
 50
120.0263999999994
 51
180.00000999999449
  0
ARC
  5
10387
  8
AM_0
 10
144.13755369532669
 20
532.8861783952816
 30
0.0
 40
1.0
 50
116.9112599999988
 51
180.00000999999449
  0
ARC
  5
10388
  8
AM_0
 10
144.13755369532669
 20
530.75182839528145
 30
0.0
 40
1.0
 50
117.9265999999992
 51
180.00000999999449
  0
ARC
  5
10389
  8
AM_0
 10
144.13755369532669
 20
531.78742839528172
 30
0.0
 40
1.0
 50
120.96660000000119
 51
180.00000999999449
  0
LINE
  5
1038A
  8
AM_0
 10
144.90537369532669
 20
535.52722839528155
 30
0.0
 11
143.63719369532669
 21
534.79427839528171
 31
0.0
  0
LINE
  5
1038B
  8
AM_0
 10
144.9000036953266
 20
533.41121839528137
 30
0.0
 11
143.6229636953266
 21
532.64491839528137
 31
0.0
  0
LINE
  5
1038C
  8
AM_0
 10
144.92423369532659
 20
534.40692839528162
 30
0.0
 11
143.68498369532659
 21
533.77790839528166
 31
0.0
  0
LINE
  5
1038D
  8
AM_0
 10
144.91789369532671
 20
532.29727839528164
 30
0.0
 11
143.6692336953266
 21
531.6354183952817
 31
0.0
  0
LINE
  5
1038E
  8
AM_0
 10
145.13755369532669
 20
533.30866839528164
 30
0.0
 11
145.13755369532669
 21
532.76258839528157
 31
0.0
  0
LINE
  5
1038F
  8
AM_0
 10
145.13755369532669
 20
535.40827839528163
 30
0.0
 11
145.13755369532669
 21
534.88249839528146
 31
0.0
  0
ARC
  5
10390
  8
AM_0
 10
147.13755369532669
 20
531.41374839528157
 30
0.0
 40
1.0
 50
0.0
 51
90.000003000000945
  0
ARC
  5
10391
  8
AM_0
 10
147.63755369532669
 20
534.01520839528155
 30
0.0
 40
0.5
 50
0.0
 51
90.000003000000945
  0
ARC
  5
10392
  8
AM_0
 10
147.63755369532669
 20
536.16149839528146
 30
0.0
 40
0.5
 50
270.0
 51
0.0
  0
LINE
  5
10393
  8
AM_0
 10
145.40574369532669
 20
535.66150839528154
 30
0.0
 11
147.63755369532669
 21
535.66150839528154
 31
0.0
  0
LINE
  5
10394
  8
AM_0
 10
145.4145936953266
 20
533.55370839528155
 30
0.0
 11
148.13755369532669
 21
533.55370839528155
 31
0.0
  0
LINE
  5
10395
  8
AM_0
 10
145.43620369532661
 20
529.03699839528167
 30
0.0
 11
148.13755369532669
 21
529.03699839528167
 31
0.0
  0
LINE
  5
10396
  8
AM_0
 10
145.3862136953266
 20
532.41376839528164
 30
0.0
 11
147.13755369532669
 21
532.41376839528164
 31
0.0
  0
LINE
  5
10397
  8
AM_0
 10
145.3768136953266
 20
534.51518839528171
 30
0.0
 11
147.63755369532669
 21
534.51518839528171
 31
0.0
  0
LINE
  5
10398
  8
AM_0
 10
148.13755369532669
 20
535.91210839528162
 30
0.0
 11
149.13755369532669
 21
535.91210839528162
 31
0.0
  0
LINE
  5
10399
  8
AM_0
 10
149.8356736953267
 20
529.10350839528166
 30
0.0
 11
156.0654736953266
 21
529.10350839528166
 31
0.0
  0
LINE
  5
1039A
  8
AM_0
 10
242.6375536953266
 20
517.4121183952816
 30
0.0
 11
168.63755369532669
 21
517.4121183952816
 31
0.0
  0
LINE
  5
1039B
  8
AM_0
 10
242.6375536953266
 20
515.9121183952816
 30
0.0
 11
168.63755369532669
 21
515.9121183952816
 31
0.0
  0
LINE
  5
1039C
  8
AM_0
 10
242.6375536953266
 20
454.41211839528148
 30
0.0
 11
168.63755369532649
 21
454.41211839528148
 31
0.0
  0
LINE
  5
1039D
  8
AM_0
 10
242.6375536953266
 20
455.91211839528148
 30
0.0
 11
168.63755369532649
 21
455.91211839528148
 31
0.0
  0
LINE
  5
1039E
  8
AM_0
 10
193.13755369532649
 20
463.41211839528148
 30
0.0
 11
229.90955369532659
 21
463.4121183952816
 31
0.0
  0
LINE
  5
1039F
  8
AM_0
 10
235.1375536953266
 20
508.4121183952816
 30
0.0
 11
198.3655536953265
 21
508.4121183952816
 31
0.0
  0
LINE
  5
103A0
  8
AM_0
 10
229.9415536953266
 20
468.60831839528157
 30
0.0
 11
198.33355369532649
 21
468.60831839528157
 31
0.0
  0
LINE
  5
103A1
  8
AM_0
 10
198.33355369532649
 20
503.21601839528148
 30
0.0
 11
229.9415536953266
 21
503.21601839528148
 31
0.0
  0
LINE
  5
103A2
  8
AM_0
 10
258.48194369532672
 20
521.91211839528148
 30
0.0
 11
159.5029736953266
 21
521.91211839528148
 31
0.0
  0
LINE
  5
103A3
  8
AM_0
 10
258.48194369532672
 20
519.9121183952816
 30
0.0
 11
159.5029736953266
 21
519.9121183952816
 31
0.0
  0
LINE
  5
103A4
  8
AM_0
 10
158.81486369532661
 20
522.63512839528164
 30
0.0
 11
261.95966369532658
 21
522.63512839528164
 31
0.0
  0
LINE
  5
103A5
  8
AM_0
 10
258.48194369532672
 20
451.91211239528172
 30
0.0
 11
214.13755369532669
 21
451.91211239528172
 31
0.0
  0
LINE
  5
103A6
  8
AM_0
 10
258.48194369532672
 20
449.91211939528159
 30
0.0
 11
214.13755369532669
 21
449.91211939528159
 31
0.0
  0
LINE
  5
103A7
  8
AM_0
 10
214.13755369532669
 20
449.18903639528162
 30
0.0
 11
261.95966369532658
 21
449.18903639528162
 31
0.0
  0
LINE
  5
103A8
  8
AM_0
 10
182.63755369532669
 20
524.13512839528164
 30
0.0
 11
265.13755369532657
 21
524.13512839528164
 31
0.0
  0
LINE
  5
103A9
  8
AM_0
 10
160.34397369532661
 20
429.62886339528171
 30
0.0
 11
257.26374369532681
 21
429.62886339528171
 31
0.0
  0
LINE
  5
103AA
  8
AM_0
 10
182.63755369532669
 20
447.68903639528168
 30
0.0
 11
265.13755369532657
 21
447.68903639528168
 31
0.0
  0
LINE
  5
103AB
  8
ﾁｭｳｼﾝｾﾝ1
 10
214.13755369532669
 20
520.41212950839781
 30
0.0
 11
214.13755369532669
 21
451.41212950839758
 31
0.0
1001
GENIUS_GENODEF_13
1002
{
1000
HIER
1070
     0
1002
}
1002
{
1000
MANEDIT
1070
     0
1002
}
1002
{
1000
NOSEL
1070
     0
1002
}
1002
{
1000
BEHIND
1070
     0
1002
}
1002
{
1000
REACTOR
1002
}
1001
GENIUS_GENOBJ-N-CEN_13
1002
{
1000
OWNER
1000
GEN
1002
}
  0
LINE
  5
103AC
  8
AM_0
 10
165.6375536953266
 20
457.41211839528148
 30
0.0
 11
165.63755369532669
 21
514.41211839528137
 31
0.0
  0
LINE
  5
103AD
  8
AM_0
 10
167.13755369532669
 20
514.41211839528137
 30
0.0
 11
167.13755369532649
 21
457.41211839528148
 31
0.0
  0
LINE
  5
103AE
  8
AM_0
 10
191.13755369532649
 20
501.18371839528152
 30
0.0
 11
191.13755369532649
 21
465.41211839528148
 31
0.0
  0
ARC
  5
103AF
  8
AM_0
 10
198.33355369532649
 20
470.60831839528157
 30
0.0
 40
2.0
 50
180.0
 51
270.0
  0
ARC
  5
103B0
  8
AM_0
 10
159.68693369532659
 20
470.9121183952816
 30
0.0
 40
1.0
 50
90.000003000000945
 51
270.0
  0
LINE
  5
103B1
  8
AM_0
 10
158.8154736953266
 20
449.18903639528162
 30
0.0
 11
214.13755369532669
 21
449.18903639528162
 31
0.0
  0
LINE
  5
103B2
  8
AM_0
 10
214.13755369532669
 20
451.91211239528172
 30
0.0
 11
159.5029736953266
 21
451.91211239528172
 31
0.0
  0
LINE
  5
103B3
  8
AM_0
 10
214.13755369532669
 20
449.91211939528159
 30
0.0
 11
159.5029736953266
 21
449.91211939528159
 31
0.0
  0
LINE
  5
103B4
  8
AM_0
 10
160.3925636953266
 20
426.78248839528152
 30
0.0
 11
194.13755369532649
 21
426.78248839528152
 31
0.0
  0
LINE
  5
103B5
  8
AM_0
 10
160.40592369532669
 20
424.93470239528148
 30
0.0
 11
194.13755369532649
 21
424.93470239528148
 31
0.0
  0
LINE
  5
103B6
  8
AM_0
 10
160.42722369532669
 20
424.0241883952815
 30
0.0
 11
194.13755369532649
 21
424.0241883952815
 31
0.0
  0
ARC
  5
103B7
  8
AM_0
 10
160.42722369532669
 20
426.02418039528158
 30
0.0
 40
2.0
 50
187.94403999999901
 51
270.0
  0
ARC
  5
103B8
  8
AM_0
 10
160.3925636953266
 20
428.78248139528148
 30
0.0
 40
2.0
 50
189.08497000000031
 51
270.0
  0
ARC
  5
103B9
  8
AM_0
 10
160.40592369532669
 20
426.93469539528161
 30
0.0
 40
2.0
 50
188.64338999999899
 51
270.0
  0
ARC
  5
103BA
  8
AM_0
 10
160.34397369532661
 20
431.62885539528162
 30
0.0
 40
2.0
 50
190.71568999999951
 51
270.0
  0
LINE
  5
103BB
  8
AM_0
 10
185.63755369532669
 20
452.91211839528148
 30
0.0
 11
171.63755369532669
 21
452.91211839528148
 31
0.0
  0
LINE
  5
103BC
  8
AM_0
 10
158.8154736953266
 20
452.54487939528161
 30
0.0
 11
182.63755369532669
 21
452.54487939528161
 31
0.0
  0
ARC
  5
103BD
  8
AM_0
 10
168.63755369532649
 20
457.4121183952816
 30
0.0
 40
3.0
 50
180.0
 51
270.0
  0
LINE
  5
103BE
  8
AM_0
 10
171.13755369532669
 20
453.41211839528148
 30
0.0
 11
171.13755369532669
 21
454.41211839528148
 31
0.0
  0
POLYLINE
  5
103BF
  8
AM_0
 66
     1
 10
0.0
 20
0.0
 30
0.0
  0
VERTEX
  5
103C0
  8
AM_0
 10
160.9997536953266
 20
459.42513839528158
 30
0.0
  0
VERTEX
  5
103C1
  8
AM_0
 10
161.96023369532671
 20
452.5435433952814
 30
0.0
 42
-1.0
  0
SEQEND
  5
103C2
  8
AM_0
  0
ARC
  5
103C3
  8
AM_0
 10
159.68693369532659
 20
450.91212739528152
 30
0.0
 40
1.0
 50
90.000003000000945
 51
270.0
  0
ARC
  5
103C4
  8
AM_0
 10
171.63755369532669
 20
453.41211839528148
 30
0.0
 40
0.5
 50
180.0
 51
270.0
  0
LINE
  5
103C5
  8
AM_0
 10
165.6370636953265
 20
461.9121183952816
 30
0.0
 11
159.5029736953266
 21
461.9121183952816
 31
0.0
  0
LINE
  5
103C6
  8
AM_0
 10
165.6370636953265
 20
459.91212839528163
 30
0.0
 11
159.5029736953266
 21
459.91212839528163
 31
0.0
  0
LINE
  5
103C7
  8
AM_0
 10
158.5991036953267
 20
459.4259183952816
 30
0.0
 11
165.6370636953265
 21
459.4259183952816
 31
0.0
  0
ARC
  5
103C8
  8
AM_0
 10
159.68693369532659
 20
460.91210839528168
 30
0.0
 40
1.0
 50
90.000003000000945
 51
270.0
  0
LINE
  5
103C9
  8
AM_0
 10
165.6370636953265
 20
469.91210839528168
 30
0.0
 11
159.5029736953266
 21
469.91210839528168
 31
0.0
  0
LINE
  5
103CA
  8
AM_0
 10
158.4684836953266
 20
469.56860839528161
 30
0.0
 11
165.6370636953265
 21
469.56860839528161
 31
0.0
  0
LINE
  5
103CB
  8
AM_0
 10
158.5991036953267
 20
462.34889839528171
 30
0.0
 11
165.6370636953265
 21
462.34889839528171
 31
0.0
  0
POLYLINE
  5
103CC
  8
AM_0
 66
     1
 10
0.0
 20
0.0
 30
0.0
  0
VERTEX
  5
103CD
  8
AM_0
 10
160.01800369532671
 20
469.56952839528162
 30
0.0
  0
VERTEX
  5
103CE
  8
AM_0
 10
160.6640536953266
 20
462.34858839528158
 30
0.0
 42
-1.0
  0
SEQEND
  5
103CF
  8
AM_0
  0
ARC
  5
103D0
  8
AM_0
 10
168.63755369532649
 20
457.4121183952816
 30
0.0
 40
1.5
 50
180.0
 51
270.0
  0
LINE
  5
103D1
  8
AM_0
 10
170.13755369532649
 20
455.91211839528148
 30
0.0
 11
170.13755369532649
 21
454.41211839528148
 31
0.0
  0
LINE
  5
103D2
  8
AM_0
 10
186.13755369532669
 20
454.41211839528148
 30
0.0
 11
186.13755369532669
 21
453.41211839528148
 31
0.0
  0
LINE
  5
103D3
  8
AM_0
 10
181.13755369532669
 20
449.18903639528162
 30
0.0
 11
181.13755369532669
 21
447.68903639528168
 31
0.0
  0
LINE
  5
103D4
  8
AM_0
 10
181.13755369532669
 20
449.18903639528162
 30
0.0
 11
181.13755369532669
 21
449.18903639528162
 31
0.0
  0
ARC
  5
103D5
  8
AM_0
 10
185.63755369532669
 20
453.4121183952816
 30
0.0
 40
0.5
 50
270.0
 51
0.0
  0
ARC
  5
103D6
  8
AM_0
 10
182.63755369532669
 20
454.0448793952815
 30
0.0
 40
1.5
 50
270.0
 51
310.95942417142038
1001
GENIUS_GENODEF_13
1002
{
1000
HIER
1070
     0
1002
}
1002
{
1000
MANEDIT
1070
     0
1002
}
1002
{
1000
NOSEL
1070
     0
1002
}
1002
{
1000
BEHIND
1070
     0
1002
}
1002
{
1000
REACTOR
1002
}
1001
GENIUS_GENOBJ-N-FIL_13
1002
{
1000
OWNER
1000
GEN
1002
}
  0
LINE
  5
103D7
  8
AM_0
 10
187.1375536953266
 20
455.91211839528148
 30
0.0
 11
187.1375536953266
 21
454.41211839528148
 31
0.0
  0
LINE
  5
103D8
  8
AM_0
 10
196.13755369532669
 20
426.02418039528158
 30
0.0
 11
196.13755369532669
 21
429.62886339528171
 31
0.0
  0
ARC
  5
103D9
  8
AM_0
 10
194.13755369532649
 20
426.02418039528158
 30
0.0
 40
2.0
 50
270.0
 51
0.0
  0
ARC
  5
103DA
  8
AM_0
 10
194.13755369532649
 20
426.93469539528161
 30
0.0
 40
2.0
 50
270.0
 51
0.0
  0
ARC
  5
103DB
  8
AM_0
 10
194.13755369532649
 20
428.78248139528148
 30
0.0
 40
2.0
 50
270.0
 51
0.0
  0
ARC
  5
103DC
  8
AM_0
 10
193.13755369532649
 20
465.41211839528148
 30
0.0
 40
2.0
 50
180.0
 51
270.0
  0
LINE
  5
103DD
  8
AM_0
 10
192.68755369532661
 20
506.82211839528151
 30
0.0
 11
189.5875536953267
 21
510.00211839528168
 31
0.0
  0
LINE
  5
103DE
  8
AM_0
 10
192.72755369532669
 20
510.00221839528149
 30
0.0
 11
189.54755369532651
 21
506.8222183952816
 31
0.0
  0
CIRCLE
  5
103DF
  8
AM_0
 10
191.13755369532649
 20
508.4121183952816
 30
0.0
 40
4.5000000000000018
  0
POLYLINE
  5
103E0
  8
AM_0
 66
     1
 10
0.0
 20
0.0
 30
0.0
  0
VERTEX
  5
103E1
  8
AM_0
 10
160.01800369532671
 20
502.25466839528161
 30
0.0
  0
VERTEX
  5
103E2
  8
AM_0
 10
160.6640536953266
 20
509.47558839528148
 30
0.0
 42
-1.0
  0
SEQEND
  5
103E3
  8
AM_0
  0
POLYLINE
  5
103E4
  8
AM_0
 66
     1
 10
0.0
 20
0.0
 30
0.0
  0
VERTEX
  5
103E5
  8
AM_0
 10
159.5029736953266
 20
485.91211839528148
 30
0.0
  0
VERTEX
  5
103E6
  8
AM_0
 10
159.5056936953267
 20
489.64459839528161
 30
0.0
 42
-1.0
  0
SEQEND
  5
103E7
  8
AM_0
  0
LINE
  5
103E8
  8
AM_0
 10
167.13755369532649
 20
477.41211839528148
 30
0.0
 11
165.6375536953266
 21
477.41211839528148
 31
0.0
  0
POLYLINE
  5
103E9
  8
AM_0
 66
     1
 10
0.0
 20
0.0
 30
0.0
  0
VERTEX
  5
103EA
  8
AM_0
 10
159.54633369532661
 20
479.64082839528152
 30
0.0
  0
VERTEX
  5
103EB
  8
AM_0
 10
159.8450036953266
 20
472.23076839528147
 30
0.0
 42
-1.0
  0
SEQEND
  5
103EC
  8
AM_0
  0
LINE
  5
103ED
  8
AM_0
 10
158.4684836953266
 20
472.23047839528152
 30
0.0
 11
165.6370636953265
 21
472.23047839528152
 31
0.0
  0
LINE
  5
103EE
  8
AM_0
 10
165.6370636953265
 20
471.91212839528163
 30
0.0
 11
159.5029736953266
 21
471.91212839528163
 31
0.0
  0
LINE
  5
103EF
  8
AM_0
 10
158.40647369532661
 20
482.17713839528159
 30
0.0
 11
165.6375536953266
 21
482.17713839528159
 31
0.0
  0
LINE
  5
103F0
  8
AM_0
 10
165.6375536953266
 20
481.91210839528151
 30
0.0
 11
159.5029736953266
 21
481.91210839528168
 31
0.0
  0
LINE
  5
103F1
  8
AM_0
 10
165.6375536953266
 20
479.9121183952816
 30
0.0
 11
159.5029736953266
 21
479.9121183952816
 31
0.0
  0
LINE
  5
103F2
  8
AM_0
 10
158.40647369532661
 20
479.63928839528148
 30
0.0
 11
165.6375536953266
 21
479.63928839528148
 31
0.0
  0
POLYLINE
  5
103F3
  8
AM_0
 66
     1
 10
0.0
 20
0.0
 30
0.0
  0
VERTEX
  5
103F4
  8
AM_0
 10
159.5029736953266
 20
485.91211839528148
 30
0.0
  0
VERTEX
  5
103F5
  8
AM_0
 10
159.5056936953267
 20
482.17964839528162
 30
0.0
 42
-1.0
  0
SEQEND
  5
103F6
  8
AM_0
  0
ARC
  5
103F7
  8
AM_0
 10
159.68693369532659
 20
480.91212839528163
 30
0.0
 40
1.0
 50
90.000003000000945
 51
270.0
  0
LINE
  5
103F8
  8
AM_0
 10
167.13755369532649
 20
494.41211839528148
 30
0.0
 11
165.6375536953266
 21
494.41211839528148
 31
0.0
  0
POLYLINE
  5
103F9
  8
AM_0
 66
     1
 10
0.0
 20
0.0
 30
0.0
  0
VERTEX
  5
103FA
  8
AM_0
 10
159.54633369532661
 20
492.1834083952815
 30
0.0
  0
VERTEX
  5
103FB
  8
AM_0
 10
159.8450036953266
 20
499.59343839528168
 30
0.0
 42
-1.0
  0
SEQEND
  5
103FC
  8
AM_0
  0
LINE
  5
103FD
  8
AM_0
 10
165.6375536953266
 20
491.91211839528171
 30
0.0
 11
159.5029736953266
 21
491.91211839528171
 31
0.0
  0
LINE
  5
103FE
  8
AM_0
 10
165.6375536953266
 20
489.91211839528148
 30
0.0
 11
159.5029736953266
 21
489.91211839528148
 31
0.0
  0
LINE
  5
103FF
  8
AM_0
 10
158.40647369532661
 20
492.18486839528151
 30
0.0
 11
165.63755369532669
 21
492.18486839528151
 31
0.0
  0
LINE
  5
10400
  8
AM_0
 10
158.40647369532661
 20
489.6470283952815
 30
0.0
 11
165.63755369532669
 21
489.6470283952815
 31
0.0
  0
ARC
  5
10401
  8
AM_0
 10
159.68693369532659
 20
490.91210839528162
 30
0.0
 40
1.0
 50
90.000003000000945
 51
270.0
  0
LINE
  5
10402
  8
AM_0
 10
165.6370636953265
 20
501.91211839528148
 30
0.0
 11
159.5029736953266
 21
501.91211839528148
 31
0.0
  0
LINE
  5
10403
  8
AM_0
 10
165.6370636953265
 20
499.91210839528151
 30
0.0
 11
159.5029736953266
 21
499.91210839528151
 31
0.0
  0
LINE
  5
10404
  8
AM_0
 10
158.4684836953266
 20
502.25562839528152
 30
0.0
 11
165.6370636953265
 21
502.25562839528152
 31
0.0
  0
LINE
  5
10405
  8
AM_0
 10
158.4684836953266
 20
499.59375839528161
 30
0.0
 11
165.6370636953265
 21
499.59375839528161
 31
0.0
  0
ARC
  5
10406
  8
AM_0
 10
159.68693369532659
 20
500.9121183952816
 30
0.0
 40
1.0
 50
90.000003000000945
 51
270.0
  0
LINE
  5
10407
  8
AM_0
 10
185.63755369532669
 20
518.91211839528137
 30
0.0
 11
171.63755369532669
 21
518.91211839528137
 31
0.0
  0
LINE
  5
10408
  8
AM_0
 10
158.81486369532661
 20
519.27930839528176
 30
0.0
 11
182.63755369532669
 21
519.27930839528176
 31
0.0
  0
ARC
  5
10409
  8
AM_0
 10
159.68693369532659
 20
520.91210839528151
 30
0.0
 40
1.0
 50
90.000003000000945
 51
270.0
  0
ARC
  5
1040A
  8
AM_0
 10
168.63755369532649
 20
514.41211839528137
 30
0.0
 40
3.0
 50
90.0
 51
180.0
  0
LINE
  5
1040B
  8
AM_0
 10
165.6370636953265
 20
511.91210839528162
 30
0.0
 11
159.5029736953266
 21
511.91210839528162
 31
0.0
  0
LINE
  5
1040C
  8
AM_0
 10
165.6370636953265
 20
509.91211839528148
 30
0.0
 11
159.5029736953266
 21
509.91211839528148
 31
0.0
  0
LINE
  5
1040D
  8
AM_0
 10
158.59904369532671
 20
509.47528839528161
 30
0.0
 11
165.6370636953265
 21
509.47528839528161
 31
0.0
  0
ARC
  5
1040E
  8
AM_0
 10
159.68693369532659
 20
510.91211839528148
 30
0.0
 40
1.0
 50
90.000003000000945
 51
270.0
  0
POLYLINE
  5
1040F
  8
AM_0
 66
     1
 10
0.0
 20
0.0
 30
0.0
  0
VERTEX
  5
10410
  8
AM_0
 10
160.9997536953266
 20
512.39904839528162
 30
0.0
  0
VERTEX
  5
10411
  8
AM_0
 10
161.96023369532671
 20
519.28067839528171
 30
0.0
 42
-1.0
  0
SEQEND
  5
10412
  8
AM_0
  0
LINE
  5
10413
  8
AM_0
 10
158.59904369532671
 20
512.3982483952816
 30
0.0
 11
165.6370636953265
 21
512.3982483952816
 31
0.0
  0
ARC
  5
10414
  8
AM_0
 10
168.63755369532649
 20
514.41211839528137
 30
0.0
 40
1.5
 50
90.0
 51
180.0
  0
LINE
  5
10415
  8
AM_0
 10
170.13755369532669
 20
515.9121183952816
 30
0.0
 11
170.13755369532669
 21
517.4121183952816
 31
0.0
  0
LINE
  5
10416
  8
AM_0
 10
171.13755369532669
 20
518.41211839528137
 30
0.0
 11
171.13755369532669
 21
517.4121183952816
 31
0.0
  0
ARC
  5
10417
  8
AM_0
 10
171.6375536953266
 20
518.41211839528137
 30
0.0
 40
0.5
 50
90.0
 51
180.0
  0
ARC
  5
10418
  8
AM_0
 10
185.63755369532649
 20
518.41211839528137
 30
0.0
 40
0.5
 50
0.0
 51
90.0
  0
ARC
  5
10419
  8
AM_0
 10
182.63755369532669
 20
517.77930839528165
 30
0.0
 40
1.5
 50
49.043431124087149
 51
90.0
1001
GENIUS_GENODEF_13
1002
{
1000
HIER
1070
     0
1002
}
1002
{
1000
MANEDIT
1070
     0
1002
}
1002
{
1000
NOSEL
1070
     0
1002
}
1002
{
1000
BEHIND
1070
     0
1002
}
1002
{
1000
REACTOR
1002
}
1001
GENIUS_GENOBJ-N-FIL_13
1002
{
1000
OWNER
1000
GEN
1002
}
  0
LINE
  5
1041A
  8
AM_0
 10
186.13755369532669
 20
517.4121183952816
 30
0.0
 11
186.13755369532669
 21
518.41211839528137
 31
0.0
  0
LINE
  5
1041B
  8
AM_0
 10
187.13755369532669
 20
515.9121183952816
 30
0.0
 11
187.13755369532669
 21
517.4121183952816
 31
0.0
  0
ARC
  5
1041C
  8
AM_0
 10
182.63755369532669
 20
522.63512839528164
 30
0.0
 40
1.5
 50
90.000003000000945
 51
180.00000999999449
  0
LINE
  5
1041D
  8
AM_0
 10
181.13755369532669
 20
522.63512839528164
 30
0.0
 11
181.13755369532669
 21
522.63512839528164
 31
0.0
  0
ARC
  5
1041E
  8
AM_0
 10
191.13755369532649
 20
508.4121183952816
 30
0.0
 40
5.499999999999992
 50
285.46600995342033
 51
344.53399004658058
  0
LINE
  5
1041F
  8
AM_0
 10
196.33355369532649
 20
470.60831839528157
 30
0.0
 11
196.33355369532649
 21
501.21601839528159
 31
0.0
  0
ARC
  5
10420
  8
AM_0
 10
193.13755369532649
 20
501.18370224788111
 30
0.0
 40
2.0
 50
105.4660099534203
 51
180.0
  0
ARC
  5
10421
  8
AM_0
 10
198.33355369532649
 20
501.21601839528159
 30
0.0
 40
2.0
 50
90.0
 51
180.0
  0
ARC
  5
10422
  8
AM_0
 10
198.365969842727
 20
506.41211839528148
 30
0.0
 40
2.0
 50
90.0
 51
164.5339900465805
  0
LINE
  5
10423
  8
AM_0
 10
244.13755369532669
 20
514.41211839528137
 30
0.0
 11
244.1375536953266
 21
457.41211839528148
 31
0.0
  0
LINE
  5
10424
  8
AM_0
 10
245.63755369532669
 20
514.41211839528137
 30
0.0
 11
245.63755369532649
 21
457.41211839528148
 31
0.0
  0
ARC
  5
10425
  8
AM_0
 10
235.1375536953266
 20
470.64053454268208
 30
0.0
 40
2.0
 50
285.46600995342033
 51
0.0
  0
ARC
  5
10426
  8
AM_0
 10
229.9415536953266
 20
470.60821839528148
 30
0.0
 40
2.0
 50
270.0
 51
0.0
  0
LINE
  5
10427
  8
AM_0
 10
254.9075736953267
 20
515.9121183952816
 30
0.0
 11
254.9075736953267
 21
455.91211839528148
 31
0.0
  0
LINE
  5
10428
  8
AM_0
 10
261.95966369532658
 20
452.54487939528161
 30
0.0
 11
245.4375436953267
 21
452.54487939528161
 31
0.0
  0
CIRCLE
  5
10429
  8
AM_0
 10
237.1375536953266
 20
463.41211839528148
 30
0.0
 40
4.5000000000000018
  0
ARC
  5
1042A
  8
AM_0
 10
229.90913754792609
 20
465.41211839528148
 30
0.0
 40
2.0
 50
270.0
 51
344.53399004658058
  0
LINE
  5
1042B
  8
AM_0
 10
235.5475536953266
 20
461.82201839528148
 30
0.0
 11
238.72755369532661
 21
465.0020183952816
 31
0.0
  0
LINE
  5
1042C
  8
AM_0
 10
235.58755369532659
 20
465.00211839528168
 30
0.0
 11
238.6875536953267
 21
461.82211839528162
 31
0.0
  0
ARC
  5
1042D
  8
AM_0
 10
237.1375536953266
 20
463.41211839528148
 30
0.0
 40
5.499999999999992
 50
105.4660099534203
 51
164.5339900465805
  0
ARC
  5
1042E
  8
AM_0
 10
242.6375536953266
 20
457.41211839528148
 30
0.0
 40
3.0
 50
270.0
 51
0.0
  0
LINE
  5
1042F
  8
AM_0
 10
244.43757369532671
 20
453.54486339528171
 30
0.0
 11
244.43757369532671
 21
455.01213339541181
 31
0.0
  0
ARC
  5
10430
  8
AM_0
 10
245.4375436953267
 20
453.54486339528171
 30
0.0
 40
1.0
 50
179.999989999999
 51
270.0
  0
LINE
  5
10431
  8
AM_0
 10
245.0506105177173
 20
455.62966032511167
 30
0.0
 11
254.9075736953267
 21
455.91209839528159
 31
0.0
  0
LINE
  5
10432
  8
AM_0
 10
245.23562990668
 20
455.91211839528148
 30
0.0
 11
254.9075736953267
 21
455.91211839528148
 31
0.0
  0
ARC
  5
10433
  8
AM_0
 10
242.6375536953266
 20
457.41211839528148
 30
0.0
 40
1.5
 50
270.0
 51
0.0
  0
LINE
  5
10434
  8
AM_0
 10
263.63755369532657
 20
447.68908939528148
 30
0.0
 11
259.19553369532667
 21
431.11123139528172
 31
0.0
  0
LINE
  5
10435
  8
AM_0
 10
265.13755369532657
 20
429.91212739528152
 30
0.0
 11
273.13755369532657
 21
429.91212739528152
 31
0.0
  0
LINE
  5
10436
  8
AM_0
 10
259.67808369532662
 20
432.91212739528152
 30
0.0
 11
265.13755369532657
 21
432.91212739528152
 31
0.0
  0
ARC
  5
10437
  8
AM_0
 10
257.26374369532681
 20
431.62885539528162
 30
0.0
 40
2.0
 50
270.0
 51
345.00000000000563
  0
LINE
  5
10438
  8
AM_0
 10
265.13755369532657
 20
439.91211239528161
 30
0.0
 11
273.13755369532657
 21
439.91211239528161
 31
0.0
  0
LINE
  5
10439
  8
AM_0
 10
265.13755369532657
 20
453.97468039528161
 30
0.0
 11
273.13755369532657
 21
453.97468039528161
 31
0.0
  0
ARC
  5
1043A
  8
AM_0
 10
258.48194369532672
 20
450.91212739528152
 30
0.0
 40
1.0
 50
270.0
 51
90.000003000000945
  0
ARC
  5
1043B
  8
AM_0
 10
261.95966369532658
 20
450.8669463952815
 30
0.0
 40
1.6779127
 50
270.0
 51
90.000003000000945
  0
LINE
  5
1043C
  8
AM_0
 10
261.95966369532658
 20
519.27930839528176
 30
0.0
 11
245.4375436953267
 21
519.27930839528176
 31
0.0
  0
LINE
  5
1043D
  8
AM_0
 10
237.1375536953266
 20
470.64061839528148
 30
0.0
 11
237.1375536953266
 21
506.41211839528148
 31
0.0
  0
LINE
  5
1043E
  8
AM_0
 10
231.9415536953266
 20
501.21601839528159
 30
0.0
 11
231.9415536953266
 21
470.60831839528157
 31
0.0
  0
ARC
  5
1043F
  8
AM_0
 10
229.9415536953266
 20
501.21601839528159
 30
0.0
 40
2.0
 50
0.0
 51
90.0
  0
ARC
  5
10440
  8
AM_0
 10
235.1375536953266
 20
506.41211839528148
 30
0.0
 40
2.0
 50
0.0
 51
90.0
  0
LINE
  5
10441
  8
AM_0
 10
245.0506105177173
 20
516.19457646545152
 30
0.0
 11
254.9075736953267
 21
515.91213839528154
 31
0.0
  0
LINE
  5
10442
  8
AM_0
 10
245.23562990667989
 20
515.9121183952816
 30
0.0
 11
254.9075736953267
 21
515.9121183952816
 31
0.0
  0
ARC
  5
10443
  8
AM_0
 10
242.6375536953266
 20
514.41211839528137
 30
0.0
 40
3.0
 50
0.0
 51
90.0
  0
ARC
  5
10444
  8
AM_0
 10
242.6375536953266
 20
514.41211839528137
 30
0.0
 40
1.5
 50
0.0
 51
90.0
  0
ARC
  5
10445
  8
AM_0
 10
245.4375436953267
 20
518.27930839528165
 30
0.0
 40
1.0
 50
90.000003000000945
 51
180.00000999999449
  0
LINE
  5
10446
  8
AM_0
 10
244.43757369532671
 20
518.27930839528165
 30
0.0
 11
244.43757369532651
 21
516.81210339515133
 31
0.0
  0
LINE
  5
10447
  8
AM_0
 10
265.13755369532657
 20
531.91211839528137
 30
0.0
 11
273.13755369532657
 21
531.91211839528137
 31
0.0
  0
LINE
  5
10448
  8
AM_0
 10
265.13755369532657
 20
517.84955839528163
 30
0.0
 11
273.13755369532657
 21
517.84955839528163
 31
0.0
  0
ARC
  5
10449
  8
AM_0
 10
261.95966369532658
 20
520.95722839528162
 30
0.0
 40
1.6779127
 50
270.0
 51
90.000003000000945
  0
ARC
  5
1044A
  8
AM_0
 10
258.48194369532672
 20
520.91210839528151
 30
0.0
 40
1.0
 50
270.0
 51
90.000003000000945
  0
ARC
  5
1044B
  8
AM_0
 10
264.7885536953267
 20
525.63512839528164
 30
0.0
 40
1.5
 50
195.00001000000211
 51
270.0
  0
LINE
  5
1044C
  8
AM_0
 10
149.13755369532669
 20
538.91210839528162
 30
0.0
 11
157.13755369532669
 21
538.91210839528162
 31
0.0
  0
LINE
  5
1044D
  8
AM_0
 10
160.34397369532661
 20
542.19536839528178
 30
0.0
 11
257.26374369532681
 21
542.19536839528178
 31
0.0
  0
LINE
  5
1044E
  8
AM_0
 10
160.3925636953266
 20
545.04173839528164
 30
0.0
 11
194.13755369532649
 21
545.04173839528164
 31
0.0
  0
LINE
  5
1044F
  8
AM_0
 10
160.40592369532669
 20
546.88945839528162
 30
0.0
 11
194.13755369532649
 21
546.88945839528162
 31
0.0
  0
LINE
  5
10450
  8
AM_0
 10
160.42722369532669
 20
547.79999839528136
 30
0.0
 11
194.13755369532649
 21
547.79999839528136
 31
0.0
  0
ARC
  5
10451
  8
AM_0
 10
160.40592369532669
 20
544.88947839528146
 30
0.0
 40
2.0
 50
90.000003000000945
 51
171.35661000000101
  0
ARC
  5
10452
  8
AM_0
 10
160.34397369532661
 20
540.19538839528173
 30
0.0
 40
2.0
 50
90.000003000000945
 51
169.2843100000004
  0
ARC
  5
10453
  8
AM_0
 10
160.3925636953266
 20
543.0417583952817
 30
0.0
 40
2.0
 50
90.000003000000945
 51
170.9150299999996
  0
ARC
  5
10454
  8
AM_0
 10
160.42722369532669
 20
545.79997839528164
 30
0.0
 40
2.0
 50
90.000003000000945
 51
172.05595999999451
  0
ARC
  5
10455
  8
AM_0
 10
194.13755369532649
 20
544.88947839528146
 30
0.0
 40
2.0
 50
0.0
 51
90.000003000000945
  0
LINE
  5
10456
  8
AM_0
 10
196.13755369532669
 20
545.79997839528164
 30
0.0
 11
196.13755369532669
 21
542.19536839528178
 31
0.0
  0
ARC
  5
10457
  8
AM_0
 10
194.13755369532649
 20
543.0417583952817
 30
0.0
 40
2.0
 50
0.0
 51
90.000003000000945
  0
ARC
  5
10458
  8
AM_0
 10
194.13755369532649
 20
545.79997839528164
 30
0.0
 40
2.0
 50
0.0
 51
90.000003000000945
  0
LINE
  5
10459
  8
AM_0
 10
265.13755369532657
 20
541.91210839528139
 30
0.0
 11
273.13755369532657
 21
541.91210839528139
 31
0.0
  0
LINE
  5
1045A
  8
AM_0
 10
259.67808369532662
 20
538.91210839528162
 30
0.0
 11
265.13755369532657
 21
538.91210839528162
 31
0.0
  0
ARC
  5
1045B
  8
AM_0
 10
257.26374369532681
 20
540.19538839528173
 30
0.0
 40
2.0
 50
14.999999999994451
 51
90.000003000000945
  0
LINE
  5
10463
  8
AM_0
 10
411.14366059351522
 20
527.9121395918462
 30
0.0
 11
356.1436589543876
 21
527.9121395918462
 31
0.0
  0
LINE
  5
10464
  8
AM_0
 10
411.14366059351522
 20
527.9121395918462
 30
0.0
 11
411.14366059351522
 21
523.91213947263668
 31
0.0
  0
LINE
  5
10465
  8
AM_0
 10
356.14365895438749
 20
527.9121395918462
 30
0.0
 11
356.14365895438749
 21
523.91213947263668
 31
0.0
  0
LINE
  5
10466
  8
AM_0
 10
398.64366022098619
 20
530.91213968125305
 30
0.0
 11
368.64365932691658
 21
530.91213968125305
 31
0.0
  0
LINE
  5
10467
  8
AM_0
 10
368.64365932691658
 20
527.9121395918462
 30
0.0
 11
368.64365932691658
 21
530.91213968125305
 31
0.0
  0
LINE
  5
10468
  8
AM_0
 10
398.64366022098619
 20
527.9121395918462
 30
0.0
 11
398.64366022098619
 21
530.91213968125305
 31
0.0
  0
LINE
  5
1046B
  8
AM_0
 10
411.14366059351522
 20
443.91213708845112
 30
0.0
 11
411.14366059351522
 21
447.91213720766029
 31
0.0
  0
LINE
  5
1046C
  8
AM_0
 10
411.14366059351522
 20
443.91213708845112
 30
0.0
 11
356.1436589543876
 21
443.91213708845112
 31
0.0
  0
LINE
  5
1046D
  8
AM_0
 10
398.64366022098619
 20
440.91213699904421
 30
0.0
 11
368.64365932691658
 21
440.91213699904421
 31
0.0
  0
LINE
  5
1046E
  8
AM_0
 10
398.64366022098619
 20
440.91213699904421
 30
0.0
 11
398.64366022098619
 21
443.91213708845112
 31
0.0
  0
LINE
  5
1046F
  8
AM_0
 10
368.64365932691658
 20
440.91213699904421
 30
0.0
 11
368.64365932691658
 21
443.91213708845112
 31
0.0
  0
LINE
  5
10470
  8
AM_0
 10
356.1436589543876
 20
443.91213708845112
 30
0.0
 11
356.1436589543876
 21
447.91213720766029
 31
0.0
  0
LINE
  5
10482
  8
AM_0
 10
140.64365721095169
 20
501.13395067067228
 30
0.0
 11
141.14365721095169
 21
503.9039396843441
 31
0.0
  0
LINE
  5
10483
  8
AM_0
 10
141.14368772852981
 20
503.9039396843441
 30
0.0
 11
141.64365721095169
 21
503.86393113942228
 31
0.0
  0
LINE
  5
10484
  8
AM_0
 10
140.64365721095169
 20
470.69028611989091
 30
0.0
 11
140.64365721095169
 21
501.13392015309398
 31
0.0
  0
LINE
  5
10485
  8
AM_0
 10
140.6436877285297
 20
470.69028611989091
 30
0.0
 11
141.14368772852981
 21
467.92029710621898
 31
0.0
  0
LINE
  5
10486
  8
AM_0
 10
141.14365721095169
 20
467.92029710621898
 30
0.0
 11
141.64368772852981
 21
467.96030565114091
 31
0.0
  0
LINE
  5
10944
  8
AM_0
 10
368.64365932691658
 20
528.41217881212583
 30
0.0
 11
297.64365694319901
 21
528.41217881212583
 31
0.0
  0
LINE
  5
10A89
  8
AM_0
 10
584.63002952213685
 20
231.38051026217531
 30
0.0
 11
560.63002952213697
 21
234.38051070921011
 31
0.0
  0
LINE
  5
10A8A
  8
AM_0
 10
584.63002952213685
 20
261.38051115624489
 30
0.0
 11
560.63002952213697
 21
258.38051070921
 31
0.0
  0
LINE
  5
10A8B
  8
AM_0
 10
560.63002952213697
 20
255.88051070921
 30
0.0
 11
532.63002952213685
 21
255.88051070921
 31
0.0
  0
LINE
  5
10A8C
  8
AM_0
 10
532.63002952213685
 20
236.8805107092102
 30
0.0
 11
560.63002952213697
 21
236.88051070624809
 31
0.0
  0
LINE
  5
10A8D
  8
AM_0
 10
532.63002952213685
 20
258.38051070921
 30
0.0
 11
554.63002952213685
 21
258.38051070921
 31
0.0
  0
LINE
  5
10A8E
  8
AM_0
 10
560.63002952213697
 20
258.38051070921
 30
0.0
 11
560.63002952213697
 21
234.38051070921011
 31
0.0
  0
LINE
  5
10A8F
  8
AM_0
 10
554.63002952213685
 20
258.38051070921
 30
0.0
 11
554.63002952213685
 21
255.88051070921
 31
0.0
  0
LINE
  5
10A90
  8
AM_0
 10
532.63002952213685
 20
236.8805107092102
 30
0.0
 11
532.63002952213685
 21
258.38051070921
 31
0.0
  0
LINE
  5
10AA2
  8
0
 10
368.64365932691658
 20
440.91218381845982
 30
0.0
 11
371.64365977395141
 21
416.91218381845982
 31
0.0
  0
LINE
  5
10AA3
  8
0
 10
398.64366022098631
 20
440.91218381845982
 30
0.0
 11
395.6436597739513
 21
416.91218381845982
 31
0.0
  0
LINE
  5
10AA4
  8
AM_0
 10
371.64365977395141
 20
416.91218381845982
 30
0.0
 11
395.6436597739513
 21
416.91218381845982
 31
0.0
  0
LINE
  5
10AA5
  8
0
 10
393.14365977395141
 20
388.91218381845982
 30
0.0
 11
374.14365977395141
 21
388.91218381845982
 31
0.0
  0
LINE
  5
10AA6
  8
0
 10
393.14365977395141
 20
388.91218381845982
 30
0.0
 11
393.1436597769133
 21
416.91218381845982
 31
0.0
  0
LINE
  5
10AA7
  8
0
 10
374.14365977395141
 20
416.91218381845982
 30
0.0
 11
374.14365977395141
 21
388.91218381845982
 31
0.0
  0
LINE
  5
10AA8
  8
0
 10
380.64365977395141
 20
410.91218381845988
 30
0.0
 11
386.64365977395119
 21
410.91218381845971
 31
0.0
  0
LINE
  5
10AA9
  8
AM_0
 10
380.64365977395141
 20
388.91218381845982
 30
0.0
 11
380.64365977395141
 21
410.91218381845988
 31
0.0
  0
LINE
  5
10AAA
  8
AM_0
 10
386.64365977395141
 20
388.91218381845982
 30
0.0
 11
386.64365977395141
 21
410.91218381845971
 31
0.0
  0
ARC
  5
10AAB
  8
AM_0
 10
383.64365977395141
 20
410.91218381845988
 30
0.0
 40
2.9999999999999432
 50
0.0
 51
180.0
  0
ARC
  5
10AAC
  8
AM_0
 10
629.63003124324155
 20
246.3805107092102
 30
0.0
 40
56.5
 50
194.1119084390975
 51
215.01862826208421
  0
LINE
  5
10AAD
  8
AM_0
 10
393.1436597762787
 20
410.91214487758782
 30
0.0
 11
429.64366102611712
 21
410.91214487758782
 31
0.0
  0
LINE
  5
10AAE
  8
AM_0
 10
674.63003296434624
 20
231.38051026217531
 30
0.0
 11
698.63003296434636
 21
234.38051070921011
 31
0.0
  0
LINE
  5
10AAF
  8
AM_0
 10
674.63003296434624
 20
261.38051115624489
 30
0.0
 11
698.63003296434636
 21
258.38051070921
 31
0.0
  0
LINE
  5
10AB0
  8
AM_0
 10
698.63003296434636
 20
255.88051070921
 30
0.0
 11
726.63003296434636
 21
255.88051070921
 31
0.0
  0
LINE
  5
10AB1
  8
AM_0
 10
726.63003296434636
 20
236.8805107092102
 30
0.0
 11
698.63003296434636
 21
236.88051070624809
 31
0.0
  0
LINE
  5
10AB2
  8
AM_0
 10
726.63003296434636
 20
258.38051070921
 30
0.0
 11
704.63003296434636
 21
258.38051070921
 31
0.0
  0
LINE
  5
10AB3
  8
AM_0
 10
698.63003296434636
 20
258.38051070921
 30
0.0
 11
698.63003296434636
 21
234.38051070921011
 31
0.0
  0
LINE
  5
10AB4
  8
AM_0
 10
704.63003296434636
 20
258.38051070921
 30
0.0
 11
704.63003296434636
 21
255.88051070921
 31
0.0
  0
LINE
  5
10AB5
  8
AM_0
 10
726.63003296434636
 20
236.8805107092102
 30
0.0
 11
726.63003296434636
 21
258.38051070921
 31
0.0
  0
ARC
  5
10AB6
  8
AM_0
 10
629.63003124324155
 20
246.3805107092102
 30
0.0
 40
56.5
 50
14.11190843909732
 51
35.018628262084228
  0
LINE
  5
10AB7
  8
AM_0
 10
393.14365979214648
 20
560.91217881212549
 30
0.0
 11
429.64366102611712
 21
560.9121788121256
 31
0.0
  0
LINE
  5
10AB8
  8
0
 10
368.64365932691658
 20
530.91213987125332
 30
0.0
 11
371.64365977395141
 21
554.91213987125332
 31
0.0
  0
LINE
  5
10AB9
  8
0
 10
398.64366022098631
 20
530.91213987125332
 30
0.0
 11
395.6436597739513
 21
554.91213987125332
 31
0.0
  0
LINE
  5
10ABA
  8
AM_0
 10
371.64365977395141
 20
554.91213987125332
 30
0.0
 11
395.6436597739513
 21
554.91213987125332
 31
0.0
  0
LINE
  5
10ABB
  8
0
 10
393.14365977395141
 20
582.91213987125354
 30
0.0
 11
374.14365977395141
 21
582.91213987125354
 31
0.0
  0
LINE
  5
10ABC
  8
0
 10
393.14365977395141
 20
582.91213987125354
 30
0.0
 11
393.1436597769133
 21
554.91213987125332
 31
0.0
  0
LINE
  5
10ABD
  8
0
 10
374.14365977395141
 20
554.91213987125332
 30
0.0
 11
374.14365977395141
 21
582.91213987125354
 31
0.0
  0
LINE
  5
10ABE
  8
0
 10
380.64365977395141
 20
560.91213987125332
 30
0.0
 11
386.64365977395119
 21
560.91213987125354
 31
0.0
  0
LINE
  5
10ABF
  8
AM_0
 10
380.64365977395141
 20
582.91213987125354
 30
0.0
 11
380.64365977395141
 21
560.91213987125332
 31
0.0
  0
LINE
  5
10AC0
  8
AM_0
 10
386.64365977395141
 20
582.91213987125354
 30
0.0
 11
386.64365977395141
 21
560.91213987125354
 31
0.0
  0
ARC
  5
10AC1
  8
AM_0
 10
383.64365977395141
 20
560.91213987125332
 30
0.0
 40
2.9999999999999432
 50
180.0
 51
0.0
  0
CIRCLE
  5
10AE0
  8
0
 10
383.64365977395141
 20
246.38051070921011
 30
0.0
 40
15.00000044703483
  0
ARC
  5
10AE1
  8
0
 10
383.64365977395141
 20
246.38051070921011
 30
0.0
 40
9.5000000000000124
 50
108.4084801705864
 51
71.591519829413585
  0
CIRCLE
  5
10AE2
  8
ｽﾝﾎﾟｳｾﾝ
 10
383.64365977395141
 20
246.38051070921011
 30
0.0
 40
3.0
  0
LINE
  5
10AE3
  8
0
 10
386.64365977395141
 20
252.38051070921011
 30
0.0
 11
380.64365977395141
 21
252.38051070921011
 31
0.0
  0
LINE
  5
10AE4
  8
0
 10
386.64365977395141
 20
258.38051070921011
 30
0.0
 11
386.64365977395141
 21
252.38051070921011
 31
0.0
  0
LINE
  5
10AE5
  8
0
 10
380.64365977395141
 20
258.38051070921011
 30
0.0
 11
386.64365977395141
 21
258.38051070921011
 31
0.0
  0
LINE
  5
10AE6
  8
0
 10
380.64365977395141
 20
252.38051070921011
 30
0.0
 11
380.64365977395141
 21
258.38051070921011
 31
0.0
  0
CIRCLE
  5
10AE7
  8
AM_0
 10
383.64365977395141
 20
246.38051070921011
 30
0.0
 40
2.5
  0
LINE
  5
10B62
  8
AM_0
 10
436.64396621771579
 20
460.91213759509048
 30
0.0
 11
435.54429709446498
 21
523.91213947263668
 31
0.0
  0
LINE
  5
10B63
  8
AM_0
 10
436.64335668418232
 20
460.87724812207011
 30
0.0
 11
436.41704982744739
 21
447.91213698294229
 31
0.0
  0
LINE
  5
10B64
  8
AM_0
 10
436.64366129386968
 20
286.38051190130301
 30
0.0
 11
436.64366129386968
 21
206.38050951711719
 31
0.0
  0
ARC
  5
10B65
  8
AM_0
 10
425.64366096604408
 20
206.38050951711719
 30
0.0
 40
11.000000327825539
 50
324.90319931238929
 51
0.0
  0
TEXT
  5
10C11
  8
AM_0
 10
521.35076160122264
 20
502.9213720551092
 30
0.0
 40
10.0
  1
VC01-007KMT~VC01-060KMT
1001
ACAD
1000
MTEXTBEGIN
1070
    73
1070
     1
1070
    44
1040
1.0
1070
    74
1070
     0
1000
MTEXTEND
  0
VIEWPORT
  5
89
 67
     1
  8
0
 10
210.0
 20
148.5
 30
0.0
 40
420.0
 41
297.0
 68
     1
 69
     1
1001
ACAD
1000
MVIEW
1002
{
1070
    16
1010
0.0
1020
0.0
1030
0.0
1010
0.0
1020
0.0
1030
1.0
1040
0.0
1040
297.0
1040
221.70154043645701
1040
148.5
1040
50.0
1040
0.0
1040
0.0
1070
     0
1070
   100
1070
     1
1070
     1
1070
     0
1070
     0
1070
     0
1070
     0
1040
0.0
1040
0.0
1040
0.0
1040
10.0
1040
10.0
1040
10.0
1040
10.0
1070
     0
1002
{
1002
}
1002
}
1001
GENIUS_GENOREF_13
1005
1B94
1001
GENIUS_GENSCREG_15
1000
PF
1040
1.0
1000
DF
1040
1.0
1000
MIN
1011
0.0
1021
0.0
1031
0.0
1021
0.0
1031
0.0
1000
MAX
1011
420.0
1021
0.0
1031
0.0
1021
297.0
1031
0.0
1000
FLAGS
1070
     4
  0
ENDSEC
  0
EOF
