  0
SECTION
  2
HEADER
  9
$ACADVER
  1
AC1009
  9
$INSBASE
 10
0.0
 20
0.0
 30
0.0
  9
$EXTMIN
 10
102.7935125438887
 20
160.71443361669409
 30
-0.0000000000000058
  9
$EXTMAX
 10
751.87859531373078
 20
638.43511123863323
 30
0.0000000000000104
  9
$LIMMIN
 10
0.0
 20
0.0
  9
$LIMMAX
 10
853.5
 20
555.00000000000011
  9
$ORTHOMODE
 70
     0
  9
$REGENMODE
 70
     1
  9
$FILLMODE
 70
     1
  9
$QTEXTMODE
 70
     0
  9
$MIRRTEXT
 70
     1
  9
$DRAGMODE
 70
     2
  9
$LTSCALE
 40
3.0
  9
$OSMODE
 70
   551
  9
$ATTMODE
 70
     1
  9
$TEXTSIZE
 40
2.5
  9
$TRACEWID
 40
1.0
  9
$TEXTSTYLE
  7
STANDARD
  9
$CLAYER
  8
AM_0
  9
$CELTYPE
  6
BYLAYER
  9
$CECOLOR
 62
   256
  9
$DIMSCALE
 40
3.0
  9
$DIMASZ
 40
2.5
  9
$DIMEXO
 40
1.0
  9
$DIMDLI
 40
7.0
  9
$DIMRND
 40
0.0
  9
$DIMDLE
 40
0.0
  9
$DIMEXE
 40
1.0
  9
$DIMTP
 40
0.1
  9
$DIMTM
 40
0.1000000001
  9
$DIMTXT
 40
2.5
  9
$DIMCEN
 40
0.0
  9
$DIMTSZ
 40
0.0
  9
$DIMTOL
 70
     0
  9
$DIMLIM
 70
     0
  9
$DIMTIH
 70
     0
  9
$DIMTOH
 70
     0
  9
$DIMSE1
 70
     0
  9
$DIMSE2
 70
     0
  9
$DIMTAD
 70
     3
  9
$DIMZIN
 70
     8
  9
$DIMBLK
  1

  9
$DIMASO
 70
     1
  9
$DIMSHO
 70
     1
  9
$DIMPOST
  1

  9
$DIMAPOST
  1
"
  9
$DIMALT
 70
     0
  9
$DIMALTD
 70
     2
  9
$DIMALTF
 40
0.0393701
  9
$DIMLFAC
 40
1.0
  9
$DIMTOFL
 70
     1
  9
$DIMTVP
 40
0.0
  9
$DIMTIX
 70
     0
  9
$DIMSOXD
 70
     0
  9
$DIMSAH
 70
     0
  9
$DIMBLK1
  1

  9
$DIMBLK2
  1

  9
$DIMSTYLE
  2
AM_JIS
  9
$DIMCLRD
 70
   256
  9
$DIMCLRE
 70
   256
  9
$DIMCLRT
 70
     4
  9
$DIMTFAC
 40
0.71
  9
$DIMGAP
 40
1.0
  9
$LUNITS
 70
     2
  9
$LUPREC
 70
     2
  9
$SKETCHINC
 40
1.0
  9
$FILLETRAD
 40
7.5
  9
$AUNITS
 70
     0
  9
$AUPREC
 70
     3
  9
$MENU
  1
.
  9
$ELEVATION
 40
0.0
  9
$PELEVATION
 40
0.0
  9
$THICKNESS
 40
0.0
  9
$LIMCHECK
 70
     0
  9
$BLIPMODE
 70
     0
  9
$CHAMFERA
 40
7.5
  9
$CHAMFERB
 40
7.5
  9
$SKPOLY
 70
     0
  9
$TDCREATE
 40
2452753.643349607
  9
$TDUPDATE
 40
2458543.4774862379
  9
$TDINDWG
 40
0.2705598958
  9
$TDUSRTIMER
 40
0.2705596991
  9
$USRTIMER
 70
     1
  9
$ANGBASE
 50
0.0
  9
$ANGDIR
 70
     0
  9
$PDMODE
 70
     0
  9
$PDSIZE
 40
0.0
  9
$PLINEWID
 40
0.0
  9
$COORDS
 70
     1
  9
$SPLFRAME
 70
     0
  9
$SPLINETYPE
 70
     6
  9
$SPLINESEGS
 70
     8
  9
$ATTDIA
 70
     1
  9
$ATTREQ
 70
     1
  9
$HANDLING
 70
     1
  9
$HANDSEED
  5
13A05
  9
$SURFTAB1
 70
     6
  9
$SURFTAB2
 70
     6
  9
$SURFTYPE
 70
     6
  9
$SURFU
 70
     6
  9
$SURFV
 70
     6
  9
$UCSNAME
  2

  9
$UCSORG
 10
0.0
 20
0.0
 30
0.0
  9
$UCSXDIR
 10
1.0
 20
0.0
 30
0.0
  9
$UCSYDIR
 10
0.0
 20
1.0
 30
0.0
  9
$PUCSNAME
  2

  9
$PUCSORG
 10
0.0
 20
0.0
 30
0.0
  9
$PUCSXDIR
 10
1.0
 20
0.0
 30
0.0
  9
$PUCSYDIR
 10
0.0
 20
1.0
 30
0.0
  9
$USERI1
 70
     0
  9
$USERI2
 70
     0
  9
$USERI3
 70
     0
  9
$USERI4
 70
     0
  9
$USERI5
 70
     0
  9
$USERR1
 40
0.0
  9
$USERR2
 40
0.0
  9
$USERR3
 40
0.0
  9
$USERR4
 40
0.0
  9
$USERR5
 40
0.0
  9
$WORLDVIEW
 70
     1
  9
$SHADEDGE
 70
     3
  9
$SHADEDIF
 70
    70
  9
$TILEMODE
 70
     1
  9
$MAXACTVP
 70
    48
  9
$PLIMCHECK
 70
     0
  9
$PEXTMIN
 10
1.0000000000000000E+020
 20
1.0000000000000000E+020
 30
1.0000000000000000E+020
  9
$PEXTMAX
 10
-1.0000000000000000E+020
 20
-1.0000000000000000E+020
 30
-1.0000000000000000E+020
  9
$PLIMMIN
 10
0.0
 20
0.0
  9
$PLIMMAX
 10
420.0
 20
297.0
  9
$UNITMODE
 70
     0
  9
$VISRETAIN
 70
     1
  9
$PLINEGEN
 70
     0
  9
$PSLTSCALE
 70
     1
  0
ENDSEC
  0
SECTION
  2
TABLES
  0
TABLE
  2
VPORT
 70
     1
  0
VPORT
  2
*ACTIVE
 70
     0
 10
0.0
 20
0.0
 11
1.0
 21
1.0
 12
427.3360539288098
 22
399.57477242766367
 13
0.0
 23
0.0
 14
7.5
 24
7.5
 15
30.0
 25
30.0
 16
0.0
 26
0.0
 36
1.0
 17
0.0
 27
0.0
 37
0.0
 40
481.00022460790211
 41
1.7571592210767459
 42
50.0
 43
0.0
 44
0.0
 50
0.0
 51
0.0
 71
    16
 72
   100
 73
     1
 74
     1
 75
     0
 76
     0
 77
     0
 78
     0
  0
ENDTAB
  0
TABLE
  2
LTYPE
 70
    21
  0
LTYPE
  2
CONTINUOUS
 70
     0
  3
Solid line
 72
    65
 73
     0
 40
0.0
  0
LTYPE
  2
PHANTOM2
 70
     0
  3
Phantom (.5x) ___ _ _ ___ _ _ ___ _ _ ___ _ _
 72
    65
 73
     6
 40
31.75
 49
15.875
 49
-3.174999999999998
 49
3.174999999999998
 49
-3.174999999999998
 49
3.174999999999998
 49
-3.174999999999998
  0
LTYPE
  2
CENTER
 70
     0
  3
Center ____ _ ____ _ ____ _ ____ _ ____ _ ____
 72
    65
 73
     4
 40
50.799999999999997
 49
31.75
 49
-6.3499999999999979
 49
6.3499999999999979
 49
-6.3499999999999979
  0
LTYPE
  2
ACANSTGBM
 70
     0
  3
__ . . __ . .
 72
    65
 73
     6
 40
9.0
 49
4.0
 49
-1.0
 49
1.0
 49
-1.0
 49
1.0
 49
-1.0
  0
LTYPE
  2
ACANSTGLM
 70
     0
  3
_ _ _ _ _
 72
    65
 73
     2
 40
3.0
 49
2.0
 49
-1.0
  0
LTYPE
  2
GEN3B
 70
     0
  3
 - - - - -
 72
    65
 73
     2
 40
1.0
 49
0.5
 49
-0.5
  0
LTYPE
  2
GEN7A
 70
     0
  3
__ . __ . __
 72
    65
 73
     4
 40
7.375
 49
4.75
 49
-0.875
 49
0.875
 49
-0.875
  0
LTYPE
  2
AM_ISO02W050
 70
     0
  3
__ __ __ __ __ __ __ __ __ __ __ __ __ __ __
 72
    65
 73
     2
 40
7.5
 49
6.0
 49
-1.5
  0
LTYPE
  2
AM_ISO08W050
 70
     0
  3
____ . ____ . ____ . ____ . ____ . ____ . ____
 72
    65
 73
     4
 40
18.0
 49
12.0
 49
-1.5
 49
3.0
 49
-1.5
  0
LTYPE
  2
AM_ISO09W050
 70
     0
  3
_____ . . _____ . . _____ . . ____ .. ____
 72
    65
 73
     6
 40
22.5
 49
12.0
 49
-1.5
 49
3.0
 49
-1.5
 49
3.0
 49
-1.5
  0
LTYPE
  2
AMCONSTR
 70
     0
  3
_______________________
 72
    65
 73
     2
 40
9999.0
 49
9999.0
 49
0.0
  0
LTYPE
  2
AM_ISO02W050X2
 70
     0
  3
 _ _ _ _ _ _ _ _ _ _ _ _
 72
    65
 73
     2
 40
3.75
 49
3.0
 49
-0.75
  0
LTYPE
  2
AM_ISO08W050X2
 70
     0
  3
__ . __ . __ . __ . __ . __
 72
    65
 73
     4
 40
9.0
 49
6.0
 49
-0.75
 49
1.5
 49
-0.75
  0
LTYPE
  2
AMZIGZAG
 70
     0
  3
/\/-/\/-/\/-/\/-/\/-/\/
 72
    65
 73
     2
 40
11.0001
 49
0.0001
 49
-11.0
  0
LTYPE
  2
ACJISTGB
 70
     0
  3
__ . . __ . .
 72
    65
 73
     6
 40
9.0
 49
4.0
 49
-1.0
 49
1.0
 49
-1.0
 49
1.0
 49
-1.0
  0
LTYPE
  2
ACJISTGL
 70
     0
  3
_ _ _ _ _
 72
    65
 73
     2
 40
3.0
 49
2.0
 49
-1.0
  0
LTYPE
  2
ACISOWELD
 70
     0
  3
_ _ _ _ _
 72
    65
 73
     2
 40
2.0
 49
2.0
 49
-1.0
  0
LTYPE
  2
ACISOTGB
 70
     0
  3
__ . . __ . .
 72
    65
 73
     6
 40
9.0
 49
4.0
 49
-1.0
 49
1.0
 49
-1.0
 49
1.0
 49
-1.0
  0
LTYPE
  2
ACISOTGL
 70
     0
  3
_ _ _ _ _
 72
    65
 73
     2
 40
3.0
 49
2.0
 49
-1.0
  0
LTYPE
  2
HIDDEN
 70
     0
  3
Hidden __ __ __ __ __ __ __ __ __ __ __ __ __ _
 72
    65
 73
     2
 40
9.5249999999999968
 49
6.3499999999999979
 49
-3.174999999999998
  0
ENDTAB
  0
TABLE
  2
LAYER
 70
     9
  0
LAYER
  2
0
 70
     0
 62
     7
  6
CONTINUOUS
  0
LAYER
  2
DEFPOINTS
 70
     0
 62
     7
  6
CONTINUOUS
  0
LAYER
  2
ｶｸﾚｾﾝ2
 70
     0
 62
     3
  6
GEN3B
  0
LAYER
  2
ﾁｭｳｼﾝｾﾝ1
 70
     0
 62
     1
  6
GEN7A
  0
LAYER
  2
AM_0
 70
     0
 62
     7
  6
CONTINUOUS
  0
LAYER
  2
AM_0N
 70
     0
 62
     7
  6
CONTINUOUS
  0
LAYER
  2
AM_5
 70
     0
 62
     2
  6
CONTINUOUS
  0
LAYER
  2
AM_4N
 70
     0
 62
     2
  6
CONTINUOUS
  0
LAYER
  2
ｽﾝﾎﾟｳｾﾝ
 70
     0
 62
     2
  6
CONTINUOUS
  0
ENDTAB
  0
TABLE
  2
STYLE
 70
     8
  0
STYLE
  2
STANDARD
 70
     0
 40
0.0
 41
0.8299999999999999
 50
0.0
 71
     0
 42
2.5
  3
txt.shx
  4
bigfont.shx
  0
STYLE
  2
ACANSTS
 70
     0
 40
1.0
 41
1.0
 50
0.0
 71
     0
 42
2.5
  3
romans.shx
  4
bigfont.shx
  0
STYLE
  2
ACANSGDT
 70
     0
 40
0.0
 41
1.0
 50
0.0
 71
     0
 42
2.5
  3
amgdtans.shx
  4

  0
STYLE
  2

 70
     1
 40
0.0
 41
1.0
 50
0.0
 71
     0
 42
2.5
  3
ltypeshp.shx
  4

  0
STYLE
  2
ACJISTS
 70
     0
 40
1.0
 41
1.0
 50
0.0
 71
     0
 42
2.5
  3
isocp.shx
  4
bigfont.shx
  0
STYLE
  2
ACJISGDT
 70
     0
 40
0.0
 41
1.0
 50
0.0
 71
     0
 42
2.5
  3
amgdt.shx
  4

  0
STYLE
  2
ACISOTS
 70
     0
 40
3.0
 41
1.0
 50
0.0
 71
     0
 42
2.5
  3
isocp.shx
  4
extfont.shx
  0
STYLE
  2
ACISOGDT
 70
     0
 40
0.0
 41
1.0
 50
0.0
 71
     0
 42
2.5
  3
amgdt.shx
  4

  0
ENDTAB
  0
TABLE
  2
VIEW
 70
    12
  0
VIEW
  2
GEN1
 70
     0
 40
95.824742268041234
 10
71.5
 20
137.08762886597941
 41
143.0
 11
0.0
 21
0.0
 31
1.0
 12
0.0
 22
0.0
 32
0.0
 42
50.0
 43
0.0
 44
0.0
 50
0.0
 71
     0
  0
VIEW
  2
GEN2
 70
     0
 40
95.824742268041234
 10
214.5
 20
137.08762886597941
 41
143.0
 11
0.0
 21
0.0
 31
1.0
 12
0.0
 22
0.0
 32
0.0
 42
50.0
 43
0.0
 44
0.0
 50
0.0
 71
     0
  0
VIEW
  2
GEN3
 70
     0
 40
95.824742268041234
 10
71.5
 20
47.912371134020603
 41
143.0
 11
0.0
 21
0.0
 31
1.0
 12
0.0
 22
0.0
 32
0.0
 42
50.0
 43
0.0
 44
0.0
 50
0.0
 71
     0
  0
VIEW
  2
GEN4
 70
     0
 40
95.824742268041234
 10
214.5
 20
47.912371134020603
 41
143.0
 11
0.0
 21
0.0
 31
1.0
 12
0.0
 22
0.0
 32
0.0
 42
50.0
 43
0.0
 44
0.0
 50
0.0
 71
     0
  0
VIEW
  2
GEN5
 70
     0
 40
95.824742268041234
 10
143.0
 20
92.500000000000057
 41
143.0
 11
0.0
 21
0.0
 31
1.0
 12
0.0
 22
0.0
 32
0.0
 42
50.0
 43
0.0
 44
0.0
 50
0.0
 71
     0
  0
VIEW
  2
GEN6
 70
     0
 40
191.64756804123709
 10
143.0
 20
92.5
 41
285.99714
 11
0.0
 21
0.0
 31
1.0
 12
0.0
 22
0.0
 32
0.0
 42
50.0
 43
0.0
 44
0.0
 50
0.0
 71
     0
  0
VIEW
  2
AM_VIEW1
 70
     0
 40
277.50000000000011
 10
249.64779005524869
 20
416.25000000000011
 41
499.29558011049721
 11
0.0
 21
0.0
 31
1.0
 12
0.0
 22
0.0
 32
0.0
 42
50.0
 43
0.0
 44
0.0
 50
0.0
 71
    16
  0
VIEW
  2
AM_VIEW2
 70
     0
 40
277.50000000000011
 10
603.85220994475117
 20
416.25000000000011
 41
499.29558011049721
 11
0.0
 21
0.0
 31
1.0
 12
0.0
 22
0.0
 32
0.0
 42
50.0
 43
0.0
 44
0.0
 50
0.0
 71
    16
  0
VIEW
  2
AM_VIEW3
 70
     0
 40
277.50000000000011
 10
249.64779005524869
 20
138.75
 41
499.29558011049721
 11
0.0
 21
0.0
 31
1.0
 12
0.0
 22
0.0
 32
0.0
 42
50.0
 43
0.0
 44
0.0
 50
0.0
 71
    16
  0
VIEW
  2
AM_VIEW4
 70
     0
 40
277.50000000000011
 10
603.85220994475117
 20
138.75
 41
499.29558011049721
 11
0.0
 21
0.0
 31
1.0
 12
0.0
 22
0.0
 32
0.0
 42
50.0
 43
0.0
 44
0.0
 50
0.0
 71
    16
  0
VIEW
  2
AM_VIEW5
 70
     0
 40
277.50000000000011
 10
426.75
 20
277.50000000000011
 41
499.2955801104971
 11
0.0
 21
0.0
 31
1.0
 12
0.0
 22
0.0
 32
0.0
 42
50.0
 43
0.0
 44
0.0
 50
0.0
 71
    16
  0
VIEW
  2
AM_VIEW6
 70
     0
 40
554.99445000000014
 10
426.75
 20
277.5
 41
998.5811743093924
 11
0.0
 21
0.0
 31
1.0
 12
0.0
 22
0.0
 32
0.0
 42
50.0
 43
0.0
 44
0.0
 50
0.0
 71
    16
  0
ENDTAB
  0
TABLE
  2
UCS
 70
     0
  0
ENDTAB
  0
TABLE
  2
APPID
 70
    96
  0
APPID
  2
ACAD
 70
     0
  0
APPID
  2
MCAD_NO_VIS
 70
     0
  0
APPID
  2
ACAD_TEMP_GRAPHIC
 70
     0
  0
APPID
  2
AD_DRAW
 70
     0
  0
APPID
  2
DESIGNERASSEMBLIES
 70
     0
  0
APPID
  2
ASURF_PCURVE_APPNAME
 70
     0
  0
APPID
  2
GENIUS_GE3SECT_13
 70
     0
  0
APPID
  2
GENIUS_GENCFG_13
 70
     0
  0
APPID
  2
GENIUS_GE3CFG0_13
 70
     0
  0
APPID
  2
GENIUS_GENCFG0_13
 70
     0
  0
APPID
  2
GENIUS_GENCFG1_13
 70
     0
  0
APPID
  2
GENIUS_GENCFG2_13
 70
     0
  0
APPID
  2
GENIUS_GENCFG3_13
 70
     0
  0
APPID
  2
GENIUS_GENCFG4_13
 70
     0
  0
APPID
  2
GENIUS_GEVCFG0_13
 70
     0
  0
APPID
  2
GENIUS_GENOENT_13
 70
     0
  0
APPID
  2
GENIUS_GENREC_14
 70
     0
  0
APPID
  2
GENIUS_GENODEF_13
 70
     0
  0
APPID
  2
GENIUS_GENOBJ-N-REC_13
 70
     0
  0
APPID
  2
GENIUS_GENHINW_13
 70
     0
  0
APPID
  2
GENIUS_FIRSTVISTXT_14
 70
     0
  0
APPID
  2
GENIUS_GENOBJ-N-LEADER_13
 70
     0
  0
APPID
  2
GENIUS_GENOREF_13
 70
     0
  0
APPID
  2
GENIUS_GENOLIS_13
 70
     0
  0
APPID
  2
GEV_VCCNULL_SWITCH_OFF
 70
     0
  0
APPID
  2
GENIUS_GENDTOL_13
 70
     0
  0
APPID
  2
GENIUS_GEFCFG0_13
 70
     0
  0
APPID
  2
GENIUS_GENOBJ-N-TIT_13
 70
     0
  0
APPID
  2
GENIUS_GENTITLE_13
 70
     0
  0
APPID
  2
GENIUS_GENZVEED_13
 70
     0
  0
APPID
  2
GENIUS_GENOBJ-N-SDF_13
 70
     0
  0
APPID
  2
GENIUS_GENSCREG_13
 70
     0
  0
APPID
  2
GENIUS_DUMCFG0_13
 70
     0
  0
APPID
  2
GEVID936201362
 70
     0
  0
APPID
  2
GEVDC
 70
     0
  0
APPID
  2
GEVCON
 70
     0
  0
APPID
  2
VCC
 70
     0
  0
APPID
  2
GEVPT
 70
     0
  0
APPID
  2
GEVIT
 70
     0
  0
APPID
  2
GENBH
 70
     0
  0
APPID
  2
GEVMK
 70
     0
  0
APPID
  2
GENIUS_GENBH_13
 70
     0
  0
APPID
  2
GENIUS_GENOBJ-NBEHI-BHF_13
 70
     0
  0
APPID
  2
GENIUS_GENOBJ-NBEHI-BHB_13
 70
     0
  0
APPID
  2
GENIUS_GENOBJ-F-DESC_13
 70
     0
  0
APPID
  2
GENIUS_GEFDESC_14
 70
     0
  0
APPID
  2
GENIUS_GENOBJ-F-PART_13
 70
     0
  0
APPID
  2
GENIUS_GEFSTDP_13
 70
     0
  0
APPID
  2
GENIUS_GEFPARTINS_13
 70
     0
  0
APPID
  2
GENIUS_GENTRA_14
 70
     0
  0
APPID
  2
GENIUS_GENINF13_13
 70
     0
  0
APPID
  2
GENIUS_GENOBJ-N-INFOPT_13
 70
     0
  0
APPID
  2
GENIUS_GENOBJ-N-RSSYM_13
 70
     0
  0
APPID
  2
GENIUS_GENSYMENT_13
 70
     0
  0
APPID
  2
GENIUS_GENSCSYM_13
 70
     0
  0
APPID
  2
GENIUS_GEFINFNAM_13
 70
     0
  0
APPID
  2
GENIUS_GENSCREG_15
 70
     0
  0
APPID
  2
GENIUS_GENOBJ-N-CEN_13
 70
     0
  0
APPID
  2
GENIUS_GENOBJ-N-CRS_13
 70
     0
  0
APPID
  2
GENIUS_GENOBJ-N-CRC_13
 70
     0
  0
APPID
  2
GENIUS_GENCRC_14
 70
     0
  0
APPID
  2
GEVID942827039
 70
     0
  0
APPID
  2
GEVID942827040
 70
     0
  0
APPID
  2
GEVID942827041
 70
     0
  0
APPID
  2
GENIUS_GENOBJ-F-SCPASSM_13
 70
     0
  0
APPID
  2
GENIUS_GENDIMSH_14
 70
     0
  0
APPID
  2
GENIUS_GENFIL_13
 70
     0
  0
APPID
  2
GENIUS_GENOBJ-N-CHA_13
 70
     0
  0
APPID
  2
GENIUS_GENOBJ-N-FIL_13
 70
     0
  0
APPID
  2
GEVID942827042
 70
     0
  0
APPID
  2
GEVID946020473
 70
     0
  0
APPID
  2
GEVID946020474
 70
     0
  0
APPID
  2
GEVID946020475
 70
     0
  0
APPID
  2
GENIUS_GENOBJ-N-HTC_13
 70
     0
  0
APPID
  2
GENIUS_GENHATCH_13
 70
     0
  0
APPID
  2
GEVID948854295
 70
     0
  0
APPID
  2
GEVID939402019
 70
     0
  0
APPID
  2
GEVID952919491
 70
     0
  0
APPID
  2
GEVID952919492
 70
     0
  0
APPID
  2
GENIUS_GEFWELD_13
 70
     0
  0
APPID
  2
GENIUS_GENOBJ-F-WELS_13
 70
     0
  0
APPID
  2
GEVID952919493
 70
     0
  0
APPID
  2
GENIUS_GENOBJ-N-RSBK_13
 70
     0
  0
APPID
  2
GENIUS_GENOBJ-N-LIB_13
 70
     0
  0
APPID
  2
GENIUS_GENSCALE_13
 70
     0
  0
APPID
  2
GEVID986376691
 70
     0
  0
APPID
  2
ACATTRIBSERVICES
 70
     0
  0
APPID
  2
DCO15
 70
     0
  0
APPID
  2
ACADM_DIM_EDIT
 70
     0
  0
APPID
  2
AMDT_DM_ADJ
 70
     0
  0
APPID
  2
ACAD_MLEADERVER
 70
     0
  0
APPID
  2
ACAD_DSTYLE_DIMBREAK
 70
     0
  0
APPID
  2
ACAD_DSTYLE_DIMJAG
 70
     0
  0
APPID
  2
ACAD_NAV_VCDISPLAY
 70
     0
  0
APPID
  2
ACADANNOPO
 70
     0
  0
APPID
  2
ACAD_EXEMPT_FROM_CAD_STANDARDS
 70
     0
  0
ENDTAB
  0
TABLE
  2
DIMSTYLE
 70
    15
  0
DIMSTYLE
  2
STANDARD
 70
     0
  3

  4

  5

  6

  7

 40
1.0
 41
0.18
 42
0.0625
 43
0.38
 44
0.18
 45
0.0
 46
0.0
 47
0.0
 48
0.0
140
0.18
141
0.09
142
0.0
143
25.399999999999999
144
1.0
145
0.0
146
1.0
147
0.09
 71
     0
 72
     0
 73
     1
 74
     1
 75
     0
 76
     0
 77
     0
 78
     0
170
     0
171
     2
172
     0
173
     0
174
     0
175
     0
176
     0
177
     0
178
     0
  0
DIMSTYLE
  2
AM_JIS
 70
     0
  3

  4
"
  5

  6

  7

 40
1.0
 41
2.5
 42
1.0
 43
7.0
 44
1.0
 45
0.0
 46
0.0
 47
0.1
 48
0.1000000001
140
2.5
141
0.0
142
0.0
143
0.0393701
144
1.0
145
0.0
146
0.71
147
1.0
 71
     0
 72
     0
 73
     0
 74
     0
 75
     0
 76
     0
 77
     3
 78
     8
170
     0
171
     2
172
     1
173
     0
174
     0
175
     0
176
   256
177
   256
178
     4
  0
DIMSTYLE
  2
AM_JIS$3
 70
     0
  3

  4
"
  5

  6

  7

 40
1.0
 41
2.5
 42
1.0
 43
7.0
 44
1.0
 45
0.0
 46
0.0
 47
0.1
 48
0.1000000001
140
2.5
141
0.0
142
0.0
143
0.0393701
144
1.0
145
0.0
146
0.71
147
1.0
 71
     0
 72
     0
 73
     0
 74
     1
 75
     0
 76
     0
 77
     3
 78
     8
170
     0
171
     2
172
     0
173
     0
174
     0
175
     0
176
   256
177
   256
178
     4
  0
DIMSTYLE
  2
AM_JIS$4
 70
     0
  3

  4
"
  5

  6

  7

 40
1.0
 41
2.5
 42
1.0
 43
7.0
 44
1.0
 45
0.0
 46
0.0
 47
0.1
 48
0.1000000001
140
2.5
141
0.0
142
0.0
143
0.0393701
144
1.0
145
0.0
146
0.71
147
1.0
 71
     0
 72
     0
 73
     0
 74
     0
 75
     0
 76
     0
 77
     3
 78
     8
170
     0
171
     2
172
     0
173
     0
174
     0
175
     0
176
   256
177
   256
178
     4
  0
DIMSTYLE
  2
AM_JIS$6
 70
     0
  3

  4
"
  5

  6

  7

 40
1.0
 41
2.5
 42
1.0
 43
7.0
 44
1.0
 45
0.0
 46
0.0
 47
0.1
 48
0.1000000001
140
2.5
141
0.0
142
0.0
143
0.0393701
144
1.0
145
0.0
146
0.71
147
1.0
 71
     0
 72
     0
 73
     0
 74
     0
 75
     0
 76
     0
 77
     0
 78
     8
170
     0
171
     2
172
     1
173
     0
174
     0
175
     0
176
   256
177
   256
178
     4
  0
DIMSTYLE
  2
AM_JIS$7
 70
     0
  3

  4
"
  5

  6

  7

 40
1.0
 41
2.5
 42
1.0
 43
7.0
 44
1.0
 45
0.0
 46
0.0
 47
0.1
 48
0.1000000001
140
2.5
141
0.0
142
0.0
143
0.0393701
144
1.0
145
0.0
146
0.71
147
1.0
 71
     0
 72
     0
 73
     0
 74
     0
 75
     0
 76
     0
 77
     3
 78
     8
170
     0
171
     2
172
     1
173
     0
174
     0
175
     0
176
   256
177
   256
178
     4
  0
DIMSTYLE
  2
AM_JIS$SF
 70
     0
  3

  4
"
  5
OPEN30
  6
OPEN30
  7
OPEN30
 40
1.0
 41
2.5
 42
1.0
 43
10.0
 44
1.0
 45
0.0
 46
0.0
 47
0.1
 48
0.1
140
3.5
141
0.0
142
0.0
143
0.0393701
144
1.0
145
0.0
146
0.71
147
1.5
 71
     0
 72
     0
 73
     0
 74
     0
 75
     1
 76
     1
 77
     3
 78
     8
170
     0
171
     2
172
     1
173
     0
174
     0
175
     0
176
   256
177
   256
178
     4
  0
DIMSTYLE
  2
AM_JIS$SH
 70
     0
  3

  4
"
  5

  6
NONE
  7

 40
1.0
 41
2.5
 42
1.0
 43
10.0
 44
1.0
 45
0.0
 46
0.0
 47
0.1
 48
0.1
140
3.5
141
0.0
142
0.0
143
0.0393701
144
1.0
145
0.0
146
0.71
147
1.5
 71
     0
 72
     0
 73
     0
 74
     0
 75
     1
 76
     0
 77
     3
 78
     8
170
     0
171
     2
172
     1
173
     1
174
     0
175
     0
176
   256
177
   256
178
     4
  0
DIMSTYLE
  2
AM_ISO
 70
     0
  3

  4
"
  5

  6

  7

 40
1.0
 41
2.5
 42
1.0
 43
10.0
 44
1.0
 45
0.0
 46
0.0
 47
0.0
 48
0.000000001
140
3.0
141
0.0
142
0.0
143
0.0393701
144
1.0
145
0.0
146
0.71
147
1.299999999999998
 71
     1
 72
     0
 73
     0
 74
     0
 75
     0
 76
     0
 77
     1
 78
     8
170
     0
171
     2
172
     1
173
     0
174
     0
175
     0
176
   256
177
   256
178
     4
  0
DIMSTYLE
  2
AM_ISO$3
 70
     0
  3

  4
"
  5

  6

  7

 40
1.0
 41
2.5
 42
1.0
 43
10.0
 44
1.0
 45
0.0
 46
0.0
 47
0.0
 48
0.000000001
140
2.5
141
0.0
142
0.0
143
0.0393701
144
1.0
145
0.0
146
0.71
147
1.299999999999998
 71
     1
 72
     0
 73
     0
 74
     1
 75
     0
 76
     0
 77
     1
 78
     8
170
     0
171
     2
172
     0
173
     0
174
     0
175
     0
176
   256
177
   256
178
     4
  0
DIMSTYLE
  2
AM_ISO$4
 70
     0
  3

  4
"
  5

  6

  7

 40
1.0
 41
2.5
 42
1.0
 43
10.0
 44
1.0
 45
0.0
 46
0.0
 47
0.0
 48
0.000000001
140
2.5
141
0.0
142
0.0
143
0.0393701
144
1.0
145
0.0
146
0.71
147
1.299999999999998
 71
     1
 72
     0
 73
     0
 74
     1
 75
     0
 76
     0
 77
     1
 78
     8
170
     0
171
     2
172
     0
173
     0
174
     0
175
     0
176
   256
177
   256
178
     4
  0
DIMSTYLE
  2
AM_ISO$6
 70
     0
  3

  4
"
  5

  6

  7

 40
1.0
 41
2.5
 42
1.0
 43
10.0
 44
1.0
 45
0.0
 46
0.0
 47
0.0
 48
0.000000001
140
2.5
141
0.0
142
0.0
143
0.0393701
144
1.0
145
0.0
146
0.71
147
1.299999999999998
 71
     1
 72
     0
 73
     0
 74
     0
 75
     0
 76
     0
 77
     0
 78
     8
170
     0
171
     2
172
     1
173
     0
174
     0
175
     0
176
   256
177
   256
178
     4
  0
DIMSTYLE
  2
AM_ISO$7
 70
     0
  3

  4
"
  5

  6

  7

 40
1.0
 41
2.5
 42
1.0
 43
10.0
 44
1.0
 45
0.0
 46
0.0
 47
0.0
 48
0.000000001
140
2.5
141
0.0
142
0.0
143
0.0393701
144
1.0
145
0.0
146
0.71
147
1.299999999999998
 71
     1
 72
     0
 73
     0
 74
     0
 75
     0
 76
     0
 77
     1
 78
     8
170
     0
171
     2
172
     1
173
     0
174
     0
175
     0
176
   256
177
   256
178
     4
  0
DIMSTYLE
  2
AM_ISO$SF
 70
     0
  3

  4
"
  5

  6

  7

 40
1.0
 41
2.5
 42
1.0
 43
10.0
 44
1.0
 45
0.0
 46
0.0
 47
0.1
 48
0.1
140
3.5
141
0.0
142
0.0
143
0.0393701
144
1.0
145
0.0
146
0.71
147
1.5
 71
     0
 72
     0
 73
     0
 74
     0
 75
     1
 76
     1
 77
     1
 78
     8
170
     0
171
     2
172
     1
173
     0
174
     0
175
     0
176
   256
177
   256
178
     4
  0
DIMSTYLE
  2
AM_ISO$SH
 70
     0
  3

  4
"
  5

  6
GENAXEH
  7

 40
1.0
 41
2.5
 42
1.0
 43
10.0
 44
1.0
 45
0.0
 46
0.0
 47
0.1
 48
0.1
140
3.5
141
0.0
142
0.0
143
0.0393701
144
2.0
145
0.0
146
0.71
147
1.5
 71
     0
 72
     0
 73
     0
 74
     0
 75
     1
 76
     1
 77
     1
 78
     8
170
     0
171
     2
172
     1
173
     1
174
     0
175
     0
176
   256
177
   256
178
     4
  0
ENDTAB
  0
ENDSEC
  0
SECTION
  2
BLOCKS
  0
BLOCK
  8
0
  2
$MODEL_SPACE
 70
     0
 10
0.0
 20
0.0
 30
0.0
  3
$MODEL_SPACE
  1

  0
ENDBLK
  5
1A
  8
0
  0
BLOCK
 67
     1
  8
0
  2
$PAPER_SPACE
 70
     0
 10
0.0
 20
0.0
 30
0.0
  3
$PAPER_SPACE
  1

  0
ENDBLK
  5
17
 67
     1
  8
0
  0
BLOCK
  8
0
  2
_OPEN30
 70
     0
 10
0.0
 20
0.0
 30
0.0
  3
_OPEN30
  1

  0
LINE
  5
21C5
  8
0
 62
     0
 10
-1.0
 20
0.26794919
 30
0.0
 11
0.0
 21
0.0
 31
0.0
  0
LINE
  5
21C6
  8
0
 62
     0
 10
0.0
 20
0.0
 30
0.0
 11
-1.0
 21
-0.26794919
 31
0.0
  0
LINE
  5
21C7
  8
0
 62
     0
 10
0.0
 20
0.0
 30
0.0
 11
-1.0
 21
0.0
 31
0.0
  0
ENDBLK
  5
21C9
  8
0
  0
BLOCK
  8
0
  2
GENAXEH
 70
     0
 10
0.0
 20
0.0
 30
0.0
  3
GENAXEH
  1

  0
LINE
  5
21D0
  8
0
 10
-1.0
 20
0.0
 30
0.0
 11
1.0
 21
0.0
 31
0.0
  0
ENDBLK
  5
21D2
  8
0
  0
BLOCK
  8
0
  2
_NONE
 70
     0
 10
0.0
 20
0.0
 30
0.0
  3
_NONE
  1

  0
ENDBLK
  5
8193
  8
0
  0
BLOCK
  8
0
  2
*U5
 70
     1
 10
0.0
 20
0.0
 30
0.0
  3
*U5
  1

  0
SOLID
  5
137AC
  8
AM_0
  6
CONTINUOUS
 10
-314.81514958888903
 20
476.7881573742053
 30
0.0
 11
-317.31514958888903
 21
476.7881573742053
 31
0.0
 12
-314.81514958888903
 22
474.28815737420541
 32
0.0
 13
-314.81514958888903
 23
474.28815737420541
 33
0.0
210
0.0
220
0.0
230
-1.0
  0
LINE
  5
137AD
  8
AM_0
  6
CONTINUOUS
 10
317.31514958888903
 20
476.7881573742053
 30
0.0
 11
314.81514958888903
 21
474.28815737420541
 31
0.0
  0
LINE
  5
137AE
  8
AM_0
  6
CONTINUOUS
 10
314.81514958888903
 20
474.28815737420541
 30
0.0
 11
314.81514958888903
 21
476.7881573742053
 31
0.0
  0
ENDBLK
  5
137B0
  8
0
  0
BLOCK
  8
0
  2
*U6
 70
     1
 10
0.0
 20
0.0
 30
0.0
  3
*U6
  1

  0
SOLID
  5
137B2
  8
AM_0
  6
CONTINUOUS
 10
-307.81514958888943
 20
476.7881573742053
 30
0.0
 11
-310.31514958888943
 21
476.7881573742053
 31
0.0
 12
-310.31514958888943
 22
474.28815737420541
 32
0.0
 13
-310.31514958888943
 23
474.28815737420541
 33
0.0
210
0.0
220
0.0
230
-1.0
  0
LINE
  5
137B3
  8
AM_0
  6
CONTINUOUS
 10
310.31514958888943
 20
476.7881573742053
 30
0.0
 11
310.31514958888943
 21
474.28815737420541
 31
0.0
  0
LINE
  5
137B4
  8
AM_0
  6
CONTINUOUS
 10
310.31514958888943
 20
474.28815737420541
 30
0.0
 11
307.81514958888943
 21
476.7881573742053
 31
0.0
  0
ENDBLK
  5
137B6
  8
0
  0
BLOCK
  8
0
  2
*U7
 70
     1
 10
0.0
 20
0.0
 30
0.0
  3
*U7
  1

  0
SOLID
  5
137B8
  8
AM_0
  6
CONTINUOUS
 10
-314.81514958888903
 20
578.28817511464513
 30
0.0
 11
-317.31514958888903
 21
575.78817511464513
 31
0.0
 12
-314.81514958888903
 22
575.78817511464513
 32
0.0
 13
-314.81514958888903
 23
575.78817511464513
 33
0.0
210
0.0
220
0.0
230
-1.0
  0
LINE
  5
137B9
  8
AM_0
  6
CONTINUOUS
 10
314.81514958888903
 20
578.28817511464513
 30
0.0
 11
317.31514958888903
 21
575.78817511464513
 31
0.0
  0
LINE
  5
137BA
  8
AM_0
  6
CONTINUOUS
 10
314.81514958888903
 20
575.78817511464513
 30
0.0
 11
314.81514958888903
 21
578.28817511464513
 31
0.0
  0
ENDBLK
  5
137BC
  8
0
  0
BLOCK
  8
0
  2
*U8
 70
     1
 10
0.0
 20
0.0
 30
0.0
  3
*U8
  1

  0
SOLID
  5
137BE
  8
AM_0
  6
CONTINUOUS
 10
-310.31514958888943
 20
578.28817511464513
 30
0.0
 11
-310.31514958888943
 21
575.78817511464513
 31
0.0
 12
-307.81514958888943
 22
575.78817511464513
 32
0.0
 13
-307.81514958888943
 23
575.78817511464513
 33
0.0
210
0.0
220
0.0
230
-1.0
  0
LINE
  5
137BF
  8
AM_0
  6
CONTINUOUS
 10
310.31514958888943
 20
578.28817511464513
 30
0.0
 11
310.31514958888943
 21
575.78817511464513
 31
0.0
  0
LINE
  5
137C0
  8
AM_0
  6
CONTINUOUS
 10
307.81514958888943
 20
575.78817511464513
 30
0.0
 11
310.31514958888943
 21
578.28817511464513
 31
0.0
  0
ENDBLK
  5
137C2
  8
0
  0
ENDSEC
  0
SECTION
  2
ENTITIES
  0
POINT
  5
1B94
  8
0
 10
0.0
 20
0.0
 30
0.0
1001
GENIUS_GENODEF_13
1002
{
1000
HIER
1070
     1
1002
}
1002
{
1000
MANEDIT
1070
     0
1002
}
1002
{
1000
NOSEL
1070
     0
1002
}
1002
{
1000
BEHIND
1070
     0
1002
}
1002
{
1000
REACTOR
1002
}
1001
GENIUS_GENOBJ-N-SDF_13
1002
{
1000
OWNER
1000
GEN
1002
}
1001
GENIUS_GENOENT_13
1002
{
1000
MYREF
1005
1B94
1002
}
1002
{
1000
GRP
1005
0
1002
}
1001
GENIUS_GENOLIS_13
1002
{
1000
ENT
1005
89
1002
}
  0
LINE
  5
E5D3
  8
AM_0
 10
389.70194531049879
 20
308.76182785540499
 30
0.0
 11
388.2585696375246
 21
311.26182785540499
 31
0.0
1001
GENIUS_GENOREF_13
1005
0
  0
CIRCLE
  5
E5D4
  8
AM_0
 10
386.8151939645507
 20
308.76182785540499
 30
0.0
 40
5.0
1001
GENIUS_GENOREF_13
1005
0
  0
CIRCLE
  5
E5D5
  8
AM_0
 10
386.8151939645507
 20
308.76182785540499
 30
0.0
 40
2.886751345948126
1001
GENIUS_GENOREF_13
1005
0
  0
LINE
  5
E5D6
  8
AM_0
 10
388.25856963752477
 20
306.26182785540487
 30
0.0
 11
389.70194531049879
 21
308.76182785540499
 31
0.0
1001
GENIUS_GENOREF_13
1005
0
  0
ARC
  5
E5D9
  8
AM_0
 10
386.8151939645507
 20
308.76182785540499
 30
0.0
 40
6.0000000000000062
 50
179.99999749551819
 51
0.0000025044687019
  0
LINE
  5
E5DA
  8
AM_0
 10
401.67540819794908
 20
293.98483505755343
 30
0.0
 11
384.75063402802749
 21
296.94076767474093
 31
0.0
  0
CIRCLE
  5
E5DB
  8
AM_0
 10
354.3151939645507
 20
255.76182785540499
 30
0.0
 40
37.5
  0
LINE
  5
E5DF
  8
AM_0
 10
378.4199135779628
 20
217.7623213802047
 30
0.0
 11
406.81519567818378
 21
217.76232138020481
 31
0.0
  0
LINE
  5
E5E0
  8
AM_0
 10
411.8151651606031
 20
175.2623228554198
 30
0.0
 11
257.81519108862608
 21
175.26232285541991
 31
0.0
  0
LINE
  5
E5E1
  8
AM_0
 10
411.8151651606031
 20
170.7623228554198
 30
0.0
 11
257.81519108862602
 21
170.7623228554198
 31
0.0
  0
LINE
  5
E5E2
  8
ﾁｭｳｼﾝｾﾝ1
 10
416.8151956781835
 20
255.76182785540499
 30
0.0
 11
254.5581418329476
 21
255.76182785540499
 31
0.0
  0
LINE
  5
E5E3
  8
AM_0
 10
267.8152219042297
 20
315.76122964352641
 30
0.0
 11
401.8151953801605
 21
315.76122964352641
 31
0.0
  0
ARC
  5
E5EA
  8
AM_0
 10
264.8151939645507
 20
220.7618316701022
 30
0.0
 40
6.0
 50
330.00539967970332
 51
90.000005008956919
  0
ARC
  5
E5EB
  8
AM_0
 10
264.8151939645507
 20
220.7618316701022
 30
0.0
 40
5.0000000000000124
 50
323.13711661267382
 51
221.50833602839239
1001
GENIUS_GENOREF_13
1005
0
  0
LINE
  5
E5EC
  8
AM_0
 10
277.52069374025302
 20
217.7623213802047
 30
0.0
 11
276.63625414521488
 21
222.8263839772311
 31
0.0
  0
LINE
  5
E5ED
  8
AM_0
 10
263.37181829157691
 20
223.2618316701024
 30
0.0
 11
261.9284426186025
 21
220.7618316701022
 31
0.0
1001
GENIUS_GENOREF_13
1005
0
  0
LINE
  5
E5EE
  8
AM_0
 10
267.7019453104989
 20
220.7618316701022
 30
0.0
 11
266.25856963752449
 21
223.2618316701024
 31
0.0
1001
GENIUS_GENOREF_13
1005
0
  0
CIRCLE
  5
E5EF
  8
AM_0
 10
264.8151939645507
 20
220.7618316701022
 30
0.0
 40
2.886751345948126
1001
GENIUS_GENOREF_13
1005
0
  0
ARC
  5
E5F0
  8
AM_0
 10
483.82127934546247
 20
239.26182736366661
 30
0.0
 40
236.0
 50
180.00000500895689
 51
190.56397173026619
  0
LINE
  5
E601
  8
AM_0
 10
240.3151910886267
 20
183.26182736366661
 30
0.0
 11
240.3151910886267
 21
295.26182736366661
 31
0.0
  0
LINE
  5
E602
  8
AM_0
 10
251.82129460425159
 20
185.26182736366661
 30
0.0
 11
251.82129460425179
 21
293.26182736366661
 31
0.0
  0
LINE
  5
E60A
  8
ﾁｭｳｼﾝｾﾝ1
 10
354.3151939645507
 20
320.76122964352641
 30
0.0
 11
354.3151939645507
 21
160.7623228554198
 31
0.0
  0
LINE
  5
E60B
  8
AM_0
 10
257.81522160620648
 20
305.76132934550623
 30
0.0
 11
257.81522160620648
 21
170.7623228554198
 31
0.0
  0
LINE
  5
E626
  8
AM_0
 10
253.82129460425159
 20
195.76182736366661
 30
0.0
 11
257.81522160620648
 21
195.76182736366661
 31
0.0
  0
LINE
  5
E670
  8
AM_0
 10
240.3151910886267
 20
183.26182736366661
 30
0.0
 11
249.82129460425159
 21
183.26182736366661
 31
0.0
  0
ARC
  5
E671
  8
AM_0
 10
249.82129460425159
 20
185.26182736366661
 30
0.0
 40
2.0
 50
270.0
 51
0.0
1001
GENIUS_GENOBJ-N-FIL_13
1002
{
1000
OWNER
1000
GEN
1002
}
1001
GENIUS_GENODEF_13
1002
{
1000
HIER
1070
     0
1002
}
1002
{
1000
MANEDIT
1070
     0
1002
}
1002
{
1000
NOSEL
1070
     0
1002
}
1002
{
1000
BEHIND
1070
     0
1002
}
1002
{
1000
OTHER
1070
     0
1002
}
1002
{
1000
REACTOR
1002
}
  0
LINE
  5
E672
  8
AM_0
 10
240.3151910886267
 20
193.26182736366661
 30
0.0
 11
251.82129460425159
 21
193.26182736366661
 31
0.0
  0
ARC
  5
E673
  8
AM_0
 10
253.82129460425159
 20
193.76182736366661
 30
0.0
 40
2.0
 50
90.0
 51
180.0
1001
GENIUS_GENOBJ-N-FIL_13
1002
{
1000
OWNER
1000
GEN
1002
}
1001
GENIUS_GENODEF_13
1002
{
1000
HIER
1070
     0
1002
}
1002
{
1000
MANEDIT
1070
     0
1002
}
1002
{
1000
NOSEL
1070
     0
1002
}
1002
{
1000
BEHIND
1070
     0
1002
}
1002
{
1000
OTHER
1070
     0
1002
}
1002
{
1000
REACTOR
1002
}
  0
LINE
  5
E679
  8
AM_0
 10
240.3151910886267
 20
207.3218873636666
 30
0.0
 11
249.99594144962029
 21
207.3218873636666
 31
0.0
  0
LINE
  5
E67C
  8
AM_0
 10
315.31516228467859
 20
210.76182785540499
 30
0.0
 11
354.3151939645507
 21
210.76182785540499
 31
0.0
  0
LINE
  5
E67E
  8
ﾁｭｳｼﾝｾﾝ1
 10
287.31519396454991
 20
185.2623228554198
 30
0.0
 11
287.31519396454991
 21
160.76232285541991
 31
0.0
  0
LINE
  5
E67F
  8
AM_0
 10
314.81519396454922
 20
195.7624260672834
 30
0.0
 11
314.81519396454991
 21
175.26232285541991
 31
0.0
  0
LINE
  5
E680
  8
AM_0
 10
310.31519396454962
 20
195.7624260672834
 30
0.0
 11
310.31519396454991
 21
175.26232285541991
 31
0.0
  0
LINE
  5
E684
  8
ｶｸﾚｾﾝ2
 10
282.31519396454979
 20
170.76232285541991
 30
0.0
 11
282.31519396454979
 21
175.26232285541991
 31
0.0
  0
LINE
  5
E68A
  8
ｶｸﾚｾﾝ2
 10
292.31519396454991
 20
170.76232285541991
 30
0.0
 11
292.31519396454991
 21
175.26232285541991
 31
0.0
  0
LINE
  5
E690
  8
AM_0
 10
314.81519396454951
 20
180.2623228554198
 30
0.0
 11
310.31519396454968
 21
180.2623228554198
 31
0.0
  0
LINE
  5
E691
  8
AM_0
 10
291.21044267126649
 20
217.7623213802047
 30
0.0
 11
262.81522160620659
 21
217.7623213802047
 31
0.0
  0
CIRCLE
  5
E692
  8
AM_0
 10
268.31522191913081
 20
206.26232138020481
 30
0.0
 40
7.9999999999999956
  0
POLYLINE
  5
E693
  8
AM_0
 66
     1
 10
0.0
 20
0.0
 30
0.0
 70
     1
  0
VERTEX
  5
1379C
  8
AM_0
 10
261.82003139074749
 20
210.01232138020481
 30
0.0
  0
VERTEX
  5
1379D
  8
AM_0
 10
261.82003139074772
 20
202.51232138020481
 30
0.0
  0
VERTEX
  5
1379E
  8
AM_0
 10
268.31522191913081
 20
198.76232138020481
 30
0.0
  0
VERTEX
  5
1379F
  8
AM_0
 10
274.81041244751401
 20
202.51232138020481
 30
0.0
  0
VERTEX
  5
137A0
  8
AM_0
 10
274.81041244751401
 20
210.01232138020481
 30
0.0
  0
VERTEX
  5
137A1
  8
AM_0
 10
268.31522191913081
 20
213.76232138020481
 30
0.0
  0
SEQEND
  5
137A2
  8
AM_0
  0
LINE
  5
E694
  8
ﾁｭｳｼﾝｾﾝ1
 10
268.31522191913081
 20
198.7623961566895
 30
0.0
 11
268.31522191913081
 21
213.7622466037198
 31
0.0
  0
LINE
  5
E696
  8
ﾁｭｳｼﾝｾﾝ1
 10
275.81522214264811
 20
206.2623213802047
 30
0.0
 11
260.8152216956135
 21
206.2623213802047
 31
0.0
  0
CIRCLE
  5
E697
  8
AM_0
 10
268.31522191913081
 20
206.26232138020481
 30
0.0
 40
3.9999999999999978
  0
CIRCLE
  5
E698
  8
AM_5
 10
268.31522191913081
 20
206.26232138020481
 30
0.0
 40
2.9999999999999978
  0
LINE
  5
E699
  8
AM_0
 10
263.37181829157657
 20
218.2618316701022
 30
0.0
 11
266.25856963752477
 21
218.2618316701022
 31
0.0
1001
GENIUS_GENOREF_13
1005
0
  0
ARC
  5
E69C
  8
AM_0
 10
262.81522160620659
 20
212.7623213802047
 30
0.0
 40
5.0
 50
90.0
 51
180.0
1001
GENIUS_GENOBJ-N-FIL_13
1002
{
1000
OWNER
1000
GEN
1002
}
1001
GENIUS_GENODEF_13
1002
{
1000
HIER
1070
     0
1002
}
1002
{
1000
MANEDIT
1070
     0
1002
}
1002
{
1000
NOSEL
1070
     0
1002
}
1002
{
1000
BEHIND
1070
     0
1002
}
1002
{
1000
OTHER
1070
     0
1002
}
1002
{
1000
REACTOR
1002
}
  0
LINE
  5
E69D
  8
AM_0
 10
261.9284426186025
 20
220.7618316701022
 30
0.0
 11
263.37181829157657
 21
218.2618316701022
 31
0.0
1001
GENIUS_GENOREF_13
1005
0
  0
LINE
  5
E69F
  8
AM_0
 10
266.25856963752477
 20
218.2618316701022
 30
0.0
 11
267.7019453104989
 21
220.7618316701022
 31
0.0
1001
GENIUS_GENOREF_13
1005
0
  0
LINE
  5
E6A3
  8
AM_0
 10
314.81519396454939
 20
195.7624260672834
 30
0.0
 11
310.31519396454962
 21
195.7624260672834
 31
0.0
  0
ARC
  5
E6A4
  8
AM_0
 10
315.31516228467859
 20
255.76182785540499
 30
0.0
 40
45.0
 50
237.61128836284581
 51
270.0
  0
LINE
  5
E6A5
  8
ﾁｭｳｼﾝｾﾝ1
 10
382.31519396454962
 20
185.26232285541971
 30
0.0
 11
382.31519396454962
 21
160.7623228554198
 31
0.0
  0
LINE
  5
E6A6
  8
AM_0
 10
354.81519140155058
 20
195.7624260672834
 30
0.0
 11
354.81519140155058
 21
175.26232285541991
 31
0.0
  0
LINE
  5
E6A7
  8
AM_0
 10
359.31519140155058
 20
195.7624260672834
 30
0.0
 11
359.31519140155029
 21
175.26232285541991
 31
0.0
  0
LINE
  5
E6A9
  8
AM_0
 10
359.31519140155029
 20
180.2623228554198
 30
0.0
 11
354.81519140155058
 21
180.2623228554198
 31
0.0
  0
LINE
  5
E6AA
  8
ｶｸﾚｾﾝ2
 10
387.31519396454968
 20
170.7623228554198
 30
0.0
 11
387.31519396454968
 21
175.2623228554198
 31
0.0
  0
LINE
  5
E6AB
  8
ｶｸﾚｾﾝ2
 10
377.31519396454962
 20
170.7623228554198
 30
0.0
 11
377.31519396454962
 21
175.2623228554198
 31
0.0
  0
ARC
  5
E6B5
  8
AM_0
 10
354.3151939645507
 20
255.76182785540499
 30
0.0
 40
45.0
 50
270.0
 51
302.38871163715407
  0
LINE
  5
E6B6
  8
AM_0
 10
359.31519140155058
 20
195.7624260672834
 30
0.0
 11
354.81519140155081
 21
195.7624260672834
 31
0.0
  0
LINE
  5
E6C0
  8
ﾁｭｳｼﾝｾﾝ1
 10
289.53576395989558
 20
239.26182736366661
 30
0.0
 11
102.82129460425161
 21
239.26182736366661
 31
0.0
  0
LINE
  5
E6E3
  8
AM_0
 10
252.32129460425179
 20
282.52844418495567
 30
0.0
 11
257.81519108862682
 21
282.52844418495567
 31
0.0
  0
ARC
  5
E6E4
  8
AM_0
 10
255.81519108862679
 20
295.26182736366661
 30
0.0
 40
2.0
 50
270.0
 51
0.0
1001
GENIUS_GENODEF_13
1002
{
1000
HIER
1070
     0
1002
}
1002
{
1000
MANEDIT
1070
     0
1002
}
1002
{
1000
NOSEL
1070
     0
1002
}
1002
{
1000
BEHIND
1070
     0
1002
}
1002
{
1000
OTHER
1070
     0
1002
}
1002
{
1000
REACTOR
1002
}
1001
GENIUS_GENOBJ-N-FIL_13
1002
{
1000
OWNER
1000
GEN
1002
}
  0
ARC
  5
E78A
  8
AM_0
 10
483.82127934546247
 20
239.26182736366661
 30
0.0
 40
236.0
 50
169.43603828764111
 51
180.00000500895689
  0
LINE
  5
E7A8
  8
AM_0
 10
240.3151910886267
 20
271.20177736366662
 30
0.0
 11
249.92120722458949
 21
271.20177736366662
 31
0.0
  0
LINE
  5
E7A9
  8
AM_0
 10
240.3151910886267
 20
285.26182736366661
 30
0.0
 11
251.82129460425179
 21
285.26182736366661
 31
0.0
  0
LINE
  5
E7AF
  8
AM_0
 10
240.3151910886267
 20
295.26182736366661
 30
0.0
 11
249.82129460425179
 21
295.26182736366661
 31
0.0
  0
LINE
  5
E7B0
  8
AM_0
 10
255.81519108862679
 20
293.26182736366661
 30
0.0
 11
253.2853962193895
 21
293.26182736366661
 31
0.0
  0
ARC
  5
E7B1
  8
AM_0
 10
249.82129460425179
 20
293.26182736366661
 30
0.0
 40
2.0
 50
30.000000000000551
 51
90.0
1001
GENIUS_GENOBJ-N-FIL_13
1002
{
1000
OWNER
1000
GEN
1002
}
1001
GENIUS_GENODEF_13
1002
{
1000
HIER
1070
     0
1002
}
1002
{
1000
MANEDIT
1070
     0
1002
}
1002
{
1000
NOSEL
1070
     0
1002
}
1002
{
1000
BEHIND
1070
     0
1002
}
1002
{
1000
OTHER
1070
     0
1002
}
1002
{
1000
REACTOR
1002
}
  0
ARC
  5
E7B2
  8
AM_0
 10
253.2853962193895
 20
295.26182736366661
 30
0.0
 40
2.0
 50
210.00000000000051
 51
270.0
1001
GENIUS_GENOBJ-N-FIL_13
1002
{
1000
OWNER
1000
GEN
1002
}
1001
GENIUS_GENODEF_13
1002
{
1000
HIER
1070
     0
1002
}
1002
{
1000
MANEDIT
1070
     0
1002
}
1002
{
1000
NOSEL
1070
     0
1002
}
1002
{
1000
BEHIND
1070
     0
1002
}
1002
{
1000
OTHER
1070
     0
1002
}
1002
{
1000
REACTOR
1002
}
  0
LINE
  5
E80F
  8
AM_0
 10
385.3718182915768
 20
311.26182785540499
 30
0.0
 11
383.92844261860262
 21
308.76182785540499
 31
0.0
1001
GENIUS_GENOREF_13
1005
0
  0
LINE
  5
E810
  8
AM_0
 10
380.8151939645507
 20
313.76182785540487
 30
0.0
 11
380.8151939645507
 21
308.76182785540499
 31
0.0
  0
ARC
  5
E811
  8
AM_0
 10
370.29247362763658
 20
304.76182785540487
 30
0.0
 40
5.0
 50
13.608963180428949
 51
90.000005008956919
  0
ARC
  5
E812
  8
AM_0
 10
284.517617060254
 20
304.76182785540499
 30
0.0
 40
4.9999999999999911
 50
90.000005008956919
 51
170.0931937827288
  0
POLYLINE
  5
E813
  8
AM_0
 10
272.8152220532412
 20
305.26133433060511
 30
0.0
 66
     1
 70
     8
  0
VERTEX
  8
AM_0
  5
137FD
 10
272.815
 20
305.261
 30
0.000000
  70
    32
  0
VERTEX
  8
AM_0
  5
137FE
 10
272.810
 20
305.482
 30
0.000000
  70
    32
  0
VERTEX
  8
AM_0
  5
137FF
 10
272.794
 20
305.702
 30
0.000000
  70
    32
  0
VERTEX
  8
AM_0
  5
13800
 10
272.767
 20
305.922
 30
0.000000
  70
    32
  0
VERTEX
  8
AM_0
  5
13801
 10
272.729
 20
306.139
 30
0.000000
  70
    32
  0
VERTEX
  8
AM_0
  5
13802
 10
272.680
 20
306.355
 30
0.000000
  70
    32
  0
VERTEX
  8
AM_0
  5
13803
 10
272.621
 20
306.568
 30
0.000000
  70
    32
  0
VERTEX
  8
AM_0
  5
13804
 10
272.552
 20
306.777
 30
0.000000
  70
    32
  0
VERTEX
  8
AM_0
  5
13805
 10
272.473
 20
306.983
 30
0.000000
  70
    32
  0
VERTEX
  8
AM_0
  5
13806
 10
272.383
 20
307.185
 30
0.000000
  70
    32
  0
VERTEX
  8
AM_0
  5
13807
 10
272.284
 20
307.383
 30
0.000000
  70
    32
  0
VERTEX
  8
AM_0
  5
13808
 10
272.175
 20
307.575
 30
0.000000
  70
    32
  0
VERTEX
  8
AM_0
  5
13809
 10
272.057
 20
307.761
 30
0.000000
  70
    32
  0
VERTEX
  8
AM_0
  5
1380A
 10
271.930
 20
307.942
 30
0.000000
  70
    32
  0
VERTEX
  8
AM_0
  5
1380B
 10
271.794
 20
308.116
 30
0.000000
  70
    32
  0
VERTEX
  8
AM_0
  5
1380C
 10
271.650
 20
308.283
 30
0.000000
  70
    32
  0
VERTEX
  8
AM_0
  5
1380D
 10
271.497
 20
308.443
 30
0.000000
  70
    32
  0
VERTEX
  8
AM_0
  5
1380E
 10
271.337
 20
308.596
 30
0.000000
  70
    32
  0
VERTEX
  8
AM_0
  5
1380F
 10
271.170
 20
308.740
 30
0.000000
  70
    32
  0
VERTEX
  8
AM_0
  5
13810
 10
270.996
 20
308.876
 30
0.000000
  70
    32
  0
VERTEX
  8
AM_0
  5
13811
 10
270.815
 20
309.003
 30
0.000000
  70
    32
  0
VERTEX
  8
AM_0
  5
13812
 10
270.629
 20
309.121
 30
0.000000
  70
    32
  0
VERTEX
  8
AM_0
  5
13813
 10
270.437
 20
309.230
 30
0.000000
  70
    32
  0
VERTEX
  8
AM_0
  5
13814
 10
270.239
 20
309.329
 30
0.000000
  70
    32
  0
VERTEX
  8
AM_0
  5
13815
 10
270.037
 20
309.419
 30
0.000000
  70
    32
  0
VERTEX
  8
AM_0
  5
13816
 10
269.831
 20
309.498
 30
0.000000
  70
    32
  0
VERTEX
  8
AM_0
  5
13817
 10
269.622
 20
309.568
 30
0.000000
  70
    32
  0
VERTEX
  8
AM_0
  5
13818
 10
269.409
 20
309.626
 30
0.000000
  70
    32
  0
VERTEX
  8
AM_0
  5
13819
 10
269.193
 20
309.675
 30
0.000000
  70
    32
  0
VERTEX
  8
AM_0
  5
1381A
 10
268.976
 20
309.713
 30
0.000000
  70
    32
  0
VERTEX
  8
AM_0
  5
1381B
 10
268.756
 20
309.740
 30
0.000000
  70
    32
  0
VERTEX
  8
AM_0
  5
1381C
 10
268.536
 20
309.756
 30
0.000000
  70
    32
  0
VERTEX
  8
AM_0
  5
1381D
 10
268.315
 20
309.761
 30
0.000000
  70
    32
  0
VERTEX
  8
AM_0
  5
1381E
 10
268.094
 20
309.756
 30
0.000000
  70
    32
  0
VERTEX
  8
AM_0
  5
1381F
 10
267.874
 20
309.740
 30
0.000000
  70
    32
  0
VERTEX
  8
AM_0
  5
13820
 10
267.655
 20
309.713
 30
0.000000
  70
    32
  0
VERTEX
  8
AM_0
  5
13821
 10
267.437
 20
309.675
 30
0.000000
  70
    32
  0
VERTEX
  8
AM_0
  5
13822
 10
267.222
 20
309.626
 30
0.000000
  70
    32
  0
VERTEX
  8
AM_0
  5
13823
 10
267.009
 20
309.568
 30
0.000000
  70
    32
  0
VERTEX
  8
AM_0
  5
13824
 10
266.799
 20
309.498
 30
0.000000
  70
    32
  0
VERTEX
  8
AM_0
  5
13825
 10
266.593
 20
309.419
 30
0.000000
  70
    32
  0
VERTEX
  8
AM_0
  5
13826
 10
266.391
 20
309.329
 30
0.000000
  70
    32
  0
VERTEX
  8
AM_0
  5
13827
 10
266.194
 20
309.230
 30
0.000000
  70
    32
  0
VERTEX
  8
AM_0
  5
13828
 10
266.002
 20
309.121
 30
0.000000
  70
    32
  0
VERTEX
  8
AM_0
  5
13829
 10
265.815
 20
309.003
 30
0.000000
  70
    32
  0
VERTEX
  8
AM_0
  5
1382A
 10
265.635
 20
308.876
 30
0.000000
  70
    32
  0
VERTEX
  8
AM_0
  5
1382B
 10
265.460
 20
308.740
 30
0.000000
  70
    32
  0
VERTEX
  8
AM_0
  5
1382C
 10
265.293
 20
308.596
 30
0.000000
  70
    32
  0
VERTEX
  8
AM_0
  5
1382D
 10
265.133
 20
308.443
 30
0.000000
  70
    32
  0
VERTEX
  8
AM_0
  5
1382E
 10
264.981
 20
308.283
 30
0.000000
  70
    32
  0
VERTEX
  8
AM_0
  5
1382F
 10
264.837
 20
308.116
 30
0.000000
  70
    32
  0
VERTEX
  8
AM_0
  5
13830
 10
264.701
 20
307.942
 30
0.000000
  70
    32
  0
VERTEX
  8
AM_0
  5
13831
 10
264.574
 20
307.761
 30
0.000000
  70
    32
  0
VERTEX
  8
AM_0
  5
13832
 10
264.455
 20
307.575
 30
0.000000
  70
    32
  0
VERTEX
  8
AM_0
  5
13833
 10
264.347
 20
307.383
 30
0.000000
  70
    32
  0
VERTEX
  8
AM_0
  5
13834
 10
264.247
 20
307.185
 30
0.000000
  70
    32
  0
VERTEX
  8
AM_0
  5
13835
 10
264.158
 20
306.983
 30
0.000000
  70
    32
  0
VERTEX
  8
AM_0
  5
13836
 10
264.078
 20
306.777
 30
0.000000
  70
    32
  0
VERTEX
  8
AM_0
  5
13837
 10
264.009
 20
306.568
 30
0.000000
  70
    32
  0
VERTEX
  8
AM_0
  5
13838
 10
263.950
 20
306.355
 30
0.000000
  70
    32
  0
VERTEX
  8
AM_0
  5
13839
 10
263.902
 20
306.139
 30
0.000000
  70
    32
  0
VERTEX
  8
AM_0
  5
1383A
 10
263.864
 20
305.922
 30
0.000000
  70
    32
  0
VERTEX
  8
AM_0
  5
1383B
 10
263.837
 20
305.702
 30
0.000000
  70
    32
  0
VERTEX
  8
AM_0
  5
1383C
 10
263.821
 20
305.482
 30
0.000000
  70
    32
  0
VERTEX
  8
AM_0
  5
1383D
 10
263.815
 20
305.261
 30
0.000000
  70
    32
  0
VERTEX
  8
AM_0
  5
1383E
 10
263.821
 20
305.041
 30
0.000000
  70
    32
  0
VERTEX
  8
AM_0
  5
1383F
 10
263.837
 20
304.820
 30
0.000000
  70
    32
  0
VERTEX
  8
AM_0
  5
13840
 10
263.864
 20
304.601
 30
0.000000
  70
    32
  0
VERTEX
  8
AM_0
  5
13841
 10
263.902
 20
304.383
 30
0.000000
  70
    32
  0
VERTEX
  8
AM_0
  5
13842
 10
263.950
 20
304.168
 30
0.000000
  70
    32
  0
VERTEX
  8
AM_0
  5
13843
 10
264.009
 20
303.955
 30
0.000000
  70
    32
  0
VERTEX
  8
AM_0
  5
13844
 10
264.078
 20
303.745
 30
0.000000
  70
    32
  0
VERTEX
  8
AM_0
  5
13845
 10
264.158
 20
303.539
 30
0.000000
  70
    32
  0
VERTEX
  8
AM_0
  5
13846
 10
264.247
 20
303.337
 30
0.000000
  70
    32
  0
VERTEX
  8
AM_0
  5
13847
 10
264.347
 20
303.140
 30
0.000000
  70
    32
  0
VERTEX
  8
AM_0
  5
13848
 10
264.455
 20
302.948
 30
0.000000
  70
    32
  0
VERTEX
  8
AM_0
  5
13849
 10
264.574
 20
302.761
 30
0.000000
  70
    32
  0
VERTEX
  8
AM_0
  5
1384A
 10
264.701
 20
302.581
 30
0.000000
  70
    32
  0
VERTEX
  8
AM_0
  5
1384B
 10
264.837
 20
302.407
 30
0.000000
  70
    32
  0
VERTEX
  8
AM_0
  5
1384C
 10
264.981
 20
302.239
 30
0.000000
  70
    32
  0
VERTEX
  8
AM_0
  5
1384D
 10
265.133
 20
302.079
 30
0.000000
  70
    32
  0
VERTEX
  8
AM_0
  5
1384E
 10
265.293
 20
301.927
 30
0.000000
  70
    32
  0
VERTEX
  8
AM_0
  5
1384F
 10
265.460
 20
301.783
 30
0.000000
  70
    32
  0
VERTEX
  8
AM_0
  5
13850
 10
265.635
 20
301.647
 30
0.000000
  70
    32
  0
VERTEX
  8
AM_0
  5
13851
 10
265.815
 20
301.520
 30
0.000000
  70
    32
  0
VERTEX
  8
AM_0
  5
13852
 10
266.002
 20
301.402
 30
0.000000
  70
    32
  0
VERTEX
  8
AM_0
  5
13853
 10
266.194
 20
301.293
 30
0.000000
  70
    32
  0
VERTEX
  8
AM_0
  5
13854
 10
266.391
 20
301.193
 30
0.000000
  70
    32
  0
VERTEX
  8
AM_0
  5
13855
 10
266.593
 20
301.104
 30
0.000000
  70
    32
  0
VERTEX
  8
AM_0
  5
13856
 10
266.799
 20
301.024
 30
0.000000
  70
    32
  0
VERTEX
  8
AM_0
  5
13857
 10
267.009
 20
300.955
 30
0.000000
  70
    32
  0
VERTEX
  8
AM_0
  5
13858
 10
267.222
 20
300.896
 30
0.000000
  70
    32
  0
VERTEX
  8
AM_0
  5
13859
 10
267.437
 20
300.848
 30
0.000000
  70
    32
  0
VERTEX
  8
AM_0
  5
1385A
 10
267.655
 20
300.810
 30
0.000000
  70
    32
  0
VERTEX
  8
AM_0
  5
1385B
 10
267.874
 20
300.783
 30
0.000000
  70
    32
  0
VERTEX
  8
AM_0
  5
1385C
 10
268.094
 20
300.767
 30
0.000000
  70
    32
  0
VERTEX
  8
AM_0
  5
1385D
 10
268.315
 20
300.761
 30
0.000000
  70
    32
  0
VERTEX
  8
AM_0
  5
1385E
 10
268.536
 20
300.767
 30
0.000000
  70
    32
  0
VERTEX
  8
AM_0
  5
1385F
 10
268.756
 20
300.783
 30
0.000000
  70
    32
  0
VERTEX
  8
AM_0
  5
13860
 10
268.976
 20
300.810
 30
0.000000
  70
    32
  0
VERTEX
  8
AM_0
  5
13861
 10
269.193
 20
300.848
 30
0.000000
  70
    32
  0
VERTEX
  8
AM_0
  5
13862
 10
269.409
 20
300.896
 30
0.000000
  70
    32
  0
VERTEX
  8
AM_0
  5
13863
 10
269.622
 20
300.955
 30
0.000000
  70
    32
  0
VERTEX
  8
AM_0
  5
13864
 10
269.831
 20
301.024
 30
0.000000
  70
    32
  0
VERTEX
  8
AM_0
  5
13865
 10
270.037
 20
301.104
 30
0.000000
  70
    32
  0
VERTEX
  8
AM_0
  5
13866
 10
270.239
 20
301.193
 30
0.000000
  70
    32
  0
VERTEX
  8
AM_0
  5
13867
 10
270.437
 20
301.293
 30
0.000000
  70
    32
  0
VERTEX
  8
AM_0
  5
13868
 10
270.629
 20
301.402
 30
0.000000
  70
    32
  0
VERTEX
  8
AM_0
  5
13869
 10
270.815
 20
301.520
 30
0.000000
  70
    32
  0
VERTEX
  8
AM_0
  5
1386A
 10
270.996
 20
301.647
 30
0.000000
  70
    32
  0
VERTEX
  8
AM_0
  5
1386B
 10
271.170
 20
301.783
 30
0.000000
  70
    32
  0
VERTEX
  8
AM_0
  5
1386C
 10
271.337
 20
301.927
 30
0.000000
  70
    32
  0
VERTEX
  8
AM_0
  5
1386D
 10
271.497
 20
302.079
 30
0.000000
  70
    32
  0
VERTEX
  8
AM_0
  5
1386E
 10
271.650
 20
302.239
 30
0.000000
  70
    32
  0
VERTEX
  8
AM_0
  5
1386F
 10
271.794
 20
302.407
 30
0.000000
  70
    32
  0
VERTEX
  8
AM_0
  5
13870
 10
271.930
 20
302.581
 30
0.000000
  70
    32
  0
VERTEX
  8
AM_0
  5
13871
 10
272.057
 20
302.761
 30
0.000000
  70
    32
  0
VERTEX
  8
AM_0
  5
13872
 10
272.175
 20
302.948
 30
0.000000
  70
    32
  0
VERTEX
  8
AM_0
  5
13873
 10
272.284
 20
303.140
 30
0.000000
  70
    32
  0
VERTEX
  8
AM_0
  5
13874
 10
272.383
 20
303.337
 30
0.000000
  70
    32
  0
VERTEX
  8
AM_0
  5
13875
 10
272.473
 20
303.539
 30
0.000000
  70
    32
  0
VERTEX
  8
AM_0
  5
13876
 10
272.552
 20
303.745
 30
0.000000
  70
    32
  0
VERTEX
  8
AM_0
  5
13877
 10
272.621
 20
303.955
 30
0.000000
  70
    32
  0
VERTEX
  8
AM_0
  5
13878
 10
272.680
 20
304.168
 30
0.000000
  70
    32
  0
VERTEX
  8
AM_0
  5
13879
 10
272.729
 20
304.383
 30
0.000000
  70
    32
  0
VERTEX
  8
AM_0
  5
1387A
 10
272.767
 20
304.601
 30
0.000000
  70
    32
  0
VERTEX
  8
AM_0
  5
1387B
 10
272.794
 20
304.820
 30
0.000000
  70
    32
  0
VERTEX
  8
AM_0
  5
1387C
 10
272.810
 20
305.041
 30
0.000000
  70
    32
  0
VERTEX
  8
AM_0
  5
1387D
 10
272.815
 20
305.261
 30
0.000000
  70
    32
  0
SEQEND
  8
AM_0
  5
1387E
  0
LINE
  5
E814
  8
ﾁｭｳｼﾝｾﾝ1
 10
268.31522191913081
 20
312.76125955412022
 30
0.0
 11
268.31522191913081
 21
297.76140910708989
 31
0.0
  0
POLYLINE
  5
E815
  8
AM_0
 10
267.81522146711632
 20
315.76122964352646
 30
0.0
 66
     1
 70
     8
  0
VERTEX
  8
AM_0
  5
1387F
 10
267.815
 20
315.761
 30
0.000000
  70
    32
  0
VERTEX
  8
AM_0
  5
13880
 10
267.693
 20
315.760
 30
0.000000
  70
    32
  0
VERTEX
  8
AM_0
  5
13881
 10
267.570
 20
315.758
 30
0.000000
  70
    32
  0
VERTEX
  8
AM_0
  5
13882
 10
267.447
 20
315.754
 30
0.000000
  70
    32
  0
VERTEX
  8
AM_0
  5
13883
 10
267.325
 20
315.749
 30
0.000000
  70
    32
  0
VERTEX
  8
AM_0
  5
13884
 10
267.202
 20
315.742
 30
0.000000
  70
    32
  0
VERTEX
  8
AM_0
  5
13885
 10
267.080
 20
315.734
 30
0.000000
  70
    32
  0
VERTEX
  8
AM_0
  5
13886
 10
266.957
 20
315.724
 30
0.000000
  70
    32
  0
VERTEX
  8
AM_0
  5
13887
 10
266.835
 20
315.713
 30
0.000000
  70
    32
  0
VERTEX
  8
AM_0
  5
13888
 10
266.713
 20
315.700
 30
0.000000
  70
    32
  0
VERTEX
  8
AM_0
  5
13889
 10
266.591
 20
315.686
 30
0.000000
  70
    32
  0
VERTEX
  8
AM_0
  5
1388A
 10
266.469
 20
315.670
 30
0.000000
  70
    32
  0
VERTEX
  8
AM_0
  5
1388B
 10
266.348
 20
315.653
 30
0.000000
  70
    32
  0
VERTEX
  8
AM_0
  5
1388C
 10
266.227
 20
315.634
 30
0.000000
  70
    32
  0
VERTEX
  8
AM_0
  5
1388D
 10
266.106
 20
315.614
 30
0.000000
  70
    32
  0
VERTEX
  8
AM_0
  5
1388E
 10
265.985
 20
315.592
 30
0.000000
  70
    32
  0
VERTEX
  8
AM_0
  5
1388F
 10
265.864
 20
315.569
 30
0.000000
  70
    32
  0
VERTEX
  8
AM_0
  5
13890
 10
265.744
 20
315.544
 30
0.000000
  70
    32
  0
VERTEX
  8
AM_0
  5
13891
 10
265.624
 20
315.518
 30
0.000000
  70
    32
  0
VERTEX
  8
AM_0
  5
13892
 10
265.505
 20
315.491
 30
0.000000
  70
    32
  0
VERTEX
  8
AM_0
  5
13893
 10
265.385
 20
315.462
 30
0.000000
  70
    32
  0
VERTEX
  8
AM_0
  5
13894
 10
265.267
 20
315.431
 30
0.000000
  70
    32
  0
VERTEX
  8
AM_0
  5
13895
 10
265.148
 20
315.399
 30
0.000000
  70
    32
  0
VERTEX
  8
AM_0
  5
13896
 10
265.030
 20
315.366
 30
0.000000
  70
    32
  0
VERTEX
  8
AM_0
  5
13897
 10
264.912
 20
315.331
 30
0.000000
  70
    32
  0
VERTEX
  8
AM_0
  5
13898
 10
264.795
 20
315.294
 30
0.000000
  70
    32
  0
VERTEX
  8
AM_0
  5
13899
 10
264.678
 20
315.257
 30
0.000000
  70
    32
  0
VERTEX
  8
AM_0
  5
1389A
 10
264.562
 20
315.217
 30
0.000000
  70
    32
  0
VERTEX
  8
AM_0
  5
1389B
 10
264.446
 20
315.177
 30
0.000000
  70
    32
  0
VERTEX
  8
AM_0
  5
1389C
 10
264.331
 20
315.135
 30
0.000000
  70
    32
  0
VERTEX
  8
AM_0
  5
1389D
 10
264.216
 20
315.091
 30
0.000000
  70
    32
  0
VERTEX
  8
AM_0
  5
1389E
 10
264.102
 20
315.046
 30
0.000000
  70
    32
  0
VERTEX
  8
AM_0
  5
1389F
 10
263.988
 20
315.000
 30
0.000000
  70
    32
  0
VERTEX
  8
AM_0
  5
138A0
 10
263.875
 20
314.952
 30
0.000000
  70
    32
  0
VERTEX
  8
AM_0
  5
138A1
 10
263.763
 20
314.903
 30
0.000000
  70
    32
  0
VERTEX
  8
AM_0
  5
138A2
 10
263.651
 20
314.853
 30
0.000000
  70
    32
  0
VERTEX
  8
AM_0
  5
138A3
 10
263.540
 20
314.801
 30
0.000000
  70
    32
  0
VERTEX
  8
AM_0
  5
138A4
 10
263.429
 20
314.748
 30
0.000000
  70
    32
  0
VERTEX
  8
AM_0
  5
138A5
 10
263.319
 20
314.693
 30
0.000000
  70
    32
  0
VERTEX
  8
AM_0
  5
138A6
 10
263.210
 20
314.638
 30
0.000000
  70
    32
  0
VERTEX
  8
AM_0
  5
138A7
 10
263.101
 20
314.580
 30
0.000000
  70
    32
  0
VERTEX
  8
AM_0
  5
138A8
 10
262.993
 20
314.522
 30
0.000000
  70
    32
  0
VERTEX
  8
AM_0
  5
138A9
 10
262.886
 20
314.462
 30
0.000000
  70
    32
  0
VERTEX
  8
AM_0
  5
138AA
 10
262.780
 20
314.401
 30
0.000000
  70
    32
  0
VERTEX
  8
AM_0
  5
138AB
 10
262.674
 20
314.339
 30
0.000000
  70
    32
  0
VERTEX
  8
AM_0
  5
138AC
 10
262.569
 20
314.275
 30
0.000000
  70
    32
  0
VERTEX
  8
AM_0
  5
138AD
 10
262.465
 20
314.210
 30
0.000000
  70
    32
  0
VERTEX
  8
AM_0
  5
138AE
 10
262.362
 20
314.143
 30
0.000000
  70
    32
  0
VERTEX
  8
AM_0
  5
138AF
 10
262.260
 20
314.076
 30
0.000000
  70
    32
  0
VERTEX
  8
AM_0
  5
138B0
 10
262.158
 20
314.007
 30
0.000000
  70
    32
  0
VERTEX
  8
AM_0
  5
138B1
 10
262.057
 20
313.937
 30
0.000000
  70
    32
  0
VERTEX
  8
AM_0
  5
138B2
 10
261.957
 20
313.866
 30
0.000000
  70
    32
  0
VERTEX
  8
AM_0
  5
138B3
 10
261.858
 20
313.793
 30
0.000000
  70
    32
  0
VERTEX
  8
AM_0
  5
138B4
 10
261.760
 20
313.720
 30
0.000000
  70
    32
  0
VERTEX
  8
AM_0
  5
138B5
 10
261.663
 20
313.645
 30
0.000000
  70
    32
  0
VERTEX
  8
AM_0
  5
138B6
 10
261.567
 20
313.569
 30
0.000000
  70
    32
  0
VERTEX
  8
AM_0
  5
138B7
 10
261.471
 20
313.491
 30
0.000000
  70
    32
  0
VERTEX
  8
AM_0
  5
138B8
 10
261.377
 20
313.413
 30
0.000000
  70
    32
  0
VERTEX
  8
AM_0
  5
138B9
 10
261.283
 20
313.333
 30
0.000000
  70
    32
  0
VERTEX
  8
AM_0
  5
138BA
 10
261.191
 20
313.253
 30
0.000000
  70
    32
  0
VERTEX
  8
AM_0
  5
138BB
 10
261.100
 20
313.171
 30
0.000000
  70
    32
  0
VERTEX
  8
AM_0
  5
138BC
 10
261.009
 20
313.088
 30
0.000000
  70
    32
  0
VERTEX
  8
AM_0
  5
138BD
 10
260.920
 20
313.004
 30
0.000000
  70
    32
  0
VERTEX
  8
AM_0
  5
138BE
 10
260.831
 20
312.919
 30
0.000000
  70
    32
  0
VERTEX
  8
AM_0
  5
138BF
 10
260.744
 20
312.832
 30
0.000000
  70
    32
  0
VERTEX
  8
AM_0
  5
138C0
 10
260.658
 20
312.745
 30
0.000000
  70
    32
  0
VERTEX
  8
AM_0
  5
138C1
 10
260.573
 20
312.657
 30
0.000000
  70
    32
  0
VERTEX
  8
AM_0
  5
138C2
 10
260.489
 20
312.567
 30
0.000000
  70
    32
  0
VERTEX
  8
AM_0
  5
138C3
 10
260.406
 20
312.477
 30
0.000000
  70
    32
  0
VERTEX
  8
AM_0
  5
138C4
 10
260.324
 20
312.385
 30
0.000000
  70
    32
  0
VERTEX
  8
AM_0
  5
138C5
 10
260.243
 20
312.293
 30
0.000000
  70
    32
  0
VERTEX
  8
AM_0
  5
138C6
 10
260.164
 20
312.200
 30
0.000000
  70
    32
  0
VERTEX
  8
AM_0
  5
138C7
 10
260.085
 20
312.105
 30
0.000000
  70
    32
  0
VERTEX
  8
AM_0
  5
138C8
 10
260.008
 20
312.010
 30
0.000000
  70
    32
  0
VERTEX
  8
AM_0
  5
138C9
 10
259.932
 20
311.914
 30
0.000000
  70
    32
  0
VERTEX
  8
AM_0
  5
138CA
 10
259.857
 20
311.816
 30
0.000000
  70
    32
  0
VERTEX
  8
AM_0
  5
138CB
 10
259.783
 20
311.718
 30
0.000000
  70
    32
  0
VERTEX
  8
AM_0
  5
138CC
 10
259.711
 20
311.619
 30
0.000000
  70
    32
  0
VERTEX
  8
AM_0
  5
138CD
 10
259.639
 20
311.519
 30
0.000000
  70
    32
  0
VERTEX
  8
AM_0
  5
138CE
 10
259.569
 20
311.419
 30
0.000000
  70
    32
  0
VERTEX
  8
AM_0
  5
138CF
 10
259.501
 20
311.317
 30
0.000000
  70
    32
  0
VERTEX
  8
AM_0
  5
138D0
 10
259.433
 20
311.215
 30
0.000000
  70
    32
  0
VERTEX
  8
AM_0
  5
138D1
 10
259.367
 20
311.111
 30
0.000000
  70
    32
  0
VERTEX
  8
AM_0
  5
138D2
 10
259.302
 20
311.007
 30
0.000000
  70
    32
  0
VERTEX
  8
AM_0
  5
138D3
 10
259.238
 20
310.902
 30
0.000000
  70
    32
  0
VERTEX
  8
AM_0
  5
138D4
 10
259.175
 20
310.797
 30
0.000000
  70
    32
  0
VERTEX
  8
AM_0
  5
138D5
 10
259.114
 20
310.690
 30
0.000000
  70
    32
  0
VERTEX
  8
AM_0
  5
138D6
 10
259.055
 20
310.583
 30
0.000000
  70
    32
  0
VERTEX
  8
AM_0
  5
138D7
 10
258.996
 20
310.475
 30
0.000000
  70
    32
  0
VERTEX
  8
AM_0
  5
138D8
 10
258.939
 20
310.367
 30
0.000000
  70
    32
  0
VERTEX
  8
AM_0
  5
138D9
 10
258.883
 20
310.257
 30
0.000000
  70
    32
  0
VERTEX
  8
AM_0
  5
138DA
 10
258.828
 20
310.147
 30
0.000000
  70
    32
  0
VERTEX
  8
AM_0
  5
138DB
 10
258.775
 20
310.037
 30
0.000000
  70
    32
  0
VERTEX
  8
AM_0
  5
138DC
 10
258.724
 20
309.926
 30
0.000000
  70
    32
  0
VERTEX
  8
AM_0
  5
138DD
 10
258.673
 20
309.814
 30
0.000000
  70
    32
  0
VERTEX
  8
AM_0
  5
138DE
 10
258.624
 20
309.701
 30
0.000000
  70
    32
  0
VERTEX
  8
AM_0
  5
138DF
 10
258.576
 20
309.588
 30
0.000000
  70
    32
  0
VERTEX
  8
AM_0
  5
138E0
 10
258.530
 20
309.474
 30
0.000000
  70
    32
  0
VERTEX
  8
AM_0
  5
138E1
 10
258.485
 20
309.360
 30
0.000000
  70
    32
  0
VERTEX
  8
AM_0
  5
138E2
 10
258.442
 20
309.245
 30
0.000000
  70
    32
  0
VERTEX
  8
AM_0
  5
138E3
 10
258.400
 20
309.130
 30
0.000000
  70
    32
  0
VERTEX
  8
AM_0
  5
138E4
 10
258.359
 20
309.014
 30
0.000000
  70
    32
  0
VERTEX
  8
AM_0
  5
138E5
 10
258.320
 20
308.898
 30
0.000000
  70
    32
  0
VERTEX
  8
AM_0
  5
138E6
 10
258.282
 20
308.781
 30
0.000000
  70
    32
  0
VERTEX
  8
AM_0
  5
138E7
 10
258.246
 20
308.664
 30
0.000000
  70
    32
  0
VERTEX
  8
AM_0
  5
138E8
 10
258.211
 20
308.546
 30
0.000000
  70
    32
  0
VERTEX
  8
AM_0
  5
138E9
 10
258.177
 20
308.428
 30
0.000000
  70
    32
  0
VERTEX
  8
AM_0
  5
138EA
 10
258.145
 20
308.310
 30
0.000000
  70
    32
  0
VERTEX
  8
AM_0
  5
138EB
 10
258.115
 20
308.191
 30
0.000000
  70
    32
  0
VERTEX
  8
AM_0
  5
138EC
 10
258.086
 20
308.072
 30
0.000000
  70
    32
  0
VERTEX
  8
AM_0
  5
138ED
 10
258.058
 20
307.952
 30
0.000000
  70
    32
  0
VERTEX
  8
AM_0
  5
138EE
 10
258.032
 20
307.832
 30
0.000000
  70
    32
  0
VERTEX
  8
AM_0
  5
138EF
 10
258.007
 20
307.712
 30
0.000000
  70
    32
  0
VERTEX
  8
AM_0
  5
138F0
 10
257.984
 20
307.592
 30
0.000000
  70
    32
  0
VERTEX
  8
AM_0
  5
138F1
 10
257.962
 20
307.471
 30
0.000000
  70
    32
  0
VERTEX
  8
AM_0
  5
138F2
 10
257.942
 20
307.350
 30
0.000000
  70
    32
  0
VERTEX
  8
AM_0
  5
138F3
 10
257.923
 20
307.229
 30
0.000000
  70
    32
  0
VERTEX
  8
AM_0
  5
138F4
 10
257.906
 20
307.107
 30
0.000000
  70
    32
  0
VERTEX
  8
AM_0
  5
138F5
 10
257.890
 20
306.985
 30
0.000000
  70
    32
  0
VERTEX
  8
AM_0
  5
138F6
 10
257.876
 20
306.864
 30
0.000000
  70
    32
  0
VERTEX
  8
AM_0
  5
138F7
 10
257.863
 20
306.741
 30
0.000000
  70
    32
  0
VERTEX
  8
AM_0
  5
138F8
 10
257.852
 20
306.619
 30
0.000000
  70
    32
  0
VERTEX
  8
AM_0
  5
138F9
 10
257.842
 20
306.497
 30
0.000000
  70
    32
  0
VERTEX
  8
AM_0
  5
138FA
 10
257.834
 20
306.375
 30
0.000000
  70
    32
  0
VERTEX
  8
AM_0
  5
138FB
 10
257.827
 20
306.252
 30
0.000000
  70
    32
  0
VERTEX
  8
AM_0
  5
138FC
 10
257.822
 20
306.129
 30
0.000000
  70
    32
  0
VERTEX
  8
AM_0
  5
138FD
 10
257.818
 20
306.007
 30
0.000000
  70
    32
  0
VERTEX
  8
AM_0
  5
138FE
 10
257.816
 20
305.884
 30
0.000000
  70
    32
  0
VERTEX
  8
AM_0
  5
138FF
 10
257.815
 20
305.761
 30
0.000000
  70
    32
  0
SEQEND
  8
AM_0
  5
13900
  0
LINE
  5
E817
  8
AM_0
 10
263.8151939645507
 20
274.2391151478854
 30
0.0
 11
263.8151939645507
 21
237.28454056292449
 31
0.0
  0
ARC
  5
E819
  8
AM_0
 10
264.8151939645507
 20
220.7618316701022
 30
0.0
 40
11.999999999999989
 50
9.9068094049906783
 51
76.391044332999812
  0
ARC
  5
E81A
  8
AM_0
 10
268.8151939645507
 20
237.28454056292449
 30
0.0
 40
5.0000000000000044
 50
179.99999749551819
 51
256.39103932404521
  0
LINE
  5
E81B
  8
AM_0
 10
266.25856963752449
 20
223.2618316701024
 30
0.0
 11
263.37181829157691
 21
223.2618316701024
 31
0.0
1001
GENIUS_GENOREF_13
1005
0
  0
LINE
  5
E81C
  8
AM_0
 10
259.8151863351564
 20
226.7618316701022
 30
0.0
 11
264.8151939645507
 21
226.7618316701022
 31
0.0
  0
ARC
  5
E81D
  8
AM_0
 10
259.81518633515623
 20
228.76182785540499
 30
0.0
 40
2.0000000000000022
 50
179.99999749551819
 51
270.0
  0
CIRCLE
  5
E81E
  8
AM_0
 10
264.81519396455082
 20
290.76182785540499
 30
0.0
 40
5.0
1001
GENIUS_GENOREF_13
1005
0
  0
ARC
  5
E81F
  8
AM_0
 10
264.81519396455082
 20
290.76182785540499
 30
0.0
 40
6.0
 50
270.0
 51
90.000005008956919
  0
ARC
  5
E820
  8
AM_0
 10
264.81519396455082
 20
290.76182785540499
 30
0.0
 40
12.0
 50
283.60896067595479
 51
350.09318877377598
  0
ARC
  5
E821
  8
AM_0
 10
268.81519396455082
 20
274.23911514788551
 30
0.0
 40
5.0
 50
103.6089556670002
 51
179.99999749551819
  0
LINE
  5
E822
  8
AM_0
 10
259.8151863351564
 20
284.76182785540487
 30
0.0
 11
264.8151939645507
 21
284.76182785540487
 31
0.0
  0
ARC
  5
E823
  8
AM_0
 10
259.8151863351564
 20
282.76182785540499
 30
0.0
 40
1.9999999999999929
 50
90.000005008950424
 51
180.000000683243
  0
LINE
  5
E824
  8
ﾁｭｳｼﾝｾﾝ1
 10
275.81522214264811
 20
305.26133433060511
 30
0.0
 11
260.8152216956135
 21
305.26133433060511
 31
0.0
  0
ARC
  5
E825
  8
AM_0
 10
259.8151863351564
 20
298.76182785540499
 30
0.0
 40
2.0000000000000022
 50
179.99999749551819
 51
270.0
  0
LINE
  5
E826
  8
AM_0
 10
266.25856963752472
 20
293.2618278554051
 30
0.0
 11
263.37181829157697
 21
293.2618278554051
 31
0.0
1001
GENIUS_GENOREF_13
1005
0
  0
LINE
  5
E827
  8
AM_0
 10
263.37181829157669
 20
288.26182785540499
 30
0.0
 11
266.25856963752489
 21
288.26182785540499
 31
0.0
1001
GENIUS_GENOREF_13
1005
0
  0
CIRCLE
  5
E828
  8
AM_0
 10
264.81519396455082
 20
290.76182785540499
 30
0.0
 40
2.886751345948126
1001
GENIUS_GENOREF_13
1005
0
  0
LINE
  5
E829
  8
AM_0
 10
259.8151863351564
 20
296.76182785540487
 30
0.0
 11
264.8151939645507
 21
296.76182785540487
 31
0.0
  0
LINE
  5
E82A
  8
AM_0
 10
263.37181829157697
 20
293.2618278554051
 30
0.0
 11
261.92844261860267
 21
290.76182785540499
 31
0.0
1001
GENIUS_GENOREF_13
1005
0
  0
LINE
  5
E82B
  8
AM_0
 10
261.92844261860267
 20
290.76182785540499
 30
0.0
 11
263.37181829157669
 21
288.26182785540499
 31
0.0
1001
GENIUS_GENOREF_13
1005
0
  0
LINE
  5
E82C
  8
AM_0
 10
267.70194531049901
 20
290.76182785540499
 30
0.0
 11
266.25856963752472
 21
293.2618278554051
 31
0.0
1001
GENIUS_GENOREF_13
1005
0
  0
LINE
  5
E82D
  8
AM_0
 10
266.25856963752489
 20
288.26182785540499
 30
0.0
 11
267.70194531049901
 21
290.76182785540499
 31
0.0
1001
GENIUS_GENOREF_13
1005
0
  0
LINE
  5
E82E
  8
AM_0
 10
279.5921715036132
 20
305.62205734759237
 30
0.0
 11
276.63625414521488
 21
288.69727554827602
 31
0.0
  0
ARC
  5
E834
  8
AM_0
 10
386.8151939645507
 20
308.76182785540499
 30
0.0
 40
12.0
 50
193.608958171468
 51
260.09318968439271
  0
LINE
  5
E835
  8
AM_0
 10
385.37181829157657
 20
306.26182785540487
 30
0.0
 11
388.25856963752477
 21
306.26182785540487
 31
0.0
1001
GENIUS_GENOREF_13
1005
0
  0
LINE
  5
E836
  8
AM_0
 10
383.92844261860262
 20
308.76182785540499
 30
0.0
 11
385.37181829157657
 21
306.26182785540487
 31
0.0
1001
GENIUS_GENOREF_13
1005
0
  0
LINE
  5
E837
  8
AM_0
 10
284.51761706025383
 20
309.76182785540487
 30
0.0
 11
370.29247362763658
 21
309.76182785540487
 31
0.0
  0
ARC
  5
E839
  8
AM_0
 10
378.8151939645507
 20
313.76182785540487
 30
0.0
 40
2.0000000000000022
 50
0.0000025044687019
 51
90.000005008950424
  0
LINE
  5
E83A
  8
AM_0
 10
388.2585696375246
 20
311.26182785540499
 30
0.0
 11
385.3718182915768
 21
311.26182785540499
 31
0.0
1001
GENIUS_GENOREF_13
1005
0
  0
ARC
  5
E83B
  8
AM_0
 10
400.81517870576158
 20
222.46426239519991
 30
0.0
 40
5.0
 50
289.88314745317382
 51
0.0000025044687019
  0
ARC
  5
E83C
  8
AM_0
 10
639.02548137140457
 20
239.2618278554051
 30
0.0
 40
56.5
 50
334.30251167671571
 51
357.61675100776949
  0
LINE
  5
E83D
  8
AM_0
 10
614.02548041773025
 20
195.76182606726579
 30
0.0
 11
614.02548041773025
 21
315.76182964354439
 31
0.0
  0
LINE
  5
E83E
  8
AM_0
 10
594.02548003030017
 20
315.41270854303173
 30
0.0
 11
594.02548003030017
 21
178.2623228554198
 31
0.0
  0
LINE
  5
E83F
  8
AM_0
 10
684.02548271250896
 20
178.2623228554198
 30
0.0
 11
684.02548271250907
 21
314.53998900512278
 31
0.0
  0
LINE
  5
E840
  8
AM_0
 10
688.02548283171825
 20
218.2618267378181
 30
0.0
 11
688.02548283171825
 21
293.26182897299202
 31
0.0
  0
LINE
  5
E841
  8
AM_0
 10
590.02547991109066
 20
218.2618267378181
 30
0.0
 11
590.02547991109066
 21
293.26182897299202
 31
0.0
  0
ARC
  5
E842
  8
AM_0
 10
639.02548137140457
 20
239.2618278554051
 30
0.0
 40
56.5
 50
182.38324899223051
 51
205.69748832328429
  0
LINE
  5
E845
  8
AM_0
 10
411.81519567818361
 20
305.76132934550623
 30
0.0
 11
411.81519567818378
 21
170.7623228554198
 31
0.0
  0
LINE
  5
E846
  8
ﾁｭｳｼﾝｾﾝ1
 10
639.02548137140457
 20
336.66835110256193
 30
0.0
 11
639.02548137140457
 21
170.77015157042919
 31
0.0
  0
ARC
  5
E84B
  8
AM_0
 10
639.02548137140457
 20
239.2618278554051
 30
0.0
 40
56.5
 50
235.13616204569519
 51
304.86383795430481
  0
LINE
  5
E84C
  8
AM_0
 10
614.02548041773025
 20
195.7618260672657
 30
0.0
 11
684.02548271250896
 21
196.98369444894101
 31
0.0
  0
CIRCLE
  5
E855
  8
AM_0
 10
401.31519536525929
 20
206.26232138020481
 30
0.0
 40
7.9999999999999956
  0
POLYLINE
  5
E856
  8
AM_0
 66
     1
 10
0.0
 20
0.0
 30
0.0
 70
     1
  0
VERTEX
  5
137A3
  8
AM_0
 10
394.82000483687591
 20
210.01232138020481
 30
0.0
  0
VERTEX
  5
137A4
  8
AM_0
 10
394.82000483687619
 20
202.51232138020481
 30
0.0
  0
VERTEX
  5
137A5
  8
AM_0
 10
401.31519536525929
 20
198.76232138020481
 30
0.0
  0
VERTEX
  5
137A6
  8
AM_0
 10
407.8103858936426
 20
202.51232138020481
 30
0.0
  0
VERTEX
  5
137A7
  8
AM_0
 10
407.8103858936426
 20
210.01232138020481
 30
0.0
  0
VERTEX
  5
137A8
  8
AM_0
 10
401.31519536525929
 20
213.76232138020481
 30
0.0
  0
SEQEND
  5
137A9
  8
AM_0
  0
LINE
  5
E857
  8
ﾁｭｳｼﾝｾﾝ1
 10
401.31519536525929
 20
198.7623961566895
 30
0.0
 11
401.31519536525929
 21
213.7622466037198
 31
0.0
  0
LINE
  5
E85A
  8
ﾁｭｳｼﾝｾﾝ1
 10
393.81519514174198
 20
206.2623213802047
 30
0.0
 11
408.8151955887767
 21
206.2623213802047
 31
0.0
  0
CIRCLE
  5
E85B
  8
AM_0
 10
401.31519536525929
 20
206.26232138020481
 30
0.0
 40
3.9999999999999978
  0
CIRCLE
  5
E85C
  8
AM_5
 10
401.31519536525929
 20
206.26232138020481
 30
0.0
 40
2.9999999999999978
  0
ARC
  5
E85E
  8
AM_0
 10
406.81519567818378
 20
212.7623213802047
 30
0.0
 40
5.0
 50
0.0
 51
90.0
1001
GENIUS_GENOBJ-N-FIL_13
1002
{
1000
OWNER
1000
GEN
1002
}
1001
GENIUS_GENODEF_13
1002
{
1000
HIER
1070
     0
1002
}
1002
{
1000
MANEDIT
1070
     0
1002
}
1002
{
1000
NOSEL
1070
     0
1002
}
1002
{
1000
BEHIND
1070
     0
1002
}
1002
{
1000
OTHER
1070
     0
1002
}
1002
{
1000
REACTOR
1002
}
  0
LINE
  5
E85F
  8
AM_0
 10
580.85917693954275
 20
215.30401377844939
 30
0.0
 11
587.74452731328438
 21
215.5444555117208
 31
0.0
  0
LINE
  5
E860
  8
AM_0
 10
569.02548137140445
 20
180.26232285541991
 30
0.0
 11
584.52548003030017
 21
195.7623215143154
 31
0.0
  0
LINE
  5
E861
  8
AM_0
 10
581.43548003030037
 20
213.7623213802049
 30
0.0
 11
587.93548003030025
 21
213.76232138020481
 31
0.0
  0
LINE
  5
E862
  8
AM_0
 10
581.43548003030037
 20
198.76232138020481
 30
0.0
 11
587.93548003030025
 21
198.7623213802049
 31
0.0
  0
LINE
  5
E863
  8
AM_0
 10
581.43548003030037
 20
210.0123213802049
 30
0.0
 11
587.93548003030025
 21
210.01232138020481
 31
0.0
  0
LINE
  5
E864
  8
AM_0
 10
581.43548003030037
 20
202.5123213802049
 30
0.0
 11
587.93548003030003
 21
202.5123213802049
 31
0.0
  0
LINE
  5
E865
  8
AM_0
 10
564.02548003030097
 20
175.26232285541991
 30
0.0
 11
586.52548003029995
 21
175.26232285541991
 31
0.0
  0
LINE
  5
E866
  8
AM_0
 10
564.02548003030108
 20
170.76232285541991
 30
0.0
 11
586.52548003030051
 21
170.76232285541991
 31
0.0
  0
LINE
  5
E867
  8
ﾁｭｳｼﾝｾﾝ1
 10
574.02548137140445
 20
185.2623228554198
 30
0.0
 11
574.02548137140445
 21
160.76232285541991
 31
0.0
  0
LINE
  5
E869
  8
AM_0
 10
564.02548003030097
 20
175.26232285541991
 30
0.0
 11
564.02548003030097
 21
170.76232285541991
 31
0.0
  0
LINE
  5
E86B
  8
ｶｸﾚｾﾝ2
 10
579.02548137140445
 20
170.76232285541991
 30
0.0
 11
579.02548137140445
 21
175.26232285541991
 31
0.0
  0
LINE
  5
E86C
  8
ｶｸﾚｾﾝ2
 10
569.02548137140445
 20
170.76232285541991
 30
0.0
 11
569.02548137140445
 21
175.26232285541991
 31
0.0
  0
LINE
  5
E86F
  8
AM_0
 10
569.02548137140445
 20
175.26232285541991
 30
0.0
 11
569.02548137140445
 21
180.2623228554198
 31
0.0
  0
LINE
  5
E879
  8
AM_0
 10
581.43548003030037
 20
213.7623213802049
 30
0.0
 11
581.43548003030037
 21
198.76232138020481
 31
0.0
  0
LINE
  5
E87A
  8
AM_0
 10
581.43548003030037
 20
210.2623213802049
 30
0.0
 11
581.11548229527671
 21
210.2623213802049
 31
0.0
  0
LINE
  5
E87B
  8
AM_0
 10
581.43548003030037
 20
202.2623213802047
 30
0.0
 11
581.11548229527625
 21
202.2623213802047
 31
0.0
  0
LINE
  5
E87C
  8
AM_5
 10
581.43548003030037
 20
209.2623213802049
 30
0.0
 11
581.11548229527671
 21
209.2623213802049
 31
0.0
  0
LINE
  5
E87D
  8
AM_5
 10
581.43548003030037
 20
203.2623213802049
 30
0.0
 11
581.11548229527625
 21
203.2623213802049
 31
0.0
  0
LINE
  5
E87E
  8
AM_0
 10
581.11548229527671
 20
210.2623213802049
 30
0.0
 11
581.11548229527671
 21
202.2623213802047
 31
0.0
  0
LINE
  5
E87F
  8
AM_0
 10
580.87551167386573
 20
213.2352171294458
 30
0.0
 11
581.43548003030037
 21
213.21566260354811
 31
0.0
  0
ARC
  5
E880
  8
AM_0
 10
688.02548137140457
 20
239.2618278554051
 30
0.0
 40
111.0
 50
193.11367014329841
 51
193.15111826064779
  0
ARC
  5
E881
  8
AM_0
 10
580.89407643624554
 20
214.30462295143039
 30
0.0
 40
1.0
 50
92.000000000003581
 51
193.11367014329841
1001
GENIUS_GENODEF_13
1002
{
1000
HIER
1070
     0
1002
}
1002
{
1000
MANEDIT
1070
     0
1002
}
1002
{
1000
NOSEL
1070
     0
1002
}
1002
{
1000
BEHIND
1070
     0
1002
}
1002
{
1000
REACTOR
1002
}
1001
GENIUS_GENOBJ-N-FIL_13
1002
{
1000
OWNER
1000
GEN
1002
}
  0
ARC
  5
E882
  8
AM_0
 10
580.91041117056807
 20
214.234607956465
 30
0.0
 40
1.0
 50
193.15111826064779
 51
268.0000000000029
1001
GENIUS_GENODEF_13
1002
{
1000
HIER
1070
     0
1002
}
1002
{
1000
MANEDIT
1070
     0
1002
}
1002
{
1000
NOSEL
1070
     0
1002
}
1002
{
1000
BEHIND
1070
     0
1002
}
1002
{
1000
REACTOR
1002
}
1001
GENIUS_GENOBJ-N-FIL_13
1002
{
1000
OWNER
1000
GEN
1002
}
  0
ARC
  5
E883
  8
AM_0
 10
623.9956248423573
 20
179.29346816913539
 30
0.0
 40
1.0
 50
181.99999999999719
 51
262.1468219111938
1001
GENIUS_GENODEF_13
1002
{
1000
HIER
1070
     0
1002
}
1002
{
1000
MANEDIT
1070
     0
1002
}
1002
{
1000
NOSEL
1070
     0
1002
}
1002
{
1000
BEHIND
1070
     0
1002
}
1002
{
1000
REACTOR
1002
}
1001
GENIUS_GENOBJ-N-FIL_13
1002
{
1000
OWNER
1000
GEN
1002
}
  0
LINE
  5
E884
  8
AM_0
 10
632.99342389250614
 20
178.3421147292886
 30
0.0
 11
632.82717541865804
 21
183.10284813429399
 31
0.0
  0
LINE
  5
E885
  8
AM_0
 10
635.06057958066015
 20
178.33900455082809
 30
0.0
 11
635.21950954202111
 21
182.89016317860199
 31
0.0
  0
ARC
  5
E886
  8
AM_0
 10
624.06453259829175
 20
179.28398601676199
 30
0.0
 40
1.0
 50
262.18305216830549
 51
358.00000000000279
1001
GENIUS_GENODEF_13
1002
{
1000
HIER
1070
     0
1002
}
1002
{
1000
MANEDIT
1070
     0
1002
}
1002
{
1000
NOSEL
1070
     0
1002
}
1002
{
1000
BEHIND
1070
     0
1002
}
1002
{
1000
REACTOR
1002
}
1001
GENIUS_GENOBJ-N-FIL_13
1002
{
1000
OWNER
1000
GEN
1002
}
  0
LINE
  5
E88B
  8
AM_0
 10
645.05753885030299
 20
178.3421147292886
 30
0.0
 11
645.2237873241512
 21
183.10284813429399
 31
0.0
  0
LINE
  5
E88C
  8
AM_0
 10
642.99038316214865
 20
178.33900455082809
 30
0.0
 11
642.83145320078802
 21
182.89016317860199
 31
0.0
  0
LINE
  5
E88E
  8
AM_0
 10
589.52548003030017
 20
217.76232138020529
 30
0.0
 11
589.52548003029995
 21
178.2623228554198
 31
0.0
  0
ARC
  5
E88F
  8
AM_0
 10
586.52548003030051
 20
178.2623228554198
 30
0.0
 40
7.5
 50
270.0
 51
0.0
1001
GENIUS_GENOBJ-N-FIL_13
1002
{
1000
OWNER
1000
GEN
1002
}
1001
GENIUS_GENODEF_13
1002
{
1000
HIER
1070
     0
1002
}
1002
{
1000
MANEDIT
1070
     0
1002
}
1002
{
1000
NOSEL
1070
     0
1002
}
1002
{
1000
BEHIND
1070
     0
1002
}
1002
{
1000
OTHER
1070
     0
1002
}
1002
{
1000
REACTOR
1002
}
  0
LINE
  5
E890
  8
AM_0
 10
583.82447124462783
 20
175.26232285541991
 30
0.0
 11
589.52548003029995
 21
180.96333164109211
 31
0.0
  0
ARC
  5
E891
  8
AM_0
 10
586.52548003029995
 20
178.2623228554198
 30
0.0
 40
3.0
 50
270.0
 51
0.0
1001
GENIUS_GENOBJ-N-FIL_13
1002
{
1000
OWNER
1000
GEN
1002
}
1001
GENIUS_GENODEF_13
1002
{
1000
HIER
1070
     0
1002
}
1002
{
1000
MANEDIT
1070
     0
1002
}
1002
{
1000
NOSEL
1070
     0
1002
}
1002
{
1000
BEHIND
1070
     0
1002
}
1002
{
1000
OTHER
1070
     0
1002
}
1002
{
1000
REACTOR
1002
}
  0
ARC
  5
E892
  8
AM_0
 10
633.99281471952509
 20
178.3770142259911
 30
0.0
 40
1.0
 50
182.00000000000369
 51
267.37771591204711
1001
GENIUS_GENODEF_13
1002
{
1000
HIER
1070
     0
1002
}
1002
{
1000
MANEDIT
1070
     0
1002
}
1002
{
1000
NOSEL
1070
     0
1002
}
1002
{
1000
BEHIND
1070
     0
1002
}
1002
{
1000
REACTOR
1002
}
1001
GENIUS_GENOBJ-N-FIL_13
1002
{
1000
OWNER
1000
GEN
1002
}
  0
ARC
  5
E894
  8
AM_0
 10
639.02548137140457
 20
288.26182785540499
 30
0.0
 40
111.0
 50
262.1468219111938
 51
262.18305216830549
  0
ARC
  5
E896
  8
AM_0
 10
634.06118875364109
 20
178.3739040475306
 30
0.0
 40
1.0
 50
267.41336677122672
 51
357.99999999999642
1001
GENIUS_GENODEF_13
1002
{
1000
HIER
1070
     0
1002
}
1002
{
1000
MANEDIT
1070
     0
1002
}
1002
{
1000
NOSEL
1070
     0
1002
}
1002
{
1000
BEHIND
1070
     0
1002
}
1002
{
1000
REACTOR
1002
}
1001
GENIUS_GENOBJ-N-FIL_13
1002
{
1000
OWNER
1000
GEN
1002
}
  0
ARC
  5
E89C
  8
AM_0
 10
644.05814802328405
 20
178.3770142259911
 30
0.0
 40
1.0
 50
272.62228408795289
 51
357.99999999999642
1001
GENIUS_GENODEF_13
1002
{
1000
HIER
1070
     0
1002
}
1002
{
1000
MANEDIT
1070
     0
1002
}
1002
{
1000
NOSEL
1070
     0
1002
}
1002
{
1000
BEHIND
1070
     0
1002
}
1002
{
1000
REACTOR
1002
}
1001
GENIUS_GENOBJ-N-FIL_13
1002
{
1000
OWNER
1000
GEN
1002
}
  0
ARC
  5
E89D
  8
AM_0
 10
643.98977398916804
 20
178.3739040475306
 30
0.0
 40
1.0
 50
182.00000000000369
 51
272.58663322877328
1001
GENIUS_GENODEF_13
1002
{
1000
HIER
1070
     0
1002
}
1002
{
1000
MANEDIT
1070
     0
1002
}
1002
{
1000
NOSEL
1070
     0
1002
}
1002
{
1000
BEHIND
1070
     0
1002
}
1002
{
1000
REACTOR
1002
}
1001
GENIUS_GENOBJ-N-FIL_13
1002
{
1000
OWNER
1000
GEN
1002
}
  0
LINE
  5
E89F
  8
AM_0
 10
587.93548003030025
 20
214.7623213802049
 30
0.0
 11
587.93548003030003
 21
197.7623213802047
 31
0.0
  0
LINE
  5
E8A1
  8
AM_0
 10
594.02548003030017
 20
196.11094716777831
 30
0.0
 11
614.02548041773025
 21
195.76182606726579
 31
0.0
  0
LINE
  5
E8A2
  8
AM_0
 10
605.58523615699255
 20
193.26182785540499
 30
0.0
 11
598.02548137140445
 21
193.26182785540499
 31
0.0
  0
LINE
  5
E8A3
  8
AM_0
 10
584.52548003029995
 20
195.7623215143154
 30
0.0
 11
589.52548003030017
 21
195.7623215143154
 31
0.0
  0
LINE
  5
E8A4
  8
AM_0
 10
587.93548003030003
 20
197.7623213802047
 30
0.0
 11
589.52548003030017
 21
197.7623213802047
 31
0.0
  0
ARC
  5
E8A5
  8
AM_0
 10
598.02548137140445
 20
198.26182785540499
 30
0.0
 40
5.0
 50
216.86987203262939
 51
270.0
1001
GENIUS_GENODEF_13
1002
{
1000
HIER
1070
     0
1002
}
1002
{
1000
MANEDIT
1070
     0
1002
}
1002
{
1000
NOSEL
1070
     0
1002
}
1002
{
1000
BEHIND
1070
     0
1002
}
1002
{
1000
REACTOR
1002
}
1001
GENIUS_GENOBJ-N-FIL_13
1002
{
1000
OWNER
1000
GEN
1002
}
  0
LINE
  5
E8A6
  8
AM_0
 10
603.00138154869535
 20
183.95195648257501
 30
0.0
 11
602.67627367648709
 21
193.26182785540499
 31
0.0
  0
LINE
  5
E8A7
  8
AM_0
 10
605.07194723780128
 20
183.92787257823491
 30
0.0
 11
605.39758805308463
 21
193.25300544394389
 31
0.0
  0
ARC
  5
E8A8
  8
AM_0
 10
604.00077237571475
 20
183.98685597927761
 30
0.0
 40
1.0
 50
182.00000000001009
 51
251.433419198097
1001
GENIUS_GENODEF_13
1002
{
1000
HIER
1070
     0
1002
}
1002
{
1000
MANEDIT
1070
     0
1002
}
1002
{
1000
NOSEL
1070
     0
1002
}
1002
{
1000
BEHIND
1070
     0
1002
}
1002
{
1000
REACTOR
1002
}
1001
GENIUS_GENOBJ-N-FIL_13
1002
{
1000
OWNER
1000
GEN
1002
}
  0
ARC
  5
E8A9
  8
AM_0
 10
639.02548137140457
 20
288.26182785540499
 30
0.0
 40
111.0
 50
251.43341919810331
 51
251.47285768552459
  0
ARC
  5
E8AA
  8
AM_0
 10
604.07255641078223
 20
183.96277207493759
 30
0.0
 40
1.0
 50
251.47285768552459
 51
357.99999999999642
1001
GENIUS_GENODEF_13
1002
{
1000
HIER
1070
     0
1002
}
1002
{
1000
MANEDIT
1070
     0
1002
}
1002
{
1000
NOSEL
1070
     0
1002
}
1002
{
1000
BEHIND
1070
     0
1002
}
1002
{
1000
REACTOR
1002
}
1001
GENIUS_GENOBJ-N-FIL_13
1002
{
1000
OWNER
1000
GEN
1002
}
  0
ARC
  5
E8AB
  8
AM_0
 10
614.06827646742977
 20
181.13042292024619
 30
0.0
 40
1.0
 50
256.88632985670091
 51
357.99999999999642
1001
GENIUS_GENODEF_13
1002
{
1000
HIER
1070
     0
1002
}
1002
{
1000
MANEDIT
1070
     0
1002
}
1002
{
1000
NOSEL
1070
     0
1002
}
1002
{
1000
BEHIND
1070
     0
1002
}
1002
{
1000
REACTOR
1002
}
1001
GENIUS_GENOBJ-N-FIL_13
1002
{
1000
OWNER
1000
GEN
1002
}
  0
LINE
  5
E8AC
  8
AM_0
 10
615.06766729444882
 20
181.0955234235434
 30
0.0
 11
615.30810902772009
 21
187.9808737972848
 31
0.0
  0
LINE
  5
E8AD
  8
AM_0
 10
612.99887064544521
 20
181.11185815786621
 30
0.0
 11
612.71425676737965
 21
189.2621332579721
 31
0.0
  0
ARC
  5
E8AE
  8
AM_0
 10
613.99826147246415
 20
181.1467576545688
 30
0.0
 40
1.0
 50
181.99999999999719
 51
256.84888173934507
1001
GENIUS_GENODEF_13
1002
{
1000
HIER
1070
     0
1002
}
1002
{
1000
MANEDIT
1070
     0
1002
}
1002
{
1000
NOSEL
1070
     0
1002
}
1002
{
1000
BEHIND
1070
     0
1002
}
1002
{
1000
REACTOR
1002
}
1001
GENIUS_GENOBJ-N-FIL_13
1002
{
1000
OWNER
1000
GEN
1002
}
  0
ARC
  5
E8AF
  8
AM_0
 10
639.02548137140457
 20
288.26182785540499
 30
0.0
 40
111.0
 50
256.84888173934507
 51
256.88632985670091
  0
ARC
  5
E8B0
  8
AM_0
 10
605.58523615699255
 20
191.26182785540499
 30
0.0
 40
2.0
 50
55.136162045695187
 51
90.0
1001
GENIUS_GENODEF_13
1002
{
1000
HIER
1070
     0
1002
}
1002
{
1000
MANEDIT
1070
     0
1002
}
1002
{
1000
NOSEL
1070
     0
1002
}
1002
{
1000
BEHIND
1070
     0
1002
}
1002
{
1000
OTHER
1070
     0
1002
}
1002
{
1000
REACTOR
1002
}
1001
GENIUS_GENOBJ-N-FIL_13
1002
{
1000
OWNER
1000
GEN
1002
}
  0
LINE
  5
E8B1
  8
AM_0
 10
594.02548003030017
 20
218.2618267378181
 30
0.0
 11
590.02547991109066
 21
218.2618267378181
 31
0.0
  0
LINE
  5
E8B2
  8
AM_0
 10
589.52548003029995
 20
217.76232138020529
 30
0.0
 11
594.02548003030051
 21
217.76232138020529
 31
0.0
  0
LINE
  5
E8B3
  8
AM_0
 10
587.93548003030003
 20
214.7623213802049
 30
0.0
 11
589.52548003030017
 21
214.7623213802049
 31
0.0
  0
LINE
  5
E8B4
  8
AM_0
 10
622.99623401533836
 20
179.2585686724328
 30
0.0
 11
622.79069161149096
 21
185.144533009382
 31
0.0
  0
LINE
  5
E8B6
  8
AM_0
 10
625.0639234253108
 20
179.24908652005931
 30
0.0
 11
625.24616651117719
 21
184.46784568598511
 31
0.0
  0
ARC
  5
E8BD
  8
AM_0
 10
653.98643014451704
 20
179.28398601676199
 30
0.0
 40
1.0
 50
181.99999999999719
 51
277.81694783169439
1001
GENIUS_GENODEF_13
1002
{
1000
HIER
1070
     0
1002
}
1002
{
1000
MANEDIT
1070
     0
1002
}
1002
{
1000
NOSEL
1070
     0
1002
}
1002
{
1000
BEHIND
1070
     0
1002
}
1002
{
1000
REACTOR
1002
}
1001
GENIUS_GENOBJ-N-FIL_13
1002
{
1000
OWNER
1000
GEN
1002
}
  0
ARC
  5
E8BE
  8
AM_0
 10
654.05533790045172
 20
179.29346816913539
 30
0.0
 40
1.0
 50
277.85317808880632
 51
358.00000000000279
1001
GENIUS_GENODEF_13
1002
{
1000
HIER
1070
     0
1002
}
1002
{
1000
MANEDIT
1070
     0
1002
}
1002
{
1000
NOSEL
1070
     0
1002
}
1002
{
1000
BEHIND
1070
     0
1002
}
1002
{
1000
REACTOR
1002
}
1001
GENIUS_GENOBJ-N-FIL_13
1002
{
1000
OWNER
1000
GEN
1002
}
  0
LINE
  5
E8BF
  8
AM_0
 10
709.02548137140457
 20
180.26232285541991
 30
0.0
 11
693.52548271250885
 21
195.7623215143154
 31
0.0
  0
LINE
  5
E8C0
  8
ﾁｭｳｼﾝｾﾝ1
 10
704.02548137140445
 20
185.2623228554198
 30
0.0
 11
704.02548137140445
 21
160.76232285541991
 31
0.0
  0
LINE
  5
E8C1
  8
AM_0
 10
688.52548271250885
 20
217.76232138020529
 30
0.0
 11
688.52548271250885
 21
178.2623228554198
 31
0.0
  0
ARC
  5
E8C2
  8
AM_0
 10
691.52548271250873
 20
178.2623228554198
 30
0.0
 40
7.5
 50
180.0
 51
270.0
1001
GENIUS_GENOBJ-N-FIL_13
1002
{
1000
OWNER
1000
GEN
1002
}
1001
GENIUS_GENODEF_13
1002
{
1000
HIER
1070
     0
1002
}
1002
{
1000
MANEDIT
1070
     0
1002
}
1002
{
1000
NOSEL
1070
     0
1002
}
1002
{
1000
BEHIND
1070
     0
1002
}
1002
{
1000
OTHER
1070
     0
1002
}
1002
{
1000
REACTOR
1002
}
  0
ARC
  5
E8C3
  8
AM_0
 10
639.02548137140457
 20
288.26182785540499
 30
0.0
 40
111.0
 50
277.81694783169439
 51
277.85317808880632
  0
LINE
  5
E8C7
  8
AM_0
 10
714.02548271250816
 20
170.76232285541991
 30
0.0
 11
691.52548271250873
 21
170.76232285541991
 31
0.0
  0
LINE
  5
E8C8
  8
AM_0
 10
714.02548271250816
 20
175.26232285541991
 30
0.0
 11
691.52548271250907
 21
175.26232285541991
 31
0.0
  0
LINE
  5
E8C9
  8
ｶｸﾚｾﾝ2
 10
699.02548137140445
 20
170.76232285541991
 30
0.0
 11
699.02548137140445
 21
175.26232285541991
 31
0.0
  0
LINE
  5
E8CA
  8
AM_0
 10
694.22649149818108
 20
175.26232285541991
 30
0.0
 11
688.52548271250885
 21
180.96333164109211
 31
0.0
  0
ARC
  5
E8CB
  8
AM_0
 10
691.52548271250907
 20
178.2623228554198
 30
0.0
 40
3.0
 50
180.0
 51
270.0
1001
GENIUS_GENOBJ-N-FIL_13
1002
{
1000
OWNER
1000
GEN
1002
}
1001
GENIUS_GENODEF_13
1002
{
1000
HIER
1070
     0
1002
}
1002
{
1000
MANEDIT
1070
     0
1002
}
1002
{
1000
NOSEL
1070
     0
1002
}
1002
{
1000
BEHIND
1070
     0
1002
}
1002
{
1000
OTHER
1070
     0
1002
}
1002
{
1000
REACTOR
1002
}
  0
LINE
  5
E8CF
  8
ｶｸﾚｾﾝ2
 10
709.02548137140457
 20
170.76232285541991
 30
0.0
 11
709.02548137140457
 21
175.26232285541991
 31
0.0
  0
LINE
  5
E8D0
  8
AM_0
 10
714.02548271250805
 20
175.26232285541991
 30
0.0
 11
714.02548271250805
 21
170.76232285541991
 31
0.0
  0
LINE
  5
E8D5
  8
AM_0
 10
709.02548137140457
 20
175.26232285541991
 30
0.0
 11
709.02548137140457
 21
180.2623228554198
 31
0.0
  0
ARC
  5
E8D9
  8
AM_0
 10
680.02548137140468
 20
198.26182785540499
 30
0.0
 40
5.0
 50
270.0
 51
323.1301279673707
1001
GENIUS_GENOBJ-N-CEN_13
1002
{
1000
OWNER
1000
GEN
1002
}
1001
GENIUS_GENODEF_13
1002
{
1000
HIER
1070
     0
1002
}
1002
{
1000
MANEDIT
1070
     0
1002
}
1002
{
1000
NOSEL
1070
     0
1002
}
1002
{
1000
BEHIND
1070
     0
1002
}
1002
{
1000
REACTOR
1002
}
1001
GENIUS_GENOBJ-N-FIL_13
1002
{
1000
OWNER
1000
GEN
1002
}
  0
LINE
  5
E8DA
  8
AM_0
 10
652.9870393174981
 20
179.24908652005931
 30
0.0
 11
652.80479623163183
 21
184.46784568598511
 31
0.0
  0
LINE
  5
E8DB
  8
AM_0
 10
655.05472872747066
 20
179.2585686724328
 30
0.0
 11
655.26027113131806
 21
185.144533009382
 31
0.0
  0
LINE
  5
E8DC
  8
AM_0
 10
665.0520920973637
 20
181.11185815786621
 30
0.0
 11
665.33670597542925
 21
189.2621332579721
 31
0.0
  0
LINE
  5
E8DD
  8
AM_0
 10
662.98329544836042
 20
181.0955234235434
 30
0.0
 11
662.74285371508904
 21
187.9808737972848
 31
0.0
  0
ARC
  5
E8DE
  8
AM_0
 10
663.98268627537925
 20
181.13042292024619
 30
0.0
 40
1.0
 50
182.00000000000369
 51
283.1136701432992
1001
GENIUS_GENODEF_13
1002
{
1000
HIER
1070
     0
1002
}
1002
{
1000
MANEDIT
1070
     0
1002
}
1002
{
1000
NOSEL
1070
     0
1002
}
1002
{
1000
BEHIND
1070
     0
1002
}
1002
{
1000
REACTOR
1002
}
1001
GENIUS_GENOBJ-N-FIL_13
1002
{
1000
OWNER
1000
GEN
1002
}
  0
ARC
  5
E8DF
  8
AM_0
 10
664.05270127034476
 20
181.1467576545688
 30
0.0
 40
1.0
 50
283.15111826065493
 51
358.00000000000279
1001
GENIUS_GENODEF_13
1002
{
1000
HIER
1070
     0
1002
}
1002
{
1000
MANEDIT
1070
     0
1002
}
1002
{
1000
NOSEL
1070
     0
1002
}
1002
{
1000
BEHIND
1070
     0
1002
}
1002
{
1000
REACTOR
1002
}
1001
GENIUS_GENOBJ-N-FIL_13
1002
{
1000
OWNER
1000
GEN
1002
}
  0
ARC
  5
E8E0
  8
AM_0
 10
639.02548137140457
 20
288.26182785540499
 30
0.0
 40
111.0
 50
283.1136701432992
 51
283.15111826065493
  0
LINE
  5
E8E1
  8
AM_0
 10
675.04958119411356
 20
183.95195648257501
 30
0.0
 11
675.37468906632182
 21
193.26182785540499
 31
0.0
  0
LINE
  5
E8E2
  8
AM_0
 10
672.97901550500774
 20
183.92787257823491
 30
0.0
 11
672.65337468972473
 21
193.25300544394389
 31
0.0
  0
ARC
  5
E8E3
  8
AM_0
 10
674.05019036709416
 20
183.98685597927761
 30
0.0
 40
1.0
 50
288.56658080190289
 51
357.99999999998983
1001
GENIUS_GENODEF_13
1002
{
1000
HIER
1070
     0
1002
}
1002
{
1000
MANEDIT
1070
     0
1002
}
1002
{
1000
NOSEL
1070
     0
1002
}
1002
{
1000
BEHIND
1070
     0
1002
}
1002
{
1000
REACTOR
1002
}
1001
GENIUS_GENOBJ-N-FIL_13
1002
{
1000
OWNER
1000
GEN
1002
}
  0
ARC
  5
E8E4
  8
AM_0
 10
639.02548137140457
 20
288.26182785540499
 30
0.0
 40
111.0
 50
288.52714231447538
 51
288.56658080189681
  0
ARC
  5
E8E5
  8
AM_0
 10
673.97840633202691
 20
183.96277207493759
 30
0.0
 40
1.0
 50
182.00000000000369
 51
288.52714231447538
1001
GENIUS_GENODEF_13
1002
{
1000
HIER
1070
     0
1002
}
1002
{
1000
MANEDIT
1070
     0
1002
}
1002
{
1000
NOSEL
1070
     0
1002
}
1002
{
1000
BEHIND
1070
     0
1002
}
1002
{
1000
REACTOR
1002
}
1001
GENIUS_GENOBJ-N-FIL_13
1002
{
1000
OWNER
1000
GEN
1002
}
  0
LINE
  5
E8E6
  8
AM_0
 10
680.02548137140468
 20
193.26182785540499
 30
0.0
 11
672.46572658581636
 21
193.26182785540499
 31
0.0
  0
ARC
  5
E8E7
  8
AM_0
 10
672.46572658581636
 20
191.26182785540499
 30
0.0
 40
2.0
 50
90.0
 51
124.8638379543048
1001
GENIUS_GENOBJ-N-FIL_13
1002
{
1000
OWNER
1000
GEN
1002
}
1001
GENIUS_GENODEF_13
1002
{
1000
HIER
1070
     0
1002
}
1002
{
1000
MANEDIT
1070
     0
1002
}
1002
{
1000
NOSEL
1070
     0
1002
}
1002
{
1000
BEHIND
1070
     0
1002
}
1002
{
1000
OTHER
1070
     0
1002
}
1002
{
1000
REACTOR
1002
}
  0
LINE
  5
E8E8
  8
AM_0
 10
690.11548271250888
 20
214.7623213802049
 30
0.0
 11
690.11548271250888
 21
197.7623213802047
 31
0.0
  0
LINE
  5
E8E9
  8
AM_0
 10
698.11548271250865
 20
212.7623213802047
 30
0.0
 11
698.11548271250865
 21
199.76232138020481
 31
0.0
  0
LINE
  5
E8EA
  8
AM_0
 10
693.52548271250885
 20
195.7623215143154
 30
0.0
 11
688.52548271250885
 21
195.7623215143154
 31
0.0
  0
LINE
  5
E8EB
  8
AM_0
 10
690.11548271250888
 20
199.76232138020481
 30
0.0
 11
698.11548271250865
 21
199.76232138020481
 31
0.0
  0
LINE
  5
E8EC
  8
AM_0
 10
690.11548271250888
 20
197.7623213802047
 30
0.0
 11
688.52548271250885
 21
197.7623213802047
 31
0.0
  0
LINE
  5
E8ED
  8
AM_0
 10
697.17545106894318
 20
213.2352171294458
 30
0.0
 11
690.11548271250865
 21
212.98867760185169
 31
0.0
  0
LINE
  5
E8EE
  8
AM_0
 10
697.19178580326604
 20
215.30401377844939
 30
0.0
 11
690.30643542952464
 21
215.5444555117208
 31
0.0
  0
LINE
  5
E8EF
  8
AM_0
 10
690.11548271250888
 20
212.7623213802047
 30
0.0
 11
698.11548271250865
 21
212.7623213802047
 31
0.0
  0
LINE
  5
E8F0
  8
AM_0
 10
684.02548271250896
 20
218.2618267378181
 30
0.0
 11
688.02548283171825
 21
218.2618267378181
 31
0.0
  0
LINE
  5
E8F1
  8
AM_0
 10
688.52548271250885
 20
217.76232138020529
 30
0.0
 11
684.02548271250862
 21
217.76232138020529
 31
0.0
  0
LINE
  5
E8F2
  8
AM_0
 10
690.11548271250888
 20
214.7623213802049
 30
0.0
 11
688.52548271250885
 21
214.7623213802049
 31
0.0
  0
ARC
  5
E8F3
  8
AM_0
 10
590.02548137140445
 20
239.2618278554051
 30
0.0
 40
111.0
 50
346.84888173935212
 51
346.88632985670171
  0
ARC
  5
E8F4
  8
AM_0
 10
697.15688630656359
 20
214.30462295143039
 30
0.0
 40
1.0
 50
346.88632985670171
 51
87.999999999996405
1001
GENIUS_GENODEF_13
1002
{
1000
HIER
1070
     0
1002
}
1002
{
1000
MANEDIT
1070
     0
1002
}
1002
{
1000
NOSEL
1070
     0
1002
}
1002
{
1000
BEHIND
1070
     0
1002
}
1002
{
1000
REACTOR
1002
}
1001
GENIUS_GENOBJ-N-FIL_13
1002
{
1000
OWNER
1000
GEN
1002
}
  0
ARC
  5
E8F5
  8
AM_0
 10
697.14055157224072
 20
214.23460795646511
 30
0.0
 40
1.0
 50
271.9999999999971
 51
346.84888173935212
1001
GENIUS_GENODEF_13
1002
{
1000
HIER
1070
     0
1002
}
1002
{
1000
MANEDIT
1070
     0
1002
}
1002
{
1000
NOSEL
1070
     0
1002
}
1002
{
1000
BEHIND
1070
     0
1002
}
1002
{
1000
REACTOR
1002
}
1001
GENIUS_GENOBJ-N-FIL_13
1002
{
1000
OWNER
1000
GEN
1002
}
  0
LINE
  5
E8F6
  8
ﾁｭｳｼﾝｾﾝ1
 10
674.01994037901034
 20
239.26182776942861
 30
0.0
 11
604.03102236379857
 21
239.26182748962179
 31
0.0
  0
LINE
  5
E8F8
  8
AM_0
 10
614.02548041773025
 20
315.76182964354439
 30
0.0
 11
684.02548271250907
 21
314.53998900512278
 31
0.0
  0
LINE
  5
E8FE
  8
ﾁｭｳｼﾝｾﾝ1
 10
526.22728371948233
 20
255.76182785540499
 30
0.0
 11
751.82367902332669
 21
255.76182785540499
 31
0.0
  0
LINE
  5
E903
  8
AM_0
 10
392.8151787057617
 20
313.76182785540487
 30
0.0
 11
392.8151787057617
 21
308.76182785540499
 31
0.0
  0
LINE
  5
E904
  8
ﾁｭｳｼﾝｾﾝ1
 10
401.31519536525929
 20
312.76125955412022
 30
0.0
 11
401.31519536525929
 21
297.76140910708989
 31
0.0
  0
POLYLINE
  5
E905
  8
AM_0
 10
405.81519549936974
 20
305.26133433060511
 30
0.0
 66
     1
 70
     8
  0
VERTEX
  8
AM_0
  5
13901
 10
405.815
 20
305.261
 30
0.000000
  70
    32
  0
VERTEX
  8
AM_0
  5
13902
 10
405.810
 20
305.482
 30
0.000000
  70
    32
  0
VERTEX
  8
AM_0
  5
13903
 10
405.794
 20
305.702
 30
0.000000
  70
    32
  0
VERTEX
  8
AM_0
  5
13904
 10
405.766
 20
305.922
 30
0.000000
  70
    32
  0
VERTEX
  8
AM_0
  5
13905
 10
405.729
 20
306.139
 30
0.000000
  70
    32
  0
VERTEX
  8
AM_0
  5
13906
 10
405.680
 20
306.355
 30
0.000000
  70
    32
  0
VERTEX
  8
AM_0
  5
13907
 10
405.621
 20
306.568
 30
0.000000
  70
    32
  0
VERTEX
  8
AM_0
  5
13908
 10
405.552
 20
306.777
 30
0.000000
  70
    32
  0
VERTEX
  8
AM_0
  5
13909
 10
405.473
 20
306.983
 30
0.000000
  70
    32
  0
VERTEX
  8
AM_0
  5
1390A
 10
405.383
 20
307.185
 30
0.000000
  70
    32
  0
VERTEX
  8
AM_0
  5
1390B
 10
405.284
 20
307.383
 30
0.000000
  70
    32
  0
VERTEX
  8
AM_0
  5
1390C
 10
405.175
 20
307.575
 30
0.000000
  70
    32
  0
VERTEX
  8
AM_0
  5
1390D
 10
405.057
 20
307.761
 30
0.000000
  70
    32
  0
VERTEX
  8
AM_0
  5
1390E
 10
404.930
 20
307.942
 30
0.000000
  70
    32
  0
VERTEX
  8
AM_0
  5
1390F
 10
404.794
 20
308.116
 30
0.000000
  70
    32
  0
VERTEX
  8
AM_0
  5
13910
 10
404.649
 20
308.283
 30
0.000000
  70
    32
  0
VERTEX
  8
AM_0
  5
13911
 10
404.497
 20
308.443
 30
0.000000
  70
    32
  0
VERTEX
  8
AM_0
  5
13912
 10
404.337
 20
308.596
 30
0.000000
  70
    32
  0
VERTEX
  8
AM_0
  5
13913
 10
404.170
 20
308.740
 30
0.000000
  70
    32
  0
VERTEX
  8
AM_0
  5
13914
 10
403.996
 20
308.876
 30
0.000000
  70
    32
  0
VERTEX
  8
AM_0
  5
13915
 10
403.815
 20
309.003
 30
0.000000
  70
    32
  0
VERTEX
  8
AM_0
  5
13916
 10
403.629
 20
309.121
 30
0.000000
  70
    32
  0
VERTEX
  8
AM_0
  5
13917
 10
403.436
 20
309.230
 30
0.000000
  70
    32
  0
VERTEX
  8
AM_0
  5
13918
 10
403.239
 20
309.329
 30
0.000000
  70
    32
  0
VERTEX
  8
AM_0
  5
13919
 10
403.037
 20
309.419
 30
0.000000
  70
    32
  0
VERTEX
  8
AM_0
  5
1391A
 10
402.831
 20
309.498
 30
0.000000
  70
    32
  0
VERTEX
  8
AM_0
  5
1391B
 10
402.621
 20
309.568
 30
0.000000
  70
    32
  0
VERTEX
  8
AM_0
  5
1391C
 10
402.409
 20
309.626
 30
0.000000
  70
    32
  0
VERTEX
  8
AM_0
  5
1391D
 10
402.193
 20
309.675
 30
0.000000
  70
    32
  0
VERTEX
  8
AM_0
  5
1391E
 10
401.975
 20
309.713
 30
0.000000
  70
    32
  0
VERTEX
  8
AM_0
  5
1391F
 10
401.756
 20
309.740
 30
0.000000
  70
    32
  0
VERTEX
  8
AM_0
  5
13920
 10
401.536
 20
309.756
 30
0.000000
  70
    32
  0
VERTEX
  8
AM_0
  5
13921
 10
401.315
 20
309.761
 30
0.000000
  70
    32
  0
VERTEX
  8
AM_0
  5
13922
 10
401.094
 20
309.756
 30
0.000000
  70
    32
  0
VERTEX
  8
AM_0
  5
13923
 10
400.874
 20
309.740
 30
0.000000
  70
    32
  0
VERTEX
  8
AM_0
  5
13924
 10
400.655
 20
309.713
 30
0.000000
  70
    32
  0
VERTEX
  8
AM_0
  5
13925
 10
400.437
 20
309.675
 30
0.000000
  70
    32
  0
VERTEX
  8
AM_0
  5
13926
 10
400.222
 20
309.626
 30
0.000000
  70
    32
  0
VERTEX
  8
AM_0
  5
13927
 10
400.009
 20
309.568
 30
0.000000
  70
    32
  0
VERTEX
  8
AM_0
  5
13928
 10
399.799
 20
309.498
 30
0.000000
  70
    32
  0
VERTEX
  8
AM_0
  5
13929
 10
399.593
 20
309.419
 30
0.000000
  70
    32
  0
VERTEX
  8
AM_0
  5
1392A
 10
399.391
 20
309.329
 30
0.000000
  70
    32
  0
VERTEX
  8
AM_0
  5
1392B
 10
399.194
 20
309.230
 30
0.000000
  70
    32
  0
VERTEX
  8
AM_0
  5
1392C
 10
399.002
 20
309.121
 30
0.000000
  70
    32
  0
VERTEX
  8
AM_0
  5
1392D
 10
398.815
 20
309.003
 30
0.000000
  70
    32
  0
VERTEX
  8
AM_0
  5
1392E
 10
398.635
 20
308.876
 30
0.000000
  70
    32
  0
VERTEX
  8
AM_0
  5
1392F
 10
398.460
 20
308.740
 30
0.000000
  70
    32
  0
VERTEX
  8
AM_0
  5
13930
 10
398.293
 20
308.596
 30
0.000000
  70
    32
  0
VERTEX
  8
AM_0
  5
13931
 10
398.133
 20
308.443
 30
0.000000
  70
    32
  0
VERTEX
  8
AM_0
  5
13932
 10
397.981
 20
308.283
 30
0.000000
  70
    32
  0
VERTEX
  8
AM_0
  5
13933
 10
397.837
 20
308.116
 30
0.000000
  70
    32
  0
VERTEX
  8
AM_0
  5
13934
 10
397.701
 20
307.942
 30
0.000000
  70
    32
  0
VERTEX
  8
AM_0
  5
13935
 10
397.574
 20
307.761
 30
0.000000
  70
    32
  0
VERTEX
  8
AM_0
  5
13936
 10
397.455
 20
307.575
 30
0.000000
  70
    32
  0
VERTEX
  8
AM_0
  5
13937
 10
397.347
 20
307.383
 30
0.000000
  70
    32
  0
VERTEX
  8
AM_0
  5
13938
 10
397.247
 20
307.185
 30
0.000000
  70
    32
  0
VERTEX
  8
AM_0
  5
13939
 10
397.158
 20
306.983
 30
0.000000
  70
    32
  0
VERTEX
  8
AM_0
  5
1393A
 10
397.078
 20
306.777
 30
0.000000
  70
    32
  0
VERTEX
  8
AM_0
  5
1393B
 10
397.009
 20
306.568
 30
0.000000
  70
    32
  0
VERTEX
  8
AM_0
  5
1393C
 10
396.950
 20
306.355
 30
0.000000
  70
    32
  0
VERTEX
  8
AM_0
  5
1393D
 10
396.902
 20
306.139
 30
0.000000
  70
    32
  0
VERTEX
  8
AM_0
  5
1393E
 10
396.864
 20
305.922
 30
0.000000
  70
    32
  0
VERTEX
  8
AM_0
  5
1393F
 10
396.837
 20
305.702
 30
0.000000
  70
    32
  0
VERTEX
  8
AM_0
  5
13940
 10
396.821
 20
305.482
 30
0.000000
  70
    32
  0
VERTEX
  8
AM_0
  5
13941
 10
396.815
 20
305.261
 30
0.000000
  70
    32
  0
VERTEX
  8
AM_0
  5
13942
 10
396.821
 20
305.041
 30
0.000000
  70
    32
  0
VERTEX
  8
AM_0
  5
13943
 10
396.837
 20
304.820
 30
0.000000
  70
    32
  0
VERTEX
  8
AM_0
  5
13944
 10
396.864
 20
304.601
 30
0.000000
  70
    32
  0
VERTEX
  8
AM_0
  5
13945
 10
396.902
 20
304.383
 30
0.000000
  70
    32
  0
VERTEX
  8
AM_0
  5
13946
 10
396.950
 20
304.168
 30
0.000000
  70
    32
  0
VERTEX
  8
AM_0
  5
13947
 10
397.009
 20
303.955
 30
0.000000
  70
    32
  0
VERTEX
  8
AM_0
  5
13948
 10
397.078
 20
303.745
 30
0.000000
  70
    32
  0
VERTEX
  8
AM_0
  5
13949
 10
397.158
 20
303.539
 30
0.000000
  70
    32
  0
VERTEX
  8
AM_0
  5
1394A
 10
397.247
 20
303.337
 30
0.000000
  70
    32
  0
VERTEX
  8
AM_0
  5
1394B
 10
397.347
 20
303.140
 30
0.000000
  70
    32
  0
VERTEX
  8
AM_0
  5
1394C
 10
397.455
 20
302.948
 30
0.000000
  70
    32
  0
VERTEX
  8
AM_0
  5
1394D
 10
397.574
 20
302.761
 30
0.000000
  70
    32
  0
VERTEX
  8
AM_0
  5
1394E
 10
397.701
 20
302.581
 30
0.000000
  70
    32
  0
VERTEX
  8
AM_0
  5
1394F
 10
397.837
 20
302.407
 30
0.000000
  70
    32
  0
VERTEX
  8
AM_0
  5
13950
 10
397.981
 20
302.239
 30
0.000000
  70
    32
  0
VERTEX
  8
AM_0
  5
13951
 10
398.133
 20
302.079
 30
0.000000
  70
    32
  0
VERTEX
  8
AM_0
  5
13952
 10
398.293
 20
301.927
 30
0.000000
  70
    32
  0
VERTEX
  8
AM_0
  5
13953
 10
398.460
 20
301.783
 30
0.000000
  70
    32
  0
VERTEX
  8
AM_0
  5
13954
 10
398.635
 20
301.647
 30
0.000000
  70
    32
  0
VERTEX
  8
AM_0
  5
13955
 10
398.815
 20
301.520
 30
0.000000
  70
    32
  0
VERTEX
  8
AM_0
  5
13956
 10
399.002
 20
301.402
 30
0.000000
  70
    32
  0
VERTEX
  8
AM_0
  5
13957
 10
399.194
 20
301.293
 30
0.000000
  70
    32
  0
VERTEX
  8
AM_0
  5
13958
 10
399.391
 20
301.193
 30
0.000000
  70
    32
  0
VERTEX
  8
AM_0
  5
13959
 10
399.593
 20
301.104
 30
0.000000
  70
    32
  0
VERTEX
  8
AM_0
  5
1395A
 10
399.799
 20
301.024
 30
0.000000
  70
    32
  0
VERTEX
  8
AM_0
  5
1395B
 10
400.009
 20
300.955
 30
0.000000
  70
    32
  0
VERTEX
  8
AM_0
  5
1395C
 10
400.222
 20
300.896
 30
0.000000
  70
    32
  0
VERTEX
  8
AM_0
  5
1395D
 10
400.437
 20
300.848
 30
0.000000
  70
    32
  0
VERTEX
  8
AM_0
  5
1395E
 10
400.655
 20
300.810
 30
0.000000
  70
    32
  0
VERTEX
  8
AM_0
  5
1395F
 10
400.874
 20
300.783
 30
0.000000
  70
    32
  0
VERTEX
  8
AM_0
  5
13960
 10
401.094
 20
300.767
 30
0.000000
  70
    32
  0
VERTEX
  8
AM_0
  5
13961
 10
401.315
 20
300.761
 30
0.000000
  70
    32
  0
VERTEX
  8
AM_0
  5
13962
 10
401.536
 20
300.767
 30
0.000000
  70
    32
  0
VERTEX
  8
AM_0
  5
13963
 10
401.756
 20
300.783
 30
0.000000
  70
    32
  0
VERTEX
  8
AM_0
  5
13964
 10
401.975
 20
300.810
 30
0.000000
  70
    32
  0
VERTEX
  8
AM_0
  5
13965
 10
402.193
 20
300.848
 30
0.000000
  70
    32
  0
VERTEX
  8
AM_0
  5
13966
 10
402.409
 20
300.896
 30
0.000000
  70
    32
  0
VERTEX
  8
AM_0
  5
13967
 10
402.621
 20
300.955
 30
0.000000
  70
    32
  0
VERTEX
  8
AM_0
  5
13968
 10
402.831
 20
301.024
 30
0.000000
  70
    32
  0
VERTEX
  8
AM_0
  5
13969
 10
403.037
 20
301.104
 30
0.000000
  70
    32
  0
VERTEX
  8
AM_0
  5
1396A
 10
403.239
 20
301.193
 30
0.000000
  70
    32
  0
VERTEX
  8
AM_0
  5
1396B
 10
403.436
 20
301.293
 30
0.000000
  70
    32
  0
VERTEX
  8
AM_0
  5
1396C
 10
403.629
 20
301.402
 30
0.000000
  70
    32
  0
VERTEX
  8
AM_0
  5
1396D
 10
403.815
 20
301.520
 30
0.000000
  70
    32
  0
VERTEX
  8
AM_0
  5
1396E
 10
403.996
 20
301.647
 30
0.000000
  70
    32
  0
VERTEX
  8
AM_0
  5
1396F
 10
404.170
 20
301.783
 30
0.000000
  70
    32
  0
VERTEX
  8
AM_0
  5
13970
 10
404.337
 20
301.927
 30
0.000000
  70
    32
  0
VERTEX
  8
AM_0
  5
13971
 10
404.497
 20
302.079
 30
0.000000
  70
    32
  0
VERTEX
  8
AM_0
  5
13972
 10
404.649
 20
302.239
 30
0.000000
  70
    32
  0
VERTEX
  8
AM_0
  5
13973
 10
404.794
 20
302.407
 30
0.000000
  70
    32
  0
VERTEX
  8
AM_0
  5
13974
 10
404.930
 20
302.581
 30
0.000000
  70
    32
  0
VERTEX
  8
AM_0
  5
13975
 10
405.057
 20
302.761
 30
0.000000
  70
    32
  0
VERTEX
  8
AM_0
  5
13976
 10
405.175
 20
302.948
 30
0.000000
  70
    32
  0
VERTEX
  8
AM_0
  5
13977
 10
405.284
 20
303.140
 30
0.000000
  70
    32
  0
VERTEX
  8
AM_0
  5
13978
 10
405.383
 20
303.337
 30
0.000000
  70
    32
  0
VERTEX
  8
AM_0
  5
13979
 10
405.473
 20
303.539
 30
0.000000
  70
    32
  0
VERTEX
  8
AM_0
  5
1397A
 10
405.552
 20
303.745
 30
0.000000
  70
    32
  0
VERTEX
  8
AM_0
  5
1397B
 10
405.621
 20
303.955
 30
0.000000
  70
    32
  0
VERTEX
  8
AM_0
  5
1397C
 10
405.680
 20
304.168
 30
0.000000
  70
    32
  0
VERTEX
  8
AM_0
  5
1397D
 10
405.729
 20
304.383
 30
0.000000
  70
    32
  0
VERTEX
  8
AM_0
  5
1397E
 10
405.766
 20
304.601
 30
0.000000
  70
    32
  0
VERTEX
  8
AM_0
  5
1397F
 10
405.794
 20
304.820
 30
0.000000
  70
    32
  0
VERTEX
  8
AM_0
  5
13980
 10
405.810
 20
305.041
 30
0.000000
  70
    32
  0
VERTEX
  8
AM_0
  5
13981
 10
405.815
 20
305.261
 30
0.000000
  70
    32
  0
SEQEND
  8
AM_0
  5
13982
  0
POLYLINE
  5
E906
  8
AM_0
 10
411.81519567818361
 20
305.76132934550623
 30
0.0
 66
     1
 70
     8
  0
VERTEX
  8
AM_0
  5
13983
 10
411.815
 20
305.761
 30
0.000000
  70
    32
  0
VERTEX
  8
AM_0
  5
13984
 10
411.814
 20
305.884
 30
0.000000
  70
    32
  0
VERTEX
  8
AM_0
  5
13985
 10
411.812
 20
306.007
 30
0.000000
  70
    32
  0
VERTEX
  8
AM_0
  5
13986
 10
411.808
 20
306.129
 30
0.000000
  70
    32
  0
VERTEX
  8
AM_0
  5
13987
 10
411.803
 20
306.252
 30
0.000000
  70
    32
  0
VERTEX
  8
AM_0
  5
13988
 10
411.796
 20
306.375
 30
0.000000
  70
    32
  0
VERTEX
  8
AM_0
  5
13989
 10
411.788
 20
306.497
 30
0.000000
  70
    32
  0
VERTEX
  8
AM_0
  5
1398A
 10
411.778
 20
306.619
 30
0.000000
  70
    32
  0
VERTEX
  8
AM_0
  5
1398B
 10
411.767
 20
306.741
 30
0.000000
  70
    32
  0
VERTEX
  8
AM_0
  5
1398C
 10
411.754
 20
306.864
 30
0.000000
  70
    32
  0
VERTEX
  8
AM_0
  5
1398D
 10
411.740
 20
306.985
 30
0.000000
  70
    32
  0
VERTEX
  8
AM_0
  5
1398E
 10
411.724
 20
307.107
 30
0.000000
  70
    32
  0
VERTEX
  8
AM_0
  5
1398F
 10
411.707
 20
307.229
 30
0.000000
  70
    32
  0
VERTEX
  8
AM_0
  5
13990
 10
411.688
 20
307.350
 30
0.000000
  70
    32
  0
VERTEX
  8
AM_0
  5
13991
 10
411.668
 20
307.471
 30
0.000000
  70
    32
  0
VERTEX
  8
AM_0
  5
13992
 10
411.646
 20
307.592
 30
0.000000
  70
    32
  0
VERTEX
  8
AM_0
  5
13993
 10
411.623
 20
307.712
 30
0.000000
  70
    32
  0
VERTEX
  8
AM_0
  5
13994
 10
411.598
 20
307.832
 30
0.000000
  70
    32
  0
VERTEX
  8
AM_0
  5
13995
 10
411.572
 20
307.952
 30
0.000000
  70
    32
  0
VERTEX
  8
AM_0
  5
13996
 10
411.545
 20
308.072
 30
0.000000
  70
    32
  0
VERTEX
  8
AM_0
  5
13997
 10
411.516
 20
308.191
 30
0.000000
  70
    32
  0
VERTEX
  8
AM_0
  5
13998
 10
411.485
 20
308.310
 30
0.000000
  70
    32
  0
VERTEX
  8
AM_0
  5
13999
 10
411.453
 20
308.428
 30
0.000000
  70
    32
  0
VERTEX
  8
AM_0
  5
1399A
 10
411.420
 20
308.546
 30
0.000000
  70
    32
  0
VERTEX
  8
AM_0
  5
1399B
 10
411.385
 20
308.664
 30
0.000000
  70
    32
  0
VERTEX
  8
AM_0
  5
1399C
 10
411.348
 20
308.781
 30
0.000000
  70
    32
  0
VERTEX
  8
AM_0
  5
1399D
 10
411.310
 20
308.898
 30
0.000000
  70
    32
  0
VERTEX
  8
AM_0
  5
1399E
 10
411.271
 20
309.014
 30
0.000000
  70
    32
  0
VERTEX
  8
AM_0
  5
1399F
 10
411.231
 20
309.130
 30
0.000000
  70
    32
  0
VERTEX
  8
AM_0
  5
139A0
 10
411.189
 20
309.245
 30
0.000000
  70
    32
  0
VERTEX
  8
AM_0
  5
139A1
 10
411.145
 20
309.360
 30
0.000000
  70
    32
  0
VERTEX
  8
AM_0
  5
139A2
 10
411.100
 20
309.474
 30
0.000000
  70
    32
  0
VERTEX
  8
AM_0
  5
139A3
 10
411.054
 20
309.588
 30
0.000000
  70
    32
  0
VERTEX
  8
AM_0
  5
139A4
 10
411.006
 20
309.701
 30
0.000000
  70
    32
  0
VERTEX
  8
AM_0
  5
139A5
 10
410.957
 20
309.814
 30
0.000000
  70
    32
  0
VERTEX
  8
AM_0
  5
139A6
 10
410.907
 20
309.926
 30
0.000000
  70
    32
  0
VERTEX
  8
AM_0
  5
139A7
 10
410.855
 20
310.037
 30
0.000000
  70
    32
  0
VERTEX
  8
AM_0
  5
139A8
 10
410.802
 20
310.147
 30
0.000000
  70
    32
  0
VERTEX
  8
AM_0
  5
139A9
 10
410.747
 20
310.257
 30
0.000000
  70
    32
  0
VERTEX
  8
AM_0
  5
139AA
 10
410.692
 20
310.367
 30
0.000000
  70
    32
  0
VERTEX
  8
AM_0
  5
139AB
 10
410.634
 20
310.475
 30
0.000000
  70
    32
  0
VERTEX
  8
AM_0
  5
139AC
 10
410.576
 20
310.583
 30
0.000000
  70
    32
  0
VERTEX
  8
AM_0
  5
139AD
 10
410.516
 20
310.690
 30
0.000000
  70
    32
  0
VERTEX
  8
AM_0
  5
139AE
 10
410.455
 20
310.797
 30
0.000000
  70
    32
  0
VERTEX
  8
AM_0
  5
139AF
 10
410.392
 20
310.902
 30
0.000000
  70
    32
  0
VERTEX
  8
AM_0
  5
139B0
 10
410.329
 20
311.007
 30
0.000000
  70
    32
  0
VERTEX
  8
AM_0
  5
139B1
 10
410.264
 20
311.111
 30
0.000000
  70
    32
  0
VERTEX
  8
AM_0
  5
139B2
 10
410.197
 20
311.215
 30
0.000000
  70
    32
  0
VERTEX
  8
AM_0
  5
139B3
 10
410.130
 20
311.317
 30
0.000000
  70
    32
  0
VERTEX
  8
AM_0
  5
139B4
 10
410.061
 20
311.419
 30
0.000000
  70
    32
  0
VERTEX
  8
AM_0
  5
139B5
 10
409.991
 20
311.519
 30
0.000000
  70
    32
  0
VERTEX
  8
AM_0
  5
139B6
 10
409.920
 20
311.619
 30
0.000000
  70
    32
  0
VERTEX
  8
AM_0
  5
139B7
 10
409.847
 20
311.718
 30
0.000000
  70
    32
  0
VERTEX
  8
AM_0
  5
139B8
 10
409.774
 20
311.816
 30
0.000000
  70
    32
  0
VERTEX
  8
AM_0
  5
139B9
 10
409.699
 20
311.914
 30
0.000000
  70
    32
  0
VERTEX
  8
AM_0
  5
139BA
 10
409.623
 20
312.010
 30
0.000000
  70
    32
  0
VERTEX
  8
AM_0
  5
139BB
 10
409.545
 20
312.105
 30
0.000000
  70
    32
  0
VERTEX
  8
AM_0
  5
139BC
 10
409.467
 20
312.200
 30
0.000000
  70
    32
  0
VERTEX
  8
AM_0
  5
139BD
 10
409.387
 20
312.293
 30
0.000000
  70
    32
  0
VERTEX
  8
AM_0
  5
139BE
 10
409.307
 20
312.385
 30
0.000000
  70
    32
  0
VERTEX
  8
AM_0
  5
139BF
 10
409.225
 20
312.477
 30
0.000000
  70
    32
  0
VERTEX
  8
AM_0
  5
139C0
 10
409.142
 20
312.567
 30
0.000000
  70
    32
  0
VERTEX
  8
AM_0
  5
139C1
 10
409.058
 20
312.657
 30
0.000000
  70
    32
  0
VERTEX
  8
AM_0
  5
139C2
 10
408.973
 20
312.745
 30
0.000000
  70
    32
  0
VERTEX
  8
AM_0
  5
139C3
 10
408.886
 20
312.832
 30
0.000000
  70
    32
  0
VERTEX
  8
AM_0
  5
139C4
 10
408.799
 20
312.919
 30
0.000000
  70
    32
  0
VERTEX
  8
AM_0
  5
139C5
 10
408.711
 20
313.004
 30
0.000000
  70
    32
  0
VERTEX
  8
AM_0
  5
139C6
 10
408.621
 20
313.088
 30
0.000000
  70
    32
  0
VERTEX
  8
AM_0
  5
139C7
 10
408.531
 20
313.171
 30
0.000000
  70
    32
  0
VERTEX
  8
AM_0
  5
139C8
 10
408.439
 20
313.253
 30
0.000000
  70
    32
  0
VERTEX
  8
AM_0
  5
139C9
 10
408.347
 20
313.333
 30
0.000000
  70
    32
  0
VERTEX
  8
AM_0
  5
139CA
 10
408.254
 20
313.413
 30
0.000000
  70
    32
  0
VERTEX
  8
AM_0
  5
139CB
 10
408.159
 20
313.491
 30
0.000000
  70
    32
  0
VERTEX
  8
AM_0
  5
139CC
 10
408.064
 20
313.569
 30
0.000000
  70
    32
  0
VERTEX
  8
AM_0
  5
139CD
 10
407.968
 20
313.645
 30
0.000000
  70
    32
  0
VERTEX
  8
AM_0
  5
139CE
 10
407.870
 20
313.720
 30
0.000000
  70
    32
  0
VERTEX
  8
AM_0
  5
139CF
 10
407.772
 20
313.793
 30
0.000000
  70
    32
  0
VERTEX
  8
AM_0
  5
139D0
 10
407.673
 20
313.866
 30
0.000000
  70
    32
  0
VERTEX
  8
AM_0
  5
139D1
 10
407.573
 20
313.937
 30
0.000000
  70
    32
  0
VERTEX
  8
AM_0
  5
139D2
 10
407.473
 20
314.007
 30
0.000000
  70
    32
  0
VERTEX
  8
AM_0
  5
139D3
 10
407.371
 20
314.076
 30
0.000000
  70
    32
  0
VERTEX
  8
AM_0
  5
139D4
 10
407.268
 20
314.143
 30
0.000000
  70
    32
  0
VERTEX
  8
AM_0
  5
139D5
 10
407.165
 20
314.210
 30
0.000000
  70
    32
  0
VERTEX
  8
AM_0
  5
139D6
 10
407.061
 20
314.275
 30
0.000000
  70
    32
  0
VERTEX
  8
AM_0
  5
139D7
 10
406.956
 20
314.339
 30
0.000000
  70
    32
  0
VERTEX
  8
AM_0
  5
139D8
 10
406.851
 20
314.401
 30
0.000000
  70
    32
  0
VERTEX
  8
AM_0
  5
139D9
 10
406.744
 20
314.462
 30
0.000000
  70
    32
  0
VERTEX
  8
AM_0
  5
139DA
 10
406.637
 20
314.522
 30
0.000000
  70
    32
  0
VERTEX
  8
AM_0
  5
139DB
 10
406.529
 20
314.580
 30
0.000000
  70
    32
  0
VERTEX
  8
AM_0
  5
139DC
 10
406.421
 20
314.638
 30
0.000000
  70
    32
  0
VERTEX
  8
AM_0
  5
139DD
 10
406.311
 20
314.693
 30
0.000000
  70
    32
  0
VERTEX
  8
AM_0
  5
139DE
 10
406.201
 20
314.748
 30
0.000000
  70
    32
  0
VERTEX
  8
AM_0
  5
139DF
 10
406.091
 20
314.801
 30
0.000000
  70
    32
  0
VERTEX
  8
AM_0
  5
139E0
 10
405.979
 20
314.853
 30
0.000000
  70
    32
  0
VERTEX
  8
AM_0
  5
139E1
 10
405.868
 20
314.903
 30
0.000000
  70
    32
  0
VERTEX
  8
AM_0
  5
139E2
 10
405.755
 20
314.952
 30
0.000000
  70
    32
  0
VERTEX
  8
AM_0
  5
139E3
 10
405.642
 20
315.000
 30
0.000000
  70
    32
  0
VERTEX
  8
AM_0
  5
139E4
 10
405.528
 20
315.046
 30
0.000000
  70
    32
  0
VERTEX
  8
AM_0
  5
139E5
 10
405.414
 20
315.091
 30
0.000000
  70
    32
  0
VERTEX
  8
AM_0
  5
139E6
 10
405.299
 20
315.135
 30
0.000000
  70
    32
  0
VERTEX
  8
AM_0
  5
139E7
 10
405.184
 20
315.177
 30
0.000000
  70
    32
  0
VERTEX
  8
AM_0
  5
139E8
 10
405.068
 20
315.217
 30
0.000000
  70
    32
  0
VERTEX
  8
AM_0
  5
139E9
 10
404.952
 20
315.257
 30
0.000000
  70
    32
  0
VERTEX
  8
AM_0
  5
139EA
 10
404.835
 20
315.294
 30
0.000000
  70
    32
  0
VERTEX
  8
AM_0
  5
139EB
 10
404.718
 20
315.331
 30
0.000000
  70
    32
  0
VERTEX
  8
AM_0
  5
139EC
 10
404.600
 20
315.366
 30
0.000000
  70
    32
  0
VERTEX
  8
AM_0
  5
139ED
 10
404.482
 20
315.399
 30
0.000000
  70
    32
  0
VERTEX
  8
AM_0
  5
139EE
 10
404.364
 20
315.431
 30
0.000000
  70
    32
  0
VERTEX
  8
AM_0
  5
139EF
 10
404.245
 20
315.462
 30
0.000000
  70
    32
  0
VERTEX
  8
AM_0
  5
139F0
 10
404.126
 20
315.491
 30
0.000000
  70
    32
  0
VERTEX
  8
AM_0
  5
139F1
 10
404.006
 20
315.518
 30
0.000000
  70
    32
  0
VERTEX
  8
AM_0
  5
139F2
 10
403.886
 20
315.544
 30
0.000000
  70
    32
  0
VERTEX
  8
AM_0
  5
139F3
 10
403.766
 20
315.569
 30
0.000000
  70
    32
  0
VERTEX
  8
AM_0
  5
139F4
 10
403.646
 20
315.592
 30
0.000000
  70
    32
  0
VERTEX
  8
AM_0
  5
139F5
 10
403.525
 20
315.614
 30
0.000000
  70
    32
  0
VERTEX
  8
AM_0
  5
139F6
 10
403.404
 20
315.634
 30
0.000000
  70
    32
  0
VERTEX
  8
AM_0
  5
139F7
 10
403.282
 20
315.653
 30
0.000000
  70
    32
  0
VERTEX
  8
AM_0
  5
139F8
 10
403.161
 20
315.670
 30
0.000000
  70
    32
  0
VERTEX
  8
AM_0
  5
139F9
 10
403.039
 20
315.686
 30
0.000000
  70
    32
  0
VERTEX
  8
AM_0
  5
139FA
 10
402.917
 20
315.700
 30
0.000000
  70
    32
  0
VERTEX
  8
AM_0
  5
139FB
 10
402.795
 20
315.713
 30
0.000000
  70
    32
  0
VERTEX
  8
AM_0
  5
139FC
 10
402.673
 20
315.724
 30
0.000000
  70
    32
  0
VERTEX
  8
AM_0
  5
139FD
 10
402.551
 20
315.734
 30
0.000000
  70
    32
  0
VERTEX
  8
AM_0
  5
139FE
 10
402.428
 20
315.742
 30
0.000000
  70
    32
  0
VERTEX
  8
AM_0
  5
139FF
 10
402.306
 20
315.749
 30
0.000000
  70
    32
  0
VERTEX
  8
AM_0
  5
13A00
 10
402.183
 20
315.754
 30
0.000000
  70
    32
  0
VERTEX
  8
AM_0
  5
13A01
 10
402.061
 20
315.758
 30
0.000000
  70
    32
  0
VERTEX
  8
AM_0
  5
13A02
 10
401.938
 20
315.760
 30
0.000000
  70
    32
  0
VERTEX
  8
AM_0
  5
13A03
 10
401.815
 20
315.761
 30
0.000000
  70
    32
  0
SEQEND
  8
AM_0
  5
13A04
  0
LINE
  5
E908
  8
AM_0
 10
405.81517870576158
 20
289.05939713030722
 30
0.0
 11
405.81517870576158
 21
222.46426239519991
 31
0.0
  0
ARC
  5
E90A
  8
AM_0
 10
400.81517870576158
 20
289.05939713030722
 30
0.0
 40
5.0000000000000044
 50
0.0000025044687019
 51
80.093184448073799
  0
LINE
  5
E90B
  8
ﾁｭｳｼﾝｾﾝ1
 10
393.81519514174198
 20
305.26133433060511
 30
0.0
 11
408.8151955887767
 21
305.26133433060511
 31
0.0
  0
ARC
  5
E90E
  8
AM_0
 10
394.81517870576158
 20
313.76182785540487
 30
0.0
 40
2.0000000000000062
 50
90.000005008956919
 51
180.000000683243
  0
LINE
  5
E911
  8
AM_0
 10
579.02222218843224
 20
223.23258049933881
 30
0.0
 11
584.90818652538121
 21
223.0270380954916
 31
0.0
  0
LINE
  5
E912
  8
AM_0
 10
579.01274003605874
 20
225.30026990931179
 30
0.0
 11
584.23149920198455
 21
225.48251299517781
 31
0.0
  0
ARC
  5
E91A
  8
AM_0
 10
579.05712168513492
 20
224.23197132635801
 30
0.0
 40
1.0
 50
187.8531780887993
 51
268.0000000000029
1001
GENIUS_GENODEF_13
1002
{
1000
HIER
1070
     0
1002
}
1002
{
1000
MANEDIT
1070
     0
1002
}
1002
{
1000
NOSEL
1070
     0
1002
}
1002
{
1000
BEHIND
1070
     0
1002
}
1002
{
1000
REACTOR
1002
}
1001
GENIUS_GENOBJ-N-FIL_13
1002
{
1000
OWNER
1000
GEN
1002
}
  0
ARC
  5
E91B
  8
AM_0
 10
688.02548137140457
 20
239.2618278554051
 30
0.0
 40
111.0
 50
187.81694783169499
 51
187.85317808880569
  0
ARC
  5
E91C
  8
AM_0
 10
579.04763953276142
 20
224.3008790822926
 30
0.0
 40
1.0
 50
91.999999999997087
 51
187.81694783168749
1001
GENIUS_GENODEF_13
1002
{
1000
HIER
1070
     0
1002
}
1002
{
1000
MANEDIT
1070
     0
1002
}
1002
{
1000
NOSEL
1070
     0
1002
}
1002
{
1000
BEHIND
1070
     0
1002
}
1002
{
1000
REACTOR
1002
}
1001
GENIUS_GENOBJ-N-FIL_13
1002
{
1000
OWNER
1000
GEN
1002
}
  0
ARC
  5
E91D
  8
AM_0
 10
578.13755756352998
 20
234.2975352376418
 30
0.0
 40
1.0
 50
92.000000000003581
 51
182.58663322877331
1001
GENIUS_GENODEF_13
1002
{
1000
HIER
1070
     0
1002
}
1002
{
1000
MANEDIT
1070
     0
1002
}
1002
{
1000
NOSEL
1070
     0
1002
}
1002
{
1000
BEHIND
1070
     0
1002
}
1002
{
1000
REACTOR
1002
}
1001
GENIUS_GENOBJ-N-FIL_13
1002
{
1000
OWNER
1000
GEN
1002
}
  0
ARC
  5
E91E
  8
AM_0
 10
578.14066774199034
 20
234.22916120352559
 30
0.0
 40
1.0
 50
182.62228408795301
 51
268.0000000000029
1001
GENIUS_GENODEF_13
1002
{
1000
HIER
1070
     0
1002
}
1002
{
1000
MANEDIT
1070
     0
1002
}
1002
{
1000
NOSEL
1070
     0
1002
}
1002
{
1000
BEHIND
1070
     0
1002
}
1002
{
1000
REACTOR
1002
}
1001
GENIUS_GENOBJ-N-FIL_13
1002
{
1000
OWNER
1000
GEN
1002
}
  0
ARC
  5
E91F
  8
AM_0
 10
688.02548137140457
 20
239.2618278554051
 30
0.0
 40
111.0
 50
182.58663322877331
 51
182.62228408795301
  0
LINE
  5
E921
  8
AM_0
 10
578.10265806682742
 20
235.29692606466091
 30
0.0
 11
582.65381669460123
 21
235.45585602602151
 31
0.0
  0
LINE
  5
E922
  8
AM_0
 10
578.10576824528766
 20
233.22977037650659
 30
0.0
 11
582.86650165029357
 21
233.06352190265869
 31
0.0
  0
LINE
  5
E92E
  8
AM_0
 10
586.02547979188125
 20
235.76182725935871
 30
0.0
 11
586.02547979188125
 21
275.76182845145149
 31
0.0
  0
LINE
  5
E92F
  8
AM_0
 10
590.02547991109066
 20
235.76182725935871
 30
0.0
 11
586.02547979188125
 21
235.76182725935871
 31
0.0
  0
LINE
  5
E933
  8
AM_0
 10
590.02547991109066
 20
275.76182845145149
 30
0.0
 11
586.02547979188125
 21
275.76182845145149
 31
0.0
  0
LINE
  5
E934
  8
AM_0
 10
594.02548003030017
 20
293.26182897299202
 30
0.0
 11
590.02547991109066
 21
293.26182897299202
 31
0.0
  0
LINE
  5
EBDC
  8
AM_0
 10
594.02548003030017
 20
315.41270854303173
 30
0.0
 11
614.02548041773025
 21
315.76182964354439
 31
0.0
  0
LINE
  5
EBE9
  8
AM_0
 10
692.02548295092754
 20
235.76182725935871
 30
0.0
 11
692.02548295092754
 21
275.76182845145149
 31
0.0
  0
ARC
  5
EBEB
  8
AM_0
 10
698.9938410576741
 20
224.23197132635809
 30
0.0
 40
1.0
 50
271.9999999999971
 51
352.14682191120068
1001
GENIUS_GENODEF_13
1002
{
1000
HIER
1070
     0
1002
}
1002
{
1000
MANEDIT
1070
     0
1002
}
1002
{
1000
NOSEL
1070
     0
1002
}
1002
{
1000
BEHIND
1070
     0
1002
}
1002
{
1000
REACTOR
1002
}
1001
GENIUS_GENOBJ-N-FIL_13
1002
{
1000
OWNER
1000
GEN
1002
}
  0
LINE
  5
EBEC
  8
AM_0
 10
699.94519449752124
 20
233.22977037650659
 30
0.0
 11
695.18446109251545
 21
233.06352190265869
 31
0.0
  0
LINE
  5
EBED
  8
AM_0
 10
699.94830467598172
 20
235.29692606466091
 30
0.0
 11
695.39714604820756
 21
235.45585602602151
 31
0.0
  0
ARC
  5
EBEF
  8
AM_0
 10
699.00332321004771
 20
224.30087908229271
 30
0.0
 40
1.0
 50
352.18305216831237
 51
87.999999999996405
1001
GENIUS_GENODEF_13
1002
{
1000
HIER
1070
     0
1002
}
1002
{
1000
MANEDIT
1070
     0
1002
}
1002
{
1000
NOSEL
1070
     0
1002
}
1002
{
1000
BEHIND
1070
     0
1002
}
1002
{
1000
REACTOR
1002
}
1001
GENIUS_GENOBJ-N-FIL_13
1002
{
1000
OWNER
1000
GEN
1002
}
  0
LINE
  5
EBF0
  8
AM_0
 10
699.02874055437655
 20
223.23258049933881
 30
0.0
 11
693.14277621742781
 21
223.0270380954916
 31
0.0
  0
LINE
  5
EBF1
  8
AM_0
 10
699.03822270675016
 20
225.30026990931179
 30
0.0
 11
693.81946354082436
 21
225.48251299517781
 31
0.0
  0
LINE
  5
EBF2
  8
AM_0
 10
688.02548283171825
 20
235.76182725935871
 30
0.0
 11
692.02548295092754
 21
235.76182725935871
 31
0.0
  0
ARC
  5
EBF3
  8
AM_0
 10
590.02548137140445
 20
239.2618278554051
 30
0.0
 40
111.0
 50
352.14682191119408
 51
352.18305216831237
  0
ARC
  5
EBF4
  8
AM_0
 10
699.91340517927893
 20
234.29753523764191
 30
0.0
 40
1.0
 50
357.41336677122672
 51
87.999999999996405
1001
GENIUS_GENODEF_13
1002
{
1000
HIER
1070
     0
1002
}
1002
{
1000
MANEDIT
1070
     0
1002
}
1002
{
1000
NOSEL
1070
     0
1002
}
1002
{
1000
BEHIND
1070
     0
1002
}
1002
{
1000
REACTOR
1002
}
1001
GENIUS_GENOBJ-N-FIL_13
1002
{
1000
OWNER
1000
GEN
1002
}
  0
ARC
  5
EBF5
  8
AM_0
 10
590.02548137140445
 20
239.2618278554051
 30
0.0
 40
111.0
 50
357.37771591204699
 51
357.41336677122672
  0
ARC
  5
EBF6
  8
AM_0
 10
699.91029500081856
 20
234.22916120352571
 30
0.0
 40
1.0
 50
272.00000000000358
 51
357.37771591204699
1001
GENIUS_GENODEF_13
1002
{
1000
HIER
1070
     0
1002
}
1002
{
1000
MANEDIT
1070
     0
1002
}
1002
{
1000
NOSEL
1070
     0
1002
}
1002
{
1000
BEHIND
1070
     0
1002
}
1002
{
1000
REACTOR
1002
}
1001
GENIUS_GENOBJ-N-FIL_13
1002
{
1000
OWNER
1000
GEN
1002
}
  0
LINE
  5
EC04
  8
AM_0
 10
688.02548283171825
 20
275.76182845145149
 30
0.0
 11
692.02548295092754
 21
275.76182845145149
 31
0.0
  0
LINE
  5
EC0A
  8
AM_0
 10
684.02548271250896
 20
293.26182897299202
 30
0.0
 11
688.02548283171825
 21
293.26182897299202
 31
0.0
  0
LINE
  5
117A3
  8
AM_0
 10
667.52548137140468
 20
328.76182812126342
 30
0.0
 11
610.52548137140457
 21
328.76182812126382
 31
0.0
  0
LINE
  5
117AA
  8
AM_0
 10
621.72168137140466
 20
331.76182812126382
 30
0.0
 11
656.32938137140468
 21
331.7618281212637
 31
0.0
  0
LINE
  5
117AB
  8
AM_0
 10
669.02548137140491
 20
314.80181201389593
 30
0.0
 11
669.02548137140457
 21
327.26182812126342
 31
0.0
  0
LINE
  5
117AC
  8
AM_0
 10
656.32938137140468
 20
331.7618281212637
 30
0.0
 11
661.52548137140457
 21
328.76182812126359
 31
0.0
  0
ARC
  5
117AD
  8
AM_0
 10
667.52548137140468
 20
327.26182812126348
 30
0.0
 40
1.5
 50
0.0
 51
90.0
  0
LINE
  5
117C4
  8
AM_0
 10
672.02548137140457
 20
323.76182812126331
 30
0.0
 11
672.02548137140457
 21
314.74944741682299
 31
0.0
  0
LINE
  5
117C5
  8
AM_0
 10
670.52548137140468
 20
324.76182812126342
 30
0.0
 11
670.52548137140468
 21
314.7756297153594
 31
0.0
  0
LINE
  5
117C6
  8
AM_0
 10
669.02548137140457
 20
324.76182812126342
 30
0.0
 11
670.52548137140468
 21
324.76182812126342
 31
0.0
  0
LINE
  5
117C7
  8
AM_0
 10
670.52548137140468
 20
323.76182812126331
 30
0.0
 11
672.02548137140457
 21
323.76182812126331
 31
0.0
  0
LINE
  5
117C9
  8
AM_0
 10
609.02548137140468
 20
315.67455166252341
 30
0.0
 11
609.02548137140468
 21
327.26182812126382
 31
0.0
  0
LINE
  5
117CA
  8
AM_0
 10
616.52261595084553
 20
328.76182812126382
 30
0.0
 11
621.72168137140466
 21
331.76182812126382
 31
0.0
  0
ARC
  5
117CB
  8
AM_0
 10
610.52548137140445
 20
327.2618281212637
 30
0.0
 40
1.5
 50
90.0
 51
180.0
  0
LINE
  5
117CC
  8
AM_0
 10
607.52548137140445
 20
323.7618281212637
 30
0.0
 11
606.02548137140445
 21
323.7618281212637
 31
0.0
  0
LINE
  5
117CE
  8
AM_0
 10
607.52548137140457
 20
324.76182812126382
 30
0.0
 11
609.02548137140468
 21
324.76182812126382
 31
0.0
  0
LINE
  5
117CF
  8
AM_0
 10
607.52548137140457
 20
315.64836872490139
 30
0.0
 11
607.52548137140457
 21
324.76182812126382
 31
0.0
  0
LINE
  5
117D0
  8
AM_0
 10
606.02548137140445
 20
323.7618281212637
 30
0.0
 11
606.02548137140445
 21
315.62218578727931
 31
0.0
  0
LINE
  5
11E94
  8
AM_0
 10
209.81519108862659
 20
266.76182736366673
 30
0.0
 11
209.81519108862659
 21
271.76182736366661
 31
0.0
  0
LINE
  5
11E95
  8
AM_0
 10
210.29523108862659
 20
266.76182736366673
 30
0.0
 11
210.29523108862659
 21
271.62181736366671
 31
0.0
  0
LINE
  5
11E96
  8
AM_0
 10
194.81519108862659
 20
266.76182736366673
 30
0.0
 11
194.81519108862659
 21
271.76182736366661
 31
0.0
  0
LINE
  5
11E97
  8
AM_0
 10
194.33521108862661
 20
266.76182736366673
 30
0.0
 11
194.33521108862661
 21
271.62181736366671
 31
0.0
  0
POLYLINE
  5
11E98
  8
AM_0
 66
     1
 10
0.0
 20
0.0
 30
0.0
  0
VERTEX
  5
11E99
  8
AM_0
 10
128.17609108862669
 20
265.74486736366657
 30
0.0
 42
-0.0006890001
  0
VERTEX
  5
11E9A
  8
AM_0
 10
128.24697108862651
 20
266.31961736366662
 30
0.0
 42
-0.00070644651
  0
VERTEX
  5
11E9B
  8
AM_0
 10
128.3194710886267
 20
266.89429736366668
 30
0.0
 42
-0.0006924559
  0
VERTEX
  5
11E9C
  8
AM_0
 10
128.3935610886266
 20
267.46861736366662
 30
0.0
 42
-0.00069587797
  0
VERTEX
  5
11E9D
  8
AM_0
 10
128.46924108862669
 20
268.04275736366668
 30
0.0
 42
-0.00071687041
  0
VERTEX
  5
11E9E
  8
AM_0
 10
128.54655108862639
 20
268.61675736366681
 30
0.0
 42
-0.00069759113
  0
VERTEX
  5
11E9F
  8
AM_0
 10
128.62549108862669
 20
269.19054736366661
 30
0.0
 42
-0.00071003142
  0
VERTEX
  5
11EA0
  8
AM_0
 10
128.7060310886267
 20
269.76401736366671
 30
0.0
 42
-0.00069954544
  0
VERTEX
  5
11EA1
  8
AM_0
 10
128.7881710886266
 20
270.33711736366672
 30
0.0
 42
-0.0007188852
  0
VERTEX
  5
11EA2
  8
AM_0
 10
128.87195108862659
 20
270.91014736366668
 30
0.0
 42
-0.00071266165
  0
VERTEX
  5
11EA3
  8
AM_0
 10
128.9573810886267
 20
271.4829073636667
 30
0.0
 42
-0.00071614577
  0
VERTEX
  5
11EA4
  8
AM_0
 10
129.04441108862659
 20
272.05525736366673
 30
0.0
 42
-0.00072290806
  0
VERTEX
  5
11EA5
  8
AM_0
 10
129.13312108862661
 20
272.6275573636666
 30
0.0
  0
SEQEND
  5
11EA6
  8
AM_0
  0
LINE
  5
11EA7
  8
AM_0
 10
110.31519108862661
 20
287.28184736366671
 30
0.0
 11
110.31519108862661
 21
244.2618273636667
 31
0.0
  0
LINE
  5
11EA8
  8
AM_0
 10
115.31519108862661
 20
189.26182736366661
 30
0.0
 11
115.31519108862661
 21
289.26182736366673
 31
0.0
  0
LINE
  5
11EA9
  8
AM_0
 10
116.31519108862661
 20
186.26182736366661
 30
0.0
 11
116.31519108862661
 21
292.26182736366673
 31
0.0
  0
LINE
  5
11EAA
  8
AM_0
 10
232.3151910886267
 20
183.26182736366661
 30
0.0
 11
232.3151910886267
 21
295.26182736366673
 31
0.0
  0
LINE
  5
11EAB
  8
AM_0
 10
124.31519108862661
 20
186.26182736366661
 30
0.0
 11
124.31519108862661
 21
292.26182736366673
 31
0.0
  0
ARC
  5
11EAD
  8
AM_0
 10
127.5139210886267
 20
184.97594736366659
 30
0.0
 40
1.994108999999999
 50
190.81223000000091
 51
270.32445199999722
  0
ARC
  5
11EAE
  8
AM_0
 10
127.5654410886267
 20
182.12706736366661
 30
0.0
 40
1.9952829999999999
 50
189.09164999999931
 51
269.99379600000321
  0
ARC
  5
11EAF
  8
AM_0
 10
127.5797810886266
 20
180.27855736366669
 30
0.0
 40
1.9967330000000001
 50
188.54611999999599
 51
270.15603300000112
  0
ARC
  5
11EB0
  8
AM_0
 10
127.60169108862659
 20
179.36742736366671
 30
0.0
 40
1.995633
 50
187.93887000000049
 51
270.10029200000417
  0
ARC
  5
11EB1
  8
AM_0
 10
125.9878010886267
 20
204.2167873636667
 30
0.0
 40
1.6750160000000001
 50
89.746129999999027
 51
270.2538549999955
  0
ARC
  5
11EB2
  8
AM_0
 10
126.8598110886268
 20
204.26182736366661
 30
0.0
 40
1.0000138999999999
 50
89.69165999999926
 51
270.30834000000073
  0
ARC
  5
11EB3
  8
AM_0
 10
126.8598110886268
 20
214.26182736366661
 30
0.0
 40
1.0000138999999999
 50
89.69165999999926
 51
270.30834000000073
  0
ARC
  5
11EB4
  8
AM_0
 10
126.8598110886268
 20
224.26182736366661
 30
0.0
 40
1.0000138999999999
 50
89.69165999999926
 51
270.30834000000073
  0
ARC
  5
11EB5
  8
AM_0
 10
126.8598110886268
 20
234.26182736366661
 30
0.0
 40
1.0000138999999999
 50
89.69165999999926
 51
270.30834000000073
  0
LINE
  5
11EB6
  8
AM_0
 10
129.67524108862659
 20
202.61180736366671
 30
0.0
 11
124.3152510886265
 21
191.16182736366659
 31
0.0
  0
LINE
  5
11EB8
  8
AM_0
 10
125.77521108862661
 20
215.70177736366659
 30
0.0
 11
229.3494310886266
 21
215.70177736366659
 31
0.0
  0
LINE
  5
11EB9
  8
AM_0
 10
125.99518108862669
 20
202.54185736366659
 30
0.0
 11
229.1352010886265
 21
202.54185736366659
 31
0.0
  0
LINE
  5
11EBA
  8
AM_0
 10
225.64802108862651
 20
215.2618273636667
 30
0.0
 11
126.6751810886265
 21
215.2618273636667
 31
0.0
  0
LINE
  5
11EBB
  8
AM_0
 10
225.65522108862649
 20
205.26182736366661
 30
0.0
 11
126.6751810886265
 21
205.26182736366661
 31
0.0
  0
LINE
  5
11EBC
  8
AM_0
 10
225.65522108862649
 20
203.26182736366661
 30
0.0
 11
126.6751810886265
 21
203.26182736366661
 31
0.0
  0
LINE
  5
11EBD
  8
AM_0
 10
125.77521108862661
 20
212.77183736366661
 30
0.0
 11
193.31519108862659
 21
212.77183736366661
 31
0.0
  0
LINE
  5
11EBE
  8
AM_0
 10
125.99518108862669
 20
205.89183736366661
 30
0.0
 11
193.33521108862661
 21
205.89183736366661
 31
0.0
  0
LINE
  5
11EBF
  8
AM_0
 10
193.31519108862659
 20
213.2618273636667
 30
0.0
 11
126.6751810886265
 21
213.2618273636667
 31
0.0
  0
LINE
  5
11EC0
  8
AM_0
 10
125.58521108862659
 20
235.52183736366661
 30
0.0
 11
162.0338810886268
 21
235.52183736366661
 31
0.0
  0
LINE
  5
11EC1
  8
AM_0
 10
125.58521108862659
 20
232.99180736366671
 30
0.0
 11
162.0338810886268
 21
232.99180736366671
 31
0.0
  0
LINE
  5
11EC2
  8
AM_0
 10
160.75391108862669
 20
235.26182736366661
 30
0.0
 11
126.6751810886265
 21
235.26182736366661
 31
0.0
  0
LINE
  5
11EC3
  8
AM_0
 10
160.75391108862669
 20
233.26182736366661
 30
0.0
 11
126.6751810886265
 21
233.26182736366661
 31
0.0
  0
LINE
  5
11EC4
  8
AM_0
 10
125.6452110886265
 20
225.58177736366659
 30
0.0
 11
161.9738810886266
 21
225.58177736366659
 31
0.0
  0
LINE
  5
11EC5
  8
AM_0
 10
160.75391108862669
 20
225.2618273636667
 30
0.0
 11
126.6751810886265
 21
225.2618273636667
 31
0.0
  0
LINE
  5
11EC6
  8
AM_0
 10
125.6452110886265
 20
222.92186736366659
 30
0.0
 11
161.9738810886266
 21
222.92186736366659
 31
0.0
  0
LINE
  5
11EC7
  8
AM_0
 10
160.75391108862669
 20
223.2618273636667
 30
0.0
 11
126.6751810886265
 21
223.2618273636667
 31
0.0
  0
ARC
  5
11EC8
  8
AM_0
 10
126.8598110886268
 20
244.2618273636667
 30
0.0
 40
1.0000138999999999
 50
89.69165999999926
 51
270.30834000000073
  0
ARC
  5
11EC9
  8
AM_0
 10
126.8598110886268
 20
254.2618273636667
 30
0.0
 40
1.0000138999999999
 50
89.69165999999926
 51
270.30834000000073
  0
ARC
  5
11ECA
  8
AM_0
 10
126.8598110886268
 20
264.26182736366673
 30
0.0
 40
1.0000138999999999
 50
89.69165999999926
 51
270.30834000000073
  0
LINE
  5
11ECB
  8
AM_0
 10
125.77521108862661
 20
262.82188736366669
 30
0.0
 11
229.3494310886266
 21
262.82188736366669
 31
0.0
  0
LINE
  5
11ECC
  8
AM_0
 10
225.64802108862651
 20
263.26182736366673
 30
0.0
 11
126.6751810886265
 21
263.26182736366673
 31
0.0
  0
LINE
  5
11ECD
  8
AM_0
 10
125.77521108862661
 20
265.7518173636667
 30
0.0
 11
193.31519108862659
 21
265.7518173636667
 31
0.0
  0
LINE
  5
11ECE
  8
AM_0
 10
193.31519108862659
 20
265.26182736366673
 30
0.0
 11
126.6751810886265
 21
265.26182736366673
 31
0.0
  0
LINE
  5
11ECF
  8
AM_0
 10
160.75391108862669
 20
243.26182736366661
 30
0.0
 11
126.6751810886265
 21
243.26182736366661
 31
0.0
  0
LINE
  5
11ED0
  8
AM_0
 10
125.58521108862659
 20
242.99180736366671
 30
0.0
 11
162.0338810886268
 21
242.99180736366671
 31
0.0
  0
LINE
  5
11ED1
  8
AM_0
 10
125.6452110886265
 20
255.60179736366669
 30
0.0
 11
161.98646108862641
 21
255.60179736366669
 31
0.0
  0
LINE
  5
11ED2
  8
AM_0
 10
160.75391108862669
 20
255.2618273636667
 30
0.0
 11
126.6751810886265
 21
255.2618273636667
 31
0.0
  0
LINE
  5
11ED3
  8
AM_0
 10
160.75391108862669
 20
253.2618273636667
 30
0.0
 11
126.6751810886265
 21
253.2618273636667
 31
0.0
  0
LINE
  5
11ED4
  8
AM_0
 10
125.6452110886265
 20
252.94188736366669
 30
0.0
 11
161.9738810886266
 21
252.94188736366669
 31
0.0
  0
LINE
  5
11ED5
  8
AM_0
 10
125.58521108862659
 20
245.53184736366671
 30
0.0
 11
162.0338810886268
 21
245.53184736366671
 31
0.0
  0
LINE
  5
11ED6
  8
AM_0
 10
160.75391108862669
 20
245.26182736366661
 30
0.0
 11
126.6751810886265
 21
245.26182736366661
 31
0.0
  0
LINE
  5
11ED7
  8
AM_0
 10
124.31519108862661
 20
188.47182736366659
 30
0.0
 11
125.62519108862659
 21
179.09178736366661
 31
0.0
  0
LINE
  5
11ED8
  8
AM_0
 10
124.3152510886265
 20
189.8217973636666
 30
0.0
 11
125.5952210886265
 21
181.8118473636666
 31
0.0
  0
LINE
  5
11ED9
  8
AM_0
 10
124.3152510886265
 20
188.47185736366669
 30
0.0
 11
125.6052310886265
 21
179.98176736366659
 31
0.0
  0
POLYLINE
  5
11EDA
  8
AM_0
 66
     1
 10
0.0
 20
0.0
 30
0.0
  0
VERTEX
  5
11EDB
  8
AM_0
 10
126.7192410886267
 20
232.99144736366671
 30
0.0
 42
0.00076691987
  0
VERTEX
  5
11EDC
  8
AM_0
 10
126.7340410886266
 20
232.37368736366659
 30
0.0
 42
0.00073262795
  0
VERTEX
  5
11EDD
  8
AM_0
 10
126.75068108862649
 20
231.75608736366669
 30
0.0
 42
0.0007652954
  0
VERTEX
  5
11EDE
  8
AM_0
 10
126.76917108862639
 20
231.1384173636666
 30
0.0
 42
0.00077334627
  0
VERTEX
  5
11EDF
  8
AM_0
 10
126.78958108862651
 20
230.52081736366671
 30
0.0
 42
0.00073282897
  0
VERTEX
  5
11EE0
  8
AM_0
 10
126.81184108862669
 20
229.90339736366661
 30
0.0
 42
0.0007571179
  0
VERTEX
  5
11EE1
  8
AM_0
 10
126.8359410886265
 20
229.2858773636666
 30
0.0
 42
0.00073783152
  0
VERTEX
  5
11EE2
  8
AM_0
 10
126.8618810886267
 20
228.6684873636666
 30
0.0
 42
0.0007835518
  0
VERTEX
  5
11EE3
  8
AM_0
 10
126.8897110886267
 20
228.05121736366669
 30
0.0
 42
0.00074826133
  0
VERTEX
  5
11EE4
  8
AM_0
 10
126.9194410886265
 20
227.43382736366669
 30
0.0
 42
0.00074893555
  0
VERTEX
  5
11EE5
  8
AM_0
 10
126.9510010886264
 20
226.81669736366669
 30
0.0
 42
0.00076039841
  0
VERTEX
  5
11EE6
  8
AM_0
 10
126.9844210886266
 20
226.19966736366669
 30
0.0
 42
0.00075618789
  0
VERTEX
  5
11EE7
  8
AM_0
 10
127.0197210886266
 20
225.58263736366669
 30
0.0
  0
SEQEND
  5
11EE8
  8
AM_0
  0
LINE
  5
11EE9
  8
AM_0
 10
110.31519108862661
 20
191.24180736366671
 30
0.0
 11
110.31519108862661
 21
234.26182736366661
 31
0.0
  0
LINE
  5
11EEA
  8
AM_0
 10
108.81519108862661
 20
219.2618273636667
 30
0.0
 11
108.81519108862661
 21
259.26182736366661
 31
0.0
  0
LINE
  5
11EEB
  8
AM_0
 10
107.82129460425161
 20
254.48365963905729
 30
0.0
 11
107.82129460425161
 21
224.0400256058542
 31
0.0
  0
ARC
  5
11EEC
  8
AM_0
 10
114.31690108862659
 20
206.52013736366669
 30
0.0
 40
0.9982839799999999
 50
269.9014239999986
 51
0.098579999999872
  0
ARC
  5
11EED
  8
AM_0
 10
111.3084210886267
 20
191.24388736366669
 30
0.0
 40
0.99319202
 50
180.1204100000019
 51
240.22661999999471
  0
ARC
  5
11EEE
  8
AM_0
 10
111.30964108862651
 20
193.38280736366659
 30
0.0
 40
0.9944329899999999
 50
180.05949000000089
 51
238.84787000000381
  0
ARC
  5
11EEF
  8
AM_0
 10
111.3108010886266
 20
192.28209736366659
 30
0.0
 40
0.995579
 50
180.01736
 51
243.4129100000022
  0
ARC
  5
11EF0
  8
AM_0
 10
111.3084210886267
 20
194.42039736366661
 30
0.0
 40
0.9932109699999999
 50
179.91812999999991
 51
242.2006799999958
  0
ARC
  5
11EF1
  8
AM_0
 10
111.3092710886266
 20
199.01866736366659
 30
0.0
 40
0.99404597
 50
179.81435999999971
 51
239.5318000000012
  0
ARC
  5
11EF2
  8
AM_0
 10
111.3115910886266
 20
205.08031736366661
 30
0.0
 40
0.9963999999999998
 50
179.9095800000004
 51
247.1826399999992
  0
ARC
  5
11EF3
  8
AM_0
 10
111.31000108862651
 20
197.9842473636665
 30
0.0
 40
0.9948369899999999
 50
179.5621400000019
 51
236.7950400000025
  0
LINE
  5
11EF4
  8
AM_0
 10
116.31519108862661
 20
186.26182736366661
 30
0.0
 11
124.31519108862661
 21
186.26182736366661
 31
0.0
  0
LINE
  5
11EF5
  8
AM_0
 10
112.08521108862659
 20
189.64186736366659
 30
0.0
 11
110.8152510886265
 21
190.38185736366671
 31
0.0
  0
LINE
  5
11EF6
  8
AM_0
 10
112.31519108862661
 20
189.76182736366661
 30
0.0
 11
112.31519108862661
 21
190.29185736366659
 31
0.0
  0
LINE
  5
11EF7
  8
AM_0
 10
112.0952210886265
 20
192.87178736366661
 30
0.0
 11
110.8452210886265
 21
193.5417973636666
 31
0.0
  0
LINE
  5
11EF8
  8
AM_0
 10
112.07514108862669
 20
191.76176736366671
 30
0.0
 11
110.7951710886267
 21
192.53178736366661
 31
0.0
  0
LINE
  5
11EF9
  8
AM_0
 10
112.10517108862661
 20
190.76182736366661
 30
0.0
 11
110.8651810886266
 21
191.39183736366661
 31
0.0
  0
ARC
  5
11EFA
  8
AM_0
 10
112.5503010886267
 20
193.75719736366659
 30
0.0
 40
0.99545902
 50
242.79617999999971
 51
270.85870899999998
  0
LINE
  5
11EFB
  8
AM_0
 10
112.31519108862661
 20
191.86180736366671
 30
0.0
 11
112.31519108862661
 21
192.4118573636666
 31
0.0
  0
LINE
  5
11EFC
  8
AM_0
 10
112.56519108862661
 20
192.76182736366661
 30
0.0
 11
114.31519108862661
 21
192.76182736366661
 31
0.0
  0
ARC
  5
11EFD
  8
AM_0
 10
112.5399810886266
 20
191.65587736366669
 30
0.0
 40
0.99411702
 50
244.06502000000489
 51
270.8773560000015
  0
LINE
  5
11EFE
  8
AM_0
 10
112.5551810886266
 20
190.6618573636666
 30
0.0
 11
114.81519108862661
 21
190.6618573636666
 31
0.0
  0
ARC
  5
11EFF
  8
AM_0
 10
112.5840510886265
 20
192.6160773636667
 30
0.0
 40
0.99427301
 50
239.2190900000019
 51
270.64393400000318
  0
LINE
  5
11F00
  8
AM_0
 10
112.5952210886265
 20
191.62181736366659
 30
0.0
 11
115.31519108862661
 21
191.62181736366659
 31
0.0
  0
ARC
  5
11F01
  8
AM_0
 10
112.5772210886265
 20
190.5076773636666
 30
0.0
 40
0.9959030199999999
 50
240.3928300000035
 51
270.4587330000009
  0
LINE
  5
11F02
  8
AM_0
 10
112.58521108862659
 20
189.51182736366661
 30
0.0
 11
114.81519108862661
 21
189.51182736366661
 31
0.0
  0
ARC
  5
11F03
  8
AM_0
 10
114.81690108862659
 20
191.1601473636666
 30
0.0
 40
0.4983060100000002
 50
269.80489299999988
 51
0.1951100000021265
  0
ARC
  5
11F04
  8
AM_0
 10
114.3161710886264
 20
193.7608573636667
 30
0.0
 40
0.9990100299999999
 50
269.9431910000032
 51
0.0568099999986995
  0
LINE
  5
11F05
  8
AM_0
 10
115.31519108862661
 20
189.26182736366661
 30
0.0
 11
116.31519108862661
 21
189.26182736366661
 31
0.0
  0
ARC
  5
11F06
  8
AM_0
 10
114.8106110886266
 20
189.00719736366659
 30
0.0
 40
0.50463498
 50
0.5238300000004285
 51
89.476169999999556
  0
LINE
  5
11F07
  8
AM_0
 10
124.31519108862661
 20
191.1617673636666
 30
0.0
 11
125.5551810886267
 21
184.6017673636666
 31
0.0
  0
LINE
  5
11F08
  8
AM_0
 10
117.0152010886266
 20
196.0718873636666
 30
0.0
 11
123.24518108862669
 21
196.0718873636666
 31
0.0
  0
LINE
  5
11F09
  8
AM_0
 10
112.0851510886267
 20
197.41179736366661
 30
0.0
 11
110.8051810886267
 21
198.16179736366661
 31
0.0
  0
LINE
  5
11F0A
  8
AM_0
 10
112.12519108862659
 20
203.65181736366659
 30
0.0
 11
110.92524108862661
 21
204.16182736366659
 31
0.0
  0
ARC
  5
11F0B
  8
AM_0
 10
112.51618108862669
 20
204.56724736366661
 30
0.0
 40
0.9954450099999999
 50
246.8725499999957
 51
269.94309500000361
  0
LINE
  5
11F0C
  8
AM_0
 10
112.31519108862661
 20
203.87181736366671
 30
0.0
 11
112.31519108862661
 21
204.9318773636667
 31
0.0
  0
LINE
  5
11F0D
  8
AM_0
 10
112.5152010886266
 20
203.57188736366669
 30
0.0
 11
114.6151810886266
 21
203.57188736366669
 31
0.0
  0
LINE
  5
11F0E
  8
AM_0
 10
112.0651310886268
 20
196.3018073636666
 30
0.0
 11
110.76514108862661
 21
197.15178736366661
 31
0.0
  0
ARC
  5
11F0F
  8
AM_0
 10
112.59461108862649
 20
198.26829736366651
 30
0.0
 40
0.99648702
 50
239.2562300000057
 51
269.45927899999811
  0
ARC
  5
11F10
  8
AM_0
 10
112.62183108862661
 20
197.12804736366661
 30
0.0
 40
0.99617702
 50
236.0295100000063
 51
269.61868200000413
  0
LINE
  5
11F11
  8
AM_0
 10
112.31519108862661
 20
196.4318773636667
 30
0.0
 11
112.31519108862661
 21
196.9018473636666
 31
0.0
  0
LINE
  5
11F12
  8
AM_0
 10
112.58521108862659
 20
197.27183736366661
 30
0.0
 11
114.31519108862661
 21
197.27183736366661
 31
0.0
  0
LINE
  5
11F13
  8
AM_0
 10
112.6152410886265
 20
196.13182736366659
 30
0.0
 11
115.31519108862661
 21
196.13182736366659
 31
0.0
  0
ARC
  5
11F14
  8
AM_0
 10
114.31287108862659
 20
198.2741573636666
 30
0.0
 40
1.002353
 50
270.13432700000061
 51
359.86567318000158
  0
ARC
  5
11F15
  8
AM_0
 10
114.6106610886266
 20
202.86729736366661
 30
0.0
 40
0.704566
 50
0.3700900000021514
 51
89.629900000003147
  0
ARC
  5
11F16
  8
AM_0
 10
111.3114710886265
 20
206.86607736366659
 30
0.0
 40
0.9962710099999999
 50
179.66995
 51
253.30207999999999
  0
ARC
  5
11F17
  8
AM_0
 10
111.3103110886267
 20
214.25694736366671
 30
0.0
 40
0.99507803
 50
179.71589000000009
 51
270.28411300000192
  0
ARC
  5
11F18
  8
AM_0
 10
111.3154410886267
 20
214.26158736366671
 30
0.0
 40
1.000203
 50
90.011649999995583
 51
179.9883500000044
  0
ARC
  5
11F19
  8
AM_0
 10
111.3103110886267
 20
224.25694736366671
 30
0.0
 40
0.99508202
 50
179.71609000000211
 51
270.28390100000507
  0
ARC
  5
11F1A
  8
AM_0
 10
111.3154410886267
 20
224.26158736366671
 30
0.0
 40
1.000199999999998
 50
90.011430000001582
 51
179.98856999999839
  0
LINE
  5
11F1B
  8
AM_0
 10
107.82129460425161
 20
224.03999508827599
 30
0.0
 11
108.32129460425161
 21
221.27000607460411
 31
0.0
  0
LINE
  5
11F1C
  8
AM_0
 10
108.81519108862661
 20
224.11180736366671
 30
0.0
 11
110.31519108862661
 21
224.11180736366671
 31
0.0
  0
LINE
  5
11F1D
  8
AM_0
 10
108.81519108862661
 20
221.9817973636666
 30
0.0
 11
110.31519108862661
 21
221.9817973636666
 31
0.0
  0
LINE
  5
11F1E
  8
AM_0
 10
108.81519108862661
 20
219.26185736366671
 30
0.0
 11
110.31519108862661
 21
219.13185736366671
 31
0.0
  0
LINE
  5
11F1F
  8
AM_0
 10
108.3213251218297
 20
221.27000607460411
 30
0.0
 11
108.82129460425161
 21
221.31001461952599
 31
0.0
  0
ARC
  5
11F20
  8
AM_0
 10
114.31537108862661
 20
216.26170736366669
 30
0.0
 40
0.9998289899999999
 50
269.99018899999902
 51
0.0098099999995464
  0
LINE
  5
11F21
  8
AM_0
 10
112.1751810886266
 20
205.5617873636667
 30
0.0
 11
111.02521108862661
 21
205.91179736366669
 31
0.0
  0
ARC
  5
11F22
  8
AM_0
 10
112.45435108862659
 20
206.5145173636667
 30
0.0
 40
0.9927430199999999
 50
253.66792999999879
 51
270.62544499999802
  0
LINE
  5
11F23
  8
AM_0
 10
112.46522108862639
 20
205.52183736366661
 30
0.0
 11
114.31519108862661
 21
205.52183736366661
 31
0.0
  0
LINE
  5
11F24
  8
AM_0
 10
112.31519108862661
 20
213.63182736366659
 30
0.0
 11
112.31519108862661
 21
215.0018173636667
 31
0.0
  0
LINE
  5
11F25
  8
AM_0
 10
114.31519108862661
 20
215.2618273636667
 30
0.0
 11
111.31519108862661
 21
215.2618273636667
 31
0.0
  0
LINE
  5
11F26
  8
AM_0
 10
114.31519108862661
 20
213.2618273636667
 30
0.0
 11
111.31519108862661
 21
213.2618273636667
 31
0.0
  0
ARC
  5
11F27
  8
AM_0
 10
114.3102510886266
 20
212.25694736366671
 30
0.0
 40
1.004942999999999
 50
0.2811100000000641
 51
89.718889999999945
  0
ARC
  5
11F28
  8
AM_0
 10
125.77521108862661
 20
214.23680736366671
 30
0.0
 40
1.465004
 50
90.0
 51
269.99999700000228
  0
LINE
  5
11F29
  8
AM_0
 10
114.31519108862661
 20
225.2618273636667
 30
0.0
 11
111.31519108862661
 21
225.2618273636667
 31
0.0
  0
LINE
  5
11F2A
  8
AM_0
 10
114.31519108862661
 20
223.2618273636667
 30
0.0
 11
111.31519108862661
 21
223.2618273636667
 31
0.0
  0
LINE
  5
11F2B
  8
AM_0
 10
112.31519108862661
 20
223.65184736366669
 30
0.0
 11
112.31519108862661
 21
224.86180736366671
 31
0.0
  0
ARC
  5
11F2C
  8
AM_0
 10
114.3102510886266
 20
222.25694736366671
 30
0.0
 40
1.004939
 50
0.2809000000001803
 51
89.719089999995887
  0
ARC
  5
11F2D
  8
AM_0
 10
114.31537108862661
 20
226.26170736366669
 30
0.0
 40
0.9998210099999999
 50
269.98974500000088
 51
0.0102499999984621
  0
ARC
  5
11F2E
  8
AM_0
 10
125.6452110886265
 20
224.2518173636667
 30
0.0
 40
1.3300049999999981
 50
90.0
 51
269.99999700000228
  0
POLYLINE
  5
11F2F
  8
AM_0
 66
     1
 10
0.0
 20
0.0
 30
0.0
  0
VERTEX
  5
11F30
  8
AM_0
 10
126.7192410886267
 20
245.53221736366669
 30
0.0
 42
-0.00076695232
  0
VERTEX
  5
11F31
  8
AM_0
 10
126.7340410886266
 20
246.14997736366669
 30
0.0
 42
-0.00073263044
  0
VERTEX
  5
11F32
  8
AM_0
 10
126.75068108862649
 20
246.7675773636667
 30
0.0
 42
-0.0007652599
  0
VERTEX
  5
11F33
  8
AM_0
 10
126.76917108862639
 20
247.38524736366671
 30
0.0
 42
-0.00075144485
  0
VERTEX
  5
11F34
  8
AM_0
 10
126.78954108862661
 20
248.00284736366669
 30
0.0
 42
-0.00078594403
  0
VERTEX
  5
11F35
  8
AM_0
 10
126.81179108862661
 20
248.62027736366659
 30
0.0
 42
-0.00073349202
  0
VERTEX
  5
11F36
  8
AM_0
 10
126.8359410886265
 20
249.2376573636667
 30
0.0
 42
-0.0007358075
  0
VERTEX
  5
11F37
  8
AM_0
 10
126.8618810886267
 20
249.8550573636667
 30
0.0
 42
-0.00078592699
  0
VERTEX
  5
11F38
  8
AM_0
 10
126.8897110886267
 20
250.4724473636667
 30
0.0
 42
-0.00074823144
  0
VERTEX
  5
11F39
  8
AM_0
 10
126.9194410886265
 20
251.0898373636667
 30
0.0
 42
-0.00074896603
  0
VERTEX
  5
11F3A
  8
AM_0
 10
126.9510010886264
 20
251.70696736366671
 30
0.0
 42
-0.00076039765
  0
VERTEX
  5
11F3B
  8
AM_0
 10
126.9844210886266
 20
252.32399736366671
 30
0.0
 42
-0.00075616128
  0
VERTEX
  5
11F3C
  8
AM_0
 10
127.0197210886266
 20
252.94102736366671
 30
0.0
  0
SEQEND
  5
11F3D
  8
AM_0
  0
ARC
  5
11F3E
  8
AM_0
 10
111.3103110886267
 20
234.25694736366671
 30
0.0
 40
0.9950849999999999
 50
179.71631000000019
 51
270.28368899999907
  0
ARC
  5
11F3F
  8
AM_0
 10
111.3154410886267
 20
234.26158736366671
 30
0.0
 40
1.0001959999999981
 50
90.011220000002425
 51
179.98878000000411
  0
ARC
  5
11F40
  8
AM_0
 10
111.3103110886267
 20
244.25694736366671
 30
0.0
 40
0.9950770099999999
 50
179.71585999999951
 51
270.28414000000049
  0
ARC
  5
11F41
  8
AM_0
 10
111.3154410886267
 20
244.26158736366671
 30
0.0
 40
1.0002040000000001
 50
90.011679999999231
 51
179.98834000000321
  0
POLYLINE
  5
11F42
  8
AM_0
 66
     1
 10
0.0
 20
0.0
 30
0.0
  0
VERTEX
  5
11F43
  8
AM_0
 10
126.6751810886265
 20
239.26182736366661
 30
0.0
 42
0.00039106653
  0
VERTEX
  5
11F44
  8
AM_0
 10
126.67282108862661
 20
238.95069736366671
 30
0.0
 42
0.00040574511
  0
VERTEX
  5
11F45
  8
AM_0
 10
126.6709510886265
 20
238.63958736366661
 30
0.0
 42
0.00035346331
  0
VERTEX
  5
11F46
  8
AM_0
 10
126.66956108862659
 20
238.32847736366659
 30
0.0
 42
0.00034406545
  0
VERTEX
  5
11F47
  8
AM_0
 10
126.6685810886266
 20
238.0173373636666
 30
0.0
 42
0.00045699059
  0
VERTEX
  5
11F48
  8
AM_0
 10
126.66812108862661
 20
237.7062373636667
 30
0.0
 42
0.00035573431
  0
VERTEX
  5
11F49
  8
AM_0
 10
126.6681610886265
 20
237.39513736366669
 30
0.0
 42
0.00038545888
  0
VERTEX
  5
11F4A
  8
AM_0
 10
126.6686510886264
 20
237.08399736366661
 30
0.0
 42
0.00035501203
  0
VERTEX
  5
11F4B
  8
AM_0
 10
126.6696110886267
 20
236.77288736366671
 30
0.0
 42
0.00040120778
  0
VERTEX
  5
11F4C
  8
AM_0
 10
126.67103108862661
 20
236.4616573636666
 30
0.0
 42
0.00038317821
  0
VERTEX
  5
11F4D
  8
AM_0
 10
126.6729410886267
 20
236.15052736366661
 30
0.0
 42
0.00040741862
  0
VERTEX
  5
11F4E
  8
AM_0
 10
126.6753410886266
 20
235.8392973636667
 30
0.0
 42
0.00035783324
  0
VERTEX
  5
11F4F
  8
AM_0
 10
126.6782310886266
 20
235.5281873636666
 30
0.0
  0
SEQEND
  5
11F50
  8
AM_0
  0
LINE
  5
11F51
  8
AM_0
 10
114.31519108862661
 20
233.26182736366661
 30
0.0
 11
111.31519108862661
 21
233.26182736366661
 31
0.0
  0
LINE
  5
11F52
  8
AM_0
 10
114.31519108862661
 20
235.26182736366661
 30
0.0
 11
111.31519108862661
 21
235.26182736366661
 31
0.0
  0
LINE
  5
11F53
  8
AM_0
 10
112.31519108862661
 20
233.65184736366669
 30
0.0
 11
112.31519108862661
 21
234.8118773636667
 31
0.0
  0
ARC
  5
11F54
  8
AM_0
 10
114.3102510886266
 20
232.25694736366671
 30
0.0
 40
1.0049469
 50
0.2813399999993151
 51
89.718650000002881
  0
ARC
  5
11F55
  8
AM_0
 10
114.31537108862661
 20
236.26170736366669
 30
0.0
 40
0.9998249999999999
 50
269.98994999999883
 51
0.01005000000125
  0
ARC
  5
11F56
  8
AM_0
 10
125.57935108862659
 20
234.2568273636667
 30
0.0
 40
1.2650129999999991
 50
89.735589999997515
 51
270.26442099999832
  0
LINE
  5
11F57
  8
AM_0
 10
114.31519108862661
 20
243.26182736366661
 30
0.0
 11
111.31519108862661
 21
243.26182736366661
 31
0.0
  0
LINE
  5
11F58
  8
AM_0
 10
114.31519108862661
 20
245.26182736366661
 30
0.0
 11
111.31519108862661
 21
245.26182736366661
 31
0.0
  0
LINE
  5
11F59
  8
AM_0
 10
112.31519108862661
 20
244.87181736366671
 30
0.0
 11
112.31519108862661
 21
243.7117873636667
 31
0.0
  0
ARC
  5
11F5A
  8
AM_0
 10
114.31537108862661
 20
246.26170736366669
 30
0.0
 40
0.9998279799999998
 50
269.99016199999983
 51
0.009840000003007
  0
ARC
  5
11F5B
  8
AM_0
 10
114.3102510886266
 20
242.25694736366671
 30
0.0
 40
1.004942999999999
 50
0.2811300000018063
 51
89.718860000000575
  0
ARC
  5
11F5C
  8
AM_0
 10
125.57935108862659
 20
244.2618273636667
 30
0.0
 40
1.2700129999999981
 50
89.736630000000844
 51
270.26338300000492
  0
POLYLINE
  5
11F5D
  8
AM_0
 66
     1
 10
0.0
 20
0.0
 30
0.0
  0
VERTEX
  5
11F5E
  8
AM_0
 10
126.6751810886265
 20
239.26182736366661
 30
0.0
 42
-0.00039106593
  0
VERTEX
  5
11F5F
  8
AM_0
 10
126.67282108862661
 20
239.57296736366669
 30
0.0
 42
-0.00040574899
  0
VERTEX
  5
11F60
  8
AM_0
 10
126.6709510886265
 20
239.88407736366671
 30
0.0
 42
-0.0003534546
  0
VERTEX
  5
11F61
  8
AM_0
 10
126.66956108862659
 20
240.19517736366669
 30
0.0
 42
-0.00034407327
  0
VERTEX
  5
11F62
  8
AM_0
 10
126.6685810886266
 20
240.50631736366671
 30
0.0
 42
-0.00045699408
  0
VERTEX
  5
11F63
  8
AM_0
 10
126.66812108862661
 20
240.8174273636667
 30
0.0
 42
-0.00035571853
  0
VERTEX
  5
11F64
  8
AM_0
 10
126.6681610886265
 20
241.12852736366671
 30
0.0
 42
-0.00038547362
  0
VERTEX
  5
11F65
  8
AM_0
 10
126.6686510886264
 20
241.43966736366659
 30
0.0
 42
-0.00035501498
  0
VERTEX
  5
11F66
  8
AM_0
 10
126.6696110886267
 20
241.7507673636666
 30
0.0
 42
-0.00040118614
  0
VERTEX
  5
11F67
  8
AM_0
 10
126.67103108862661
 20
242.06200736366671
 30
0.0
 42
-0.00038319871
  0
VERTEX
  5
11F68
  8
AM_0
 10
126.6729410886267
 20
242.3731373636667
 30
0.0
 42
-0.00040742136
  0
VERTEX
  5
11F69
  8
AM_0
 10
126.6753410886266
 20
242.68436736366669
 30
0.0
 42
-0.0003578071
  0
VERTEX
  5
11F6A
  8
AM_0
 10
126.6782310886266
 20
242.99547736366671
 30
0.0
  0
SEQEND
  5
11F6B
  8
AM_0
  0
ARC
  5
11F6C
  8
AM_0
 10
111.3103110886267
 20
254.25694736366671
 30
0.0
 40
0.9950810099999999
 50
179.71607999999549
 51
270.28392800000319
  0
ARC
  5
11F6D
  8
AM_0
 10
111.3154410886267
 20
254.26158736366671
 30
0.0
 40
1.000199999999998
 50
90.011459999998664
 51
179.98854000000131
  0
ARC
  5
11F6E
  8
AM_0
 10
111.3154410886267
 20
264.26158736366671
 30
0.0
 40
1.0001959999999981
 50
90.011249999999436
 51
179.98875000000049
  0
ARC
  5
11F6F
  8
AM_0
 10
111.3103110886267
 20
264.25694736366671
 30
0.0
 40
0.9950849999999999
 50
179.71628000000069
 51
270.2837169999973
  0
LINE
  5
11F70
  8
AM_0
 10
107.8213251218298
 20
254.48365963905729
 30
0.0
 11
108.3213251218297
 21
257.25364865272923
 31
0.0
  0
LINE
  5
11F71
  8
AM_0
 10
108.81519108862661
 20
259.26185736366671
 30
0.0
 11
110.31519108862661
 21
259.39186736366668
 31
0.0
  0
LINE
  5
11F72
  8
AM_0
 10
108.81519108862661
 20
256.54185736366668
 30
0.0
 11
110.31519108862661
 21
256.54185736366668
 31
0.0
  0
LINE
  5
11F73
  8
AM_0
 10
108.32129460425161
 20
257.25364865272923
 30
0.0
 11
108.8213251218298
 21
257.21364010780729
 31
0.0
  0
LINE
  5
11F74
  8
AM_0
 10
108.81519108862661
 20
254.41185736366671
 30
0.0
 11
110.31519108862661
 21
254.41185736366671
 31
0.0
  0
LINE
  5
11F75
  8
AM_0
 10
114.31519108862661
 20
255.2618273636667
 30
0.0
 11
111.31519108862661
 21
255.2618273636667
 31
0.0
  0
LINE
  5
11F76
  8
AM_0
 10
112.31519108862661
 20
254.87181736366671
 30
0.0
 11
112.31519108862661
 21
253.65184736366669
 31
0.0
  0
LINE
  5
11F77
  8
AM_0
 10
114.31519108862661
 20
253.2618273636667
 30
0.0
 11
111.31519108862661
 21
253.2618273636667
 31
0.0
  0
ARC
  5
11F78
  8
AM_0
 10
114.31537108862661
 20
256.26170736366669
 30
0.0
 40
0.9998210099999999
 50
269.98971800000169
 51
0.0102800000019627
  0
ARC
  5
11F79
  8
AM_0
 10
114.3102510886266
 20
252.25694736366671
 30
0.0
 40
1.004939
 50
0.2809299999990096
 51
89.719059999997029
  0
ARC
  5
11F7A
  8
AM_0
 10
125.6452110886265
 20
254.27183736366661
 30
0.0
 40
1.3300049999999981
 50
90.0
 51
269.99999700000228
  0
LINE
  5
11F7B
  8
AM_0
 10
114.31519108862661
 20
263.26182736366673
 30
0.0
 11
111.31519108862661
 21
263.26182736366673
 31
0.0
  0
LINE
  5
11F7C
  8
AM_0
 10
114.31519108862661
 20
265.26182736366673
 30
0.0
 11
111.31519108862661
 21
265.26182736366673
 31
0.0
  0
LINE
  5
11F7D
  8
AM_0
 10
112.31519108862661
 20
264.8918373636667
 30
0.0
 11
112.31519108862661
 21
263.52183736366658
 31
0.0
  0
ARC
  5
11F7E
  8
AM_0
 10
114.31537108862661
 20
266.26170736366669
 30
0.0
 40
0.9998239899999999
 50
269.98992299999958
 51
0.0100800000047327
  0
ARC
  5
11F7F
  8
AM_0
 10
114.3102510886266
 20
262.25694736366671
 30
0.0
 40
1.0049469
 50
0.2813699999992631
 51
89.718630000000744
  0
ARC
  5
11F80
  8
AM_0
 10
125.77521108862661
 20
264.28685736366668
 30
0.0
 40
1.465004
 50
90.0
 51
269.99999700000228
  0
ARC
  5
11F81
  8
AM_0
 10
224.44532108862671
 20
184.9800973636666
 30
0.0
 40
1.9982919999999991
 50
269.99736799999857
 51
344.96745200000402
  0
LINE
  5
11F82
  8
AM_0
 10
230.5209410886267
 20
194.33293736366659
 30
0.0
 11
226.37522108862649
 21
178.85182736366659
 31
0.0
  0
LINE
  5
11F83
  8
AM_0
 10
229.7942284120158
 20
194.37930519203249
 30
0.0
 11
226.37519108862659
 21
181.61177736366659
 31
0.0
  0
LINE
  5
11F84
  8
AM_0
 10
230.2600789445234
 20
194.2689277551074
 30
0.0
 11
226.37519108862659
 21
179.76182736366661
 31
0.0
  0
LINE
  5
11F85
  8
AM_0
 10
127.6052310886265
 20
177.37181736366659
 30
0.0
 11
224.44526108862661
 21
177.37181736366659
 31
0.0
  0
LINE
  5
11F86
  8
AM_0
 10
127.58521108862649
 20
178.2818473636664
 30
0.0
 11
224.4452010886265
 21
178.2818473636664
 31
0.0
  0
LINE
  5
11F87
  8
AM_0
 10
127.52521108862661
 20
182.9817973636666
 30
0.0
 11
224.4452010886265
 21
182.9817973636666
 31
0.0
  0
LINE
  5
11F88
  8
AM_0
 10
127.56519108862661
 20
180.13182736366659
 30
0.0
 11
224.4452010886265
 21
180.13182736366659
 31
0.0
  0
ARC
  5
11F89
  8
AM_0
 10
224.44037108862659
 20
179.37657736366671
 30
0.0
 40
2.0047290000000002
 50
270.13832199999979
 51
344.82650400000358
  0
ARC
  5
11F8A
  8
AM_0
 10
224.44037108862659
 20
182.13658736366671
 30
0.0
 40
2.0047290000000002
 50
270.13832199999979
 51
344.82650400000358
  0
ARC
  5
11F8B
  8
AM_0
 10
224.44037108862659
 20
180.28660736366669
 30
0.0
 40
2.0047290000000002
 50
270.13832199999979
 51
344.82650400000358
  0
LINE
  5
11F8C
  8
AM_0
 10
232.3151910886267
 20
183.26182736366661
 30
0.0
 11
240.3151910886267
 21
183.26182736366661
 31
0.0
  0
ARC
  5
11F8D
  8
AM_0
 10
193.31519108862659
 20
206.7618273636667
 30
0.0
 40
1.5
 50
269.99999700000228
 51
0.0
  0
ARC
  5
11F8E
  8
AM_0
 10
193.31519108862659
 20
211.76182736366661
 30
0.0
 40
1.5
 50
359.99999931675052
 51
90.000010000001026
  0
ARC
  5
11F8F
  8
AM_0
 10
193.31519108862659
 20
211.76182736366661
 30
0.0
 40
1.02
 50
359.999999316757
 51
90.000010000001026
  0
ARC
  5
11F90
  8
AM_0
 10
193.33521108862661
 20
206.90184736366669
 30
0.0
 40
1.0
 50
269.99999700000228
 51
0.0
  0
ARC
  5
11F91
  8
AM_0
 10
193.31519108862659
 20
266.76182736366673
 30
0.0
 40
1.5
 50
269.99999700000228
 51
0.0
  0
ARC
  5
11F92
  8
AM_0
 10
193.31519108862659
 20
266.76182736366673
 30
0.0
 40
1.02
 50
269.99999700000228
 51
0.0
  0
ARC
  5
11F93
  8
AM_0
 10
160.75391108862669
 20
224.26182736366661
 30
0.0
 40
1.000005699999998
 50
269.99999700000228
 51
90.000010000001026
  0
POLYLINE
  5
11F94
  8
AM_0
 66
     1
 10
0.0
 20
0.0
 30
0.0
  0
VERTEX
  5
11F95
  8
AM_0
 10
127.1934310886266
 20
222.92125736366671
 30
0.0
 42
0.0007337051
  0
VERTEX
  5
11F96
  8
AM_0
 10
127.23757108862659
 20
222.31884736366669
 30
0.0
 42
0.00075211323
  0
VERTEX
  5
11F97
  8
AM_0
 10
127.2835110886266
 20
221.71644736366659
 30
0.0
 42
0.0007297491
  0
VERTEX
  5
11F98
  8
AM_0
 10
127.3312410886266
 20
221.11424736366669
 30
0.0
 42
0.00073593041
  0
VERTEX
  5
11F99
  8
AM_0
 10
127.3807210886265
 20
220.51225736366669
 30
0.0
 42
0.00074742739
  0
VERTEX
  5
11F9A
  8
AM_0
 10
127.4319910886266
 20
219.9103973636667
 30
0.0
 42
0.00073217363
  0
VERTEX
  5
11F9B
  8
AM_0
 10
127.48505108862661
 20
219.3085873636667
 30
0.0
 42
0.00073754168
  0
VERTEX
  5
11F9C
  8
AM_0
 10
127.5398710886264
 20
218.7070473636667
 30
0.0
 42
0.00073075073
  0
VERTEX
  5
11F9D
  8
AM_0
 10
127.59645108862659
 20
218.10569736366671
 30
0.0
 42
0.00074550816
  0
VERTEX
  5
11F9E
  8
AM_0
 10
127.6547910886264
 20
217.5046273636666
 30
0.0
 42
0.00074288416
  0
VERTEX
  5
11F9F
  8
AM_0
 10
127.7149410886267
 20
216.90360736366671
 30
0.0
 42
0.00072504001
  0
VERTEX
  5
11FA0
  8
AM_0
 10
127.7768510886266
 20
216.30286736366659
 30
0.0
 42
0.00074640667
  0
VERTEX
  5
11FA1
  8
AM_0
 10
127.8405210886266
 20
215.7022573636666
 30
0.0
  0
SEQEND
  5
11FA2
  8
AM_0
  0
POLYLINE
  5
11FA3
  8
AM_0
 66
     1
 10
0.0
 20
0.0
 30
0.0
  0
VERTEX
  5
11FA4
  8
AM_0
 10
128.17609108862669
 20
212.7787973636666
 30
0.0
 42
0.00068898283
  0
VERTEX
  5
11FA5
  8
AM_0
 10
128.24697108862651
 20
212.2040473636666
 30
0.0
 42
0.00070644357
  0
VERTEX
  5
11FA6
  8
AM_0
 10
128.3194710886267
 20
211.6293573636666
 30
0.0
 42
0.00069248074
  0
VERTEX
  5
11FA7
  8
AM_0
 10
128.3935610886266
 20
211.05504736366669
 30
0.0
 42
0.0006958566
  0
VERTEX
  5
11FA8
  8
AM_0
 10
128.46924108862669
 20
210.48090736366669
 30
0.0
 42
0.00071687219
  0
VERTEX
  5
11FA9
  8
AM_0
 10
128.54655108862639
 20
209.9069073636667
 30
0.0
 42
0.00069760022
  0
VERTEX
  5
11FAA
  8
AM_0
 10
128.62549108862669
 20
209.33311736366659
 30
0.0
 42
0.00071002302
  0
VERTEX
  5
11FAB
  8
AM_0
 10
128.7060310886267
 20
208.75964736366669
 30
0.0
 42
0.00069954889
  0
VERTEX
  5
11FAC
  8
AM_0
 10
128.7881710886266
 20
208.18654736366659
 30
0.0
 42
0.00071887947
  0
VERTEX
  5
11FAD
  8
AM_0
 10
128.87195108862659
 20
207.6135173636666
 30
0.0
 42
0.00071266929
  0
VERTEX
  5
11FAE
  8
AM_0
 10
128.9573810886267
 20
207.04074736366661
 30
0.0
 42
0.00071614429
  0
VERTEX
  5
11FAF
  8
AM_0
 10
129.04441108862659
 20
206.4684073636667
 30
0.0
 42
0.00072288978
  0
VERTEX
  5
11FB0
  8
AM_0
 10
129.13312108862661
 20
205.8961073636666
 30
0.0
  0
SEQEND
  5
11FB1
  8
AM_0
  0
ARC
  5
11FB2
  8
AM_0
 10
161.98017108862661
 20
224.24681736366671
 30
0.0
 40
1.3350147999999999
 50
269.73044399999861
 51
90.26957000000013
  0
ARC
  5
11FB3
  8
AM_0
 10
160.75391108862669
 20
234.26182736366661
 30
0.0
 40
1.000005699999998
 50
269.99999700000228
 51
90.000010000001026
  0
ARC
  5
11FB4
  8
AM_0
 10
160.75391108862669
 20
244.2618273636667
 30
0.0
 40
1.000005699999998
 50
269.99999700000228
 51
90.000010000001026
  0
ARC
  5
11FB5
  8
AM_0
 10
160.75391108862669
 20
254.2618273636667
 30
0.0
 40
1.000005699999998
 50
269.99999700000228
 51
90.000010000001026
  0
POLYLINE
  5
11FB6
  8
AM_0
 66
     1
 10
0.0
 20
0.0
 30
0.0
  0
VERTEX
  5
11FB7
  8
AM_0
 10
127.1934310886266
 20
255.60240736366671
 30
0.0
 42
-0.00073721992
  0
VERTEX
  5
11FB8
  8
AM_0
 10
127.2375810886266
 20
256.20481736366668
 30
0.0
 42
-0.00074398496
  0
VERTEX
  5
11FB9
  8
AM_0
 10
127.2835110886266
 20
256.80708736366671
 30
0.0
 42
-0.00073322625
  0
VERTEX
  5
11FBA
  8
AM_0
 10
127.3312410886266
 20
257.40941736366671
 30
0.0
 42
-0.00073594289
  0
VERTEX
  5
11FBB
  8
AM_0
 10
127.3807210886265
 20
258.01140736366671
 30
0.0
 42
-0.00074742568
  0
VERTEX
  5
11FBC
  8
AM_0
 10
127.4319910886266
 20
258.61326736366669
 30
0.0
 42
-0.00073216749
  0
VERTEX
  5
11FBD
  8
AM_0
 10
127.48505108862661
 20
259.21507736366669
 30
0.0
 42
-0.00074184065
  0
VERTEX
  5
11FBE
  8
AM_0
 10
127.5398710886264
 20
259.81660736366661
 30
0.0
 42
-0.00072077528
  0
VERTEX
  5
11FBF
  8
AM_0
 10
127.59645108862659
 20
260.41783736366671
 30
0.0
 42
-0.00074978179
  0
VERTEX
  5
11FC0
  8
AM_0
 10
127.6547910886264
 20
261.01903736366671
 30
0.0
 42
-0.00074288888
  0
VERTEX
  5
11FC1
  8
AM_0
 10
127.7149410886267
 20
261.62005736366672
 30
0.0
 42
-0.00072503679
  0
VERTEX
  5
11FC2
  8
AM_0
 10
127.7768510886266
 20
262.22079736366669
 30
0.0
 42
-0.00074640584
  0
VERTEX
  5
11FC3
  8
AM_0
 10
127.8405210886266
 20
262.82139736366668
 30
0.0
  0
SEQEND
  5
11FC4
  8
AM_0
  0
ARC
  5
11FC5
  8
AM_0
 10
162.0421210886264
 20
234.2518173636667
 30
0.0
 40
1.2700266
 50
269.6293300000018
 51
90.370680000000036
  0
ARC
  5
11FC6
  8
AM_0
 10
162.0421210886264
 20
244.2618273636667
 30
0.0
 40
1.2700266
 50
269.6293300000018
 51
90.370680000000036
  0
ARC
  5
11FC7
  8
AM_0
 10
161.98017108862661
 20
254.27183736366661
 30
0.0
 40
1.3300148000000001
 50
269.72943299999889
 51
90.270580000001374
  0
LINE
  5
11FC8
  8
AM_0
 10
229.15057491591429
 20
194.82572616500909
 30
0.0
 11
226.3752510886265
 21
184.46184736366661
 31
0.0
  0
LINE
  5
11FC9
  8
AM_0
 10
211.29523108862659
 20
205.90184736366669
 30
0.0
 11
229.1352010886265
 21
205.90184736366669
 31
0.0
  0
LINE
  5
11FCA
  8
AM_0
 10
211.3151910886267
 20
212.77183736366661
 30
0.0
 11
229.36091108862669
 21
212.77183736366661
 31
0.0
  0
ARC
  5
11FCB
  8
AM_0
 10
211.3151910886267
 20
206.7618273636667
 30
0.0
 40
1.5
 50
179.999989999999
 51
269.99999700000228
  0
ARC
  5
11FCC
  8
AM_0
 10
225.65522108862649
 20
204.26182736366661
 30
0.0
 40
1.0
 50
269.99999700000228
 51
90.000010000001026
  0
ARC
  5
11FCD
  8
AM_0
 10
211.3151910886267
 20
211.76182736366661
 30
0.0
 40
1.5
 50
90.0
 51
180.00001000000091
  0
ARC
  5
11FCE
  8
AM_0
 10
211.3151910886267
 20
211.76182736366661
 30
0.0
 40
1.02
 50
90.0
 51
180.00001000000091
  0
ARC
  5
11FCF
  8
AM_0
 10
211.29523108862659
 20
206.90184736366669
 30
0.0
 40
1.0
 50
179.999989999999
 51
269.99999700000228
  0
CIRCLE
  5
11FD0
  8
AM_0
 10
199.81519108862659
 20
210.7618273636667
 30
0.0
 40
1.1000000000000001
  0
LINE
  5
11FD1
  8
AM_0
 10
194.33521108862661
 20
211.76182736366661
 30
0.0
 11
194.33521108862661
 21
206.90184736366669
 31
0.0
  0
LINE
  5
11FD2
  8
AM_0
 10
194.81519108862659
 20
211.76182736366661
 30
0.0
 11
194.81519108862659
 21
206.7618273636667
 31
0.0
  0
CIRCLE
  5
11FD3
  8
AM_0
 10
199.81519108862659
 20
210.7618273636667
 30
0.0
 40
1.149999999999999
  0
LINE
  5
11FD4
  8
AM_0
 10
210.29523108862659
 20
211.76182736366661
 30
0.0
 11
210.29523108862659
 21
206.90184736366669
 31
0.0
  0
CIRCLE
  5
11FD5
  8
AM_0
 10
204.8151910886267
 20
210.7618273636667
 30
0.0
 40
1.0
  0
LINE
  5
11FD6
  8
AM_0
 10
209.81519108862659
 20
211.76182736366661
 30
0.0
 11
209.81519108862659
 21
206.7618273636667
 31
0.0
  0
LINE
  5
11FD7
  8
AM_0
 10
225.66236108862671
 20
213.2618273636667
 30
0.0
 11
211.3151910886267
 21
213.2618273636667
 31
0.0
  0
ARC
  5
11FD8
  8
AM_0
 10
225.65516108862661
 20
214.26182736366661
 30
0.0
 40
1.0000255999999981
 50
269.58946900000223
 51
90.410529999996797
  0
ARC
  5
11FD9
  8
AM_0
 10
229.1352010886265
 20
204.2167873636667
 30
0.0
 40
1.6750020000000001
 50
269.99999700000228
 51
90.000010000001026
  0
ARC
  5
11FDA
  8
AM_0
 10
230.4151910886267
 20
195.9618373636666
 30
0.0
 40
1.7000007999999991
 50
180.00001000000091
 51
269.999979999998
  0
LINE
  5
11FDB
  8
AM_0
 10
232.3151910886267
 20
201.56184736366669
 30
0.0
 11
232.3151910886267
 21
193.9618373636666
 31
0.0
  0
LINE
  5
11FDC
  8
AM_0
 10
231.31519108862659
 20
201.56184736366669
 30
0.0
 11
231.31519108862659
 21
193.9618373636666
 31
0.0
  0
LINE
  5
11FDD
  8
AM_0
 10
232.3151910886267
 20
193.26182736366661
 30
0.0
 11
240.3151910886267
 21
193.26182736366661
 31
0.0
  0
LINE
  5
11FDE
  8
AM_0
 10
231.31519108862659
 20
194.26182736366661
 30
0.0
 11
230.4151910886267
 21
194.26182736366661
 31
0.0
  0
LINE
  5
11FDF
  8
AM_0
 10
231.31519108862659
 20
193.9618373636666
 30
0.0
 11
232.3151910886267
 21
193.9618373636666
 31
0.0
  0
LINE
  5
11FE0
  8
AM_0
 10
228.3595610487458
 20
186.26182736366661
 30
0.0
 11
232.3151910886267
 21
186.26182736366661
 31
0.0
  0
LINE
  5
11FE1
  8
AM_0
 10
231.31519108862659
 20
201.26182736366681
 30
0.0
 11
230.4151910886267
 21
201.26182736366681
 31
0.0
  0
ARC
  5
11FE2
  8
AM_0
 10
230.4151910886267
 20
199.56184736366649
 30
0.0
 40
1.699996899999999
 50
90.000003000004199
 51
179.99998000000451
  0
LINE
  5
11FE3
  8
AM_0
 10
232.3151910886267
 20
198.5391973636666
 30
0.0
 11
231.31519108862659
 21
197.9618373636666
 31
0.0
  0
LINE
  5
11FE4
  8
AM_0
 10
231.31519108862659
 20
201.56184736366669
 30
0.0
 11
232.3151910886267
 21
201.56184736366669
 31
0.0
  0
LINE
  5
11FE5
  8
AM_0
 10
232.3151910886267
 20
197.5391973636666
 30
0.0
 11
231.31519108862659
 21
196.9618373636666
 31
0.0
  0
LINE
  5
11FE6
  8
AM_0
 10
228.71521108862669
 20
199.56184736366649
 30
0.0
 11
228.71521108862669
 21
195.9618373636666
 31
0.0
  0
LINE
  5
11FE7
  8
AM_0
 10
232.3151910886267
 20
207.32187736366669
 30
0.0
 11
240.3151910886267
 21
207.32187736366669
 31
0.0
  0
ARC
  5
11FE8
  8
AM_0
 10
229.35517108862669
 20
214.2317973636666
 30
0.0
 40
1.460011199999999
 50
269.77524999999667
 51
90.224750000003354
  0
LINE
  5
11FE9
  8
AM_0
 10
211.3151910886267
 20
265.74180736366668
 30
0.0
 11
229.3494310886266
 21
265.74180736366668
 31
0.0
  0
ARC
  5
11FEA
  8
AM_0
 10
211.3151910886267
 20
266.76182736366673
 30
0.0
 40
1.5
 50
179.999989999999
 51
269.99999700000228
  0
ARC
  5
11FEB
  8
AM_0
 10
211.3151910886267
 20
266.76182736366673
 30
0.0
 40
1.02
 50
179.999989999999
 51
269.99999700000228
  0
CIRCLE
  5
11FEC
  8
AM_0
 10
199.81519108862659
 20
267.76182736366673
 30
0.0
 40
1.1000000000000001
  0
CIRCLE
  5
11FED
  8
AM_0
 10
199.81519108862659
 20
267.76182736366673
 30
0.0
 40
1.149999999999999
  0
CIRCLE
  5
11FEE
  8
AM_0
 10
204.8151910886267
 20
267.76182736366673
 30
0.0
 40
1.0
  0
LINE
  5
11FEF
  8
AM_0
 10
225.64802108862651
 20
265.26182736366673
 30
0.0
 11
211.3151910886267
 21
265.26182736366673
 31
0.0
  0
ARC
  5
11FF0
  8
AM_0
 10
225.65516108862661
 20
264.26182736366673
 30
0.0
 40
1.0000255999999981
 50
269.58946900000223
 51
90.410529999996797
  0
ARC
  5
11FF1
  8
AM_0
 10
229.35517108862669
 20
264.29185736366668
 30
0.0
 40
1.460011199999999
 50
269.77524999999667
 51
90.224750000003354
  0
ARC
  5
11FF2
  8
AM_0
 10
125.9883510886264
 20
274.30687736366667
 30
0.0
 40
1.675014
 50
89.766490000000559
 51
270.23350100000317
  0
ARC
  5
11FF3
  8
AM_0
 10
126.8598110886268
 20
274.26182736366673
 30
0.0
 40
1.0000138999999999
 50
89.69165999999926
 51
270.30834000000073
  0
ARC
  5
11FF4
  8
AM_0
 10
127.22144108862661
 20
296.39183736366658
 30
0.0
 40
2.0
 50
90.000010000001026
 51
172.04955999999649
  0
ARC
  5
11FF5
  8
AM_0
 10
127.3018210886265
 20
296.39183736366658
 30
0.0
 40
2.0
 50
90.000010000001026
 51
171.3703800000024
  0
ARC
  5
11FF6
  8
AM_0
 10
127.57142108862659
 20
296.39146736366672
 30
0.0
 40
2.000420099999999
 50
90.177290000003936
 51
171.07317999999859
  0
ARC
  5
11FF7
  8
AM_0
 10
127.5200910886266
 20
293.5425973636668
 30
0.0
 40
1.9992490000000001
 50
89.852569999998664
 51
169.35689999999889
  0
LINE
  5
11FF8
  8
AM_0
 10
129.67518108862649
 20
275.91185736366668
 30
0.0
 11
124.3152510886265
 21
287.35176736366662
 31
0.0
  0
LINE
  5
11FF9
  8
AM_0
 10
125.99518108862669
 20
272.63182736366667
 30
0.0
 11
193.33521108862661
 21
272.63182736366667
 31
0.0
  0
LINE
  5
11FFA
  8
AM_0
 10
181.31519108862659
 20
275.26182736366673
 30
0.0
 11
126.6751810886265
 21
275.26182736366673
 31
0.0
  0
LINE
  5
11FFB
  8
AM_0
 10
181.31519108862659
 20
273.26182736366673
 30
0.0
 11
126.6751810886265
 21
273.26182736366673
 31
0.0
  0
LINE
  5
11FFC
  8
AM_0
 10
125.99518108862669
 20
275.98179736366671
 30
0.0
 11
181.31519108862659
 21
275.98179736366671
 31
0.0
  0
LINE
  5
11FFE
  8
AM_0
 10
124.31519108862661
 20
288.70186736366662
 30
0.0
 11
125.5952210886265
 21
296.70177736366662
 31
0.0
  0
LINE
  5
11FFF
  8
AM_0
 10
124.31519108862661
 20
287.35185736366668
 30
0.0
 11
125.5552410886265
 21
293.91185736366668
 31
0.0
  0
LINE
  5
12000
  8
AM_0
 10
124.3152510886265
 20
290.04179736366672
 30
0.0
 11
125.2406710886265
 21
296.66838736366668
 31
0.0
  0
LINE
  5
12001
  8
AM_0
 10
124.31519108862661
 20
290.04176736366668
 30
0.0
 11
125.32447108862659
 21
296.6919473636666
 31
0.0
  0
ARC
  5
12002
  8
AM_0
 10
111.3142810886266
 20
280.53709736366659
 30
0.0
 40
0.9990889999999998
 50
123.337909999998
 51
180.3049100000035
  0
ARC
  5
12003
  8
AM_0
 10
111.31367108862661
 20
279.5025573636666
 30
0.0
 40
0.9984580299999999
 50
120.61343000000591
 51
180.04042000000149
  0
ARC
  5
12004
  8
AM_0
 10
111.31367108862661
 20
279.5025573636666
 30
0.0
 40
0.9984580299999999
 50
120.61343000000591
 51
180.04042000000149
  0
ARC
  5
12005
  8
AM_0
 10
111.31171108862679
 20
273.43333736366668
 30
0.0
 40
0.9965090199999998
 50
112.82155000000451
 51
180.08625000000339
  0
ARC
  5
12006
  8
AM_0
 10
111.3115910886266
 20
271.64744736366669
 30
0.0
 40
0.99638802
 50
106.70335999999961
 51
179.75009000000111
  0
ARC
  5
12007
  8
AM_0
 10
111.3139710886265
 20
285.13829736366671
 30
0.0
 40
0.9987969999999998
 50
121.2920500000035
 51
180.37271999999899
  0
ARC
  5
12008
  8
AM_0
 10
111.3109210886267
 20
286.2314373636666
 30
0.0
 40
0.9956849800000001
 50
116.5908599999994
 51
179.97886999999989
  0
ARC
  5
12009
  8
AM_0
 10
111.3128110886267
 20
287.27721736366669
 30
0.0
 40
0.9976310099999999
 50
119.92076000000429
 51
179.7321900000014
  0
ARC
  5
1200A
  8
AM_0
 10
111.3129310886266
 20
284.10057736366667
 30
0.0
 40
0.9977070099999998
 50
117.95518999999921
 51
179.92597999999589
  0
ARC
  5
1200B
  8
AM_0
 10
112.5785610886268
 20
280.24083736366669
 30
0.0
 40
1.001044999999998
 50
89.620290000000452
 51
119.5281300000042
  0
ARC
  5
1200C
  8
AM_0
 10
114.3127510886264
 20
280.23936736366659
 30
0.0
 40
1.002470999999999
 50
0.1410700000000762
 51
89.858929999999944
  0
LINE
  5
1200D
  8
AM_0
 10
112.08521108862659
 20
281.1117773636667
 30
0.0
 11
110.8052410886265
 21
280.3618073636668
 31
0.0
  0
LINE
  5
1200E
  8
AM_0
 10
110.8051810886267
 20
280.36183736366672
 30
0.0
 11
110.78516108862669
 21
280.35185736366668
 31
0.0
  0
LINE
  5
1200F
  8
AM_0
 10
112.1252510886264
 20
274.87178736366673
 30
0.0
 11
110.92524108862661
 21
274.35176736366662
 31
0.0
  0
LINE
  5
12010
  8
AM_0
 10
112.1751810886266
 20
272.96184736366672
 30
0.0
 11
111.02521108862661
 21
272.6018273636667
 31
0.0
  0
LINE
  5
12011
  8
AM_0
 10
112.31519108862661
 20
274.65184736366672
 30
0.0
 11
112.31519108862661
 21
273.5917873636667
 31
0.0
  0
ARC
  5
12012
  8
AM_0
 10
112.51819108862659
 20
273.94664736366673
 30
0.0
 40
1.005233
 50
90.170750000000552
 51
113.0136100000027
  0
LINE
  5
12013
  8
AM_0
 10
112.5152010886266
 20
274.95177736366662
 30
0.0
 11
114.6151810886266
 21
274.95177736366662
 31
0.0
  0
ARC
  5
12014
  8
AM_0
 10
112.4557610886266
 20
271.99913736366659
 30
0.0
 40
1.002699
 50
89.459359999998938
 51
106.247279999998
  0
LINE
  5
12015
  8
AM_0
 10
112.46522108862639
 20
273.0018173636667
 30
0.0
 11
114.31519108862661
 21
273.0018173636667
 31
0.0
  0
ARC
  5
12016
  8
AM_0
 10
114.3119610886266
 20
280.23509736366668
 30
0.0
 40
1.0032760000000001
 50
0.3818899999952545
 51
25.801899999995221
  0
ARC
  5
12017
  8
AM_0
 10
114.3118310886265
 20
271.99852736366671
 30
0.0
 40
1.003352
 50
0.1910999999988883
 51
89.808890000003075
  0
ARC
  5
12018
  8
AM_0
 10
114.6157310886266
 20
275.65123736366672
 30
0.0
 40
0.6994530000000001
 50
269.95517100000251
 51
0.0448299999992445
  0
LINE
  5
12019
  8
AM_0
 10
117.0152010886266
 20
282.45177736366662
 30
0.0
 11
123.24518108862669
 21
282.45177736366662
 31
0.0
  0
LINE
  5
1201A
  8
AM_0
 10
112.0651310886268
 20
282.22185736366669
 30
0.0
 11
110.76514108862661
 21
281.37184736366669
 31
0.0
  0
ARC
  5
1201B
  8
AM_0
 10
112.6079810886266
 20
281.38133736366672
 30
0.0
 40
1.000521999999999
 50
89.586559999996382
 51
122.8538199999969
  0
LINE
  5
1201C
  8
AM_0
 10
112.31519108862661
 20
282.0917873636667
 30
0.0
 11
112.31519108862661
 21
281.62181736366671
 31
0.0
  0
LINE
  5
1201D
  8
AM_0
 10
112.58521108862659
 20
281.24180736366668
 30
0.0
 11
114.31519108862661
 21
281.24180736366668
 31
0.0
  0
LINE
  5
1201E
  8
AM_0
 10
112.6152410886265
 20
282.38182736366667
 30
0.0
 11
115.31519108862661
 21
282.38182736366667
 31
0.0
  0
LINE
  5
1201F
  8
AM_0
 10
112.0952210886265
 20
285.6418373636667
 30
0.0
 11
110.8452210886265
 21
284.98183736366673
 31
0.0
  0
LINE
  5
12020
  8
AM_0
 10
112.08521108862659
 20
288.87181736366671
 30
0.0
 11
110.8152510886265
 21
288.14183736366658
 31
0.0
  0
LINE
  5
12021
  8
AM_0
 10
112.10517108862661
 20
287.75184736366668
 30
0.0
 11
110.8651810886266
 21
287.1218473636668
 31
0.0
  0
LINE
  5
12022
  8
AM_0
 10
112.07526108862641
 20
286.76182736366673
 30
0.0
 11
110.79523108862649
 21
285.99180736366668
 31
0.0
  0
LINE
  5
12023
  8
AM_0
 10
112.31519108862661
 20
288.76182736366673
 30
0.0
 11
112.31519108862661
 21
288.2317973636666
 31
0.0
  0
ARC
  5
12024
  8
AM_0
 10
112.5958910886264
 20
288.01073736366669
 30
0.0
 40
1.001123999999999
 50
90.612319999998036
 51
120.6721799999995
  0
LINE
  5
12025
  8
AM_0
 10
112.58521108862659
 20
289.01182736366673
 30
0.0
 11
114.81519108862661
 21
289.01182736366673
 31
0.0
  0
ARC
  5
12026
  8
AM_0
 10
112.5703810886265
 20
284.76121736366662
 30
0.0
 40
1.0006820000000001
 50
90.296070000004406
 51
118.3493799999988
  0
ARC
  5
12027
  8
AM_0
 10
112.5866110886267
 20
285.89818736366669
 30
0.0
 40
1.003743999999998
 50
89.508099999999374
 51
120.6288700000062
  0
ARC
  5
12028
  8
AM_0
 10
112.5610410886264
 20
286.86253736366672
 30
0.0
 40
0.9993420200000001
 50
90.334539999995101
 51
117.1379999999984
  0
LINE
  5
12029
  8
AM_0
 10
112.31519108862661
 20
286.66185736366668
 30
0.0
 11
112.31519108862661
 21
286.11180736366668
 31
0.0
  0
LINE
  5
1202A
  8
AM_0
 10
112.5551810886266
 20
287.86180736366668
 30
0.0
 11
114.81519108862661
 21
287.86180736366668
 31
0.0
  0
LINE
  5
1202B
  8
AM_0
 10
112.56519108862661
 20
285.76182736366673
 30
0.0
 11
114.31519108862661
 21
285.76182736366673
 31
0.0
  0
LINE
  5
1202C
  8
AM_0
 10
112.5952210886265
 20
286.90184736366672
 30
0.0
 11
115.31519108862661
 21
286.90184736366672
 31
0.0
  0
ARC
  5
1202D
  8
AM_0
 10
114.3111010886265
 20
284.75767736366669
 30
0.0
 40
1.0041199999999999
 50
0.2346099999999815
 51
89.765389999999996
  0
LINE
  5
1202E
  8
AM_0
 10
115.31519108862661
 20
289.26182736366673
 30
0.0
 11
116.31519108862661
 21
289.26182736366673
 31
0.0
  0
ARC
  5
1202F
  8
AM_0
 10
114.8156810886265
 20
289.51134736366669
 30
0.0
 40
0.49952301
 50
269.9452260000005
 51
0.0547699999986695
  0
ARC
  5
12030
  8
AM_0
 10
114.8118310886265
 20
287.35838736366668
 30
0.0
 40
0.5033929900000002
 50
0.3849000000018747
 51
89.615089999999441
  0
LINE
  5
12031
  8
AM_0
 10
116.31519108862661
 20
292.26182736366673
 30
0.0
 11
124.31519108862661
 21
292.26182736366673
 31
0.0
  0
ARC
  5
12032
  8
AM_0
 10
193.33521108862661
 20
271.62181736366671
 30
0.0
 40
1.0
 50
359.99999931675052
 51
90.000010000001026
  0
ARC
  5
12033
  8
AM_0
 10
193.31519108862659
 20
271.76182736366661
 30
0.0
 40
1.5
 50
359.99999931675052
 51
90.000010000001026
  0
LINE
  5
12034
  8
AM_0
 10
212.81519108862639
 20
312.26182736366673
 30
0.0
 11
155.31519108862639
 21
312.26182736366673
 31
0.0
  0
LINE
  5
12035
  8
AM_0
 10
181.31519108862659
 20
275.98179736366671
 30
0.0
 11
229.1352010886265
 21
275.98179736366671
 31
0.0
  0
LINE
  5
12036
  8
AM_0
 10
225.65522108862649
 20
275.26182736366673
 30
0.0
 11
181.31519108862659
 21
275.26182736366673
 31
0.0
  0
LINE
  5
12037
  8
AM_0
 10
225.65522108862649
 20
273.26182736366673
 30
0.0
 11
181.31519108862659
 21
273.26182736366673
 31
0.0
  0
LINE
  5
12038
  8
AM_0
 10
199.11919108862651
 20
331.76182736366673
 30
0.0
 11
163.5111910886265
 21
331.76182736366673
 31
0.0
  0
LINE
  5
12039
  8
AM_0
 10
210.31519108862639
 20
328.76182736366673
 30
0.0
 11
135.31519108862639
 21
328.76182736366673
 31
0.0
  0
LINE
  5
1203A
  8
AM_0
 10
127.52521108862661
 20
295.54185736366668
 30
0.0
 11
224.4452010886265
 21
295.54185736366668
 31
0.0
  0
LINE
  5
1203B
  8
AM_0
 10
212.81519108862639
 20
305.26182736366678
 30
0.0
 11
132.81519108862639
 21
305.26182736366678
 31
0.0
  0
LINE
  5
1203C
  8
AM_0
 10
132.81519108862639
 20
308.76182736366673
 30
0.0
 11
212.81519108862639
 21
308.76182736366673
 31
0.0
  0
LINE
  5
1203D
  8
AM_0
 10
153.31519108862639
 20
316.26182736366673
 30
0.0
 11
153.31519108862639
 21
308.76182736366673
 31
0.0
  0
LINE
  5
1203E
  8
AM_0
 10
149.81519108862639
 20
308.76182736366673
 30
0.0
 11
149.81519108862639
 21
316.26182736366673
 31
0.0
  0
LINE
  5
1203F
  8
AM_0
 10
154.31519108862639
 20
317.26182736366673
 30
0.0
 11
154.31519108862639
 21
313.26182736366673
 31
0.0
  0
LINE
  5
12040
  8
AM_0
 10
141.81519108862639
 20
308.76182736366673
 30
0.0
 11
141.81519108862639
 21
316.26182736366673
 31
0.0
  0
LINE
  5
12041
  8
AM_0
 10
132.81519108862639
 20
305.26182736366678
 30
0.0
 11
132.81519108862639
 21
324.76182736366673
 31
0.0
  0
LINE
  5
12042
  8
AM_0
 10
138.31519108862639
 20
308.76182736366673
 30
0.0
 11
138.31519108862639
 21
316.26182736366673
 31
0.0
  0
LINE
  5
12043
  8
AM_0
 10
137.31519108862639
 20
313.26182736366673
 30
0.0
 11
137.31519108862639
 21
317.26182736366673
 31
0.0
  0
LINE
  5
12044
  8
AM_0
 10
134.31519108862639
 20
312.26182736366673
 30
0.0
 11
134.31519108862639
 21
327.76182736366673
 31
0.0
  0
LINE
  5
12045
  8
AM_0
 10
127.22144108862661
 20
298.3918373636667
 30
0.0
 11
149.64790390997811
 21
298.3918373636667
 31
0.0
  0
LINE
  5
12046
  8
AM_0
 10
132.81519108862639
 20
312.26182736366673
 30
0.0
 11
136.31519108862639
 21
312.26182736366673
 31
0.0
  0
ARC
  5
12047
  8
AM_0
 10
136.31519108862639
 20
313.26182736366673
 30
0.0
 40
1.0
 50
270.0
 51
0.0
  0
LINE
  5
12048
  8
AM_0
 10
151.2890100145226
 20
305.26182736366673
 30
0.0
 11
151.03453075966311
 21
295.54185736366679
 31
0.0
  0
ARC
  5
12049
  8
AM_0
 10
149.64790390997811
 20
299.89183736366658
 30
0.0
 40
1.5
 50
270.0
 51
358.5002775490122
1001
GENIUS_GENODEF_13
1002
{
1000
HIER
1070
     0
1002
}
1002
{
1000
MANEDIT
1070
     0
1002
}
1002
{
1000
NOSEL
1070
     0
1002
}
1002
{
1000
BEHIND
1070
     0
1002
}
1002
{
1000
REACTOR
1002
}
1001
GENIUS_GENOBJ-N-FIL_13
1002
{
1000
OWNER
1000
GEN
1002
}
  0
ARC
  5
1204A
  8
AM_0
 10
155.31519108862639
 20
313.26182736366673
 30
0.0
 40
1.0
 50
180.0
 51
270.0
  0
LINE
  5
1204B
  8
AM_0
 10
163.5111910886265
 20
331.76182736366673
 30
0.0
 11
158.3224155784234
 21
328.76182736366673
 31
0.0
  0
ARC
  5
1204C
  8
AM_0
 10
144.81519108862639
 20
317.26182736366673
 30
0.0
 40
7.499999999999992
 50
90.0
 51
180.0
  0
ARC
  5
1204D
  8
AM_0
 10
145.81519108862639
 20
316.26182736366673
 30
0.0
 40
3.999999999999996
 50
0.0
 51
180.0
  0
ARC
  5
1204E
  8
AM_0
 10
145.81519108862639
 20
316.26182736366673
 30
0.0
 40
7.5000000000000018
 50
0.0
 51
180.0
  0
LINE
  5
1204F
  8
AM_0
 10
132.81519108862639
 20
324.76182736366673
 30
0.0
 11
134.31519108862639
 21
324.76182736366673
 31
0.0
  0
ARC
  5
12050
  8
AM_0
 10
135.31519108862639
 20
327.76182736366673
 30
0.0
 40
1.0
 50
90.0
 51
180.0
  0
ARC
  5
12051
  8
AM_0
 10
146.81519108862639
 20
317.26182736366673
 30
0.0
 40
7.4999999999999956
 50
0.0
 51
90.0
  0
LINE
  5
12052
  8
AM_0
 10
146.81519108862639
 20
324.76182736366673
 30
0.0
 11
144.81519108862639
 21
324.76182736366673
 31
0.0
  0
LINE
  5
12053
  8
AM_0
 10
211.31519108862639
 20
312.26182736366673
 30
0.0
 11
211.31519108862639
 21
327.76182736366673
 31
0.0
  0
LINE
  5
12054
  8
AM_0
 10
229.15055876817561
 20
283.69791058786581
 30
0.0
 11
226.37519108862659
 21
294.06181736366659
 31
0.0
  0
LINE
  5
12055
  8
AM_0
 10
231.31519108862659
 20
292.26182736366673
 30
0.0
 11
225.58945108862659
 21
301.0787273636667
 31
0.0
  0
LINE
  5
12056
  8
AM_0
 10
226.85724108862669
 20
292.26182736366673
 30
0.0
 11
232.3151910886267
 21
292.26182736366673
 31
0.0
  0
LINE
  5
12057
  8
AM_0
 10
229.1352010886265
 20
272.63182736366667
 30
0.0
 11
211.29523108862659
 21
272.63182736366667
 31
0.0
  0
ARC
  5
12058
  8
AM_0
 10
211.29523108862659
 20
271.62181736366671
 30
0.0
 40
1.0
 50
90.0
 51
180.00001000000091
  0
ARC
  5
12059
  8
AM_0
 10
211.3151910886267
 20
271.76182736366661
 30
0.0
 40
1.5
 50
90.0
 51
180.00001000000091
  0
ARC
  5
1205A
  8
AM_0
 10
225.65522108862649
 20
274.26182736366673
 30
0.0
 40
1.0
 50
269.99999700000228
 51
90.000010000001026
  0
ARC
  5
1205B
  8
AM_0
 10
212.89428989656281
 20
303.26182736366673
 30
0.0
 40
1.5
 50
181.49992594324999
 51
270.0
1001
GENIUS_GENODEF_13
1002
{
1000
HIER
1070
     0
1002
}
1002
{
1000
MANEDIT
1070
     0
1002
}
1002
{
1000
NOSEL
1070
     0
1002
}
1002
{
1000
BEHIND
1070
     0
1002
}
1002
{
1000
REACTOR
1002
}
1001
GENIUS_GENOBJ-N-FIL_13
1002
{
1000
OWNER
1000
GEN
1002
}
  0
LINE
  5
1205C
  8
AM_0
 10
211.34140650231419
 20
305.26182736366678
 30
0.0
 11
211.5959203023821
 21
295.54185736366668
 31
0.0
  0
LINE
  5
1205D
  8
AM_0
 10
212.89428989656281
 20
301.76182736366673
 30
0.0
 11
224.3314310886266
 21
301.76182736366673
 31
0.0
  0
ARC
  5
1205E
  8
AM_0
 10
224.44037108862659
 20
293.5370973636667
 30
0.0
 40
2.0047290000000002
 50
15.17349999999808
 51
89.861679999995786
  0
ARC
  5
1205F
  8
AM_0
 10
224.3314310886266
 20
300.26182736366673
 30
0.0
 40
1.5
 50
33.00000000000108
 51
90.000010000001026
  0
LINE
  5
12060
  8
AM_0
 10
212.81519108862639
 20
305.26182736366678
 30
0.0
 11
212.81519108862639
 21
312.26182736366673
 31
0.0
  0
LINE
  5
12061
  8
AM_0
 10
228.71521108862669
 20
278.96180736366682
 30
0.0
 11
228.71521108862669
 21
282.56181736366688
 31
0.0
  0
LINE
  5
12062
  8
AM_0
 10
232.3151910886267
 20
280.98445736366671
 30
0.0
 11
231.31519108862659
 21
281.56181736366682
 31
0.0
  0
LINE
  5
12063
  8
AM_0
 10
232.3151910886267
 20
276.96180736366659
 30
0.0
 11
232.3151910886267
 21
284.56181736366682
 31
0.0
  0
LINE
  5
12064
  8
AM_0
 10
231.31519108862659
 20
276.96180736366659
 30
0.0
 11
231.31519108862659
 21
284.56181736366682
 31
0.0
  0
LINE
  5
12065
  8
AM_0
 10
232.3151910886267
 20
271.20176736366659
 30
0.0
 11
240.3151910886267
 21
271.20176736366682
 31
0.0
  0
ARC
  5
12066
  8
AM_0
 10
230.41519108862681
 20
278.96180736366682
 30
0.0
 40
1.699996899999999
 50
180.00001999999549
 51
269.99999700000228
  0
LINE
  5
12067
  8
AM_0
 10
231.31519108862659
 20
277.26182736366661
 30
0.0
 11
230.41519108862681
 21
277.26182736366661
 31
0.0
  0
ARC
  5
12068
  8
AM_0
 10
229.1352010886265
 20
274.30687736366667
 30
0.0
 40
1.6750020000000001
 50
269.99999700000228
 51
90.000010000001026
  0
LINE
  5
12069
  8
AM_0
 10
232.3151910886267
 20
279.98445736366659
 30
0.0
 11
231.31519108862659
 21
280.56181736366682
 31
0.0
  0
LINE
  5
1206A
  8
AM_0
 10
231.31519108862659
 20
276.96180736366659
 30
0.0
 11
232.3151910886267
 21
276.96180736366659
 31
0.0
  0
LINE
  5
1206B
  8
AM_0
 10
232.3151910886267
 20
285.26182736366673
 30
0.0
 11
240.3151910886267
 21
285.26182736366673
 31
0.0
  0
LINE
  5
1206C
  8
AM_0
 10
231.31519108862659
 20
284.26182736366661
 30
0.0
 11
230.41519108862681
 21
284.26182736366661
 31
0.0
  0
LINE
  5
1206D
  8
AM_0
 10
231.31519108862659
 20
284.56181736366682
 30
0.0
 11
232.3151910886267
 21
284.56181736366682
 31
0.0
  0
ARC
  5
1206E
  8
AM_0
 10
230.41519108862681
 20
282.56181736366688
 30
0.0
 40
1.7000007999999991
 50
90.000020000002024
 51
179.999989999999
  0
LINE
  5
1206F
  8
AM_0
 10
232.3151910886267
 20
295.26182736366673
 30
0.0
 11
240.3151910886267
 21
295.26182736366673
 31
0.0
  0
ARC
  5
12070
  8
AM_0
 10
210.31519108862639
 20
327.76182736366678
 30
0.0
 40
1.0
 50
0.0
 51
90.0
  0
LINE
  5
12071
  8
AM_0
 10
204.31519108862639
 20
328.76182736366673
 30
0.0
 11
199.11919108862651
 21
331.76182736366673
 31
0.0
  0
LINE
  5
13116
  8
AM_0
 10
411.81518041939432
 20
571.28816005641431
 30
0.0
 11
257.81520634741707
 21
571.28816005641397
 31
0.0
  0
LINE
  5
13118
  8
AM_0
 10
257.81520634741707
 20
481.28815737420518
 30
0.0
 11
411.8151804193941
 21
481.28815737420541
 31
0.0
  0
LINE
  5
13119
  8
AM_0
 10
411.8151956781843
 20
501.28815776163538
 30
0.0
 11
257.81519108862682
 21
501.28815776163538
 31
0.0
  0
LINE
  5
1311A
  8
ﾁｭｳｼﾝｾﾝ1
 10
103.8151910886267
 20
526.2881227948501
 30
0.0
 11
416.8151956781843
 21
526.28816624442516
 31
0.0
1001
GENIUS_GENODEF_13
1002
{
1000
HIER
1070
     0
1002
}
1002
{
1000
MANEDIT
1070
     0
1002
}
1002
{
1000
NOSEL
1070
     0
1002
}
1002
{
1000
BEHIND
1070
     0
1002
}
1002
{
1000
REACTOR
1002
}
1001
GENIUS_GENOBJ-N-CEN_13
1002
{
1000
OWNER
1000
GEN
1002
}
  0
LINE
  5
1311B
  8
AM_0
 10
257.81519108862682
 20
501.28815776163538
 30
0.0
 11
259.03703172704832
 21
571.28816005641431
 31
0.0
  0
ARC
  5
1311C
  8
AM_0
 10
257.0367270779148
 20
571.28816005641397
 30
0.0
 40
2.0
 50
270.0
 51
359.0000114119764
1001
GENIUS_GENODEF_13
1002
{
1000
HIER
1070
     0
1002
}
1002
{
1000
MANEDIT
1070
     0
1002
}
1002
{
1000
NOSEL
1070
     0
1002
}
1002
{
1000
BEHIND
1070
     0
1002
}
1002
{
1000
OTHER
1070
     0
1002
}
1002
{
1000
REACTOR
1002
}
1001
GENIUS_GENOBJ-N-FIL_13
1002
{
1000
OWNER
1000
GEN
1002
}
  0
LINE
  5
1311D
  8
AM_0
 10
248.9527682641413
 20
581.8202312732609
 30
0.0
 11
248.9527835222558
 21
470.7560535007849
 31
0.0
  0
LINE
  5
1311E
  8
AM_0
 10
240.31519108862659
 20
582.28815279485025
 30
0.0
 11
240.3151910886267
 21
470.28813179485041
 31
0.0
  0
LINE
  5
1311F
  8
AM_0
 10
249.636824197105
 20
471.94084876407089
 30
0.0
 11
255.0184878866192
 21
502.46180579808572
 31
0.0
1001
GENIUS_GENODEF_13
1002
{
1000
HIER
1070
     0
1002
}
1002
{
1000
MANEDIT
1070
     0
1002
}
1002
{
1000
NOSEL
1070
     0
1002
}
1002
{
1000
BEHIND
1070
     0
1002
}
1002
{
1000
REACTOR
1002
}
1001
GENIUS_GENOBJ-N-CEN_13
1002
{
1000
OWNER
1000
GEN
1002
}
  0
LINE
  5
13120
  8
AM_0
 10
240.3151910886267
 20
470.28814229485027
 30
0.0
 11
247.6672081930358
 21
470.28814229485027
 31
0.0
  0
ARC
  5
13121
  8
AM_0
 10
247.6672081930358
 20
472.28814229485022
 30
0.0
 40
2.0
 50
270.0
 51
350.00000821592602
1001
GENIUS_GENOBJ-N-CEN_13
1002
{
1000
OWNER
1000
GEN
1002
}
1001
GENIUS_GENODEF_13
1002
{
1000
HIER
1070
     0
1002
}
1002
{
1000
MANEDIT
1070
     0
1002
}
1002
{
1000
NOSEL
1070
     0
1002
}
1002
{
1000
BEHIND
1070
     0
1002
}
1002
{
1000
OTHER
1070
     0
1002
}
1002
{
1000
REACTOR
1002
}
1001
GENIUS_GENOBJ-N-FIL_13
1002
{
1000
OWNER
1000
GEN
1002
}
  0
LINE
  5
13122
  8
AM_0
 10
240.31519108862659
 20
494.35068479485039
 30
0.0
 11
248.95278028110471
 21
494.34846979969279
 31
0.0
  0
LINE
  5
13123
  8
AM_0
 10
240.3151910886267
 20
480.28811679485028
 30
0.0
 11
248.95278221272821
 21
480.28813593760981
 31
0.0
  0
LINE
  5
13124
  8
AM_0
 10
258.16431218913948
 20
481.28815737420518
 30
0.0
 11
257.81519108862682
 21
501.28815776163538
 31
0.0
  0
LINE
  5
13125
  8
AM_0
 10
256.8324936297509
 20
503.28815776163549
 30
0.0
 11
256.00329566453172
 21
503.28815776163549
 31
0.0
  0
ARC
  5
13126
  8
AM_0
 10
256.00329566453172
 20
502.28815776163532
 30
0.0
 40
1.0
 50
90.0
 51
170.00000821593241
1001
GENIUS_GENODEF_13
1002
{
1000
HIER
1070
     0
1002
}
1002
{
1000
MANEDIT
1070
     0
1002
}
1002
{
1000
NOSEL
1070
     0
1002
}
1002
{
1000
BEHIND
1070
     0
1002
}
1002
{
1000
OTHER
1070
     0
1002
}
1002
{
1000
REACTOR
1002
}
1001
GENIUS_GENOBJ-N-FIL_13
1002
{
1000
OWNER
1000
GEN
1002
}
  0
ARC
  5
13127
  8
AM_0
 10
256.8324936297509
 20
502.28815776163532
 30
0.0
 40
1.0
 50
359.0000114119764
 51
90.0
1001
GENIUS_GENOBJ-N-FIL_13
1002
{
1000
OWNER
1000
GEN
1002
}
1001
GENIUS_GENODEF_13
1002
{
1000
HIER
1070
     0
1002
}
1002
{
1000
MANEDIT
1070
     0
1002
}
1002
{
1000
NOSEL
1070
     0
1002
}
1002
{
1000
BEHIND
1070
     0
1002
}
1002
{
1000
OTHER
1070
     0
1002
}
1002
{
1000
REACTOR
1002
}
  0
LINE
  5
13129
  8
AM_0
 10
249.63680861083921
 20
580.63543893261715
 30
0.0
 11
251.34622527384349
 21
570.94086341864715
 31
0.0
1001
GENIUS_GENODEF_13
1002
{
1000
HIER
1070
     0
1002
}
1002
{
1000
MANEDIT
1070
     0
1002
}
1002
{
1000
NOSEL
1070
     0
1002
}
1002
{
1000
BEHIND
1070
     0
1002
}
1002
{
1000
REACTOR
1002
}
1001
GENIUS_GENOBJ-N-CEN_13
1002
{
1000
OWNER
1000
GEN
1002
}
  0
LINE
  5
1312A
  8
AM_0
 10
240.31519108862659
 20
558.22809229485006
 30
0.0
 11
248.9527715052545
 21
558.22809229485006
 31
0.0
  0
LINE
  5
1312B
  8
AM_0
 10
240.31519108862659
 20
572.28814229485022
 30
0.0
 11
248.95276957367
 21
572.28814229485022
 31
0.0
  0
LINE
  5
1312C
  8
AM_0
 10
257.0367270779148
 20
569.28816005641431
 30
0.0
 11
253.31584073006709
 21
569.28816005641431
 31
0.0
  0
ARC
  5
1312D
  8
AM_0
 10
253.31584073006709
 20
571.28816005641431
 30
0.0
 40
2.0
 50
190.0000082159296
 51
270.0
1001
GENIUS_GENOBJ-N-CEN_13
1002
{
1000
OWNER
1000
GEN
1002
}
1001
GENIUS_GENODEF_13
1002
{
1000
HIER
1070
     0
1002
}
1002
{
1000
MANEDIT
1070
     0
1002
}
1002
{
1000
NOSEL
1070
     0
1002
}
1002
{
1000
BEHIND
1070
     0
1002
}
1002
{
1000
OTHER
1070
     0
1002
}
1002
{
1000
REACTOR
1002
}
1001
GENIUS_GENOBJ-N-FIL_13
1002
{
1000
OWNER
1000
GEN
1002
}
  0
LINE
  5
1312E
  8
AM_0
 10
240.31519108862659
 20
582.28814229485022
 30
0.0
 11
247.66719315461529
 21
582.28814229485022
 31
0.0
  0
ARC
  5
1312F
  8
AM_0
 10
247.66719315461521
 20
580.28814229485022
 30
0.0
 40
2.0
 50
10.000008215929659
 51
90.0
1001
GENIUS_GENOBJ-N-CEN_13
1002
{
1000
OWNER
1000
GEN
1002
}
1001
GENIUS_GENOBJ-N-FIL_13
1002
{
1000
OWNER
1000
GEN
1002
}
1001
GENIUS_GENODEF_13
1002
{
1000
HIER
1070
     0
1002
}
1002
{
1000
MANEDIT
1070
     0
1002
}
1002
{
1000
NOSEL
1070
     0
1002
}
1002
{
1000
BEHIND
1070
     0
1002
}
1002
{
1000
OTHER
1070
     0
1002
}
1002
{
1000
REACTOR
1002
}
  0
LINE
  5
13131
  8
ﾁｭｳｼﾝｾﾝ1
 10
354.31519396455082
 20
414.1617917074621
 30
0.0
 11
354.3151939645507
 21
638.41452342932132
 31
0.0
  0
LINE
  5
13132
  8
AM_0
 10
411.8151956781843
 20
501.28815776163538
 30
0.0
 11
410.59332729650879
 21
571.28816005641431
 31
0.0
  0
LINE
  5
13134
  8
AM_0
 10
411.4660745776718
 20
481.28815737420541
 30
0.0
 11
411.8151956781843
 21
501.28815776163538
 31
0.0
  0
LINE
  5
13143
  8
AM_0
 10
411.81518041939432
 20
456.28815737420598
 30
0.0
 11
411.81518041939432
 21
481.28815737420518
 31
0.0
  0
LINE
  5
13144
  8
AM_0
 10
257.81520634741707
 20
481.28815737420518
 30
0.0
 11
257.81520634741707
 21
456.28815737420598
 31
0.0
  0
LINE
  5
13145
  8
AM_0
 10
262.81520634741707
 20
451.28815737420621
 30
0.0
 11
342.3151939323314
 21
451.28815737420598
 31
0.0
  0
LINE
  5
13147
  8
AM_0
 10
411.81518041939432
 20
476.7881573742053
 30
0.0
 11
374.3149945768136
 21
476.78815737420541
 31
0.0
  0
LINE
  5
13148
  8
AM_0
 10
334.3153933847326
 20
476.78815737420541
 30
0.0
 11
257.81520634741707
 21
476.7881573742053
 31
0.0
  0
ARC
  5
13149
  8
AM_0
 10
406.81518041939432
 20
456.28815737420598
 30
0.0
 40
5.0
 50
270.0
 51
0.0
1001
GENIUS_GENODEF_13
1002
{
1000
HIER
1070
     0
1002
}
1002
{
1000
MANEDIT
1070
     0
1002
}
1002
{
1000
NOSEL
1070
     0
1002
}
1002
{
1000
BEHIND
1070
     0
1002
}
1002
{
1000
OTHER
1070
     0
1002
}
1002
{
1000
REACTOR
1002
}
1001
GENIUS_GENOBJ-N-FIL_13
1002
{
1000
OWNER
1000
GEN
1002
}
  0
ARC
  5
1314A
  8
AM_0
 10
262.81520634741707
 20
456.28815737420598
 30
0.0
 40
5.0
 50
180.0
 51
270.0
1001
GENIUS_GENODEF_13
1002
{
1000
HIER
1070
     0
1002
}
1002
{
1000
MANEDIT
1070
     0
1002
}
1002
{
1000
NOSEL
1070
     0
1002
}
1002
{
1000
BEHIND
1070
     0
1002
}
1002
{
1000
OTHER
1070
     0
1002
}
1002
{
1000
REACTOR
1002
}
1001
GENIUS_GENOBJ-N-FIL_13
1002
{
1000
OWNER
1000
GEN
1002
}
  0
LINE
  5
1314B
  8
ﾁｭｳｼﾝｾﾝ1
 10
382.31517870575999
 20
449.28815871530969
 30
0.0
 11
382.3151787057601
 21
473.28815871530952
 31
0.0
  0
LINE
  5
1314C
  8
ﾁｭｳｼﾝｾﾝ1
 10
370.3151787057601
 20
461.28815871530952
 30
0.0
 11
394.3151787057601
 21
461.28815871530952
 31
0.0
  0
LINE
  5
1314D
  8
AM_0
 10
314.81517870575948
 20
454.78815737420541
 30
0.0
 11
314.81517870576039
 21
476.7881573742053
 31
0.0
  0
LINE
  5
1314E
  8
AM_0
 10
310.31517870575999
 20
454.78815737420541
 30
0.0
 11
310.31517870576027
 21
476.7881573742053
 31
0.0
  0
LINE
  5
1314F
  8
AM_0
 10
314.81517870575999
 20
470.7881573742053
 30
0.0
 11
310.31517870576022
 21
470.7881573742053
 31
0.0
  0
LINE
  5
13150
  8
AM_0
 10
314.81517870575988
 20
454.78815737420541
 30
0.0
 11
310.3151787057601
 21
454.78815737420541
 31
0.0
  0
CIRCLE
  5
13151
  8
AM_0
 10
382.3151787057601
 20
461.28815871530952
 30
0.0
 40
5.0
  0
CIRCLE
  5
13152
  8
AM_0
 10
287.31520806105118
 20
461.28815871530952
 30
0.0
 40
5.0
  0
INSERT
  5
13153
  8
AM_0
  6
CONTINUOUS
  2
*U5
 10
0.0
 20
0.0
 30
0.0
1001
GENIUS_GENODEF_13
1002
{
1000
HIER
1070
     0
1002
}
1002
{
1000
MANEDIT
1070
     0
1002
}
1002
{
1000
NOSEL
1070
     0
1002
}
1002
{
1000
BEHIND
1070
     0
1002
}
1002
{
1000
OTHER
1070
     0
1002
}
1002
{
1000
REACTOR
1002
}
1001
GENIUS_GENOBJ-N-HTC_13
1002
{
1000
OWNER
1000
GEN
1002
}
1001
GENIUS_GENHATCH_13
1002
{
1000
DATA
1040
0.0
1042
1.0
1000
SOLID
1070
     0
1011
315.76698174666922
1021
0.0
1031
0.0
1021
475.93158273368789
1031
0.0
1002
}
1002
{
1000
UCS
1010
0.0
1020
0.0
1030
0.0
1010
1.0
1020
0.0
1030
0.0
1010
0.0
1020
1.0
1030
0.0
1002
}
1001
ACAD
1002
{
1000
R14_HATCH_DATA
1000
13153
1011
1.0
1021
0.0
1031
0.0
1021
0.0
1031
0.0
1011
0.0
1021
0.0
1031
0.0
1021
1.0
1031
0.0
1011
0.0
1021
0.0
1031
0.0
1021
0.0
1031
1.0
1040
0.0
1010
0.0
1020
0.0
1030
1.0
1000
SOLID
1070
     1
1070
     0
1071
        2
1071
        1
1071
        3
1070
     1
1040
314.81514958888903
1040
476.7881573742053
1040
317.31514958888903
1040
476.7881573742053
1070
     1
1040
317.31514958888903
1040
476.7881573742053
1040
314.81514958888903
1040
474.28815737420541
1070
     1
1040
314.81514958888903
1040
474.28815737420541
1040
314.81514958888903
1040
476.7881573742053
1071
        0
1071
       33
1071
        1
1070
     1
1040
367.31512334794161
1040
476.78815737420541
1040
213.3151492759647
1040
476.78815737420541
1071
        0
1070
     0
1070
     1
1071
        1
1040
139.2731882384374
1040
569.21877770489471
1040
0.0
1002
}
  0
LINE
  5
13154
  8
AM_0
 10
314.81514958888903
 20
474.28815737420541
 30
0.0
 11
317.31514958888903
 21
476.7881573742053
 31
0.0
1001
GENIUS_GENFIL_13
1070
     0
1040
2.5
1040
2.5
1040
20.0
1040
0.0
1002
{
1002
}
1001
GENIUS_GENODEF_13
1002
{
1000
HIER
1070
     0
1002
}
1002
{
1000
MANEDIT
1070
     0
1002
}
1002
{
1000
NOSEL
1070
     0
1002
}
1002
{
1000
BEHIND
1070
     0
1002
}
1002
{
1000
OTHER
1070
     0
1002
}
1002
{
1000
REACTOR
1002
}
1001
GENIUS_GENOBJ-N-CHA_13
1002
{
1000
OWNER
1000
GEN
1002
}
  0
LINE
  5
13155
  8
AM_0
 10
310.31514958888943
 20
474.28815737420541
 30
0.0
 11
307.81514958888943
 21
476.7881573742053
 31
0.0
1001
GENIUS_GENFIL_13
1070
     0
1040
2.5
1040
2.5
1040
20.0
1040
0.0
1002
{
1002
}
1001
GENIUS_GENODEF_13
1002
{
1000
HIER
1070
     0
1002
}
1002
{
1000
MANEDIT
1070
     0
1002
}
1002
{
1000
NOSEL
1070
     0
1002
}
1002
{
1000
BEHIND
1070
     0
1002
}
1002
{
1000
OTHER
1070
     0
1002
}
1002
{
1000
REACTOR
1002
}
1001
GENIUS_GENOBJ-N-CHA_13
1002
{
1000
OWNER
1000
GEN
1002
}
  0
INSERT
  5
13156
  8
AM_0
  6
CONTINUOUS
  2
*U6
 10
0.0
 20
0.0
 30
0.0
1001
GENIUS_GENODEF_13
1002
{
1000
HIER
1070
     0
1002
}
1002
{
1000
MANEDIT
1070
     0
1002
}
1002
{
1000
NOSEL
1070
     0
1002
}
1002
{
1000
BEHIND
1070
     0
1002
}
1002
{
1000
OTHER
1070
     0
1002
}
1002
{
1000
REACTOR
1002
}
1001
GENIUS_GENOBJ-N-HTC_13
1002
{
1000
OWNER
1000
GEN
1002
}
1001
GENIUS_GENHATCH_13
1002
{
1000
DATA
1040
0.0
1042
1.0
1000
SOLID
1070
     0
1011
309.36331743110918
1021
0.0
1031
0.0
1021
475.93158273368789
1031
0.0
1002
}
1002
{
1000
UCS
1010
0.0
1020
0.0
1030
0.0
1010
1.0
1020
0.0
1030
0.0
1010
0.0
1020
1.0
1030
0.0
1002
}
1001
ACAD
1002
{
1000
R14_HATCH_DATA
1000
13156
1011
1.0
1021
0.0
1031
0.0
1021
0.0
1031
0.0
1011
0.0
1021
0.0
1031
0.0
1021
1.0
1031
0.0
1011
0.0
1021
0.0
1031
0.0
1021
0.0
1031
1.0
1040
0.0
1010
0.0
1020
0.0
1030
1.0
1000
SOLID
1070
     1
1070
     0
1071
        2
1071
        1
1071
        3
1070
     1
1040
310.31514958888943
1040
476.7881573742053
1040
307.81514958888943
1040
476.7881573742053
1070
     1
1040
307.81514958888943
1040
476.7881573742053
1040
310.31514958888943
1040
474.28815737420541
1070
     1
1040
310.31514958888943
1040
474.28815737420541
1040
310.31514958888943
1040
476.7881573742053
1071
        0
1071
       33
1071
        1
1070
     1
1040
257.81517582983668
1040
476.78815737420541
1040
411.81514990181358
1040
476.78815737420541
1071
        0
1070
     0
1070
     1
1071
        1
1040
485.85711093934083
1040
569.21877770489471
1040
0.0
1002
}
  0
LINE
  5
13157
  8
AM_5
 10
315.31520806105021
 20
476.7881573742053
 30
0.0
 11
315.31520806105021
 21
481.28815737420518
 31
0.0
  0
LINE
  5
13158
  8
AM_5
 10
291.21048844763692
 20
476.7881573742053
 30
0.0
 11
291.21048844763698
 21
481.28815737420518
 31
0.0
  0
LINE
  5
13159
  8
ﾁｭｳｼﾝｾﾝ1
 10
287.31520806105118
 20
449.28815871530969
 30
0.0
 11
287.31520806105129
 21
473.28815871530952
 31
0.0
  0
LINE
  5
1315A
  8
ﾁｭｳｼﾝｾﾝ1
 10
275.31520806105129
 20
461.28815871530952
 30
0.0
 11
299.31520806105141
 21
461.28815871530952
 31
0.0
  0
LINE
  5
1315B
  8
AM_0
 10
411.81518041939432
 20
596.28817511464445
 30
0.0
 11
411.81518041939432
 21
571.28817511464513
 31
0.0
  0
LINE
  5
1315C
  8
AM_0
 10
257.81520634741707
 20
571.28817511464513
 30
0.0
 11
257.81520634741707
 21
596.28817511464445
 31
0.0
  0
LINE
  5
1315D
  8
AM_0
 10
262.81520634741707
 20
601.28817511464445
 30
0.0
 11
342.3151939323314
 21
601.28817511464445
 31
0.0
  0
LINE
  5
1315E
  8
AM_0
 10
411.81518041939432
 20
575.78817511464513
 30
0.0
 11
374.31519456059709
 21
575.78817511464524
 31
0.0
  0
ARC
  5
1315F
  8
AM_0
 10
406.81518041939432
 20
596.28817511464445
 30
0.0
 40
5.0
 50
0.0
 51
90.0
1001
GENIUS_GENODEF_13
1002
{
1000
HIER
1070
     0
1002
}
1002
{
1000
MANEDIT
1070
     0
1002
}
1002
{
1000
NOSEL
1070
     0
1002
}
1002
{
1000
BEHIND
1070
     0
1002
}
1002
{
1000
OTHER
1070
     0
1002
}
1002
{
1000
REACTOR
1002
}
1001
GENIUS_GENOBJ-N-FIL_13
1002
{
1000
OWNER
1000
GEN
1002
}
  0
ARC
  5
13160
  8
AM_0
 10
262.81520634741707
 20
596.28817511464445
 30
0.0
 40
5.0
 50
90.0
 51
180.0
1001
GENIUS_GENODEF_13
1002
{
1000
HIER
1070
     0
1002
}
1002
{
1000
MANEDIT
1070
     0
1002
}
1002
{
1000
NOSEL
1070
     0
1002
}
1002
{
1000
BEHIND
1070
     0
1002
}
1002
{
1000
OTHER
1070
     0
1002
}
1002
{
1000
REACTOR
1002
}
1001
GENIUS_GENOBJ-N-FIL_13
1002
{
1000
OWNER
1000
GEN
1002
}
  0
LINE
  5
13161
  8
ﾁｭｳｼﾝｾﾝ1
 10
382.31517870575999
 20
603.28817377354073
 30
0.0
 11
382.3151787057601
 21
579.28817377354073
 31
0.0
  0
LINE
  5
13162
  8
ﾁｭｳｼﾝｾﾝ1
 10
370.3151787057601
 20
591.28817377354073
 30
0.0
 11
394.3151787057601
 21
591.28817377354073
 31
0.0
  0
LINE
  5
13163
  8
AM_0
 10
314.81517870575948
 20
597.78817511464513
 30
0.0
 11
314.81517870576039
 21
575.78817511464513
 31
0.0
  0
LINE
  5
13164
  8
AM_0
 10
310.31517870575999
 20
597.78817511464513
 30
0.0
 11
310.31517870576027
 21
575.78817511464513
 31
0.0
  0
LINE
  5
13165
  8
AM_0
 10
314.81517870575999
 20
581.78817511464513
 30
0.0
 11
310.31517870576022
 21
581.78817511464513
 31
0.0
  0
LINE
  5
13166
  8
AM_0
 10
314.81517870575988
 20
597.78817511464513
 30
0.0
 11
310.3151787057601
 21
597.78817511464513
 31
0.0
  0
CIRCLE
  5
1316B
  8
AM_0
 10
382.3151787057601
 20
591.28817377354073
 30
0.0
 40
5.0
  0
CIRCLE
  5
1316C
  8
AM_0
 10
287.31520806105118
 20
591.28817377354073
 30
0.0
 40
5.0
  0
INSERT
  5
13171
  8
AM_0
  6
CONTINUOUS
  2
*U7
 10
0.0
 20
0.0
 30
0.0
1001
GENIUS_GENODEF_13
1002
{
1000
HIER
1070
     0
1002
}
1002
{
1000
MANEDIT
1070
     0
1002
}
1002
{
1000
NOSEL
1070
     0
1002
}
1002
{
1000
BEHIND
1070
     0
1002
}
1002
{
1000
OTHER
1070
     0
1002
}
1002
{
1000
REACTOR
1002
}
1001
GENIUS_GENOBJ-N-HTC_13
1002
{
1000
OWNER
1000
GEN
1002
}
1001
GENIUS_GENHATCH_13
1002
{
1000
DATA
1040
0.0
1042
-1.0
1000
SOLID
1070
     0
1011
315.76698174666922
1021
0.0
1031
0.0
1021
576.64474975516248
1031
0.0
1002
}
1002
{
1000
UCS
1010
0.0
1020
0.0
1030
0.0
1010
1.0
1020
0.0
1030
0.0
1010
0.0
1020
1.0
1030
0.0
1002
}
1001
ACAD
1002
{
1000
R14_HATCH_DATA
1000
13171
1011
1.0
1021
0.0
1031
0.0
1021
0.0
1031
0.0
1011
0.0
1021
0.0
1031
0.0
1021
1.0
1031
0.0
1011
0.0
1021
0.0
1031
0.0
1021
0.0
1031
1.0
1040
0.0
1010
0.0
1020
0.0
1030
1.0
1000
SOLID
1070
     1
1070
     0
1071
        2
1071
        1
1071
        3
1070
     1
1040
314.81514958888903
1040
575.78817511464513
1040
317.31514958888903
1040
575.78817511464513
1070
     1
1040
317.31514958888903
1040
575.78817511464513
1040
314.81514958888903
1040
578.28817511464513
1070
     1
1040
314.81514958888903
1040
578.28817511464513
1040
314.81514958888903
1040
575.78817511464513
1071
        0
1071
       33
1071
        1
1070
     1
1040
367.31512334794161
1040
575.78817511464501
1040
213.3151492759647
1040
575.78817511464501
1071
        0
1070
     0
1070
     1
1071
        1
1040
139.2731882384374
1040
483.35755478395578
1040
0.0
1002
}
  0
LINE
  5
13172
  8
AM_0
 10
314.81514958888903
 20
578.28817511464513
 30
0.0
 11
317.31514958888903
 21
575.78817511464513
 31
0.0
1001
GENIUS_GENFIL_13
1070
     0
1040
2.5
1040
2.5
1040
20.0
1040
0.0
1002
{
1002
}
1001
GENIUS_GENODEF_13
1002
{
1000
HIER
1070
     0
1002
}
1002
{
1000
MANEDIT
1070
     0
1002
}
1002
{
1000
NOSEL
1070
     0
1002
}
1002
{
1000
BEHIND
1070
     0
1002
}
1002
{
1000
OTHER
1070
     0
1002
}
1002
{
1000
REACTOR
1002
}
1001
GENIUS_GENOBJ-N-CHA_13
1002
{
1000
OWNER
1000
GEN
1002
}
  0
LINE
  5
13173
  8
AM_0
 10
310.31514958888943
 20
578.28817511464513
 30
0.0
 11
307.81514958888943
 21
575.78817511464513
 31
0.0
1001
GENIUS_GENFIL_13
1070
     0
1040
2.5
1040
2.5
1040
20.0
1040
0.0
1002
{
1002
}
1001
GENIUS_GENODEF_13
1002
{
1000
HIER
1070
     0
1002
}
1002
{
1000
MANEDIT
1070
     0
1002
}
1002
{
1000
NOSEL
1070
     0
1002
}
1002
{
1000
BEHIND
1070
     0
1002
}
1002
{
1000
OTHER
1070
     0
1002
}
1002
{
1000
REACTOR
1002
}
1001
GENIUS_GENOBJ-N-CHA_13
1002
{
1000
OWNER
1000
GEN
1002
}
  0
INSERT
  5
13174
  8
AM_0
  6
CONTINUOUS
  2
*U8
 10
0.0
 20
0.0
 30
0.0
1001
GENIUS_GENODEF_13
1002
{
1000
HIER
1070
     0
1002
}
1002
{
1000
MANEDIT
1070
     0
1002
}
1002
{
1000
NOSEL
1070
     0
1002
}
1002
{
1000
BEHIND
1070
     0
1002
}
1002
{
1000
OTHER
1070
     0
1002
}
1002
{
1000
REACTOR
1002
}
1001
GENIUS_GENOBJ-N-HTC_13
1002
{
1000
OWNER
1000
GEN
1002
}
1001
GENIUS_GENHATCH_13
1002
{
1000
DATA
1040
0.0
1042
-1.0
1000
SOLID
1070
     0
1011
309.36331743110918
1021
0.0
1031
0.0
1021
576.64474975516248
1031
0.0
1002
}
1002
{
1000
UCS
1010
0.0
1020
0.0
1030
0.0
1010
1.0
1020
0.0
1030
0.0
1010
0.0
1020
1.0
1030
0.0
1002
}
1001
ACAD
1002
{
1000
R14_HATCH_DATA
1000
13174
1011
1.0
1021
0.0
1031
0.0
1021
0.0
1031
0.0
1011
0.0
1021
0.0
1031
0.0
1021
1.0
1031
0.0
1011
0.0
1021
0.0
1031
0.0
1021
0.0
1031
1.0
1040
0.0
1010
0.0
1020
0.0
1030
1.0
1000
SOLID
1070
     1
1070
     0
1071
        2
1071
        1
1071
        3
1070
     1
1040
310.31514958888943
1040
575.78817511464513
1040
307.81514958888943
1040
575.78817511464513
1070
     1
1040
307.81514958888943
1040
575.78817511464513
1040
310.31514958888943
1040
578.28817511464513
1070
     1
1040
310.31514958888943
1040
578.28817511464513
1040
310.31514958888943
1040
575.78817511464513
1071
        0
1071
       33
1071
        1
1070
     1
1040
257.81517582983668
1040
575.78817511464501
1040
411.81514990181358
1040
575.78817511464501
1071
        0
1070
     0
1070
     1
1071
        1
1040
485.85711093934083
1040
483.35755478395578
1040
0.0
1002
}
  0
LINE
  5
13175
  8
AM_5
 10
315.31520806105021
 20
575.78817511464513
 30
0.0
 11
315.31520806105021
 21
571.28817511464513
 31
0.0
  0
LINE
  5
13176
  8
AM_5
 10
291.21048844763692
 20
575.78817511464513
 30
0.0
 11
291.21048844763698
 21
571.28817511464513
 31
0.0
  0
LINE
  5
13177
  8
ﾁｭｳｼﾝｾﾝ1
 10
287.31520806105118
 20
603.28817377354073
 30
0.0
 11
287.31520806105129
 21
579.28817377354073
 31
0.0
  0
LINE
  5
13178
  8
ﾁｭｳｼﾝｾﾝ1
 10
275.31520806105129
 20
591.28817377354073
 30
0.0
 11
299.31520806105141
 21
591.28817377354073
 31
0.0
  0
LINE
  5
13179
  8
AM_0
 10
394.81519536526002
 20
577.37817511464505
 30
0.0
 11
394.81519536526002
 21
585.37817511464482
 31
0.0
  0
LINE
  5
1317A
  8
AM_0
 10
407.8151953652598
 20
577.37817511464505
 30
0.0
 11
407.8151953652598
 21
585.37817511464482
 31
0.0
  0
LINE
  5
1317B
  8
AM_0
 10
392.81519536526002
 20
577.37817511464505
 30
0.0
 11
409.81519536526002
 21
577.37817511464505
 31
0.0
  0
LINE
  5
1317C
  8
AM_0
 10
409.81519536526002
 20
577.37817511464505
 30
0.0
 11
409.81519536526002
 21
575.78817511464513
 31
0.0
  0
LINE
  5
1317D
  8
AM_0
 10
392.81519536526002
 20
577.37817511464505
 30
0.0
 11
392.81519536526002
 21
575.78817511464513
 31
0.0
  0
LINE
  5
1317E
  8
AM_0
 10
394.81519536526002
 20
585.37817511464482
 30
0.0
 11
407.8151953652598
 21
585.37817511464482
 31
0.0
  0
LINE
  5
1317F
  8
AM_0
 10
261.81519140155109
 20
577.37817511464505
 30
0.0
 11
261.81519140155109
 21
585.37817511464482
 31
0.0
  0
LINE
  5
13180
  8
AM_0
 10
274.81519140155109
 20
577.37817511464505
 30
0.0
 11
274.81519140155109
 21
585.37817511464482
 31
0.0
  0
LINE
  5
13181
  8
AM_0
 10
259.81519140155109
 20
577.37817511464505
 30
0.0
 11
276.81519140155109
 21
577.37817511464505
 31
0.0
  0
LINE
  5
13182
  8
AM_0
 10
276.81519140155109
 20
577.37817511464505
 30
0.0
 11
276.81519140155109
 21
575.78817511464513
 31
0.0
  0
LINE
  5
13183
  8
AM_0
 10
259.81519140155109
 20
577.37817511464505
 30
0.0
 11
259.81519140155109
 21
575.78817511464513
 31
0.0
  0
LINE
  5
13184
  8
AM_0
 10
261.81519140155109
 20
585.37817511464482
 30
0.0
 11
274.81519140155109
 21
585.37817511464482
 31
0.0
  0
LINE
  5
13185
  8
AM_0
 10
393.81519536526008
 20
468.69815737420549
 30
0.0
 11
408.81519536526008
 21
468.69815737420549
 31
0.0
  0
LINE
  5
13186
  8
AM_0
 10
392.81519536526008
 20
475.19815737420549
 30
0.0
 11
409.81519536526008
 21
475.19815737420498
 31
0.0
  0
LINE
  5
13187
  8
AM_0N
 10
397.31519536526031
 20
468.14497213918179
 30
0.0
 11
405.31519536526008
 21
468.14497213918179
 31
0.0
  0
LINE
  5
13188
  8
AM_0N
 10
405.31519536526008
 20
468.14497213918179
 30
0.0
 11
404.54838286526012
 21
467.37815963918177
 31
0.0
  0
LINE
  5
13189
  8
AM_0
 10
408.81519536526008
 20
468.69815737420549
 30
0.0
 11
408.81519536526002
 21
475.19815737420549
 31
0.0
  0
LINE
  5
1318A
  8
AM_0
 10
405.06519536526008
 20
468.69815737420549
 30
0.0
 11
405.06519536526008
 21
475.19815737420498
 31
0.0
  0
LINE
  5
1318B
  8
AM_0N
 10
405.31519536526008
 20
468.69815737420549
 30
0.0
 11
405.31519536526008
 21
468.14497213918179
 31
0.0
  0
LINE
  5
1318C
  8
AM_0
 10
409.81519536526008
 20
475.19815737420498
 30
0.0
 11
409.81519536526008
 21
476.7881573742053
 31
0.0
  0
LINE
  5
1318D
  8
AM_0
 10
397.56519536526008
 20
468.69815737420549
 30
0.0
 11
397.56519536526031
 21
475.19815737420549
 31
0.0
  0
LINE
  5
1318E
  8
AM_0N
 10
398.08200786526032
 20
467.37815963918177
 30
0.0
 11
404.54838286526012
 21
467.37815963918177
 31
0.0
  0
LINE
  5
1318F
  8
AM_0N
 10
397.31519536526031
 20
468.69815737420549
 30
0.0
 11
397.31519536526031
 21
468.14497213918179
 31
0.0
  0
LINE
  5
13190
  8
AM_0N
 10
397.31519536526031
 20
468.14497213918179
 30
0.0
 11
398.08200786526032
 21
467.37815963918177
 31
0.0
  0
LINE
  5
13191
  8
AM_4N
 10
398.08200786526032
 20
467.37815963918177
 30
0.0
 11
398.08200786526032
 21
468.69815737420549
 31
0.0
  0
LINE
  5
13192
  8
AM_4N
 10
404.54838286526012
 20
467.37815963918177
 30
0.0
 11
404.54838286526012
 21
468.69815737420549
 31
0.0
  0
LINE
  5
13193
  8
AM_0
 10
393.81519536526008
 20
468.69815737420549
 30
0.0
 11
393.81519536526031
 21
475.19815737420549
 31
0.0
  0
LINE
  5
13194
  8
AM_0
 10
392.81519536526008
 20
475.19815737420498
 30
0.0
 11
392.81519536526008
 21
476.7881573742053
 31
0.0
  0
LINE
  5
13195
  8
AM_0
 10
260.81519140155098
 20
468.69815737420549
 30
0.0
 11
275.81519140155098
 21
468.69815737420549
 31
0.0
  0
LINE
  5
13196
  8
AM_0
 10
259.81519140155098
 20
475.19815737420549
 30
0.0
 11
276.81519140155109
 21
475.19815737420498
 31
0.0
  0
LINE
  5
13197
  8
AM_0N
 10
264.31519140155109
 20
468.14497213918179
 30
0.0
 11
272.31519140155109
 21
468.14497213918179
 31
0.0
  0
LINE
  5
13198
  8
AM_0N
 10
272.31519140155109
 20
468.14497213918179
 30
0.0
 11
271.54837890155108
 21
467.37815963918177
 31
0.0
  0
LINE
  5
13199
  8
AM_0
 10
275.81519140155098
 20
468.69815737420549
 30
0.0
 11
275.81519140155092
 21
475.19815737420549
 31
0.0
  0
LINE
  5
1319A
  8
AM_0
 10
272.06519140155098
 20
468.69815737420549
 30
0.0
 11
272.06519140155098
 21
475.19815737420498
 31
0.0
  0
LINE
  5
1319B
  8
AM_0N
 10
272.31519140155109
 20
468.69815737420549
 30
0.0
 11
272.31519140155109
 21
468.14497213918179
 31
0.0
  0
LINE
  5
1319C
  8
AM_0
 10
276.81519140155109
 20
475.19815737420498
 30
0.0
 11
276.81519140155109
 21
476.7881573742053
 31
0.0
  0
LINE
  5
1319D
  8
AM_0
 10
264.56519140155098
 20
468.69815737420549
 30
0.0
 11
264.5651914015512
 21
475.19815737420549
 31
0.0
  0
LINE
  5
1319E
  8
AM_0N
 10
265.08200390155122
 20
467.37815963918177
 30
0.0
 11
271.54837890155108
 21
467.37815963918177
 31
0.0
  0
LINE
  5
1319F
  8
AM_0N
 10
264.31519140155109
 20
468.69815737420549
 30
0.0
 11
264.31519140155109
 21
468.14497213918179
 31
0.0
  0
LINE
  5
131A0
  8
AM_0N
 10
264.31519140155109
 20
468.14497213918179
 30
0.0
 11
265.08200390155122
 21
467.37815963918177
 31
0.0
  0
LINE
  5
131A1
  8
AM_4N
 10
265.08200390155122
 20
467.37815963918177
 30
0.0
 11
265.08200390155122
 21
468.69815737420549
 31
0.0
  0
LINE
  5
131A2
  8
AM_4N
 10
271.54837890155108
 20
467.37815963918177
 30
0.0
 11
271.54837890155108
 21
468.69815737420549
 31
0.0
  0
LINE
  5
131A3
  8
AM_0
 10
260.81519140155098
 20
468.69815737420549
 30
0.0
 11
260.8151914015512
 21
475.19815737420549
 31
0.0
  0
LINE
  5
131A4
  8
AM_0
 10
259.81519140155098
 20
475.19815737420498
 30
0.0
 11
259.81519140155098
 21
476.7881573742053
 31
0.0
  0
LINE
  5
13345
  8
AM_0
 10
232.31519108862659
 20
582.28811279485035
 30
0.0
 11
232.31519108862659
 21
470.28813179485041
 31
0.0
  0
LINE
  5
13346
  8
AM_0
 10
116.31519108862661
 20
579.28811279485035
 30
0.0
 11
116.31519108862661
 21
473.28813179485019
 31
0.0
  0
LINE
  5
13347
  8
AM_0
 10
124.31519108862661
 20
579.28811279485035
 30
0.0
 11
124.31519108862661
 21
476.84788479485042
 31
0.0
  0
LINE
  5
13348
  8
AM_0
 10
124.31519108862661
 20
574.38382279485018
 30
0.0
 11
125.55646108862661
 21
580.9432627948504
 31
0.0
  0
LINE
  5
13349
  8
AM_0
 10
124.3152510886266
 20
575.72835279485025
 30
0.0
 11
125.59528108862661
 21
583.73354279485034
 31
0.0
  0
LINE
  5
1334A
  8
AM_0
 10
124.31519108862661
 20
577.07299279485039
 30
0.0
 11
125.60621108862669
 21
585.56603279485046
 31
0.0
  0
LINE
  5
1334B
  8
AM_0
 10
124.31519108862661
 20
577.07299279485039
 30
0.0
 11
125.62403108862669
 21
586.45243279485044
 31
0.0
  0
LINE
  5
1334C
  8
AM_0
 10
230.51731108862671
 20
565.62293279485016
 30
0.0
 11
226.37317108862661
 21
581.08901279485019
 31
0.0
  0
ARC
  5
1334F
  8
AM_0
 10
125.9925010886266
 20
561.33323279485035
 30
0.0
 40
1.6779127
 50
90.000003000000945
 51
270.0
  0
ARC
  5
13350
  8
AM_0
 10
125.7766810886267
 20
551.31278279485025
 30
0.0
 40
1.4614868000000001
 50
90.000003000000945
 51
270.0
  0
ARC
  5
13351
  8
AM_0
 10
125.6461210886266
 20
541.30068279485033
 30
0.0
 40
1.3309325999999999
 50
90.000003000000945
 51
270.0
  0
ARC
  5
13352
  8
AM_0
 10
125.5841110886266
 20
531.29195279485043
 30
0.0
 40
1.268920899999999
 50
90.000003000000945
 51
270.0
  0
ARC
  5
13353
  8
AM_0
 10
125.5841110886266
 20
521.28422279485017
 30
0.0
 40
1.268920899999999
 50
90.000003000000945
 51
270.0
  0
ARC
  5
13354
  8
AM_0
 10
125.6461210886266
 20
511.27556279485032
 30
0.0
 40
1.3309325999999999
 50
90.000003000000945
 51
270.0
  0
ARC
  5
13355
  8
AM_0
 10
125.77674108862659
 20
501.26339279485029
 30
0.0
 40
1.4615020999999999
 50
90.000003000000945
 51
270.0
  0
ARC
  5
13356
  8
AM_0
 10
125.99311108862661
 20
491.2429507948504
 30
0.0
 40
1.6779174999999991
 50
90.000003000000945
 51
270.0
  0
LINE
  5
13357
  8
AM_0
 10
129.68061108862659
 20
562.93931279485025
 30
0.0
 11
124.31519108862661
 21
574.38378279485016
 31
0.0
  0
LINE
  5
13358
  8
AM_0
 10
129.6806710886265
 20
489.6368787948503
 30
0.0
 11
124.3152510886266
 21
478.19240579485017
 31
0.0
  0
LINE
  5
13359
  8
AM_0
 10
124.31519108862661
 20
478.19237579485019
 30
0.0
 11
125.55646108862661
 21
471.63300379485042
 31
0.0
  0
LINE
  5
1335A
  8
AM_0
 10
124.31519108862661
 20
476.84783979485042
 30
0.0
 11
125.5952210886265
 21
468.8426667948504
 31
0.0
  0
LINE
  5
1335B
  8
AM_0
 10
124.3151310886267
 20
475.50328879485028
 30
0.0
 11
125.60621108862669
 21
467.01015479485039
 31
0.0
  0
LINE
  5
1335C
  8
AM_0
 10
124.31519108862661
 20
475.50324279485039
 30
0.0
 11
125.62403108862669
 21
466.12380279485029
 31
0.0
  0
ARC
  5
1335D
  8
AM_0
 10
111.3151910886267
 20
511.28812279485038
 30
0.0
 40
1.0
 50
179.999989999999
 51
270.0
  0
LINE
  5
1335E
  8
AM_0
 10
108.81519108862661
 20
546.28811279485035
 30
0.0
 11
108.81519108862661
 21
506.28813279485018
 31
0.0
  0
LINE
  5
1335F
  8
AM_0
 10
112.3151910886267
 20
510.6810127948504
 30
0.0
 11
112.3151910886267
 21
511.8923727948503
 31
0.0
  0
LINE
  5
13360
  8
AM_0
 10
115.3151910886267
 20
576.28811279485035
 30
0.0
 11
115.3151910886267
 21
475.1648937948504
 31
0.0
  0
LINE
  5
13361
  8
AM_0
 10
110.3151910886267
 20
478.27171379485043
 30
0.0
 11
110.3151910886267
 21
521.28813279485041
 31
0.0
  0
ARC
  5
13362
  8
AM_0
 10
111.3151910886267
 20
478.27171379485043
 30
0.0
 40
1.0
 50
179.999989999999
 51
239.97360999999819
  0
LINE
  5
13363
  8
AM_0
 10
116.31519108862661
 20
473.28813179485019
 30
0.0
 11
124.31519108862661
 21
473.28813179485019
 31
0.0
  0
ARC
  5
13364
  8
AM_0
 10
112.58338108862669
 20
477.53874179485041
 30
0.0
 40
1.0
 50
239.9736000000006
 51
270.0
  0
LINE
  5
13365
  8
AM_0
 10
112.0829510886266
 20
476.67296579485031
 30
0.0
 11
110.8147610886266
 21
477.40594479485031
 31
0.0
  0
LINE
  5
13366
  8
AM_0
 10
112.3151910886267
 20
476.79196979485039
 30
0.0
 11
112.3151910886267
 21
477.31773379485031
 31
0.0
  0
ARC
  5
13367
  8
AM_0
 10
114.8151910886267
 20
476.0387417948503
 30
0.0
 40
0.5
 50
0.0
 51
90.000003000000945
  0
LINE
  5
13368
  8
AM_0
 10
112.58338108862669
 20
476.53873479485031
 30
0.0
 11
114.8151910886267
 21
476.53873479485031
 31
0.0
  0
LINE
  5
13369
  8
AM_0
 10
115.3151910886267
 20
476.28813179485041
 30
0.0
 11
116.31519108862661
 21
476.28813179485041
 31
0.0
  0
ARC
  5
1336A
  8
AM_0
 10
111.3151910886267
 20
486.0478817948503
 30
0.0
 40
1.0
 50
179.999989999999
 51
239.64048999999821
  0
ARC
  5
1336B
  8
AM_0
 10
111.3151910886267
 20
486.0478817948503
 30
0.0
 40
1.0
 50
179.999989999999
 51
239.64048999999821
  0
ARC
  5
1336C
  8
AM_0
 10
112.55445108862661
 20
478.68502779485033
 30
0.0
 40
1.0
 50
243.08874000000111
 51
270.0
  0
ARC
  5
1336D
  8
AM_0
 10
112.5922310886266
 20
479.64646879485031
 30
0.0
 40
1.0
 50
239.03339999999869
 51
270.0
  0
ARC
  5
1336E
  8
AM_0
 10
112.56385108862661
 20
480.7864837948502
 30
0.0
 40
1.0
 50
242.07340000000079
 51
270.0
  0
ARC
  5
1336F
  8
AM_0
 10
112.6138410886266
 20
484.16317779485041
 30
0.0
 40
1.0
 50
236.74527000000111
 51
270.0
  0
ARC
  5
13370
  8
AM_0
 10
112.5864910886267
 20
485.30319179485031
 30
0.0
 40
1.0
 50
239.64049999999861
 51
270.0
  0
ARC
  5
13371
  8
AM_0
 10
111.3151910886267
 20
479.31406379485031
 30
0.0
 40
1.0
 50
179.999989999999
 51
243.08874999999981
  0
ARC
  5
13372
  8
AM_0
 10
111.3151910886267
 20
485.01475579485037
 30
0.0
 40
1.0
 50
179.999989999999
 51
236.74528000000049
  0
ARC
  5
13373
  8
AM_0
 10
111.3151910886267
 20
481.44834179485031
 30
0.0
 40
1.0
 50
179.999989999999
 51
242.07341000000091
  0
ARC
  5
13374
  8
AM_0
 10
111.3151910886267
 20
480.41276579485032
 30
0.0
 40
1.0
 50
179.999989999999
 51
239.03339999999869
  0
LINE
  5
13375
  8
AM_0
 10
110.8097610886266
 20
485.18501279485042
 30
0.0
 11
110.7862010886266
 21
485.19883779485042
 31
0.0
  0
LINE
  5
13376
  8
AM_0
 10
112.07764108862661
 20
478.7890317948503
 30
0.0
 11
110.8007310886267
 21
479.55527479485028
 31
0.0
  0
LINE
  5
13377
  8
AM_0
 10
112.0654410886266
 20
483.32695779485027
 30
0.0
 11
110.7667910886266
 21
484.17852079485027
 31
0.0
  0
LINE
  5
13378
  8
AM_0
 10
112.0811210886266
 20
484.44029279485039
 30
0.0
 11
110.8097610886266
 21
485.1849747948504
 31
0.0
  0
LINE
  5
13379
  8
AM_0
 10
112.1018110886266
 20
477.79338879485039
 30
0.0
 11
110.8625510886266
 21
478.42241679485039
 31
0.0
  0
LINE
  5
1337A
  8
AM_0
 10
112.0955310886267
 20
479.90292379485032
 30
0.0
 11
110.8469310886267
 21
480.56478879485041
 31
0.0
  0
LINE
  5
1337B
  8
AM_0
 10
112.3151910886267
 20
483.4576717948504
 30
0.0
 11
112.3151910886267
 21
483.92978679485032
 31
0.0
  0
LINE
  5
1337C
  8
AM_0
 10
112.3151910886267
 20
478.89157079485028
 30
0.0
 11
112.3151910886267
 21
479.43759179485039
 31
0.0
  0
ARC
  5
1337D
  8
AM_0
 10
114.3151910886267
 20
485.30319179485031
 30
0.0
 40
1.0
 50
334.63675999999953
 51
0.0
  0
ARC
  5
1337E
  8
AM_0
 10
114.3151910886267
 20
485.30319179485031
 30
0.0
 40
1.0
 50
270.0
 51
0.0
  0
ARC
  5
1337F
  8
AM_0
 10
114.3151910886267
 20
480.7864837948502
 30
0.0
 40
1.0
 50
270.0
 51
0.0
  0
ARC
  5
13380
  8
AM_0
 10
114.8151910886267
 20
478.18503579485042
 30
0.0
 40
0.5
 50
270.0
 51
0.0
  0
LINE
  5
13381
  8
AM_0
 10
112.5922310886266
 20
478.64646179485032
 30
0.0
 11
115.3151910886267
 21
478.64646179485032
 31
0.0
  0
LINE
  5
13382
  8
AM_0
 10
112.6138410886266
 20
483.16319279485032
 30
0.0
 11
115.3151910886267
 21
483.16319279485032
 31
0.0
  0
LINE
  5
13383
  8
AM_0
 10
112.5864910886267
 20
484.30320779485032
 30
0.0
 11
114.3151910886267
 21
484.30320779485032
 31
0.0
  0
LINE
  5
13384
  8
AM_0
 10
112.56385108862661
 20
479.78647579485028
 30
0.0
 11
114.3151910886267
 21
479.78647579485028
 31
0.0
  0
LINE
  5
13385
  8
AM_0
 10
112.55445108862661
 20
477.68504379485029
 30
0.0
 11
114.8151910886267
 21
477.68504379485029
 31
0.0
  0
ARC
  5
13386
  8
AM_0
 10
112.51984108862671
 20
491.59886179485039
 30
0.0
 40
1.0
 50
246.87297000000149
 51
270.0
  0
ARC
  5
13387
  8
AM_0
 10
112.4655210886266
 20
493.5449527948503
 30
0.0
 40
1.0
 50
252.9023700000005
 51
270.0
  0
ARC
  5
13388
  8
AM_0
 10
111.3151910886267
 20
493.89884979485032
 30
0.0
 40
1.0
 50
179.999989999999
 51
252.9023700000005
  0
ARC
  5
13389
  8
AM_0
 10
111.3151910886267
 20
492.11338779485038
 30
0.0
 40
1.0
 50
179.999989999999
 51
246.8729800000018
  0
LINE
  5
1338A
  8
AM_0
 10
112.1270810886266
 20
490.67922179485032
 30
0.0
 11
110.9223710886266
 21
491.19373379485029
 31
0.0
  0
LINE
  5
1338B
  8
AM_0
 10
112.1715110886266
 20
492.58918779485037
 30
0.0
 11
111.0211210886266
 21
492.94303879485039
 31
0.0
  0
LINE
  5
1338C
  8
AM_0
 10
112.3151910886267
 20
490.89523279485041
 30
0.0
 11
112.3151910886267
 21
491.95518479485031
 31
0.0
  0
ARC
  5
1338D
  8
AM_0
 10
114.3151910886267
 20
493.5449527948503
 30
0.0
 40
1.0
 50
270.0
 51
0.0
  0
ARC
  5
1338E
  8
AM_0
 10
114.6151810886266
 20
489.89891079485028
 30
0.0
 40
0.6999999900000002
 50
0.0
 51
90.000003000000945
  0
LINE
  5
1338F
  8
AM_0
 10
112.51984108862671
 20
490.59885379485053
 30
0.0
 11
114.6151810886266
 21
490.59885379485053
 31
0.0
  0
LINE
  5
13390
  8
AM_0
 10
112.4655210886266
 20
492.54496779485032
 30
0.0
 11
114.3151910886267
 21
492.54496779485032
 31
0.0
  0
LINE
  5
13391
  8
AM_0
 10
117.01331108862669
 20
483.09665679485039
 30
0.0
 11
123.24311108862661
 21
483.09665679485039
 31
0.0
  0
ARC
  5
13392
  8
AM_0
 10
114.3151910886267
 20
503.28813279485041
 30
0.0
 40
1.0
 50
270.0
 51
0.0
  0
LINE
  5
13393
  8
AM_0
 10
114.3151910886267
 20
500.28813279485041
 30
0.0
 11
111.3151910886267
 21
500.28813279485041
 31
0.0
  0
LINE
  5
13394
  8
AM_0
 10
114.3151910886267
 20
502.28812279485032
 30
0.0
 11
111.3151910886267
 21
502.28812279485032
 31
0.0
  0
ARC
  5
13395
  8
AM_0
 10
111.3151910886267
 20
501.28811279485041
 30
0.0
 40
1.0
 50
179.999989999999
 51
270.0
  0
ARC
  5
13396
  8
AM_0
 10
111.3151910886267
 20
501.28811279485041
 30
0.0
 40
1.0
 50
90.000003000000945
 51
180.00000999999449
  0
LINE
  5
13397
  8
AM_0
 10
112.3151910886267
 20
500.66189279485047
 30
0.0
 11
112.3151910886267
 21
502.02475279485031
 31
0.0
  0
ARC
  5
13398
  8
AM_0
 10
114.3151910886267
 20
499.28812279485038
 30
0.0
 40
1.0
 50
0.0
 51
90.000003000000945
  0
LINE
  5
13399
  8
AM_0
 10
114.3151910886267
 20
510.28811279485052
 30
0.0
 11
111.3151910886267
 21
510.28811279485052
 31
0.0
  0
LINE
  5
1339A
  8
AM_0
 10
108.8152510886266
 20
506.28813279485018
 30
0.0
 11
110.3151910886267
 21
506.1569027948504
 31
0.0
  0
LINE
  5
1339B
  8
AM_0
 10
108.81519108862661
 20
509.00608279485027
 30
0.0
 11
110.3151910886267
 21
509.00608279485027
 31
0.0
  0
ARC
  5
1339C
  8
AM_0
 10
114.3151910886267
 20
509.28813279485041
 30
0.0
 40
1.0
 50
0.0
 51
90.000003000000945
  0
LINE
  5
1339D
  8
AM_0
 10
110.3151910886267
 20
574.30448279485017
 30
0.0
 11
110.3151910886267
 21
531.28811279485046
 31
0.0
  0
LINE
  5
1339E
  8
AM_0
 10
114.3151910886267
 20
512.28813279485041
 30
0.0
 11
111.3151910886267
 21
512.28813279485041
 31
0.0
  0
ARC
  5
1339F
  8
AM_0
 10
111.3151910886267
 20
511.28812279485038
 30
0.0
 40
1.0
 50
90.000003000000945
 51
180.00000999999449
  0
LINE
  5
133A0
  8
AM_0
 10
108.81519108862661
 20
511.13809279485031
 30
0.0
 11
112.10889108862661
 21
511.13809279485031
 31
0.0
  0
ARC
  5
133A1
  8
AM_0
 10
114.3151910886267
 20
513.28811279485035
 30
0.0
 40
1.0
 50
270.0
 51
0.0
  0
LINE
  5
133A2
  8
AM_0
 10
114.3151910886267
 20
520.28812279485044
 30
0.0
 11
111.3151910886267
 21
520.28812279485044
 31
0.0
  0
LINE
  5
133A3
  8
AM_0
 10
114.3151910886267
 20
522.28811279485035
 30
0.0
 11
111.3151910886267
 21
522.28811279485035
 31
0.0
  0
ARC
  5
133A4
  8
AM_0
 10
111.3151910886267
 20
521.28813279485041
 30
0.0
 40
1.0
 50
179.999989999999
 51
270.0
  0
ARC
  5
133A5
  8
AM_0
 10
111.3151910886267
 20
521.28813279485041
 30
0.0
 40
1.0
 50
90.000003000000945
 51
180.00000999999449
  0
LINE
  5
133A6
  8
AM_0
 10
112.3151910886267
 20
520.67484279485041
 30
0.0
 11
112.3151910886267
 21
521.8357327948504
 31
0.0
  0
ARC
  5
133A7
  8
AM_0
 10
114.3151910886267
 20
523.28812279485044
 30
0.0
 40
1.0
 50
270.0
 51
0.0
  0
ARC
  5
133A8
  8
AM_0
 10
114.3151910886267
 20
519.28811279485035
 30
0.0
 40
1.0
 50
0.0
 51
90.000003000000945
  0
LINE
  5
133A9
  8
AM_0
 10
114.3151910886267
 20
532.28812279485044
 30
0.0
 11
111.3151910886267
 21
532.28812279485044
 31
0.0
  0
LINE
  5
133AA
  8
AM_0
 10
114.3151910886267
 20
530.28812279485044
 30
0.0
 11
111.3151910886267
 21
530.28812279485044
 31
0.0
  0
ARC
  5
133AB
  8
AM_0
 10
111.3151910886267
 20
531.28811279485046
 30
0.0
 40
1.0
 50
90.000003000000945
 51
180.00000999999449
  0
ARC
  5
133AC
  8
AM_0
 10
111.3151910886267
 20
531.28811279485046
 30
0.0
 40
1.0
 50
179.999989999999
 51
270.0
  0
LINE
  5
133AD
  8
AM_0
 10
112.3151910886267
 20
531.9013327948503
 30
0.0
 11
112.3151910886267
 21
530.74044279485042
 31
0.0
  0
ARC
  5
133AE
  8
AM_0
 10
114.3151910886267
 20
529.28812279485044
 30
0.0
 40
1.0
 50
0.0
 51
90.000003000000945
  0
ARC
  5
133AF
  8
AM_0
 10
114.3151910886267
 20
533.28812279485044
 30
0.0
 40
1.0
 50
270.0
 51
0.0
  0
LINE
  5
133B0
  8
AM_0
 10
114.3151910886267
 20
542.28812279485044
 30
0.0
 11
111.3151910886267
 21
542.28812279485044
 31
0.0
  0
LINE
  5
133B1
  8
AM_0
 10
114.3151910886267
 20
540.28811279485035
 30
0.0
 11
111.3151910886267
 21
540.28811279485035
 31
0.0
  0
LINE
  5
133B2
  8
AM_0
 10
108.81519108862661
 20
541.43815279485045
 30
0.0
 11
113.4926810886267
 21
541.43815279485045
 31
0.0
  0
ARC
  5
133B3
  8
AM_0
 10
111.3151910886267
 20
541.28812279485044
 30
0.0
 40
1.0
 50
90.000003000000945
 51
180.00000999999449
  0
ARC
  5
133B4
  8
AM_0
 10
111.3151910886267
 20
541.28812279485044
 30
0.0
 40
1.0
 50
179.999989999999
 51
270.0
  0
LINE
  5
133B5
  8
AM_0
 10
112.3151910886267
 20
541.89522279485016
 30
0.0
 11
112.3151910886267
 21
540.68380279485041
 31
0.0
  0
LINE
  5
133B6
  8
AM_0
 10
108.81519108862661
 20
543.57009279485044
 30
0.0
 11
110.3151910886267
 21
543.57009279485044
 31
0.0
  0
ARC
  5
133B7
  8
AM_0
 10
114.3151910886267
 20
539.28812279485044
 30
0.0
 40
1.0
 50
0.0
 51
90.000003000000945
  0
ARC
  5
133B8
  8
AM_0
 10
114.3151910886267
 20
543.28811279485035
 30
0.0
 40
1.0
 50
270.0
 51
0.0
  0
ARC
  5
133B9
  8
AM_0
 10
111.3151910886267
 20
560.46285279485039
 30
0.0
 40
1.0
 50
113.1270299999986
 51
180.00000999999449
  0
LINE
  5
133BA
  8
AM_0
 10
112.3151910886267
 20
561.68100279485043
 30
0.0
 11
112.3151910886267
 21
560.62105279485036
 31
0.0
  0
ARC
  5
133BB
  8
AM_0
 10
114.3151910886267
 20
553.28812279485044
 30
0.0
 40
1.0
 50
270.0
 51
0.0
  0
LINE
  5
133BC
  8
AM_0
 10
114.3151910886267
 20
552.28811279485046
 30
0.0
 11
111.3151910886267
 21
552.28811279485046
 31
0.0
  0
LINE
  5
133BD
  8
AM_0
 10
114.3151910886267
 20
550.28812279485044
 30
0.0
 11
111.3151910886267
 21
550.28812279485044
 31
0.0
  0
ARC
  5
133BE
  8
AM_0
 10
111.3151910886267
 20
551.28812279485044
 30
0.0
 40
1.0
 50
90.000003000000945
 51
180.00000999999449
  0
ARC
  5
133BF
  8
AM_0
 10
111.3151910886267
 20
551.28812279485044
 30
0.0
 40
1.0
 50
179.999989999999
 51
270.0
  0
LINE
  5
133C0
  8
AM_0
 10
112.3151910886267
 20
551.91428279485035
 30
0.0
 11
112.3151910886267
 21
550.55149279485033
 31
0.0
  0
LINE
  5
133C1
  8
AM_0
 10
108.81519108862661
 20
546.28811279485035
 30
0.0
 11
110.3151910886267
 21
546.41933279485033
 31
0.0
  0
ARC
  5
133C2
  8
AM_0
 10
114.3151910886267
 20
549.28811279485035
 30
0.0
 40
1.0
 50
0.0
 51
90.000003000000945
  0
ARC
  5
133C3
  8
AM_0
 10
112.4655210886266
 20
559.03122279485035
 30
0.0
 40
1.0
 50
90.000003000000945
 51
107.0976299999995
  0
ARC
  5
133C4
  8
AM_0
 10
111.3151910886267
 20
558.67739279485033
 30
0.0
 40
1.0
 50
107.0976299999995
 51
180.00000999999449
  0
LINE
  5
133C5
  8
AM_0
 10
112.1715110886266
 20
559.98705279485034
 30
0.0
 11
111.02119108862669
 21
559.63321279485035
 31
0.0
  0
ARC
  5
133C6
  8
AM_0
 10
114.3151910886267
 20
559.03122279485035
 30
0.0
 40
1.0
 50
0.0
 51
90.000003000000945
  0
LINE
  5
133C7
  8
AM_0
 10
112.4655210886266
 20
560.03122279485046
 30
0.0
 11
114.3151910886267
 21
560.03122279485046
 31
0.0
  0
ARC
  5
133C8
  8
AM_0
 10
112.6138410886266
 20
568.4130027948504
 30
0.0
 40
1.0
 50
90.000003000000945
 51
123.2547299999989
  0
ARC
  5
133C9
  8
AM_0
 10
112.5864910886267
 20
567.2730527948504
 30
0.0
 40
1.0
 50
90.000003000000945
 51
120.3595000000014
  0
ARC
  5
133CA
  8
AM_0
 10
112.51984108862671
 20
560.97733279485044
 30
0.0
 40
1.0
 50
90.000003000000945
 51
113.1270299999986
  0
ARC
  5
133CB
  8
AM_0
 10
111.3151910886267
 20
566.52836279485041
 30
0.0
 40
1.0
 50
120.3595000000014
 51
180.00000999999449
  0
ARC
  5
133CC
  8
AM_0
 10
111.3151910886267
 20
567.56144279485034
 30
0.0
 40
1.0
 50
123.2547299999989
 51
180.00000999999449
  0
LINE
  5
133CD
  8
AM_0
 10
112.0654410886266
 20
569.24927279485019
 30
0.0
 11
110.76685108862659
 21
568.39771279485035
 31
0.0
  0
LINE
  5
133CE
  8
AM_0
 10
112.12702108862661
 20
561.89701279485041
 30
0.0
 11
110.92243108862669
 21
561.38254279485034
 31
0.0
  0
LINE
  5
133CF
  8
AM_0
 10
112.0810610886266
 20
568.13590279485015
 30
0.0
 11
110.8097610886266
 21
567.39123279485034
 31
0.0
  0
LINE
  5
133D0
  8
AM_0
 10
112.3151910886267
 20
569.11857279485037
 30
0.0
 11
112.3151910886267
 21
568.64638279485041
 31
0.0
  0
ARC
  5
133D1
  8
AM_0
 10
114.3151910886267
 20
567.2730527948504
 30
0.0
 40
1.0
 50
0.0
 51
90.000003000000945
  0
ARC
  5
133D2
  8
AM_0
 10
114.6151810886266
 20
562.67733279485026
 30
0.0
 40
0.6999999900000002
 50
270.0
 51
0.0
  0
LINE
  5
133D3
  8
AM_0
 10
112.51984108862671
 20
561.97732279485035
 30
0.0
 11
114.6151810886266
 21
561.97732279485035
 31
0.0
  0
LINE
  5
133D4
  8
AM_0
 10
112.5864910886267
 20
568.27303279485034
 30
0.0
 11
114.3151910886267
 21
568.27303279485034
 31
0.0
  0
ARC
  5
133D5
  8
AM_0
 10
112.58338108862669
 20
575.03750279485018
 30
0.0
 40
1.0
 50
90.000003000000945
 51
120.0263999999994
  0
ARC
  5
133D6
  8
AM_0
 10
112.55445108862661
 20
573.89121279485039
 30
0.0
 40
1.0
 50
90.000003000000945
 51
116.9112599999988
  0
ARC
  5
133D7
  8
AM_0
 10
112.5922310886266
 20
572.92972279485048
 30
0.0
 40
1.0
 50
90.000003000000945
 51
120.96660000000119
  0
ARC
  5
133D8
  8
AM_0
 10
112.56385108862661
 20
571.78975279485041
 30
0.0
 40
1.0
 50
90.000003000000945
 51
117.9265999999992
  0
ARC
  5
133D9
  8
AM_0
 10
111.3151910886267
 20
574.30448279485017
 30
0.0
 40
1.0
 50
120.0263999999994
 51
180.00000999999449
  0
ARC
  5
133DA
  8
AM_0
 10
111.3151910886267
 20
573.26218279485033
 30
0.0
 40
1.0
 50
116.9112599999988
 51
180.00000999999449
  0
ARC
  5
133DB
  8
AM_0
 10
111.3151910886267
 20
571.12783279485018
 30
0.0
 40
1.0
 50
117.9265999999992
 51
180.00000999999449
  0
ARC
  5
133DC
  8
AM_0
 10
111.3151910886267
 20
572.16343279485034
 30
0.0
 40
1.0
 50
120.96660000000119
 51
180.00000999999449
  0
LINE
  5
133DD
  8
AM_0
 10
112.08301108862671
 20
575.9032327948504
 30
0.0
 11
110.8148310886267
 21
575.17028279485044
 31
0.0
  0
LINE
  5
133DE
  8
AM_0
 10
112.07764108862661
 20
573.78722279485044
 30
0.0
 11
110.80060108862649
 21
573.02092279485043
 31
0.0
  0
LINE
  5
133DF
  8
AM_0
 10
112.10187108862659
 20
574.78293279485047
 30
0.0
 11
110.8626210886266
 21
574.15391279485016
 31
0.0
  0
LINE
  5
133E0
  8
AM_0
 10
112.0955310886267
 20
572.67328279485025
 30
0.0
 11
110.8468710886266
 21
572.01142279485043
 31
0.0
  0
LINE
  5
133E1
  8
AM_0
 10
112.3151910886267
 20
573.68467279485037
 30
0.0
 11
112.3151910886267
 21
573.13859279485041
 31
0.0
  0
LINE
  5
133E2
  8
AM_0
 10
112.3151910886267
 20
575.78428279485036
 30
0.0
 11
112.3151910886267
 21
575.25850279485041
 31
0.0
  0
ARC
  5
133E3
  8
AM_0
 10
114.3151910886267
 20
571.78975279485041
 30
0.0
 40
1.0
 50
0.0
 51
90.000003000000945
  0
ARC
  5
133E4
  8
AM_0
 10
114.8151910886267
 20
574.39121279485039
 30
0.0
 40
0.5
 50
0.0
 51
90.000003000000945
  0
ARC
  5
133E5
  8
AM_0
 10
114.8151910886267
 20
576.53750279485041
 30
0.0
 40
0.5
 50
270.0
 51
0.0
  0
LINE
  5
133E6
  8
AM_0
 10
112.58338108862669
 20
576.03751279485039
 30
0.0
 11
114.8151910886267
 21
576.03751279485039
 31
0.0
  0
LINE
  5
133E7
  8
AM_0
 10
112.5922310886266
 20
573.92971279485016
 30
0.0
 11
115.3151910886267
 21
573.92971279485016
 31
0.0
  0
LINE
  5
133E8
  8
AM_0
 10
112.6138410886266
 20
569.4130027948504
 30
0.0
 11
115.3151910886267
 21
569.4130027948504
 31
0.0
  0
LINE
  5
133E9
  8
AM_0
 10
112.56385108862661
 20
572.78977279485025
 30
0.0
 11
114.3151910886267
 21
572.78977279485025
 31
0.0
  0
LINE
  5
133EA
  8
AM_0
 10
112.55445108862661
 20
574.89119279485044
 30
0.0
 11
114.8151910886267
 21
574.89119279485044
 31
0.0
  0
LINE
  5
133EB
  8
AM_0
 10
115.3151910886267
 20
576.28811279485035
 30
0.0
 11
116.31519108862661
 21
576.28811279485035
 31
0.0
  0
LINE
  5
133EC
  8
AM_0
 10
117.01331108862669
 20
569.47951279485039
 30
0.0
 11
123.24311108862661
 21
569.47951279485039
 31
0.0
  0
LINE
  5
133ED
  8
AM_0
 10
209.81519108862659
 20
557.78812279485044
 30
0.0
 11
135.81519108862659
 21
557.78812279485044
 31
0.0
  0
LINE
  5
133EE
  8
AM_0
 10
209.81519108862659
 20
556.28812279485044
 30
0.0
 11
135.81519108862659
 21
556.28812279485044
 31
0.0
  0
LINE
  5
133EF
  8
AM_0
 10
209.81519108862651
 20
494.78812279485032
 30
0.0
 11
135.81519108862651
 21
494.78812279485032
 31
0.0
  0
LINE
  5
133F0
  8
AM_0
 10
209.81519108862651
 20
496.28812279485032
 30
0.0
 11
135.81519108862651
 21
496.28812279485032
 31
0.0
  0
LINE
  5
133F1
  8
AM_0
 10
160.31519108862651
 20
503.78812279485032
 30
0.0
 11
197.0871910886265
 21
503.78812279485038
 31
0.0
  0
LINE
  5
133F2
  8
AM_0
 10
202.31519108862651
 20
548.78812279485044
 30
0.0
 11
165.54319108862649
 21
548.78812279485044
 31
0.0
  0
LINE
  5
133F3
  8
AM_0
 10
197.11919108862651
 20
508.98432279485041
 30
0.0
 11
165.51119108862659
 21
508.98432279485041
 31
0.0
  0
LINE
  5
133F4
  8
AM_0
 10
165.51119108862659
 20
543.59202279485044
 30
0.0
 11
197.11919108862651
 21
543.59202279485044
 31
0.0
  0
LINE
  5
133F5
  8
AM_0
 10
225.6595810886266
 20
562.28812279485044
 30
0.0
 11
126.68061108862661
 21
562.28812279485044
 31
0.0
  0
LINE
  5
133F6
  8
AM_0
 10
225.6595810886266
 20
560.28812279485044
 30
0.0
 11
126.68061108862661
 21
560.28812279485044
 31
0.0
  0
LINE
  5
133F7
  8
AM_0
 10
125.9925010886266
 20
563.01113279485037
 30
0.0
 11
229.1373010886266
 21
563.01113279485037
 31
0.0
  0
LINE
  5
133F8
  8
AM_0
 10
225.6595810886266
 20
492.2881167948504
 30
0.0
 11
181.31519108862659
 21
492.2881167948504
 31
0.0
  0
LINE
  5
133F9
  8
AM_0
 10
225.6595810886266
 20
490.28812379485038
 30
0.0
 11
181.31519108862659
 21
490.28812379485038
 31
0.0
  0
LINE
  5
133FA
  8
AM_0
 10
181.31519108862659
 20
489.56504079485052
 30
0.0
 11
229.1373010886266
 21
489.56504079485052
 31
0.0
  0
LINE
  5
133FB
  8
AM_0
 10
149.8151910886267
 20
564.51113279485025
 30
0.0
 11
232.31519108862659
 21
564.51113279485025
 31
0.0
  0
LINE
  5
133FC
  8
AM_0
 10
127.5216110886266
 20
470.00486779485038
 30
0.0
 11
224.44138108862671
 21
470.00486779485038
 31
0.0
  0
LINE
  5
133FD
  8
AM_0
 10
149.8151910886267
 20
488.0650407948504
 30
0.0
 11
232.31519108862659
 21
488.0650407948504
 31
0.0
  0
LINE
  5
133FE
  8
ﾁｭｳｼﾝｾﾝ1
 10
181.31519108862659
 20
560.78812279485044
 30
0.0
 11
181.31519108862659
 21
491.78812279485032
 31
0.0
1001
GENIUS_GENODEF_13
1002
{
1000
HIER
1070
     0
1002
}
1002
{
1000
MANEDIT
1070
     0
1002
}
1002
{
1000
NOSEL
1070
     0
1002
}
1002
{
1000
BEHIND
1070
     0
1002
}
1002
{
1000
REACTOR
1002
}
1001
GENIUS_GENOBJ-N-CEN_13
1002
{
1000
OWNER
1000
GEN
1002
}
  0
LINE
  5
133FF
  8
AM_0
 10
132.81519108862651
 20
497.78812279485032
 30
0.0
 11
132.81519108862659
 21
554.78812279485044
 31
0.0
  0
LINE
  5
13400
  8
AM_0
 10
134.31519108862659
 20
554.78812279485044
 30
0.0
 11
134.31519108862651
 21
497.78812279485032
 31
0.0
  0
LINE
  5
13401
  8
AM_0
 10
158.31519108862651
 20
541.55972279485025
 30
0.0
 11
158.31519108862651
 21
505.78812279485032
 31
0.0
  0
ARC
  5
13402
  8
AM_0
 10
165.51119108862659
 20
510.9843227948503
 30
0.0
 40
2.0
 50
180.0
 51
270.0
  0
ARC
  5
13403
  8
AM_0
 10
126.8645710886266
 20
511.28812279485038
 30
0.0
 40
1.0
 50
90.000003000000945
 51
270.0
  0
LINE
  5
13404
  8
AM_0
 10
125.99311108862661
 20
489.56504079485052
 30
0.0
 11
181.31519108862659
 21
489.56504079485052
 31
0.0
  0
LINE
  5
13405
  8
AM_0
 10
181.31519108862659
 20
492.2881167948504
 30
0.0
 11
126.68061108862661
 21
492.2881167948504
 31
0.0
  0
LINE
  5
13406
  8
AM_0
 10
181.31519108862659
 20
490.28812379485038
 30
0.0
 11
126.68061108862661
 21
490.28812379485038
 31
0.0
  0
LINE
  5
13407
  8
AM_0
 10
127.5702010886266
 20
467.1584927948503
 30
0.0
 11
161.3151910886267
 21
467.1584927948503
 31
0.0
  0
LINE
  5
13408
  8
AM_0
 10
127.5835610886266
 20
465.31070679485038
 30
0.0
 11
161.3151910886267
 21
465.31070679485038
 31
0.0
  0
LINE
  5
13409
  8
AM_0
 10
127.60486108862661
 20
464.4001927948504
 30
0.0
 11
161.3151910886267
 21
464.4001927948504
 31
0.0
  0
ARC
  5
1340A
  8
AM_0
 10
127.60486108862661
 20
466.40018479485042
 30
0.0
 40
2.0
 50
187.94403999999901
 51
270.0
  0
ARC
  5
1340B
  8
AM_0
 10
127.5702010886266
 20
469.15848579485032
 30
0.0
 40
2.0
 50
189.08497000000031
 51
270.0
  0
ARC
  5
1340C
  8
AM_0
 10
127.5835610886266
 20
467.31069979485039
 30
0.0
 40
2.0
 50
188.64338999999899
 51
270.0
  0
ARC
  5
1340D
  8
AM_0
 10
127.5216110886266
 20
472.0048597948504
 30
0.0
 40
2.0
 50
190.71568999999951
 51
270.0
  0
LINE
  5
1340E
  8
AM_0
 10
152.8151910886267
 20
493.28812279485032
 30
0.0
 11
138.81519108862659
 21
493.2881227948501
 31
0.0
  0
LINE
  5
1340F
  8
AM_0
 10
125.99311108862661
 20
492.9208837948504
 30
0.0
 11
149.81519108862659
 21
492.9208837948504
 31
0.0
  0
ARC
  5
13410
  8
AM_0
 10
135.81519108862651
 20
497.78812279485032
 30
0.0
 40
3.0
 50
180.0
 51
270.0
  0
LINE
  5
13411
  8
AM_0
 10
138.3151910886267
 20
493.7881227948501
 30
0.0
 11
138.3151910886267
 21
494.7881227948501
 31
0.0
  0
POLYLINE
  5
13412
  8
AM_0
 66
     1
 10
0.0
 20
0.0
 30
0.0
  0
VERTEX
  5
13413
  8
AM_0
 10
128.17739108862659
 20
499.80114279485042
 30
0.0
  0
VERTEX
  5
13414
  8
AM_0
 10
129.1378710886265
 20
492.91954779485019
 30
0.0
 42
-1.0
  0
SEQEND
  5
13415
  8
AM_0
  0
ARC
  5
13416
  8
AM_0
 10
126.8645710886266
 20
491.28813179485041
 30
0.0
 40
1.0
 50
90.000003000000945
 51
270.0
  0
ARC
  5
13417
  8
AM_0
 10
138.81519108862659
 20
493.78812279485032
 30
0.0
 40
0.5
 50
180.0
 51
270.0
  0
LINE
  5
13418
  8
AM_0
 10
132.81470108862649
 20
502.28812279485032
 30
0.0
 11
126.68061108862661
 21
502.28812279485032
 31
0.0
  0
LINE
  5
13419
  8
AM_0
 10
132.81470108862649
 20
500.28813279485041
 30
0.0
 11
126.68061108862661
 21
500.28813279485041
 31
0.0
  0
LINE
  5
1341A
  8
AM_0
 10
125.77674108862659
 20
499.80192279485021
 30
0.0
 11
132.81470108862649
 21
499.80192279485021
 31
0.0
  0
ARC
  5
1341B
  8
AM_0
 10
126.8645710886266
 20
501.28811279485041
 30
0.0
 40
1.0
 50
90.000003000000945
 51
270.0
  0
LINE
  5
1341C
  8
AM_0
 10
132.81470108862649
 20
510.28811279485052
 30
0.0
 11
126.68061108862661
 21
510.28811279485052
 31
0.0
  0
LINE
  5
1341D
  8
AM_0
 10
125.6461210886266
 20
509.94461279485017
 30
0.0
 11
132.81470108862649
 21
509.94461279485017
 31
0.0
  0
LINE
  5
1341E
  8
AM_0
 10
125.77674108862659
 20
502.72490279485038
 30
0.0
 11
132.81470108862649
 21
502.72490279485038
 31
0.0
  0
POLYLINE
  5
1341F
  8
AM_0
 66
     1
 10
0.0
 20
0.0
 30
0.0
  0
VERTEX
  5
13420
  8
AM_0
 10
127.1956410886266
 20
509.94553279485029
 30
0.0
  0
VERTEX
  5
13421
  8
AM_0
 10
127.8416910886266
 20
502.72459279485031
 30
0.0
 42
-1.0
  0
SEQEND
  5
13422
  8
AM_0
  0
ARC
  5
13423
  8
AM_0
 10
135.81519108862651
 20
497.78812279485032
 30
0.0
 40
1.5
 50
180.0
 51
270.0
  0
LINE
  5
13424
  8
AM_0
 10
137.31519108862651
 20
496.28812279485032
 30
0.0
 11
137.31519108862651
 21
494.78812279485032
 31
0.0
  0
LINE
  5
13425
  8
AM_0
 10
153.3151910886267
 20
494.78812279485032
 30
0.0
 11
153.3151910886267
 21
493.78812279485032
 31
0.0
  0
LINE
  5
13426
  8
AM_0
 10
148.3151910886267
 20
489.56504079485052
 30
0.0
 11
148.3151910886267
 21
488.0650407948504
 31
0.0
  0
LINE
  5
13427
  8
AM_0
 10
148.3151910886267
 20
489.56504079485052
 30
0.0
 11
148.3151910886267
 21
489.56504079485052
 31
0.0
  0
ARC
  5
13428
  8
AM_0
 10
152.8151910886267
 20
493.78812279485032
 30
0.0
 40
0.5
 50
270.0
 51
0.0
  0
ARC
  5
13429
  8
AM_0
 10
149.81519108862659
 20
494.4208837948504
 30
0.0
 40
1.5
 50
270.0
 51
310.95942417142038
1001
GENIUS_GENODEF_13
1002
{
1000
HIER
1070
     0
1002
}
1002
{
1000
MANEDIT
1070
     0
1002
}
1002
{
1000
NOSEL
1070
     0
1002
}
1002
{
1000
BEHIND
1070
     0
1002
}
1002
{
1000
REACTOR
1002
}
1001
GENIUS_GENOBJ-N-FIL_13
1002
{
1000
OWNER
1000
GEN
1002
}
  0
LINE
  5
1342A
  8
AM_0
 10
154.31519108862651
 20
496.28812279485032
 30
0.0
 11
154.31519108862651
 21
494.78812279485032
 31
0.0
  0
LINE
  5
1342B
  8
AM_0
 10
163.3151910886267
 20
466.40018479485042
 30
0.0
 11
163.3151910886267
 21
470.00486779485038
 31
0.0
  0
ARC
  5
1342C
  8
AM_0
 10
161.3151910886267
 20
466.40018479485042
 30
0.0
 40
2.0
 50
270.0
 51
0.0
  0
ARC
  5
1342D
  8
AM_0
 10
161.3151910886267
 20
467.31069979485039
 30
0.0
 40
2.0
 50
270.0
 51
0.0
  0
ARC
  5
1342E
  8
AM_0
 10
161.3151910886267
 20
469.15848579485032
 30
0.0
 40
2.0
 50
270.0
 51
0.0
  0
ARC
  5
1342F
  8
AM_0
 10
160.31519108862651
 20
505.7881227948501
 30
0.0
 40
2.0
 50
180.0
 51
270.0
  0
LINE
  5
13430
  8
AM_0
 10
159.8651910886266
 20
547.19812279485041
 30
0.0
 11
156.76519108862661
 21
550.37812279485036
 31
0.0
  0
LINE
  5
13431
  8
AM_0
 10
159.90519108862659
 20
550.37822279485044
 30
0.0
 11
156.7251910886265
 21
547.19822279485038
 31
0.0
  0
CIRCLE
  5
13432
  8
AM_0
 10
158.31519108862651
 20
548.78812279485044
 30
0.0
 40
4.5000000000000018
  0
POLYLINE
  5
13433
  8
AM_0
 66
     1
 10
0.0
 20
0.0
 30
0.0
  0
VERTEX
  5
13434
  8
AM_0
 10
127.1956410886266
 20
542.6306727948504
 30
0.0
  0
VERTEX
  5
13435
  8
AM_0
 10
127.8416910886266
 20
549.85159279485038
 30
0.0
 42
-1.0
  0
SEQEND
  5
13436
  8
AM_0
  0
POLYLINE
  5
13437
  8
AM_0
 66
     1
 10
0.0
 20
0.0
 30
0.0
  0
VERTEX
  5
13438
  8
AM_0
 10
126.68061108862661
 20
526.28812279485044
 30
0.0
  0
VERTEX
  5
13439
  8
AM_0
 10
126.6833310886267
 20
530.02060279485033
 30
0.0
 42
-1.0
  0
SEQEND
  5
1343A
  8
AM_0
  0
LINE
  5
1343B
  8
AM_0
 10
134.31519108862651
 20
517.78812279485044
 30
0.0
 11
132.81519108862651
 21
517.78812279485044
 31
0.0
  0
POLYLINE
  5
1343C
  8
AM_0
 66
     1
 10
0.0
 20
0.0
 30
0.0
  0
VERTEX
  5
1343D
  8
AM_0
 10
126.7239710886266
 20
520.01683279485042
 30
0.0
  0
VERTEX
  5
1343E
  8
AM_0
 10
127.0226410886266
 20
512.60677279485037
 30
0.0
 42
-1.0
  0
SEQEND
  5
1343F
  8
AM_0
  0
LINE
  5
13440
  8
AM_0
 10
125.6461210886266
 20
512.60648279485031
 30
0.0
 11
132.81470108862649
 21
512.60648279485031
 31
0.0
  0
LINE
  5
13441
  8
AM_0
 10
132.81470108862649
 20
512.28813279485041
 30
0.0
 11
126.68061108862661
 21
512.28813279485041
 31
0.0
  0
LINE
  5
13442
  8
AM_0
 10
125.5841110886266
 20
522.55314279485015
 30
0.0
 11
132.81519108862651
 21
522.55314279485015
 31
0.0
  0
LINE
  5
13443
  8
AM_0
 10
132.81519108862651
 20
522.28811279485035
 30
0.0
 11
126.68061108862661
 21
522.28811279485035
 31
0.0
  0
LINE
  5
13444
  8
AM_0
 10
132.81519108862651
 20
520.28812279485044
 30
0.0
 11
126.68061108862661
 21
520.28812279485044
 31
0.0
  0
LINE
  5
13445
  8
AM_0
 10
125.5841110886266
 20
520.01529279485044
 30
0.0
 11
132.81519108862651
 21
520.01529279485044
 31
0.0
  0
POLYLINE
  5
13446
  8
AM_0
 66
     1
 10
0.0
 20
0.0
 30
0.0
  0
VERTEX
  5
13447
  8
AM_0
 10
126.68061108862661
 20
526.28812279485044
 30
0.0
  0
VERTEX
  5
13448
  8
AM_0
 10
126.6833310886267
 20
522.5556527948504
 30
0.0
 42
-1.0
  0
SEQEND
  5
13449
  8
AM_0
  0
ARC
  5
1344A
  8
AM_0
 10
126.8645710886266
 20
521.28813279485041
 30
0.0
 40
1.0
 50
90.000003000000945
 51
270.0
  0
LINE
  5
1344B
  8
AM_0
 10
134.31519108862651
 20
534.78812279485044
 30
0.0
 11
132.81519108862651
 21
534.78812279485044
 31
0.0
  0
POLYLINE
  5
1344C
  8
AM_0
 66
     1
 10
0.0
 20
0.0
 30
0.0
  0
VERTEX
  5
1344D
  8
AM_0
 10
126.7239710886266
 20
532.55941279485035
 30
0.0
  0
VERTEX
  5
1344E
  8
AM_0
 10
127.0226410886266
 20
539.96944279485035
 30
0.0
 42
-1.0
  0
SEQEND
  5
1344F
  8
AM_0
  0
LINE
  5
13450
  8
AM_0
 10
132.81519108862651
 20
532.28812279485044
 30
0.0
 11
126.68061108862661
 21
532.28812279485044
 31
0.0
  0
LINE
  5
13451
  8
AM_0
 10
132.81519108862651
 20
530.28812279485044
 30
0.0
 11
126.68061108862661
 21
530.28812279485044
 31
0.0
  0
LINE
  5
13452
  8
AM_0
 10
125.5841110886266
 20
532.56087279485041
 30
0.0
 11
132.81519108862659
 21
532.56087279485041
 31
0.0
  0
LINE
  5
13453
  8
AM_0
 10
125.5841110886266
 20
530.02303279485034
 30
0.0
 11
132.81519108862659
 21
530.02303279485034
 31
0.0
  0
ARC
  5
13454
  8
AM_0
 10
126.8645710886266
 20
531.28811279485046
 30
0.0
 40
1.0
 50
90.000003000000945
 51
270.0
  0
LINE
  5
13455
  8
AM_0
 10
132.81470108862649
 20
542.28812279485044
 30
0.0
 11
126.68061108862661
 21
542.28812279485044
 31
0.0
  0
LINE
  5
13456
  8
AM_0
 10
132.81470108862649
 20
540.28811279485035
 30
0.0
 11
126.68061108862661
 21
540.28811279485035
 31
0.0
  0
LINE
  5
13457
  8
AM_0
 10
125.6461210886266
 20
542.63163279485025
 30
0.0
 11
132.81470108862649
 21
542.63163279485025
 31
0.0
  0
LINE
  5
13458
  8
AM_0
 10
125.6461210886266
 20
539.96976279485034
 30
0.0
 11
132.81470108862649
 21
539.96976279485034
 31
0.0
  0
ARC
  5
13459
  8
AM_0
 10
126.8645710886266
 20
541.28812279485044
 30
0.0
 40
1.0
 50
90.000003000000945
 51
270.0
  0
LINE
  5
1345A
  8
AM_0
 10
152.81519108862659
 20
559.28812279485044
 30
0.0
 11
138.81519108862659
 21
559.28812279485044
 31
0.0
  0
LINE
  5
1345B
  8
AM_0
 10
125.9925010886266
 20
559.65531279485015
 30
0.0
 11
149.81519108862659
 21
559.65531279485015
 31
0.0
  0
ARC
  5
1345C
  8
AM_0
 10
126.8645710886266
 20
561.28811279485035
 30
0.0
 40
1.0
 50
90.000003000000945
 51
270.0
  0
ARC
  5
1345D
  8
AM_0
 10
135.81519108862651
 20
554.78812279485044
 30
0.0
 40
3.0
 50
90.0
 51
180.0
  0
LINE
  5
1345E
  8
AM_0
 10
132.81470108862649
 20
552.28811279485046
 30
0.0
 11
126.68061108862661
 21
552.28811279485046
 31
0.0
  0
LINE
  5
1345F
  8
AM_0
 10
132.81470108862649
 20
550.28812279485044
 30
0.0
 11
126.68061108862661
 21
550.28812279485044
 31
0.0
  0
LINE
  5
13460
  8
AM_0
 10
125.7766810886267
 20
549.85129279485034
 30
0.0
 11
132.81470108862649
 21
549.85129279485034
 31
0.0
  0
ARC
  5
13461
  8
AM_0
 10
126.8645710886266
 20
551.28812279485044
 30
0.0
 40
1.0
 50
90.000003000000945
 51
270.0
  0
POLYLINE
  5
13462
  8
AM_0
 66
     1
 10
0.0
 20
0.0
 30
0.0
  0
VERTEX
  5
13463
  8
AM_0
 10
128.17739108862659
 20
552.77505279485035
 30
0.0
  0
VERTEX
  5
13464
  8
AM_0
 10
129.1378710886265
 20
559.65668279485044
 30
0.0
 42
-1.0
  0
SEQEND
  5
13465
  8
AM_0
  0
LINE
  5
13466
  8
AM_0
 10
125.7766810886267
 20
552.77425279485044
 30
0.0
 11
132.81470108862649
 21
552.77425279485044
 31
0.0
  0
ARC
  5
13467
  8
AM_0
 10
135.81519108862651
 20
554.78812279485044
 30
0.0
 40
1.5
 50
90.0
 51
180.0
  0
LINE
  5
13468
  8
AM_0
 10
137.31519108862659
 20
556.28812279485044
 30
0.0
 11
137.31519108862659
 21
557.78812279485044
 31
0.0
  0
LINE
  5
13469
  8
AM_0
 10
138.31519108862659
 20
558.78812279485044
 30
0.0
 11
138.31519108862659
 21
557.78812279485044
 31
0.0
  0
ARC
  5
1346A
  8
AM_0
 10
138.81519108862651
 20
558.78812279485044
 30
0.0
 40
0.5
 50
90.0
 51
180.0
  0
ARC
  5
1346B
  8
AM_0
 10
152.81519108862651
 20
558.78812279485044
 30
0.0
 40
0.5
 50
0.0
 51
90.0
  0
ARC
  5
1346C
  8
AM_0
 10
149.81519108862659
 20
558.15531279485015
 30
0.0
 40
1.5
 50
49.043431124087149
 51
90.0
1001
GENIUS_GENODEF_13
1002
{
1000
HIER
1070
     0
1002
}
1002
{
1000
MANEDIT
1070
     0
1002
}
1002
{
1000
NOSEL
1070
     0
1002
}
1002
{
1000
BEHIND
1070
     0
1002
}
1002
{
1000
REACTOR
1002
}
1001
GENIUS_GENOBJ-N-FIL_13
1002
{
1000
OWNER
1000
GEN
1002
}
  0
LINE
  5
1346D
  8
AM_0
 10
153.31519108862659
 20
557.78812279485044
 30
0.0
 11
153.31519108862659
 21
558.78812279485044
 31
0.0
  0
LINE
  5
1346E
  8
AM_0
 10
154.31519108862659
 20
556.28812279485044
 30
0.0
 11
154.31519108862659
 21
557.78812279485044
 31
0.0
  0
ARC
  5
1346F
  8
AM_0
 10
149.8151910886267
 20
563.01113279485037
 30
0.0
 40
1.5
 50
90.000003000000945
 51
180.00000999999449
  0
LINE
  5
13470
  8
AM_0
 10
148.3151910886267
 20
563.01113279485037
 30
0.0
 11
148.3151910886267
 21
563.01113279485037
 31
0.0
  0
ARC
  5
13471
  8
AM_0
 10
158.31519108862651
 20
548.78812279485044
 30
0.0
 40
5.499999999999992
 50
285.46600995342033
 51
344.53399004658058
  0
LINE
  5
13472
  8
AM_0
 10
163.51119108862659
 20
510.98432279485041
 30
0.0
 11
163.51119108862659
 21
541.59202279485044
 31
0.0
  0
ARC
  5
13473
  8
AM_0
 10
160.31519108862651
 20
541.55970664744984
 30
0.0
 40
2.0
 50
105.4660099534203
 51
180.0
  0
ARC
  5
13474
  8
AM_0
 10
165.51119108862659
 20
541.59202279485032
 30
0.0
 40
2.0
 50
90.0
 51
180.0
  0
ARC
  5
13475
  8
AM_0
 10
165.54360723602699
 20
546.78812279485021
 30
0.0
 40
2.0
 50
90.0
 51
164.5339900465805
  0
LINE
  5
13476
  8
AM_0
 10
211.31519108862659
 20
554.78812279485044
 30
0.0
 11
211.31519108862651
 21
497.78812279485032
 31
0.0
  0
LINE
  5
13477
  8
AM_0
 10
212.81519108862659
 20
554.78812279485044
 30
0.0
 11
212.81519108862651
 21
497.78812279485032
 31
0.0
  0
ARC
  5
13478
  8
AM_0
 10
202.31519108862651
 20
511.01653894225058
 30
0.0
 40
2.0
 50
285.46600995342033
 51
0.0
  0
ARC
  5
13479
  8
AM_0
 10
197.11919108862651
 20
510.98422279485033
 30
0.0
 40
2.0
 50
270.0
 51
0.0
  0
LINE
  5
1347A
  8
AM_0
 10
222.08521108862669
 20
556.28812279485044
 30
0.0
 11
222.08521108862669
 21
496.28812279485032
 31
0.0
  0
LINE
  5
1347B
  8
AM_0
 10
229.1373010886266
 20
492.9208837948504
 30
0.0
 11
212.61518108862671
 21
492.9208837948504
 31
0.0
  0
CIRCLE
  5
1347C
  8
AM_0
 10
204.31519108862651
 20
503.78812279485032
 30
0.0
 40
4.5000000000000018
  0
ARC
  5
1347D
  8
AM_0
 10
197.08677494122611
 20
505.78812279485032
 30
0.0
 40
2.0
 50
270.0
 51
344.53399004658058
  0
LINE
  5
1347E
  8
AM_0
 10
202.7251910886265
 20
502.19802279485032
 30
0.0
 11
205.90519108862659
 21
505.37802279485038
 31
0.0
  0
LINE
  5
1347F
  8
AM_0
 10
202.76519108862661
 20
505.37812279485041
 30
0.0
 11
205.8651910886266
 21
502.19812279485018
 31
0.0
  0
ARC
  5
13480
  8
AM_0
 10
204.31519108862651
 20
503.78812279485032
 30
0.0
 40
5.499999999999992
 50
105.4660099534203
 51
164.5339900465805
  0
ARC
  5
13481
  8
AM_0
 10
209.81519108862659
 20
497.78812279485032
 30
0.0
 40
3.0
 50
270.0
 51
0.0
  0
LINE
  5
13482
  8
AM_0
 10
211.61521108862661
 20
493.92086779485038
 30
0.0
 11
211.61521108862669
 21
495.38813779498042
 31
0.0
  0
ARC
  5
13483
  8
AM_0
 10
212.61518108862671
 20
493.92086779485038
 30
0.0
 40
1.0
 50
179.999989999999
 51
270.0
  0
LINE
  5
13484
  8
AM_0
 10
212.22824791101729
 20
496.0056647246804
 30
0.0
 11
222.08521108862669
 21
496.28810279485037
 31
0.0
  0
LINE
  5
13485
  8
AM_0
 10
212.41326729997999
 20
496.28812279485032
 30
0.0
 11
222.08521108862669
 21
496.28812279485032
 31
0.0
  0
ARC
  5
13486
  8
AM_0
 10
209.81519108862659
 20
497.78812279485032
 30
0.0
 40
1.5
 50
270.0
 51
0.0
  0
LINE
  5
13487
  8
AM_0
 10
230.81519108862659
 20
488.06509379485033
 30
0.0
 11
226.37317108862661
 21
471.48723579485039
 31
0.0
  0
LINE
  5
13488
  8
AM_0
 10
232.31519108862659
 20
470.28813179485041
 30
0.0
 11
240.31519108862659
 21
470.28813179485041
 31
0.0
  0
LINE
  5
13489
  8
AM_0
 10
226.85572108862661
 20
473.28813179485019
 30
0.0
 11
232.31519108862659
 21
473.28813179485019
 31
0.0
  0
ARC
  5
1348A
  8
AM_0
 10
224.44138108862671
 20
472.0048597948504
 30
0.0
 40
2.0
 50
270.0
 51
345.00000000000563
  0
LINE
  5
1348B
  8
AM_0
 10
232.31519108862659
 20
480.28811679485051
 30
0.0
 11
240.31519108862659
 21
480.28811679485051
 31
0.0
  0
LINE
  5
1348C
  8
AM_0
 10
232.31519108862659
 20
494.35068479485039
 30
0.0
 11
240.31519108862659
 21
494.35068479485039
 31
0.0
  0
ARC
  5
1348D
  8
AM_0
 10
225.6595810886266
 20
491.28813179485041
 30
0.0
 40
1.0
 50
270.0
 51
90.000003000000945
  0
ARC
  5
1348E
  8
AM_0
 10
229.1373010886266
 20
491.2429507948504
 30
0.0
 40
1.6779127
 50
270.0
 51
90.000003000000945
  0
LINE
  5
1348F
  8
AM_0
 10
229.1373010886266
 20
559.65531279485015
 30
0.0
 11
212.61518108862671
 21
559.65531279485015
 31
0.0
  0
LINE
  5
13490
  8
AM_0
 10
204.31519108862651
 20
511.01662279485038
 30
0.0
 11
204.31519108862651
 21
546.78812279485044
 31
0.0
  0
LINE
  5
13491
  8
AM_0
 10
199.11919108862651
 20
541.59202279485044
 30
0.0
 11
199.11919108862651
 21
510.98432279485041
 31
0.0
  0
ARC
  5
13492
  8
AM_0
 10
197.11919108862651
 20
541.59202279485032
 30
0.0
 40
2.0
 50
0.0
 51
90.0
  0
ARC
  5
13493
  8
AM_0
 10
202.31519108862651
 20
546.78812279485021
 30
0.0
 40
2.0
 50
0.0
 51
90.0
  0
LINE
  5
13494
  8
AM_0
 10
212.22824791101721
 20
556.57058086502036
 30
0.0
 11
222.08521108862669
 21
556.28814279485039
 31
0.0
  0
LINE
  5
13495
  8
AM_0
 10
212.41326729997991
 20
556.28812279485044
 30
0.0
 11
222.08521108862669
 21
556.28812279485044
 31
0.0
  0
ARC
  5
13496
  8
AM_0
 10
209.81519108862659
 20
554.78812279485032
 30
0.0
 40
3.0
 50
0.0
 51
90.0
  0
ARC
  5
13497
  8
AM_0
 10
209.81519108862659
 20
554.78812279485032
 30
0.0
 40
1.5
 50
0.0
 51
90.0
  0
ARC
  5
13498
  8
AM_0
 10
212.61518108862671
 20
558.65531279485015
 30
0.0
 40
1.0
 50
90.000003000000945
 51
180.00000999999449
  0
LINE
  5
13499
  8
AM_0
 10
211.61521108862661
 20
558.65531279485015
 30
0.0
 11
211.61521108862661
 21
557.18810779472005
 31
0.0
  0
LINE
  5
1349A
  8
AM_0
 10
232.31519108862659
 20
572.28812279485044
 30
0.0
 11
240.31519108862659
 21
572.28812279485044
 31
0.0
  0
LINE
  5
1349B
  8
AM_0
 10
232.31519108862659
 20
558.22556279485025
 30
0.0
 11
240.31519108862659
 21
558.22556279485025
 31
0.0
  0
ARC
  5
1349C
  8
AM_0
 10
229.1373010886266
 20
561.33323279485035
 30
0.0
 40
1.6779127
 50
270.0
 51
90.000003000000945
  0
ARC
  5
1349D
  8
AM_0
 10
225.6595810886266
 20
561.28811279485035
 30
0.0
 40
1.0
 50
270.0
 51
90.000003000000945
  0
ARC
  5
1349E
  8
AM_0
 10
231.9661910886266
 20
566.01113279485025
 30
0.0
 40
1.5
 50
195.00001000000211
 51
270.0
  0
LINE
  5
1349F
  8
AM_0
 10
116.31519108862661
 20
579.28811279485035
 30
0.0
 11
124.31519108862661
 21
579.28811279485035
 31
0.0
  0
LINE
  5
134A0
  8
AM_0
 10
127.5216110886266
 20
582.57137279485016
 30
0.0
 11
224.44138108862671
 21
582.57137279485016
 31
0.0
  0
LINE
  5
134A1
  8
AM_0
 10
127.5702010886266
 20
585.41774279485048
 30
0.0
 11
161.3151910886267
 21
585.41774279485048
 31
0.0
  0
LINE
  5
134A2
  8
AM_0
 10
127.5835610886266
 20
587.26546279485035
 30
0.0
 11
161.3151910886267
 21
587.26546279485035
 31
0.0
  0
LINE
  5
134A3
  8
AM_0
 10
127.60486108862661
 20
588.17600279485043
 30
0.0
 11
161.3151910886267
 21
588.17600279485043
 31
0.0
  0
ARC
  5
134A4
  8
AM_0
 10
127.5835610886266
 20
585.26548279485041
 30
0.0
 40
2.0
 50
90.000003000000945
 51
171.35661000000101
  0
ARC
  5
134A5
  8
AM_0
 10
127.5216110886266
 20
580.57139279485034
 30
0.0
 40
2.0
 50
90.000003000000945
 51
169.2843100000004
  0
ARC
  5
134A6
  8
AM_0
 10
127.5702010886266
 20
583.41776279485043
 30
0.0
 40
2.0
 50
90.000003000000945
 51
170.9150299999996
  0
ARC
  5
134A7
  8
AM_0
 10
127.60486108862661
 20
586.17598279485026
 30
0.0
 40
2.0
 50
90.000003000000945
 51
172.05595999999451
  0
ARC
  5
134A8
  8
AM_0
 10
161.3151910886267
 20
585.26548279485041
 30
0.0
 40
2.0
 50
0.0
 51
90.000003000000945
  0
LINE
  5
134A9
  8
AM_0
 10
163.3151910886267
 20
586.17598279485026
 30
0.0
 11
163.3151910886267
 21
582.57137279485016
 31
0.0
  0
ARC
  5
134AA
  8
AM_0
 10
161.3151910886267
 20
583.41776279485043
 30
0.0
 40
2.0
 50
0.0
 51
90.000003000000945
  0
ARC
  5
134AB
  8
AM_0
 10
161.3151910886267
 20
586.17598279485026
 30
0.0
 40
2.0
 50
0.0
 51
90.000003000000945
  0
LINE
  5
134AC
  8
AM_0
 10
232.31519108862659
 20
582.28811279485035
 30
0.0
 11
240.31519108862659
 21
582.28811279485035
 31
0.0
  0
LINE
  5
134AD
  8
AM_0
 10
226.85572108862661
 20
579.28811279485035
 30
0.0
 11
232.31519108862659
 21
579.28811279485035
 31
0.0
  0
ARC
  5
134AE
  8
AM_0
 10
224.44138108862671
 20
580.57139279485034
 30
0.0
 40
2.0
 50
14.999999999994451
 51
90.000003000000945
  0
LINE
  5
134BA
  8
AM_0
 10
107.82129460425161
 20
541.50995507024095
 30
0.0
 11
108.3212946042517
 21
544.27994408391294
 31
0.0
  0
LINE
  5
134BB
  8
AM_0
 10
108.3213251218298
 20
544.27994408391294
 30
0.0
 11
108.82129460425161
 21
544.23993553899095
 31
0.0
  0
LINE
  5
134BC
  8
AM_0
 10
107.82129460425161
 20
511.0662905194597
 30
0.0
 11
107.82129460425161
 21
541.50992455266294
 31
0.0
  0
LINE
  5
134BD
  8
AM_0
 10
107.8213251218298
 20
511.0662905194597
 30
0.0
 11
108.3213251218298
 21
508.29630150578782
 31
0.0
  0
LINE
  5
134BE
  8
AM_0
 10
108.3212946042517
 20
508.29630150578782
 30
0.0
 11
108.8213251218298
 21
508.33631005070981
 31
0.0
  0
LINE
  5
134C6
  8
AM_0
 10
391.81519508213768
 20
481.28815737420518
 30
0.0
 11
391.81519508213768
 21
477.28815725499612
 31
0.0
  0
LINE
  5
134C7
  8
AM_0
 10
391.81519508213768
 20
477.28815725499612
 30
0.0
 11
316.81519284696373
 21
477.28815725499612
 31
0.0
  0
LINE
  5
134C8
  8
AM_0
 10
374.31519456059698
 20
477.28815725499612
 30
0.0
 11
374.31519456059698
 21
473.28815713578678
 31
0.0
  0
LINE
  5
134C9
  8
AM_0
 10
374.31519456059698
 20
473.28815713578678
 30
0.0
 11
334.31519336850431
 21
473.28815713578678
 31
0.0
  0
LINE
  5
134CA
  8
AM_0
 10
334.31519336850431
 20
477.28815725499612
 30
0.0
 11
334.31519336850431
 21
473.28815713578678
 31
0.0
  0
LINE
  5
134CB
  8
AM_0
 10
316.81519284696373
 20
481.28815737420518
 30
0.0
 11
316.81519284696373
 21
477.28815725499612
 31
0.0
  0
LINE
  5
134D2
  8
AM_0
 10
391.81519508213768
 20
575.28816017562383
 30
0.0
 11
316.81519284696373
 21
575.28816017562383
 31
0.0
  0
LINE
  5
134D3
  8
AM_0
 10
316.81519284696373
 20
571.28816005641431
 30
0.0
 11
316.81519284696373
 21
575.28816017562383
 31
0.0
  0
LINE
  5
134D4
  8
AM_0
 10
334.31519336850442
 20
575.28816017562383
 30
0.0
 11
334.31519336850442
 21
579.28816029483278
 31
0.0
  0
LINE
  5
134D5
  8
AM_0
 10
374.31519456059698
 20
579.28816029483278
 30
0.0
 11
334.31519336850442
 21
579.28816029483278
 31
0.0
  0
LINE
  5
134D6
  8
AM_0
 10
374.31519456059698
 20
575.28816017562383
 30
0.0
 11
374.31519456059698
 21
579.28816029483278
 31
0.0
  0
LINE
  5
134D7
  8
AM_0
 10
391.81519508213768
 20
571.28816005641431
 30
0.0
 11
391.81519508213768
 21
575.28816017562383
 31
0.0
  0
LINE
  5
134E0
  8
AM_0
 10
334.31519336850442
 20
575.78817511464524
 30
0.0
 11
257.81520634741707
 21
575.78817511464513
 31
0.0
  0
LINE
  5
13604
  8
AM_0
 10
571.02548156151522
 20
240.7618278222314
 30
0.0
 11
571.02548156151522
 21
270.76182782223151
 31
0.0
  0
LINE
  5
13605
  8
0
 10
531.02548159578862
 20
243.7618278069632
 30
0.0
 11
531.02548151867381
 21
270.7618278069632
 31
0.0
  0
LINE
  5
13606
  8
0
 10
571.02548156151522
 20
240.7618278222314
 30
0.0
 11
586.02547979188125
 21
235.7620272593646
 31
0.0
  0
LINE
  5
13607
  8
0
 10
531.02548156151511
 20
243.7618278069632
 30
0.0
 11
571.02548156151522
 21
243.7618278069632
 31
0.0
  0
LINE
  5
13608
  8
0
 10
571.02548156151522
 20
270.76182782223151
 30
0.0
 11
586.02547979188125
 21
275.76162845144552
 31
0.0
  0
LINE
  5
13609
  8
0
 10
531.02548156151511
 20
270.7618278069632
 30
0.0
 11
563.02548151867381
 21
270.7618278069632
 31
0.0
  0
LINE
  5
1360A
  8
0
 10
531.02548156151511
 20
267.7618278069632
 30
0.0
 11
571.02548156151522
 21
267.7618278009503
 31
0.0
  0
LINE
  5
1360B
  8
0
 10
563.02548151867381
 20
270.7618278069632
 30
0.0
 11
563.02548151822225
 21
267.76182780215288
 31
0.0
  0
LINE
  5
1360C
  8
AM_0
 10
707.0254811812938
 20
240.7618278222314
 30
0.0
 11
707.0254811812938
 21
270.76182782223151
 31
0.0
  0
LINE
  5
1360D
  8
0
 10
747.02548114702051
 20
243.7618278069632
 30
0.0
 11
747.02548122413543
 21
270.7618278069632
 31
0.0
  0
LINE
  5
1360E
  8
0
 10
707.0254811812938
 20
240.7618278222314
 30
0.0
 11
692.02548295092777
 21
235.7620272593646
 31
0.0
  0
LINE
  5
1360F
  8
0
 10
747.02548118129414
 20
243.7618278069632
 30
0.0
 11
707.0254811812938
 21
243.7618278069632
 31
0.0
  0
LINE
  5
13610
  8
0
 10
707.0254811812938
 20
270.76182782223151
 30
0.0
 11
692.02548295092777
 21
275.76162845144552
 31
0.0
  0
LINE
  5
13611
  8
0
 10
747.02548118129414
 20
270.7618278069632
 30
0.0
 11
715.02548122413543
 21
270.7618278069632
 31
0.0
  0
LINE
  5
13612
  8
0
 10
747.02548118129414
 20
267.7618278069632
 30
0.0
 11
707.0254811812938
 21
267.7618278009503
 31
0.0
  0
LINE
  5
13613
  8
0
 10
715.02548122413543
 20
270.7618278069632
 30
0.0
 11
715.02548122458677
 21
267.76182780215288
 31
0.0
  0
ARC
  5
13624
  8
AM_0
 10
354.3151939645507
 20
255.76182785540499
 30
0.0
 40
12.0
 50
109.4712206344899
 51
70.528779365510118
  0
CIRCLE
  5
13625
  8
AM_0
 10
354.31519396455087
 20
255.7618278554047
 30
0.0
 40
19.999800629214029
  0
LINE
  5
13626
  8
AM_0
 10
350.3151939645507
 20
270.76182785540499
 30
0.0
 11
358.3151939645507
 21
270.76182785540499
 31
0.0
  0
CIRCLE
  5
13627
  8
ｽﾝﾎﾟｳｾﾝ
 10
354.31519396455082
 20
255.7618278554049
 30
0.0
 40
4.0
  0
LINE
  5
13628
  8
AM_0
 10
358.3151939645507
 20
263.76182785540499
 30
0.0
 11
350.3151939645507
 21
263.76182785540499
 31
0.0
  0
LINE
  5
13629
  8
AM_0
 10
350.3151939645507
 20
263.76182785540499
 30
0.0
 11
350.3151939645507
 21
270.76182785540499
 31
0.0
  0
LINE
  5
1362A
  8
AM_0
 10
358.3151939645507
 20
270.76182785540499
 30
0.0
 11
358.3151939645507
 21
263.76182785540499
 31
0.0
  0
CIRCLE
  5
1362B
  8
AM_0
 10
354.3151939645507
 20
255.76182785540499
 30
0.0
 40
3.399999999999999
  0
LINE
  5
1363D
  8
AM_0
 10
374.3149945768136
 20
473.28815472802933
 30
0.0
 11
369.31519394759982
 21
458.28815649766329
 31
0.0
  0
LINE
  5
1363E
  8
AM_0
 10
339.31519394759982
 20
458.28815649766329
 30
0.0
 11
369.31519394759982
 21
458.28815649766329
 31
0.0
  0
LINE
  5
1363F
  8
AM_0
 10
334.3153933847326
 20
473.28815472802933
 30
0.0
 11
339.31519394759982
 21
458.28815649766329
 31
0.0
  0
LINE
  5
13640
  8
0
 10
342.31519393233123
 20
418.28815653193669
 30
0.0
 11
366.3151939323314
 21
418.28815646339012
 31
0.0
  0
LINE
  5
13641
  8
0
 10
342.3151939323314
 20
418.28815649766352
 30
0.0
 11
342.3151939323314
 21
458.28815649766329
 31
0.0
  0
LINE
  5
13642
  8
0
 10
366.31519393233151
 20
418.28815649766352
 30
0.0
 11
366.3151939263185
 21
458.28815649766329
 31
0.0
  0
LINE
  5
13643
  8
0
 10
358.31519396455082
 20
450.28815645437089
 30
0.0
 11
350.3151939645507
 21
450.28815645437089
 31
0.0
  0
LINE
  5
13644
  8
AM_0
 10
358.31519396455082
 20
418.28815648623879
 30
0.0
 11
358.31519396455082
 21
450.28815645437089
 31
0.0
  0
LINE
  5
13645
  8
AM_0
 10
350.3151939645507
 20
418.28815650908791
 30
0.0
 11
350.3151939645507
 21
450.28815645437089
 31
0.0
  0
ARC
  5
13646
  8
AM_0
 10
354.31519396455082
 20
450.28815645437089
 30
0.0
 40
3.9999999999999432
 50
0.0
 51
180.0
  0
LINE
  5
13647
  8
AM_0
 10
366.3151939273709
 20
451.28815737420621
 30
0.0
 11
406.81518041939432
 21
451.28815737420621
 31
0.0
  0
LINE
  5
13648
  8
AM_0
 10
366.31519390482248
 20
601.28817511464445
 30
0.0
 11
406.81518041939432
 21
601.28817511464445
 31
0.0
  0
LINE
  5
13649
  8
AM_0
 10
374.3149945768136
 20
579.2881777608211
 30
0.0
 11
369.31519394759982
 21
594.28817599118713
 31
0.0
  0
LINE
  5
1364A
  8
AM_0
 10
339.31519394759982
 20
594.28817599118725
 30
0.0
 11
369.31519394759982
 21
594.28817599118713
 31
0.0
  0
LINE
  5
1364B
  8
AM_0
 10
334.3153933847326
 20
579.2881777608211
 30
0.0
 11
339.31519394759982
 21
594.28817599118725
 31
0.0
  0
LINE
  5
1364C
  8
0
 10
342.31519393233123
 20
634.28817595691373
 30
0.0
 11
366.3151939323314
 21
634.2881760254603
 31
0.0
  0
LINE
  5
1364D
  8
0
 10
342.3151939323314
 20
634.28817599118702
 30
0.0
 11
342.3151939323314
 21
594.28817599118725
 31
0.0
  0
LINE
  5
1364E
  8
0
 10
366.31519393233151
 20
634.28817599118702
 30
0.0
 11
366.3151939263185
 21
594.28817599118713
 31
0.0
  0
LINE
  5
1364F
  8
0
 10
358.31519396455082
 20
602.28817603447965
 30
0.0
 11
350.3151939645507
 21
602.28817603447965
 31
0.0
  0
LINE
  5
13650
  8
AM_0
 10
358.31519396455082
 20
634.28817600261152
 30
0.0
 11
358.31519396455082
 21
602.28817603447965
 31
0.0
  0
LINE
  5
13651
  8
AM_0
 10
350.3151939645507
 20
634.28817597976263
 30
0.0
 11
350.3151939645507
 21
602.28817603447953
 31
0.0
  0
ARC
  5
13652
  8
AM_0
 10
354.31519396455082
 20
602.28817603447965
 30
0.0
 40
3.9999999999999432
 50
180.0
 51
0.0
  0
TEXT
  5
1377A
  8
AM_0
 10
524.17829341917604
 20
537.29591501117113
 30
0.0
 40
10.0
  1
VC01-080KMT~VC01-240KMT
1001
ACAD
1000
MTEXTBEGIN
1070
    73
1070
     1
1070
    44
1040
1.0
1070
    74
1070
     0
1000
MTEXTEND
  0
VIEWPORT
  5
89
 67
     1
  8
0
 10
210.0
 20
148.5
 30
0.0
 40
420.0
 41
297.0
 68
     1
 69
     1
1001
ACAD
1000
MVIEW
1002
{
1070
    16
1010
0.0
1020
0.0
1030
0.0
1010
0.0
1020
0.0
1030
1.0
1040
0.0
1040
297.0
1040
221.70154043645701
1040
148.5
1040
50.0
1040
0.0
1040
0.0
1070
     0
1070
   100
1070
     1
1070
     1
1070
     0
1070
     0
1070
     0
1070
     0
1040
0.0
1040
0.0
1040
0.0
1040
10.0
1040
10.0
1040
10.0
1040
10.0
1070
     0
1002
{
1002
}
1002
}
1001
GENIUS_GENOREF_13
1005
1B94
1001
GENIUS_GENSCREG_15
1000
PF
1040
1.0
1000
DF
1040
1.0
1000
MIN
1011
0.0
1021
0.0
1031
0.0
1021
0.0
1031
0.0
1000
MAX
1011
420.0
1021
0.0
1031
0.0
1021
297.0
1031
0.0
1000
FLAGS
1070
     4
  0
ENDSEC
  0
EOF
