  0
SECTION
  2
HEADER
  9
$ACADVER
  1
AC1009
  9
$INSBASE
 10
0.0
 20
0.0
 30
0.0
  9
$EXTMIN
 10
34.616136671062812
 20
154.4308971001071
 30
-0.0015258207003583
  9
$EXTMAX
 10
752.26929660813084
 20
634.23311499891383
 30
0.0000000349246037
  9
$LIMMIN
 10
0.0
 20
0.0
  9
$LIMMAX
 10
853.5
 20
555.00000000000011
  9
$ORTHOMODE
 70
     0
  9
$REGENMODE
 70
     1
  9
$FILLMODE
 70
     1
  9
$QTEXTMODE
 70
     0
  9
$MIRRTEXT
 70
     1
  9
$DRAGMODE
 70
     2
  9
$LTSCALE
 40
3.0
  9
$OSMODE
 70
   551
  9
$ATTMODE
 70
     1
  9
$TEXTSIZE
 40
2.5
  9
$TRACEWID
 40
1.0
  9
$TEXTSTYLE
  7
STANDARD
  9
$CLAYER
  8
AM_0
  9
$CELTYPE
  6
BYLAYER
  9
$CECOLOR
 62
   256
  9
$DIMSCALE
 40
3.0
  9
$DIMASZ
 40
2.5
  9
$DIMEXO
 40
1.0
  9
$DIMDLI
 40
7.0
  9
$DIMRND
 40
0.0
  9
$DIMDLE
 40
0.0
  9
$DIMEXE
 40
1.0
  9
$DIMTP
 40
0.1
  9
$DIMTM
 40
0.1000000001
  9
$DIMTXT
 40
2.5
  9
$DIMCEN
 40
0.0
  9
$DIMTSZ
 40
0.0
  9
$DIMTOL
 70
     0
  9
$DIMLIM
 70
     0
  9
$DIMTIH
 70
     0
  9
$DIMTOH
 70
     0
  9
$DIMSE1
 70
     0
  9
$DIMSE2
 70
     0
  9
$DIMTAD
 70
     3
  9
$DIMZIN
 70
     8
  9
$DIMBLK
  1

  9
$DIMASO
 70
     1
  9
$DIMSHO
 70
     1
  9
$DIMPOST
  1

  9
$DIMAPOST
  1
"
  9
$DIMALT
 70
     0
  9
$DIMALTD
 70
     2
  9
$DIMALTF
 40
0.0393701
  9
$DIMLFAC
 40
1.0
  9
$DIMTOFL
 70
     1
  9
$DIMTVP
 40
0.0
  9
$DIMTIX
 70
     0
  9
$DIMSOXD
 70
     0
  9
$DIMSAH
 70
     0
  9
$DIMBLK1
  1

  9
$DIMBLK2
  1

  9
$DIMSTYLE
  2
AM_JIS
  9
$DIMCLRD
 70
   256
  9
$DIMCLRE
 70
   256
  9
$DIMCLRT
 70
     4
  9
$DIMTFAC
 40
0.71
  9
$DIMGAP
 40
1.0
  9
$LUNITS
 70
     2
  9
$LUPREC
 70
     2
  9
$SKETCHINC
 40
1.0
  9
$FILLETRAD
 40
7.5
  9
$AUNITS
 70
     0
  9
$AUPREC
 70
     3
  9
$MENU
  1
.
  9
$ELEVATION
 40
0.0
  9
$PELEVATION
 40
0.0
  9
$THICKNESS
 40
0.0
  9
$LIMCHECK
 70
     0
  9
$BLIPMODE
 70
     0
  9
$CHAMFERA
 40
7.5
  9
$CHAMFERB
 40
7.5
  9
$SKPOLY
 70
     0
  9
$TDCREATE
 40
2452753.643349607
  9
$TDUPDATE
 40
2458543.4788995609
  9
$TDINDWG
 40
0.477461088
  9
$TDUSRTIMER
 40
0.4774609028
  9
$USRTIMER
 70
     1
  9
$ANGBASE
 50
0.0
  9
$ANGDIR
 70
     0
  9
$PDMODE
 70
     0
  9
$PDSIZE
 40
0.0
  9
$PLINEWID
 40
0.0
  9
$COORDS
 70
     1
  9
$SPLFRAME
 70
     0
  9
$SPLINETYPE
 70
     6
  9
$SPLINESEGS
 70
     8
  9
$ATTDIA
 70
     1
  9
$ATTREQ
 70
     1
  9
$HANDLING
 70
     1
  9
$HANDSEED
  5
1CB6B
  9
$SURFTAB1
 70
     6
  9
$SURFTAB2
 70
     6
  9
$SURFTYPE
 70
     6
  9
$SURFU
 70
     6
  9
$SURFV
 70
     6
  9
$UCSNAME
  2

  9
$UCSORG
 10
0.0
 20
0.0
 30
0.0
  9
$UCSXDIR
 10
1.0
 20
0.0
 30
0.0
  9
$UCSYDIR
 10
0.0
 20
1.0
 30
0.0
  9
$PUCSNAME
  2

  9
$PUCSORG
 10
0.0
 20
0.0
 30
0.0
  9
$PUCSXDIR
 10
1.0
 20
0.0
 30
0.0
  9
$PUCSYDIR
 10
0.0
 20
1.0
 30
0.0
  9
$USERI1
 70
     0
  9
$USERI2
 70
     0
  9
$USERI3
 70
     0
  9
$USERI4
 70
     0
  9
$USERI5
 70
     0
  9
$USERR1
 40
0.0
  9
$USERR2
 40
0.0
  9
$USERR3
 40
0.0
  9
$USERR4
 40
0.0
  9
$USERR5
 40
0.0
  9
$WORLDVIEW
 70
     1
  9
$SHADEDGE
 70
     3
  9
$SHADEDIF
 70
    70
  9
$TILEMODE
 70
     1
  9
$MAXACTVP
 70
    48
  9
$PLIMCHECK
 70
     0
  9
$PEXTMIN
 10
1.0000000000000000E+020
 20
1.0000000000000000E+020
 30
1.0000000000000000E+020
  9
$PEXTMAX
 10
-1.0000000000000000E+020
 20
-1.0000000000000000E+020
 30
-1.0000000000000000E+020
  9
$PLIMMIN
 10
0.0
 20
0.0
  9
$PLIMMAX
 10
420.0
 20
297.0
  9
$UNITMODE
 70
     0
  9
$VISRETAIN
 70
     1
  9
$PLINEGEN
 70
     0
  9
$PSLTSCALE
 70
     1
  0
ENDSEC
  0
SECTION
  2
TABLES
  0
TABLE
  2
VPORT
 70
     1
  0
VPORT
  2
*ACTIVE
 70
     0
 10
0.0
 20
0.0
 11
1.0
 21
1.0
 12
393.44271663959682
 22
394.33200604951048
 13
0.0
 23
0.0
 14
7.5
 24
7.5
 15
30.0
 25
30.0
 16
0.0
 26
0.0
 36
1.0
 17
0.0
 27
0.0
 37
0.0
 40
483.09605463495399
 41
1.7571592210767459
 42
50.0
 43
0.0
 44
0.0
 50
0.0
 51
0.0
 71
    16
 72
   100
 73
     1
 74
     1
 75
     0
 76
     0
 77
     0
 78
     0
  0
ENDTAB
  0
TABLE
  2
LTYPE
 70
    21
  0
LTYPE
  2
CONTINUOUS
 70
     0
  3
Solid line
 72
    65
 73
     0
 40
0.0
  0
LTYPE
  2
PHANTOM2
 70
     0
  3
Phantom (.5x) ___ _ _ ___ _ _ ___ _ _ ___ _ _
 72
    65
 73
     6
 40
31.75
 49
15.875
 49
-3.174999999999998
 49
3.174999999999998
 49
-3.174999999999998
 49
3.174999999999998
 49
-3.174999999999998
  0
LTYPE
  2
CENTER
 70
     0
  3
Center ____ _ ____ _ ____ _ ____ _ ____ _ ____
 72
    65
 73
     4
 40
50.799999999999997
 49
31.75
 49
-6.3499999999999979
 49
6.3499999999999979
 49
-6.3499999999999979
  0
LTYPE
  2
ACANSTGBM
 70
     0
  3
__ . . __ . .
 72
    65
 73
     6
 40
9.0
 49
4.0
 49
-1.0
 49
1.0
 49
-1.0
 49
1.0
 49
-1.0
  0
LTYPE
  2
ACANSTGLM
 70
     0
  3
_ _ _ _ _
 72
    65
 73
     2
 40
3.0
 49
2.0
 49
-1.0
  0
LTYPE
  2
GEN3B
 70
     0
  3
 - - - - -
 72
    65
 73
     2
 40
1.0
 49
0.5
 49
-0.5
  0
LTYPE
  2
GEN7A
 70
     0
  3
__ . __ . __
 72
    65
 73
     4
 40
7.375
 49
4.75
 49
-0.875
 49
0.875
 49
-0.875
  0
LTYPE
  2
AM_ISO02W050
 70
     0
  3
__ __ __ __ __ __ __ __ __ __ __ __ __ __ __
 72
    65
 73
     2
 40
7.5
 49
6.0
 49
-1.5
  0
LTYPE
  2
AM_ISO08W050
 70
     0
  3
____ . ____ . ____ . ____ . ____ . ____ . ____
 72
    65
 73
     4
 40
18.0
 49
12.0
 49
-1.5
 49
3.0
 49
-1.5
  0
LTYPE
  2
AM_ISO09W050
 70
     0
  3
_____ . . _____ . . _____ . . ____ .. ____
 72
    65
 73
     6
 40
22.5
 49
12.0
 49
-1.5
 49
3.0
 49
-1.5
 49
3.0
 49
-1.5
  0
LTYPE
  2
AMCONSTR
 70
     0
  3
_______________________
 72
    65
 73
     2
 40
9999.0
 49
9999.0
 49
0.0
  0
LTYPE
  2
AM_ISO02W050X2
 70
     0
  3
 _ _ _ _ _ _ _ _ _ _ _ _
 72
    65
 73
     2
 40
3.75
 49
3.0
 49
-0.75
  0
LTYPE
  2
AM_ISO08W050X2
 70
     0
  3
__ . __ . __ . __ . __ . __
 72
    65
 73
     4
 40
9.0
 49
6.0
 49
-0.75
 49
1.5
 49
-0.75
  0
LTYPE
  2
AMZIGZAG
 70
     0
  3
/\/-/\/-/\/-/\/-/\/-/\/
 72
    65
 73
     2
 40
11.0001
 49
0.0001
 49
-11.0
  0
LTYPE
  2
ACJISTGB
 70
     0
  3
__ . . __ . .
 72
    65
 73
     6
 40
9.0
 49
4.0
 49
-1.0
 49
1.0
 49
-1.0
 49
1.0
 49
-1.0
  0
LTYPE
  2
ACJISTGL
 70
     0
  3
_ _ _ _ _
 72
    65
 73
     2
 40
3.0
 49
2.0
 49
-1.0
  0
LTYPE
  2
ACISOWELD
 70
     0
  3
_ _ _ _ _
 72
    65
 73
     2
 40
2.0
 49
2.0
 49
-1.0
  0
LTYPE
  2
ACISOTGB
 70
     0
  3
__ . . __ . .
 72
    65
 73
     6
 40
9.0
 49
4.0
 49
-1.0
 49
1.0
 49
-1.0
 49
1.0
 49
-1.0
  0
LTYPE
  2
ACISOTGL
 70
     0
  3
_ _ _ _ _
 72
    65
 73
     2
 40
3.0
 49
2.0
 49
-1.0
  0
LTYPE
  2
HIDDEN
 70
     0
  3
Hidden __ __ __ __ __ __ __ __ __ __ __ __ __ _
 72
    65
 73
     2
 40
9.5249999999999968
 49
6.3499999999999979
 49
-3.174999999999998
  0
ENDTAB
  0
TABLE
  2
LAYER
 70
     9
  0
LAYER
  2
0
 70
     0
 62
     7
  6
CONTINUOUS
  0
LAYER
  2
ｽﾝﾎﾟｳｾﾝ
 70
     0
 62
     2
  6
CONTINUOUS
  0
LAYER
  2
DEFPOINTS
 70
     0
 62
     7
  6
CONTINUOUS
  0
LAYER
  2
ｶｸﾚｾﾝ2
 70
     0
 62
     3
  6
GEN3B
  0
LAYER
  2
ﾁｭｳｼﾝｾﾝ1
 70
     0
 62
     1
  6
GEN7A
  0
LAYER
  2
AM_0
 70
     0
 62
     7
  6
CONTINUOUS
  0
LAYER
  2
AM_0N
 70
     0
 62
     7
  6
CONTINUOUS
  0
LAYER
  2
AM_5
 70
     0
 62
     2
  6
CONTINUOUS
  0
LAYER
  2
AM_4N
 70
     0
 62
     2
  6
CONTINUOUS
  0
ENDTAB
  0
TABLE
  2
STYLE
 70
     8
  0
STYLE
  2
STANDARD
 70
     0
 40
0.0
 41
0.8299999999999999
 50
0.0
 71
     0
 42
2.5
  3
txt.shx
  4
bigfont.shx
  0
STYLE
  2
ACANSTS
 70
     0
 40
1.0
 41
1.0
 50
0.0
 71
     0
 42
2.5
  3
romans.shx
  4
bigfont.shx
  0
STYLE
  2
ACANSGDT
 70
     0
 40
0.0
 41
1.0
 50
0.0
 71
     0
 42
2.5
  3
amgdtans.shx
  4

  0
STYLE
  2

 70
     1
 40
0.0
 41
1.0
 50
0.0
 71
     0
 42
2.5
  3
ltypeshp.shx
  4

  0
STYLE
  2
ACJISTS
 70
     0
 40
1.0
 41
1.0
 50
0.0
 71
     0
 42
2.5
  3
isocp.shx
  4
bigfont.shx
  0
STYLE
  2
ACJISGDT
 70
     0
 40
0.0
 41
1.0
 50
0.0
 71
     0
 42
2.5
  3
amgdt.shx
  4

  0
STYLE
  2
ACISOTS
 70
     0
 40
3.0
 41
1.0
 50
0.0
 71
     0
 42
2.5
  3
isocp.shx
  4
extfont.shx
  0
STYLE
  2
ACISOGDT
 70
     0
 40
0.0
 41
1.0
 50
0.0
 71
     0
 42
2.5
  3
amgdt.shx
  4

  0
ENDTAB
  0
TABLE
  2
VIEW
 70
    12
  0
VIEW
  2
GEN1
 70
     0
 40
95.824742268041234
 10
71.5
 20
137.08762886597941
 41
143.0
 11
0.0
 21
0.0
 31
1.0
 12
0.0
 22
0.0
 32
0.0
 42
50.0
 43
0.0
 44
0.0
 50
0.0
 71
     0
  0
VIEW
  2
GEN2
 70
     0
 40
95.824742268041234
 10
214.5
 20
137.08762886597941
 41
143.0
 11
0.0
 21
0.0
 31
1.0
 12
0.0
 22
0.0
 32
0.0
 42
50.0
 43
0.0
 44
0.0
 50
0.0
 71
     0
  0
VIEW
  2
GEN3
 70
     0
 40
95.824742268041234
 10
71.5
 20
47.912371134020603
 41
143.0
 11
0.0
 21
0.0
 31
1.0
 12
0.0
 22
0.0
 32
0.0
 42
50.0
 43
0.0
 44
0.0
 50
0.0
 71
     0
  0
VIEW
  2
GEN4
 70
     0
 40
95.824742268041234
 10
214.5
 20
47.912371134020603
 41
143.0
 11
0.0
 21
0.0
 31
1.0
 12
0.0
 22
0.0
 32
0.0
 42
50.0
 43
0.0
 44
0.0
 50
0.0
 71
     0
  0
VIEW
  2
GEN5
 70
     0
 40
95.824742268041234
 10
143.0
 20
92.500000000000057
 41
143.0
 11
0.0
 21
0.0
 31
1.0
 12
0.0
 22
0.0
 32
0.0
 42
50.0
 43
0.0
 44
0.0
 50
0.0
 71
     0
  0
VIEW
  2
GEN6
 70
     0
 40
191.64756804123709
 10
143.0
 20
92.5
 41
285.99714
 11
0.0
 21
0.0
 31
1.0
 12
0.0
 22
0.0
 32
0.0
 42
50.0
 43
0.0
 44
0.0
 50
0.0
 71
     0
  0
VIEW
  2
AM_VIEW1
 70
     0
 40
277.50000000000011
 10
249.64779005524869
 20
416.25000000000011
 41
499.29558011049721
 11
0.0
 21
0.0
 31
1.0
 12
0.0
 22
0.0
 32
0.0
 42
50.0
 43
0.0
 44
0.0
 50
0.0
 71
    16
  0
VIEW
  2
AM_VIEW2
 70
     0
 40
277.50000000000011
 10
603.85220994475117
 20
416.25000000000011
 41
499.29558011049721
 11
0.0
 21
0.0
 31
1.0
 12
0.0
 22
0.0
 32
0.0
 42
50.0
 43
0.0
 44
0.0
 50
0.0
 71
    16
  0
VIEW
  2
AM_VIEW3
 70
     0
 40
277.50000000000011
 10
249.64779005524869
 20
138.75
 41
499.29558011049721
 11
0.0
 21
0.0
 31
1.0
 12
0.0
 22
0.0
 32
0.0
 42
50.0
 43
0.0
 44
0.0
 50
0.0
 71
    16
  0
VIEW
  2
AM_VIEW4
 70
     0
 40
277.50000000000011
 10
603.85220994475117
 20
138.75
 41
499.29558011049721
 11
0.0
 21
0.0
 31
1.0
 12
0.0
 22
0.0
 32
0.0
 42
50.0
 43
0.0
 44
0.0
 50
0.0
 71
    16
  0
VIEW
  2
AM_VIEW5
 70
     0
 40
277.50000000000011
 10
426.75
 20
277.50000000000011
 41
499.2955801104971
 11
0.0
 21
0.0
 31
1.0
 12
0.0
 22
0.0
 32
0.0
 42
50.0
 43
0.0
 44
0.0
 50
0.0
 71
    16
  0
VIEW
  2
AM_VIEW6
 70
     0
 40
554.99445000000014
 10
426.75
 20
277.5
 41
998.5811743093924
 11
0.0
 21
0.0
 31
1.0
 12
0.0
 22
0.0
 32
0.0
 42
50.0
 43
0.0
 44
0.0
 50
0.0
 71
    16
  0
ENDTAB
  0
TABLE
  2
UCS
 70
     0
  0
ENDTAB
  0
TABLE
  2
APPID
 70
    96
  0
APPID
  2
ACAD
 70
     0
  0
APPID
  2
MCAD_NO_VIS
 70
     0
  0
APPID
  2
ACAD_TEMP_GRAPHIC
 70
     0
  0
APPID
  2
AD_DRAW
 70
     0
  0
APPID
  2
DESIGNERASSEMBLIES
 70
     0
  0
APPID
  2
ASURF_PCURVE_APPNAME
 70
     0
  0
APPID
  2
GENIUS_GE3SECT_13
 70
     0
  0
APPID
  2
GENIUS_GENCFG_13
 70
     0
  0
APPID
  2
GENIUS_GE3CFG0_13
 70
     0
  0
APPID
  2
GENIUS_GENCFG0_13
 70
     0
  0
APPID
  2
GENIUS_GENCFG1_13
 70
     0
  0
APPID
  2
GENIUS_GENCFG2_13
 70
     0
  0
APPID
  2
GENIUS_GENCFG3_13
 70
     0
  0
APPID
  2
GENIUS_GENCFG4_13
 70
     0
  0
APPID
  2
GENIUS_GEVCFG0_13
 70
     0
  0
APPID
  2
GENIUS_GENOENT_13
 70
     0
  0
APPID
  2
GENIUS_GENREC_14
 70
     0
  0
APPID
  2
GENIUS_GENODEF_13
 70
     0
  0
APPID
  2
GENIUS_GENOBJ-N-REC_13
 70
     0
  0
APPID
  2
GENIUS_GENHINW_13
 70
     0
  0
APPID
  2
GENIUS_FIRSTVISTXT_14
 70
     0
  0
APPID
  2
GENIUS_GENOBJ-N-LEADER_13
 70
     0
  0
APPID
  2
GENIUS_GENOREF_13
 70
     0
  0
APPID
  2
GENIUS_GENOLIS_13
 70
     0
  0
APPID
  2
GEV_VCCNULL_SWITCH_OFF
 70
     0
  0
APPID
  2
GENIUS_GENDTOL_13
 70
     0
  0
APPID
  2
GENIUS_GEFCFG0_13
 70
     0
  0
APPID
  2
GENIUS_GENOBJ-N-TIT_13
 70
     0
  0
APPID
  2
GENIUS_GENTITLE_13
 70
     0
  0
APPID
  2
GENIUS_GENZVEED_13
 70
     0
  0
APPID
  2
GENIUS_GENOBJ-N-SDF_13
 70
     0
  0
APPID
  2
GENIUS_GENSCREG_13
 70
     0
  0
APPID
  2
GENIUS_DUMCFG0_13
 70
     0
  0
APPID
  2
GEVID936201362
 70
     0
  0
APPID
  2
GEVDC
 70
     0
  0
APPID
  2
GEVCON
 70
     0
  0
APPID
  2
VCC
 70
     0
  0
APPID
  2
GEVPT
 70
     0
  0
APPID
  2
GEVIT
 70
     0
  0
APPID
  2
GENBH
 70
     0
  0
APPID
  2
GEVMK
 70
     0
  0
APPID
  2
GENIUS_GENBH_13
 70
     0
  0
APPID
  2
GENIUS_GENOBJ-NBEHI-BHF_13
 70
     0
  0
APPID
  2
GENIUS_GENOBJ-NBEHI-BHB_13
 70
     0
  0
APPID
  2
GENIUS_GENOBJ-F-DESC_13
 70
     0
  0
APPID
  2
GENIUS_GEFDESC_14
 70
     0
  0
APPID
  2
GENIUS_GENOBJ-F-PART_13
 70
     0
  0
APPID
  2
GENIUS_GEFSTDP_13
 70
     0
  0
APPID
  2
GENIUS_GEFPARTINS_13
 70
     0
  0
APPID
  2
GENIUS_GENTRA_14
 70
     0
  0
APPID
  2
GENIUS_GENINF13_13
 70
     0
  0
APPID
  2
GENIUS_GENOBJ-N-INFOPT_13
 70
     0
  0
APPID
  2
GENIUS_GENOBJ-N-RSSYM_13
 70
     0
  0
APPID
  2
GENIUS_GENSYMENT_13
 70
     0
  0
APPID
  2
GENIUS_GENSCSYM_13
 70
     0
  0
APPID
  2
GENIUS_GEFINFNAM_13
 70
     0
  0
APPID
  2
GENIUS_GENSCREG_15
 70
     0
  0
APPID
  2
GENIUS_GENOBJ-N-CEN_13
 70
     0
  0
APPID
  2
GENIUS_GENOBJ-N-CRS_13
 70
     0
  0
APPID
  2
GENIUS_GENOBJ-N-CRC_13
 70
     0
  0
APPID
  2
GENIUS_GENCRC_14
 70
     0
  0
APPID
  2
GEVID942827039
 70
     0
  0
APPID
  2
GEVID942827040
 70
     0
  0
APPID
  2
GEVID942827041
 70
     0
  0
APPID
  2
GENIUS_GENOBJ-F-SCPASSM_13
 70
     0
  0
APPID
  2
GENIUS_GENDIMSH_14
 70
     0
  0
APPID
  2
GENIUS_GENFIL_13
 70
     0
  0
APPID
  2
GENIUS_GENOBJ-N-CHA_13
 70
     0
  0
APPID
  2
GENIUS_GENOBJ-N-FIL_13
 70
     0
  0
APPID
  2
GEVID942827042
 70
     0
  0
APPID
  2
GEVID946020473
 70
     0
  0
APPID
  2
GEVID946020474
 70
     0
  0
APPID
  2
GEVID946020475
 70
     0
  0
APPID
  2
GENIUS_GENOBJ-N-HTC_13
 70
     0
  0
APPID
  2
GENIUS_GENHATCH_13
 70
     0
  0
APPID
  2
GEVID948854295
 70
     0
  0
APPID
  2
GEVID939402019
 70
     0
  0
APPID
  2
GEVID952919491
 70
     0
  0
APPID
  2
GEVID952919492
 70
     0
  0
APPID
  2
GENIUS_GEFWELD_13
 70
     0
  0
APPID
  2
GENIUS_GENOBJ-F-WELS_13
 70
     0
  0
APPID
  2
GEVID952919493
 70
     0
  0
APPID
  2
GENIUS_GENOBJ-N-RSBK_13
 70
     0
  0
APPID
  2
GENIUS_GENOBJ-N-LIB_13
 70
     0
  0
APPID
  2
GENIUS_GENSCALE_13
 70
     0
  0
APPID
  2
GEVID986376691
 70
     0
  0
APPID
  2
ACATTRIBSERVICES
 70
     0
  0
APPID
  2
DCO15
 70
     0
  0
APPID
  2
ACADM_DIM_EDIT
 70
     0
  0
APPID
  2
AMDT_DM_ADJ
 70
     0
  0
APPID
  2
ACAD_MLEADERVER
 70
     0
  0
APPID
  2
ACAD_DSTYLE_DIMBREAK
 70
     0
  0
APPID
  2
ACAD_DSTYLE_DIMJAG
 70
     0
  0
APPID
  2
ACAD_NAV_VCDISPLAY
 70
     0
  0
APPID
  2
ACADANNOPO
 70
     0
  0
APPID
  2
ACAD_EXEMPT_FROM_CAD_STANDARDS
 70
     0
  0
ENDTAB
  0
TABLE
  2
DIMSTYLE
 70
    15
  0
DIMSTYLE
  2
STANDARD
 70
     0
  3

  4

  5

  6

  7

 40
1.0
 41
0.18
 42
0.0625
 43
0.38
 44
0.18
 45
0.0
 46
0.0
 47
0.0
 48
0.0
140
0.18
141
0.09
142
0.0
143
25.399999999999999
144
1.0
145
0.0
146
1.0
147
0.09
 71
     0
 72
     0
 73
     1
 74
     1
 75
     0
 76
     0
 77
     0
 78
     0
170
     0
171
     2
172
     0
173
     0
174
     0
175
     0
176
     0
177
     0
178
     0
  0
DIMSTYLE
  2
AM_JIS
 70
     0
  3

  4
"
  5

  6

  7

 40
1.0
 41
2.5
 42
1.0
 43
7.0
 44
1.0
 45
0.0
 46
0.0
 47
0.1
 48
0.1000000001
140
2.5
141
0.0
142
0.0
143
0.0393701
144
1.0
145
0.0
146
0.71
147
1.0
 71
     0
 72
     0
 73
     0
 74
     0
 75
     0
 76
     0
 77
     3
 78
     8
170
     0
171
     2
172
     1
173
     0
174
     0
175
     0
176
   256
177
   256
178
     4
  0
DIMSTYLE
  2
AM_JIS$3
 70
     0
  3

  4
"
  5

  6

  7

 40
1.0
 41
2.5
 42
1.0
 43
7.0
 44
1.0
 45
0.0
 46
0.0
 47
0.1
 48
0.1000000001
140
2.5
141
0.0
142
0.0
143
0.0393701
144
1.0
145
0.0
146
0.71
147
1.0
 71
     0
 72
     0
 73
     0
 74
     1
 75
     0
 76
     0
 77
     3
 78
     8
170
     0
171
     2
172
     0
173
     0
174
     0
175
     0
176
   256
177
   256
178
     4
  0
DIMSTYLE
  2
AM_JIS$4
 70
     0
  3

  4
"
  5

  6

  7

 40
1.0
 41
2.5
 42
1.0
 43
7.0
 44
1.0
 45
0.0
 46
0.0
 47
0.1
 48
0.1000000001
140
2.5
141
0.0
142
0.0
143
0.0393701
144
1.0
145
0.0
146
0.71
147
1.0
 71
     0
 72
     0
 73
     0
 74
     0
 75
     0
 76
     0
 77
     3
 78
     8
170
     0
171
     2
172
     0
173
     0
174
     0
175
     0
176
   256
177
   256
178
     4
  0
DIMSTYLE
  2
AM_JIS$6
 70
     0
  3

  4
"
  5

  6

  7

 40
1.0
 41
2.5
 42
1.0
 43
7.0
 44
1.0
 45
0.0
 46
0.0
 47
0.1
 48
0.1000000001
140
2.5
141
0.0
142
0.0
143
0.0393701
144
1.0
145
0.0
146
0.71
147
1.0
 71
     0
 72
     0
 73
     0
 74
     0
 75
     0
 76
     0
 77
     0
 78
     8
170
     0
171
     2
172
     1
173
     0
174
     0
175
     0
176
   256
177
   256
178
     4
  0
DIMSTYLE
  2
AM_JIS$7
 70
     0
  3

  4
"
  5

  6

  7

 40
1.0
 41
2.5
 42
1.0
 43
7.0
 44
1.0
 45
0.0
 46
0.0
 47
0.1
 48
0.1000000001
140
2.5
141
0.0
142
0.0
143
0.0393701
144
1.0
145
0.0
146
0.71
147
1.0
 71
     0
 72
     0
 73
     0
 74
     0
 75
     0
 76
     0
 77
     3
 78
     8
170
     0
171
     2
172
     1
173
     0
174
     0
175
     0
176
   256
177
   256
178
     4
  0
DIMSTYLE
  2
AM_JIS$SF
 70
     0
  3

  4
"
  5
OPEN30
  6
OPEN30
  7
OPEN30
 40
1.0
 41
2.5
 42
1.0
 43
10.0
 44
1.0
 45
0.0
 46
0.0
 47
0.1
 48
0.1
140
3.5
141
0.0
142
0.0
143
0.0393701
144
1.0
145
0.0
146
0.71
147
1.5
 71
     0
 72
     0
 73
     0
 74
     0
 75
     1
 76
     1
 77
     3
 78
     8
170
     0
171
     2
172
     1
173
     0
174
     0
175
     0
176
   256
177
   256
178
     4
  0
DIMSTYLE
  2
AM_JIS$SH
 70
     0
  3

  4
"
  5

  6
NONE
  7

 40
1.0
 41
2.5
 42
1.0
 43
10.0
 44
1.0
 45
0.0
 46
0.0
 47
0.1
 48
0.1
140
3.5
141
0.0
142
0.0
143
0.0393701
144
1.0
145
0.0
146
0.71
147
1.5
 71
     0
 72
     0
 73
     0
 74
     0
 75
     1
 76
     0
 77
     3
 78
     8
170
     0
171
     2
172
     1
173
     1
174
     0
175
     0
176
   256
177
   256
178
     4
  0
DIMSTYLE
  2
AM_ISO
 70
     0
  3

  4
"
  5

  6

  7

 40
1.0
 41
2.5
 42
1.0
 43
10.0
 44
1.0
 45
0.0
 46
0.0
 47
0.0
 48
0.000000001
140
3.0
141
0.0
142
0.0
143
0.0393701
144
1.0
145
0.0
146
0.71
147
1.299999999999998
 71
     1
 72
     0
 73
     0
 74
     0
 75
     0
 76
     0
 77
     1
 78
     8
170
     0
171
     2
172
     1
173
     0
174
     0
175
     0
176
   256
177
   256
178
     4
  0
DIMSTYLE
  2
AM_ISO$3
 70
     0
  3

  4
"
  5

  6

  7

 40
1.0
 41
2.5
 42
1.0
 43
10.0
 44
1.0
 45
0.0
 46
0.0
 47
0.0
 48
0.000000001
140
2.5
141
0.0
142
0.0
143
0.0393701
144
1.0
145
0.0
146
0.71
147
1.299999999999998
 71
     1
 72
     0
 73
     0
 74
     1
 75
     0
 76
     0
 77
     1
 78
     8
170
     0
171
     2
172
     0
173
     0
174
     0
175
     0
176
   256
177
   256
178
     4
  0
DIMSTYLE
  2
AM_ISO$4
 70
     0
  3

  4
"
  5

  6

  7

 40
1.0
 41
2.5
 42
1.0
 43
10.0
 44
1.0
 45
0.0
 46
0.0
 47
0.0
 48
0.000000001
140
2.5
141
0.0
142
0.0
143
0.0393701
144
1.0
145
0.0
146
0.71
147
1.299999999999998
 71
     1
 72
     0
 73
     0
 74
     1
 75
     0
 76
     0
 77
     1
 78
     8
170
     0
171
     2
172
     0
173
     0
174
     0
175
     0
176
   256
177
   256
178
     4
  0
DIMSTYLE
  2
AM_ISO$6
 70
     0
  3

  4
"
  5

  6

  7

 40
1.0
 41
2.5
 42
1.0
 43
10.0
 44
1.0
 45
0.0
 46
0.0
 47
0.0
 48
0.000000001
140
2.5
141
0.0
142
0.0
143
0.0393701
144
1.0
145
0.0
146
0.71
147
1.299999999999998
 71
     1
 72
     0
 73
     0
 74
     0
 75
     0
 76
     0
 77
     0
 78
     8
170
     0
171
     2
172
     1
173
     0
174
     0
175
     0
176
   256
177
   256
178
     4
  0
DIMSTYLE
  2
AM_ISO$7
 70
     0
  3

  4
"
  5

  6

  7

 40
1.0
 41
2.5
 42
1.0
 43
10.0
 44
1.0
 45
0.0
 46
0.0
 47
0.0
 48
0.000000001
140
2.5
141
0.0
142
0.0
143
0.0393701
144
1.0
145
0.0
146
0.71
147
1.299999999999998
 71
     1
 72
     0
 73
     0
 74
     0
 75
     0
 76
     0
 77
     1
 78
     8
170
     0
171
     2
172
     1
173
     0
174
     0
175
     0
176
   256
177
   256
178
     4
  0
DIMSTYLE
  2
AM_ISO$SF
 70
     0
  3

  4
"
  5

  6

  7

 40
1.0
 41
2.5
 42
1.0
 43
10.0
 44
1.0
 45
0.0
 46
0.0
 47
0.1
 48
0.1
140
3.5
141
0.0
142
0.0
143
0.0393701
144
1.0
145
0.0
146
0.71
147
1.5
 71
     0
 72
     0
 73
     0
 74
     0
 75
     1
 76
     1
 77
     1
 78
     8
170
     0
171
     2
172
     1
173
     0
174
     0
175
     0
176
   256
177
   256
178
     4
  0
DIMSTYLE
  2
AM_ISO$SH
 70
     0
  3

  4
"
  5

  6
GENAXEH
  7

 40
1.0
 41
2.5
 42
1.0
 43
10.0
 44
1.0
 45
0.0
 46
0.0
 47
0.1
 48
0.1
140
3.5
141
0.0
142
0.0
143
0.0393701
144
2.0
145
0.0
146
0.71
147
1.5
 71
     0
 72
     0
 73
     0
 74
     0
 75
     1
 76
     1
 77
     1
 78
     8
170
     0
171
     2
172
     1
173
     1
174
     0
175
     0
176
   256
177
   256
178
     4
  0
ENDTAB
  0
ENDSEC
  0
SECTION
  2
BLOCKS
  0
BLOCK
  8
0
  2
$MODEL_SPACE
 70
     0
 10
0.0
 20
0.0
 30
0.0
  3
$MODEL_SPACE
  1

  0
ENDBLK
  5
1A
  8
0
  0
BLOCK
 67
     1
  8
0
  2
$PAPER_SPACE
 70
     0
 10
0.0
 20
0.0
 30
0.0
  3
$PAPER_SPACE
  1

  0
ENDBLK
  5
17
 67
     1
  8
0
  0
BLOCK
  8
0
  2
_OPEN30
 70
     0
 10
0.0
 20
0.0
 30
0.0
  3
_OPEN30
  1

  0
LINE
  5
21C5
  8
0
 62
     0
 10
-1.0
 20
0.26794919
 30
0.0
 11
0.0
 21
0.0
 31
0.0
  0
LINE
  5
21C6
  8
0
 62
     0
 10
0.0
 20
0.0
 30
0.0
 11
-1.0
 21
-0.26794919
 31
0.0
  0
LINE
  5
21C7
  8
0
 62
     0
 10
0.0
 20
0.0
 30
0.0
 11
-1.0
 21
0.0
 31
0.0
  0
ENDBLK
  5
21C9
  8
0
  0
BLOCK
  8
0
  2
GENAXEH
 70
     0
 10
0.0
 20
0.0
 30
0.0
  3
GENAXEH
  1

  0
LINE
  5
21D0
  8
0
 10
-1.0
 20
0.0
 30
0.0
 11
1.0
 21
0.0
 31
0.0
  0
ENDBLK
  5
21D2
  8
0
  0
BLOCK
  8
0
  2
_NONE
 70
     0
 10
0.0
 20
0.0
 30
0.0
  3
_NONE
  1

  0
ENDBLK
  5
8193
  8
0
  0
BLOCK
  8
0
  2
NEW_BLOCK
 70
     0
 10
0.0
 20
0.0
 30
0.0
  3
NEW_BLOCK
  1

  0
LINE
  5
19E36
  8
AM_0
 10
-0.899999999999977
 20
37.800000000000011
 30
0.0
 11
-0.899999999999977
 21
28.800000000000011
 31
0.0
  0
LINE
  5
19E37
  8
AM_0
 10
-6.2999999999999527
 20
27.900000000000009
 30
0.0
 11
-6.2999999999999527
 21
38.700000000000031
 31
0.0
  0
LINE
  5
19E38
  8
AM_0
 10
-0.899999999999977
 20
28.800000000000011
 30
0.0
 11
-6.2999999999999527
 21
28.800000000000011
 31
0.0
  0
LINE
  5
19E39
  8
AM_0
 10
0.0
 20
27.900000000000009
 30
0.0
 11
-6.2999999999999527
 21
27.900000000000009
 31
0.0
  0
LINE
  5
19E3A
  8
AM_0
 10
-6.2999999999999527
 20
37.800000000000011
 30
0.0
 11
-0.899999999999977
 21
37.800000000000011
 31
0.0
  0
LINE
  5
19E3B
  8
AM_0
 10
0.0
 20
38.700000000000031
 30
0.0
 11
-6.2999999999999527
 21
38.700000000000031
 31
0.0
  0
LINE
  5
19E3C
  8
AM_0
 10
-6.2999999999999527
 20
-27.900000000000009
 30
0.0
 11
-6.2999999999999527
 21
-38.700000000000031
 31
0.0
  0
LINE
  5
19E3D
  8
AM_0
 10
-0.899999999999977
 20
-37.800000000000011
 30
0.0
 11
-0.899999999999977
 21
-28.800000000000011
 31
0.0
  0
LINE
  5
19E3E
  8
AM_0
 10
0.0
 20
-38.700000000000031
 30
0.0
 11
-6.2999999999999527
 21
-38.700000000000031
 31
0.0
  0
LINE
  5
19E3F
  8
AM_0
 10
-6.2999999999999527
 20
-37.800000000000011
 30
0.0
 11
-0.899999999999977
 21
-37.800000000000011
 31
0.0
  0
LINE
  5
19E40
  8
AM_0
 10
0.0
 20
-27.900000000000009
 30
0.0
 11
-6.2999999999999527
 21
-27.900000000000009
 31
0.0
  0
LINE
  5
19E41
  8
AM_0
 10
-0.899999999999977
 20
-28.800000000000011
 30
0.0
 11
-6.2999999999999527
 21
-28.800000000000011
 31
0.0
  0
ENDBLK
  5
19E43
  8
0
  0
BLOCK
  8
0
  2
*U6
 70
     1
 10
0.0
 20
0.0
 30
0.0
  3
*U6
  1

  0
SOLID
  5
1C890
  8
AM_0
  6
CONTINUOUS
 10
-289.79520642720928
 20
463.77194809642162
 30
0.0
 11
-293.79520642720939
 21
463.77194809642162
 31
0.0
 12
-289.79520642720928
 22
459.77194809642162
 32
0.0
 13
-289.79520642720928
 23
459.77194809642162
 33
0.0
210
0.0
220
0.0
230
-1.0
  0
LINE
  5
1C891
  8
AM_0
  6
CONTINUOUS
 10
293.79520642720939
 20
463.77194809642162
 30
0.0
 11
289.79520642720928
 21
459.77194809642162
 31
0.0
  0
LINE
  5
1C892
  8
AM_0
  6
CONTINUOUS
 10
289.79520642720928
 20
459.77194809642162
 30
0.0
 11
289.79520642720928
 21
463.77194809642162
 31
0.0
  0
ENDBLK
  5
1C894
  8
0
  0
BLOCK
  8
0
  2
*U7
 70
     1
 10
0.0
 20
0.0
 30
0.0
  3
*U7
  1

  0
SOLID
  5
1C896
  8
AM_0
  6
CONTINUOUS
 10
-281.29520642720939
 20
463.77194809642162
 30
0.0
 11
-285.29520642720951
 21
463.77194809642162
 31
0.0
 12
-285.29520642720951
 22
459.77194809642162
 32
0.0
 13
-285.29520642720951
 23
459.77194809642162
 33
0.0
210
0.0
220
0.0
230
-1.0
  0
LINE
  5
1C897
  8
AM_0
  6
CONTINUOUS
 10
285.29520642720951
 20
463.77194809642162
 30
0.0
 11
285.29520642720951
 21
459.77194809642162
 31
0.0
  0
LINE
  5
1C898
  8
AM_0
  6
CONTINUOUS
 10
285.29520642720951
 20
459.77194809642162
 30
0.0
 11
281.29520642720939
 21
463.77194809642162
 31
0.0
  0
ENDBLK
  5
1C89A
  8
0
  0
BLOCK
  8
0
  2
*U8
 70
     1
 10
0.0
 20
0.0
 30
0.0
  3
*U8
  1

  0
SOLID
  5
1C89C
  8
AM_0
  6
CONTINUOUS
 10
-289.79520642720928
 20
574.77196702834465
 30
0.0
 11
-293.79520642720939
 21
570.77196702834465
 31
0.0
 12
-289.79520642720928
 22
570.77196702834465
 32
0.0
 13
-289.79520642720928
 23
570.77196702834465
 33
0.0
210
0.0
220
0.0
230
-1.0
  0
LINE
  5
1C89D
  8
AM_0
  6
CONTINUOUS
 10
289.79520642720928
 20
574.77196702834465
 30
0.0
 11
293.79520642720939
 21
570.77196702834465
 31
0.0
  0
LINE
  5
1C89E
  8
AM_0
  6
CONTINUOUS
 10
289.79520642720928
 20
570.77196702834465
 30
0.0
 11
289.79520642720928
 21
574.77196702834465
 31
0.0
  0
ENDBLK
  5
1C8A0
  8
0
  0
BLOCK
  8
0
  2
*U9
 70
     1
 10
0.0
 20
0.0
 30
0.0
  3
*U9
  1

  0
SOLID
  5
1C8A2
  8
AM_0
  6
CONTINUOUS
 10
-285.29520642720951
 20
574.77196702834465
 30
0.0
 11
-285.29520642720951
 21
570.77196702834465
 31
0.0
 12
-281.29520642720939
 22
570.77196702834465
 32
0.0
 13
-281.29520642720939
 23
570.77196702834465
 33
0.0
210
0.0
220
0.0
230
-1.0
  0
LINE
  5
1C8A3
  8
AM_0
  6
CONTINUOUS
 10
285.29520642720951
 20
574.77196702834465
 30
0.0
 11
285.29520642720951
 21
570.77196702834465
 31
0.0
  0
LINE
  5
1C8A4
  8
AM_0
  6
CONTINUOUS
 10
281.29520642720939
 20
570.77196702834465
 30
0.0
 11
285.29520642720951
 21
574.77196702834465
 31
0.0
  0
ENDBLK
  5
1C8A6
  8
0
  0
ENDSEC
  0
SECTION
  2
ENTITIES
  0
POINT
  5
1B94
  8
0
 10
0.0
 20
0.0
 30
0.0
1001
GENIUS_GENODEF_13
1002
{
1000
HIER
1070
     1
1002
}
1002
{
1000
MANEDIT
1070
     0
1002
}
1002
{
1000
NOSEL
1070
     0
1002
}
1002
{
1000
BEHIND
1070
     0
1002
}
1002
{
1000
REACTOR
1002
}
1001
GENIUS_GENOBJ-N-SDF_13
1002
{
1000
OWNER
1000
GEN
1002
}
1001
GENIUS_GENOENT_13
1002
{
1000
MYREF
1005
1B94
1002
}
1002
{
1000
GRP
1005
0
1002
}
1001
GENIUS_GENOLIS_13
1002
{
1000
ENT
1005
89
1002
}
  0
LINE
  5
1B3B3
  8
AM_0
 10
333.41034367554317
 20
306.94195742393589
 30
0.0
 11
384.71960881226198
 21
306.94195742393589
 31
0.0
  0
POLYLINE
  5
1B3B4
  8
AM_0
 10
388.41840139625538
 20
248.94196505333051
 30
0.0
 66
     1
 70
     8
  0
VERTEX
  8
AM_0
  5
1C8E1
 10
388.418
 20
248.942
 30
0.000000
  70
    32
  0
VERTEX
  8
AM_0
  5
1C8E2
 10
388.373
 20
250.782
 30
0.000000
  70
    32
  0
VERTEX
  8
AM_0
  5
1C8E3
 10
388.238
 20
252.618
 30
0.000000
  70
    32
  0
VERTEX
  8
AM_0
  5
1C8E4
 10
388.013
 20
254.444
 30
0.000000
  70
    32
  0
VERTEX
  8
AM_0
  5
1C8E5
 10
387.698
 20
256.258
 30
0.000000
  70
    32
  0
VERTEX
  8
AM_0
  5
1C8E6
 10
387.295
 20
258.054
 30
0.000000
  70
    32
  0
VERTEX
  8
AM_0
  5
1C8E7
 10
386.804
 20
259.828
 30
0.000000
  70
    32
  0
VERTEX
  8
AM_0
  5
1C8E8
 10
386.226
 20
261.575
 30
0.000000
  70
    32
  0
VERTEX
  8
AM_0
  5
1C8E9
 10
385.564
 20
263.292
 30
0.000000
  70
    32
  0
VERTEX
  8
AM_0
  5
1C8EA
 10
384.818
 20
264.975
 30
0.000000
  70
    32
  0
VERTEX
  8
AM_0
  5
1C8EB
 10
383.990
 20
266.619
 30
0.000000
  70
    32
  0
VERTEX
  8
AM_0
  5
1C8EC
 10
383.083
 20
268.221
 30
0.000000
  70
    32
  0
VERTEX
  8
AM_0
  5
1C8ED
 10
382.099
 20
269.776
 30
0.000000
  70
    32
  0
VERTEX
  8
AM_0
  5
1C8EE
 10
381.039
 20
271.280
 30
0.000000
  70
    32
  0
VERTEX
  8
AM_0
  5
1C8EF
 10
379.906
 20
272.731
 30
0.000000
  70
    32
  0
VERTEX
  8
AM_0
  5
1C8F0
 10
378.704
 20
274.125
 30
0.000000
  70
    32
  0
VERTEX
  8
AM_0
  5
1C8F1
 10
377.435
 20
275.458
 30
0.000000
  70
    32
  0
VERTEX
  8
AM_0
  5
1C8F2
 10
376.102
 20
276.727
 30
0.000000
  70
    32
  0
VERTEX
  8
AM_0
  5
1C8F3
 10
374.708
 20
277.930
 30
0.000000
  70
    32
  0
VERTEX
  8
AM_0
  5
1C8F4
 10
373.257
 20
279.062
 30
0.000000
  70
    32
  0
VERTEX
  8
AM_0
  5
1C8F5
 10
371.752
 20
280.122
 30
0.000000
  70
    32
  0
VERTEX
  8
AM_0
  5
1C8F6
 10
370.197
 20
281.106
 30
0.000000
  70
    32
  0
VERTEX
  8
AM_0
  5
1C8F7
 10
368.596
 20
282.014
 30
0.000000
  70
    32
  0
VERTEX
  8
AM_0
  5
1C8F8
 10
366.952
 20
282.841
 30
0.000000
  70
    32
  0
VERTEX
  8
AM_0
  5
1C8F9
 10
365.269
 20
283.587
 30
0.000000
  70
    32
  0
VERTEX
  8
AM_0
  5
1C8FA
 10
363.552
 20
284.250
 30
0.000000
  70
    32
  0
VERTEX
  8
AM_0
  5
1C8FB
 10
361.804
 20
284.827
 30
0.000000
  70
    32
  0
VERTEX
  8
AM_0
  5
1C8FC
 10
360.030
 20
285.318
 30
0.000000
  70
    32
  0
VERTEX
  8
AM_0
  5
1C8FD
 10
358.234
 20
285.721
 30
0.000000
  70
    32
  0
VERTEX
  8
AM_0
  5
1C8FE
 10
356.421
 20
286.036
 30
0.000000
  70
    32
  0
VERTEX
  8
AM_0
  5
1C8FF
 10
354.594
 20
286.261
 30
0.000000
  70
    32
  0
VERTEX
  8
AM_0
  5
1C900
 10
352.758
 20
286.396
 30
0.000000
  70
    32
  0
VERTEX
  8
AM_0
  5
1C901
 10
350.918
 20
286.442
 30
0.000000
  70
    32
  0
VERTEX
  8
AM_0
  5
1C902
 10
349.078
 20
286.396
 30
0.000000
  70
    32
  0
VERTEX
  8
AM_0
  5
1C903
 10
347.243
 20
286.261
 30
0.000000
  70
    32
  0
VERTEX
  8
AM_0
  5
1C904
 10
345.416
 20
286.036
 30
0.000000
  70
    32
  0
VERTEX
  8
AM_0
  5
1C905
 10
343.603
 20
285.721
 30
0.000000
  70
    32
  0
VERTEX
  8
AM_0
  5
1C906
 10
341.807
 20
285.318
 30
0.000000
  70
    32
  0
VERTEX
  8
AM_0
  5
1C907
 10
340.033
 20
284.827
 30
0.000000
  70
    32
  0
VERTEX
  8
AM_0
  5
1C908
 10
338.285
 20
284.250
 30
0.000000
  70
    32
  0
VERTEX
  8
AM_0
  5
1C909
 10
336.568
 20
283.587
 30
0.000000
  70
    32
  0
VERTEX
  8
AM_0
  5
1C90A
 10
334.885
 20
282.841
 30
0.000000
  70
    32
  0
VERTEX
  8
AM_0
  5
1C90B
 10
333.241
 20
282.014
 30
0.000000
  70
    32
  0
VERTEX
  8
AM_0
  5
1C90C
 10
331.640
 20
281.106
 30
0.000000
  70
    32
  0
VERTEX
  8
AM_0
  5
1C90D
 10
330.085
 20
280.122
 30
0.000000
  70
    32
  0
VERTEX
  8
AM_0
  5
1C90E
 10
328.580
 20
279.062
 30
0.000000
  70
    32
  0
VERTEX
  8
AM_0
  5
1C90F
 10
327.129
 20
277.930
 30
0.000000
  70
    32
  0
VERTEX
  8
AM_0
  5
1C910
 10
325.735
 20
276.727
 30
0.000000
  70
    32
  0
VERTEX
  8
AM_0
  5
1C911
 10
324.402
 20
275.458
 30
0.000000
  70
    32
  0
VERTEX
  8
AM_0
  5
1C912
 10
323.133
 20
274.125
 30
0.000000
  70
    32
  0
VERTEX
  8
AM_0
  5
1C913
 10
321.931
 20
272.731
 30
0.000000
  70
    32
  0
VERTEX
  8
AM_0
  5
1C914
 10
320.798
 20
271.280
 30
0.000000
  70
    32
  0
VERTEX
  8
AM_0
  5
1C915
 10
319.738
 20
269.776
 30
0.000000
  70
    32
  0
VERTEX
  8
AM_0
  5
1C916
 10
318.754
 20
268.221
 30
0.000000
  70
    32
  0
VERTEX
  8
AM_0
  5
1C917
 10
317.846
 20
266.619
 30
0.000000
  70
    32
  0
VERTEX
  8
AM_0
  5
1C918
 10
317.019
 20
264.975
 30
0.000000
  70
    32
  0
VERTEX
  8
AM_0
  5
1C919
 10
316.273
 20
263.292
 30
0.000000
  70
    32
  0
VERTEX
  8
AM_0
  5
1C91A
 10
315.610
 20
261.575
 30
0.000000
  70
    32
  0
VERTEX
  8
AM_0
  5
1C91B
 10
315.033
 20
259.828
 30
0.000000
  70
    32
  0
VERTEX
  8
AM_0
  5
1C91C
 10
314.542
 20
258.054
 30
0.000000
  70
    32
  0
VERTEX
  8
AM_0
  5
1C91D
 10
314.139
 20
256.258
 30
0.000000
  70
    32
  0
VERTEX
  8
AM_0
  5
1C91E
 10
313.824
 20
254.444
 30
0.000000
  70
    32
  0
VERTEX
  8
AM_0
  5
1C91F
 10
313.599
 20
252.618
 30
0.000000
  70
    32
  0
VERTEX
  8
AM_0
  5
1C920
 10
313.464
 20
250.782
 30
0.000000
  70
    32
  0
VERTEX
  8
AM_0
  5
1C921
 10
313.418
 20
248.942
 30
0.000000
  70
    32
  0
VERTEX
  8
AM_0
  5
1C922
 10
313.464
 20
247.102
 30
0.000000
  70
    32
  0
VERTEX
  8
AM_0
  5
1C923
 10
313.599
 20
245.266
 30
0.000000
  70
    32
  0
VERTEX
  8
AM_0
  5
1C924
 10
313.824
 20
243.440
 30
0.000000
  70
    32
  0
VERTEX
  8
AM_0
  5
1C925
 10
314.139
 20
241.626
 30
0.000000
  70
    32
  0
VERTEX
  8
AM_0
  5
1C926
 10
314.542
 20
239.830
 30
0.000000
  70
    32
  0
VERTEX
  8
AM_0
  5
1C927
 10
315.033
 20
238.056
 30
0.000000
  70
    32
  0
VERTEX
  8
AM_0
  5
1C928
 10
315.610
 20
236.309
 30
0.000000
  70
    32
  0
VERTEX
  8
AM_0
  5
1C929
 10
316.273
 20
234.591
 30
0.000000
  70
    32
  0
VERTEX
  8
AM_0
  5
1C92A
 10
317.019
 20
232.909
 30
0.000000
  70
    32
  0
VERTEX
  8
AM_0
  5
1C92B
 10
317.846
 20
231.265
 30
0.000000
  70
    32
  0
VERTEX
  8
AM_0
  5
1C92C
 10
318.754
 20
229.663
 30
0.000000
  70
    32
  0
VERTEX
  8
AM_0
  5
1C92D
 10
319.738
 20
228.108
 30
0.000000
  70
    32
  0
VERTEX
  8
AM_0
  5
1C92E
 10
320.798
 20
226.603
 30
0.000000
  70
    32
  0
VERTEX
  8
AM_0
  5
1C92F
 10
321.931
 20
225.152
 30
0.000000
  70
    32
  0
VERTEX
  8
AM_0
  5
1C930
 10
323.133
 20
223.759
 30
0.000000
  70
    32
  0
VERTEX
  8
AM_0
  5
1C931
 10
324.402
 20
222.426
 30
0.000000
  70
    32
  0
VERTEX
  8
AM_0
  5
1C932
 10
325.735
 20
221.157
 30
0.000000
  70
    32
  0
VERTEX
  8
AM_0
  5
1C933
 10
327.129
 20
219.954
 30
0.000000
  70
    32
  0
VERTEX
  8
AM_0
  5
1C934
 10
328.580
 20
218.822
 30
0.000000
  70
    32
  0
VERTEX
  8
AM_0
  5
1C935
 10
330.085
 20
217.762
 30
0.000000
  70
    32
  0
VERTEX
  8
AM_0
  5
1C936
 10
331.640
 20
216.777
 30
0.000000
  70
    32
  0
VERTEX
  8
AM_0
  5
1C937
 10
333.241
 20
215.870
 30
0.000000
  70
    32
  0
VERTEX
  8
AM_0
  5
1C938
 10
334.885
 20
215.043
 30
0.000000
  70
    32
  0
VERTEX
  8
AM_0
  5
1C939
 10
336.568
 20
214.297
 30
0.000000
  70
    32
  0
VERTEX
  8
AM_0
  5
1C93A
 10
338.285
 20
213.634
 30
0.000000
  70
    32
  0
VERTEX
  8
AM_0
  5
1C93B
 10
340.033
 20
213.057
 30
0.000000
  70
    32
  0
VERTEX
  8
AM_0
  5
1C93C
 10
341.807
 20
212.566
 30
0.000000
  70
    32
  0
VERTEX
  8
AM_0
  5
1C93D
 10
343.603
 20
212.163
 30
0.000000
  70
    32
  0
VERTEX
  8
AM_0
  5
1C93E
 10
345.416
 20
211.848
 30
0.000000
  70
    32
  0
VERTEX
  8
AM_0
  5
1C93F
 10
347.243
 20
211.623
 30
0.000000
  70
    32
  0
VERTEX
  8
AM_0
  5
1C940
 10
349.078
 20
211.488
 30
0.000000
  70
    32
  0
VERTEX
  8
AM_0
  5
1C941
 10
350.918
 20
211.442
 30
0.000000
  70
    32
  0
VERTEX
  8
AM_0
  5
1C942
 10
352.758
 20
211.488
 30
0.000000
  70
    32
  0
VERTEX
  8
AM_0
  5
1C943
 10
354.594
 20
211.623
 30
0.000000
  70
    32
  0
VERTEX
  8
AM_0
  5
1C944
 10
356.421
 20
211.848
 30
0.000000
  70
    32
  0
VERTEX
  8
AM_0
  5
1C945
 10
358.234
 20
212.163
 30
0.000000
  70
    32
  0
VERTEX
  8
AM_0
  5
1C946
 10
360.030
 20
212.566
 30
0.000000
  70
    32
  0
VERTEX
  8
AM_0
  5
1C947
 10
361.804
 20
213.057
 30
0.000000
  70
    32
  0
VERTEX
  8
AM_0
  5
1C948
 10
363.552
 20
213.634
 30
0.000000
  70
    32
  0
VERTEX
  8
AM_0
  5
1C949
 10
365.269
 20
214.297
 30
0.000000
  70
    32
  0
VERTEX
  8
AM_0
  5
1C94A
 10
366.952
 20
215.043
 30
0.000000
  70
    32
  0
VERTEX
  8
AM_0
  5
1C94B
 10
368.596
 20
215.870
 30
0.000000
  70
    32
  0
VERTEX
  8
AM_0
  5
1C94C
 10
370.197
 20
216.777
 30
0.000000
  70
    32
  0
VERTEX
  8
AM_0
  5
1C94D
 10
371.752
 20
217.762
 30
0.000000
  70
    32
  0
VERTEX
  8
AM_0
  5
1C94E
 10
373.257
 20
218.822
 30
0.000000
  70
    32
  0
VERTEX
  8
AM_0
  5
1C94F
 10
374.708
 20
219.954
 30
0.000000
  70
    32
  0
VERTEX
  8
AM_0
  5
1C950
 10
376.102
 20
221.157
 30
0.000000
  70
    32
  0
VERTEX
  8
AM_0
  5
1C951
 10
377.435
 20
222.426
 30
0.000000
  70
    32
  0
VERTEX
  8
AM_0
  5
1C952
 10
378.704
 20
223.759
 30
0.000000
  70
    32
  0
VERTEX
  8
AM_0
  5
1C953
 10
379.906
 20
225.152
 30
0.000000
  70
    32
  0
VERTEX
  8
AM_0
  5
1C954
 10
381.039
 20
226.603
 30
0.000000
  70
    32
  0
VERTEX
  8
AM_0
  5
1C955
 10
382.099
 20
228.108
 30
0.000000
  70
    32
  0
VERTEX
  8
AM_0
  5
1C956
 10
383.083
 20
229.663
 30
0.000000
  70
    32
  0
VERTEX
  8
AM_0
  5
1C957
 10
383.990
 20
231.265
 30
0.000000
  70
    32
  0
VERTEX
  8
AM_0
  5
1C958
 10
384.818
 20
232.909
 30
0.000000
  70
    32
  0
VERTEX
  8
AM_0
  5
1C959
 10
385.564
 20
234.591
 30
0.000000
  70
    32
  0
VERTEX
  8
AM_0
  5
1C95A
 10
386.226
 20
236.309
 30
0.000000
  70
    32
  0
VERTEX
  8
AM_0
  5
1C95B
 10
386.804
 20
238.056
 30
0.000000
  70
    32
  0
VERTEX
  8
AM_0
  5
1C95C
 10
387.295
 20
239.830
 30
0.000000
  70
    32
  0
VERTEX
  8
AM_0
  5
1C95D
 10
387.698
 20
241.626
 30
0.000000
  70
    32
  0
VERTEX
  8
AM_0
  5
1C95E
 10
388.013
 20
243.440
 30
0.000000
  70
    32
  0
VERTEX
  8
AM_0
  5
1C95F
 10
388.238
 20
245.266
 30
0.000000
  70
    32
  0
VERTEX
  8
AM_0
  5
1C960
 10
388.373
 20
247.102
 30
0.000000
  70
    32
  0
VERTEX
  8
AM_0
  5
1C961
 10
388.418
 20
248.942
 30
0.000000
  70
    32
  0
SEQEND
  8
AM_0
  5
1C962
  0
LINE
  5
1B3B5
  8
AM_0
 10
408.9184021307143
 20
209.44193460630021
 30
0.0
 11
372.47640566647101
 21
209.44193460630021
 31
0.0
  0
LINE
  5
1B3B6
  8
AM_0
 10
413.9184021307143
 20
168.94193460630021
 30
0.0
 11
241.9183666591359
 21
168.94193460630021
 31
0.0
  0
LINE
  5
1B3B7
  8
AM_0
 10
413.9184021307143
 20
164.44193460630021
 30
0.0
 11
241.9183666591359
 21
164.44193460630029
 31
0.0
  0
LINE
  5
1B3B8
  8
AM_0
 10
253.9183670047637
 20
312.94132696066009
 30
0.0
 11
401.9184017850863
 21
312.94132696066009
 31
0.0
  0
LINE
  5
1B3B9
  8
ﾁｭｳｼﾝｾﾝ1
 10
34.674466550136003
 20
248.94196505333309
 30
0.0
 11
418.9184021307143
 21
248.94196505333051
 31
0.0
  0
LINE
  5
1B3BE
  8
ﾁｭｳｼﾝｾﾝ1
 10
350.9184003161684
 20
317.94132696065998
 30
0.0
 11
350.91840031616829
 21
154.44193460630009
 31
0.0
  0
LINE
  5
1B3BF
  8
AM_0
 10
241.9183666591359
 20
300.94144660303613
 30
0.0
 11
241.9183666591359
 21
164.44193460630029
 31
0.0
  0
LINE
  5
1B3C0
  8
AM_0
 10
43.418366550136597
 20
296.96161505333322
 30
0.0
 11
43.418366550136042
 21
253.9419950533331
 31
0.0
  0
LINE
  5
1B3C1
  8
AM_0
 10
49.418366550135261
 20
191.52201505333321
 30
0.0
 11
49.418366550136632
 21
306.3720150533332
 31
0.0
  0
LINE
  5
1B3C2
  8
AM_0
 10
195.4183665501366
 20
309.44199505333142
 30
0.0
 11
195.4183662938876
 21
185.94199475302381
 31
0.0
  0
LINE
  5
1B3C3
  8
AM_0
 10
204.418366550136
 20
184.94196505333019
 30
0.0
 11
204.418366550136
 21
312.94195505333022
 31
0.0
  0
LINE
  5
1B3C4
  8
AM_0
 10
215.41836655013589
 20
310.44195505333067
 30
0.0
 11
215.41836655013589
 21
187.4419750533304
 31
0.0
  0
LINE
  5
1B3C5
  8
AM_0
 10
233.82888972438579
 20
294.67068369142447
 30
0.0
 11
233.8288897243873
 21
203.21324641523651
 31
0.0
  0
ARC
  5
1B3C6
  8
AM_0
 10
628.07689307613884
 20
248.94196505332479
 30
0.0
 40
397.24800335175252
 50
173.33928567968309
 51
186.6607143203168
  0
ARC
  5
1B3C8
  8
AM_0
 10
252.91841557495729
 20
269.419252345811
 30
0.0
 40
5.0
 50
103.608955667
 51
179.99999749551819
  0
LINE
  5
1B3CA
  8
AM_0
 10
95.418366550135474
 20
202.60199505333259
 30
0.0
 11
189.2383765501354
 21
202.60199505333151
 31
0.0
  0
LINE
  5
1B3CB
  8
AM_0
 10
157.91836655013569
 20
222.94199505333191
 30
0.0
 11
56.968386550135612
 21
222.9419950533331
 31
0.0
  0
LINE
  5
1B3CC
  8
AM_0
 10
192.34315263666099
 20
224.9419950533314
 30
0.0
 11
56.968386550135612
 21
224.9419950533331
 31
0.0
  0
LINE
  5
1B3CD
  8
AM_0
 10
55.878386550135708
 20
225.37201505333309
 30
0.0
 11
193.26312269869149
 21
225.37201505333149
 31
0.0
  0
LINE
  5
1B3CE
  8
AM_0
 10
55.878386550135708
 20
222.45200505333301
 30
0.0
 11
158.7785350219481
 21
222.45200505333179
 31
0.0
  0
LINE
  5
1B3CF
  8
AM_0
 10
74.418366550135275
 20
185.0620050533328
 30
0.0
 11
189.21813667683881
 21
185.06200505333149
 31
0.0
  0
LINE
  5
1B3D0
  8
AM_0
 10
74.418366550135275
 20
183.70200505333301
 30
0.0
 11
189.21813667683881
 21
183.70200505333159
 31
0.0
  0
LINE
  5
1B3D1
  8
AM_0
 10
74.418366550135275
 20
183.0420050533329
 30
0.0
 11
189.21813667683881
 21
183.04200505333139
 31
0.0
  0
LINE
  5
1B3D2
  8
AM_0
 10
74.418366550135275
 20
187.08200505333281
 30
0.0
 11
129.4183665501352
 21
187.08200505333221
 31
0.0
  0
LINE
  5
1B3D3
  8
AM_0
 10
56.97837903103607
 20
214.94199501224699
 30
0.0
 11
129.4183665501356
 21
214.9419950122462
 31
0.0
  0
LINE
  5
1B3D4
  8
AM_0
 10
56.088376550135649
 20
215.5719950533331
 30
0.0
 11
129.4183665501356
 21
215.57199505333219
 31
0.0
  0
LINE
  5
1B3D5
  8
AM_0
 10
56.088376550135528
 20
212.2120150533332
 30
0.0
 11
129.41836655013549
 21
212.21201505333221
 31
0.0
  0
LINE
  5
1B3D6
  8
AM_0
 10
129.4183665501356
 20
212.94199505333219
 30
0.0
 11
56.968386550135392
 21
212.9419950533331
 31
0.0
  0
LINE
  5
1B3D7
  8
AM_0
 10
55.678376550135901
 20
245.2020050533331
 30
0.0
 11
128.14839321985161
 21
245.20200505333219
 31
0.0
  0
LINE
  5
1B3D8
  8
AM_0
 10
126.8583987445824
 20
244.94199505333219
 30
0.0
 11
56.968386550135861
 21
244.9419950533331
 31
0.0
  0
LINE
  5
1B3D9
  8
AM_0
 10
126.8583987445824
 20
242.94199505333219
 30
0.0
 11
56.968386550135861
 21
242.9419950533331
 31
0.0
  0
LINE
  5
1B3DA
  8
AM_0
 10
55.678376550135901
 20
242.66199505333299
 30
0.0
 11
128.14839321985161
 21
242.66199505333211
 31
0.0
  0
LINE
  5
1B3DB
  8
AM_0
 10
126.86104999351571
 20
262.94199505333222
 30
0.0
 11
56.978396550136267
 21
262.94199505333307
 31
0.0
  0
LINE
  5
1B3DC
  8
AM_0
 10
126.8583953391461
 20
254.94199505333219
 30
0.0
 11
56.978396550136146
 21
254.9419950533331
 31
0.0
  0
LINE
  5
1B3DD
  8
AM_0
 10
126.85839533914449
 20
252.94199505333219
 30
0.0
 11
56.978396550136146
 21
252.9419950533331
 31
0.0
  0
LINE
  5
1B3DE
  8
AM_0
 10
55.748376550136072
 20
262.62201505333297
 30
0.0
 11
127.953579817673
 21
262.62201505333212
 31
0.0
  0
LINE
  5
1B3DF
  8
AM_0
 10
55.688386550136002
 20
255.21201505333309
 30
0.0
 11
127.9535798176729
 21
255.21201505333221
 31
0.0
  0
LINE
  5
1B3E0
  8
AM_0
 10
55.688386550136002
 20
252.68201505333309
 30
0.0
 11
127.9535798176729
 21
252.68201505333221
 31
0.0
  0
LINE
  5
1B3E1
  8
AM_0
 10
55.748376550135717
 20
235.25199505333319
 30
0.0
 11
128.1483932198515
 21
235.25199505333239
 31
0.0
  0
LINE
  5
1B3E2
  8
AM_0
 10
126.8583987445823
 20
234.94199505333211
 30
0.0
 11
56.968386550135719
 21
234.9419950533331
 31
0.0
  0
LINE
  5
1B3E3
  8
AM_0
 10
126.8583987445823
 20
232.94199505333211
 30
0.0
 11
56.968386550135612
 21
232.9419950533331
 31
0.0
  0
LINE
  5
1B3E4
  8
AM_0
 10
55.74837655013561
 20
232.59201505333311
 30
0.0
 11
128.1483932198515
 21
232.59201505333209
 31
0.0
  0
LINE
  5
1B3E5
  8
AM_0
 10
126.86012649374899
 20
264.94199505333222
 30
0.0
 11
56.978396550136267
 21
264.94199505333319
 31
0.0
  0
LINE
  5
1B3E6
  8
AM_0
 10
55.748376550136072
 20
265.28199505333311
 30
0.0
 11
127.953579817673
 21
265.28199505333208
 31
0.0
  0
ARC
  5
1B3E7
  8
AM_0
 10
71.050296550135045
 20
184.14594505333281
 30
0.0
 40
1.4961156999999989
 50
14.55818599999996
 51
90.456504999996014
  0
ARC
  5
1B3E8
  8
AM_0
 10
74.425876550135385
 20
185.7094950533328
 30
0.0
 40
2.007501099999998
 50
180.213699999997
 51
269.78631000000109
  0
ARC
  5
1B3E9
  8
AM_0
 10
74.423526550135179
 20
187.0671650533329
 30
0.0
 40
2.0051612999999988
 50
180.14728999999889
 51
269.85271000000017
  0
ARC
  5
1B3EB
  8
AM_0
 10
74.426296550135248
 20
185.03768505333289
 30
0.0
 40
1.9956942999999989
 50
194.9748799999976
 51
269.77264999999841
  0
LINE
  5
1B3EC
  8
AM_0
 10
43.418366550135481
 20
200.92240505333331
 30
0.0
 11
43.418366550135929
 21
243.9419950533331
 31
0.0
  0
LINE
  5
1B3ED
  8
AM_0
 10
95.418366550135474
 20
202.60199505333259
 30
0.0
 11
59.418366550135488
 21
204.25473533516259
 31
0.0
  0
ARC
  5
1B3EE
  8
AM_0
 10
74.427706550135312
 20
189.0913350533329
 30
0.0
 40
2.0093488999999991
 50
180.2659599999995
 51
269.73403999999971
  0
ARC
  5
1B3EF
  8
AM_0
 10
59.057752549488669
 20
211.30255505333301
 30
0.0
 40
6.0113901999999966
 50
273.43915000000089
 51
314.59596000000028
  0
LINE
  5
1B3F0
  8
AM_0
 10
45.178376550135447
 20
205.98203505333319
 30
0.0
 11
43.878356550135543
 21
206.8420150533332
 31
0.0
  0
ARC
  5
1B3F1
  8
AM_0
 10
48.412966550135479
 20
207.9674150533333
 30
0.0
 40
1.005422699999998
 50
270.30818999999673
 51
359.69181000000242
  0
LINE
  5
1B3F2
  8
AM_0
 10
59.418366550135488
 20
200.6019950533331
 30
0.0
 11
59.418366550135488
 21
212.2120150533332
 31
0.0
  0
ARC
  5
1B3F3
  8
AM_0
 10
57.597476550135298
 20
192.6865750533332
 30
0.0
 40
2.0045697999999992
 50
192.22790999999441
 51
270.02595999999647
  0
ARC
  5
1B3F4
  8
AM_0
 10
57.654786550135327
 20
197.96855505333309
 30
0.0
 40
2.0065659999999981
 50
189.94568000000021
 51
270.10246999999578
  0
LINE
  5
1B3F5
  8
AM_0
 10
49.418366550135488
 20
200.60199505333321
 30
0.0
 11
59.418366550135488
 21
200.6019950533331
 31
0.0
  0
LINE
  5
1B3F6
  8
AM_0
 10
49.418366550135488
 20
206.26200505333321
 30
0.0
 11
59.418366550135488
 21
206.26200505333301
 31
0.0
  0
ARC
  5
1B3F7
  8
AM_0
 10
57.545656550135149
 20
187.6493350533332
 30
0.0
 40
2.007332599999998
 50
194.05005999999929
 51
269.79217999999878
  0
ARC
  5
1B3F8
  8
AM_0
 10
57.564666550135357
 20
189.28188505333321
 30
0.0
 40
1.9998908999999989
 50
193.29430000000221
 51
269.8195799999985
  0
LINE
  5
1B3F9
  8
AM_0
 10
55.638396550135212
 20
192.2620150533331
 30
0.0
 11
54.678376550135347
 21
196.72200505333311
 31
0.0
  0
ARC
  5
1B3FA
  8
AM_0
 10
53.268216550135321
 20
190.32323505333309
 30
0.0
 40
1.4987989999999991
 50
14.638134999998041
 51
90.376557999996933
  0
LINE
  5
1B3FB
  8
AM_0
 10
55.618376550135281
 20
188.8219950533331
 30
0.0
 11
54.698396550135143
 21
192.7020050533331
 31
0.0
  0
LINE
  5
1B3FC
  8
AM_0
 10
53.258386550135107
 20
191.8219950533331
 30
0.0
 11
54.898376550135247
 21
191.8219950533331
 31
0.0
  0
LINE
  5
1B3FD
  8
AM_0
 10
53.238376550135172
 20
193.86200505333321
 30
0.0
 11
55.298366550135363
 21
193.86200505333321
 31
0.0
  0
ARC
  5
1B3FE
  8
AM_0
 10
53.234706550135122
 20
192.35860505333301
 30
0.0
 40
1.5034073999999991
 50
13.203856000003951
 51
89.860414000000176
  0
LINE
  5
1B3FF
  8
AM_0
 10
49.418366550135261
 20
191.56426872324059
 30
0.0
 11
54.258356550135197
 21
191.462015053333
 31
0.0
  0
LINE
  5
1B400
  8
AM_0
 10
55.598386550135032
 20
187.1620250533332
 30
0.0
 11
54.718386550134937
 21
190.70201505333321
 31
0.0
  0
LINE
  5
1B401
  8
AM_0
 10
45.698366550135461
 20
201.30201505333321
 30
0.0
 11
49.418366550135488
 21
201.30201505333321
 31
0.0
  0
LINE
  5
1B402
  8
AM_0
 10
45.718386550135392
 20
205.82199505333321
 30
0.0
 11
49.418366550135488
 21
205.82199505333321
 31
0.0
  0
ARC
  5
1B403
  8
AM_0
 10
48.411316550135552
 20
203.44907505333319
 30
0.0
 40
1.0070831999999981
 50
270.40157999999838
 51
359.59842000000077
  0
ARC
  5
1B404
  8
AM_0
 10
48.912016550135391
 20
200.84836505333331
 30
0.0
 40
0.50640076
 50
270.71969999999823
 51
359.28029999999433
  0
ARC
  5
1B405
  8
AM_0
 10
48.92272655013528
 20
198.7063550533332
 30
0.0
 40
0.4956644499999998
 50
359.49661999999972
 51
90.503381000000417
  0
LINE
  5
1B406
  8
AM_0
 10
45.418366550135488
 20
199.4619950533332
 30
0.0
 11
45.418366550135488
 21
199.9820050533333
 31
0.0
  0
LINE
  5
1B407
  8
AM_0
 10
45.198366550135233
 20
199.3420050533332
 30
0.0
 11
43.918396550135398
 21
200.0619850533333
 31
0.0
  0
LINE
  5
1B408
  8
AM_0
 10
45.698366550135461
 20
199.20200505333321
 30
0.0
 11
48.918366550135261
 21
199.20200505333321
 31
0.0
  0
ARC
  5
1B409
  8
AM_0
 10
45.709256550135478
 20
200.2037550533332
 30
0.0
 40
1.001807999999998
 50
239.33833000000479
 51
269.37717999999609
  0
ARC
  5
1B40A
  8
AM_0
 10
44.417356550135537
 20
203.0874450533332
 30
0.0
 40
0.9989832599999996
 50
180.31238999999809
 51
240.03463999999721
  0
LINE
  5
1B40B
  8
AM_0
 10
45.198396550135378
 20
202.5619850533333
 30
0.0
 11
43.958376550135434
 21
203.2220250533332
 31
0.0
  0
LINE
  5
1B40C
  8
AM_0
 10
45.658386550135447
 20
200.3420050533332
 30
0.0
 11
48.918366550135261
 21
200.3420050533332
 31
0.0
  0
ARC
  5
1B40D
  8
AM_0
 10
45.711886550135432
 20
202.31311505333309
 30
0.0
 40
1.0112084999999991
 50
239.4811900000019
 51
269.23431000000238
  0
ARC
  5
1B40E
  8
AM_0
 10
45.695956550135392
 20
201.34644505333321
 30
0.0
 40
1.005138299999998
 50
241.63205999999761
 51
267.85770999999937
  0
LINE
  5
1B40F
  8
AM_0
 10
45.678376550135447
 20
202.44199505333319
 30
0.0
 11
48.418366550135481
 21
202.44199505333319
 31
0.0
  0
ARC
  5
1B410
  8
AM_0
 10
45.676666550135451
 20
203.4552050533332
 30
0.0
 40
1.0131911999999981
 50
241.8312399999993
 51
270.09627999999941
  0
LINE
  5
1B411
  8
AM_0
 10
45.418366550135488
 20
201.56198505333319
 30
0.0
 11
45.418366550135488
 21
202.10199505333321
 31
0.0
  0
ARC
  5
1B412
  8
AM_0
 10
44.425536550135362
 20
200.9321950533332
 30
0.0
 40
1.007194199999998
 50
179.4423199999992
 51
239.76658000000239
  0
ARC
  5
1B413
  8
AM_0
 10
44.421416550135532
 20
201.9819150533333
 30
0.0
 40
1.003051899999998
 50
179.99423000000149
 51
243.7873499999987
  0
LINE
  5
1B414
  8
AM_0
 10
45.218386550135172
 20
200.46199505333331
 30
0.0
 11
43.978396550135358
 21
201.0819750533332
 31
0.0
  0
LINE
  5
1B415
  8
AM_0
 10
45.198366550135233
 20
201.44202505333331
 30
0.0
 11
43.918396550135398
 21
202.22199505333319
 31
0.0
  0
ARC
  5
1B416
  8
AM_0
 10
45.724026550135463
 20
206.83231505333319
 30
0.0
 40
1.0103179999999981
 50
237.31141999999971
 51
269.67985999999871
  0
LINE
  5
1B417
  8
AM_0
 10
45.418366550135488
 20
206.1220150533332
 30
0.0
 11
45.418366550135488
 21
206.60199505333321
 31
0.0
  0
ARC
  5
1B418
  8
AM_0
 10
44.423366550135349
 20
204.11301505333321
 30
0.0
 40
1.0050607999999981
 50
180.62839999999809
 51
242.44118999999611
  0
LINE
  5
1B419
  8
AM_0
 10
53.218386550135278
 20
197.92200505333309
 30
0.0
 11
55.638366550135402
 21
197.92200505333309
 31
0.0
  0
ARC
  5
1B41A
  8
AM_0
 10
53.209536550135347
 20
196.42305505333309
 30
0.0
 40
1.498966199999999
 50
11.503675999999111
 51
89.661532000000776
  0
LINE
  5
1B41B
  8
AM_0
 10
55.158386550135461
 20
200.6019950533331
 30
0.0
 11
55.67837655013534
 21
197.622005053333
 31
0.0
  0
ARC
  5
1B41C
  8
AM_0
 10
70.925686550135183
 20
194.4693050533329
 30
0.0
 40
1.4927157999999989
 50
359.71971999999869
 51
90.280279000000149
  0
LINE
  5
1B41D
  8
AM_0
 10
57.598386550135046
 20
190.681995053333
 30
0.0
 11
70.918366550135275
 21
190.68199505333291
 31
0.0
  0
LINE
  5
1B41E
  8
AM_0
 10
57.538386550135328
 20
185.64200505333309
 30
0.0
 11
71.038386550135314
 21
185.64200505333289
 31
0.0
  0
LINE
  5
1B41F
  8
AM_0
 10
57.558376550135321
 20
187.28200505333311
 30
0.0
 11
70.918366550135275
 21
187.28200505333291
 31
0.0
  0
ARC
  5
1B420
  8
AM_0
 10
70.924526550135155
 20
189.18816505333291
 30
0.0
 40
1.4938501999999989
 50
359.76363999999819
 51
90.236360999997885
  0
ARC
  5
1B421
  8
AM_0
 10
70.922516550135228
 20
185.7861250533328
 30
0.0
 40
1.4958794999999989
 50
359.84195999999997
 51
90.158045999997867
  0
LINE
  5
1B422
  8
AM_0
 10
72.418366550135275
 20
187.06200505333291
 30
0.0
 11
72.418366550135275
 21
194.4619950533328
 31
0.0
  0
LINE
  5
1B423
  8
AM_0
 10
57.658386550135319
 20
195.9619950533332
 30
0.0
 11
70.918366550135374
 21
195.961995053333
 31
0.0
  0
ARC
  5
1B424
  8
AM_0
 10
56.969576550135343
 20
213.94199505333299
 30
0.0
 40
1.0000386999999991
 50
89.495667999998616
 51
270.50433999999689
  0
ARC
  5
1B425
  8
AM_0
 10
56.969576550135571
 20
223.94199505333299
 30
0.0
 40
1.0000386999999991
 50
89.495667999998616
 51
270.50433999999689
  0
ARC
  5
1B426
  8
AM_0
 10
48.412076550135332
 20
216.20832505333331
 30
0.0
 40
1.0063294999999981
 50
270.359249999996
 51
359.64075000000321
  0
ARC
  5
1B427
  8
AM_0
 10
48.72280655013536
 20
212.5664450533333
 30
0.0
 40
0.69557893
 50
359.63465999999971
 51
90.365335999997228
  0
LINE
  5
1B428
  8
AM_0
 10
45.418366550135488
 20
213.5619850533333
 30
0.0
 11
45.418366550135488
 21
214.6220150533332
 31
0.0
  0
LINE
  5
1B429
  8
AM_0
 10
45.238376550135392
 20
213.3420150533332
 30
0.0
 11
44.038386550135307
 21
213.86200505333321
 31
0.0
  0
LINE
  5
1B42A
  8
AM_0
 10
45.638366550135522
 20
213.2620050533331
 30
0.0
 11
48.718386550135392
 21
213.2620050533331
 31
0.0
  0
ARC
  5
1B42B
  8
AM_0
 10
45.631616550135497
 20
214.2682250533332
 30
0.0
 40
1.0062370999999981
 50
246.99538000000081
 51
270.38475999999559
  0
LINE
  5
1B42C
  8
AM_0
 10
45.578366550135442
 20
215.20200505333321
 30
0.0
 11
48.418366550135602
 21
215.20200505333321
 31
0.0
  0
ARC
  5
1B42D
  8
AM_0
 10
45.56103655013554
 20
216.2169850533333
 30
0.0
 40
1.015145099999998
 50
253.8323300000007
 51
270.978379999997
  0
ARC
  5
1B42E
  8
AM_0
 10
44.417906550135513
 20
214.78669505333309
 30
0.0
 40
0.9995326999999996
 50
180.2681299999993
 51
247.6849499999995
  0
ARC
  5
1B42F
  8
AM_0
 10
44.422816550135508
 20
216.5653450533332
 30
0.0
 40
1.004450099999999
 50
180.19014999999891
 51
253.54964999999649
  0
LINE
  5
1B430
  8
AM_0
 10
45.278346550135538
 20
215.24201505333329
 30
0.0
 11
44.138366550135629
 21
215.60202505333311
 31
0.0
  0
LINE
  5
1B431
  8
AM_0
 10
45.698366550135461
 20
206.9620150533332
 30
0.0
 11
48.418366550135481
 21
206.9620150533332
 31
0.0
  0
ARC
  5
1B432
  8
AM_0
 10
45.71062655013543
 20
207.96866505333321
 30
0.0
 40
1.0067359999999981
 50
239.41356999999849
 51
269.30193999999898
  0
ARC
  5
1B433
  8
AM_0
 10
44.420106550135401
 20
207.68460505333309
 30
0.0
 40
1.0017338999999981
 50
180.14953999999639
 51
237.2623700000035
  0
LINE
  5
1B434
  8
AM_0
 10
45.198366550135233
 20
207.10199505333321
 30
0.0
 11
43.918366550135467
 21
207.84201505333331
 31
0.0
  0
ARC
  5
1B435
  8
AM_0
 10
44.423916550135338
 20
208.71128505333331
 30
0.0
 40
1.005592899999999
 50
180.52837999999801
 51
239.81867000000071
  0
ARC
  5
1B436
  8
AM_0
 10
56.098386550135501
 20
213.90201505333309
 30
0.0
 40
1.6800001999999989
 50
90.00000299999769
 51
270.0
  0
LINE
  5
1B437
  8
AM_0
 10
49.418366550135488
 20
214.64200505333321
 30
0.0
 11
54.590137408945687
 21
214.64200505333301
 31
0.0
  0
ARC
  5
1B438
  8
AM_0
 10
48.427396550135882
 20
221.95102505333321
 30
0.0
 40
0.9910124499999998
 50
359.47800000000359
 51
90.521999999995685
  0
ARC
  5
1B439
  8
AM_0
 10
48.410486550135829
 20
225.94989505333319
 30
0.0
 40
1.0079203999999991
 50
270.44848999999721
 51
359.551510000002
  0
LINE
  5
1B43A
  8
AM_0
 10
45.418366550135708
 20
223.32199505333321
 30
0.0
 11
45.418366550135708
 21
224.6820150533332
 31
0.0
  0
ARC
  5
1B43B
  8
AM_0
 10
44.410586550135797
 20
223.94980505333319
 30
0.0
 40
0.9922232599999995
 50
89.549154999998095
 51
180.45085000000009
  0
ARC
  5
1B43C
  8
AM_0
 10
44.42745655013573
 20
223.95108505333329
 30
0.0
 40
1.009131199999999
 50
180.5161299999987
 51
269.48387000000042
  0
LINE
  5
1B43D
  8
AM_0
 10
48.418366550135723
 20
222.94199505333319
 30
0.0
 11
44.418366550135701
 21
222.94199505333319
 31
0.0
  0
LINE
  5
1B43E
  8
AM_0
 10
48.418366550135723
 20
224.94199505333319
 30
0.0
 11
44.418366550135701
 21
224.94199505333319
 31
0.0
  0
ARC
  5
1B43F
  8
AM_0
 10
55.881076550135731
 20
223.92200505333301
 30
0.0
 40
1.460102599999999
 50
89.321007000001941
 51
270.67899999999781
  0
ARC
  5
1B440
  8
AM_0
 10
62.568592549488578
 20
207.744425053333
 30
0.0
 40
1.0127640999999981
 50
314.49466000000029
 51
4.3932527999969251
  0
LINE
  5
1B441
  8
AM_0
 10
59.418366550135488
 20
209.44199505333299
 30
0.0
 11
59.418366550135488
 21
212.2219950533331
 31
0.0
  0
ARC
  5
1B442
  8
AM_0
 10
58.601942549488513
 20
207.35041505333311
 30
0.0
 40
4.9987220999999984
 50
5.4135635000029314
 51
80.599940999998594
  0
ARC
  5
1B443
  8
AM_0
 10
73.418366550135275
 20
213.94199505333279
 30
0.0
 40
1.000000699999998
 50
90.00000299999769
 51
270.0
  0
ARC
  5
1B444
  8
AM_0
 10
73.418366550135474
 20
223.94199505333279
 30
0.0
 40
1.000000699999998
 50
90.00000299999769
 51
270.0
  0
LINE
  5
1B445
  8
AM_0
 10
40.924466550136231
 20
264.16385505333329
 30
0.0
 11
40.924466550135882
 21
233.72022505333311
 31
0.0
  0
LINE
  5
1B446
  8
AM_0
 10
41.918366550135708
 20
228.9419950533331
 30
0.0
 11
41.91836655013617
 21
268.94199505333307
 31
0.0
  0
ARC
  5
1B447
  8
AM_0
 10
48.427396550135882
 20
231.95102505333321
 30
0.0
 40
0.9910124499999998
 50
359.47800000000359
 51
90.521999999995685
  0
ARC
  5
1B448
  8
AM_0
 10
48.410486550135943
 20
235.94989505333319
 30
0.0
 40
1.0079203999999991
 50
270.44848999999721
 51
359.551510000002
  0
LINE
  5
1B449
  8
AM_0
 10
45.418366550135708
 20
233.3420150533332
 30
0.0
 11
45.418366550135822
 21
234.5619850533331
 31
0.0
  0
ARC
  5
1B44A
  8
AM_0
 10
44.410586550135903
 20
233.94980505333319
 30
0.0
 40
0.9922232599999995
 50
89.549154999998095
 51
180.45085000000009
  0
ARC
  5
1B44B
  8
AM_0
 10
44.427456550135837
 20
233.95108505333329
 30
0.0
 40
1.009131199999999
 50
180.5161299999987
 51
269.48387000000042
  0
LINE
  5
1B44C
  8
AM_0
 10
48.418366550135829
 20
234.9419950533333
 30
0.0
 11
44.418366550135829
 21
234.9419950533333
 31
0.0
  0
LINE
  5
1B44D
  8
AM_0
 10
48.418366550135723
 20
232.9419950533333
 30
0.0
 11
44.418366550135701
 21
232.9419950533333
 31
0.0
  0
LINE
  5
1B44E
  8
AM_0
 10
41.918366550135708
 20
228.9419950533331
 30
0.0
 11
43.418366550135723
 21
228.8219950533331
 31
0.0
  0
LINE
  5
1B44F
  8
AM_0
 10
41.424466550135783
 20
230.95020505333321
 30
0.0
 11
41.924466550135769
 21
230.99021505333329
 31
0.0
  0
LINE
  5
1B450
  8
AM_0
 10
40.924466550135882
 20
233.72022505333311
 30
0.0
 11
41.424466550135783
 21
230.95020505333321
 31
0.0
  0
ARC
  5
1B451
  8
AM_0
 10
55.750516550135778
 20
233.93201505333309
 30
0.0
 40
1.3300231999999981
 50
89.661532000000776
 51
270.33848000000398
  0
ARC
  5
1B452
  8
AM_0
 10
56.978396550135912
 20
233.94199505333319
 30
0.0
 40
1.000012399999999
 50
90.00000299999769
 51
270.0
  0
ARC
  5
1B453
  8
AM_0
 10
48.410486550136042
 20
245.94989505333319
 30
0.0
 40
1.0079203999999991
 50
270.44848999999721
 51
359.551510000002
  0
ARC
  5
1B454
  8
AM_0
 10
48.427396550136109
 20
241.95102505333321
 30
0.0
 40
0.9910124499999998
 50
359.47800000000359
 51
90.521999999995685
  0
ARC
  5
1B455
  8
AM_0
 10
44.42745655013595
 20
243.9510850533332
 30
0.0
 40
1.009131199999999
 50
180.5161299999987
 51
269.48387000000042
  0
LINE
  5
1B456
  8
AM_0
 10
48.418366550135943
 20
242.9419950533333
 30
0.0
 11
44.418366550135929
 21
242.9419950533333
 31
0.0
  0
LINE
  5
1B457
  8
AM_0
 10
45.418366550135929
 20
243.3420150533332
 30
0.0
 11
45.418366550135929
 21
244.5019950533331
 31
0.0
  0
ARC
  5
1B458
  8
AM_0
 10
44.410586550136031
 20
243.94980505333319
 30
0.0
 40
0.9922232599999995
 50
89.549154999998095
 51
180.45085000000009
  0
LINE
  5
1B459
  8
AM_0
 10
48.418366550135943
 20
244.94199505333319
 30
0.0
 11
44.418366550135929
 21
244.94199505333319
 31
0.0
  0
POINT
  5
1B45A
  8
AM_0
 10
40.924466550135989
 20
248.9419950533331
 30
0.0
  0
ARC
  5
1B45B
  8
AM_0
 10
55.688506550136019
 20
243.9520050533331
 30
0.0
 40
1.270038399999998
 50
89.554810999999845
 51
270.44518999999917
  0
ARC
  5
1B45C
  8
AM_0
 10
56.97839655013604
 20
243.94199505333299
 30
0.0
 40
1.000012399999999
 50
90.00000299999769
 51
270.0
  0
ARC
  5
1B45D
  8
AM_0
 10
73.418366550135573
 20
233.94199505333299
 30
0.0
 40
1.000000699999998
 50
90.00000299999769
 51
270.0
  0
ARC
  5
1B45E
  8
AM_0
 10
73.418366550135715
 20
243.94199505333279
 30
0.0
 40
1.000000699999998
 50
90.00000299999769
 51
270.0
  0
ARC
  5
1B45F
  8
AM_0
 10
56.969666550136253
 20
263.9419950533333
 30
0.0
 40
1.000037999999998
 50
89.500716000000125
 51
270.49928999999509
  0
ARC
  5
1B460
  8
AM_0
 10
56.969666550136139
 20
253.94199505333299
 30
0.0
 40
1.000037999999998
 50
89.500716000000125
 51
270.49928999999509
  0
ARC
  5
1B461
  8
AM_0
 10
48.427396550136343
 20
255.93296505333319
 30
0.0
 40
0.9910124499999998
 50
269.47800000000427
 51
0.5220023799994215
  0
ARC
  5
1B462
  8
AM_0
 10
48.410486550136042
 20
251.93412505333319
 30
0.0
 40
1.0079203999999991
 50
0.4484899600005287
 51
89.55151199999527
  0
LINE
  5
1B463
  8
AM_0
 10
45.418366550136057
 20
254.5420050533333
 30
0.0
 11
45.418366550136057
 21
253.38199505333321
 31
0.0
  0
ARC
  5
1B464
  8
AM_0
 10
44.427456550136071
 20
253.9329050533332
 30
0.0
 40
1.009131199999999
 50
90.516126000001066
 51
179.48386999999951
  0
LINE
  5
1B465
  8
AM_0
 10
48.418366550136042
 20
254.94199505333319
 30
0.0
 11
44.418366550136049
 21
254.94199505333319
 31
0.0
  0
LINE
  5
1B466
  8
AM_0
 10
48.418366550136042
 20
252.94199505333319
 30
0.0
 11
44.418366550136049
 21
252.94199505333319
 31
0.0
  0
ARC
  5
1B467
  8
AM_0
 10
44.410586550136131
 20
253.93418505333329
 30
0.0
 40
0.9922232599999995
 50
179.54915999999619
 51
270.45085000000091
  0
ARC
  5
1B468
  8
AM_0
 10
55.688386550136002
 20
253.9469950533331
 30
0.0
 40
1.265004999999999
 50
90.00000299999769
 51
270.0
  0
ARC
  5
1B469
  8
AM_0
 10
48.427396550136343
 20
265.93296505333319
 30
0.0
 40
0.9910124499999998
 50
269.47800000000427
 51
0.5220023799994215
  0
ARC
  5
1B46A
  8
AM_0
 10
48.410486550136277
 20
261.93412505333322
 30
0.0
 40
1.0079203999999991
 50
0.4484899600005287
 51
89.55151199999527
  0
LINE
  5
1B46B
  8
AM_0
 10
40.924466550136231
 20
264.16382505333308
 30
0.0
 11
41.424466550136231
 21
266.93381505333332
 31
0.0
  0
ARC
  5
1B46C
  8
AM_0
 10
44.427456550136171
 20
263.93290505333317
 30
0.0
 40
1.009131199999999
 50
90.516126000001066
 51
179.48386999999951
  0
LINE
  5
1B46D
  8
AM_0
 10
41.424466550136231
 20
266.93381505333332
 30
0.0
 11
41.924496550136141
 21
266.8938050533331
 31
0.0
  0
LINE
  5
1B46E
  8
AM_0
 10
48.418366550136177
 20
264.94199505333319
 30
0.0
 11
44.41836655013617
 21
264.94199505333319
 31
0.0
  0
LINE
  5
1B46F
  8
AM_0
 10
41.91836655013617
 20
268.94202505333328
 30
0.0
 11
43.418366550136177
 21
269.06202505333317
 31
0.0
  0
LINE
  5
1B470
  8
AM_0
 10
48.418366550136177
 20
262.94199505333319
 30
0.0
 11
44.41836655013617
 21
262.94199505333319
 31
0.0
  0
LINE
  5
1B471
  8
AM_0
 10
45.41836655013617
 20
264.54200505333313
 30
0.0
 11
45.41836655013617
 21
263.32199505333318
 31
0.0
  0
ARC
  5
1B472
  8
AM_0
 10
44.410586550136259
 20
263.93418505333312
 30
0.0
 40
0.9922232599999995
 50
179.54915999999619
 51
270.45085000000091
  0
ARC
  5
1B473
  8
AM_0
 10
55.748376550136072
 20
263.9520050533331
 30
0.0
 40
1.330000999999998
 50
90.00000299999769
 51
270.0
  0
ARC
  5
1B474
  8
AM_0
 10
73.418366550135829
 20
253.94199505333279
 30
0.0
 40
1.0000031999999981
 50
90.00000299999769
 51
270.0
  0
ARC
  5
1B475
  8
AM_0
 10
73.418366550135943
 20
263.94199505333302
 30
0.0
 40
1.0000031999999981
 50
90.00000299999769
 51
270.0
  0
LINE
  5
1B476
  8
AM_0
 10
218.41836655013589
 20
187.4419750533304
 30
0.0
 11
241.9183666591359
 21
187.44197505333091
 31
0.0
  0
LINE
  5
1B477
  8
AM_0
 10
236.4899009038225
 20
200.21324641523651
 30
0.0
 11
240.91836655013589
 21
200.21324641523651
 31
0.0
  0
ARC
  5
1B478
  8
AM_0
 10
213.54496937773149
 20
187.9419750533304
 30
0.0
 40
2.9999999999999978
 50
270.0
 51
324.31466528734541
1001
GENIUS_GENOBJ-N-FIL_13
1002
{
1000
OWNER
1000
GEN
1002
}
1001
GENIUS_GENODEF_13
1002
{
1000
HIER
1070
     0
1002
}
1002
{
1000
MANEDIT
1070
     0
1002
}
1002
{
1000
NOSEL
1070
     0
1002
}
1002
{
1000
BEHIND
1070
     0
1002
}
1002
{
1000
OTHER
1070
     0
1002
}
1002
{
1000
REACTOR
1002
}
  0
ARC
  5
1B479
  8
AM_0
 10
196.42745655013499
 20
185.95108505333141
 30
0.0
 40
1.009131199999999
 50
180.5161299999987
 51
269.48387000000042
  0
ARC
  5
1B47A
  8
AM_0
 10
189.22872655013509
 20
185.71899505333161
 30
0.0
 40
2.0170177999999992
 50
270.27370000000269
 51
345.14839999999123
  0
ARC
  5
1B47B
  8
AM_0
 10
189.22872655013509
 20
187.0789950533316
 30
0.0
 40
2.0170177999999992
 50
270.27370000000269
 51
345.14839999999123
  0
LINE
  5
1B47C
  8
AM_0
 10
204.418366550136
 20
184.94193505333021
 30
0.0
 11
204.418366550136
 21
188.9419350533303
 31
0.0
  0
LINE
  5
1B47D
  8
AM_0
 10
191.1783765501352
 20
184.54199505333139
 30
0.0
 11
192.7335290093439
 21
190.34011520199999
 31
0.0
  0
LINE
  5
1B47E
  8
AM_0
 10
204.418366550136
 20
184.9419750533304
 30
0.0
 11
213.54496937773149
 21
184.9419750533304
 31
0.0
  0
ARC
  5
1B47F
  8
AM_0
 10
189.22872655013509
 20
185.05899505333161
 30
0.0
 40
2.0170177999999992
 50
270.27370000000269
 51
345.14839999999123
  0
LINE
  5
1B480
  8
AM_0
 10
196.4183665501352
 20
184.9420050533314
 30
0.0
 11
204.4183665501352
 21
184.94200505333129
 31
0.0
  0
ARC
  5
1B481
  8
AM_0
 10
174.9183665501356
 20
221.94199505333171
 30
0.0
 40
0.9999999999999998
 50
90.0
 51
179.9999999999992
1001
GENIUS_GENOBJ-N-FIL_13
1002
{
1000
OWNER
1000
GEN
1002
}
1001
GENIUS_GENODEF_13
1002
{
1000
HIER
1070
     0
1002
}
1002
{
1000
MANEDIT
1070
     0
1002
}
1002
{
1000
NOSEL
1070
     0
1002
}
1002
{
1000
BEHIND
1070
     0
1002
}
1002
{
1000
OTHER
1070
     0
1002
}
1002
{
1000
REACTOR
1002
}
  0
ARC
  5
1B482
  8
AM_0
 10
174.91836655013549
 20
216.5719950533317
 30
0.0
 40
0.9999999999999998
 50
179.9999999999992
 51
270.0
1001
GENIUS_GENOBJ-N-FIL_13
1002
{
1000
OWNER
1000
GEN
1002
}
1001
GENIUS_GENODEF_13
1002
{
1000
HIER
1070
     0
1002
}
1002
{
1000
MANEDIT
1070
     0
1002
}
1002
{
1000
NOSEL
1070
     0
1002
}
1002
{
1000
BEHIND
1070
     0
1002
}
1002
{
1000
OTHER
1070
     0
1002
}
1002
{
1000
REACTOR
1002
}
  0
LINE
  5
1B483
  8
AM_0
 10
189.2383765501356
 20
212.9419950533316
 30
0.0
 11
129.4183665501356
 21
212.94199505333219
 31
0.0
  0
LINE
  5
1B484
  8
AM_0
 10
189.2383765501356
 20
214.9419950533316
 30
0.0
 11
129.4183665501356
 21
214.94199505333219
 31
0.0
  0
LINE
  5
1B485
  8
AM_0
 10
129.41836655013549
 20
212.21201505333221
 30
0.0
 11
189.2383765501356
 21
212.21201505333161
 31
0.0
  0
LINE
  5
1B486
  8
AM_0
 10
174.05819807832319
 20
222.4520050533315
 30
0.0
 11
193.4168779445244
 21
222.45200505333131
 31
0.0
  0
LINE
  5
1B487
  8
AM_0
 10
129.4183665501352
 20
187.08200505333221
 30
0.0
 11
189.23837655013531
 21
187.0820050533315
 31
0.0
  0
LINE
  5
1B488
  8
AM_0
 10
157.9183665501356
 20
215.5719950533319
 30
0.0
 11
129.4183665501356
 21
215.57199505333219
 31
0.0
  0
ARC
  5
1B489
  8
AM_0
 10
126.8671132198514
 20
223.94199508392731
 30
0.0
 40
1.000037999999998
 50
269.50071600000012
 51
90.499289999995085
  0
LINE
  5
1B48A
  8
AM_0
 10
158.9183665501356
 20
221.94199505333191
 30
0.0
 11
158.91836655013549
 21
216.5719950533319
 31
0.0
  0
LINE
  5
1B48B
  8
AM_0
 10
173.91836655013569
 20
221.94199505333171
 30
0.0
 11
173.9183665501356
 21
216.5719950533317
 31
0.0
  0
LINE
  5
1B48C
  8
AM_0
 10
173.9183665501356
 20
215.57199505333159
 30
0.0
 11
158.91836655013549
 21
215.5719950533319
 31
0.0
  0
ARC
  5
1B48D
  8
AM_0
 10
157.9183665501356
 20
216.5719950533319
 30
0.0
 40
0.9999999999999998
 50
270.0
 51
359.9999999999992
1001
GENIUS_GENOBJ-N-FIL_13
1002
{
1000
OWNER
1000
GEN
1002
}
1001
GENIUS_GENODEF_13
1002
{
1000
HIER
1070
     0
1002
}
1002
{
1000
MANEDIT
1070
     0
1002
}
1002
{
1000
NOSEL
1070
     0
1002
}
1002
{
1000
BEHIND
1070
     0
1002
}
1002
{
1000
OTHER
1070
     0
1002
}
1002
{
1000
REACTOR
1002
}
  0
ARC
  5
1B48E
  8
AM_0
 10
157.91836655013569
 20
221.94199505333191
 30
0.0
 40
0.9999999999999998
 50
359.9999999999992
 51
90.0
1001
GENIUS_GENOBJ-N-FIL_13
1002
{
1000
OWNER
1000
GEN
1002
}
1001
GENIUS_GENODEF_13
1002
{
1000
HIER
1070
     0
1002
}
1002
{
1000
MANEDIT
1070
     0
1002
}
1002
{
1000
NOSEL
1070
     0
1002
}
1002
{
1000
BEHIND
1070
     0
1002
}
1002
{
1000
OTHER
1070
     0
1002
}
1002
{
1000
REACTOR
1002
}
  0
CIRCLE
  5
1B48F
  8
AM_0
 10
163.9183665501356
 20
220.44196505333181
 30
0.0
 40
0.75
  0
CIRCLE
  5
1B490
  8
AM_0
 10
168.9183665501356
 20
220.44196505333181
 30
0.0
 40
0.75
  0
ARC
  5
1B491
  8
AM_0
 10
128.0884032198515
 20
233.93192505333229
 30
0.0
 40
1.330000999999998
 50
270.00000299999761
 51
90.0
  0
ARC
  5
1B492
  8
AM_0
 10
126.8671132198515
 20
233.94193505333229
 30
0.0
 40
1.000037999999998
 50
269.50071600000012
 51
90.499289999995085
  0
ARC
  5
1B493
  8
AM_0
 10
128.14839321985161
 20
243.93693505333221
 30
0.0
 40
1.265004999999999
 50
270.00000299999761
 51
90.0
  0
ARC
  5
1B494
  8
AM_0
 10
126.8671132198516
 20
243.94193505333229
 30
0.0
 40
1.000037999999998
 50
269.50071600000012
 51
90.499289999995085
  0
ARC
  5
1B495
  8
AM_0
 10
128.1483932198517
 20
253.94699505333219
 30
0.0
 40
1.265004999999999
 50
270.0
 51
89.999997000002296
  0
ARC
  5
1B496
  8
AM_0
 10
126.8671132198517
 20
253.94199505333211
 30
0.0
 40
1.000037999999998
 50
269.50071000000491
 51
90.499283999999861
  0
ARC
  5
1B497
  8
AM_0
 10
128.0884032198519
 20
263.95200505333219
 30
0.0
 40
1.330000999999998
 50
270.0
 51
89.999997000002296
  0
ARC
  5
1B498
  8
AM_0
 10
126.8671132198518
 20
263.94199505333228
 30
0.0
 40
1.000037999999998
 50
269.50071000000491
 51
90.499283999999861
  0
LINE
  5
1B499
  8
AM_0
 10
204.4183252834855
 20
211.801975053353
 30
0.0
 11
214.41832528347931
 21
211.80196394224171
 31
0.0
  0
LINE
  5
1B49A
  8
AM_0
 10
204.418366550136
 20
211.8019850533305
 30
0.0
 11
214.41836655013589
 21
211.8019850533305
 31
0.0
  0
LINE
  5
1B49B
  8
AM_0
 10
204.4183087279186
 20
196.90196505336209
 30
0.0
 11
214.41830872791249
 21
196.90195394225091
 31
0.0
  0
LINE
  5
1B49C
  8
AM_0
 10
204.418366550136
 20
196.90197505333049
 30
0.0
 11
214.41836655013589
 21
196.90197505333049
 31
0.0
  0
LINE
  5
1B49D
  8
AM_0
 10
189.2383765501354
 20
202.60199505333151
 30
0.0
 11
191.8183865501355
 21
202.60199505333139
 31
0.0
  0
ARC
  5
1B49E
  8
AM_0
 10
189.22872655013521
 20
189.09899505333161
 30
0.0
 40
2.0170177999999992
 50
270.27370000000269
 51
345.14839999999123
  0
LINE
  5
1B49F
  8
AM_0
 10
191.1783765501352
 20
188.58199505333141
 30
0.0
 11
193.9141865501353
 21
198.7819950533314
 31
0.0
  0
LINE
  5
1B4A0
  8
AM_0
 10
191.1783765501352
 20
186.5619950533314
 30
0.0
 11
193.82785569151059
 21
196.44012520199999
 31
0.0
  0
LINE
  5
1B4A1
  8
AM_0
 10
192.224424232302
 20
188.44200505333151
 30
0.0
 11
195.4183662990749
 21
188.44200505333151
 31
0.0
  0
ARC
  5
1B4A2
  8
AM_0
 10
194.66525143027911
 20
189.82199505333139
 30
0.0
 40
2.0
 50
90.0
 51
164.98570240157451
1001
GENIUS_GENOBJ-N-FIL_13
1002
{
1000
OWNER
1000
GEN
1002
}
1001
GENIUS_GENODEF_13
1002
{
1000
HIER
1070
     0
1002
}
1002
{
1000
MANEDIT
1070
     0
1002
}
1002
{
1000
NOSEL
1070
     0
1002
}
1002
{
1000
BEHIND
1070
     0
1002
}
1002
{
1000
OTHER
1070
     0
1002
}
1002
{
1000
REACTOR
1002
}
  0
LINE
  5
1B4A3
  8
AM_0
 10
192.9539708834686
 20
191.82199505333139
 30
0.0
 11
194.66525143027911
 21
191.82199505333139
 31
0.0
  0
LINE
  5
1B4A4
  8
AM_0
 10
193.1363608989686
 20
193.8620050533315
 30
0.0
 11
195.0353931124458
 21
193.8620050533315
 31
0.0
  0
ARC
  5
1B4A5
  8
AM_0
 10
195.0353931124458
 20
191.8620050533315
 30
0.0
 40
2.0
 50
90.0
 51
164.98570240157451
1001
GENIUS_GENODEF_13
1002
{
1000
HIER
1070
     0
1002
}
1002
{
1000
MANEDIT
1070
     0
1002
}
1002
{
1000
NOSEL
1070
     0
1002
}
1002
{
1000
BEHIND
1070
     0
1002
}
1002
{
1000
OTHER
1070
     0
1002
}
1002
{
1000
REACTOR
1002
}
1001
GENIUS_GENOBJ-N-FIL_13
1002
{
1000
OWNER
1000
GEN
1002
}
  0
LINE
  5
1B4A6
  8
AM_0
 10
191.1783765501352
 20
185.2019950533315
 30
0.0
 11
193.10367069151059
 21
192.38012520199999
 31
0.0
  0
LINE
  5
1B4A7
  8
AM_0
 10
196.41836655013529
 20
196.90200505333129
 30
0.0
 11
204.4183665501354
 21
196.90200505333121
 31
0.0
  0
LINE
  5
1B4A8
  8
AM_0
 10
194.4183665501354
 20
198.7820050533314
 30
0.0
 11
193.5183665501354
 21
198.7820050533314
 31
0.0
  0
LINE
  5
1B4A9
  8
AM_0
 10
195.4183665501354
 20
203.05936505333131
 30
0.0
 11
194.41836655013549
 21
202.48203505333149
 31
0.0
  0
LINE
  5
1B4AA
  8
AM_0
 10
191.8183865501355
 20
204.08200505333139
 30
0.0
 11
191.81838655013539
 21
200.48200505333151
 31
0.0
  0
ARC
  5
1B4AB
  8
AM_0
 10
196.0792265501353
 20
201.11521505333141
 30
0.0
 40
1.4868058999999989
 50
116.38977999999901
 51
165.7172600000001
  0
LINE
  5
1B4AC
  8
AM_0
 10
195.4183665501354
 20
202.0593650533315
 30
0.0
 11
194.41836655013549
 21
201.48200505333139
 31
0.0
  0
LINE
  5
1B4AD
  8
AM_0
 10
194.41836655013549
 20
206.0820050533313
 30
0.0
 11
195.41836655013549
 21
206.0820050533313
 31
0.0
  0
ARC
  5
1B4AE
  8
AM_0
 10
193.5183665501354
 20
204.08200505333139
 30
0.0
 40
1.699996899999999
 50
90.00000299999769
 51
179.99998000000369
  0
LINE
  5
1B4AF
  8
AM_0
 10
194.41836655013549
 20
205.7819950533314
 30
0.0
 11
193.5183665501354
 21
205.7819950533314
 31
0.0
  0
LINE
  5
1B4B0
  8
AM_0
 10
194.4183665501354
 20
198.48200505333131
 30
0.0
 11
195.4183665501352
 21
198.48200505333131
 31
0.0
  0
LINE
  5
1B4B1
  8
AM_0
 10
193.6835228989687
 20
197.92200505333139
 30
0.0
 11
195.4183663187448
 21
197.9220050533313
 31
0.0
  0
ARC
  5
1B4B2
  8
AM_0
 10
196.4267865501354
 20
197.91040505333149
 30
0.0
 40
1.008444499999998
 50
189.54607000000391
 51
269.52220000000051
  0
ARC
  5
1B4B3
  8
AM_0
 10
195.75957811244581
 20
195.92200505333139
 30
0.0
 40
2.0
 50
99.823049039721695
 51
164.98570240157451
1001
GENIUS_GENOBJ-N-FIL_13
1002
{
1000
OWNER
1000
GEN
1002
}
1001
GENIUS_GENODEF_13
1002
{
1000
HIER
1070
     0
1002
}
1002
{
1000
MANEDIT
1070
     0
1002
}
1002
{
1000
NOSEL
1070
     0
1002
}
1002
{
1000
BEHIND
1070
     0
1002
}
1002
{
1000
OTHER
1070
     0
1002
}
1002
{
1000
REACTOR
1002
}
  0
LINE
  5
1B4B4
  8
AM_0
 10
194.41836655013549
 20
206.0820050533313
 30
0.0
 11
194.4183665501354
 21
198.48200505333131
 31
0.0
  0
LINE
  5
1B4B5
  8
AM_0
 10
195.41836655013549
 20
206.0820050533313
 30
0.0
 11
195.4183665501352
 21
198.48200505333131
 31
0.0
  0
ARC
  5
1B4B6
  8
AM_0
 10
193.5183665501354
 20
200.48200505333151
 30
0.0
 40
1.7000007999999991
 50
180.0000100000002
 51
269.999979999998
  0
LINE
  5
1B4B7
  8
AM_0
 10
189.2383765501356
 20
212.21201505333161
 30
0.0
 11
195.41836634839501
 21
212.2120150533315
 31
0.0
  0
LINE
  5
1B4B8
  8
AM_0
 10
193.2383765501356
 20
215.57199505333139
 30
0.0
 11
189.2383765501356
 21
215.57199505333151
 31
0.0
  0
LINE
  5
1B4B9
  8
AM_0
 10
192.34315263666099
 20
222.9419950533314
 30
0.0
 11
174.9183665501356
 21
222.9419950533316
 31
0.0
  0
LINE
  5
1B4BA
  8
AM_0
 10
189.2383765501356
 20
215.57199505333151
 30
0.0
 11
174.91836655013549
 21
215.57199505333159
 31
0.0
  0
ARC
  5
1B4BB
  8
AM_0
 10
189.75838655013561
 20
213.9419950533314
 30
0.0
 40
1.0000073999999981
 50
270.0
 51
90.00000299999769
  0
LINE
  5
1B4BC
  8
AM_0
 10
189.75838655013561
 20
212.9419950533316
 30
0.0
 11
189.2383765501356
 21
212.9419950533316
 31
0.0
  0
LINE
  5
1B4BD
  8
AM_0
 10
189.75838655013561
 20
214.9419950533316
 30
0.0
 11
189.2383765501356
 21
214.9419950533316
 31
0.0
  0
LINE
  5
1B4BE
  8
AM_0
 10
196.41836655013549
 20
211.80201505333139
 30
0.0
 11
204.41836655013549
 21
211.8020150533313
 31
0.0
  0
ARC
  5
1B4BF
  8
AM_0
 10
193.23226655013539
 20
213.8920050533313
 30
0.0
 40
1.680010999999999
 50
270.20802999999808
 51
89.791969000000421
  0
ARC
  5
1B4C0
  8
AM_0
 10
192.3431525843009
 20
223.94193505333149
 30
0.0
 40
1.0000031999999981
 50
270.00000299999761
 51
90.0
  0
ARC
  5
1B4C1
  8
AM_0
 10
193.43315258430081
 20
223.91691505333139
 30
0.0
 40
1.465000399999999
 50
270.00000299999761
 51
90.0
  0
ARC
  5
1B4C2
  8
AM_0
 10
218.41836655013589
 20
184.4419750533304
 30
0.0
 40
2.9999999999999978
 50
90.0
 51
144.31466528734541
1001
GENIUS_GENOBJ-N-FIL_13
1002
{
1000
OWNER
1000
GEN
1002
}
1001
GENIUS_GENODEF_13
1002
{
1000
HIER
1070
     0
1002
}
1002
{
1000
MANEDIT
1070
     0
1002
}
1002
{
1000
NOSEL
1070
     0
1002
}
1002
{
1000
BEHIND
1070
     0
1002
}
1002
{
1000
OTHER
1070
     0
1002
}
1002
{
1000
REACTOR
1002
}
  0
ARC
  5
1B4C3
  8
AM_0
 10
236.4899009038225
 20
203.21324641523651
 30
0.0
 40
2.9999999999999978
 50
186.6607143203168
 51
270.0
1001
GENIUS_GENOBJ-N-FIL_13
1002
{
1000
OWNER
1000
GEN
1002
}
1001
GENIUS_GENODEF_13
1002
{
1000
HIER
1070
     0
1002
}
1002
{
1000
MANEDIT
1070
     0
1002
}
1002
{
1000
NOSEL
1070
     0
1002
}
1002
{
1000
BEHIND
1070
     0
1002
}
1002
{
1000
OTHER
1070
     0
1002
}
1002
{
1000
REACTOR
1002
}
  0
LINE
  5
1B4C4
  8
AM_0
 10
285.41836847368199
 20
200.4419255655915
 30
0.0
 11
285.41836847368199
 21
168.94193460630021
 31
0.0
  0
LINE
  5
1B4C5
  8
AM_0
 10
289.91836847368188
 20
200.4419255655915
 30
0.0
 11
289.91836847368199
 21
168.94193460630021
 31
0.0
  0
LINE
  5
1B4C6
  8
AM_0
 10
370.41840031616829
 20
200.4419255655915
 30
0.0
 11
370.41840031616829
 21
168.94193460630021
 31
0.0
  0
LINE
  5
1B4C7
  8
AM_0
 10
365.9184003161684
 20
200.4419255655915
 30
0.0
 11
365.91840031616829
 21
168.94193460630021
 31
0.0
  0
LINE
  5
1B4C9
  8
ｶｸﾚｾﾝ2
 10
266.41840031616829
 20
168.94193460630021
 30
0.0
 11
266.41840031616857
 21
164.44193460630029
 31
0.0
  0
LINE
  5
1B4CA
  8
ｶｸﾚｾﾝ2
 10
254.41840031616829
 20
168.94193460630021
 30
0.0
 11
254.41840031616829
 21
164.44193460630029
 31
0.0
  0
LINE
  5
1B4CB
  8
ﾁｭｳｼﾝｾﾝ1
 10
260.41840031616829
 20
177.44193460630029
 30
0.0
 11
260.41840031616829
 21
155.94193460630029
 31
0.0
  0
LINE
  5
1B4CC
  8
AM_0
 10
285.41836847368199
 20
178.94193460630021
 30
0.0
 11
289.91836847368199
 21
178.94193460630021
 31
0.0
  0
LINE
  5
1B4CD
  8
AM_0
 10
370.41840031616829
 20
178.94193460630021
 30
0.0
 11
365.91840031616829
 21
178.94193460630021
 31
0.0
  0
LINE
  5
1B4CE
  8
AM_0
 10
304.91836847368222
 20
203.94196505333051
 30
0.0
 11
350.91840031616829
 21
203.94196505333051
 31
0.0
  0
ARC
  5
1B4CF
  8
AM_0
 10
252.91841557495729
 20
228.46467776085009
 30
0.0
 40
5.0000000000000044
 50
179.99999749551819
 51
256.39103932404521
  0
LINE
  5
1B4D0
  8
AM_0
 10
283.36036312337927
 20
209.44193460630021
 30
0.0
 11
246.9183666591359
 21
209.44193460630021
 31
0.0
  0
ARC
  5
1B4D1
  8
AM_0
 10
246.9183666591359
 20
204.44193460630029
 30
0.0
 40
5.0
 50
90.0
 51
180.0
1001
GENIUS_GENOBJ-N-FIL_13
1002
{
1000
OWNER
1000
GEN
1002
}
1001
GENIUS_GENODEF_13
1002
{
1000
HIER
1070
     0
1002
}
1002
{
1000
MANEDIT
1070
     0
1002
}
1002
{
1000
NOSEL
1070
     0
1002
}
1002
{
1000
BEHIND
1070
     0
1002
}
1002
{
1000
OTHER
1070
     0
1002
}
1002
{
1000
REACTOR
1002
}
  0
CIRCLE
  5
1B4D2
  8
AM_0
 10
253.9183670047637
 20
196.94248350362531
 30
0.0
 40
10.5
  0
CIRCLE
  5
1B4D3
  8
AM_0
 10
253.9183670047637
 20
196.94248350362531
 30
0.0
 40
8.5
  0
CIRCLE
  5
1B4D4
  8
ｽﾝﾎﾟｳｾﾝ
 10
253.9183670047637
 20
196.94248350362531
 30
0.0
 40
4.1881011839521536
  0
CIRCLE
  5
1B4D5
  8
AM_0
 10
253.9183670047637
 20
196.94248350362531
 30
0.0
 40
4.9999999999999831
  0
LINE
  5
1B4D6
  8
ﾁｭｳｼﾝｾﾝ1
 10
245.41836675994409
 20
196.94248350362531
 30
0.0
 11
262.41839776716262
 21
196.94248350362531
 31
0.0
  0
LINE
  5
1B4D7
  8
AM_0
 10
262.4183670047637
 20
201.84996079173709
 30
0.0
 11
253.9183670047637
 21
206.75743807984901
 31
0.0
  0
LINE
  5
1B4D8
  8
AM_0
 10
253.91836700476389
 20
187.1275289274015
 30
0.0
 11
262.4183670047637
 21
192.03500621551379
 31
0.0
  0
LINE
  5
1B4D9
  8
AM_0
 10
245.4183670047637
 20
201.84996079173661
 30
0.0
 11
245.4183670047637
 21
192.0350062155135
 31
0.0
  0
LINE
  5
1B4DA
  8
ﾁｭｳｼﾝｾﾝ1
 10
253.9183670047637
 20
205.44239875694271
 30
0.0
 11
253.9183670047637
 21
188.44256825030811
 31
0.0
  0
LINE
  5
1B4DB
  8
AM_0
 10
245.4183670047637
 20
192.0350062155135
 30
0.0
 11
253.91836700476389
 21
187.1275289274015
 31
0.0
  0
LINE
  5
1B4DC
  8
AM_0
 10
253.9183670047637
 20
206.75743807984901
 30
0.0
 11
245.4183670047637
 21
201.84996079173661
 31
0.0
  0
LINE
  5
1B4DD
  8
AM_0
 10
262.4183670047637
 20
192.03500621551379
 30
0.0
 11
262.4183670047637
 21
201.84996079173709
 31
0.0
  0
ARC
  5
1B4DE
  8
AM_0
 10
248.91841557495729
 20
211.94196505333051
 30
0.0
 40
12.000000000000011
 50
17.0669923345671
 51
76.391044333000011
  0
ARC
  5
1B4DF
  8
AM_0
 10
243.91841557495729
 20
219.94196505333051
 30
0.0
 40
2.0000000000000022
 50
179.99999749551819
 51
270.0
  0
ARC
  5
1B4E0
  8
AM_0
 10
248.91841557495729
 20
211.94196505333051
 30
0.0
 40
6.0
 50
335.37536181382779
 51
90.000005008956919
  0
LINE
  5
1B4E1
  8
AM_0N
 10
250.36179124793111
 20
214.44196505333059
 30
0.0
 11
247.47503990198359
 21
214.44196505333059
 31
0.0
  0
LINE
  5
1B4E2
  8
AM_0N
 10
247.47503990198319
 20
209.44196505333051
 30
0.0
 11
250.36179124793139
 21
209.44196505333051
 31
0.0
  0
ARC
  5
1B4E3
  8
AM_0N
 10
248.91841557495729
 20
211.94196505333051
 30
0.0
 40
5.0
 50
329.99959712732129
 51
215.98342326876471
  0
ARC
  5
1B4E4
  8
AM_0N
 10
248.91841557495729
 20
211.94196505333051
 30
0.0
 40
2.886751345948126
 50
299.9987913623911
 51
240.0012086376089
  0
LINE
  5
1B4E5
  8
AM_0N
 10
247.47503990198359
 20
214.44196505333059
 30
0.0
 11
246.0316642290091
 21
211.94196505333051
 31
0.0
  0
LINE
  5
1B4E6
  8
AM_0N
 10
246.0316642290091
 20
211.94196505333051
 30
0.0
 11
247.47503990198319
 21
209.44196505333051
 31
0.0
  0
LINE
  5
1B4E7
  8
AM_0N
 10
251.80516692090541
 20
211.94196505333051
 30
0.0
 11
250.36179124793111
 21
214.44196505333059
 31
0.0
  0
LINE
  5
1B4E8
  8
AM_0N
 10
250.36179124793139
 20
209.44196505333051
 30
0.0
 11
251.80516692090541
 21
211.94196505333051
 31
0.0
  0
LINE
  5
1B4E9
  8
AM_0
 10
248.91841557495729
 20
217.94196505333051
 30
0.0
 11
243.91841557495729
 21
217.94196505333051
 31
0.0
  0
LINE
  5
1B4EA
  8
AM_0
 10
262.2387406968619
 20
209.44193460630021
 30
0.0
 11
260.38995793335567
 21
215.4638385274516
 31
0.0
  0
ARC
  5
1B4EB
  8
AM_0
 10
304.91836847368222
 20
248.94196505333051
 30
0.0
 40
45.0
 50
241.3755299670519
 51
270.0
  0
LINE
  5
1B4EC
  8
AM_0
 10
285.41836847368199
 20
200.4419255655915
 30
0.0
 11
289.91836847368188
 21
200.4419255655915
 31
0.0
  0
LINE
  5
1B4ED
  8
AM_0
 10
247.91841557495729
 20
269.41925234581089
 30
0.0
 11
247.91841557495729
 21
228.46467776085001
 31
0.0
  0
ARC
  5
1B4EF
  8
AM_0
 10
350.91840031616829
 20
248.94196505333051
 30
0.0
 40
45.0
 50
270.0
 51
298.62447003294812
  0
LINE
  5
1B4F0
  8
AM_0
 10
370.41840031616829
 20
200.4419255655915
 30
0.0
 11
365.9184003161684
 21
200.4419255655915
 31
0.0
  0
ARC
  5
1B4F5
  8
AM_0
 10
109.9183665501366
 20
333.44196505333241
 30
0.0
 40
7.5000000000000018
 50
359.9999999999992
 51
179.9999999999992
  0
ARC
  5
1B4F6
  8
AM_0
 10
109.9183665501366
 20
333.44196505333241
 30
0.0
 40
3.9999999999999978
 50
359.9999999999992
 51
179.9999999999992
  0
ARC
  5
1B4F7
  8
AM_0
 10
108.9183665501368
 20
334.4419650533323
 30
0.0
 40
7.499999999999992
 50
90.0
 51
179.9999999999992
  0
LINE
  5
1B4F8
  8
AM_0
 10
74.418366550136838
 20
314.86200505333301
 30
0.0
 11
115.4183665501365
 21
314.86200505333261
 31
0.0
  0
LINE
  5
1B4F9
  8
AM_0
 10
74.418366550136838
 20
314.18201505333298
 30
0.0
 11
115.4183665501365
 21
314.18201505333241
 31
0.0
  0
LINE
  5
1B4FA
  8
AM_0
 10
74.418366550136838
 20
312.83200505333292
 30
0.0
 11
115.4183665501365
 21
312.83200505333241
 31
0.0
  0
LINE
  5
1B4FB
  8
AM_0
 10
174.4183665501368
 20
345.94196505333161
 30
0.0
 11
99.418366550136952
 21
345.94196505333252
 31
0.0
  0
LINE
  5
1B4FC
  8
AM_0
 10
96.918366550136724
 20
325.94196505333269
 30
0.0
 11
176.9183665501366
 21
325.94196505333161
 31
0.0
  0
LINE
  5
1B4FD
  8
AM_0
 10
176.91836655013671
 20
322.44196505333173
 30
0.0
 11
96.918366550136639
 21
322.44196505333281
 31
0.0
  0
LINE
  5
1B4FE
  8
AM_0
 10
95.418366550136625
 20
295.2819350533328
 30
0.0
 11
189.23837655013651
 21
295.28193505333172
 31
0.0
  0
LINE
  5
1B4FF
  8
AM_0
 10
157.9293208369636
 20
274.94199505333188
 30
0.0
 11
65.968386550136074
 21
274.94199505333302
 31
0.0
  0
LINE
  5
1B500
  8
AM_0
 10
64.878386550136383
 20
275.43201505333309
 30
0.0
 11
158.77858837827131
 21
275.4320150533319
 31
0.0
  0
LINE
  5
1B501
  8
AM_0
 10
65.098386550136155
 20
285.66199505333287
 30
0.0
 11
129.4183665501364
 21
285.66199505333208
 31
0.0
  0
LINE
  5
1B502
  8
AM_0
 10
129.4183665501364
 20
284.94199505333222
 30
0.0
 11
65.968386550136074
 21
284.94199505333302
 31
0.0
  0
LINE
  5
1B503
  8
AM_0
 10
65.098386550136155
 20
282.3119850533331
 30
0.0
 11
129.4183665501364
 21
282.31198505333231
 31
0.0
  0
LINE
  5
1B504
  8
AM_0
 10
129.4183665501364
 20
282.94199505333211
 30
0.0
 11
65.968386550136074
 21
282.94199505333302
 31
0.0
  0
LINE
  5
1B505
  8
AM_0
 10
74.418366550136724
 20
310.80201505333292
 30
0.0
 11
129.41836655013671
 21
310.80201505333218
 31
0.0
  0
LINE
  5
1B506
  8
AM_0
 10
192.3431526366615
 20
272.94199505333142
 30
0.0
 11
65.968386550135961
 21
272.94199505333302
 31
0.0
  0
LINE
  5
1B507
  8
AM_0
 10
64.87838655013627
 20
272.50199505333308
 30
0.0
 11
193.4331525843015
 21
272.50199505333148
 31
0.0
  0
ARC
  5
1B50A
  8
AM_0
 10
74.420866550136907
 20
312.86716505333283
 30
0.0
 40
1.994845199999999
 50
90.071658000004405
 51
165.6371999999983
  0
LINE
  5
1B50B
  8
AM_0
 10
96.418366550136625
 20
295.29200505333267
 30
0.0
 11
59.418366550136632
 21
293.14600321390287
 31
0.0
  0
ARC
  5
1B50C
  8
AM_0
 10
74.415586550136695
 20
310.83478505333278
 30
0.0
 40
1.9972083999999981
 50
89.919857000000462
 51
180.0801399999981
  0
ARC
  5
1B50D
  8
AM_0
 10
74.414766550136733
 20
308.80561505333287
 30
0.0
 40
1.9963852999999989
 50
89.896163000000016
 51
180.10384000000181
  0
ARC
  5
1B50E
  8
AM_0
 10
74.412936550136692
 20
312.18744505333279
 30
0.0
 40
1.9945768999999991
 50
89.844008000000017
 51
180.15599000000191
  0
LINE
  5
1B50F
  8
AM_0
 10
59.418366550136632
 20
297.29200505333318
 30
0.0
 11
59.418366550136398
 21
283.25199505333319
 31
0.0
  0
LINE
  5
1B510
  8
AM_0
 10
49.418366550136398
 20
283.2519950533333
 30
0.0
 11
59.418366550136398
 21
283.25199505333319
 31
0.0
  0
LINE
  5
1B511
  8
AM_0
 10
49.418366550136511
 20
291.63199505333318
 30
0.0
 11
59.418366550136511
 21
291.63199505333313
 31
0.0
  0
ARC
  5
1B512
  8
AM_0
 10
45.56103655013635
 20
281.66700505333318
 30
0.0
 40
1.015145099999998
 50
89.02161899999912
 51
106.16766999999901
  0
ARC
  5
1B513
  8
AM_0
 10
48.412076550136128
 20
281.67569505333307
 30
0.0
 40
1.0063294999999981
 50
0.3592537599964821
 51
89.640748000000954
  0
ARC
  5
1B514
  8
AM_0
 10
48.427396550136557
 20
275.93296505333319
 30
0.0
 40
0.9910124499999998
 50
269.47800000000427
 51
0.5220023799994215
  0
ARC
  5
1B515
  8
AM_0
 10
48.410486550136397
 20
271.93412505333322
 30
0.0
 40
1.0079203999999991
 50
0.4484899600005287
 51
89.55151199999527
  0
LINE
  5
1B516
  8
AM_0
 10
48.418366550136398
 20
274.94199505333319
 30
0.0
 11
44.418366550136398
 21
274.94199505333319
 31
0.0
  0
ARC
  5
1B517
  8
AM_0
 10
44.422816550136289
 20
281.31867505333332
 30
0.0
 40
1.004450099999999
 50
106.4503500000035
 51
179.80984999999939
  0
LINE
  5
1B518
  8
AM_0
 10
45.278376550136272
 20
282.64200505333309
 30
0.0
 11
44.138366550136418
 21
282.2820250533332
 31
0.0
  0
LINE
  5
1B519
  8
AM_0
 10
48.418366550136277
 20
272.94199505333319
 30
0.0
 11
44.41836655013627
 21
272.94199505333319
 31
0.0
  0
LINE
  5
1B51A
  8
AM_0
 10
45.41836655013639
 20
274.56198505333339
 30
0.0
 11
45.418366550136277
 21
273.2020050533331
 31
0.0
  0
ARC
  5
1B51B
  8
AM_0
 10
44.410586550136372
 20
273.93418505333329
 30
0.0
 40
0.9922232599999995
 50
179.54915999999619
 51
270.45085000000091
  0
ARC
  5
1B51C
  8
AM_0
 10
44.427456550136299
 20
273.93290505333317
 30
0.0
 40
1.009131199999999
 50
90.516126000001066
 51
179.48386999999951
  0
LINE
  5
1B51D
  8
AM_0
 10
45.718386550136422
 20
292.06198505333327
 30
0.0
 11
49.418366550136511
 21
292.06198505333327
 31
0.0
  0
ARC
  5
1B51E
  8
AM_0
 10
48.412966550136503
 20
289.91660505333323
 30
0.0
 40
1.005422699999998
 50
0.308192380001273
 51
89.691810999999603
  0
ARC
  5
1B51F
  8
AM_0
 10
44.423916550136248
 20
289.17273505333321
 30
0.0
 40
1.005592899999999
 50
120.18132999999931
 51
179.47162000000031
  0
LINE
  5
1B520
  8
AM_0
 10
45.698366550136477
 20
290.92200505333329
 30
0.0
 11
48.418366550136511
 21
290.92200505333329
 31
0.0
  0
ARC
  5
1B521
  8
AM_0
 10
45.724026550136493
 20
291.05170505333319
 30
0.0
 40
1.0103179999999981
 50
90.320139999994765
 51
122.6885800000003
  0
ARC
  5
1B522
  8
AM_0
 10
45.710626550136453
 20
289.91535505333309
 30
0.0
 40
1.0067359999999981
 50
90.698060999998503
 51
120.586430000001
  0
LINE
  5
1B523
  8
AM_0
 10
45.418366550136511
 20
291.76200505333298
 30
0.0
 11
45.418366550136511
 21
291.28199505333328
 31
0.0
  0
ARC
  5
1B524
  8
AM_0
 10
44.420106550136438
 20
290.1993750533332
 30
0.0
 40
1.0017338999999981
 50
122.7376300000042
 51
179.85046000000179
  0
LINE
  5
1B525
  8
AM_0
 10
45.198396550136387
 20
290.78199505333328
 30
0.0
 11
43.918396550136428
 21
290.04196505333317
 31
0.0
  0
LINE
  5
1B526
  8
AM_0
 10
45.178376550136463
 20
291.90201505333312
 30
0.0
 11
43.878356550136559
 21
291.04203505333328
 31
0.0
  0
LINE
  5
1B527
  8
AM_0
 10
45.578366550136252
 20
282.6820150533332
 30
0.0
 11
48.418366550136398
 21
282.6820150533332
 31
0.0
  0
ARC
  5
1B528
  8
AM_0
 10
44.417906550136422
 20
283.09732505333329
 30
0.0
 40
0.9995326999999996
 50
112.3150500000002
 51
179.73186999999899
  0
LINE
  5
1B529
  8
AM_0
 10
45.638366550136418
 20
284.62201505333331
 30
0.0
 11
48.718386550136302
 21
284.62201505333331
 31
0.0
  0
ARC
  5
1B52A
  8
AM_0
 10
45.6316165501364
 20
283.61579505333322
 30
0.0
 40
1.0062370999999981
 50
89.615244000002448
 51
113.00461999999921
  0
LINE
  5
1B52B
  8
AM_0
 10
45.41836655013639
 20
284.32199505333318
 30
0.0
 11
45.41836655013639
 21
283.26200505333321
 31
0.0
  0
LINE
  5
1B52C
  8
AM_0
 10
45.238376550136309
 20
284.54200505333318
 30
0.0
 11
44.038386550136252
 21
284.02201505333318
 31
0.0
  0
ARC
  5
1B52D
  8
AM_0
 10
65.098386550136155
 20
283.98700505333278
 30
0.0
 40
1.6750062999999991
 50
90.00000299999769
 51
270.0
  0
ARC
  5
1B52E
  8
AM_0
 10
65.968386550135961
 20
273.9419950533329
 30
0.0
 40
1.0000031999999981
 50
90.00000299999769
 51
270.0
  0
ARC
  5
1B52F
  8
AM_0
 10
64.87838655013627
 20
273.967015053333
 30
0.0
 40
1.465000399999999
 50
90.00000299999769
 51
270.0
  0
ARC
  5
1B530
  8
AM_0
 10
73.418366550136057
 20
273.94199505333279
 30
0.0
 40
1.0000031999999981
 50
90.00000299999769
 51
270.0
  0
ARC
  5
1B531
  8
AM_0
 10
65.968386550136074
 20
283.94199505333279
 30
0.0
 40
1.0000031999999981
 50
90.00000299999769
 51
270.0
  0
ARC
  5
1B532
  8
AM_0
 10
62.568282549489481
 20
290.15216505333291
 30
0.0
 40
1.0041366999999981
 50
354.84883999999471
 51
45.797436000002982
  0
ARC
  5
1B533
  8
AM_0
 10
59.039562549489339
 20
286.61005505333321
 30
0.0
 40
6.0039071999999978
 50
45.223693000002818
 51
86.382713999995673
  0
ARC
  5
1B534
  8
AM_0
 10
58.583332549489683
 20
290.53977505333302
 30
0.0
 40
5.0078935999999974
 50
279.59872000000132
 51
354.52531999999968
  0
ARC
  5
1B535
  8
AM_0
 10
73.41836655013617
 20
283.94199505333279
 30
0.0
 40
1.0000031999999981
 50
90.00000299999769
 51
270.0
  0
ARC
  5
1B536
  8
AM_0
 10
57.640226550136511
 20
299.92859505333303
 30
0.0
 40
1.9934333999999989
 50
89.765883999999247
 51
169.7880299999994
  0
ARC
  5
1B537
  8
AM_0
 10
57.590056550136737
 20
305.21662505333319
 30
0.0
 40
1.995389499999999
 50
90.048066999997786
 51
167.98461999999901
  0
LINE
  5
1B538
  8
AM_0
 10
49.418366550136632
 20
297.29200505333318
 30
0.0
 11
59.418366550136632
 21
297.29200505333318
 31
0.0
  0
ARC
  5
1B539
  8
AM_0
 10
57.525696550136793
 20
310.24420505333308
 30
0.0
 40
1.9977811999999979
 50
89.923080999997794
 51
165.86776999999611
  0
ARC
  5
1B53A
  8
AM_0
 10
57.551176550136802
 20
308.61652505333308
 30
0.0
 40
1.995482299999999
 50
89.79345799999912
 51
166.80591999999939
  0
LINE
  5
1B53B
  8
AM_0
 10
55.638396550136576
 20
305.63199505333313
 30
0.0
 11
54.678376550136598
 21
301.16199505333299
 31
0.0
  0
ARC
  5
1B53C
  8
AM_0
 10
53.227566550136537
 20
305.54480505333299
 30
0.0
 40
1.5028080999999991
 50
270.03078999999502
 51
346.42217999999627
  0
LINE
  5
1B53D
  8
AM_0
 10
45.698366550136591
 20
296.58200505333321
 30
0.0
 11
49.418366550136632
 21
296.58200505333321
 31
0.0
  0
ARC
  5
1B53E
  8
AM_0
 10
48.411316550136682
 20
294.43494505333319
 30
0.0
 40
1.0070831999999981
 50
0.4015779799999958
 51
89.598422000001392
  0
ARC
  5
1B53F
  8
AM_0
 10
44.425536550136471
 20
296.95182505333321
 30
0.0
 40
1.007194199999998
 50
120.23341999999749
 51
180.5576799999991
  0
LINE
  5
1B540
  8
AM_0
 10
45.218386550136302
 20
297.42200505333318
 30
0.0
 11
43.978366550136563
 21
296.80201505333321
 31
0.0
  0
ARC
  5
1B541
  8
AM_0
 10
45.711886550136562
 20
295.57090505333309
 30
0.0
 40
1.0112084999999991
 50
90.765686999999119
 51
120.5188099999981
  0
LINE
  5
1B542
  8
AM_0
 10
45.658386550136569
 20
297.54200505333313
 30
0.0
 11
48.918366550136398
 21
297.54200505333313
 31
0.0
  0
LINE
  5
1B543
  8
AM_0
 10
45.698366550136591
 20
298.68201505333332
 30
0.0
 11
48.918366550136398
 21
298.68201505333332
 31
0.0
  0
ARC
  5
1B544
  8
AM_0
 10
45.709256550136608
 20
297.68024505333312
 30
0.0
 40
1.001807999999998
 50
90.622819999997361
 51
120.6616699999951
  0
ARC
  5
1B545
  8
AM_0
 10
45.695956550136529
 20
296.53757505333323
 30
0.0
 40
1.005138299999998
 50
92.142290999997442
 51
118.36794000000209
  0
LINE
  5
1B546
  8
AM_0
 10
45.418366550136611
 20
298.42200505333318
 30
0.0
 11
45.418366550136611
 21
297.90201505333312
 31
0.0
  0
LINE
  5
1B547
  8
AM_0
 10
45.198396550136529
 20
298.5420050533333
 30
0.0
 11
43.918396550136542
 21
297.8219950533333
 31
0.0
  0
ARC
  5
1B548
  8
AM_0
 10
44.4233665501365
 20
293.7709750533333
 30
0.0
 40
1.0050607999999981
 50
117.5588100000039
 51
179.3716000000002
  0
LINE
  5
1B549
  8
AM_0
 10
45.678376550136598
 20
295.4419950533333
 30
0.0
 11
48.418366550136611
 21
295.4419950533333
 31
0.0
  0
ARC
  5
1B54A
  8
AM_0
 10
45.676666550136588
 20
294.42881505333321
 30
0.0
 40
1.0131911999999981
 50
89.903723999998817
 51
118.1687600000003
  0
LINE
  5
1B54B
  8
AM_0
 10
45.418366550136611
 20
296.32199505333313
 30
0.0
 11
45.418366550136611
 21
295.78199505333322
 31
0.0
  0
ARC
  5
1B54C
  8
AM_0
 10
44.417356550136667
 20
294.79654505333309
 30
0.0
 40
0.9989832599999996
 50
119.9653600000028
 51
179.68761000000021
  0
LINE
  5
1B54D
  8
AM_0
 10
45.198366550136349
 20
295.32199505333318
 30
0.0
 11
43.958376550136563
 21
294.66202505333331
 31
0.0
  0
ARC
  5
1B54E
  8
AM_0
 10
44.421416550136648
 20
295.90210505333329
 30
0.0
 40
1.003051899999998
 50
116.2126500000013
 51
180.00576999999689
  0
LINE
  5
1B54F
  8
AM_0
 10
45.198366550136349
 20
296.44202505333328
 30
0.0
 11
43.918366550136611
 21
295.6620250533332
 31
0.0
  0
ARC
  5
1B550
  8
AM_0
 10
53.209596550136652
 20
301.48615505333322
 30
0.0
 40
1.504139799999999
 50
269.95424999999852
 51
347.55525000000222
  0
LINE
  5
1B551
  8
AM_0
 10
53.208376550136563
 20
299.98200505333301
 30
0.0
 11
55.628386550136611
 21
299.98200505333301
 31
0.0
  0
LINE
  5
1B552
  8
AM_0
 10
55.138396550136576
 20
297.29203505333322
 30
0.0
 11
55.678406550136501
 21
300.2820250533332
 31
0.0
  0
LINE
  5
1B553
  8
AM_0
 10
53.228396550136722
 20
304.04200505333313
 30
0.0
 11
55.288386550136472
 21
304.04200505333313
 31
0.0
  0
LINE
  5
1B554
  8
AM_0
 10
55.58840655013671
 20
310.73200505333313
 30
0.0
 11
54.708406550136488
 21
307.2020050533331
 31
0.0
  0
LINE
  5
1B555
  8
AM_0
 10
53.24837655013674
 20
306.06198505333322
 30
0.0
 11
54.898376550136611
 21
306.06198505333322
 31
0.0
  0
LINE
  5
1B556
  8
AM_0
 10
49.418366550136632
 20
306.32238275118942
 30
0.0
 11
54.238376550136522
 21
306.44199505333302
 31
0.0
  0
LINE
  5
1B557
  8
AM_0
 10
55.608396550136717
 20
309.07199505333313
 30
0.0
 11
54.688386550136549
 21
305.19199505333302
 31
0.0
  0
ARC
  5
1B558
  8
AM_0
 10
53.246676550136733
 20
307.5691050533332
 30
0.0
 40
1.507096899999999
 50
270.06481999999522
 51
345.90217999999351
  0
LINE
  5
1B559
  8
AM_0
 10
72.418366550136739
 20
310.83200505333281
 30
0.0
 11
72.418366550136625
 21
303.42200505333278
 31
0.0
  0
LINE
  5
1B55A
  8
AM_0
 10
57.648376550136391
 20
301.92200505333301
 30
0.0
 11
70.918366550136625
 21
301.92200505333278
 31
0.0
  0
ARC
  5
1B55B
  8
AM_0
 10
70.912716550136793
 20
303.42768505333288
 30
0.0
 40
1.5056744999999989
 50
270.21551999999878
 51
359.78447000000023
  0
LINE
  5
1B55C
  8
AM_0
 10
57.588376550136672
 20
307.212015053333
 30
0.0
 11
70.918366550136625
 21
307.21201505333272
 31
0.0
  0
LINE
  5
1B55D
  8
AM_0
 10
57.558376550136821
 20
310.61200505333312
 30
0.0
 11
70.918366550136739
 21
310.61200505333278
 31
0.0
  0
LINE
  5
1B55E
  8
AM_0
 10
57.528376550136961
 20
312.24201505333309
 30
0.0
 11
71.028376550136954
 21
312.24201505333292
 31
0.0
  0
ARC
  5
1B55F
  8
AM_0
 10
70.91454655013672
 20
312.11585505333289
 30
0.0
 40
1.5038474999999989
 50
270.1463999999965
 51
359.85360000000259
  0
ARC
  5
1B560
  8
AM_0
 10
71.032016550136859
 20
313.74887505333288
 30
0.0
 40
1.5068882999999991
 50
269.8622299999995
 51
345.12306999999839
  0
ARC
  5
1B561
  8
AM_0
 10
70.916596550136887
 20
308.71381505333278
 30
0.0
 40
1.5017978999999979
 50
270.06854999999888
 51
359.93145000000032
  0
LINE
  5
1B562
  8
AM_0
 10
98.418366550136739
 20
329.44196505333241
 30
0.0
 11
98.418366550136952
 21
344.94196505333252
 31
0.0
  0
LINE
  5
1B563
  8
AM_0
 10
96.918366550136639
 20
322.44196505333281
 30
0.0
 11
96.918366550136867
 21
341.94196505333258
 31
0.0
  0
LINE
  5
1B564
  8
AM_0
 10
105.9183665501367
 20
325.94196505333252
 30
0.0
 11
105.9183665501368
 21
333.44196505333252
 31
0.0
  0
LINE
  5
1B565
  8
AM_0
 10
102.4183665501366
 20
325.94196505333252
 30
0.0
 11
102.4183665501366
 21
333.44196505333252
 31
0.0
  0
LINE
  5
1B566
  8
AM_0
 10
96.918366550136724
 20
329.44196505333258
 30
0.0
 11
100.4183665501367
 21
329.44196505333241
 31
0.0
  0
ARC
  5
1B567
  8
AM_0
 10
100.4183665501367
 20
330.44196505333252
 30
0.0
 40
1.0
 50
270.0
 51
359.9999999999992
  0
LINE
  5
1B568
  8
AM_0
 10
101.4183665501367
 20
330.44196505333252
 30
0.0
 11
101.4183665501368
 21
334.44196505333252
 31
0.0
  0
ARC
  5
1B569
  8
AM_0
 10
99.418366550136952
 20
344.94196505333252
 30
0.0
 40
1.0
 50
90.0
 51
179.9999999999992
  0
LINE
  5
1B56A
  8
AM_0
 10
96.918366550136867
 20
341.94196505333258
 30
0.0
 11
98.418366550136867
 21
341.94196505333241
 31
0.0
  0
LINE
  5
1B571
  8
AM_0
 10
218.41836655013589
 20
310.44195505333062
 30
0.0
 11
245.62678949869951
 21
310.44195505333022
 31
0.0
  0
LINE
  5
1B572
  8
AM_0
 10
236.4899009038237
 20
297.67068369142459
 30
0.0
 11
240.91836655013589
 21
297.67068369142441
 31
0.0
  0
LINE
  5
1B573
  8
AM_0
 10
129.41836655013671
 20
310.80192505333218
 30
0.0
 11
189.23837655013671
 21
310.8019250533315
 31
0.0
  0
ARC
  5
1B574
  8
AM_0
 10
174.91836655013631
 20
275.94193505333169
 30
0.0
 40
0.9999999999999998
 50
179.9999999999992
 51
270.0
1001
GENIUS_GENOBJ-N-FIL_13
1002
{
1000
OWNER
1000
GEN
1002
}
1001
GENIUS_GENODEF_13
1002
{
1000
HIER
1070
     0
1002
}
1002
{
1000
MANEDIT
1070
     0
1002
}
1002
{
1000
NOSEL
1070
     0
1002
}
1002
{
1000
BEHIND
1070
     0
1002
}
1002
{
1000
OTHER
1070
     0
1002
}
1002
{
1000
REACTOR
1002
}
  0
ARC
  5
1B575
  8
AM_0
 10
174.9183665501364
 20
281.31193505333169
 30
0.0
 40
0.9999999999999998
 50
90.0
 51
179.9999999999992
1001
GENIUS_GENOBJ-N-FIL_13
1002
{
1000
OWNER
1000
GEN
1002
}
1001
GENIUS_GENODEF_13
1002
{
1000
HIER
1070
     0
1002
}
1002
{
1000
MANEDIT
1070
     0
1002
}
1002
{
1000
NOSEL
1070
     0
1002
}
1002
{
1000
BEHIND
1070
     0
1002
}
1002
{
1000
OTHER
1070
     0
1002
}
1002
{
1000
REACTOR
1002
}
  0
LINE
  5
1B576
  8
AM_0
 10
189.23837655013639
 20
282.94193505333158
 30
0.0
 11
129.4183665501364
 21
282.9419350533322
 31
0.0
  0
LINE
  5
1B577
  8
AM_0
 10
189.23837655013639
 20
284.94193505333158
 30
0.0
 11
129.4183665501364
 21
284.9419350533322
 31
0.0
  0
LINE
  5
1B578
  8
AM_0
 10
129.4183665501364
 20
285.67191505333221
 30
0.0
 11
189.23837655013651
 21
285.67191505333147
 31
0.0
  0
LINE
  5
1B579
  8
AM_0
 10
174.0581447220012
 20
275.43201505333172
 30
0.0
 11
193.4320699947786
 21
275.4320150533315
 31
0.0
  0
LINE
  5
1B57A
  8
AM_0
 10
176.9183665501366
 20
329.44196505333161
 30
0.0
 11
119.4183665501367
 21
329.44196505333241
 31
0.0
  0
LINE
  5
1B57B
  8
AM_0
 10
115.4183665501368
 20
322.44196505333258
 30
0.0
 11
115.4183665501365
 21
310.8019250533327
 31
0.0
  0
LINE
  5
1B57C
  8
AM_0
 10
157.9183665501364
 20
282.31193505333181
 30
0.0
 11
129.4183665501364
 21
282.31193505333209
 31
0.0
  0
ARC
  5
1B57D
  8
AM_0
 10
126.8671132198519
 20
273.94199505333211
 30
0.0
 40
1.000037999999998
 50
269.50071000000491
 51
90.499283999999861
  0
LINE
  5
1B57E
  8
AM_0
 10
173.9183665501364
 20
282.31193505333158
 30
0.0
 11
158.9183665501364
 21
282.31193505333181
 31
0.0
  0
LINE
  5
1B57F
  8
AM_0
 10
173.9183665501364
 20
282.31193505333181
 30
0.0
 11
158.9183665501364
 21
282.31193505333198
 31
0.0
  0
ARC
  5
1B580
  8
AM_0
 10
157.91836655013631
 20
275.9419350533318
 30
0.0
 40
0.9999999999999998
 50
270.0
 51
359.9999999999992
1001
GENIUS_GENOBJ-N-FIL_13
1002
{
1000
OWNER
1000
GEN
1002
}
1001
GENIUS_GENODEF_13
1002
{
1000
HIER
1070
     0
1002
}
1002
{
1000
MANEDIT
1070
     0
1002
}
1002
{
1000
NOSEL
1070
     0
1002
}
1002
{
1000
BEHIND
1070
     0
1002
}
1002
{
1000
OTHER
1070
     0
1002
}
1002
{
1000
REACTOR
1002
}
  0
LINE
  5
1B581
  8
AM_0
 10
158.91836655013631
 20
275.94193505333192
 30
0.0
 11
158.9183665501364
 21
281.31193505333192
 31
0.0
  0
CIRCLE
  5
1B582
  8
AM_0
 10
163.91836655013631
 20
277.44196505333173
 30
0.0
 40
0.75
  0
ARC
  5
1B583
  8
AM_0
 10
157.9183665501364
 20
281.31193505333192
 30
0.0
 40
0.9999999999999998
 50
359.9999999999992
 51
90.0
1001
GENIUS_GENOBJ-N-FIL_13
1002
{
1000
OWNER
1000
GEN
1002
}
1001
GENIUS_GENODEF_13
1002
{
1000
HIER
1070
     0
1002
}
1002
{
1000
MANEDIT
1070
     0
1002
}
1002
{
1000
NOSEL
1070
     0
1002
}
1002
{
1000
BEHIND
1070
     0
1002
}
1002
{
1000
OTHER
1070
     0
1002
}
1002
{
1000
REACTOR
1002
}
  0
LINE
  5
1B584
  8
AM_0
 10
173.91836655013631
 20
275.94193505333169
 30
0.0
 11
173.9183665501364
 21
281.31193505333169
 31
0.0
  0
CIRCLE
  5
1B585
  8
AM_0
 10
168.91836655013631
 20
277.44196505333173
 30
0.0
 40
0.75
  0
LINE
  5
1B586
  8
AM_0
 10
163.222366550137
 20
348.94196505333173
 30
0.0
 11
127.61436655013711
 21
348.9419650533323
 31
0.0
  0
ARC
  5
1B587
  8
AM_0
 10
110.9183665501368
 20
334.4419650533323
 30
0.0
 40
7.4999999999999956
 50
359.9999999999992
 51
90.0
  0
LINE
  5
1B588
  8
AM_0
 10
113.9183665501367
 20
325.9419650533323
 30
0.0
 11
113.9183665501368
 21
333.44196505333241
 31
0.0
  0
LINE
  5
1B589
  8
AM_0
 10
117.4183665501365
 20
333.44196505333241
 30
0.0
 11
117.4183665501365
 21
325.9419650533323
 31
0.0
  0
ARC
  5
1B58A
  8
AM_0
 10
119.4183665501367
 20
330.4419650533323
 30
0.0
 40
1.0
 50
179.9999999999992
 51
270.0
  0
LINE
  5
1B58B
  8
AM_0
 10
118.4183665501368
 20
334.4419650533323
 30
0.0
 11
118.4183665501367
 21
330.4419650533323
 31
0.0
  0
LINE
  5
1B58C
  8
AM_0
 10
127.61436655013711
 20
348.9419650533323
 30
0.0
 11
122.42559103993391
 21
345.9419650533323
 31
0.0
  0
LINE
  5
1B58D
  8
AM_0
 10
110.9183665501368
 20
341.94196505333241
 30
0.0
 11
108.9183665501368
 21
341.94196505333241
 31
0.0
  0
LINE
  5
1B58E
  8
AM_0
 10
168.41836655013691
 20
345.94196505333173
 30
0.0
 11
163.222366550137
 21
348.94196505333173
 31
0.0
  0
LINE
  5
1B58F
  8
AM_0
 10
195.41836655013671
 20
312.9419950009713
 30
0.0
 11
187.71908784638489
 21
317.94196505333161
 31
0.0
  0
LINE
  5
1B590
  8
AM_0
 10
204.418366550136
 20
300.98195505333041
 30
0.0
 11
214.41836655013589
 21
300.98195505333041
 31
0.0
  0
LINE
  5
1B591
  8
AM_0
 10
204.418366550136
 20
286.0819450533304
 30
0.0
 11
214.41836655013589
 21
286.0819450533304
 31
0.0
  0
LINE
  5
1B592
  8
AM_0
 10
204.418366550136
 20
312.94195505333062
 30
0.0
 11
213.54496937773149
 21
312.94195505333062
 31
0.0
  0
ARC
  5
1B593
  8
AM_0
 10
193.51836655013639
 20
293.80192505333139
 30
0.0
 40
1.699996899999999
 50
180.00001999999469
 51
269.9999969999958
  0
LINE
  5
1B594
  8
AM_0
 10
195.4183665501364
 20
291.8019250533315
 30
0.0
 11
195.41836655013651
 21
299.4019250533313
 31
0.0
  0
LINE
  5
1B595
  8
AM_0
 10
194.41836655013651
 20
291.8019250533315
 30
0.0
 11
194.4183665501366
 21
299.4019250533313
 31
0.0
  0
LINE
  5
1B596
  8
AM_0
 10
192.3431526366615
 20
274.94199505333142
 30
0.0
 11
174.9074122633115
 21
274.94199505333171
 31
0.0
  0
LINE
  5
1B597
  8
AM_0
 10
193.23837655013639
 20
282.31193505333141
 30
0.0
 11
189.23837655013639
 21
282.31193505333141
 31
0.0
  0
LINE
  5
1B598
  8
AM_0
 10
189.23837655013651
 20
285.67191505333147
 30
0.0
 11
195.41836650081629
 21
285.67191505333142
 31
0.0
  0
LINE
  5
1B599
  8
AM_0
 10
189.23837655013639
 20
282.31193505333141
 30
0.0
 11
174.9183665501364
 21
282.31193505333158
 31
0.0
  0
LINE
  5
1B59A
  8
AM_0
 10
189.75838655013641
 20
282.94193505333158
 30
0.0
 11
189.23837655013639
 21
282.94193505333158
 31
0.0
  0
LINE
  5
1B59B
  8
AM_0
 10
189.75838655013641
 20
284.94193505333158
 30
0.0
 11
189.23837655013639
 21
284.94193505333158
 31
0.0
  0
ARC
  5
1B59C
  8
AM_0
 10
189.75838655013641
 20
283.94193505333152
 30
0.0
 40
1.0000073999999981
 50
269.9999969999958
 51
90.0
  0
ARC
  5
1B59D
  8
AM_0
 10
193.23226655013639
 20
283.9919250533315
 30
0.0
 40
1.680010999999999
 50
270.20803099999961
 51
89.791970000001896
  0
ARC
  5
1B59E
  8
AM_0
 10
192.34315258430161
 20
273.94199505333131
 30
0.0
 40
1.0000031999999981
 50
270.0
 51
89.999997000002296
  0
ARC
  5
1B59F
  8
AM_0
 10
193.4331525843015
 20
273.96701505333141
 30
0.0
 40
1.465000399999999
 50
270.0
 51
89.999997000002296
  0
LINE
  5
1B5A0
  8
AM_0
 10
196.41832528352421
 20
286.08191616441951
 30
0.0
 11
204.41832528351929
 21
286.08192505330828
 31
0.0
  0
LINE
  5
1B5A1
  8
AM_0
 10
194.41836655013651
 20
291.8019250533315
 30
0.0
 11
195.4183665501364
 21
291.8019250533315
 31
0.0
  0
LINE
  5
1B5A2
  8
AM_0
 10
194.41836655013651
 20
292.10193505333149
 30
0.0
 11
193.51836655013639
 21
292.10193505333149
 31
0.0
  0
ARC
  5
1B5A3
  8
AM_0
 10
189.2287265501366
 20
308.78493505333148
 30
0.0
 40
2.0170177999999992
 50
14.851600000007281
 51
89.726299999997252
  0
LINE
  5
1B5A4
  8
AM_0
 10
189.23837655013651
 20
295.28193505333172
 30
0.0
 11
191.81838655013669
 21
295.28193505333149
 31
0.0
  0
LINE
  5
1B5A5
  8
AM_0
 10
191.17837655013659
 20
309.30193505333142
 30
0.0
 11
193.91418655013649
 21
299.10193505333137
 31
0.0
  0
LINE
  5
1B5A6
  8
AM_0
 10
196.41830872795751
 20
300.98192616441031
 30
0.0
 11
204.41830872795251
 21
300.98193505329908
 31
0.0
  0
ARC
  5
1B5A7
  8
AM_0
 10
196.42678655013651
 20
299.9735250533314
 30
0.0
 40
1.008444499999998
 50
90.477799999999576
 51
170.45392999999521
  0
LINE
  5
1B5A8
  8
AM_0
 10
194.4183665501366
 20
299.4019250533313
 30
0.0
 11
195.41836655013651
 21
299.4019250533313
 31
0.0
  0
ARC
  5
1B5A9
  8
AM_0
 10
193.51836655013639
 20
297.4019250533313
 30
0.0
 40
1.7000007999999991
 50
90.000020000002024
 51
179.99998999999809
  0
LINE
  5
1B5AA
  8
AM_0
 10
194.4183665501366
 20
299.1019250533314
 30
0.0
 11
193.51836655013639
 21
299.1019250533314
 31
0.0
  0
LINE
  5
1B5AB
  8
AM_0
 10
195.41836655013651
 20
294.82456505333153
 30
0.0
 11
194.4183665501366
 21
295.40189505333137
 31
0.0
  0
LINE
  5
1B5AC
  8
AM_0
 10
191.81838655013649
 20
293.80192505333139
 30
0.0
 11
191.81838655013669
 21
297.4019250533313
 31
0.0
  0
LINE
  5
1B5AD
  8
AM_0
 10
195.41836655013651
 20
295.82456505333141
 30
0.0
 11
194.4183665501366
 21
296.40192505333152
 31
0.0
  0
ARC
  5
1B5AE
  8
AM_0
 10
196.07922655013641
 20
296.76871505333128
 30
0.0
 40
1.4868058999999989
 50
194.28273999999831
 51
243.61022000000091
  0
LINE
  5
1B5AF
  8
AM_0
 10
195.41836646950901
 20
312.94199505333142
 30
0.0
 11
204.41836655013671
 21
312.94199505333131
 31
0.0
  0
LINE
  5
1B5B0
  8
AM_0
 10
195.41836655013671
 20
311.94199505333131
 30
0.0
 11
195.4183665501366
 21
309.44199505333142
 31
0.0
  0
ARC
  5
1B5B1
  8
AM_0
 10
196.41836655013671
 20
311.94199505333131
 30
0.0
 40
0.9999999999999998
 50
90.00000299999769
 51
180.0000100000002
  0
LINE
  5
1B5B2
  8
AM_0
 10
191.1383665501366
 20
309.44192505333137
 30
0.0
 11
195.41836655013651
 21
309.44192505333137
 31
0.0
  0
ARC
  5
1B5B3
  8
AM_0
 10
213.54496937773149
 20
309.94195505333062
 30
0.0
 40
2.9999999999999978
 50
35.68533471265463
 51
90.0
1001
GENIUS_GENOBJ-N-FIL_13
1002
{
1000
OWNER
1000
GEN
1002
}
1001
GENIUS_GENODEF_13
1002
{
1000
HIER
1070
     0
1002
}
1002
{
1000
MANEDIT
1070
     0
1002
}
1002
{
1000
NOSEL
1070
     0
1002
}
1002
{
1000
BEHIND
1070
     0
1002
}
1002
{
1000
OTHER
1070
     0
1002
}
1002
{
1000
REACTOR
1002
}
  0
ARC
  5
1B5B4
  8
AM_0
 10
218.41836655013589
 20
313.4419550533305
 30
0.0
 40
2.9999999999999978
 50
215.68533471265459
 51
270.0
1001
GENIUS_GENOBJ-N-FIL_13
1002
{
1000
OWNER
1000
GEN
1002
}
1001
GENIUS_GENODEF_13
1002
{
1000
HIER
1070
     0
1002
}
1002
{
1000
MANEDIT
1070
     0
1002
}
1002
{
1000
NOSEL
1070
     0
1002
}
1002
{
1000
BEHIND
1070
     0
1002
}
1002
{
1000
OTHER
1070
     0
1002
}
1002
{
1000
REACTOR
1002
}
  0
ARC
  5
1B5B5
  8
AM_0
 10
236.4899009038237
 20
294.6706836914247
 30
0.0
 40
2.9999999999999978
 50
90.0
 51
173.33928567968309
1001
GENIUS_GENODEF_13
1002
{
1000
HIER
1070
     0
1002
}
1002
{
1000
MANEDIT
1070
     0
1002
}
1002
{
1000
NOSEL
1070
     0
1002
}
1002
{
1000
BEHIND
1070
     0
1002
}
1002
{
1000
OTHER
1070
     0
1002
}
1002
{
1000
REACTOR
1002
}
1001
GENIUS_GENOBJ-N-FIL_13
1002
{
1000
OWNER
1000
GEN
1002
}
  0
LINE
  5
1B5B6
  8
AM_0
 10
175.4183665501366
 20
329.44196505333161
 30
0.0
 11
175.4183665501368
 21
344.94196505333161
 31
0.0
  0
LINE
  5
1B5B7
  8
AM_0
 10
176.9183665501366
 20
322.44196505333173
 30
0.0
 11
176.9183665501366
 21
329.44196505333161
 31
0.0
  0
LINE
  5
1B5B8
  8
AM_0
 10
175.41836655013671
 20
317.94196505333173
 30
0.0
 11
187.71908784638489
 21
317.94196505333161
 31
0.0
  0
LINE
  5
1B5B9
  8
AM_0
 10
175.4183665501368
 20
322.44196505333173
 30
0.0
 11
175.4183665501366
 21
317.94196505333173
 31
0.0
  0
ARC
  5
1B5BA
  8
AM_0
 10
174.4183665501368
 20
344.94196505333173
 30
0.0
 40
1.0
 50
359.9999999999992
 51
90.0
  0
ARC
  5
1B5BC
  8
AM_0
 10
302.42647221558229
 20
301.941957423936
 30
0.0
 40
5.0000000000000044
 50
14.477510525849899
 51
90.000005008956919
  0
ARC
  5
1B5BD
  8
AM_0
 10
317.91841557495729
 20
305.941957423936
 30
0.0
 40
11.0
 50
194.47751234709349
 51
345.52248765290642
  0
LINE
  5
1B5BE
  8
AM_0
 10
271.61369755737923
 20
306.94195742393589
 30
0.0
 11
302.42647221558229
 21
306.94195742393589
 31
0.0
  0
ARC
  5
1B5BF
  8
AM_0
 10
243.91841557495729
 20
293.941957423936
 30
0.0
 40
2.0000000000000022
 50
179.99999749551819
 51
270.0
  0
LINE
  5
1B5C0
  8
ﾁｭｳｼﾝｾﾝ1
 10
253.9183670047637
 20
309.4413618563533
 30
0.0
 11
253.9183670047637
 21
292.44153134971862
 31
0.0
  0
LINE
  5
1B5C1
  8
AM_0
 10
266.83388188355099
 20
303.40941042686558
 30
0.0
 11
260.38995793335567
 21
282.42009157920938
 31
0.0
  0
ARC
  5
1B5C2
  8
AM_0
 10
248.91841557495729
 20
285.941957423936
 30
0.0
 40
12.0
 50
283.60896067595479
 51
342.93301267439949
  0
CIRCLE
  5
1B5C3
  8
AM_0N
 10
248.91841557495729
 20
285.941957423936
 30
0.0
 40
5.0
  0
ARC
  5
1B5C4
  8
AM_0
 10
248.91841557495729
 20
285.941957423936
 30
0.0
 40
6.0
 50
270.0
 51
90.000005008956919
  0
ARC
  5
1B5C5
  8
AM_0
 10
243.91841557495729
 20
277.941957423936
 30
0.0
 40
2.0000000000000062
 50
90.000005008956919
 51
180.000000683243
  0
LINE
  5
1B5C6
  8
AM_0
 10
248.91841557495729
 20
279.94195742393589
 30
0.0
 11
243.91841557495729
 21
279.94195742393589
 31
0.0
  0
LINE
  5
1B5C7
  8
AM_0N
 10
250.36179124793111
 20
288.44195742393612
 30
0.0
 11
247.47503990198359
 21
288.44195742393612
 31
0.0
  0
LINE
  5
1B5C8
  8
AM_0N
 10
247.47503990198319
 20
283.441957423936
 30
0.0
 11
250.36179124793139
 21
283.441957423936
 31
0.0
  0
CIRCLE
  5
1B5C9
  8
AM_0N
 10
248.91841557495729
 20
285.941957423936
 30
0.0
 40
2.886751345948126
  0
LINE
  5
1B5CA
  8
AM_0N
 10
247.47503990198359
 20
288.44195742393612
 30
0.0
 11
246.0316642290091
 21
285.941957423936
 31
0.0
  0
LINE
  5
1B5CB
  8
AM_0
 10
248.91841557495729
 20
291.94195742393589
 30
0.0
 11
243.91841557495729
 21
291.94195742393589
 31
0.0
  0
LINE
  5
1B5CC
  8
AM_0N
 10
246.0316642290091
 20
285.941957423936
 30
0.0
 11
247.47503990198319
 21
283.441957423936
 31
0.0
  0
LINE
  5
1B5CD
  8
AM_0N
 10
251.80516692090541
 20
285.941957423936
 30
0.0
 11
250.36179124793111
 21
288.44195742393612
 31
0.0
  0
LINE
  5
1B5CE
  8
AM_0N
 10
250.36179124793139
 20
283.441957423936
 30
0.0
 11
251.80516692090541
 21
285.941957423936
 31
0.0
  0
LINE
  5
1B5CF
  8
ﾁｭｳｼﾝｾﾝ1
 10
245.41836675994409
 20
300.94144660303613
 30
0.0
 11
262.41839776716262
 21
300.94144660303613
 31
0.0
  0
POLYLINE
  5
1B5D0
  8
AM_0
 10
259.41836716317653
 20
300.94144660303613
 30
0.0
 66
     1
 70
     8
  0
VERTEX
  8
AM_0
  5
1C963
 10
259.418
 20
300.941
 30
0.000000
  70
    32
  0
VERTEX
  8
AM_0
  5
1C964
 10
259.412
 20
301.211
 30
0.000000
  70
    32
  0
VERTEX
  8
AM_0
  5
1C965
 10
259.392
 20
301.481
 30
0.000000
  70
    32
  0
VERTEX
  8
AM_0
  5
1C966
 10
259.359
 20
301.748
 30
0.000000
  70
    32
  0
VERTEX
  8
AM_0
  5
1C967
 10
259.313
 20
302.014
 30
0.000000
  70
    32
  0
VERTEX
  8
AM_0
  5
1C968
 10
259.254
 20
302.278
 30
0.000000
  70
    32
  0
VERTEX
  8
AM_0
  5
1C969
 10
259.182
 20
302.538
 30
0.000000
  70
    32
  0
VERTEX
  8
AM_0
  5
1C96A
 10
259.097
 20
302.794
 30
0.000000
  70
    32
  0
VERTEX
  8
AM_0
  5
1C96B
 10
259.000
 20
303.046
 30
0.000000
  70
    32
  0
VERTEX
  8
AM_0
  5
1C96C
 10
258.890
 20
303.293
 30
0.000000
  70
    32
  0
VERTEX
  8
AM_0
  5
1C96D
 10
258.769
 20
303.534
 30
0.000000
  70
    32
  0
VERTEX
  8
AM_0
  5
1C96E
 10
258.636
 20
303.769
 30
0.000000
  70
    32
  0
VERTEX
  8
AM_0
  5
1C96F
 10
258.491
 20
303.997
 30
0.000000
  70
    32
  0
VERTEX
  8
AM_0
  5
1C970
 10
258.336
 20
304.218
 30
0.000000
  70
    32
  0
VERTEX
  8
AM_0
  5
1C971
 10
258.170
 20
304.431
 30
0.000000
  70
    32
  0
VERTEX
  8
AM_0
  5
1C972
 10
257.994
 20
304.635
 30
0.000000
  70
    32
  0
VERTEX
  8
AM_0
  5
1C973
 10
257.807
 20
304.830
 30
0.000000
  70
    32
  0
VERTEX
  8
AM_0
  5
1C974
 10
257.612
 20
305.017
 30
0.000000
  70
    32
  0
VERTEX
  8
AM_0
  5
1C975
 10
257.408
 20
305.193
 30
0.000000
  70
    32
  0
VERTEX
  8
AM_0
  5
1C976
 10
257.195
 20
305.359
 30
0.000000
  70
    32
  0
VERTEX
  8
AM_0
  5
1C977
 10
256.974
 20
305.514
 30
0.000000
  70
    32
  0
VERTEX
  8
AM_0
  5
1C978
 10
256.746
 20
305.659
 30
0.000000
  70
    32
  0
VERTEX
  8
AM_0
  5
1C979
 10
256.511
 20
305.792
 30
0.000000
  70
    32
  0
VERTEX
  8
AM_0
  5
1C97A
 10
256.270
 20
305.913
 30
0.000000
  70
    32
  0
VERTEX
  8
AM_0
  5
1C97B
 10
256.023
 20
306.023
 30
0.000000
  70
    32
  0
VERTEX
  8
AM_0
  5
1C97C
 10
255.771
 20
306.120
 30
0.000000
  70
    32
  0
VERTEX
  8
AM_0
  5
1C97D
 10
255.515
 20
306.205
 30
0.000000
  70
    32
  0
VERTEX
  8
AM_0
  5
1C97E
 10
255.255
 20
306.277
 30
0.000000
  70
    32
  0
VERTEX
  8
AM_0
  5
1C97F
 10
254.991
 20
306.336
 30
0.000000
  70
    32
  0
VERTEX
  8
AM_0
  5
1C980
 10
254.725
 20
306.382
 30
0.000000
  70
    32
  0
VERTEX
  8
AM_0
  5
1C981
 10
254.457
 20
306.415
 30
0.000000
  70
    32
  0
VERTEX
  8
AM_0
  5
1C982
 10
254.188
 20
306.435
 30
0.000000
  70
    32
  0
VERTEX
  8
AM_0
  5
1C983
 10
253.918
 20
306.441
 30
0.000000
  70
    32
  0
VERTEX
  8
AM_0
  5
1C984
 10
253.648
 20
306.435
 30
0.000000
  70
    32
  0
VERTEX
  8
AM_0
  5
1C985
 10
253.379
 20
306.415
 30
0.000000
  70
    32
  0
VERTEX
  8
AM_0
  5
1C986
 10
253.111
 20
306.382
 30
0.000000
  70
    32
  0
VERTEX
  8
AM_0
  5
1C987
 10
252.845
 20
306.336
 30
0.000000
  70
    32
  0
VERTEX
  8
AM_0
  5
1C988
 10
252.582
 20
306.277
 30
0.000000
  70
    32
  0
VERTEX
  8
AM_0
  5
1C989
 10
252.322
 20
306.205
 30
0.000000
  70
    32
  0
VERTEX
  8
AM_0
  5
1C98A
 10
252.065
 20
306.120
 30
0.000000
  70
    32
  0
VERTEX
  8
AM_0
  5
1C98B
 10
251.814
 20
306.023
 30
0.000000
  70
    32
  0
VERTEX
  8
AM_0
  5
1C98C
 10
251.567
 20
305.913
 30
0.000000
  70
    32
  0
VERTEX
  8
AM_0
  5
1C98D
 10
251.326
 20
305.792
 30
0.000000
  70
    32
  0
VERTEX
  8
AM_0
  5
1C98E
 10
251.091
 20
305.659
 30
0.000000
  70
    32
  0
VERTEX
  8
AM_0
  5
1C98F
 10
250.863
 20
305.514
 30
0.000000
  70
    32
  0
VERTEX
  8
AM_0
  5
1C990
 10
250.642
 20
305.359
 30
0.000000
  70
    32
  0
VERTEX
  8
AM_0
  5
1C991
 10
250.429
 20
305.193
 30
0.000000
  70
    32
  0
VERTEX
  8
AM_0
  5
1C992
 10
250.225
 20
305.017
 30
0.000000
  70
    32
  0
VERTEX
  8
AM_0
  5
1C993
 10
250.029
 20
304.830
 30
0.000000
  70
    32
  0
VERTEX
  8
AM_0
  5
1C994
 10
249.843
 20
304.635
 30
0.000000
  70
    32
  0
VERTEX
  8
AM_0
  5
1C995
 10
249.667
 20
304.431
 30
0.000000
  70
    32
  0
VERTEX
  8
AM_0
  5
1C996
 10
249.501
 20
304.218
 30
0.000000
  70
    32
  0
VERTEX
  8
AM_0
  5
1C997
 10
249.345
 20
303.997
 30
0.000000
  70
    32
  0
VERTEX
  8
AM_0
  5
1C998
 10
249.201
 20
303.769
 30
0.000000
  70
    32
  0
VERTEX
  8
AM_0
  5
1C999
 10
249.068
 20
303.534
 30
0.000000
  70
    32
  0
VERTEX
  8
AM_0
  5
1C99A
 10
248.946
 20
303.293
 30
0.000000
  70
    32
  0
VERTEX
  8
AM_0
  5
1C99B
 10
248.837
 20
303.046
 30
0.000000
  70
    32
  0
VERTEX
  8
AM_0
  5
1C99C
 10
248.740
 20
302.794
 30
0.000000
  70
    32
  0
VERTEX
  8
AM_0
  5
1C99D
 10
248.655
 20
302.538
 30
0.000000
  70
    32
  0
VERTEX
  8
AM_0
  5
1C99E
 10
248.583
 20
302.278
 30
0.000000
  70
    32
  0
VERTEX
  8
AM_0
  5
1C99F
 10
248.524
 20
302.014
 30
0.000000
  70
    32
  0
VERTEX
  8
AM_0
  5
1C9A0
 10
248.478
 20
301.748
 30
0.000000
  70
    32
  0
VERTEX
  8
AM_0
  5
1C9A1
 10
248.445
 20
301.481
 30
0.000000
  70
    32
  0
VERTEX
  8
AM_0
  5
1C9A2
 10
248.425
 20
301.211
 30
0.000000
  70
    32
  0
VERTEX
  8
AM_0
  5
1C9A3
 10
248.418
 20
300.941
 30
0.000000
  70
    32
  0
VERTEX
  8
AM_0
  5
1C9A4
 10
248.425
 20
300.672
 30
0.000000
  70
    32
  0
VERTEX
  8
AM_0
  5
1C9A5
 10
248.445
 20
300.402
 30
0.000000
  70
    32
  0
VERTEX
  8
AM_0
  5
1C9A6
 10
248.478
 20
300.134
 30
0.000000
  70
    32
  0
VERTEX
  8
AM_0
  5
1C9A7
 10
248.524
 20
299.868
 30
0.000000
  70
    32
  0
VERTEX
  8
AM_0
  5
1C9A8
 10
248.583
 20
299.605
 30
0.000000
  70
    32
  0
VERTEX
  8
AM_0
  5
1C9A9
 10
248.655
 20
299.345
 30
0.000000
  70
    32
  0
VERTEX
  8
AM_0
  5
1C9AA
 10
248.740
 20
299.089
 30
0.000000
  70
    32
  0
VERTEX
  8
AM_0
  5
1C9AB
 10
248.837
 20
298.837
 30
0.000000
  70
    32
  0
VERTEX
  8
AM_0
  5
1C9AC
 10
248.946
 20
298.590
 30
0.000000
  70
    32
  0
VERTEX
  8
AM_0
  5
1C9AD
 10
249.068
 20
298.349
 30
0.000000
  70
    32
  0
VERTEX
  8
AM_0
  5
1C9AE
 10
249.201
 20
298.114
 30
0.000000
  70
    32
  0
VERTEX
  8
AM_0
  5
1C9AF
 10
249.345
 20
297.886
 30
0.000000
  70
    32
  0
VERTEX
  8
AM_0
  5
1C9B0
 10
249.501
 20
297.665
 30
0.000000
  70
    32
  0
VERTEX
  8
AM_0
  5
1C9B1
 10
249.667
 20
297.452
 30
0.000000
  70
    32
  0
VERTEX
  8
AM_0
  5
1C9B2
 10
249.843
 20
297.248
 30
0.000000
  70
    32
  0
VERTEX
  8
AM_0
  5
1C9B3
 10
250.029
 20
297.052
 30
0.000000
  70
    32
  0
VERTEX
  8
AM_0
  5
1C9B4
 10
250.225
 20
296.866
 30
0.000000
  70
    32
  0
VERTEX
  8
AM_0
  5
1C9B5
 10
250.429
 20
296.690
 30
0.000000
  70
    32
  0
VERTEX
  8
AM_0
  5
1C9B6
 10
250.642
 20
296.524
 30
0.000000
  70
    32
  0
VERTEX
  8
AM_0
  5
1C9B7
 10
250.863
 20
296.368
 30
0.000000
  70
    32
  0
VERTEX
  8
AM_0
  5
1C9B8
 10
251.091
 20
296.224
 30
0.000000
  70
    32
  0
VERTEX
  8
AM_0
  5
1C9B9
 10
251.326
 20
296.091
 30
0.000000
  70
    32
  0
VERTEX
  8
AM_0
  5
1C9BA
 10
251.567
 20
295.970
 30
0.000000
  70
    32
  0
VERTEX
  8
AM_0
  5
1C9BB
 10
251.814
 20
295.860
 30
0.000000
  70
    32
  0
VERTEX
  8
AM_0
  5
1C9BC
 10
252.065
 20
295.763
 30
0.000000
  70
    32
  0
VERTEX
  8
AM_0
  5
1C9BD
 10
252.322
 20
295.678
 30
0.000000
  70
    32
  0
VERTEX
  8
AM_0
  5
1C9BE
 10
252.582
 20
295.606
 30
0.000000
  70
    32
  0
VERTEX
  8
AM_0
  5
1C9BF
 10
252.845
 20
295.547
 30
0.000000
  70
    32
  0
VERTEX
  8
AM_0
  5
1C9C0
 10
253.111
 20
295.501
 30
0.000000
  70
    32
  0
VERTEX
  8
AM_0
  5
1C9C1
 10
253.379
 20
295.468
 30
0.000000
  70
    32
  0
VERTEX
  8
AM_0
  5
1C9C2
 10
253.648
 20
295.448
 30
0.000000
  70
    32
  0
VERTEX
  8
AM_0
  5
1C9C3
 10
253.918
 20
295.442
 30
0.000000
  70
    32
  0
VERTEX
  8
AM_0
  5
1C9C4
 10
254.188
 20
295.448
 30
0.000000
  70
    32
  0
VERTEX
  8
AM_0
  5
1C9C5
 10
254.457
 20
295.468
 30
0.000000
  70
    32
  0
VERTEX
  8
AM_0
  5
1C9C6
 10
254.725
 20
295.501
 30
0.000000
  70
    32
  0
VERTEX
  8
AM_0
  5
1C9C7
 10
254.991
 20
295.547
 30
0.000000
  70
    32
  0
VERTEX
  8
AM_0
  5
1C9C8
 10
255.255
 20
295.606
 30
0.000000
  70
    32
  0
VERTEX
  8
AM_0
  5
1C9C9
 10
255.515
 20
295.678
 30
0.000000
  70
    32
  0
VERTEX
  8
AM_0
  5
1C9CA
 10
255.771
 20
295.763
 30
0.000000
  70
    32
  0
VERTEX
  8
AM_0
  5
1C9CB
 10
256.023
 20
295.860
 30
0.000000
  70
    32
  0
VERTEX
  8
AM_0
  5
1C9CC
 10
256.270
 20
295.970
 30
0.000000
  70
    32
  0
VERTEX
  8
AM_0
  5
1C9CD
 10
256.511
 20
296.091
 30
0.000000
  70
    32
  0
VERTEX
  8
AM_0
  5
1C9CE
 10
256.746
 20
296.224
 30
0.000000
  70
    32
  0
VERTEX
  8
AM_0
  5
1C9CF
 10
256.974
 20
296.368
 30
0.000000
  70
    32
  0
VERTEX
  8
AM_0
  5
1C9D0
 10
257.195
 20
296.524
 30
0.000000
  70
    32
  0
VERTEX
  8
AM_0
  5
1C9D1
 10
257.408
 20
296.690
 30
0.000000
  70
    32
  0
VERTEX
  8
AM_0
  5
1C9D2
 10
257.612
 20
296.866
 30
0.000000
  70
    32
  0
VERTEX
  8
AM_0
  5
1C9D3
 10
257.807
 20
297.052
 30
0.000000
  70
    32
  0
VERTEX
  8
AM_0
  5
1C9D4
 10
257.994
 20
297.248
 30
0.000000
  70
    32
  0
VERTEX
  8
AM_0
  5
1C9D5
 10
258.170
 20
297.452
 30
0.000000
  70
    32
  0
VERTEX
  8
AM_0
  5
1C9D6
 10
258.336
 20
297.665
 30
0.000000
  70
    32
  0
VERTEX
  8
AM_0
  5
1C9D7
 10
258.491
 20
297.886
 30
0.000000
  70
    32
  0
VERTEX
  8
AM_0
  5
1C9D8
 10
258.636
 20
298.114
 30
0.000000
  70
    32
  0
VERTEX
  8
AM_0
  5
1C9D9
 10
258.769
 20
298.349
 30
0.000000
  70
    32
  0
VERTEX
  8
AM_0
  5
1C9DA
 10
258.890
 20
298.590
 30
0.000000
  70
    32
  0
VERTEX
  8
AM_0
  5
1C9DB
 10
259.000
 20
298.837
 30
0.000000
  70
    32
  0
VERTEX
  8
AM_0
  5
1C9DC
 10
259.097
 20
299.089
 30
0.000000
  70
    32
  0
VERTEX
  8
AM_0
  5
1C9DD
 10
259.182
 20
299.345
 30
0.000000
  70
    32
  0
VERTEX
  8
AM_0
  5
1C9DE
 10
259.254
 20
299.605
 30
0.000000
  70
    32
  0
VERTEX
  8
AM_0
  5
1C9DF
 10
259.313
 20
299.868
 30
0.000000
  70
    32
  0
VERTEX
  8
AM_0
  5
1C9E0
 10
259.359
 20
300.134
 30
0.000000
  70
    32
  0
VERTEX
  8
AM_0
  5
1C9E1
 10
259.392
 20
300.402
 30
0.000000
  70
    32
  0
VERTEX
  8
AM_0
  5
1C9E2
 10
259.412
 20
300.672
 30
0.000000
  70
    32
  0
VERTEX
  8
AM_0
  5
1C9E3
 10
259.418
 20
300.941
 30
0.000000
  70
    32
  0
SEQEND
  8
AM_0
  5
1C9E4
  0
POLYLINE
  5
1B5D1
  8
AM_0
 10
253.9183664802276
 20
312.94132696066038
 30
0.0
 66
     1
 70
     8
  0
VERTEX
  8
AM_0
  5
1C9E5
 10
253.918
 20
312.941
 30
0.000000
  70
    32
  0
VERTEX
  8
AM_0
  5
1C9E6
 10
253.771
 20
312.940
 30
0.000000
  70
    32
  0
VERTEX
  8
AM_0
  5
1C9E7
 10
253.624
 20
312.938
 30
0.000000
  70
    32
  0
VERTEX
  8
AM_0
  5
1C9E8
 10
253.477
 20
312.933
 30
0.000000
  70
    32
  0
VERTEX
  8
AM_0
  5
1C9E9
 10
253.330
 20
312.927
 30
0.000000
  70
    32
  0
VERTEX
  8
AM_0
  5
1C9EA
 10
253.183
 20
312.919
 30
0.000000
  70
    32
  0
VERTEX
  8
AM_0
  5
1C9EB
 10
253.036
 20
312.909
 30
0.000000
  70
    32
  0
VERTEX
  8
AM_0
  5
1C9EC
 10
252.889
 20
312.897
 30
0.000000
  70
    32
  0
VERTEX
  8
AM_0
  5
1C9ED
 10
252.742
 20
312.884
 30
0.000000
  70
    32
  0
VERTEX
  8
AM_0
  5
1C9EE
 10
252.596
 20
312.868
 30
0.000000
  70
    32
  0
VERTEX
  8
AM_0
  5
1C9EF
 10
252.449
 20
312.851
 30
0.000000
  70
    32
  0
VERTEX
  8
AM_0
  5
1C9F0
 10
252.303
 20
312.832
 30
0.000000
  70
    32
  0
VERTEX
  8
AM_0
  5
1C9F1
 10
252.158
 20
312.811
 30
0.000000
  70
    32
  0
VERTEX
  8
AM_0
  5
1C9F2
 10
252.012
 20
312.789
 30
0.000000
  70
    32
  0
VERTEX
  8
AM_0
  5
1C9F3
 10
251.867
 20
312.765
 30
0.000000
  70
    32
  0
VERTEX
  8
AM_0
  5
1C9F4
 10
251.722
 20
312.739
 30
0.000000
  70
    32
  0
VERTEX
  8
AM_0
  5
1C9F5
 10
251.577
 20
312.711
 30
0.000000
  70
    32
  0
VERTEX
  8
AM_0
  5
1C9F6
 10
251.433
 20
312.681
 30
0.000000
  70
    32
  0
VERTEX
  8
AM_0
  5
1C9F7
 10
251.289
 20
312.650
 30
0.000000
  70
    32
  0
VERTEX
  8
AM_0
  5
1C9F8
 10
251.146
 20
312.617
 30
0.000000
  70
    32
  0
VERTEX
  8
AM_0
  5
1C9F9
 10
251.003
 20
312.582
 30
0.000000
  70
    32
  0
VERTEX
  8
AM_0
  5
1C9FA
 10
250.860
 20
312.545
 30
0.000000
  70
    32
  0
VERTEX
  8
AM_0
  5
1C9FB
 10
250.718
 20
312.507
 30
0.000000
  70
    32
  0
VERTEX
  8
AM_0
  5
1C9FC
 10
250.576
 20
312.466
 30
0.000000
  70
    32
  0
VERTEX
  8
AM_0
  5
1C9FD
 10
250.435
 20
312.425
 30
0.000000
  70
    32
  0
VERTEX
  8
AM_0
  5
1C9FE
 10
250.294
 20
312.381
 30
0.000000
  70
    32
  0
VERTEX
  8
AM_0
  5
1C9FF
 10
250.154
 20
312.336
 30
0.000000
  70
    32
  0
VERTEX
  8
AM_0
  5
1CA00
 10
250.015
 20
312.289
 30
0.000000
  70
    32
  0
VERTEX
  8
AM_0
  5
1CA01
 10
249.876
 20
312.240
 30
0.000000
  70
    32
  0
VERTEX
  8
AM_0
  5
1CA02
 10
249.737
 20
312.189
 30
0.000000
  70
    32
  0
VERTEX
  8
AM_0
  5
1CA03
 10
249.600
 20
312.137
 30
0.000000
  70
    32
  0
VERTEX
  8
AM_0
  5
1CA04
 10
249.463
 20
312.083
 30
0.000000
  70
    32
  0
VERTEX
  8
AM_0
  5
1CA05
 10
249.326
 20
312.028
 30
0.000000
  70
    32
  0
VERTEX
  8
AM_0
  5
1CA06
 10
249.190
 20
311.971
 30
0.000000
  70
    32
  0
VERTEX
  8
AM_0
  5
1CA07
 10
249.055
 20
311.912
 30
0.000000
  70
    32
  0
VERTEX
  8
AM_0
  5
1CA08
 10
248.921
 20
311.851
 30
0.000000
  70
    32
  0
VERTEX
  8
AM_0
  5
1CA09
 10
248.788
 20
311.789
 30
0.000000
  70
    32
  0
VERTEX
  8
AM_0
  5
1CA0A
 10
248.655
 20
311.725
 30
0.000000
  70
    32
  0
VERTEX
  8
AM_0
  5
1CA0B
 10
248.523
 20
311.660
 30
0.000000
  70
    32
  0
VERTEX
  8
AM_0
  5
1CA0C
 10
248.392
 20
311.593
 30
0.000000
  70
    32
  0
VERTEX
  8
AM_0
  5
1CA0D
 10
248.262
 20
311.524
 30
0.000000
  70
    32
  0
VERTEX
  8
AM_0
  5
1CA0E
 10
248.132
 20
311.454
 30
0.000000
  70
    32
  0
VERTEX
  8
AM_0
  5
1CA0F
 10
248.004
 20
311.382
 30
0.000000
  70
    32
  0
VERTEX
  8
AM_0
  5
1CA10
 10
247.876
 20
311.309
 30
0.000000
  70
    32
  0
VERTEX
  8
AM_0
  5
1CA11
 10
247.749
 20
311.234
 30
0.000000
  70
    32
  0
VERTEX
  8
AM_0
  5
1CA12
 10
247.623
 20
311.158
 30
0.000000
  70
    32
  0
VERTEX
  8
AM_0
  5
1CA13
 10
247.498
 20
311.080
 30
0.000000
  70
    32
  0
VERTEX
  8
AM_0
  5
1CA14
 10
247.374
 20
311.000
 30
0.000000
  70
    32
  0
VERTEX
  8
AM_0
  5
1CA15
 10
247.252
 20
310.919
 30
0.000000
  70
    32
  0
VERTEX
  8
AM_0
  5
1CA16
 10
247.130
 20
310.836
 30
0.000000
  70
    32
  0
VERTEX
  8
AM_0
  5
1CA17
 10
247.009
 20
310.752
 30
0.000000
  70
    32
  0
VERTEX
  8
AM_0
  5
1CA18
 10
246.889
 20
310.667
 30
0.000000
  70
    32
  0
VERTEX
  8
AM_0
  5
1CA19
 10
246.770
 20
310.580
 30
0.000000
  70
    32
  0
VERTEX
  8
AM_0
  5
1CA1A
 10
246.652
 20
310.491
 30
0.000000
  70
    32
  0
VERTEX
  8
AM_0
  5
1CA1B
 10
246.536
 20
310.402
 30
0.000000
  70
    32
  0
VERTEX
  8
AM_0
  5
1CA1C
 10
246.420
 20
310.310
 30
0.000000
  70
    32
  0
VERTEX
  8
AM_0
  5
1CA1D
 10
246.306
 20
310.217
 30
0.000000
  70
    32
  0
VERTEX
  8
AM_0
  5
1CA1E
 10
246.192
 20
310.123
 30
0.000000
  70
    32
  0
VERTEX
  8
AM_0
  5
1CA1F
 10
246.080
 20
310.028
 30
0.000000
  70
    32
  0
VERTEX
  8
AM_0
  5
1CA20
 10
245.969
 20
309.931
 30
0.000000
  70
    32
  0
VERTEX
  8
AM_0
  5
1CA21
 10
245.860
 20
309.833
 30
0.000000
  70
    32
  0
VERTEX
  8
AM_0
  5
1CA22
 10
245.751
 20
309.733
 30
0.000000
  70
    32
  0
VERTEX
  8
AM_0
  5
1CA23
 10
245.644
 20
309.632
 30
0.000000
  70
    32
  0
VERTEX
  8
AM_0
  5
1CA24
 10
245.538
 20
309.530
 30
0.000000
  70
    32
  0
VERTEX
  8
AM_0
  5
1CA25
 10
245.433
 20
309.427
 30
0.000000
  70
    32
  0
VERTEX
  8
AM_0
  5
1CA26
 10
245.330
 20
309.322
 30
0.000000
  70
    32
  0
VERTEX
  8
AM_0
  5
1CA27
 10
245.227
 20
309.216
 30
0.000000
  70
    32
  0
VERTEX
  8
AM_0
  5
1CA28
 10
245.127
 20
309.109
 30
0.000000
  70
    32
  0
VERTEX
  8
AM_0
  5
1CA29
 10
245.027
 20
309.000
 30
0.000000
  70
    32
  0
VERTEX
  8
AM_0
  5
1CA2A
 10
244.929
 20
308.890
 30
0.000000
  70
    32
  0
VERTEX
  8
AM_0
  5
1CA2B
 10
244.832
 20
308.779
 30
0.000000
  70
    32
  0
VERTEX
  8
AM_0
  5
1CA2C
 10
244.736
 20
308.667
 30
0.000000
  70
    32
  0
VERTEX
  8
AM_0
  5
1CA2D
 10
244.642
 20
308.554
 30
0.000000
  70
    32
  0
VERTEX
  8
AM_0
  5
1CA2E
 10
244.550
 20
308.440
 30
0.000000
  70
    32
  0
VERTEX
  8
AM_0
  5
1CA2F
 10
244.458
 20
308.324
 30
0.000000
  70
    32
  0
VERTEX
  8
AM_0
  5
1CA30
 10
244.368
 20
308.208
 30
0.000000
  70
    32
  0
VERTEX
  8
AM_0
  5
1CA31
 10
244.280
 20
308.090
 30
0.000000
  70
    32
  0
VERTEX
  8
AM_0
  5
1CA32
 10
244.193
 20
307.971
 30
0.000000
  70
    32
  0
VERTEX
  8
AM_0
  5
1CA33
 10
244.107
 20
307.851
 30
0.000000
  70
    32
  0
VERTEX
  8
AM_0
  5
1CA34
 10
244.023
 20
307.730
 30
0.000000
  70
    32
  0
VERTEX
  8
AM_0
  5
1CA35
 10
243.941
 20
307.608
 30
0.000000
  70
    32
  0
VERTEX
  8
AM_0
  5
1CA36
 10
243.860
 20
307.485
 30
0.000000
  70
    32
  0
VERTEX
  8
AM_0
  5
1CA37
 10
243.780
 20
307.361
 30
0.000000
  70
    32
  0
VERTEX
  8
AM_0
  5
1CA38
 10
243.702
 20
307.236
 30
0.000000
  70
    32
  0
VERTEX
  8
AM_0
  5
1CA39
 10
243.626
 20
307.111
 30
0.000000
  70
    32
  0
VERTEX
  8
AM_0
  5
1CA3A
 10
243.551
 20
306.984
 30
0.000000
  70
    32
  0
VERTEX
  8
AM_0
  5
1CA3B
 10
243.477
 20
306.856
 30
0.000000
  70
    32
  0
VERTEX
  8
AM_0
  5
1CA3C
 10
243.406
 20
306.728
 30
0.000000
  70
    32
  0
VERTEX
  8
AM_0
  5
1CA3D
 10
243.335
 20
306.598
 30
0.000000
  70
    32
  0
VERTEX
  8
AM_0
  5
1CA3E
 10
243.267
 20
306.468
 30
0.000000
  70
    32
  0
VERTEX
  8
AM_0
  5
1CA3F
 10
243.200
 20
306.337
 30
0.000000
  70
    32
  0
VERTEX
  8
AM_0
  5
1CA40
 10
243.134
 20
306.205
 30
0.000000
  70
    32
  0
VERTEX
  8
AM_0
  5
1CA41
 10
243.070
 20
306.072
 30
0.000000
  70
    32
  0
VERTEX
  8
AM_0
  5
1CA42
 10
243.008
 20
305.939
 30
0.000000
  70
    32
  0
VERTEX
  8
AM_0
  5
1CA43
 10
242.948
 20
305.804
 30
0.000000
  70
    32
  0
VERTEX
  8
AM_0
  5
1CA44
 10
242.889
 20
305.669
 30
0.000000
  70
    32
  0
VERTEX
  8
AM_0
  5
1CA45
 10
242.832
 20
305.534
 30
0.000000
  70
    32
  0
VERTEX
  8
AM_0
  5
1CA46
 10
242.776
 20
305.397
 30
0.000000
  70
    32
  0
VERTEX
  8
AM_0
  5
1CA47
 10
242.722
 20
305.260
 30
0.000000
  70
    32
  0
VERTEX
  8
AM_0
  5
1CA48
 10
242.670
 20
305.122
 30
0.000000
  70
    32
  0
VERTEX
  8
AM_0
  5
1CA49
 10
242.620
 20
304.984
 30
0.000000
  70
    32
  0
VERTEX
  8
AM_0
  5
1CA4A
 10
242.571
 20
304.845
 30
0.000000
  70
    32
  0
VERTEX
  8
AM_0
  5
1CA4B
 10
242.524
 20
304.706
 30
0.000000
  70
    32
  0
VERTEX
  8
AM_0
  5
1CA4C
 10
242.479
 20
304.565
 30
0.000000
  70
    32
  0
VERTEX
  8
AM_0
  5
1CA4D
 10
242.435
 20
304.425
 30
0.000000
  70
    32
  0
VERTEX
  8
AM_0
  5
1CA4E
 10
242.393
 20
304.284
 30
0.000000
  70
    32
  0
VERTEX
  8
AM_0
  5
1CA4F
 10
242.353
 20
304.142
 30
0.000000
  70
    32
  0
VERTEX
  8
AM_0
  5
1CA50
 10
242.315
 20
304.000
 30
0.000000
  70
    32
  0
VERTEX
  8
AM_0
  5
1CA51
 10
242.278
 20
303.857
 30
0.000000
  70
    32
  0
VERTEX
  8
AM_0
  5
1CA52
 10
242.243
 20
303.714
 30
0.000000
  70
    32
  0
VERTEX
  8
AM_0
  5
1CA53
 10
242.210
 20
303.571
 30
0.000000
  70
    32
  0
VERTEX
  8
AM_0
  5
1CA54
 10
242.179
 20
303.427
 30
0.000000
  70
    32
  0
VERTEX
  8
AM_0
  5
1CA55
 10
242.149
 20
303.283
 30
0.000000
  70
    32
  0
VERTEX
  8
AM_0
  5
1CA56
 10
242.121
 20
303.138
 30
0.000000
  70
    32
  0
VERTEX
  8
AM_0
  5
1CA57
 10
242.095
 20
302.993
 30
0.000000
  70
    32
  0
VERTEX
  8
AM_0
  5
1CA58
 10
242.071
 20
302.848
 30
0.000000
  70
    32
  0
VERTEX
  8
AM_0
  5
1CA59
 10
242.048
 20
302.702
 30
0.000000
  70
    32
  0
VERTEX
  8
AM_0
  5
1CA5A
 10
242.028
 20
302.556
 30
0.000000
  70
    32
  0
VERTEX
  8
AM_0
  5
1CA5B
 10
242.009
 20
302.410
 30
0.000000
  70
    32
  0
VERTEX
  8
AM_0
  5
1CA5C
 10
241.991
 20
302.264
 30
0.000000
  70
    32
  0
VERTEX
  8
AM_0
  5
1CA5D
 10
241.976
 20
302.118
 30
0.000000
  70
    32
  0
VERTEX
  8
AM_0
  5
1CA5E
 10
241.963
 20
301.971
 30
0.000000
  70
    32
  0
VERTEX
  8
AM_0
  5
1CA5F
 10
241.951
 20
301.824
 30
0.000000
  70
    32
  0
VERTEX
  8
AM_0
  5
1CA60
 10
241.941
 20
301.677
 30
0.000000
  70
    32
  0
VERTEX
  8
AM_0
  5
1CA61
 10
241.933
 20
301.530
 30
0.000000
  70
    32
  0
VERTEX
  8
AM_0
  5
1CA62
 10
241.926
 20
301.383
 30
0.000000
  70
    32
  0
VERTEX
  8
AM_0
  5
1CA63
 10
241.922
 20
301.236
 30
0.000000
  70
    32
  0
VERTEX
  8
AM_0
  5
1CA64
 10
241.919
 20
301.089
 30
0.000000
  70
    32
  0
VERTEX
  8
AM_0
  5
1CA65
 10
241.918
 20
300.941
 30
0.000000
  70
    32
  0
SEQEND
  8
AM_0
  5
1CA66
  0
ARC
  5
1B5D2
  8
AM_0
 10
245.62678949869951
 20
313.44195505333022
 30
0.0
 40
2.9999999999999978
 50
270.0
 51
303.55737886317002
1001
GENIUS_GENOBJ-N-FIL_13
1002
{
1000
OWNER
1000
GEN
1002
}
1001
GENIUS_GENODEF_13
1002
{
1000
HIER
1070
     0
1002
}
1002
{
1000
MANEDIT
1070
     0
1002
}
1002
{
1000
NOSEL
1070
     0
1002
}
1002
{
1000
BEHIND
1070
     0
1002
}
1002
{
1000
OTHER
1070
     0
1002
}
1002
{
1000
REACTOR
1002
}
  0
ARC
  5
1B5D3
  8
AM_0
 10
271.61369755737923
 20
301.941957423936
 30
0.0
 40
4.9999999999999911
 50
90.000005008956919
 51
162.93299719277701
  0
ARC
  5
1B5D4
  8
AM_0
 10
325.91841557495729
 20
310.94195742393589
 30
0.0
 40
2.0000000000000062
 50
90.000005008956919
 51
180.000000683243
  0
LINE
  5
1B5D5
  8
AM_0N
 10
319.36179124793142
 20
303.44195742393589
 30
0.0
 11
320.80516692090549
 21
305.941957423936
 31
0.0
  0
LINE
  5
1B5D6
  8
AM_0N
 10
315.0316642290091
 20
305.941957423936
 30
0.0
 11
316.47503990198322
 21
303.44195742393589
 31
0.0
  0
CIRCLE
  5
1B5D7
  8
AM_0N
 10
317.91841557495729
 20
305.941957423936
 30
0.0
 40
5.0
  0
ARC
  5
1B5D8
  8
AM_0
 10
317.91841557495729
 20
305.941957423936
 30
0.0
 40
6.0000000000000062
 50
179.99999749551819
 51
0.0000025044817295
  0
CIRCLE
  5
1B5D9
  8
AM_0N
 10
317.91841557495729
 20
305.941957423936
 30
0.0
 40
2.886751345948126
  0
LINE
  5
1B5DA
  8
AM_0N
 10
316.47503990198322
 20
303.44195742393589
 30
0.0
 11
319.36179124793142
 21
303.44195742393589
 31
0.0
  0
LINE
  5
1B5DB
  8
AM_0N
 10
316.47503990198351
 20
308.441957423936
 30
0.0
 11
315.0316642290091
 21
305.941957423936
 31
0.0
  0
ARC
  5
1B5DC
  8
AM_0
 10
309.91841557495729
 20
310.94195742393589
 30
0.0
 40
2.0000000000000022
 50
0.0000025044817295
 51
90.000005008956919
  0
LINE
  5
1B5DD
  8
AM_0
 10
311.91841557495729
 20
305.941957423936
 30
0.0
 11
311.91841557495729
 21
310.94195742393589
 31
0.0
  0
LINE
  5
1B5DE
  8
AM_0N
 10
319.36179124793108
 20
308.441957423936
 30
0.0
 11
316.47503990198351
 21
308.441957423936
 31
0.0
  0
LINE
  5
1B5DF
  8
AM_0N
 10
320.80516692090549
 20
305.941957423936
 30
0.0
 11
319.36179124793108
 21
308.441957423936
 31
0.0
  0
LINE
  5
1B5E0
  8
AM_0
 10
323.91841557495729
 20
305.941957423936
 30
0.0
 11
323.91841557495729
 21
310.94195742393589
 31
0.0
  0
ARC
  5
1B5E1
  8
AM_0
 10
333.41034367554317
 20
301.941957423936
 30
0.0
 40
4.9999999999999911
 50
89.999994991043053
 51
165.52248947415009
  0
LINE
  5
1B5E2
  8
AM_0
 10
693.75295515243909
 20
226.9419339357481
 30
0.0
 11
693.75295515243909
 21
271.94193527685258
 31
0.0
  0
LINE
  5
1B5E3
  8
AM_0
 10
579.75294412557923
 20
226.9419339357481
 30
0.0
 11
579.75294412557923
 21
271.94193527685258
 31
0.0
  0
LINE
  5
1B5E4
  8
AM_0
 10
685.7529624944151
 20
174.44193460630009
 30
0.0
 11
685.7529624944151
 21
312.07982937497121
 31
0.0
  0
LINE
  5
1B5E5
  8
AM_0
 10
587.75295204239262
 20
313.09220941796019
 30
0.0
 11
587.75295204239251
 21
174.44193460630009
 31
0.0
  0
LINE
  5
1B5E7
  8
AM_0
 10
413.9184021307143
 20
300.94144660303613
 30
0.0
 11
413.91840213071441
 21
164.44193460630021
 31
0.0
  0
ARC
  5
1B5E8
  8
AM_0
 10
636.73604345370654
 20
249.4519346063004
 30
0.0
 40
64.003665999999996
 50
145.87476838391549
 51
160.9230591761243
  0
LINE
  5
1B5E9
  8
AM_0
 10
583.75294424478864
 20
286.94193572388753
 30
0.0
 11
583.75294424478864
 21
211.94193348871329
 31
0.0
  0
LINE
  5
1B5EA
  8
AM_0
 10
607.75295258943925
 20
313.4419365136489
 30
0.0
 11
607.75295258943925
 21
185.44193269895169
 31
0.0
  0
INSERT
  5
1B5EB
  8
AM_0
  2
NEW_BLOCK
 10
587.75295199339268
 20
249.44193460630041
 30
0.0
 41
1.1111111111110841
 42
1.1111111111110841
 43
1.1111111111110841
 50
180.0
  0
LINE
  5
1B5EC
  8
AM_0
 10
689.75295503322945
 20
286.94193572388753
 30
0.0
 11
689.75295503322945
 21
211.94193348871329
 31
0.0
  0
ARC
  5
1B5ED
  8
AM_0
 10
636.73604345370654
 20
249.4519346063004
 30
0.0
 40
64.014987999999974
 50
325.91379204812262
 51
340.92334469366938
  0
LINE
  5
1B5EF
  8
ﾁｭｳｼﾝｾﾝ1
 10
636.75295345370625
 20
354.67120244416151
 30
0.0
 11
636.75295345370625
 21
168.87948776114831
 31
0.0
  0
ARC
  5
1B5F0
  8
AM_0
 10
402.91840031616817
 20
269.41925234581089
 30
0.0
 40
5.0000000000000044
 50
0.0000025044817295
 51
76.391044333006718
  0
LINE
  5
1B5F4
  8
AM_0
 10
607.75295258943925
 20
185.44193269895169
 30
0.0
 11
685.75296254341515
 21
186.8034134524176
 31
0.0
  0
ARC
  5
1B5F5
  8
AM_0
 10
695.75296249441533
 20
174.44193460630009
 30
0.0
 40
10.0
 50
180.0
 51
270.0
1001
GENIUS_GENOBJ-N-FIL_13
1002
{
1000
OWNER
1000
GEN
1002
}
1001
GENIUS_GENODEF_13
1002
{
1000
HIER
1070
     0
1002
}
1002
{
1000
MANEDIT
1070
     0
1002
}
1002
{
1000
NOSEL
1070
     0
1002
}
1002
{
1000
BEHIND
1070
     0
1002
}
1002
{
1000
OTHER
1070
     0
1002
}
1002
{
1000
REACTOR
1002
}
  0
LINE
  5
1B5F6
  8
ﾁｭｳｼﾝｾﾝ1
 10
752.23751814731145
 20
249.44193460630021
 30
0.0
 11
521.26838876010152
 21
249.44193460630041
 31
0.0
  0
LINE
  5
1B5F7
  8
AM_0
 10
544.25295345370625
 20
168.94193460630009
 30
0.0
 11
578.25294441299775
 21
168.94193460630021
 31
0.0
  0
LINE
  5
1B5F8
  8
AM_0
 10
544.25295345370625
 20
164.44193460630009
 30
0.0
 11
577.75295204239228
 21
164.44193460630009
 31
0.0
  0
LINE
  5
1B5F9
  8
ｶｸﾚｾﾝ2
 10
401.41840031616829
 20
168.94193460630009
 30
0.0
 11
401.41840031616852
 21
164.44193460630009
 31
0.0
  0
LINE
  5
1B5FA
  8
ｶｸﾚｾﾝ2
 10
389.41840031616829
 20
168.94193460630021
 30
0.0
 11
389.41840031616829
 21
164.44193460630009
 31
0.0
  0
LINE
  5
1B5FB
  8
ﾁｭｳｼﾝｾﾝ1
 10
395.41840031616829
 20
177.44193460630021
 30
0.0
 11
395.41840031616829
 21
155.94193460630021
 31
0.0
  0
LINE
  5
1B5FC
  8
AM_0
 10
544.25295345370625
 20
168.94193460630009
 30
0.0
 11
544.25295345370625
 21
164.44193460630009
 31
0.0
  0
ARC
  5
1B5FD
  8
AM_0
 10
402.91840031616817
 20
228.46467776085001
 30
0.0
 40
5.0
 50
283.60896067595479
 51
0.0000025044817295
  0
ARC
  5
1B5FE
  8
AM_0N
 10
406.91840031616817
 20
211.94196505333051
 30
0.0
 40
5.0
 50
324.01635108687799
 51
210.00040287267859
  0
ARC
  5
1B5FF
  8
AM_0N
 10
406.91840031616817
 20
211.94196505333051
 30
0.0
 40
2.886751345948126
 50
299.99879136221813
 51
240.00120863778179
  0
LINE
  5
1B600
  8
AM_0
 10
410.41840178508647
 20
201.84996079173709
 30
0.0
 11
401.91840178508647
 21
206.75743807984901
 31
0.0
  0
LINE
  5
1B601
  8
AM_0N
 10
405.47502464319399
 20
209.44196505333051
 30
0.0
 11
408.36177598914207
 21
209.44196505333051
 31
0.0
  0
LINE
  5
1B602
  8
AM_0N
 10
408.36177598914207
 20
214.44196505333059
 30
0.0
 11
405.47502464319427
 21
214.44196505333059
 31
0.0
  0
LINE
  5
1B603
  8
AM_0
 10
406.91840031616817
 20
217.94196505333051
 30
0.0
 11
411.91840031616817
 21
217.94196505333051
 31
0.0
  0
LINE
  5
1B604
  8
ﾁｭｳｼﾝｾﾝ1
 10
393.41840154026681
 20
196.94248350362531
 30
0.0
 11
410.41840202990608
 21
196.94248350362531
 31
0.0
  0
CIRCLE
  5
1B605
  8
AM_0
 10
401.91840178508647
 20
196.94248350362531
 30
0.0
 40
8.5
  0
LINE
  5
1B606
  8
AM_0
 10
401.91840178508659
 20
187.1275289274015
 30
0.0
 11
410.41840178508647
 21
192.03500621551379
 31
0.0
  0
CIRCLE
  5
1B607
  8
AM_0
 10
401.91840178508647
 20
196.94248350362531
 30
0.0
 40
10.5
  0
CIRCLE
  5
1B608
  8
ｽﾝﾎﾟｳｾﾝ
 10
401.91840178508647
 20
196.94248350362531
 30
0.0
 40
4.1881011839521536
  0
CIRCLE
  5
1B609
  8
AM_0
 10
401.91840178508647
 20
196.94248350362531
 30
0.0
 40
4.9999999999999831
  0
LINE
  5
1B60A
  8
AM_0
 10
393.41840178508647
 20
201.84996079173661
 30
0.0
 11
393.41840178508647
 21
192.0350062155135
 31
0.0
  0
LINE
  5
1B60B
  8
ﾁｭｳｼﾝｾﾝ1
 10
401.9184017850863
 20
205.44239875694271
 30
0.0
 11
401.9184017850863
 21
188.44256825030811
 31
0.0
  0
LINE
  5
1B60C
  8
AM_0
 10
393.41840178508647
 20
192.0350062155135
 30
0.0
 11
401.91840178508659
 21
187.1275289274015
 31
0.0
  0
LINE
  5
1B60D
  8
AM_0
 10
401.91840178508647
 20
206.75743807984901
 30
0.0
 11
393.41840178508647
 21
201.84996079173661
 31
0.0
  0
ARC
  5
1B60E
  8
AM_0
 10
406.91840031616817
 20
211.94196505333051
 30
0.0
 40
12.000000000000011
 50
103.608955667
 51
162.93300766543291
  0
ARC
  5
1B60F
  8
AM_0
 10
406.91840031616817
 20
211.94196505333051
 30
0.0
 40
5.9999999999999947
 50
90.000005008956919
 51
204.62463818617229
  0
LINE
  5
1B610
  8
AM_0
 10
393.5980860752565
 20
209.44193460630021
 30
0.0
 11
395.4468732165588
 21
215.4638385274516
 31
0.0
  0
LINE
  5
1B611
  8
AM_0N
 10
405.47502464319427
 20
214.44196505333059
 30
0.0
 11
404.03164897022009
 21
211.94196505333051
 31
0.0
  0
LINE
  5
1B612
  8
AM_0N
 10
404.03164897022009
 20
211.94196505333051
 30
0.0
 11
405.47502464319399
 21
209.44196505333051
 31
0.0
  0
ARC
  5
1B613
  8
AM_0
 10
408.9184021307143
 20
204.44193460630021
 30
0.0
 40
5.0
 50
0.0
 51
90.0
1001
GENIUS_GENODEF_13
1002
{
1000
HIER
1070
     0
1002
}
1002
{
1000
MANEDIT
1070
     0
1002
}
1002
{
1000
NOSEL
1070
     0
1002
}
1002
{
1000
BEHIND
1070
     0
1002
}
1002
{
1000
OTHER
1070
     0
1002
}
1002
{
1000
REACTOR
1002
}
1001
GENIUS_GENOBJ-N-FIL_13
1002
{
1000
OWNER
1000
GEN
1002
}
  0
LINE
  5
1B614
  8
AM_0
 10
410.41840178508647
 20
192.03500621551379
 30
0.0
 11
410.41840178508647
 21
201.84996079173709
 31
0.0
  0
ARC
  5
1B615
  8
AM_0
 10
411.91840031616817
 20
219.94196505333051
 30
0.0
 40
2.0
 50
270.0
 51
0.0000025044817295
  0
LINE
  5
1B616
  8
AM_0N
 10
409.80515166211632
 20
211.94196505333051
 30
0.0
 11
408.36177598914207
 21
214.44196505333059
 31
0.0
  0
LINE
  5
1B617
  8
AM_0N
 10
408.36177598914207
 20
209.44196505333051
 30
0.0
 11
409.80515166211632
 21
211.94196505333051
 31
0.0
  0
LINE
  5
1B618
  8
AM_0
 10
407.91840031616817
 20
269.41925234581089
 30
0.0
 11
407.91840031616817
 21
228.46467776085001
 31
0.0
  0
LINE
  5
1B619
  8
AM_0
 10
640.72590858260105
 20
185.5507407712856
 30
0.0
 11
640.75295345370671
 21
184.48193260630029
 31
0.0
  0
LINE
  5
1B61A
  8
AM_0
 10
642.79544769023278
 20
185.71427017379989
 30
0.0
 11
642.75295345370648
 21
184.4819366063002
 31
0.0
  0
LINE
  5
1B61B
  8
AM_0
 10
632.7933558027587
 20
185.54586378459689
 30
0.0
 11
632.75295345370625
 21
184.4819366063002
 31
0.0
  0
LINE
  5
1B61C
  8
AM_0
 10
630.71067301303265
 20
185.70806797649351
 30
0.0
 11
630.75295345370671
 21
184.4819366063002
 31
0.0
  0
ARC
  5
1B61D
  8
AM_0
 10
621.75338345370653
 20
185.20329960630031
 30
0.0
 40
1.000428199999998
 50
180.078219999998
 51
357.63024800000289
  0
ARC
  5
1B61E
  8
AM_0
 10
651.75255345370624
 20
185.2026246063003
 30
0.0
 40
1.000413999999999
 50
182.3310499999979
 51
359.96048300000041
  0
LINE
  5
1B61F
  8
AM_0
 10
583.25294441299764
 20
173.94193460630021
 30
0.0
 11
583.25294441299764
 21
209.44193460630021
 31
0.0
  0
LINE
  5
1B620
  8
AM_0
 10
551.75295345370625
 20
178.94193460630009
 30
0.0
 11
572.25296249441533
 21
199.44194364700931
 31
0.0
  0
ARC
  5
1B622
  8
AM_0
 10
577.75295204239228
 20
174.44193460630009
 30
0.0
 40
10.0
 50
270.0
 51
0.0
1001
GENIUS_GENODEF_13
1002
{
1000
HIER
1070
     0
1002
}
1002
{
1000
MANEDIT
1070
     0
1002
}
1002
{
1000
NOSEL
1070
     0
1002
}
1002
{
1000
BEHIND
1070
     0
1002
}
1002
{
1000
OTHER
1070
     0
1002
}
1002
{
1000
REACTOR
1002
}
1001
GENIUS_GENOBJ-N-FIL_13
1002
{
1000
OWNER
1000
GEN
1002
}
  0
LINE
  5
1B623
  8
ｶｸﾚｾﾝ2
 10
565.25295345370637
 20
168.94193460630009
 30
0.0
 11
565.25295345370671
 21
164.44193460630009
 31
0.0
  0
LINE
  5
1B624
  8
ｶｸﾚｾﾝ2
 10
553.25295345370625
 20
168.94193460630009
 30
0.0
 11
553.2529534537066
 21
164.44193460630009
 31
0.0
  0
LINE
  5
1B625
  8
ﾁｭｳｼﾝｾﾝ1
 10
559.2529534537066
 20
177.44193460630021
 30
0.0
 11
559.2529534537066
 21
155.94193460630021
 31
0.0
  0
ARC
  5
1B626
  8
AM_0
 10
578.25294441299775
 20
173.94193460630021
 30
0.0
 40
5.0
 50
270.0
 51
0.0
1001
GENIUS_GENOBJ-N-FIL_13
1002
{
1000
OWNER
1000
GEN
1002
}
1001
GENIUS_GENODEF_13
1002
{
1000
HIER
1070
     0
1002
}
1002
{
1000
MANEDIT
1070
     0
1002
}
1002
{
1000
NOSEL
1070
     0
1002
}
1002
{
1000
BEHIND
1070
     0
1002
}
1002
{
1000
OTHER
1070
     0
1002
}
1002
{
1000
REACTOR
1002
}
  0
LINE
  5
1B627
  8
AM_0
 10
551.75295345370625
 20
178.94193460630009
 30
0.0
 11
551.75295345370637
 21
168.94193460630009
 31
0.0
  0
LINE
  5
1B628
  8
AM_0
 10
577.1082925130338
 20
168.94193460630021
 30
0.0
 11
583.25294441299775
 21
175.08658650626421
 31
0.0
  0
ARC
  5
1B629
  8
AM_0
 10
631.7535334537065
 20
184.53035660630039
 30
0.0
 40
1.000603799999999
 50
180.4821899999981
 51
357.22628299999678
  0
ARC
  5
1B62A
  8
AM_0
 10
641.75240345370639
 20
184.5296776063004
 30
0.0
 40
1.0005847999999991
 50
182.73504000000429
 51
359.5564910000009
  0
LINE
  5
1B62B
  8
AM_0
 10
583.25294441299764
 20
209.44193460630021
 30
0.0
 11
587.75294441299775
 21
209.44193460630021
 31
0.0
  0
ARC
  5
1B62C
  8
AM_0
 10
582.25295345370671
 20
210.4508556277454
 30
0.0
 40
2.9999999999999978
 50
0.0
 51
29.803457563725551
1001
GENIUS_GENODEF_13
1002
{
1000
HIER
1070
     0
1002
}
1002
{
1000
MANEDIT
1070
     0
1002
}
1002
{
1000
NOSEL
1070
     0
1002
}
1002
{
1000
BEHIND
1070
     0
1002
}
1002
{
1000
OTHER
1070
     0
1002
}
1002
{
1000
REACTOR
1002
}
1001
GENIUS_GENOBJ-N-FIL_13
1002
{
1000
OWNER
1000
GEN
1002
}
  0
LINE
  5
1B62D
  8
AM_0
 10
583.75294424478864
 20
211.94193348871329
 30
0.0
 11
587.7529443639977
 21
211.94193348871329
 31
0.0
  0
LINE
  5
1B62E
  8
AM_0
 10
574.01360339265511
 20
207.25995305659461
 30
0.0
 11
573.25294441299775
 21
205.94245305659459
 31
0.0
1001
GENIUS_GENOREF_13
1005
0
  0
LINE
  5
1B62F
  8
AM_0
 10
581.25294441299775
 20
186.94245305659459
 30
0.0
 11
581.25294441299775
 21
207.94245305659459
 31
0.0
  0
LINE
  5
1B630
  8
AM_0
 10
573.25294441299775
 20
188.94245305659459
 30
0.0
 11
573.25294441299775
 21
205.94245305659459
 31
0.0
1001
GENIUS_GENOREF_13
1005
0
  0
ARC
  5
1B631
  8
AM_0
 10
589.47205790913279
 20
197.44245305659459
 30
0.0
 40
16.219113496135169
 50
162.3830311596104
 51
197.61696884038881
1001
GENIUS_GENOREF_13
1005
0
  0
LINE
  5
1B632
  8
AM_0N
 10
573.17313749441519
 20
202.44245305659459
 30
0.0
 11
573.17313749441519
 21
192.44245305659459
 31
0.0
1001
GENIUS_GENOREF_13
1005
0
  0
LINE
  5
1B633
  8
AM_0N
 10
572.25296249441533
 20
201.52227805659459
 30
0.0
 11
572.25296249441533
 21
193.36262805659459
 31
0.0
1001
GENIUS_GENOREF_13
1005
0
  0
LINE
  5
1B634
  8
AM_0
 10
581.25294441299775
 20
192.53370305659459
 30
0.0
 11
574.01360339265511
 21
192.53370305659459
 31
0.0
1001
GENIUS_GENOREF_13
1005
0
  0
LINE
  5
1B635
  8
AM_0
 10
581.25294441299775
 20
187.62495305659459
 30
0.0
 11
574.01360339265511
 21
187.62495305659459
 31
0.0
1001
GENIUS_GENOREF_13
1005
0
  0
LINE
  5
1B636
  8
AM_0N
 10
573.17313749441519
 20
192.44245305659459
 30
0.0
 11
572.25296249441533
 21
193.36262805659459
 31
0.0
1001
GENIUS_GENOREF_13
1005
0
  0
LINE
  5
1B637
  8
AM_0N
 10
573.25294441299764
 20
192.44245305659459
 30
0.0
 11
573.17313749441519
 21
192.44245305659459
 31
0.0
1001
GENIUS_GENOREF_13
1005
0
  0
LINE
  5
1B638
  8
AM_4N
 10
572.25296249441533
 20
193.36262805659459
 30
0.0
 11
573.25294441299775
 21
193.36262805659459
 31
0.0
1001
GENIUS_GENOREF_13
1005
0
  0
LINE
  5
1B639
  8
AM_0
 10
574.01360339265511
 20
187.62495305659459
 30
0.0
 11
573.25294441299775
 21
188.94245305659459
 31
0.0
1001
GENIUS_GENOREF_13
1005
0
  0
ARC
  5
1B63A
  8
AM_0
 10
577.59296990440305
 20
190.07932805659459
 30
0.0
 40
4.3400254914053003
 50
145.561530595265
 51
214.438469404735
1001
GENIUS_GENOREF_13
1005
0
  0
LINE
  5
1B63B
  8
AM_0
 10
583.25294441299775
 20
186.94245305659459
 30
0.0
 11
581.25294441299775
 21
186.94245305659459
 31
0.0
  0
LINE
  5
1B63C
  8
AM_0
 10
581.25294441299775
 20
202.35120305659461
 30
0.0
 11
574.01360339265511
 21
202.35120305659461
 31
0.0
1001
GENIUS_GENOREF_13
1005
0
  0
ARC
  5
1B63D
  8
AM_0
 10
577.59296990440305
 20
204.80557805659461
 30
0.0
 40
4.3400254914053003
 50
154.4384694047331
 51
214.438469404735
1001
GENIUS_GENOREF_13
1005
0
  0
LINE
  5
1B63E
  8
AM_0N
 10
573.25294441299764
 20
202.44245305659459
 30
0.0
 11
573.17313749441519
 21
202.44245305659459
 31
0.0
1001
GENIUS_GENOREF_13
1005
0
  0
LINE
  5
1B63F
  8
AM_0N
 10
573.17313749441519
 20
202.44245305659459
 30
0.0
 11
572.25296249441533
 21
201.52227805659459
 31
0.0
1001
GENIUS_GENOREF_13
1005
0
  0
LINE
  5
1B640
  8
AM_4N
 10
572.25296249441533
 20
201.52227805659459
 30
0.0
 11
573.25294441299775
 21
201.52227805659459
 31
0.0
1001
GENIUS_GENOREF_13
1005
0
  0
LINE
  5
1B641
  8
AM_0
 10
575.25295345370671
 20
215.1819246063003
 30
0.0
 11
575.25295345370671
 21
224.44193460630041
 31
0.0
  0
LINE
  5
1B642
  8
AM_0
 10
583.75295345370671
 20
213.1726860080675
 30
0.0
 11
575.8729534537066
 21
213.44193460630041
 31
0.0
  0
LINE
  5
1B643
  8
AM_0
 10
582.43329851355736
 20
215.6828519133494
 30
0.0
 11
575.8729534537066
 21
215.44193460630029
 31
0.0
  0
LINE
  5
1B644
  8
AM_0
 10
581.25294441299775
 20
207.25995305659461
 30
0.0
 11
574.01360339265511
 21
207.25995305659461
 31
0.0
1001
GENIUS_GENOREF_13
1005
0
  0
ARC
  5
1B645
  8
AM_0
 10
575.9044734537066
 20
214.4402446063003
 30
0.0
 40
0.9983469799999998
 50
109.3956100000036
 51
270.48553999999899
  0
LINE
  5
1B646
  8
AM_0
 10
581.25294441299775
 20
207.94245305659459
 30
0.0
 11
583.25294441299775
 21
207.94245305659459
 31
0.0
  0
LINE
  5
1B647
  8
AM_0
 10
578.39211937265725
 20
223.28120476013271
 30
0.0
 11
576.29293345370672
 21
223.36193460630039
 31
0.0
  0
LINE
  5
1B648
  8
AM_0
 10
577.42054806095416
 20
225.5657252241501
 30
0.0
 11
573.81295345370654
 21
225.44193460630029
 31
0.0
  0
LINE
  5
1B649
  8
AM_0
 10
572.75295345370671
 20
220.94193460630041
 30
0.0
 11
572.75295345370671
 21
221.58193460630019
 31
0.0
  0
ARC
  5
1B64A
  8
AM_0
 10
573.84813345370685
 20
224.44224460630039
 30
0.0
 40
1.000315299999998
 50
92.015737799996657
 51
270.27578999999758
  0
ARC
  5
1B64B
  8
AM_0
 10
576.32265345370672
 20
224.4517646063002
 30
0.0
 40
1.0902267999999991
 50
89.459439999998395
 51
268.43820000000272
  0
ARC
  5
1B64C
  8
AM_0
 10
573.24999345370668
 20
221.5862446063004
 30
0.0
 40
0.4970828599999999
 50
94.276144500001337
 51
180.4957440000002
  0
LINE
  5
1B64D
  8
AM_0
 10
575.25295345370671
 20
222.22193460630029
 30
0.0
 11
573.21294345370677
 21
222.08193460630019
 31
0.0
  0
LINE
  5
1B64E
  8
AM_0
 10
575.25295345370671
 20
223.4019446063003
 30
0.0
 11
573.81295345370654
 21
223.44193460630041
 31
0.0
  0
ARC
  5
1B64F
  8
AM_0
 10
573.23565345370673
 20
220.3044246063003
 30
0.0
 40
0.48302591
 50
177.92275099999961
 51
267.3053600000008
  0
LINE
  5
1B650
  8
AM_0
 10
575.25295345370671
 20
219.66193460630041
 30
0.0
 11
573.21294345370677
 21
219.82194460630049
 31
0.0
  0
LINE
  5
1B651
  8
AM_0
 10
572.75295345370671
 20
220.94193460630041
 30
0.0
 11
572.75295345370671
 21
220.32194460630041
 31
0.0
  0
LINE
  5
1B652
  8
AM_0
 10
579.75294412557923
 20
226.9419339357481
 30
0.0
 11
583.75294424478864
 21
226.9419339357481
 31
0.0
  0
LINE
  5
1B653
  8
AM_0
 10
587.75295199339268
 20
185.79102328552719
 30
0.0
 11
607.75295258943925
 21
185.44193269895169
 31
0.0
  0
LINE
  5
1B654
  8
AM_0
 10
585.25295345370671
 20
209.4419346062989
 30
0.0
 11
585.25295345370671
 21
210.4508556277454
 31
0.0
  0
ARC
  5
1B661
  8
AM_0
 10
636.7629934537066
 20
249.4482846063006
 30
0.0
 40
64.006351000000123
 50
263.71945637507503
 51
269.99101261641079
  0
LINE
  5
1B662
  8
AM_0
 10
620.73511332008206
 20
185.66854174032369
 30
0.0
 11
620.75295345370671
 21
185.1619326063003
 31
0.0
  0
LINE
  5
1B663
  8
AM_0
 10
622.77164616628772
 20
185.70408997546889
 30
0.0
 11
622.75295345370637
 21
185.1619326063003
 31
0.0
  0
ARC
  5
1B664
  8
AM_0
 10
636.7629934537066
 20
249.4482846063006
 30
0.0
 40
64.006351000000123
 50
269.99101261641079
 51
278.28056736761891
  0
LINE
  5
1B665
  8
AM_0
 10
650.71745880374942
 20
186.1918917415006
 30
0.0
 11
650.75298345370663
 21
185.1619326063003
 31
0.0
  0
LINE
  5
1B666
  8
AM_0
 10
652.79049754532684
 20
186.22807719698591
 30
0.0
 11
652.75295345370625
 21
185.16192860630039
 31
0.0
  0
ARC
  5
1B667
  8
AM_0
 10
661.75271345370641
 20
186.5581466063004
 30
0.0
 40
1.000393499999999
 50
190.99352963525811
 51
359.07143799999648
  0
LINE
  5
1B669
  8
AM_0
 10
721.7529534537066
 20
178.94193460630009
 30
0.0
 11
702.25296249441533
 21
198.44192556559199
 31
0.0
  0
LINE
  5
1B66B
  8
AM_0
 10
690.25296249441533
 20
173.94193460630021
 30
0.0
 11
690.25296249441533
 21
209.44193460630021
 31
0.0
  0
LINE
  5
1B66E
  8
AM_0
 10
729.25295345370671
 20
168.94193460630009
 30
0.0
 11
695.25296249441533
 21
168.94193460630021
 31
0.0
  0
LINE
  5
1B66F
  8
AM_0
 10
729.25295345370671
 20
164.44193460630009
 30
0.0
 11
695.75296249441533
 21
164.44193460630009
 31
0.0
  0
LINE
  5
1B670
  8
ｶｸﾚｾﾝ2
 10
720.25295345370625
 20
168.94193460630009
 30
0.0
 11
720.25295345370625
 21
164.44193460630009
 31
0.0
  0
LINE
  5
1B671
  8
ｶｸﾚｾﾝ2
 10
708.25295345370625
 20
168.94193460630009
 30
0.0
 11
708.25295345370625
 21
164.44193460630009
 31
0.0
  0
LINE
  5
1B672
  8
ﾁｭｳｼﾝｾﾝ1
 10
714.25295345370637
 20
177.44193460630009
 30
0.0
 11
714.25295345370637
 21
155.94193460630009
 31
0.0
  0
ARC
  5
1B673
  8
AM_0
 10
695.25296249441533
 20
173.94193460630021
 30
0.0
 40
5.0
 50
180.0
 51
270.0
1001
GENIUS_GENOBJ-N-FIL_13
1002
{
1000
OWNER
1000
GEN
1002
}
1001
GENIUS_GENODEF_13
1002
{
1000
HIER
1070
     0
1002
}
1002
{
1000
MANEDIT
1070
     0
1002
}
1002
{
1000
NOSEL
1070
     0
1002
}
1002
{
1000
BEHIND
1070
     0
1002
}
1002
{
1000
OTHER
1070
     0
1002
}
1002
{
1000
REACTOR
1002
}
  0
LINE
  5
1B674
  8
AM_0
 10
696.39761439437905
 20
168.94193460630021
 30
0.0
 11
690.2529624944151
 21
175.08658650626421
 31
0.0
  0
LINE
  5
1B675
  8
AM_0
 10
729.25295345370671
 20
168.94193460630009
 30
0.0
 11
729.25295345370671
 21
164.44193460630009
 31
0.0
  0
LINE
  5
1B676
  8
AM_0
 10
721.7529534537066
 20
178.94193460630009
 30
0.0
 11
721.7529534537066
 21
168.94193460630009
 31
0.0
  0
LINE
  5
1B677
  8
AM_0
 10
692.25296249441533
 20
186.94245305659459
 30
0.0
 11
692.25296249441533
 21
207.94245305659459
 31
0.0
1001
GENIUS_GENOREF_13
1005
0
  0
ARC
  5
1B678
  8
AM_0
 10
701.25296249441533
 20
190.44245305659459
 30
0.0
 40
1.0
 50
270.0
 51
0.0
1001
GENIUS_GENOREF_13
1005
0
  0
ARC
  5
1B679
  8
AM_0
 10
701.25296249441533
 20
204.44245305659459
 30
0.0
 40
1.0
 50
0.0
 51
90.0
1001
GENIUS_GENOREF_13
1005
0
  0
LINE
  5
1B67A
  8
AM_0
 10
701.25296249441533
 20
189.44245305659459
 30
0.0
 11
692.25296249441533
 21
189.44245305659459
 31
0.0
1001
GENIUS_GENOREF_13
1005
0
  0
LINE
  5
1B67B
  8
AM_0
 10
690.2529624944151
 20
186.94245305659459
 30
0.0
 11
692.25296249441533
 21
186.94245305659459
 31
0.0
1001
GENIUS_GENOREF_13
1005
0
  0
LINE
  5
1B67C
  8
AM_0
 10
701.25296249441533
 20
205.44245305659459
 30
0.0
 11
692.25296249441533
 21
205.44245305659459
 31
0.0
1001
GENIUS_GENOREF_13
1005
0
  0
LINE
  5
1B67D
  8
AM_0
 10
702.25296249441533
 20
190.44245305659459
 30
0.0
 11
702.25296249441533
 21
204.44245305659459
 31
0.0
1001
GENIUS_GENOREF_13
1005
0
  0
LINE
  5
1B67E
  8
AM_0
 10
698.25294345370685
 20
215.1819246063003
 30
0.0
 11
698.25294345370685
 21
224.44193460630041
 31
0.0
  0
LINE
  5
1B67F
  8
AM_0
 10
689.75295345370682
 20
213.1733706036716
 30
0.0
 11
697.61295345370661
 21
213.44193460630041
 31
0.0
  0
LINE
  5
1B680
  8
AM_0
 10
691.13588706326573
 20
215.67979294529709
 30
0.0
 11
697.61294345370663
 21
215.44193460630029
 31
0.0
  0
LINE
  5
1B681
  8
AM_0
 10
688.25294345370685
 20
210.4786587492448
 30
0.0
 11
688.25294345370662
 21
209.44193460630021
 31
0.0
  0
ARC
  5
1B682
  8
AM_0
 10
691.25294345370685
 20
210.4786587492448
 30
0.0
 40
2.9999999999999978
 50
150.80663173194719
 51
180.0
1001
GENIUS_GENOBJ-N-FIL_13
1002
{
1000
OWNER
1000
GEN
1002
}
1001
GENIUS_GENODEF_13
1002
{
1000
HIER
1070
     0
1002
}
1002
{
1000
MANEDIT
1070
     0
1002
}
1002
{
1000
NOSEL
1070
     0
1002
}
1002
{
1000
BEHIND
1070
     0
1002
}
1002
{
1000
OTHER
1070
     0
1002
}
1002
{
1000
REACTOR
1002
}
  0
LINE
  5
1B683
  8
AM_0
 10
689.75295503322945
 20
211.94193348871329
 30
0.0
 11
685.75295491402028
 21
211.94193348871329
 31
0.0
  0
LINE
  5
1B684
  8
AM_0
 10
690.25296249441533
 20
209.44193460630021
 30
0.0
 11
685.7529624944151
 21
209.44193460630021
 31
0.0
  0
LINE
  5
1B685
  8
AM_0
 10
692.25296249441533
 20
207.94245305659459
 30
0.0
 11
690.2529624944151
 21
207.94245305659459
 31
0.0
1001
GENIUS_GENOREF_13
1005
0
  0
ARC
  5
1B686
  8
AM_0
 10
697.56722345370645
 20
214.4424546063004
 30
0.0
 40
1.000530599999998
 50
270.32720000000108
 51
87.381270000001535
  0
LINE
  5
1B687
  8
AM_0
 10
693.75295515243909
 20
226.9419339357481
 30
0.0
 11
689.75295503322945
 21
226.9419339357481
 31
0.0
  0
LINE
  5
1B688
  8
AM_0
 10
700.75294345370685
 20
220.94193460630041
 30
0.0
 11
700.75294345370685
 21
221.58193460630019
 31
0.0
  0
ARC
  5
1B689
  8
AM_0
 10
697.14942345370662
 20
224.45150460630029
 30
0.0
 40
1.090437399999999
 50
272.2876699999992
 51
89.814689999996702
  0
LINE
  5
1B68A
  8
AM_0
 10
696.14937789096655
 20
225.56284151731049
 30
0.0
 11
699.67293345370638
 21
225.44193460630029
 31
0.0
  0
LINE
  5
1B68B
  8
AM_0
 10
695.18045887884978
 20
223.28453105571509
 30
0.0
 11
697.19294345370668
 21
223.36193460630039
 31
0.0
  0
ARC
  5
1B68C
  8
AM_0
 10
699.62394345370649
 20
224.44251460630039
 30
0.0
 40
1.0006207999999981
 50
270.515970000001
 51
87.192500000004685
  0
LINE
  5
1B68D
  8
AM_0
 10
698.25294345370685
 20
223.4019246063003
 30
0.0
 11
699.67293345370638
 21
223.44193460630041
 31
0.0
  0
LINE
  5
1B68E
  8
AM_0
 10
698.25295345370682
 20
222.22193460630029
 30
0.0
 11
700.27294345370683
 21
222.08193460630019
 31
0.0
  0
ARC
  5
1B68F
  8
AM_0
 10
700.23871345370685
 20
221.56867460630039
 30
0.0
 40
0.5143923799999999
 50
1.476329999998284
 51
86.185390000000524
  0
LINE
  5
1B690
  8
AM_0
 10
698.25295345370682
 20
219.66193460630041
 30
0.0
 11
700.27294345370683
 21
219.82194460630049
 31
0.0
  0
ARC
  5
1B691
  8
AM_0
 10
700.25258345370651
 20
220.32186460630041
 30
0.0
 40
0.50035203
 50
272.33116999999959
 51
0.0071099999977622
  0
LINE
  5
1B692
  8
AM_0
 10
700.75294345370685
 20
220.94193460630041
 30
0.0
 11
700.75294345370685
 21
220.32194460630041
 31
0.0
  0
LINE
  5
1B69F
  8
AM_0
 10
607.75295258943925
 20
313.4419365136489
 30
0.0
 11
685.75296254341515
 21
312.08042524260412
 31
0.0
  0
POLYLINE
  5
1B6A4
  8
AM_0
 10
413.91840213071418
 20
300.94144660303613
 30
0.0
 66
     1
 70
     8
  0
VERTEX
  8
AM_0
  5
1CA67
 10
413.918
 20
300.941
 30
0.000000
  70
    32
  0
VERTEX
  8
AM_0
  5
1CA68
 10
413.917
 20
301.089
 30
0.000000
  70
    32
  0
VERTEX
  8
AM_0
  5
1CA69
 10
413.915
 20
301.236
 30
0.000000
  70
    32
  0
VERTEX
  8
AM_0
  5
1CA6A
 10
413.910
 20
301.383
 30
0.000000
  70
    32
  0
VERTEX
  8
AM_0
  5
1CA6B
 10
413.904
 20
301.530
 30
0.000000
  70
    32
  0
VERTEX
  8
AM_0
  5
1CA6C
 10
413.896
 20
301.677
 30
0.000000
  70
    32
  0
VERTEX
  8
AM_0
  5
1CA6D
 10
413.886
 20
301.824
 30
0.000000
  70
    32
  0
VERTEX
  8
AM_0
  5
1CA6E
 10
413.874
 20
301.971
 30
0.000000
  70
    32
  0
VERTEX
  8
AM_0
  5
1CA6F
 10
413.861
 20
302.118
 30
0.000000
  70
    32
  0
VERTEX
  8
AM_0
  5
1CA70
 10
413.845
 20
302.264
 30
0.000000
  70
    32
  0
VERTEX
  8
AM_0
  5
1CA71
 10
413.828
 20
302.410
 30
0.000000
  70
    32
  0
VERTEX
  8
AM_0
  5
1CA72
 10
413.809
 20
302.556
 30
0.000000
  70
    32
  0
VERTEX
  8
AM_0
  5
1CA73
 10
413.789
 20
302.702
 30
0.000000
  70
    32
  0
VERTEX
  8
AM_0
  5
1CA74
 10
413.766
 20
302.848
 30
0.000000
  70
    32
  0
VERTEX
  8
AM_0
  5
1CA75
 10
413.742
 20
302.993
 30
0.000000
  70
    32
  0
VERTEX
  8
AM_0
  5
1CA76
 10
413.716
 20
303.138
 30
0.000000
  70
    32
  0
VERTEX
  8
AM_0
  5
1CA77
 10
413.688
 20
303.283
 30
0.000000
  70
    32
  0
VERTEX
  8
AM_0
  5
1CA78
 10
413.658
 20
303.427
 30
0.000000
  70
    32
  0
VERTEX
  8
AM_0
  5
1CA79
 10
413.627
 20
303.571
 30
0.000000
  70
    32
  0
VERTEX
  8
AM_0
  5
1CA7A
 10
413.594
 20
303.714
 30
0.000000
  70
    32
  0
VERTEX
  8
AM_0
  5
1CA7B
 10
413.559
 20
303.857
 30
0.000000
  70
    32
  0
VERTEX
  8
AM_0
  5
1CA7C
 10
413.522
 20
304.000
 30
0.000000
  70
    32
  0
VERTEX
  8
AM_0
  5
1CA7D
 10
413.484
 20
304.142
 30
0.000000
  70
    32
  0
VERTEX
  8
AM_0
  5
1CA7E
 10
413.444
 20
304.284
 30
0.000000
  70
    32
  0
VERTEX
  8
AM_0
  5
1CA7F
 10
413.402
 20
304.425
 30
0.000000
  70
    32
  0
VERTEX
  8
AM_0
  5
1CA80
 10
413.358
 20
304.565
 30
0.000000
  70
    32
  0
VERTEX
  8
AM_0
  5
1CA81
 10
413.313
 20
304.706
 30
0.000000
  70
    32
  0
VERTEX
  8
AM_0
  5
1CA82
 10
413.266
 20
304.845
 30
0.000000
  70
    32
  0
VERTEX
  8
AM_0
  5
1CA83
 10
413.217
 20
304.984
 30
0.000000
  70
    32
  0
VERTEX
  8
AM_0
  5
1CA84
 10
413.166
 20
305.122
 30
0.000000
  70
    32
  0
VERTEX
  8
AM_0
  5
1CA85
 10
413.114
 20
305.260
 30
0.000000
  70
    32
  0
VERTEX
  8
AM_0
  5
1CA86
 10
413.060
 20
305.397
 30
0.000000
  70
    32
  0
VERTEX
  8
AM_0
  5
1CA87
 10
413.005
 20
305.534
 30
0.000000
  70
    32
  0
VERTEX
  8
AM_0
  5
1CA88
 10
412.948
 20
305.669
 30
0.000000
  70
    32
  0
VERTEX
  8
AM_0
  5
1CA89
 10
412.889
 20
305.804
 30
0.000000
  70
    32
  0
VERTEX
  8
AM_0
  5
1CA8A
 10
412.828
 20
305.939
 30
0.000000
  70
    32
  0
VERTEX
  8
AM_0
  5
1CA8B
 10
412.766
 20
306.072
 30
0.000000
  70
    32
  0
VERTEX
  8
AM_0
  5
1CA8C
 10
412.702
 20
306.205
 30
0.000000
  70
    32
  0
VERTEX
  8
AM_0
  5
1CA8D
 10
412.637
 20
306.337
 30
0.000000
  70
    32
  0
VERTEX
  8
AM_0
  5
1CA8E
 10
412.570
 20
306.468
 30
0.000000
  70
    32
  0
VERTEX
  8
AM_0
  5
1CA8F
 10
412.501
 20
306.598
 30
0.000000
  70
    32
  0
VERTEX
  8
AM_0
  5
1CA90
 10
412.431
 20
306.728
 30
0.000000
  70
    32
  0
VERTEX
  8
AM_0
  5
1CA91
 10
412.359
 20
306.856
 30
0.000000
  70
    32
  0
VERTEX
  8
AM_0
  5
1CA92
 10
412.286
 20
306.984
 30
0.000000
  70
    32
  0
VERTEX
  8
AM_0
  5
1CA93
 10
412.211
 20
307.111
 30
0.000000
  70
    32
  0
VERTEX
  8
AM_0
  5
1CA94
 10
412.135
 20
307.236
 30
0.000000
  70
    32
  0
VERTEX
  8
AM_0
  5
1CA95
 10
412.057
 20
307.361
 30
0.000000
  70
    32
  0
VERTEX
  8
AM_0
  5
1CA96
 10
411.977
 20
307.485
 30
0.000000
  70
    32
  0
VERTEX
  8
AM_0
  5
1CA97
 10
411.896
 20
307.608
 30
0.000000
  70
    32
  0
VERTEX
  8
AM_0
  5
1CA98
 10
411.813
 20
307.730
 30
0.000000
  70
    32
  0
VERTEX
  8
AM_0
  5
1CA99
 10
411.729
 20
307.851
 30
0.000000
  70
    32
  0
VERTEX
  8
AM_0
  5
1CA9A
 10
411.644
 20
307.971
 30
0.000000
  70
    32
  0
VERTEX
  8
AM_0
  5
1CA9B
 10
411.557
 20
308.090
 30
0.000000
  70
    32
  0
VERTEX
  8
AM_0
  5
1CA9C
 10
411.468
 20
308.208
 30
0.000000
  70
    32
  0
VERTEX
  8
AM_0
  5
1CA9D
 10
411.379
 20
308.324
 30
0.000000
  70
    32
  0
VERTEX
  8
AM_0
  5
1CA9E
 10
411.287
 20
308.440
 30
0.000000
  70
    32
  0
VERTEX
  8
AM_0
  5
1CA9F
 10
411.195
 20
308.554
 30
0.000000
  70
    32
  0
VERTEX
  8
AM_0
  5
1CAA0
 10
411.100
 20
308.667
 30
0.000000
  70
    32
  0
VERTEX
  8
AM_0
  5
1CAA1
 10
411.005
 20
308.779
 30
0.000000
  70
    32
  0
VERTEX
  8
AM_0
  5
1CAA2
 10
410.908
 20
308.890
 30
0.000000
  70
    32
  0
VERTEX
  8
AM_0
  5
1CAA3
 10
410.810
 20
309.000
 30
0.000000
  70
    32
  0
VERTEX
  8
AM_0
  5
1CAA4
 10
410.710
 20
309.109
 30
0.000000
  70
    32
  0
VERTEX
  8
AM_0
  5
1CAA5
 10
410.609
 20
309.216
 30
0.000000
  70
    32
  0
VERTEX
  8
AM_0
  5
1CAA6
 10
410.507
 20
309.322
 30
0.000000
  70
    32
  0
VERTEX
  8
AM_0
  5
1CAA7
 10
410.404
 20
309.427
 30
0.000000
  70
    32
  0
VERTEX
  8
AM_0
  5
1CAA8
 10
410.299
 20
309.530
 30
0.000000
  70
    32
  0
VERTEX
  8
AM_0
  5
1CAA9
 10
410.193
 20
309.632
 30
0.000000
  70
    32
  0
VERTEX
  8
AM_0
  5
1CAAA
 10
410.086
 20
309.733
 30
0.000000
  70
    32
  0
VERTEX
  8
AM_0
  5
1CAAB
 10
409.977
 20
309.833
 30
0.000000
  70
    32
  0
VERTEX
  8
AM_0
  5
1CAAC
 10
409.867
 20
309.931
 30
0.000000
  70
    32
  0
VERTEX
  8
AM_0
  5
1CAAD
 10
409.756
 20
310.028
 30
0.000000
  70
    32
  0
VERTEX
  8
AM_0
  5
1CAAE
 10
409.644
 20
310.123
 30
0.000000
  70
    32
  0
VERTEX
  8
AM_0
  5
1CAAF
 10
409.531
 20
310.217
 30
0.000000
  70
    32
  0
VERTEX
  8
AM_0
  5
1CAB0
 10
409.417
 20
310.310
 30
0.000000
  70
    32
  0
VERTEX
  8
AM_0
  5
1CAB1
 10
409.301
 20
310.402
 30
0.000000
  70
    32
  0
VERTEX
  8
AM_0
  5
1CAB2
 10
409.185
 20
310.491
 30
0.000000
  70
    32
  0
VERTEX
  8
AM_0
  5
1CAB3
 10
409.067
 20
310.580
 30
0.000000
  70
    32
  0
VERTEX
  8
AM_0
  5
1CAB4
 10
408.948
 20
310.667
 30
0.000000
  70
    32
  0
VERTEX
  8
AM_0
  5
1CAB5
 10
408.828
 20
310.752
 30
0.000000
  70
    32
  0
VERTEX
  8
AM_0
  5
1CAB6
 10
408.707
 20
310.836
 30
0.000000
  70
    32
  0
VERTEX
  8
AM_0
  5
1CAB7
 10
408.585
 20
310.919
 30
0.000000
  70
    32
  0
VERTEX
  8
AM_0
  5
1CAB8
 10
408.462
 20
311.000
 30
0.000000
  70
    32
  0
VERTEX
  8
AM_0
  5
1CAB9
 10
408.338
 20
311.080
 30
0.000000
  70
    32
  0
VERTEX
  8
AM_0
  5
1CABA
 10
408.213
 20
311.158
 30
0.000000
  70
    32
  0
VERTEX
  8
AM_0
  5
1CABB
 10
408.088
 20
311.234
 30
0.000000
  70
    32
  0
VERTEX
  8
AM_0
  5
1CABC
 10
407.961
 20
311.309
 30
0.000000
  70
    32
  0
VERTEX
  8
AM_0
  5
1CABD
 10
407.833
 20
311.382
 30
0.000000
  70
    32
  0
VERTEX
  8
AM_0
  5
1CABE
 10
407.705
 20
311.454
 30
0.000000
  70
    32
  0
VERTEX
  8
AM_0
  5
1CABF
 10
407.575
 20
311.524
 30
0.000000
  70
    32
  0
VERTEX
  8
AM_0
  5
1CAC0
 10
407.445
 20
311.593
 30
0.000000
  70
    32
  0
VERTEX
  8
AM_0
  5
1CAC1
 10
407.314
 20
311.660
 30
0.000000
  70
    32
  0
VERTEX
  8
AM_0
  5
1CAC2
 10
407.182
 20
311.725
 30
0.000000
  70
    32
  0
VERTEX
  8
AM_0
  5
1CAC3
 10
407.049
 20
311.789
 30
0.000000
  70
    32
  0
VERTEX
  8
AM_0
  5
1CAC4
 10
406.916
 20
311.851
 30
0.000000
  70
    32
  0
VERTEX
  8
AM_0
  5
1CAC5
 10
406.781
 20
311.912
 30
0.000000
  70
    32
  0
VERTEX
  8
AM_0
  5
1CAC6
 10
406.646
 20
311.971
 30
0.000000
  70
    32
  0
VERTEX
  8
AM_0
  5
1CAC7
 10
406.511
 20
312.028
 30
0.000000
  70
    32
  0
VERTEX
  8
AM_0
  5
1CAC8
 10
406.374
 20
312.083
 30
0.000000
  70
    32
  0
VERTEX
  8
AM_0
  5
1CAC9
 10
406.237
 20
312.137
 30
0.000000
  70
    32
  0
VERTEX
  8
AM_0
  5
1CACA
 10
406.099
 20
312.189
 30
0.000000
  70
    32
  0
VERTEX
  8
AM_0
  5
1CACB
 10
405.961
 20
312.240
 30
0.000000
  70
    32
  0
VERTEX
  8
AM_0
  5
1CACC
 10
405.822
 20
312.289
 30
0.000000
  70
    32
  0
VERTEX
  8
AM_0
  5
1CACD
 10
405.683
 20
312.336
 30
0.000000
  70
    32
  0
VERTEX
  8
AM_0
  5
1CACE
 10
405.542
 20
312.381
 30
0.000000
  70
    32
  0
VERTEX
  8
AM_0
  5
1CACF
 10
405.402
 20
312.425
 30
0.000000
  70
    32
  0
VERTEX
  8
AM_0
  5
1CAD0
 10
405.261
 20
312.466
 30
0.000000
  70
    32
  0
VERTEX
  8
AM_0
  5
1CAD1
 10
405.119
 20
312.507
 30
0.000000
  70
    32
  0
VERTEX
  8
AM_0
  5
1CAD2
 10
404.977
 20
312.545
 30
0.000000
  70
    32
  0
VERTEX
  8
AM_0
  5
1CAD3
 10
404.834
 20
312.582
 30
0.000000
  70
    32
  0
VERTEX
  8
AM_0
  5
1CAD4
 10
404.691
 20
312.617
 30
0.000000
  70
    32
  0
VERTEX
  8
AM_0
  5
1CAD5
 10
404.548
 20
312.650
 30
0.000000
  70
    32
  0
VERTEX
  8
AM_0
  5
1CAD6
 10
404.404
 20
312.681
 30
0.000000
  70
    32
  0
VERTEX
  8
AM_0
  5
1CAD7
 10
404.259
 20
312.711
 30
0.000000
  70
    32
  0
VERTEX
  8
AM_0
  5
1CAD8
 10
404.115
 20
312.739
 30
0.000000
  70
    32
  0
VERTEX
  8
AM_0
  5
1CAD9
 10
403.970
 20
312.765
 30
0.000000
  70
    32
  0
VERTEX
  8
AM_0
  5
1CADA
 10
403.825
 20
312.789
 30
0.000000
  70
    32
  0
VERTEX
  8
AM_0
  5
1CADB
 10
403.679
 20
312.811
 30
0.000000
  70
    32
  0
VERTEX
  8
AM_0
  5
1CADC
 10
403.533
 20
312.832
 30
0.000000
  70
    32
  0
VERTEX
  8
AM_0
  5
1CADD
 10
403.387
 20
312.851
 30
0.000000
  70
    32
  0
VERTEX
  8
AM_0
  5
1CADE
 10
403.241
 20
312.868
 30
0.000000
  70
    32
  0
VERTEX
  8
AM_0
  5
1CADF
 10
403.095
 20
312.884
 30
0.000000
  70
    32
  0
VERTEX
  8
AM_0
  5
1CAE0
 10
402.948
 20
312.897
 30
0.000000
  70
    32
  0
VERTEX
  8
AM_0
  5
1CAE1
 10
402.801
 20
312.909
 30
0.000000
  70
    32
  0
VERTEX
  8
AM_0
  5
1CAE2
 10
402.654
 20
312.919
 30
0.000000
  70
    32
  0
VERTEX
  8
AM_0
  5
1CAE3
 10
402.507
 20
312.927
 30
0.000000
  70
    32
  0
VERTEX
  8
AM_0
  5
1CAE4
 10
402.360
 20
312.933
 30
0.000000
  70
    32
  0
VERTEX
  8
AM_0
  5
1CAE5
 10
402.213
 20
312.938
 30
0.000000
  70
    32
  0
VERTEX
  8
AM_0
  5
1CAE6
 10
402.066
 20
312.940
 30
0.000000
  70
    32
  0
VERTEX
  8
AM_0
  5
1CAE7
 10
401.918
 20
312.941
 30
0.000000
  70
    32
  0
SEQEND
  8
AM_0
  5
1CAE8
  0
LINE
  5
1B6A5
  8
AM_0
 10
406.91840031616817
 20
291.94195742393589
 30
0.0
 11
411.91840031616817
 21
291.94195742393589
 31
0.0
  0
LINE
  5
1B6A6
  8
ﾁｭｳｼﾝｾﾝ1
 10
393.41840154026681
 20
300.94144660303613
 30
0.0
 11
410.41840202990608
 21
300.94144660303613
 31
0.0
  0
LINE
  5
1B6A7
  8
AM_0N
 10
408.36177598914207
 20
288.44195742393612
 30
0.0
 11
405.47502464319427
 21
288.44195742393612
 31
0.0
  0
LINE
  5
1B6A8
  8
AM_0
 10
406.91840031616817
 20
279.94195742393589
 30
0.0
 11
411.91840031616817
 21
279.94195742393589
 31
0.0
  0
LINE
  5
1B6A9
  8
AM_0N
 10
405.47502464319399
 20
283.441957423936
 30
0.0
 11
408.36177598914207
 21
283.441957423936
 31
0.0
  0
CIRCLE
  5
1B6AA
  8
AM_0N
 10
406.91840031616817
 20
285.94195742393589
 30
0.0
 40
2.886751345948126
  0
CIRCLE
  5
1B6AB
  8
AM_0N
 10
406.91840031616817
 20
285.94195742393589
 30
0.0
 40
5.0
  0
ARC
  5
1B6AC
  8
AM_0
 10
406.91840031616817
 20
285.94195742393589
 30
0.0
 40
5.9999999999999947
 50
90.000005008956919
 51
270.00001001791389
  0
LINE
  5
1B6AD
  8
ﾁｭｳｼﾝｾﾝ1
 10
401.9184017850863
 20
309.4413618563533
 30
0.0
 11
401.9184017850863
 21
292.44153134971862
 31
0.0
  0
LINE
  5
1B6AE
  8
AM_0
 10
389.00293400757448
 20
303.40941042686558
 30
0.0
 11
395.4468732165588
 21
282.42009157920938
 31
0.0
  0
ARC
  5
1B6AF
  8
AM_0
 10
406.91840031616817
 20
285.94195742393589
 30
0.0
 40
12.00000000000003
 50
197.06698732560051
 51
256.39103932404521
  0
LINE
  5
1B6B0
  8
AM_0N
 10
405.47502464319427
 20
288.44195742393612
 30
0.0
 11
404.03164897022009
 21
285.94195742393589
 31
0.0
  0
LINE
  5
1B6B1
  8
AM_0N
 10
404.03164897022009
 20
285.94195742393589
 30
0.0
 11
405.47502464319399
 21
283.441957423936
 31
0.0
  0
ARC
  5
1B6B2
  8
AM_0
 10
384.22311833374641
 20
301.941957423936
 30
0.0
 40
5.0000000000000258
 50
17.0669923345671
 51
90.000005008956919
  0
POLYLINE
  5
1B6B3
  8
AM_0
 10
407.41840194349908
 20
300.94144660303613
 30
0.0
 66
     1
 70
     8
  0
VERTEX
  8
AM_0
  5
1CAE9
 10
407.418
 20
300.941
 30
0.000000
  70
    32
  0
VERTEX
  8
AM_0
  5
1CAEA
 10
407.412
 20
301.211
 30
0.000000
  70
    32
  0
VERTEX
  8
AM_0
  5
1CAEB
 10
407.392
 20
301.481
 30
0.000000
  70
    32
  0
VERTEX
  8
AM_0
  5
1CAEC
 10
407.359
 20
301.748
 30
0.000000
  70
    32
  0
VERTEX
  8
AM_0
  5
1CAED
 10
407.313
 20
302.014
 30
0.000000
  70
    32
  0
VERTEX
  8
AM_0
  5
1CAEE
 10
407.254
 20
302.278
 30
0.000000
  70
    32
  0
VERTEX
  8
AM_0
  5
1CAEF
 10
407.182
 20
302.538
 30
0.000000
  70
    32
  0
VERTEX
  8
AM_0
  5
1CAF0
 10
407.097
 20
302.794
 30
0.000000
  70
    32
  0
VERTEX
  8
AM_0
  5
1CAF1
 10
407.000
 20
303.046
 30
0.000000
  70
    32
  0
VERTEX
  8
AM_0
  5
1CAF2
 10
406.890
 20
303.293
 30
0.000000
  70
    32
  0
VERTEX
  8
AM_0
  5
1CAF3
 10
406.769
 20
303.534
 30
0.000000
  70
    32
  0
VERTEX
  8
AM_0
  5
1CAF4
 10
406.636
 20
303.769
 30
0.000000
  70
    32
  0
VERTEX
  8
AM_0
  5
1CAF5
 10
406.491
 20
303.997
 30
0.000000
  70
    32
  0
VERTEX
  8
AM_0
  5
1CAF6
 10
406.336
 20
304.218
 30
0.000000
  70
    32
  0
VERTEX
  8
AM_0
  5
1CAF7
 10
406.170
 20
304.431
 30
0.000000
  70
    32
  0
VERTEX
  8
AM_0
  5
1CAF8
 10
405.994
 20
304.635
 30
0.000000
  70
    32
  0
VERTEX
  8
AM_0
  5
1CAF9
 10
405.807
 20
304.830
 30
0.000000
  70
    32
  0
VERTEX
  8
AM_0
  5
1CAFA
 10
405.612
 20
305.017
 30
0.000000
  70
    32
  0
VERTEX
  8
AM_0
  5
1CAFB
 10
405.408
 20
305.193
 30
0.000000
  70
    32
  0
VERTEX
  8
AM_0
  5
1CAFC
 10
405.195
 20
305.359
 30
0.000000
  70
    32
  0
VERTEX
  8
AM_0
  5
1CAFD
 10
404.974
 20
305.514
 30
0.000000
  70
    32
  0
VERTEX
  8
AM_0
  5
1CAFE
 10
404.746
 20
305.659
 30
0.000000
  70
    32
  0
VERTEX
  8
AM_0
  5
1CAFF
 10
404.511
 20
305.792
 30
0.000000
  70
    32
  0
VERTEX
  8
AM_0
  5
1CB00
 10
404.270
 20
305.913
 30
0.000000
  70
    32
  0
VERTEX
  8
AM_0
  5
1CB01
 10
404.023
 20
306.023
 30
0.000000
  70
    32
  0
VERTEX
  8
AM_0
  5
1CB02
 10
403.771
 20
306.120
 30
0.000000
  70
    32
  0
VERTEX
  8
AM_0
  5
1CB03
 10
403.515
 20
306.205
 30
0.000000
  70
    32
  0
VERTEX
  8
AM_0
  5
1CB04
 10
403.255
 20
306.277
 30
0.000000
  70
    32
  0
VERTEX
  8
AM_0
  5
1CB05
 10
402.991
 20
306.336
 30
0.000000
  70
    32
  0
VERTEX
  8
AM_0
  5
1CB06
 10
402.725
 20
306.382
 30
0.000000
  70
    32
  0
VERTEX
  8
AM_0
  5
1CB07
 10
402.457
 20
306.415
 30
0.000000
  70
    32
  0
VERTEX
  8
AM_0
  5
1CB08
 10
402.188
 20
306.435
 30
0.000000
  70
    32
  0
VERTEX
  8
AM_0
  5
1CB09
 10
401.918
 20
306.441
 30
0.000000
  70
    32
  0
VERTEX
  8
AM_0
  5
1CB0A
 10
401.649
 20
306.435
 30
0.000000
  70
    32
  0
VERTEX
  8
AM_0
  5
1CB0B
 10
401.379
 20
306.415
 30
0.000000
  70
    32
  0
VERTEX
  8
AM_0
  5
1CB0C
 10
401.111
 20
306.382
 30
0.000000
  70
    32
  0
VERTEX
  8
AM_0
  5
1CB0D
 10
400.845
 20
306.336
 30
0.000000
  70
    32
  0
VERTEX
  8
AM_0
  5
1CB0E
 10
400.582
 20
306.277
 30
0.000000
  70
    32
  0
VERTEX
  8
AM_0
  5
1CB0F
 10
400.322
 20
306.205
 30
0.000000
  70
    32
  0
VERTEX
  8
AM_0
  5
1CB10
 10
400.066
 20
306.120
 30
0.000000
  70
    32
  0
VERTEX
  8
AM_0
  5
1CB11
 10
399.814
 20
306.023
 30
0.000000
  70
    32
  0
VERTEX
  8
AM_0
  5
1CB12
 10
399.567
 20
305.913
 30
0.000000
  70
    32
  0
VERTEX
  8
AM_0
  5
1CB13
 10
399.326
 20
305.792
 30
0.000000
  70
    32
  0
VERTEX
  8
AM_0
  5
1CB14
 10
399.091
 20
305.659
 30
0.000000
  70
    32
  0
VERTEX
  8
AM_0
  5
1CB15
 10
398.863
 20
305.514
 30
0.000000
  70
    32
  0
VERTEX
  8
AM_0
  5
1CB16
 10
398.642
 20
305.359
 30
0.000000
  70
    32
  0
VERTEX
  8
AM_0
  5
1CB17
 10
398.429
 20
305.193
 30
0.000000
  70
    32
  0
VERTEX
  8
AM_0
  5
1CB18
 10
398.225
 20
305.017
 30
0.000000
  70
    32
  0
VERTEX
  8
AM_0
  5
1CB19
 10
398.029
 20
304.830
 30
0.000000
  70
    32
  0
VERTEX
  8
AM_0
  5
1CB1A
 10
397.843
 20
304.635
 30
0.000000
  70
    32
  0
VERTEX
  8
AM_0
  5
1CB1B
 10
397.667
 20
304.431
 30
0.000000
  70
    32
  0
VERTEX
  8
AM_0
  5
1CB1C
 10
397.501
 20
304.218
 30
0.000000
  70
    32
  0
VERTEX
  8
AM_0
  5
1CB1D
 10
397.345
 20
303.997
 30
0.000000
  70
    32
  0
VERTEX
  8
AM_0
  5
1CB1E
 10
397.201
 20
303.769
 30
0.000000
  70
    32
  0
VERTEX
  8
AM_0
  5
1CB1F
 10
397.068
 20
303.534
 30
0.000000
  70
    32
  0
VERTEX
  8
AM_0
  5
1CB20
 10
396.946
 20
303.293
 30
0.000000
  70
    32
  0
VERTEX
  8
AM_0
  5
1CB21
 10
396.837
 20
303.046
 30
0.000000
  70
    32
  0
VERTEX
  8
AM_0
  5
1CB22
 10
396.740
 20
302.794
 30
0.000000
  70
    32
  0
VERTEX
  8
AM_0
  5
1CB23
 10
396.655
 20
302.538
 30
0.000000
  70
    32
  0
VERTEX
  8
AM_0
  5
1CB24
 10
396.583
 20
302.278
 30
0.000000
  70
    32
  0
VERTEX
  8
AM_0
  5
1CB25
 10
396.524
 20
302.014
 30
0.000000
  70
    32
  0
VERTEX
  8
AM_0
  5
1CB26
 10
396.478
 20
301.748
 30
0.000000
  70
    32
  0
VERTEX
  8
AM_0
  5
1CB27
 10
396.445
 20
301.481
 30
0.000000
  70
    32
  0
VERTEX
  8
AM_0
  5
1CB28
 10
396.425
 20
301.211
 30
0.000000
  70
    32
  0
VERTEX
  8
AM_0
  5
1CB29
 10
396.418
 20
300.941
 30
0.000000
  70
    32
  0
VERTEX
  8
AM_0
  5
1CB2A
 10
396.425
 20
300.672
 30
0.000000
  70
    32
  0
VERTEX
  8
AM_0
  5
1CB2B
 10
396.445
 20
300.402
 30
0.000000
  70
    32
  0
VERTEX
  8
AM_0
  5
1CB2C
 10
396.478
 20
300.134
 30
0.000000
  70
    32
  0
VERTEX
  8
AM_0
  5
1CB2D
 10
396.524
 20
299.868
 30
0.000000
  70
    32
  0
VERTEX
  8
AM_0
  5
1CB2E
 10
396.583
 20
299.605
 30
0.000000
  70
    32
  0
VERTEX
  8
AM_0
  5
1CB2F
 10
396.655
 20
299.345
 30
0.000000
  70
    32
  0
VERTEX
  8
AM_0
  5
1CB30
 10
396.740
 20
299.089
 30
0.000000
  70
    32
  0
VERTEX
  8
AM_0
  5
1CB31
 10
396.837
 20
298.837
 30
0.000000
  70
    32
  0
VERTEX
  8
AM_0
  5
1CB32
 10
396.946
 20
298.590
 30
0.000000
  70
    32
  0
VERTEX
  8
AM_0
  5
1CB33
 10
397.068
 20
298.349
 30
0.000000
  70
    32
  0
VERTEX
  8
AM_0
  5
1CB34
 10
397.201
 20
298.114
 30
0.000000
  70
    32
  0
VERTEX
  8
AM_0
  5
1CB35
 10
397.345
 20
297.886
 30
0.000000
  70
    32
  0
VERTEX
  8
AM_0
  5
1CB36
 10
397.501
 20
297.665
 30
0.000000
  70
    32
  0
VERTEX
  8
AM_0
  5
1CB37
 10
397.667
 20
297.452
 30
0.000000
  70
    32
  0
VERTEX
  8
AM_0
  5
1CB38
 10
397.843
 20
297.248
 30
0.000000
  70
    32
  0
VERTEX
  8
AM_0
  5
1CB39
 10
398.029
 20
297.052
 30
0.000000
  70
    32
  0
VERTEX
  8
AM_0
  5
1CB3A
 10
398.225
 20
296.866
 30
0.000000
  70
    32
  0
VERTEX
  8
AM_0
  5
1CB3B
 10
398.429
 20
296.690
 30
0.000000
  70
    32
  0
VERTEX
  8
AM_0
  5
1CB3C
 10
398.642
 20
296.524
 30
0.000000
  70
    32
  0
VERTEX
  8
AM_0
  5
1CB3D
 10
398.863
 20
296.368
 30
0.000000
  70
    32
  0
VERTEX
  8
AM_0
  5
1CB3E
 10
399.091
 20
296.224
 30
0.000000
  70
    32
  0
VERTEX
  8
AM_0
  5
1CB3F
 10
399.326
 20
296.091
 30
0.000000
  70
    32
  0
VERTEX
  8
AM_0
  5
1CB40
 10
399.567
 20
295.970
 30
0.000000
  70
    32
  0
VERTEX
  8
AM_0
  5
1CB41
 10
399.814
 20
295.860
 30
0.000000
  70
    32
  0
VERTEX
  8
AM_0
  5
1CB42
 10
400.066
 20
295.763
 30
0.000000
  70
    32
  0
VERTEX
  8
AM_0
  5
1CB43
 10
400.322
 20
295.678
 30
0.000000
  70
    32
  0
VERTEX
  8
AM_0
  5
1CB44
 10
400.582
 20
295.606
 30
0.000000
  70
    32
  0
VERTEX
  8
AM_0
  5
1CB45
 10
400.845
 20
295.547
 30
0.000000
  70
    32
  0
VERTEX
  8
AM_0
  5
1CB46
 10
401.111
 20
295.501
 30
0.000000
  70
    32
  0
VERTEX
  8
AM_0
  5
1CB47
 10
401.379
 20
295.468
 30
0.000000
  70
    32
  0
VERTEX
  8
AM_0
  5
1CB48
 10
401.649
 20
295.448
 30
0.000000
  70
    32
  0
VERTEX
  8
AM_0
  5
1CB49
 10
401.918
 20
295.442
 30
0.000000
  70
    32
  0
VERTEX
  8
AM_0
  5
1CB4A
 10
402.188
 20
295.448
 30
0.000000
  70
    32
  0
VERTEX
  8
AM_0
  5
1CB4B
 10
402.457
 20
295.468
 30
0.000000
  70
    32
  0
VERTEX
  8
AM_0
  5
1CB4C
 10
402.725
 20
295.501
 30
0.000000
  70
    32
  0
VERTEX
  8
AM_0
  5
1CB4D
 10
402.991
 20
295.547
 30
0.000000
  70
    32
  0
VERTEX
  8
AM_0
  5
1CB4E
 10
403.255
 20
295.606
 30
0.000000
  70
    32
  0
VERTEX
  8
AM_0
  5
1CB4F
 10
403.515
 20
295.678
 30
0.000000
  70
    32
  0
VERTEX
  8
AM_0
  5
1CB50
 10
403.771
 20
295.763
 30
0.000000
  70
    32
  0
VERTEX
  8
AM_0
  5
1CB51
 10
404.023
 20
295.860
 30
0.000000
  70
    32
  0
VERTEX
  8
AM_0
  5
1CB52
 10
404.270
 20
295.970
 30
0.000000
  70
    32
  0
VERTEX
  8
AM_0
  5
1CB53
 10
404.511
 20
296.091
 30
0.000000
  70
    32
  0
VERTEX
  8
AM_0
  5
1CB54
 10
404.746
 20
296.224
 30
0.000000
  70
    32
  0
VERTEX
  8
AM_0
  5
1CB55
 10
404.974
 20
296.368
 30
0.000000
  70
    32
  0
VERTEX
  8
AM_0
  5
1CB56
 10
405.195
 20
296.524
 30
0.000000
  70
    32
  0
VERTEX
  8
AM_0
  5
1CB57
 10
405.408
 20
296.690
 30
0.000000
  70
    32
  0
VERTEX
  8
AM_0
  5
1CB58
 10
405.612
 20
296.866
 30
0.000000
  70
    32
  0
VERTEX
  8
AM_0
  5
1CB59
 10
405.807
 20
297.052
 30
0.000000
  70
    32
  0
VERTEX
  8
AM_0
  5
1CB5A
 10
405.994
 20
297.248
 30
0.000000
  70
    32
  0
VERTEX
  8
AM_0
  5
1CB5B
 10
406.170
 20
297.452
 30
0.000000
  70
    32
  0
VERTEX
  8
AM_0
  5
1CB5C
 10
406.336
 20
297.665
 30
0.000000
  70
    32
  0
VERTEX
  8
AM_0
  5
1CB5D
 10
406.491
 20
297.886
 30
0.000000
  70
    32
  0
VERTEX
  8
AM_0
  5
1CB5E
 10
406.636
 20
298.114
 30
0.000000
  70
    32
  0
VERTEX
  8
AM_0
  5
1CB5F
 10
406.769
 20
298.349
 30
0.000000
  70
    32
  0
VERTEX
  8
AM_0
  5
1CB60
 10
406.890
 20
298.590
 30
0.000000
  70
    32
  0
VERTEX
  8
AM_0
  5
1CB61
 10
407.000
 20
298.837
 30
0.000000
  70
    32
  0
VERTEX
  8
AM_0
  5
1CB62
 10
407.097
 20
299.089
 30
0.000000
  70
    32
  0
VERTEX
  8
AM_0
  5
1CB63
 10
407.182
 20
299.345
 30
0.000000
  70
    32
  0
VERTEX
  8
AM_0
  5
1CB64
 10
407.254
 20
299.605
 30
0.000000
  70
    32
  0
VERTEX
  8
AM_0
  5
1CB65
 10
407.313
 20
299.868
 30
0.000000
  70
    32
  0
VERTEX
  8
AM_0
  5
1CB66
 10
407.359
 20
300.134
 30
0.000000
  70
    32
  0
VERTEX
  8
AM_0
  5
1CB67
 10
407.392
 20
300.402
 30
0.000000
  70
    32
  0
VERTEX
  8
AM_0
  5
1CB68
 10
407.412
 20
300.672
 30
0.000000
  70
    32
  0
VERTEX
  8
AM_0
  5
1CB69
 10
407.418
 20
300.941
 30
0.000000
  70
    32
  0
SEQEND
  8
AM_0
  5
1CB6A
  0
ARC
  5
1B6B4
  8
AM_0
 10
411.91840031616817
 20
293.941957423936
 30
0.0
 40
2.0
 50
270.0
 51
0.0000025044817295
  0
ARC
  5
1B6B5
  8
AM_0
 10
411.91840031616817
 20
277.94195742393589
 30
0.0
 40
2.0000000000000022
 50
0.0000025044817295
 51
90.000005008956919
  0
LINE
  5
1B6B6
  8
AM_0N
 10
409.80515166211632
 20
285.94195742393589
 30
0.0
 11
408.36177598914207
 21
288.44195742393612
 31
0.0
  0
LINE
  5
1B6B7
  8
AM_0N
 10
408.36177598914207
 20
283.441957423936
 30
0.0
 11
409.80515166211632
 21
285.94195742393589
 31
0.0
  0
LINE
  5
1B6BB
  8
AM_0
 10
613.75295345370648
 20
346.4419146063002
 30
0.0
 11
618.95296345370639
 21
349.44193460630038
 31
0.0
  0
LINE
  5
1B6BC
  8
AM_0
 10
607.75295345370625
 20
313.44193460630021
 30
0.0
 11
629.83855397335731
 21
313.05642875835611
 31
0.0
  0
LINE
  5
1B6BD
  8
AM_0
 10
606.25295345370637
 20
327.94193460630032
 30
0.0
 11
667.2529534537066
 21
327.94193460630032
 31
0.0
  0
LINE
  5
1B6BE
  8
AM_0
 10
605.25295345370648
 20
321.44193460630038
 30
0.0
 11
668.25295345370671
 21
321.44193460630038
 31
0.0
  0
LINE
  5
1B6BF
  8
AM_0
 10
666.75295345370648
 20
319.44193460630038
 30
0.0
 11
606.7129734537067
 21
319.44193460630038
 31
0.0
  0
LINE
  5
1B6C0
  8
AM_0
 10
603.25295345370671
 20
324.44193460630038
 30
0.0
 11
670.25295345370625
 21
324.44193460630038
 31
0.0
  0
LINE
  5
1B6C1
  8
AM_0
 10
607.75295345370625
 20
346.44193460630021
 30
0.0
 11
665.75295345370671
 21
346.44193460630021
 31
0.0
  0
ARC
  5
1B6C2
  8
AM_0
 10
604.59459345370658
 20
315.35991460630009
 30
0.0
 40
1.9992131999999989
 50
202.90132999999651
 51
358.33797800000428
  0
ARC
  5
1B6C3
  8
AM_0
 10
601.75310345370644
 20
314.3340246063002
 30
0.0
 40
1.000231299999998
 50
1.598942999999047
 51
180.692579999999
  0
LINE
  5
1B6C4
  8
AM_0
 10
606.54861208792147
 20
313.42091246035761
 30
0.0
 11
606.75297548858316
 21
321.44193460630021
 31
0.0
  0
ARC
  5
1B6C5
  8
AM_0
 10
582.25295345370671
 20
288.45301358485523
 30
0.0
 40
2.9999999999999978
 50
329.75537130699428
 51
0.0
1001
GENIUS_GENOBJ-N-FIL_13
1002
{
1000
OWNER
1000
GEN
1002
}
1001
GENIUS_GENODEF_13
1002
{
1000
HIER
1070
     0
1002
}
1002
{
1000
MANEDIT
1070
     0
1002
}
1002
{
1000
NOSEL
1070
     0
1002
}
1002
{
1000
BEHIND
1070
     0
1002
}
1002
{
1000
OTHER
1070
     0
1002
}
1002
{
1000
REACTOR
1002
}
  0
LINE
  5
1B6C6
  8
AM_0
 10
583.75294424478864
 20
286.94193572388753
 30
0.0
 11
587.7529443639977
 21
286.94193572388753
 31
0.0
  0
ARC
  5
1B6C7
  8
AM_0
 10
590.2466034537066
 20
295.94828560630037
 30
0.0
 40
4.9936542999999984
 50
119.9579157870231
 51
180.0728599999961
  0
LINE
  5
1B6C8
  8
AM_0
 10
575.25295345370671
 20
274.44193760630031
 30
0.0
 11
575.25295345370671
 21
283.70193160630032
 31
0.0
  0
LINE
  5
1B6C9
  8
AM_0
 10
578.37393350474144
 20
275.60596797787059
 30
0.0
 11
576.29293345370672
 21
275.5419356063004
 31
0.0
  0
LINE
  5
1B6CA
  8
AM_0
 10
577.40313591762174
 20
273.31874522325808
 30
0.0
 11
573.81292345370673
 21
273.44193760630043
 31
0.0
  0
LINE
  5
1B6CB
  8
AM_0
 10
575.25295345370671
 20
275.50193560630032
 30
0.0
 11
573.81295345370654
 21
275.44192960630028
 31
0.0
  0
ARC
  5
1B6CC
  8
AM_0
 10
573.23565345370673
 20
277.30442560630041
 30
0.0
 40
0.48302591
 50
177.92275099999961
 51
267.3053600000008
  0
LINE
  5
1B6CD
  8
AM_0
 10
572.75295345370671
 20
277.94193760630043
 30
0.0
 11
572.75295345370671
 21
277.32193460630032
 31
0.0
  0
ARC
  5
1B6CE
  8
AM_0
 10
573.24999345370668
 20
278.58623260630031
 30
0.0
 40
0.4970828599999999
 50
94.276144500001337
 51
180.4957440000002
  0
LINE
  5
1B6CF
  8
AM_0
 10
572.75295345370671
 20
277.94193760630043
 30
0.0
 11
572.75295345370671
 21
278.5819366063003
 31
0.0
  0
LINE
  5
1B6D0
  8
AM_0
 10
575.25295345370671
 20
279.2219366063004
 30
0.0
 11
573.21294345370677
 21
279.08193660630042
 31
0.0
  0
LINE
  5
1B6D1
  8
AM_0
 10
575.25292345370667
 20
276.68193560630021
 30
0.0
 11
573.21294345370677
 21
276.8219346063002
 31
0.0
  0
ARC
  5
1B6D2
  8
AM_0
 10
576.32265345370672
 20
274.45175660630019
 30
0.0
 40
1.0902267999999991
 50
89.459459999998046
 51
268.43818999999951
  0
ARC
  5
1B6D3
  8
AM_0
 10
573.84829345370667
 20
274.44162460630031
 30
0.0
 40
1.000317799999999
 50
89.733790000001335
 51
267.9746900000024
  0
LINE
  5
1B6D4
  8
AM_0
 10
579.75294412557923
 20
271.94193527685258
 30
0.0
 11
583.75294424478864
 21
271.94193527685258
 31
0.0
  0
LINE
  5
1B6D5
  8
AM_0
 10
582.41786296252008
 20
283.22006948913952
 30
0.0
 11
575.8729534537066
 21
283.44192960630039
 31
0.0
  0
LINE
  5
1B6D6
  8
AM_0
 10
583.75295345370671
 20
285.7291361110822
 30
0.0
 11
575.8729534537066
 21
285.44193760630043
 31
0.0
  0
ARC
  5
1B6D7
  8
AM_0
 10
575.90590345370663
 20
284.44337160630027
 30
0.0
 40
0.9985855199999996
 50
89.596309999995796
 51
250.52255000000429
  0
LINE
  5
1B6D8
  8
AM_0
 10
585.25295345370671
 20
288.45301358485523
 30
0.0
 11
585.25295345370671
 21
295.94193760630043
 31
0.0
  0
LINE
  5
1B6D9
  8
AM_0
 10
587.75295199339268
 20
313.09284592707343
 30
0.0
 11
607.75295258943925
 21
313.4419365136489
 31
0.0
  0
LINE
  5
1B6DA
  8
AM_0
 10
600.71746991926341
 20
313.31912809492411
 30
0.0
 11
600.75298345370663
 21
314.36193460630022
 31
0.0
  0
LINE
  5
1B6DB
  8
AM_0
 10
602.79647587091733
 20
313.35541777804292
 30
0.0
 11
602.75298345370618
 21
314.58193460630031
 31
0.0
  0
LINE
  5
1B6DC
  8
AM_0
 10
605.25295345370648
 20
339.44193460630038
 30
0.0
 11
605.25295345370648
 21
321.44193460630038
 31
0.0
  0
LINE
  5
1B6DD
  8
AM_0
 10
603.25295345370671
 20
324.44193460630038
 30
0.0
 11
603.25295345370671
 21
339.44193460630038
 31
0.0
  0
LINE
  5
1B6DE
  8
AM_0
 10
606.75295345370625
 20
345.44193460630032
 30
0.0
 11
606.75295345370625
 21
327.94193460630032
 31
0.0
  0
ARC
  5
1B6DF
  8
AM_0
 10
606.25295345370637
 20
326.94193460630038
 30
0.0
 40
0.9999999999999998
 50
89.999989999998988
 51
180.0
  0
LINE
  5
1B6E0
  8
AM_0
 10
606.25295345370637
 20
340.44193460630032
 30
0.0
 11
606.75295345370625
 21
340.44193460630032
 31
0.0
  0
ARC
  5
1B6E1
  8
AM_0
 10
607.75295345370625
 20
345.44193460630032
 30
0.0
 40
0.9999999999999998
 50
89.999989999998988
 51
180.0
  0
LINE
  5
1B6E2
  8
AM_0
 10
605.25295345370648
 20
339.44193460630038
 30
0.0
 11
603.25295345370671
 21
339.44193460630038
 31
0.0
  0
ARC
  5
1B6E3
  8
AM_0
 10
606.25295345370637
 20
339.44193460630038
 30
0.0
 40
0.9999999999999998
 50
89.999989999998988
 51
180.0
  0
ARC
  5
1B6E4
  8
AM_0
 10
671.75283345370644
 20
314.33470460630019
 30
0.0
 40
1.000226099999999
 50
359.26866700000079
 51
178.4398199999994
  0
ARC
  5
1B6E5
  8
AM_0
 10
668.92174345370631
 20
315.36428460630032
 30
0.0
 40
2.0097484999999988
 50
181.7779099999986
 51
337.0903460000016
  0
LINE
  5
1B6E6
  8
AM_0
 10
666.99463427252465
 20
312.40786653206499
 30
0.0
 11
666.75295194207843
 21
321.44193460630021
 31
0.0
  0
ARC
  5
1B6E7
  8
AM_0
 10
636.77956345370615
 20
249.4444246063002
 30
0.0
 40
63.989566999999987
 50
90.023826395586525
 51
96.227180359218863
  0
LINE
  5
1B6E8
  8
AM_0
 10
645.93637306061999
 20
312.77544009373912
 30
0.0
 11
629.83855397335719
 21
313.05642875835611
 31
0.0
  0
ARC
  5
1B6E9
  8
AM_0
 10
636.77956345370615
 20
249.4444246063002
 30
0.0
 40
63.989566999999987
 50
81.772818308286745
 51
90.023826395586525
  0
LINE
  5
1B6EA
  8
AM_0
 10
670.69355930144377
 20
312.34330151249549
 30
0.0
 11
670.77294345370626
 21
314.58193460630031
 31
0.0
  0
LINE
  5
1B6EB
  8
AM_0
 10
672.82615310688379
 20
312.30607692435012
 30
0.0
 11
672.75295345370637
 21
314.36194460630031
 31
0.0
  0
LINE
  5
1B6EC
  8
AM_0
 10
618.95296345370639
 20
349.44193460630038
 30
0.0
 11
654.56295345370654
 21
349.44193460630038
 31
0.0
  0
LINE
  5
1B6ED
  8
AM_0
 10
670.25295345370625
 20
324.44193460630038
 30
0.0
 11
670.25295345370625
 21
339.44193460630038
 31
0.0
  0
LINE
  5
1B6EE
  8
AM_0
 10
668.25295345370671
 20
339.44193460630038
 30
0.0
 11
668.25295345370671
 21
321.44193460630038
 31
0.0
  0
LINE
  5
1B6EF
  8
AM_0
 10
666.75295345370648
 20
345.44193460630032
 30
0.0
 11
666.75295345370648
 21
327.94193460630032
 31
0.0
  0
ARC
  5
1B6F0
  8
AM_0
 10
667.2529534537066
 20
326.94193460630038
 30
0.0
 40
0.9999999999999998
 50
0.0000029999976964
 51
90.000010000001026
  0
LINE
  5
1B6F1
  8
AM_0
 10
668.25295345370671
 20
339.44193460630038
 30
0.0
 11
670.25295345370625
 21
339.44193460630038
 31
0.0
  0
ARC
  5
1B6F2
  8
AM_0
 10
667.2529534537066
 20
339.44193460630038
 30
0.0
 40
0.9999999999999998
 50
0.0000029999976964
 51
90.000010000001026
  0
LINE
  5
1B6F3
  8
AM_0
 10
659.75295345370648
 20
346.44193460630021
 30
0.0
 11
654.56295345370654
 21
349.44193460630038
 31
0.0
  0
LINE
  5
1B6F4
  8
AM_0
 10
666.75295345370648
 20
340.44193460630032
 30
0.0
 11
667.2529534537066
 21
340.44193460630032
 31
0.0
  0
ARC
  5
1B6F5
  8
AM_0
 10
665.75295345370671
 20
345.44193460630032
 30
0.0
 40
0.9999999999999998
 50
0.0000029999976964
 51
90.000010000001026
  0
LINE
  5
1B6F6
  8
AM_0
 10
688.25294345370685
 20
295.94193760630043
 30
0.0
 11
688.25294345370685
 21
288.425210463356
 31
0.0
  0
LINE
  5
1B6F7
  8
AM_0
 10
698.25294345370685
 20
274.44193760630031
 30
0.0
 11
698.25294345370685
 21
283.70193160630032
 31
0.0
  0
LINE
  5
1B6F8
  8
AM_0
 10
693.75295515243909
 20
271.94193527685258
 30
0.0
 11
689.75295503322945
 21
271.94193527685258
 31
0.0
  0
LINE
  5
1B6F9
  8
AM_0
 10
698.25294345370685
 20
275.50193560630032
 30
0.0
 11
699.67293345370638
 21
275.4419376063002
 31
0.0
  0
LINE
  5
1B6FA
  8
AM_0
 10
695.19834547881794
 20
275.6033042519494
 30
0.0
 11
697.19294345370668
 21
275.5419356063004
 31
0.0
  0
LINE
  5
1B6FB
  8
AM_0
 10
698.25294345370685
 20
276.68193560630021
 30
0.0
 11
700.27294345370683
 21
276.8219346063002
 31
0.0
  0
ARC
  5
1B6FC
  8
AM_0
 10
700.25258345370651
 20
277.3218736063003
 30
0.0
 40
0.50035203
 50
272.33116999999959
 51
0.0071099999977622
  0
LINE
  5
1B6FD
  8
AM_0
 10
700.75294345370685
 20
277.94193760630043
 30
0.0
 11
700.75294345370685
 21
277.32193460630032
 31
0.0
  0
LINE
  5
1B6FE
  8
AM_0
 10
698.25295345370682
 20
279.2219366063004
 30
0.0
 11
700.27294345370683
 21
279.08193660630042
 31
0.0
  0
ARC
  5
1B6FF
  8
AM_0
 10
700.23871345370685
 20
278.56868460630028
 30
0.0
 40
0.5143923799999999
 50
1.476329999998284
 51
86.185390000000524
  0
LINE
  5
1B700
  8
AM_0
 10
700.75294345370685
 20
277.94193760630043
 30
0.0
 11
700.75294345370685
 21
278.5819366063003
 31
0.0
  0
LINE
  5
1B701
  8
AM_0
 10
696.16679220791764
 20
273.32162960088618
 30
0.0
 11
699.67295345370655
 21
273.44193760630043
 31
0.0
  0
ARC
  5
1B702
  8
AM_0
 10
697.14942345370662
 20
274.4515046063002
 30
0.0
 40
1.090437399999999
 50
272.2876699999992
 51
89.814680000002028
  0
ARC
  5
1B703
  8
AM_0
 10
699.62377345370635
 20
274.44134960630032
 30
0.0
 40
1.000625599999998
 50
272.81706999999841
 51
89.474460000001088
  0
LINE
  5
1B704
  8
AM_0
 10
691.15146720536961
 20
283.22289872793198
 30
0.0
 11
697.61294345370663
 21
283.44193760630043
 31
0.0
  0
LINE
  5
1B705
  8
AM_0
 10
689.75295345370625
 20
285.72839849012718
 30
0.0
 11
697.61294345370663
 21
285.44192960630028
 31
0.0
  0
LINE
  5
1B706
  8
AM_0
 10
689.75295503322945
 20
286.94193572388753
 30
0.0
 11
685.75295491402028
 21
286.94193572388753
 31
0.0
  0
ARC
  5
1B707
  8
AM_0
 10
691.25294345370685
 20
288.4252104633556
 30
0.0
 40
2.9999999999999978
 50
180.0
 51
209.63186016401721
1001
GENIUS_GENOBJ-N-FIL_13
1002
{
1000
OWNER
1000
GEN
1002
}
1001
GENIUS_GENODEF_13
1002
{
1000
HIER
1070
     0
1002
}
1002
{
1000
MANEDIT
1070
     0
1002
}
1002
{
1000
NOSEL
1070
     0
1002
}
1002
{
1000
BEHIND
1070
     0
1002
}
1002
{
1000
OTHER
1070
     0
1002
}
1002
{
1000
REACTOR
1002
}
  0
ARC
  5
1B708
  8
AM_0
 10
697.56705345370654
 20
284.44141860630032
 30
0.0
 40
1.000534899999999
 50
272.6283099999971
 51
89.663219999999669
  0
ARC
  5
1B709
  8
AM_0
 10
683.24239345370654
 20
295.93138660630029
 30
0.0
 40
5.010561899999999
 50
0.1206499999969444
 51
59.930270900922629
  0
LINE
  5
1BEB7
  8
AM_0
 10
172.91830655013629
 20
548.77192577968879
 30
0.0
 11
98.918306550136336
 21
548.77192577968879
 31
0.0
  0
LINE
  5
1BEB8
  8
AM_0
 10
172.91830655013629
 20
547.27192577968879
 30
0.0
 11
98.918306550136336
 21
547.27192577968879
 31
0.0
  0
LINE
  5
1BEB9
  8
AM_0
 10
172.91830655013629
 20
485.77192577968879
 30
0.0
 11
98.918306550136336
 21
485.77192577968879
 31
0.0
  0
LINE
  5
1BEBA
  8
AM_0
 10
172.91830655013629
 20
487.27192577968862
 30
0.0
 11
98.918306550136336
 21
487.27192577968862
 31
0.0
  0
LINE
  5
1BEBB
  8
AM_0
 10
115.91830655013629
 20
550.27192577968856
 30
0.0
 11
101.91830655013629
 21
550.27192577968856
 31
0.0
  0
LINE
  5
1BEBC
  8
AM_0
 10
115.91830655013641
 20
484.27192577968867
 30
0.0
 11
101.91830655013641
 21
484.27192577968839
 31
0.0
  0
LINE
  5
1BEBD
  8
AM_0
 10
93.418306550136322
 20
470.92193677968868
 30
0.0
 11
195.41830655013629
 21
470.92193677968868
 31
0.0
  0
LINE
  5
1BEBE
  8
AM_0
 10
53.09829655013629
 20
483.90191677968869
 30
0.0
 11
112.91830655013629
 21
483.90191677968869
 31
0.0
  0
LINE
  5
1BEBF
  8
AM_0
 10
144.41830655013629
 20
481.27192677968861
 30
0.0
 11
53.968356550136257
 21
481.27192677968861
 31
0.0
  0
LINE
  5
1BEC0
  8
AM_0
 10
53.09829655013629
 20
480.55193377968868
 30
0.0
 11
144.41830655013629
 21
480.55193377968868
 31
0.0
  0
LINE
  5
1BEC1
  8
AM_0
 10
71.418306550136307
 20
455.41191877968879
 30
0.0
 11
188.2283065501361
 21
455.41191877968879
 31
0.0
  0
LINE
  5
1BEC2
  8
AM_0
 10
93.418306550136322
 20
563.62191577968872
 30
0.0
 11
195.41830655013629
 21
563.62191577968872
 31
0.0
  0
LINE
  5
1BEC3
  8
AM_0
 10
71.418306550136307
 20
579.13192577968857
 30
0.0
 11
188.2283065501361
 21
579.13192577968857
 31
0.0
  0
LINE
  5
1BEC4
  8
AM_0
 10
71.418306550136307
 20
583.19192577968875
 30
0.0
 11
124.4183665501363
 21
583.19192577968875
 31
0.0
  0
LINE
  5
1BEC5
  8
AM_0
 10
71.418306550136307
 20
582.51191577968871
 30
0.0
 11
124.4183665501363
 21
582.51191577968871
 31
0.0
  0
LINE
  5
1BEC6
  8
AM_0
 10
71.418306550136307
 20
581.16192577968877
 30
0.0
 11
124.4183665501363
 21
581.16192577968877
 31
0.0
  0
LINE
  5
1BEC7
  8
AM_0
 10
188.7583065501363
 20
553.27192577968879
 30
0.0
 11
62.968356550136271
 21
553.27192577968879
 31
0.0
  0
LINE
  5
1BEC8
  8
AM_0
 10
188.7583065501363
 20
551.27192577968856
 30
0.0
 11
62.968356550136271
 21
551.27192577968856
 31
0.0
  0
LINE
  5
1BEC9
  8
AM_0
 10
71.418306550136307
 20
451.35192177968872
 30
0.0
 11
124.4183665501363
 21
451.35192177968872
 31
0.0
  0
LINE
  5
1BECA
  8
AM_0
 10
71.418306550136307
 20
452.03192977968871
 30
0.0
 11
124.4183665501363
 21
452.03192977968871
 31
0.0
  0
LINE
  5
1BECB
  8
AM_0
 10
71.418306550136307
 20
453.38191977968859
 30
0.0
 11
124.4183665501363
 21
453.38191977968859
 31
0.0
  0
LINE
  5
1BECC
  8
AM_0
 10
144.41830655013629
 20
483.2719197796888
 30
0.0
 11
54.408356550136318
 21
483.2719197796888
 31
0.0
  0
LINE
  5
1BECD
  8
AM_0
 10
62.098296550136297
 20
553.99191577968861
 30
0.0
 11
192.2383165501362
 21
553.99191577968861
 31
0.0
  0
LINE
  5
1BECE
  8
AM_0
 10
62.098296550136297
 20
550.64193577968865
 30
0.0
 11
112.91830655013629
 21
550.64193577968865
 31
0.0
  0
LINE
  5
1BECF
  8
AM_0
 10
95.918306550136322
 20
488.77192577968867
 30
0.0
 11
95.918306550136322
 21
545.77192577968856
 31
0.0
  0
LINE
  5
1BED0
  8
AM_0
 10
97.418306550136322
 20
545.77192577968856
 30
0.0
 11
97.418306550136322
 21
488.77192577968867
 31
0.0
  0
LINE
  5
1BED1
  8
AM_0
 10
41.91836655013627
 20
537.27191577968858
 30
0.0
 11
41.91836655013627
 21
497.27193577968859
 31
0.0
  0
LINE
  5
1BED2
  8
AM_0
 10
48.418306550136322
 20
459.84192677968872
 30
0.0
 11
48.418306550136322
 21
517.27192577968856
 31
0.0
  0
LINE
  5
1BED3
  8
AM_0
 10
43.418366550136277
 20
468.68191577968861
 30
0.0
 11
43.418366550136277
 21
512.27193577968876
 31
0.0
  0
LINE
  5
1BED4
  8
AM_0
 10
54.588356550136261
 20
459.01193277968872
 30
0.0
 11
67.918306550136322
 21
459.01193277968872
 31
0.0
  0
LINE
  5
1BED5
  8
AM_0
 10
54.528296550136353
 20
453.9719317796887
 30
0.0
 11
68.028296550136361
 21
453.9719317796887
 31
0.0
  0
LINE
  5
1BED6
  8
AM_0
 10
54.648346550136353
 20
464.29191577968862
 30
0.0
 11
67.918306550136322
 21
464.29191577968862
 31
0.0
  0
LINE
  5
1BED7
  8
AM_0
 10
48.418306550136322
 20
468.92192077968872
 30
0.0
 11
58.418366550136277
 21
468.92192077968872
 31
0.0
  0
LINE
  5
1BED8
  8
AM_0
 10
95.918366550136284
 20
503.2719357796887
 30
0.0
 11
53.968356550136257
 21
503.2719357796887
 31
0.0
  0
LINE
  5
1BED9
  8
AM_0
 10
54.558326550136258
 20
455.60193677968869
 30
0.0
 11
67.918306550136322
 21
455.60193677968869
 31
0.0
  0
LINE
  5
1BEDA
  8
AM_0
 10
48.418306550136322
 20
474.5819167796887
 30
0.0
 11
58.418366550136277
 21
474.5819167796887
 31
0.0
  0
LINE
  5
1BEDB
  8
AM_0
 10
52.8783265501363
 20
490.78192577968861
 30
0.0
 11
95.918366550136284
 21
490.78192577968861
 31
0.0
  0
LINE
  5
1BEDC
  8
AM_0
 10
52.748326550136312
 20
503.5919357796887
 30
0.0
 11
95.918366550136284
 21
503.5919357796887
 31
0.0
  0
LINE
  5
1BEDD
  8
AM_0
 10
95.918366550136284
 20
501.2719157796887
 30
0.0
 11
53.968356550136257
 21
501.2719157796887
 31
0.0
  0
LINE
  5
1BEDE
  8
AM_0
 10
52.748326550136312
 20
500.93191577968872
 30
0.0
 11
95.918366550136284
 21
500.93191577968872
 31
0.0
  0
LINE
  5
1BEDF
  8
AM_0
 10
95.918366550136284
 20
493.27192577968879
 30
0.0
 11
53.968356550136257
 21
493.27192577968879
 31
0.0
  0
LINE
  5
1BEE0
  8
AM_0
 10
52.8783265501363
 20
493.71192577968861
 30
0.0
 11
95.918366550136284
 21
493.71192577968861
 31
0.0
  0
LINE
  5
1BEE1
  8
AM_0
 10
95.918366550136284
 20
491.2719357796887
 30
0.0
 11
53.968356550136257
 21
491.2719357796887
 31
0.0
  0
ARC
  5
1BEE2
  8
AM_0
 10
44.413976550136319
 20
470.30228477968859
 30
0.0
 40
0.99566799
 50
180.0204300000008
 51
243.40982999999861
  0
ARC
  5
1BEE3
  8
AM_0
 10
54.58322655013626
 20
461.01130677968871
 30
0.0
 40
1.9993919999999989
 50
192.108039999998
 51
270.14581999999979
  0
ARC
  5
1BEE4
  8
AM_0
 10
50.246126550136303
 20
458.65380177968871
 30
0.0
 40
1.4981281
 50
14.224574999997779
 51
89.916114000002224
  0
LINE
  5
1BEE5
  8
AM_0
 10
48.418306550136322
 20
459.8419347796887
 30
0.0
 11
51.238256550136271
 21
459.77193477968859
 31
0.0
  0
LINE
  5
1BEE6
  8
AM_0
 10
52.6082465501363
 20
457.14192977968861
 30
0.0
 11
51.688266550136291
 21
461.02192677968861
 31
0.0
  0
ARC
  5
1BEE7
  8
AM_0
 10
54.555336550136289
 20
457.60268477968867
 30
0.0
 40
2.0007559999999991
 50
193.31415999999729
 51
270.0864499999999
  0
ARC
  5
1BEE8
  8
AM_0
 10
54.52981655013626
 20
455.97505977968859
 30
0.0
 40
2.0031319000000001
 50
194.2515900000019
 51
269.9575499999994
  0
LINE
  5
1BEE9
  8
AM_0
 10
52.588286550136232
 20
455.48192677968871
 30
0.0
 11
51.698276550136271
 21
459.02191977968857
 31
0.0
  0
ARC
  5
1BEEA
  8
AM_0
 10
44.415926550136291
 20
469.25659177968868
 30
0.0
 40
0.9976240400000001
 50
180.2675099999974
 51
240.07954000000259
  0
ARC
  5
1BEEB
  8
AM_0
 10
45.699006550136218
 20
468.52300277968868
 30
0.0
 40
1.001135899999998
 50
239.32800000000361
 51
269.38750999999928
  0
ARC
  5
1BEEC
  8
AM_0
 10
45.664156550136219
 20
469.67118877968869
 30
0.0
 40
0.99928796
 50
242.86126999999701
 51
269.66619000000128
  0
ARC
  5
1BEED
  8
AM_0
 10
47.914886550136309
 20
469.17531577968867
 30
0.0
 40
0.50340396
 50
270.38612999999822
 51
359.6138700000019
  0
ARC
  5
1BEEE
  8
AM_0
 10
47.918736550136259
 20
467.02236177968871
 30
0.0
 40
0.49955601
 50
359.94910999999661
 51
90.050894000000824
  0
LINE
  5
1BEEF
  8
AM_0
 10
45.188326550136253
 20
467.66195677968869
 30
0.0
 11
43.918306550136322
 21
468.39195277968872
 31
0.0
  0
LINE
  5
1BEF0
  8
AM_0
 10
45.688326550136253
 20
467.5219197796888
 30
0.0
 11
47.918366550136277
 21
467.5219197796888
 31
0.0
  0
LINE
  5
1BEF1
  8
AM_0
 10
45.658296550136363
 20
468.67193677968868
 30
0.0
 11
47.918366550136277
 21
468.67193677968868
 31
0.0
  0
LINE
  5
1BEF2
  8
AM_0
 10
45.208286550136222
 20
468.78195177968871
 30
0.0
 11
43.968296550136301
 21
469.4119497796886
 31
0.0
  0
LINE
  5
1BEF3
  8
AM_0
 10
45.418306550136322
 20
467.77192677968861
 30
0.0
 11
45.418306550136322
 21
468.30192577968859
 31
0.0
  0
ARC
  5
1BEF4
  8
AM_0
 10
54.644386550136232
 20
466.29035177968882
 30
0.0
 40
1.998443999999999
 50
190.33240000000399
 51
270.11369000000047
  0
ARC
  5
1BEF5
  8
AM_0
 10
50.201446550136311
 20
464.7428367796885
 30
0.0
 40
1.4991000000000001
 50
11.89856000000028
 51
89.736658000000475
  0
ARC
  5
1BEF6
  8
AM_0
 10
50.231726550136273
 20
460.67441577968867
 30
0.0
 40
1.497512
 50
13.418232999998249
 51
90.128792999998822
  0
LINE
  5
1BEF7
  8
AM_0
 10
52.138276550136311
 20
468.92193677968868
 30
0.0
 11
52.678316550136287
 21
465.93193077968868
 31
0.0
  0
LINE
  5
1BEF8
  8
AM_0
 10
50.248326550136312
 20
460.15192477968873
 30
0.0
 11
51.898346550136338
 21
460.15192477968873
 31
0.0
  0
LINE
  5
1BEF9
  8
AM_0
 10
50.228306550136267
 20
462.17192077968861
 30
0.0
 11
52.288366550136288
 21
462.17192077968861
 31
0.0
  0
LINE
  5
1BEFA
  8
AM_0
 10
50.208286550136222
 20
466.24192077968871
 30
0.0
 11
52.618316550136221
 21
466.24192077968871
 31
0.0
  0
LINE
  5
1BEFB
  8
AM_0
 10
52.628326550136308
 20
460.59192677968861
 30
0.0
 11
51.668306550136322
 21
465.0519257796887
 31
0.0
  0
ARC
  5
1BEFC
  8
AM_0
 10
44.414706550136302
 20
484.88626877968869
 30
0.0
 40
0.9963800299999999
 50
180.24949000000009
 51
253.29706999999831
  0
ARC
  5
1BEFD
  8
AM_0
 10
45.689666550136273
 20
470.6355827796886
 30
0.0
 40
1.003687999999999
 50
239.3702699999991
 51
270.49275000000068
  0
ARC
  5
1BEFE
  8
AM_0
 10
45.673496550136292
 20
471.77255277968851
 30
0.0
 40
1.0006280000000001
 50
241.64985999999769
 51
269.70470999999941
  0
ARC
  5
1BEFF
  8
AM_0
 10
45.711096550136283
 20
475.15242777968871
 30
0.0
 40
1.0005360000000001
 50
237.1463999999992
 51
270.41321999999889
  0
ARC
  5
1BF00
  8
AM_0
 10
45.681676550136331
 20
476.29292377968858
 30
0.0
 40
1.001012
 50
240.4713599999975
 51
270.3802000000004
  0
ARC
  5
1BF01
  8
AM_0
 10
44.417396550136338
 20
475.99661277968869
 30
0.0
 40
0.9991000299999999
 50
179.69542000000101
 51
236.6617700000015
  0
ARC
  5
1BF02
  8
AM_0
 10
44.416046550136343
 20
472.43321977968873
 30
0.0
 40
0.99770796
 50
180.07404999999949
 51
242.0447600000025
  0
ARC
  5
1BF03
  8
AM_0
 10
44.417086550136233
 20
471.39542377968871
 30
0.0
 40
0.9987800700000001
 50
179.6266700000001
 51
238.7085500000006
  0
ARC
  5
1BF04
  8
AM_0
 10
47.415866550136222
 20
476.29438777968858
 30
0.0
 40
1.0024599999999999
 50
270.14037999999903
 51
359.85962000000097
  0
ARC
  5
1BF05
  8
AM_0
 10
44.41678655013628
 20
477.03122777968872
 30
0.0
 40
0.9984599899999999
 50
179.9596199999994
 51
239.38654999999889
  0
ARC
  5
1BF06
  8
AM_0
 10
47.414276550136258
 20
471.77600877968871
 30
0.0
 40
1.004083999999998
 50
270.23263000000043
 51
359.76736999999628
  0
LINE
  5
1BF07
  8
AM_0
 10
45.698336550136219
 20
469.63193577968872
 30
0.0
 11
48.418306550136322
 21
469.63193577968872
 31
0.0
  0
LINE
  5
1BF08
  8
AM_0
 10
45.168306550136322
 20
474.31193577968872
 30
0.0
 11
43.868316550136207
 21
475.16194177968868
 31
0.0
  0
LINE
  5
1BF09
  8
AM_0
 10
45.178316550136287
 20
469.77195777968859
 30
0.0
 11
43.898286550136262
 21
470.5419697796886
 31
0.0
  0
LINE
  5
1BF0A
  8
AM_0
 10
45.688326550136253
 20
475.29193177968858
 30
0.0
 11
47.418306550136307
 21
475.29193177968858
 31
0.0
  0
LINE
  5
1BF0B
  8
AM_0
 10
45.718356550136257
 20
474.15191677968869
 30
0.0
 11
48.418306550136322
 21
474.15191677968869
 31
0.0
  0
LINE
  5
1BF0C
  8
AM_0
 10
45.66836655013627
 20
470.77192677968861
 30
0.0
 11
47.418306550136307
 21
470.77192677968861
 31
0.0
  0
LINE
  5
1BF0D
  8
AM_0
 10
45.188326550136253
 20
475.42194377968872
 30
0.0
 11
43.908356550136297
 21
476.1719287796887
 31
0.0
  0
LINE
  5
1BF0E
  8
AM_0
 10
45.418306550136322
 20
474.44193277968873
 30
0.0
 11
45.418306550136322
 21
474.91191877968868
 31
0.0
  0
LINE
  5
1BF0F
  8
AM_0
 10
45.418306550136322
 20
469.87191777968872
 30
0.0
 11
45.418306550136322
 21
470.42192077968878
 31
0.0
  0
LINE
  5
1BF10
  8
AM_0
 10
45.198336550136233
 20
470.89192277968868
 30
0.0
 11
43.948336550136233
 21
471.55191077968863
 31
0.0
  0
LINE
  5
1BF11
  8
AM_0
 10
48.418306550136322
 20
482.97192377968861
 30
0.0
 11
51.588356550136268
 21
482.97192377968861
 31
0.0
  0
ARC
  5
1BF12
  8
AM_0
 10
47.415016550136208
 20
484.53527877968872
 30
0.0
 40
1.003363999999999
 50
270.19170999999869
 51
359.80828000000292
  0
ARC
  5
1BF13
  8
AM_0
 10
47.718906550136218
 20
480.8824847796887
 30
0.0
 40
0.69944
 50
359.95415999999977
 51
90.045840000000197
  0
ARC
  5
1BF14
  8
AM_0
 10
45.621306550136282
 20
482.58715077968873
 30
0.0
 40
1.005223999999999
 50
246.9862900000013
 51
269.82936000000041
  0
ARC
  5
1BF15
  8
AM_0
 10
45.55887655013634
 20
484.53461477968858
 30
0.0
 40
1.0027280000000001
 50
253.75296999999949
 51
270.54039999999941
  0
ARC
  5
1BF16
  8
AM_0
 10
44.414826550136347
 20
483.10039577968871
 30
0.0
 40
0.9964760499999998
 50
179.91258000000059
 51
247.17965999999871
  0
LINE
  5
1BF17
  8
AM_0
 10
45.618316550136221
 20
481.58192477968868
 30
0.0
 11
47.718296550136301
 21
481.58192477968868
 31
0.0
  0
LINE
  5
1BF18
  8
AM_0
 10
45.228306550136267
 20
481.66194977968871
 30
0.0
 11
44.028356550136309
 21
482.18191577968872
 31
0.0
  0
LINE
  5
1BF19
  8
AM_0
 10
45.568336550136223
 20
483.5319297796886
 30
0.0
 11
47.418306550136307
 21
483.5319297796886
 31
0.0
  0
LINE
  5
1BF1A
  8
AM_0
 10
45.278356550136309
 20
483.57194577968858
 30
0.0
 11
44.128326550136293
 21
483.9319457796887
 31
0.0
  0
LINE
  5
1BF1B
  8
AM_0
 10
45.418306550136322
 20
481.88191977968859
 30
0.0
 11
45.418306550136322
 21
482.94191777968882
 31
0.0
  0
ARC
  5
1BF1C
  8
AM_0
 10
53.963596550136337
 20
482.27193477968859
 30
0.0
 40
1.0000119000000001
 50
89.728462000000377
 51
270.27153999999882
  0
ARC
  5
1BF1D
  8
AM_0
 10
53.091466550136261
 20
482.2269367796888
 30
0.0
 40
1.6750160000000001
 50
89.764983000000584
 51
270.23501000000232
  0
ARC
  5
1BF1E
  8
AM_0
 10
44.418486550136208
 20
492.27212577968868
 30
0.0
 40
1.0001959999999981
 50
180.01127999999659
 51
269.98872000000023
  0
ARC
  5
1BF1F
  8
AM_0
 10
44.413366550136267
 20
492.27686577968859
 30
0.0
 40
0.99508399
 50
89.716323999999332
 51
180.28367999999989
  0
ARC
  5
1BF20
  8
AM_0
 10
44.418486550136208
 20
502.2721357796886
 30
0.0
 40
1.000199999999998
 50
180.01150000000351
 51
269.98851000000099
  0
ARC
  5
1BF21
  8
AM_0
 10
44.413366550136267
 20
502.27684577968859
 30
0.0
 40
0.99508399
 50
89.716105999999485
 51
180.28388999999791
  0
LINE
  5
1BF22
  8
AM_0
 10
41.91836655013627
 20
497.27192577968879
 30
0.0
 11
43.418306550136322
 21
497.14192577968862
 31
0.0
  0
LINE
  5
1BF23
  8
AM_0
 10
41.91836655013627
 20
499.99192577968881
 30
0.0
 11
43.418366550136277
 21
499.99192577968881
 31
0.0
  0
LINE
  5
1BF24
  8
AM_0
 10
41.91836655013627
 20
502.12191577968861
 30
0.0
 11
46.498326550136312
 21
502.12191577968861
 31
0.0
  0
ARC
  5
1BF25
  8
AM_0
 10
47.413426550136251
 20
494.27683577968861
 30
0.0
 40
1.0049238999999981
 50
270.2800399999993
 51
359.71997000000391
  0
ARC
  5
1BF26
  8
AM_0
 10
47.418486550136222
 20
490.27208577968872
 30
0.0
 40
0.99984801
 50
359.99118999999712
 51
90.008806999998697
  0
LINE
  5
1BF27
  8
AM_0
 10
47.418306550136307
 20
491.2719357796887
 30
0.0
 11
44.418306550136322
 21
491.2719357796887
 31
0.0
  0
LINE
  5
1BF28
  8
AM_0
 10
47.418306550136307
 20
493.27192577968879
 30
0.0
 11
44.418306550136322
 21
493.27192577968879
 31
0.0
  0
LINE
  5
1BF29
  8
AM_0
 10
45.418306550136322
 20
491.64192577968868
 30
0.0
 11
45.418306550136322
 21
493.01191577968871
 31
0.0
  0
ARC
  5
1BF2A
  8
AM_0
 10
52.8783265501363
 20
492.2469257796887
 30
0.0
 40
1.465004
 50
90.00000299999769
 51
270.0
  0
ARC
  5
1BF2B
  8
AM_0
 10
53.963596550136337
 20
492.2719157796887
 30
0.0
 40
1.0000119000000001
 50
89.728462000000377
 51
270.27153999999882
  0
ARC
  5
1BF2C
  8
AM_0
 10
47.413426550136251
 20
504.27683577968861
 30
0.0
 40
1.004928
 50
270.28023999999988
 51
359.71976000000001
  0
ARC
  5
1BF2D
  8
AM_0
 10
47.418486550136222
 20
500.27207577968869
 30
0.0
 40
0.9998440099999999
 50
359.99097999999952
 51
90.009017999997724
  0
LINE
  5
1BF2E
  8
AM_0
 10
47.418306550136307
 20
501.2719157796887
 30
0.0
 11
44.418306550136322
 21
501.2719157796887
 31
0.0
  0
LINE
  5
1BF2F
  8
AM_0
 10
47.418306550136307
 20
503.2719357796887
 30
0.0
 11
44.418306550136322
 21
503.2719357796887
 31
0.0
  0
LINE
  5
1BF30
  8
AM_0
 10
45.418306550136322
 20
501.66193577968869
 30
0.0
 11
45.418306550136322
 21
502.88191577968871
 31
0.0
  0
ARC
  5
1BF31
  8
AM_0
 10
52.748326550136312
 20
502.2619257796888
 30
0.0
 40
1.3300080000000001
 50
90.00000299999769
 51
270.0
  0
ARC
  5
1BF32
  8
AM_0
 10
53.968356550136257
 20
502.27192577968879
 30
0.0
 40
1.0
 50
90.00000299999769
 51
270.0
  0
LINE
  5
1BF33
  8
AM_0
 10
58.418366550136277
 20
468.92192077968872
 30
0.0
 11
58.418366550136277
 21
480.55193377968868
 31
0.0
  0
ARC
  5
1BF34
  8
AM_0
 10
71.418796550136321
 20
457.41236877968879
 30
0.0
 40
2.0004520000000001
 50
180.01290000000029
 51
269.98709999999971
  0
ARC
  5
1BF35
  8
AM_0
 10
71.419646550136349
 20
455.38323977968872
 30
0.0
 40
2.0013119999999991
 50
180.03756000000209
 51
269.9624400000011
  0
ARC
  5
1BF36
  8
AM_0
 10
71.416966550136294
 20
454.03054877968867
 30
0.0
 40
1.9986198999999989
 50
179.96046999999851
 51
270.03953000000138
  0
ARC
  5
1BF37
  8
AM_0
 10
71.412266550136223
 20
453.36198477968861
 30
0.0
 40
2.0000760999999998
 50
194.7749800000019
 51
270.17352999999849
  0
LINE
  5
1BF38
  8
AM_0
 10
69.418306550136322
 20
455.38193577968872
 30
0.0
 11
69.418306550136322
 21
462.79191577968868
 31
0.0
  0
ARC
  5
1BF39
  8
AM_0
 10
67.915626550136267
 20
457.50920877968872
 30
0.0
 40
1.502715899999999
 50
0.1034359999993177
 51
89.896566000000234
  0
ARC
  5
1BF3A
  8
AM_0
 10
67.918616550136221
 20
454.10216577968868
 30
0.0
 40
1.499755999999999
 50
359.99059000000068
 51
90.009407999999695
  0
ARC
  5
1BF3B
  8
AM_0
 10
68.02987655013635
 20
452.47527377968868
 30
0.0
 40
1.4966440000000001
 50
14.575739999999559
 51
90.058277999998381
  0
ARC
  5
1BF3C
  8
AM_0
 10
67.916786550136294
 20
462.79035977968869
 30
0.0
 40
1.5015679999999989
 50
0.0598050029977432
 51
89.940196999999216
  0
LINE
  5
1BF3D
  8
AM_0
 10
93.418366550136284
 20
470.92193677968868
 30
0.0
 11
58.418306550136322
 21
472.95193477968871
 31
0.0
  0
ARC
  5
1BF3E
  8
AM_0
 10
70.413546550136303
 20
482.27193477968859
 30
0.0
 40
1.0000119000000001
 50
89.726507999999697
 51
270.27347999999978
  0
ARC
  5
1BF3F
  8
AM_0
 10
57.581696550136357
 20
475.68384577968868
 30
0.0
 40
4.9985837999999978
 50
5.3731198999976861
 51
80.36497600000034
  0
ARC
  5
1BF40
  8
AM_0
 10
61.558996550136271
 20
476.0528037796887
 30
0.0
 40
1.0042359999999999
 50
314.93782999999928
 51
5.6649239000010896
  0
ARC
  5
1BF41
  8
AM_0
 10
58.048316550136292
 20
479.6191027796886
 30
0.0
 40
6.0085920999999978
 50
273.53094999999962
 51
314.6147799999988
  0
ARC
  5
1BF42
  8
AM_0
 10
70.413546550136303
 20
502.27192577968879
 30
0.0
 40
1.0000119000000001
 50
89.726507999999697
 51
270.27347999999978
  0
ARC
  5
1BF43
  8
AM_0
 10
70.413546550136303
 20
492.2719157796887
 30
0.0
 40
1.0000119000000001
 50
89.726507999999697
 51
270.27347999999978
  0
ARC
  5
1BF44
  8
AM_0
 10
98.918306550136194
 20
488.77192577968867
 30
0.0
 40
3.0
 50
180.0
 51
270.0
  0
ARC
  5
1BF45
  8
AM_0
 10
98.918306550136194
 20
488.77192577968867
 30
0.0
 40
1.5
 50
180.0
 51
270.0
  0
LINE
  5
1BF46
  8
AM_0
 10
100.41830655013629
 20
487.27192577968862
 30
0.0
 11
100.41830655013629
 21
485.77192577968879
 31
0.0
  0
ARC
  5
1BF47
  8
AM_0
 10
101.91830655013641
 20
484.77192577968839
 30
0.0
 40
0.5
 50
180.0
 51
270.0
  0
LINE
  5
1BF48
  8
AM_0
 10
101.41830655013641
 20
484.77192577968839
 30
0.0
 11
101.41830655013641
 21
485.7719257796885
 31
0.0
  0
LINE
  5
1BF49
  8
AM_0
 10
48.418306550136322
 20
551.58192577968873
 30
0.0
 11
58.418366550136277
 21
551.58192577968873
 31
0.0
  0
LINE
  5
1BF4A
  8
AM_0
 10
48.418306550136322
 20
559.96192577968873
 30
0.0
 11
58.418366550136277
 21
559.96192577968873
 31
0.0
  0
LINE
  5
1BF4B
  8
AM_0
 10
48.418306550136322
 20
565.62193577968856
 30
0.0
 11
58.418366550136277
 21
565.62193577968856
 31
0.0
  0
LINE
  5
1BF4C
  8
AM_0
 10
54.648346550136353
 20
570.25193577968855
 30
0.0
 11
67.918306550136322
 21
570.25193577968855
 31
0.0
  0
LINE
  5
1BF4D
  8
AM_0
 10
54.588356550136261
 20
575.54191577968857
 30
0.0
 11
67.918306550136322
 21
575.54191577968857
 31
0.0
  0
LINE
  5
1BF4E
  8
AM_0
 10
54.558326550136258
 20
578.94190577968857
 30
0.0
 11
67.918306550136322
 21
578.94190577968857
 31
0.0
  0
LINE
  5
1BF4F
  8
AM_0
 10
54.528296550136353
 20
580.57191577968865
 30
0.0
 11
68.028296550136361
 21
580.57191577968865
 31
0.0
  0
LINE
  5
1BF50
  8
AM_0
 10
95.918366550136284
 20
533.27192577968856
 30
0.0
 11
53.968356550136257
 21
533.27192577968856
 31
0.0
  0
LINE
  5
1BF51
  8
AM_0
 10
95.918366550136284
 20
531.2719157796887
 30
0.0
 11
53.968356550136257
 21
531.2719157796887
 31
0.0
  0
LINE
  5
1BF52
  8
AM_0
 10
93.918306550136336
 20
523.27192577968879
 30
0.0
 11
53.968356550136257
 21
523.27192577968879
 31
0.0
  0
LINE
  5
1BF53
  8
AM_0
 10
93.918306550136336
 20
521.27192577968856
 30
0.0
 11
53.968356550136257
 21
521.27192577968856
 31
0.0
  0
LINE
  5
1BF54
  8
AM_0
 10
52.748326550136312
 20
533.61193577968868
 30
0.0
 11
95.918366550136284
 21
533.61193577968868
 31
0.0
  0
LINE
  5
1BF55
  8
AM_0
 10
52.748326550136312
 20
530.95191577968865
 30
0.0
 11
95.918366550136284
 21
530.95191577968865
 31
0.0
  0
LINE
  5
1BF56
  8
AM_0
 10
52.688326550136253
 20
523.54191577968857
 30
0.0
 11
93.918306550136336
 21
523.54191577968857
 31
0.0
  0
LINE
  5
1BF57
  8
AM_0
 10
52.688326550136253
 20
521.01191577968871
 30
0.0
 11
93.918306550136336
 21
521.01191577968871
 31
0.0
  0
LINE
  5
1BF58
  8
AM_0
 10
52.688326550136253
 20
513.54193577968874
 30
0.0
 11
93.918306550136336
 21
513.54193577968874
 31
0.0
  0
LINE
  5
1BF59
  8
AM_0
 10
93.918306550136336
 20
511.27192577968879
 30
0.0
 11
53.968356550136257
 21
511.27192577968879
 31
0.0
  0
LINE
  5
1BF5A
  8
AM_0
 10
93.918306550136336
 20
513.2719157796887
 30
0.0
 11
53.968356550136257
 21
513.2719157796887
 31
0.0
  0
LINE
  5
1BF5B
  8
AM_0
 10
52.688326550136253
 20
511.00193577968872
 30
0.0
 11
93.918306550136336
 21
511.00193577968872
 31
0.0
  0
LINE
  5
1BF5C
  8
AM_0
 10
48.418306550136322
 20
574.70191577968865
 30
0.0
 11
48.418306550136322
 21
517.27192577968856
 31
0.0
  0
LINE
  5
1BF5D
  8
AM_0
 10
43.418366550136277
 20
565.29193577968874
 30
0.0
 11
43.418366550136277
 21
522.2719157796887
 31
0.0
  0
ARC
  5
1BF5E
  8
AM_0
 10
44.413366550136267
 20
522.27685577968873
 30
0.0
 40
0.9950879799999999
 50
89.716344999999606
 51
180.28365000000051
  0
ARC
  5
1BF5F
  8
AM_0
 10
44.418486550136208
 20
522.27212577968874
 30
0.0
 40
1.0001959999999981
 50
180.01124999999939
 51
269.98873999999932
  0
ARC
  5
1BF60
  8
AM_0
 10
44.418486550136208
 20
512.27214577968857
 30
0.0
 40
1.0002040000000001
 50
180.01170000000161
 51
269.98829999999828
  0
ARC
  5
1BF61
  8
AM_0
 10
44.413366550136267
 20
512.27685577968873
 30
0.0
 40
0.9950800499999999
 50
89.715893999999523
 51
180.28409999999971
  0
ARC
  5
1BF62
  8
AM_0
 10
47.413366550136281
 20
514.27684577968876
 30
0.0
 40
1.0049318999999981
 50
270.28044999999781
 51
359.719549999999
  0
ARC
  5
1BF63
  8
AM_0
 10
47.418486550136222
 20
510.27207577968869
 30
0.0
 40
0.99985206
 50
359.99142999999799
 51
90.008573999997964
  0
LINE
  5
1BF64
  8
AM_0
 10
47.418306550136307
 20
511.27192577968879
 30
0.0
 11
44.418306550136322
 21
511.27192577968879
 31
0.0
  0
LINE
  5
1BF65
  8
AM_0
 10
47.418306550136307
 20
513.2719157796887
 30
0.0
 11
44.418306550136322
 21
513.2719157796887
 31
0.0
  0
LINE
  5
1BF66
  8
AM_0
 10
45.418306550136322
 20
511.66191577968863
 30
0.0
 11
45.418306550136322
 21
512.82193577968849
 31
0.0
  0
ARC
  5
1BF67
  8
AM_0
 10
53.968356550136257
 20
512.27193577968876
 30
0.0
 40
1.0
 50
90.00000299999769
 51
270.0
  0
ARC
  5
1BF68
  8
AM_0
 10
52.682526550136338
 20
512.27193577968876
 30
0.0
 40
1.2700119999999999
 50
89.738748000000555
 51
270.261239999998
  0
ARC
  5
1BF69
  8
AM_0
 10
47.418486550136222
 20
520.27207577968875
 30
0.0
 40
0.99984801
 50
359.99122000000051
 51
90.008778999998157
  0
ARC
  5
1BF6A
  8
AM_0
 10
47.413426550136251
 20
524.27682577968858
 30
0.0
 40
1.0049238999999981
 50
270.28000999999949
 51
359.71998999999721
  0
LINE
  5
1BF6B
  8
AM_0
 10
47.418306550136307
 20
523.27192577968879
 30
0.0
 11
44.418306550136322
 21
523.27192577968879
 31
0.0
  0
LINE
  5
1BF6C
  8
AM_0
 10
47.418306550136307
 20
521.27192577968856
 30
0.0
 11
44.418306550136322
 21
521.27192577968856
 31
0.0
  0
LINE
  5
1BF6D
  8
AM_0
 10
45.418306550136322
 20
522.88192577968857
 30
0.0
 11
45.418306550136322
 21
521.72190577968865
 31
0.0
  0
ARC
  5
1BF6E
  8
AM_0
 10
52.682526550136338
 20
522.27693577968876
 30
0.0
 40
1.265012
 50
89.737715999998315
 51
270.26227999999981
  0
ARC
  5
1BF6F
  8
AM_0
 10
53.968356550136257
 20
522.2719157796887
 30
0.0
 40
1.0
 50
90.00000299999769
 51
270.0
  0
ARC
  5
1BF70
  8
AM_0
 10
44.413366550136267
 20
542.27685577968873
 30
0.0
 40
0.9950800499999999
 50
89.715921000001273
 51
180.28406999999919
  0
ARC
  5
1BF71
  8
AM_0
 10
44.418486550136208
 20
542.27214577968857
 30
0.0
 40
1.0002040000000001
 50
180.01166999999799
 51
269.98832000000073
  0
ARC
  5
1BF72
  8
AM_0
 10
44.413366550136267
 20
532.27683577968867
 30
0.0
 40
0.99508399
 50
89.716133000000738
 51
180.2838699999979
  0
ARC
  5
1BF73
  8
AM_0
 10
44.418486550136208
 20
532.27212577968874
 30
0.0
 40
1.000199999999998
 50
180.01146999999989
 51
269.98853000000008
  0
LINE
  5
1BF74
  8
AM_0
 10
41.918306550136322
 20
537.27194577968874
 30
0.0
 11
43.418306550136322
 21
537.40194577968873
 31
0.0
  0
LINE
  5
1BF75
  8
AM_0
 10
41.91836655013627
 20
534.55192577968864
 30
0.0
 11
43.418366550136277
 21
534.55192577968864
 31
0.0
  0
LINE
  5
1BF76
  8
AM_0
 10
41.91836655013627
 20
532.42193577968874
 30
0.0
 11
46.198336550136197
 21
532.42193577968874
 31
0.0
  0
ARC
  5
1BF77
  8
AM_0
 10
47.418486550136222
 20
530.27206577968866
 30
0.0
 40
0.9998440099999999
 50
359.99100999999632
 51
90.008990999998574
  0
ARC
  5
1BF78
  8
AM_0
 10
47.413426550136251
 20
534.27683577968855
 30
0.0
 40
1.004928
 50
270.28021999999982
 51
359.7197800000003
  0
LINE
  5
1BF79
  8
AM_0
 10
47.418306550136307
 20
533.27192577968856
 30
0.0
 11
44.418306550136322
 21
533.27192577968856
 31
0.0
  0
LINE
  5
1BF7A
  8
AM_0
 10
47.418306550136307
 20
531.2719157796887
 30
0.0
 11
44.418306550136322
 21
531.2719157796887
 31
0.0
  0
LINE
  5
1BF7B
  8
AM_0
 10
45.418306550136322
 20
532.88191577968848
 30
0.0
 11
45.418306550136322
 21
531.67193577968874
 31
0.0
  0
ARC
  5
1BF7C
  8
AM_0
 10
52.748326550136312
 20
532.28192577968866
 30
0.0
 40
1.3300080000000001
 50
90.00000299999769
 51
270.0
  0
ARC
  5
1BF7D
  8
AM_0
 10
53.968356550136257
 20
532.27192577968879
 30
0.0
 40
1.0
 50
90.00000299999769
 51
270.0
  0
ARC
  5
1BF7E
  8
AM_0
 10
47.418486550136222
 20
540.27207577968875
 30
0.0
 40
0.99985206
 50
359.9914500000001
 51
90.008546999998842
  0
ARC
  5
1BF7F
  8
AM_0
 10
47.413426550136251
 20
544.27683577968855
 30
0.0
 40
1.0049318999999981
 50
270.28042000000022
 51
359.7195799999966
  0
LINE
  5
1BF80
  8
AM_0
 10
47.418306550136307
 20
543.2719157796887
 30
0.0
 11
44.418306550136322
 21
543.2719157796887
 31
0.0
  0
LINE
  5
1BF81
  8
AM_0
 10
47.418306550136307
 20
541.27192577968867
 30
0.0
 11
44.418306550136322
 21
541.27192577968867
 31
0.0
  0
LINE
  5
1BF82
  8
AM_0
 10
45.418306550136322
 20
542.90193577968876
 30
0.0
 11
45.418306550136322
 21
541.53193577968875
 31
0.0
  0
LINE
  5
1BF83
  8
AM_0
 10
45.188326550136253
 20
566.89192577968856
 30
0.0
 11
43.918306550136322
 21
566.15191577968858
 31
0.0
  0
LINE
  5
1BF84
  8
AM_0
 10
45.418306550136322
 20
566.77192577968856
 30
0.0
 11
45.418306550136322
 21
566.24192577968859
 31
0.0
  0
LINE
  5
1BF85
  8
AM_0
 10
52.138396550136349
 20
565.62194577968864
 30
0.0
 11
52.67837655013625
 21
568.61193577968857
 31
0.0
  0
ARC
  5
1BF86
  8
AM_0
 10
44.414586550136278
 20
549.66767577968869
 30
0.0
 40
0.9962600499999998
 50
106.69748999999899
 51
180.3304900000002
  0
ARC
  5
1BF87
  8
AM_0
 10
45.619296550136369
 20
551.9664457796888
 30
0.0
 40
0.99548006
 50
90.057320999998737
 51
113.1270300000016
  0
ARC
  5
1BF88
  8
AM_0
 10
45.557466550136269
 20
550.01921577968858
 30
0.0
 40
0.99277198
 50
89.374808000000058
 51
106.3318199999986
  0
ARC
  5
1BF89
  8
AM_0
 10
44.414706550136302
 20
551.45350577968873
 30
0.0
 40
0.99640006
 50
112.8173899999987
 51
180.09039999999871
  0
ARC
  5
1BF8A
  8
AM_0
 10
47.420016550136211
 20
550.01362577968871
 30
0.0
 40
0.99829602
 50
359.90203999999738
 51
90.097960999998946
  0
ARC
  5
1BF8B
  8
AM_0
 10
47.713776550136338
 20
553.66647577968865
 30
0.0
 40
0.7045519900000002
 50
270.36910999999952
 51
359.63089000000048
  0
LINE
  5
1BF8C
  8
AM_0
 10
45.618316550136221
 20
552.96192577968873
 30
0.0
 11
47.718296550136301
 21
552.96192577968873
 31
0.0
  0
LINE
  5
1BF8D
  8
AM_0
 10
45.228306550136267
 20
552.88194577968875
 30
0.0
 11
44.028296550136339
 21
552.37194577968864
 31
0.0
  0
LINE
  5
1BF8E
  8
AM_0
 10
45.568336550136223
 20
551.01191577968871
 30
0.0
 11
47.418306550136307
 21
551.01191577968871
 31
0.0
  0
LINE
  5
1BF8F
  8
AM_0
 10
45.278356550136309
 20
550.97192577968872
 30
0.0
 11
44.128326550136293
 21
550.62191577968872
 31
0.0
  0
LINE
  5
1BF90
  8
AM_0
 10
45.418306550136322
 20
552.66192577968877
 30
0.0
 11
45.418306550136322
 21
551.6019257796886
 31
0.0
  0
ARC
  5
1BF91
  8
AM_0
 10
44.41153655013624
 20
565.28984577968868
 30
0.0
 40
0.99319202
 50
119.7733999999995
 51
179.8795600000004
  0
ARC
  5
1BF92
  8
AM_0
 10
44.413916550136257
 20
564.25161577968868
 30
0.0
 40
0.99558806
 50
116.58749000000149
 51
179.98225000000099
  0
ARC
  5
1BF93
  8
AM_0
 10
45.643096550136292
 20
564.87789577968874
 30
0.0
 40
0.9941280500000002
 50
89.122807999998685
 51
115.9348099999979
  0
ARC
  5
1BF94
  8
AM_0
 10
45.687166550136233
 20
563.91772577968868
 30
0.0
 40
0.9942600099999999
 50
89.355881999999255
 51
120.78109000000229
  0
ARC
  5
1BF95
  8
AM_0
 10
45.653416550136278
 20
562.77656577968855
 30
0.0
 40
0.99546796
 50
89.14144799999832
 51
117.20366
  0
ARC
  5
1BF96
  8
AM_0
 10
45.724946550136337
 20
559.40573577968871
 30
0.0
 40
0.9962120099999999
 50
90.381905999998594
 51
123.96990000000081
  0
ARC
  5
1BF97
  8
AM_0
 10
45.697726550136281
 20
558.26544577968878
 30
0.0
 40
0.9965200400000001
 50
90.541212999999473
 51
120.7432799999994
  0
ARC
  5
1BF98
  8
AM_0
 10
44.412386550136262
 20
557.51512577968856
 30
0.0
 40
0.99407601
 50
120.4692000000001
 51
180.18464000000071
  0
ARC
  5
1BF99
  8
AM_0
 10
44.413116550136223
 20
558.54952577968857
 30
0.0
 40
0.9948279899999999
 50
123.2046899999995
 51
180.43813000000009
  0
ARC
  5
1BF9A
  8
AM_0
 10
44.41153655013624
 20
562.11335577968873
 30
0.0
 40
0.9932120399999999
 50
117.79934000000149
 51
180.08183000000079
  0
ARC
  5
1BF9B
  8
AM_0
 10
44.412756550136223
 20
563.15089577968877
 30
0.0
 40
0.9944360299999999
 50
121.1521700000005
 51
179.9404899999993
  0
ARC
  5
1BF9C
  8
AM_0
 10
47.415926550136291
 20
558.25955577968875
 30
0.0
 40
1.002375999999999
 50
0.1355919900039249
 51
89.86440999999931
  0
ARC
  5
1BF9D
  8
AM_0
 10
47.419346550136311
 20
562.77291577968867
 30
0.0
 40
0.9990080599999998
 50
359.94314999999722
 51
90.056842999999347
  0
ARC
  5
1BF9E
  8
AM_0
 10
47.919956550136241
 20
565.37356577968865
 30
0.0
 40
0.4983640000000002
 50
359.81141000000162
 51
90.188597999997583
  0
LINE
  5
1BF9F
  8
AM_0
 10
45.178316550136287
 20
564.77192577968856
 30
0.0
 11
43.898286550136262
 21
564.00193577968855
 31
0.0
  0
LINE
  5
1BFA0
  8
AM_0
 10
45.168306550136322
 20
560.2318857796887
 30
0.0
 11
43.868316550136207
 21
559.38189577968865
 31
0.0
  0
LINE
  5
1BFA1
  8
AM_0
 10
45.698336550136219
 20
564.91191577968868
 30
0.0
 11
48.418306550136322
 21
564.91191577968868
 31
0.0
  0
LINE
  5
1BFA2
  8
AM_0
 10
45.718356550136257
 20
560.40193577968876
 30
0.0
 11
48.418306550136322
 21
560.40193577968876
 31
0.0
  0
LINE
  5
1BFA3
  8
AM_0
 10
45.688326550136253
 20
559.26191577968871
 30
0.0
 11
47.418306550136307
 21
559.26191577968871
 31
0.0
  0
LINE
  5
1BFA4
  8
AM_0
 10
45.66836655013627
 20
563.77192577968856
 30
0.0
 11
47.418306550136307
 21
563.77192577968856
 31
0.0
  0
LINE
  5
1BFA5
  8
AM_0
 10
45.658296550136363
 20
565.87191577968872
 30
0.0
 11
47.918366550136277
 21
565.87191577968872
 31
0.0
  0
LINE
  5
1BFA6
  8
AM_0
 10
45.188326550136253
 20
559.12190577968875
 30
0.0
 11
43.908296550136349
 21
558.37190577968875
 31
0.0
  0
LINE
  5
1BFA7
  8
AM_0
 10
45.208346550136277
 20
565.77195577968871
 30
0.0
 11
43.968356550136257
 21
565.14195577968871
 31
0.0
  0
LINE
  5
1BFA8
  8
AM_0
 10
45.198336550136233
 20
563.66194577968872
 30
0.0
 11
43.948276550136242
 21
562.99194577968865
 31
0.0
  0
LINE
  5
1BFA9
  8
AM_0
 10
45.418306550136322
 20
560.10191577968874
 30
0.0
 11
45.418306550136322
 21
559.63192577968869
 31
0.0
  0
LINE
  5
1BFAA
  8
AM_0
 10
45.418306550136322
 20
564.67193577968874
 30
0.0
 11
45.418306550136322
 21
564.12193577968856
 31
0.0
  0
LINE
  5
1BFAB
  8
AM_0
 10
52.608306550136263
 20
577.40194577968873
 30
0.0
 11
51.688326550136253
 21
573.52194577968874
 31
0.0
  0
LINE
  5
1BFAC
  8
AM_0
 10
52.588286550136232
 20
579.06193577968872
 30
0.0
 11
51.698336550136219
 21
575.53193577968875
 31
0.0
  0
LINE
  5
1BFAD
  8
AM_0
 10
48.418306550136322
 20
574.70194577968869
 30
0.0
 11
51.238256550136271
 21
574.77194577968874
 31
0.0
  0
ARC
  5
1BFAE
  8
AM_0
 10
45.680336550136289
 20
566.02604577968873
 30
0.0
 40
0.9959119600000002
 50
89.541444000000595
 51
119.6069900000017
  0
ARC
  5
1BFAF
  8
AM_0
 10
47.913726550136289
 20
567.52654577968872
 30
0.0
 40
0.5046359900000002
 50
270.52375999999953
 51
359.47624000000047
  0
LINE
  5
1BFB0
  8
AM_0
 10
45.688326550136253
 20
567.02192577968856
 30
0.0
 11
47.918366550136277
 21
567.02192577968856
 31
0.0
  0
ARC
  5
1BFB1
  8
AM_0
 10
54.639376550136262
 20
568.25949577968868
 30
0.0
 40
1.9924479999999991
 50
89.742108000000769
 51
169.81178999999909
  0
ARC
  5
1BFB2
  8
AM_0
 10
54.583166550136291
 20
573.54263577968857
 30
0.0
 40
1.999288
 50
89.851814999999618
 51
167.89433000000099
  0
ARC
  5
1BFB3
  8
AM_0
 10
50.202606550136252
 20
569.81216577968871
 30
0.0
 40
1.500248
 50
270.21661999999759
 51
347.67499999999927
  0
ARC
  5
1BFB4
  8
AM_0
 10
50.226776550136272
 20
573.87570577968859
 30
0.0
 40
1.503776
 50
270.05983999999802
 51
346.39312999999879
  0
ARC
  5
1BFB5
  8
AM_0
 10
50.239596550136298
 20
575.89512577968856
 30
0.0
 40
1.5032319999999979
 50
270.33131999999961
 51
346.01803000000137
  0
LINE
  5
1BFB6
  8
AM_0
 10
50.208286550136222
 20
568.31193577968872
 30
0.0
 11
52.618316550136221
 21
568.31193577968872
 31
0.0
  0
LINE
  5
1BFB7
  8
AM_0
 10
52.628266550136217
 20
573.96194577968856
 30
0.0
 11
51.668246550136359
 21
569.49194577968876
 31
0.0
  0
LINE
  5
1BFB8
  8
AM_0
 10
50.228306550136267
 20
572.37193577968867
 30
0.0
 11
52.288366550136288
 21
572.37193577968867
 31
0.0
  0
LINE
  5
1BFB9
  8
AM_0
 10
50.248326550136312
 20
574.39192577968856
 30
0.0
 11
51.898346550136338
 21
574.39192577968856
 31
0.0
  0
ARC
  5
1BFBA
  8
AM_0
 10
54.550386550136302
 20
576.94741577968875
 30
0.0
 40
1.9945159999999991
 50
89.771334999999539
 51
166.8280399999995
  0
ARC
  5
1BFBB
  8
AM_0
 10
54.524876550136341
 20
578.57510577968856
 30
0.0
 40
1.996815999999999
 50
89.901436000000672
 51
165.88941000000139
  0
ARC
  5
1BFBC
  8
AM_0
 10
98.918306550136194
 20
545.77192577968856
 30
0.0
 40
3.0
 50
90.0
 51
180.0
  0
ARC
  5
1BFBD
  8
AM_0
 10
98.918306550136194
 20
545.77192577968856
 30
0.0
 40
1.5
 50
90.0
 51
180.0
  0
LINE
  5
1BFBE
  8
AM_0
 10
95.918366550136284
 20
543.2719157796887
 30
0.0
 11
62.968356550136271
 21
543.2719157796887
 31
0.0
  0
LINE
  5
1BFBF
  8
AM_0
 10
95.918366550136284
 20
541.27192577968867
 30
0.0
 11
62.968356550136271
 21
541.27192577968867
 31
0.0
  0
LINE
  5
1BFC0
  8
AM_0
 10
61.878326550136308
 20
543.76193577968866
 30
0.0
 11
95.918366550136284
 21
543.76193577968866
 31
0.0
  0
LINE
  5
1BFC1
  8
AM_0
 10
61.878326550136308
 20
540.83192577968873
 30
0.0
 11
95.918366550136284
 21
540.83192577968873
 31
0.0
  0
ARC
  5
1BFC2
  8
AM_0
 10
70.413546550136303
 20
522.2719157796887
 30
0.0
 40
1.0000119000000001
 50
89.726507999999697
 51
270.27347999999978
  0
ARC
  5
1BFC3
  8
AM_0
 10
70.413546550136303
 20
512.27193577968876
 30
0.0
 40
1.0000119000000001
 50
89.726507999999697
 51
270.27347999999978
  0
ARC
  5
1BFC4
  8
AM_0
 10
70.413546550136303
 20
532.27192577968879
 30
0.0
 40
1.0000119000000001
 50
89.726507999999697
 51
270.27347999999978
  0
ARC
  5
1BFC5
  8
AM_0
 10
70.413546550136303
 20
542.27192577968856
 30
0.0
 40
1.0000119000000001
 50
89.726507999999697
 51
270.27347999999978
  0
ARC
  5
1BFC6
  8
AM_0
 10
62.963596550136351
 20
542.27192577968856
 30
0.0
 40
1.0000119000000001
 50
89.728447999999375
 51
270.27153999999882
  0
ARC
  5
1BFC7
  8
AM_0
 10
61.878326550136308
 20
542.29692577968865
 30
0.0
 40
1.465004
 50
90.00000299999769
 51
270.0
  0
LINE
  5
1BFC8
  8
AM_0
 10
94.418306550136322
 20
524.27192577968867
 30
0.0
 11
94.418306550136322
 21
510.27192577968879
 31
0.0
  0
LINE
  5
1BFC9
  8
AM_0
 10
97.418306550136322
 20
508.77192577968867
 30
0.0
 11
95.918306550136322
 21
508.77192577968867
 31
0.0
  0
LINE
  5
1BFCA
  8
AM_0
 10
95.918306550136322
 20
509.77192577968879
 30
0.0
 11
94.918306550136322
 21
509.77192577968879
 31
0.0
  0
ARC
  5
1BFCB
  8
AM_0
 10
94.918306550136194
 20
510.27192577968879
 30
0.0
 40
0.5
 50
180.0
 51
270.0
  0
LINE
  5
1BFCC
  8
AM_0
 10
97.418306550136322
 20
525.77192577968856
 30
0.0
 11
95.918306550136322
 21
525.77192577968856
 31
0.0
  0
LINE
  5
1BFCD
  8
AM_0
 10
95.918306550136322
 20
524.77192577968856
 30
0.0
 11
94.918306550136322
 21
524.77192577968856
 31
0.0
  0
ARC
  5
1BFCE
  8
AM_0
 10
94.918306550136194
 20
524.27192577968867
 30
0.0
 40
0.5
 50
90.0
 51
180.0
  0
LINE
  5
1BFCF
  8
AM_0
 10
93.418306550136322
 20
563.62193577968856
 30
0.0
 11
58.418306550136322
 21
561.5919357796887
 31
0.0
  0
ARC
  5
1BFD0
  8
AM_0
 10
70.413546550136303
 20
552.2719157796887
 30
0.0
 40
1.0000119000000001
 50
89.726507999999697
 51
270.27347999999978
  0
ARC
  5
1BFD1
  8
AM_0
 10
57.576636550136293
 20
558.86474577968875
 30
0.0
 40
5.0041121999999998
 50
279.68357000000032
 51
354.57834000000082
  0
LINE
  5
1BFD2
  8
AM_0
 10
58.418366550136277
 20
565.62193577968856
 30
0.0
 11
58.418366550136277
 21
551.58192577968873
 31
0.0
  0
ARC
  5
1BFD3
  8
AM_0
 10
62.091466550136261
 20
552.31690577968857
 30
0.0
 40
1.6750160000000001
 50
89.766540000000646
 51
270.23345999999941
  0
ARC
  5
1BFD4
  8
AM_0
 10
62.963596550136351
 20
552.2719157796887
 30
0.0
 40
1.0000119000000001
 50
89.728447999999375
 51
270.27153999999882
  0
ARC
  5
1BFD5
  8
AM_0
 10
58.039096550136257
 20
554.9390157796887
 30
0.0
 40
6.004915699999998
 50
45.227306999996763
 51
86.379093999999796
  0
ARC
  5
1BFD6
  8
AM_0
 10
61.562286550136257
 20
558.49221577968876
 30
0.0
 40
1.0011080999999991
 50
354.25025000000159
 51
45.146994000001939
  0
ARC
  5
1BFD7
  8
AM_0
 10
71.413726550136303
 20
577.13656577968857
 30
0.0
 40
1.9953640999999991
 50
89.866758999999234
 51
180.13322999999789
  0
ARC
  5
1BFD8
  8
AM_0
 10
71.414526550136316
 20
579.16574577968856
 30
0.0
 40
1.9961880000000001
 50
89.890486999999737
 51
180.10951000000031
  0
ARC
  5
1BFD9
  8
AM_0
 10
71.411896550136362
 20
580.51838577968874
 30
0.0
 40
1.9935560999999999
 50
89.814515000000895
 51
180.1854899999997
  0
ARC
  5
1BFDA
  8
AM_0
 10
71.413856550136302
 20
581.19319577968872
 30
0.0
 40
1.9987239999999999
 50
89.871136999999564
 51
165.55095999999929
  0
ARC
  5
1BFDB
  8
AM_0
 10
67.915496550136353
 20
577.04475577968856
 30
0.0
 40
1.5028360000000001
 50
270.10793999999891
 51
359.89206000000121
  0
LINE
  5
1BFDC
  8
AM_0
 10
69.418306550136322
 20
579.16191577968857
 30
0.0
 11
69.418306550136322
 21
571.75193577968855
 31
0.0
  0
ARC
  5
1BFDD
  8
AM_0
 10
67.911656550136286
 20
571.75862577968871
 30
0.0
 40
1.506699899999999
 50
270.25415999999768
 51
359.74583999999902
  0
ARC
  5
1BFDE
  8
AM_0
 10
67.913486550136213
 20
580.44679577968861
 30
0.0
 40
1.5048719999999991
 50
270.18517999999801
 51
359.81481999999869
  0
ARC
  5
1BFDF
  8
AM_0
 10
68.024936550136303
 20
582.07493577968864
 30
0.0
 40
1.5030159999999979
 50
270.12944999999991
 51
345.23654000000442
  0
LINE
  5
1BFE0
  8
AM_0
 10
100.41830655013629
 20
547.27192577968879
 30
0.0
 11
100.41830655013629
 21
548.77192577968879
 31
0.0
  0
LINE
  5
1BFE1
  8
AM_0
 10
101.41830655013629
 20
549.77192577968856
 30
0.0
 11
101.41830655013629
 21
548.77192577968879
 31
0.0
  0
ARC
  5
1BFE2
  8
AM_0
 10
101.91830655013619
 20
549.77192577968856
 30
0.0
 40
0.5
 50
90.0
 51
180.0
  0
LINE
  5
1BFE3
  8
ﾁｭｳｼﾝｾﾝ1
 10
144.41830655013629
 20
551.77192577968879
 30
0.0
 11
144.41830655013629
 21
482.77192577968867
 31
0.0
1001
GENIUS_GENODEF_13
1002
{
1000
HIER
1070
     0
1002
}
1002
{
1000
MANEDIT
1070
     0
1002
}
1002
{
1000
NOSEL
1070
     0
1002
}
1002
{
1000
BEHIND
1070
     0
1002
}
1002
{
1000
REACTOR
1002
}
1001
GENIUS_GENOBJ-N-CEN_13
1002
{
1000
OWNER
1000
GEN
1002
}
  0
LINE
  5
1BFE4
  8
AM_0
 10
174.41830655013629
 20
545.77192577968856
 30
0.0
 11
174.41830655013629
 21
488.77192577968867
 31
0.0
  0
LINE
  5
1BFE5
  8
AM_0
 10
175.91830655013629
 20
545.77192577968856
 30
0.0
 11
175.91830655013629
 21
488.77192577968867
 31
0.0
  0
LINE
  5
1BFE6
  8
AM_0
 10
167.41830655013629
 20
502.00042577968873
 30
0.0
 11
167.41830655013629
 21
537.77192577968856
 31
0.0
  0
LINE
  5
1BFE7
  8
AM_0
 10
121.41830655013629
 20
532.54352577968837
 30
0.0
 11
121.41830655013629
 21
496.77192577968839
 31
0.0
  0
LINE
  5
1BFE8
  8
AM_0
 10
126.61430655013631
 20
501.96812577968859
 30
0.0
 11
126.61430655013631
 21
532.57582577968856
 31
0.0
  0
LINE
  5
1BFE9
  8
AM_0
 10
162.2223065501363
 20
532.57582577968856
 30
0.0
 11
162.2223065501363
 21
501.96812577968859
 31
0.0
  0
LINE
  5
1BFEA
  8
AM_0
 10
195.41831484550519
 20
580.27193012221062
 30
0.0
 11
195.41834656632901
 21
454.27192880385411
 31
0.0
  0
LINE
  5
1BFEB
  8
AM_0
 10
185.18835655013629
 20
547.27192577968879
 30
0.0
 11
185.18835655013629
 21
487.27192577968862
 31
0.0
  0
CIRCLE
  5
1BFED
  8
AM_0
 10
167.41830655013621
 20
494.7719257796885
 30
0.0
 40
4.5000000000000018
  0
ARC
  5
1BFEE
  8
AM_0
 10
167.41830655013621
 20
494.7719257796885
 30
0.0
 40
5.499999999999992
 50
105.4660099534203
 51
164.5339900465805
  0
LINE
  5
1BFEF
  8
AM_0
 10
144.41830655013629
 20
480.55193377968868
 30
0.0
 11
192.2383165501362
 21
480.55193377968868
 31
0.0
  0
LINE
  5
1BFF0
  8
AM_0
 10
188.7583065501363
 20
481.27192677968861
 30
0.0
 11
144.41830655013629
 21
481.27192677968861
 31
0.0
  0
LINE
  5
1BFF1
  8
AM_0
 10
188.7583065501363
 20
483.2719197796888
 30
0.0
 11
144.41830655013629
 21
483.2719197796888
 31
0.0
  0
ARC
  5
1BFF2
  8
AM_0
 10
124.4123265501363
 20
455.3879547796887
 30
0.0
 40
2.0060479999999981
 50
270.17248999999867
 51
359.82750999999797
  0
ARC
  5
1BFF3
  8
AM_0
 10
124.41494655013619
 20
454.03528577968871
 30
0.0
 40
2.0033560000000001
 50
270.09594000000141
 51
359.90405999999848
  0
ARC
  5
1BFF4
  8
AM_0
 10
124.4164165501362
 20
453.36381577968871
 30
0.0
 40
2.0019
 50
270.05438000000072
 51
359.9456199999961
  0
LINE
  5
1BFF5
  8
AM_0
 10
126.41830655013629
 20
453.36191577968867
 30
0.0
 11
126.41830655013629
 21
455.41191877968879
 31
0.0
  0
LINE
  5
1BFF6
  8
AM_0
 10
123.41830655013629
 20
494.7719257796885
 30
0.0
 11
160.19030655013631
 21
494.77192577968879
 31
0.0
  0
LINE
  5
1BFF7
  8
AM_0
 10
160.2223065501363
 20
499.96812577968859
 30
0.0
 11
128.61430655013629
 21
499.96812577968859
 31
0.0
  0
ARC
  5
1BFF8
  8
AM_0
 10
112.91830655013629
 20
485.4019167796888
 30
0.0
 40
1.5
 50
270.0
 51
311.12057029131103
1001
GENIUS_GENODEF_13
1002
{
1000
HIER
1070
     0
1002
}
1002
{
1000
MANEDIT
1070
     0
1002
}
1002
{
1000
NOSEL
1070
     0
1002
}
1002
{
1000
BEHIND
1070
     0
1002
}
1002
{
1000
REACTOR
1002
}
1001
GENIUS_GENOBJ-N-FIL_13
1002
{
1000
OWNER
1000
GEN
1002
}
  0
LINE
  5
1BFF9
  8
AM_0
 10
117.41830655013629
 20
487.27192577968862
 30
0.0
 11
117.41830655013629
 21
485.77192577968879
 31
0.0
  0
ARC
  5
1BFFA
  8
AM_0
 10
115.91830655013641
 20
484.77192577968879
 30
0.0
 40
0.5
 50
270.0
 51
0.0
  0
LINE
  5
1BFFB
  8
AM_0
 10
116.41830655013641
 20
485.77192577968879
 30
0.0
 11
116.41830655013641
 21
484.77192577968879
 31
0.0
  0
ARC
  5
1BFFC
  8
AM_0
 10
123.41830655013619
 20
496.77192577968839
 30
0.0
 40
2.0
 50
180.0
 51
270.0
  0
ARC
  5
1BFFD
  8
AM_0
 10
128.61430655013629
 20
501.96812577968859
 30
0.0
 40
2.0
 50
180.0
 51
270.0
  0
ARC
  5
1BFFE
  8
AM_0
 10
160.18989040273581
 20
496.77192577968839
 30
0.0
 40
2.0
 50
270.0
 51
344.53399004658058
  0
ARC
  5
1BFFF
  8
AM_0
 10
160.2223065501363
 20
501.96802577968867
 30
0.0
 40
2.0
 50
270.0
 51
0.0
  0
LINE
  5
1C000
  8
AM_0
 10
190.1582965501363
 20
456.89192977968861
 30
0.0
 11
193.61831655013609
 21
469.81192777968869
 31
0.0
  0
LINE
  5
1C001
  8
AM_0
 10
195.12832655013631
 20
466.24192077968871
 30
0.0
 11
192.7183265501362
 21
466.24192077968871
 31
0.0
  0
LINE
  5
1C002
  8
AM_0
 10
192.21835655013621
 20
458.35192177968872
 30
0.0
 11
193.6583565501362
 21
465.05193377968868
 31
0.0
  0
LINE
  5
1C003
  8
AM_0
 10
190.12835655013629
 20
456.77193477968871
 30
0.0
 11
195.41830655013629
 21
456.77193477968871
 31
0.0
  0
ARC
  5
1C004
  8
AM_0
 10
188.22299655013629
 20
457.41731277968859
 30
0.0
 40
2.0053917999999991
 50
270.15274999999968
 51
344.81207000000018
  0
ARC
  5
1C005
  8
AM_0
 10
190.26077655013631
 20
458.77453677968867
 30
0.0
 40
2.0026237999999998
 50
270.21534000000139
 51
347.8173399999996
  0
LINE
  5
1C006
  8
AM_0
 10
196.41833655013619
 20
453.27194077968869
 30
0.0
 11
204.4183665501364
 21
453.27194077968869
 31
0.0
  0
ARC
  5
1C007
  8
AM_0
 10
196.41852655013619
 20
454.27210877968889
 30
0.0
 40
1.0001799999999981
 50
180.01030999999901
 51
269.98967999999991
  0
LINE
  5
1C008
  8
AM_0
 10
196.41833655013619
 20
465.23193377968857
 30
0.0
 11
204.4183665501364
 21
465.2319337796888
 31
0.0
  0
ARC
  5
1C009
  8
AM_0
 10
196.41778655013621
 20
466.23139177968881
 30
0.0
 40
0.9994760199999999
 50
179.97009000000199
 51
270.02992000000029
  0
ARC
  5
1C00A
  8
AM_0
 10
195.12539655013629
 20
464.74260777968863
 30
0.0
 40
1.499328
 50
89.888151000000079
 51
168.09384000000071
  0
ARC
  5
1C00B
  8
AM_0
 10
192.2383165501362
 20
482.2269367796888
 30
0.0
 40
1.6750041
 50
270.0
 51
90.00000299999769
  0
LINE
  5
1C00C
  8
AM_0
 10
175.51638276148961
 20
487.27192577968862
 30
0.0
 11
185.18835655013629
 21
487.27192577968862
 31
0.0
  0
LINE
  5
1C00D
  8
AM_0
 10
175.68832655013631
 20
487.00192577968869
 30
0.0
 11
185.1882965501363
 21
487.27191577968858
 31
0.0
  0
LINE
  5
1C00E
  8
AM_0
 10
192.2383165501362
 20
483.90191677968869
 30
0.0
 11
175.71832655013631
 21
483.90191677968869
 31
0.0
  0
ARC
  5
1C00F
  8
AM_0
 10
175.71447655013631
 20
486.00609577968868
 30
0.0
 40
0.99615997
 50
153.11127999765489
 51
180.24054999999899
  0
ARC
  5
1C010
  8
AM_0
 10
172.91830655013621
 20
488.77192577968839
 30
0.0
 40
3.0
 50
270.0
 51
0.0
  0
ARC
  5
1C011
  8
AM_0
 10
172.91830655013621
 20
488.77192577968839
 30
0.0
 40
1.5
 50
270.0
 51
0.0
  0
ARC
  5
1C012
  8
AM_0
 10
175.71447655013631
 20
486.00609577968868
 30
0.0
 40
0.99615997
 50
91.504364999999893
 51
117.5137961292091
  0
ARC
  5
1C013
  8
AM_0
 10
175.71991655013619
 20
484.90352677968872
 30
0.0
 40
1.001595999999999
 50
180.09126000000001
 51
269.90875000000079
  0
LINE
  5
1C014
  8
AM_0
 10
174.71832655013631
 20
484.90192477968878
 30
0.0
 11
174.71832655013631
 21
486.00193077968862
 31
0.0
  0
ARC
  5
1C015
  8
AM_0
 10
188.7583065501363
 20
482.27193477968859
 30
0.0
 40
1.0
 50
270.0
 51
90.00000299999769
  0
LINE
  5
1C016
  8
AM_0
 10
165.82830655013629
 20
493.18182577968861
 30
0.0
 11
169.0083065501363
 21
496.36182577968867
 31
0.0
  0
LINE
  5
1C017
  8
AM_0
 10
165.8683065501364
 20
496.3619257796887
 30
0.0
 11
168.96830655013639
 21
493.18192577968858
 31
0.0
  0
ARC
  5
1C018
  8
AM_0
 10
165.41830655013621
 20
502.0003419270891
 30
0.0
 40
2.0
 50
285.46600995342033
 51
0.0
  0
ARC
  5
1C019
  8
AM_0
 10
195.06369655013631
 20
469.42594177968869
 30
0.0
 40
1.495995999999999
 50
89.821706999999776
 51
165.0476599999985
  0
LINE
  5
1C01A
  8
AM_0
 10
195.41830655013629
 20
480.12193377968867
 30
0.0
 11
204.4183665501364
 21
480.12193377968867
 31
0.0
  0
ARC
  5
1C01B
  8
AM_0
 10
165.41830655013621
 20
537.77192577968844
 30
0.0
 40
2.0
 50
0.0
 51
90.0
  0
LINE
  5
1C01C
  8
AM_0
 10
165.41830655013629
 20
539.77192577968879
 30
0.0
 11
128.64630655013619
 21
539.77192577968879
 31
0.0
  0
LINE
  5
1C01D
  8
AM_0
 10
128.61430655013629
 20
534.57582577968856
 30
0.0
 11
160.2223065501363
 21
534.57582577968856
 31
0.0
  0
ARC
  5
1C01E
  8
AM_0
 10
121.41830655013619
 20
539.77192577968879
 30
0.0
 40
5.499999999999992
 50
285.46600995342033
 51
344.53399004658058
  0
CIRCLE
  5
1C01F
  8
AM_0
 10
121.41830655013619
 20
539.77192577968879
 30
0.0
 40
4.5000000000000018
  0
ARC
  5
1C020
  8
AM_0
 10
123.41830655013619
 20
532.54350963228796
 30
0.0
 40
2.0
 50
105.4660099534203
 51
180.0
  0
LINE
  5
1C021
  8
AM_0
 10
122.9683065501364
 20
538.18192577968864
 30
0.0
 11
119.8683065501363
 21
541.3619257796887
 31
0.0
  0
LINE
  5
1C022
  8
AM_0
 10
123.0083065501363
 20
541.36202577968857
 30
0.0
 11
119.8283065501363
 21
538.18202577968862
 31
0.0
  0
ARC
  5
1C023
  8
AM_0
 10
128.61430655013629
 20
532.57582577968856
 30
0.0
 40
2.0
 50
90.0
 51
180.0
  0
ARC
  5
1C024
  8
AM_0
 10
128.6467226975368
 20
537.77192577968856
 30
0.0
 40
2.0
 50
90.0
 51
164.5339900465805
  0
ARC
  5
1C025
  8
AM_0
 10
160.2223065501363
 20
532.57582577968856
 30
0.0
 40
2.0
 50
0.0
 51
90.0
  0
ARC
  5
1C026
  8
AM_0
 10
112.91830655013629
 20
549.14193577968865
 30
0.0
 40
1.5
 50
48.879371627014372
 51
90.0
1001
GENIUS_GENODEF_13
1002
{
1000
HIER
1070
     0
1002
}
1002
{
1000
MANEDIT
1070
     0
1002
}
1002
{
1000
NOSEL
1070
     0
1002
}
1002
{
1000
BEHIND
1070
     0
1002
}
1002
{
1000
REACTOR
1002
}
1001
GENIUS_GENOBJ-N-FIL_13
1002
{
1000
OWNER
1000
GEN
1002
}
  0
LINE
  5
1C027
  8
AM_0
 10
117.41830655013629
 20
547.27192577968879
 30
0.0
 11
117.41830655013629
 21
548.77192577968879
 31
0.0
  0
LINE
  5
1C028
  8
AM_0
 10
116.41830655013629
 20
548.77192577968879
 30
0.0
 11
116.41830655013629
 21
549.77192577968856
 31
0.0
  0
ARC
  5
1C029
  8
AM_0
 10
115.91830655013619
 20
549.77192577968856
 30
0.0
 40
0.5
 50
0.0
 51
90.0
  0
ARC
  5
1C02A
  8
AM_0
 10
124.4173965501363
 20
579.16099577968873
 30
0.0
 40
2.0009238999999992
 50
0.0264629989963175
 51
89.973536000002312
  0
ARC
  5
1C02B
  8
AM_0
 10
124.4200165501362
 20
580.51362577968871
 30
0.0
 40
1.9982919999999991
 50
359.95103000000051
 51
90.048974999998507
  0
ARC
  5
1C02C
  8
AM_0
 10
124.4165365501362
 20
581.19010577968868
 30
0.0
 40
2.0018279999999988
 50
0.0523010000023255
 51
89.947697000000545
  0
LINE
  5
1C02D
  8
AM_0
 10
126.41830655013629
 20
581.19190577968857
 30
0.0
 11
126.41830655013629
 21
579.13192577968857
 31
0.0
  0
ARC
  5
1C02E
  8
AM_0
 10
172.91830655013621
 20
545.77192577968856
 30
0.0
 40
3.0
 50
0.0
 51
90.0
  0
ARC
  5
1C02F
  8
AM_0
 10
172.91830655013621
 20
545.77192577968856
 30
0.0
 40
1.5
 50
0.0
 51
90.0
  0
ARC
  5
1C030
  8
AM_0
 10
192.2383165501362
 20
552.31690577968857
 30
0.0
 40
1.6750041
 50
270.0
 51
90.00000299999769
  0
LINE
  5
1C031
  8
AM_0
 10
190.1582965501363
 20
577.65193577968876
 30
0.0
 11
193.61828655013619
 21
564.73196577968872
 31
0.0
  0
LINE
  5
1C032
  8
AM_0
 10
190.12835655013629
 20
577.77191577968858
 30
0.0
 11
195.41830655013629
 21
577.77191577968858
 31
0.0
  0
LINE
  5
1C033
  8
AM_0
 10
195.12832655013631
 20
568.31193577968872
 30
0.0
 11
192.7183265501362
 21
568.31193577968872
 31
0.0
  0
LINE
  5
1C034
  8
AM_0
 10
192.21832655013631
 20
576.19197577968873
 30
0.0
 11
193.65832655013631
 21
569.49197577968869
 31
0.0
  0
LINE
  5
1C035
  8
AM_0
 10
175.51638276148941
 20
547.27192577968879
 30
0.0
 11
185.18835655013629
 21
547.27192577968879
 31
0.0
  0
LINE
  5
1C036
  8
AM_0
 10
192.2383165501362
 20
550.64193577968865
 30
0.0
 11
175.71832655013631
 21
550.64193577968865
 31
0.0
  0
LINE
  5
1C037
  8
AM_0
 10
175.6882965501363
 20
547.54193577968874
 30
0.0
 11
185.18826655013621
 21
547.27192577968879
 31
0.0
  0
ARC
  5
1C038
  8
AM_0
 10
175.7195465501363
 20
548.54267577968858
 30
0.0
 40
1.001239999999999
 50
242.1435173777781
 51
268.2119599999989
  0
ARC
  5
1C039
  8
AM_0
 10
175.71484655013629
 20
549.64543577968868
 30
0.0
 40
0.996512
 50
89.798963000000256
 51
180.20102999999889
  0
ARC
  5
1C03A
  8
AM_0
 10
175.7195465501363
 20
548.54267577968858
 30
0.0
 40
1.001239999999999
 50
180.0431299999982
 51
207.2294424152584
  0
LINE
  5
1C03B
  8
AM_0
 10
174.71832655013631
 20
549.64192577968856
 30
0.0
 11
174.71832655013631
 21
548.54191577968857
 31
0.0
  0
ARC
  5
1C03C
  8
AM_0
 10
188.7583065501363
 20
552.2719157796887
 30
0.0
 40
1.0
 50
270.0
 51
90.00000299999769
  0
ARC
  5
1C03D
  8
AM_0
 10
190.26577655013631
 20
575.77545577968874
 30
0.0
 40
1.996488
 50
12.04087499999966
 51
89.926440999999329
  0
ARC
  5
1C03E
  8
AM_0
 10
188.2279065501362
 20
577.13294577968873
 30
0.0
 40
1.9989878999999999
 50
15.04780099999898
 51
89.987372999998755
  0
LINE
  5
1C03F
  8
AM_0
 10
195.41830655013629
 20
554.42192577968865
 30
0.0
 11
204.4183665501364
 21
554.42192577968865
 31
0.0
  0
ARC
  5
1C040
  8
AM_0
 10
195.0685765501363
 20
565.12431577968857
 30
0.0
 40
1.502391899999999
 50
195.14001000000141
 51
269.99063999999993
  0
LINE
  5
1C041
  8
AM_0
 10
196.41833655013619
 20
569.31191577968866
 30
0.0
 11
204.4183665501364
 21
569.31191577968866
 31
0.0
  0
ARC
  5
1C042
  8
AM_0
 10
196.41272655013631
 20
568.31753577968857
 30
0.0
 40
0.9944000200000001
 50
89.676490999999999
 51
180.32350999999781
  0
ARC
  5
1C043
  8
AM_0
 10
195.12420655013631
 20
569.81239577968859
 30
0.0
 40
1.500475999999999
 50
192.3322299999987
 51
270.15827999999971
  0
LINE
  5
1C044
  8
AM_0
 10
196.41833655013619
 20
581.27192077968914
 30
0.0
 11
204.4183665501364
 21
581.27192077968914
 31
0.0
  0
ARC
  5
1C045
  8
AM_0
 10
196.41336655013609
 20
580.27688077968912
 30
0.0
 40
0.9950640200000001
 50
89.714938000000444
 51
180.285059999998
  0
LINE
  5
1C046
  8
AM_0
 10
40.92446655013628
 20
502.05003577968841
 30
0.0
 11
40.92446655013628
 21
532.49366577968851
 31
0.0
  0
LINE
  5
1C047
  8
AM_0
 10
40.92446655013628
 20
502.05006577968851
 30
0.0
 11
41.424466550136401
 21
499.28007577968827
 31
0.0
  0
LINE
  5
1C048
  8
AM_0
 10
41.424466550136401
 20
499.28007577968827
 30
0.0
 11
41.924496550136283
 21
499.32008577968838
 31
0.0
  0
POINT
  5
1C049
  8
AM_0
 10
40.924466550136401
 20
517.27189577968852
 30
0.0
  0
LINE
  5
1C04A
  8
AM_0
 10
41.424466550136401
 20
535.26368577968833
 30
0.0
 11
41.924466550136337
 21
535.22367577968851
 31
0.0
  0
LINE
  5
1C04B
  8
AM_0
 10
40.92446655013628
 20
532.49366577968851
 30
0.0
 11
41.424466550136401
 21
535.26368577968833
 31
0.0
  0
LINE
  5
1C491
  8
AM_0
 10
313.9184003161684
 20
469.27194681937527
 30
0.0
 11
321.91840031616857
 21
469.27194681937527
 31
0.0
  0
LINE
  5
1C492
  8
AM_0
 10
323.91840031616857
 20
475.2719468193755
 30
0.0
 11
311.91840031616829
 21
475.2719468193755
 31
0.0
  0
LINE
  5
1C493
  8
AM_0
 10
313.41839919858143
 20
570.27194985921221
 30
0.0
 11
388.41840143375549
 21
570.27194985921221
 31
0.0
  0
LINE
  5
1C494
  8
AM_0
 10
313.41839919858143
 20
464.271939070771
 30
0.0
 11
388.41840143375549
 21
464.27193907077123
 31
0.0
  0
LINE
  5
1C495
  8
AM_0
 10
241.7952046126633
 20
566.27195736939791
 30
0.0
 11
413.79524008424193
 21
566.27195736939791
 31
0.0
  0
LINE
  5
1C496
  8
AM_0
 10
241.79520461266341
 20
468.27194681937527
 30
0.0
 11
413.79524008424193
 21
468.2719468193755
 31
0.0
  0
LINE
  5
1C497
  8
AM_0
 10
241.9183665501362
 20
488.27194741542172
 30
0.0
 11
413.91840219371448
 21
488.27194741542201
 31
0.0
  0
LINE
  5
1C498
  8
ﾁｭｳｼﾝｾﾝ1
 10
34.674466550136351
 20
517.2719482796889
 30
0.0
 11
420.1684021937146
 21
517.27194827968913
 31
0.0
1001
GENIUS_GENODEF_13
1002
{
1000
HIER
1070
     0
1002
}
1002
{
1000
MANEDIT
1070
     0
1002
}
1002
{
1000
NOSEL
1070
     0
1002
}
1002
{
1000
BEHIND
1070
     0
1002
}
1002
{
1000
REACTOR
1002
}
1001
GENIUS_GENOBJ-N-CEN_13
1002
{
1000
OWNER
1000
GEN
1002
}
  0
LINE
  5
1C499
  8
AM_0
 10
215.41836655013611
 20
578.77194327968948
 30
0.0
 11
215.41836655013611
 21
455.77196327968898
 31
0.0
  0
LINE
  5
1C49A
  8
AM_0
 10
241.91836655021211
 20
488.27194741542172
 30
0.0
 11
243.2798778211812
 21
566.27195736939791
 31
0.0
  0
LINE
  5
1C49B
  8
AM_0
 10
204.4183665501364
 20
581.27197827968951
 30
0.0
 11
204.4183665501364
 21
453.2719632796892
 31
0.0
  0
LINE
  5
1C49C
  8
AM_0
 10
204.4183665501364
 20
480.13197327968908
 30
0.0
 11
214.41836655013631
 21
480.13197327968908
 31
0.0
  0
LINE
  5
1C49D
  8
AM_0
 10
204.41832528348581
 20
480.13196327971161
 30
0.0
 11
214.4183252834795
 21
480.13195216860038
 31
0.0
  0
LINE
  5
1C49E
  8
AM_0
 10
204.4183665501364
 20
465.23196327968913
 30
0.0
 11
214.41836655013631
 21
465.23196327968913
 31
0.0
  0
LINE
  5
1C49F
  8
AM_0
 10
204.41830872791891
 20
465.23195327972081
 30
0.0
 11
214.41830872791269
 21
465.23194216860958
 31
0.0
  0
LINE
  5
1C4A0
  8
AM_0
 10
204.4183665501364
 20
453.2719632796892
 30
0.0
 11
213.5449693777318
 21
453.2719632796892
 31
0.0
  0
LINE
  5
1C4A1
  8
AM_0
 10
234.27699700568829
 20
488.44625890091709
 30
0.0
 11
231.57809359828499
 21
457.59765179419378
 31
0.0
  0
LINE
  5
1C4A2
  8
AM_0
 10
218.41836655013611
 20
455.77196327968898
 30
0.0
 11
229.5857042021014
 21
455.77196327968937
 31
0.0
  0
ARC
  5
1C4A3
  8
AM_0
 10
218.4183665501362
 20
452.7719632796892
 30
0.0
 40
2.9999999999999978
 50
90.0
 51
144.31466528734541
1001
GENIUS_GENOBJ-N-FIL_13
1002
{
1000
OWNER
1000
GEN
1002
}
1001
GENIUS_GENODEF_13
1002
{
1000
HIER
1070
     0
1002
}
1002
{
1000
MANEDIT
1070
     0
1002
}
1002
{
1000
NOSEL
1070
     0
1002
}
1002
{
1000
BEHIND
1070
     0
1002
}
1002
{
1000
OTHER
1070
     0
1002
}
1002
{
1000
REACTOR
1002
}
  0
ARC
  5
1C4A4
  8
AM_0
 10
213.54496937773169
 20
456.27196327968892
 30
0.0
 40
2.9999999999999978
 50
270.0
 51
324.31466528734541
1001
GENIUS_GENOBJ-N-FIL_13
1002
{
1000
OWNER
1000
GEN
1002
}
1001
GENIUS_GENODEF_13
1002
{
1000
HIER
1070
     0
1002
}
1002
{
1000
MANEDIT
1070
     0
1002
}
1002
{
1000
NOSEL
1070
     0
1002
}
1002
{
1000
BEHIND
1070
     0
1002
}
1002
{
1000
OTHER
1070
     0
1002
}
1002
{
1000
REACTOR
1002
}
  0
ARC
  5
1C4A5
  8
AM_0
 10
229.5857042021014
 20
457.77196327968937
 30
0.0
 40
2.0
 50
270.0
 51
354.99999999999977
1001
GENIUS_GENOBJ-N-FIL_13
1002
{
1000
OWNER
1000
GEN
1002
}
1001
GENIUS_GENODEF_13
1002
{
1000
HIER
1070
     0
1002
}
1002
{
1000
MANEDIT
1070
     0
1002
}
1002
{
1000
NOSEL
1070
     0
1002
}
1002
{
1000
BEHIND
1070
     0
1002
}
1002
{
1000
OTHER
1070
     0
1002
}
1002
{
1000
REACTOR
1002
}
  0
ARC
  5
1C4A6
  8
AM_0
 10
236.26938640187191
 20
488.27194741542172
 30
0.0
 40
2.0
 50
90.0
 51
175.0
1001
GENIUS_GENOBJ-N-FIL_13
1002
{
1000
OWNER
1000
GEN
1002
}
1001
GENIUS_GENODEF_13
1002
{
1000
HIER
1070
     0
1002
}
1002
{
1000
MANEDIT
1070
     0
1002
}
1002
{
1000
NOSEL
1070
     0
1002
}
1002
{
1000
BEHIND
1070
     0
1002
}
1002
{
1000
OTHER
1070
     0
1002
}
1002
{
1000
REACTOR
1002
}
  0
LINE
  5
1C4A7
  8
AM_0
 10
242.26745713671181
 20
468.27194681937527
 30
0.0
 11
241.9183665501362
 21
488.27194741542172
 31
0.0
  0
ARC
  5
1C4A8
  8
AM_0
 10
240.93566948905811
 20
489.27194741542161
 30
0.0
 40
1.0
 50
358.99998822650258
 51
90.0
1001
GENIUS_GENOBJ-N-FIL_13
1002
{
1000
OWNER
1000
GEN
1002
}
1001
GENIUS_GENODEF_13
1002
{
1000
HIER
1070
     0
1002
}
1002
{
1000
MANEDIT
1070
     0
1002
}
1002
{
1000
NOSEL
1070
     0
1002
}
1002
{
1000
BEHIND
1070
     0
1002
}
1002
{
1000
OTHER
1070
     0
1002
}
1002
{
1000
REACTOR
1002
}
  0
LINE
  5
1C4A9
  8
AM_0
 10
236.26938640187191
 20
490.27194741542161
 30
0.0
 11
240.935669489058
 21
490.27194741542161
 31
0.0
  0
LINE
  5
1C4AA
  8
AM_0
 10
312.91840031616829
 20
475.2719468193755
 30
0.0
 11
312.91840031616829
 21
470.27194681937527
 31
0.0
  0
LINE
  5
1C4AB
  8
AM_0
 10
311.91840031616829
 20
468.27194681937527
 30
0.0
 11
311.91840031616829
 21
475.2719468193755
 31
0.0
  0
ARC
  5
1C4AC
  8
AM_0
 10
313.9184003161684
 20
470.27194681937527
 30
0.0
 40
1.0
 50
180.0
 51
270.0
1001
GENIUS_GENOBJ-N-FIL_13
1002
{
1000
OWNER
1000
GEN
1002
}
1001
GENIUS_GENODEF_13
1002
{
1000
HIER
1070
     0
1002
}
1002
{
1000
MANEDIT
1070
     0
1002
}
1002
{
1000
NOSEL
1070
     0
1002
}
1002
{
1000
BEHIND
1070
     0
1002
}
1002
{
1000
OTHER
1070
     0
1002
}
1002
{
1000
REACTOR
1002
}
  0
LINE
  5
1C4AD
  8
AM_0
 10
313.41839919858143
 20
464.271939070771
 30
0.0
 11
313.41839919858143
 21
468.27193918998029
 31
0.0
  0
LINE
  5
1C4AE
  8
AM_0
 10
204.4183665501364
 20
581.27194327968925
 30
0.0
 11
213.5449693777318
 21
581.27194327968925
 31
0.0
  0
LINE
  5
1C4AF
  8
AM_0
 10
204.4183665501364
 20
569.3119432796891
 30
0.0
 11
214.41836655013631
 21
569.3119432796891
 31
0.0
  0
LINE
  5
1C4B0
  8
AM_0
 10
204.4183665501364
 20
554.41193327968915
 30
0.0
 11
214.41836655013631
 21
554.41193327968915
 31
0.0
  0
LINE
  5
1C4B1
  8
AM_0
 10
228.25106266420329
 20
564.27195736939791
 30
0.0
 11
241.27957315791869
 21
564.27195736939791
 31
0.0
  0
LINE
  5
1C4B2
  8
AM_0
 10
225.30954297588099
 20
576.94625476518445
 30
0.0
 11
226.25867326801981
 21
566.0976458839026
 31
0.0
  0
ARC
  5
1C4B3
  8
AM_0
 10
228.2510626642032
 20
566.27195736939757
 30
0.0
 40
2.0
 50
185.0
 51
270.0
1001
GENIUS_GENOBJ-N-FIL_13
1002
{
1000
OWNER
1000
GEN
1002
}
1001
GENIUS_GENODEF_13
1002
{
1000
HIER
1070
     0
1002
}
1002
{
1000
MANEDIT
1070
     0
1002
}
1002
{
1000
NOSEL
1070
     0
1002
}
1002
{
1000
BEHIND
1070
     0
1002
}
1002
{
1000
OTHER
1070
     0
1002
}
1002
{
1000
REACTOR
1002
}
  0
LINE
  5
1C4B4
  8
AM_0
 10
218.41836655013611
 20
578.77194327968948
 30
0.0
 11
223.3171535796975
 21
578.77194327968925
 31
0.0
  0
ARC
  5
1C4B5
  8
AM_0
 10
213.54496937773169
 20
578.27194327968925
 30
0.0
 40
2.9999999999999978
 50
35.68533471265463
 51
90.0
1001
GENIUS_GENOBJ-N-FIL_13
1002
{
1000
OWNER
1000
GEN
1002
}
1001
GENIUS_GENODEF_13
1002
{
1000
HIER
1070
     0
1002
}
1002
{
1000
MANEDIT
1070
     0
1002
}
1002
{
1000
NOSEL
1070
     0
1002
}
1002
{
1000
BEHIND
1070
     0
1002
}
1002
{
1000
OTHER
1070
     0
1002
}
1002
{
1000
REACTOR
1002
}
  0
ARC
  5
1C4B6
  8
AM_0
 10
218.41836655013611
 20
581.77194327968925
 30
0.0
 40
2.9999999999999978
 50
215.68533471265459
 51
270.0
1001
GENIUS_GENOBJ-N-FIL_13
1002
{
1000
OWNER
1000
GEN
1002
}
1001
GENIUS_GENODEF_13
1002
{
1000
HIER
1070
     0
1002
}
1002
{
1000
MANEDIT
1070
     0
1002
}
1002
{
1000
NOSEL
1070
     0
1002
}
1002
{
1000
BEHIND
1070
     0
1002
}
1002
{
1000
OTHER
1070
     0
1002
}
1002
{
1000
REACTOR
1002
}
  0
ARC
  5
1C4B7
  8
AM_0
 10
223.3171535796975
 20
576.77194327968925
 30
0.0
 40
2.0
 50
5.0000000000000258
 51
90.0
1001
GENIUS_GENOBJ-N-FIL_13
1002
{
1000
OWNER
1000
GEN
1002
}
1001
GENIUS_GENODEF_13
1002
{
1000
HIER
1070
     0
1002
}
1002
{
1000
MANEDIT
1070
     0
1002
}
1002
{
1000
NOSEL
1070
     0
1002
}
1002
{
1000
BEHIND
1070
     0
1002
}
1002
{
1000
OTHER
1070
     0
1002
}
1002
{
1000
REACTOR
1002
}
  0
ARC
  5
1C4B8
  8
AM_0
 10
241.27957315791861
 20
566.27195736939757
 30
0.0
 40
2.0
 50
270.0
 51
358.99998822644397
1001
GENIUS_GENOBJ-N-FIL_13
1002
{
1000
OWNER
1000
GEN
1002
}
1001
GENIUS_GENODEF_13
1002
{
1000
HIER
1070
     0
1002
}
1002
{
1000
MANEDIT
1070
     0
1002
}
1002
{
1000
NOSEL
1070
     0
1002
}
1002
{
1000
BEHIND
1070
     0
1002
}
1002
{
1000
OTHER
1070
     0
1002
}
1002
{
1000
REACTOR
1002
}
  0
LINE
  5
1C4B9
  8
AM_0
 10
313.41839919858143
 20
570.27194985921221
 30
0.0
 11
313.41839919858143
 21
566.27194974000292
 31
0.0
  0
LINE
  5
1C4BA
  8
ﾁｭｳｼﾝｾﾝ1
 10
350.9184003161684
 20
400.3301377050646
 30
0.0
 11
350.9184003161684
 21
634.21375885431371
 31
0.0
  0
LINE
  5
1C4BB
  8
AM_0
 10
413.91840219371448
 20
488.27194741542201
 30
0.0
 11
412.55692144024857
 21
566.27195736939791
 31
0.0
  0
LINE
  5
1C4BF
  8
AM_0
 10
322.91840031616857
 20
470.27194681937527
 30
0.0
 11
322.91840031616857
 21
475.2719468193755
 31
0.0
  0
LINE
  5
1C4C0
  8
AM_0
 10
323.91840031616857
 20
468.27194681937527
 30
0.0
 11
323.91840031616857
 21
475.2719468193755
 31
0.0
  0
ARC
  5
1C4C1
  8
AM_0
 10
321.91840031616857
 20
470.27194681937527
 30
0.0
 40
1.0
 50
270.0
 51
0.0
1001
GENIUS_GENOBJ-N-FIL_13
1002
{
1000
OWNER
1000
GEN
1002
}
1001
GENIUS_GENODEF_13
1002
{
1000
HIER
1070
     0
1002
}
1002
{
1000
MANEDIT
1070
     0
1002
}
1002
{
1000
NOSEL
1070
     0
1002
}
1002
{
1000
BEHIND
1070
     0
1002
}
1002
{
1000
OTHER
1070
     0
1002
}
1002
{
1000
REACTOR
1002
}
  0
LINE
  5
1C4C2
  8
AM_0
 10
388.41840143375549
 20
464.27193907077123
 30
0.0
 11
388.41840143375549
 21
468.2719391899804
 31
0.0
  0
LINE
  5
1C4C3
  8
AM_0
 10
413.5693116071389
 20
468.2719468193755
 30
0.0
 11
413.91840219371448
 21
488.27194741542201
 31
0.0
  0
LINE
  5
1C4C4
  8
AM_0
 10
388.41840143375549
 20
570.27194985921221
 30
0.0
 11
388.41840143375549
 21
566.27194974000292
 31
0.0
  0
LINE
  5
1C4D3
  8
AM_0
 10
413.79524008424193
 20
429.77195713713019
 30
0.0
 11
413.79524008424193
 21
468.27194809642162
 31
0.0
  0
LINE
  5
1C4D4
  8
AM_0
 10
241.79520461266341
 20
468.27194809642162
 30
0.0
 11
241.79520461266341
 21
429.77195713713019
 31
0.0
  0
LINE
  5
1C4D7
  8
AM_0
 10
413.79524008424193
 20
463.77194809642162
 30
0.0
 11
373.4184009867206
 21
463.77194809642162
 31
0.0
  0
LINE
  5
1C4D8
  8
AM_0
 10
328.41839964561609
 20
463.77194809642162
 30
0.0
 11
241.79520461266341
 21
463.77194809642162
 31
0.0
  0
LINE
  5
1C4D9
  8
AM_5
 10
284.17967829912078
 20
463.77194809642162
 30
0.0
 11
284.17967829912078
 21
468.27194809642162
 31
0.0
  0
LINE
  5
1C4DA
  8
AM_5
 10
304.79520642720951
 20
463.77194809642162
 30
0.0
 11
304.79520642720951
 21
468.27194809642162
 31
0.0
  0
INSERT
  5
1C4DB
  8
AM_0
  6
CONTINUOUS
  2
*U6
 10
0.0
 20
0.0
 30
0.0
1001
GENIUS_GENOBJ-N-HTC_13
1002
{
1000
OWNER
1000
GEN
1002
}
1001
GENIUS_GENODEF_13
1002
{
1000
HIER
1070
     0
1002
}
1002
{
1000
MANEDIT
1070
     0
1002
}
1002
{
1000
NOSEL
1070
     0
1002
}
1002
{
1000
BEHIND
1070
     0
1002
}
1002
{
1000
OTHER
1070
     0
1002
}
1002
{
1000
REACTOR
1002
}
1001
GENIUS_GENHATCH_13
1002
{
1000
DATA
1040
0.0
1042
1.0
1000
SOLID
1070
     0
1011
290.87487954291271
1021
0.0
1031
0.0
1021
462.47366107769892
1031
0.0
1002
}
1002
{
1000
UCS
1010
0.0
1020
0.0
1030
0.0
1010
1.0
1020
0.0
1030
0.0
1010
0.0
1020
1.0
1030
0.0
1002
}
1001
ACAD
1002
{
1000
R14_HATCH_DATA
1000
1C4DB
1011
1.0
1021
0.0
1031
0.0
1021
0.0
1031
0.0
1011
0.0
1021
0.0
1031
0.0
1021
1.0
1031
0.0
1011
0.0
1021
0.0
1031
0.0
1021
0.0
1031
1.0
1040
0.0
1010
0.0
1020
0.0
1030
1.0
1000
SOLID
1070
     1
1070
     0
1071
        1
1071
        1
1071
        3
1070
     1
1040
293.79520642720939
1040
463.77194809642162
1040
289.79520642720928
1040
459.77194809642162
1070
     1
1040
289.79520642720928
1040
459.77194809642162
1040
289.79520642720928
1040
463.77194809642162
1070
     1
1040
289.79520642720928
1040
463.77194809642162
1040
293.79520642720939
1040
463.77194809642162
1071
        0
1070
     0
1070
     1
1071
        1
1040
91.403651009837205
1040
561.29058656233303
1040
0.0
1002
}
  0
LINE
  5
1C4DC
  8
AM_0
 10
289.79520642720928
 20
459.77194809642162
 30
0.0
 11
293.79520642720939
 21
463.77194809642162
 31
0.0
1001
GENIUS_GENFIL_13
1070
     0
1040
4.0
1040
4.0
1040
20.0
1040
0.0
1002
{
1002
}
1001
GENIUS_GENOBJ-N-CHA_13
1002
{
1000
OWNER
1000
GEN
1002
}
1001
GENIUS_GENODEF_13
1002
{
1000
HIER
1070
     0
1002
}
1002
{
1000
MANEDIT
1070
     0
1002
}
1002
{
1000
NOSEL
1070
     0
1002
}
1002
{
1000
BEHIND
1070
     0
1002
}
1002
{
1000
OTHER
1070
     0
1002
}
1002
{
1000
REACTOR
1002
}
  0
LINE
  5
1C4DD
  8
AM_0
 10
285.29520642720951
 20
459.77194809642162
 30
0.0
 11
281.29520642720939
 21
463.77194809642162
 31
0.0
1001
GENIUS_GENFIL_13
1070
     0
1040
4.0
1040
4.0
1040
20.0
1040
0.0
1002
{
1002
}
1001
GENIUS_GENOBJ-N-CHA_13
1002
{
1000
OWNER
1000
GEN
1002
}
1001
GENIUS_GENODEF_13
1002
{
1000
HIER
1070
     0
1002
}
1002
{
1000
MANEDIT
1070
     0
1002
}
1002
{
1000
NOSEL
1070
     0
1002
}
1002
{
1000
BEHIND
1070
     0
1002
}
1002
{
1000
OTHER
1070
     0
1002
}
1002
{
1000
REACTOR
1002
}
  0
INSERT
  5
1C4DE
  8
AM_0
  6
CONTINUOUS
  2
*U7
 10
0.0
 20
0.0
 30
0.0
1001
GENIUS_GENOBJ-N-HTC_13
1002
{
1000
OWNER
1000
GEN
1002
}
1001
GENIUS_GENODEF_13
1002
{
1000
HIER
1070
     0
1002
}
1002
{
1000
MANEDIT
1070
     0
1002
}
1002
{
1000
NOSEL
1070
     0
1002
}
1002
{
1000
BEHIND
1070
     0
1002
}
1002
{
1000
OTHER
1070
     0
1002
}
1002
{
1000
REACTOR
1002
}
1001
GENIUS_GENHATCH_13
1002
{
1000
DATA
1040
0.0
1042
1.0
1000
SOLID
1070
     0
1011
284.21553331150631
1021
0.0
1031
0.0
1021
462.47366107769892
1031
0.0
1002
}
1002
{
1000
UCS
1010
0.0
1020
0.0
1030
0.0
1010
1.0
1020
0.0
1030
0.0
1010
0.0
1020
1.0
1030
0.0
1002
}
1001
ACAD
1002
{
1000
R14_HATCH_DATA
1000
1C4DE
1011
1.0
1021
0.0
1031
0.0
1021
0.0
1031
0.0
1011
0.0
1021
0.0
1031
0.0
1021
1.0
1031
0.0
1011
0.0
1021
0.0
1031
0.0
1021
0.0
1031
1.0
1040
0.0
1010
0.0
1020
0.0
1030
1.0
1000
SOLID
1070
     1
1070
     0
1071
        1
1071
        1
1071
        3
1070
     1
1040
281.29520642720939
1040
463.77194809642162
1040
285.29520642720951
1040
459.77194809642162
1070
     1
1040
285.29520642720951
1040
459.77194809642162
1040
285.29520642720951
1040
463.77194809642162
1070
     1
1040
285.29520642720951
1040
463.77194809642162
1040
281.29520642720939
1040
463.77194809642162
1071
        0
1070
     0
1070
     1
1071
        1
1040
483.68676184458178
1040
561.29058656233303
1040
0.0
1002
}
  0
LINE
  5
1C4DF
  8
AM_0
 10
285.29520642720951
 20
431.77194809642168
 30
0.0
 11
285.29520642720951
 21
463.77194809642162
 31
0.0
  0
LINE
  5
1C4E0
  8
AM_0
 10
289.79520642720928
 20
431.77194809642168
 30
0.0
 11
289.79520642720928
 21
463.77194809642162
 31
0.0
  0
LINE
  5
1C4E1
  8
AM_0
 10
285.29520642720951
 20
453.77194809642162
 30
0.0
 11
289.79520642720928
 21
453.77194809642162
 31
0.0
  0
LINE
  5
1C4E2
  8
AM_0
 10
285.29520642720928
 20
431.77194809642168
 30
0.0
 11
289.79520642720928
 21
431.77194809642168
 31
0.0
  0
LINE
  5
1C4E6
  8
ﾁｭｳｼﾝｾﾝ1
 10
382.2952382696958
 20
439.7719571371303
 30
0.0
 11
408.2952382696958
 21
439.7719571371303
 31
0.0
  0
LINE
  5
1C4E7
  8
ﾁｭｳｼﾝｾﾝ1
 10
395.2952382696958
 20
452.7719571371303
 30
0.0
 11
395.2952382696958
 21
426.77195713713019
 31
0.0
  0
CIRCLE
  5
1C4E8
  8
AM_0
 10
395.29523826969591
 20
439.7719571371303
 30
0.0
 40
6.0
  0
CIRCLE
  5
1C4E9
  8
AM_0
 10
260.2952382696958
 20
439.7719571371303
 30
0.0
 40
6.0
  0
ARC
  5
1C4EA
  8
AM_0
 10
408.79524008424181
 20
429.77195713713019
 30
0.0
 40
5.0
 50
270.0
 51
0.0
1001
GENIUS_GENOBJ-N-FIL_13
1002
{
1000
OWNER
1000
GEN
1002
}
1001
GENIUS_GENODEF_13
1002
{
1000
HIER
1070
     0
1002
}
1002
{
1000
MANEDIT
1070
     0
1002
}
1002
{
1000
NOSEL
1070
     0
1002
}
1002
{
1000
BEHIND
1070
     0
1002
}
1002
{
1000
OTHER
1070
     0
1002
}
1002
{
1000
REACTOR
1002
}
  0
ARC
  5
1C4EB
  8
AM_0
 10
246.79520461266341
 20
429.77195713713019
 30
0.0
 40
5.0
 50
180.0
 51
270.0
1001
GENIUS_GENOBJ-N-FIL_13
1002
{
1000
OWNER
1000
GEN
1002
}
1001
GENIUS_GENODEF_13
1002
{
1000
HIER
1070
     0
1002
}
1002
{
1000
MANEDIT
1070
     0
1002
}
1002
{
1000
NOSEL
1070
     0
1002
}
1002
{
1000
BEHIND
1070
     0
1002
}
1002
{
1000
OTHER
1070
     0
1002
}
1002
{
1000
REACTOR
1002
}
  0
LINE
  5
1C4EC
  8
ﾁｭｳｼﾝｾﾝ1
 10
247.2952382696958
 20
439.7719571371303
 30
0.0
 11
273.2952382696958
 21
439.7719571371303
 31
0.0
  0
LINE
  5
1C4ED
  8
ﾁｭｳｼﾝｾﾝ1
 10
260.2952382696958
 20
452.77195713713053
 30
0.0
 11
260.2952382696958
 21
426.7719571371303
 31
0.0
  0
LINE
  5
1C4EE
  8
AM_0
 10
413.79524008424193
 20
604.77195798763626
 30
0.0
 11
413.79524008424193
 21
566.27196702834487
 31
0.0
  0
LINE
  5
1C4EF
  8
AM_0
 10
241.79520461266341
 20
566.27196702834487
 30
0.0
 11
241.79520461266341
 21
604.77195798763626
 31
0.0
  0
LINE
  5
1C4F0
  8
AM_0
 10
246.79520461266341
 20
609.77195798763626
 30
0.0
 11
336.91840031616852
 21
609.77195798763626
 31
0.0
  0
LINE
  5
1C4F1
  8
AM_0
 10
413.79524008424193
 20
570.77196702834487
 30
0.0
 11
373.41817598671412
 21
570.77196702834465
 31
0.0
  0
LINE
  5
1C4F2
  8
AM_0
 10
328.41862464562269
 20
570.77196702834465
 30
0.0
 11
241.79520461266341
 21
570.77196702834487
 31
0.0
  0
LINE
  5
1C4F3
  8
AM_5
 10
284.17967829912078
 20
570.77196702834487
 30
0.0
 11
284.17967829912078
 21
566.27196702834487
 31
0.0
  0
LINE
  5
1C4F4
  8
AM_5
 10
304.79520642720951
 20
570.77196702834487
 30
0.0
 11
304.79520642720951
 21
566.27196702834487
 31
0.0
  0
INSERT
  5
1C4F5
  8
AM_0
  6
CONTINUOUS
  2
*U8
 10
0.0
 20
0.0
 30
0.0
1001
GENIUS_GENOBJ-N-HTC_13
1002
{
1000
OWNER
1000
GEN
1002
}
1001
GENIUS_GENODEF_13
1002
{
1000
HIER
1070
     0
1002
}
1002
{
1000
MANEDIT
1070
     0
1002
}
1002
{
1000
NOSEL
1070
     0
1002
}
1002
{
1000
BEHIND
1070
     0
1002
}
1002
{
1000
OTHER
1070
     0
1002
}
1002
{
1000
REACTOR
1002
}
1001
GENIUS_GENHATCH_13
1002
{
1000
DATA
1040
0.0
1042
-1.0
1000
SOLID
1070
     0
1011
290.87487954291271
1021
0.0
1031
0.0
1021
572.07025404706735
1031
0.0
1002
}
1002
{
1000
UCS
1010
0.0
1020
0.0
1030
0.0
1010
1.0
1020
0.0
1030
0.0
1010
0.0
1020
1.0
1030
0.0
1002
}
1001
ACAD
1002
{
1000
R14_HATCH_DATA
1000
1C4F5
1011
1.0
1021
0.0
1031
0.0
1021
0.0
1031
0.0
1011
0.0
1021
0.0
1031
0.0
1021
1.0
1031
0.0
1011
0.0
1021
0.0
1031
0.0
1021
0.0
1031
1.0
1040
0.0
1010
0.0
1020
0.0
1030
1.0
1000
SOLID
1070
     1
1070
     0
1071
        1
1071
        1
1071
        3
1070
     1
1040
293.79520642720939
1040
570.77196702834465
1040
289.79520642720928
1040
574.77196702834465
1070
     1
1040
289.79520642720928
1040
574.77196702834465
1040
289.79520642720928
1040
570.77196702834465
1070
     1
1040
289.79520642720928
1040
570.77196702834465
1040
293.79520642720939
1040
570.77196702834465
1071
        0
1070
     0
1070
     1
1071
        1
1040
91.403651009837205
1040
473.25332856243341
1040
0.0
1002
}
  0
LINE
  5
1C4F6
  8
AM_0
 10
289.79520642720928
 20
574.77196702834465
 30
0.0
 11
293.79520642720939
 21
570.77196702834465
 31
0.0
1001
GENIUS_GENFIL_13
1070
     0
1040
4.0
1040
4.0
1040
20.0
1040
0.0
1002
{
1002
}
1001
GENIUS_GENOBJ-N-CHA_13
1002
{
1000
OWNER
1000
GEN
1002
}
1001
GENIUS_GENODEF_13
1002
{
1000
HIER
1070
     0
1002
}
1002
{
1000
MANEDIT
1070
     0
1002
}
1002
{
1000
NOSEL
1070
     0
1002
}
1002
{
1000
BEHIND
1070
     0
1002
}
1002
{
1000
OTHER
1070
     0
1002
}
1002
{
1000
REACTOR
1002
}
  0
LINE
  5
1C4F7
  8
AM_0
 10
285.29520642720951
 20
574.77196702834465
 30
0.0
 11
281.29520642720939
 21
570.77196702834465
 31
0.0
1001
GENIUS_GENFIL_13
1070
     0
1040
4.0
1040
4.0
1040
20.0
1040
0.0
1002
{
1002
}
1001
GENIUS_GENOBJ-N-CHA_13
1002
{
1000
OWNER
1000
GEN
1002
}
1001
GENIUS_GENODEF_13
1002
{
1000
HIER
1070
     0
1002
}
1002
{
1000
MANEDIT
1070
     0
1002
}
1002
{
1000
NOSEL
1070
     0
1002
}
1002
{
1000
BEHIND
1070
     0
1002
}
1002
{
1000
OTHER
1070
     0
1002
}
1002
{
1000
REACTOR
1002
}
  0
INSERT
  5
1C4F8
  8
AM_0
  6
CONTINUOUS
  2
*U9
 10
0.0
 20
0.0
 30
0.0
1001
GENIUS_GENOBJ-N-HTC_13
1002
{
1000
OWNER
1000
GEN
1002
}
1001
GENIUS_GENODEF_13
1002
{
1000
HIER
1070
     0
1002
}
1002
{
1000
MANEDIT
1070
     0
1002
}
1002
{
1000
NOSEL
1070
     0
1002
}
1002
{
1000
BEHIND
1070
     0
1002
}
1002
{
1000
OTHER
1070
     0
1002
}
1002
{
1000
REACTOR
1002
}
1001
GENIUS_GENHATCH_13
1002
{
1000
DATA
1040
0.0
1042
-1.0
1000
SOLID
1070
     0
1011
284.21553331150631
1021
0.0
1031
0.0
1021
572.07025404706735
1031
0.0
1002
}
1002
{
1000
UCS
1010
0.0
1020
0.0
1030
0.0
1010
1.0
1020
0.0
1030
0.0
1010
0.0
1020
1.0
1030
0.0
1002
}
1001
ACAD
1002
{
1000
R14_HATCH_DATA
1000
1C4F8
1011
1.0
1021
0.0
1031
0.0
1021
0.0
1031
0.0
1011
0.0
1021
0.0
1031
0.0
1021
1.0
1031
0.0
1011
0.0
1021
0.0
1031
0.0
1021
0.0
1031
1.0
1040
0.0
1010
0.0
1020
0.0
1030
1.0
1000
SOLID
1070
     1
1070
     0
1071
        1
1071
        1
1071
        3
1070
     1
1040
281.29520642720939
1040
570.77196702834465
1040
285.29520642720951
1040
574.77196702834465
1070
     1
1040
285.29520642720951
1040
574.77196702834465
1040
285.29520642720951
1040
570.77196702834465
1070
     1
1040
285.29520642720951
1040
570.77196702834465
1040
281.29520642720939
1040
570.77196702834465
1071
        0
1070
     0
1070
     1
1071
        1
1040
483.68676184458178
1040
473.25332856243341
1040
0.0
1002
}
  0
LINE
  5
1C4F9
  8
AM_0
 10
285.29520642720951
 20
602.77196702834465
 30
0.0
 11
285.29520642720951
 21
570.77196702834465
 31
0.0
  0
LINE
  5
1C4FA
  8
AM_0
 10
289.79520642720928
 20
602.77196702834465
 30
0.0
 11
289.79520642720928
 21
570.77196702834465
 31
0.0
  0
LINE
  5
1C4FB
  8
AM_0
 10
285.29520642720951
 20
580.77196702834465
 30
0.0
 11
289.79520642720928
 21
580.77196702834465
 31
0.0
  0
LINE
  5
1C4FC
  8
AM_0
 10
285.29520642720928
 20
602.77196702834465
 30
0.0
 11
289.79520642720928
 21
602.77196702834465
 31
0.0
  0
LINE
  5
1C501
  8
ﾁｭｳｼﾝｾﾝ1
 10
382.2952382696958
 20
594.77195798763614
 30
0.0
 11
408.2952382696958
 21
594.77195798763614
 31
0.0
  0
LINE
  5
1C502
  8
ﾁｭｳｼﾝｾﾝ1
 10
395.2952382696958
 20
581.77195798763614
 30
0.0
 11
395.2952382696958
 21
607.77195798763614
 31
0.0
  0
CIRCLE
  5
1C503
  8
AM_0
 10
395.29523826969591
 20
594.77195798763614
 30
0.0
 40
6.0
  0
CIRCLE
  5
1C504
  8
AM_0
 10
260.2952382696958
 20
594.77195798763603
 30
0.0
 40
6.0
  0
ARC
  5
1C505
  8
AM_0
 10
408.79524008424181
 20
604.77195798763626
 30
0.0
 40
5.0
 50
0.0
 51
90.0
1001
GENIUS_GENOBJ-N-FIL_13
1002
{
1000
OWNER
1000
GEN
1002
}
1001
GENIUS_GENODEF_13
1002
{
1000
HIER
1070
     0
1002
}
1002
{
1000
MANEDIT
1070
     0
1002
}
1002
{
1000
NOSEL
1070
     0
1002
}
1002
{
1000
BEHIND
1070
     0
1002
}
1002
{
1000
OTHER
1070
     0
1002
}
1002
{
1000
REACTOR
1002
}
  0
ARC
  5
1C506
  8
AM_0
 10
246.79520461266341
 20
604.77195798763626
 30
0.0
 40
5.0
 50
90.0
 51
180.0
1001
GENIUS_GENOBJ-N-FIL_13
1002
{
1000
OWNER
1000
GEN
1002
}
1001
GENIUS_GENODEF_13
1002
{
1000
HIER
1070
     0
1002
}
1002
{
1000
MANEDIT
1070
     0
1002
}
1002
{
1000
NOSEL
1070
     0
1002
}
1002
{
1000
BEHIND
1070
     0
1002
}
1002
{
1000
OTHER
1070
     0
1002
}
1002
{
1000
REACTOR
1002
}
  0
LINE
  5
1C507
  8
ﾁｭｳｼﾝｾﾝ1
 10
247.2952382696958
 20
594.77195798763603
 30
0.0
 11
273.2952382696958
 21
594.77195798763603
 31
0.0
  0
LINE
  5
1C508
  8
ﾁｭｳｼﾝｾﾝ1
 10
260.2952382696958
 20
581.77195798763603
 30
0.0
 11
260.2952382696958
 21
607.77195798763603
 31
0.0
  0
LINE
  5
1C509
  8
AM_0
 10
408.7952397386137
 20
582.77196702834487
 30
0.0
 11
394.79523973861387
 21
582.77196702834487
 31
0.0
  0
LINE
  5
1C50A
  8
AM_0
 10
412.2952397386137
 20
572.77196702834465
 30
0.0
 11
391.29523973861387
 21
572.77196702834465
 31
0.0
  0
LINE
  5
1C50B
  8
AM_0
 10
409.79523973861382
 20
581.77196702834465
 30
0.0
 11
409.79523973861382
 21
572.77196702834465
 31
0.0
  0
LINE
  5
1C50C
  8
AM_0
 10
412.2952397386137
 20
570.77196702834487
 30
0.0
 11
412.2952397386137
 21
572.77196702834465
 31
0.0
  0
ARC
  5
1C50D
  8
AM_0
 10
408.79523973861382
 20
581.77196702834465
 30
0.0
 40
1.0
 50
0.0
 51
90.0
  0
LINE
  5
1C50E
  8
AM_0
 10
393.79523973861387
 20
581.77196702834465
 30
0.0
 11
393.79523973861387
 21
572.77196702834465
 31
0.0
  0
LINE
  5
1C50F
  8
AM_0
 10
391.29523973861387
 20
572.77196702834465
 30
0.0
 11
391.29523973861387
 21
570.77196702834487
 31
0.0
  0
ARC
  5
1C510
  8
AM_0
 10
394.79523973861387
 20
581.77196702834465
 30
0.0
 40
1.0
 50
90.0
 51
180.0
  0
LINE
  5
1C511
  8
AM_0
 10
260.79520495829121
 20
582.77196702834487
 30
0.0
 11
246.79520495829109
 21
582.77196702834487
 31
0.0
  0
LINE
  5
1C512
  8
AM_0
 10
264.29520495829121
 20
572.77196702834465
 30
0.0
 11
243.29520495829121
 21
572.77196702834465
 31
0.0
  0
LINE
  5
1C513
  8
AM_0
 10
261.79520495829109
 20
581.77196702834465
 30
0.0
 11
261.79520495829109
 21
572.77196702834465
 31
0.0
  0
LINE
  5
1C514
  8
AM_0
 10
264.29520495829121
 20
570.77196702834487
 30
0.0
 11
264.29520495829121
 21
572.77196702834465
 31
0.0
  0
ARC
  5
1C515
  8
AM_0
 10
260.79520495829121
 20
581.77196702834465
 30
0.0
 40
1.0
 50
0.0
 51
90.0
  0
LINE
  5
1C516
  8
AM_0
 10
245.79520495829121
 20
581.77196702834465
 30
0.0
 11
245.79520495829121
 21
572.77196702834465
 31
0.0
  0
LINE
  5
1C517
  8
AM_0
 10
243.29520495829121
 20
572.77196702834465
 30
0.0
 11
243.29520495829121
 21
570.77196702834487
 31
0.0
  0
ARC
  5
1C518
  8
AM_0
 10
246.79520495829109
 20
581.77196702834465
 30
0.0
 40
1.0
 50
90.0
 51
180.0
  0
LINE
  5
1C519
  8
AM_0
 10
410.29523973861382
 20
453.77194809642162
 30
0.0
 11
393.29523973861387
 21
453.77194809642162
 31
0.0
  0
LINE
  5
1C51A
  8
AM_0
 10
412.2952397386137
 20
461.77194809642168
 30
0.0
 11
391.29523973861387
 21
461.77194809642168
 31
0.0
  0
ARC
  5
1C51B
  8
AM_0
 10
409.15836473861378
 20
458.11197358782692
 30
0.0
 40
4.3400254914053003
 50
235.56153059526639
 51
304.43846940473372
  0
LINE
  5
1C51C
  8
AM_0
 10
411.6127397386137
 20
461.77194809642168
 30
0.0
 11
411.6127397386137
 21
454.53260707607899
 31
0.0
  0
LINE
  5
1C51D
  8
AM_0
 10
411.6127397386137
 20
454.53260707607899
 30
0.0
 11
410.29523973861382
 21
453.77194809642162
 31
0.0
  0
LINE
  5
1C51E
  8
AM_0
 10
412.2952397386137
 20
463.77194809642162
 30
0.0
 11
412.2952397386137
 21
461.77194809642168
 31
0.0
  0
LINE
  5
1C51F
  8
AM_0N
 10
396.79523973861387
 20
453.69214117783918
 30
0.0
 11
397.7154147386139
 21
452.7719661778392
 31
0.0
  0
ARC
  5
1C520
  8
AM_0
 10
401.79523973861382
 20
469.9910615925566
 30
0.0
 40
16.219113496135169
 50
252.38303115960881
 51
287.61696884039111
  0
LINE
  5
1C521
  8
AM_0N
 10
396.79523973861387
 20
453.69214117783918
 30
0.0
 11
406.79523973861387
 21
453.69214117783918
 31
0.0
  0
LINE
  5
1C522
  8
AM_0
 10
406.70398973861393
 20
461.77194809642168
 30
0.0
 11
406.70398973861393
 21
454.53260707607899
 31
0.0
  0
LINE
  5
1C523
  8
AM_4N
 10
397.7154147386139
 20
452.7719661778392
 30
0.0
 11
397.7154147386139
 21
453.77194809642162
 31
0.0
  0
LINE
  5
1C524
  8
AM_0N
 10
406.79523973861387
 20
453.77194809642151
 30
0.0
 11
406.79523973861387
 21
453.69214117783918
 31
0.0
  0
LINE
  5
1C525
  8
AM_0N
 10
406.79523973861387
 20
453.69214117783918
 30
0.0
 11
405.87506473861379
 21
452.7719661778392
 31
0.0
  0
LINE
  5
1C526
  8
AM_4N
 10
405.87506473861379
 20
452.7719661778392
 30
0.0
 11
405.87506473861379
 21
453.77194809642162
 31
0.0
  0
LINE
  5
1C527
  8
AM_0N
 10
397.7154147386139
 20
452.7719661778392
 30
0.0
 11
405.87506473861379
 21
452.7719661778392
 31
0.0
  0
LINE
  5
1C528
  8
AM_0
 10
396.88648973861388
 20
461.77194809642168
 30
0.0
 11
396.88648973861388
 21
454.53260707607899
 31
0.0
  0
LINE
  5
1C529
  8
AM_0
 10
391.97773973861388
 20
461.77194809642168
 30
0.0
 11
391.97773973861388
 21
454.53260707607899
 31
0.0
  0
LINE
  5
1C52A
  8
AM_0
 10
391.97773973861388
 20
454.53260707607899
 30
0.0
 11
393.29523973861387
 21
453.77194809642162
 31
0.0
  0
ARC
  5
1C52B
  8
AM_0
 10
394.4321147386139
 20
458.11197358782692
 30
0.0
 40
4.3400254914053003
 50
244.4384694047331
 51
304.43846940473372
  0
LINE
  5
1C52C
  8
AM_0N
 10
396.79523973861387
 20
453.77194809642151
 30
0.0
 11
396.79523973861387
 21
453.69214117783918
 31
0.0
  0
LINE
  5
1C52D
  8
AM_0
 10
391.29523973861387
 20
461.77194809642168
 30
0.0
 11
391.29523973861387
 21
463.77194809642162
 31
0.0
  0
LINE
  5
1C52E
  8
AM_0
 10
262.29520495829121
 20
453.77194809642162
 30
0.0
 11
245.29520495829109
 21
453.77194809642162
 31
0.0
  0
LINE
  5
1C52F
  8
AM_0
 10
264.29520495829121
 20
461.77194809642168
 30
0.0
 11
243.29520495829121
 21
461.77194809642168
 31
0.0
  0
ARC
  5
1C530
  8
AM_0
 10
261.15832995829112
 20
458.11197358782692
 30
0.0
 40
4.3400254914053003
 50
235.56153059526639
 51
304.43846940473372
  0
LINE
  5
1C531
  8
AM_0
 10
263.6127049582912
 20
461.77194809642168
 30
0.0
 11
263.6127049582912
 21
454.53260707607899
 31
0.0
  0
LINE
  5
1C532
  8
AM_0
 10
263.6127049582912
 20
454.53260707607899
 30
0.0
 11
262.29520495829121
 21
453.77194809642162
 31
0.0
  0
LINE
  5
1C533
  8
AM_0
 10
264.29520495829121
 20
463.77194809642162
 30
0.0
 11
264.29520495829121
 21
461.77194809642168
 31
0.0
  0
LINE
  5
1C534
  8
AM_0N
 10
248.79520495829109
 20
453.69214117783918
 30
0.0
 11
249.71537995829109
 21
452.7719661778392
 31
0.0
  0
ARC
  5
1C535
  8
AM_0
 10
253.79520495829121
 20
469.9910615925566
 30
0.0
 40
16.219113496135169
 50
252.38303115960881
 51
287.61696884039111
  0
LINE
  5
1C536
  8
AM_0N
 10
248.79520495829109
 20
453.69214117783918
 30
0.0
 11
258.79520495829121
 21
453.69214117783918
 31
0.0
  0
LINE
  5
1C537
  8
AM_0
 10
258.70395495829109
 20
461.77194809642168
 30
0.0
 11
258.70395495829109
 21
454.53260707607899
 31
0.0
  0
LINE
  5
1C538
  8
AM_4N
 10
249.71537995829109
 20
452.7719661778392
 30
0.0
 11
249.71537995829109
 21
453.77194809642162
 31
0.0
  0
LINE
  5
1C539
  8
AM_0N
 10
258.79520495829121
 20
453.77194809642151
 30
0.0
 11
258.79520495829121
 21
453.69214117783918
 31
0.0
  0
LINE
  5
1C53A
  8
AM_0N
 10
258.79520495829121
 20
453.69214117783918
 30
0.0
 11
257.87502995829112
 21
452.7719661778392
 31
0.0
  0
LINE
  5
1C53B
  8
AM_4N
 10
257.87502995829112
 20
452.7719661778392
 30
0.0
 11
257.87502995829112
 21
453.77194809642162
 31
0.0
  0
LINE
  5
1C53C
  8
AM_0N
 10
249.71537995829109
 20
452.7719661778392
 30
0.0
 11
257.87502995829112
 21
452.7719661778392
 31
0.0
  0
LINE
  5
1C53D
  8
AM_0
 10
248.8864549582911
 20
461.77194809642168
 30
0.0
 11
248.8864549582911
 21
454.53260707607899
 31
0.0
  0
LINE
  5
1C53E
  8
AM_0
 10
243.9777049582911
 20
461.77194809642168
 30
0.0
 11
243.9777049582911
 21
454.53260707607899
 31
0.0
  0
LINE
  5
1C53F
  8
AM_0
 10
243.9777049582911
 20
454.53260707607899
 30
0.0
 11
245.29520495829109
 21
453.77194809642162
 31
0.0
  0
ARC
  5
1C540
  8
AM_0
 10
246.4320799582911
 20
458.11197358782692
 30
0.0
 40
4.3400254914053003
 50
244.4384694047331
 51
304.43846940473372
  0
LINE
  5
1C541
  8
AM_0N
 10
248.79520495829109
 20
453.77194809642151
 30
0.0
 11
248.79520495829109
 21
453.69214117783918
 31
0.0
  0
LINE
  5
1C542
  8
AM_0
 10
243.29520495829121
 20
461.77194809642168
 30
0.0
 11
243.29520495829121
 21
463.77194809642162
 31
0.0
  0
LINE
  5
1C543
  8
AM_0
 10
373.41817598671412
 20
574.27195760381574
 30
0.0
 11
328.41862464562269
 21
574.27195760381574
 31
0.0
  0
LINE
  5
1C544
  8
AM_0
 10
373.41817598671412
 20
574.27195760381574
 30
0.0
 11
373.41817598671412
 21
570.27195748860674
 31
0.0
  0
LINE
  5
1C545
  8
AM_0
 10
328.41862464562269
 20
574.27195760381574
 30
0.0
 11
328.41862464562269
 21
570.27195748860674
 31
0.0
  0
LINE
  5
1C54B
  8
AM_0
 10
373.41817598671412
 20
460.27193895556218
 30
0.0
 11
328.41862464562269
 21
460.27193895556218
 31
0.0
  0
LINE
  5
1C54C
  8
AM_0
 10
373.41817598671412
 20
460.27193895556218
 30
0.0
 11
373.41817598671412
 21
464.27193907077128
 31
0.0
  0
LINE
  5
1C54D
  8
AM_0
 10
328.41862464562269
 20
460.27193895556218
 30
0.0
 11
328.41862464562269
 21
464.27193907077128
 31
0.0
  0
LINE
  5
1C54E
  8
AM_0
 10
246.79520461266341
 20
424.77193857174183
 30
0.0
 11
336.91840031616852
 21
424.77193857174183
 31
0.0
  0
LINE
  5
1C6EB
  8
0
 10
568.72903741772177
 20
266.955462595722
 30
0.0
 11
568.72903741772177
 21
231.95546259572191
 31
0.0
  0
LINE
  5
1C6EC
  8
AM_0
 10
526.72903741772188
 20
235.4554625957218
 30
0.0
 11
526.72903741772188
 21
266.45546259572188
 31
0.0
  0
LINE
  5
1C6ED
  8
0
 10
526.72903741772188
 20
235.455462595722
 30
0.0
 11
568.72903741772177
 21
235.455462595722
 31
0.0
  0
LINE
  5
1C6EE
  8
0
 10
568.72903741772177
 20
231.95546259572191
 30
0.0
 11
579.73604180797395
 21
226.9554619251698
 31
0.0
  0
LINE
  5
1C6EF
  8
0
 10
526.72903741772188
 20
263.45546259572211
 30
0.0
 11
568.72903741772177
 21
263.45546259572211
 31
0.0
  0
LINE
  5
1C6F0
  8
0
 10
526.72903741772188
 20
266.45546259572188
 30
0.0
 11
558.72903741772188
 21
266.45546259572188
 31
0.0
  0
LINE
  5
1C6F1
  8
0
 10
568.72903741772177
 20
266.955462595722
 30
0.0
 11
579.73604180797395
 21
271.95546326627431
 31
0.0
  0
LINE
  5
1C6F2
  8
0
 10
558.72903741772188
 20
266.45546259572188
 30
0.0
 11
558.72903741772188
 21
263.45546259572211
 31
0.0
  0
LINE
  5
1C6F3
  8
0
 10
704.77686948969165
 20
266.95546259572518
 30
0.0
 11
704.77686948969335
 21
231.95546259572509
 31
0.0
  0
LINE
  5
1C6F4
  8
AM_0
 10
746.77686948969313
 20
235.455462595727
 30
0.0
 11
746.77686948969176
 21
266.45546259572711
 31
0.0
  0
LINE
  5
1C6F5
  8
0
 10
746.77686948969313
 20
235.4554625957272
 30
0.0
 11
704.77686948969313
 21
235.45546259572521
 31
0.0
  0
LINE
  5
1C6F6
  8
0
 10
704.77686948969335
 20
231.95546259572509
 30
0.0
 11
693.7698650994414
 21
226.9554619251725
 31
0.0
  0
LINE
  5
1C6F7
  8
0
 10
746.77686948969188
 20
263.45546259572728
 30
0.0
 11
704.77686948969188
 21
263.45546259572541
 31
0.0
  0
LINE
  5
1C6F8
  8
0
 10
746.77686948969176
 20
266.45546259572711
 30
0.0
 11
714.77686948969165
 21
266.45546259572569
 31
0.0
  0
LINE
  5
1C6F9
  8
0
 10
704.77686948969165
 20
266.95546259572518
 30
0.0
 11
693.76986509943924
 21
271.95546326627698
 31
0.0
  0
LINE
  5
1C6FA
  8
0
 10
714.77686948969165
 20
266.45546259572569
 30
0.0
 11
714.77686948969165
 21
263.45546259572581
 31
0.0
  0
ARC
  5
1C6FB
  8
AM_0
 10
636.73604345370654
 20
249.4519346063004
 30
0.0
 40
64.003665999999996
 50
199.06901217095191
 51
214.12523161608439
  0
ARC
  5
1C6FD
  8
AM_0
 10
636.73604345370654
 20
249.4519346063004
 30
0.0
 40
64.014987999999974
 50
19.08458356075289
 51
34.086207951877419
  0
CIRCLE
  5
1C70D
  8
AM_0
 10
350.9184003161684
 20
248.9419650533309
 30
0.0
 40
22.50000067055224
  0
ARC
  5
1C70E
  8
AM_0
 10
350.9184003161684
 20
248.9419650533309
 30
0.0
 40
14.0
 50
106.6015495990198
 51
73.398450400980153
  0
CIRCLE
  5
1C70F
  8
ｽﾝﾎﾟｳｾﾝ
 10
350.9184003161684
 20
248.9419650533309
 30
0.0
 40
4.0
  0
LINE
  5
1C710
  8
AM_0
 10
346.9184003161684
 20
265.94196505333088
 30
0.0
 11
354.9184003161684
 21
265.94196505333088
 31
0.0
  0
LINE
  5
1C711
  8
AM_0
 10
354.9184003161684
 20
258.94196505333088
 30
0.0
 11
346.9184003161684
 21
258.94196505333088
 31
0.0
  0
LINE
  5
1C712
  8
AM_0
 10
346.9184003161684
 20
258.94196505333088
 30
0.0
 11
346.9184003161684
 21
265.94196505333088
 31
0.0
  0
LINE
  5
1C713
  8
AM_0
 10
354.9184003161684
 20
265.94196505333088
 30
0.0
 11
354.9184003161684
 21
258.94196505333088
 31
0.0
  0
CIRCLE
  5
1C714
  8
AM_0
 10
350.9184003161684
 20
248.9419650533309
 30
0.0
 40
3.399999999999999
  0
LINE
  5
1C729
  8
0
 10
364.91840031616857
 20
407.26494219070412
 30
0.0
 11
364.91840031616857
 21
449.26494219070389
 31
0.0
  0
LINE
  5
1C72A
  8
0
 10
336.91840031616852
 20
407.26494219070412
 30
0.0
 11
336.91840031616852
 21
449.26494219070389
 31
0.0
  0
LINE
  5
1C72B
  8
AM_0
 10
336.91840031616852
 20
407.26494219070412
 30
0.0
 11
364.91840031616857
 21
407.26494219070412
 31
0.0
  0
LINE
  5
1C72C
  8
0
 10
354.91840031616869
 20
439.26494219070412
 30
0.0
 11
346.91840031616857
 21
439.26494219070412
 31
0.0
  0
LINE
  5
1C72D
  8
0
 10
368.41840031616852
 20
449.26494219070389
 30
0.0
 11
333.41840031616857
 21
449.26494219070389
 31
0.0
  0
LINE
  5
1C72E
  8
0
 10
368.41840031616852
 20
449.26494219070389
 30
0.0
 11
373.4184009867206
 21
460.27194658095618
 31
0.0
  0
LINE
  5
1C72F
  8
0
 10
333.41840031616857
 20
449.26494219070389
 30
0.0
 11
328.41839964561649
 21
460.27194658095618
 31
0.0
  0
LINE
  5
1C730
  8
AM_0
 10
354.91840031616857
 20
407.26494219070412
 30
0.0
 11
354.91840031616857
 21
439.26494219070412
 31
0.0
  0
LINE
  5
1C731
  8
AM_0
 10
346.91840031616857
 20
407.26494219070412
 30
0.0
 11
346.91840031616857
 21
439.26494219070412
 31
0.0
  0
ARC
  5
1C732
  8
AM_0
 10
350.91840031616857
 20
439.26494219070412
 30
0.0
 40
4.0
 50
0.0
 51
180.0
  0
LINE
  5
1C733
  8
AM_0
 10
370.2952382696958
 20
431.77194809642168
 30
0.0
 11
370.2952382696958
 21
453.40361921640601
 31
0.0
  0
LINE
  5
1C734
  8
AM_0
 10
365.7952382696958
 20
431.77194809642168
 30
0.0
 11
365.79523826969569
 21
449.27194705165249
 31
0.0
  0
LINE
  5
1C735
  8
AM_0
 10
370.2952382696958
 20
431.77194809642168
 30
0.0
 11
365.7952382696958
 21
431.77194809642168
 31
0.0
  0
LINE
  5
1C736
  8
AM_0
 10
364.91840031616857
 20
424.77193857174183
 30
0.0
 11
408.79524008424181
 21
424.77193857174183
 31
0.0
  0
LINE
  5
1C737
  8
AM_0
 10
364.91840031616857
 20
609.77195798763626
 30
0.0
 11
408.79524008424181
 21
609.77195798763626
 31
0.0
  0
LINE
  5
1C738
  8
0
 10
364.91840031616857
 20
627.27895436867402
 30
0.0
 11
364.91840031616857
 21
585.27895436867402
 31
0.0
  0
LINE
  5
1C739
  8
0
 10
336.91840031616852
 20
627.27895436867402
 30
0.0
 11
336.91840031616852
 21
585.27895436867402
 31
0.0
  0
LINE
  5
1C73A
  8
AM_0
 10
336.91840031616852
 20
627.27895436867402
 30
0.0
 11
364.91840031616857
 21
627.27895436867402
 31
0.0
  0
LINE
  5
1C73B
  8
0
 10
354.91840031616869
 20
595.27895436867402
 30
0.0
 11
346.91840031616857
 21
595.27895436867402
 31
0.0
  0
LINE
  5
1C73C
  8
0
 10
368.41840031616852
 20
585.27895436867402
 30
0.0
 11
333.41840031616857
 21
585.27895436867402
 31
0.0
  0
LINE
  5
1C73D
  8
0
 10
368.41840031616852
 20
585.27895436867402
 30
0.0
 11
373.4184009867206
 21
574.27194997842173
 31
0.0
  0
LINE
  5
1C73E
  8
0
 10
333.41840031616857
 20
585.27895436867402
 30
0.0
 11
328.41839964561649
 21
574.27194997842173
 31
0.0
  0
LINE
  5
1C73F
  8
AM_0
 10
354.91840031616857
 20
627.27895436867402
 30
0.0
 11
354.91840031616857
 21
595.27895436867402
 31
0.0
  0
LINE
  5
1C740
  8
AM_0
 10
346.91840031616857
 20
627.27895436867402
 30
0.0
 11
346.91840031616857
 21
595.27895436867402
 31
0.0
  0
ARC
  5
1C741
  8
AM_0
 10
350.91840031616857
 20
595.27895436867402
 30
0.0
 40
4.0
 50
180.0
 51
0.0
  0
LINE
  5
1C742
  8
AM_0
 10
370.2952382696958
 20
602.77194846295652
 30
0.0
 11
370.2952382696958
 21
581.14027734297213
 31
0.0
  0
LINE
  5
1C743
  8
AM_0
 10
365.7952382696958
 20
602.77194846295652
 30
0.0
 11
365.79523826969569
 21
585.27194950772559
 31
0.0
  0
LINE
  5
1C744
  8
AM_0
 10
370.2952382696958
 20
602.77194846295652
 30
0.0
 11
365.7952382696958
 21
602.77194846295652
 31
0.0
  0
TEXT
  5
1C86C
  8
AM_0
 10
525.65783553307915
 20
526.75857989598308
 30
0.0
 40
10.0
  1
VC04-007KMT~VC04-060KMT
1001
ACAD
1000
MTEXTBEGIN
1070
    73
1070
     1
1070
    44
1040
1.0
1070
    74
1070
     0
1000
MTEXTEND
  0
VIEWPORT
  5
89
 67
     1
  8
0
 10
210.0
 20
148.5
 30
0.0
 40
420.0
 41
297.0
 68
     1
 69
     1
1001
ACAD
1000
MVIEW
1002
{
1070
    16
1010
0.0
1020
0.0
1030
0.0
1010
0.0
1020
0.0
1030
1.0
1040
0.0
1040
297.0
1040
221.70154043645701
1040
148.5
1040
50.0
1040
0.0
1040
0.0
1070
     0
1070
   100
1070
     1
1070
     1
1070
     0
1070
     0
1070
     0
1070
     0
1040
0.0
1040
0.0
1040
0.0
1040
10.0
1040
10.0
1040
10.0
1040
10.0
1070
     0
1002
{
1002
}
1002
}
1001
GENIUS_GENOREF_13
1005
1B94
1001
GENIUS_GENSCREG_15
1000
PF
1040
1.0
1000
DF
1040
1.0
1000
MIN
1011
0.0
1021
0.0
1031
0.0
1021
0.0
1031
0.0
1000
MAX
1011
420.0
1021
0.0
1031
0.0
1021
297.0
1031
0.0
1000
FLAGS
1070
     4
  0
ENDSEC
  0
EOF
