  0
SECTION
  2
HEADER
  9
$ACADVER
  1
AC1009
  9
$INSBASE
 10
0.0
 20
0.0
 30
0.0
  9
$EXTMIN
 10
181.33749675720171
 20
229.39936566989201
 30
-0.0015258207003583
  9
$EXTMAX
 10
1043.658663428457
 20
827.29189008641549
 30
0.0000000349246037
  9
$LIMMIN
 10
0.0
 20
0.0
  9
$LIMMAX
 10
1138.0
 20
740.00000000000011
  9
$ORTHOMODE
 70
     0
  9
$REGENMODE
 70
     1
  9
$FILLMODE
 70
     1
  9
$QTEXTMODE
 70
     0
  9
$MIRRTEXT
 70
     1
  9
$DRAGMODE
 70
     2
  9
$LTSCALE
 40
4.0
  9
$OSMODE
 70
   551
  9
$ATTMODE
 70
     1
  9
$TEXTSIZE
 40
2.5
  9
$TRACEWID
 40
1.0
  9
$TEXTSTYLE
  7
STANDARD
  9
$CLAYER
  8
AM_0
  9
$CELTYPE
  6
BYLAYER
  9
$CECOLOR
 62
   256
  9
$DIMSCALE
 40
4.0
  9
$DIMASZ
 40
2.5
  9
$DIMEXO
 40
1.0
  9
$DIMDLI
 40
7.0
  9
$DIMRND
 40
0.0
  9
$DIMDLE
 40
0.0
  9
$DIMEXE
 40
1.0
  9
$DIMTP
 40
0.1
  9
$DIMTM
 40
0.1
  9
$DIMTXT
 40
2.5
  9
$DIMCEN
 40
0.0
  9
$DIMTSZ
 40
0.0
  9
$DIMTOL
 70
     0
  9
$DIMLIM
 70
     0
  9
$DIMTIH
 70
     0
  9
$DIMTOH
 70
     0
  9
$DIMSE1
 70
     0
  9
$DIMSE2
 70
     0
  9
$DIMTAD
 70
     3
  9
$DIMZIN
 70
     8
  9
$DIMBLK
  1

  9
$DIMASO
 70
     1
  9
$DIMSHO
 70
     1
  9
$DIMPOST
  1

  9
$DIMAPOST
  1
"
  9
$DIMALT
 70
     0
  9
$DIMALTD
 70
     2
  9
$DIMALTF
 40
0.0393701
  9
$DIMLFAC
 40
1.0
  9
$DIMTOFL
 70
     1
  9
$DIMTVP
 40
0.0
  9
$DIMTIX
 70
     0
  9
$DIMSOXD
 70
     0
  9
$DIMSAH
 70
     0
  9
$DIMBLK1
  1

  9
$DIMBLK2
  1

  9
$DIMSTYLE
  2
AM_JIS
  9
$DIMCLRD
 70
   256
  9
$DIMCLRE
 70
   256
  9
$DIMCLRT
 70
     4
  9
$DIMTFAC
 40
0.71
  9
$DIMGAP
 40
1.0
  9
$LUNITS
 70
     2
  9
$LUPREC
 70
     2
  9
$SKETCHINC
 40
1.0
  9
$FILLETRAD
 40
10.0
  9
$AUNITS
 70
     0
  9
$AUPREC
 70
     3
  9
$MENU
  1
.
  9
$ELEVATION
 40
0.0
  9
$PELEVATION
 40
0.0
  9
$THICKNESS
 40
0.0
  9
$LIMCHECK
 70
     0
  9
$BLIPMODE
 70
     0
  9
$CHAMFERA
 40
10.0
  9
$CHAMFERB
 40
10.0
  9
$SKPOLY
 70
     0
  9
$TDCREATE
 40
2452753.643349607
  9
$TDUPDATE
 40
2458543.4794942248
  9
$TDINDWG
 40
0.5522478356
  9
$TDUSRTIMER
 40
0.5522476505
  9
$USRTIMER
 70
     1
  9
$ANGBASE
 50
0.0
  9
$ANGDIR
 70
     0
  9
$PDMODE
 70
     0
  9
$PDSIZE
 40
0.0
  9
$PLINEWID
 40
0.0
  9
$COORDS
 70
     1
  9
$SPLFRAME
 70
     0
  9
$SPLINETYPE
 70
     6
  9
$SPLINESEGS
 70
     8
  9
$ATTDIA
 70
     1
  9
$ATTREQ
 70
     1
  9
$HANDLING
 70
     1
  9
$HANDSEED
  5
167DB
  9
$SURFTAB1
 70
     6
  9
$SURFTAB2
 70
     6
  9
$SURFTYPE
 70
     6
  9
$SURFU
 70
     6
  9
$SURFV
 70
     6
  9
$UCSNAME
  2

  9
$UCSORG
 10
0.0
 20
0.0
 30
0.0
  9
$UCSXDIR
 10
1.0
 20
0.0
 30
0.0
  9
$UCSYDIR
 10
0.0
 20
1.0
 30
0.0
  9
$PUCSNAME
  2

  9
$PUCSORG
 10
0.0
 20
0.0
 30
0.0
  9
$PUCSXDIR
 10
1.0
 20
0.0
 30
0.0
  9
$PUCSYDIR
 10
0.0
 20
1.0
 30
0.0
  9
$USERI1
 70
     0
  9
$USERI2
 70
     0
  9
$USERI3
 70
     0
  9
$USERI4
 70
     0
  9
$USERI5
 70
     0
  9
$USERR1
 40
0.0
  9
$USERR2
 40
0.0
  9
$USERR3
 40
0.0
  9
$USERR4
 40
0.0
  9
$USERR5
 40
0.0
  9
$WORLDVIEW
 70
     1
  9
$SHADEDGE
 70
     3
  9
$SHADEDIF
 70
    70
  9
$TILEMODE
 70
     1
  9
$MAXACTVP
 70
    48
  9
$PLIMCHECK
 70
     0
  9
$PEXTMIN
 10
1.0000000000000000E+020
 20
1.0000000000000000E+020
 30
1.0000000000000000E+020
  9
$PEXTMAX
 10
-1.0000000000000000E+020
 20
-1.0000000000000000E+020
 30
-1.0000000000000000E+020
  9
$PLIMMIN
 10
0.0
 20
0.0
  9
$PLIMMAX
 10
420.0
 20
297.0
  9
$UNITMODE
 70
     0
  9
$VISRETAIN
 70
     1
  9
$PLINEGEN
 70
     0
  9
$PSLTSCALE
 70
     1
  0
ENDSEC
  0
SECTION
  2
TABLES
  0
TABLE
  2
VPORT
 70
     1
  0
VPORT
  2
*ACTIVE
 70
     0
 10
0.0
 20
0.0
 11
1.0
 21
1.0
 12
612.49808009282935
 22
528.34562787815355
 13
0.0
 23
0.0
 14
10.0
 24
10.0
 15
40.0
 25
40.0
 16
0.0
 26
0.0
 36
1.0
 17
0.0
 27
0.0
 37
0.0
 40
601.99704975576731
 41
1.7571592210767459
 42
50.0
 43
0.0
 44
0.0
 50
0.0
 51
0.0
 71
     0
 72
   100
 73
     1
 74
     1
 75
     0
 76
     0
 77
     0
 78
     0
  0
ENDTAB
  0
TABLE
  2
LTYPE
 70
    21
  0
LTYPE
  2
CONTINUOUS
 70
     0
  3
Solid line
 72
    65
 73
     0
 40
0.0
  0
LTYPE
  2
PHANTOM2
 70
     0
  3
Phantom (.5x) ___ _ _ ___ _ _ ___ _ _ ___ _ _
 72
    65
 73
     6
 40
31.75
 49
15.875
 49
-3.174999999999998
 49
3.174999999999998
 49
-3.174999999999998
 49
3.174999999999998
 49
-3.174999999999998
  0
LTYPE
  2
CENTER
 70
     0
  3
Center ____ _ ____ _ ____ _ ____ _ ____ _ ____
 72
    65
 73
     4
 40
50.799999999999997
 49
31.75
 49
-6.3499999999999979
 49
6.3499999999999979
 49
-6.3499999999999979
  0
LTYPE
  2
ACANSTGBM
 70
     0
  3
__ . . __ . .
 72
    65
 73
     6
 40
9.0
 49
4.0
 49
-1.0
 49
1.0
 49
-1.0
 49
1.0
 49
-1.0
  0
LTYPE
  2
ACANSTGLM
 70
     0
  3
_ _ _ _ _
 72
    65
 73
     2
 40
3.0
 49
2.0
 49
-1.0
  0
LTYPE
  2
GEN3B
 70
     0
  3
 - - - - -
 72
    65
 73
     2
 40
1.0
 49
0.5
 49
-0.5
  0
LTYPE
  2
GEN7A
 70
     0
  3
__ . __ . __
 72
    65
 73
     4
 40
7.375
 49
4.75
 49
-0.875
 49
0.875
 49
-0.875
  0
LTYPE
  2
AM_ISO02W050
 70
     0
  3
__ __ __ __ __ __ __ __ __ __ __ __ __ __ __
 72
    65
 73
     2
 40
7.5
 49
6.0
 49
-1.5
  0
LTYPE
  2
AM_ISO08W050
 70
     0
  3
____ . ____ . ____ . ____ . ____ . ____ . ____
 72
    65
 73
     4
 40
18.0
 49
12.0
 49
-1.5
 49
3.0
 49
-1.5
  0
LTYPE
  2
AM_ISO09W050
 70
     0
  3
_____ . . _____ . . _____ . . ____ .. ____
 72
    65
 73
     6
 40
22.5
 49
12.0
 49
-1.5
 49
3.0
 49
-1.5
 49
3.0
 49
-1.5
  0
LTYPE
  2
AMCONSTR
 70
     0
  3
_______________________
 72
    65
 73
     2
 40
9999.0
 49
9999.0
 49
0.0
  0
LTYPE
  2
AM_ISO02W050X2
 70
     0
  3
 _ _ _ _ _ _ _ _ _ _ _ _
 72
    65
 73
     2
 40
3.75
 49
3.0
 49
-0.75
  0
LTYPE
  2
AM_ISO08W050X2
 70
     0
  3
__ . __ . __ . __ . __ . __
 72
    65
 73
     4
 40
9.0
 49
6.0
 49
-0.75
 49
1.5
 49
-0.75
  0
LTYPE
  2
AMZIGZAG
 70
     0
  3
/\/-/\/-/\/-/\/-/\/-/\/
 72
    65
 73
     2
 40
11.0001
 49
0.0001
 49
-11.0
  0
LTYPE
  2
ACJISTGB
 70
     0
  3
__ . . __ . .
 72
    65
 73
     6
 40
9.0
 49
4.0
 49
-1.0
 49
1.0
 49
-1.0
 49
1.0
 49
-1.0
  0
LTYPE
  2
ACJISTGL
 70
     0
  3
_ _ _ _ _
 72
    65
 73
     2
 40
3.0
 49
2.0
 49
-1.0
  0
LTYPE
  2
ACISOWELD
 70
     0
  3
_ _ _ _ _
 72
    65
 73
     2
 40
2.0
 49
2.0
 49
-1.0
  0
LTYPE
  2
ACISOTGB
 70
     0
  3
__ . . __ . .
 72
    65
 73
     6
 40
9.0
 49
4.0
 49
-1.0
 49
1.0
 49
-1.0
 49
1.0
 49
-1.0
  0
LTYPE
  2
ACISOTGL
 70
     0
  3
_ _ _ _ _
 72
    65
 73
     2
 40
3.0
 49
2.0
 49
-1.0
  0
LTYPE
  2
HIDDEN
 70
     0
  3
Hidden __ __ __ __ __ __ __ __ __ __ __ __ __ _
 72
    65
 73
     2
 40
9.5249999999999968
 49
6.3499999999999979
 49
-3.174999999999998
  0
ENDTAB
  0
TABLE
  2
LAYER
 70
    10
  0
LAYER
  2
0
 70
     0
 62
     7
  6
CONTINUOUS
  0
LAYER
  2
DEFPOINTS
 70
     0
 62
     7
  6
CONTINUOUS
  0
LAYER
  2
ｶｸﾚｾﾝ2
 70
     0
 62
     3
  6
GEN3B
  0
LAYER
  2
ﾁｭｳｼﾝｾﾝ1
 70
     0
 62
     1
  6
GEN7A
  0
LAYER
  2
AM_0
 70
     0
 62
     7
  6
CONTINUOUS
  0
LAYER
  2
AM_0N
 70
     0
 62
     7
  6
CONTINUOUS
  0
LAYER
  2
AM_5
 70
     0
 62
     2
  6
CONTINUOUS
  0
LAYER
  2
AM_4N
 70
     0
 62
     2
  6
CONTINUOUS
  0
LAYER
  2
AM_12N
 70
     0
 62
     7
  6
CONTINUOUS
  0
LAYER
  2
ｽﾝﾎﾟｳｾﾝ
 70
     0
 62
     2
  6
CONTINUOUS
  0
ENDTAB
  0
TABLE
  2
STYLE
 70
     8
  0
STYLE
  2
STANDARD
 70
     0
 40
0.0
 41
0.8299999999999999
 50
0.0
 71
     0
 42
2.5
  3
txt.shx
  4
bigfont.shx
  0
STYLE
  2
ACANSTS
 70
     0
 40
1.0
 41
1.0
 50
0.0
 71
     0
 42
2.5
  3
romans.shx
  4
bigfont.shx
  0
STYLE
  2
ACANSGDT
 70
     0
 40
0.0
 41
1.0
 50
0.0
 71
     0
 42
2.5
  3
amgdtans.shx
  4

  0
STYLE
  2

 70
     1
 40
0.0
 41
1.0
 50
0.0
 71
     0
 42
2.5
  3
ltypeshp.shx
  4

  0
STYLE
  2
ACJISTS
 70
     0
 40
1.0
 41
1.0
 50
0.0
 71
     0
 42
2.5
  3
isocp.shx
  4
bigfont.shx
  0
STYLE
  2
ACJISGDT
 70
     0
 40
0.0
 41
1.0
 50
0.0
 71
     0
 42
2.5
  3
amgdt.shx
  4

  0
STYLE
  2
ACISOTS
 70
     0
 40
3.0
 41
1.0
 50
0.0
 71
     0
 42
2.5
  3
isocp.shx
  4
extfont.shx
  0
STYLE
  2
ACISOGDT
 70
     0
 40
0.0
 41
1.0
 50
0.0
 71
     0
 42
2.5
  3
amgdt.shx
  4

  0
ENDTAB
  0
TABLE
  2
VIEW
 70
    12
  0
VIEW
  2
GEN1
 70
     0
 40
95.824742268041234
 10
71.5
 20
137.08762886597941
 41
143.0
 11
0.0
 21
0.0
 31
1.0
 12
0.0
 22
0.0
 32
0.0
 42
50.0
 43
0.0
 44
0.0
 50
0.0
 71
     0
  0
VIEW
  2
GEN2
 70
     0
 40
95.824742268041234
 10
214.5
 20
137.08762886597941
 41
143.0
 11
0.0
 21
0.0
 31
1.0
 12
0.0
 22
0.0
 32
0.0
 42
50.0
 43
0.0
 44
0.0
 50
0.0
 71
     0
  0
VIEW
  2
GEN3
 70
     0
 40
95.824742268041234
 10
71.5
 20
47.912371134020603
 41
143.0
 11
0.0
 21
0.0
 31
1.0
 12
0.0
 22
0.0
 32
0.0
 42
50.0
 43
0.0
 44
0.0
 50
0.0
 71
     0
  0
VIEW
  2
GEN4
 70
     0
 40
95.824742268041234
 10
214.5
 20
47.912371134020603
 41
143.0
 11
0.0
 21
0.0
 31
1.0
 12
0.0
 22
0.0
 32
0.0
 42
50.0
 43
0.0
 44
0.0
 50
0.0
 71
     0
  0
VIEW
  2
GEN5
 70
     0
 40
95.824742268041234
 10
143.0
 20
92.500000000000057
 41
143.0
 11
0.0
 21
0.0
 31
1.0
 12
0.0
 22
0.0
 32
0.0
 42
50.0
 43
0.0
 44
0.0
 50
0.0
 71
     0
  0
VIEW
  2
GEN6
 70
     0
 40
191.64756804123709
 10
143.0
 20
92.5
 41
285.99714
 11
0.0
 21
0.0
 31
1.0
 12
0.0
 22
0.0
 32
0.0
 42
50.0
 43
0.0
 44
0.0
 50
0.0
 71
     0
  0
VIEW
  2
AM_VIEW1
 70
     0
 40
370.00000000000023
 10
332.86372007366492
 20
555.00000000000011
 41
665.72744014732973
 11
0.0
 21
0.0
 31
1.0
 12
0.0
 22
0.0
 32
0.0
 42
50.0
 43
0.0
 44
0.0
 50
0.0
 71
     0
  0
VIEW
  2
AM_VIEW2
 70
     0
 40
370.00000000000023
 10
805.13627992633508
 20
555.00000000000011
 41
665.72744014732973
 11
0.0
 21
0.0
 31
1.0
 12
0.0
 22
0.0
 32
0.0
 42
50.0
 43
0.0
 44
0.0
 50
0.0
 71
     0
  0
VIEW
  2
AM_VIEW3
 70
     0
 40
370.00000000000023
 10
332.86372007366492
 20
185.0
 41
665.72744014732973
 11
0.0
 21
0.0
 31
1.0
 12
0.0
 22
0.0
 32
0.0
 42
50.0
 43
0.0
 44
0.0
 50
0.0
 71
     0
  0
VIEW
  2
AM_VIEW4
 70
     0
 40
370.00000000000023
 10
805.13627992633508
 20
185.0
 41
665.72744014732973
 11
0.0
 21
0.0
 31
1.0
 12
0.0
 22
0.0
 32
0.0
 42
50.0
 43
0.0
 44
0.0
 50
0.0
 71
     0
  0
VIEW
  2
AM_VIEW5
 70
     0
 40
370.00000000000023
 10
569.0
 20
370.00000000000023
 41
665.72744014732962
 11
0.0
 21
0.0
 31
1.0
 12
0.0
 22
0.0
 32
0.0
 42
50.0
 43
0.0
 44
0.0
 50
0.0
 71
     0
  0
VIEW
  2
AM_VIEW6
 70
     0
 40
739.99260000000015
 10
569.0
 20
370.00000000000023
 41
1331.4415657458569
 11
0.0
 21
0.0
 31
1.0
 12
0.0
 22
0.0
 32
0.0
 42
50.0
 43
0.0
 44
0.0
 50
0.0
 71
     0
  0
ENDTAB
  0
TABLE
  2
UCS
 70
     0
  0
ENDTAB
  0
TABLE
  2
APPID
 70
    96
  0
APPID
  2
ACAD
 70
     0
  0
APPID
  2
MCAD_NO_VIS
 70
     0
  0
APPID
  2
ACAD_TEMP_GRAPHIC
 70
     0
  0
APPID
  2
AD_DRAW
 70
     0
  0
APPID
  2
DESIGNERASSEMBLIES
 70
     0
  0
APPID
  2
ASURF_PCURVE_APPNAME
 70
     0
  0
APPID
  2
GENIUS_GE3SECT_13
 70
     0
  0
APPID
  2
GENIUS_GENCFG_13
 70
     0
  0
APPID
  2
GENIUS_GE3CFG0_13
 70
     0
  0
APPID
  2
GENIUS_GENCFG0_13
 70
     0
  0
APPID
  2
GENIUS_GENCFG1_13
 70
     0
  0
APPID
  2
GENIUS_GENCFG2_13
 70
     0
  0
APPID
  2
GENIUS_GENCFG3_13
 70
     0
  0
APPID
  2
GENIUS_GENCFG4_13
 70
     0
  0
APPID
  2
GENIUS_GEVCFG0_13
 70
     0
  0
APPID
  2
GENIUS_GENOENT_13
 70
     0
  0
APPID
  2
GENIUS_GENREC_14
 70
     0
  0
APPID
  2
GENIUS_GENODEF_13
 70
     0
  0
APPID
  2
GENIUS_GENOBJ-N-REC_13
 70
     0
  0
APPID
  2
GENIUS_GENHINW_13
 70
     0
  0
APPID
  2
GENIUS_FIRSTVISTXT_14
 70
     0
  0
APPID
  2
GENIUS_GENOBJ-N-LEADER_13
 70
     0
  0
APPID
  2
GENIUS_GENOREF_13
 70
     0
  0
APPID
  2
GENIUS_GENOLIS_13
 70
     0
  0
APPID
  2
GEV_VCCNULL_SWITCH_OFF
 70
     0
  0
APPID
  2
GENIUS_GENDTOL_13
 70
     0
  0
APPID
  2
GENIUS_GEFCFG0_13
 70
     0
  0
APPID
  2
GENIUS_GENOBJ-N-TIT_13
 70
     0
  0
APPID
  2
GENIUS_GENTITLE_13
 70
     0
  0
APPID
  2
GENIUS_GENZVEED_13
 70
     0
  0
APPID
  2
GENIUS_GENOBJ-N-SDF_13
 70
     0
  0
APPID
  2
GENIUS_GENSCREG_13
 70
     0
  0
APPID
  2
GENIUS_DUMCFG0_13
 70
     0
  0
APPID
  2
GEVID936201362
 70
     0
  0
APPID
  2
GEVDC
 70
     0
  0
APPID
  2
GEVCON
 70
     0
  0
APPID
  2
VCC
 70
     0
  0
APPID
  2
GEVPT
 70
     0
  0
APPID
  2
GEVIT
 70
     0
  0
APPID
  2
GENBH
 70
     0
  0
APPID
  2
GEVMK
 70
     0
  0
APPID
  2
GENIUS_GENBH_13
 70
     0
  0
APPID
  2
GENIUS_GENOBJ-NBEHI-BHF_13
 70
     0
  0
APPID
  2
GENIUS_GENOBJ-NBEHI-BHB_13
 70
     0
  0
APPID
  2
GENIUS_GENOBJ-F-DESC_13
 70
     0
  0
APPID
  2
GENIUS_GEFDESC_14
 70
     0
  0
APPID
  2
GENIUS_GENOBJ-F-PART_13
 70
     0
  0
APPID
  2
GENIUS_GEFSTDP_13
 70
     0
  0
APPID
  2
GENIUS_GEFPARTINS_13
 70
     0
  0
APPID
  2
GENIUS_GENTRA_14
 70
     0
  0
APPID
  2
GENIUS_GENINF13_13
 70
     0
  0
APPID
  2
GENIUS_GENOBJ-N-INFOPT_13
 70
     0
  0
APPID
  2
GENIUS_GENOBJ-N-RSSYM_13
 70
     0
  0
APPID
  2
GENIUS_GENSYMENT_13
 70
     0
  0
APPID
  2
GENIUS_GENSCSYM_13
 70
     0
  0
APPID
  2
GENIUS_GEFINFNAM_13
 70
     0
  0
APPID
  2
GENIUS_GENSCREG_15
 70
     0
  0
APPID
  2
GENIUS_GENOBJ-N-CEN_13
 70
     0
  0
APPID
  2
GENIUS_GENOBJ-N-CRS_13
 70
     0
  0
APPID
  2
GENIUS_GENOBJ-N-CRC_13
 70
     0
  0
APPID
  2
GENIUS_GENCRC_14
 70
     0
  0
APPID
  2
GEVID942827039
 70
     0
  0
APPID
  2
GEVID942827040
 70
     0
  0
APPID
  2
GEVID942827041
 70
     0
  0
APPID
  2
GENIUS_GENOBJ-F-SCPASSM_13
 70
     0
  0
APPID
  2
GENIUS_GENDIMSH_14
 70
     0
  0
APPID
  2
GENIUS_GENFIL_13
 70
     0
  0
APPID
  2
GENIUS_GENOBJ-N-CHA_13
 70
     0
  0
APPID
  2
GENIUS_GENOBJ-N-FIL_13
 70
     0
  0
APPID
  2
GEVID942827042
 70
     0
  0
APPID
  2
GEVID946020473
 70
     0
  0
APPID
  2
GEVID946020474
 70
     0
  0
APPID
  2
GEVID946020475
 70
     0
  0
APPID
  2
GENIUS_GENOBJ-N-HTC_13
 70
     0
  0
APPID
  2
GENIUS_GENHATCH_13
 70
     0
  0
APPID
  2
GEVID948854295
 70
     0
  0
APPID
  2
GEVID939402019
 70
     0
  0
APPID
  2
GEVID952919491
 70
     0
  0
APPID
  2
GEVID952919492
 70
     0
  0
APPID
  2
GENIUS_GEFWELD_13
 70
     0
  0
APPID
  2
GENIUS_GENOBJ-F-WELS_13
 70
     0
  0
APPID
  2
GEVID952919493
 70
     0
  0
APPID
  2
GENIUS_GENOBJ-N-RSBK_13
 70
     0
  0
APPID
  2
GENIUS_GENOBJ-N-LIB_13
 70
     0
  0
APPID
  2
GENIUS_GENSCALE_13
 70
     0
  0
APPID
  2
GEVID986376691
 70
     0
  0
APPID
  2
ACATTRIBSERVICES
 70
     0
  0
APPID
  2
DCO15
 70
     0
  0
APPID
  2
ACADM_DIM_EDIT
 70
     0
  0
APPID
  2
AMDT_DM_ADJ
 70
     0
  0
APPID
  2
ACAD_MLEADERVER
 70
     0
  0
APPID
  2
ACAD_DSTYLE_DIMBREAK
 70
     0
  0
APPID
  2
ACAD_DSTYLE_DIMJAG
 70
     0
  0
APPID
  2
ACAD_NAV_VCDISPLAY
 70
     0
  0
APPID
  2
ACADANNOPO
 70
     0
  0
APPID
  2
ACAD_EXEMPT_FROM_CAD_STANDARDS
 70
     0
  0
ENDTAB
  0
TABLE
  2
DIMSTYLE
 70
    16
  0
DIMSTYLE
  2
STANDARD
 70
     0
  3

  4

  5

  6

  7

 40
1.0
 41
0.18
 42
0.0625
 43
0.38
 44
0.18
 45
0.0
 46
0.0
 47
0.0
 48
0.0
140
0.18
141
0.09
142
0.0
143
25.399999999999999
144
1.0
145
0.0
146
1.0
147
0.09
 71
     0
 72
     0
 73
     1
 74
     1
 75
     0
 76
     0
 77
     0
 78
     0
170
     0
171
     2
172
     0
173
     0
174
     0
175
     0
176
     0
177
     0
178
     0
  0
DIMSTYLE
  2
AM_JIS
 70
     0
  3

  4
"
  5

  6

  7

 40
1.0
 41
2.5
 42
1.0
 43
7.0
 44
1.0
 45
0.0
 46
0.0
 47
0.1
 48
0.1000000001
140
2.5
141
0.0
142
0.0
143
0.0393701
144
1.0
145
0.0
146
0.71
147
1.0
 71
     0
 72
     0
 73
     0
 74
     0
 75
     0
 76
     0
 77
     3
 78
     8
170
     0
171
     2
172
     1
173
     0
174
     0
175
     0
176
   256
177
   256
178
     4
  0
DIMSTYLE
  2
AM_JIS$3
 70
     0
  3

  4
"
  5

  6

  7

 40
1.0
 41
2.5
 42
1.0
 43
7.0
 44
1.0
 45
0.0
 46
0.0
 47
0.1
 48
0.1000000001
140
2.5
141
0.0
142
0.0
143
0.0393701
144
1.0
145
0.0
146
0.71
147
1.0
 71
     0
 72
     0
 73
     0
 74
     1
 75
     0
 76
     0
 77
     3
 78
     8
170
     0
171
     2
172
     0
173
     0
174
     0
175
     0
176
   256
177
   256
178
     4
  0
DIMSTYLE
  2
AM_JIS$4
 70
     0
  3

  4
"
  5

  6

  7

 40
1.0
 41
2.5
 42
1.0
 43
7.0
 44
1.0
 45
0.0
 46
0.0
 47
0.1
 48
0.1000000001
140
2.5
141
0.0
142
0.0
143
0.0393701
144
1.0
145
0.0
146
0.71
147
1.0
 71
     0
 72
     0
 73
     0
 74
     0
 75
     0
 76
     0
 77
     3
 78
     8
170
     0
171
     2
172
     0
173
     0
174
     0
175
     0
176
   256
177
   256
178
     4
  0
DIMSTYLE
  2
AM_JIS$6
 70
     0
  3

  4
"
  5

  6

  7

 40
1.0
 41
2.5
 42
1.0
 43
7.0
 44
1.0
 45
0.0
 46
0.0
 47
0.1
 48
0.1000000001
140
2.5
141
0.0
142
0.0
143
0.0393701
144
1.0
145
0.0
146
0.71
147
1.0
 71
     0
 72
     0
 73
     0
 74
     0
 75
     0
 76
     0
 77
     0
 78
     8
170
     0
171
     2
172
     1
173
     0
174
     0
175
     0
176
   256
177
   256
178
     4
  0
DIMSTYLE
  2
AM_JIS$7
 70
     0
  3

  4
"
  5

  6

  7

 40
1.0
 41
2.5
 42
1.0
 43
7.0
 44
1.0
 45
0.0
 46
0.0
 47
0.1
 48
0.1000000001
140
2.5
141
0.0
142
0.0
143
0.0393701
144
1.0
145
0.0
146
0.71
147
1.0
 71
     0
 72
     0
 73
     0
 74
     0
 75
     0
 76
     0
 77
     3
 78
     8
170
     0
171
     2
172
     1
173
     0
174
     0
175
     0
176
   256
177
   256
178
     4
  0
DIMSTYLE
  2
AM_JIS$SF
 70
     0
  3

  4
"
  5
OPEN30
  6
OPEN30
  7
OPEN30
 40
1.0
 41
2.5
 42
1.0
 43
10.0
 44
1.0
 45
0.0
 46
0.0
 47
0.1
 48
0.1
140
3.5
141
0.0
142
0.0
143
0.0393701
144
1.0
145
0.0
146
0.71
147
1.5
 71
     0
 72
     0
 73
     0
 74
     0
 75
     1
 76
     1
 77
     3
 78
     8
170
     0
171
     2
172
     1
173
     0
174
     0
175
     0
176
   256
177
   256
178
     4
  0
DIMSTYLE
  2
AM_JIS$SH
 70
     0
  3

  4
"
  5

  6
NONE
  7

 40
1.0
 41
2.5
 42
1.0
 43
10.0
 44
1.0
 45
0.0
 46
0.0
 47
0.1
 48
0.1
140
3.5
141
0.0
142
0.0
143
0.0393701
144
1.0
145
0.0
146
0.71
147
1.5
 71
     0
 72
     0
 73
     0
 74
     0
 75
     1
 76
     0
 77
     3
 78
     8
170
     0
171
     2
172
     1
173
     1
174
     0
175
     0
176
   256
177
   256
178
     4
  0
DIMSTYLE
  2
AM_ISO
 70
     0
  3

  4
"
  5

  6

  7

 40
1.0
 41
2.5
 42
1.0
 43
10.0
 44
1.0
 45
0.0
 46
0.0
 47
0.0
 48
0.000000001
140
3.0
141
0.0
142
0.0
143
0.0393701
144
1.0
145
0.0
146
0.71
147
1.299999999999998
 71
     1
 72
     0
 73
     0
 74
     0
 75
     0
 76
     0
 77
     1
 78
     8
170
     0
171
     2
172
     1
173
     0
174
     0
175
     0
176
   256
177
   256
178
     4
  0
DIMSTYLE
  2
AM_ISO$3
 70
     0
  3

  4
"
  5

  6

  7

 40
1.0
 41
2.5
 42
1.0
 43
10.0
 44
1.0
 45
0.0
 46
0.0
 47
0.0
 48
0.000000001
140
2.5
141
0.0
142
0.0
143
0.0393701
144
1.0
145
0.0
146
0.71
147
1.299999999999998
 71
     1
 72
     0
 73
     0
 74
     1
 75
     0
 76
     0
 77
     1
 78
     8
170
     0
171
     2
172
     0
173
     0
174
     0
175
     0
176
   256
177
   256
178
     4
  0
DIMSTYLE
  2
AM_ISO$4
 70
     0
  3

  4
"
  5

  6

  7

 40
1.0
 41
2.5
 42
1.0
 43
10.0
 44
1.0
 45
0.0
 46
0.0
 47
0.0
 48
0.000000001
140
2.5
141
0.0
142
0.0
143
0.0393701
144
1.0
145
0.0
146
0.71
147
1.299999999999998
 71
     1
 72
     0
 73
     0
 74
     1
 75
     0
 76
     0
 77
     1
 78
     8
170
     0
171
     2
172
     0
173
     0
174
     0
175
     0
176
   256
177
   256
178
     4
  0
DIMSTYLE
  2
AM_ISO$6
 70
     0
  3

  4
"
  5

  6

  7

 40
1.0
 41
2.5
 42
1.0
 43
10.0
 44
1.0
 45
0.0
 46
0.0
 47
0.0
 48
0.000000001
140
2.5
141
0.0
142
0.0
143
0.0393701
144
1.0
145
0.0
146
0.71
147
1.299999999999998
 71
     1
 72
     0
 73
     0
 74
     0
 75
     0
 76
     0
 77
     0
 78
     8
170
     0
171
     2
172
     1
173
     0
174
     0
175
     0
176
   256
177
   256
178
     4
  0
DIMSTYLE
  2
AM_ISO$7
 70
     0
  3

  4
"
  5

  6

  7

 40
1.0
 41
2.5
 42
1.0
 43
10.0
 44
1.0
 45
0.0
 46
0.0
 47
0.0
 48
0.000000001
140
2.5
141
0.0
142
0.0
143
0.0393701
144
1.0
145
0.0
146
0.71
147
1.299999999999998
 71
     1
 72
     0
 73
     0
 74
     0
 75
     0
 76
     0
 77
     1
 78
     8
170
     0
171
     2
172
     1
173
     0
174
     0
175
     0
176
   256
177
   256
178
     4
  0
DIMSTYLE
  2
AM_ISO$SF
 70
     0
  3

  4
"
  5

  6

  7

 40
1.0
 41
2.5
 42
1.0
 43
10.0
 44
1.0
 45
0.0
 46
0.0
 47
0.1
 48
0.1
140
3.5
141
0.0
142
0.0
143
0.0393701
144
1.0
145
0.0
146
0.71
147
1.5
 71
     0
 72
     0
 73
     0
 74
     0
 75
     1
 76
     1
 77
     1
 78
     8
170
     0
171
     2
172
     1
173
     0
174
     0
175
     0
176
   256
177
   256
178
     4
  0
DIMSTYLE
  2
AM_ISO$SH
 70
     0
  3

  4
"
  5

  6
GENAXEH
  7

 40
1.0
 41
2.5
 42
1.0
 43
10.0
 44
1.0
 45
0.0
 46
0.0
 47
0.1
 48
0.1
140
3.5
141
0.0
142
0.0
143
0.0393701
144
2.0
145
0.0
146
0.71
147
1.5
 71
     0
 72
     0
 73
     0
 74
     0
 75
     1
 76
     1
 77
     1
 78
     8
170
     0
171
     2
172
     1
173
     1
174
     0
175
     0
176
   256
177
   256
178
     4
  0
DIMSTYLE
  2
AM_JIS$0
 70
     0
  3

  4
"
  5

  6

  7

 40
1.0
 41
2.5
 42
1.0
 43
7.0
 44
1.0
 45
0.0
 46
0.0
 47
0.1
 48
0.1000000001
140
2.5
141
0.0
142
0.0
143
0.0393701
144
1.0
145
0.0
146
0.71
147
1.0
 71
     0
 72
     0
 73
     0
 74
     0
 75
     0
 76
     0
 77
     3
 78
     8
170
     0
171
     2
172
     1
173
     0
174
     0
175
     0
176
   256
177
   256
178
     4
  0
ENDTAB
  0
ENDSEC
  0
SECTION
  2
BLOCKS
  0
BLOCK
  8
0
  2
$MODEL_SPACE
 70
     0
 10
0.0
 20
0.0
 30
0.0
  3
$MODEL_SPACE
  1

  0
ENDBLK
  5
1A
  8
0
  0
BLOCK
 67
     1
  8
0
  2
$PAPER_SPACE
 70
     0
 10
0.0
 20
0.0
 30
0.0
  3
$PAPER_SPACE
  1

  0
ENDBLK
  5
17
 67
     1
  8
0
  0
BLOCK
  8
0
  2
_OPEN30
 70
     0
 10
0.0
 20
0.0
 30
0.0
  3
_OPEN30
  1

  0
LINE
  5
21C5
  8
0
 62
     0
 10
-1.0
 20
0.26794919
 30
0.0
 11
0.0
 21
0.0
 31
0.0
  0
LINE
  5
21C6
  8
0
 62
     0
 10
0.0
 20
0.0
 30
0.0
 11
-1.0
 21
-0.26794919
 31
0.0
  0
LINE
  5
21C7
  8
0
 62
     0
 10
0.0
 20
0.0
 30
0.0
 11
-1.0
 21
0.0
 31
0.0
  0
ENDBLK
  5
21C9
  8
0
  0
BLOCK
  8
0
  2
GENAXEH
 70
     0
 10
0.0
 20
0.0
 30
0.0
  3
GENAXEH
  1

  0
LINE
  5
21D0
  8
0
 10
-1.0
 20
0.0
 30
0.0
 11
1.0
 21
0.0
 31
0.0
  0
ENDBLK
  5
21D2
  8
0
  0
BLOCK
  8
0
  2
_NONE
 70
     0
 10
0.0
 20
0.0
 30
0.0
  3
_NONE
  1

  0
ENDBLK
  5
8193
  8
0
  0
BLOCK
  8
0
  2
*U5
 70
     1
 10
0.0
 20
0.0
 30
0.0
  3
*U5
  1

  0
SOLID
  5
161F4
  8
AM_0
  6
CONTINUOUS
 10
-426.0983386904536
 20
599.66753598411913
 30
0.0
 11
-431.09833869045372
 21
599.66753598411913
 31
0.0
 12
-431.09833869045372
 22
594.66753598411913
 32
0.0
 13
-431.09833869045372
 23
594.66753598411913
 33
0.0
210
0.0
220
0.0
230
-1.0
  0
LINE
  5
161F5
  8
AM_0
  6
CONTINUOUS
 10
431.09833869045372
 20
599.66753598411913
 30
0.0
 11
431.09833869045372
 21
594.66753598411913
 31
0.0
  0
LINE
  5
161F6
  8
AM_0
  6
CONTINUOUS
 10
431.09833869045372
 20
594.66753598411913
 30
0.0
 11
426.0983386904536
 21
599.66753598411913
 31
0.0
  0
ENDBLK
  5
161F8
  8
0
  0
BLOCK
  8
0
  2
*U6
 70
     1
 10
0.0
 20
0.0
 30
0.0
  3
*U6
  1

  0
SOLID
  5
161FA
  8
AM_0
  6
CONTINUOUS
 10
-437.0983386904536
 20
599.66753598411913
 30
0.0
 11
-442.0983386904536
 21
599.66753598411913
 31
0.0
 12
-437.0983386904536
 22
594.66753598411913
 32
0.0
 13
-437.0983386904536
 23
594.66753598411913
 33
0.0
210
0.0
220
0.0
230
-1.0
  0
LINE
  5
161FB
  8
AM_0
  6
CONTINUOUS
 10
442.0983386904536
 20
599.66753598411913
 30
0.0
 11
437.0983386904536
 21
594.66753598411913
 31
0.0
  0
LINE
  5
161FC
  8
AM_0
  6
CONTINUOUS
 10
437.0983386904536
 20
594.66753598411913
 30
0.0
 11
437.0983386904536
 21
599.66753598411913
 31
0.0
  0
ENDBLK
  5
161FE
  8
0
  0
BLOCK
  8
0
  2
*U7
 70
     1
 10
0.0
 20
0.0
 30
0.0
  3
*U7
  1

  0
SOLID
  5
16200
  8
AM_0
  6
CONTINUOUS
 10
-431.09833869045372
 20
734.66753950315228
 30
0.0
 11
-431.09833869045372
 21
729.66753950315217
 31
0.0
 12
-426.0983386904536
 22
729.66753950315217
 32
0.0
 13
-426.0983386904536
 23
729.66753950315217
 33
0.0
210
0.0
220
0.0
230
-1.0
  0
LINE
  5
16201
  8
AM_0
  6
CONTINUOUS
 10
431.09833869045372
 20
734.66753950315228
 30
0.0
 11
431.09833869045372
 21
729.66753950315217
 31
0.0
  0
LINE
  5
16202
  8
AM_0
  6
CONTINUOUS
 10
426.0983386904536
 20
729.66753950315217
 30
0.0
 11
431.09833869045372
 21
734.66753950315228
 31
0.0
  0
ENDBLK
  5
16204
  8
0
  0
BLOCK
  8
0
  2
*U8
 70
     1
 10
0.0
 20
0.0
 30
0.0
  3
*U8
  1

  0
SOLID
  5
16206
  8
AM_0
  6
CONTINUOUS
 10
-437.0983386904536
 20
734.66753950315228
 30
0.0
 11
-442.0983386904536
 21
729.66753950315217
 31
0.0
 12
-437.0983386904536
 22
729.66753950315217
 32
0.0
 13
-437.0983386904536
 23
729.66753950315217
 33
0.0
210
0.0
220
0.0
230
-1.0
  0
LINE
  5
16207
  8
AM_0
  6
CONTINUOUS
 10
437.0983386904536
 20
734.66753950315228
 30
0.0
 11
442.0983386904536
 21
729.66753950315217
 31
0.0
  0
LINE
  5
16208
  8
AM_0
  6
CONTINUOUS
 10
437.0983386904536
 20
729.66753950315217
 30
0.0
 11
437.0983386904536
 21
734.66753950315228
 31
0.0
  0
ENDBLK
  5
1620A
  8
0
  0
ENDSEC
  0
SECTION
  2
ENTITIES
  0
POINT
  5
1B94
  8
0
 10
0.0
 20
0.0
 30
0.0
1001
GENIUS_GENODEF_13
1002
{
1000
HIER
1070
     1
1002
}
1002
{
1000
MANEDIT
1070
     0
1002
}
1002
{
1000
NOSEL
1070
     0
1002
}
1002
{
1000
BEHIND
1070
     0
1002
}
1002
{
1000
REACTOR
1002
}
1001
GENIUS_GENOBJ-N-SDF_13
1002
{
1000
OWNER
1000
GEN
1002
}
1001
GENIUS_GENOENT_13
1002
{
1000
MYREF
1005
1B94
1002
}
1002
{
1000
GRP
1005
0
1002
}
1001
GENIUS_GENOLIS_13
1002
{
1000
ENT
1005
89
1002
}
  0
ARC
  5
1280C
  8
AM_0N
 10
574.87260590616165
 20
295.20360373338139
 30
0.0
 40
6.5
 50
302.36232249799809
 51
217.99106962163879
  0
CIRCLE
  5
1280D
  8
AM_0N
 10
574.87260590616165
 20
295.20360373338139
 30
0.0
 40
3.4641016151377491
  0
LINE
  5
1280E
  8
AM_0N
 10
576.60465671373049
 20
292.20360373338139
 30
0.0
 11
578.33670752129933
 21
295.20360373338139
 31
0.0
  0
LINE
  5
1280F
  8
AM_0N
 10
578.33670752129933
 20
295.20360373338139
 30
0.0
 11
576.60465671373015
 21
298.20360373338161
 31
0.0
  0
CIRCLE
  5
12811
  8
AM_0N
 10
574.93152009073185
 20
387.20360373338133
 30
0.0
 40
3.4641016151377491
  0
LINE
  5
12812
  8
AM_0N
 10
576.6635708983008
 20
384.20360373338133
 30
0.0
 11
578.39562170586976
 21
387.20360373338133
 31
0.0
  0
LINE
  5
12813
  8
AM_0N
 10
578.39562170586976
 20
387.20360373338133
 30
0.0
 11
576.66357089830035
 21
390.20360373338173
 31
0.0
  0
CIRCLE
  5
12814
  8
AM_0N
 10
574.93152009073185
 20
387.20360373338133
 30
0.0
 40
6.5
  0
LINE
  5
12816
  8
AM_0
 10
575.10115204873978
 20
302.70360373338139
 30
0.0
 11
581.10115204873966
 21
302.70360373338139
 31
0.0
  0
LINE
  5
12817
  8
AM_0
 10
575.10115204873978
 20
379.7036037333815
 30
0.0
 11
581.10115204873966
 21
379.7036037333815
 31
0.0
  0
LINE
  5
12818
  8
AM_0
 10
575.10115204873978
 20
394.70360373338139
 30
0.0
 11
581.10115204873966
 21
394.70360373338139
 31
0.0
  0
ARC
  5
12819
  8
AM_0
 10
575.10115204873944
 20
387.20360373338133
 30
0.0
 40
7.5
 50
90.000005008956919
 51
270.00001001790741
  0
ARC
  5
1281A
  8
AM_0
 10
573.10115430641372
 20
281.2026025412647
 30
0.0
 40
10.0
 50
0.0
 51
90.0
1001
GENIUS_GENOBJ-N-FIL_13
1002
{
1000
OWNER
1000
GEN
1002
}
1001
GENIUS_GENODEF_13
1002
{
1000
HIER
1070
     0
1002
}
1002
{
1000
MANEDIT
1070
     0
1002
}
1002
{
1000
NOSEL
1070
     0
1002
}
1002
{
1000
BEHIND
1070
     0
1002
}
1002
{
1000
OTHER
1070
     0
1002
}
1002
{
1000
REACTOR
1002
}
  0
CIRCLE
  5
1281C
  8
AM_0N
 10
568.10115385487882
 20
276.20230179619159
 30
0.0
 40
9.0
  0
LINE
  5
1281D
  8
AM_0N
 10
577.10115385487882
 20
281.39845421889828
 30
0.0
 11
568.10115385487904
 21
286.59460664160491
 31
0.0
  0
CIRCLE
  5
1281E
  8
AM_0N
 10
568.10115385487882
 20
276.20230179619159
 30
0.0
 40
12.0
  0
LINE
  5
1281F
  8
AM_0N
 10
568.10115385487882
 20
265.80999695077838
 30
0.0
 11
577.10115385487882
 21
271.00614937348479
 31
0.0
  0
LINE
  5
12820
  8
AM_0
 10
583.1011543064136
 20
247.2036037333813
 30
0.0
 11
378.10117865301669
 21
247.2036037333813
 31
0.0
  0
LINE
  5
12821
  8
AM_0
 10
583.1011543064136
 20
241.2036037333813
 30
0.0
 11
378.10117865301669
 21
241.2036037333813
 31
0.0
  0
LINE
  5
12822
  8
ﾁｭｳｼﾝｾﾝ1
 10
556.10115349365094
 20
406.20490567057101
 30
0.0
 11
580.10115421610669
 21
406.20490567057101
 31
0.0
  0
POLYLINE
  5
12823
  8
AM_0
 10
583.1011543064136
 20
406.20490567057101
 30
0.0
 66
     1
 70
     8
  0
VERTEX
  8
AM_0
  5
16245
 10
583.101
 20
406.205
 30
0.000000
  70
    32
  0
VERTEX
  8
AM_0
  5
16246
 10
583.100
 20
406.389
 30
0.000000
  70
    32
  0
VERTEX
  8
AM_0
  5
16247
 10
583.097
 20
406.573
 30
0.000000
  70
    32
  0
VERTEX
  8
AM_0
  5
16248
 10
583.091
 20
406.757
 30
0.000000
  70
    32
  0
VERTEX
  8
AM_0
  5
16249
 10
583.083
 20
406.941
 30
0.000000
  70
    32
  0
VERTEX
  8
AM_0
  5
1624A
 10
583.073
 20
407.125
 30
0.000000
  70
    32
  0
VERTEX
  8
AM_0
  5
1624B
 10
583.061
 20
407.308
 30
0.000000
  70
    32
  0
VERTEX
  8
AM_0
  5
1624C
 10
583.046
 20
407.492
 30
0.000000
  70
    32
  0
VERTEX
  8
AM_0
  5
1624D
 10
583.029
 20
407.675
 30
0.000000
  70
    32
  0
VERTEX
  8
AM_0
  5
1624E
 10
583.010
 20
407.858
 30
0.000000
  70
    32
  0
VERTEX
  8
AM_0
  5
1624F
 10
582.988
 20
408.041
 30
0.000000
  70
    32
  0
VERTEX
  8
AM_0
  5
16250
 10
582.965
 20
408.224
 30
0.000000
  70
    32
  0
VERTEX
  8
AM_0
  5
16251
 10
582.939
 20
408.406
 30
0.000000
  70
    32
  0
VERTEX
  8
AM_0
  5
16252
 10
582.911
 20
408.588
 30
0.000000
  70
    32
  0
VERTEX
  8
AM_0
  5
16253
 10
582.880
 20
408.769
 30
0.000000
  70
    32
  0
VERTEX
  8
AM_0
  5
16254
 10
582.848
 20
408.951
 30
0.000000
  70
    32
  0
VERTEX
  8
AM_0
  5
16255
 10
582.813
 20
409.131
 30
0.000000
  70
    32
  0
VERTEX
  8
AM_0
  5
16256
 10
582.776
 20
409.312
 30
0.000000
  70
    32
  0
VERTEX
  8
AM_0
  5
16257
 10
582.737
 20
409.491
 30
0.000000
  70
    32
  0
VERTEX
  8
AM_0
  5
16258
 10
582.695
 20
409.671
 30
0.000000
  70
    32
  0
VERTEX
  8
AM_0
  5
16259
 10
582.652
 20
409.850
 30
0.000000
  70
    32
  0
VERTEX
  8
AM_0
  5
1625A
 10
582.606
 20
410.028
 30
0.000000
  70
    32
  0
VERTEX
  8
AM_0
  5
1625B
 10
582.558
 20
410.206
 30
0.000000
  70
    32
  0
VERTEX
  8
AM_0
  5
1625C
 10
582.508
 20
410.383
 30
0.000000
  70
    32
  0
VERTEX
  8
AM_0
  5
1625D
 10
582.455
 20
410.559
 30
0.000000
  70
    32
  0
VERTEX
  8
AM_0
  5
1625E
 10
582.401
 20
410.735
 30
0.000000
  70
    32
  0
VERTEX
  8
AM_0
  5
1625F
 10
582.344
 20
410.910
 30
0.000000
  70
    32
  0
VERTEX
  8
AM_0
  5
16260
 10
582.285
 20
411.085
 30
0.000000
  70
    32
  0
VERTEX
  8
AM_0
  5
16261
 10
582.224
 20
411.258
 30
0.000000
  70
    32
  0
VERTEX
  8
AM_0
  5
16262
 10
582.161
 20
411.431
 30
0.000000
  70
    32
  0
VERTEX
  8
AM_0
  5
16263
 10
582.096
 20
411.603
 30
0.000000
  70
    32
  0
VERTEX
  8
AM_0
  5
16264
 10
582.029
 20
411.775
 30
0.000000
  70
    32
  0
VERTEX
  8
AM_0
  5
16265
 10
581.959
 20
411.945
 30
0.000000
  70
    32
  0
VERTEX
  8
AM_0
  5
16266
 10
581.888
 20
412.115
 30
0.000000
  70
    32
  0
VERTEX
  8
AM_0
  5
16267
 10
581.814
 20
412.284
 30
0.000000
  70
    32
  0
VERTEX
  8
AM_0
  5
16268
 10
581.739
 20
412.451
 30
0.000000
  70
    32
  0
VERTEX
  8
AM_0
  5
16269
 10
581.661
 20
412.618
 30
0.000000
  70
    32
  0
VERTEX
  8
AM_0
  5
1626A
 10
581.581
 20
412.784
 30
0.000000
  70
    32
  0
VERTEX
  8
AM_0
  5
1626B
 10
581.500
 20
412.949
 30
0.000000
  70
    32
  0
VERTEX
  8
AM_0
  5
1626C
 10
581.416
 20
413.113
 30
0.000000
  70
    32
  0
VERTEX
  8
AM_0
  5
1626D
 10
581.330
 20
413.276
 30
0.000000
  70
    32
  0
VERTEX
  8
AM_0
  5
1626E
 10
581.242
 20
413.438
 30
0.000000
  70
    32
  0
VERTEX
  8
AM_0
  5
1626F
 10
581.152
 20
413.599
 30
0.000000
  70
    32
  0
VERTEX
  8
AM_0
  5
16270
 10
581.061
 20
413.758
 30
0.000000
  70
    32
  0
VERTEX
  8
AM_0
  5
16271
 10
580.967
 20
413.917
 30
0.000000
  70
    32
  0
VERTEX
  8
AM_0
  5
16272
 10
580.871
 20
414.074
 30
0.000000
  70
    32
  0
VERTEX
  8
AM_0
  5
16273
 10
580.774
 20
414.230
 30
0.000000
  70
    32
  0
VERTEX
  8
AM_0
  5
16274
 10
580.675
 20
414.385
 30
0.000000
  70
    32
  0
VERTEX
  8
AM_0
  5
16275
 10
580.573
 20
414.539
 30
0.000000
  70
    32
  0
VERTEX
  8
AM_0
  5
16276
 10
580.470
 20
414.691
 30
0.000000
  70
    32
  0
VERTEX
  8
AM_0
  5
16277
 10
580.365
 20
414.842
 30
0.000000
  70
    32
  0
VERTEX
  8
AM_0
  5
16278
 10
580.258
 20
414.992
 30
0.000000
  70
    32
  0
VERTEX
  8
AM_0
  5
16279
 10
580.149
 20
415.141
 30
0.000000
  70
    32
  0
VERTEX
  8
AM_0
  5
1627A
 10
580.039
 20
415.288
 30
0.000000
  70
    32
  0
VERTEX
  8
AM_0
  5
1627B
 10
579.926
 20
415.434
 30
0.000000
  70
    32
  0
VERTEX
  8
AM_0
  5
1627C
 10
579.812
 20
415.578
 30
0.000000
  70
    32
  0
VERTEX
  8
AM_0
  5
1627D
 10
579.696
 20
415.721
 30
0.000000
  70
    32
  0
VERTEX
  8
AM_0
  5
1627E
 10
579.579
 20
415.863
 30
0.000000
  70
    32
  0
VERTEX
  8
AM_0
  5
1627F
 10
579.459
 20
416.003
 30
0.000000
  70
    32
  0
VERTEX
  8
AM_0
  5
16280
 10
579.338
 20
416.141
 30
0.000000
  70
    32
  0
VERTEX
  8
AM_0
  5
16281
 10
579.215
 20
416.278
 30
0.000000
  70
    32
  0
VERTEX
  8
AM_0
  5
16282
 10
579.091
 20
416.414
 30
0.000000
  70
    32
  0
VERTEX
  8
AM_0
  5
16283
 10
578.965
 20
416.548
 30
0.000000
  70
    32
  0
VERTEX
  8
AM_0
  5
16284
 10
578.837
 20
416.681
 30
0.000000
  70
    32
  0
VERTEX
  8
AM_0
  5
16285
 10
578.708
 20
416.812
 30
0.000000
  70
    32
  0
VERTEX
  8
AM_0
  5
16286
 10
578.577
 20
416.941
 30
0.000000
  70
    32
  0
VERTEX
  8
AM_0
  5
16287
 10
578.444
 20
417.069
 30
0.000000
  70
    32
  0
VERTEX
  8
AM_0
  5
16288
 10
578.310
 20
417.195
 30
0.000000
  70
    32
  0
VERTEX
  8
AM_0
  5
16289
 10
578.175
 20
417.319
 30
0.000000
  70
    32
  0
VERTEX
  8
AM_0
  5
1628A
 10
578.037
 20
417.442
 30
0.000000
  70
    32
  0
VERTEX
  8
AM_0
  5
1628B
 10
577.899
 20
417.563
 30
0.000000
  70
    32
  0
VERTEX
  8
AM_0
  5
1628C
 10
577.759
 20
417.683
 30
0.000000
  70
    32
  0
VERTEX
  8
AM_0
  5
1628D
 10
577.617
 20
417.800
 30
0.000000
  70
    32
  0
VERTEX
  8
AM_0
  5
1628E
 10
577.474
 20
417.916
 30
0.000000
  70
    32
  0
VERTEX
  8
AM_0
  5
1628F
 10
577.330
 20
418.030
 30
0.000000
  70
    32
  0
VERTEX
  8
AM_0
  5
16290
 10
577.184
 20
418.143
 30
0.000000
  70
    32
  0
VERTEX
  8
AM_0
  5
16291
 10
577.037
 20
418.253
 30
0.000000
  70
    32
  0
VERTEX
  8
AM_0
  5
16292
 10
576.888
 20
418.362
 30
0.000000
  70
    32
  0
VERTEX
  8
AM_0
  5
16293
 10
576.738
 20
418.469
 30
0.000000
  70
    32
  0
VERTEX
  8
AM_0
  5
16294
 10
576.587
 20
418.574
 30
0.000000
  70
    32
  0
VERTEX
  8
AM_0
  5
16295
 10
576.435
 20
418.677
 30
0.000000
  70
    32
  0
VERTEX
  8
AM_0
  5
16296
 10
576.281
 20
418.779
 30
0.000000
  70
    32
  0
VERTEX
  8
AM_0
  5
16297
 10
576.126
 20
418.878
 30
0.000000
  70
    32
  0
VERTEX
  8
AM_0
  5
16298
 10
575.970
 20
418.975
 30
0.000000
  70
    32
  0
VERTEX
  8
AM_0
  5
16299
 10
575.813
 20
419.071
 30
0.000000
  70
    32
  0
VERTEX
  8
AM_0
  5
1629A
 10
575.654
 20
419.165
 30
0.000000
  70
    32
  0
VERTEX
  8
AM_0
  5
1629B
 10
575.495
 20
419.256
 30
0.000000
  70
    32
  0
VERTEX
  8
AM_0
  5
1629C
 10
575.334
 20
419.346
 30
0.000000
  70
    32
  0
VERTEX
  8
AM_0
  5
1629D
 10
575.172
 20
419.434
 30
0.000000
  70
    32
  0
VERTEX
  8
AM_0
  5
1629E
 10
575.009
 20
419.520
 30
0.000000
  70
    32
  0
VERTEX
  8
AM_0
  5
1629F
 10
574.845
 20
419.604
 30
0.000000
  70
    32
  0
VERTEX
  8
AM_0
  5
162A0
 10
574.680
 20
419.685
 30
0.000000
  70
    32
  0
VERTEX
  8
AM_0
  5
162A1
 10
574.514
 20
419.765
 30
0.000000
  70
    32
  0
VERTEX
  8
AM_0
  5
162A2
 10
574.348
 20
419.843
 30
0.000000
  70
    32
  0
VERTEX
  8
AM_0
  5
162A3
 10
574.180
 20
419.918
 30
0.000000
  70
    32
  0
VERTEX
  8
AM_0
  5
162A4
 10
574.011
 20
419.992
 30
0.000000
  70
    32
  0
VERTEX
  8
AM_0
  5
162A5
 10
573.841
 20
420.063
 30
0.000000
  70
    32
  0
VERTEX
  8
AM_0
  5
162A6
 10
573.671
 20
420.133
 30
0.000000
  70
    32
  0
VERTEX
  8
AM_0
  5
162A7
 10
573.500
 20
420.200
 30
0.000000
  70
    32
  0
VERTEX
  8
AM_0
  5
162A8
 10
573.327
 20
420.265
 30
0.000000
  70
    32
  0
VERTEX
  8
AM_0
  5
162A9
 10
573.155
 20
420.328
 30
0.000000
  70
    32
  0
VERTEX
  8
AM_0
  5
162AA
 10
572.981
 20
420.389
 30
0.000000
  70
    32
  0
VERTEX
  8
AM_0
  5
162AB
 10
572.806
 20
420.448
 30
0.000000
  70
    32
  0
VERTEX
  8
AM_0
  5
162AC
 10
572.631
 20
420.505
 30
0.000000
  70
    32
  0
VERTEX
  8
AM_0
  5
162AD
 10
572.455
 20
420.559
 30
0.000000
  70
    32
  0
VERTEX
  8
AM_0
  5
162AE
 10
572.279
 20
420.612
 30
0.000000
  70
    32
  0
VERTEX
  8
AM_0
  5
162AF
 10
572.102
 20
420.662
 30
0.000000
  70
    32
  0
VERTEX
  8
AM_0
  5
162B0
 10
571.924
 20
420.710
 30
0.000000
  70
    32
  0
VERTEX
  8
AM_0
  5
162B1
 10
571.746
 20
420.756
 30
0.000000
  70
    32
  0
VERTEX
  8
AM_0
  5
162B2
 10
571.567
 20
420.799
 30
0.000000
  70
    32
  0
VERTEX
  8
AM_0
  5
162B3
 10
571.388
 20
420.841
 30
0.000000
  70
    32
  0
VERTEX
  8
AM_0
  5
162B4
 10
571.208
 20
420.880
 30
0.000000
  70
    32
  0
VERTEX
  8
AM_0
  5
162B5
 10
571.028
 20
420.917
 30
0.000000
  70
    32
  0
VERTEX
  8
AM_0
  5
162B6
 10
570.847
 20
420.952
 30
0.000000
  70
    32
  0
VERTEX
  8
AM_0
  5
162B7
 10
570.666
 20
420.984
 30
0.000000
  70
    32
  0
VERTEX
  8
AM_0
  5
162B8
 10
570.484
 20
421.015
 30
0.000000
  70
    32
  0
VERTEX
  8
AM_0
  5
162B9
 10
570.302
 20
421.043
 30
0.000000
  70
    32
  0
VERTEX
  8
AM_0
  5
162BA
 10
570.120
 20
421.069
 30
0.000000
  70
    32
  0
VERTEX
  8
AM_0
  5
162BB
 10
569.937
 20
421.092
 30
0.000000
  70
    32
  0
VERTEX
  8
AM_0
  5
162BC
 10
569.754
 20
421.114
 30
0.000000
  70
    32
  0
VERTEX
  8
AM_0
  5
162BD
 10
569.571
 20
421.133
 30
0.000000
  70
    32
  0
VERTEX
  8
AM_0
  5
162BE
 10
569.388
 20
421.150
 30
0.000000
  70
    32
  0
VERTEX
  8
AM_0
  5
162BF
 10
569.205
 20
421.165
 30
0.000000
  70
    32
  0
VERTEX
  8
AM_0
  5
162C0
 10
569.021
 20
421.177
 30
0.000000
  70
    32
  0
VERTEX
  8
AM_0
  5
162C1
 10
568.837
 20
421.187
 30
0.000000
  70
    32
  0
VERTEX
  8
AM_0
  5
162C2
 10
568.653
 20
421.195
 30
0.000000
  70
    32
  0
VERTEX
  8
AM_0
  5
162C3
 10
568.469
 20
421.201
 30
0.000000
  70
    32
  0
VERTEX
  8
AM_0
  5
162C4
 10
568.285
 20
421.204
 30
0.000000
  70
    32
  0
VERTEX
  8
AM_0
  5
162C5
 10
568.101
 20
421.205
 30
0.000000
  70
    32
  0
SEQEND
  8
AM_0
  5
162C6
  0
LINE
  5
12824
  8
ﾁｭｳｼﾝｾﾝ1
 10
556.10115349365094
 20
276.20230179619159
 30
0.0
 11
580.10115421610669
 21
276.20230179619159
 31
0.0
  0
LINE
  5
12826
  8
ﾁｭｳｼﾝｾﾝ1
 10
356.86531864133241
 20
341.20360373338121
 30
0.0
 11
588.10115430641372
 21
341.20360373338121
 31
0.0
  0
ARC
  5
1282F
  8
AM_0N
 10
386.32969056192343
 20
295.20360373338139
 30
0.0
 40
6.5
 50
322.00893037836119
 51
237.63786535912649
  0
ARC
  5
12832
  8
AM_0
 10
453.1011809106908
 20
341.20360373338121
 30
0.0
 40
60.0
 50
236.444419869608
 51
270.0
  0
ARC
  5
12833
  8
AM_0
 10
508.10115204873938
 20
341.20360373338121
 30
0.0
 40
60.0
 50
270.0
 51
303.555580130392
  0
ARC
  5
12837
  8
AM_0
 10
388.1011786530168
 20
281.2026025412647
 30
0.0
 40
10.0
 50
90.0
 51
180.0
1001
GENIUS_GENODEF_13
1002
{
1000
HIER
1070
     0
1002
}
1002
{
1000
MANEDIT
1070
     0
1002
}
1002
{
1000
NOSEL
1070
     0
1002
}
1002
{
1000
BEHIND
1070
     0
1002
}
1002
{
1000
OTHER
1070
     0
1002
}
1002
{
1000
REACTOR
1002
}
1001
GENIUS_GENOBJ-N-FIL_13
1002
{
1000
OWNER
1000
GEN
1002
}
  0
LINE
  5
1283E
  8
AM_0
 10
362.10117868909708
 20
384.70323319779931
 30
0.0
 11
362.10117868909708
 21
261.70325319533907
 31
0.0
  0
LINE
  5
1283F
  8
AM_0
 10
351.1011786888771
 20
387.20324319784919
 30
0.0
 11
351.1011786888771
 21
259.20325319528911
 31
0.0
  0
ARC
  5
12840
  8
AM_0
 10
765.25970522316334
 20
323.20324319656351
 30
0.0
 40
397.24800335969758
 50
173.33928567967661
 51
186.66071432032331
  0
LINE
  5
12841
  8
AM_0
 10
371.01170186352522
 20
368.93196183557762
 30
0.0
 11
371.01170186352658
 21
277.47452455756053
 31
0.0
  0
LINE
  5
12848
  8
ﾁｭｳｼﾝｾﾝ1
 10
508.10115204873938
 20
426.20520611761492
 30
0.0
 11
508.10115204873938
 21
231.2036037333815
 31
0.0
  0
LINE
  5
12849
  8
AM_0
 10
378.1011786530168
 20
406.20490567057101
 30
0.0
 11
378.10117865301669
 21
241.2036037333813
 31
0.0
  0
CIRCLE
  5
12896
  8
AM_12N
 62
     2
 10
393.10117910455159
 20
276.20230179619148
 30
0.0
 40
6.2999999999999527
  0
CIRCLE
  5
12897
  8
AM_0N
 10
393.10117910455159
 20
276.20230179619148
 30
0.0
 40
9.0
  0
LINE
  5
12898
  8
AM_0N
 10
402.10117910455142
 20
281.39845421889822
 30
0.0
 11
393.10117910455159
 21
286.59460664160468
 31
0.0
  0
CIRCLE
  5
12899
  8
AM_0N
 10
393.10117910455159
 20
276.20230179619148
 30
0.0
 40
12.0
  0
LINE
  5
1289A
  8
AM_0N
 10
393.10117910455159
 20
265.80999695077833
 30
0.0
 11
402.10117910455142
 21
271.00614937348462
 31
0.0
  0
LINE
  5
1289B
  8
ﾁｭｳｼﾝｾﾝ1
 10
381.10117874332371
 20
276.20230179619159
 30
0.0
 11
405.10114894820038
 21
276.20230179619159
 31
0.0
  0
LINE
  5
128A0
  8
ﾁｭｳｼﾝｾﾝ1
 10
398.60117865301697
 20
258.9536037333815
 30
0.0
 11
398.6011786530168
 21
229.4536037333815
 31
0.0
  0
LINE
  5
128A1
  8
AM_0
 10
351.1011786888771
 20
259.20325319528911
 30
0.0
 11
360.22778151665523
 21
259.20325319528911
 31
0.0
  0
LINE
  5
128A2
  8
AM_0
 10
351.1011786888771
 20
271.1632531955284
 30
0.0
 11
361.10117868907719
 21
271.1632531955284
 31
0.0
  0
LINE
  5
128A3
  8
AM_0
 10
351.1011786888771
 20
286.06326319582632
 30
0.0
 11
361.10117868907719
 21
286.06326319582632
 31
0.0
  0
LINE
  5
128BA
  8
AM_0
 10
365.10117868915711
 20
261.70325319533907
 30
0.0
 11
378.1011786530168
 21
261.70325319533919
 31
0.0
  0
ARC
  5
128BB
  8
AM_0
 10
360.22778151665523
 20
262.20325319534908
 30
0.0
 40
3.00000000006
 50
270.0
 51
324.31466528734802
1001
GENIUS_GENOBJ-N-FIL_13
1002
{
1000
OWNER
1000
GEN
1002
}
1001
GENIUS_GENODEF_13
1002
{
1000
HIER
1070
     0
1002
}
1002
{
1000
MANEDIT
1070
     0
1002
}
1002
{
1000
NOSEL
1070
     0
1002
}
1002
{
1000
BEHIND
1070
     0
1002
}
1002
{
1000
OTHER
1070
     0
1002
}
1002
{
1000
REACTOR
1002
}
  0
ARC
  5
128BC
  8
AM_0
 10
365.10117868915711
 20
258.70325319527888
 30
0.0
 40
3.00000000006
 50
90.0
 51
144.31466528734799
1001
GENIUS_GENOBJ-N-FIL_13
1002
{
1000
OWNER
1000
GEN
1002
}
1001
GENIUS_GENODEF_13
1002
{
1000
HIER
1070
     0
1002
}
1002
{
1000
MANEDIT
1070
     0
1002
}
1002
{
1000
NOSEL
1070
     0
1002
}
1002
{
1000
BEHIND
1070
     0
1002
}
1002
{
1000
OTHER
1070
     0
1002
}
1002
{
1000
REACTOR
1002
}
  0
LINE
  5
128BE
  8
ｶｸﾚｾﾝ2
 10
391.10117865301709
 20
247.20360373338249
 30
0.0
 11
391.10117865301692
 21
241.20360373338141
 31
0.0
  0
LINE
  5
128C4
  8
AM_0
 10
373.67271304301488
 20
274.47452455750067
 30
0.0
 11
377.10117868939699
 21
274.47452455750067
 31
0.0
  0
ARC
  5
128C5
  8
AM_0
 10
373.67271304301488
 20
277.47452455756053
 30
0.0
 40
3.00000000006
 50
186.66071432032331
 51
270.0
1001
GENIUS_GENOBJ-N-FIL_13
1002
{
1000
OWNER
1000
GEN
1002
}
1001
GENIUS_GENODEF_13
1002
{
1000
HIER
1070
     0
1002
}
1002
{
1000
MANEDIT
1070
     0
1002
}
1002
{
1000
NOSEL
1070
     0
1002
}
1002
{
1000
BEHIND
1070
     0
1002
}
1002
{
1000
OTHER
1070
     0
1002
}
1002
{
1000
REACTOR
1002
}
  0
LINE
  5
128C6
  8
AM_0N
 10
384.10117910455148
 20
281.39845421889828
 30
0.0
 11
384.10117910455148
 21
271.0061493734849
 31
0.0
  0
CIRCLE
  5
128C7
  8
AM_0N
 10
393.10117910455159
 20
276.20230179619148
 30
0.0
 40
5.0527847146108487
  0
LINE
  5
128C8
  8
ﾁｭｳｼﾝｾﾝ1
 10
393.10117910455159
 20
288.2025421538267
 30
0.0
 11
393.10117910455159
 21
264.2020614385566
 31
0.0
  0
LINE
  5
128C9
  8
AM_0N
 10
384.10117910455148
 20
271.0061493734849
 30
0.0
 11
393.10117910455159
 21
265.80999695077833
 31
0.0
  0
LINE
  5
128CA
  8
AM_0N
 10
393.10117910455159
 20
286.59460664160468
 30
0.0
 11
384.10117910455148
 21
281.39845421889828
 31
0.0
  0
LINE
  5
128CB
  8
AM_0
 10
380.50269304731239
 20
287.70360373338139
 30
0.0
 11
380.10115204873978
 21
287.70360373338139
 31
0.0
  0
ARC
  5
128CC
  8
AM_0
 10
380.10115204873961
 20
285.7036037333815
 30
0.0
 40
1.9999999999999929
 50
90.000005008956919
 51
180.000000683243
  0
LINE
  5
128CE
  8
AM_0
 10
453.1011809106908
 20
281.20360373338121
 30
0.0
 11
508.10115204873938
 21
281.20360373338121
 31
0.0
  0
LINE
  5
128D2
  8
AM_0
 10
431.10116647971518
 20
247.2036037333813
 30
0.0
 11
431.10116647971512
 21
279.70360373338178
 31
0.0
  0
LINE
  5
128D3
  8
AM_0
 10
437.101166479715
 20
247.2036037333813
 30
0.0
 11
437.101166479715
 21
279.70360373338178
 31
0.0
  0
LINE
  5
128D5
  8
ｶｸﾚｾﾝ2
 10
406.10117865301692
 20
247.20360373338241
 30
0.0
 11
406.10117865301669
 21
241.2036037333811
 31
0.0
  0
LINE
  5
128DA
  8
AM_0
 10
437.101166479715
 20
257.20360373338178
 30
0.0
 11
431.10116647971518
 21
257.20360373338178
 31
0.0
  0
LINE
  5
128DB
  8
AM_0N
 10
402.10117910455142
 20
271.00614937348462
 30
0.0
 11
402.10117910455142
 21
281.39845421889822
 31
0.0
  0
LINE
  5
128DD
  8
AM_0
 10
437.101166479715
 20
279.7036037333819
 30
0.0
 11
431.10116647971518
 21
279.7036037333819
 31
0.0
  0
ARC
  5
128E1
  8
AM_0
 10
473.10115204873949
 20
269.2036037333815
 30
0.0
 40
14.999999999999989
 50
53.130102354153372
 51
126.86989764584651
  0
LINE
  5
128EE
  8
ﾁｭｳｼﾝｾﾝ1
 10
562.60115430641383
 20
258.9536037333815
 30
0.0
 11
562.60115430641383
 21
229.4536037333815
 31
0.0
  0
LINE
  5
128F1
  8
AM_0
 10
524.10116647971506
 20
247.2036037333813
 30
0.0
 11
524.10116647971495
 21
279.70360373338178
 31
0.0
  0
LINE
  5
128F2
  8
AM_0
 10
530.10116647971506
 20
247.2036037333813
 30
0.0
 11
530.10116647971506
 21
279.70360373338178
 31
0.0
  0
LINE
  5
128F3
  8
AM_0
 10
524.10116647971506
 20
257.20360373338178
 30
0.0
 11
530.10116647971506
 21
257.20360373338178
 31
0.0
  0
LINE
  5
128F4
  8
AM_0
 10
524.10116647971506
 20
279.7036037333819
 30
0.0
 11
530.10116647971506
 21
279.7036037333819
 31
0.0
  0
LINE
  5
128FC
  8
ｶｸﾚｾﾝ2
 10
555.10115430641383
 20
247.20360373338221
 30
0.0
 11
555.10115430641383
 21
241.20360373338141
 31
0.0
  0
LINE
  5
128FD
  8
ｶｸﾚｾﾝ2
 10
570.10115430641395
 20
247.2036037333821
 30
0.0
 11
570.10115430641372
 21
241.2036037333811
 31
0.0
  0
LINE
  5
12905
  8
AM_0N
 10
559.10115385487882
 20
281.39845421889839
 30
0.0
 11
559.10115385487882
 21
271.00614937348507
 31
0.0
  0
CIRCLE
  5
12906
  8
AM_0N
 10
568.10115385487882
 20
276.20230179619159
 30
0.0
 40
5.0527847146108487
  0
CIRCLE
  5
12907
  8
AM_12N
 62
     2
 10
568.10115385487882
 20
276.20230179619159
 30
0.0
 40
6.2999999999999527
  0
LINE
  5
12908
  8
ﾁｭｳｼﾝｾﾝ1
 10
568.10115385487882
 20
288.2025421538267
 30
0.0
 11
568.10115385487882
 21
264.2020614385566
 31
0.0
  0
LINE
  5
12909
  8
AM_0N
 10
559.10115385487882
 20
271.00614937348507
 30
0.0
 11
568.10115385487882
 21
265.80999695077838
 31
0.0
  0
LINE
  5
1290A
  8
AM_0N
 10
568.10115385487904
 20
286.59460664160491
 30
0.0
 11
559.10115385487882
 21
281.39845421889839
 31
0.0
  0
LINE
  5
1290B
  8
ﾁｭｳｼﾝｾﾝ1
 10
182.6072786856073
 20
323.20324319657072
 30
0.0
 11
414.10757030769861
 21
323.20324319656919
 31
0.0
  0
ARC
  5
12980
  8
AM_0
 10
386.10115204873949
 20
295.20360373338139
 30
0.0
 40
15.000000000000011
 50
18.9064237497482
 51
75.522490157384439
  0
ARC
  5
12981
  8
AM_0
 10
386.10115204873949
 20
387.20360373338133
 30
0.0
 40
14.999999999999989
 50
284.47751143647088
 51
341.0935812592092
  0
LINE
  5
12983
  8
AM_0
 10
419.93644241050089
 20
291.2026025412647
 30
0.0
 11
388.1011786530168
 21
291.2026025412647
 31
0.0
  0
LINE
  5
12984
  8
ﾁｭｳｼﾝｾﾝ1
 10
381.10117874332371
 20
406.20490567057101
 30
0.0
 11
405.10114894820038
 21
406.20490567057101
 31
0.0
  0
POLYLINE
  5
12985
  8
AM_0
 10
400.10117931526781
 20
406.20490567057101
 30
0.0
 66
     1
 70
     8
  0
VERTEX
  8
AM_0
  5
162C7
 10
400.101
 20
406.205
 30
0.000000
  70
    32
  0
VERTEX
  8
AM_0
  5
162C8
 10
400.093
 20
406.548
 30
0.000000
  70
    32
  0
VERTEX
  8
AM_0
  5
162C9
 10
400.067
 20
406.891
 30
0.000000
  70
    32
  0
VERTEX
  8
AM_0
  5
162CA
 10
400.025
 20
407.232
 30
0.000000
  70
    32
  0
VERTEX
  8
AM_0
  5
162CB
 10
399.967
 20
407.571
 30
0.000000
  70
    32
  0
VERTEX
  8
AM_0
  5
162CC
 10
399.891
 20
407.906
 30
0.000000
  70
    32
  0
VERTEX
  8
AM_0
  5
162CD
 10
399.800
 20
408.237
 30
0.000000
  70
    32
  0
VERTEX
  8
AM_0
  5
162CE
 10
399.692
 20
408.563
 30
0.000000
  70
    32
  0
VERTEX
  8
AM_0
  5
162CF
 10
399.568
 20
408.884
 30
0.000000
  70
    32
  0
VERTEX
  8
AM_0
  5
162D0
 10
399.429
 20
409.198
 30
0.000000
  70
    32
  0
VERTEX
  8
AM_0
  5
162D1
 10
399.275
 20
409.505
 30
0.000000
  70
    32
  0
VERTEX
  8
AM_0
  5
162D2
 10
399.105
 20
409.804
 30
0.000000
  70
    32
  0
VERTEX
  8
AM_0
  5
162D3
 10
398.921
 20
410.094
 30
0.000000
  70
    32
  0
VERTEX
  8
AM_0
  5
162D4
 10
398.724
 20
410.375
 30
0.000000
  70
    32
  0
VERTEX
  8
AM_0
  5
162D5
 10
398.512
 20
410.646
 30
0.000000
  70
    32
  0
VERTEX
  8
AM_0
  5
162D6
 10
398.288
 20
410.906
 30
0.000000
  70
    32
  0
VERTEX
  8
AM_0
  5
162D7
 10
398.051
 20
411.155
 30
0.000000
  70
    32
  0
VERTEX
  8
AM_0
  5
162D8
 10
397.802
 20
411.392
 30
0.000000
  70
    32
  0
VERTEX
  8
AM_0
  5
162D9
 10
397.542
 20
411.616
 30
0.000000
  70
    32
  0
VERTEX
  8
AM_0
  5
162DA
 10
397.271
 20
411.827
 30
0.000000
  70
    32
  0
VERTEX
  8
AM_0
  5
162DB
 10
396.990
 20
412.025
 30
0.000000
  70
    32
  0
VERTEX
  8
AM_0
  5
162DC
 10
396.700
 20
412.209
 30
0.000000
  70
    32
  0
VERTEX
  8
AM_0
  5
162DD
 10
396.401
 20
412.378
 30
0.000000
  70
    32
  0
VERTEX
  8
AM_0
  5
162DE
 10
396.094
 20
412.533
 30
0.000000
  70
    32
  0
VERTEX
  8
AM_0
  5
162DF
 10
395.780
 20
412.672
 30
0.000000
  70
    32
  0
VERTEX
  8
AM_0
  5
162E0
 10
395.459
 20
412.796
 30
0.000000
  70
    32
  0
VERTEX
  8
AM_0
  5
162E1
 10
395.133
 20
412.904
 30
0.000000
  70
    32
  0
VERTEX
  8
AM_0
  5
162E2
 10
394.802
 20
412.995
 30
0.000000
  70
    32
  0
VERTEX
  8
AM_0
  5
162E3
 10
394.467
 20
413.071
 30
0.000000
  70
    32
  0
VERTEX
  8
AM_0
  5
162E4
 10
394.128
 20
413.129
 30
0.000000
  70
    32
  0
VERTEX
  8
AM_0
  5
162E5
 10
393.787
 20
413.171
 30
0.000000
  70
    32
  0
VERTEX
  8
AM_0
  5
162E6
 10
393.445
 20
413.197
 30
0.000000
  70
    32
  0
VERTEX
  8
AM_0
  5
162E7
 10
393.101
 20
413.205
 30
0.000000
  70
    32
  0
VERTEX
  8
AM_0
  5
162E8
 10
392.758
 20
413.197
 30
0.000000
  70
    32
  0
VERTEX
  8
AM_0
  5
162E9
 10
392.415
 20
413.171
 30
0.000000
  70
    32
  0
VERTEX
  8
AM_0
  5
162EA
 10
392.074
 20
413.129
 30
0.000000
  70
    32
  0
VERTEX
  8
AM_0
  5
162EB
 10
391.736
 20
413.071
 30
0.000000
  70
    32
  0
VERTEX
  8
AM_0
  5
162EC
 10
391.400
 20
412.995
 30
0.000000
  70
    32
  0
VERTEX
  8
AM_0
  5
162ED
 10
391.069
 20
412.904
 30
0.000000
  70
    32
  0
VERTEX
  8
AM_0
  5
162EE
 10
390.743
 20
412.796
 30
0.000000
  70
    32
  0
VERTEX
  8
AM_0
  5
162EF
 10
390.422
 20
412.672
 30
0.000000
  70
    32
  0
VERTEX
  8
AM_0
  5
162F0
 10
390.108
 20
412.533
 30
0.000000
  70
    32
  0
VERTEX
  8
AM_0
  5
162F1
 10
389.801
 20
412.378
 30
0.000000
  70
    32
  0
VERTEX
  8
AM_0
  5
162F2
 10
389.502
 20
412.209
 30
0.000000
  70
    32
  0
VERTEX
  8
AM_0
  5
162F3
 10
389.212
 20
412.025
 30
0.000000
  70
    32
  0
VERTEX
  8
AM_0
  5
162F4
 10
388.931
 20
411.827
 30
0.000000
  70
    32
  0
VERTEX
  8
AM_0
  5
162F5
 10
388.660
 20
411.616
 30
0.000000
  70
    32
  0
VERTEX
  8
AM_0
  5
162F6
 10
388.400
 20
411.392
 30
0.000000
  70
    32
  0
VERTEX
  8
AM_0
  5
162F7
 10
388.151
 20
411.155
 30
0.000000
  70
    32
  0
VERTEX
  8
AM_0
  5
162F8
 10
387.915
 20
410.906
 30
0.000000
  70
    32
  0
VERTEX
  8
AM_0
  5
162F9
 10
387.690
 20
410.646
 30
0.000000
  70
    32
  0
VERTEX
  8
AM_0
  5
162FA
 10
387.479
 20
410.375
 30
0.000000
  70
    32
  0
VERTEX
  8
AM_0
  5
162FB
 10
387.281
 20
410.094
 30
0.000000
  70
    32
  0
VERTEX
  8
AM_0
  5
162FC
 10
387.097
 20
409.804
 30
0.000000
  70
    32
  0
VERTEX
  8
AM_0
  5
162FD
 10
386.928
 20
409.505
 30
0.000000
  70
    32
  0
VERTEX
  8
AM_0
  5
162FE
 10
386.773
 20
409.198
 30
0.000000
  70
    32
  0
VERTEX
  8
AM_0
  5
162FF
 10
386.634
 20
408.884
 30
0.000000
  70
    32
  0
VERTEX
  8
AM_0
  5
16300
 10
386.510
 20
408.563
 30
0.000000
  70
    32
  0
VERTEX
  8
AM_0
  5
16301
 10
386.403
 20
408.237
 30
0.000000
  70
    32
  0
VERTEX
  8
AM_0
  5
16302
 10
386.311
 20
407.906
 30
0.000000
  70
    32
  0
VERTEX
  8
AM_0
  5
16303
 10
386.236
 20
407.571
 30
0.000000
  70
    32
  0
VERTEX
  8
AM_0
  5
16304
 10
386.177
 20
407.232
 30
0.000000
  70
    32
  0
VERTEX
  8
AM_0
  5
16305
 10
386.135
 20
406.891
 30
0.000000
  70
    32
  0
VERTEX
  8
AM_0
  5
16306
 10
386.110
 20
406.548
 30
0.000000
  70
    32
  0
VERTEX
  8
AM_0
  5
16307
 10
386.101
 20
406.205
 30
0.000000
  70
    32
  0
VERTEX
  8
AM_0
  5
16308
 10
386.110
 20
405.861
 30
0.000000
  70
    32
  0
VERTEX
  8
AM_0
  5
16309
 10
386.135
 20
405.519
 30
0.000000
  70
    32
  0
VERTEX
  8
AM_0
  5
1630A
 10
386.177
 20
405.178
 30
0.000000
  70
    32
  0
VERTEX
  8
AM_0
  5
1630B
 10
386.236
 20
404.839
 30
0.000000
  70
    32
  0
VERTEX
  8
AM_0
  5
1630C
 10
386.311
 20
404.504
 30
0.000000
  70
    32
  0
VERTEX
  8
AM_0
  5
1630D
 10
386.403
 20
404.173
 30
0.000000
  70
    32
  0
VERTEX
  8
AM_0
  5
1630E
 10
386.510
 20
403.847
 30
0.000000
  70
    32
  0
VERTEX
  8
AM_0
  5
1630F
 10
386.634
 20
403.526
 30
0.000000
  70
    32
  0
VERTEX
  8
AM_0
  5
16310
 10
386.773
 20
403.212
 30
0.000000
  70
    32
  0
VERTEX
  8
AM_0
  5
16311
 10
386.928
 20
402.905
 30
0.000000
  70
    32
  0
VERTEX
  8
AM_0
  5
16312
 10
387.097
 20
402.606
 30
0.000000
  70
    32
  0
VERTEX
  8
AM_0
  5
16313
 10
387.281
 20
402.316
 30
0.000000
  70
    32
  0
VERTEX
  8
AM_0
  5
16314
 10
387.479
 20
402.035
 30
0.000000
  70
    32
  0
VERTEX
  8
AM_0
  5
16315
 10
387.690
 20
401.764
 30
0.000000
  70
    32
  0
VERTEX
  8
AM_0
  5
16316
 10
387.915
 20
401.504
 30
0.000000
  70
    32
  0
VERTEX
  8
AM_0
  5
16317
 10
388.151
 20
401.255
 30
0.000000
  70
    32
  0
VERTEX
  8
AM_0
  5
16318
 10
388.400
 20
401.018
 30
0.000000
  70
    32
  0
VERTEX
  8
AM_0
  5
16319
 10
388.660
 20
400.794
 30
0.000000
  70
    32
  0
VERTEX
  8
AM_0
  5
1631A
 10
388.931
 20
400.582
 30
0.000000
  70
    32
  0
VERTEX
  8
AM_0
  5
1631B
 10
389.212
 20
400.385
 30
0.000000
  70
    32
  0
VERTEX
  8
AM_0
  5
1631C
 10
389.502
 20
400.201
 30
0.000000
  70
    32
  0
VERTEX
  8
AM_0
  5
1631D
 10
389.801
 20
400.031
 30
0.000000
  70
    32
  0
VERTEX
  8
AM_0
  5
1631E
 10
390.108
 20
399.877
 30
0.000000
  70
    32
  0
VERTEX
  8
AM_0
  5
1631F
 10
390.422
 20
399.738
 30
0.000000
  70
    32
  0
VERTEX
  8
AM_0
  5
16320
 10
390.743
 20
399.614
 30
0.000000
  70
    32
  0
VERTEX
  8
AM_0
  5
16321
 10
391.069
 20
399.506
 30
0.000000
  70
    32
  0
VERTEX
  8
AM_0
  5
16322
 10
391.400
 20
399.415
 30
0.000000
  70
    32
  0
VERTEX
  8
AM_0
  5
16323
 10
391.736
 20
399.339
 30
0.000000
  70
    32
  0
VERTEX
  8
AM_0
  5
16324
 10
392.074
 20
399.281
 30
0.000000
  70
    32
  0
VERTEX
  8
AM_0
  5
16325
 10
392.415
 20
399.238
 30
0.000000
  70
    32
  0
VERTEX
  8
AM_0
  5
16326
 10
392.758
 20
399.213
 30
0.000000
  70
    32
  0
VERTEX
  8
AM_0
  5
16327
 10
393.101
 20
399.205
 30
0.000000
  70
    32
  0
VERTEX
  8
AM_0
  5
16328
 10
393.445
 20
399.213
 30
0.000000
  70
    32
  0
VERTEX
  8
AM_0
  5
16329
 10
393.787
 20
399.238
 30
0.000000
  70
    32
  0
VERTEX
  8
AM_0
  5
1632A
 10
394.128
 20
399.281
 30
0.000000
  70
    32
  0
VERTEX
  8
AM_0
  5
1632B
 10
394.467
 20
399.339
 30
0.000000
  70
    32
  0
VERTEX
  8
AM_0
  5
1632C
 10
394.802
 20
399.415
 30
0.000000
  70
    32
  0
VERTEX
  8
AM_0
  5
1632D
 10
395.133
 20
399.506
 30
0.000000
  70
    32
  0
VERTEX
  8
AM_0
  5
1632E
 10
395.459
 20
399.614
 30
0.000000
  70
    32
  0
VERTEX
  8
AM_0
  5
1632F
 10
395.780
 20
399.738
 30
0.000000
  70
    32
  0
VERTEX
  8
AM_0
  5
16330
 10
396.094
 20
399.877
 30
0.000000
  70
    32
  0
VERTEX
  8
AM_0
  5
16331
 10
396.401
 20
400.031
 30
0.000000
  70
    32
  0
VERTEX
  8
AM_0
  5
16332
 10
396.700
 20
400.201
 30
0.000000
  70
    32
  0
VERTEX
  8
AM_0
  5
16333
 10
396.990
 20
400.385
 30
0.000000
  70
    32
  0
VERTEX
  8
AM_0
  5
16334
 10
397.271
 20
400.582
 30
0.000000
  70
    32
  0
VERTEX
  8
AM_0
  5
16335
 10
397.542
 20
400.794
 30
0.000000
  70
    32
  0
VERTEX
  8
AM_0
  5
16336
 10
397.802
 20
401.018
 30
0.000000
  70
    32
  0
VERTEX
  8
AM_0
  5
16337
 10
398.051
 20
401.255
 30
0.000000
  70
    32
  0
VERTEX
  8
AM_0
  5
16338
 10
398.288
 20
401.504
 30
0.000000
  70
    32
  0
VERTEX
  8
AM_0
  5
16339
 10
398.512
 20
401.764
 30
0.000000
  70
    32
  0
VERTEX
  8
AM_0
  5
1633A
 10
398.724
 20
402.035
 30
0.000000
  70
    32
  0
VERTEX
  8
AM_0
  5
1633B
 10
398.921
 20
402.316
 30
0.000000
  70
    32
  0
VERTEX
  8
AM_0
  5
1633C
 10
399.105
 20
402.606
 30
0.000000
  70
    32
  0
VERTEX
  8
AM_0
  5
1633D
 10
399.275
 20
402.905
 30
0.000000
  70
    32
  0
VERTEX
  8
AM_0
  5
1633E
 10
399.429
 20
403.212
 30
0.000000
  70
    32
  0
VERTEX
  8
AM_0
  5
1633F
 10
399.568
 20
403.526
 30
0.000000
  70
    32
  0
VERTEX
  8
AM_0
  5
16340
 10
399.692
 20
403.847
 30
0.000000
  70
    32
  0
VERTEX
  8
AM_0
  5
16341
 10
399.800
 20
404.173
 30
0.000000
  70
    32
  0
VERTEX
  8
AM_0
  5
16342
 10
399.891
 20
404.504
 30
0.000000
  70
    32
  0
VERTEX
  8
AM_0
  5
16343
 10
399.967
 20
404.839
 30
0.000000
  70
    32
  0
VERTEX
  8
AM_0
  5
16344
 10
400.025
 20
405.178
 30
0.000000
  70
    32
  0
VERTEX
  8
AM_0
  5
16345
 10
400.067
 20
405.519
 30
0.000000
  70
    32
  0
VERTEX
  8
AM_0
  5
16346
 10
400.093
 20
405.861
 30
0.000000
  70
    32
  0
VERTEX
  8
AM_0
  5
16347
 10
400.101
 20
406.205
 30
0.000000
  70
    32
  0
SEQEND
  8
AM_0
  5
16348
  0
LINE
  5
12986
  8
AM_0
 10
393.10117910455159
 20
421.20520611761492
 30
0.0
 11
568.10115385487882
 21
421.20520611761492
 31
0.0
  0
POLYLINE
  5
1299F
  8
AM_0
 10
393.10117844888151
 20
421.20520611761486
 30
0.0
 66
     1
 70
     8
  0
VERTEX
  8
AM_0
  5
16349
 10
393.101
 20
421.205
 30
0.000000
  70
    32
  0
VERTEX
  8
AM_0
  5
1634A
 10
392.917
 20
421.204
 30
0.000000
  70
    32
  0
VERTEX
  8
AM_0
  5
1634B
 10
392.733
 20
421.201
 30
0.000000
  70
    32
  0
VERTEX
  8
AM_0
  5
1634C
 10
392.549
 20
421.195
 30
0.000000
  70
    32
  0
VERTEX
  8
AM_0
  5
1634D
 10
392.365
 20
421.187
 30
0.000000
  70
    32
  0
VERTEX
  8
AM_0
  5
1634E
 10
392.181
 20
421.177
 30
0.000000
  70
    32
  0
VERTEX
  8
AM_0
  5
1634F
 10
391.998
 20
421.165
 30
0.000000
  70
    32
  0
VERTEX
  8
AM_0
  5
16350
 10
391.814
 20
421.150
 30
0.000000
  70
    32
  0
VERTEX
  8
AM_0
  5
16351
 10
391.631
 20
421.133
 30
0.000000
  70
    32
  0
VERTEX
  8
AM_0
  5
16352
 10
391.448
 20
421.114
 30
0.000000
  70
    32
  0
VERTEX
  8
AM_0
  5
16353
 10
391.265
 20
421.092
 30
0.000000
  70
    32
  0
VERTEX
  8
AM_0
  5
16354
 10
391.082
 20
421.069
 30
0.000000
  70
    32
  0
VERTEX
  8
AM_0
  5
16355
 10
390.900
 20
421.043
 30
0.000000
  70
    32
  0
VERTEX
  8
AM_0
  5
16356
 10
390.718
 20
421.015
 30
0.000000
  70
    32
  0
VERTEX
  8
AM_0
  5
16357
 10
390.537
 20
420.984
 30
0.000000
  70
    32
  0
VERTEX
  8
AM_0
  5
16358
 10
390.356
 20
420.952
 30
0.000000
  70
    32
  0
VERTEX
  8
AM_0
  5
16359
 10
390.175
 20
420.917
 30
0.000000
  70
    32
  0
VERTEX
  8
AM_0
  5
1635A
 10
389.995
 20
420.880
 30
0.000000
  70
    32
  0
VERTEX
  8
AM_0
  5
1635B
 10
389.815
 20
420.841
 30
0.000000
  70
    32
  0
VERTEX
  8
AM_0
  5
1635C
 10
389.635
 20
420.799
 30
0.000000
  70
    32
  0
VERTEX
  8
AM_0
  5
1635D
 10
389.456
 20
420.756
 30
0.000000
  70
    32
  0
VERTEX
  8
AM_0
  5
1635E
 10
389.278
 20
420.710
 30
0.000000
  70
    32
  0
VERTEX
  8
AM_0
  5
1635F
 10
389.100
 20
420.662
 30
0.000000
  70
    32
  0
VERTEX
  8
AM_0
  5
16360
 10
388.923
 20
420.612
 30
0.000000
  70
    32
  0
VERTEX
  8
AM_0
  5
16361
 10
388.747
 20
420.559
 30
0.000000
  70
    32
  0
VERTEX
  8
AM_0
  5
16362
 10
388.571
 20
420.505
 30
0.000000
  70
    32
  0
VERTEX
  8
AM_0
  5
16363
 10
388.396
 20
420.448
 30
0.000000
  70
    32
  0
VERTEX
  8
AM_0
  5
16364
 10
388.222
 20
420.389
 30
0.000000
  70
    32
  0
VERTEX
  8
AM_0
  5
16365
 10
388.048
 20
420.328
 30
0.000000
  70
    32
  0
VERTEX
  8
AM_0
  5
16366
 10
387.875
 20
420.265
 30
0.000000
  70
    32
  0
VERTEX
  8
AM_0
  5
16367
 10
387.703
 20
420.200
 30
0.000000
  70
    32
  0
VERTEX
  8
AM_0
  5
16368
 10
387.531
 20
420.133
 30
0.000000
  70
    32
  0
VERTEX
  8
AM_0
  5
16369
 10
387.361
 20
420.063
 30
0.000000
  70
    32
  0
VERTEX
  8
AM_0
  5
1636A
 10
387.191
 20
419.992
 30
0.000000
  70
    32
  0
VERTEX
  8
AM_0
  5
1636B
 10
387.023
 20
419.918
 30
0.000000
  70
    32
  0
VERTEX
  8
AM_0
  5
1636C
 10
386.855
 20
419.843
 30
0.000000
  70
    32
  0
VERTEX
  8
AM_0
  5
1636D
 10
386.688
 20
419.765
 30
0.000000
  70
    32
  0
VERTEX
  8
AM_0
  5
1636E
 10
386.522
 20
419.685
 30
0.000000
  70
    32
  0
VERTEX
  8
AM_0
  5
1636F
 10
386.357
 20
419.604
 30
0.000000
  70
    32
  0
VERTEX
  8
AM_0
  5
16370
 10
386.193
 20
419.520
 30
0.000000
  70
    32
  0
VERTEX
  8
AM_0
  5
16371
 10
386.030
 20
419.434
 30
0.000000
  70
    32
  0
VERTEX
  8
AM_0
  5
16372
 10
385.868
 20
419.346
 30
0.000000
  70
    32
  0
VERTEX
  8
AM_0
  5
16373
 10
385.708
 20
419.256
 30
0.000000
  70
    32
  0
VERTEX
  8
AM_0
  5
16374
 10
385.548
 20
419.165
 30
0.000000
  70
    32
  0
VERTEX
  8
AM_0
  5
16375
 10
385.390
 20
419.071
 30
0.000000
  70
    32
  0
VERTEX
  8
AM_0
  5
16376
 10
385.232
 20
418.975
 30
0.000000
  70
    32
  0
VERTEX
  8
AM_0
  5
16377
 10
385.076
 20
418.878
 30
0.000000
  70
    32
  0
VERTEX
  8
AM_0
  5
16378
 10
384.921
 20
418.779
 30
0.000000
  70
    32
  0
VERTEX
  8
AM_0
  5
16379
 10
384.768
 20
418.677
 30
0.000000
  70
    32
  0
VERTEX
  8
AM_0
  5
1637A
 10
384.615
 20
418.574
 30
0.000000
  70
    32
  0
VERTEX
  8
AM_0
  5
1637B
 10
384.464
 20
418.469
 30
0.000000
  70
    32
  0
VERTEX
  8
AM_0
  5
1637C
 10
384.314
 20
418.362
 30
0.000000
  70
    32
  0
VERTEX
  8
AM_0
  5
1637D
 10
384.166
 20
418.253
 30
0.000000
  70
    32
  0
VERTEX
  8
AM_0
  5
1637E
 10
384.019
 20
418.143
 30
0.000000
  70
    32
  0
VERTEX
  8
AM_0
  5
1637F
 10
383.873
 20
418.030
 30
0.000000
  70
    32
  0
VERTEX
  8
AM_0
  5
16380
 10
383.728
 20
417.916
 30
0.000000
  70
    32
  0
VERTEX
  8
AM_0
  5
16381
 10
383.585
 20
417.800
 30
0.000000
  70
    32
  0
VERTEX
  8
AM_0
  5
16382
 10
383.444
 20
417.683
 30
0.000000
  70
    32
  0
VERTEX
  8
AM_0
  5
16383
 10
383.304
 20
417.563
 30
0.000000
  70
    32
  0
VERTEX
  8
AM_0
  5
16384
 10
383.165
 20
417.442
 30
0.000000
  70
    32
  0
VERTEX
  8
AM_0
  5
16385
 10
383.028
 20
417.319
 30
0.000000
  70
    32
  0
VERTEX
  8
AM_0
  5
16386
 10
382.892
 20
417.195
 30
0.000000
  70
    32
  0
VERTEX
  8
AM_0
  5
16387
 10
382.758
 20
417.069
 30
0.000000
  70
    32
  0
VERTEX
  8
AM_0
  5
16388
 10
382.626
 20
416.941
 30
0.000000
  70
    32
  0
VERTEX
  8
AM_0
  5
16389
 10
382.495
 20
416.812
 30
0.000000
  70
    32
  0
VERTEX
  8
AM_0
  5
1638A
 10
382.365
 20
416.681
 30
0.000000
  70
    32
  0
VERTEX
  8
AM_0
  5
1638B
 10
382.237
 20
416.548
 30
0.000000
  70
    32
  0
VERTEX
  8
AM_0
  5
1638C
 10
382.111
 20
416.414
 30
0.000000
  70
    32
  0
VERTEX
  8
AM_0
  5
1638D
 10
381.987
 20
416.278
 30
0.000000
  70
    32
  0
VERTEX
  8
AM_0
  5
1638E
 10
381.864
 20
416.141
 30
0.000000
  70
    32
  0
VERTEX
  8
AM_0
  5
1638F
 10
381.743
 20
416.003
 30
0.000000
  70
    32
  0
VERTEX
  8
AM_0
  5
16390
 10
381.624
 20
415.863
 30
0.000000
  70
    32
  0
VERTEX
  8
AM_0
  5
16391
 10
381.506
 20
415.721
 30
0.000000
  70
    32
  0
VERTEX
  8
AM_0
  5
16392
 10
381.390
 20
415.578
 30
0.000000
  70
    32
  0
VERTEX
  8
AM_0
  5
16393
 10
381.276
 20
415.434
 30
0.000000
  70
    32
  0
VERTEX
  8
AM_0
  5
16394
 10
381.164
 20
415.288
 30
0.000000
  70
    32
  0
VERTEX
  8
AM_0
  5
16395
 10
381.053
 20
415.141
 30
0.000000
  70
    32
  0
VERTEX
  8
AM_0
  5
16396
 10
380.944
 20
414.992
 30
0.000000
  70
    32
  0
VERTEX
  8
AM_0
  5
16397
 10
380.837
 20
414.842
 30
0.000000
  70
    32
  0
VERTEX
  8
AM_0
  5
16398
 10
380.732
 20
414.691
 30
0.000000
  70
    32
  0
VERTEX
  8
AM_0
  5
16399
 10
380.629
 20
414.539
 30
0.000000
  70
    32
  0
VERTEX
  8
AM_0
  5
1639A
 10
380.528
 20
414.385
 30
0.000000
  70
    32
  0
VERTEX
  8
AM_0
  5
1639B
 10
380.428
 20
414.230
 30
0.000000
  70
    32
  0
VERTEX
  8
AM_0
  5
1639C
 10
380.331
 20
414.074
 30
0.000000
  70
    32
  0
VERTEX
  8
AM_0
  5
1639D
 10
380.235
 20
413.917
 30
0.000000
  70
    32
  0
VERTEX
  8
AM_0
  5
1639E
 10
380.142
 20
413.758
 30
0.000000
  70
    32
  0
VERTEX
  8
AM_0
  5
1639F
 10
380.050
 20
413.599
 30
0.000000
  70
    32
  0
VERTEX
  8
AM_0
  5
163A0
 10
379.960
 20
413.438
 30
0.000000
  70
    32
  0
VERTEX
  8
AM_0
  5
163A1
 10
379.872
 20
413.276
 30
0.000000
  70
    32
  0
VERTEX
  8
AM_0
  5
163A2
 10
379.787
 20
413.113
 30
0.000000
  70
    32
  0
VERTEX
  8
AM_0
  5
163A3
 10
379.703
 20
412.949
 30
0.000000
  70
    32
  0
VERTEX
  8
AM_0
  5
163A4
 10
379.621
 20
412.784
 30
0.000000
  70
    32
  0
VERTEX
  8
AM_0
  5
163A5
 10
379.541
 20
412.618
 30
0.000000
  70
    32
  0
VERTEX
  8
AM_0
  5
163A6
 10
379.464
 20
412.451
 30
0.000000
  70
    32
  0
VERTEX
  8
AM_0
  5
163A7
 10
379.388
 20
412.284
 30
0.000000
  70
    32
  0
VERTEX
  8
AM_0
  5
163A8
 10
379.314
 20
412.115
 30
0.000000
  70
    32
  0
VERTEX
  8
AM_0
  5
163A9
 10
379.243
 20
411.945
 30
0.000000
  70
    32
  0
VERTEX
  8
AM_0
  5
163AA
 10
379.174
 20
411.775
 30
0.000000
  70
    32
  0
VERTEX
  8
AM_0
  5
163AB
 10
379.106
 20
411.603
 30
0.000000
  70
    32
  0
VERTEX
  8
AM_0
  5
163AC
 10
379.041
 20
411.431
 30
0.000000
  70
    32
  0
VERTEX
  8
AM_0
  5
163AD
 10
378.978
 20
411.258
 30
0.000000
  70
    32
  0
VERTEX
  8
AM_0
  5
163AE
 10
378.917
 20
411.085
 30
0.000000
  70
    32
  0
VERTEX
  8
AM_0
  5
163AF
 10
378.858
 20
410.910
 30
0.000000
  70
    32
  0
VERTEX
  8
AM_0
  5
163B0
 10
378.802
 20
410.735
 30
0.000000
  70
    32
  0
VERTEX
  8
AM_0
  5
163B1
 10
378.747
 20
410.559
 30
0.000000
  70
    32
  0
VERTEX
  8
AM_0
  5
163B2
 10
378.695
 20
410.383
 30
0.000000
  70
    32
  0
VERTEX
  8
AM_0
  5
163B3
 10
378.645
 20
410.206
 30
0.000000
  70
    32
  0
VERTEX
  8
AM_0
  5
163B4
 10
378.597
 20
410.028
 30
0.000000
  70
    32
  0
VERTEX
  8
AM_0
  5
163B5
 10
378.551
 20
409.850
 30
0.000000
  70
    32
  0
VERTEX
  8
AM_0
  5
163B6
 10
378.507
 20
409.671
 30
0.000000
  70
    32
  0
VERTEX
  8
AM_0
  5
163B7
 10
378.466
 20
409.491
 30
0.000000
  70
    32
  0
VERTEX
  8
AM_0
  5
163B8
 10
378.426
 20
409.312
 30
0.000000
  70
    32
  0
VERTEX
  8
AM_0
  5
163B9
 10
378.389
 20
409.131
 30
0.000000
  70
    32
  0
VERTEX
  8
AM_0
  5
163BA
 10
378.355
 20
408.951
 30
0.000000
  70
    32
  0
VERTEX
  8
AM_0
  5
163BB
 10
378.322
 20
408.769
 30
0.000000
  70
    32
  0
VERTEX
  8
AM_0
  5
163BC
 10
378.292
 20
408.588
 30
0.000000
  70
    32
  0
VERTEX
  8
AM_0
  5
163BD
 10
378.264
 20
408.406
 30
0.000000
  70
    32
  0
VERTEX
  8
AM_0
  5
163BE
 10
378.238
 20
408.224
 30
0.000000
  70
    32
  0
VERTEX
  8
AM_0
  5
163BF
 10
378.214
 20
408.041
 30
0.000000
  70
    32
  0
VERTEX
  8
AM_0
  5
163C0
 10
378.193
 20
407.858
 30
0.000000
  70
    32
  0
VERTEX
  8
AM_0
  5
163C1
 10
378.173
 20
407.675
 30
0.000000
  70
    32
  0
VERTEX
  8
AM_0
  5
163C2
 10
378.156
 20
407.492
 30
0.000000
  70
    32
  0
VERTEX
  8
AM_0
  5
163C3
 10
378.142
 20
407.308
 30
0.000000
  70
    32
  0
VERTEX
  8
AM_0
  5
163C4
 10
378.129
 20
407.125
 30
0.000000
  70
    32
  0
VERTEX
  8
AM_0
  5
163C5
 10
378.119
 20
406.941
 30
0.000000
  70
    32
  0
VERTEX
  8
AM_0
  5
163C6
 10
378.111
 20
406.757
 30
0.000000
  70
    32
  0
VERTEX
  8
AM_0
  5
163C7
 10
378.106
 20
406.573
 30
0.000000
  70
    32
  0
VERTEX
  8
AM_0
  5
163C8
 10
378.102
 20
406.389
 30
0.000000
  70
    32
  0
VERTEX
  8
AM_0
  5
163C9
 10
378.101
 20
406.205
 30
0.000000
  70
    32
  0
SEQEND
  8
AM_0
  5
163CA
  0
LINE
  5
129A0
  8
ﾁｭｳｼﾝｾﾝ1
 10
393.10117910455159
 20
418.20514602820589
 30
0.0
 11
393.10117910455159
 21
394.20466531293579
 31
0.0
  0
LINE
  5
129C7
  8
AM_0
 10
386.10115204873978
 20
314.5685253032056
 30
0.0
 11
386.10115204873978
 21
367.83868979295181
 31
0.0
  0
ARC
  5
129D2
  8
AM_0
 10
386.10115204873949
 20
295.20360373338139
 30
0.0
 40
7.5
 50
327.76000506847942
 51
90.000005008956919
  0
LINE
  5
129D3
  8
AM_0N
 10
384.59763975435447
 20
292.20360373338139
 30
0.0
 11
388.06174136949221
 21
292.20360373338139
 31
0.0
  0
LINE
  5
129D4
  8
AM_0N
 10
388.06174136949198
 20
298.20360373338161
 30
0.0
 11
384.59763975435482
 21
298.20360373338161
 31
0.0
  0
CIRCLE
  5
129D5
  8
AM_0N
 10
386.32969056192343
 20
295.20360373338139
 30
0.0
 40
3.4641016151377491
  0
LINE
  5
129D6
  8
AM_0N
 10
382.86558894678569
 20
295.20360373338139
 30
0.0
 11
384.59763975435447
 21
292.20360373338139
 31
0.0
  0
LINE
  5
129D7
  8
AM_0N
 10
384.59763975435482
 20
298.20360373338161
 30
0.0
 11
382.86558894678569
 21
295.20360373338139
 31
0.0
  0
ARC
  5
129D8
  8
AM_0
 10
380.10115204873961
 20
304.7036037333815
 30
0.0
 40
2.0000000000000022
 50
179.99999749551819
 51
270.0
  0
LINE
  5
129D9
  8
AM_0
 10
386.10115204873978
 20
302.70360373338139
 30
0.0
 11
380.10115204873978
 21
302.70360373338139
 31
0.0
  0
LINE
  5
129DA
  8
AM_0N
 10
388.06174136949221
 20
292.20360373338139
 30
0.0
 11
389.79379217706122
 21
295.20360373338139
 31
0.0
  0
LINE
  5
129DB
  8
AM_0N
 10
389.79379217706122
 20
295.20360373338139
 30
0.0
 11
388.06174136949198
 21
298.20360373338161
 31
0.0
  0
ARC
  5
129DC
  8
AM_0
 10
391.10115204873949
 20
314.5685253032056
 30
0.0
 40
5.0000000000000044
 50
179.99999749551819
 51
255.52248856352901
  0
LINE
  5
129DD
  8
AM_0
 10
351.1011786888771
 20
360.343223197312
 30
0.0
 11
361.10117868907719
 21
360.343223197312
 31
0.0
  0
LINE
  5
129DE
  8
AM_0
 10
351.1011786888771
 20
375.24323319760992
 30
0.0
 11
361.10117868907719
 21
375.24323319760992
 31
0.0
  0
LINE
  5
129DF
  8
AM_0
 10
351.1011786888771
 20
387.20323319784922
 30
0.0
 11
360.22778151665523
 21
387.20323319784922
 31
0.0
  0
LINE
  5
129FB
  8
AM_0
 10
351.1011786888771
 20
387.20327319784911
 30
0.0
 11
351.1011786888771
 21
383.20327319776902
 31
0.0
  0
ARC
  5
129FD
  8
AM_0
 10
380.10115204873961
 20
377.70360373338133
 30
0.0
 40
2.0000000000000062
 50
90.000005008956919
 51
180.000000683243
  0
LINE
  5
129FE
  8
AM_0
 10
373.6727130430163
 20
371.93196183563782
 30
0.0
 11
377.10117868939699
 21
371.93196183563782
 31
0.0
  0
ARC
  5
129FF
  8
AM_0
 10
373.6727130430163
 20
368.93196183557762
 30
0.0
 40
3.00000000006
 50
90.0
 51
173.33928567967661
1001
GENIUS_GENODEF_13
1002
{
1000
HIER
1070
     0
1002
}
1002
{
1000
MANEDIT
1070
     0
1002
}
1002
{
1000
NOSEL
1070
     0
1002
}
1002
{
1000
BEHIND
1070
     0
1002
}
1002
{
1000
OTHER
1070
     0
1002
}
1002
{
1000
REACTOR
1002
}
1001
GENIUS_GENOBJ-N-FIL_13
1002
{
1000
OWNER
1000
GEN
1002
}
  0
ARC
  5
12A00
  8
AM_0
 10
391.10115204873949
 20
367.83868979295181
 30
0.0
 40
5.0000000000000107
 50
104.4775098426155
 51
179.99999749551819
  0
ARC
  5
12A01
  8
AM_0
 10
375.10117868935708
 20
387.70323319785911
 30
0.0
 40
3.00000000006
 50
270.0
 51
0.0
1001
GENIUS_GENODEF_13
1002
{
1000
HIER
1070
     0
1002
}
1002
{
1000
MANEDIT
1070
     0
1002
}
1002
{
1000
NOSEL
1070
     0
1002
}
1002
{
1000
BEHIND
1070
     0
1002
}
1002
{
1000
OTHER
1070
     0
1002
}
1002
{
1000
REACTOR
1002
}
1001
GENIUS_GENOBJ-N-FIL_13
1002
{
1000
OWNER
1000
GEN
1002
}
  0
LINE
  5
12A02
  8
AM_0
 10
365.10117868915711
 20
384.70323319779931
 30
0.0
 11
375.10117868935708
 21
384.70323319779908
 31
0.0
  0
ARC
  5
12A03
  8
AM_0
 10
360.22778151665523
 20
384.20323319778907
 30
0.0
 40
3.00000000006
 50
35.685334712651972
 51
90.0
1001
GENIUS_GENOBJ-N-FIL_13
1002
{
1000
OWNER
1000
GEN
1002
}
1001
GENIUS_GENODEF_13
1002
{
1000
HIER
1070
     0
1002
}
1002
{
1000
MANEDIT
1070
     0
1002
}
1002
{
1000
NOSEL
1070
     0
1002
}
1002
{
1000
BEHIND
1070
     0
1002
}
1002
{
1000
OTHER
1070
     0
1002
}
1002
{
1000
REACTOR
1002
}
  0
ARC
  5
12A04
  8
AM_0
 10
365.10117868915711
 20
387.70323319785911
 30
0.0
 40
3.00000000006
 50
215.68533471265201
 51
270.0
1001
GENIUS_GENOBJ-N-FIL_13
1002
{
1000
OWNER
1000
GEN
1002
}
1001
GENIUS_GENODEF_13
1002
{
1000
HIER
1070
     0
1002
}
1002
{
1000
MANEDIT
1070
     0
1002
}
1002
{
1000
NOSEL
1070
     0
1002
}
1002
{
1000
BEHIND
1070
     0
1002
}
1002
{
1000
OTHER
1070
     0
1002
}
1002
{
1000
REACTOR
1002
}
  0
CIRCLE
  5
12A05
  8
AM_0N
 10
386.270776377353
 20
387.20360373338133
 30
0.0
 40
6.5
  0
ARC
  5
12A06
  8
AM_0
 10
386.10115204873949
 20
387.20360373338133
 30
0.0
 40
7.5
 50
270.0
 51
90.000005008956919
  0
LINE
  5
12A07
  8
AM_0N
 10
384.53872556978422
 20
384.20360373338133
 30
0.0
 11
388.0028271849219
 21
384.20360373338133
 31
0.0
  0
LINE
  5
12A08
  8
AM_0N
 10
388.00282718492173
 20
390.20360373338173
 30
0.0
 11
384.53872556978439
 21
390.20360373338173
 31
0.0
  0
CIRCLE
  5
12A09
  8
AM_0N
 10
386.270776377353
 20
387.20360373338133
 30
0.0
 40
3.4641016151377491
  0
LINE
  5
12A0A
  8
AM_0N
 10
382.80667476221532
 20
387.20360373338133
 30
0.0
 11
384.53872556978422
 21
384.20360373338133
 31
0.0
  0
LINE
  5
12A0B
  8
AM_0N
 10
384.53872556978439
 20
390.20360373338173
 30
0.0
 11
382.80667476221532
 21
387.20360373338133
 31
0.0
  0
LINE
  5
12A0C
  8
AM_0
 10
386.10115204873978
 20
379.7036037333815
 30
0.0
 11
380.10115204873978
 21
379.7036037333815
 31
0.0
  0
LINE
  5
12A0D
  8
AM_0N
 10
388.0028271849219
 20
384.20360373338133
 30
0.0
 11
389.73487799249091
 21
387.20360373338133
 31
0.0
  0
LINE
  5
12A0E
  8
AM_0N
 10
389.73487799249091
 20
387.20360373338133
 30
0.0
 11
388.00282718492173
 21
390.20360373338173
 31
0.0
  0
ARC
  5
12A0F
  8
AM_0
 10
380.10115204873961
 20
396.70360373338133
 30
0.0
 40
2.0000000000000022
 50
179.99999749551819
 51
270.0
  0
LINE
  5
12A10
  8
AM_0
 10
386.10115204873978
 20
394.70360373338139
 30
0.0
 11
380.10115204873978
 21
394.70360373338139
 31
0.0
  0
CIRCLE
  5
12A3E
  8
AM_0N
 10
473.04264222207962
 20
413.20360373338133
 30
0.0
 40
6.5
  0
LINE
  5
12A3F
  8
AM_0
 10
551.49830781045841
 20
409.82372092088133
 30
0.0
 11
560.91041718545853
 21
382.34325217088133
 31
0.0
  0
ARC
  5
12A40
  8
AM_0
 10
473.10115204873949
 20
413.20360373338133
 30
0.0
 40
7.5000000000000071
 50
179.99999749551819
 51
0.0000025044687019
  0
ARC
  5
12A41
  8
AM_0
 10
473.10115204873949
 20
413.20360373338133
 30
0.0
 40
14.999999999999989
 50
194.47751234709199
 51
345.52248765290801
  0
LINE
  5
12A42
  8
AM_0
 10
409.70399628702103
 20
409.82372092088133
 30
0.0
 11
400.29188691202103
 21
382.34325217088133
 31
0.0
  0
LINE
  5
12A43
  8
ﾁｭｳｼﾝｾﾝ1
 10
568.10115385487882
 20
418.20514602820589
 30
0.0
 11
568.10115385487882
 21
394.20466531293579
 31
0.0
  0
POLYLINE
  5
12A44
  8
AM_0
 10
575.10115406559498
 20
406.20490567057101
 30
0.0
 66
     1
 70
     8
  0
VERTEX
  8
AM_0
  5
163CB
 10
575.101
 20
406.205
 30
0.000000
  70
    32
  0
VERTEX
  8
AM_0
  5
163CC
 10
575.093
 20
406.548
 30
0.000000
  70
    32
  0
VERTEX
  8
AM_0
  5
163CD
 10
575.067
 20
406.891
 30
0.000000
  70
    32
  0
VERTEX
  8
AM_0
  5
163CE
 10
575.025
 20
407.232
 30
0.000000
  70
    32
  0
VERTEX
  8
AM_0
  5
163CF
 10
574.967
 20
407.571
 30
0.000000
  70
    32
  0
VERTEX
  8
AM_0
  5
163D0
 10
574.891
 20
407.906
 30
0.000000
  70
    32
  0
VERTEX
  8
AM_0
  5
163D1
 10
574.800
 20
408.237
 30
0.000000
  70
    32
  0
VERTEX
  8
AM_0
  5
163D2
 10
574.692
 20
408.563
 30
0.000000
  70
    32
  0
VERTEX
  8
AM_0
  5
163D3
 10
574.568
 20
408.884
 30
0.000000
  70
    32
  0
VERTEX
  8
AM_0
  5
163D4
 10
574.429
 20
409.198
 30
0.000000
  70
    32
  0
VERTEX
  8
AM_0
  5
163D5
 10
574.275
 20
409.505
 30
0.000000
  70
    32
  0
VERTEX
  8
AM_0
  5
163D6
 10
574.105
 20
409.804
 30
0.000000
  70
    32
  0
VERTEX
  8
AM_0
  5
163D7
 10
573.921
 20
410.094
 30
0.000000
  70
    32
  0
VERTEX
  8
AM_0
  5
163D8
 10
573.724
 20
410.375
 30
0.000000
  70
    32
  0
VERTEX
  8
AM_0
  5
163D9
 10
573.512
 20
410.646
 30
0.000000
  70
    32
  0
VERTEX
  8
AM_0
  5
163DA
 10
573.288
 20
410.906
 30
0.000000
  70
    32
  0
VERTEX
  8
AM_0
  5
163DB
 10
573.051
 20
411.155
 30
0.000000
  70
    32
  0
VERTEX
  8
AM_0
  5
163DC
 10
572.802
 20
411.392
 30
0.000000
  70
    32
  0
VERTEX
  8
AM_0
  5
163DD
 10
572.542
 20
411.616
 30
0.000000
  70
    32
  0
VERTEX
  8
AM_0
  5
163DE
 10
572.271
 20
411.827
 30
0.000000
  70
    32
  0
VERTEX
  8
AM_0
  5
163DF
 10
571.990
 20
412.025
 30
0.000000
  70
    32
  0
VERTEX
  8
AM_0
  5
163E0
 10
571.700
 20
412.209
 30
0.000000
  70
    32
  0
VERTEX
  8
AM_0
  5
163E1
 10
571.401
 20
412.378
 30
0.000000
  70
    32
  0
VERTEX
  8
AM_0
  5
163E2
 10
571.094
 20
412.533
 30
0.000000
  70
    32
  0
VERTEX
  8
AM_0
  5
163E3
 10
570.780
 20
412.672
 30
0.000000
  70
    32
  0
VERTEX
  8
AM_0
  5
163E4
 10
570.459
 20
412.796
 30
0.000000
  70
    32
  0
VERTEX
  8
AM_0
  5
163E5
 10
570.133
 20
412.904
 30
0.000000
  70
    32
  0
VERTEX
  8
AM_0
  5
163E6
 10
569.802
 20
412.995
 30
0.000000
  70
    32
  0
VERTEX
  8
AM_0
  5
163E7
 10
569.467
 20
413.071
 30
0.000000
  70
    32
  0
VERTEX
  8
AM_0
  5
163E8
 10
569.128
 20
413.129
 30
0.000000
  70
    32
  0
VERTEX
  8
AM_0
  5
163E9
 10
568.787
 20
413.171
 30
0.000000
  70
    32
  0
VERTEX
  8
AM_0
  5
163EA
 10
568.445
 20
413.197
 30
0.000000
  70
    32
  0
VERTEX
  8
AM_0
  5
163EB
 10
568.101
 20
413.205
 30
0.000000
  70
    32
  0
VERTEX
  8
AM_0
  5
163EC
 10
567.758
 20
413.197
 30
0.000000
  70
    32
  0
VERTEX
  8
AM_0
  5
163ED
 10
567.415
 20
413.171
 30
0.000000
  70
    32
  0
VERTEX
  8
AM_0
  5
163EE
 10
567.074
 20
413.129
 30
0.000000
  70
    32
  0
VERTEX
  8
AM_0
  5
163EF
 10
566.736
 20
413.071
 30
0.000000
  70
    32
  0
VERTEX
  8
AM_0
  5
163F0
 10
566.400
 20
412.995
 30
0.000000
  70
    32
  0
VERTEX
  8
AM_0
  5
163F1
 10
566.069
 20
412.904
 30
0.000000
  70
    32
  0
VERTEX
  8
AM_0
  5
163F2
 10
565.743
 20
412.796
 30
0.000000
  70
    32
  0
VERTEX
  8
AM_0
  5
163F3
 10
565.422
 20
412.672
 30
0.000000
  70
    32
  0
VERTEX
  8
AM_0
  5
163F4
 10
565.108
 20
412.533
 30
0.000000
  70
    32
  0
VERTEX
  8
AM_0
  5
163F5
 10
564.801
 20
412.378
 30
0.000000
  70
    32
  0
VERTEX
  8
AM_0
  5
163F6
 10
564.502
 20
412.209
 30
0.000000
  70
    32
  0
VERTEX
  8
AM_0
  5
163F7
 10
564.212
 20
412.025
 30
0.000000
  70
    32
  0
VERTEX
  8
AM_0
  5
163F8
 10
563.931
 20
411.827
 30
0.000000
  70
    32
  0
VERTEX
  8
AM_0
  5
163F9
 10
563.660
 20
411.616
 30
0.000000
  70
    32
  0
VERTEX
  8
AM_0
  5
163FA
 10
563.400
 20
411.392
 30
0.000000
  70
    32
  0
VERTEX
  8
AM_0
  5
163FB
 10
563.151
 20
411.155
 30
0.000000
  70
    32
  0
VERTEX
  8
AM_0
  5
163FC
 10
562.914
 20
410.906
 30
0.000000
  70
    32
  0
VERTEX
  8
AM_0
  5
163FD
 10
562.690
 20
410.646
 30
0.000000
  70
    32
  0
VERTEX
  8
AM_0
  5
163FE
 10
562.479
 20
410.375
 30
0.000000
  70
    32
  0
VERTEX
  8
AM_0
  5
163FF
 10
562.281
 20
410.094
 30
0.000000
  70
    32
  0
VERTEX
  8
AM_0
  5
16400
 10
562.097
 20
409.804
 30
0.000000
  70
    32
  0
VERTEX
  8
AM_0
  5
16401
 10
561.928
 20
409.505
 30
0.000000
  70
    32
  0
VERTEX
  8
AM_0
  5
16402
 10
561.773
 20
409.198
 30
0.000000
  70
    32
  0
VERTEX
  8
AM_0
  5
16403
 10
561.634
 20
408.884
 30
0.000000
  70
    32
  0
VERTEX
  8
AM_0
  5
16404
 10
561.510
 20
408.563
 30
0.000000
  70
    32
  0
VERTEX
  8
AM_0
  5
16405
 10
561.403
 20
408.237
 30
0.000000
  70
    32
  0
VERTEX
  8
AM_0
  5
16406
 10
561.311
 20
407.906
 30
0.000000
  70
    32
  0
VERTEX
  8
AM_0
  5
16407
 10
561.236
 20
407.571
 30
0.000000
  70
    32
  0
VERTEX
  8
AM_0
  5
16408
 10
561.177
 20
407.232
 30
0.000000
  70
    32
  0
VERTEX
  8
AM_0
  5
16409
 10
561.135
 20
406.891
 30
0.000000
  70
    32
  0
VERTEX
  8
AM_0
  5
1640A
 10
561.110
 20
406.548
 30
0.000000
  70
    32
  0
VERTEX
  8
AM_0
  5
1640B
 10
561.101
 20
406.205
 30
0.000000
  70
    32
  0
VERTEX
  8
AM_0
  5
1640C
 10
561.110
 20
405.861
 30
0.000000
  70
    32
  0
VERTEX
  8
AM_0
  5
1640D
 10
561.135
 20
405.519
 30
0.000000
  70
    32
  0
VERTEX
  8
AM_0
  5
1640E
 10
561.177
 20
405.178
 30
0.000000
  70
    32
  0
VERTEX
  8
AM_0
  5
1640F
 10
561.236
 20
404.839
 30
0.000000
  70
    32
  0
VERTEX
  8
AM_0
  5
16410
 10
561.311
 20
404.504
 30
0.000000
  70
    32
  0
VERTEX
  8
AM_0
  5
16411
 10
561.403
 20
404.173
 30
0.000000
  70
    32
  0
VERTEX
  8
AM_0
  5
16412
 10
561.510
 20
403.847
 30
0.000000
  70
    32
  0
VERTEX
  8
AM_0
  5
16413
 10
561.634
 20
403.526
 30
0.000000
  70
    32
  0
VERTEX
  8
AM_0
  5
16414
 10
561.773
 20
403.212
 30
0.000000
  70
    32
  0
VERTEX
  8
AM_0
  5
16415
 10
561.928
 20
402.905
 30
0.000000
  70
    32
  0
VERTEX
  8
AM_0
  5
16416
 10
562.097
 20
402.606
 30
0.000000
  70
    32
  0
VERTEX
  8
AM_0
  5
16417
 10
562.281
 20
402.316
 30
0.000000
  70
    32
  0
VERTEX
  8
AM_0
  5
16418
 10
562.479
 20
402.035
 30
0.000000
  70
    32
  0
VERTEX
  8
AM_0
  5
16419
 10
562.690
 20
401.764
 30
0.000000
  70
    32
  0
VERTEX
  8
AM_0
  5
1641A
 10
562.914
 20
401.504
 30
0.000000
  70
    32
  0
VERTEX
  8
AM_0
  5
1641B
 10
563.151
 20
401.255
 30
0.000000
  70
    32
  0
VERTEX
  8
AM_0
  5
1641C
 10
563.400
 20
401.018
 30
0.000000
  70
    32
  0
VERTEX
  8
AM_0
  5
1641D
 10
563.660
 20
400.794
 30
0.000000
  70
    32
  0
VERTEX
  8
AM_0
  5
1641E
 10
563.931
 20
400.582
 30
0.000000
  70
    32
  0
VERTEX
  8
AM_0
  5
1641F
 10
564.212
 20
400.385
 30
0.000000
  70
    32
  0
VERTEX
  8
AM_0
  5
16420
 10
564.502
 20
400.201
 30
0.000000
  70
    32
  0
VERTEX
  8
AM_0
  5
16421
 10
564.801
 20
400.031
 30
0.000000
  70
    32
  0
VERTEX
  8
AM_0
  5
16422
 10
565.108
 20
399.877
 30
0.000000
  70
    32
  0
VERTEX
  8
AM_0
  5
16423
 10
565.422
 20
399.738
 30
0.000000
  70
    32
  0
VERTEX
  8
AM_0
  5
16424
 10
565.743
 20
399.614
 30
0.000000
  70
    32
  0
VERTEX
  8
AM_0
  5
16425
 10
566.069
 20
399.506
 30
0.000000
  70
    32
  0
VERTEX
  8
AM_0
  5
16426
 10
566.400
 20
399.415
 30
0.000000
  70
    32
  0
VERTEX
  8
AM_0
  5
16427
 10
566.736
 20
399.339
 30
0.000000
  70
    32
  0
VERTEX
  8
AM_0
  5
16428
 10
567.074
 20
399.281
 30
0.000000
  70
    32
  0
VERTEX
  8
AM_0
  5
16429
 10
567.415
 20
399.238
 30
0.000000
  70
    32
  0
VERTEX
  8
AM_0
  5
1642A
 10
567.758
 20
399.213
 30
0.000000
  70
    32
  0
VERTEX
  8
AM_0
  5
1642B
 10
568.101
 20
399.205
 30
0.000000
  70
    32
  0
VERTEX
  8
AM_0
  5
1642C
 10
568.445
 20
399.213
 30
0.000000
  70
    32
  0
VERTEX
  8
AM_0
  5
1642D
 10
568.787
 20
399.238
 30
0.000000
  70
    32
  0
VERTEX
  8
AM_0
  5
1642E
 10
569.128
 20
399.281
 30
0.000000
  70
    32
  0
VERTEX
  8
AM_0
  5
1642F
 10
569.467
 20
399.339
 30
0.000000
  70
    32
  0
VERTEX
  8
AM_0
  5
16430
 10
569.802
 20
399.415
 30
0.000000
  70
    32
  0
VERTEX
  8
AM_0
  5
16431
 10
570.133
 20
399.506
 30
0.000000
  70
    32
  0
VERTEX
  8
AM_0
  5
16432
 10
570.459
 20
399.614
 30
0.000000
  70
    32
  0
VERTEX
  8
AM_0
  5
16433
 10
570.780
 20
399.738
 30
0.000000
  70
    32
  0
VERTEX
  8
AM_0
  5
16434
 10
571.094
 20
399.877
 30
0.000000
  70
    32
  0
VERTEX
  8
AM_0
  5
16435
 10
571.401
 20
400.031
 30
0.000000
  70
    32
  0
VERTEX
  8
AM_0
  5
16436
 10
571.700
 20
400.201
 30
0.000000
  70
    32
  0
VERTEX
  8
AM_0
  5
16437
 10
571.990
 20
400.385
 30
0.000000
  70
    32
  0
VERTEX
  8
AM_0
  5
16438
 10
572.271
 20
400.582
 30
0.000000
  70
    32
  0
VERTEX
  8
AM_0
  5
16439
 10
572.542
 20
400.794
 30
0.000000
  70
    32
  0
VERTEX
  8
AM_0
  5
1643A
 10
572.802
 20
401.018
 30
0.000000
  70
    32
  0
VERTEX
  8
AM_0
  5
1643B
 10
573.051
 20
401.255
 30
0.000000
  70
    32
  0
VERTEX
  8
AM_0
  5
1643C
 10
573.288
 20
401.504
 30
0.000000
  70
    32
  0
VERTEX
  8
AM_0
  5
1643D
 10
573.512
 20
401.764
 30
0.000000
  70
    32
  0
VERTEX
  8
AM_0
  5
1643E
 10
573.724
 20
402.035
 30
0.000000
  70
    32
  0
VERTEX
  8
AM_0
  5
1643F
 10
573.921
 20
402.316
 30
0.000000
  70
    32
  0
VERTEX
  8
AM_0
  5
16440
 10
574.105
 20
402.606
 30
0.000000
  70
    32
  0
VERTEX
  8
AM_0
  5
16441
 10
574.275
 20
402.905
 30
0.000000
  70
    32
  0
VERTEX
  8
AM_0
  5
16442
 10
574.429
 20
403.212
 30
0.000000
  70
    32
  0
VERTEX
  8
AM_0
  5
16443
 10
574.568
 20
403.526
 30
0.000000
  70
    32
  0
VERTEX
  8
AM_0
  5
16444
 10
574.692
 20
403.847
 30
0.000000
  70
    32
  0
VERTEX
  8
AM_0
  5
16445
 10
574.800
 20
404.173
 30
0.000000
  70
    32
  0
VERTEX
  8
AM_0
  5
16446
 10
574.891
 20
404.504
 30
0.000000
  70
    32
  0
VERTEX
  8
AM_0
  5
16447
 10
574.967
 20
404.839
 30
0.000000
  70
    32
  0
VERTEX
  8
AM_0
  5
16448
 10
575.025
 20
405.178
 30
0.000000
  70
    32
  0
VERTEX
  8
AM_0
  5
16449
 10
575.067
 20
405.519
 30
0.000000
  70
    32
  0
VERTEX
  8
AM_0
  5
1644A
 10
575.093
 20
405.861
 30
0.000000
  70
    32
  0
VERTEX
  8
AM_0
  5
1644B
 10
575.101
 20
406.205
 30
0.000000
  70
    32
  0
SEQEND
  8
AM_0
  5
1644C
  0
CIRCLE
  5
12A45
  8
AM_0
 10
508.10115204873938
 20
341.20360373338121
 30
0.0
 40
50.0
  0
LINE
  5
12A47
  8
AM_0
 10
403.3269159755958
 20
291.2026025412647
 30
0.0
 11
400.29188691202103
 21
300.06395529588139
 31
0.0
  0
LINE
  5
12A48
  8
AM_0
 10
575.10115204873978
 20
314.5685253032056
 30
0.0
 11
575.10115204873978
 21
367.83868979295181
 31
0.0
  0
LINE
  5
12A4A
  8
AM_0
 10
573.10115430641372
 20
291.2026025412647
 30
0.0
 11
541.26589054892906
 21
291.2026025412647
 31
0.0
  0
ARC
  5
12A4B
  8
AM_0
 10
575.10115204873944
 20
295.20360373338139
 30
0.0
 40
15.0
 50
104.4775098426155
 51
161.0935762502518
  0
ARC
  5
12A4C
  8
AM_0
 10
575.10115204873944
 20
295.20360373338139
 30
0.0
 40
7.5
 50
90.000005008956919
 51
212.2399949315205
  0
LINE
  5
12A4D
  8
AM_0
 10
557.8753881218837
 20
291.2026025412647
 30
0.0
 11
560.91041718545853
 21
300.06395529588139
 31
0.0
  0
LINE
  5
12A4E
  8
AM_0N
 10
571.40850429102375
 20
295.20360373338139
 30
0.0
 11
573.14055509859281
 21
292.20360373338139
 31
0.0
  0
LINE
  5
12A4F
  8
AM_0N
 10
573.14055509859281
 20
292.20360373338139
 30
0.0
 11
576.60465671373049
 21
292.20360373338139
 31
0.0
  0
LINE
  5
12A50
  8
AM_0N
 10
576.60465671373015
 20
298.20360373338161
 30
0.0
 11
573.14055509859304
 21
298.20360373338161
 31
0.0
  0
LINE
  5
12A51
  8
AM_0N
 10
573.14055509859304
 20
298.20360373338161
 30
0.0
 11
571.40850429102375
 21
295.20360373338139
 31
0.0
  0
ARC
  5
12A52
  8
AM_0
 10
570.10115204873944
 20
314.5685253032056
 30
0.0
 40
5.0
 50
284.47751143647088
 51
0.0000025044687019
  0
ARC
  5
12A56
  8
AM_0
 10
575.10115204873944
 20
387.20360373338133
 30
0.0
 40
14.999999999999989
 50
198.9064187407908
 51
255.52248856352901
  0
ARC
  5
12A57
  8
AM_0
 10
570.10115204873944
 20
367.83868979295181
 30
0.0
 40
5.0000000000000044
 50
0.0000025044687019
 51
75.522490157384439
  0
LINE
  5
12A58
  8
AM_0N
 10
571.46741847559395
 20
387.20360373338133
 30
0.0
 11
573.19946928316313
 21
384.20360373338133
 31
0.0
  0
LINE
  5
12A59
  8
AM_0N
 10
573.19946928316313
 20
384.20360373338133
 30
0.0
 11
576.6635708983008
 21
384.20360373338133
 31
0.0
  0
LINE
  5
12A5A
  8
AM_0N
 10
576.66357089830035
 20
390.20360373338173
 30
0.0
 11
573.19946928316324
 21
390.20360373338173
 31
0.0
  0
LINE
  5
12A5B
  8
AM_0N
 10
573.19946928316324
 20
390.20360373338173
 30
0.0
 11
571.46741847559395
 21
387.20360373338133
 31
0.0
  0
ARC
  5
12A5C
  8
AM_0
 10
492.4660812479583
 20
408.20360373338121
 30
0.0
 40
4.9999999999999911
 50
90.000005008956919
 51
165.52248583168009
  0
LINE
  5
12A5D
  8
AM_0
 10
414.43423615518498
 20
413.20360373338133
 30
0.0
 11
453.73623810830992
 21
413.20360373338133
 31
0.0
  0
ARC
  5
12A5E
  8
AM_0
 10
414.43423615518469
 20
408.20360373338121
 30
0.0
 40
4.9999999999999911
 50
90.000005008956919
 51
161.0935726077808
  0
ARC
  5
12A5F
  8
AM_0
 10
463.60115204873949
 20
419.20360373338133
 30
0.0
 40
2.0000000000000022
 50
0.0000025044687019
 51
90.000005008956919
  0
ARC
  5
12A60
  8
AM_0
 10
453.73623810830981
 20
408.20360373338121
 30
0.0
 40
5.0000000000000044
 50
14.47751052586414
 51
90.000005008956919
  0
ARC
  5
12A61
  8
AM_0
 10
482.60115204873938
 20
419.20360373338133
 30
0.0
 40
2.0000000000000062
 50
90.000005008956919
 51
180.000000683243
  0
LINE
  5
12A62
  8
AM_0N
 10
469.57854060694171
 20
413.20360373338133
 30
0.0
 11
471.31059141451061
 21
410.20360373338133
 31
0.0
  0
LINE
  5
12A63
  8
AM_0N
 10
471.31059141451061
 20
410.20360373338133
 30
0.0
 11
474.77469302964829
 21
410.20360373338133
 31
0.0
  0
LINE
  5
12A64
  8
AM_0N
 10
474.77469302964818
 20
416.20360373338161
 30
0.0
 11
471.31059141451101
 21
416.20360373338161
 31
0.0
  0
LINE
  5
12A65
  8
AM_0N
 10
471.31059141451101
 20
416.20360373338161
 30
0.0
 11
469.57854060694171
 21
413.20360373338133
 31
0.0
  0
CIRCLE
  5
12A66
  8
AM_0N
 10
473.04264222207962
 20
413.20360373338133
 30
0.0
 40
3.4641016151377491
  0
LINE
  5
12A67
  8
AM_0N
 10
474.77469302964829
 20
410.20360373338133
 30
0.0
 11
476.50674383721741
 21
413.20360373338133
 31
0.0
  0
LINE
  5
12A68
  8
AM_0N
 10
476.50674383721741
 20
413.20360373338133
 30
0.0
 11
474.77469302964818
 21
416.20360373338161
 31
0.0
  0
LINE
  5
12A69
  8
AM_0
 10
465.60115204873972
 20
413.20360373338133
 30
0.0
 11
465.60115204873972
 21
419.20360373338133
 31
0.0
  0
LINE
  5
12A6A
  8
AM_0
 10
480.60115204873961
 20
413.20360373338133
 30
0.0
 11
480.60115204873961
 21
419.20360373338133
 31
0.0
  0
LINE
  5
12A6C
  8
AM_0
 10
492.46608124795853
 20
413.20360373338133
 30
0.0
 11
546.62053071084915
 21
413.20360373338133
 31
0.0
  0
ARC
  5
12A6D
  8
AM_0
 10
546.76805268350495
 20
408.20360373338121
 30
0.0
 40
4.9999999999999716
 50
18.9064237497482
 51
90.000005008956919
  0
LINE
  5
12A78
  8
AM_0
 10
583.1011543064136
 20
406.20490567057101
 30
0.0
 11
583.1011543064136
 21
241.2036037333813
 31
0.0
  0
LINE
  5
12A80
  8
AM_0N
 10
577.10115385487882
 20
271.00614937348479
 30
0.0
 11
577.10115385487882
 21
281.39845421889828
 31
0.0
  0
LINE
  5
12A81
  8
AM_0
 10
580.69963991211819
 20
287.70360373338139
 30
0.0
 11
581.10115204873966
 21
287.70360373338139
 31
0.0
  0
ARC
  5
12A82
  8
AM_0
 10
581.10115204873944
 20
285.7036037333815
 30
0.0
 40
2.0000000000000022
 50
0.0000025044687019
 51
90.000005008956919
  0
ARC
  5
12B07
  8
AM_0
 10
581.10115204873944
 20
304.7036037333815
 30
0.0
 40
2.0
 50
270.0
 51
0.0000025044687019
  0
ARC
  5
12B08
  8
AM_0
 10
581.10115204873944
 20
377.70360373338133
 30
0.0
 40
2.0000000000000022
 50
0.0000025044687019
 51
90.000005008956919
  0
ARC
  5
12B09
  8
AM_0
 10
581.10115204873944
 20
396.70360373338133
 30
0.0
 40
2.0
 50
270.0
 51
0.0000025044687019
  0
LINE
  5
148A5
  8
AM_0
 10
196.1011786857762
 20
265.78329319542189
 30
0.0
 11
196.10117868577771
 21
380.6332931977189
 31
0.0
  0
LINE
  5
148A6
  8
AM_0
 10
342.10117868869793
 20
383.70327319777863
 30
0.0
 11
342.10117843244882
 21
260.20327289500068
 31
0.0
  0
LINE
  5
148A9
  8
AM_0
 10
188.60117868562699
 20
303.20327319617041
 30
0.0
 11
188.60117868562759
 21
343.20327319697049
 31
0.0
  0
LINE
  5
148AA
  8
AM_0
 10
190.10117868565629
 20
275.18368319561
 30
0.0
 11
190.10117868565689
 21
318.20327319647049
 31
0.0
  0
LINE
  5
148B2
  8
AM_0
 10
202.43118868590369
 20
309.51327319629661
 30
0.0
 11
274.83120535706718
 21
309.51327319629559
 31
0.0
  0
LINE
  5
148B3
  8
AM_0
 10
273.54121088177209
 20
309.20327319628927
 30
0.0
 11
203.65119868592799
 21
309.2032731962903
 31
0.0
  0
LINE
  5
148B4
  8
AM_0
 10
273.54121088177197
 20
307.2032731962492
 30
0.0
 11
203.65119868592799
 21
307.20327319625028
 31
0.0
  0
LINE
  5
148B5
  8
AM_0
 10
202.43118868590361
 20
306.85329319624333
 30
0.0
 11
274.83120535706712
 21
306.8532931962423
 31
0.0
  0
LINE
  5
148B6
  8
AM_0
 10
243.1011786867177
 20
369.5532831974968
 30
0.0
 11
206.10117868597769
 21
367.40728135802419
 31
0.0
  0
LINE
  5
148B7
  8
AM_0
 10
211.78119868609099
 20
356.57326319723779
 30
0.0
 11
276.10117868737763
 21
356.57326319723688
 31
0.0
  0
LINE
  5
148B8
  8
AM_0
 10
276.10117868737763
 20
359.20327319728949
 30
0.0
 11
212.65119868610839
 21
359.20327319729029
 31
0.0
  0
LINE
  5
148B9
  8
AM_0
 10
276.10117868737763
 20
357.20327319724919
 30
0.0
 11
212.6511986861083
 21
357.20327319725021
 31
0.0
  0
LINE
  5
148BA
  8
AM_0
 10
211.7811986860911
 20
359.92327319730492
 30
0.0
 11
276.10117868737768
 21
359.92327319730379
 31
0.0
  0
LINE
  5
148BB
  8
AM_0
 10
221.10117868627779
 20
389.12328319788838
 30
0.0
 11
262.10117868709767
 21
389.12328319788799
 31
0.0
  0
LINE
  5
148BC
  8
AM_0
 10
221.10117868627779
 20
388.44329319787499
 30
0.0
 11
262.10117868709767
 21
388.44329319787431
 31
0.0
  0
LINE
  5
148BD
  8
AM_0
 10
221.10117868627779
 20
387.09328319784782
 30
0.0
 11
262.10117868709767
 21
387.09328319784731
 31
0.0
  0
LINE
  5
148BE
  8
AM_0
 10
221.10117868627779
 20
385.0632931978073
 30
0.0
 11
276.10117868737802
 21
385.06329319780662
 31
0.0
  0
LINE
  5
148BF
  8
AM_0
 10
273.54293863093909
 20
339.20327319688931
 30
0.0
 11
203.66120868592839
 21
339.20327319689039
 31
0.0
  0
LINE
  5
148C0
  8
AM_0
 10
273.5438621307058
 20
337.20327319684941
 30
0.0
 11
203.66120868592839
 21
337.20327319685032
 31
0.0
  0
LINE
  5
148C1
  8
AM_0
 10
273.5412074763359
 20
329.20327319668922
 30
0.0
 11
203.6612086859283
 21
329.20327319669019
 31
0.0
  0
LINE
  5
148C2
  8
AM_0
 10
273.54120747633419
 20
327.20327319664921
 30
0.0
 11
203.6612086859283
 21
327.20327319665017
 31
0.0
  0
LINE
  5
148C3
  8
AM_0
 10
202.43118868590409
 20
339.54327319689708
 30
0.0
 11
274.63639195488491
 21
339.54327319689611
 31
0.0
  0
LINE
  5
148C4
  8
AM_0
 10
202.43118868590409
 20
336.88329319684402
 30
0.0
 11
274.63639195488491
 21
336.88329319684289
 31
0.0
  0
LINE
  5
148C5
  8
AM_0
 10
202.37119868590241
 20
329.47329319669581
 30
0.0
 11
274.63639195488469
 21
329.47329319669478
 31
0.0
  0
LINE
  5
148C6
  8
AM_0
 10
202.37119868590241
 20
326.94329319664519
 30
0.0
 11
274.63639195488469
 21
326.94329319664422
 31
0.0
  0
LINE
  5
148C7
  8
AM_0
 10
202.36118868590211
 20
319.46328319649558
 30
0.0
 11
274.83120535706729
 21
319.46328319649461
 31
0.0
  0
LINE
  5
148C8
  8
AM_0
 10
273.5412108817722
 20
319.20327319648942
 30
0.0
 11
203.65119868592811
 21
319.20327319649039
 31
0.0
  0
LINE
  5
148C9
  8
AM_0
 10
273.5412108817722
 20
317.2032731964494
 30
0.0
 11
203.65119868592799
 21
317.20327319645043
 31
0.0
  0
LINE
  5
148CA
  8
AM_0
 10
202.36118868590211
 20
316.92327319644471
 30
0.0
 11
274.83120535706729
 21
316.92327319644369
 31
0.0
  0
LINE
  5
148CB
  8
AM_0
 10
304.61213297477502
 20
349.203273197089
 30
0.0
 11
212.65119868610819
 21
349.20327319709031
 31
0.0
  0
LINE
  5
148CC
  8
AM_0
 10
211.5611986860867
 20
349.69329319709999
 30
0.0
 11
305.46140051609967
 21
349.69329319709868
 31
0.0
  0
LINE
  5
148CF
  8
AM_0
 10
339.0259647751613
 20
347.20327319704847
 30
0.0
 11
212.65119868610819
 21
347.20327319705041
 31
0.0
  0
LINE
  5
148D0
  8
AM_0
 10
211.56119868608661
 20
346.76327319704143
 30
0.0
 11
340.11596472282292
 21
346.7632731970395
 31
0.0
  0
LINE
  5
148D3
  8
AM_0
 10
206.10117868597769
 20
371.55328319753721
 30
0.0
 11
206.1011786859776
 21
357.51327319725652
 31
0.0
  0
ARC
  5
148D4
  8
AM_0
 10
205.26615868596099
 20
364.80105319740233
 30
0.0
 40
5.0078936001001573
 50
279.59871999999331
 51
354.52531999999968
  0
LINE
  5
148D5
  8
AM_0
 10
190.1011786856576
 20
371.22289319753099
 30
0.0
 11
190.10117868565709
 21
328.20327319667041
 31
0.0
  0
LINE
  5
148D6
  8
AM_0
 10
204.27118868594121
 20
381.47329319773581
 30
0.0
 11
217.6011786862079
 21
381.47329319773581
 31
0.0
  0
LINE
  5
148D7
  8
AM_0
 10
204.33118868594241
 20
376.1832831976302
 30
0.0
 11
217.60117868620779
 21
376.18328319762958
 31
0.0
  0
LINE
  5
148D8
  8
AM_0
 10
204.24118868594061
 20
384.8732831978038
 30
0.0
 11
217.60117868620799
 21
384.8732831978034
 31
0.0
  0
LINE
  5
148D9
  8
AM_0
 10
204.21118868594019
 20
386.5032931978364
 30
0.0
 11
217.71118868621011
 21
386.503293197836
 31
0.0
  0
LINE
  5
148DA
  8
AM_0
 10
202.32120868590229
 20
379.89327319770399
 30
0.0
 11
201.36118868588301
 21
375.42327319761472
 31
0.0
  0
ARC
  5
148DB
  8
AM_0
 10
199.91037868585391
 20
379.80608319770249
 30
0.0
 40
1.502808100030055
 50
270.03078999999428
 51
346.42217999999627
  0
ARC
  5
148DC
  8
AM_0
 10
199.92948868585441
 20
381.830383197743
 30
0.0
 40
1.5070969000301411
 50
270.06482000000102
 51
345.902180000003
  0
LINE
  5
148DD
  8
AM_0
 10
199.93118868585461
 20
380.32326319771278
 30
0.0
 11
201.5811886858875
 21
380.32326319771278
 31
0.0
  0
LINE
  5
148DE
  8
AM_0
 10
199.91120868585389
 20
378.30328319767227
 30
0.0
 11
201.9711986858953
 21
378.30328319767227
 31
0.0
  0
LINE
  5
148DF
  8
AM_0
 10
196.10117868577771
 20
380.58366089557398
 30
0.0
 11
200.9211886858744
 21
380.70327319772042
 31
0.0
  0
ARC
  5
148E0
  8
AM_0
 10
204.27286868594129
 20
379.4779031976957
 30
0.0
 40
1.9953895000399069
 50
90.048066999990425
 51
167.98461999999901
  0
ARC
  5
148E1
  8
AM_0
 10
204.2339886859406
 20
382.8778031977638
 30
0.0
 40
1.9954823000399089
 50
89.793457999998324
 51
166.8059200000003
  0
LINE
  5
148E2
  8
AM_0
 10
202.29120868590169
 20
383.33327319777283
 30
0.0
 11
201.3711986858834
 21
379.4532731976953
 31
0.0
  0
LINE
  5
148E3
  8
AM_0
 10
202.27121868590129
 20
384.99328319780602
 30
0.0
 11
201.39121868588381
 21
381.4632831977359
 31
0.0
  0
ARC
  5
148E4
  8
AM_0
 10
204.20850868594019
 20
384.50548319779671
 30
0.0
 40
1.9977812000399551
 50
89.923080999996955
 51
165.86776999999611
  0
LINE
  5
148E5
  8
AM_0
 10
199.89118868585351
 20
374.24328319759093
 30
0.0
 11
202.3111986859019
 21
374.24328319759093
 31
0.0
  0
LINE
  5
148E6
  8
AM_0
 10
196.1011786857776
 20
365.89327319742438
 30
0.0
 11
206.10117868597769
 21
365.89327319742421
 31
0.0
  0
LINE
  5
148E7
  8
AM_0
 10
196.1011786857776
 20
371.55328319753738
 30
0.0
 11
206.10117868597769
 21
371.55328319753721
 31
0.0
  0
ARC
  5
148E8
  8
AM_0
 10
199.89240868585361
 20
375.74743319762121
 30
0.0
 40
1.504139800030081
 50
269.95425000000432
 51
347.55524999999579
  0
LINE
  5
148E9
  8
AM_0
 10
192.38117868570339
 20
370.84328319752342
 30
0.0
 11
196.1011786857776
 21
370.84328319752342
 31
0.0
  0
LINE
  5
148EA
  8
AM_0
 10
192.3611886857029
 20
369.70327319750061
 30
0.0
 11
195.10117868575759
 21
369.70327319750061
 31
0.0
  0
LINE
  5
148EB
  8
AM_0
 10
191.8811786856933
 20
369.5832731974981
 30
0.0
 11
190.6411886856682
 21
368.92330319748459
 31
0.0
  0
ARC
  5
148EC
  8
AM_0
 10
191.10016868567749
 20
369.05782319748761
 30
0.0
 40
0.99898326001998
 50
119.9653599999951
 51
179.68761000000021
  0
ARC
  5
148ED
  8
AM_0
 10
191.1061786856778
 20
368.03225319746713
 30
0.0
 40
1.0050608000201
 50
117.5588099999943
 51
179.37160000000031
  0
LINE
  5
148EE
  8
AM_0
 10
191.8811786856933
 20
370.70330319752043
 30
0.0
 11
190.6011786856678
 21
369.92330319750511
 31
0.0
  0
LINE
  5
148EF
  8
AM_0
 10
192.10117868569759
 20
370.58327319751822
 30
0.0
 11
192.10117868569759
 21
370.04327319750718
 31
0.0
  0
ARC
  5
148F0
  8
AM_0
 10
192.39469868570359
 20
369.83218319750313
 30
0.0
 40
1.011208500020224
 50
90.765686999991829
 51
120.5188100000114
  0
ARC
  5
148F1
  8
AM_0
 10
192.3594786857029
 20
368.69009319748011
 30
0.0
 40
1.0131912000202621
 50
89.903723999998036
 51
118.16875999999991
  0
ARC
  5
148F2
  8
AM_0
 10
195.09412868575771
 20
368.69622319748032
 30
0.0
 40
1.0070832000201411
 50
0.4015779800000378
 51
89.598422000000596
  0
LINE
  5
148F3
  8
AM_0
 10
192.34119868570249
 20
371.8032831975425
 30
0.0
 11
195.60117868576779
 21
371.8032831975425
 31
0.0
  0
LINE
  5
148F4
  8
AM_0
 10
192.38117868570339
 20
372.94329319756531
 30
0.0
 11
195.60117868576779
 21
372.94329319756531
 31
0.0
  0
ARC
  5
148F5
  8
AM_0
 10
191.10834868567801
 20
371.2131031975307
 30
0.0
 40
1.007194200020143
 50
120.2334199999971
 51
180.5576799999991
  0
LINE
  5
148F6
  8
AM_0
 10
191.90119868569371
 20
371.68328319754011
 30
0.0
 11
190.661178685669
 21
371.06329319752763
 31
0.0
  0
LINE
  5
148F7
  8
AM_0
 10
191.88120868569311
 20
372.80328319756251
 30
0.0
 11
190.6012086856677
 21
372.0832731975479
 31
0.0
  0
LINE
  5
148F8
  8
AM_0
 10
192.10117868569759
 20
372.68328319756012
 30
0.0
 11
192.10117868569759
 21
372.16329319754982
 31
0.0
  0
ARC
  5
148F9
  8
AM_0
 10
192.39206868570349
 20
371.94152319754522
 30
0.0
 40
1.001808000020036
 50
90.622819999990043
 51
120.6616699999956
  0
ARC
  5
148FA
  8
AM_0
 10
192.37876868570311
 20
370.79885319752219
 30
0.0
 40
1.005138300020102
 50
92.142290999990138
 51
118.3679399999955
  0
ARC
  5
148FB
  8
AM_0
 10
191.10422868567761
 20
370.16338319750992
 30
0.0
 40
1.0030519000200611
 50
116.2126500000081
 51
180.00576999999689
  0
LINE
  5
148FC
  8
AM_0
 10
192.4011986857036
 20
366.32326319743288
 30
0.0
 11
196.1011786857776
 21
366.32326319743288
 31
0.0
  0
LINE
  5
148FD
  8
AM_0
 10
192.3811786857033
 20
365.18328319741022
 30
0.0
 11
195.10117868575759
 21
365.18328319741022
 31
0.0
  0
ARC
  5
148FE
  8
AM_0
 10
191.10291868567759
 20
364.46065319739569
 30
0.0
 40
1.001733900020034
 50
122.73763000000341
 51
179.85046000000179
  0
LINE
  5
148FF
  8
AM_0
 10
191.86118868569281
 20
366.16329319742982
 30
0.0
 11
190.56116868566679
 21
365.30331319741259
 31
0.0
  0
LINE
  5
14900
  8
AM_0
 10
192.10117868569759
 20
366.02328319742668
 30
0.0
 11
192.10117868569759
 21
365.54327319741719
 31
0.0
  0
LINE
  5
14901
  8
AM_0
 10
191.88120868569311
 20
365.04327319740707
 30
0.0
 11
190.60120868566759
 21
364.30324319739248
 31
0.0
  0
ARC
  5
14902
  8
AM_0
 10
192.4068386857038
 20
365.31298319741268
 30
0.0
 40
1.010318000020205
 50
90.320139999993984
 51
122.6885800000058
  0
ARC
  5
14903
  8
AM_0
 10
192.39343868570339
 20
364.17663319738989
 30
0.0
 40
1.0067360000201351
 50
90.698060999997708
 51
120.5864300000007
  0
ARC
  5
14904
  8
AM_0
 10
195.09577868575741
 20
364.17788319738997
 30
0.0
 40
1.005422700020107
 50
0.3081923800013024
 51
89.691811000005316
  0
ARC
  5
14905
  8
AM_0
 10
191.10672868567769
 20
363.43401319737518
 30
0.0
 40
1.00559290002011
 50
120.1813300000066
 51
179.47162000000031
  0
ARC
  5
14906
  8
AM_0
 10
209.25110868604051
 20
364.41344319739437
 30
0.0
 40
1.004136700020082
 50
354.84883999999471
 51
45.797436000001021
  0
ARC
  5
14907
  8
AM_0
 10
205.72238868597029
 20
360.87133319732362
 30
0.0
 40
6.0039072001200786
 50
45.223693000010087
 51
86.382714000001329
  0
LINE
  5
14908
  8
AM_0
 10
201.82120868589209
 20
371.55331319753731
 30
0.0
 11
202.361218685903
 21
374.54330319759742
 31
0.0
  0
ARC
  5
14909
  8
AM_0
 10
204.32303868594209
 20
374.18987319758998
 30
0.0
 40
1.9934334000398679
 50
89.765884000004974
 51
169.7880299999994
  0
ARC
  5
1490A
  8
AM_0
 10
217.59552868620781
 20
377.68896319765992
 30
0.0
 40
1.505674500030113
 50
270.21551999999161
 51
359.78447000000023
  0
LINE
  5
1490B
  8
AM_0
 10
219.10117868623789
 20
385.09328319780792
 30
0.0
 11
219.10117868623769
 21
377.6832831976597
 31
0.0
  0
ARC
  5
1490C
  8
AM_0
 10
221.0975786862779
 20
383.06689319776729
 30
0.0
 40
1.9963853000399261
 50
89.896163000005757
 51
180.10384000000181
  0
ARC
  5
1490D
  8
AM_0
 10
217.59940868620779
 20
382.97509319776577
 30
0.0
 40
1.501797900030035
 50
270.06854999999808
 51
359.93145000000032
  0
ARC
  5
1490E
  8
AM_0
 10
221.1036786862781
 20
387.12844319784841
 30
0.0
 40
1.9948452000398971
 50
90.071658000003609
 51
165.6371999999991
  0
ARC
  5
1490F
  8
AM_0
 10
221.0957486862778
 20
386.44872319783479
 30
0.0
 40
1.9945769000398901
 50
89.844007999999235
 51
180.15598999999551
  0
ARC
  5
14910
  8
AM_0
 10
217.71482868621021
 20
388.01015319786649
 30
0.0
 40
1.5068883000301361
 50
269.8622299999987
 51
345.12307000000169
  0
ARC
  5
14911
  8
AM_0
 10
217.59735868620791
 20
386.37713319783347
 30
0.0
 40
1.5038475000300759
 50
270.14639999998923
 51
359.85360000000259
  0
ARC
  5
14912
  8
AM_0
 10
221.09839868627799
 20
385.09606319780789
 30
0.0
 40
1.9972084000399439
 50
89.919856999999624
 51
180.0801399999981
  0
LINE
  5
14913
  8
AM_0
 10
188.60117868562759
 20
343.20330319697058
 30
0.0
 11
190.10117868565729
 21
343.3233031969728
 31
0.0
  0
LINE
  5
14914
  8
AM_0
 10
187.6072786856075
 20
338.42513319687498
 30
0.0
 11
187.6072786856069
 21
307.98150319626609
 31
0.0
  0
LINE
  5
14915
  8
AM_0
 10
187.6072786856075
 20
338.42510319687511
 30
0.0
 11
188.10727868561759
 21
341.19509319693071
 31
0.0
  0
LINE
  5
14916
  8
AM_0
 10
188.10727868561759
 20
341.19509319693071
 30
0.0
 11
188.60730868562729
 21
341.1550831969297
 31
0.0
  0
POINT
  5
14917
  8
AM_0
 10
187.6072786856073
 20
323.20327319657059
 30
0.0
  0
LINE
  5
14918
  8
AM_0
 10
187.6072786856069
 20
307.98150319626609
 30
0.0
 11
188.10727868561699
 21
305.21148319621062
 31
0.0
  0
LINE
  5
14919
  8
AM_0
 10
188.10727868561699
 20
305.21148319621062
 30
0.0
 11
188.60727868562711
 21
305.25149319621141
 31
0.0
  0
ARC
  5
1491A
  8
AM_0
 10
211.56119868608661
 20
348.22829319707091
 30
0.0
 40
1.465000400029298
 50
90.000002999996894
 51
269.9999999999992
  0
ARC
  5
1491B
  8
AM_0
 10
211.78119868609099
 20
358.24828319727112
 30
0.0
 40
1.6750063000334989
 50
90.000002999996894
 51
269.9999999999992
  0
LINE
  5
1491C
  8
AM_0
 10
192.10117868569739
 20
348.82326319708272
 30
0.0
 11
192.10117868569739
 21
347.46328319705572
 31
0.0
  0
ARC
  5
1491D
  8
AM_0
 10
191.1102686856776
 20
348.19418319707029
 30
0.0
 40
1.0091312000201811
 50
90.516126000000256
 51
179.48386999999951
  0
LINE
  5
1491E
  8
AM_0
 10
196.1011786857774
 20
357.51327319725669
 30
0.0
 11
206.1011786859776
 21
357.51327319725652
 31
0.0
  0
LINE
  5
1491F
  8
AM_0
 10
195.10117868575739
 20
349.20327319709048
 30
0.0
 11
191.10117868567761
 21
349.20327319709048
 31
0.0
  0
ARC
  5
14920
  8
AM_0
 10
195.11020868575761
 20
350.19424319711021
 30
0.0
 40
0.9910124500198204
 50
269.47800000000348
 51
0.5220023799994589
  0
ARC
  5
14921
  8
AM_0
 10
191.1056286856776
 20
355.57995319721817
 30
0.0
 40
1.0044501000200889
 50
106.4503499999952
 51
179.80984999999939
  0
ARC
  5
14922
  8
AM_0
 10
195.09488868575721
 20
355.93697319722509
 30
0.0
 40
1.0063295000201249
 50
0.3592537600030283
 51
89.640748000000215
  0
LINE
  5
14923
  8
AM_0
 10
192.32117868570199
 20
358.8832931972841
 30
0.0
 11
195.40119868576349
 21
358.8832931972841
 31
0.0
  0
LINE
  5
14924
  8
AM_0
 10
192.2611786857008
 20
356.94329319724528
 30
0.0
 11
195.10117868575759
 21
356.94329319724528
 31
0.0
  0
ARC
  5
14925
  8
AM_0
 10
191.10071868567749
 20
357.35860319725367
 30
0.0
 40
0.999532700019991
 50
112.3150499999997
 51
179.73186999999911
  0
LINE
  5
14926
  8
AM_0
 10
191.92118868569401
 20
358.8032831972825
 30
0.0
 11
190.72119868566989
 21
358.28329319727209
 31
0.0
  0
LINE
  5
14927
  8
AM_0
 10
192.1011786856975
 20
358.583273197278
 30
0.0
 11
192.1011786856975
 21
357.52328319725677
 31
0.0
  0
ARC
  5
14928
  8
AM_0
 10
192.24384868570019
 20
355.92828319722503
 30
0.0
 40
1.015145100020302
 50
89.021618999998324
 51
106.1676700000047
  0
LINE
  5
14929
  8
AM_0
 10
191.96118868569491
 20
356.90328319724449
 30
0.0
 11
190.82117868567181
 21
356.54330319723732
 31
0.0
  0
ARC
  5
1492A
  8
AM_0
 10
192.31442868570161
 20
357.87707319726383
 30
0.0
 40
1.006237100020124
 50
89.615244000001653
 51
113.00461999999931
  0
LINE
  5
1492B
  8
AM_0
 10
195.1011786857573
 20
337.20327319685038
 30
0.0
 11
191.1011786856775
 21
337.20327319685038
 31
0.0
  0
ARC
  5
1492C
  8
AM_0
 10
191.0933986856771
 20
338.19546319687038
 30
0.0
 40
0.9922232600198446
 50
179.54915999999619
 51
270.4508500000066
  0
ARC
  5
1492D
  8
AM_0
 10
195.09329868575711
 20
336.19540319683028
 30
0.0
 40
1.007920400020158
 50
0.4484899600005575
 51
89.551511999994474
  0
LINE
  5
1492E
  8
AM_0
 10
195.1011786857573
 20
339.20327319689039
 30
0.0
 11
191.1011786856775
 21
339.20327319689039
 31
0.0
  0
ARC
  5
1492F
  8
AM_0
 10
195.11020868575761
 20
340.19424319691041
 30
0.0
 40
0.9910124500198204
 50
269.47800000000348
 51
0.5220023799994589
  0
ARC
  5
14930
  8
AM_0
 10
191.11026868567751
 20
338.1941831968702
 30
0.0
 40
1.0091312000201811
 50
90.516126000000256
 51
179.48386999999951
  0
LINE
  5
14931
  8
AM_0
 10
192.10117868569711
 20
338.80328319688238
 30
0.0
 11
192.10117868569711
 21
337.58327319685799
 31
0.0
  0
LINE
  5
14932
  8
AM_0
 10
195.10117868575739
 20
347.20327319705052
 30
0.0
 11
191.10117868567761
 21
347.20327319705052
 31
0.0
  0
ARC
  5
14933
  8
AM_0
 10
191.09339868567719
 20
348.19546319707018
 30
0.0
 40
0.9922232600198446
 50
179.54915999999619
 51
270.4508500000066
  0
ARC
  5
14934
  8
AM_0
 10
195.09329868575719
 20
346.19540319703037
 30
0.0
 40
1.007920400020158
 50
0.4484899600005575
 51
89.551511999994474
  0
ARC
  5
14935
  8
AM_0
 10
202.43118868590409
 20
338.21328319687052
 30
0.0
 40
1.3300010000266
 50
90.000002999996894
 51
269.9999999999992
  0
ARC
  5
14936
  8
AM_0
 10
203.6524786859284
 20
338.20327319687033
 30
0.0
 40
1.0000380000199991
 50
89.500715999992806
 51
270.49928999999429
  0
ARC
  5
14937
  8
AM_0
 10
220.10117868625741
 20
348.20327319707008
 30
0.0
 40
1.0000032000200001
 50
90.000002999996894
 51
269.9999999999992
  0
ARC
  5
14938
  8
AM_0
 10
212.65119868610819
 20
348.2032731970703
 30
0.0
 40
1.0000032000200001
 50
90.000002999996894
 51
269.9999999999992
  0
ARC
  5
14939
  8
AM_0
 10
220.10117868625761
 20
358.20327319727022
 30
0.0
 40
1.0000032000200001
 50
90.000002999996894
 51
269.9999999999992
  0
LINE
  5
1493A
  8
AM_0
 10
219.10117868623749
 20
360.44329319731492
 30
0.0
 11
219.10117868623749
 21
360.37328319731358
 31
0.0
  0
ARC
  5
1493B
  8
AM_0
 10
212.6511986861083
 20
358.20327319727028
 30
0.0
 40
1.0000032000200001
 50
90.000002999996894
 51
269.9999999999992
  0
ARC
  5
1493C
  8
AM_0
 10
220.1011786862573
 20
338.2032731968701
 30
0.0
 40
1.0000032000200001
 50
90.000002999996894
 51
269.9999999999992
  0
ARC
  5
1493D
  8
AM_0
 10
202.37131868590239
 20
318.21328319647063
 30
0.0
 40
1.270038400025399
 50
89.55481099999254
 51
270.4451900000048
  0
ARC
  5
1493E
  8
AM_0
 10
191.09339868567679
 20
318.21108319647072
 30
0.0
 40
0.9922232600198446
 50
89.549155000003793
 51
180.45085000000009
  0
ARC
  5
1493F
  8
AM_0
 10
195.09329868575679
 20
320.21117319651057
 30
0.0
 40
1.007920400020158
 50
270.44848999998982
 51
359.551510000002
  0
LINE
  5
14940
  8
AM_0
 10
195.10117868575719
 20
327.2032731966504
 30
0.0
 11
191.1011786856773
 21
327.2032731966504
 31
0.0
  0
ARC
  5
14941
  8
AM_0
 10
195.09329868575691
 20
326.1954031966302
 30
0.0
 40
1.007920400020158
 50
0.4484899600005575
 51
89.551511999994474
  0
LINE
  5
14942
  8
AM_0
 10
195.10117868575719
 20
329.20327319669042
 30
0.0
 11
191.1011786856773
 21
329.20327319669042
 31
0.0
  0
ARC
  5
14943
  8
AM_0
 10
191.1102686856774
 20
328.19418319667011
 30
0.0
 40
1.0091312000201811
 50
90.516126000000256
 51
179.48386999999951
  0
LINE
  5
14944
  8
AM_0
 10
192.10117868569711
 20
328.80328319668251
 30
0.0
 11
192.10117868569711
 21
327.64327319665932
 31
0.0
  0
ARC
  5
14945
  8
AM_0
 10
195.1102086857575
 20
330.1942431967102
 30
0.0
 40
0.9910124500198204
 50
269.47800000000348
 51
0.5220023799994589
  0
ARC
  5
14946
  8
AM_0
 10
191.09339868567699
 20
328.19546319667029
 30
0.0
 40
0.9922232600198446
 50
179.54915999999619
 51
270.4508500000066
  0
ARC
  5
14947
  8
AM_0
 10
202.37119868590241
 20
328.2082731966704
 30
0.0
 40
1.2650050000252999
 50
90.000002999996894
 51
269.9999999999992
  0
ARC
  5
14948
  8
AM_0
 10
203.65247868592829
 20
328.20327319667018
 30
0.0
 40
1.0000380000199991
 50
89.500715999992806
 51
270.49928999999429
  0
LINE
  5
14949
  8
AM_0
 10
195.10117868575691
 20
309.20327319629041
 30
0.0
 11
191.1011786856771
 21
309.20327319629041
 31
0.0
  0
LINE
  5
1494A
  8
AM_0
 10
195.10117868575679
 20
307.20327319625039
 30
0.0
 11
191.10117868567701
 21
307.20327319625039
 31
0.0
  0
ARC
  5
1494B
  8
AM_0
 10
191.110268685677
 20
308.21236319627059
 30
0.0
 40
1.0091312000201811
 50
180.5161299999987
 51
269.48386999999963
  0
ARC
  5
1494C
  8
AM_0
 10
191.0933986856765
 20
308.21108319627052
 30
0.0
 40
0.9922232600198446
 50
89.549155000003793
 51
180.45085000000009
  0
LINE
  5
1494D
  8
AM_0
 10
192.10117868569679
 20
307.60329319625839
 30
0.0
 11
192.10117868569691
 21
308.82326319628282
 31
0.0
  0
ARC
  5
1494E
  8
AM_0
 10
195.1102086857571
 20
306.21230319623049
 30
0.0
 40
0.9910124500198204
 50
359.47800000000359
 51
90.521999999994847
  0
LINE
  5
1494F
  8
AM_0
 10
195.10117868575699
 20
317.20327319645048
 30
0.0
 11
191.10117868567721
 21
317.20327319645048
 31
0.0
  0
LINE
  5
14950
  8
AM_0
 10
195.10117868575699
 20
319.2032731964905
 30
0.0
 11
191.10117868567721
 21
319.2032731964905
 31
0.0
  0
ARC
  5
14951
  8
AM_0
 10
191.1102686856772
 20
318.21236319647068
 30
0.0
 40
1.0091312000201811
 50
180.5161299999987
 51
269.48386999999963
  0
LINE
  5
14952
  8
AM_0
 10
192.10117868569699
 20
317.60329319645848
 30
0.0
 11
192.10117868569699
 21
318.76327319648169
 31
0.0
  0
ARC
  5
14953
  8
AM_0
 10
195.11020868575719
 20
316.21230319643058
 30
0.0
 40
0.9910124500198204
 50
359.47800000000359
 51
90.521999999994847
  0
ARC
  5
14954
  8
AM_0
 10
195.09329868575671
 20
310.21117319631048
 30
0.0
 40
1.007920400020158
 50
270.44848999998982
 51
359.551510000002
  0
ARC
  5
14955
  8
AM_0
 10
203.6612086859279
 20
308.20327319627029
 30
0.0
 40
1.0000124000199999
 50
90.000002999996894
 51
269.9999999999992
  0
ARC
  5
14956
  8
AM_0
 10
202.4333286859036
 20
308.1932931962703
 30
0.0
 40
1.3300232000265999
 50
89.661532000006517
 51
270.33848000000972
  0
ARC
  5
14957
  8
AM_0
 10
203.6612086859281
 20
318.20327319647038
 30
0.0
 40
1.0000124000199999
 50
90.000002999996894
 51
269.9999999999992
  0
ARC
  5
14958
  8
AM_0
 10
220.10117868625721
 20
328.20327319667001
 30
0.0
 40
1.0000032000200001
 50
90.000002999996894
 51
269.9999999999992
  0
ARC
  5
14959
  8
AM_0
 10
220.1011786862569
 20
308.20327319627
 30
0.0
 40
1.0000007000199991
 50
90.000002999996894
 51
269.9999999999992
  0
ARC
  5
1495A
  8
AM_0
 10
220.10117868625699
 20
318.20327319647021
 30
0.0
 40
1.0000007000199991
 50
90.000002999996894
 51
269.9999999999992
  0
LINE
  5
14960
  8
AM_0
 10
274.2971786873423
 20
423.20324319856968
 30
0.0
 11
269.10840317703509
 21
420.20324319850948
 31
0.0
  0
LINE
  5
14961
  8
AM_0
 10
315.1011786881582
 20
420.2032431985092
 30
0.0
 11
309.90517868805438
 21
423.20324319856911
 31
0.0
  0
LINE
  5
14967
  8
AM_0
 10
309.90517868805438
 20
423.20324319856911
 30
0.0
 11
274.2971786873423
 21
423.20324319856968
 31
0.0
  0
LINE
  5
14969
  8
AM_0
 10
339.0259647751613
 20
349.20327319708849
 30
0.0
 11
321.59022440146248
 21
349.20327319708872
 31
0.0
  0
LINE
  5
1496A
  8
AM_0
 10
320.74095686013533
 20
349.6932931970984
 30
0.0
 11
340.11488213330011
 21
349.69329319709823
 31
0.0
  0
LINE
  5
1496B
  8
AM_0
 10
335.9211886885742
 20
356.57321319723587
 30
0.0
 11
321.60117868828769
 21
356.5732131972361
 31
0.0
  0
LINE
  5
1496C
  8
AM_0
 10
322.10117868829792
 20
392.20324319794901
 30
0.0
 11
334.40189998479241
 21
392.20324319794878
 31
0.0
  0
LINE
  5
1496D
  8
AM_0
 10
335.9211886885742
 20
357.20321319724849
 30
0.0
 11
276.10117868737763
 21
357.2032131972494
 31
0.0
  0
LINE
  5
1496E
  8
AM_0
 10
335.9211886885742
 20
359.20321319728851
 30
0.0
 11
276.10117868737763
 21
359.20321319728941
 31
0.0
  0
LINE
  5
1496F
  8
AM_0
 10
276.10117868737768
 20
359.93319319730398
 30
0.0
 11
335.92118868857432
 21
359.93319319730318
 31
0.0
  0
LINE
  5
14970
  8
AM_0
 10
242.10117868669769
 20
369.5432131974967
 30
0.0
 11
335.92118868857438
 21
369.54321319749528
 31
0.0
  0
LINE
  5
14971
  8
AM_0
 10
276.10117868737802
 20
385.06320319780662
 30
0.0
 11
335.92118868857472
 21
385.06320319780571
 31
0.0
  0
LINE
  5
14972
  8
AM_0
 10
323.6011786883281
 20
396.70324319803899
 30
0.0
 11
243.60117868672791
 21
396.70324319804018
 31
0.0
  0
LINE
  5
14973
  8
AM_0
 10
243.60117868672791
 20
400.20324319810982
 30
0.0
 11
323.60117868832771
 21
400.20324319810879
 31
0.0
  0
LINE
  5
14974
  8
AM_0
 10
323.60117868832782
 20
403.70324319817882
 30
0.0
 11
266.10117868717788
 21
403.70324319817939
 31
0.0
  0
LINE
  5
14975
  8
AM_0
 10
321.1011786882782
 20
420.20324319850891
 30
0.0
 11
246.10117868677821
 21
420.20324319851011
 31
0.0
  0
LINE
  5
14976
  8
AM_0
 10
262.10117868709779
 20
396.7032431980399
 30
0.0
 11
262.10117868709767
 21
385.0632031978073
 31
0.0
  0
LINE
  5
14977
  8
AM_0
 10
257.60117868700809
 20
416.20324319842962
 30
0.0
 11
255.6011786869683
 21
416.20324319842962
 31
0.0
  0
ARC
  5
14978
  8
AM_0
 10
256.60117868698791
 20
407.70324319825983
 30
0.0
 40
4.0000000000799973
 50
359.9999999999992
 51
179.9999999999992
  0
ARC
  5
14979
  8
AM_0
 10
256.60117868698791
 20
407.70324319825983
 30
0.0
 40
7.5000000001500027
 50
359.9999999999992
 51
179.9999999999992
  0
LINE
  5
1497A
  8
AM_0
 10
248.101178686818
 20
404.70324319819929
 30
0.0
 11
248.10117868681809
 21
408.70324319827949
 31
0.0
  0
LINE
  5
1497B
  8
AM_0
 10
249.10117868683801
 20
400.20324319810982
 30
0.0
 11
249.10117868683801
 21
407.70324319825988
 31
0.0
  0
LINE
  5
1497C
  8
AM_0
 10
252.6011786869079
 20
400.20324319810982
 30
0.0
 11
252.60117868690801
 21
407.70324319825988
 31
0.0
  0
LINE
  5
1497D
  8
AM_0
 10
243.60117868672791
 20
396.70324319804018
 30
0.0
 11
243.6011786867281
 21
416.2032431984299
 31
0.0
  0
LINE
  5
1497E
  8
AM_0
 10
245.10117868675781
 20
403.70324319817979
 30
0.0
 11
245.10117868675809
 21
419.2032431984901
 31
0.0
  0
LINE
  5
1497F
  8
AM_0
 10
243.6011786867281
 20
416.2032431984299
 30
0.0
 11
245.101178686758
 21
416.2032431984299
 31
0.0
  0
ARC
  5
14980
  8
AM_0
 10
246.10117868677821
 20
419.2032431984897
 30
0.0
 40
1.00000000002
 50
89.999999999999204
 51
179.9999999999992
  0
ARC
  5
14981
  8
AM_0
 10
255.60117868696821
 20
408.70324319827949
 30
0.0
 40
7.500000000149992
 50
89.999999999999204
 51
179.9999999999992
  0
LINE
  5
14982
  8
AM_0
 10
243.60117868672791
 20
403.70324319817979
 30
0.0
 11
247.10117868679779
 21
403.70324319817979
 31
0.0
  0
ARC
  5
14983
  8
AM_0
 10
247.10117868679779
 20
404.70324319819929
 30
0.0
 40
1.00000000002
 50
269.9999999999992
 51
359.9999999999992
  0
LINE
  5
14984
  8
AM_0
 10
265.10117868715798
 20
408.70324319827949
 30
0.0
 11
265.10117868715798
 21
404.70324319819929
 31
0.0
  0
LINE
  5
14985
  8
AM_0
 10
264.10117868713797
 20
407.70324319825937
 30
0.0
 11
264.1011786871378
 21
400.20324319810948
 31
0.0
  0
LINE
  5
14986
  8
AM_0
 10
260.60117868706777
 20
400.20324319810959
 30
0.0
 11
260.60117868706789
 21
407.70324319825983
 31
0.0
  0
ARC
  5
14987
  8
AM_0
 10
257.60117868700809
 20
408.70324319827949
 30
0.0
 40
7.5000000001499956
 50
359.9999999999992
 51
89.999999999999204
  0
ARC
  5
14988
  8
AM_0
 10
266.10117868717799
 20
404.70324319819929
 30
0.0
 40
1.00000000002
 50
179.9999999999992
 51
269.9999999999992
  0
LINE
  5
14989
  8
AM_0
 10
243.1011786867177
 20
369.5532831974968
 30
0.0
 11
276.1011786873778
 21
369.5532831974964
 31
0.0
  0
LINE
  5
1498A
  8
AM_0
 10
322.10117868829798
 20
403.70324319817882
 30
0.0
 11
322.10117868829821
 21
419.20324319848868
 31
0.0
  0
ARC
  5
1498B
  8
AM_0
 10
321.1011786882782
 20
419.20324319848879
 30
0.0
 40
1.00000000002
 50
359.9999999999992
 51
89.999999999999204
  0
LINE
  5
1498C
  8
AM_0
 10
322.10117868829792
 20
396.70324319803899
 30
0.0
 11
322.10117868829792
 21
392.20324319794901
 31
0.0
  0
LINE
  5
1498D
  8
AM_0
 10
304.60117868794771
 20
356.57321319723633
 30
0.0
 11
276.10117868737763
 21
356.57321319723678
 31
0.0
  0
ARC
  5
1498E
  8
AM_0
 10
273.54992535704213
 20
348.20327319706939
 30
0.0
 40
1.0000380000199991
 50
269.50071000000412
 51
90.499284000005574
  0
ARC
  5
1498F
  8
AM_0
 10
274.77121535706618
 20
338.2132831968695
 30
0.0
 40
1.3300010000266
 50
269.9999999999992
 51
89.999997000001514
  0
ARC
  5
14990
  8
AM_0
 10
273.54992535704201
 20
338.2032731968693
 30
0.0
 40
1.0000380000199991
 50
269.50071000000412
 51
90.499284000005574
  0
ARC
  5
14991
  8
AM_0
 10
274.83120535706729
 20
318.1982131964694
 30
0.0
 40
1.2650050000252999
 50
270.00000299999692
 51
89.999999999999204
  0
ARC
  5
14992
  8
AM_0
 10
274.83120535706752
 20
328.20827319666932
 30
0.0
 40
1.2650050000252999
 50
269.9999999999992
 51
89.999997000001514
  0
ARC
  5
14993
  8
AM_0
 10
273.54992535704179
 20
328.20327319666922
 30
0.0
 40
1.0000380000199991
 50
269.50071000000412
 51
90.499284000005574
  0
ARC
  5
14994
  8
AM_0
 10
274.77121535706578
 20
308.19320319626922
 30
0.0
 40
1.3300010000266
 50
270.00000299999692
 51
89.999999999999204
  0
ARC
  5
14995
  8
AM_0
 10
273.54992535704162
 20
308.2032131962693
 30
0.0
 40
1.0000380000199991
 50
269.50071599999279
 51
90.499289999994318
  0
ARC
  5
14996
  8
AM_0
 10
273.54992535704167
 20
318.20321319646928
 30
0.0
 40
1.0000380000199991
 50
269.50071599999279
 51
90.499289999994318
  0
LINE
  5
14997
  8
AM_0
 10
320.60117868826768
 20
356.5732131972361
 30
0.0
 11
305.60117868796749
 21
356.57321319723633
 31
0.0
  0
LINE
  5
14998
  8
AM_0
 10
320.60117868826768
 20
356.5732131972361
 30
0.0
 11
305.60117868796749
 21
356.57321319723633
 31
0.0
  0
CIRCLE
  5
14999
  8
AM_0
 10
310.60117868806748
 20
351.7032431971391
 30
0.0
 40
0.750000000015
  0
ARC
  5
1499A
  8
AM_0
 10
304.60117868794748
 20
350.20321319710882
 30
0.0
 40
1.00000000002
 50
269.9999999999992
 51
0.0000000000057204
1001
GENIUS_GENOBJ-N-FIL_13
1002
{
1000
OWNER
1000
GEN
1002
}
1001
GENIUS_GENODEF_13
1002
{
1000
HIER
1070
     0
1002
}
1002
{
1000
MANEDIT
1070
     0
1002
}
1002
{
1000
NOSEL
1070
     0
1002
}
1002
{
1000
BEHIND
1070
     0
1002
}
1002
{
1000
OTHER
1070
     0
1002
}
1002
{
1000
REACTOR
1002
}
  0
ARC
  5
1499B
  8
AM_0
 10
304.60117868794759
 20
355.57321319721632
 30
0.0
 40
1.00000000002
 50
359.9999999999992
 51
89.999999999999204
1001
GENIUS_GENOBJ-N-FIL_13
1002
{
1000
OWNER
1000
GEN
1002
}
1001
GENIUS_GENODEF_13
1002
{
1000
HIER
1070
     0
1002
}
1002
{
1000
MANEDIT
1070
     0
1002
}
1002
{
1000
NOSEL
1070
     0
1002
}
1002
{
1000
BEHIND
1070
     0
1002
}
1002
{
1000
OTHER
1070
     0
1002
}
1002
{
1000
REACTOR
1002
}
  0
LINE
  5
1499C
  8
AM_0
 10
305.60117868796749
 20
350.20321319710882
 30
0.0
 11
305.60117868796749
 21
355.57321319721632
 31
0.0
  0
CIRCLE
  5
1499D
  8
AM_0
 10
315.60117868816752
 20
351.7032431971391
 30
0.0
 40
0.750000000015
  0
ARC
  5
1499E
  8
AM_0
 10
321.60117868828752
 20
350.20321319710871
 30
0.0
 40
1.00000000002
 50
179.9999999999992
 51
269.9999999999992
1001
GENIUS_GENOBJ-N-FIL_13
1002
{
1000
OWNER
1000
GEN
1002
}
1001
GENIUS_GENODEF_13
1002
{
1000
HIER
1070
     0
1002
}
1002
{
1000
MANEDIT
1070
     0
1002
}
1002
{
1000
NOSEL
1070
     0
1002
}
1002
{
1000
BEHIND
1070
     0
1002
}
1002
{
1000
OTHER
1070
     0
1002
}
1002
{
1000
REACTOR
1002
}
  0
ARC
  5
1499F
  8
AM_0
 10
321.60117868828752
 20
355.57321319721609
 30
0.0
 40
1.00000000002
 50
89.999999999999204
 51
179.9999999999992
1001
GENIUS_GENOBJ-N-FIL_13
1002
{
1000
OWNER
1000
GEN
1002
}
1001
GENIUS_GENODEF_13
1002
{
1000
HIER
1070
     0
1002
}
1002
{
1000
MANEDIT
1070
     0
1002
}
1002
{
1000
NOSEL
1070
     0
1002
}
1002
{
1000
BEHIND
1070
     0
1002
}
1002
{
1000
OTHER
1070
     0
1002
}
1002
{
1000
REACTOR
1002
}
  0
LINE
  5
149A0
  8
AM_0
 10
320.60117868826762
 20
350.20321319710871
 30
0.0
 11
320.60117868826762
 21
355.57321319721609
 31
0.0
  0
LINE
  5
149A2
  8
AM_0
 10
342.10117868869793
 20
387.20327314548848
 30
0.0
 11
334.40189998479241
 21
392.20324319794878
 31
0.0
  0
LINE
  5
149A3
  8
AM_0
 10
323.60117868832771
 20
396.70324319803899
 30
0.0
 11
323.60117868832782
 21
403.70324319817882
 31
0.0
  0
LINE
  5
149A4
  8
AM_0
 10
343.10112086654232
 20
375.24320430868852
 30
0.0
 11
351.10112086669739
 21
375.24321319757701
 31
0.0
  0
LINE
  5
149A5
  8
AM_0
 10
342.10117868869793
 20
387.2032731978482
 30
0.0
 11
351.10117868887801
 21
387.2032731978482
 31
0.0
  0
LINE
  5
149A6
  8
AM_0
 10
337.86118868861303
 20
383.56321319777572
 30
0.0
 11
340.59699868866772
 21
373.36321319757172
 31
0.0
  0
ARC
  5
149A7
  8
AM_0
 10
335.91153868857413
 20
383.04621319776538
 30
0.0
 40
2.0170178000403398
 50
14.851600000001
 51
89.726300000002979
  0
LINE
  5
149A8
  8
AM_0
 10
337.82117868861241
 20
383.70320319777841
 30
0.0
 11
342.10117868869793
 21
383.70320319777841
 31
0.0
  0
ARC
  5
149A9
  8
AM_0
 10
343.10117868871788
 20
386.2032731978282
 30
0.0
 40
1.00000000002
 50
90.000002999996894
 51
180.0000100000002
  0
LINE
  5
149AA
  8
AM_0
 10
342.10117868869793
 20
386.2032731978282
 30
0.0
 11
342.10117868869793
 21
383.70327319777863
 31
0.0
  0
LINE
  5
149AB
  8
AM_0
 10
342.10117868869759
 20
366.06320319742582
 30
0.0
 11
342.10117868869781
 21
373.6632031975775
 31
0.0
  0
LINE
  5
149AC
  8
AM_0
 10
341.10117868867781
 20
366.06320319742582
 30
0.0
 11
341.10117868867792
 21
373.6632031975779
 31
0.0
  0
LINE
  5
149AD
  8
AM_0
 10
342.1011786886977
 20
369.08584319748587
 30
0.0
 11
341.10117868867781
 21
369.66317319749771
 31
0.0
  0
LINE
  5
149AE
  8
AM_0
 10
342.1011786886977
 20
370.08584319750588
 30
0.0
 11
341.10117868867781
 21
370.6632031975177
 31
0.0
  0
ARC
  5
149AF
  8
AM_0
 10
342.7620386887109
 20
371.02999319752479
 30
0.0
 40
1.4868059000297349
 50
194.28273999999831
 51
243.61022
  0
LINE
  5
149B0
  8
AM_0
 10
341.10117868867792
 20
373.6632031975779
 30
0.0
 11
342.10117868869781
 21
373.6632031975775
 31
0.0
  0
LINE
  5
149B1
  8
AM_0
 10
341.10117868867792
 20
373.36320319757169
 30
0.0
 11
340.20117868865992
 21
373.36320319757169
 31
0.0
  0
LINE
  5
149B2
  8
AM_0
 10
341.10117868867781
 20
366.06320319742582
 30
0.0
 11
342.10117868869759
 21
366.06320319742582
 31
0.0
  0
LINE
  5
149B3
  8
AM_0
 10
341.10117868867781
 20
366.36321319743172
 30
0.0
 11
340.20117868865981
 21
366.36321319743172
 31
0.0
  0
LINE
  5
149B4
  8
AM_0
 10
335.92118868857438
 20
369.54321319749528
 30
0.0
 11
338.50119868862589
 21
369.54321319749528
 31
0.0
  0
LINE
  5
149B5
  8
AM_0
 10
338.50119868862589
 20
368.0632031974659
 30
0.0
 11
338.50119868862589
 21
371.66320319753748
 31
0.0
  0
ARC
  5
149B6
  8
AM_0
 10
340.20117868865992
 20
368.0632031974659
 30
0.0
 40
1.6999969000339989
 50
180.00002000000109
 51
269.99999700000149
  0
ARC
  5
149B7
  8
AM_0
 10
340.20117868865992
 20
371.66320319753748
 30
0.0
 40
1.700000800033999
 50
90.000020000001214
 51
179.99998999999809
  0
ARC
  5
149B8
  8
AM_0
 10
343.10959868871788
 20
374.23480319758909
 30
0.0
 40
1.0084445000201681
 50
90.47779999999878
 51
170.45392999999521
  0
LINE
  5
149C5
  8
AM_0
 10
343.10113742210808
 20
360.3431943083998
 30
0.0
 11
351.10113742226298
 21
360.34320319728818
 31
0.0
  0
ARC
  5
149C6
  8
AM_0
 10
340.11596472282298
 20
348.22829319706898
 30
0.0
 40
1.465000400029298
 50
269.9999999999992
 51
89.999997000001514
  0
ARC
  5
149C7
  8
AM_0
 10
339.02596472280118
 20
348.20327319706848
 30
0.0
 40
1.0000032000200001
 50
269.9999999999992
 51
89.999997000001514
  0
ARC
  5
149C8
  8
AM_0
 10
339.91507868865392
 20
358.25320319726939
 30
0.0
 40
1.680011000033599
 50
270.20803099999881
 51
89.791970000001115
  0
ARC
  5
149C9
  8
AM_0
 10
336.44119868858439
 20
358.2032131972685
 30
0.0
 40
1.0000074000200001
 50
269.99999700000149
 51
89.999999999999204
  0
LINE
  5
149CA
  8
AM_0
 10
336.44119868858439
 20
357.20321319724849
 30
0.0
 11
335.9211886885742
 21
357.20321319724849
 31
0.0
  0
LINE
  5
149CB
  8
AM_0
 10
336.44119868858439
 20
359.20321319728851
 30
0.0
 11
335.9211886885742
 21
359.20321319728851
 31
0.0
  0
LINE
  5
149CC
  8
AM_0
 10
339.9211886886539
 20
356.57321319723587
 30
0.0
 11
335.9211886885742
 21
356.57321319723587
 31
0.0
  0
LINE
  5
149CD
  8
AM_0
 10
335.92118868857432
 20
359.93319319730318
 30
0.0
 11
342.10117863937762
 21
359.93319319730318
 31
0.0
  0
LINE
  5
149DD
  8
AM_0
 10
242.10117868669639
 20
276.86327319564288
 30
0.0
 11
206.10117868597649
 21
278.51601347750602
 31
0.0
  0
LINE
  5
149DE
  8
AM_0
 10
203.6611911668283
 20
289.20327315480398
 30
0.0
 11
276.1011786873766
 21
289.20327315480313
 31
0.0
  0
LINE
  5
149DF
  8
AM_0
 10
202.77118868590981
 20
289.83327319590279
 30
0.0
 11
276.1011786873766
 21
289.83327319590188
 31
0.0
  0
LINE
  5
149E0
  8
AM_0
 10
202.77118868590981
 20
286.47329319583559
 30
0.0
 11
276.1011786873766
 21
286.47329319583469
 31
0.0
  0
LINE
  5
149E1
  8
AM_0
 10
276.1011786873766
 20
287.20327319584931
 30
0.0
 11
203.6511986859276
 21
287.20327319585022
 31
0.0
  0
LINE
  5
149E2
  8
AM_0
 10
304.6011786879468
 20
297.203273196049
 30
0.0
 11
203.65119868592771
 21
297.2032731960503
 31
0.0
  0
LINE
  5
149E3
  8
AM_0
 10
202.56119868590591
 20
296.71328319604049
 30
0.0
 11
305.46134715977632
 21
296.71328319603907
 31
0.0
  0
LINE
  5
149E4
  8
AM_0
 10
221.101178686276
 20
261.34328319533279
 30
0.0
 11
276.1011786873762
 21
261.34328319533211
 31
0.0
  0
LINE
  5
149E5
  8
AM_0
 10
339.02596477516062
 20
299.20327319608828
 30
0.0
 11
203.65119868592771
 21
299.20327319609021
 31
0.0
  0
LINE
  5
149E6
  8
AM_0
 10
202.56119868590591
 20
299.63329319609898
 30
0.0
 11
339.94593483720962
 21
299.63329319609721
 31
0.0
  0
LINE
  5
149E7
  8
AM_0
 10
221.10117868627589
 20
259.32328319529228
 30
0.0
 11
335.9009490589516
 21
259.32328319529068
 31
0.0
  0
LINE
  5
149E8
  8
AM_0
 10
221.10117868627589
 20
257.96328319526509
 30
0.0
 11
335.90094906414021
 21
257.96328319526361
 31
0.0
  0
LINE
  5
149E9
  8
AM_0
 10
221.10117868627589
 20
257.30328319525188
 30
0.0
 11
335.90094906664291
 21
257.30328319525051
 31
0.0
  0
LINE
  5
149EA
  8
AM_0
 10
188.60117868562699
 20
303.20327319617041
 30
0.0
 11
190.10117868565681
 21
303.08327319616802
 31
0.0
  0
LINE
  5
149EB
  8
AM_0
 10
206.10117868597641
 20
274.86327319560343
 30
0.0
 11
206.10117868597661
 21
286.47329319583559
 31
0.0
  0
ARC
  5
149EC
  8
AM_0
 10
191.10422868567639
 20
276.24319319563119
 30
0.0
 40
1.0030519000200611
 50
179.99423000000149
 51
243.7873499999902
  0
LINE
  5
149ED
  8
AM_0
 10
191.88117868569191
 20
275.70330319562049
 30
0.0
 11
190.60120868566639
 21
276.483273195636
 31
0.0
  0
LINE
  5
149EE
  8
AM_0
 10
192.10117868569631
 20
275.82326319562299
 30
0.0
 11
192.1011786856964
 21
276.36327319563361
 31
0.0
  0
ARC
  5
149EF
  8
AM_0
 10
191.10562868567669
 20
290.82662319592282
 30
0.0
 40
1.0044501000200889
 50
180.19014999999891
 51
253.54965000000311
  0
ARC
  5
149F0
  8
AM_0
 10
195.0948886857563
 20
290.46960319591579
 30
0.0
 40
1.0063295000201249
 50
270.3592499999952
 51
359.64075000000321
  0
LINE
  5
149F1
  8
AM_0
 10
195.10117868575671
 20
297.20327319605047
 30
0.0
 11
191.1011786856769
 21
297.20327319605047
 31
0.0
  0
ARC
  5
149F2
  8
AM_0
 10
191.11026868567691
 20
298.2123631960705
 30
0.0
 40
1.0091312000201811
 50
180.5161299999987
 51
269.48386999999963
  0
ARC
  5
149F3
  8
AM_0
 10
195.11020868575699
 20
296.21230319603052
 30
0.0
 40
0.9910124500198204
 50
359.47800000000359
 51
90.521999999994847
  0
LINE
  5
149F4
  8
AM_0
 10
195.10117868575671
 20
299.20327319609038
 30
0.0
 11
191.1011786856769
 21
299.20327319609038
 31
0.0
  0
ARC
  5
149F5
  8
AM_0
 10
195.09329868575651
 20
300.21117319611039
 30
0.0
 40
1.007920400020158
 50
270.44848999998982
 51
359.551510000002
  0
ARC
  5
149F6
  8
AM_0
 10
191.0933986856765
 20
298.21108319607072
 30
0.0
 40
0.9922232600198446
 50
89.549155000003793
 51
180.45085000000009
  0
LINE
  5
149F7
  8
AM_0
 10
192.10117868569671
 20
297.58327319605792
 30
0.0
 11
192.10117868569671
 21
298.94329319608528
 31
0.0
  0
ARC
  5
149F8
  8
AM_0
 10
203.6523886859278
 20
298.20327319607031
 30
0.0
 40
1.0000387000199991
 50
89.4956680000044
 51
270.50434000000263
  0
ARC
  5
149F9
  8
AM_0
 10
202.56388868590619
 20
298.18328319606979
 30
0.0
 40
1.460102600029201
 50
89.321006999994665
 51
270.67900000000361
  0
LINE
  5
149FA
  8
AM_0
 10
196.1011786857764
 20
280.52328319571689
 30
0.0
 11
206.10117868597649
 21
280.5232831957166
 31
0.0
  0
LINE
  5
149FB
  8
AM_0
 10
198.10117868581659
 20
288.90328319588428
 30
0.0
 11
201.2811986858801
 21
288.90328319588411
 31
0.0
  0
LINE
  5
149FC
  8
AM_0
 10
192.36118868570159
 20
276.70327319564058
 30
0.0
 11
195.10117868575639
 21
276.70327319564058
 31
0.0
  0
ARC
  5
149FD
  8
AM_0
 10
192.35947868570159
 20
277.71648319566071
 30
0.0
 40
1.0131912000202621
 50
241.8312399999985
 51
270.09627999999861
  0
LINE
  5
149FE
  8
AM_0
 10
191.8611886856917
 20
280.24331319571138
 30
0.0
 11
190.56116868566559
 21
281.1032931957285
 31
0.0
  0
LINE
  5
149FF
  8
AM_0
 10
192.10117868569651
 20
280.38329319571397
 30
0.0
 11
192.10117868569651
 21
280.86327319572359
 31
0.0
  0
LINE
  5
14A00
  8
AM_0
 10
192.38117868570211
 20
281.22329319573072
 30
0.0
 11
195.10117868575651
 21
281.22329319573072
 31
0.0
  0
ARC
  5
14A01
  8
AM_0
 10
191.1029186856764
 20
281.94588319574541
 30
0.0
 40
1.001733900020034
 50
180.1495400000031
 51
237.262369999995
  0
ARC
  5
14A02
  8
AM_0
 10
191.1067286856765
 20
282.97256319576582
 30
0.0
 40
1.00559290002011
 50
180.52837999999801
 51
239.81866999999181
  0
LINE
  5
14A03
  8
AM_0
 10
191.88117868569199
 20
281.36327319573343
 30
0.0
 11
190.60117868566661
 21
282.10329319574839
 31
0.0
  0
ARC
  5
14A04
  8
AM_0
 10
192.39343868570231
 20
282.22994319575082
 30
0.0
 40
1.0067360000201351
 50
239.41356999999761
 51
269.30194000000461
  0
ARC
  5
14A05
  8
AM_0
 10
195.09577868575619
 20
282.22869319575102
 30
0.0
 40
1.005422700020107
 50
270.30818999998951
 51
359.69180999999588
  0
LINE
  5
14A06
  8
AM_0
 10
192.321178685701
 20
287.523283195857
 30
0.0
 11
195.40119868576261
 21
287.523283195857
 31
0.0
  0
ARC
  5
14A07
  8
AM_0
 10
192.3144286857007
 20
288.529503195877
 30
0.0
 40
1.006237100020124
 50
246.99537999999899
 51
270.38476000000139
  0
ARC
  5
14A08
  8
AM_0
 10
195.40561868576259
 20
286.82772319584302
 30
0.0
 40
0.6955789300139117
 50
359.63465999999983
 51
90.365336000009407
  0
LINE
  5
14A09
  8
AM_0
 10
192.40119868570241
 20
280.08327319570799
 30
0.0
 11
196.1011786857764
 21
280.08327319570799
 31
0.0
  0
ARC
  5
14A0A
  8
AM_0
 10
191.10617868567661
 20
278.374293195674
 30
0.0
 40
1.0050608000201
 50
180.62839999999809
 51
242.44119000000401
  0
ARC
  5
14A0B
  8
AM_0
 10
192.40683868570261
 20
281.09359319572832
 30
0.0
 40
1.010318000020205
 50
237.31141999999249
 51
269.67986000000451
  0
ARC
  5
14A0C
  8
AM_0
 10
191.10016868567621
 20
277.34872319565329
 30
0.0
 40
0.99898326001998
 50
180.31238999999809
 51
240.03464000000321
  0
LINE
  5
14A0D
  8
AM_0
 10
191.88120868569189
 20
276.82326319564282
 30
0.0
 11
190.641188685667
 21
277.48330319565611
 31
0.0
  0
ARC
  5
14A0E
  8
AM_0
 10
195.0941286857564
 20
277.71035319566067
 30
0.0
 40
1.0070832000201411
 50
270.40157999999758
 51
359.59842000000077
  0
LINE
  5
14A0F
  8
AM_0
 10
192.2611786856998
 20
289.4632831958956
 30
0.0
 11
195.10117868575659
 21
289.4632831958956
 31
0.0
  0
ARC
  5
14A10
  8
AM_0
 10
191.10071868567661
 20
289.04797319588738
 30
0.0
 40
0.999532700019991
 50
180.26812999999939
 51
247.68494999999871
  0
LINE
  5
14A11
  8
AM_0
 10
191.96115868569379
 20
289.5032931958965
 30
0.0
 11
190.8211786856709
 21
289.8633031959036
 31
0.0
  0
ARC
  5
14A12
  8
AM_0
 10
192.24384868569931
 20
290.47826319591582
 30
0.0
 40
1.015145100020302
 50
253.8323299999937
 51
270.97837999998973
  0
LINE
  5
14A13
  8
AM_0
 10
191.9211886856931
 20
287.60329319585838
 30
0.0
 11
190.7211986856689
 21
288.12328319586879
 31
0.0
  0
LINE
  5
14A14
  8
AM_0
 10
192.1011786856966
 20
287.82326319586292
 30
0.0
 11
192.1011786856966
 21
288.88329319588411
 31
0.0
  0
ARC
  5
14A15
  8
AM_0
 10
205.74057868596921
 20
285.56383319581732
 30
0.0
 40
6.0113902001202266
 50
273.43914999999362
 51
314.59596000000761
  0
ARC
  5
14A16
  8
AM_0
 10
209.2514186860395
 20
282.00570319574632
 30
0.0
 40
1.0127641000202541
 50
314.49466000000928
 51
4.3932527999969651
  0
LINE
  5
14A17
  8
AM_0
 10
206.10117868597649
 20
283.70327319578018
 30
0.0
 11
206.10117868597661
 21
286.48327319583581
 31
0.0
  0
ARC
  5
14A18
  8
AM_0
 10
205.2847686859601
 20
281.61169319573833
 30
0.0
 40
4.9987221000999753
 50
5.4135635000029456
 51
80.599941000003952
  0
ARC
  5
14A19
  8
AM_0
 10
202.78119868591011
 20
288.16329319586953
 30
0.0
 40
1.6800002000336001
 50
90.000002999996894
 51
269.9999999999992
  0
ARC
  5
14A1A
  8
AM_0
 10
203.65238868592769
 20
288.20327319587022
 30
0.0
 40
1.0000387000199991
 50
89.4956680000044
 51
270.50434000000263
  0
ARC
  5
14A1B
  8
AM_0
 10
220.1011786862567
 20
298.2032731960702
 30
0.0
 40
1.0000007000199991
 50
90.000002999996894
 51
269.9999999999992
  0
ARC
  5
14A1C
  8
AM_0
 10
220.10117868625659
 20
288.20327319587
 30
0.0
 40
1.0000007000199991
 50
90.000002999996894
 51
269.9999999999992
  0
LINE
  5
14A1D
  8
AM_0
 10
204.2211986859383
 20
259.90328319530431
 30
0.0
 11
217.72119868620851
 21
259.90328319530408
 31
0.0
  0
LINE
  5
14A1E
  8
AM_0
 10
204.24118868593891
 20
261.54328319533721
 30
0.0
 11
217.6011786862062
 21
261.54328319533693
 31
0.0
  0
LINE
  5
14A1F
  8
AM_0
 10
204.2811986859397
 20
264.94327319540503
 30
0.0
 11
217.6011786862062
 21
264.9432731954048
 31
0.0
  0
LINE
  5
14A20
  8
AM_0
 10
204.34119868594121
 20
270.2232731955105
 30
0.0
 11
217.6011786862064
 21
270.22327319551027
 31
0.0
  0
LINE
  5
14A21
  8
AM_0
 10
202.28119868589971
 20
261.42330319533471
 30
0.0
 11
201.40119868588209
 21
264.96329319540541
 31
0.0
  0
ARC
  5
14A22
  8
AM_0
 10
204.2474786859392
 20
263.54316319537702
 30
0.0
 40
1.999890900039996
 50
193.29430000000059
 51
269.81957999999781
  0
LINE
  5
14A23
  8
AM_0
 10
199.94119868585301
 20
266.08327319542809
 30
0.0
 11
201.58118868588591
 21
266.08327319542792
 31
0.0
  0
LINE
  5
14A24
  8
AM_0
 10
196.1011786857762
 20
265.82554686533041
 30
0.0
 11
200.9411686858729
 21
265.72329319542058
 31
0.0
  0
LINE
  5
14A25
  8
AM_0
 10
199.90119868585231
 20
272.18328319555008
 30
0.0
 11
202.3211786859008
 21
272.1832831955499
 31
0.0
  0
ARC
  5
14A26
  8
AM_0
 10
199.89234868585231
 20
270.68433319551991
 30
0.0
 40
1.498966200029979
 50
11.50367599999913
 51
89.661532000006517
  0
ARC
  5
14A27
  8
AM_0
 10
199.91751868585251
 20
266.61988319543889
 30
0.0
 40
1.5034074000300679
 50
13.20385600000396
 51
89.860413999999395
  0
LINE
  5
14A28
  8
AM_0
 10
199.9211886858526
 20
268.12328319546867
 30
0.0
 11
201.9811786858937
 21
268.1232831954685
 31
0.0
  0
LINE
  5
14A29
  8
AM_0
 10
196.10117868577629
 20
274.8632731956036
 30
0.0
 11
206.10117868597641
 21
274.86327319560343
 31
0.0
  0
ARC
  5
14A2A
  8
AM_0
 10
199.9510286858534
 20
264.58451319539807
 30
0.0
 40
1.4987990000299749
 50
14.63813500000127
 51
90.376558000002646
  0
LINE
  5
14A2B
  8
AM_0
 10
192.3411986857011
 20
274.60328319559841
 30
0.0
 11
195.60117868576651
 21
274.60328319559841
 31
0.0
  0
LINE
  5
14A2C
  8
AM_0
 10
192.381178685702
 20
273.4632831955754
 30
0.0
 11
195.60117868576651
 21
273.4632831955754
 31
0.0
  0
LINE
  5
14A2D
  8
AM_0
 10
192.381178685702
 20
275.56329319561769
 30
0.0
 11
196.10117868577629
 21
275.56329319561769
 31
0.0
  0
ARC
  5
14A2E
  8
AM_0
 10
191.10834868567659
 20
275.1934731956103
 30
0.0
 40
1.007194200020143
 50
179.4423199999992
 51
239.7665800000012
  0
LINE
  5
14A2F
  8
AM_0
 10
191.90119868569241
 20
274.72327319560083
 30
0.0
 11
190.6612086856675
 21
275.34325319561322
 31
0.0
  0
ARC
  5
14A30
  8
AM_0
 10
192.39469868570231
 20
276.57439319563792
 30
0.0
 40
1.011208500020224
 50
239.4811899999869
 51
269.23431000000159
  0
LINE
  5
14A31
  8
AM_0
 10
191.88117868569191
 20
273.6032831955784
 30
0.0
 11
190.60120868566639
 21
274.32326319559269
 31
0.0
  0
LINE
  5
14A32
  8
AM_0
 10
192.10117868569631
 20
273.72327319558082
 30
0.0
 11
192.10117868569631
 21
274.24328319559118
 31
0.0
  0
ARC
  5
14A33
  8
AM_0
 10
192.37876868570169
 20
275.60772319561852
 30
0.0
 40
1.005138300020102
 50
241.63206000000289
 51
267.85770999999858
  0
ARC
  5
14A34
  8
AM_0
 10
192.39206868570221
 20
274.46503319559559
 30
0.0
 40
1.001808000020036
 50
239.3383300000028
 51
269.37717999999529
  0
ARC
  5
14A35
  8
AM_0
 10
195.59482868576629
 20
275.1096431956085
 30
0.0
 40
0.506400760010128
 50
270.71969999999737
 51
359.28029999999433
  0
ARC
  5
14A36
  8
AM_0
 10
195.6055386857665
 20
272.96763319556572
 30
0.0
 40
0.4956644500099134
 50
359.49661999999972
 51
90.503380999999621
  0
LINE
  5
14A37
  8
AM_0
 10
202.3212086859007
 20
266.52329319543651
 30
0.0
 11
201.3611886858815
 21
270.9832831955257
 31
0.0
  0
ARC
  5
14A38
  8
AM_0
 10
204.3375986859412
 20
272.22983319555078
 30
0.0
 40
2.00656600004013
 50
189.94568000000021
 51
270.10246999999498
  0
LINE
  5
14A39
  8
AM_0
 10
201.84119868589119
 20
274.86327319560343
 30
0.0
 11
202.3611886859014
 21
271.88328319554381
 31
0.0
  0
LINE
  5
14A3A
  8
AM_0
 10
202.3011886859002
 20
263.08327319536778
 30
0.0
 11
201.38120868588189
 21
266.96328319544551
 31
0.0
  0
ARC
  5
14A3B
  8
AM_0
 10
204.28028868594009
 20
266.94785319544508
 30
0.0
 40
2.0045698000400902
 50
192.2279100000037
 51
270.02595999999568
  0
ARC
  5
14A3C
  8
AM_0
 10
204.22846868593891
 20
261.91061319534441
 30
0.0
 40
2.0073326000401459
 50
194.05005999999929
 51
269.79217999999798
  0
ARC
  5
14A3D
  8
AM_0
 10
217.60532868620629
 20
260.04740319530669
 30
0.0
 40
1.4958795000299161
 50
359.84195999999997
 51
90.158045999990549
  0
ARC
  5
14A3E
  8
AM_0
 10
221.11051868627629
 20
263.35261319537312
 30
0.0
 40
2.0093489000401861
 50
180.2659599999995
 51
269.73403999999891
  0
LINE
  5
14A3F
  8
AM_0
 10
219.1011786862361
 20
261.32328319533241
 30
0.0
 11
219.10117868623621
 21
268.72327319548032
 31
0.0
  0
ARC
  5
14A40
  8
AM_0
 10
217.60733868620639
 20
263.4494431953749
 30
0.0
 40
1.4938502000298759
 50
359.76363999999819
 51
90.236360999990552
  0
ARC
  5
14A41
  8
AM_0
 10
217.6084986862065
 20
268.73058319548039
 30
0.0
 40
1.492715800029853
 50
359.71971999999869
 51
90.280279000005834
  0
ARC
  5
14A42
  8
AM_0
 10
217.73310868620891
 20
258.40722319527413
 30
0.0
 40
1.496115700029921
 50
14.55818599999993
 51
90.456505000001712
  0
ARC
  5
14A43
  8
AM_0
 10
221.10868868627631
 20
259.97077319530541
 30
0.0
 40
2.007501100040149
 50
180.21370000000351
 51
269.7863100000003
  0
ARC
  5
14A44
  8
AM_0
 10
221.10633868627619
 20
261.32844319533251
 30
0.0
 40
2.0051613000401018
 50
180.14728999999889
 51
269.85271000000603
  0
ARC
  5
14A45
  8
AM_0
 10
221.10910868627639
 20
259.29896319529189
 30
0.0
 40
1.995694300039913
 50
194.9748799999976
 51
269.77264999999772
  0
LINE
  5
14A4D
  8
AM_0
 10
339.02596477516062
 20
297.20327319604849
 30
0.0
 11
321.60117868828672
 21
297.20327319604871
 31
0.0
  0
LINE
  5
14A4E
  8
AM_0
 10
320.7410102164572
 20
296.71328319603879
 30
0.0
 11
340.09969008304569
 21
296.71328319603879
 31
0.0
  0
LINE
  5
14A4F
  8
AM_0
 10
335.9211886885733
 20
289.83327319590097
 30
0.0
 11
321.60117868828661
 21
289.8332731959012
 31
0.0
  0
LINE
  5
14A50
  8
AM_0
 10
335.92118868857318
 20
287.2032731958484
 30
0.0
 11
276.1011786873766
 21
287.20327319584931
 31
0.0
  0
LINE
  5
14A51
  8
AM_0
 10
335.9211886885733
 20
289.20327319588841
 30
0.0
 11
276.1011786873766
 21
289.20327319588932
 31
0.0
  0
LINE
  5
14A52
  8
AM_0
 10
276.1011786873766
 20
286.47329319583469
 30
0.0
 11
335.92118868857318
 21
286.47329319583389
 31
0.0
  0
LINE
  5
14A53
  8
AM_0
 10
242.10117868669639
 20
276.86327319564288
 30
0.0
 11
335.92118868857312
 21
276.86327319564163
 31
0.0
  0
LINE
  5
14A54
  8
AM_0
 10
276.1011786873762
 20
261.34328319533211
 30
0.0
 11
335.9211886885729
 21
261.3432831953312
 31
0.0
  0
LINE
  5
14A55
  8
AM_0
 10
304.60117868794669
 20
289.83327319590148
 30
0.0
 11
276.1011786873766
 21
289.83327319590188
 31
0.0
  0
ARC
  5
14A56
  8
AM_0
 10
273.54992535704139
 20
298.20327322666441
 30
0.0
 40
1.0000380000199991
 50
269.50071599999279
 51
90.499289999994318
  0
ARC
  5
14A57
  8
AM_0
 10
321.60117868828661
 20
290.83327319592121
 30
0.0
 40
1.00000000002
 50
179.9999999999992
 51
269.9999999999992
1001
GENIUS_GENOBJ-N-FIL_13
1002
{
1000
OWNER
1000
GEN
1002
}
1001
GENIUS_GENODEF_13
1002
{
1000
HIER
1070
     0
1002
}
1002
{
1000
MANEDIT
1070
     0
1002
}
1002
{
1000
NOSEL
1070
     0
1002
}
1002
{
1000
BEHIND
1070
     0
1002
}
1002
{
1000
OTHER
1070
     0
1002
}
1002
{
1000
REACTOR
1002
}
  0
ARC
  5
14A58
  8
AM_0
 10
304.60117868794669
 20
290.83327319592149
 30
0.0
 40
1.00000000002
 50
269.9999999999992
 51
359.9999999999992
1001
GENIUS_GENOBJ-N-FIL_13
1002
{
1000
OWNER
1000
GEN
1002
}
1001
GENIUS_GENODEF_13
1002
{
1000
HIER
1070
     0
1002
}
1002
{
1000
MANEDIT
1070
     0
1002
}
1002
{
1000
NOSEL
1070
     0
1002
}
1002
{
1000
BEHIND
1070
     0
1002
}
1002
{
1000
OTHER
1070
     0
1002
}
1002
{
1000
REACTOR
1002
}
  0
LINE
  5
14A59
  8
AM_0
 10
305.60117868796669
 20
296.20327319602899
 30
0.0
 11
305.60117868796669
 21
290.83327319592149
 31
0.0
  0
CIRCLE
  5
14A5A
  8
AM_0
 10
310.60117868806668
 20
294.70324319599899
 30
0.0
 40
0.750000000015
  0
ARC
  5
14A5B
  8
AM_0
 10
304.6011786879468
 20
296.20327319602899
 30
0.0
 40
1.00000000002
 50
359.9999999999992
 51
89.999999999999204
1001
GENIUS_GENOBJ-N-FIL_13
1002
{
1000
OWNER
1000
GEN
1002
}
1001
GENIUS_GENODEF_13
1002
{
1000
HIER
1070
     0
1002
}
1002
{
1000
MANEDIT
1070
     0
1002
}
1002
{
1000
NOSEL
1070
     0
1002
}
1002
{
1000
BEHIND
1070
     0
1002
}
1002
{
1000
OTHER
1070
     0
1002
}
1002
{
1000
REACTOR
1002
}
  0
LINE
  5
14A5C
  8
AM_0
 10
320.60117868826683
 20
296.20327319602859
 30
0.0
 11
320.60117868826671
 21
290.83327319592121
 31
0.0
  0
ARC
  5
14A5D
  8
AM_0
 10
321.60117868828672
 20
296.20327319602859
 30
0.0
 40
1.00000000002
 50
89.999999999999204
 51
179.9999999999992
1001
GENIUS_GENOBJ-N-FIL_13
1002
{
1000
OWNER
1000
GEN
1002
}
1001
GENIUS_GENODEF_13
1002
{
1000
HIER
1070
     0
1002
}
1002
{
1000
MANEDIT
1070
     0
1002
}
1002
{
1000
NOSEL
1070
     0
1002
}
1002
{
1000
BEHIND
1070
     0
1002
}
1002
{
1000
OTHER
1070
     0
1002
}
1002
{
1000
REACTOR
1002
}
  0
CIRCLE
  5
14A5E
  8
AM_0
 10
315.60117868816673
 20
294.70324319599882
 30
0.0
 40
0.750000000015
  0
LINE
  5
14A5F
  8
AM_0
 10
320.60117868826671
 20
289.8332731959012
 30
0.0
 11
305.60117868796669
 21
289.83327319590148
 31
0.0
  0
ARC
  5
14A61
  8
AM_0
 10
342.76203868870948
 20
275.37649319561177
 30
0.0
 40
1.4868059000297349
 50
116.3897799999983
 51
165.7172600000001
  0
LINE
  5
14A62
  8
AM_0
 10
342.10117868869639
 20
276.32064319563068
 30
0.0
 11
341.1011786886765
 21
275.7432831956192
 31
0.0
  0
LINE
  5
14A63
  8
AM_0
 10
338.50119868862458
 20
278.34328319567101
 30
0.0
 11
338.50119868862453
 21
274.74328319559908
 31
0.0
  0
LINE
  5
14A64
  8
AM_0
 10
341.10117868867673
 20
280.34328319571119
 30
0.0
 11
341.10117868867638
 21
272.7432831955594
 31
0.0
  0
LINE
  5
14A65
  8
AM_0
 10
342.10117868869639
 20
280.34328319571119
 30
0.0
 11
342.10117868869639
 21
272.7432831955594
 31
0.0
  0
LINE
  5
14A66
  8
AM_0
 10
343.10117868871652
 20
286.06329319582568
 30
0.0
 11
351.10117868887659
 21
286.06329319582551
 31
0.0
  0
ARC
  5
14A67
  8
AM_0
 10
340.11596472282218
 20
298.17819319606792
 30
0.0
 40
1.465000400029298
 50
270.00000299999692
 51
89.999999999999204
  0
ARC
  5
14A68
  8
AM_0
 10
339.0259647228005
 20
298.20321319606842
 30
0.0
 40
1.0000032000200001
 50
270.00000299999692
 51
89.999999999999204
  0
LINE
  5
14A69
  8
AM_0
 10
335.92118868857312
 20
276.86327319564163
 30
0.0
 11
338.50119868862458
 21
276.86327319564163
 31
0.0
  0
LINE
  5
14A6A
  8
AM_0
 10
341.10117868867673
 20
280.04327319570513
 30
0.0
 11
340.20117868865862
 21
280.04327319570513
 31
0.0
  0
LINE
  5
14A6B
  8
AM_0
 10
341.10117868867673
 20
280.34328319571119
 30
0.0
 11
342.10117868869639
 21
280.34328319571119
 31
0.0
  0
LINE
  5
14A6C
  8
AM_0
 10
336.44119868858343
 20
287.2032731958484
 30
0.0
 11
335.92118868857318
 21
287.2032731958484
 31
0.0
  0
LINE
  5
14A6D
  8
AM_0
 10
335.92118868857318
 20
286.47329319583389
 30
0.0
 11
342.10117848695597
 21
286.47329319583389
 31
0.0
  0
ARC
  5
14A6E
  8
AM_0
 10
340.20117868865862
 20
278.34328319567101
 30
0.0
 40
1.6999969000339989
 50
90.000002999996894
 51
179.99998000000369
  0
LINE
  5
14A6F
  8
AM_0
 10
342.10117868869639
 20
277.32064319565069
 30
0.0
 11
341.1011786886765
 21
276.7433131956393
 31
0.0
  0
LINE
  5
14A70
  8
AM_0
 10
336.44119868858343
 20
289.20327319588841
 30
0.0
 11
335.9211886885733
 21
289.20327319588841
 31
0.0
  0
LINE
  5
14A71
  8
AM_0
 10
339.9211886886531
 20
289.83327319590097
 30
0.0
 11
335.9211886885733
 21
289.83327319590097
 31
0.0
  0
ARC
  5
14A72
  8
AM_0
 10
336.44119868858343
 20
288.20327319586841
 30
0.0
 40
1.0000074000200001
 50
269.9999999999992
 51
90.000002999996894
  0
ARC
  5
14A73
  8
AM_0
 10
339.9150786886529
 20
288.15328319586729
 30
0.0
 40
1.680011000033599
 50
270.20802999999728
 51
89.791968999999597
  0
LINE
  5
14A75
  8
AM_0
 10
343.1001034335107
 20
259.20328319528841
 30
0.0
 11
351.10117868887619
 21
259.20328319528812
 31
0.0
  0
LINE
  5
14A76
  8
AM_0
 10
343.1011786887164
 20
271.16328319552758
 30
0.0
 11
351.10117868887642
 21
271.16328319552741
 31
0.0
  0
ARC
  5
14A77
  8
AM_0
 10
335.91153868857248
 20
263.36027319537152
 30
0.0
 40
2.0170178000403398
 50
270.27369999999542
 51
345.14839999999742
  0
LINE
  5
14A78
  8
AM_0
 10
337.86118868887621
 20
258.80327319656891
 30
0.0
 11
339.416341148085
 21
264.601393345237
 31
0.0
  0
LINE
  5
14A79
  8
AM_0
 10
337.86118868887621
 20
260.82327319656889
 30
0.0
 11
340.5106678302518
 21
270.70140334523722
 31
0.0
  0
LINE
  5
14A7A
  8
AM_0
 10
337.86118868887621
 20
259.46327319656871
 30
0.0
 11
339.78648283025171
 21
266.64140334523722
 31
0.0
  0
LINE
  5
14A7B
  8
AM_0
 10
338.90723637104281
 20
262.70328319656869
 30
0.0
 11
342.10117843781592
 21
262.70328319656869
 31
0.0
  0
LINE
  5
14A7C
  8
AM_0
 10
339.63678302220961
 20
266.0832731965686
 30
0.0
 11
341.34806356901998
 21
266.0832731965686
 31
0.0
  0
ARC
  5
14A7D
  8
AM_0
 10
343.10959868871652
 20
272.17168319554781
 30
0.0
 40
1.0084445000201681
 50
189.54607000000311
 51
269.5221999999996
  0
LINE
  5
14A7E
  8
AM_0
 10
341.10117868867638
 20
273.04328319556521
 30
0.0
 11
340.2011786886585
 21
273.04328319556521
 31
0.0
  0
LINE
  5
14A7F
  8
AM_0
 10
341.10117868867638
 20
272.7432831955594
 30
0.0
 11
342.10117868869639
 21
272.7432831955594
 31
0.0
  0
LINE
  5
14A80
  8
AM_0
 10
340.36633503770958
 20
272.18328319656871
 30
0.0
 11
342.10117845748601
 21
272.18328319656848
 31
0.0
  0
ARC
  5
14A81
  8
AM_0
 10
342.44239025118691
 20
270.18328319656848
 30
0.0
 40
2.0
 50
99.823049039720502
 51
164.98570240157611
1001
GENIUS_GENOBJ-N-FIL_13
1002
{
1000
OWNER
1000
GEN
1002
}
1001
GENIUS_GENODEF_13
1002
{
1000
HIER
1070
     0
1002
}
1002
{
1000
MANEDIT
1070
     0
1002
}
1002
{
1000
NOSEL
1070
     0
1002
}
1002
{
1000
BEHIND
1070
     0
1002
}
1002
{
1000
OTHER
1070
     0
1002
}
1002
{
1000
REACTOR
1002
}
  0
LINE
  5
14A82
  8
AM_0
 10
339.81917303770962
 20
268.12328319656848
 30
0.0
 11
341.71820525118682
 21
268.12328319656848
 31
0.0
  0
ARC
  5
14A83
  8
AM_0
 10
341.71820525118682
 20
266.12328319656871
 30
0.0
 40
2.0
 50
89.999999999999204
 51
164.98570240157611
1001
GENIUS_GENODEF_13
1002
{
1000
HIER
1070
     0
1002
}
1002
{
1000
MANEDIT
1070
     0
1002
}
1002
{
1000
NOSEL
1070
     0
1002
}
1002
{
1000
BEHIND
1070
     0
1002
}
1002
{
1000
OTHER
1070
     0
1002
}
1002
{
1000
REACTOR
1002
}
1001
GENIUS_GENOBJ-N-FIL_13
1002
{
1000
OWNER
1000
GEN
1002
}
  0
ARC
  5
14A84
  8
AM_0
 10
340.2011786886585
 20
274.74328319559908
 30
0.0
 40
1.700000800033999
 50
180.0000100000002
 51
269.99997999999721
  0
LINE
  5
14A85
  8
AM_0
 10
337.86118868861132
 20
262.84327319536101
 30
0.0
 11
340.59699868866619
 21
273.04327319556518
 31
0.0
  0
ARC
  5
14A86
  8
AM_0
 10
341.34806356901998
 20
264.0832731965686
 30
0.0
 40
2.0
 50
89.999999999999204
 51
164.98570240157611
1001
GENIUS_GENOBJ-N-FIL_13
1002
{
1000
OWNER
1000
GEN
1002
}
1001
GENIUS_GENODEF_13
1002
{
1000
HIER
1070
     0
1002
}
1002
{
1000
MANEDIT
1070
     0
1002
}
1002
{
1000
NOSEL
1070
     0
1002
}
1002
{
1000
BEHIND
1070
     0
1002
}
1002
{
1000
OTHER
1070
     0
1002
}
1002
{
1000
REACTOR
1002
}
  0
ARC
  5
14A87
  8
AM_0
 10
343.11026868871642
 20
260.2123631953084
 30
0.0
 40
1.0091312000201811
 50
180.5161299999987
 51
269.48386999999963
  0
ARC
  5
14A88
  8
AM_0
 10
335.91153868887619
 20
259.98027319656848
 30
0.0
 40
2.0170177999999992
 50
270.27369999999542
 51
345.14839999999742
  0
ARC
  5
14A89
  8
AM_0
 10
335.91153868887619
 20
261.3402731965686
 30
0.0
 40
2.0170177999999992
 50
270.27369999999542
 51
345.14839999999742
  0
ARC
  5
14A8A
  8
AM_0
 10
335.91153868887619
 20
259.32027319656868
 30
0.0
 40
2.0170177999999992
 50
270.27369999999542
 51
345.14839999999742
  0
LINE
  5
15369
  8
ﾁｭｳｼﾝｾﾝ1
 10
844.94269890618455
 20
431.59365606752033
 30
0.0
 11
844.94269890618455
 21
248.2226791411363
 31
0.0
  0
LINE
  5
1536B
  8
AM_0
 10
908.94270081481363
 20
391.2044049264988
 30
0.0
 11
908.94270081481363
 21
291.20280254026488
 31
0.0
  0
LINE
  5
1536D
  8
AM_0
 10
780.94269699755625
 20
391.2044049264988
 30
0.0
 11
780.94269699755625
 21
291.20280254026488
 31
0.0
  0
LINE
  5
15370
  8
AM_0
 10
785.94269714666814
 20
420.89102135947951
 30
0.0
 11
785.94269714666837
 21
251.20360373338141
 31
0.0
  0
LINE
  5
15371
  8
AM_0
 10
810.94269789222608
 20
421.20360373498153
 30
0.0
 11
810.94269789222574
 21
261.20360373178119
 31
0.0
  0
LINE
  5
15372
  8
AM_0
 10
903.94270066570209
 20
419.459657240865
 30
0.0
 11
903.94270066570232
 21
251.20360373338141
 31
0.0
  0
LINE
  5
15377
  8
AM_0
 10
952.44270068222204
 20
241.2036037333813
 30
0.0
 11
913.9427006657022
 21
241.20360373338141
 31
0.0
  0
LINE
  5
15378
  8
AM_0
 10
952.44270068222158
 20
247.2036037333815
 30
0.0
 11
914.94270068222158
 21
247.2036037333815
 31
0.0
  0
LINE
  5
15379
  8
AM_0
 10
942.4427006822217
 20
257.20360373338173
 30
0.0
 11
924.24270068222165
 21
275.40360373338171
 31
0.0
  0
LINE
  5
1537C
  8
AM_0
 10
737.44269713014774
 20
241.20360373338141
 30
0.0
 11
775.94269714666825
 21
241.20360373338141
 31
0.0
  0
LINE
  5
1537D
  8
AM_0
 10
737.44269713014785
 20
247.20360373338141
 30
0.0
 11
774.94269713014785
 21
247.2036037333815
 31
0.0
  0
LINE
  5
1537E
  8
ｶｸﾚｾﾝ2
 10
744.94269713014796
 20
247.20360373338181
 30
0.0
 11
744.94269713014774
 21
241.20360373338161
 31
0.0
  0
LINE
  5
1537F
  8
AM_0
 10
737.44269713014785
 20
247.2036037333815
 30
0.0
 11
737.44269713014774
 21
241.20360373338181
 31
0.0
  0
LINE
  5
15380
  8
AM_0
 10
747.44269713014785
 20
257.20360373338173
 30
0.0
 11
747.44269713014774
 21
247.20360373338141
 31
0.0
  0
LINE
  5
15381
  8
ﾁｭｳｼﾝｾﾝ1
 10
752.44269713014796
 20
258.95360373338173
 30
0.0
 11
752.44269713014774
 21
229.45360373338161
 31
0.0
  0
LINE
  5
15382
  8
AM_0
 10
909.94270068222215
 20
291.2026025412647
 30
0.0
 11
909.9427006822217
 21
252.2036037333815
 31
0.0
  0
LINE
  5
15383
  8
AM_0
 10
779.94269713014774
 20
291.2026025412647
 30
0.0
 11
779.94269713014785
 21
252.2036037333815
 31
0.0
  0
LINE
  5
15385
  8
ｶｸﾚｾﾝ2
 10
759.94269713014819
 20
247.20360373338181
 30
0.0
 11
759.94269713014774
 21
241.20360373338119
 31
0.0
  0
ARC
  5
15386
  8
AM_0
 10
775.94269714666825
 20
251.20360373338141
 30
0.0
 40
10.0
 50
270.0
 51
0.0
1001
GENIUS_GENOBJ-N-FIL_13
1002
{
1000
OWNER
1000
GEN
1002
}
1001
GENIUS_GENODEF_13
1002
{
1000
HIER
1070
     0
1002
}
1002
{
1000
MANEDIT
1070
     0
1002
}
1002
{
1000
NOSEL
1070
     0
1002
}
1002
{
1000
BEHIND
1070
     0
1002
}
1002
{
1000
OTHER
1070
     0
1002
}
1002
{
1000
REACTOR
1002
}
  0
ARC
  5
15387
  8
AM_0
 10
774.94269713014785
 20
252.2036037333815
 30
0.0
 40
5.0
 50
270.0
 51
0.0
1001
GENIUS_GENOBJ-N-FIL_13
1002
{
1000
OWNER
1000
GEN
1002
}
1001
GENIUS_GENODEF_13
1002
{
1000
HIER
1070
     0
1002
}
1002
{
1000
MANEDIT
1070
     0
1002
}
1002
{
1000
NOSEL
1070
     0
1002
}
1002
{
1000
BEHIND
1070
     0
1002
}
1002
{
1000
OTHER
1070
     0
1002
}
1002
{
1000
REACTOR
1002
}
  0
LINE
  5
15388
  8
AM_0
 10
772.79803618947517
 20
247.2036037333815
 30
0.0
 11
779.94269713014785
 21
254.34826467405421
 31
0.0
  0
ARC
  5
15389
  8
AM_0
 10
913.9427006657022
 20
251.20360373338141
 30
0.0
 40
10.0
 50
180.0
 51
270.0
1001
GENIUS_GENODEF_13
1002
{
1000
HIER
1070
     0
1002
}
1002
{
1000
MANEDIT
1070
     0
1002
}
1002
{
1000
NOSEL
1070
     0
1002
}
1002
{
1000
BEHIND
1070
     0
1002
}
1002
{
1000
OTHER
1070
     0
1002
}
1002
{
1000
REACTOR
1002
}
1001
GENIUS_GENOBJ-N-FIL_13
1002
{
1000
OWNER
1000
GEN
1002
}
  0
ARC
  5
1538A
  8
AM_0
 10
914.94270068222158
 20
252.2036037333815
 30
0.0
 40
5.0
 50
180.0
 51
270.0
1001
GENIUS_GENOBJ-N-FIL_13
1002
{
1000
OWNER
1000
GEN
1002
}
1001
GENIUS_GENODEF_13
1002
{
1000
HIER
1070
     0
1002
}
1002
{
1000
MANEDIT
1070
     0
1002
}
1002
{
1000
NOSEL
1070
     0
1002
}
1002
{
1000
BEHIND
1070
     0
1002
}
1002
{
1000
OTHER
1070
     0
1002
}
1002
{
1000
REACTOR
1002
}
  0
LINE
  5
1538B
  8
AM_0
 10
917.08736162289449
 20
247.2036037333815
 30
0.0
 11
909.9427006822217
 21
254.34826467405421
 31
0.0
  0
LINE
  5
1538C
  8
ﾁｭｳｼﾝｾﾝ1
 10
683.94501652599035
 20
341.20360373338139
 30
0.0
 11
1005.940381286379
 21
341.20360373338139
 31
0.0
  0
LINE
  5
1538D
  8
ﾁｭｳｼﾝｾﾝ1
 10
799.10697284745606
 20
323.20324319656902
 30
0.0
 11
890.77842496491382
 21
323.20324319656902
 31
0.0
  0
LINE
  5
1538E
  8
AM_0
 10
903.94270066570209
 20
262.94755022589811
 30
0.0
 11
810.94269789222574
 21
261.20360373178119
 31
0.0
  0
ARC
  5
1538F
  8
AM_0
 10
844.94269890618455
 20
323.20324319656902
 30
0.0
 40
63.503836254666012
 50
256.11368525499648
 51
286.03489670621428
  0
LINE
  5
15391
  8
AM_0
 10
788.94269723613513
 20
302.70283258519908
 30
0.0
 11
794.94269741506866
 21
302.70283258519908
 31
0.0
  0
LINE
  5
15392
  8
AM_0
 10
785.94269714666814
 20
303.7028526150221
 30
0.0
 11
794.94269741506866
 21
303.7028526150221
 31
0.0
  0
LINE
  5
15393
  8
AM_0
 10
788.94269723613513
 20
289.70257219750118
 30
0.0
 11
794.94269741506866
 21
289.70257219750118
 31
0.0
  0
LINE
  5
15394
  8
AM_0
 10
785.94269714666814
 20
288.70255216767828
 30
0.0
 11
794.94269741506866
 21
288.70255216767828
 31
0.0
  0
LINE
  5
15395
  8
AM_0
 10
810.94269789222574
 20
261.20360373178119
 30
0.0
 11
785.94269714666814
 21
261.51621662547342
 31
0.0
  0
ARC
  5
15397
  8
AM_0N
 10
773.0473760216089
 20
283.99855179619169
 30
0.0
 40
4.5953211085391104
 50
325.56153059521603
 51
25.561530595431488
1001
GENIUS_GENOREF_13
1005
0
  0
ARC
  5
15398
  8
AM_0N
 10
771.43801823868716
 20
283.99855179619169
 30
0.0
 40
4.5953211085391104
 50
154.43846940456851
 51
214.438469404784
1001
GENIUS_GENOREF_13
1005
0
  0
LINE
  5
15399
  8
AM_0N
 10
777.64269713014789
 20
288.20230179619159
 30
0.0
 11
777.64269713014789
 21
264.20230179619159
 31
0.0
1001
GENIUS_GENOREF_13
1005
0
  0
LINE
  5
1539A
  8
AM_0N
 10
766.84269713014805
 20
285.20230179619159
 30
0.0
 11
766.84269713014805
 21
267.2023017961917
 31
0.0
1001
GENIUS_GENOREF_13
1005
0
  0
LINE
  5
1539B
  8
AM_0N
 10
767.64810075566754
 20
281.3998017961917
 30
0.0
 11
776.83729350462841
 21
281.3998017961917
 31
0.0
1001
GENIUS_GENOREF_13
1005
0
  0
LINE
  5
1539C
  8
AM_0N
 10
767.64810075566754
 20
265.80730179619172
 30
0.0
 11
776.83729350462841
 21
265.80730179619172
 31
0.0
1001
GENIUS_GENOREF_13
1005
0
  0
LINE
  5
1539D
  8
AM_0N
 10
767.64810075566754
 20
271.0048017961916
 30
0.0
 11
776.83729350462841
 21
271.0048017961916
 31
0.0
1001
GENIUS_GENOREF_13
1005
0
  0
ARC
  5
1539E
  8
AM_0N
 10
771.43801823868716
 20
268.40605179619411
 30
0.0
 40
4.5953211085391104
 50
145.5615305952401
 51
205.56153059561731
1001
GENIUS_GENOREF_13
1005
0
  0
LINE
  5
1539F
  8
AM_0
 10
747.44269713014785
 20
257.20360373338173
 30
0.0
 11
764.24270068222165
 21
274.0036072854557
 31
0.0
  0
LINE
  5
153A0
  8
AM_0N
 10
767.64810075566754
 20
265.80730179619172
 30
0.0
 11
766.84269713014805
 21
267.2023017961917
 31
0.0
1001
GENIUS_GENOREF_13
1005
0
  0
LINE
  5
153A1
  8
AM_4N
 10
764.24270068222165
 20
281.12876429619172
 30
0.0
 11
766.84269713014805
 21
281.12876429619172
 31
0.0
1001
GENIUS_GENOREF_13
1005
0
  0
LINE
  5
153A2
  8
AM_0N
 10
765.3162381822217
 20
282.2023017961917
 30
0.0
 11
764.24270068222165
 21
281.12876429619172
 31
0.0
1001
GENIUS_GENOREF_13
1005
0
  0
LINE
  5
153A3
  8
AM_0N
 10
766.84269713014805
 20
282.2023017961917
 30
0.0
 11
765.3162381822217
 21
282.2023017961917
 31
0.0
1001
GENIUS_GENOREF_13
1005
0
  0
LINE
  5
153A4
  8
AM_4N
 10
764.24270068222165
 20
271.2758392961918
 30
0.0
 11
766.84269713014805
 21
271.2758392961918
 31
0.0
1001
GENIUS_GENOREF_13
1005
0
  0
LINE
  5
153A5
  8
AM_0N
 10
765.3162381822217
 20
270.20230179619159
 30
0.0
 11
764.24270068222165
 21
271.2758392961918
 31
0.0
1001
GENIUS_GENOREF_13
1005
0
  0
LINE
  5
153A6
  8
AM_0N
 10
766.84269713014805
 20
270.20230179619159
 30
0.0
 11
765.3162381822217
 21
270.20230179619159
 31
0.0
1001
GENIUS_GENOREF_13
1005
0
  0
ARC
  5
153A7
  8
AM_0N
 10
784.01587612602145
 20
276.20230179619159
 30
0.0
 40
17.173178995873389
 50
162.3830311595805
 51
197.6169688404203
1001
GENIUS_GENOREF_13
1005
0
  0
LINE
  5
153A8
  8
AM_0N
 10
765.3162381822217
 20
282.2023017961917
 30
0.0
 11
765.3162381822217
 21
270.20230179619159
 31
0.0
1001
GENIUS_GENOREF_13
1005
0
  0
LINE
  5
153A9
  8
AM_0N
 10
764.24270068222165
 20
281.12876429619172
 30
0.0
 11
764.24270068222165
 21
271.2758392961918
 31
0.0
1001
GENIUS_GENOREF_13
1005
0
  0
ARC
  5
153AA
  8
AM_0N
 10
773.04737602160117
 20
268.40605179619172
 30
0.0
 40
4.5953211085467949
 50
334.43846940473821
 51
34.438469404735002
1001
GENIUS_GENOREF_13
1005
0
  0
LINE
  5
153AB
  8
AM_0N
 10
776.83729350462841
 20
265.80730179619172
 30
0.0
 11
777.64269713014789
 21
267.2023017961917
 31
0.0
1001
GENIUS_GENOREF_13
1005
0
  0
LINE
  5
153AC
  8
AM_0N
 10
777.64269713014789
 20
264.20230179619159
 30
0.0
 11
779.94269713014785
 21
264.20230179619159
 31
0.0
1001
GENIUS_GENOREF_13
1005
0
  0
ARC
  5
153AD
  8
AM_0N
 10
760.46951813427472
 20
276.20230179619159
 30
0.0
 40
17.17317899587335
 50
342.38303115957967
 51
17.616968840419521
1001
GENIUS_GENOREF_13
1005
0
  0
LINE
  5
153AE
  8
AM_0N
 10
767.64810075566754
 20
286.59730179619169
 30
0.0
 11
776.83729350462841
 21
286.59730179619169
 31
0.0
1001
GENIUS_GENOREF_13
1005
0
  0
LINE
  5
153AF
  8
AM_0N
 10
767.64810075566754
 20
286.59730179619169
 30
0.0
 11
766.84269713014805
 21
285.20230179619159
 31
0.0
1001
GENIUS_GENOREF_13
1005
0
  0
LINE
  5
153B0
  8
AM_0
 10
786.94269717649036
 20
291.70261225714688
 30
0.0
 11
786.94269717649036
 21
300.70279252555321
 31
0.0
  0
LINE
  5
153B2
  8
AM_0
 10
779.94269713014785
 20
291.2026025412647
 30
0.0
 11
785.94269713014774
 21
291.2026025412647
 31
0.0
  0
LINE
  5
153B3
  8
AM_0N
 10
776.83729350462841
 20
286.59730179619169
 30
0.0
 11
777.64269713014789
 21
285.20230179619159
 31
0.0
1001
GENIUS_GENOREF_13
1005
0
  0
LINE
  5
153B4
  8
AM_0N
 10
779.94269713014785
 20
288.20230179619159
 30
0.0
 11
777.64269713014789
 21
288.20230179619159
 31
0.0
1001
GENIUS_GENOREF_13
1005
0
  0
LINE
  5
153B5
  8
AM_0
 10
780.94269699755625
 20
291.20280254026488
 30
0.0
 11
785.94269714666814
 21
291.20280254026488
 31
0.0
  0
POLYLINE
  5
153B6
  8
AM_0
 10
786.94269717649047
 20
291.70261208229778
 30
0.0
 66
     1
 70
     8
  0
VERTEX
  8
AM_0
  5
1644D
 10
786.943
 20
291.703
 30
0.000000
  70
    32
  0
VERTEX
  8
AM_0
  5
1644E
 10
786.943
 20
291.678
 30
0.000000
  70
    32
  0
VERTEX
  8
AM_0
  5
1644F
 10
786.943
 20
291.654
 30
0.000000
  70
    32
  0
VERTEX
  8
AM_0
  5
16450
 10
786.944
 20
291.629
 30
0.000000
  70
    32
  0
VERTEX
  8
AM_0
  5
16451
 10
786.945
 20
291.604
 30
0.000000
  70
    32
  0
VERTEX
  8
AM_0
  5
16452
 10
786.946
 20
291.580
 30
0.000000
  70
    32
  0
VERTEX
  8
AM_0
  5
16453
 10
786.948
 20
291.555
 30
0.000000
  70
    32
  0
VERTEX
  8
AM_0
  5
16454
 10
786.950
 20
291.531
 30
0.000000
  70
    32
  0
VERTEX
  8
AM_0
  5
16455
 10
786.952
 20
291.507
 30
0.000000
  70
    32
  0
VERTEX
  8
AM_0
  5
16456
 10
786.955
 20
291.482
 30
0.000000
  70
    32
  0
VERTEX
  8
AM_0
  5
16457
 10
786.958
 20
291.458
 30
0.000000
  70
    32
  0
VERTEX
  8
AM_0
  5
16458
 10
786.961
 20
291.433
 30
0.000000
  70
    32
  0
VERTEX
  8
AM_0
  5
16459
 10
786.964
 20
291.409
 30
0.000000
  70
    32
  0
VERTEX
  8
AM_0
  5
1645A
 10
786.968
 20
291.385
 30
0.000000
  70
    32
  0
VERTEX
  8
AM_0
  5
1645B
 10
786.972
 20
291.361
 30
0.000000
  70
    32
  0
VERTEX
  8
AM_0
  5
1645C
 10
786.976
 20
291.337
 30
0.000000
  70
    32
  0
VERTEX
  8
AM_0
  5
1645D
 10
786.981
 20
291.312
 30
0.000000
  70
    32
  0
VERTEX
  8
AM_0
  5
1645E
 10
786.986
 20
291.288
 30
0.000000
  70
    32
  0
VERTEX
  8
AM_0
  5
1645F
 10
786.991
 20
291.264
 30
0.000000
  70
    32
  0
VERTEX
  8
AM_0
  5
16460
 10
786.997
 20
291.240
 30
0.000000
  70
    32
  0
VERTEX
  8
AM_0
  5
16461
 10
787.003
 20
291.217
 30
0.000000
  70
    32
  0
VERTEX
  8
AM_0
  5
16462
 10
787.009
 20
291.193
 30
0.000000
  70
    32
  0
VERTEX
  8
AM_0
  5
16463
 10
787.015
 20
291.169
 30
0.000000
  70
    32
  0
VERTEX
  8
AM_0
  5
16464
 10
787.022
 20
291.146
 30
0.000000
  70
    32
  0
VERTEX
  8
AM_0
  5
16465
 10
787.029
 20
291.122
 30
0.000000
  70
    32
  0
VERTEX
  8
AM_0
  5
16466
 10
787.036
 20
291.099
 30
0.000000
  70
    32
  0
VERTEX
  8
AM_0
  5
16467
 10
787.044
 20
291.075
 30
0.000000
  70
    32
  0
VERTEX
  8
AM_0
  5
16468
 10
787.051
 20
291.052
 30
0.000000
  70
    32
  0
VERTEX
  8
AM_0
  5
16469
 10
787.060
 20
291.029
 30
0.000000
  70
    32
  0
VERTEX
  8
AM_0
  5
1646A
 10
787.068
 20
291.006
 30
0.000000
  70
    32
  0
VERTEX
  8
AM_0
  5
1646B
 10
787.077
 20
290.983
 30
0.000000
  70
    32
  0
VERTEX
  8
AM_0
  5
1646C
 10
787.086
 20
290.960
 30
0.000000
  70
    32
  0
VERTEX
  8
AM_0
  5
1646D
 10
787.095
 20
290.937
 30
0.000000
  70
    32
  0
VERTEX
  8
AM_0
  5
1646E
 10
787.104
 20
290.915
 30
0.000000
  70
    32
  0
VERTEX
  8
AM_0
  5
1646F
 10
787.114
 20
290.892
 30
0.000000
  70
    32
  0
VERTEX
  8
AM_0
  5
16470
 10
787.124
 20
290.870
 30
0.000000
  70
    32
  0
VERTEX
  8
AM_0
  5
16471
 10
787.135
 20
290.847
 30
0.000000
  70
    32
  0
VERTEX
  8
AM_0
  5
16472
 10
787.145
 20
290.825
 30
0.000000
  70
    32
  0
VERTEX
  8
AM_0
  5
16473
 10
787.156
 20
290.803
 30
0.000000
  70
    32
  0
VERTEX
  8
AM_0
  5
16474
 10
787.167
 20
290.782
 30
0.000000
  70
    32
  0
VERTEX
  8
AM_0
  5
16475
 10
787.179
 20
290.760
 30
0.000000
  70
    32
  0
VERTEX
  8
AM_0
  5
16476
 10
787.191
 20
290.738
 30
0.000000
  70
    32
  0
VERTEX
  8
AM_0
  5
16477
 10
787.203
 20
290.717
 30
0.000000
  70
    32
  0
VERTEX
  8
AM_0
  5
16478
 10
787.215
 20
290.696
 30
0.000000
  70
    32
  0
VERTEX
  8
AM_0
  5
16479
 10
787.227
 20
290.674
 30
0.000000
  70
    32
  0
VERTEX
  8
AM_0
  5
1647A
 10
787.240
 20
290.653
 30
0.000000
  70
    32
  0
VERTEX
  8
AM_0
  5
1647B
 10
787.253
 20
290.633
 30
0.000000
  70
    32
  0
VERTEX
  8
AM_0
  5
1647C
 10
787.266
 20
290.612
 30
0.000000
  70
    32
  0
VERTEX
  8
AM_0
  5
1647D
 10
787.280
 20
290.591
 30
0.000000
  70
    32
  0
VERTEX
  8
AM_0
  5
1647E
 10
787.294
 20
290.571
 30
0.000000
  70
    32
  0
VERTEX
  8
AM_0
  5
1647F
 10
787.308
 20
290.551
 30
0.000000
  70
    32
  0
VERTEX
  8
AM_0
  5
16480
 10
787.322
 20
290.531
 30
0.000000
  70
    32
  0
VERTEX
  8
AM_0
  5
16481
 10
787.336
 20
290.511
 30
0.000000
  70
    32
  0
VERTEX
  8
AM_0
  5
16482
 10
787.351
 20
290.492
 30
0.000000
  70
    32
  0
VERTEX
  8
AM_0
  5
16483
 10
787.366
 20
290.472
 30
0.000000
  70
    32
  0
VERTEX
  8
AM_0
  5
16484
 10
787.381
 20
290.453
 30
0.000000
  70
    32
  0
VERTEX
  8
AM_0
  5
16485
 10
787.397
 20
290.434
 30
0.000000
  70
    32
  0
VERTEX
  8
AM_0
  5
16486
 10
787.412
 20
290.415
 30
0.000000
  70
    32
  0
VERTEX
  8
AM_0
  5
16487
 10
787.428
 20
290.396
 30
0.000000
  70
    32
  0
VERTEX
  8
AM_0
  5
16488
 10
787.444
 20
290.378
 30
0.000000
  70
    32
  0
VERTEX
  8
AM_0
  5
16489
 10
787.461
 20
290.359
 30
0.000000
  70
    32
  0
VERTEX
  8
AM_0
  5
1648A
 10
787.477
 20
290.341
 30
0.000000
  70
    32
  0
VERTEX
  8
AM_0
  5
1648B
 10
787.494
 20
290.324
 30
0.000000
  70
    32
  0
VERTEX
  8
AM_0
  5
1648C
 10
787.511
 20
290.306
 30
0.000000
  70
    32
  0
VERTEX
  8
AM_0
  5
1648D
 10
787.528
 20
290.288
 30
0.000000
  70
    32
  0
VERTEX
  8
AM_0
  5
1648E
 10
787.546
 20
290.271
 30
0.000000
  70
    32
  0
VERTEX
  8
AM_0
  5
1648F
 10
787.564
 20
290.254
 30
0.000000
  70
    32
  0
VERTEX
  8
AM_0
  5
16490
 10
787.581
 20
290.237
 30
0.000000
  70
    32
  0
VERTEX
  8
AM_0
  5
16491
 10
787.600
 20
290.221
 30
0.000000
  70
    32
  0
VERTEX
  8
AM_0
  5
16492
 10
787.618
 20
290.204
 30
0.000000
  70
    32
  0
VERTEX
  8
AM_0
  5
16493
 10
787.636
 20
290.188
 30
0.000000
  70
    32
  0
VERTEX
  8
AM_0
  5
16494
 10
787.655
 20
290.172
 30
0.000000
  70
    32
  0
VERTEX
  8
AM_0
  5
16495
 10
787.674
 20
290.157
 30
0.000000
  70
    32
  0
VERTEX
  8
AM_0
  5
16496
 10
787.693
 20
290.141
 30
0.000000
  70
    32
  0
VERTEX
  8
AM_0
  5
16497
 10
787.712
 20
290.126
 30
0.000000
  70
    32
  0
VERTEX
  8
AM_0
  5
16498
 10
787.732
 20
290.111
 30
0.000000
  70
    32
  0
VERTEX
  8
AM_0
  5
16499
 10
787.751
 20
290.096
 30
0.000000
  70
    32
  0
VERTEX
  8
AM_0
  5
1649A
 10
787.771
 20
290.082
 30
0.000000
  70
    32
  0
VERTEX
  8
AM_0
  5
1649B
 10
787.791
 20
290.067
 30
0.000000
  70
    32
  0
VERTEX
  8
AM_0
  5
1649C
 10
787.811
 20
290.053
 30
0.000000
  70
    32
  0
VERTEX
  8
AM_0
  5
1649D
 10
787.832
 20
290.040
 30
0.000000
  70
    32
  0
VERTEX
  8
AM_0
  5
1649E
 10
787.852
 20
290.026
 30
0.000000
  70
    32
  0
VERTEX
  8
AM_0
  5
1649F
 10
787.873
 20
290.013
 30
0.000000
  70
    32
  0
VERTEX
  8
AM_0
  5
164A0
 10
787.894
 20
290.000
 30
0.000000
  70
    32
  0
VERTEX
  8
AM_0
  5
164A1
 10
787.914
 20
289.987
 30
0.000000
  70
    32
  0
VERTEX
  8
AM_0
  5
164A2
 10
787.936
 20
289.975
 30
0.000000
  70
    32
  0
VERTEX
  8
AM_0
  5
164A3
 10
787.957
 20
289.962
 30
0.000000
  70
    32
  0
VERTEX
  8
AM_0
  5
164A4
 10
787.978
 20
289.950
 30
0.000000
  70
    32
  0
VERTEX
  8
AM_0
  5
164A5
 10
788.000
 20
289.939
 30
0.000000
  70
    32
  0
VERTEX
  8
AM_0
  5
164A6
 10
788.022
 20
289.927
 30
0.000000
  70
    32
  0
VERTEX
  8
AM_0
  5
164A7
 10
788.043
 20
289.916
 30
0.000000
  70
    32
  0
VERTEX
  8
AM_0
  5
164A8
 10
788.065
 20
289.905
 30
0.000000
  70
    32
  0
VERTEX
  8
AM_0
  5
164A9
 10
788.088
 20
289.895
 30
0.000000
  70
    32
  0
VERTEX
  8
AM_0
  5
164AA
 10
788.110
 20
289.884
 30
0.000000
  70
    32
  0
VERTEX
  8
AM_0
  5
164AB
 10
788.132
 20
289.874
 30
0.000000
  70
    32
  0
VERTEX
  8
AM_0
  5
164AC
 10
788.155
 20
289.864
 30
0.000000
  70
    32
  0
VERTEX
  8
AM_0
  5
164AD
 10
788.177
 20
289.855
 30
0.000000
  70
    32
  0
VERTEX
  8
AM_0
  5
164AE
 10
788.200
 20
289.846
 30
0.000000
  70
    32
  0
VERTEX
  8
AM_0
  5
164AF
 10
788.223
 20
289.837
 30
0.000000
  70
    32
  0
VERTEX
  8
AM_0
  5
164B0
 10
788.246
 20
289.828
 30
0.000000
  70
    32
  0
VERTEX
  8
AM_0
  5
164B1
 10
788.269
 20
289.819
 30
0.000000
  70
    32
  0
VERTEX
  8
AM_0
  5
164B2
 10
788.292
 20
289.811
 30
0.000000
  70
    32
  0
VERTEX
  8
AM_0
  5
164B3
 10
788.315
 20
289.804
 30
0.000000
  70
    32
  0
VERTEX
  8
AM_0
  5
164B4
 10
788.339
 20
289.796
 30
0.000000
  70
    32
  0
VERTEX
  8
AM_0
  5
164B5
 10
788.362
 20
289.789
 30
0.000000
  70
    32
  0
VERTEX
  8
AM_0
  5
164B6
 10
788.386
 20
289.782
 30
0.000000
  70
    32
  0
VERTEX
  8
AM_0
  5
164B7
 10
788.409
 20
289.775
 30
0.000000
  70
    32
  0
VERTEX
  8
AM_0
  5
164B8
 10
788.433
 20
289.769
 30
0.000000
  70
    32
  0
VERTEX
  8
AM_0
  5
164B9
 10
788.457
 20
289.763
 30
0.000000
  70
    32
  0
VERTEX
  8
AM_0
  5
164BA
 10
788.481
 20
289.757
 30
0.000000
  70
    32
  0
VERTEX
  8
AM_0
  5
164BB
 10
788.504
 20
289.751
 30
0.000000
  70
    32
  0
VERTEX
  8
AM_0
  5
164BC
 10
788.528
 20
289.746
 30
0.000000
  70
    32
  0
VERTEX
  8
AM_0
  5
164BD
 10
788.553
 20
289.741
 30
0.000000
  70
    32
  0
VERTEX
  8
AM_0
  5
164BE
 10
788.577
 20
289.736
 30
0.000000
  70
    32
  0
VERTEX
  8
AM_0
  5
164BF
 10
788.601
 20
289.732
 30
0.000000
  70
    32
  0
VERTEX
  8
AM_0
  5
164C0
 10
788.625
 20
289.728
 30
0.000000
  70
    32
  0
VERTEX
  8
AM_0
  5
164C1
 10
788.649
 20
289.724
 30
0.000000
  70
    32
  0
VERTEX
  8
AM_0
  5
164C2
 10
788.674
 20
289.721
 30
0.000000
  70
    32
  0
VERTEX
  8
AM_0
  5
164C3
 10
788.698
 20
289.718
 30
0.000000
  70
    32
  0
VERTEX
  8
AM_0
  5
164C4
 10
788.722
 20
289.715
 30
0.000000
  70
    32
  0
VERTEX
  8
AM_0
  5
164C5
 10
788.747
 20
289.712
 30
0.000000
  70
    32
  0
VERTEX
  8
AM_0
  5
164C6
 10
788.771
 20
289.710
 30
0.000000
  70
    32
  0
VERTEX
  8
AM_0
  5
164C7
 10
788.796
 20
289.708
 30
0.000000
  70
    32
  0
VERTEX
  8
AM_0
  5
164C8
 10
788.820
 20
289.706
 30
0.000000
  70
    32
  0
VERTEX
  8
AM_0
  5
164C9
 10
788.845
 20
289.705
 30
0.000000
  70
    32
  0
VERTEX
  8
AM_0
  5
164CA
 10
788.869
 20
289.704
 30
0.000000
  70
    32
  0
VERTEX
  8
AM_0
  5
164CB
 10
788.894
 20
289.703
 30
0.000000
  70
    32
  0
VERTEX
  8
AM_0
  5
164CC
 10
788.918
 20
289.703
 30
0.000000
  70
    32
  0
VERTEX
  8
AM_0
  5
164CD
 10
788.943
 20
289.703
 30
0.000000
  70
    32
  0
SEQEND
  8
AM_0
  5
164CE
  0
ARC
  5
153BB
  8
AM_0
 10
780.70414390618464
 20
308.2036721965685
 30
0.0
 40
1.000429999999999
 50
92.374283999996223
 51
269.91724199999999
  0
POLYLINE
  5
153BC
  8
AM_0
 10
788.94269714871245
 20
302.70283258519902
 30
0.0
 66
     1
 70
     8
  0
VERTEX
  8
AM_0
  5
164CF
 10
788.943
 20
302.703
 30
0.000000
  70
    32
  0
VERTEX
  8
AM_0
  5
164D0
 10
788.918
 20
302.703
 30
0.000000
  70
    32
  0
VERTEX
  8
AM_0
  5
164D1
 10
788.894
 20
302.702
 30
0.000000
  70
    32
  0
VERTEX
  8
AM_0
  5
164D2
 10
788.869
 20
302.701
 30
0.000000
  70
    32
  0
VERTEX
  8
AM_0
  5
164D3
 10
788.845
 20
302.700
 30
0.000000
  70
    32
  0
VERTEX
  8
AM_0
  5
164D4
 10
788.820
 20
302.699
 30
0.000000
  70
    32
  0
VERTEX
  8
AM_0
  5
164D5
 10
788.796
 20
302.697
 30
0.000000
  70
    32
  0
VERTEX
  8
AM_0
  5
164D6
 10
788.771
 20
302.695
 30
0.000000
  70
    32
  0
VERTEX
  8
AM_0
  5
164D7
 10
788.747
 20
302.693
 30
0.000000
  70
    32
  0
VERTEX
  8
AM_0
  5
164D8
 10
788.722
 20
302.691
 30
0.000000
  70
    32
  0
VERTEX
  8
AM_0
  5
164D9
 10
788.698
 20
302.688
 30
0.000000
  70
    32
  0
VERTEX
  8
AM_0
  5
164DA
 10
788.674
 20
302.685
 30
0.000000
  70
    32
  0
VERTEX
  8
AM_0
  5
164DB
 10
788.649
 20
302.681
 30
0.000000
  70
    32
  0
VERTEX
  8
AM_0
  5
164DC
 10
788.625
 20
302.677
 30
0.000000
  70
    32
  0
VERTEX
  8
AM_0
  5
164DD
 10
788.601
 20
302.673
 30
0.000000
  70
    32
  0
VERTEX
  8
AM_0
  5
164DE
 10
788.577
 20
302.669
 30
0.000000
  70
    32
  0
VERTEX
  8
AM_0
  5
164DF
 10
788.553
 20
302.664
 30
0.000000
  70
    32
  0
VERTEX
  8
AM_0
  5
164E0
 10
788.528
 20
302.659
 30
0.000000
  70
    32
  0
VERTEX
  8
AM_0
  5
164E1
 10
788.504
 20
302.654
 30
0.000000
  70
    32
  0
VERTEX
  8
AM_0
  5
164E2
 10
788.481
 20
302.649
 30
0.000000
  70
    32
  0
VERTEX
  8
AM_0
  5
164E3
 10
788.457
 20
302.643
 30
0.000000
  70
    32
  0
VERTEX
  8
AM_0
  5
164E4
 10
788.433
 20
302.637
 30
0.000000
  70
    32
  0
VERTEX
  8
AM_0
  5
164E5
 10
788.409
 20
302.630
 30
0.000000
  70
    32
  0
VERTEX
  8
AM_0
  5
164E6
 10
788.386
 20
302.624
 30
0.000000
  70
    32
  0
VERTEX
  8
AM_0
  5
164E7
 10
788.362
 20
302.617
 30
0.000000
  70
    32
  0
VERTEX
  8
AM_0
  5
164E8
 10
788.339
 20
302.609
 30
0.000000
  70
    32
  0
VERTEX
  8
AM_0
  5
164E9
 10
788.315
 20
302.602
 30
0.000000
  70
    32
  0
VERTEX
  8
AM_0
  5
164EA
 10
788.292
 20
302.594
 30
0.000000
  70
    32
  0
VERTEX
  8
AM_0
  5
164EB
 10
788.269
 20
302.586
 30
0.000000
  70
    32
  0
VERTEX
  8
AM_0
  5
164EC
 10
788.246
 20
302.578
 30
0.000000
  70
    32
  0
VERTEX
  8
AM_0
  5
164ED
 10
788.223
 20
302.569
 30
0.000000
  70
    32
  0
VERTEX
  8
AM_0
  5
164EE
 10
788.200
 20
302.560
 30
0.000000
  70
    32
  0
VERTEX
  8
AM_0
  5
164EF
 10
788.177
 20
302.551
 30
0.000000
  70
    32
  0
VERTEX
  8
AM_0
  5
164F0
 10
788.155
 20
302.541
 30
0.000000
  70
    32
  0
VERTEX
  8
AM_0
  5
164F1
 10
788.132
 20
302.531
 30
0.000000
  70
    32
  0
VERTEX
  8
AM_0
  5
164F2
 10
788.110
 20
302.521
 30
0.000000
  70
    32
  0
VERTEX
  8
AM_0
  5
164F3
 10
788.088
 20
302.511
 30
0.000000
  70
    32
  0
VERTEX
  8
AM_0
  5
164F4
 10
788.065
 20
302.500
 30
0.000000
  70
    32
  0
VERTEX
  8
AM_0
  5
164F5
 10
788.043
 20
302.489
 30
0.000000
  70
    32
  0
VERTEX
  8
AM_0
  5
164F6
 10
788.022
 20
302.478
 30
0.000000
  70
    32
  0
VERTEX
  8
AM_0
  5
164F7
 10
788.000
 20
302.467
 30
0.000000
  70
    32
  0
VERTEX
  8
AM_0
  5
164F8
 10
787.978
 20
302.455
 30
0.000000
  70
    32
  0
VERTEX
  8
AM_0
  5
164F9
 10
787.957
 20
302.443
 30
0.000000
  70
    32
  0
VERTEX
  8
AM_0
  5
164FA
 10
787.936
 20
302.431
 30
0.000000
  70
    32
  0
VERTEX
  8
AM_0
  5
164FB
 10
787.914
 20
302.418
 30
0.000000
  70
    32
  0
VERTEX
  8
AM_0
  5
164FC
 10
787.894
 20
302.406
 30
0.000000
  70
    32
  0
VERTEX
  8
AM_0
  5
164FD
 10
787.873
 20
302.393
 30
0.000000
  70
    32
  0
VERTEX
  8
AM_0
  5
164FE
 10
787.852
 20
302.379
 30
0.000000
  70
    32
  0
VERTEX
  8
AM_0
  5
164FF
 10
787.832
 20
302.366
 30
0.000000
  70
    32
  0
VERTEX
  8
AM_0
  5
16500
 10
787.811
 20
302.352
 30
0.000000
  70
    32
  0
VERTEX
  8
AM_0
  5
16501
 10
787.791
 20
302.338
 30
0.000000
  70
    32
  0
VERTEX
  8
AM_0
  5
16502
 10
787.771
 20
302.324
 30
0.000000
  70
    32
  0
VERTEX
  8
AM_0
  5
16503
 10
787.751
 20
302.309
 30
0.000000
  70
    32
  0
VERTEX
  8
AM_0
  5
16504
 10
787.732
 20
302.294
 30
0.000000
  70
    32
  0
VERTEX
  8
AM_0
  5
16505
 10
787.712
 20
302.280
 30
0.000000
  70
    32
  0
VERTEX
  8
AM_0
  5
16506
 10
787.693
 20
302.264
 30
0.000000
  70
    32
  0
VERTEX
  8
AM_0
  5
16507
 10
787.674
 20
302.249
 30
0.000000
  70
    32
  0
VERTEX
  8
AM_0
  5
16508
 10
787.655
 20
302.233
 30
0.000000
  70
    32
  0
VERTEX
  8
AM_0
  5
16509
 10
787.636
 20
302.217
 30
0.000000
  70
    32
  0
VERTEX
  8
AM_0
  5
1650A
 10
787.618
 20
302.201
 30
0.000000
  70
    32
  0
VERTEX
  8
AM_0
  5
1650B
 10
787.600
 20
302.185
 30
0.000000
  70
    32
  0
VERTEX
  8
AM_0
  5
1650C
 10
787.581
 20
302.168
 30
0.000000
  70
    32
  0
VERTEX
  8
AM_0
  5
1650D
 10
787.564
 20
302.151
 30
0.000000
  70
    32
  0
VERTEX
  8
AM_0
  5
1650E
 10
787.546
 20
302.134
 30
0.000000
  70
    32
  0
VERTEX
  8
AM_0
  5
1650F
 10
787.528
 20
302.117
 30
0.000000
  70
    32
  0
VERTEX
  8
AM_0
  5
16510
 10
787.511
 20
302.100
 30
0.000000
  70
    32
  0
VERTEX
  8
AM_0
  5
16511
 10
787.494
 20
302.082
 30
0.000000
  70
    32
  0
VERTEX
  8
AM_0
  5
16512
 10
787.477
 20
302.064
 30
0.000000
  70
    32
  0
VERTEX
  8
AM_0
  5
16513
 10
787.461
 20
302.046
 30
0.000000
  70
    32
  0
VERTEX
  8
AM_0
  5
16514
 10
787.444
 20
302.028
 30
0.000000
  70
    32
  0
VERTEX
  8
AM_0
  5
16515
 10
787.428
 20
302.009
 30
0.000000
  70
    32
  0
VERTEX
  8
AM_0
  5
16516
 10
787.412
 20
301.990
 30
0.000000
  70
    32
  0
VERTEX
  8
AM_0
  5
16517
 10
787.397
 20
301.972
 30
0.000000
  70
    32
  0
VERTEX
  8
AM_0
  5
16518
 10
787.381
 20
301.953
 30
0.000000
  70
    32
  0
VERTEX
  8
AM_0
  5
16519
 10
787.366
 20
301.933
 30
0.000000
  70
    32
  0
VERTEX
  8
AM_0
  5
1651A
 10
787.351
 20
301.914
 30
0.000000
  70
    32
  0
VERTEX
  8
AM_0
  5
1651B
 10
787.336
 20
301.894
 30
0.000000
  70
    32
  0
VERTEX
  8
AM_0
  5
1651C
 10
787.322
 20
301.874
 30
0.000000
  70
    32
  0
VERTEX
  8
AM_0
  5
1651D
 10
787.308
 20
301.854
 30
0.000000
  70
    32
  0
VERTEX
  8
AM_0
  5
1651E
 10
787.294
 20
301.834
 30
0.000000
  70
    32
  0
VERTEX
  8
AM_0
  5
1651F
 10
787.280
 20
301.814
 30
0.000000
  70
    32
  0
VERTEX
  8
AM_0
  5
16520
 10
787.266
 20
301.793
 30
0.000000
  70
    32
  0
VERTEX
  8
AM_0
  5
16521
 10
787.253
 20
301.773
 30
0.000000
  70
    32
  0
VERTEX
  8
AM_0
  5
16522
 10
787.240
 20
301.752
 30
0.000000
  70
    32
  0
VERTEX
  8
AM_0
  5
16523
 10
787.227
 20
301.731
 30
0.000000
  70
    32
  0
VERTEX
  8
AM_0
  5
16524
 10
787.215
 20
301.710
 30
0.000000
  70
    32
  0
VERTEX
  8
AM_0
  5
16525
 10
787.203
 20
301.689
 30
0.000000
  70
    32
  0
VERTEX
  8
AM_0
  5
16526
 10
787.191
 20
301.667
 30
0.000000
  70
    32
  0
VERTEX
  8
AM_0
  5
16527
 10
787.179
 20
301.646
 30
0.000000
  70
    32
  0
VERTEX
  8
AM_0
  5
16528
 10
787.167
 20
301.624
 30
0.000000
  70
    32
  0
VERTEX
  8
AM_0
  5
16529
 10
787.156
 20
301.602
 30
0.000000
  70
    32
  0
VERTEX
  8
AM_0
  5
1652A
 10
787.145
 20
301.580
 30
0.000000
  70
    32
  0
VERTEX
  8
AM_0
  5
1652B
 10
787.135
 20
301.558
 30
0.000000
  70
    32
  0
VERTEX
  8
AM_0
  5
1652C
 10
787.124
 20
301.536
 30
0.000000
  70
    32
  0
VERTEX
  8
AM_0
  5
1652D
 10
787.114
 20
301.513
 30
0.000000
  70
    32
  0
VERTEX
  8
AM_0
  5
1652E
 10
787.104
 20
301.491
 30
0.000000
  70
    32
  0
VERTEX
  8
AM_0
  5
1652F
 10
787.095
 20
301.468
 30
0.000000
  70
    32
  0
VERTEX
  8
AM_0
  5
16530
 10
787.086
 20
301.445
 30
0.000000
  70
    32
  0
VERTEX
  8
AM_0
  5
16531
 10
787.077
 20
301.423
 30
0.000000
  70
    32
  0
VERTEX
  8
AM_0
  5
16532
 10
787.068
 20
301.400
 30
0.000000
  70
    32
  0
VERTEX
  8
AM_0
  5
16533
 10
787.060
 20
301.377
 30
0.000000
  70
    32
  0
VERTEX
  8
AM_0
  5
16534
 10
787.051
 20
301.353
 30
0.000000
  70
    32
  0
VERTEX
  8
AM_0
  5
16535
 10
787.044
 20
301.330
 30
0.000000
  70
    32
  0
VERTEX
  8
AM_0
  5
16536
 10
787.036
 20
301.307
 30
0.000000
  70
    32
  0
VERTEX
  8
AM_0
  5
16537
 10
787.029
 20
301.283
 30
0.000000
  70
    32
  0
VERTEX
  8
AM_0
  5
16538
 10
787.022
 20
301.260
 30
0.000000
  70
    32
  0
VERTEX
  8
AM_0
  5
16539
 10
787.015
 20
301.236
 30
0.000000
  70
    32
  0
VERTEX
  8
AM_0
  5
1653A
 10
787.009
 20
301.213
 30
0.000000
  70
    32
  0
VERTEX
  8
AM_0
  5
1653B
 10
787.003
 20
301.189
 30
0.000000
  70
    32
  0
VERTEX
  8
AM_0
  5
1653C
 10
786.997
 20
301.165
 30
0.000000
  70
    32
  0
VERTEX
  8
AM_0
  5
1653D
 10
786.991
 20
301.141
 30
0.000000
  70
    32
  0
VERTEX
  8
AM_0
  5
1653E
 10
786.986
 20
301.117
 30
0.000000
  70
    32
  0
VERTEX
  8
AM_0
  5
1653F
 10
786.981
 20
301.093
 30
0.000000
  70
    32
  0
VERTEX
  8
AM_0
  5
16540
 10
786.976
 20
301.069
 30
0.000000
  70
    32
  0
VERTEX
  8
AM_0
  5
16541
 10
786.972
 20
301.045
 30
0.000000
  70
    32
  0
VERTEX
  8
AM_0
  5
16542
 10
786.968
 20
301.021
 30
0.000000
  70
    32
  0
VERTEX
  8
AM_0
  5
16543
 10
786.964
 20
300.996
 30
0.000000
  70
    32
  0
VERTEX
  8
AM_0
  5
16544
 10
786.961
 20
300.972
 30
0.000000
  70
    32
  0
VERTEX
  8
AM_0
  5
16545
 10
786.958
 20
300.948
 30
0.000000
  70
    32
  0
VERTEX
  8
AM_0
  5
16546
 10
786.955
 20
300.923
 30
0.000000
  70
    32
  0
VERTEX
  8
AM_0
  5
16547
 10
786.952
 20
300.899
 30
0.000000
  70
    32
  0
VERTEX
  8
AM_0
  5
16548
 10
786.950
 20
300.874
 30
0.000000
  70
    32
  0
VERTEX
  8
AM_0
  5
16549
 10
786.948
 20
300.850
 30
0.000000
  70
    32
  0
VERTEX
  8
AM_0
  5
1654A
 10
786.946
 20
300.825
 30
0.000000
  70
    32
  0
VERTEX
  8
AM_0
  5
1654B
 10
786.945
 20
300.801
 30
0.000000
  70
    32
  0
VERTEX
  8
AM_0
  5
1654C
 10
786.944
 20
300.776
 30
0.000000
  70
    32
  0
VERTEX
  8
AM_0
  5
1654D
 10
786.943
 20
300.752
 30
0.000000
  70
    32
  0
VERTEX
  8
AM_0
  5
1654E
 10
786.943
 20
300.727
 30
0.000000
  70
    32
  0
VERTEX
  8
AM_0
  5
1654F
 10
786.943
 20
300.703
 30
0.000000
  70
    32
  0
SEQEND
  8
AM_0
  5
16550
  0
LINE
  5
153BE
  8
AM_0
 10
780.94269699755625
 20
307.19341868567182
 30
0.0
 11
780.66269890618469
 21
307.20324319656891
 31
0.0
  0
LINE
  5
153C2
  8
AM_0
 10
780.94269699755625
 20
309.21291280032511
 30
0.0
 11
780.66269890618469
 21
309.20324319656891
 31
0.0
  0
LINE
  5
153CB
  8
AM_0
 10
818.90884058348513
 20
261.35298573397199
 30
0.0
 11
818.94269890566466
 21
260.28324219531061
 31
0.0
  0
LINE
  5
153CC
  8
AM_0
 10
820.98633571968764
 20
261.39194315602867
 30
0.0
 11
820.94272890570505
 21
260.28323819531062
 31
0.0
  0
ARC
  5
153CD
  8
AM_0
 10
819.94296890568467
 20
260.31979419531098
 30
0.0
 40
1.000402500020007
 50
180.94790999999981
 51
357.90620799999999
  0
LINE
  5
153CE
  8
AM_0
 10
828.85057092700367
 20
261.53941417763849
 30
0.0
 11
828.94269890586497
 21
258.92324119528331
 31
0.0
  0
LINE
  5
153CF
  8
AM_0
 10
831.02270845656005
 20
261.24381223612698
 30
0.0
 11
830.94269890590476
 21
258.92324119528331
 31
0.0
  0
ARC
  5
153D0
  8
AM_0
 10
829.94312890588526
 20
258.96460819528397
 30
0.0
 40
1.0004282000200071
 50
180.07822000000451
 51
357.6302479999967
  0
LINE
  5
153D1
  8
AM_0
 10
794.94269741506866
 20
303.7028526150221
 30
0.0
 11
794.94269741506866
 21
288.70255216767828
 31
0.0
  0
LINE
  5
153D3
  8
AM_0
 10
775.94269684844483
 20
366.2041044789546
 30
0.0
 11
775.94269684844483
 21
316.20310298780828
 31
0.0
  0
LINE
  5
153D6
  8
AM_0
 10
775.94269684844483
 20
316.20310298780828
 30
0.0
 11
780.94269699755625
 21
316.20310298780828
 31
0.0
  0
LINE
  5
153E5
  8
AM_0
 10
775.94269684844483
 20
366.2041044789546
 30
0.0
 11
780.94269699755625
 21
366.2041044789546
 31
0.0
  0
ARC
  5
153E9
  8
AM_0
 10
879.942517906185
 20
262.37031719656869
 30
0.0
 40
1.0001850000000001
 50
181.55113099999511
 51
0.1676129999979039
  0
LINE
  5
153EA
  8
AM_0
 10
841.00264235411885
 20
259.82175399486312
 30
0.0
 11
840.94269890610508
 21
258.24324519526948
 31
0.0
  0
LINE
  5
153EB
  8
AM_0
 10
838.88249236919808
 20
259.98923275751758
 30
0.0
 11
838.94269890606495
 21
258.24324519526948
 31
0.0
  0
ARC
  5
153EC
  8
AM_0
 10
839.94327890608508
 20
258.2916651952707
 30
0.0
 40
1.0006038000200119
 50
180.4821899999981
 51
357.22628299999678
  0
LINE
  5
153ED
  8
AM_0
 10
851.0029053390233
 20
259.98923274753309
 30
0.0
 11
850.94269890630494
 21
258.24324519526948
 31
0.0
  0
LINE
  5
153EE
  8
AM_0
 10
848.9027250967456
 20
259.82299854865443
 30
0.0
 11
848.94269890626515
 21
258.24324119526949
 31
0.0
  0
ARC
  5
153EF
  8
AM_0
 10
849.94214890628496
 20
258.29098619527048
 30
0.0
 40
1.0005848000200099
 50
182.73503999999781
 51
359.55649100000068
  0
ARC
  5
153F2
  8
AM_0
 10
869.94245890668503
 20
260.31945519531132
 30
0.0
 40
1.000393500020007
 50
182.07443999999489
 51
359.07143799999648
  0
LINE
  5
153F3
  8
AM_0
 10
861.04309840068845
 20
261.7743057551902
 30
0.0
 11
860.94269890650514
 21
258.92323719528321
 31
0.0
  0
ARC
  5
153F4
  8
AM_0
 10
859.94229890648455
 20
258.96393319528403
 30
0.0
 40
1.000414000020007
 50
182.3310499999981
 51
359.96048300000041
  0
LINE
  5
153F5
  8
AM_0
 10
858.86268934853445
 20
261.2438122344924
 30
0.0
 11
858.94272890646505
 21
258.92324119528331
 31
0.0
  0
LINE
  5
153F6
  8
AM_0
 10
868.87347650911352
 20
262.28992819691541
 30
0.0
 11
868.9426989066651
 21
260.28324619531048
 31
0.0
  0
LINE
  5
153F9
  8
AM_0
 10
871.01539760812557
 20
262.33009374186048
 30
0.0
 11
870.94272890670504
 21
260.28323819531062
 31
0.0
  0
LINE
  5
153FB
  8
AM_0
 10
878.93790770614964
 20
262.478657540764
 30
0.0
 11
878.94269890618489
 21
262.34324319656889
 31
0.0
  0
LINE
  5
153FC
  8
AM_0N
 10
924.24270068222165
 20
268.40230179619181
 30
0.0
 11
924.24270068222165
 21
284.00230179619177
 31
0.0
1001
GENIUS_GENOREF_13
1005
0
  0
LINE
  5
153FD
  8
AM_0N
 10
912.24270068222188
 20
264.20230179619182
 30
0.0
 11
912.24270068222188
 21
288.20230179619182
 31
0.0
  0
LINE
  5
15400
  8
AM_0
 10
880.95035528533936
 20
262.51639518372798
 30
0.0
 11
880.94269862641738
 21
262.37324313231329
 31
0.0
  0
LINE
  5
15401
  8
AM_0N
 10
923.04270068222183
 20
267.20230179619182
 30
0.0
 11
912.24270068222188
 21
267.20230179619182
 31
0.0
1001
GENIUS_GENOREF_13
1005
0
  0
LINE
  5
15402
  8
AM_0N
 10
909.94270068222215
 20
264.20230179619182
 30
0.0
 11
912.24270068222188
 21
264.20230179619182
 31
0.0
  0
ARC
  5
15403
  8
AM_0N
 10
923.04270068222183
 20
268.40230179619181
 30
0.0
 40
1.1999999999999991
 50
270.0
 51
0.0
1001
GENIUS_GENOREF_13
1005
0
  0
LINE
  5
15408
  8
AM_0N
 10
923.04270068222183
 20
285.20230179619182
 30
0.0
 11
912.24270068222188
 21
285.20230179619182
 31
0.0
1001
GENIUS_GENOREF_13
1005
0
  0
LINE
  5
15409
  8
AM_0
 10
909.9427006822217
 20
291.2026025412647
 30
0.0
 11
903.94270068222204
 21
291.2026025412647
 31
0.0
  0
LINE
  5
1540A
  8
AM_0
 10
908.94270081481363
 20
291.20280254026488
 30
0.0
 11
903.94270066570209
 21
291.20280254026488
 31
0.0
  0
LINE
  5
1540B
  8
AM_0N
 10
912.24270068222188
 20
288.20230179619182
 30
0.0
 11
909.94270068222215
 21
288.20230179619182
 31
0.0
  0
ARC
  5
1540E
  8
AM_0N
 10
923.04270068222183
 20
284.00230179619177
 30
0.0
 40
1.1999999999999991
 50
0.0
 51
90.0
1001
GENIUS_GENOREF_13
1005
0
  0
LINE
  5
15411
  8
AM_0
 10
908.94270081481363
 20
307.19341868567182
 30
0.0
 11
909.22269890618475
 21
307.20324319656891
 31
0.0
  0
LINE
  5
15414
  8
AM_0
 10
908.94270081481363
 20
309.21291280032511
 30
0.0
 11
909.22269890618475
 21
309.20324319656891
 31
0.0
  0
ARC
  5
15415
  8
AM_0
 10
909.18125390618502
 20
308.2036721965685
 30
0.0
 40
1.000429999999999
 50
270.08275800000013
 51
87.625716000003749
  0
LINE
  5
15416
  8
AM_0
 10
913.94270096392518
 20
366.2041044789546
 30
0.0
 11
913.94270096392518
 21
316.20310298780828
 31
0.0
  0
LINE
  5
15419
  8
AM_0
 10
908.94270081481363
 20
316.20310298780828
 30
0.0
 11
913.94270096392518
 21
316.20310298780828
 31
0.0
  0
LINE
  5
1542A
  8
AM_0
 10
908.94270081481363
 20
366.2041044789546
 30
0.0
 11
913.94270096392518
 21
366.2041044789546
 31
0.0
  0
LINE
  5
1542C
  8
AM_0
 10
942.4427006822217
 20
257.20360373338173
 30
0.0
 11
942.4427006822217
 21
247.20360373338141
 31
0.0
  0
LINE
  5
1542D
  8
ﾁｭｳｼﾝｾﾝ1
 10
937.44270068222193
 20
258.95360373338173
 30
0.0
 11
937.44270068222193
 21
229.45360373338161
 31
0.0
  0
LINE
  5
15431
  8
ｶｸﾚｾﾝ2
 10
929.9427006822217
 20
247.2036037333815
 30
0.0
 11
929.9427006822217
 21
241.20360373338119
 31
0.0
  0
LINE
  5
15432
  8
ｶｸﾚｾﾝ2
 10
944.9427006822217
 20
247.2036037333815
 30
0.0
 11
944.94270068222215
 21
241.20360373338161
 31
0.0
  0
LINE
  5
15433
  8
AM_0
 10
952.44270068222158
 20
247.2036037333815
 30
0.0
 11
952.44270068222204
 21
241.20360373338181
 31
0.0
  0
LINE
  5
15437
  8
AM_0
 10
827.14270890618457
 20
423.20324319856911
 30
0.0
 11
862.75269890618483
 21
423.20324319856911
 31
0.0
  0
LINE
  5
15438
  8
AM_0
 10
903.94270066570209
 20
419.459657240865
 30
0.0
 11
810.94269789222608
 21
421.20520611921489
 31
0.0
  0
LINE
  5
1543B
  8
AM_0
 10
810.94269789222608
 20
421.20520611921489
 30
0.0
 11
785.94269714666814
 21
420.89102135947951
 31
0.0
  0
LINE
  5
1543C
  8
AM_0
 10
788.94269723613513
 20
392.70463526926233
 30
0.0
 11
794.94269741506866
 21
392.70463526926233
 31
0.0
  0
LINE
  5
1543D
  8
AM_0
 10
785.94269714666814
 20
393.704655299085
 30
0.0
 11
794.94269741506866
 21
393.704655299085
 31
0.0
  0
LINE
  5
1543E
  8
AM_0
 10
788.94269723613513
 20
379.70437488156381
 30
0.0
 11
794.94269741506866
 21
379.70437488156381
 31
0.0
  0
LINE
  5
1543F
  8
AM_0
 10
785.94269714666814
 20
378.7043548517413
 30
0.0
 11
794.94269741506866
 21
378.7043548517413
 31
0.0
  0
LINE
  5
15440
  8
AM_0
 10
786.94269717649036
 20
390.7045952096164
 30
0.0
 11
786.94269717649036
 21
381.70441494120968
 31
0.0
  0
POLYLINE
  5
15441
  8
AM_0
 10
786.94269717649047
 20
381.70441476636063
 30
0.0
 66
     1
 70
     8
  0
VERTEX
  8
AM_0
  5
16551
 10
786.943
 20
381.704
 30
0.000000
  70
    32
  0
VERTEX
  8
AM_0
  5
16552
 10
786.943
 20
381.680
 30
0.000000
  70
    32
  0
VERTEX
  8
AM_0
  5
16553
 10
786.943
 20
381.655
 30
0.000000
  70
    32
  0
VERTEX
  8
AM_0
  5
16554
 10
786.944
 20
381.631
 30
0.000000
  70
    32
  0
VERTEX
  8
AM_0
  5
16555
 10
786.945
 20
381.606
 30
0.000000
  70
    32
  0
VERTEX
  8
AM_0
  5
16556
 10
786.946
 20
381.582
 30
0.000000
  70
    32
  0
VERTEX
  8
AM_0
  5
16557
 10
786.948
 20
381.557
 30
0.000000
  70
    32
  0
VERTEX
  8
AM_0
  5
16558
 10
786.950
 20
381.533
 30
0.000000
  70
    32
  0
VERTEX
  8
AM_0
  5
16559
 10
786.952
 20
381.508
 30
0.000000
  70
    32
  0
VERTEX
  8
AM_0
  5
1655A
 10
786.955
 20
381.484
 30
0.000000
  70
    32
  0
VERTEX
  8
AM_0
  5
1655B
 10
786.958
 20
381.460
 30
0.000000
  70
    32
  0
VERTEX
  8
AM_0
  5
1655C
 10
786.961
 20
381.435
 30
0.000000
  70
    32
  0
VERTEX
  8
AM_0
  5
1655D
 10
786.964
 20
381.411
 30
0.000000
  70
    32
  0
VERTEX
  8
AM_0
  5
1655E
 10
786.968
 20
381.387
 30
0.000000
  70
    32
  0
VERTEX
  8
AM_0
  5
1655F
 10
786.972
 20
381.362
 30
0.000000
  70
    32
  0
VERTEX
  8
AM_0
  5
16560
 10
786.976
 20
381.338
 30
0.000000
  70
    32
  0
VERTEX
  8
AM_0
  5
16561
 10
786.981
 20
381.314
 30
0.000000
  70
    32
  0
VERTEX
  8
AM_0
  5
16562
 10
786.986
 20
381.290
 30
0.000000
  70
    32
  0
VERTEX
  8
AM_0
  5
16563
 10
786.991
 20
381.266
 30
0.000000
  70
    32
  0
VERTEX
  8
AM_0
  5
16564
 10
786.997
 20
381.242
 30
0.000000
  70
    32
  0
VERTEX
  8
AM_0
  5
16565
 10
787.003
 20
381.218
 30
0.000000
  70
    32
  0
VERTEX
  8
AM_0
  5
16566
 10
787.009
 20
381.195
 30
0.000000
  70
    32
  0
VERTEX
  8
AM_0
  5
16567
 10
787.015
 20
381.171
 30
0.000000
  70
    32
  0
VERTEX
  8
AM_0
  5
16568
 10
787.022
 20
381.147
 30
0.000000
  70
    32
  0
VERTEX
  8
AM_0
  5
16569
 10
787.029
 20
381.124
 30
0.000000
  70
    32
  0
VERTEX
  8
AM_0
  5
1656A
 10
787.036
 20
381.100
 30
0.000000
  70
    32
  0
VERTEX
  8
AM_0
  5
1656B
 10
787.044
 20
381.077
 30
0.000000
  70
    32
  0
VERTEX
  8
AM_0
  5
1656C
 10
787.051
 20
381.054
 30
0.000000
  70
    32
  0
VERTEX
  8
AM_0
  5
1656D
 10
787.060
 20
381.031
 30
0.000000
  70
    32
  0
VERTEX
  8
AM_0
  5
1656E
 10
787.068
 20
381.008
 30
0.000000
  70
    32
  0
VERTEX
  8
AM_0
  5
1656F
 10
787.077
 20
380.985
 30
0.000000
  70
    32
  0
VERTEX
  8
AM_0
  5
16570
 10
787.086
 20
380.962
 30
0.000000
  70
    32
  0
VERTEX
  8
AM_0
  5
16571
 10
787.095
 20
380.939
 30
0.000000
  70
    32
  0
VERTEX
  8
AM_0
  5
16572
 10
787.104
 20
380.916
 30
0.000000
  70
    32
  0
VERTEX
  8
AM_0
  5
16573
 10
787.114
 20
380.894
 30
0.000000
  70
    32
  0
VERTEX
  8
AM_0
  5
16574
 10
787.124
 20
380.872
 30
0.000000
  70
    32
  0
VERTEX
  8
AM_0
  5
16575
 10
787.135
 20
380.849
 30
0.000000
  70
    32
  0
VERTEX
  8
AM_0
  5
16576
 10
787.145
 20
380.827
 30
0.000000
  70
    32
  0
VERTEX
  8
AM_0
  5
16577
 10
787.156
 20
380.805
 30
0.000000
  70
    32
  0
VERTEX
  8
AM_0
  5
16578
 10
787.167
 20
380.783
 30
0.000000
  70
    32
  0
VERTEX
  8
AM_0
  5
16579
 10
787.179
 20
380.762
 30
0.000000
  70
    32
  0
VERTEX
  8
AM_0
  5
1657A
 10
787.191
 20
380.740
 30
0.000000
  70
    32
  0
VERTEX
  8
AM_0
  5
1657B
 10
787.203
 20
380.719
 30
0.000000
  70
    32
  0
VERTEX
  8
AM_0
  5
1657C
 10
787.215
 20
380.697
 30
0.000000
  70
    32
  0
VERTEX
  8
AM_0
  5
1657D
 10
787.227
 20
380.676
 30
0.000000
  70
    32
  0
VERTEX
  8
AM_0
  5
1657E
 10
787.240
 20
380.655
 30
0.000000
  70
    32
  0
VERTEX
  8
AM_0
  5
1657F
 10
787.253
 20
380.634
 30
0.000000
  70
    32
  0
VERTEX
  8
AM_0
  5
16580
 10
787.266
 20
380.614
 30
0.000000
  70
    32
  0
VERTEX
  8
AM_0
  5
16581
 10
787.280
 20
380.593
 30
0.000000
  70
    32
  0
VERTEX
  8
AM_0
  5
16582
 10
787.294
 20
380.573
 30
0.000000
  70
    32
  0
VERTEX
  8
AM_0
  5
16583
 10
787.308
 20
380.553
 30
0.000000
  70
    32
  0
VERTEX
  8
AM_0
  5
16584
 10
787.322
 20
380.533
 30
0.000000
  70
    32
  0
VERTEX
  8
AM_0
  5
16585
 10
787.336
 20
380.513
 30
0.000000
  70
    32
  0
VERTEX
  8
AM_0
  5
16586
 10
787.351
 20
380.493
 30
0.000000
  70
    32
  0
VERTEX
  8
AM_0
  5
16587
 10
787.366
 20
380.474
 30
0.000000
  70
    32
  0
VERTEX
  8
AM_0
  5
16588
 10
787.381
 20
380.455
 30
0.000000
  70
    32
  0
VERTEX
  8
AM_0
  5
16589
 10
787.397
 20
380.436
 30
0.000000
  70
    32
  0
VERTEX
  8
AM_0
  5
1658A
 10
787.412
 20
380.417
 30
0.000000
  70
    32
  0
VERTEX
  8
AM_0
  5
1658B
 10
787.428
 20
380.398
 30
0.000000
  70
    32
  0
VERTEX
  8
AM_0
  5
1658C
 10
787.444
 20
380.380
 30
0.000000
  70
    32
  0
VERTEX
  8
AM_0
  5
1658D
 10
787.461
 20
380.361
 30
0.000000
  70
    32
  0
VERTEX
  8
AM_0
  5
1658E
 10
787.477
 20
380.343
 30
0.000000
  70
    32
  0
VERTEX
  8
AM_0
  5
1658F
 10
787.494
 20
380.325
 30
0.000000
  70
    32
  0
VERTEX
  8
AM_0
  5
16590
 10
787.511
 20
380.308
 30
0.000000
  70
    32
  0
VERTEX
  8
AM_0
  5
16591
 10
787.528
 20
380.290
 30
0.000000
  70
    32
  0
VERTEX
  8
AM_0
  5
16592
 10
787.546
 20
380.273
 30
0.000000
  70
    32
  0
VERTEX
  8
AM_0
  5
16593
 10
787.564
 20
380.256
 30
0.000000
  70
    32
  0
VERTEX
  8
AM_0
  5
16594
 10
787.581
 20
380.239
 30
0.000000
  70
    32
  0
VERTEX
  8
AM_0
  5
16595
 10
787.600
 20
380.222
 30
0.000000
  70
    32
  0
VERTEX
  8
AM_0
  5
16596
 10
787.618
 20
380.206
 30
0.000000
  70
    32
  0
VERTEX
  8
AM_0
  5
16597
 10
787.636
 20
380.190
 30
0.000000
  70
    32
  0
VERTEX
  8
AM_0
  5
16598
 10
787.655
 20
380.174
 30
0.000000
  70
    32
  0
VERTEX
  8
AM_0
  5
16599
 10
787.674
 20
380.158
 30
0.000000
  70
    32
  0
VERTEX
  8
AM_0
  5
1659A
 10
787.693
 20
380.143
 30
0.000000
  70
    32
  0
VERTEX
  8
AM_0
  5
1659B
 10
787.712
 20
380.128
 30
0.000000
  70
    32
  0
VERTEX
  8
AM_0
  5
1659C
 10
787.732
 20
380.113
 30
0.000000
  70
    32
  0
VERTEX
  8
AM_0
  5
1659D
 10
787.751
 20
380.098
 30
0.000000
  70
    32
  0
VERTEX
  8
AM_0
  5
1659E
 10
787.771
 20
380.083
 30
0.000000
  70
    32
  0
VERTEX
  8
AM_0
  5
1659F
 10
787.791
 20
380.069
 30
0.000000
  70
    32
  0
VERTEX
  8
AM_0
  5
165A0
 10
787.811
 20
380.055
 30
0.000000
  70
    32
  0
VERTEX
  8
AM_0
  5
165A1
 10
787.832
 20
380.041
 30
0.000000
  70
    32
  0
VERTEX
  8
AM_0
  5
165A2
 10
787.852
 20
380.028
 30
0.000000
  70
    32
  0
VERTEX
  8
AM_0
  5
165A3
 10
787.873
 20
380.015
 30
0.000000
  70
    32
  0
VERTEX
  8
AM_0
  5
165A4
 10
787.894
 20
380.002
 30
0.000000
  70
    32
  0
VERTEX
  8
AM_0
  5
165A5
 10
787.914
 20
379.989
 30
0.000000
  70
    32
  0
VERTEX
  8
AM_0
  5
165A6
 10
787.936
 20
379.976
 30
0.000000
  70
    32
  0
VERTEX
  8
AM_0
  5
165A7
 10
787.957
 20
379.964
 30
0.000000
  70
    32
  0
VERTEX
  8
AM_0
  5
165A8
 10
787.978
 20
379.952
 30
0.000000
  70
    32
  0
VERTEX
  8
AM_0
  5
165A9
 10
788.000
 20
379.941
 30
0.000000
  70
    32
  0
VERTEX
  8
AM_0
  5
165AA
 10
788.022
 20
379.929
 30
0.000000
  70
    32
  0
VERTEX
  8
AM_0
  5
165AB
 10
788.043
 20
379.918
 30
0.000000
  70
    32
  0
VERTEX
  8
AM_0
  5
165AC
 10
788.065
 20
379.907
 30
0.000000
  70
    32
  0
VERTEX
  8
AM_0
  5
165AD
 10
788.088
 20
379.896
 30
0.000000
  70
    32
  0
VERTEX
  8
AM_0
  5
165AE
 10
788.110
 20
379.886
 30
0.000000
  70
    32
  0
VERTEX
  8
AM_0
  5
165AF
 10
788.132
 20
379.876
 30
0.000000
  70
    32
  0
VERTEX
  8
AM_0
  5
165B0
 10
788.155
 20
379.866
 30
0.000000
  70
    32
  0
VERTEX
  8
AM_0
  5
165B1
 10
788.177
 20
379.857
 30
0.000000
  70
    32
  0
VERTEX
  8
AM_0
  5
165B2
 10
788.200
 20
379.847
 30
0.000000
  70
    32
  0
VERTEX
  8
AM_0
  5
165B3
 10
788.223
 20
379.838
 30
0.000000
  70
    32
  0
VERTEX
  8
AM_0
  5
165B4
 10
788.246
 20
379.830
 30
0.000000
  70
    32
  0
VERTEX
  8
AM_0
  5
165B5
 10
788.269
 20
379.821
 30
0.000000
  70
    32
  0
VERTEX
  8
AM_0
  5
165B6
 10
788.292
 20
379.813
 30
0.000000
  70
    32
  0
VERTEX
  8
AM_0
  5
165B7
 10
788.315
 20
379.805
 30
0.000000
  70
    32
  0
VERTEX
  8
AM_0
  5
165B8
 10
788.339
 20
379.798
 30
0.000000
  70
    32
  0
VERTEX
  8
AM_0
  5
165B9
 10
788.362
 20
379.790
 30
0.000000
  70
    32
  0
VERTEX
  8
AM_0
  5
165BA
 10
788.386
 20
379.784
 30
0.000000
  70
    32
  0
VERTEX
  8
AM_0
  5
165BB
 10
788.409
 20
379.777
 30
0.000000
  70
    32
  0
VERTEX
  8
AM_0
  5
165BC
 10
788.433
 20
379.770
 30
0.000000
  70
    32
  0
VERTEX
  8
AM_0
  5
165BD
 10
788.457
 20
379.764
 30
0.000000
  70
    32
  0
VERTEX
  8
AM_0
  5
165BE
 10
788.481
 20
379.758
 30
0.000000
  70
    32
  0
VERTEX
  8
AM_0
  5
165BF
 10
788.504
 20
379.753
 30
0.000000
  70
    32
  0
VERTEX
  8
AM_0
  5
165C0
 10
788.528
 20
379.748
 30
0.000000
  70
    32
  0
VERTEX
  8
AM_0
  5
165C1
 10
788.553
 20
379.743
 30
0.000000
  70
    32
  0
VERTEX
  8
AM_0
  5
165C2
 10
788.577
 20
379.738
 30
0.000000
  70
    32
  0
VERTEX
  8
AM_0
  5
165C3
 10
788.601
 20
379.734
 30
0.000000
  70
    32
  0
VERTEX
  8
AM_0
  5
165C4
 10
788.625
 20
379.730
 30
0.000000
  70
    32
  0
VERTEX
  8
AM_0
  5
165C5
 10
788.649
 20
379.726
 30
0.000000
  70
    32
  0
VERTEX
  8
AM_0
  5
165C6
 10
788.674
 20
379.723
 30
0.000000
  70
    32
  0
VERTEX
  8
AM_0
  5
165C7
 10
788.698
 20
379.719
 30
0.000000
  70
    32
  0
VERTEX
  8
AM_0
  5
165C8
 10
788.722
 20
379.717
 30
0.000000
  70
    32
  0
VERTEX
  8
AM_0
  5
165C9
 10
788.747
 20
379.714
 30
0.000000
  70
    32
  0
VERTEX
  8
AM_0
  5
165CA
 10
788.771
 20
379.712
 30
0.000000
  70
    32
  0
VERTEX
  8
AM_0
  5
165CB
 10
788.796
 20
379.710
 30
0.000000
  70
    32
  0
VERTEX
  8
AM_0
  5
165CC
 10
788.820
 20
379.708
 30
0.000000
  70
    32
  0
VERTEX
  8
AM_0
  5
165CD
 10
788.845
 20
379.707
 30
0.000000
  70
    32
  0
VERTEX
  8
AM_0
  5
165CE
 10
788.869
 20
379.706
 30
0.000000
  70
    32
  0
VERTEX
  8
AM_0
  5
165CF
 10
788.894
 20
379.705
 30
0.000000
  70
    32
  0
VERTEX
  8
AM_0
  5
165D0
 10
788.918
 20
379.705
 30
0.000000
  70
    32
  0
VERTEX
  8
AM_0
  5
165D1
 10
788.943
 20
379.704
 30
0.000000
  70
    32
  0
SEQEND
  8
AM_0
  5
165D2
  0
LINE
  5
15442
  8
AM_0
 10
780.94269699755625
 20
391.2044049264988
 30
0.0
 11
785.94269714666814
 21
391.2044049264988
 31
0.0
  0
POLYLINE
  5
15443
  8
AM_0
 10
788.94269714871245
 20
392.70463526926221
 30
0.0
 66
     1
 70
     8
  0
VERTEX
  8
AM_0
  5
165D3
 10
788.943
 20
392.705
 30
0.000000
  70
    32
  0
VERTEX
  8
AM_0
  5
165D4
 10
788.918
 20
392.704
 30
0.000000
  70
    32
  0
VERTEX
  8
AM_0
  5
165D5
 10
788.894
 20
392.704
 30
0.000000
  70
    32
  0
VERTEX
  8
AM_0
  5
165D6
 10
788.869
 20
392.703
 30
0.000000
  70
    32
  0
VERTEX
  8
AM_0
  5
165D7
 10
788.845
 20
392.702
 30
0.000000
  70
    32
  0
VERTEX
  8
AM_0
  5
165D8
 10
788.820
 20
392.701
 30
0.000000
  70
    32
  0
VERTEX
  8
AM_0
  5
165D9
 10
788.796
 20
392.699
 30
0.000000
  70
    32
  0
VERTEX
  8
AM_0
  5
165DA
 10
788.771
 20
392.697
 30
0.000000
  70
    32
  0
VERTEX
  8
AM_0
  5
165DB
 10
788.747
 20
392.695
 30
0.000000
  70
    32
  0
VERTEX
  8
AM_0
  5
165DC
 10
788.722
 20
392.692
 30
0.000000
  70
    32
  0
VERTEX
  8
AM_0
  5
165DD
 10
788.698
 20
392.690
 30
0.000000
  70
    32
  0
VERTEX
  8
AM_0
  5
165DE
 10
788.674
 20
392.686
 30
0.000000
  70
    32
  0
VERTEX
  8
AM_0
  5
165DF
 10
788.649
 20
392.683
 30
0.000000
  70
    32
  0
VERTEX
  8
AM_0
  5
165E0
 10
788.625
 20
392.679
 30
0.000000
  70
    32
  0
VERTEX
  8
AM_0
  5
165E1
 10
788.601
 20
392.675
 30
0.000000
  70
    32
  0
VERTEX
  8
AM_0
  5
165E2
 10
788.577
 20
392.671
 30
0.000000
  70
    32
  0
VERTEX
  8
AM_0
  5
165E3
 10
788.553
 20
392.666
 30
0.000000
  70
    32
  0
VERTEX
  8
AM_0
  5
165E4
 10
788.528
 20
392.661
 30
0.000000
  70
    32
  0
VERTEX
  8
AM_0
  5
165E5
 10
788.504
 20
392.656
 30
0.000000
  70
    32
  0
VERTEX
  8
AM_0
  5
165E6
 10
788.481
 20
392.651
 30
0.000000
  70
    32
  0
VERTEX
  8
AM_0
  5
165E7
 10
788.457
 20
392.645
 30
0.000000
  70
    32
  0
VERTEX
  8
AM_0
  5
165E8
 10
788.433
 20
392.639
 30
0.000000
  70
    32
  0
VERTEX
  8
AM_0
  5
165E9
 10
788.409
 20
392.632
 30
0.000000
  70
    32
  0
VERTEX
  8
AM_0
  5
165EA
 10
788.386
 20
392.625
 30
0.000000
  70
    32
  0
VERTEX
  8
AM_0
  5
165EB
 10
788.362
 20
392.619
 30
0.000000
  70
    32
  0
VERTEX
  8
AM_0
  5
165EC
 10
788.339
 20
392.611
 30
0.000000
  70
    32
  0
VERTEX
  8
AM_0
  5
165ED
 10
788.315
 20
392.604
 30
0.000000
  70
    32
  0
VERTEX
  8
AM_0
  5
165EE
 10
788.292
 20
392.596
 30
0.000000
  70
    32
  0
VERTEX
  8
AM_0
  5
165EF
 10
788.269
 20
392.588
 30
0.000000
  70
    32
  0
VERTEX
  8
AM_0
  5
165F0
 10
788.246
 20
392.579
 30
0.000000
  70
    32
  0
VERTEX
  8
AM_0
  5
165F1
 10
788.223
 20
392.571
 30
0.000000
  70
    32
  0
VERTEX
  8
AM_0
  5
165F2
 10
788.200
 20
392.562
 30
0.000000
  70
    32
  0
VERTEX
  8
AM_0
  5
165F3
 10
788.177
 20
392.552
 30
0.000000
  70
    32
  0
VERTEX
  8
AM_0
  5
165F4
 10
788.155
 20
392.543
 30
0.000000
  70
    32
  0
VERTEX
  8
AM_0
  5
165F5
 10
788.132
 20
392.533
 30
0.000000
  70
    32
  0
VERTEX
  8
AM_0
  5
165F6
 10
788.110
 20
392.523
 30
0.000000
  70
    32
  0
VERTEX
  8
AM_0
  5
165F7
 10
788.088
 20
392.513
 30
0.000000
  70
    32
  0
VERTEX
  8
AM_0
  5
165F8
 10
788.065
 20
392.502
 30
0.000000
  70
    32
  0
VERTEX
  8
AM_0
  5
165F9
 10
788.043
 20
392.491
 30
0.000000
  70
    32
  0
VERTEX
  8
AM_0
  5
165FA
 10
788.022
 20
392.480
 30
0.000000
  70
    32
  0
VERTEX
  8
AM_0
  5
165FB
 10
788.000
 20
392.468
 30
0.000000
  70
    32
  0
VERTEX
  8
AM_0
  5
165FC
 10
787.978
 20
392.457
 30
0.000000
  70
    32
  0
VERTEX
  8
AM_0
  5
165FD
 10
787.957
 20
392.445
 30
0.000000
  70
    32
  0
VERTEX
  8
AM_0
  5
165FE
 10
787.936
 20
392.433
 30
0.000000
  70
    32
  0
VERTEX
  8
AM_0
  5
165FF
 10
787.914
 20
392.420
 30
0.000000
  70
    32
  0
VERTEX
  8
AM_0
  5
16600
 10
787.894
 20
392.407
 30
0.000000
  70
    32
  0
VERTEX
  8
AM_0
  5
16601
 10
787.873
 20
392.394
 30
0.000000
  70
    32
  0
VERTEX
  8
AM_0
  5
16602
 10
787.852
 20
392.381
 30
0.000000
  70
    32
  0
VERTEX
  8
AM_0
  5
16603
 10
787.832
 20
392.368
 30
0.000000
  70
    32
  0
VERTEX
  8
AM_0
  5
16604
 10
787.811
 20
392.354
 30
0.000000
  70
    32
  0
VERTEX
  8
AM_0
  5
16605
 10
787.791
 20
392.340
 30
0.000000
  70
    32
  0
VERTEX
  8
AM_0
  5
16606
 10
787.771
 20
392.326
 30
0.000000
  70
    32
  0
VERTEX
  8
AM_0
  5
16607
 10
787.751
 20
392.311
 30
0.000000
  70
    32
  0
VERTEX
  8
AM_0
  5
16608
 10
787.732
 20
392.296
 30
0.000000
  70
    32
  0
VERTEX
  8
AM_0
  5
16609
 10
787.712
 20
392.281
 30
0.000000
  70
    32
  0
VERTEX
  8
AM_0
  5
1660A
 10
787.693
 20
392.266
 30
0.000000
  70
    32
  0
VERTEX
  8
AM_0
  5
1660B
 10
787.674
 20
392.251
 30
0.000000
  70
    32
  0
VERTEX
  8
AM_0
  5
1660C
 10
787.655
 20
392.235
 30
0.000000
  70
    32
  0
VERTEX
  8
AM_0
  5
1660D
 10
787.636
 20
392.219
 30
0.000000
  70
    32
  0
VERTEX
  8
AM_0
  5
1660E
 10
787.618
 20
392.203
 30
0.000000
  70
    32
  0
VERTEX
  8
AM_0
  5
1660F
 10
787.600
 20
392.187
 30
0.000000
  70
    32
  0
VERTEX
  8
AM_0
  5
16610
 10
787.581
 20
392.170
 30
0.000000
  70
    32
  0
VERTEX
  8
AM_0
  5
16611
 10
787.564
 20
392.153
 30
0.000000
  70
    32
  0
VERTEX
  8
AM_0
  5
16612
 10
787.546
 20
392.136
 30
0.000000
  70
    32
  0
VERTEX
  8
AM_0
  5
16613
 10
787.528
 20
392.119
 30
0.000000
  70
    32
  0
VERTEX
  8
AM_0
  5
16614
 10
787.511
 20
392.101
 30
0.000000
  70
    32
  0
VERTEX
  8
AM_0
  5
16615
 10
787.494
 20
392.084
 30
0.000000
  70
    32
  0
VERTEX
  8
AM_0
  5
16616
 10
787.477
 20
392.066
 30
0.000000
  70
    32
  0
VERTEX
  8
AM_0
  5
16617
 10
787.461
 20
392.048
 30
0.000000
  70
    32
  0
VERTEX
  8
AM_0
  5
16618
 10
787.444
 20
392.029
 30
0.000000
  70
    32
  0
VERTEX
  8
AM_0
  5
16619
 10
787.428
 20
392.011
 30
0.000000
  70
    32
  0
VERTEX
  8
AM_0
  5
1661A
 10
787.412
 20
391.992
 30
0.000000
  70
    32
  0
VERTEX
  8
AM_0
  5
1661B
 10
787.397
 20
391.973
 30
0.000000
  70
    32
  0
VERTEX
  8
AM_0
  5
1661C
 10
787.381
 20
391.954
 30
0.000000
  70
    32
  0
VERTEX
  8
AM_0
  5
1661D
 10
787.366
 20
391.935
 30
0.000000
  70
    32
  0
VERTEX
  8
AM_0
  5
1661E
 10
787.351
 20
391.916
 30
0.000000
  70
    32
  0
VERTEX
  8
AM_0
  5
1661F
 10
787.336
 20
391.896
 30
0.000000
  70
    32
  0
VERTEX
  8
AM_0
  5
16620
 10
787.322
 20
391.876
 30
0.000000
  70
    32
  0
VERTEX
  8
AM_0
  5
16621
 10
787.308
 20
391.856
 30
0.000000
  70
    32
  0
VERTEX
  8
AM_0
  5
16622
 10
787.294
 20
391.836
 30
0.000000
  70
    32
  0
VERTEX
  8
AM_0
  5
16623
 10
787.280
 20
391.816
 30
0.000000
  70
    32
  0
VERTEX
  8
AM_0
  5
16624
 10
787.266
 20
391.795
 30
0.000000
  70
    32
  0
VERTEX
  8
AM_0
  5
16625
 10
787.253
 20
391.775
 30
0.000000
  70
    32
  0
VERTEX
  8
AM_0
  5
16626
 10
787.240
 20
391.754
 30
0.000000
  70
    32
  0
VERTEX
  8
AM_0
  5
16627
 10
787.227
 20
391.733
 30
0.000000
  70
    32
  0
VERTEX
  8
AM_0
  5
16628
 10
787.215
 20
391.712
 30
0.000000
  70
    32
  0
VERTEX
  8
AM_0
  5
16629
 10
787.203
 20
391.690
 30
0.000000
  70
    32
  0
VERTEX
  8
AM_0
  5
1662A
 10
787.191
 20
391.669
 30
0.000000
  70
    32
  0
VERTEX
  8
AM_0
  5
1662B
 10
787.179
 20
391.647
 30
0.000000
  70
    32
  0
VERTEX
  8
AM_0
  5
1662C
 10
787.167
 20
391.626
 30
0.000000
  70
    32
  0
VERTEX
  8
AM_0
  5
1662D
 10
787.156
 20
391.604
 30
0.000000
  70
    32
  0
VERTEX
  8
AM_0
  5
1662E
 10
787.145
 20
391.582
 30
0.000000
  70
    32
  0
VERTEX
  8
AM_0
  5
1662F
 10
787.135
 20
391.560
 30
0.000000
  70
    32
  0
VERTEX
  8
AM_0
  5
16630
 10
787.124
 20
391.537
 30
0.000000
  70
    32
  0
VERTEX
  8
AM_0
  5
16631
 10
787.114
 20
391.515
 30
0.000000
  70
    32
  0
VERTEX
  8
AM_0
  5
16632
 10
787.104
 20
391.493
 30
0.000000
  70
    32
  0
VERTEX
  8
AM_0
  5
16633
 10
787.095
 20
391.470
 30
0.000000
  70
    32
  0
VERTEX
  8
AM_0
  5
16634
 10
787.086
 20
391.447
 30
0.000000
  70
    32
  0
VERTEX
  8
AM_0
  5
16635
 10
787.077
 20
391.424
 30
0.000000
  70
    32
  0
VERTEX
  8
AM_0
  5
16636
 10
787.068
 20
391.401
 30
0.000000
  70
    32
  0
VERTEX
  8
AM_0
  5
16637
 10
787.060
 20
391.378
 30
0.000000
  70
    32
  0
VERTEX
  8
AM_0
  5
16638
 10
787.051
 20
391.355
 30
0.000000
  70
    32
  0
VERTEX
  8
AM_0
  5
16639
 10
787.044
 20
391.332
 30
0.000000
  70
    32
  0
VERTEX
  8
AM_0
  5
1663A
 10
787.036
 20
391.309
 30
0.000000
  70
    32
  0
VERTEX
  8
AM_0
  5
1663B
 10
787.029
 20
391.285
 30
0.000000
  70
    32
  0
VERTEX
  8
AM_0
  5
1663C
 10
787.022
 20
391.262
 30
0.000000
  70
    32
  0
VERTEX
  8
AM_0
  5
1663D
 10
787.015
 20
391.238
 30
0.000000
  70
    32
  0
VERTEX
  8
AM_0
  5
1663E
 10
787.009
 20
391.214
 30
0.000000
  70
    32
  0
VERTEX
  8
AM_0
  5
1663F
 10
787.003
 20
391.191
 30
0.000000
  70
    32
  0
VERTEX
  8
AM_0
  5
16640
 10
786.997
 20
391.167
 30
0.000000
  70
    32
  0
VERTEX
  8
AM_0
  5
16641
 10
786.991
 20
391.143
 30
0.000000
  70
    32
  0
VERTEX
  8
AM_0
  5
16642
 10
786.986
 20
391.119
 30
0.000000
  70
    32
  0
VERTEX
  8
AM_0
  5
16643
 10
786.981
 20
391.095
 30
0.000000
  70
    32
  0
VERTEX
  8
AM_0
  5
16644
 10
786.976
 20
391.071
 30
0.000000
  70
    32
  0
VERTEX
  8
AM_0
  5
16645
 10
786.972
 20
391.047
 30
0.000000
  70
    32
  0
VERTEX
  8
AM_0
  5
16646
 10
786.968
 20
391.022
 30
0.000000
  70
    32
  0
VERTEX
  8
AM_0
  5
16647
 10
786.964
 20
390.998
 30
0.000000
  70
    32
  0
VERTEX
  8
AM_0
  5
16648
 10
786.961
 20
390.974
 30
0.000000
  70
    32
  0
VERTEX
  8
AM_0
  5
16649
 10
786.958
 20
390.949
 30
0.000000
  70
    32
  0
VERTEX
  8
AM_0
  5
1664A
 10
786.955
 20
390.925
 30
0.000000
  70
    32
  0
VERTEX
  8
AM_0
  5
1664B
 10
786.952
 20
390.901
 30
0.000000
  70
    32
  0
VERTEX
  8
AM_0
  5
1664C
 10
786.950
 20
390.876
 30
0.000000
  70
    32
  0
VERTEX
  8
AM_0
  5
1664D
 10
786.948
 20
390.852
 30
0.000000
  70
    32
  0
VERTEX
  8
AM_0
  5
1664E
 10
786.946
 20
390.827
 30
0.000000
  70
    32
  0
VERTEX
  8
AM_0
  5
1664F
 10
786.945
 20
390.803
 30
0.000000
  70
    32
  0
VERTEX
  8
AM_0
  5
16650
 10
786.944
 20
390.778
 30
0.000000
  70
    32
  0
VERTEX
  8
AM_0
  5
16651
 10
786.943
 20
390.754
 30
0.000000
  70
    32
  0
VERTEX
  8
AM_0
  5
16652
 10
786.943
 20
390.729
 30
0.000000
  70
    32
  0
VERTEX
  8
AM_0
  5
16653
 10
786.943
 20
390.705
 30
0.000000
  70
    32
  0
SEQEND
  8
AM_0
  5
16654
  0
LINE
  5
15445
  8
AM_0
 10
794.94269741506866
 20
393.704655299085
 30
0.0
 11
794.94269741506866
 21
378.7043548517413
 31
0.0
  0
LINE
  5
15450
  8
AM_0
 10
823.27814729692466
 20
420.97367784792289
 30
0.0
 11
827.14270890618457
 21
423.20324319856911
 31
0.0
  0
LINE
  5
15464
  8
AM_0
 10
864.32565127426381
 20
420.20324319856883
 30
0.0
 11
873.94269890618511
 21
420.20324319856883
 31
0.0
  0
LINE
  5
15465
  8
AM_0
 10
867.942698906185
 20
420.20324319856883
 30
0.0
 11
862.75269890618483
 21
423.20324319856911
 31
0.0
  0
ARC
  5
15466
  8
AM_0
 10
873.94269890618511
 20
419.20324319856888
 30
0.0
 40
0.9999999999999998
 50
53.944504348436347
 51
90.000010000001026
  0
LINE
  5
15468
  8
AM_0
 10
908.94270081481363
 20
391.2044049264988
 30
0.0
 11
903.94270066570209
 21
391.2044049264988
 31
0.0
  0
LINE
  5
15A29
  8
AM_0
 10
378.09835086375529
 20
723.66753950315274
 30
0.0
 11
583.09832651715215
 21
723.66753950315308
 31
0.0
  0
LINE
  5
15A2A
  8
AM_0
 10
458.10035085562259
 20
728.66753965226451
 30
0.0
 11
558.10195324185634
 21
728.66753965226451
 31
0.0
  0
LINE
  5
15A2B
  8
AM_0
 10
458.10035085562259
 20
600.66753583500724
 30
0.0
 11
558.10195324185634
 21
600.66753583500724
 31
0.0
  0
POLYLINE
  5
15A2C
  8
AM_0
 10
477.60124235779182
 20
606.66753601394157
 30
0.0
 66
     1
 70
     8
  0
VERTEX
  8
AM_0
  5
16655
 10
477.601
 20
606.668
 30
0.000000
  70
    32
  0
VERTEX
  8
AM_0
  5
16656
 10
477.626
 20
606.668
 30
0.000000
  70
    32
  0
VERTEX
  8
AM_0
  5
16657
 10
477.650
 20
606.668
 30
0.000000
  70
    32
  0
VERTEX
  8
AM_0
  5
16658
 10
477.675
 20
606.669
 30
0.000000
  70
    32
  0
VERTEX
  8
AM_0
  5
16659
 10
477.699
 20
606.670
 30
0.000000
  70
    32
  0
VERTEX
  8
AM_0
  5
1665A
 10
477.724
 20
606.671
 30
0.000000
  70
    32
  0
VERTEX
  8
AM_0
  5
1665B
 10
477.748
 20
606.673
 30
0.000000
  70
    32
  0
VERTEX
  8
AM_0
  5
1665C
 10
477.773
 20
606.675
 30
0.000000
  70
    32
  0
VERTEX
  8
AM_0
  5
1665D
 10
477.797
 20
606.677
 30
0.000000
  70
    32
  0
VERTEX
  8
AM_0
  5
1665E
 10
477.822
 20
606.680
 30
0.000000
  70
    32
  0
VERTEX
  8
AM_0
  5
1665F
 10
477.846
 20
606.683
 30
0.000000
  70
    32
  0
VERTEX
  8
AM_0
  5
16660
 10
477.870
 20
606.686
 30
0.000000
  70
    32
  0
VERTEX
  8
AM_0
  5
16661
 10
477.895
 20
606.689
 30
0.000000
  70
    32
  0
VERTEX
  8
AM_0
  5
16662
 10
477.919
 20
606.693
 30
0.000000
  70
    32
  0
VERTEX
  8
AM_0
  5
16663
 10
477.943
 20
606.697
 30
0.000000
  70
    32
  0
VERTEX
  8
AM_0
  5
16664
 10
477.967
 20
606.701
 30
0.000000
  70
    32
  0
VERTEX
  8
AM_0
  5
16665
 10
477.991
 20
606.706
 30
0.000000
  70
    32
  0
VERTEX
  8
AM_0
  5
16666
 10
478.015
 20
606.711
 30
0.000000
  70
    32
  0
VERTEX
  8
AM_0
  5
16667
 10
478.039
 20
606.716
 30
0.000000
  70
    32
  0
VERTEX
  8
AM_0
  5
16668
 10
478.063
 20
606.722
 30
0.000000
  70
    32
  0
VERTEX
  8
AM_0
  5
16669
 10
478.087
 20
606.727
 30
0.000000
  70
    32
  0
VERTEX
  8
AM_0
  5
1666A
 10
478.111
 20
606.734
 30
0.000000
  70
    32
  0
VERTEX
  8
AM_0
  5
1666B
 10
478.135
 20
606.740
 30
0.000000
  70
    32
  0
VERTEX
  8
AM_0
  5
1666C
 10
478.158
 20
606.747
 30
0.000000
  70
    32
  0
VERTEX
  8
AM_0
  5
1666D
 10
478.182
 20
606.754
 30
0.000000
  70
    32
  0
VERTEX
  8
AM_0
  5
1666E
 10
478.205
 20
606.761
 30
0.000000
  70
    32
  0
VERTEX
  8
AM_0
  5
1666F
 10
478.229
 20
606.768
 30
0.000000
  70
    32
  0
VERTEX
  8
AM_0
  5
16670
 10
478.252
 20
606.776
 30
0.000000
  70
    32
  0
VERTEX
  8
AM_0
  5
16671
 10
478.275
 20
606.784
 30
0.000000
  70
    32
  0
VERTEX
  8
AM_0
  5
16672
 10
478.298
 20
606.793
 30
0.000000
  70
    32
  0
VERTEX
  8
AM_0
  5
16673
 10
478.321
 20
606.802
 30
0.000000
  70
    32
  0
VERTEX
  8
AM_0
  5
16674
 10
478.344
 20
606.811
 30
0.000000
  70
    32
  0
VERTEX
  8
AM_0
  5
16675
 10
478.367
 20
606.820
 30
0.000000
  70
    32
  0
VERTEX
  8
AM_0
  5
16676
 10
478.389
 20
606.829
 30
0.000000
  70
    32
  0
VERTEX
  8
AM_0
  5
16677
 10
478.412
 20
606.839
 30
0.000000
  70
    32
  0
VERTEX
  8
AM_0
  5
16678
 10
478.434
 20
606.849
 30
0.000000
  70
    32
  0
VERTEX
  8
AM_0
  5
16679
 10
478.456
 20
606.860
 30
0.000000
  70
    32
  0
VERTEX
  8
AM_0
  5
1667A
 10
478.478
 20
606.870
 30
0.000000
  70
    32
  0
VERTEX
  8
AM_0
  5
1667B
 10
478.500
 20
606.881
 30
0.000000
  70
    32
  0
VERTEX
  8
AM_0
  5
1667C
 10
478.522
 20
606.892
 30
0.000000
  70
    32
  0
VERTEX
  8
AM_0
  5
1667D
 10
478.544
 20
606.904
 30
0.000000
  70
    32
  0
VERTEX
  8
AM_0
  5
1667E
 10
478.566
 20
606.915
 30
0.000000
  70
    32
  0
VERTEX
  8
AM_0
  5
1667F
 10
478.587
 20
606.927
 30
0.000000
  70
    32
  0
VERTEX
  8
AM_0
  5
16680
 10
478.608
 20
606.940
 30
0.000000
  70
    32
  0
VERTEX
  8
AM_0
  5
16681
 10
478.629
 20
606.952
 30
0.000000
  70
    32
  0
VERTEX
  8
AM_0
  5
16682
 10
478.650
 20
606.965
 30
0.000000
  70
    32
  0
VERTEX
  8
AM_0
  5
16683
 10
478.671
 20
606.978
 30
0.000000
  70
    32
  0
VERTEX
  8
AM_0
  5
16684
 10
478.692
 20
606.991
 30
0.000000
  70
    32
  0
VERTEX
  8
AM_0
  5
16685
 10
478.712
 20
607.005
 30
0.000000
  70
    32
  0
VERTEX
  8
AM_0
  5
16686
 10
478.733
 20
607.018
 30
0.000000
  70
    32
  0
VERTEX
  8
AM_0
  5
16687
 10
478.753
 20
607.032
 30
0.000000
  70
    32
  0
VERTEX
  8
AM_0
  5
16688
 10
478.773
 20
607.047
 30
0.000000
  70
    32
  0
VERTEX
  8
AM_0
  5
16689
 10
478.793
 20
607.061
 30
0.000000
  70
    32
  0
VERTEX
  8
AM_0
  5
1668A
 10
478.812
 20
607.076
 30
0.000000
  70
    32
  0
VERTEX
  8
AM_0
  5
1668B
 10
478.832
 20
607.091
 30
0.000000
  70
    32
  0
VERTEX
  8
AM_0
  5
1668C
 10
478.851
 20
607.106
 30
0.000000
  70
    32
  0
VERTEX
  8
AM_0
  5
1668D
 10
478.870
 20
607.122
 30
0.000000
  70
    32
  0
VERTEX
  8
AM_0
  5
1668E
 10
478.889
 20
607.137
 30
0.000000
  70
    32
  0
VERTEX
  8
AM_0
  5
1668F
 10
478.908
 20
607.153
 30
0.000000
  70
    32
  0
VERTEX
  8
AM_0
  5
16690
 10
478.926
 20
607.169
 30
0.000000
  70
    32
  0
VERTEX
  8
AM_0
  5
16691
 10
478.944
 20
607.186
 30
0.000000
  70
    32
  0
VERTEX
  8
AM_0
  5
16692
 10
478.962
 20
607.202
 30
0.000000
  70
    32
  0
VERTEX
  8
AM_0
  5
16693
 10
478.980
 20
607.219
 30
0.000000
  70
    32
  0
VERTEX
  8
AM_0
  5
16694
 10
478.998
 20
607.236
 30
0.000000
  70
    32
  0
VERTEX
  8
AM_0
  5
16695
 10
479.015
 20
607.253
 30
0.000000
  70
    32
  0
VERTEX
  8
AM_0
  5
16696
 10
479.033
 20
607.271
 30
0.000000
  70
    32
  0
VERTEX
  8
AM_0
  5
16697
 10
479.050
 20
607.288
 30
0.000000
  70
    32
  0
VERTEX
  8
AM_0
  5
16698
 10
479.067
 20
607.306
 30
0.000000
  70
    32
  0
VERTEX
  8
AM_0
  5
16699
 10
479.083
 20
607.324
 30
0.000000
  70
    32
  0
VERTEX
  8
AM_0
  5
1669A
 10
479.100
 20
607.343
 30
0.000000
  70
    32
  0
VERTEX
  8
AM_0
  5
1669B
 10
479.116
 20
607.361
 30
0.000000
  70
    32
  0
VERTEX
  8
AM_0
  5
1669C
 10
479.132
 20
607.380
 30
0.000000
  70
    32
  0
VERTEX
  8
AM_0
  5
1669D
 10
479.147
 20
607.399
 30
0.000000
  70
    32
  0
VERTEX
  8
AM_0
  5
1669E
 10
479.163
 20
607.418
 30
0.000000
  70
    32
  0
VERTEX
  8
AM_0
  5
1669F
 10
479.178
 20
607.437
 30
0.000000
  70
    32
  0
VERTEX
  8
AM_0
  5
166A0
 10
479.193
 20
607.457
 30
0.000000
  70
    32
  0
VERTEX
  8
AM_0
  5
166A1
 10
479.208
 20
607.476
 30
0.000000
  70
    32
  0
VERTEX
  8
AM_0
  5
166A2
 10
479.222
 20
607.496
 30
0.000000
  70
    32
  0
VERTEX
  8
AM_0
  5
166A3
 10
479.236
 20
607.516
 30
0.000000
  70
    32
  0
VERTEX
  8
AM_0
  5
166A4
 10
479.250
 20
607.536
 30
0.000000
  70
    32
  0
VERTEX
  8
AM_0
  5
166A5
 10
479.264
 20
607.556
 30
0.000000
  70
    32
  0
VERTEX
  8
AM_0
  5
166A6
 10
479.278
 20
607.577
 30
0.000000
  70
    32
  0
VERTEX
  8
AM_0
  5
166A7
 10
479.291
 20
607.598
 30
0.000000
  70
    32
  0
VERTEX
  8
AM_0
  5
166A8
 10
479.304
 20
607.618
 30
0.000000
  70
    32
  0
VERTEX
  8
AM_0
  5
166A9
 10
479.317
 20
607.639
 30
0.000000
  70
    32
  0
VERTEX
  8
AM_0
  5
166AA
 10
479.329
 20
607.660
 30
0.000000
  70
    32
  0
VERTEX
  8
AM_0
  5
166AB
 10
479.341
 20
607.682
 30
0.000000
  70
    32
  0
VERTEX
  8
AM_0
  5
166AC
 10
479.353
 20
607.703
 30
0.000000
  70
    32
  0
VERTEX
  8
AM_0
  5
166AD
 10
479.365
 20
607.725
 30
0.000000
  70
    32
  0
VERTEX
  8
AM_0
  5
166AE
 10
479.377
 20
607.746
 30
0.000000
  70
    32
  0
VERTEX
  8
AM_0
  5
166AF
 10
479.388
 20
607.768
 30
0.000000
  70
    32
  0
VERTEX
  8
AM_0
  5
166B0
 10
479.399
 20
607.790
 30
0.000000
  70
    32
  0
VERTEX
  8
AM_0
  5
166B1
 10
479.409
 20
607.812
 30
0.000000
  70
    32
  0
VERTEX
  8
AM_0
  5
166B2
 10
479.420
 20
607.835
 30
0.000000
  70
    32
  0
VERTEX
  8
AM_0
  5
166B3
 10
479.430
 20
607.857
 30
0.000000
  70
    32
  0
VERTEX
  8
AM_0
  5
166B4
 10
479.440
 20
607.880
 30
0.000000
  70
    32
  0
VERTEX
  8
AM_0
  5
166B5
 10
479.449
 20
607.902
 30
0.000000
  70
    32
  0
VERTEX
  8
AM_0
  5
166B6
 10
479.458
 20
607.925
 30
0.000000
  70
    32
  0
VERTEX
  8
AM_0
  5
166B7
 10
479.467
 20
607.948
 30
0.000000
  70
    32
  0
VERTEX
  8
AM_0
  5
166B8
 10
479.476
 20
607.971
 30
0.000000
  70
    32
  0
VERTEX
  8
AM_0
  5
166B9
 10
479.484
 20
607.994
 30
0.000000
  70
    32
  0
VERTEX
  8
AM_0
  5
166BA
 10
479.492
 20
608.017
 30
0.000000
  70
    32
  0
VERTEX
  8
AM_0
  5
166BB
 10
479.500
 20
608.040
 30
0.000000
  70
    32
  0
VERTEX
  8
AM_0
  5
166BC
 10
479.508
 20
608.064
 30
0.000000
  70
    32
  0
VERTEX
  8
AM_0
  5
166BD
 10
479.515
 20
608.087
 30
0.000000
  70
    32
  0
VERTEX
  8
AM_0
  5
166BE
 10
479.522
 20
608.110
 30
0.000000
  70
    32
  0
VERTEX
  8
AM_0
  5
166BF
 10
479.529
 20
608.134
 30
0.000000
  70
    32
  0
VERTEX
  8
AM_0
  5
166C0
 10
479.535
 20
608.158
 30
0.000000
  70
    32
  0
VERTEX
  8
AM_0
  5
166C1
 10
479.541
 20
608.182
 30
0.000000
  70
    32
  0
VERTEX
  8
AM_0
  5
166C2
 10
479.547
 20
608.205
 30
0.000000
  70
    32
  0
VERTEX
  8
AM_0
  5
166C3
 10
479.553
 20
608.229
 30
0.000000
  70
    32
  0
VERTEX
  8
AM_0
  5
166C4
 10
479.558
 20
608.253
 30
0.000000
  70
    32
  0
VERTEX
  8
AM_0
  5
166C5
 10
479.563
 20
608.277
 30
0.000000
  70
    32
  0
VERTEX
  8
AM_0
  5
166C6
 10
479.567
 20
608.301
 30
0.000000
  70
    32
  0
VERTEX
  8
AM_0
  5
166C7
 10
479.572
 20
608.326
 30
0.000000
  70
    32
  0
VERTEX
  8
AM_0
  5
166C8
 10
479.576
 20
608.350
 30
0.000000
  70
    32
  0
VERTEX
  8
AM_0
  5
166C9
 10
479.580
 20
608.374
 30
0.000000
  70
    32
  0
VERTEX
  8
AM_0
  5
166CA
 10
479.583
 20
608.398
 30
0.000000
  70
    32
  0
VERTEX
  8
AM_0
  5
166CB
 10
479.586
 20
608.423
 30
0.000000
  70
    32
  0
VERTEX
  8
AM_0
  5
166CC
 10
479.589
 20
608.447
 30
0.000000
  70
    32
  0
VERTEX
  8
AM_0
  5
166CD
 10
479.592
 20
608.472
 30
0.000000
  70
    32
  0
VERTEX
  8
AM_0
  5
166CE
 10
479.594
 20
608.496
 30
0.000000
  70
    32
  0
VERTEX
  8
AM_0
  5
166CF
 10
479.596
 20
608.520
 30
0.000000
  70
    32
  0
VERTEX
  8
AM_0
  5
166D0
 10
479.598
 20
608.545
 30
0.000000
  70
    32
  0
VERTEX
  8
AM_0
  5
166D1
 10
479.599
 20
608.569
 30
0.000000
  70
    32
  0
VERTEX
  8
AM_0
  5
166D2
 10
479.600
 20
608.594
 30
0.000000
  70
    32
  0
VERTEX
  8
AM_0
  5
166D3
 10
479.601
 20
608.618
 30
0.000000
  70
    32
  0
VERTEX
  8
AM_0
  5
166D4
 10
479.601
 20
608.643
 30
0.000000
  70
    32
  0
VERTEX
  8
AM_0
  5
166D5
 10
479.601
 20
608.668
 30
0.000000
  70
    32
  0
SEQEND
  8
AM_0
  5
166D6
  0
LINE
  5
15A2D
  8
AM_0
 10
465.60100182506761
 20
614.66753625251965
 30
0.0
 11
480.60130227241149
 21
614.66753625251965
 31
0.0
  0
LINE
  5
15A2E
  8
AM_0
 10
378.09835086375529
 20
605.66753598411913
 30
0.0
 11
583.09832651715203
 21
605.66753598411924
 31
0.0
  0
LINE
  5
15A2F
  8
AM_0
 10
378.09756495943361
 20
630.66753672967684
 30
0.0
 11
583.09754055543033
 21
630.66753672967684
 31
0.0
  0
LINE
  5
15A30
  8
ﾁｭｳｼﾝｾﾝ1
 10
181.3536649588938
 20
664.66753774363565
 30
0.0
 11
588.09754055543033
 21
664.66753774363565
 31
0.0
1001
GENIUS_GENODEF_13
1002
{
1000
HIER
1070
     0
1002
}
1002
{
1000
MANEDIT
1070
     0
1002
}
1002
{
1000
NOSEL
1070
     0
1002
}
1002
{
1000
BEHIND
1070
     0
1002
}
1002
{
1000
REACTOR
1002
}
1001
GENIUS_GENOBJ-N-CEN_13
1002
{
1000
OWNER
1000
GEN
1002
}
  0
LINE
  5
15A31
  8
AM_0
 10
379.84311383778368
 20
723.66753950315274
 30
0.0
 11
378.09756495928161
 21
630.66753672967684
 31
0.0
  0
LINE
  5
15A32
  8
AM_0
 10
362.0975649588936
 20
726.16753274363634
 30
0.0
 11
362.0975649588936
 21
603.16755274363584
 31
0.0
  0
LINE
  5
15A33
  8
AM_0
 10
351.09756495889383
 20
728.66756774363625
 30
0.0
 11
351.09756495889388
 21
600.66755274363584
 31
0.0
  0
ARC
  5
15A34
  8
AM_0
 10
365.09756495889383
 20
600.16755274363595
 30
0.0
 40
2.9999999999999978
 50
90.0
 51
144.31466528734541
1001
GENIUS_GENOBJ-N-FIL_13
1002
{
1000
OWNER
1000
GEN
1002
}
1001
GENIUS_GENODEF_13
1002
{
1000
HIER
1070
     0
1002
}
1002
{
1000
MANEDIT
1070
     0
1002
}
1002
{
1000
NOSEL
1070
     0
1002
}
1002
{
1000
BEHIND
1070
     0
1002
}
1002
{
1000
OTHER
1070
     0
1002
}
1002
{
1000
REACTOR
1002
}
  0
LINE
  5
15A35
  8
AM_0
 10
351.09756495889388
 20
600.66755274363584
 30
0.0
 11
360.22416778648937
 21
600.66755274363584
 31
0.0
  0
ARC
  5
15A36
  8
AM_0
 10
360.22416778648937
 20
603.66755274363584
 30
0.0
 40
2.9999999999999978
 50
270.0
 51
324.31466528734541
1001
GENIUS_GENOBJ-N-FIL_13
1002
{
1000
OWNER
1000
GEN
1002
}
1001
GENIUS_GENODEF_13
1002
{
1000
HIER
1070
     0
1002
}
1002
{
1000
MANEDIT
1070
     0
1002
}
1002
{
1000
NOSEL
1070
     0
1002
}
1002
{
1000
BEHIND
1070
     0
1002
}
1002
{
1000
OTHER
1070
     0
1002
}
1002
{
1000
REACTOR
1002
}
  0
LINE
  5
15A37
  8
AM_0
 10
351.09756495889388
 20
612.62755274363622
 30
0.0
 11
361.09756495889388
 21
612.62755274363622
 31
0.0
  0
LINE
  5
15A38
  8
AM_0
 10
351.0975071366766
 20
612.62754274366773
 30
0.0
 11
361.09750713667029
 21
612.62753163255661
 31
0.0
  0
LINE
  5
15A39
  8
AM_0
 10
351.09756495889388
 20
627.52756274363628
 30
0.0
 11
361.09756495889388
 21
627.52756274363628
 31
0.0
  0
LINE
  5
15A3A
  8
AM_0
 10
351.09752369224333
 20
627.5275527436587
 30
0.0
 11
361.09752369223708
 21
627.52754163254724
 31
0.0
  0
ARC
  5
15A3B
  8
AM_0
 10
367.68398843788418
 20
605.16755274363595
 30
0.0
 40
2.0
 50
270.0
 51
354.99999999999977
1001
GENIUS_GENODEF_13
1002
{
1000
HIER
1070
     0
1002
}
1002
{
1000
MANEDIT
1070
     0
1002
}
1002
{
1000
NOSEL
1070
     0
1002
}
1002
{
1000
BEHIND
1070
     0
1002
}
1002
{
1000
OTHER
1070
     0
1002
}
1002
{
1000
REACTOR
1002
}
1001
GENIUS_GENOBJ-N-FIL_13
1002
{
1000
OWNER
1000
GEN
1002
}
  0
LINE
  5
15A3C
  8
AM_0
 10
458.10035085562259
 20
600.66753583500724
 30
0.0
 11
458.10035085562259
 21
605.6675359841189
 31
0.0
  0
LINE
  5
15A3D
  8
AM_0
 10
365.09756495889371
 20
603.16755274363584
 30
0.0
 11
367.68398843788418
 21
603.16755274363618
 31
0.0
  0
LINE
  5
15A3E
  8
AM_0
 10
371.93783791074509
 20
630.84184821517215
 30
0.0
 11
369.67637783406769
 21
604.99324125814087
 31
0.0
  0
LINE
  5
15A3F
  8
AM_0
 10
378.09756495943361
 20
630.66753672967684
 30
0.0
 11
378.41174971916928
 21
605.66753598411924
 31
0.0
  0
ARC
  5
15A40
  8
AM_0
 10
377.1161581729084
 20
631.66753672967684
 30
0.0
 40
1.0
 50
358.92472216393878
 51
90.0
1001
GENIUS_GENODEF_13
1002
{
1000
HIER
1070
     0
1002
}
1002
{
1000
MANEDIT
1070
     0
1002
}
1002
{
1000
NOSEL
1070
     0
1002
}
1002
{
1000
BEHIND
1070
     0
1002
}
1002
{
1000
OTHER
1070
     0
1002
}
1002
{
1000
REACTOR
1002
}
1001
GENIUS_GENOBJ-N-FIL_13
1002
{
1000
OWNER
1000
GEN
1002
}
  0
ARC
  5
15A41
  8
AM_0
 10
373.93022730692871
 20
630.66753672967684
 30
0.0
 40
2.0
 50
90.0
 51
175.0
1001
GENIUS_GENOBJ-N-FIL_13
1002
{
1000
OWNER
1000
GEN
1002
}
1001
GENIUS_GENODEF_13
1002
{
1000
HIER
1070
     0
1002
}
1002
{
1000
MANEDIT
1070
     0
1002
}
1002
{
1000
NOSEL
1070
     0
1002
}
1002
{
1000
BEHIND
1070
     0
1002
}
1002
{
1000
OTHER
1070
     0
1002
}
1002
{
1000
REACTOR
1002
}
  0
LINE
  5
15A42
  8
AM_0
 10
373.93022730692871
 20
632.66753672967684
 30
0.0
 11
377.1161581729084
 21
632.66753672967684
 31
0.0
  0
LINE
  5
15A43
  8
AM_0
 10
466.60102185489058
 20
608.66753607358623
 30
0.0
 11
466.60102185489058
 21
614.66753625251965
 31
0.0
  0
LINE
  5
15A44
  8
AM_0
 10
465.60100182506761
 20
605.66753598411924
 30
0.0
 11
465.60100182506761
 21
614.66753625251965
 31
0.0
  0
LINE
  5
15A45
  8
AM_0
 10
477.60124218294271
 20
606.66753601394112
 30
0.0
 11
468.60106191453661
 21
606.66753601394112
 31
0.0
  0
POLYLINE
  5
15A46
  8
AM_0
 10
466.6010218548908
 20
608.66753598616356
 30
0.0
 66
     1
 70
     8
  0
VERTEX
  8
AM_0
  5
166D7
 10
466.601
 20
608.668
 30
0.000000
  70
    32
  0
VERTEX
  8
AM_0
  5
166D8
 10
466.601
 20
608.643
 30
0.000000
  70
    32
  0
VERTEX
  8
AM_0
  5
166D9
 10
466.602
 20
608.618
 30
0.000000
  70
    32
  0
VERTEX
  8
AM_0
  5
166DA
 10
466.602
 20
608.594
 30
0.000000
  70
    32
  0
VERTEX
  8
AM_0
  5
166DB
 10
466.603
 20
608.569
 30
0.000000
  70
    32
  0
VERTEX
  8
AM_0
  5
166DC
 10
466.605
 20
608.545
 30
0.000000
  70
    32
  0
VERTEX
  8
AM_0
  5
166DD
 10
466.606
 20
608.520
 30
0.000000
  70
    32
  0
VERTEX
  8
AM_0
  5
166DE
 10
466.608
 20
608.496
 30
0.000000
  70
    32
  0
VERTEX
  8
AM_0
  5
166DF
 10
466.611
 20
608.472
 30
0.000000
  70
    32
  0
VERTEX
  8
AM_0
  5
166E0
 10
466.613
 20
608.447
 30
0.000000
  70
    32
  0
VERTEX
  8
AM_0
  5
166E1
 10
466.616
 20
608.423
 30
0.000000
  70
    32
  0
VERTEX
  8
AM_0
  5
166E2
 10
466.619
 20
608.398
 30
0.000000
  70
    32
  0
VERTEX
  8
AM_0
  5
166E3
 10
466.623
 20
608.374
 30
0.000000
  70
    32
  0
VERTEX
  8
AM_0
  5
166E4
 10
466.626
 20
608.350
 30
0.000000
  70
    32
  0
VERTEX
  8
AM_0
  5
166E5
 10
466.630
 20
608.326
 30
0.000000
  70
    32
  0
VERTEX
  8
AM_0
  5
166E6
 10
466.635
 20
608.301
 30
0.000000
  70
    32
  0
VERTEX
  8
AM_0
  5
166E7
 10
466.639
 20
608.277
 30
0.000000
  70
    32
  0
VERTEX
  8
AM_0
  5
166E8
 10
466.644
 20
608.253
 30
0.000000
  70
    32
  0
VERTEX
  8
AM_0
  5
166E9
 10
466.650
 20
608.229
 30
0.000000
  70
    32
  0
VERTEX
  8
AM_0
  5
166EA
 10
466.655
 20
608.205
 30
0.000000
  70
    32
  0
VERTEX
  8
AM_0
  5
166EB
 10
466.661
 20
608.182
 30
0.000000
  70
    32
  0
VERTEX
  8
AM_0
  5
166EC
 10
466.667
 20
608.158
 30
0.000000
  70
    32
  0
VERTEX
  8
AM_0
  5
166ED
 10
466.673
 20
608.134
 30
0.000000
  70
    32
  0
VERTEX
  8
AM_0
  5
166EE
 10
466.680
 20
608.110
 30
0.000000
  70
    32
  0
VERTEX
  8
AM_0
  5
166EF
 10
466.687
 20
608.087
 30
0.000000
  70
    32
  0
VERTEX
  8
AM_0
  5
166F0
 10
466.694
 20
608.064
 30
0.000000
  70
    32
  0
VERTEX
  8
AM_0
  5
166F1
 10
466.702
 20
608.040
 30
0.000000
  70
    32
  0
VERTEX
  8
AM_0
  5
166F2
 10
466.710
 20
608.017
 30
0.000000
  70
    32
  0
VERTEX
  8
AM_0
  5
166F3
 10
466.718
 20
607.994
 30
0.000000
  70
    32
  0
VERTEX
  8
AM_0
  5
166F4
 10
466.726
 20
607.971
 30
0.000000
  70
    32
  0
VERTEX
  8
AM_0
  5
166F5
 10
466.735
 20
607.948
 30
0.000000
  70
    32
  0
VERTEX
  8
AM_0
  5
166F6
 10
466.744
 20
607.925
 30
0.000000
  70
    32
  0
VERTEX
  8
AM_0
  5
166F7
 10
466.753
 20
607.902
 30
0.000000
  70
    32
  0
VERTEX
  8
AM_0
  5
166F8
 10
466.763
 20
607.880
 30
0.000000
  70
    32
  0
VERTEX
  8
AM_0
  5
166F9
 10
466.773
 20
607.857
 30
0.000000
  70
    32
  0
VERTEX
  8
AM_0
  5
166FA
 10
466.783
 20
607.835
 30
0.000000
  70
    32
  0
VERTEX
  8
AM_0
  5
166FB
 10
466.793
 20
607.812
 30
0.000000
  70
    32
  0
VERTEX
  8
AM_0
  5
166FC
 10
466.804
 20
607.790
 30
0.000000
  70
    32
  0
VERTEX
  8
AM_0
  5
166FD
 10
466.815
 20
607.768
 30
0.000000
  70
    32
  0
VERTEX
  8
AM_0
  5
166FE
 10
466.826
 20
607.746
 30
0.000000
  70
    32
  0
VERTEX
  8
AM_0
  5
166FF
 10
466.837
 20
607.725
 30
0.000000
  70
    32
  0
VERTEX
  8
AM_0
  5
16700
 10
466.849
 20
607.703
 30
0.000000
  70
    32
  0
VERTEX
  8
AM_0
  5
16701
 10
466.861
 20
607.682
 30
0.000000
  70
    32
  0
VERTEX
  8
AM_0
  5
16702
 10
466.873
 20
607.660
 30
0.000000
  70
    32
  0
VERTEX
  8
AM_0
  5
16703
 10
466.886
 20
607.639
 30
0.000000
  70
    32
  0
VERTEX
  8
AM_0
  5
16704
 10
466.898
 20
607.618
 30
0.000000
  70
    32
  0
VERTEX
  8
AM_0
  5
16705
 10
466.911
 20
607.598
 30
0.000000
  70
    32
  0
VERTEX
  8
AM_0
  5
16706
 10
466.925
 20
607.577
 30
0.000000
  70
    32
  0
VERTEX
  8
AM_0
  5
16707
 10
466.938
 20
607.556
 30
0.000000
  70
    32
  0
VERTEX
  8
AM_0
  5
16708
 10
466.952
 20
607.536
 30
0.000000
  70
    32
  0
VERTEX
  8
AM_0
  5
16709
 10
466.966
 20
607.516
 30
0.000000
  70
    32
  0
VERTEX
  8
AM_0
  5
1670A
 10
466.980
 20
607.496
 30
0.000000
  70
    32
  0
VERTEX
  8
AM_0
  5
1670B
 10
466.995
 20
607.476
 30
0.000000
  70
    32
  0
VERTEX
  8
AM_0
  5
1670C
 10
467.009
 20
607.457
 30
0.000000
  70
    32
  0
VERTEX
  8
AM_0
  5
1670D
 10
467.024
 20
607.437
 30
0.000000
  70
    32
  0
VERTEX
  8
AM_0
  5
1670E
 10
467.040
 20
607.418
 30
0.000000
  70
    32
  0
VERTEX
  8
AM_0
  5
1670F
 10
467.055
 20
607.399
 30
0.000000
  70
    32
  0
VERTEX
  8
AM_0
  5
16710
 10
467.071
 20
607.380
 30
0.000000
  70
    32
  0
VERTEX
  8
AM_0
  5
16711
 10
467.087
 20
607.361
 30
0.000000
  70
    32
  0
VERTEX
  8
AM_0
  5
16712
 10
467.103
 20
607.343
 30
0.000000
  70
    32
  0
VERTEX
  8
AM_0
  5
16713
 10
467.119
 20
607.324
 30
0.000000
  70
    32
  0
VERTEX
  8
AM_0
  5
16714
 10
467.136
 20
607.306
 30
0.000000
  70
    32
  0
VERTEX
  8
AM_0
  5
16715
 10
467.153
 20
607.288
 30
0.000000
  70
    32
  0
VERTEX
  8
AM_0
  5
16716
 10
467.170
 20
607.271
 30
0.000000
  70
    32
  0
VERTEX
  8
AM_0
  5
16717
 10
467.187
 20
607.253
 30
0.000000
  70
    32
  0
VERTEX
  8
AM_0
  5
16718
 10
467.204
 20
607.236
 30
0.000000
  70
    32
  0
VERTEX
  8
AM_0
  5
16719
 10
467.222
 20
607.219
 30
0.000000
  70
    32
  0
VERTEX
  8
AM_0
  5
1671A
 10
467.240
 20
607.202
 30
0.000000
  70
    32
  0
VERTEX
  8
AM_0
  5
1671B
 10
467.258
 20
607.186
 30
0.000000
  70
    32
  0
VERTEX
  8
AM_0
  5
1671C
 10
467.276
 20
607.169
 30
0.000000
  70
    32
  0
VERTEX
  8
AM_0
  5
1671D
 10
467.295
 20
607.153
 30
0.000000
  70
    32
  0
VERTEX
  8
AM_0
  5
1671E
 10
467.313
 20
607.137
 30
0.000000
  70
    32
  0
VERTEX
  8
AM_0
  5
1671F
 10
467.332
 20
607.122
 30
0.000000
  70
    32
  0
VERTEX
  8
AM_0
  5
16720
 10
467.351
 20
607.106
 30
0.000000
  70
    32
  0
VERTEX
  8
AM_0
  5
16721
 10
467.371
 20
607.091
 30
0.000000
  70
    32
  0
VERTEX
  8
AM_0
  5
16722
 10
467.390
 20
607.076
 30
0.000000
  70
    32
  0
VERTEX
  8
AM_0
  5
16723
 10
467.410
 20
607.061
 30
0.000000
  70
    32
  0
VERTEX
  8
AM_0
  5
16724
 10
467.429
 20
607.047
 30
0.000000
  70
    32
  0
VERTEX
  8
AM_0
  5
16725
 10
467.449
 20
607.032
 30
0.000000
  70
    32
  0
VERTEX
  8
AM_0
  5
16726
 10
467.470
 20
607.018
 30
0.000000
  70
    32
  0
VERTEX
  8
AM_0
  5
16727
 10
467.490
 20
607.005
 30
0.000000
  70
    32
  0
VERTEX
  8
AM_0
  5
16728
 10
467.510
 20
606.991
 30
0.000000
  70
    32
  0
VERTEX
  8
AM_0
  5
16729
 10
467.531
 20
606.978
 30
0.000000
  70
    32
  0
VERTEX
  8
AM_0
  5
1672A
 10
467.552
 20
606.965
 30
0.000000
  70
    32
  0
VERTEX
  8
AM_0
  5
1672B
 10
467.573
 20
606.952
 30
0.000000
  70
    32
  0
VERTEX
  8
AM_0
  5
1672C
 10
467.594
 20
606.940
 30
0.000000
  70
    32
  0
VERTEX
  8
AM_0
  5
1672D
 10
467.615
 20
606.927
 30
0.000000
  70
    32
  0
VERTEX
  8
AM_0
  5
1672E
 10
467.637
 20
606.915
 30
0.000000
  70
    32
  0
VERTEX
  8
AM_0
  5
1672F
 10
467.658
 20
606.904
 30
0.000000
  70
    32
  0
VERTEX
  8
AM_0
  5
16730
 10
467.680
 20
606.892
 30
0.000000
  70
    32
  0
VERTEX
  8
AM_0
  5
16731
 10
467.702
 20
606.881
 30
0.000000
  70
    32
  0
VERTEX
  8
AM_0
  5
16732
 10
467.724
 20
606.870
 30
0.000000
  70
    32
  0
VERTEX
  8
AM_0
  5
16733
 10
467.746
 20
606.860
 30
0.000000
  70
    32
  0
VERTEX
  8
AM_0
  5
16734
 10
467.768
 20
606.849
 30
0.000000
  70
    32
  0
VERTEX
  8
AM_0
  5
16735
 10
467.791
 20
606.839
 30
0.000000
  70
    32
  0
VERTEX
  8
AM_0
  5
16736
 10
467.813
 20
606.829
 30
0.000000
  70
    32
  0
VERTEX
  8
AM_0
  5
16737
 10
467.836
 20
606.820
 30
0.000000
  70
    32
  0
VERTEX
  8
AM_0
  5
16738
 10
467.858
 20
606.811
 30
0.000000
  70
    32
  0
VERTEX
  8
AM_0
  5
16739
 10
467.881
 20
606.802
 30
0.000000
  70
    32
  0
VERTEX
  8
AM_0
  5
1673A
 10
467.904
 20
606.793
 30
0.000000
  70
    32
  0
VERTEX
  8
AM_0
  5
1673B
 10
467.927
 20
606.784
 30
0.000000
  70
    32
  0
VERTEX
  8
AM_0
  5
1673C
 10
467.950
 20
606.776
 30
0.000000
  70
    32
  0
VERTEX
  8
AM_0
  5
1673D
 10
467.974
 20
606.768
 30
0.000000
  70
    32
  0
VERTEX
  8
AM_0
  5
1673E
 10
467.997
 20
606.761
 30
0.000000
  70
    32
  0
VERTEX
  8
AM_0
  5
1673F
 10
468.020
 20
606.754
 30
0.000000
  70
    32
  0
VERTEX
  8
AM_0
  5
16740
 10
468.044
 20
606.747
 30
0.000000
  70
    32
  0
VERTEX
  8
AM_0
  5
16741
 10
468.068
 20
606.740
 30
0.000000
  70
    32
  0
VERTEX
  8
AM_0
  5
16742
 10
468.091
 20
606.734
 30
0.000000
  70
    32
  0
VERTEX
  8
AM_0
  5
16743
 10
468.115
 20
606.727
 30
0.000000
  70
    32
  0
VERTEX
  8
AM_0
  5
16744
 10
468.139
 20
606.722
 30
0.000000
  70
    32
  0
VERTEX
  8
AM_0
  5
16745
 10
468.163
 20
606.716
 30
0.000000
  70
    32
  0
VERTEX
  8
AM_0
  5
16746
 10
468.187
 20
606.711
 30
0.000000
  70
    32
  0
VERTEX
  8
AM_0
  5
16747
 10
468.211
 20
606.706
 30
0.000000
  70
    32
  0
VERTEX
  8
AM_0
  5
16748
 10
468.235
 20
606.701
 30
0.000000
  70
    32
  0
VERTEX
  8
AM_0
  5
16749
 10
468.259
 20
606.697
 30
0.000000
  70
    32
  0
VERTEX
  8
AM_0
  5
1674A
 10
468.283
 20
606.693
 30
0.000000
  70
    32
  0
VERTEX
  8
AM_0
  5
1674B
 10
468.308
 20
606.689
 30
0.000000
  70
    32
  0
VERTEX
  8
AM_0
  5
1674C
 10
468.332
 20
606.686
 30
0.000000
  70
    32
  0
VERTEX
  8
AM_0
  5
1674D
 10
468.356
 20
606.683
 30
0.000000
  70
    32
  0
VERTEX
  8
AM_0
  5
1674E
 10
468.381
 20
606.680
 30
0.000000
  70
    32
  0
VERTEX
  8
AM_0
  5
1674F
 10
468.405
 20
606.677
 30
0.000000
  70
    32
  0
VERTEX
  8
AM_0
  5
16750
 10
468.429
 20
606.675
 30
0.000000
  70
    32
  0
VERTEX
  8
AM_0
  5
16751
 10
468.454
 20
606.673
 30
0.000000
  70
    32
  0
VERTEX
  8
AM_0
  5
16752
 10
468.478
 20
606.671
 30
0.000000
  70
    32
  0
VERTEX
  8
AM_0
  5
16753
 10
468.503
 20
606.670
 30
0.000000
  70
    32
  0
VERTEX
  8
AM_0
  5
16754
 10
468.527
 20
606.669
 30
0.000000
  70
    32
  0
VERTEX
  8
AM_0
  5
16755
 10
468.552
 20
606.668
 30
0.000000
  70
    32
  0
VERTEX
  8
AM_0
  5
16756
 10
468.577
 20
606.668
 30
0.000000
  70
    32
  0
VERTEX
  8
AM_0
  5
16757
 10
468.601
 20
606.668
 30
0.000000
  70
    32
  0
SEQEND
  8
AM_0
  5
16758
  0
ARC
  5
15A47
  8
AM_0
 10
365.09756495889383
 20
729.16753274363612
 30
0.0
 40
2.9999999999999978
 50
215.68533471265459
 51
270.0
1001
GENIUS_GENOBJ-N-FIL_13
1002
{
1000
OWNER
1000
GEN
1002
}
1001
GENIUS_GENODEF_13
1002
{
1000
HIER
1070
     0
1002
}
1002
{
1000
MANEDIT
1070
     0
1002
}
1002
{
1000
NOSEL
1070
     0
1002
}
1002
{
1000
BEHIND
1070
     0
1002
}
1002
{
1000
OTHER
1070
     0
1002
}
1002
{
1000
REACTOR
1002
}
  0
LINE
  5
15A48
  8
AM_0
 10
351.09756495889383
 20
701.80752274363601
 30
0.0
 11
361.09756495889383
 21
701.80752274363601
 31
0.0
  0
LINE
  5
15A49
  8
AM_0
 10
351.09756495889383
 20
716.70753274363574
 30
0.0
 11
361.09756495889383
 21
716.70753274363574
 31
0.0
  0
LINE
  5
15A4A
  8
AM_0
 10
351.09756495889383
 20
728.66753274363634
 30
0.0
 11
360.22416778648937
 21
728.66753274363634
 31
0.0
  0
ARC
  5
15A4B
  8
AM_0
 10
360.22416778648937
 20
725.66753274363634
 30
0.0
 40
2.9999999999999978
 50
35.68533471265463
 51
90.0
1001
GENIUS_GENOBJ-N-FIL_13
1002
{
1000
OWNER
1000
GEN
1002
}
1001
GENIUS_GENODEF_13
1002
{
1000
HIER
1070
     0
1002
}
1002
{
1000
MANEDIT
1070
     0
1002
}
1002
{
1000
NOSEL
1070
     0
1002
}
1002
{
1000
BEHIND
1070
     0
1002
}
1002
{
1000
OTHER
1070
     0
1002
}
1002
{
1000
REACTOR
1002
}
  0
ARC
  5
15A4C
  8
AM_0
 10
377.84276158059771
 20
723.66753950315274
 30
0.0
 40
2.0
 50
270.0
 51
358.92472216403002
1001
GENIUS_GENODEF_13
1002
{
1000
HIER
1070
     0
1002
}
1002
{
1000
MANEDIT
1070
     0
1002
}
1002
{
1000
NOSEL
1070
     0
1002
}
1002
{
1000
BEHIND
1070
     0
1002
}
1002
{
1000
OTHER
1070
     0
1002
}
1002
{
1000
REACTOR
1002
}
1001
GENIUS_GENOBJ-N-FIL_13
1002
{
1000
OWNER
1000
GEN
1002
}
  0
LINE
  5
15A4D
  8
AM_0
 10
371.86359361255683
 20
724.34184422913131
 30
0.0
 11
371.93783791074509
 21
723.49322801765743
 31
0.0
  0
ARC
  5
15A4E
  8
AM_0
 10
373.93022730692871
 20
723.66753950315274
 30
0.0
 40
2.0
 50
185.0
 51
270.0
1001
GENIUS_GENODEF_13
1002
{
1000
HIER
1070
     0
1002
}
1002
{
1000
MANEDIT
1070
     0
1002
}
1002
{
1000
NOSEL
1070
     0
1002
}
1002
{
1000
BEHIND
1070
     0
1002
}
1002
{
1000
OTHER
1070
     0
1002
}
1002
{
1000
REACTOR
1002
}
1001
GENIUS_GENOBJ-N-FIL_13
1002
{
1000
OWNER
1000
GEN
1002
}
  0
LINE
  5
15A4F
  8
AM_0
 10
373.93022730692871
 20
721.66753950315274
 30
0.0
 11
377.84276158059771
 21
721.66753950315274
 31
0.0
  0
ARC
  5
15A50
  8
AM_0
 10
369.87120421637343
 20
724.16753274363612
 30
0.0
 40
2.0
 50
5.0000000000000258
 51
90.0
1001
GENIUS_GENOBJ-N-FIL_13
1002
{
1000
OWNER
1000
GEN
1002
}
1001
GENIUS_GENODEF_13
1002
{
1000
HIER
1070
     0
1002
}
1002
{
1000
MANEDIT
1070
     0
1002
}
1002
{
1000
NOSEL
1070
     0
1002
}
1002
{
1000
BEHIND
1070
     0
1002
}
1002
{
1000
OTHER
1070
     0
1002
}
1002
{
1000
REACTOR
1002
}
  0
LINE
  5
15A51
  8
AM_0
 10
365.09756495889371
 20
726.16753274363634
 30
0.0
 11
369.87120421637343
 21
726.16753274363612
 31
0.0
  0
LINE
  5
15A52
  8
AM_0
 10
458.10035085562259
 20
728.66753965226451
 30
0.0
 11
458.10035085562259
 21
723.66753950315274
 31
0.0
  0
LINE
  5
15A53
  8
ﾁｭｳｼﾝｾﾝ1
 10
508.10115204873978
 20
827.26664198587878
 30
0.0
 11
508.10115204873932
 21
502.06843350139258
 31
0.0
  0
LINE
  5
15A54
  8
AM_0
 10
581.35359406131329
 20
723.66753950315274
 30
0.0
 11
583.09754055543033
 21
630.66753672967684
 31
0.0
  0
LINE
  5
15A55
  8
AM_0
 10
558.10195324185634
 20
600.66753583500724
 30
0.0
 11
558.10195324185634
 21
605.6675359841189
 31
0.0
  0
LINE
  5
15A59
  8
AM_0
 10
479.60128224258852
 20
608.66753607358623
 30
0.0
 11
479.60128224258852
 21
614.66753625251965
 31
0.0
  0
LINE
  5
15A5A
  8
AM_0
 10
480.60130227241149
 20
605.66753598411924
 30
0.0
 11
480.60130227241149
 21
614.66753625251965
 31
0.0
  0
LINE
  5
15A5B
  8
AM_0
 10
583.09754055543033
 20
630.66753672967684
 30
0.0
 11
582.78492766173815
 21
605.66753598411924
 31
0.0
  0
LINE
  5
15A5C
  8
AM_0
 10
558.10195324185634
 20
728.66753965226451
 30
0.0
 11
558.10195324185634
 21
723.66753950315274
 31
0.0
  0
LINE
  5
15A68
  8
AM_0
 10
533.10165279431283
 20
733.66753980137662
 30
0.0
 11
483.1006513031665
 21
733.66753980137662
 31
0.0
  0
LINE
  5
15A69
  8
AM_0
 10
533.10165279431283
 20
728.66753965226496
 30
0.0
 11
533.10165279431283
 21
733.66753980137662
 31
0.0
  0
LINE
  5
15A6A
  8
AM_0
 10
483.1006513031665
 20
728.66753965226496
 30
0.0
 11
483.1006513031665
 21
733.66753980137662
 31
0.0
  0
LINE
  5
15A6B
  8
AM_0
 10
583.09832651715215
 20
567.16753598411924
 30
0.0
 11
583.09832651715215
 21
605.66753598411913
 31
0.0
  0
LINE
  5
15A6C
  8
AM_0
 10
378.09835086375529
 20
605.66753598411913
 30
0.0
 11
378.09835086375529
 21
567.16753598411924
 31
0.0
  0
LINE
  5
15A6F
  8
AM_0
 10
583.09832651715215
 20
599.66753598411913
 30
0.0
 11
533.10165279431283
 21
599.66753598411913
 31
0.0
  0
LINE
  5
15A70
  8
AM_0
 10
483.1006513031665
 20
599.66753598411913
 30
0.0
 11
378.09835086375529
 21
599.66753598411913
 31
0.0
  0
ARC
  5
15A71
  8
AM_0
 10
573.09832651715226
 20
567.16753598411924
 30
0.0
 40
10.0
 50
270.0
 51
0.0
1001
GENIUS_GENODEF_13
1002
{
1000
HIER
1070
     0
1002
}
1002
{
1000
MANEDIT
1070
     0
1002
}
1002
{
1000
NOSEL
1070
     0
1002
}
1002
{
1000
BEHIND
1070
     0
1002
}
1002
{
1000
OTHER
1070
     0
1002
}
1002
{
1000
REACTOR
1002
}
1001
GENIUS_GENOBJ-N-FIL_13
1002
{
1000
OWNER
1000
GEN
1002
}
  0
ARC
  5
15A72
  8
AM_0
 10
388.09835086375529
 20
567.16753598411924
 30
0.0
 40
10.0
 50
180.0
 51
270.0
1001
GENIUS_GENOBJ-N-FIL_13
1002
{
1000
OWNER
1000
GEN
1002
}
1001
GENIUS_GENODEF_13
1002
{
1000
HIER
1070
     0
1002
}
1002
{
1000
MANEDIT
1070
     0
1002
}
1002
{
1000
NOSEL
1070
     0
1002
}
1002
{
1000
BEHIND
1070
     0
1002
}
1002
{
1000
OTHER
1070
     0
1002
}
1002
{
1000
REACTOR
1002
}
  0
LINE
  5
15A73
  8
ﾁｭｳｼﾝｾﾝ1
 10
547.59832651715215
 20
572.16753598411924
 30
0.0
 11
577.59832651715226
 21
572.16753598411924
 31
0.0
  0
LINE
  5
15A74
  8
ﾁｭｳｼﾝｾﾝ1
 10
562.59832651715215
 20
587.16753598411924
 30
0.0
 11
562.59832651715226
 21
557.16753598411924
 31
0.0
  0
CIRCLE
  5
15A75
  8
AM_0
 10
562.59832651715226
 20
572.16753598411913
 30
0.0
 40
7.5
  0
CIRCLE
  5
15A76
  8
AM_0
 10
398.59835086375517
 20
572.16753598411913
 30
0.0
 40
7.5
  0
LINE
  5
15A77
  8
AM_5
 10
453.09835312142951
 20
599.66753598411913
 30
0.0
 11
453.09835312142951
 21
605.66753598411913
 31
0.0
  0
LINE
  5
15A78
  8
AM_5
 10
419.93361462123971
 20
599.66753598411913
 30
0.0
 11
419.93361462123983
 21
605.66753598411913
 31
0.0
  0
LINE
  5
15A79
  8
AM_0
 10
431.09833869045372
 20
599.66753598411913
 30
0.0
 11
431.09833869045372
 21
567.66753598411901
 31
0.0
  0
LINE
  5
15A7A
  8
AM_0
 10
437.09833869045337
 20
599.66753598411913
 30
0.0
 11
437.09833869045337
 21
567.66753598411901
 31
0.0
  0
LINE
  5
15A7B
  8
AM_0
 10
431.09833869045372
 20
594.66753598411913
 30
0.0
 11
426.0983386904536
 21
599.66753598411913
 31
0.0
1001
GENIUS_GENFIL_13
1070
     0
1040
5.0
1040
5.0
1040
20.0
1040
0.0
1002
{
1002
}
1001
GENIUS_GENOBJ-N-CHA_13
1002
{
1000
OWNER
1000
GEN
1002
}
1001
GENIUS_GENODEF_13
1002
{
1000
HIER
1070
     0
1002
}
1002
{
1000
MANEDIT
1070
     0
1002
}
1002
{
1000
NOSEL
1070
     0
1002
}
1002
{
1000
BEHIND
1070
     0
1002
}
1002
{
1000
OTHER
1070
     0
1002
}
1002
{
1000
REACTOR
1002
}
  0
INSERT
  5
15A7C
  8
AM_0
  6
CONTINUOUS
  2
*U5
 10
0.0
 20
0.0
 30
0.0
1001
GENIUS_GENODEF_13
1002
{
1000
HIER
1070
     0
1002
}
1002
{
1000
MANEDIT
1070
     0
1002
}
1002
{
1000
NOSEL
1070
     0
1002
}
1002
{
1000
BEHIND
1070
     0
1002
}
1002
{
1000
OTHER
1070
     0
1002
}
1002
{
1000
REACTOR
1002
}
1001
GENIUS_GENOBJ-N-HTC_13
1002
{
1000
OWNER
1000
GEN
1002
}
1001
GENIUS_GENHATCH_13
1002
{
1000
DATA
1040
0.0
1042
1.0
1000
SOLID
1070
     0
1011
429.93743411373561
1021
0.0
1031
0.0
1021
598.35518176133621
1031
0.0
1002
}
1002
{
1000
UCS
1010
0.0
1020
0.0
1030
0.0
1010
1.0
1020
0.0
1030
0.0
1010
0.0
1020
1.0
1030
0.0
1002
}
1001
ACAD
1002
{
1000
R14_HATCH_DATA
1000
15A7C
1011
1.0
1021
0.0
1031
0.0
1021
0.0
1031
0.0
1011
0.0
1021
0.0
1031
0.0
1021
1.0
1031
0.0
1011
0.0
1021
0.0
1031
0.0
1021
0.0
1031
1.0
1040
0.0
1010
0.0
1020
0.0
1030
1.0
1000
SOLID
1070
     1
1070
     0
1071
        2
1071
        1
1071
        3
1070
     1
1040
426.0983386904536
1040
599.66753598411913
1040
431.09833869045372
1040
594.66753598411913
1070
     1
1040
431.09833869045372
1040
594.66753598411913
1040
431.09833869045372
1040
599.66753598411913
1070
     1
1040
431.09833869045372
1040
599.66753598411913
1040
426.0983386904536
1040
599.66753598411913
1071
        0
1071
       33
1071
        1
1070
     1
1040
378.09835086375512
1040
599.66753598411913
1040
583.09832651715215
1040
599.66753598411913
1071
        0
1070
     0
1070
     1
1071
        1
1040
624.42141667443764
1040
725.59578563740843
1040
0.0
1002
}
  0
INSERT
  5
15A7D
  8
AM_0
  6
CONTINUOUS
  2
*U6
 10
0.0
 20
0.0
 30
0.0
1001
GENIUS_GENODEF_13
1002
{
1000
HIER
1070
     0
1002
}
1002
{
1000
MANEDIT
1070
     0
1002
}
1002
{
1000
NOSEL
1070
     0
1002
}
1002
{
1000
BEHIND
1070
     0
1002
}
1002
{
1000
OTHER
1070
     0
1002
}
1002
{
1000
REACTOR
1002
}
1001
GENIUS_GENOBJ-N-HTC_13
1002
{
1000
OWNER
1000
GEN
1002
}
1001
GENIUS_GENHATCH_13
1002
{
1000
DATA
1040
0.0
1042
1.0
1000
SOLID
1070
     0
1011
438.2592432671716
1021
0.0
1031
0.0
1021
598.35518176133621
1031
0.0
1002
}
1002
{
1000
UCS
1010
0.0
1020
0.0
1030
0.0
1010
1.0
1020
0.0
1030
0.0
1010
0.0
1020
1.0
1030
0.0
1002
}
1001
ACAD
1002
{
1000
R14_HATCH_DATA
1000
15A7D
1011
1.0
1021
0.0
1031
0.0
1021
0.0
1031
0.0
1011
0.0
1021
0.0
1031
0.0
1021
1.0
1031
0.0
1011
0.0
1021
0.0
1031
0.0
1021
0.0
1031
1.0
1040
0.0
1010
0.0
1020
0.0
1030
1.0
1000
SOLID
1070
     1
1070
     0
1071
        2
1071
        1
1071
        3
1070
     1
1040
442.0983386904536
1040
599.66753598411913
1040
437.0983386904536
1040
594.66753598411913
1070
     1
1040
437.0983386904536
1040
594.66753598411913
1040
437.0983386904536
1040
599.66753598411913
1070
     1
1040
437.0983386904536
1040
599.66753598411913
1040
442.0983386904536
1040
599.66753598411913
1071
        0
1071
       33
1071
        1
1070
     1
1040
490.0983265171522
1040
599.66753598411913
1040
285.09835086375517
1040
599.66753598411913
1071
        0
1070
     0
1070
     1
1071
        1
1040
243.77526070646951
1040
725.59578563740843
1040
0.0
1002
}
  0
LINE
  5
15A7E
  8
AM_0
 10
437.0983386904536
 20
594.66753598411913
 30
0.0
 11
442.0983386904536
 21
599.66753598411913
 31
0.0
1001
GENIUS_GENFIL_13
1070
     0
1040
5.0
1040
5.0
1040
20.0
1040
0.0
1002
{
1002
}
1001
GENIUS_GENOBJ-N-CHA_13
1002
{
1000
OWNER
1000
GEN
1002
}
1001
GENIUS_GENODEF_13
1002
{
1000
HIER
1070
     0
1002
}
1002
{
1000
MANEDIT
1070
     0
1002
}
1002
{
1000
NOSEL
1070
     0
1002
}
1002
{
1000
BEHIND
1070
     0
1002
}
1002
{
1000
OTHER
1070
     0
1002
}
1002
{
1000
REACTOR
1002
}
  0
LINE
  5
15A7F
  8
AM_0
 10
437.09833869045337
 20
589.66753598411867
 30
0.0
 11
431.09833869045372
 21
589.66753598411867
 31
0.0
  0
LINE
  5
15A80
  8
AM_0
 10
437.09833869045337
 20
567.66753598411901
 30
0.0
 11
431.09833869045372
 21
567.66753598411901
 31
0.0
  0
LINE
  5
15A81
  8
ﾁｭｳｼﾝｾﾝ1
 10
383.59835086375517
 20
572.16753598411913
 30
0.0
 11
413.59835086375517
 21
572.16753598411913
 31
0.0
  0
LINE
  5
15A82
  8
ﾁｭｳｼﾝｾﾝ1
 10
398.59835086375517
 20
587.16753598411913
 30
0.0
 11
398.59835086375517
 21
557.16753598411913
 31
0.0
  0
LINE
  5
15A83
  8
AM_0
 10
583.09832651715215
 20
762.16753950315217
 30
0.0
 11
583.09832651715215
 21
723.66753950315228
 31
0.0
  0
LINE
  5
15A84
  8
AM_0
 10
378.09835086375529
 20
723.66753950315228
 30
0.0
 11
378.09835086375529
 21
762.16753950315206
 31
0.0
  0
LINE
  5
15A85
  8
AM_0
 10
388.09835086375529
 20
772.16753950315206
 30
0.0
 11
492.10115204873961
 21
772.16753950315206
 31
0.0
  0
LINE
  5
15A86
  8
AM_0
 10
583.09832651715215
 20
729.66753950315217
 30
0.0
 11
533.10165279431283
 21
729.66753950315217
 31
0.0
  0
LINE
  5
15A87
  8
AM_0
 10
483.1006513031665
 20
729.66753950315217
 30
0.0
 11
378.09835086375529
 21
729.66753950315217
 31
0.0
  0
ARC
  5
15A88
  8
AM_0
 10
573.09832651715226
 20
762.16753950315217
 30
0.0
 40
10.0
 50
0.0
 51
90.0
1001
GENIUS_GENODEF_13
1002
{
1000
HIER
1070
     0
1002
}
1002
{
1000
MANEDIT
1070
     0
1002
}
1002
{
1000
NOSEL
1070
     0
1002
}
1002
{
1000
BEHIND
1070
     0
1002
}
1002
{
1000
OTHER
1070
     0
1002
}
1002
{
1000
REACTOR
1002
}
1001
GENIUS_GENOBJ-N-FIL_13
1002
{
1000
OWNER
1000
GEN
1002
}
  0
ARC
  5
15A89
  8
AM_0
 10
388.09835086375529
 20
762.16753950315206
 30
0.0
 40
10.0
 50
90.0
 51
180.0
1001
GENIUS_GENOBJ-N-FIL_13
1002
{
1000
OWNER
1000
GEN
1002
}
1001
GENIUS_GENODEF_13
1002
{
1000
HIER
1070
     0
1002
}
1002
{
1000
MANEDIT
1070
     0
1002
}
1002
{
1000
NOSEL
1070
     0
1002
}
1002
{
1000
BEHIND
1070
     0
1002
}
1002
{
1000
OTHER
1070
     0
1002
}
1002
{
1000
REACTOR
1002
}
  0
LINE
  5
15A8A
  8
ﾁｭｳｼﾝｾﾝ1
 10
547.59832651715215
 20
757.16753950315217
 30
0.0
 11
577.59832651715226
 21
757.16753950315217
 31
0.0
  0
LINE
  5
15A8B
  8
ﾁｭｳｼﾝｾﾝ1
 10
562.59832651715215
 20
742.16753950315217
 30
0.0
 11
562.59832651715226
 21
772.16753950315228
 31
0.0
  0
CIRCLE
  5
15A8C
  8
AM_0
 10
562.59832651715226
 20
757.16753950315217
 30
0.0
 40
7.5
  0
CIRCLE
  5
15A8D
  8
AM_0
 10
398.59835086375517
 20
757.16753950315217
 30
0.0
 40
7.5
  0
LINE
  5
15A8E
  8
AM_5
 10
453.09835312142951
 20
729.66753950315217
 30
0.0
 11
453.09835312142951
 21
723.66753950315228
 31
0.0
  0
LINE
  5
15A8F
  8
AM_5
 10
419.93361462123971
 20
729.66753950315217
 30
0.0
 11
419.93361462123983
 21
723.66753950315228
 31
0.0
  0
LINE
  5
15A90
  8
AM_0
 10
431.09833869045372
 20
729.66753950315217
 30
0.0
 11
431.09833869045372
 21
761.66753950315217
 31
0.0
  0
LINE
  5
15A91
  8
AM_0
 10
437.09833869045337
 20
729.66753950315217
 30
0.0
 11
437.09833869045337
 21
761.66753950315217
 31
0.0
  0
LINE
  5
15A92
  8
AM_0
 10
431.09833869045372
 20
734.66753950315228
 30
0.0
 11
426.0983386904536
 21
729.66753950315217
 31
0.0
1001
GENIUS_GENFIL_13
1070
     0
1040
5.0
1040
5.0
1040
20.0
1040
0.0
1002
{
1002
}
1001
GENIUS_GENOBJ-N-CHA_13
1002
{
1000
OWNER
1000
GEN
1002
}
1001
GENIUS_GENODEF_13
1002
{
1000
HIER
1070
     0
1002
}
1002
{
1000
MANEDIT
1070
     0
1002
}
1002
{
1000
NOSEL
1070
     0
1002
}
1002
{
1000
BEHIND
1070
     0
1002
}
1002
{
1000
OTHER
1070
     0
1002
}
1002
{
1000
REACTOR
1002
}
  0
INSERT
  5
15A93
  8
AM_0
  6
CONTINUOUS
  2
*U7
 10
0.0
 20
0.0
 30
0.0
1001
GENIUS_GENODEF_13
1002
{
1000
HIER
1070
     0
1002
}
1002
{
1000
MANEDIT
1070
     0
1002
}
1002
{
1000
NOSEL
1070
     0
1002
}
1002
{
1000
BEHIND
1070
     0
1002
}
1002
{
1000
OTHER
1070
     0
1002
}
1002
{
1000
REACTOR
1002
}
1001
GENIUS_GENOBJ-N-HTC_13
1002
{
1000
OWNER
1000
GEN
1002
}
1001
GENIUS_GENHATCH_13
1002
{
1000
DATA
1040
0.0
1042
-1.0
1000
SOLID
1070
     0
1011
429.93743411373561
1021
0.0
1031
0.0
1021
730.97989372593509
1031
0.0
1002
}
1002
{
1000
UCS
1010
0.0
1020
0.0
1030
0.0
1010
1.0
1020
0.0
1030
0.0
1010
0.0
1020
1.0
1030
0.0
1002
}
1001
ACAD
1002
{
1000
R14_HATCH_DATA
1000
15A93
1011
1.0
1021
0.0
1031
0.0
1021
0.0
1031
0.0
1011
0.0
1021
0.0
1031
0.0
1021
1.0
1031
0.0
1011
0.0
1021
0.0
1031
0.0
1021
0.0
1031
1.0
1040
0.0
1010
0.0
1020
0.0
1030
1.0
1000
SOLID
1070
     1
1070
     0
1071
        2
1071
        1
1071
        3
1070
     1
1040
426.0983386904536
1040
729.66753950315217
1040
431.09833869045372
1040
734.66753950315228
1070
     1
1040
431.09833869045372
1040
734.66753950315228
1040
431.09833869045372
1040
729.66753950315217
1070
     1
1040
431.09833869045372
1040
729.66753950315217
1040
426.0983386904536
1040
729.66753950315217
1071
        0
1071
       33
1071
        1
1070
     1
1040
378.09835086375512
1040
729.66753950315217
1040
583.09832651715215
1040
729.66753950315217
1071
        0
1070
     0
1070
     1
1071
        1
1040
624.42141667443764
1040
603.73928984986276
1040
0.0
1002
}
  0
INSERT
  5
15A94
  8
AM_0
  6
CONTINUOUS
  2
*U8
 10
0.0
 20
0.0
 30
0.0
1001
GENIUS_GENODEF_13
1002
{
1000
HIER
1070
     0
1002
}
1002
{
1000
MANEDIT
1070
     0
1002
}
1002
{
1000
NOSEL
1070
     0
1002
}
1002
{
1000
BEHIND
1070
     0
1002
}
1002
{
1000
OTHER
1070
     0
1002
}
1002
{
1000
REACTOR
1002
}
1001
GENIUS_GENOBJ-N-HTC_13
1002
{
1000
OWNER
1000
GEN
1002
}
1001
GENIUS_GENHATCH_13
1002
{
1000
DATA
1040
0.0
1042
-1.0
1000
SOLID
1070
     0
1011
438.2592432671716
1021
0.0
1031
0.0
1021
730.97989372593509
1031
0.0
1002
}
1002
{
1000
UCS
1010
0.0
1020
0.0
1030
0.0
1010
1.0
1020
0.0
1030
0.0
1010
0.0
1020
1.0
1030
0.0
1002
}
1001
ACAD
1002
{
1000
R14_HATCH_DATA
1000
15A94
1011
1.0
1021
0.0
1031
0.0
1021
0.0
1031
0.0
1011
0.0
1021
0.0
1031
0.0
1021
1.0
1031
0.0
1011
0.0
1021
0.0
1031
0.0
1021
0.0
1031
1.0
1040
0.0
1010
0.0
1020
0.0
1030
1.0
1000
SOLID
1070
     1
1070
     0
1071
        2
1071
        1
1071
        3
1070
     1
1040
442.0983386904536
1040
729.66753950315217
1040
437.0983386904536
1040
734.66753950315228
1070
     1
1040
437.0983386904536
1040
734.66753950315228
1040
437.0983386904536
1040
729.66753950315217
1070
     1
1040
437.0983386904536
1040
729.66753950315217
1040
442.0983386904536
1040
729.66753950315217
1071
        0
1071
       33
1071
        1
1070
     1
1040
490.0983265171522
1040
729.66753950315217
1040
285.09835086375517
1040
729.66753950315217
1071
        0
1070
     0
1070
     1
1071
        1
1040
243.77526070646951
1040
603.73928984986276
1040
0.0
1002
}
  0
LINE
  5
15A95
  8
AM_0
 10
437.0983386904536
 20
734.66753950315228
 30
0.0
 11
442.0983386904536
 21
729.66753950315217
 31
0.0
1001
GENIUS_GENFIL_13
1070
     0
1040
5.0
1040
5.0
1040
20.0
1040
0.0
1002
{
1002
}
1001
GENIUS_GENOBJ-N-CHA_13
1002
{
1000
OWNER
1000
GEN
1002
}
1001
GENIUS_GENODEF_13
1002
{
1000
HIER
1070
     0
1002
}
1002
{
1000
MANEDIT
1070
     0
1002
}
1002
{
1000
NOSEL
1070
     0
1002
}
1002
{
1000
BEHIND
1070
     0
1002
}
1002
{
1000
OTHER
1070
     0
1002
}
1002
{
1000
REACTOR
1002
}
  0
LINE
  5
15A96
  8
AM_0
 10
437.09833869045337
 20
739.66753950315274
 30
0.0
 11
431.09833869045372
 21
739.66753950315274
 31
0.0
  0
LINE
  5
15A97
  8
AM_0
 10
437.09833869045337
 20
761.66753950315217
 30
0.0
 11
431.09833869045372
 21
761.66753950315217
 31
0.0
  0
LINE
  5
15A9C
  8
ﾁｭｳｼﾝｾﾝ1
 10
383.59835086375517
 20
757.16753950315217
 30
0.0
 11
413.59835086375517
 21
757.16753950315217
 31
0.0
  0
LINE
  5
15A9D
  8
ﾁｭｳｼﾝｾﾝ1
 10
398.59835086375517
 20
742.16753950315217
 30
0.0
 11
398.59835086375517
 21
772.16753950315228
 31
0.0
  0
LINE
  5
15A9E
  8
AM_0N
 10
580.09832606561724
 20
731.96753950315235
 30
0.0
 11
556.09832606561747
 21
731.96753950315235
 31
0.0
  0
LINE
  5
15A9F
  8
AM_0N
 10
575.89832606561743
 20
743.96753950315247
 30
0.0
 11
560.29832606561729
 21
743.96753950315247
 31
0.0
  0
LINE
  5
15AA0
  8
AM_0N
 10
577.09832606561747
 20
742.76753950315219
 30
0.0
 11
577.09832606561747
 21
731.96753950315235
 31
0.0
  0
LINE
  5
15AA1
  8
AM_0N
 10
580.09832606561724
 20
729.66753950315251
 30
0.0
 11
580.09832606561724
 21
731.96753950315235
 31
0.0
  0
ARC
  5
15AA2
  8
AM_0N
 10
575.89832606561743
 20
742.76753950315219
 30
0.0
 40
1.1999999999999991
 50
0.0
 51
90.0
  0
LINE
  5
15AA3
  8
AM_0N
 10
559.09832606561724
 20
742.76753950315219
 30
0.0
 11
559.09832606561724
 21
731.96753950315235
 31
0.0
  0
LINE
  5
15AA4
  8
AM_0N
 10
556.09832606561747
 20
731.96753950315235
 30
0.0
 11
556.09832606561747
 21
729.66753950315251
 31
0.0
  0
ARC
  5
15AA5
  8
AM_0N
 10
560.2983260656174
 20
742.76753950315219
 30
0.0
 40
1.1999999999999991
 50
90.0
 51
180.0
  0
LINE
  5
15AA6
  8
AM_0N
 10
405.09835131529007
 20
731.96753950315235
 30
0.0
 11
381.0983513152903
 21
731.96753950315235
 31
0.0
  0
LINE
  5
15AA7
  8
AM_0N
 10
400.89835131529009
 20
743.96753950315247
 30
0.0
 11
385.29835131529012
 21
743.96753950315247
 31
0.0
  0
LINE
  5
15AA8
  8
AM_0N
 10
402.09835131529007
 20
742.76753950315219
 30
0.0
 11
402.09835131529007
 21
731.96753950315235
 31
0.0
  0
LINE
  5
15AA9
  8
AM_0N
 10
405.09835131529007
 20
729.66753950315251
 30
0.0
 11
405.09835131529007
 21
731.96753950315235
 31
0.0
  0
ARC
  5
15AAA
  8
AM_0N
 10
400.8983513152902
 20
742.76753950315219
 30
0.0
 40
1.1999999999999991
 50
0.0
 51
90.0
  0
LINE
  5
15AAB
  8
AM_0N
 10
384.09835131529019
 20
742.76753950315219
 30
0.0
 11
384.09835131529019
 21
731.96753950315235
 31
0.0
  0
LINE
  5
15AAC
  8
AM_0N
 10
381.0983513152903
 20
731.96753950315235
 30
0.0
 11
381.0983513152903
 21
729.66753950315251
 31
0.0
  0
ARC
  5
15AAD
  8
AM_0N
 10
385.29835131529018
 20
742.76753950315219
 30
0.0
 40
1.1999999999999991
 50
90.0
 51
180.0
  0
LINE
  5
15AAE
  8
AM_0N
 10
562.90082606561725
 20
587.37293960963848
 30
0.0
 11
562.90082606561725
 21
597.36753598411894
 31
0.0
  0
LINE
  5
15AAF
  8
AM_0N
 10
557.70332606561738
 20
587.37293960963848
 30
0.0
 11
557.70332606561738
 21
597.36753598411894
 31
0.0
  0
LINE
  5
15AB0
  8
AM_0N
 10
578.49332606561734
 20
587.37293960963848
 30
0.0
 11
578.49332606561734
 21
597.36753598411894
 31
0.0
  0
LINE
  5
15AB1
  8
AM_0N
 10
573.29582606561735
 20
587.37293960963848
 30
0.0
 11
573.29582606561735
 21
597.36753598411894
 31
0.0
  0
LINE
  5
15AB2
  8
AM_0N
 10
559.09832606561724
 20
586.5675359841191
 30
0.0
 11
577.09832606561747
 21
586.5675359841191
 31
0.0
  0
ARC
  5
15AB3
  8
AM_0N
 10
568.09832606561747
 20
603.7407149799925
 30
0.0
 40
17.173178995873389
 50
252.383031159582
 51
287.61696884041788
  0
ARC
  5
15AB4
  8
AM_0N
 10
575.89457606561518
 20
591.1628570926581
 30
0.0
 40
4.5953211085391104
 50
235.56153059524291
 51
295.56153059562092
  0
LINE
  5
15AB5
  8
AM_0N
 10
578.49332606561734
 20
587.37293960963848
 30
0.0
 11
577.09832606561747
 21
586.5675359841191
 31
0.0
  0
ARC
  5
15AB6
  8
AM_0N
 10
560.30207606561748
 20
591.1628570926581
 30
0.0
 40
4.5953211085391104
 50
244.43846940456709
 51
304.43846940478778
  0
LINE
  5
15AB7
  8
AM_0N
 10
557.70332606561738
 20
587.37293960963848
 30
0.0
 11
559.09832606561724
 21
586.5675359841191
 31
0.0
  0
LINE
  5
15AB8
  8
AM_0N
 10
556.09832606561747
 20
597.36753598411894
 30
0.0
 11
580.09832606561724
 21
597.36753598411894
 31
0.0
  0
LINE
  5
15AB9
  8
AM_0N
 10
580.09832606561724
 20
597.36753598411894
 30
0.0
 11
580.09832606561724
 21
599.66753598411901
 31
0.0
  0
LINE
  5
15ABA
  8
AM_0N
 10
556.09832606561747
 20
599.66753598411901
 30
0.0
 11
556.09832606561747
 21
597.36753598411894
 31
0.0
  0
LINE
  5
15ABB
  8
AM_0N
 10
387.9008513152902
 20
587.37293960963848
 30
0.0
 11
387.9008513152902
 21
597.36753598411894
 31
0.0
  0
LINE
  5
15ABC
  8
AM_0N
 10
382.70335131529021
 20
587.37293960963848
 30
0.0
 11
382.70335131529032
 21
597.36753598411894
 31
0.0
  0
LINE
  5
15ABD
  8
AM_0N
 10
403.49335131529023
 20
587.37293960963848
 30
0.0
 11
403.49335131529023
 21
597.36753598411894
 31
0.0
  0
LINE
  5
15ABE
  8
AM_0N
 10
398.29585131529018
 20
587.37293960963848
 30
0.0
 11
398.29585131529018
 21
597.36753598411894
 31
0.0
  0
LINE
  5
15ABF
  8
AM_0N
 10
384.09835131529019
 20
586.5675359841191
 30
0.0
 11
402.09835131529007
 21
586.5675359841191
 31
0.0
  0
ARC
  5
15AC0
  8
AM_0N
 10
393.0983513152903
 20
603.7407149799925
 30
0.0
 40
17.173178995873389
 50
252.383031159582
 51
287.61696884041788
  0
ARC
  5
15AC1
  8
AM_0N
 10
400.89460131528767
 20
591.1628570926581
 30
0.0
 40
4.5953211085391104
 50
235.56153059524291
 51
295.56153059562092
  0
LINE
  5
15AC2
  8
AM_0N
 10
403.49335131529023
 20
587.37293960963848
 30
0.0
 11
402.09835131529007
 21
586.5675359841191
 31
0.0
  0
ARC
  5
15AC3
  8
AM_0N
 10
385.3021013152902
 20
591.1628570926581
 30
0.0
 40
4.5953211085391104
 50
244.43846940456709
 51
304.43846940478778
  0
LINE
  5
15AC4
  8
AM_0N
 10
382.70335131529021
 20
587.37293960963848
 30
0.0
 11
384.09835131529019
 21
586.5675359841191
 31
0.0
  0
LINE
  5
15AC5
  8
AM_0N
 10
381.0983513152903
 20
597.36753598411894
 30
0.0
 11
405.09835131529007
 21
597.36753598411894
 31
0.0
  0
LINE
  5
15AC6
  8
AM_0N
 10
405.09835131529007
 20
597.36753598411894
 30
0.0
 11
405.09835131529007
 21
599.66753598411901
 31
0.0
  0
LINE
  5
15AC7
  8
AM_0N
 10
381.0983513152903
 20
599.66753598411901
 30
0.0
 11
381.0983513152903
 21
597.36753598411894
 31
0.0
  0
LINE
  5
15AC9
  8
AM_0
 10
533.10165279431283
 20
595.6675356858949
 30
0.0
 11
483.1006513031665
 21
595.6675356858949
 31
0.0
  0
LINE
  5
15ACA
  8
AM_0
 10
533.10165279431283
 20
600.66753583500645
 30
0.0
 11
533.10165279431283
 21
595.6675356858949
 31
0.0
  0
LINE
  5
15ACB
  8
AM_0
 10
483.1006513031665
 20
600.66753583500645
 30
0.0
 11
483.1006513031665
 21
595.6675356858949
 31
0.0
  0
LINE
  5
15ACC
  8
AM_0
 10
388.09835086375529
 20
557.16753598411935
 30
0.0
 11
492.10115204873961
 21
557.16753598411935
 31
0.0
  0
LINE
  5
15CAA
  8
AM_0
 10
319.59750495889381
 20
696.16751524363542
 30
0.0
 11
245.59750495889389
 21
696.16751524363542
 31
0.0
  0
LINE
  5
15CAB
  8
AM_0
 10
319.59750495889381
 20
694.66751524363542
 30
0.0
 11
245.59750495889389
 21
694.66751524363542
 31
0.0
  0
LINE
  5
15CAC
  8
AM_0
 10
319.59750495889381
 20
633.16751524363531
 30
0.0
 11
245.59750495889389
 21
633.16751524363531
 31
0.0
  0
LINE
  5
15CAD
  8
AM_0
 10
319.59750495889381
 20
634.66751524363542
 30
0.0
 11
245.59750495889389
 21
634.66751524363542
 31
0.0
  0
LINE
  5
15CAE
  8
AM_0
 10
262.59750495889392
 20
697.66751524363542
 30
0.0
 11
248.59750495889389
 21
697.66751524363542
 31
0.0
  0
LINE
  5
15CAF
  8
AM_0
 10
262.59750495889398
 20
631.66751524363542
 30
0.0
 11
248.59750495889401
 21
631.66751524363531
 31
0.0
  0
LINE
  5
15CB0
  8
AM_0
 10
240.09750495889389
 20
618.31752624363526
 30
0.0
 11
342.09750495889392
 21
618.31752624363526
 31
0.0
  0
LINE
  5
15CB1
  8
AM_0
 10
199.7774949588939
 20
631.29750624363544
 30
0.0
 11
259.59750495889392
 21
631.29750624363544
 31
0.0
  0
LINE
  5
15CB2
  8
AM_0
 10
291.09750495889392
 20
628.6675162436353
 30
0.0
 11
200.64755495889389
 21
628.6675162436353
 31
0.0
  0
LINE
  5
15CB3
  8
AM_0
 10
199.7774949588939
 20
627.94752324363537
 30
0.0
 11
291.09750495889392
 21
627.94752324363537
 31
0.0
  0
LINE
  5
15CB4
  8
AM_0
 10
218.09750495889389
 20
602.80750824363543
 30
0.0
 11
334.90750495889392
 21
602.80750824363543
 31
0.0
  0
LINE
  5
15CB5
  8
AM_0
 10
240.09750495889389
 20
711.01750524363524
 30
0.0
 11
342.09750495889392
 21
711.01750524363524
 31
0.0
  0
LINE
  5
15CB6
  8
AM_0
 10
218.09750495889389
 20
726.52751524363543
 30
0.0
 11
334.90750495889392
 21
726.52751524363543
 31
0.0
  0
LINE
  5
15CB7
  8
AM_0
 10
218.09750495889389
 20
730.58751524363561
 30
0.0
 11
271.09756495889388
 21
730.58751524363561
 31
0.0
  0
LINE
  5
15CB8
  8
AM_0
 10
218.09750495889389
 20
729.90750524363546
 30
0.0
 11
271.09756495889388
 21
729.90750524363546
 31
0.0
  0
LINE
  5
15CB9
  8
AM_0
 10
218.09750495889389
 20
728.55751524363529
 30
0.0
 11
271.09756495889388
 21
728.55751524363529
 31
0.0
  0
LINE
  5
15CBA
  8
AM_0
 10
335.4375049588939
 20
700.66751524363542
 30
0.0
 11
209.64755495889389
 21
700.66751524363542
 31
0.0
  0
LINE
  5
15CBB
  8
AM_0
 10
335.4375049588939
 20
698.66751524363542
 30
0.0
 11
209.64755495889389
 21
698.66751524363542
 31
0.0
  0
LINE
  5
15CBC
  8
AM_0
 10
218.09750495889389
 20
598.74751124363547
 30
0.0
 11
271.09756495889388
 21
598.74751124363547
 31
0.0
  0
LINE
  5
15CBD
  8
AM_0
 10
218.09750495889389
 20
599.42751924363529
 30
0.0
 11
271.09756495889388
 21
599.42751924363529
 31
0.0
  0
LINE
  5
15CBE
  8
AM_0
 10
218.09750495889389
 20
600.77750924363545
 30
0.0
 11
271.09756495889388
 21
600.77750924363545
 31
0.0
  0
LINE
  5
15CBF
  8
AM_0
 10
291.09750495889392
 20
630.66750924363544
 30
0.0
 11
201.08755495889389
 21
630.66750924363544
 31
0.0
  0
LINE
  5
15CC0
  8
AM_0
 10
208.7774949588939
 20
701.38750524363525
 30
0.0
 11
338.91751495889378
 21
701.38750524363525
 31
0.0
  0
LINE
  5
15CC1
  8
AM_0
 10
208.7774949588939
 20
698.0375252436354
 30
0.0
 11
259.59750495889392
 21
698.0375252436354
 31
0.0
  0
LINE
  5
15CC2
  8
AM_0
 10
242.59750495889389
 20
636.16751524363542
 30
0.0
 11
242.59750495889389
 21
693.16751524363542
 31
0.0
  0
LINE
  5
15CC3
  8
AM_0
 10
244.09750495889389
 20
693.16751524363542
 30
0.0
 11
244.09750495889389
 21
636.16751524363542
 31
0.0
  0
LINE
  5
15CC4
  8
AM_0
 10
188.59756495889391
 20
684.66750524363545
 30
0.0
 11
188.59756495889391
 21
644.6675252436354
 31
0.0
  0
LINE
  5
15CC5
  8
AM_0
 10
195.09750495889389
 20
607.23751624363547
 30
0.0
 11
195.09750495889389
 21
664.66751524363542
 31
0.0
  0
LINE
  5
15CC6
  8
AM_0
 10
190.09756495889391
 20
616.07750524363541
 30
0.0
 11
190.09756495889391
 21
659.66752524363517
 31
0.0
  0
LINE
  5
15CC7
  8
AM_0
 10
201.2675549588939
 20
606.40752224363541
 30
0.0
 11
214.59750495889389
 21
606.40752224363541
 31
0.0
  0
LINE
  5
15CC8
  8
AM_0
 10
201.20749495889399
 20
601.36752124363545
 30
0.0
 11
214.70749495889399
 21
601.36752124363545
 31
0.0
  0
LINE
  5
15CC9
  8
AM_0
 10
201.32754495889401
 20
611.68750524363543
 30
0.0
 11
214.59750495889389
 21
611.68750524363543
 31
0.0
  0
LINE
  5
15CCA
  8
AM_0
 10
195.09750495889389
 20
616.31751024363541
 30
0.0
 11
205.09756495889391
 21
616.31751024363541
 31
0.0
  0
LINE
  5
15CCB
  8
AM_0
 10
242.59756495889391
 20
650.6675252436354
 30
0.0
 11
200.64755495889389
 21
650.6675252436354
 31
0.0
  0
LINE
  5
15CCC
  8
AM_0
 10
201.2375249588938
 20
602.99752624363543
 30
0.0
 11
214.59750495889389
 21
602.99752624363543
 31
0.0
  0
LINE
  5
15CCD
  8
AM_0
 10
195.09750495889389
 20
621.97750624363539
 30
0.0
 11
205.09756495889391
 21
621.97750624363539
 31
0.0
  0
LINE
  5
15CCE
  8
AM_0
 10
199.55752495889379
 20
638.17751524363541
 30
0.0
 11
242.59756495889391
 21
638.17751524363541
 31
0.0
  0
LINE
  5
15CCF
  8
AM_0
 10
199.42752495889391
 20
650.98752524363545
 30
0.0
 11
242.59756495889391
 21
650.98752524363545
 31
0.0
  0
LINE
  5
15CD0
  8
AM_0
 10
242.59756495889391
 20
648.66750524363545
 30
0.0
 11
200.64755495889389
 21
648.66750524363545
 31
0.0
  0
LINE
  5
15CD1
  8
AM_0
 10
199.42752495889391
 20
648.32750524363541
 30
0.0
 11
242.59756495889391
 21
648.32750524363541
 31
0.0
  0
LINE
  5
15CD2
  8
AM_0
 10
242.59756495889391
 20
640.66751524363542
 30
0.0
 11
200.64755495889389
 21
640.66751524363542
 31
0.0
  0
LINE
  5
15CD3
  8
AM_0
 10
199.55752495889379
 20
641.10751524363525
 30
0.0
 11
242.59756495889391
 21
641.10751524363525
 31
0.0
  0
LINE
  5
15CD4
  8
AM_0
 10
242.59756495889391
 20
638.66752524363528
 30
0.0
 11
200.64755495889389
 21
638.66752524363528
 31
0.0
  0
ARC
  5
15CD5
  8
AM_0
 10
191.09317495889391
 20
617.6978742436354
 30
0.0
 40
0.99566799
 50
180.0204300000008
 51
243.40982999999861
  0
ARC
  5
15CD6
  8
AM_0
 10
201.26242495889389
 20
608.40689624363529
 30
0.0
 40
1.9993919999999989
 50
192.108039999998
 51
270.14581999999979
  0
ARC
  5
15CD7
  8
AM_0
 10
196.9253249588939
 20
606.04939124363545
 30
0.0
 40
1.4981281
 50
14.224574999997779
 51
89.916114000002224
  0
LINE
  5
15CD8
  8
AM_0
 10
195.09750495889389
 20
607.23752424363545
 30
0.0
 11
197.9174549588939
 21
607.1675242436354
 31
0.0
  0
LINE
  5
15CD9
  8
AM_0
 10
199.2874449588939
 20
604.5375192436353
 30
0.0
 11
198.36746495889389
 21
608.41751624363542
 31
0.0
  0
ARC
  5
15CDA
  8
AM_0
 10
201.2345349588939
 20
604.99827424363536
 30
0.0
 40
2.0007559999999991
 50
193.31415999999729
 51
270.0864499999999
  0
ARC
  5
15CDB
  8
AM_0
 10
201.2090149588939
 20
603.3706492436354
 30
0.0
 40
2.0031319000000001
 50
194.2515900000019
 51
269.9575499999994
  0
LINE
  5
15CDC
  8
AM_0
 10
199.26748495889379
 20
602.87751624363545
 30
0.0
 11
198.3774749588938
 21
606.41750924363544
 31
0.0
  0
ARC
  5
15CDD
  8
AM_0
 10
191.09512495889379
 20
616.65218124363537
 30
0.0
 40
0.9976240400000001
 50
180.2675099999974
 51
240.07954000000259
  0
ARC
  5
15CDE
  8
AM_0
 10
192.3782049588938
 20
615.91859224363543
 30
0.0
 40
1.001135899999998
 50
239.32800000000361
 51
269.38750999999928
  0
ARC
  5
15CDF
  8
AM_0
 10
192.3433549588938
 20
617.06677824363544
 30
0.0
 40
0.99928796
 50
242.86126999999701
 51
269.66619000000128
  0
ARC
  5
15CE0
  8
AM_0
 10
194.59408495889389
 20
616.57090524363525
 30
0.0
 40
0.50340396
 50
270.38612999999822
 51
359.6138700000019
  0
ARC
  5
15CE1
  8
AM_0
 10
194.5979349588938
 20
614.41795124363534
 30
0.0
 40
0.49955601
 50
359.94910999999661
 51
90.050894000000824
  0
LINE
  5
15CE2
  8
AM_0
 10
191.8675249588938
 20
615.05754624363544
 30
0.0
 11
190.59750495889389
 21
615.78754224363536
 31
0.0
  0
LINE
  5
15CE3
  8
AM_0
 10
192.3675249588938
 20
614.91750924363544
 30
0.0
 11
194.59756495889391
 21
614.91750924363544
 31
0.0
  0
LINE
  5
15CE4
  8
AM_0
 10
192.3374949588939
 20
616.06752624363526
 30
0.0
 11
194.59756495889391
 21
616.06752624363526
 31
0.0
  0
LINE
  5
15CE5
  8
AM_0
 10
191.88748495889379
 20
616.17754124363523
 30
0.0
 11
190.6474949588939
 21
616.80753924363535
 31
0.0
  0
LINE
  5
15CE6
  8
AM_0
 10
192.09750495889389
 20
615.16751624363542
 30
0.0
 11
192.09750495889389
 21
615.69751524363539
 31
0.0
  0
ARC
  5
15CE7
  8
AM_0
 10
201.3235849588938
 20
613.68594124363517
 30
0.0
 40
1.998443999999999
 50
190.33240000000399
 51
270.11369000000047
  0
ARC
  5
15CE8
  8
AM_0
 10
196.8806449588939
 20
612.13842624363542
 30
0.0
 40
1.4991000000000001
 50
11.89856000000028
 51
89.736658000000475
  0
ARC
  5
15CE9
  8
AM_0
 10
196.9109249588939
 20
608.07000524363536
 30
0.0
 40
1.497512
 50
13.418232999998249
 51
90.128792999998822
  0
LINE
  5
15CEA
  8
AM_0
 10
198.81747495889391
 20
616.31752624363537
 30
0.0
 11
199.35751495889389
 21
613.32752024363538
 31
0.0
  0
LINE
  5
15CEB
  8
AM_0
 10
196.92752495889391
 20
607.54751424363542
 30
0.0
 11
198.5775449588939
 21
607.54751424363542
 31
0.0
  0
LINE
  5
15CEC
  8
AM_0
 10
196.90750495889381
 20
609.56751024363541
 30
0.0
 11
198.96756495889389
 21
609.56751024363541
 31
0.0
  0
LINE
  5
15CED
  8
AM_0
 10
196.88748495889379
 20
613.63751024363523
 30
0.0
 11
199.2975149588938
 21
613.63751024363523
 31
0.0
  0
LINE
  5
15CEE
  8
AM_0
 10
199.30752495889391
 20
607.98751624363535
 30
0.0
 11
198.34750495889389
 21
612.44751524363517
 31
0.0
  0
ARC
  5
15CEF
  8
AM_0
 10
191.09390495889389
 20
632.28185824363538
 30
0.0
 40
0.9963800299999999
 50
180.24949000000009
 51
253.29706999999831
  0
ARC
  5
15CF0
  8
AM_0
 10
192.36886495889391
 20
618.0311722436353
 30
0.0
 40
1.003687999999999
 50
239.3702699999991
 51
270.49275000000068
  0
ARC
  5
15CF1
  8
AM_0
 10
192.35269495889389
 20
619.16814224363543
 30
0.0
 40
1.0006280000000001
 50
241.64985999999769
 51
269.70470999999941
  0
ARC
  5
15CF2
  8
AM_0
 10
192.39029495889389
 20
622.5480172436354
 30
0.0
 40
1.0005360000000001
 50
237.1463999999992
 51
270.41321999999889
  0
ARC
  5
15CF3
  8
AM_0
 10
192.3608749588939
 20
623.68851324363538
 30
0.0
 40
1.001012
 50
240.4713599999975
 51
270.3802000000004
  0
ARC
  5
15CF4
  8
AM_0
 10
191.09659495889389
 20
623.39220224363544
 30
0.0
 40
0.9991000299999999
 50
179.69542000000101
 51
236.6617700000015
  0
ARC
  5
15CF5
  8
AM_0
 10
191.09524495889389
 20
619.82880924363542
 30
0.0
 40
0.99770796
 50
180.07404999999949
 51
242.0447600000025
  0
ARC
  5
15CF6
  8
AM_0
 10
191.09628495889379
 20
618.79101324363523
 30
0.0
 40
0.9987800700000001
 50
179.6266700000001
 51
238.7085500000006
  0
ARC
  5
15CF7
  8
AM_0
 10
194.0950649588938
 20
623.68997724363544
 30
0.0
 40
1.0024599999999999
 50
270.14037999999903
 51
359.85962000000097
  0
ARC
  5
15CF8
  8
AM_0
 10
191.09598495889389
 20
624.42681724363536
 30
0.0
 40
0.9984599899999999
 50
179.9596199999994
 51
239.38654999999889
  0
ARC
  5
15CF9
  8
AM_0
 10
194.09347495889381
 20
619.17159824363534
 30
0.0
 40
1.004083999999998
 50
270.23263000000043
 51
359.76736999999628
  0
LINE
  5
15CFA
  8
AM_0
 10
192.37753495889379
 20
617.02752524363541
 30
0.0
 11
195.09750495889389
 21
617.02752524363541
 31
0.0
  0
LINE
  5
15CFB
  8
AM_0
 10
191.84750495889389
 20
621.70752524363525
 30
0.0
 11
190.5475149588938
 21
622.55753124363548
 31
0.0
  0
LINE
  5
15CFC
  8
AM_0
 10
191.85751495889389
 20
617.16754724363545
 30
0.0
 11
190.5774849588939
 21
617.93755924363541
 31
0.0
  0
LINE
  5
15CFD
  8
AM_0
 10
192.3675249588938
 20
622.68752124363539
 30
0.0
 11
194.09750495889389
 21
622.68752124363539
 31
0.0
  0
LINE
  5
15CFE
  8
AM_0
 10
192.39755495889381
 20
621.54750624363544
 30
0.0
 11
195.09750495889389
 21
621.54750624363544
 31
0.0
  0
LINE
  5
15CFF
  8
AM_0
 10
192.34756495889391
 20
618.16751624363542
 30
0.0
 11
194.09750495889389
 21
618.16751624363542
 31
0.0
  0
LINE
  5
15D00
  8
AM_0
 10
191.8675249588938
 20
622.81753324363547
 30
0.0
 11
190.58755495889389
 21
623.56751824363516
 31
0.0
  0
LINE
  5
15D01
  8
AM_0
 10
192.09750495889389
 20
621.83752224363525
 30
0.0
 11
192.09750495889389
 21
622.30750824363543
 31
0.0
  0
LINE
  5
15D02
  8
AM_0
 10
192.09750495889389
 20
617.26750724363524
 30
0.0
 11
192.09750495889389
 21
617.81751024363541
 31
0.0
  0
LINE
  5
15D03
  8
AM_0
 10
191.87753495889379
 20
618.28751224363543
 30
0.0
 11
190.62753495889379
 21
618.94750024363543
 31
0.0
  0
LINE
  5
15D04
  8
AM_0
 10
195.09750495889389
 20
630.36751324363524
 30
0.0
 11
198.2675549588939
 21
630.36751324363524
 31
0.0
  0
ARC
  5
15D05
  8
AM_0
 10
194.09421495889379
 20
631.93086824363536
 30
0.0
 40
1.003363999999999
 50
270.19170999999869
 51
359.80828000000292
  0
ARC
  5
15D06
  8
AM_0
 10
194.39810495889381
 20
628.27807424363527
 30
0.0
 40
0.69944
 50
359.95415999999977
 51
90.045840000000197
  0
ARC
  5
15D07
  8
AM_0
 10
192.3005049588939
 20
629.98274024363536
 30
0.0
 40
1.005223999999999
 50
246.9862900000013
 51
269.82936000000041
  0
ARC
  5
15D08
  8
AM_0
 10
192.23807495889389
 20
631.93020424363544
 30
0.0
 40
1.0027280000000001
 50
253.75296999999949
 51
270.54039999999941
  0
ARC
  5
15D09
  8
AM_0
 10
191.0940249588939
 20
630.49598524363535
 30
0.0
 40
0.9964760499999998
 50
179.91258000000059
 51
247.17965999999871
  0
LINE
  5
15D0A
  8
AM_0
 10
192.2975149588938
 20
628.97751424363526
 30
0.0
 11
194.3974949588939
 21
628.97751424363526
 31
0.0
  0
LINE
  5
15D0B
  8
AM_0
 10
191.90750495889381
 20
629.05753924363535
 30
0.0
 11
190.70755495889389
 21
629.57750524363541
 31
0.0
  0
LINE
  5
15D0C
  8
AM_0
 10
192.24753495889379
 20
630.9275192436354
 30
0.0
 11
194.09750495889389
 21
630.9275192436354
 31
0.0
  0
LINE
  5
15D0D
  8
AM_0
 10
191.95755495889389
 20
630.96753524363544
 30
0.0
 11
190.80752495889391
 21
631.32753524363545
 31
0.0
  0
LINE
  5
15D0E
  8
AM_0
 10
192.09750495889389
 20
629.27750924363545
 30
0.0
 11
192.09750495889389
 21
630.33750724363517
 31
0.0
  0
ARC
  5
15D0F
  8
AM_0
 10
200.64279495889389
 20
629.6675242436354
 30
0.0
 40
1.0000119000000001
 50
89.728462000000377
 51
270.27153999999882
  0
ARC
  5
15D10
  8
AM_0
 10
199.7706649588938
 20
629.62252624363543
 30
0.0
 40
1.6750160000000001
 50
89.764983000000584
 51
270.23501000000232
  0
ARC
  5
15D11
  8
AM_0
 10
191.09768495889381
 20
639.66771524363514
 30
0.0
 40
1.0001959999999981
 50
180.01127999999659
 51
269.98872000000023
  0
ARC
  5
15D12
  8
AM_0
 10
191.09256495889389
 20
639.67245524363545
 30
0.0
 40
0.99508399
 50
89.716323999999332
 51
180.28367999999989
  0
ARC
  5
15D13
  8
AM_0
 10
191.09768495889381
 20
649.66772524363523
 30
0.0
 40
1.000199999999998
 50
180.01150000000351
 51
269.98851000000099
  0
ARC
  5
15D14
  8
AM_0
 10
191.09256495889389
 20
649.67243524363539
 30
0.0
 40
0.99508399
 50
89.716105999999485
 51
180.28388999999791
  0
LINE
  5
15D15
  8
AM_0
 10
188.59756495889391
 20
644.66751524363542
 30
0.0
 11
190.09750495889389
 21
644.53751524363543
 31
0.0
  0
LINE
  5
15D16
  8
AM_0
 10
188.59756495889391
 20
647.38751524363545
 30
0.0
 11
190.09756495889391
 21
647.38751524363545
 31
0.0
  0
LINE
  5
15D17
  8
AM_0
 10
188.59756495889391
 20
649.51750524363524
 30
0.0
 11
193.17752495889391
 21
649.51750524363524
 31
0.0
  0
ARC
  5
15D18
  8
AM_0
 10
194.09262495889379
 20
641.6724252436353
 30
0.0
 40
1.0049238999999981
 50
270.2800399999993
 51
359.71997000000391
  0
ARC
  5
15D19
  8
AM_0
 10
194.09768495889381
 20
637.66767524363524
 30
0.0
 40
0.99984801
 50
359.99118999999712
 51
90.008806999998697
  0
LINE
  5
15D1A
  8
AM_0
 10
194.09750495889389
 20
638.66752524363528
 30
0.0
 11
191.09750495889389
 21
638.66752524363528
 31
0.0
  0
LINE
  5
15D1B
  8
AM_0
 10
194.09750495889389
 20
640.66751524363542
 30
0.0
 11
191.09750495889389
 21
640.66751524363542
 31
0.0
  0
LINE
  5
15D1C
  8
AM_0
 10
192.09750495889389
 20
639.03751524363543
 30
0.0
 11
192.09750495889389
 21
640.40750524363546
 31
0.0
  0
ARC
  5
15D1D
  8
AM_0
 10
199.55752495889379
 20
639.64251524363544
 30
0.0
 40
1.465004
 50
90.00000299999769
 51
270.0
  0
ARC
  5
15D1E
  8
AM_0
 10
200.64279495889389
 20
639.66750524363545
 30
0.0
 40
1.0000119000000001
 50
89.728462000000377
 51
270.27153999999882
  0
ARC
  5
15D1F
  8
AM_0
 10
194.09262495889379
 20
651.67242524363542
 30
0.0
 40
1.004928
 50
270.28023999999988
 51
359.71976000000001
  0
ARC
  5
15D20
  8
AM_0
 10
194.09768495889381
 20
647.6676652436355
 30
0.0
 40
0.9998440099999999
 50
359.99097999999952
 51
90.009017999997724
  0
LINE
  5
15D21
  8
AM_0
 10
194.09750495889389
 20
648.66750524363545
 30
0.0
 11
191.09750495889389
 21
648.66750524363545
 31
0.0
  0
LINE
  5
15D22
  8
AM_0
 10
194.09750495889389
 20
650.6675252436354
 30
0.0
 11
191.09750495889389
 21
650.6675252436354
 31
0.0
  0
LINE
  5
15D23
  8
AM_0
 10
192.09750495889389
 20
649.05752524363538
 30
0.0
 11
192.09750495889389
 21
650.27750524363523
 31
0.0
  0
ARC
  5
15D24
  8
AM_0
 10
199.42752495889391
 20
649.65751524363543
 30
0.0
 40
1.3300080000000001
 50
90.00000299999769
 51
270.0
  0
ARC
  5
15D25
  8
AM_0
 10
200.64755495889389
 20
649.66751524363531
 30
0.0
 40
1.0
 50
90.00000299999769
 51
270.0
  0
LINE
  5
15D26
  8
AM_0
 10
205.09756495889391
 20
616.31751024363541
 30
0.0
 11
205.09756495889391
 21
630.36751324363524
 31
0.0
  0
ARC
  5
15D27
  8
AM_0
 10
218.09799495889391
 20
604.80795824363543
 30
0.0
 40
2.0004520000000001
 50
180.01290000000029
 51
269.98709999999971
  0
ARC
  5
15D28
  8
AM_0
 10
218.09884495889401
 20
602.77882924363541
 30
0.0
 40
2.0013119999999991
 50
180.03756000000209
 51
269.9624400000011
  0
ARC
  5
15D29
  8
AM_0
 10
218.09616495889389
 20
601.42613824363525
 30
0.0
 40
1.9986198999999989
 50
179.96046999999851
 51
270.03953000000138
  0
ARC
  5
15D2A
  8
AM_0
 10
218.09146495889379
 20
600.75757424363542
 30
0.0
 40
2.0000760999999998
 50
194.7749800000019
 51
270.17352999999849
  0
LINE
  5
15D2B
  8
AM_0
 10
216.09750495889389
 20
602.77752524363541
 30
0.0
 11
216.09750495889389
 21
610.18750524363543
 31
0.0
  0
ARC
  5
15D2C
  8
AM_0
 10
214.59482495889389
 20
604.90479824363547
 30
0.0
 40
1.502715899999999
 50
0.1034359999993177
 51
89.896566000000234
  0
ARC
  5
15D2D
  8
AM_0
 10
214.59781495889379
 20
601.49775524363542
 30
0.0
 40
1.499755999999999
 50
359.99059000000068
 51
90.009407999999695
  0
ARC
  5
15D2E
  8
AM_0
 10
214.70907495889401
 20
599.87086324363543
 30
0.0
 40
1.4966440000000001
 50
14.575739999999559
 51
90.058277999998381
  0
ARC
  5
15D2F
  8
AM_0
 10
214.59598495889389
 20
610.18594924363538
 30
0.0
 40
1.5015679999999989
 50
0.0598050029977432
 51
89.940196999999216
  0
LINE
  5
15D30
  8
AM_0
 10
240.09756495889391
 20
618.31752624363526
 30
0.0
 11
205.09750495889389
 21
620.34752424363523
 31
0.0
  0
ARC
  5
15D31
  8
AM_0
 10
217.09274495889389
 20
629.6675242436354
 30
0.0
 40
1.0000119000000001
 50
89.726507999999697
 51
270.27347999999978
  0
ARC
  5
15D32
  8
AM_0
 10
204.260894958894
 20
623.07943524363543
 30
0.0
 40
4.9985837999999978
 50
5.3731198999976861
 51
80.36497600000034
  0
ARC
  5
15D33
  8
AM_0
 10
208.2381949588939
 20
623.44839324363545
 30
0.0
 40
1.0042359999999999
 50
314.93782999999928
 51
5.6649239000010896
  0
ARC
  5
15D34
  8
AM_0
 10
204.72751495889389
 20
627.01469224363541
 30
0.0
 40
6.0085920999999978
 50
273.53094999999962
 51
314.6147799999988
  0
ARC
  5
15D35
  8
AM_0
 10
217.09274495889389
 20
649.66751524363531
 30
0.0
 40
1.0000119000000001
 50
89.726507999999697
 51
270.27347999999978
  0
ARC
  5
15D36
  8
AM_0
 10
217.09274495889389
 20
639.66750524363545
 30
0.0
 40
1.0000119000000001
 50
89.726507999999697
 51
270.27347999999978
  0
ARC
  5
15D37
  8
AM_0
 10
245.59750495889381
 20
636.16751524363542
 30
0.0
 40
3.0
 50
180.0
 51
270.0
  0
ARC
  5
15D38
  8
AM_0
 10
245.59750495889381
 20
636.16751524363542
 30
0.0
 40
1.5
 50
180.0
 51
270.0
  0
LINE
  5
15D39
  8
AM_0
 10
247.09750495889389
 20
634.66751524363542
 30
0.0
 11
247.09750495889389
 21
633.16751524363531
 31
0.0
  0
ARC
  5
15D3A
  8
AM_0
 10
248.59750495889401
 20
632.16751524363531
 30
0.0
 40
0.5
 50
180.0
 51
270.0
  0
LINE
  5
15D3B
  8
AM_0
 10
248.09750495889401
 20
632.16751524363531
 30
0.0
 11
248.09750495889401
 21
633.16751524363531
 31
0.0
  0
LINE
  5
15D3C
  8
AM_0
 10
195.09750495889389
 20
698.97751524363537
 30
0.0
 11
205.09756495889391
 21
698.97751524363537
 31
0.0
  0
LINE
  5
15D3D
  8
AM_0
 10
195.09750495889389
 20
707.35751524363548
 30
0.0
 11
205.09756495889391
 21
707.35751524363548
 31
0.0
  0
LINE
  5
15D3E
  8
AM_0
 10
195.09750495889389
 20
713.0175252436353
 30
0.0
 11
205.09756495889391
 21
713.0175252436353
 31
0.0
  0
LINE
  5
15D3F
  8
AM_0
 10
201.32754495889401
 20
717.64752524363541
 30
0.0
 11
214.59750495889389
 21
717.64752524363541
 31
0.0
  0
LINE
  5
15D40
  8
AM_0
 10
201.2675549588939
 20
722.93750524363543
 30
0.0
 11
214.59750495889389
 21
722.93750524363543
 31
0.0
  0
LINE
  5
15D41
  8
AM_0
 10
201.2375249588938
 20
726.33749524363543
 30
0.0
 11
214.59750495889389
 21
726.33749524363543
 31
0.0
  0
LINE
  5
15D42
  8
AM_0
 10
201.20749495889399
 20
727.9675052436354
 30
0.0
 11
214.70749495889399
 21
727.9675052436354
 31
0.0
  0
LINE
  5
15D43
  8
AM_0
 10
242.59756495889391
 20
680.66751524363542
 30
0.0
 11
200.64755495889389
 21
680.66751524363542
 31
0.0
  0
LINE
  5
15D44
  8
AM_0
 10
242.59756495889391
 20
678.66750524363545
 30
0.0
 11
200.64755495889389
 21
678.66750524363545
 31
0.0
  0
LINE
  5
15D45
  8
AM_0
 10
240.59750495889389
 20
670.66751524363531
 30
0.0
 11
200.64755495889389
 21
670.66751524363531
 31
0.0
  0
LINE
  5
15D46
  8
AM_0
 10
240.59750495889389
 20
668.66751524363542
 30
0.0
 11
200.64755495889389
 21
668.66751524363542
 31
0.0
  0
LINE
  5
15D47
  8
AM_0
 10
199.42752495889391
 20
681.00752524363543
 30
0.0
 11
242.59756495889391
 21
681.00752524363543
 31
0.0
  0
LINE
  5
15D48
  8
AM_0
 10
199.42752495889391
 20
678.3475052436354
 30
0.0
 11
242.59756495889391
 21
678.3475052436354
 31
0.0
  0
LINE
  5
15D49
  8
AM_0
 10
199.3675249588938
 20
670.93750524363543
 30
0.0
 11
240.59750495889389
 21
670.93750524363543
 31
0.0
  0
LINE
  5
15D4A
  8
AM_0
 10
199.3675249588938
 20
668.40750524363546
 30
0.0
 11
240.59750495889389
 21
668.40750524363546
 31
0.0
  0
LINE
  5
15D4B
  8
AM_0
 10
199.3675249588938
 20
660.93752524363515
 30
0.0
 11
240.59750495889389
 21
660.93752524363515
 31
0.0
  0
LINE
  5
15D4C
  8
AM_0
 10
240.59750495889389
 20
658.66751524363542
 30
0.0
 11
200.64755495889389
 21
658.66751524363542
 31
0.0
  0
LINE
  5
15D4D
  8
AM_0
 10
240.59750495889389
 20
660.66750524363545
 30
0.0
 11
200.64755495889389
 21
660.66750524363545
 31
0.0
  0
LINE
  5
15D4E
  8
AM_0
 10
199.3675249588938
 20
658.39752524363541
 30
0.0
 11
240.59750495889389
 21
658.39752524363541
 31
0.0
  0
LINE
  5
15D4F
  8
AM_0
 10
195.09750495889389
 20
722.0975052436354
 30
0.0
 11
195.09750495889389
 21
664.66751524363542
 31
0.0
  0
LINE
  5
15D50
  8
AM_0
 10
190.09756495889391
 20
712.68752524363515
 30
0.0
 11
190.09756495889391
 21
669.66750524363545
 31
0.0
  0
ARC
  5
15D51
  8
AM_0
 10
191.09256495889389
 20
669.67244524363525
 30
0.0
 40
0.9950879799999999
 50
89.716344999999606
 51
180.28365000000051
  0
ARC
  5
15D52
  8
AM_0
 10
191.09768495889381
 20
669.66771524363514
 30
0.0
 40
1.0001959999999981
 50
180.01124999999939
 51
269.98873999999932
  0
ARC
  5
15D53
  8
AM_0
 10
191.09768495889381
 20
659.66773524363543
 30
0.0
 40
1.0002040000000001
 50
180.01170000000161
 51
269.98829999999828
  0
ARC
  5
15D54
  8
AM_0
 10
191.09256495889389
 20
659.67244524363548
 30
0.0
 40
0.9950800499999999
 50
89.715893999999523
 51
180.28409999999971
  0
ARC
  5
15D55
  8
AM_0
 10
194.09256495889389
 20
661.67243524363539
 30
0.0
 40
1.0049318999999981
 50
270.28044999999781
 51
359.719549999999
  0
ARC
  5
15D56
  8
AM_0
 10
194.09768495889381
 20
657.66766524363527
 30
0.0
 40
0.99985206
 50
359.99142999999799
 51
90.008573999997964
  0
LINE
  5
15D57
  8
AM_0
 10
194.09750495889389
 20
658.66751524363542
 30
0.0
 11
191.09750495889389
 21
658.66751524363542
 31
0.0
  0
LINE
  5
15D58
  8
AM_0
 10
194.09750495889389
 20
660.66750524363545
 30
0.0
 11
191.09750495889389
 21
660.66750524363545
 31
0.0
  0
LINE
  5
15D59
  8
AM_0
 10
192.09750495889389
 20
659.05750524363543
 30
0.0
 11
192.09750495889389
 21
660.21752524363524
 31
0.0
  0
ARC
  5
15D5A
  8
AM_0
 10
200.64755495889389
 20
659.66752524363517
 30
0.0
 40
1.0
 50
90.00000299999769
 51
270.0
  0
ARC
  5
15D5B
  8
AM_0
 10
199.36172495889389
 20
659.66752524363517
 30
0.0
 40
1.2700119999999999
 50
89.738748000000555
 51
270.261239999998
  0
ARC
  5
15D5C
  8
AM_0
 10
194.09768495889381
 20
667.6676652436355
 30
0.0
 40
0.99984801
 50
359.99122000000051
 51
90.008778999998157
  0
ARC
  5
15D5D
  8
AM_0
 10
194.09262495889379
 20
671.67241524363544
 30
0.0
 40
1.0049238999999981
 50
270.28000999999949
 51
359.71998999999721
  0
LINE
  5
15D5E
  8
AM_0
 10
194.09750495889389
 20
670.66751524363531
 30
0.0
 11
191.09750495889389
 21
670.66751524363531
 31
0.0
  0
LINE
  5
15D5F
  8
AM_0
 10
194.09750495889389
 20
668.66751524363542
 30
0.0
 11
191.09750495889389
 21
668.66751524363542
 31
0.0
  0
LINE
  5
15D60
  8
AM_0
 10
192.09750495889389
 20
670.27751524363543
 30
0.0
 11
192.09750495889389
 21
669.11749524363529
 31
0.0
  0
ARC
  5
15D61
  8
AM_0
 10
199.36172495889389
 20
669.67252524363539
 30
0.0
 40
1.265012
 50
89.737715999998315
 51
270.26227999999981
  0
ARC
  5
15D62
  8
AM_0
 10
200.64755495889389
 20
669.66750524363545
 30
0.0
 40
1.0
 50
90.00000299999769
 51
270.0
  0
ARC
  5
15D63
  8
AM_0
 10
191.09256495889389
 20
689.67244524363537
 30
0.0
 40
0.9950800499999999
 50
89.715921000001273
 51
180.28406999999919
  0
ARC
  5
15D64
  8
AM_0
 10
191.09768495889381
 20
689.66773524363543
 30
0.0
 40
1.0002040000000001
 50
180.01166999999799
 51
269.98832000000073
  0
ARC
  5
15D65
  8
AM_0
 10
191.09256495889389
 20
679.67242524363542
 30
0.0
 40
0.99508399
 50
89.716133000000738
 51
180.2838699999979
  0
ARC
  5
15D66
  8
AM_0
 10
191.09768495889381
 20
679.66771524363537
 30
0.0
 40
1.000199999999998
 50
180.01146999999989
 51
269.98853000000008
  0
LINE
  5
15D67
  8
AM_0
 10
188.59750495889389
 20
684.66753524363537
 30
0.0
 11
190.09750495889389
 21
684.79753524363525
 31
0.0
  0
LINE
  5
15D68
  8
AM_0
 10
188.59756495889391
 20
681.94751524363528
 30
0.0
 11
190.09756495889391
 21
681.94751524363528
 31
0.0
  0
LINE
  5
15D69
  8
AM_0
 10
188.59756495889391
 20
679.81752524363549
 30
0.0
 11
192.87753495889379
 21
679.81752524363549
 31
0.0
  0
ARC
  5
15D6A
  8
AM_0
 10
194.09768495889381
 20
677.66765524363541
 30
0.0
 40
0.9998440099999999
 50
359.99100999999632
 51
90.008990999998574
  0
ARC
  5
15D6B
  8
AM_0
 10
194.09262495889379
 20
681.67242524363542
 30
0.0
 40
1.004928
 50
270.28021999999982
 51
359.7197800000003
  0
LINE
  5
15D6C
  8
AM_0
 10
194.09750495889389
 20
680.66751524363542
 30
0.0
 11
191.09750495889389
 21
680.66751524363542
 31
0.0
  0
LINE
  5
15D6D
  8
AM_0
 10
194.09750495889389
 20
678.66750524363545
 30
0.0
 11
191.09750495889389
 21
678.66750524363545
 31
0.0
  0
LINE
  5
15D6E
  8
AM_0
 10
192.09750495889389
 20
680.27750524363535
 30
0.0
 11
192.09750495889389
 21
679.06752524363526
 31
0.0
  0
ARC
  5
15D6F
  8
AM_0
 10
199.42752495889391
 20
679.67751524363541
 30
0.0
 40
1.3300080000000001
 50
90.00000299999769
 51
270.0
  0
ARC
  5
15D70
  8
AM_0
 10
200.64755495889389
 20
679.66751524363542
 30
0.0
 40
1.0
 50
90.00000299999769
 51
270.0
  0
ARC
  5
15D71
  8
AM_0
 10
194.09768495889381
 20
687.66766524363561
 30
0.0
 40
0.99985206
 50
359.9914500000001
 51
90.008546999998842
  0
ARC
  5
15D72
  8
AM_0
 10
194.09262495889379
 20
691.6724252436353
 30
0.0
 40
1.0049318999999981
 50
270.28042000000022
 51
359.7195799999966
  0
LINE
  5
15D73
  8
AM_0
 10
194.09750495889389
 20
690.66750524363545
 30
0.0
 11
191.09750495889389
 21
690.66750524363545
 31
0.0
  0
LINE
  5
15D74
  8
AM_0
 10
194.09750495889389
 20
688.66751524363542
 30
0.0
 11
191.09750495889389
 21
688.66751524363542
 31
0.0
  0
LINE
  5
15D75
  8
AM_0
 10
192.09750495889389
 20
690.29752524363539
 30
0.0
 11
192.09750495889389
 21
688.92752524363539
 31
0.0
  0
LINE
  5
15D76
  8
AM_0
 10
191.8675249588938
 20
714.28751524363543
 30
0.0
 11
190.59750495889389
 21
713.54750524363544
 31
0.0
  0
LINE
  5
15D77
  8
AM_0
 10
192.09750495889389
 20
714.16751524363542
 30
0.0
 11
192.09750495889389
 21
713.63751524363545
 31
0.0
  0
LINE
  5
15D78
  8
AM_0
 10
198.81759495889389
 20
713.01753524363539
 30
0.0
 11
199.35757495889379
 21
716.00752524363543
 31
0.0
  0
ARC
  5
15D79
  8
AM_0
 10
191.09378495889391
 20
697.06326524363544
 30
0.0
 40
0.9962600499999998
 50
106.69748999999899
 51
180.3304900000002
  0
ARC
  5
15D7A
  8
AM_0
 10
192.298494958894
 20
699.36203524363543
 30
0.0
 40
0.99548006
 50
90.057320999998737
 51
113.1270300000016
  0
ARC
  5
15D7B
  8
AM_0
 10
192.23666495889381
 20
697.41480524363544
 30
0.0
 40
0.99277198
 50
89.374808000000058
 51
106.3318199999986
  0
ARC
  5
15D7C
  8
AM_0
 10
191.09390495889389
 20
698.84909524363525
 30
0.0
 40
0.99640006
 50
112.8173899999987
 51
180.09039999999871
  0
ARC
  5
15D7D
  8
AM_0
 10
194.09921495889381
 20
697.40921524363534
 30
0.0
 40
0.99829602
 50
359.90203999999738
 51
90.097960999998946
  0
ARC
  5
15D7E
  8
AM_0
 10
194.39297495889389
 20
701.0620652436354
 30
0.0
 40
0.7045519900000002
 50
270.36910999999952
 51
359.63089000000048
  0
LINE
  5
15D7F
  8
AM_0
 10
192.2975149588938
 20
700.35751524363525
 30
0.0
 11
194.3974949588939
 21
700.35751524363525
 31
0.0
  0
LINE
  5
15D80
  8
AM_0
 10
191.90750495889381
 20
700.27753524363516
 30
0.0
 11
190.7074949588939
 21
699.76753524363528
 31
0.0
  0
LINE
  5
15D81
  8
AM_0
 10
192.24753495889379
 20
698.40750524363546
 30
0.0
 11
194.09750495889389
 21
698.40750524363546
 31
0.0
  0
LINE
  5
15D82
  8
AM_0
 10
191.95755495889389
 20
698.36751524363535
 30
0.0
 11
190.80752495889391
 21
698.01750524363524
 31
0.0
  0
LINE
  5
15D83
  8
AM_0
 10
192.09750495889389
 20
700.05751524363541
 30
0.0
 11
192.09750495889389
 21
698.99751524363535
 31
0.0
  0
ARC
  5
15D84
  8
AM_0
 10
191.09073495889379
 20
712.68543524363542
 30
0.0
 40
0.99319202
 50
119.7733999999995
 51
179.8795600000004
  0
ARC
  5
15D85
  8
AM_0
 10
191.09311495889381
 20
711.64720524363543
 30
0.0
 40
0.99558806
 50
116.58749000000149
 51
179.98225000000099
  0
ARC
  5
15D86
  8
AM_0
 10
192.32229495889391
 20
712.27348524363526
 30
0.0
 40
0.9941280500000002
 50
89.122807999998685
 51
115.9348099999979
  0
ARC
  5
15D87
  8
AM_0
 10
192.3663649588938
 20
711.31331524363543
 30
0.0
 40
0.9942600099999999
 50
89.355881999999255
 51
120.78109000000229
  0
ARC
  5
15D88
  8
AM_0
 10
192.33261495889391
 20
710.1721552436353
 30
0.0
 40
0.99546796
 50
89.14144799999832
 51
117.20366
  0
ARC
  5
15D89
  8
AM_0
 10
192.40414495889391
 20
706.80132524363546
 30
0.0
 40
0.9962120099999999
 50
90.381905999998594
 51
123.96990000000081
  0
ARC
  5
15D8A
  8
AM_0
 10
192.37692495889391
 20
705.6610352436353
 30
0.0
 40
0.9965200400000001
 50
90.541212999999473
 51
120.7432799999994
  0
ARC
  5
15D8B
  8
AM_0
 10
191.0915849588938
 20
704.91071524363542
 30
0.0
 40
0.99407601
 50
120.4692000000001
 51
180.18464000000071
  0
ARC
  5
15D8C
  8
AM_0
 10
191.09231495889381
 20
705.94511524363543
 30
0.0
 40
0.9948279899999999
 50
123.2046899999995
 51
180.43813000000009
  0
ARC
  5
15D8D
  8
AM_0
 10
191.09073495889379
 20
709.50894524363525
 30
0.0
 40
0.9932120399999999
 50
117.79934000000149
 51
180.08183000000079
  0
ARC
  5
15D8E
  8
AM_0
 10
191.09195495889381
 20
710.54648524363529
 30
0.0
 40
0.9944360299999999
 50
121.1521700000005
 51
179.9404899999993
  0
ARC
  5
15D8F
  8
AM_0
 10
194.09512495889379
 20
705.65514524363527
 30
0.0
 40
1.002375999999999
 50
0.1355919900039249
 51
89.86440999999931
  0
ARC
  5
15D90
  8
AM_0
 10
194.09854495889391
 20
710.16850524363542
 30
0.0
 40
0.9990080599999998
 50
359.94314999999722
 51
90.056842999999347
  0
ARC
  5
15D91
  8
AM_0
 10
194.59915495889379
 20
712.76915524363528
 30
0.0
 40
0.4983640000000002
 50
359.81141000000162
 51
90.188597999997583
  0
LINE
  5
15D92
  8
AM_0
 10
191.85751495889389
 20
712.16751524363531
 30
0.0
 11
190.5774849588939
 21
711.39752524363541
 31
0.0
  0
LINE
  5
15D93
  8
AM_0
 10
191.84750495889389
 20
707.62747524363544
 30
0.0
 11
190.5475149588938
 21
706.7774852436354
 31
0.0
  0
LINE
  5
15D94
  8
AM_0
 10
192.37753495889379
 20
712.30750524363543
 30
0.0
 11
195.09750495889389
 21
712.30750524363543
 31
0.0
  0
LINE
  5
15D95
  8
AM_0
 10
192.39755495889381
 20
707.79752524363528
 30
0.0
 11
195.09750495889389
 21
707.79752524363528
 31
0.0
  0
LINE
  5
15D96
  8
AM_0
 10
192.3675249588938
 20
706.65750524363546
 30
0.0
 11
194.09750495889389
 21
706.65750524363546
 31
0.0
  0
LINE
  5
15D97
  8
AM_0
 10
192.34756495889391
 20
711.16751524363542
 30
0.0
 11
194.09750495889389
 21
711.16751524363542
 31
0.0
  0
LINE
  5
15D98
  8
AM_0
 10
192.3374949588939
 20
713.26750524363524
 30
0.0
 11
194.59756495889391
 21
713.26750524363524
 31
0.0
  0
LINE
  5
15D99
  8
AM_0
 10
191.8675249588938
 20
706.51749524363515
 30
0.0
 11
190.5874949588939
 21
705.76749524363538
 31
0.0
  0
LINE
  5
15D9A
  8
AM_0
 10
191.8875449588939
 20
713.16754524363523
 30
0.0
 11
190.64755495889381
 21
712.53754524363546
 31
0.0
  0
LINE
  5
15D9B
  8
AM_0
 10
191.87753495889379
 20
711.05753524363524
 30
0.0
 11
190.6274749588938
 21
710.3875352436354
 31
0.0
  0
LINE
  5
15D9C
  8
AM_0
 10
192.09750495889389
 20
707.49750524363537
 30
0.0
 11
192.09750495889389
 21
707.02751524363543
 31
0.0
  0
LINE
  5
15D9D
  8
AM_0
 10
192.09750495889389
 20
712.06752524363526
 30
0.0
 11
192.09750495889389
 21
711.51752524363542
 31
0.0
  0
LINE
  5
15D9E
  8
AM_0
 10
199.28750495889381
 20
724.79753524363548
 30
0.0
 11
198.3675249588938
 21
720.91753524363526
 31
0.0
  0
LINE
  5
15D9F
  8
AM_0
 10
199.26748495889379
 20
726.45752524363525
 30
0.0
 11
198.37753495889379
 21
722.92752524363527
 31
0.0
  0
LINE
  5
15DA0
  8
AM_0
 10
195.09750495889389
 20
722.09753524363543
 30
0.0
 11
197.9174549588939
 21
722.16753524363537
 31
0.0
  0
ARC
  5
15DA1
  8
AM_0
 10
192.3595349588939
 20
713.42163524363548
 30
0.0
 40
0.9959119600000002
 50
89.541444000000595
 51
119.6069900000017
  0
ARC
  5
15DA2
  8
AM_0
 10
194.59292495889389
 20
714.92213524363535
 30
0.0
 40
0.5046359900000002
 50
270.52375999999953
 51
359.47624000000047
  0
LINE
  5
15DA3
  8
AM_0
 10
192.3675249588938
 20
714.41751524363531
 30
0.0
 11
194.59756495889391
 21
714.41751524363531
 31
0.0
  0
ARC
  5
15DA4
  8
AM_0
 10
201.31857495889381
 20
715.65508524363543
 30
0.0
 40
1.9924479999999991
 50
89.742108000000769
 51
169.81178999999909
  0
ARC
  5
15DA5
  8
AM_0
 10
201.2623649588939
 20
720.93822524363543
 30
0.0
 40
1.999288
 50
89.851814999999618
 51
167.89433000000099
  0
ARC
  5
15DA6
  8
AM_0
 10
196.88180495889381
 20
717.20775524363557
 30
0.0
 40
1.500248
 50
270.21661999999759
 51
347.67499999999927
  0
ARC
  5
15DA7
  8
AM_0
 10
196.90597495889381
 20
721.27129524363545
 30
0.0
 40
1.503776
 50
270.05983999999802
 51
346.39312999999879
  0
ARC
  5
15DA8
  8
AM_0
 10
196.9187949588939
 20
723.29071524363542
 30
0.0
 40
1.5032319999999979
 50
270.33131999999961
 51
346.01803000000137
  0
LINE
  5
15DA9
  8
AM_0
 10
196.88748495889379
 20
715.70752524363525
 30
0.0
 11
199.2975149588938
 21
715.70752524363525
 31
0.0
  0
LINE
  5
15DAA
  8
AM_0
 10
199.3074649588938
 20
721.35753524363543
 30
0.0
 11
198.3474449588939
 21
716.88753524363517
 31
0.0
  0
LINE
  5
15DAB
  8
AM_0
 10
196.90750495889381
 20
719.76752524363542
 30
0.0
 11
198.96756495889389
 21
719.76752524363542
 31
0.0
  0
LINE
  5
15DAC
  8
AM_0
 10
196.92752495889391
 20
721.78751524363543
 30
0.0
 11
198.5775449588939
 21
721.78751524363543
 31
0.0
  0
ARC
  5
15DAD
  8
AM_0
 10
201.22958495889389
 20
724.34300524363528
 30
0.0
 40
1.9945159999999991
 50
89.771334999999539
 51
166.8280399999995
  0
ARC
  5
15DAE
  8
AM_0
 10
201.20407495889401
 20
725.97069524363542
 30
0.0
 40
1.996815999999999
 50
89.901436000000672
 51
165.88941000000139
  0
ARC
  5
15DAF
  8
AM_0
 10
245.59750495889381
 20
693.16751524363542
 30
0.0
 40
3.0
 50
90.0
 51
180.0
  0
ARC
  5
15DB0
  8
AM_0
 10
245.59750495889381
 20
693.16751524363542
 30
0.0
 40
1.5
 50
90.0
 51
180.0
  0
LINE
  5
15DB1
  8
AM_0
 10
242.59756495889391
 20
690.66750524363545
 30
0.0
 11
209.64755495889389
 21
690.66750524363545
 31
0.0
  0
LINE
  5
15DB2
  8
AM_0
 10
242.59756495889391
 20
688.66751524363542
 30
0.0
 11
209.64755495889389
 21
688.66751524363542
 31
0.0
  0
LINE
  5
15DB3
  8
AM_0
 10
208.55752495889391
 20
691.1575252436354
 30
0.0
 11
242.59756495889391
 21
691.1575252436354
 31
0.0
  0
LINE
  5
15DB4
  8
AM_0
 10
208.55752495889391
 20
688.22751524363537
 30
0.0
 11
242.59756495889391
 21
688.22751524363537
 31
0.0
  0
ARC
  5
15DB5
  8
AM_0
 10
217.09274495889389
 20
669.66750524363545
 30
0.0
 40
1.0000119000000001
 50
89.726507999999697
 51
270.27347999999978
  0
ARC
  5
15DB6
  8
AM_0
 10
217.09274495889389
 20
659.66752524363517
 30
0.0
 40
1.0000119000000001
 50
89.726507999999697
 51
270.27347999999978
  0
ARC
  5
15DB7
  8
AM_0
 10
217.09274495889389
 20
679.66751524363542
 30
0.0
 40
1.0000119000000001
 50
89.726507999999697
 51
270.27347999999978
  0
ARC
  5
15DB8
  8
AM_0
 10
217.09274495889389
 20
689.66751524363542
 30
0.0
 40
1.0000119000000001
 50
89.726507999999697
 51
270.27347999999978
  0
ARC
  5
15DB9
  8
AM_0
 10
209.64279495889389
 20
689.66751524363542
 30
0.0
 40
1.0000119000000001
 50
89.728447999999375
 51
270.27153999999882
  0
ARC
  5
15DBA
  8
AM_0
 10
208.55752495889391
 20
689.69251524363517
 30
0.0
 40
1.465004
 50
90.00000299999769
 51
270.0
  0
LINE
  5
15DBB
  8
AM_0
 10
241.09750495889389
 20
671.66751524363542
 30
0.0
 11
241.09750495889389
 21
657.66751524363542
 31
0.0
  0
LINE
  5
15DBC
  8
AM_0
 10
244.09750495889389
 20
656.16751524363542
 30
0.0
 11
242.59750495889389
 21
656.16751524363542
 31
0.0
  0
LINE
  5
15DBD
  8
AM_0
 10
242.59750495889389
 20
657.16751524363542
 30
0.0
 11
241.59750495889389
 21
657.16751524363542
 31
0.0
  0
ARC
  5
15DBE
  8
AM_0
 10
241.59750495889381
 20
657.66751524363542
 30
0.0
 40
0.5
 50
180.0
 51
270.0
  0
LINE
  5
15DBF
  8
AM_0
 10
244.09750495889389
 20
673.16751524363542
 30
0.0
 11
242.59750495889389
 21
673.16751524363542
 31
0.0
  0
LINE
  5
15DC0
  8
AM_0
 10
242.59750495889389
 20
672.16751524363542
 30
0.0
 11
241.59750495889389
 21
672.16751524363542
 31
0.0
  0
ARC
  5
15DC1
  8
AM_0
 10
241.59750495889381
 20
671.66751524363542
 30
0.0
 40
0.5
 50
90.0
 51
180.0
  0
LINE
  5
15DC2
  8
AM_0
 10
240.09750495889389
 20
711.01752524363542
 30
0.0
 11
205.09750495889389
 21
708.98752524363545
 31
0.0
  0
ARC
  5
15DC3
  8
AM_0
 10
217.09274495889389
 20
699.66750524363545
 30
0.0
 40
1.0000119000000001
 50
89.726507999999697
 51
270.27347999999978
  0
ARC
  5
15DC4
  8
AM_0
 10
204.2558349588939
 20
706.26033524363538
 30
0.0
 40
5.0041121999999998
 50
279.68357000000032
 51
354.57834000000082
  0
LINE
  5
15DC5
  8
AM_0
 10
205.09756495889391
 20
713.0175252436353
 30
0.0
 11
205.09756495889391
 21
698.97751524363537
 31
0.0
  0
ARC
  5
15DC6
  8
AM_0
 10
208.7706649588938
 20
699.71249524363543
 30
0.0
 40
1.6750160000000001
 50
89.766540000000646
 51
270.23345999999941
  0
ARC
  5
15DC7
  8
AM_0
 10
209.64279495889389
 20
699.66750524363545
 30
0.0
 40
1.0000119000000001
 50
89.728447999999375
 51
270.27153999999882
  0
LINE
  5
15DC8
  8
AM_0
 10
216.09750495889389
 20
701.90750524363546
 30
0.0
 11
216.09750495889389
 21
701.83751524363538
 31
0.0
  0
ARC
  5
15DC9
  8
AM_0
 10
204.71829495889389
 20
702.33460524363545
 30
0.0
 40
6.004915699999998
 50
45.227306999996763
 51
86.379093999999796
  0
ARC
  5
15DCA
  8
AM_0
 10
208.24148495889389
 20
705.88780524363528
 30
0.0
 40
1.0011080999999991
 50
354.25025000000159
 51
45.146994000001939
  0
ARC
  5
15DCB
  8
AM_0
 10
218.09292495889389
 20
724.53215524363543
 30
0.0
 40
1.9953640999999991
 50
89.866758999999234
 51
180.13322999999789
  0
ARC
  5
15DCC
  8
AM_0
 10
218.09372495889389
 20
726.5613352436352
 30
0.0
 40
1.9961880000000001
 50
89.890486999999737
 51
180.10951000000031
  0
ARC
  5
15DCD
  8
AM_0
 10
218.09109495889399
 20
727.91397524363526
 30
0.0
 40
1.9935560999999999
 50
89.814515000000895
 51
180.1854899999997
  0
ARC
  5
15DCE
  8
AM_0
 10
218.0930549588939
 20
728.58878524363547
 30
0.0
 40
1.9987239999999999
 50
89.871136999999564
 51
165.55095999999929
  0
ARC
  5
15DCF
  8
AM_0
 10
214.594694958894
 20
724.44034524363542
 30
0.0
 40
1.5028360000000001
 50
270.10793999999891
 51
359.89206000000121
  0
LINE
  5
15DD0
  8
AM_0
 10
216.09750495889389
 20
726.55750524363543
 30
0.0
 11
216.09750495889389
 21
719.14752524363541
 31
0.0
  0
ARC
  5
15DD1
  8
AM_0
 10
214.59085495889391
 20
719.15421524363558
 30
0.0
 40
1.506699899999999
 50
270.25415999999768
 51
359.74583999999902
  0
ARC
  5
15DD2
  8
AM_0
 10
214.59268495889381
 20
727.84238524363525
 30
0.0
 40
1.5048719999999991
 50
270.18517999999801
 51
359.81481999999869
  0
ARC
  5
15DD3
  8
AM_0
 10
214.70413495889389
 20
729.47052524363539
 30
0.0
 40
1.5030159999999979
 50
270.12944999999991
 51
345.23654000000442
  0
LINE
  5
15DD4
  8
AM_0
 10
247.09750495889389
 20
694.66751524363542
 30
0.0
 11
247.09750495889389
 21
696.16751524363542
 31
0.0
  0
LINE
  5
15DD5
  8
AM_0
 10
248.09750495889389
 20
697.16751524363542
 30
0.0
 11
248.09750495889389
 21
696.16751524363542
 31
0.0
  0
ARC
  5
15DD6
  8
AM_0
 10
248.59750495889381
 20
697.16751524363542
 30
0.0
 40
0.5
 50
90.0
 51
180.0
  0
LINE
  5
15DD7
  8
ﾁｭｳｼﾝｾﾝ1
 10
291.09750495889392
 20
699.16751524363542
 30
0.0
 11
291.09750495889392
 21
630.16751524363542
 31
0.0
1001
GENIUS_GENODEF_13
1002
{
1000
HIER
1070
     0
1002
}
1002
{
1000
MANEDIT
1070
     0
1002
}
1002
{
1000
NOSEL
1070
     0
1002
}
1002
{
1000
BEHIND
1070
     0
1002
}
1002
{
1000
REACTOR
1002
}
1001
GENIUS_GENOBJ-N-CEN_13
1002
{
1000
OWNER
1000
GEN
1002
}
  0
LINE
  5
15DD8
  8
AM_0
 10
321.09750495889392
 20
693.16751524363542
 30
0.0
 11
321.09750495889392
 21
636.16751524363542
 31
0.0
  0
LINE
  5
15DD9
  8
AM_0
 10
322.59750495889392
 20
693.16751524363542
 30
0.0
 11
322.59750495889392
 21
636.16751524363542
 31
0.0
  0
LINE
  5
15DDA
  8
AM_0
 10
314.09750495889392
 20
649.39601524363525
 30
0.0
 11
314.09750495889392
 21
685.16751524363542
 31
0.0
  0
LINE
  5
15DDB
  8
AM_0
 10
268.09750495889392
 20
679.93911524363523
 30
0.0
 11
268.09750495889392
 21
644.16751524363531
 31
0.0
  0
LINE
  5
15DDC
  8
AM_0
 10
273.29350495889389
 20
649.36371524363517
 30
0.0
 11
273.29350495889389
 21
679.97141524363542
 31
0.0
  0
LINE
  5
15DDD
  8
AM_0
 10
308.9015049588939
 20
679.97141524363542
 30
0.0
 11
308.9015049588939
 21
649.36371524363517
 31
0.0
  0
LINE
  5
15DDE
  8
AM_0
 10
342.09751325426282
 20
727.66751958615725
 30
0.0
 11
342.09754497508658
 21
601.6675182678008
 31
0.0
  0
LINE
  5
15DDF
  8
AM_0
 10
331.86755495889389
 20
694.66751524363542
 30
0.0
 11
331.86755495889389
 21
634.66751524363542
 31
0.0
  0
CIRCLE
  5
15DE1
  8
AM_0
 10
314.09750495889381
 20
642.16751524363519
 30
0.0
 40
4.5000000000000018
  0
ARC
  5
15DE2
  8
AM_0
 10
314.09750495889381
 20
642.16751524363519
 30
0.0
 40
5.499999999999992
 50
105.4660099534203
 51
164.5339900465805
  0
LINE
  5
15DE3
  8
AM_0
 10
291.09750495889392
 20
627.94752324363537
 30
0.0
 11
338.91751495889378
 21
627.94752324363537
 31
0.0
  0
LINE
  5
15DE4
  8
AM_0
 10
335.4375049588939
 20
628.6675162436353
 30
0.0
 11
291.09750495889392
 21
628.6675162436353
 31
0.0
  0
LINE
  5
15DE5
  8
AM_0
 10
335.4375049588939
 20
630.66750924363544
 30
0.0
 11
291.09750495889392
 21
630.66750924363544
 31
0.0
  0
ARC
  5
15DE6
  8
AM_0
 10
271.0915249588939
 20
602.78354424363545
 30
0.0
 40
2.0060479999999981
 50
270.17248999999867
 51
359.82750999999797
  0
ARC
  5
15DE7
  8
AM_0
 10
271.09414495889388
 20
601.43087524363546
 30
0.0
 40
2.0033560000000001
 50
270.09594000000141
 51
359.90405999999848
  0
ARC
  5
15DE8
  8
AM_0
 10
271.0956149588938
 20
600.75940524363546
 30
0.0
 40
2.0019
 50
270.05438000000072
 51
359.9456199999961
  0
LINE
  5
15DE9
  8
AM_0
 10
273.09750495889392
 20
600.75750524363536
 30
0.0
 11
273.09750495889392
 21
602.80750824363543
 31
0.0
  0
LINE
  5
15DEA
  8
AM_0
 10
270.09750495889392
 20
642.16751524363519
 30
0.0
 11
306.86950495889403
 21
642.16751524363542
 31
0.0
  0
LINE
  5
15DEB
  8
AM_0
 10
306.9015049588939
 20
647.3637152436354
 30
0.0
 11
275.29350495889389
 21
647.3637152436354
 31
0.0
  0
ARC
  5
15DEC
  8
AM_0
 10
259.59750495889392
 20
632.79750624363544
 30
0.0
 40
1.5
 50
270.0
 51
311.12057029131103
1001
GENIUS_GENODEF_13
1002
{
1000
HIER
1070
     0
1002
}
1002
{
1000
MANEDIT
1070
     0
1002
}
1002
{
1000
NOSEL
1070
     0
1002
}
1002
{
1000
BEHIND
1070
     0
1002
}
1002
{
1000
REACTOR
1002
}
1001
GENIUS_GENOBJ-N-FIL_13
1002
{
1000
OWNER
1000
GEN
1002
}
  0
LINE
  5
15DED
  8
AM_0
 10
264.09750495889392
 20
634.66751524363542
 30
0.0
 11
264.09750495889392
 21
633.16751524363531
 31
0.0
  0
ARC
  5
15DEE
  8
AM_0
 10
262.59750495889398
 20
632.16751524363542
 30
0.0
 40
0.5
 50
270.0
 51
0.0
  0
LINE
  5
15DEF
  8
AM_0
 10
263.09750495889398
 20
633.16751524363531
 30
0.0
 11
263.09750495889398
 21
632.16751524363542
 31
0.0
  0
ARC
  5
15DF0
  8
AM_0
 10
270.09750495889381
 20
644.16751524363531
 30
0.0
 40
2.0
 50
180.0
 51
270.0
  0
ARC
  5
15DF1
  8
AM_0
 10
275.29350495889389
 20
649.36371524363517
 30
0.0
 40
2.0
 50
180.0
 51
270.0
  0
ARC
  5
15DF2
  8
AM_0
 10
306.8690888114935
 20
644.16751524363531
 30
0.0
 40
2.0
 50
270.0
 51
344.53399004658058
  0
ARC
  5
15DF3
  8
AM_0
 10
306.9015049588939
 20
649.36361524363519
 30
0.0
 40
2.0
 50
270.0
 51
0.0
  0
LINE
  5
15DF4
  8
AM_0
 10
336.8374949588939
 20
604.28751924363542
 30
0.0
 11
340.29751495889383
 21
617.20751724363515
 31
0.0
  0
LINE
  5
15DF5
  8
AM_0
 10
341.80752495889391
 20
613.63751024363523
 30
0.0
 11
339.39752495889388
 21
613.63751024363523
 31
0.0
  0
LINE
  5
15DF6
  8
AM_0
 10
338.89755495889392
 20
605.74751124363524
 30
0.0
 11
340.33755495889392
 21
612.44752324363537
 31
0.0
  0
LINE
  5
15DF7
  8
AM_0
 10
336.80755495889389
 20
604.1675242436354
 30
0.0
 11
342.09750495889392
 21
604.1675242436354
 31
0.0
  0
ARC
  5
15DF8
  8
AM_0
 10
334.90219495889392
 20
604.81290224363545
 30
0.0
 40
2.0053917999999991
 50
270.15274999999968
 51
344.81207000000018
  0
ARC
  5
15DF9
  8
AM_0
 10
336.93997495889391
 20
606.17012624363542
 30
0.0
 40
2.0026237999999998
 50
270.21534000000139
 51
347.8173399999996
  0
LINE
  5
15DFA
  8
AM_0
 10
343.09753495889379
 20
600.66753024363561
 30
0.0
 11
351.09756495889388
 21
600.66753024363561
 31
0.0
  0
ARC
  5
15DFB
  8
AM_0
 10
343.09772495889382
 20
601.66769824363564
 30
0.0
 40
1.0001799999999981
 50
180.01030999999901
 51
269.98967999999991
  0
LINE
  5
15DFC
  8
AM_0
 10
343.09753495889379
 20
612.62752324363544
 30
0.0
 11
351.09756495889388
 21
612.62752324363544
 31
0.0
  0
ARC
  5
15DFD
  8
AM_0
 10
343.09698495889393
 20
613.62698124363544
 30
0.0
 40
0.9994760199999999
 50
179.97009000000199
 51
270.02992000000029
  0
ARC
  5
15DFE
  8
AM_0
 10
341.80459495889392
 20
612.13819724363543
 30
0.0
 40
1.499328
 50
89.888151000000079
 51
168.09384000000071
  0
ARC
  5
15DFF
  8
AM_0
 10
338.91751495889378
 20
629.62252624363543
 30
0.0
 40
1.6750041
 50
270.0
 51
90.00000299999769
  0
LINE
  5
15E00
  8
AM_0
 10
322.19558117024718
 20
634.66751524363542
 30
0.0
 11
331.86755495889389
 21
634.66751524363542
 31
0.0
  0
LINE
  5
15E01
  8
AM_0
 10
322.36752495889391
 20
634.39751524363544
 30
0.0
 11
331.86749495889387
 21
634.66750524363545
 31
0.0
  0
LINE
  5
15E02
  8
AM_0
 10
338.91751495889378
 20
631.29750624363544
 30
0.0
 11
322.39752495889388
 21
631.29750624363544
 31
0.0
  0
ARC
  5
15E03
  8
AM_0
 10
322.39367495889388
 20
633.40168524363526
 30
0.0
 40
0.99615997
 50
153.11127999765489
 51
180.24054999999899
  0
ARC
  5
15E04
  8
AM_0
 10
319.59750495889381
 20
636.16751524363531
 30
0.0
 40
3.0
 50
270.0
 51
0.0
  0
ARC
  5
15E05
  8
AM_0
 10
319.59750495889381
 20
636.16751524363531
 30
0.0
 40
1.5
 50
270.0
 51
0.0
  0
ARC
  5
15E06
  8
AM_0
 10
322.39367495889388
 20
633.40168524363526
 30
0.0
 40
0.99615997
 50
91.504364999999893
 51
117.5137961292091
  0
ARC
  5
15E07
  8
AM_0
 10
322.39911495889379
 20
632.29911624363547
 30
0.0
 40
1.001595999999999
 50
180.09126000000001
 51
269.90875000000079
  0
LINE
  5
15E08
  8
AM_0
 10
321.39752495889388
 20
632.29751424363542
 30
0.0
 11
321.39752495889388
 21
633.39752024363543
 31
0.0
  0
ARC
  5
15E09
  8
AM_0
 10
335.4375049588939
 20
629.6675242436354
 30
0.0
 40
1.0
 50
270.0
 51
90.00000299999769
  0
LINE
  5
15E0A
  8
AM_0
 10
312.50750495889389
 20
640.57741524363541
 30
0.0
 11
315.6875049588939
 21
643.75741524363525
 31
0.0
  0
LINE
  5
15E0B
  8
AM_0
 10
312.54750495889402
 20
643.75751524363545
 30
0.0
 11
315.64750495889399
 21
640.57751524363539
 31
0.0
  0
ARC
  5
15E0C
  8
AM_0
 10
312.09750495889381
 20
649.39593139103579
 30
0.0
 40
2.0
 50
285.46600995342033
 51
0.0
  0
ARC
  5
15E0D
  8
AM_0
 10
341.742894958894
 20
616.82153124363538
 30
0.0
 40
1.495995999999999
 50
89.821706999999776
 51
165.0476599999985
  0
LINE
  5
15E0E
  8
AM_0
 10
342.09750495889392
 20
627.51752324363542
 30
0.0
 11
351.09756495889388
 21
627.51752324363542
 31
0.0
  0
ARC
  5
15E0F
  8
AM_0
 10
312.09750495889381
 20
685.16751524363531
 30
0.0
 40
2.0
 50
0.0
 51
90.0
  0
LINE
  5
15E10
  8
AM_0
 10
312.09750495889392
 20
687.16751524363531
 30
0.0
 11
275.32550495889387
 21
687.16751524363531
 31
0.0
  0
LINE
  5
15E11
  8
AM_0
 10
275.29350495889389
 20
681.97141524363542
 30
0.0
 11
306.9015049588939
 21
681.97141524363542
 31
0.0
  0
ARC
  5
15E12
  8
AM_0
 10
268.09750495889381
 20
687.16751524363531
 30
0.0
 40
5.499999999999992
 50
285.46600995342033
 51
344.53399004658058
  0
CIRCLE
  5
15E13
  8
AM_0
 10
268.09750495889381
 20
687.16751524363531
 30
0.0
 40
4.5000000000000018
  0
ARC
  5
15E14
  8
AM_0
 10
270.09750495889381
 20
679.93909909623494
 30
0.0
 40
2.0
 50
105.4660099534203
 51
180.0
  0
LINE
  5
15E15
  8
AM_0
 10
269.64750495889399
 20
685.57751524363516
 30
0.0
 11
266.54750495889402
 21
688.75751524363545
 31
0.0
  0
LINE
  5
15E16
  8
AM_0
 10
269.6875049588939
 20
688.75761524363543
 30
0.0
 11
266.50750495889389
 21
685.57761524363525
 31
0.0
  0
ARC
  5
15E17
  8
AM_0
 10
275.29350495889389
 20
679.97141524363542
 30
0.0
 40
2.0
 50
90.0
 51
180.0
  0
ARC
  5
15E18
  8
AM_0
 10
275.3259211062944
 20
685.16751524363542
 30
0.0
 40
2.0
 50
90.0
 51
164.5339900465805
  0
ARC
  5
15E19
  8
AM_0
 10
306.9015049588939
 20
679.97141524363531
 30
0.0
 40
2.0
 50
0.0
 51
90.0
  0
ARC
  5
15E1A
  8
AM_0
 10
259.59750495889392
 20
696.5375252436354
 30
0.0
 40
1.5
 50
48.879371627014372
 51
90.0
1001
GENIUS_GENODEF_13
1002
{
1000
HIER
1070
     0
1002
}
1002
{
1000
MANEDIT
1070
     0
1002
}
1002
{
1000
NOSEL
1070
     0
1002
}
1002
{
1000
BEHIND
1070
     0
1002
}
1002
{
1000
REACTOR
1002
}
1001
GENIUS_GENOBJ-N-FIL_13
1002
{
1000
OWNER
1000
GEN
1002
}
  0
LINE
  5
15E1B
  8
AM_0
 10
264.09750495889392
 20
694.66751524363542
 30
0.0
 11
264.09750495889392
 21
696.16751524363542
 31
0.0
  0
LINE
  5
15E1C
  8
AM_0
 10
263.09750495889392
 20
696.16751524363542
 30
0.0
 11
263.09750495889392
 21
697.16751524363542
 31
0.0
  0
ARC
  5
15E1D
  8
AM_0
 10
262.59750495889381
 20
697.16751524363542
 30
0.0
 40
0.5
 50
0.0
 51
90.0
  0
ARC
  5
15E1E
  8
AM_0
 10
271.09659495889389
 20
726.55658524363525
 30
0.0
 40
2.0009238999999992
 50
0.0264629989963175
 51
89.973536000002312
  0
ARC
  5
15E1F
  8
AM_0
 10
271.09921495889381
 20
727.90921524363534
 30
0.0
 40
1.9982919999999991
 50
359.95103000000051
 51
90.048974999998507
  0
ARC
  5
15E20
  8
AM_0
 10
271.09573495889379
 20
728.58569524363543
 30
0.0
 40
2.0018279999999988
 50
0.0523010000023255
 51
89.947697000000545
  0
LINE
  5
15E21
  8
AM_0
 10
273.09750495889392
 20
728.58749524363543
 30
0.0
 11
273.09750495889392
 21
726.52751524363543
 31
0.0
  0
ARC
  5
15E22
  8
AM_0
 10
319.59750495889381
 20
693.16751524363531
 30
0.0
 40
3.0
 50
0.0
 51
90.0
  0
ARC
  5
15E23
  8
AM_0
 10
319.59750495889381
 20
693.16751524363531
 30
0.0
 40
1.5
 50
0.0
 51
90.0
  0
ARC
  5
15E24
  8
AM_0
 10
338.91751495889378
 20
699.71249524363543
 30
0.0
 40
1.6750041
 50
270.0
 51
90.00000299999769
  0
LINE
  5
15E25
  8
AM_0
 10
336.8374949588939
 20
725.04752524363539
 30
0.0
 11
340.2974849588939
 21
712.12755524363524
 31
0.0
  0
LINE
  5
15E26
  8
AM_0
 10
336.80755495889389
 20
725.16750524363545
 30
0.0
 11
342.09750495889392
 21
725.16750524363545
 31
0.0
  0
LINE
  5
15E27
  8
AM_0
 10
341.80752495889391
 20
715.70752524363525
 30
0.0
 11
339.39752495889388
 21
715.70752524363525
 31
0.0
  0
LINE
  5
15E28
  8
AM_0
 10
338.89752495889388
 20
723.58756524363525
 30
0.0
 11
340.33752495889388
 21
716.88756524363544
 31
0.0
  0
LINE
  5
15E29
  8
AM_0
 10
322.19558117024712
 20
694.66751524363542
 30
0.0
 11
331.86755495889389
 21
694.66751524363542
 31
0.0
  0
LINE
  5
15E2A
  8
AM_0
 10
338.91751495889378
 20
698.0375252436354
 30
0.0
 11
322.39752495889388
 21
698.0375252436354
 31
0.0
  0
LINE
  5
15E2B
  8
AM_0
 10
322.36749495889387
 20
694.93752524363538
 30
0.0
 11
331.86746495889378
 21
694.66751524363542
 31
0.0
  0
ARC
  5
15E2C
  8
AM_0
 10
322.39874495889399
 20
695.93826524363544
 30
0.0
 40
1.001239999999999
 50
242.1435173777781
 51
268.2119599999989
  0
ARC
  5
15E2D
  8
AM_0
 10
322.39404495889391
 20
697.04102524363543
 30
0.0
 40
0.996512
 50
89.798963000000256
 51
180.20102999999889
  0
ARC
  5
15E2E
  8
AM_0
 10
322.39874495889399
 20
695.93826524363544
 30
0.0
 40
1.001239999999999
 50
180.0431299999982
 51
207.2294424152584
  0
LINE
  5
15E2F
  8
AM_0
 10
321.39752495889388
 20
697.0375152436352
 30
0.0
 11
321.39752495889388
 21
695.93750524363543
 31
0.0
  0
ARC
  5
15E30
  8
AM_0
 10
335.4375049588939
 20
699.66750524363545
 30
0.0
 40
1.0
 50
270.0
 51
90.00000299999769
  0
ARC
  5
15E31
  8
AM_0
 10
336.94497495889391
 20
723.17104524363515
 30
0.0
 40
1.996488
 50
12.04087499999966
 51
89.926440999999329
  0
ARC
  5
15E32
  8
AM_0
 10
334.90710495889391
 20
724.52853524363525
 30
0.0
 40
1.9989878999999999
 50
15.04780099999898
 51
89.987372999998755
  0
LINE
  5
15E33
  8
AM_0
 10
342.09750495889392
 20
701.8175152436354
 30
0.0
 11
351.09756495889388
 21
701.8175152436354
 31
0.0
  0
ARC
  5
15E34
  8
AM_0
 10
341.7477749588939
 20
712.51990524363543
 30
0.0
 40
1.502391899999999
 50
195.14001000000141
 51
269.99063999999993
  0
LINE
  5
15E35
  8
AM_0
 10
343.09753495889379
 20
716.70750524363541
 30
0.0
 11
351.09756495889388
 21
716.70750524363541
 31
0.0
  0
ARC
  5
15E36
  8
AM_0
 10
343.09192495889391
 20
715.71312524363543
 30
0.0
 40
0.9944000200000001
 50
89.676490999999999
 51
180.32350999999781
  0
ARC
  5
15E37
  8
AM_0
 10
341.80340495889391
 20
717.20798524363545
 30
0.0
 40
1.500475999999999
 50
192.3322299999987
 51
270.15827999999971
  0
LINE
  5
15E38
  8
AM_0
 10
343.09753495889379
 20
728.66751024363555
 30
0.0
 11
351.09756495889388
 21
728.66751024363555
 31
0.0
  0
ARC
  5
15E39
  8
AM_0
 10
343.09256495889377
 20
727.67247024363564
 30
0.0
 40
0.9950640200000001
 50
89.714938000000444
 51
180.285059999998
  0
LINE
  5
15E3A
  8
AM_0
 10
187.60366495889389
 20
649.44562524363505
 30
0.0
 11
187.60366495889389
 21
679.88925524363526
 31
0.0
  0
LINE
  5
15E3B
  8
AM_0
 10
187.60366495889389
 20
649.4456552436352
 30
0.0
 11
188.103664958894
 21
646.67566524363508
 31
0.0
  0
LINE
  5
15E3C
  8
AM_0
 10
188.103664958894
 20
646.67566524363508
 30
0.0
 11
188.60369495889381
 21
646.71567524363525
 31
0.0
  0
POINT
  5
15E3D
  8
AM_0
 10
187.603664958894
 20
664.66748524363516
 30
0.0
  0
LINE
  5
15E3E
  8
AM_0
 10
188.103664958894
 20
682.65927524363519
 30
0.0
 11
188.60366495889389
 21
682.61926524363514
 31
0.0
  0
LINE
  5
15E3F
  8
AM_0
 10
187.60366495889389
 20
679.88925524363526
 30
0.0
 11
188.103664958894
 21
682.65927524363519
 31
0.0
  0
LINE
  5
16045
  8
0
 10
747.942698924105
 20
361.20360373338133
 30
0.0
 11
775.94269684704557
 21
366.20360448593999
 31
0.0
  0
LINE
  5
16046
  8
0
 10
689.94269892410489
 20
325.2036037333811
 30
0.0
 11
747.942698924105
 21
325.2036037333811
 31
0.0
  0
LINE
  5
16047
  8
0
 10
689.94269892410489
 20
357.20360373338173
 30
0.0
 11
747.942698924105
 21
357.20360373338173
 31
0.0
  0
LINE
  5
16048
  8
0
 10
747.942698924105
 20
361.20360373338133
 30
0.0
 11
747.942698924105
 21
321.20360373338133
 31
0.0
  0
LINE
  5
16049
  8
0
 10
747.942698924105
 20
321.20360373338133
 30
0.0
 11
775.94269684704557
 21
316.2036029808238
 31
0.0
  0
LINE
  5
1604A
  8
0
 10
689.94269892410489
 20
360.2036037333811
 30
0.0
 11
734.94269892410512
 21
360.2036037333811
 31
0.0
  0
LINE
  5
1604B
  8
0
 10
734.94269892410512
 20
360.2036037333811
 30
0.0
 11
734.94269892410512
 21
357.20360373338173
 31
0.0
  0
LINE
  5
1604C
  8
AM_0
 10
689.94269892410489
 20
325.20360373338133
 30
0.0
 11
689.94269892410489
 21
360.20360373338133
 31
0.0
  0
LINE
  5
1604D
  8
0
 10
941.94269888826295
 20
361.20360373337701
 30
0.0
 11
913.94270096532273
 21
366.20360448593692
 31
0.0
  0
LINE
  5
1604E
  8
0
 10
999.94269888826159
 20
325.20360373337422
 30
0.0
 11
941.94269888826136
 21
325.20360373337672
 31
0.0
  0
LINE
  5
1604F
  8
0
 10
999.94269888826295
 20
357.20360373337462
 30
0.0
 11
941.94269888826295
 21
357.20360373337718
 31
0.0
  0
LINE
  5
16050
  8
0
 10
941.94269888826295
 20
361.20360373337701
 30
0.0
 11
941.94269888826125
 21
321.20360373337701
 31
0.0
  0
LINE
  5
16051
  8
0
 10
941.94269888826125
 20
321.20360373337701
 30
0.0
 11
913.94270096532034
 21
316.20360298082068
 31
0.0
  0
LINE
  5
16052
  8
0
 10
999.94269888826318
 20
360.20360373337411
 30
0.0
 11
954.94269888826329
 21
360.2036037333761
 31
0.0
  0
LINE
  5
16053
  8
0
 10
954.94269888826329
 20
360.2036037333761
 30
0.0
 11
954.94269888826273
 21
357.20360373337661
 31
0.0
  0
LINE
  5
16054
  8
AM_0
 10
999.94269888826159
 20
325.20360373337439
 30
0.0
 11
999.94269888826318
 21
360.20360373337428
 31
0.0
  0
POLYLINE
  5
16065
  8
AM_0
 10
533.10115279429783
 20
341.20360373338087
 30
0.0
 66
     1
 70
     8
  0
VERTEX
  8
AM_0
  5
16759
 10
533.101
 20
341.204
 30
0.000000
  70
    32
  0
VERTEX
  8
AM_0
  5
1675A
 10
533.071
 20
339.977
 30
0.000000
  70
    32
  0
VERTEX
  8
AM_0
  5
1675B
 10
532.981
 20
338.753
 30
0.000000
  70
    32
  0
VERTEX
  8
AM_0
  5
1675C
 10
532.831
 20
337.535
 30
0.000000
  70
    32
  0
VERTEX
  8
AM_0
  5
1675D
 10
532.621
 20
336.326
 30
0.000000
  70
    32
  0
VERTEX
  8
AM_0
  5
1675E
 10
532.352
 20
335.129
 30
0.000000
  70
    32
  0
VERTEX
  8
AM_0
  5
1675F
 10
532.025
 20
333.946
 30
0.000000
  70
    32
  0
VERTEX
  8
AM_0
  5
16760
 10
531.640
 20
332.781
 30
0.000000
  70
    32
  0
VERTEX
  8
AM_0
  5
16761
 10
531.198
 20
331.636
 30
0.000000
  70
    32
  0
VERTEX
  8
AM_0
  5
16762
 10
530.701
 20
330.515
 30
0.000000
  70
    32
  0
VERTEX
  8
AM_0
  5
16763
 10
530.149
 20
329.418
 30
0.000000
  70
    32
  0
VERTEX
  8
AM_0
  5
16764
 10
529.544
 20
328.351
 30
0.000000
  70
    32
  0
VERTEX
  8
AM_0
  5
16765
 10
528.888
 20
327.314
 30
0.000000
  70
    32
  0
VERTEX
  8
AM_0
  5
16766
 10
528.181
 20
326.311
 30
0.000000
  70
    32
  0
VERTEX
  8
AM_0
  5
16767
 10
527.426
 20
325.343
 30
0.000000
  70
    32
  0
VERTEX
  8
AM_0
  5
16768
 10
526.625
 20
324.414
 30
0.000000
  70
    32
  0
VERTEX
  8
AM_0
  5
16769
 10
525.779
 20
323.526
 30
0.000000
  70
    32
  0
VERTEX
  8
AM_0
  5
1676A
 10
524.890
 20
322.679
 30
0.000000
  70
    32
  0
VERTEX
  8
AM_0
  5
1676B
 10
523.961
 20
321.878
 30
0.000000
  70
    32
  0
VERTEX
  8
AM_0
  5
1676C
 10
522.994
 20
321.123
 30
0.000000
  70
    32
  0
VERTEX
  8
AM_0
  5
1676D
 10
521.990
 20
320.416
 30
0.000000
  70
    32
  0
VERTEX
  8
AM_0
  5
1676E
 10
520.954
 20
319.760
 30
0.000000
  70
    32
  0
VERTEX
  8
AM_0
  5
1676F
 10
519.886
 20
319.155
 30
0.000000
  70
    32
  0
VERTEX
  8
AM_0
  5
16770
 10
518.790
 20
318.603
 30
0.000000
  70
    32
  0
VERTEX
  8
AM_0
  5
16771
 10
517.668
 20
318.106
 30
0.000000
  70
    32
  0
VERTEX
  8
AM_0
  5
16772
 10
516.523
 20
317.665
 30
0.000000
  70
    32
  0
VERTEX
  8
AM_0
  5
16773
 10
515.358
 20
317.280
 30
0.000000
  70
    32
  0
VERTEX
  8
AM_0
  5
16774
 10
514.176
 20
316.952
 30
0.000000
  70
    32
  0
VERTEX
  8
AM_0
  5
16775
 10
512.978
 20
316.683
 30
0.000000
  70
    32
  0
VERTEX
  8
AM_0
  5
16776
 10
511.769
 20
316.474
 30
0.000000
  70
    32
  0
VERTEX
  8
AM_0
  5
16777
 10
510.552
 20
316.323
 30
0.000000
  70
    32
  0
VERTEX
  8
AM_0
  5
16778
 10
509.328
 20
316.233
 30
0.000000
  70
    32
  0
VERTEX
  8
AM_0
  5
16779
 10
508.101
 20
316.203
 30
0.000000
  70
    32
  0
VERTEX
  8
AM_0
  5
1677A
 10
506.874
 20
316.233
 30
0.000000
  70
    32
  0
VERTEX
  8
AM_0
  5
1677B
 10
505.651
 20
316.323
 30
0.000000
  70
    32
  0
VERTEX
  8
AM_0
  5
1677C
 10
504.433
 20
316.474
 30
0.000000
  70
    32
  0
VERTEX
  8
AM_0
  5
1677D
 10
503.224
 20
316.683
 30
0.000000
  70
    32
  0
VERTEX
  8
AM_0
  5
1677E
 10
502.027
 20
316.952
 30
0.000000
  70
    32
  0
VERTEX
  8
AM_0
  5
1677F
 10
500.844
 20
317.280
 30
0.000000
  70
    32
  0
VERTEX
  8
AM_0
  5
16780
 10
499.679
 20
317.665
 30
0.000000
  70
    32
  0
VERTEX
  8
AM_0
  5
16781
 10
498.534
 20
318.106
 30
0.000000
  70
    32
  0
VERTEX
  8
AM_0
  5
16782
 10
497.412
 20
318.603
 30
0.000000
  70
    32
  0
VERTEX
  8
AM_0
  5
16783
 10
496.316
 20
319.155
 30
0.000000
  70
    32
  0
VERTEX
  8
AM_0
  5
16784
 10
495.249
 20
319.760
 30
0.000000
  70
    32
  0
VERTEX
  8
AM_0
  5
16785
 10
494.212
 20
320.416
 30
0.000000
  70
    32
  0
VERTEX
  8
AM_0
  5
16786
 10
493.209
 20
321.123
 30
0.000000
  70
    32
  0
VERTEX
  8
AM_0
  5
16787
 10
492.241
 20
321.878
 30
0.000000
  70
    32
  0
VERTEX
  8
AM_0
  5
16788
 10
491.312
 20
322.679
 30
0.000000
  70
    32
  0
VERTEX
  8
AM_0
  5
16789
 10
490.423
 20
323.526
 30
0.000000
  70
    32
  0
VERTEX
  8
AM_0
  5
1678A
 10
489.577
 20
324.414
 30
0.000000
  70
    32
  0
VERTEX
  8
AM_0
  5
1678B
 10
488.776
 20
325.343
 30
0.000000
  70
    32
  0
VERTEX
  8
AM_0
  5
1678C
 10
488.021
 20
326.311
 30
0.000000
  70
    32
  0
VERTEX
  8
AM_0
  5
1678D
 10
487.314
 20
327.314
 30
0.000000
  70
    32
  0
VERTEX
  8
AM_0
  5
1678E
 10
486.658
 20
328.351
 30
0.000000
  70
    32
  0
VERTEX
  8
AM_0
  5
1678F
 10
486.053
 20
329.418
 30
0.000000
  70
    32
  0
VERTEX
  8
AM_0
  5
16790
 10
485.501
 20
330.515
 30
0.000000
  70
    32
  0
VERTEX
  8
AM_0
  5
16791
 10
485.004
 20
331.636
 30
0.000000
  70
    32
  0
VERTEX
  8
AM_0
  5
16792
 10
484.563
 20
332.781
 30
0.000000
  70
    32
  0
VERTEX
  8
AM_0
  5
16793
 10
484.178
 20
333.946
 30
0.000000
  70
    32
  0
VERTEX
  8
AM_0
  5
16794
 10
483.850
 20
335.129
 30
0.000000
  70
    32
  0
VERTEX
  8
AM_0
  5
16795
 10
483.582
 20
336.326
 30
0.000000
  70
    32
  0
VERTEX
  8
AM_0
  5
16796
 10
483.372
 20
337.535
 30
0.000000
  70
    32
  0
VERTEX
  8
AM_0
  5
16797
 10
483.222
 20
338.753
 30
0.000000
  70
    32
  0
VERTEX
  8
AM_0
  5
16798
 10
483.131
 20
339.977
 30
0.000000
  70
    32
  0
VERTEX
  8
AM_0
  5
16799
 10
483.101
 20
341.204
 30
0.000000
  70
    32
  0
VERTEX
  8
AM_0
  5
1679A
 10
483.131
 20
342.430
 30
0.000000
  70
    32
  0
VERTEX
  8
AM_0
  5
1679B
 10
483.222
 20
343.654
 30
0.000000
  70
    32
  0
VERTEX
  8
AM_0
  5
1679C
 10
483.372
 20
344.872
 30
0.000000
  70
    32
  0
VERTEX
  8
AM_0
  5
1679D
 10
483.582
 20
346.081
 30
0.000000
  70
    32
  0
VERTEX
  8
AM_0
  5
1679E
 10
483.850
 20
347.278
 30
0.000000
  70
    32
  0
VERTEX
  8
AM_0
  5
1679F
 10
484.178
 20
348.461
 30
0.000000
  70
    32
  0
VERTEX
  8
AM_0
  5
167A0
 10
484.563
 20
349.626
 30
0.000000
  70
    32
  0
VERTEX
  8
AM_0
  5
167A1
 10
485.004
 20
350.771
 30
0.000000
  70
    32
  0
VERTEX
  8
AM_0
  5
167A2
 10
485.501
 20
351.893
 30
0.000000
  70
    32
  0
VERTEX
  8
AM_0
  5
167A3
 10
486.053
 20
352.989
 30
0.000000
  70
    32
  0
VERTEX
  8
AM_0
  5
167A4
 10
486.658
 20
354.056
 30
0.000000
  70
    32
  0
VERTEX
  8
AM_0
  5
167A5
 10
487.314
 20
355.093
 30
0.000000
  70
    32
  0
VERTEX
  8
AM_0
  5
167A6
 10
488.021
 20
356.096
 30
0.000000
  70
    32
  0
VERTEX
  8
AM_0
  5
167A7
 10
488.776
 20
357.064
 30
0.000000
  70
    32
  0
VERTEX
  8
AM_0
  5
167A8
 10
489.577
 20
357.993
 30
0.000000
  70
    32
  0
VERTEX
  8
AM_0
  5
167A9
 10
490.423
 20
358.882
 30
0.000000
  70
    32
  0
VERTEX
  8
AM_0
  5
167AA
 10
491.312
 20
359.728
 30
0.000000
  70
    32
  0
VERTEX
  8
AM_0
  5
167AB
 10
492.241
 20
360.529
 30
0.000000
  70
    32
  0
VERTEX
  8
AM_0
  5
167AC
 10
493.209
 20
361.284
 30
0.000000
  70
    32
  0
VERTEX
  8
AM_0
  5
167AD
 10
494.212
 20
361.991
 30
0.000000
  70
    32
  0
VERTEX
  8
AM_0
  5
167AE
 10
495.249
 20
362.647
 30
0.000000
  70
    32
  0
VERTEX
  8
AM_0
  5
167AF
 10
496.316
 20
363.252
 30
0.000000
  70
    32
  0
VERTEX
  8
AM_0
  5
167B0
 10
497.412
 20
363.804
 30
0.000000
  70
    32
  0
VERTEX
  8
AM_0
  5
167B1
 10
498.534
 20
364.301
 30
0.000000
  70
    32
  0
VERTEX
  8
AM_0
  5
167B2
 10
499.679
 20
364.743
 30
0.000000
  70
    32
  0
VERTEX
  8
AM_0
  5
167B3
 10
500.844
 20
365.128
 30
0.000000
  70
    32
  0
VERTEX
  8
AM_0
  5
167B4
 10
502.027
 20
365.455
 30
0.000000
  70
    32
  0
VERTEX
  8
AM_0
  5
167B5
 10
503.224
 20
365.724
 30
0.000000
  70
    32
  0
VERTEX
  8
AM_0
  5
167B6
 10
504.433
 20
365.934
 30
0.000000
  70
    32
  0
VERTEX
  8
AM_0
  5
167B7
 10
505.651
 20
366.084
 30
0.000000
  70
    32
  0
VERTEX
  8
AM_0
  5
167B8
 10
506.874
 20
366.174
 30
0.000000
  70
    32
  0
VERTEX
  8
AM_0
  5
167B9
 10
508.101
 20
366.204
 30
0.000000
  70
    32
  0
VERTEX
  8
AM_0
  5
167BA
 10
509.328
 20
366.174
 30
0.000000
  70
    32
  0
VERTEX
  8
AM_0
  5
167BB
 10
510.552
 20
366.084
 30
0.000000
  70
    32
  0
VERTEX
  8
AM_0
  5
167BC
 10
511.769
 20
365.934
 30
0.000000
  70
    32
  0
VERTEX
  8
AM_0
  5
167BD
 10
512.978
 20
365.724
 30
0.000000
  70
    32
  0
VERTEX
  8
AM_0
  5
167BE
 10
514.176
 20
365.455
 30
0.000000
  70
    32
  0
VERTEX
  8
AM_0
  5
167BF
 10
515.358
 20
365.128
 30
0.000000
  70
    32
  0
VERTEX
  8
AM_0
  5
167C0
 10
516.523
 20
364.743
 30
0.000000
  70
    32
  0
VERTEX
  8
AM_0
  5
167C1
 10
517.668
 20
364.301
 30
0.000000
  70
    32
  0
VERTEX
  8
AM_0
  5
167C2
 10
518.790
 20
363.804
 30
0.000000
  70
    32
  0
VERTEX
  8
AM_0
  5
167C3
 10
519.886
 20
363.252
 30
0.000000
  70
    32
  0
VERTEX
  8
AM_0
  5
167C4
 10
520.954
 20
362.647
 30
0.000000
  70
    32
  0
VERTEX
  8
AM_0
  5
167C5
 10
521.990
 20
361.991
 30
0.000000
  70
    32
  0
VERTEX
  8
AM_0
  5
167C6
 10
522.994
 20
361.284
 30
0.000000
  70
    32
  0
VERTEX
  8
AM_0
  5
167C7
 10
523.961
 20
360.529
 30
0.000000
  70
    32
  0
VERTEX
  8
AM_0
  5
167C8
 10
524.890
 20
359.728
 30
0.000000
  70
    32
  0
VERTEX
  8
AM_0
  5
167C9
 10
525.779
 20
358.882
 30
0.000000
  70
    32
  0
VERTEX
  8
AM_0
  5
167CA
 10
526.625
 20
357.993
 30
0.000000
  70
    32
  0
VERTEX
  8
AM_0
  5
167CB
 10
527.426
 20
357.064
 30
0.000000
  70
    32
  0
VERTEX
  8
AM_0
  5
167CC
 10
528.181
 20
356.096
 30
0.000000
  70
    32
  0
VERTEX
  8
AM_0
  5
167CD
 10
528.888
 20
355.093
 30
0.000000
  70
    32
  0
VERTEX
  8
AM_0
  5
167CE
 10
529.544
 20
354.056
 30
0.000000
  70
    32
  0
VERTEX
  8
AM_0
  5
167CF
 10
530.149
 20
352.989
 30
0.000000
  70
    32
  0
VERTEX
  8
AM_0
  5
167D0
 10
530.701
 20
351.893
 30
0.000000
  70
    32
  0
VERTEX
  8
AM_0
  5
167D1
 10
531.198
 20
350.771
 30
0.000000
  70
    32
  0
VERTEX
  8
AM_0
  5
167D2
 10
531.640
 20
349.626
 30
0.000000
  70
    32
  0
VERTEX
  8
AM_0
  5
167D3
 10
532.025
 20
348.461
 30
0.000000
  70
    32
  0
VERTEX
  8
AM_0
  5
167D4
 10
532.352
 20
347.278
 30
0.000000
  70
    32
  0
VERTEX
  8
AM_0
  5
167D5
 10
532.621
 20
346.081
 30
0.000000
  70
    32
  0
VERTEX
  8
AM_0
  5
167D6
 10
532.831
 20
344.872
 30
0.000000
  70
    32
  0
VERTEX
  8
AM_0
  5
167D7
 10
532.981
 20
343.654
 30
0.000000
  70
    32
  0
VERTEX
  8
AM_0
  5
167D8
 10
533.071
 20
342.430
 30
0.000000
  70
    32
  0
VERTEX
  8
AM_0
  5
167D9
 10
533.101
 20
341.204
 30
0.000000
  70
    32
  0
SEQEND
  8
AM_0
  5
167DA
  0
CIRCLE
  5
16066
  8
ｽﾝﾎﾟｳｾﾝ
 10
508.10115204873938
 20
341.20360373338121
 30
0.0
 40
4.0
  0
ARC
  5
16067
  8
AM_0
 10
508.10115204873938
 20
341.2036037333807
 30
0.0
 40
16.0
 50
108.2099568642828
 51
71.790043135717227
  0
LINE
  5
16068
  8
AM_0
 10
513.10115204873944
 20
360.2036037333807
 30
0.0
 11
513.10115204873944
 21
352.2036037333807
 31
0.0
  0
LINE
  5
16069
  8
AM_0
 10
503.10115204873938
 20
352.2036037333807
 30
0.0
 11
503.10115204873938
 21
360.2036037333807
 31
0.0
  0
LINE
  5
1606A
  8
AM_0
 10
513.10115204873944
 20
352.2036037333807
 30
0.0
 11
503.10115204873938
 21
352.2036037333807
 31
0.0
  0
LINE
  5
1606B
  8
AM_0
 10
503.10115204873938
 20
360.2036037333807
 30
0.0
 11
513.10115204873944
 21
360.2036037333807
 31
0.0
  0
CIRCLE
  5
1606C
  8
AM_0
 10
508.10115204873938
 20
341.20360373338121
 30
0.0
 40
3.399999999999999
  0
LINE
  5
1608E
  8
0
 10
528.10115204873955
 20
567.66753774363542
 30
0.0
 11
533.10115280129833
 21
595.66753566657576
 31
0.0
  0
LINE
  5
1608F
  8
0
 10
488.10115204873972
 20
567.66753774363542
 30
0.0
 11
483.10115129618231
 21
595.66753566657576
 31
0.0
  0
LINE
  5
16090
  8
0
 10
524.10115204874012
 20
509.66753774363542
 30
0.0
 11
524.10115204874012
 21
567.66753774363542
 31
0.0
  0
LINE
  5
16091
  8
0
 10
492.10115204873961
 20
509.66753774363542
 30
0.0
 11
492.10115204873961
 21
567.66753774363542
 31
0.0
  0
LINE
  5
16092
  8
AM_0
 10
492.10115204873961
 20
509.66753774363542
 30
0.0
 11
524.10115204874012
 21
509.66753774363542
 31
0.0
  0
LINE
  5
16093
  8
0
 10
528.10115204873955
 20
567.66753774363542
 30
0.0
 11
488.10115204873972
 21
567.66753774363542
 31
0.0
  0
LINE
  5
16094
  8
0
 10
513.10115204873966
 20
554.66753774363542
 30
0.0
 11
503.10115204873949
 21
554.66753774363542
 31
0.0
  0
LINE
  5
16095
  8
AM_0
 10
513.10115204873966
 20
509.66753774363542
 30
0.0
 11
513.10115204873966
 21
554.66753774363542
 31
0.0
  0
LINE
  5
16096
  8
AM_0
 10
503.10115204873949
 20
509.66753774363542
 30
0.0
 11
503.10115204873949
 21
554.66753774363542
 31
0.0
  0
ARC
  5
16097
  8
AM_0
 10
508.10115204873961
 20
554.66753774363542
 30
0.0
 40
4.9999999999999432
 50
0.0
 51
180.0
  0
LINE
  5
16098
  8
AM_0
 10
524.10115204874012
 20
557.16753598411924
 30
0.0
 11
573.09832651715226
 21
557.16753598411924
 31
0.0
  0
LINE
  5
1609A
  8
0
 10
528.10115204873955
 20
761.66753774363622
 30
0.0
 11
533.10115280129833
 21
733.66753982069554
 31
0.0
  0
LINE
  5
1609B
  8
0
 10
488.10115204873972
 20
761.66753774363622
 30
0.0
 11
483.10115129618231
 21
733.66753982069554
 31
0.0
  0
LINE
  5
1609C
  8
0
 10
524.10115204874012
 20
819.66753774363599
 30
0.0
 11
524.10115204874012
 21
761.66753774363622
 31
0.0
  0
LINE
  5
1609D
  8
0
 10
492.10115204873961
 20
819.66753774363599
 30
0.0
 11
492.10115204873961
 21
761.66753774363622
 31
0.0
  0
LINE
  5
1609E
  8
AM_0
 10
492.10115204873961
 20
819.66753774363599
 30
0.0
 11
524.10115204874012
 21
819.66753774363599
 31
0.0
  0
LINE
  5
1609F
  8
0
 10
528.10115204873955
 20
761.66753774363622
 30
0.0
 11
488.10115204873972
 21
761.66753774363622
 31
0.0
  0
LINE
  5
160A0
  8
0
 10
513.10115204873966
 20
774.6675377436361
 30
0.0
 11
503.10115204873949
 21
774.6675377436361
 31
0.0
  0
LINE
  5
160A1
  8
AM_0
 10
513.10115204873966
 20
819.66753774363599
 30
0.0
 11
513.10115204873966
 21
774.6675377436361
 31
0.0
  0
LINE
  5
160A2
  8
AM_0
 10
503.10115204873949
 20
819.66753774363599
 30
0.0
 11
503.10115204873949
 21
774.6675377436361
 31
0.0
  0
ARC
  5
160A3
  8
AM_0
 10
508.10115204873961
 20
774.6675377436361
 30
0.0
 40
4.9999999999999432
 50
180.0
 51
0.0
  0
LINE
  5
160A4
  8
AM_0
 10
524.10115204874012
 20
772.16753950315228
 30
0.0
 11
573.09832651715226
 21
772.16753950315228
 31
0.0
  0
TEXT
  5
161D0
  8
AM_0
 10
706.09836397913932
 20
665.32884268414887
 30
0.0
 40
15.0
  1
VC04-080KMT~VC04-240KMT
1001
ACAD
1000
MTEXTBEGIN
1070
    73
1070
     1
1070
    44
1040
1.0
1070
    74
1070
     0
1000
MTEXTEND
  0
VIEWPORT
  5
89
 67
     1
  8
0
 10
210.0
 20
148.5
 30
0.0
 40
420.0
 41
297.0
 68
     1
 69
     1
1001
ACAD
1000
MVIEW
1002
{
1070
    16
1010
0.0
1020
0.0
1030
0.0
1010
0.0
1020
0.0
1030
1.0
1040
0.0
1040
297.0
1040
221.70154043645701
1040
148.5
1040
50.0
1040
0.0
1040
0.0
1070
     0
1070
   100
1070
     1
1070
     1
1070
     0
1070
     0
1070
     0
1070
     0
1040
0.0
1040
0.0
1040
0.0
1040
10.0
1040
10.0
1040
10.0
1040
10.0
1070
     0
1002
{
1002
}
1002
}
1001
GENIUS_GENOREF_13
1005
1B94
1001
GENIUS_GENSCREG_15
1000
PF
1040
1.0
1000
DF
1040
1.0
1000
MIN
1011
0.0
1021
0.0
1031
0.0
1021
0.0
1031
0.0
1000
MAX
1011
420.0
1021
0.0
1031
0.0
1021
297.0
1031
0.0
1000
FLAGS
1070
     4
  0
ENDSEC
  0
EOF
