  0
SECTION
  2
HEADER
  9
$ACADVER
  1
AC1009
  9
$INSBASE
 10
0.0
 20
0.0
 30
0.0
  9
$EXTMIN
 10
48.06494411181756
 20
208.7498699429793
 30
-0.0015258207003583
  9
$EXTMAX
 10
1036.1051050700539
 20
877.75748234552407
 30
0.0000000349246037
  9
$LIMMIN
 10
0.0
 20
0.0
  9
$LIMMAX
 10
1138.0
 20
740.00000000000011
  9
$ORTHOMODE
 70
     0
  9
$REGENMODE
 70
     1
  9
$FILLMODE
 70
     1
  9
$QTEXTMODE
 70
     0
  9
$MIRRTEXT
 70
     1
  9
$DRAGMODE
 70
     2
  9
$LTSCALE
 40
4.0
  9
$OSMODE
 70
   551
  9
$ATTMODE
 70
     1
  9
$TEXTSIZE
 40
2.5
  9
$TRACEWID
 40
1.0
  9
$TEXTSTYLE
  7
STANDARD
  9
$CLAYER
  8
AM_0
  9
$CELTYPE
  6
BYLAYER
  9
$CECOLOR
 62
   256
  9
$DIMSCALE
 40
4.0
  9
$DIMASZ
 40
2.5
  9
$DIMEXO
 40
1.0
  9
$DIMDLI
 40
7.0
  9
$DIMRND
 40
0.0
  9
$DIMDLE
 40
0.0
  9
$DIMEXE
 40
1.0
  9
$DIMTP
 40
0.1
  9
$DIMTM
 40
0.1000000001
  9
$DIMTXT
 40
2.5
  9
$DIMCEN
 40
0.0
  9
$DIMTSZ
 40
0.0
  9
$DIMTOL
 70
     0
  9
$DIMLIM
 70
     0
  9
$DIMTIH
 70
     0
  9
$DIMTOH
 70
     0
  9
$DIMSE1
 70
     0
  9
$DIMSE2
 70
     0
  9
$DIMTAD
 70
     3
  9
$DIMZIN
 70
     8
  9
$DIMBLK
  1

  9
$DIMASO
 70
     1
  9
$DIMSHO
 70
     1
  9
$DIMPOST
  1

  9
$DIMAPOST
  1
"
  9
$DIMALT
 70
     0
  9
$DIMALTD
 70
     2
  9
$DIMALTF
 40
0.0393701
  9
$DIMLFAC
 40
1.0
  9
$DIMTOFL
 70
     1
  9
$DIMTVP
 40
0.0
  9
$DIMTIX
 70
     0
  9
$DIMSOXD
 70
     0
  9
$DIMSAH
 70
     0
  9
$DIMBLK1
  1

  9
$DIMBLK2
  1

  9
$DIMSTYLE
  2
AM_JIS
  9
$DIMCLRD
 70
   256
  9
$DIMCLRE
 70
   256
  9
$DIMCLRT
 70
     4
  9
$DIMTFAC
 40
0.71
  9
$DIMGAP
 40
1.0
  9
$LUNITS
 70
     2
  9
$LUPREC
 70
     2
  9
$SKETCHINC
 40
1.0
  9
$FILLETRAD
 40
10.0
  9
$AUNITS
 70
     0
  9
$AUPREC
 70
     3
  9
$MENU
  1
.
  9
$ELEVATION
 40
0.0
  9
$PELEVATION
 40
0.0
  9
$THICKNESS
 40
0.0
  9
$LIMCHECK
 70
     0
  9
$BLIPMODE
 70
     0
  9
$CHAMFERA
 40
10.0
  9
$CHAMFERB
 40
10.0
  9
$SKPOLY
 70
     0
  9
$TDCREATE
 40
2452753.643349607
  9
$TDUPDATE
 40
2458543.4807896418
  9
$TDINDWG
 40
0.7658680556
  9
$TDUSRTIMER
 40
0.7658676852
  9
$USRTIMER
 70
     1
  9
$ANGBASE
 50
0.0
  9
$ANGDIR
 70
     0
  9
$PDMODE
 70
     0
  9
$PDSIZE
 40
0.0
  9
$PLINEWID
 40
0.0
  9
$COORDS
 70
     1
  9
$SPLFRAME
 70
     0
  9
$SPLINETYPE
 70
     6
  9
$SPLINESEGS
 70
     8
  9
$ATTDIA
 70
     1
  9
$ATTREQ
 70
     1
  9
$HANDLING
 70
     1
  9
$HANDSEED
  5
1C935
  9
$SURFTAB1
 70
     6
  9
$SURFTAB2
 70
     6
  9
$SURFTYPE
 70
     6
  9
$SURFU
 70
     6
  9
$SURFV
 70
     6
  9
$UCSNAME
  2

  9
$UCSORG
 10
0.0
 20
0.0
 30
0.0
  9
$UCSXDIR
 10
1.0
 20
0.0
 30
0.0
  9
$UCSYDIR
 10
0.0
 20
1.0
 30
0.0
  9
$PUCSNAME
  2

  9
$PUCSORG
 10
0.0
 20
0.0
 30
0.0
  9
$PUCSXDIR
 10
1.0
 20
0.0
 30
0.0
  9
$PUCSYDIR
 10
0.0
 20
1.0
 30
0.0
  9
$USERI1
 70
     0
  9
$USERI2
 70
     0
  9
$USERI3
 70
     0
  9
$USERI4
 70
     0
  9
$USERI5
 70
     0
  9
$USERR1
 40
0.0
  9
$USERR2
 40
0.0
  9
$USERR3
 40
0.0
  9
$USERR4
 40
0.0
  9
$USERR5
 40
0.0
  9
$WORLDVIEW
 70
     1
  9
$SHADEDGE
 70
     3
  9
$SHADEDIF
 70
    70
  9
$TILEMODE
 70
     1
  9
$MAXACTVP
 70
    48
  9
$PLIMCHECK
 70
     0
  9
$PEXTMIN
 10
1.0000000000000000E+020
 20
1.0000000000000000E+020
 30
1.0000000000000000E+020
  9
$PEXTMAX
 10
-1.0000000000000000E+020
 20
-1.0000000000000000E+020
 30
-1.0000000000000000E+020
  9
$PLIMMIN
 10
0.0
 20
0.0
  9
$PLIMMAX
 10
420.0
 20
297.0
  9
$UNITMODE
 70
     0
  9
$VISRETAIN
 70
     1
  9
$PLINEGEN
 70
     0
  9
$PSLTSCALE
 70
     1
  0
ENDSEC
  0
SECTION
  2
TABLES
  0
TABLE
  2
VPORT
 70
     1
  0
VPORT
  2
*ACTIVE
 70
     0
 10
0.0
 20
0.0
 11
1.0
 21
1.0
 12
542.08502459093575
 22
543.25367614425159
 13
0.0
 23
0.0
 14
10.0
 24
10.0
 15
40.0
 25
40.0
 16
0.0
 26
0.0
 36
1.0
 17
0.0
 27
0.0
 37
0.0
 40
673.60034200713881
 41
1.757159221076747
 42
50.0
 43
0.0
 44
0.0
 50
0.0
 51
0.0
 71
     0
 72
   100
 73
     1
 74
     1
 75
     0
 76
     0
 77
     0
 78
     0
  0
ENDTAB
  0
TABLE
  2
LTYPE
 70
    18
  0
LTYPE
  2
CONTINUOUS
 70
     0
  3
Solid line
 72
    65
 73
     0
 40
0.0
  0
LTYPE
  2
PHANTOM2
 70
     0
  3
Phantom (.5x) ___ _ _ ___ _ _ ___ _ _ ___ _ _
 72
    65
 73
     6
 40
31.75
 49
15.875
 49
-3.174999999999998
 49
3.174999999999998
 49
-3.174999999999998
 49
3.174999999999998
 49
-3.174999999999998
  0
LTYPE
  2
CENTER
 70
     0
  3
Center ____ _ ____ _ ____ _ ____ _ ____ _ ____
 72
    65
 73
     4
 40
50.799999999999997
 49
31.75
 49
-6.349999999999997
 49
6.349999999999997
 49
-6.349999999999997
  0
LTYPE
  2
GEN3B
 70
     0
  3
 - - - - -
 72
    65
 73
     2
 40
1.0
 49
0.5
 49
-0.5
  0
LTYPE
  2
GEN7A
 70
     0
  3
__ . __ . __
 72
    65
 73
     4
 40
7.375
 49
4.75
 49
-0.875
 49
0.875
 49
-0.875
  0
LTYPE
  2
AM_ISO02W050
 70
     0
  3
__ __ __ __ __ __ __ __ __ __ __ __ __ __ __
 72
    65
 73
     2
 40
7.5
 49
6.0
 49
-1.5
  0
LTYPE
  2
AM_ISO08W050
 70
     0
  3
____ . ____ . ____ . ____ . ____ . ____ . ____
 72
    65
 73
     4
 40
18.0
 49
12.0
 49
-1.5
 49
3.0
 49
-1.5
  0
LTYPE
  2
AM_ISO09W050
 70
     0
  3
_____ . . _____ . . _____ . . ____ .. ____
 72
    65
 73
     6
 40
22.5
 49
12.0
 49
-1.5
 49
3.0
 49
-1.5
 49
3.0
 49
-1.5
  0
LTYPE
  2
AMCONSTR
 70
     0
  3
_______________________
 72
    65
 73
     2
 40
9999.0
 49
9999.0
 49
0.0
  0
LTYPE
  2
AM_ISO02W050X2
 70
     0
  3
 _ _ _ _ _ _ _ _ _ _ _ _
 72
    65
 73
     2
 40
3.75
 49
3.0
 49
-0.75
  0
LTYPE
  2
AM_ISO08W050X2
 70
     0
  3
__ . __ . __ . __ . __ . __
 72
    65
 73
     4
 40
9.0
 49
6.0
 49
-0.75
 49
1.5
 49
-0.75
  0
LTYPE
  2
AMZIGZAG
 70
     0
  3
/\/-/\/-/\/-/\/-/\/-/\/
 72
    65
 73
     2
 40
11.0001
 49
0.0001
 49
-11.0
  0
LTYPE
  2
ACISOWELD
 70
     0
  3
_ _ _ _ _
 72
    65
 73
     2
 40
2.0
 49
2.0
 49
-1.0
  0
LTYPE
  2
ACISOTGB
 70
     0
  3
__ . . __ . .
 72
    65
 73
     6
 40
9.0
 49
4.0
 49
-1.0
 49
1.0
 49
-1.0
 49
1.0
 49
-1.0
  0
LTYPE
  2
ACISOTGL
 70
     0
  3
_ _ _ _ _
 72
    65
 73
     2
 40
3.0
 49
2.0
 49
-1.0
  0
LTYPE
  2
GEN7
 70
     0
  3
____ . ____ . ____ . ____ . ____ . ____ . ____
 72
    65
 73
     4
 40
14.25
 49
9.75
 49
-1.5
 49
1.5
 49
-1.5
  0
LTYPE
  2
HIDDEN
 70
     0
  3
Hidden __ __ __ __ __ __ __ __ __ __ __ __ __ _
 72
    65
 73
     2
 40
9.5249999999999968
 49
6.349999999999997
 49
-3.174999999999998
  0
ENDTAB
  0
TABLE
  2
LAYER
 70
    11
  0
LAYER
  2
0
 70
     0
 62
     7
  6
CONTINUOUS
  0
LAYER
  2
DEFPOINTS
 70
     0
 62
     7
  6
CONTINUOUS
  0
LAYER
  2
ｶｸﾚｾﾝ2
 70
     0
 62
     3
  6
GEN3B
  0
LAYER
  2
ﾁｭｳｼﾝｾﾝ1
 70
     0
 62
     1
  6
GEN7A
  0
LAYER
  2
AM_0
 70
     0
 62
     7
  6
CONTINUOUS
  0
LAYER
  2
AM_0N
 70
     0
 62
     7
  6
CONTINUOUS
  0
LAYER
  2
AM_5
 70
     0
 62
     2
  6
CONTINUOUS
  0
LAYER
  2
AM_4N
 70
     0
 62
     2
  6
CONTINUOUS
  0
LAYER
  2
AM_12N
 70
     0
 62
     7
  6
CONTINUOUS
  0
LAYER
  2
ﾁｭｳｼﾝｾﾝ
 70
     0
 62
     1
  6
GEN7
  0
LAYER
  2
ｽﾝﾎﾟｳｾﾝ
 70
     0
 62
     2
  6
CONTINUOUS
  0
ENDTAB
  0
TABLE
  2
STYLE
 70
     4
  0
STYLE
  2
STANDARD
 70
     0
 40
0.0
 41
0.8299999999999999
 50
0.0
 71
     0
 42
2.5
  3
txt.shx
  4
bigfont.shx
  0
STYLE
  2

 70
     1
 40
0.0
 41
1.0
 50
0.0
 71
     0
 42
2.5
  3
ltypeshp.shx
  4

  0
STYLE
  2
ACISOTS
 70
     0
 40
3.0
 41
1.0
 50
0.0
 71
     0
 42
2.5
  3
isocp.shx
  4
extfont.shx
  0
STYLE
  2
ACISOGDT
 70
     0
 40
0.0
 41
1.0
 50
0.0
 71
     0
 42
2.5
  3
amgdt.shx
  4

  0
ENDTAB
  0
TABLE
  2
VIEW
 70
    12
  0
VIEW
  2
GEN1
 70
     0
 40
95.824742268041234
 10
71.5
 20
137.08762886597941
 41
143.0
 11
0.0
 21
0.0
 31
1.0
 12
0.0
 22
0.0
 32
0.0
 42
50.0
 43
0.0
 44
0.0
 50
0.0
 71
     0
  0
VIEW
  2
GEN2
 70
     0
 40
95.824742268041234
 10
214.5
 20
137.08762886597941
 41
143.0
 11
0.0
 21
0.0
 31
1.0
 12
0.0
 22
0.0
 32
0.0
 42
50.0
 43
0.0
 44
0.0
 50
0.0
 71
     0
  0
VIEW
  2
GEN3
 70
     0
 40
95.824742268041234
 10
71.5
 20
47.912371134020603
 41
143.0
 11
0.0
 21
0.0
 31
1.0
 12
0.0
 22
0.0
 32
0.0
 42
50.0
 43
0.0
 44
0.0
 50
0.0
 71
     0
  0
VIEW
  2
GEN4
 70
     0
 40
95.824742268041234
 10
214.5
 20
47.912371134020603
 41
143.0
 11
0.0
 21
0.0
 31
1.0
 12
0.0
 22
0.0
 32
0.0
 42
50.0
 43
0.0
 44
0.0
 50
0.0
 71
     0
  0
VIEW
  2
GEN5
 70
     0
 40
95.824742268041234
 10
143.0
 20
92.500000000000057
 41
143.0
 11
0.0
 21
0.0
 31
1.0
 12
0.0
 22
0.0
 32
0.0
 42
50.0
 43
0.0
 44
0.0
 50
0.0
 71
     0
  0
VIEW
  2
GEN6
 70
     0
 40
191.64756804123709
 10
143.0
 20
92.5
 41
285.99714
 11
0.0
 21
0.0
 31
1.0
 12
0.0
 22
0.0
 32
0.0
 42
50.0
 43
0.0
 44
0.0
 50
0.0
 71
     0
  0
VIEW
  2
AM_VIEW1
 70
     0
 40
370.00000000000023
 10
332.86372007366492
 20
555.00000000000011
 41
665.72744014732973
 11
0.0
 21
0.0
 31
1.0
 12
0.0
 22
0.0
 32
0.0
 42
50.0
 43
0.0
 44
0.0
 50
0.0
 71
     0
  0
VIEW
  2
AM_VIEW2
 70
     0
 40
370.00000000000023
 10
805.13627992633508
 20
555.00000000000011
 41
665.72744014732973
 11
0.0
 21
0.0
 31
1.0
 12
0.0
 22
0.0
 32
0.0
 42
50.0
 43
0.0
 44
0.0
 50
0.0
 71
     0
  0
VIEW
  2
AM_VIEW3
 70
     0
 40
370.00000000000023
 10
332.86372007366492
 20
185.0
 41
665.72744014732973
 11
0.0
 21
0.0
 31
1.0
 12
0.0
 22
0.0
 32
0.0
 42
50.0
 43
0.0
 44
0.0
 50
0.0
 71
     0
  0
VIEW
  2
AM_VIEW4
 70
     0
 40
370.00000000000023
 10
805.13627992633508
 20
185.0
 41
665.72744014732973
 11
0.0
 21
0.0
 31
1.0
 12
0.0
 22
0.0
 32
0.0
 42
50.0
 43
0.0
 44
0.0
 50
0.0
 71
     0
  0
VIEW
  2
AM_VIEW5
 70
     0
 40
370.00000000000023
 10
569.0
 20
370.00000000000023
 41
665.72744014732962
 11
0.0
 21
0.0
 31
1.0
 12
0.0
 22
0.0
 32
0.0
 42
50.0
 43
0.0
 44
0.0
 50
0.0
 71
     0
  0
VIEW
  2
AM_VIEW6
 70
     0
 40
739.99260000000015
 10
569.0
 20
370.00000000000023
 41
1331.4415657458569
 11
0.0
 21
0.0
 31
1.0
 12
0.0
 22
0.0
 32
0.0
 42
50.0
 43
0.0
 44
0.0
 50
0.0
 71
     0
  0
ENDTAB
  0
TABLE
  2
UCS
 70
     0
  0
ENDTAB
  0
TABLE
  2
APPID
 70
    97
  0
APPID
  2
ACAD
 70
     0
  0
APPID
  2
MCAD_NO_VIS
 70
     0
  0
APPID
  2
ACAD_TEMP_GRAPHIC
 70
     0
  0
APPID
  2
AD_DRAW
 70
     0
  0
APPID
  2
DESIGNERASSEMBLIES
 70
     0
  0
APPID
  2
ASURF_PCURVE_APPNAME
 70
     0
  0
APPID
  2
GENIUS_GE3SECT_13
 70
     0
  0
APPID
  2
GENIUS_GENCFG_13
 70
     0
  0
APPID
  2
GENIUS_GE3CFG0_13
 70
     0
  0
APPID
  2
GENIUS_GENCFG0_13
 70
     0
  0
APPID
  2
GENIUS_GENCFG1_13
 70
     0
  0
APPID
  2
GENIUS_GENCFG2_13
 70
     0
  0
APPID
  2
GENIUS_GENCFG3_13
 70
     0
  0
APPID
  2
GENIUS_GENCFG4_13
 70
     0
  0
APPID
  2
GENIUS_GEVCFG0_13
 70
     0
  0
APPID
  2
GENIUS_GENOENT_13
 70
     0
  0
APPID
  2
GENIUS_GENREC_14
 70
     0
  0
APPID
  2
GENIUS_GENODEF_13
 70
     0
  0
APPID
  2
GENIUS_GENOBJ-N-REC_13
 70
     0
  0
APPID
  2
GENIUS_GENHINW_13
 70
     0
  0
APPID
  2
GENIUS_FIRSTVISTXT_14
 70
     0
  0
APPID
  2
GENIUS_GENOBJ-N-LEADER_13
 70
     0
  0
APPID
  2
GENIUS_GENOREF_13
 70
     0
  0
APPID
  2
GENIUS_GENOLIS_13
 70
     0
  0
APPID
  2
GEV_VCCNULL_SWITCH_OFF
 70
     0
  0
APPID
  2
GENIUS_GENDTOL_13
 70
     0
  0
APPID
  2
GENIUS_GEFCFG0_13
 70
     0
  0
APPID
  2
GENIUS_GENOBJ-N-TIT_13
 70
     0
  0
APPID
  2
GENIUS_GENTITLE_13
 70
     0
  0
APPID
  2
GENIUS_GENZVEED_13
 70
     0
  0
APPID
  2
GENIUS_GENOBJ-N-SDF_13
 70
     0
  0
APPID
  2
GENIUS_GENSCREG_13
 70
     0
  0
APPID
  2
GENIUS_DUMCFG0_13
 70
     0
  0
APPID
  2
GEVID936201362
 70
     0
  0
APPID
  2
GEVDC
 70
     0
  0
APPID
  2
GEVCON
 70
     0
  0
APPID
  2
VCC
 70
     0
  0
APPID
  2
GEVPT
 70
     0
  0
APPID
  2
GEVIT
 70
     0
  0
APPID
  2
GENBH
 70
     0
  0
APPID
  2
GEVMK
 70
     0
  0
APPID
  2
GENIUS_GENBH_13
 70
     0
  0
APPID
  2
GENIUS_GENOBJ-NBEHI-BHF_13
 70
     0
  0
APPID
  2
GENIUS_GENOBJ-NBEHI-BHB_13
 70
     0
  0
APPID
  2
GENIUS_GENOBJ-F-DESC_13
 70
     0
  0
APPID
  2
GENIUS_GEFDESC_14
 70
     0
  0
APPID
  2
GENIUS_GENOBJ-F-PART_13
 70
     0
  0
APPID
  2
GENIUS_GEFSTDP_13
 70
     0
  0
APPID
  2
GENIUS_GEFPARTINS_13
 70
     0
  0
APPID
  2
GENIUS_GENTRA_14
 70
     0
  0
APPID
  2
GENIUS_GENINF13_13
 70
     0
  0
APPID
  2
GENIUS_GENOBJ-N-INFOPT_13
 70
     0
  0
APPID
  2
GENIUS_GENOBJ-N-RSSYM_13
 70
     0
  0
APPID
  2
GENIUS_GENSYMENT_13
 70
     0
  0
APPID
  2
GENIUS_GENSCSYM_13
 70
     0
  0
APPID
  2
GENIUS_GEFINFNAM_13
 70
     0
  0
APPID
  2
GENIUS_GENSCREG_15
 70
     0
  0
APPID
  2
GENIUS_GENOBJ-N-CEN_13
 70
     0
  0
APPID
  2
GENIUS_GENOBJ-N-CRS_13
 70
     0
  0
APPID
  2
GENIUS_GENOBJ-N-CRC_13
 70
     0
  0
APPID
  2
GENIUS_GENCRC_14
 70
     0
  0
APPID
  2
GEVID942827039
 70
     0
  0
APPID
  2
GEVID942827040
 70
     0
  0
APPID
  2
GEVID942827041
 70
     0
  0
APPID
  2
GENIUS_GENOBJ-F-SCPASSM_13
 70
     0
  0
APPID
  2
GENIUS_GENDIMSH_14
 70
     0
  0
APPID
  2
GENIUS_GENFIL_13
 70
     0
  0
APPID
  2
GENIUS_GENOBJ-N-CHA_13
 70
     0
  0
APPID
  2
GENIUS_GENOBJ-N-FIL_13
 70
     0
  0
APPID
  2
GEVID942827042
 70
     0
  0
APPID
  2
GEVID946020473
 70
     0
  0
APPID
  2
GEVID946020474
 70
     0
  0
APPID
  2
GEVID946020475
 70
     0
  0
APPID
  2
GENIUS_GENOBJ-N-HTC_13
 70
     0
  0
APPID
  2
GENIUS_GENHATCH_13
 70
     0
  0
APPID
  2
GEVID948854295
 70
     0
  0
APPID
  2
GEVID939402019
 70
     0
  0
APPID
  2
GEVID952919491
 70
     0
  0
APPID
  2
GEVID952919492
 70
     0
  0
APPID
  2
GENIUS_GEFWELD_13
 70
     0
  0
APPID
  2
GENIUS_GENOBJ-F-WELS_13
 70
     0
  0
APPID
  2
GEVID952919493
 70
     0
  0
APPID
  2
GENIUS_GENOBJ-N-RSBK_13
 70
     0
  0
APPID
  2
GENIUS_GENOBJ-N-LIB_13
 70
     0
  0
APPID
  2
GENIUS_GENSCALE_13
 70
     0
  0
APPID
  2
GEVID986376691
 70
     0
  0
APPID
  2
ACATTRIBSERVICES
 70
     0
  0
APPID
  2
DCO15
 70
     0
  0
APPID
  2
ACADM_DIM_EDIT
 70
     0
  0
APPID
  2
AMDT_DM_ADJ
 70
     0
  0
APPID
  2
ACAD_MLEADERVER
 70
     0
  0
APPID
  2
CONTENTBLOCKDESCRIPTION
 70
     0
  0
APPID
  2
ACAD_DSTYLE_DIMBREAK
 70
     0
  0
APPID
  2
ACAD_DSTYLE_DIMJAG
 70
     0
  0
APPID
  2
ACAD_NAV_VCDISPLAY
 70
     0
  0
APPID
  2
ACADANNOPO
 70
     0
  0
APPID
  2
ACAD_EXEMPT_FROM_CAD_STANDARDS
 70
     0
  0
ENDTAB
  0
TABLE
  2
DIMSTYLE
 70
    12
  0
DIMSTYLE
  2
STANDARD
 70
     0
  3

  4

  5

  6

  7

 40
1.0
 41
0.18
 42
0.0625
 43
0.38
 44
0.18
 45
0.0
 46
0.0
 47
0.0
 48
0.0
140
0.18
141
0.09
142
0.0
143
25.399999999999999
144
1.0
145
0.0
146
1.0
147
0.09
 71
     0
 72
     0
 73
     1
 74
     1
 75
     0
 76
     0
 77
     0
 78
     0
170
     0
171
     2
172
     0
173
     0
174
     0
175
     0
176
     0
177
     0
178
     0
  0
DIMSTYLE
  2
AM_JIS
 70
     0
  3

  4
"
  5

  6

  7

 40
1.0
 41
2.5
 42
1.0
 43
7.0
 44
1.0
 45
0.0
 46
0.0
 47
0.1
 48
0.1000000001
140
2.5
141
0.0
142
0.0
143
0.0393701
144
1.0
145
0.0
146
0.71
147
1.0
 71
     0
 72
     0
 73
     0
 74
     0
 75
     0
 76
     0
 77
     3
 78
     8
170
     0
171
     2
172
     1
173
     0
174
     0
175
     0
176
   256
177
   256
178
     4
  0
DIMSTYLE
  2
AM_ISO
 70
     0
  3

  4
"
  5

  6

  7

 40
1.0
 41
2.5
 42
1.0
 43
10.0
 44
1.0
 45
0.0
 46
0.0
 47
0.0
 48
0.000000001
140
3.0
141
0.0
142
0.0
143
0.0393701
144
1.0
145
0.0
146
0.71
147
1.299999999999998
 71
     1
 72
     0
 73
     0
 74
     0
 75
     0
 76
     0
 77
     1
 78
     8
170
     0
171
     2
172
     1
173
     0
174
     0
175
     0
176
   256
177
   256
178
     4
  0
DIMSTYLE
  2
AM_ISO$3
 70
     0
  3

  4
"
  5

  6

  7

 40
1.0
 41
2.5
 42
1.0
 43
10.0
 44
1.0
 45
0.0
 46
0.0
 47
0.0
 48
0.000000001
140
2.5
141
0.0
142
0.0
143
0.0393701
144
1.0
145
0.0
146
0.71
147
1.299999999999998
 71
     1
 72
     0
 73
     0
 74
     1
 75
     0
 76
     0
 77
     1
 78
     8
170
     0
171
     2
172
     0
173
     0
174
     0
175
     0
176
   256
177
   256
178
     4
  0
DIMSTYLE
  2
AM_ISO$4
 70
     0
  3

  4
"
  5

  6

  7

 40
1.0
 41
2.5
 42
1.0
 43
10.0
 44
1.0
 45
0.0
 46
0.0
 47
0.0
 48
0.000000001
140
2.5
141
0.0
142
0.0
143
0.0393701
144
1.0
145
0.0
146
0.71
147
1.299999999999998
 71
     1
 72
     0
 73
     0
 74
     1
 75
     0
 76
     0
 77
     1
 78
     8
170
     0
171
     2
172
     0
173
     0
174
     0
175
     0
176
   256
177
   256
178
     4
  0
DIMSTYLE
  2
AM_ISO$6
 70
     0
  3

  4
"
  5

  6

  7

 40
1.0
 41
2.5
 42
1.0
 43
10.0
 44
1.0
 45
0.0
 46
0.0
 47
0.0
 48
0.000000001
140
2.5
141
0.0
142
0.0
143
0.0393701
144
1.0
145
0.0
146
0.71
147
1.299999999999998
 71
     1
 72
     0
 73
     0
 74
     0
 75
     0
 76
     0
 77
     0
 78
     8
170
     0
171
     2
172
     1
173
     0
174
     0
175
     0
176
   256
177
   256
178
     4
  0
DIMSTYLE
  2
AM_ISO$7
 70
     0
  3

  4
"
  5

  6

  7

 40
1.0
 41
2.5
 42
1.0
 43
10.0
 44
1.0
 45
0.0
 46
0.0
 47
0.0
 48
0.000000001
140
2.5
141
0.0
142
0.0
143
0.0393701
144
1.0
145
0.0
146
0.71
147
1.299999999999998
 71
     1
 72
     0
 73
     0
 74
     0
 75
     0
 76
     0
 77
     1
 78
     8
170
     0
171
     2
172
     1
173
     0
174
     0
175
     0
176
   256
177
   256
178
     4
  0
DIMSTYLE
  2
AM_ISO$SF
 70
     0
  3

  4
"
  5

  6

  7

 40
1.0
 41
2.5
 42
1.0
 43
10.0
 44
1.0
 45
0.0
 46
0.0
 47
0.1
 48
0.1
140
3.5
141
0.0
142
0.0
143
0.0393701
144
1.0
145
0.0
146
0.71
147
1.5
 71
     0
 72
     0
 73
     0
 74
     0
 75
     1
 76
     1
 77
     1
 78
     8
170
     0
171
     2
172
     1
173
     0
174
     0
175
     0
176
   256
177
   256
178
     4
  0
DIMSTYLE
  2
AM_ISO$SH
 70
     0
  3

  4
"
  5

  6
GENAXEH
  7

 40
1.0
 41
2.5
 42
1.0
 43
10.0
 44
1.0
 45
0.0
 46
0.0
 47
0.1
 48
0.1
140
3.5
141
0.0
142
0.0
143
0.0393701
144
2.0
145
0.0
146
0.71
147
1.5
 71
     0
 72
     0
 73
     0
 74
     0
 75
     1
 76
     1
 77
     1
 78
     8
170
     0
171
     2
172
     1
173
     1
174
     0
175
     0
176
   256
177
   256
178
     4
  0
DIMSTYLE
  2
AM_JIS$0
 70
     0
  3

  4
"
  5

  6

  7

 40
1.0
 41
2.5
 42
1.0
 43
7.0
 44
1.0
 45
0.0
 46
0.0
 47
0.1
 48
0.1000000001
140
2.5
141
0.0
142
0.0
143
0.0393701
144
1.0
145
0.0
146
0.71
147
1.0
 71
     0
 72
     0
 73
     0
 74
     0
 75
     0
 76
     0
 77
     3
 78
     8
170
     0
171
     2
172
     1
173
     0
174
     0
175
     0
176
   256
177
   256
178
     4
  0
DIMSTYLE
  2
AM_JIS$SF
 70
     0
  3

  4
"
  5
OPEN30
  6
OPEN30
  7
OPEN30
 40
1.0
 41
2.5
 42
1.0
 43
10.0
 44
1.0
 45
0.0
 46
0.0
 47
0.1
 48
0.1
140
3.5
141
0.0
142
0.0
143
0.0393701
144
1.0
145
0.0
146
0.71
147
1.5
 71
     0
 72
     0
 73
     0
 74
     0
 75
     1
 76
     1
 77
     3
 78
     8
170
     0
171
     2
172
     1
173
     0
174
     0
175
     0
176
   256
177
   256
178
     4
  0
DIMSTYLE
  2
AM_JIS$SH
 70
     0
  3

  4
"
  5

  6
NONE
  7

 40
1.0
 41
2.5
 42
1.0
 43
10.0
 44
1.0
 45
0.0
 46
0.0
 47
0.1
 48
0.1
140
3.5
141
0.0
142
0.0
143
0.0393701
144
1.0
145
0.0
146
0.71
147
1.5
 71
     0
 72
     0
 73
     0
 74
     0
 75
     1
 76
     0
 77
     3
 78
     8
170
     0
171
     2
172
     1
173
     1
174
     0
175
     0
176
   256
177
   256
178
     4
  0
ENDTAB
  0
ENDSEC
  0
SECTION
  2
BLOCKS
  0
BLOCK
  8
0
  2
$MODEL_SPACE
 70
     0
 10
0.0
 20
0.0
 30
0.0
  3
$MODEL_SPACE
  1

  0
ENDBLK
  5
1A
  8
0
  0
BLOCK
 67
     1
  8
0
  2
$PAPER_SPACE
 70
     0
 10
0.0
 20
0.0
 30
0.0
  3
$PAPER_SPACE
  1

  0
ENDBLK
  5
17
 67
     1
  8
0
  0
BLOCK
  8
0
  2
GENAXEH
 70
     0
 10
0.0
 20
0.0
 30
0.0
  3
GENAXEH
  1

  0
LINE
  5
21D0
  8
0
 10
-1.0
 20
0.0
 30
0.0
 11
1.0
 21
0.0
 31
0.0
  0
ENDBLK
  5
21D2
  8
0
  0
BLOCK
  8
0
  6
BYBLOCK
 62
     0
  2
$6-44
 70
     0
 10
0.0
 20
0.0
 30
0.0
  3
$6-44
  1

  0
ARC
  5
1B8FE
  8
0
  6
CONTINUOUS
 62
     0
 10
-2.300003000000002
 20
2.3999909999999431
 30
0.0
 40
2.2000009999999981
 50
90.000003000000945
 51
179.99997799999841
  0
ARC
  5
1B8FF
  8
0
  6
CONTINUOUS
 62
     0
 10
2.300003000000002
 20
2.3999910000000551
 30
0.0
 40
2.1999970000000002
 50
0.0
 51
89.999982000000799
  0
LINE
  5
1B900
  8
0
  6
CONTINUOUS
 62
     0
 10
-0.0494449999999915
 20
0.0
 30
0.0
 11
-0.8000000000000112
 21
1.30000000000001
 31
0.0
  0
LINE
  5
1B901
  8
0
  6
CONTINUOUS
 62
     0
 10
0.9505550000000083
 20
0.0
 30
0.0
 11
0.1999999999999886
 21
1.30000000000001
 31
0.0
  0
LINE
  5
1B902
  8
0
  6
CONTINUOUS
 62
     0
 10
4.600000000000021
 20
1.30000000000001
 30
0.0
 11
4.600000000000021
 21
0.0
 31
0.0
  0
LINE
  5
1B903
  8
0
  6
CONTINUOUS
 62
     0
 10
-4.600000000000021
 20
1.30000000000001
 30
0.0
 11
-4.600000000000021
 21
0.0
 31
0.0
  0
LINE
  5
1B904
  8
0
  6
CONTINUOUS
 62
     0
 10
4.600000000000021
 20
0.0
 30
0.0
 11
-4.600000000000021
 21
0.0
 31
0.0
  0
LINE
  5
1B905
  8
0
  6
CONTINUOUS
 62
     0
 10
2.300003000000002
 20
4.6000029999999583
 30
0.0
 11
-2.300003000000002
 21
4.6000029999999583
 31
0.0
  0
LINE
  5
1B906
  8
0
  6
CONTINUOUS
 62
     0
 10
4.600000000000021
 20
1.30000000000001
 30
0.0
 11
-4.600000000000021
 21
1.30000000000001
 31
0.0
  0
LINE
  5
1B907
  8
0
  6
CONTINUOUS
 62
     0
 10
-4.5
 20
1.30000000000001
 30
0.0
 11
-4.5
 21
2.3999909999999431
 31
0.0
  0
LINE
  5
1B908
  8
0
  6
CONTINUOUS
 62
     0
 10
4.5
 20
1.30000000000001
 30
0.0
 11
4.5
 21
2.3999910000000551
 31
0.0
  0
ENDBLK
  5
1B909
  8
0
  6
BYBLOCK
 62
     0
  0
BLOCK
  8
0
  2
*D2
 70
     1
 10
0.0
 20
0.0
 30
0.0
  3
*D2
  1

  0
LINE
  5
1C1BC
  8
AM_5
 10
67.133309053795159
 20
388.6672115894271
 30
0.0
 11
67.133309053795159
 21
492.06726329597802
 31
0.0
  0
LINE
  5
1C1BD
  8
AM_5
 10
556.63292041897205
 20
418.069095437876
 30
0.0
 11
556.63292041897205
 21
492.06726329597802
 31
0.0
  0
LINE
  5
1C1BE
  8
AM_5
 10
69.633309053795159
 20
491.06726329597802
 30
0.0
 11
554.13292041897205
 21
491.06726329597802
 31
0.0
  0
SOLID
  5
1C1BF
  8
AM_5
 10
69.633309053795159
 20
491.48392996264459
 30
0.0
 11
69.633309053795159
 21
490.65059662931128
 31
0.0
 12
67.133309053795159
 22
491.06726329597802
 32
0.0
 13
67.133309053795159
 23
491.06726329597802
 33
0.0
  0
SOLID
  5
1C1C0
  8
AM_5
 10
554.13292041897205
 20
491.48392996264459
 30
0.0
 11
554.13292041897205
 21
490.65059662931128
 31
0.0
 12
556.63292041897205
 22
491.06726329597802
 32
0.0
 13
556.63292041897205
 23
491.06726329597802
 33
0.0
  0
INSERT
  5
1C1C1
  8
AM_0
  2
*U12
 10
0.0
 20
0.0
 30
0.0
  0
POINT
  5
1C1C2
  8
DEFPOINTS
 62
     0
 10
67.133309053795159
 20
387.6672115894271
 30
0.0
  0
POINT
  5
1C1C3
  8
DEFPOINTS
 62
     0
 10
556.63292041897205
 20
417.069095437876
 30
0.0
  0
POINT
  5
1C1C4
  8
DEFPOINTS
 62
     0
 10
556.63292041897205
 20
491.06726329597802
 30
0.0
  0
ENDBLK
  5
1C1A6
  8
0
  0
BLOCK
  8
0
  2
*D3
 70
     1
 10
0.0
 20
0.0
 30
0.0
  3
*D3
  1

  0
LINE
  5
1C1E3
  8
AM_5
 10
67.13166896448115
 20
767.67725376567716
 30
0.0
 11
67.13166896448115
 21
909.96790645135729
 31
0.0
  0
LINE
  5
1C1E4
  8
AM_5
 10
556.63292041897205
 20
817.00869059708464
 30
0.0
 11
556.63292041897205
 21
909.96790645135729
 31
0.0
  0
LINE
  5
1C1E5
  8
AM_5
 10
69.63166896448115
 20
908.96790645135729
 30
0.0
 11
554.13292041897205
 21
908.96790645135729
 31
0.0
  0
SOLID
  5
1C1E6
  8
AM_5
 10
69.63166896448115
 20
909.38457311802358
 30
0.0
 11
69.63166896448115
 21
908.55123978469055
 31
0.0
 12
67.13166896448115
 22
908.96790645135729
 32
0.0
 13
67.13166896448115
 23
908.96790645135729
 33
0.0
  0
SOLID
  5
1C1E7
  8
AM_5
 10
554.13292041897205
 20
909.38457311802358
 30
0.0
 11
554.13292041897205
 21
908.55123978469055
 31
0.0
 12
556.63292041897205
 22
908.96790645135729
 32
0.0
 13
556.63292041897205
 23
908.96790645135729
 33
0.0
  0
INSERT
  5
1C1E8
  8
AM_0
  2
*U13
 10
0.0
 20
0.0
 30
0.0
  0
POINT
  5
1C1E9
  8
DEFPOINTS
 62
     0
 10
67.13166896448115
 20
766.67725376567739
 30
0.0
  0
POINT
  5
1C1EA
  8
DEFPOINTS
 62
     0
 10
556.63292041897205
 20
816.00869059708464
 30
0.0
  0
POINT
  5
1C1EB
  8
DEFPOINTS
 62
     0
 10
556.63292041897205
 20
908.96790645135729
 30
0.0
  0
ENDBLK
  5
1C1E2
  8
0
  0
BLOCK
  8
0
  2
_OPEN30
 70
     0
 10
0.0
 20
0.0
 30
0.0
  3
_OPEN30
  1

  0
LINE
  5
1C28A
  8
0
 62
     0
 10
-1.0
 20
0.26794919
 30
0.0
 11
0.0
 21
0.0
 31
0.0
  0
LINE
  5
1C28B
  8
0
 62
     0
 10
0.0
 20
0.0
 30
0.0
 11
-1.0
 21
-0.26794919
 31
0.0
  0
LINE
  5
1C28C
  8
0
 62
     0
 10
0.0
 20
0.0
 30
0.0
 11
-1.0
 21
0.0
 31
0.0
  0
ENDBLK
  5
1C28D
  8
0
  0
BLOCK
  8
0
  2
_NONE
 70
     0
 10
0.0
 20
0.0
 30
0.0
  3
_NONE
  1

  0
ENDBLK
  5
1C290
  8
0
  0
BLOCK
  8
0
  2
*U8
 70
     1
 10
0.0
 20
0.0
 30
0.0
  3
*U8
  1

  0
SOLID
  5
1C2C4
  8
AM_0
  6
CONTINUOUS
 10
-408.6329321557896
 20
627.50807839742174
 30
0.0
 11
-413.63293215578972
 21
627.50807839742174
 31
0.0
 12
-408.6329321557896
 22
622.50807839742185
 32
0.0
 13
-408.6329321557896
 23
622.50807839742185
 33
0.0
210
0.0
220
0.0
230
-1.0
  0
LINE
  5
1C2C5
  8
AM_0
  6
CONTINUOUS
 10
413.63293215578972
 20
627.50807839742174
 30
0.0
 11
408.6329321557896
 21
622.50807839742185
 31
0.0
  0
LINE
  5
1C2C6
  8
AM_0
  6
CONTINUOUS
 10
408.6329321557896
 20
622.50807839742185
 30
0.0
 11
408.6329321557896
 21
627.50807839742174
 31
0.0
  0
ENDBLK
  5
1C2C8
  8
0
  0
BLOCK
  8
0
  2
*U9
 70
     1
 10
0.0
 20
0.0
 30
0.0
  3
*U9
  1

  0
SOLID
  5
1C2CA
  8
AM_0
  6
CONTINUOUS
 10
-397.63293215578977
 20
627.50807839742174
 30
0.0
 11
-402.63293215578977
 21
627.50807839742174
 31
0.0
 12
-402.63293215578977
 22
622.50807839742185
 32
0.0
 13
-402.63293215578977
 23
622.50807839742185
 33
0.0
210
0.0
220
0.0
230
-1.0
  0
LINE
  5
1C2CB
  8
AM_0
  6
CONTINUOUS
 10
402.63293215578977
 20
627.50807839742174
 30
0.0
 11
402.63293215578977
 21
622.50807839742185
 31
0.0
  0
LINE
  5
1C2CC
  8
AM_0
  6
CONTINUOUS
 10
402.63293215578977
 20
622.50807839742185
 30
0.0
 11
397.63293215578977
 21
627.50807839742174
 31
0.0
  0
ENDBLK
  5
1C2CE
  8
0
  0
BLOCK
  8
0
  2
*U10
 70
     1
 10
0.0
 20
0.0
 30
0.0
  3
*U10
  1

  0
SOLID
  5
1C2D0
  8
AM_0
  6
CONTINUOUS
 10
-408.6329321557896
 20
784.50875690107193
 30
0.0
 11
-413.63293215578972
 21
779.50875690107193
 31
0.0
 12
-408.6329321557896
 22
779.50875690107193
 32
0.0
 13
-408.6329321557896
 23
779.50875690107193
 33
0.0
210
0.0
220
0.0
230
-1.0
  0
LINE
  5
1C2D1
  8
AM_0
  6
CONTINUOUS
 10
408.6329321557896
 20
784.50875690107193
 30
0.0
 11
413.63293215578972
 21
779.50875690107193
 31
0.0
  0
LINE
  5
1C2D2
  8
AM_0
  6
CONTINUOUS
 10
408.6329321557896
 20
779.50875690107193
 30
0.0
 11
408.6329321557896
 21
784.50875690107193
 31
0.0
  0
ENDBLK
  5
1C2D4
  8
0
  0
BLOCK
  8
0
  2
*U11
 70
     1
 10
0.0
 20
0.0
 30
0.0
  3
*U11
  1

  0
SOLID
  5
1C2D6
  8
AM_0
  6
CONTINUOUS
 10
-402.63293215578977
 20
784.50875690107193
 30
0.0
 11
-402.63293215578977
 21
779.50875690107193
 31
0.0
 12
-397.63293215578977
 22
779.50875690107193
 32
0.0
 13
-397.63293215578977
 23
779.50875690107193
 33
0.0
210
0.0
220
0.0
230
-1.0
  0
LINE
  5
1C2D7
  8
AM_0
  6
CONTINUOUS
 10
402.63293215578977
 20
784.50875690107193
 30
0.0
 11
402.63293215578977
 21
779.50875690107193
 31
0.0
  0
LINE
  5
1C2D8
  8
AM_0
  6
CONTINUOUS
 10
397.63293215578977
 20
779.50875690107193
 30
0.0
 11
402.63293215578977
 21
784.50875690107193
 31
0.0
  0
ENDBLK
  5
1C2DA
  8
0
  0
BLOCK
  8
0
  2
*U12
 70
     1
 10
0.0
 20
0.0
 30
0.0
  3
*U12
  1

  0
TEXT
  5
1C2FC
  8
AM_5
 62
     4
 10
307.73311473638358
 20
492.06726329597802
 30
0.0
 40
2.5
  1
489.5
 41
0.8299999999999999
  0
ENDBLK
  5
1C2FE
  8
0
  0
BLOCK
  8
0
  2
*U13
 70
     1
 10
0.0
 20
0.0
 30
0.0
  3
*U13
  1

  0
TEXT
  5
1C300
  8
AM_5
 62
     4
 10
307.73229469172662
 20
909.96790645135695
 30
0.0
 40
2.5
  1
489.5
 41
0.8299999999999999
  0
ENDBLK
  5
1C302
  8
0
  0
ENDSEC
  0
SECTION
  2
ENTITIES
  0
POINT
  5
1B94
  8
0
 10
0.0
 20
0.0
 30
0.0
1001
GENIUS_GENODEF_13
1002
{
1000
HIER
1070
     1
1002
}
1002
{
1000
MANEDIT
1070
     0
1002
}
1002
{
1000
NOSEL
1070
     0
1002
}
1002
{
1000
BEHIND
1070
     0
1002
}
1002
{
1000
REACTOR
1002
}
1001
GENIUS_GENOBJ-N-SDF_13
1002
{
1000
OWNER
1000
GEN
1002
}
1001
GENIUS_GENOENT_13
1002
{
1000
MYREF
1005
1B94
1002
}
1002
{
1000
GRP
1005
0
1002
}
1001
GENIUS_GENOLIS_13
1002
{
1000
ENT
1005
89
1002
}
  0
LINE
  5
18BF8
  8
AM_0
 10
517.30909586889311
 20
418.3002477636208
 30
0.0
 11
527.42762614233061
 21
383.48568782709771
 31
0.0
  0
LINE
  5
18BFD
  8
AM_0
 10
546.63292041897216
 20
283.06751308344531
 30
0.0
 11
496.61207550694081
 21
283.06751308344531
 31
0.0
  0
LINE
  5
18BFE
  8
AM_0
 10
556.63292041897205
 20
229.06751308344511
 30
0.0
 11
322.63294389260773
 21
229.06751308344519
 31
0.0
  0
LINE
  5
18BFF
  8
AM_0
 10
556.63292041897205
 20
223.06751308344511
 30
0.0
 11
322.63294389260773
 21
223.06751308344519
 31
0.0
  0
LINE
  5
18C00
  8
ﾁｭｳｼﾝｾﾝ1
 10
320.69682573217398
 20
338.06751308344519
 30
0.0
 11
561.63292041897205
 21
338.06751308344519
 31
0.0
  0
LINE
  5
18C01
  8
AM_0
 10
337.63294434414257
 20
432.06939588491957
 30
0.0
 11
541.63291996743737
 21
432.06939588491957
 31
0.0
  0
POLYLINE
  5
18C03
  8
AM_0
 10
522.63291939549288
 20
338.06751308344508
 30
0.0
 66
     1
 70
     8
  0
VERTEX
  8
AM_0
  5
1C31D
 10
522.633
 20
338.068
 30
0.000000
  70
    32
  0
VERTEX
  8
AM_0
  5
1C31E
 10
522.573
 20
340.521
 30
0.000000
  70
    32
  0
VERTEX
  8
AM_0
  5
1C31F
 10
522.392
 20
342.968
 30
0.000000
  70
    32
  0
VERTEX
  8
AM_0
  5
1C320
 10
522.092
 20
345.404
 30
0.000000
  70
    32
  0
VERTEX
  8
AM_0
  5
1C321
 10
521.672
 20
347.822
 30
0.000000
  70
    32
  0
VERTEX
  8
AM_0
  5
1C322
 10
521.134
 20
350.217
 30
0.000000
  70
    32
  0
VERTEX
  8
AM_0
  5
1C323
 10
520.480
 20
352.582
 30
0.000000
  70
    32
  0
VERTEX
  8
AM_0
  5
1C324
 10
519.710
 20
354.912
 30
0.000000
  70
    32
  0
VERTEX
  8
AM_0
  5
1C325
 10
518.827
 20
357.202
 30
0.000000
  70
    32
  0
VERTEX
  8
AM_0
  5
1C326
 10
517.832
 20
359.446
 30
0.000000
  70
    32
  0
VERTEX
  8
AM_0
  5
1C327
 10
516.729
 20
361.638
 30
0.000000
  70
    32
  0
VERTEX
  8
AM_0
  5
1C328
 10
515.519
 20
363.773
 30
0.000000
  70
    32
  0
VERTEX
  8
AM_0
  5
1C329
 10
514.206
 20
365.847
 30
0.000000
  70
    32
  0
VERTEX
  8
AM_0
  5
1C32A
 10
512.793
 20
367.853
 30
0.000000
  70
    32
  0
VERTEX
  8
AM_0
  5
1C32B
 10
511.283
 20
369.788
 30
0.000000
  70
    32
  0
VERTEX
  8
AM_0
  5
1C32C
 10
509.680
 20
371.646
 30
0.000000
  70
    32
  0
VERTEX
  8
AM_0
  5
1C32D
 10
507.988
 20
373.424
 30
0.000000
  70
    32
  0
VERTEX
  8
AM_0
  5
1C32E
 10
506.211
 20
375.116
 30
0.000000
  70
    32
  0
VERTEX
  8
AM_0
  5
1C32F
 10
504.353
 20
376.719
 30
0.000000
  70
    32
  0
VERTEX
  8
AM_0
  5
1C330
 10
502.418
 20
378.229
 30
0.000000
  70
    32
  0
VERTEX
  8
AM_0
  5
1C331
 10
500.411
 20
379.642
 30
0.000000
  70
    32
  0
VERTEX
  8
AM_0
  5
1C332
 10
498.338
 20
380.955
 30
0.000000
  70
    32
  0
VERTEX
  8
AM_0
  5
1C333
 10
496.203
 20
382.164
 30
0.000000
  70
    32
  0
VERTEX
  8
AM_0
  5
1C334
 10
494.011
 20
383.268
 30
0.000000
  70
    32
  0
VERTEX
  8
AM_0
  5
1C335
 10
491.767
 20
384.262
 30
0.000000
  70
    32
  0
VERTEX
  8
AM_0
  5
1C336
 10
489.477
 20
385.146
 30
0.000000
  70
    32
  0
VERTEX
  8
AM_0
  5
1C337
 10
487.147
 20
385.915
 30
0.000000
  70
    32
  0
VERTEX
  8
AM_0
  5
1C338
 10
484.782
 20
386.570
 30
0.000000
  70
    32
  0
VERTEX
  8
AM_0
  5
1C339
 10
482.387
 20
387.108
 30
0.000000
  70
    32
  0
VERTEX
  8
AM_0
  5
1C33A
 10
479.969
 20
387.527
 30
0.000000
  70
    32
  0
VERTEX
  8
AM_0
  5
1C33B
 10
477.534
 20
387.828
 30
0.000000
  70
    32
  0
VERTEX
  8
AM_0
  5
1C33C
 10
475.086
 20
388.008
 30
0.000000
  70
    32
  0
VERTEX
  8
AM_0
  5
1C33D
 10
472.633
 20
388.069
 30
0.000000
  70
    32
  0
VERTEX
  8
AM_0
  5
1C33E
 10
470.180
 20
388.008
 30
0.000000
  70
    32
  0
VERTEX
  8
AM_0
  5
1C33F
 10
467.732
 20
387.828
 30
0.000000
  70
    32
  0
VERTEX
  8
AM_0
  5
1C340
 10
465.296
 20
387.527
 30
0.000000
  70
    32
  0
VERTEX
  8
AM_0
  5
1C341
 10
462.878
 20
387.108
 30
0.000000
  70
    32
  0
VERTEX
  8
AM_0
  5
1C342
 10
460.484
 20
386.570
 30
0.000000
  70
    32
  0
VERTEX
  8
AM_0
  5
1C343
 10
458.119
 20
385.915
 30
0.000000
  70
    32
  0
VERTEX
  8
AM_0
  5
1C344
 10
455.788
 20
385.146
 30
0.000000
  70
    32
  0
VERTEX
  8
AM_0
  5
1C345
 10
453.499
 20
384.262
 30
0.000000
  70
    32
  0
VERTEX
  8
AM_0
  5
1C346
 10
451.255
 20
383.268
 30
0.000000
  70
    32
  0
VERTEX
  8
AM_0
  5
1C347
 10
449.063
 20
382.164
 30
0.000000
  70
    32
  0
VERTEX
  8
AM_0
  5
1C348
 10
446.928
 20
380.955
 30
0.000000
  70
    32
  0
VERTEX
  8
AM_0
  5
1C349
 10
444.854
 20
379.642
 30
0.000000
  70
    32
  0
VERTEX
  8
AM_0
  5
1C34A
 10
442.848
 20
378.229
 30
0.000000
  70
    32
  0
VERTEX
  8
AM_0
  5
1C34B
 10
440.913
 20
376.719
 30
0.000000
  70
    32
  0
VERTEX
  8
AM_0
  5
1C34C
 10
439.055
 20
375.116
 30
0.000000
  70
    32
  0
VERTEX
  8
AM_0
  5
1C34D
 10
437.278
 20
373.424
 30
0.000000
  70
    32
  0
VERTEX
  8
AM_0
  5
1C34E
 10
435.585
 20
371.646
 30
0.000000
  70
    32
  0
VERTEX
  8
AM_0
  5
1C34F
 10
433.982
 20
369.788
 30
0.000000
  70
    32
  0
VERTEX
  8
AM_0
  5
1C350
 10
432.473
 20
367.853
 30
0.000000
  70
    32
  0
VERTEX
  8
AM_0
  5
1C351
 10
431.059
 20
365.847
 30
0.000000
  70
    32
  0
VERTEX
  8
AM_0
  5
1C352
 10
429.746
 20
363.773
 30
0.000000
  70
    32
  0
VERTEX
  8
AM_0
  5
1C353
 10
428.537
 20
361.638
 30
0.000000
  70
    32
  0
VERTEX
  8
AM_0
  5
1C354
 10
427.433
 20
359.446
 30
0.000000
  70
    32
  0
VERTEX
  8
AM_0
  5
1C355
 10
426.439
 20
357.202
 30
0.000000
  70
    32
  0
VERTEX
  8
AM_0
  5
1C356
 10
425.556
 20
354.912
 30
0.000000
  70
    32
  0
VERTEX
  8
AM_0
  5
1C357
 10
424.786
 20
352.582
 30
0.000000
  70
    32
  0
VERTEX
  8
AM_0
  5
1C358
 10
424.131
 20
350.217
 30
0.000000
  70
    32
  0
VERTEX
  8
AM_0
  5
1C359
 10
423.594
 20
347.822
 30
0.000000
  70
    32
  0
VERTEX
  8
AM_0
  5
1C35A
 10
423.174
 20
345.404
 30
0.000000
  70
    32
  0
VERTEX
  8
AM_0
  5
1C35B
 10
422.874
 20
342.968
 30
0.000000
  70
    32
  0
VERTEX
  8
AM_0
  5
1C35C
 10
422.693
 20
340.521
 30
0.000000
  70
    32
  0
VERTEX
  8
AM_0
  5
1C35D
 10
422.633
 20
338.068
 30
0.000000
  70
    32
  0
VERTEX
  8
AM_0
  5
1C35E
 10
422.693
 20
335.614
 30
0.000000
  70
    32
  0
VERTEX
  8
AM_0
  5
1C35F
 10
422.874
 20
333.167
 30
0.000000
  70
    32
  0
VERTEX
  8
AM_0
  5
1C360
 10
423.174
 20
330.731
 30
0.000000
  70
    32
  0
VERTEX
  8
AM_0
  5
1C361
 10
423.594
 20
328.313
 30
0.000000
  70
    32
  0
VERTEX
  8
AM_0
  5
1C362
 10
424.131
 20
325.918
 30
0.000000
  70
    32
  0
VERTEX
  8
AM_0
  5
1C363
 10
424.786
 20
323.553
 30
0.000000
  70
    32
  0
VERTEX
  8
AM_0
  5
1C364
 10
425.556
 20
321.223
 30
0.000000
  70
    32
  0
VERTEX
  8
AM_0
  5
1C365
 10
426.439
 20
318.933
 30
0.000000
  70
    32
  0
VERTEX
  8
AM_0
  5
1C366
 10
427.433
 20
316.689
 30
0.000000
  70
    32
  0
VERTEX
  8
AM_0
  5
1C367
 10
428.537
 20
314.497
 30
0.000000
  70
    32
  0
VERTEX
  8
AM_0
  5
1C368
 10
429.746
 20
312.362
 30
0.000000
  70
    32
  0
VERTEX
  8
AM_0
  5
1C369
 10
431.059
 20
310.288
 30
0.000000
  70
    32
  0
VERTEX
  8
AM_0
  5
1C36A
 10
432.473
 20
308.282
 30
0.000000
  70
    32
  0
VERTEX
  8
AM_0
  5
1C36B
 10
433.982
 20
306.347
 30
0.000000
  70
    32
  0
VERTEX
  8
AM_0
  5
1C36C
 10
435.585
 20
304.489
 30
0.000000
  70
    32
  0
VERTEX
  8
AM_0
  5
1C36D
 10
437.278
 20
302.711
 30
0.000000
  70
    32
  0
VERTEX
  8
AM_0
  5
1C36E
 10
439.055
 20
301.019
 30
0.000000
  70
    32
  0
VERTEX
  8
AM_0
  5
1C36F
 10
440.913
 20
299.416
 30
0.000000
  70
    32
  0
VERTEX
  8
AM_0
  5
1C370
 10
442.848
 20
297.906
 30
0.000000
  70
    32
  0
VERTEX
  8
AM_0
  5
1C371
 10
444.854
 20
296.493
 30
0.000000
  70
    32
  0
VERTEX
  8
AM_0
  5
1C372
 10
446.928
 20
295.180
 30
0.000000
  70
    32
  0
VERTEX
  8
AM_0
  5
1C373
 10
449.063
 20
293.971
 30
0.000000
  70
    32
  0
VERTEX
  8
AM_0
  5
1C374
 10
451.255
 20
292.867
 30
0.000000
  70
    32
  0
VERTEX
  8
AM_0
  5
1C375
 10
453.499
 20
291.873
 30
0.000000
  70
    32
  0
VERTEX
  8
AM_0
  5
1C376
 10
455.788
 20
290.989
 30
0.000000
  70
    32
  0
VERTEX
  8
AM_0
  5
1C377
 10
458.119
 20
290.220
 30
0.000000
  70
    32
  0
VERTEX
  8
AM_0
  5
1C378
 10
460.484
 20
289.565
 30
0.000000
  70
    32
  0
VERTEX
  8
AM_0
  5
1C379
 10
462.878
 20
289.027
 30
0.000000
  70
    32
  0
VERTEX
  8
AM_0
  5
1C37A
 10
465.296
 20
288.608
 30
0.000000
  70
    32
  0
VERTEX
  8
AM_0
  5
1C37B
 10
467.732
 20
288.307
 30
0.000000
  70
    32
  0
VERTEX
  8
AM_0
  5
1C37C
 10
470.180
 20
288.127
 30
0.000000
  70
    32
  0
VERTEX
  8
AM_0
  5
1C37D
 10
472.633
 20
288.067
 30
0.000000
  70
    32
  0
VERTEX
  8
AM_0
  5
1C37E
 10
475.086
 20
288.127
 30
0.000000
  70
    32
  0
VERTEX
  8
AM_0
  5
1C37F
 10
477.534
 20
288.307
 30
0.000000
  70
    32
  0
VERTEX
  8
AM_0
  5
1C380
 10
479.969
 20
288.608
 30
0.000000
  70
    32
  0
VERTEX
  8
AM_0
  5
1C381
 10
482.387
 20
289.027
 30
0.000000
  70
    32
  0
VERTEX
  8
AM_0
  5
1C382
 10
484.782
 20
289.565
 30
0.000000
  70
    32
  0
VERTEX
  8
AM_0
  5
1C383
 10
487.147
 20
290.220
 30
0.000000
  70
    32
  0
VERTEX
  8
AM_0
  5
1C384
 10
489.477
 20
290.989
 30
0.000000
  70
    32
  0
VERTEX
  8
AM_0
  5
1C385
 10
491.767
 20
291.873
 30
0.000000
  70
    32
  0
VERTEX
  8
AM_0
  5
1C386
 10
494.011
 20
292.867
 30
0.000000
  70
    32
  0
VERTEX
  8
AM_0
  5
1C387
 10
496.203
 20
293.971
 30
0.000000
  70
    32
  0
VERTEX
  8
AM_0
  5
1C388
 10
498.338
 20
295.180
 30
0.000000
  70
    32
  0
VERTEX
  8
AM_0
  5
1C389
 10
500.411
 20
296.493
 30
0.000000
  70
    32
  0
VERTEX
  8
AM_0
  5
1C38A
 10
502.418
 20
297.906
 30
0.000000
  70
    32
  0
VERTEX
  8
AM_0
  5
1C38B
 10
504.353
 20
299.416
 30
0.000000
  70
    32
  0
VERTEX
  8
AM_0
  5
1C38C
 10
506.211
 20
301.019
 30
0.000000
  70
    32
  0
VERTEX
  8
AM_0
  5
1C38D
 10
507.988
 20
302.711
 30
0.000000
  70
    32
  0
VERTEX
  8
AM_0
  5
1C38E
 10
509.680
 20
304.489
 30
0.000000
  70
    32
  0
VERTEX
  8
AM_0
  5
1C38F
 10
511.283
 20
306.347
 30
0.000000
  70
    32
  0
VERTEX
  8
AM_0
  5
1C390
 10
512.793
 20
308.282
 30
0.000000
  70
    32
  0
VERTEX
  8
AM_0
  5
1C391
 10
514.206
 20
310.288
 30
0.000000
  70
    32
  0
VERTEX
  8
AM_0
  5
1C392
 10
515.519
 20
312.362
 30
0.000000
  70
    32
  0
VERTEX
  8
AM_0
  5
1C393
 10
516.729
 20
314.497
 30
0.000000
  70
    32
  0
VERTEX
  8
AM_0
  5
1C394
 10
517.832
 20
316.689
 30
0.000000
  70
    32
  0
VERTEX
  8
AM_0
  5
1C395
 10
518.827
 20
318.933
 30
0.000000
  70
    32
  0
VERTEX
  8
AM_0
  5
1C396
 10
519.710
 20
321.223
 30
0.000000
  70
    32
  0
VERTEX
  8
AM_0
  5
1C397
 10
520.480
 20
323.553
 30
0.000000
  70
    32
  0
VERTEX
  8
AM_0
  5
1C398
 10
521.134
 20
325.918
 30
0.000000
  70
    32
  0
VERTEX
  8
AM_0
  5
1C399
 10
521.672
 20
328.313
 30
0.000000
  70
    32
  0
VERTEX
  8
AM_0
  5
1C39A
 10
522.092
 20
330.731
 30
0.000000
  70
    32
  0
VERTEX
  8
AM_0
  5
1C39B
 10
522.392
 20
333.167
 30
0.000000
  70
    32
  0
VERTEX
  8
AM_0
  5
1C39C
 10
522.573
 20
335.614
 30
0.000000
  70
    32
  0
VERTEX
  8
AM_0
  5
1C39D
 10
522.633
 20
338.068
 30
0.000000
  70
    32
  0
SEQEND
  8
AM_0
  5
1C39E
  0
ARC
  5
18C09
  8
AM_0
 10
332.63290263158808
 20
287.06751308344519
 30
0.0
 40
13.0
 50
342.07978686060699
 51
90.000005008956919
  0
ARC
  5
18C0A
  8
AM_0N
 10
332.63290263158842
 20
287.06751308344519
 30
0.0
 40
8.0
 50
329.99999999999949
 51
225.5848602661961
  0
ARC
  5
18C0B
  8
AM_0N
 10
332.63290263158842
 20
287.06751308344519
 30
0.0
 40
4.6188021535170032
 50
299.99999999995532
 51
245.13021858311291
  0
LINE
  5
18C0C
  8
AM_0
 10
354.62306109849033
 20
283.06751308344519
 30
0.0
 11
351.83819437963518
 21
292.64934596918738
 31
0.0
  0
LINE
  5
18C0D
  8
AM_0N
 10
334.94230370834691
 20
283.06751308344519
 30
0.0
 11
337.25170478510529
 21
287.06751308344519
 31
0.0
  0
LINE
  5
18C0E
  8
AM_0N
 10
328.01410047807138
 20
287.06751308344519
 30
0.0
 11
330.32350155482987
 21
283.06751308344519
 31
0.0
  0
LINE
  5
18C19
  8
AM_0
 10
322.63294389260773
 20
417.069095437876
 30
0.0
 11
322.63294389260773
 21
223.06751308344519
 31
0.0
  0
LINE
  5
18C1A
  8
ﾁｭｳｼﾝｾﾝ1
 10
472.6329178903768
 20
437.06939588491929
 30
0.0
 11
472.6329178903768
 21
216.06567542649631
 31
0.0
  0
LINE
  5
18C1B
  8
AM_0
 10
296.63294996448121
 20
237.0654926960074
 30
0.0
 11
296.63294996448121
 21
325.06726987482608
 31
0.0
  0
LINE
  5
18C1C
  8
AM_0
 10
310.6329499686812
 20
325.0672526960073
 30
0.0
 11
310.6329499686812
 21
237.0654926960074
 31
0.0
  0
LINE
  5
18C2F
  8
AM_0
 10
382.65378880463879
 20
283.06751308344531
 30
0.0
 11
332.6329438926079
 21
283.06751308344519
 31
0.0
  0
LINE
  5
18C30
  8
AM_0N
 10
352.6329444344496
 20
268.994194048699
 30
0.0
 11
340.63294443444971
 21
275.92239727897447
 31
0.0
  0
LINE
  5
18C31
  8
AM_0N
 10
340.6329444344496
 20
248.2095843578725
 30
0.0
 11
352.6329444344496
 21
255.13778758814769
 31
0.0
  0
CIRCLE
  5
18C32
  8
AM_0N
 10
340.6329444344496
 20
262.06599081842347
 30
0.0
 40
12.0
  0
CIRCLE
  5
18C33
  8
AM_0N
 10
340.6329444344496
 20
262.06599081842347
 30
0.0
 40
6.9174682452695491
  0
CIRCLE
  5
18C34
  8
AM_12N
 62
     2
 10
340.6329444344496
 20
262.06599081842347
 30
0.0
 40
6.2999999999999519
  0
CIRCLE
  5
18C35
  8
AM_0
 10
340.6329444344496
 20
262.06599081842347
 30
0.0
 40
15.0
  0
LINE
  5
18C36
  8
ﾁｭｳｼﾝｾﾝ1
 10
328.63294407322172
 20
262.06599081842359
 30
0.0
 11
352.6329447956773
 21
262.06599081842359
 31
0.0
  0
LINE
  5
18C57
  8
AM_0
 10
296.63294996448121
 20
237.0654926960074
 30
0.0
 11
310.6329499686812
 21
237.0654926960074
 31
0.0
  0
LINE
  5
18C76
  8
AM_0N
 10
328.6329444344496
 20
268.99419404869923
 30
0.0
 11
328.6329444344496
 21
255.13778758814809
 31
0.0
  0
LINE
  5
18C78
  8
ﾁｭｳｼﾝｾﾝ1
 10
340.6329444344496
 20
274.06623117605852
 30
0.0
 11
340.6329444344496
 21
250.06575046078859
 31
0.0
  0
LINE
  5
18C79
  8
AM_0
 10
322.63294389260773
 20
246.06567028197071
 30
0.0
 11
310.6329499686812
 21
246.0656702819706
 31
0.0
  0
LINE
  5
18C7A
  8
AM_0
 10
310.63294996868132
 20
253.0658126960075
 30
0.0
 11
322.63294389260773
 21
253.06581269600741
 31
0.0
  0
LINE
  5
18C7B
  8
AM_0N
 10
328.6329444344496
 20
255.13778758814809
 30
0.0
 11
340.6329444344496
 21
248.2095843578725
 31
0.0
  0
ARC
  5
18C7E
  8
AM_0
 10
332.6329438926079
 20
273.06751308344519
 30
0.0
 40
10.0
 50
90.0
 51
180.0
1001
GENIUS_GENOBJ-N-FIL_13
1002
{
1000
OWNER
1000
GEN
1002
}
1001
GENIUS_GENODEF_13
1002
{
1000
HIER
1070
     0
1002
}
1002
{
1000
MANEDIT
1070
     0
1002
}
1002
{
1000
NOSEL
1070
     0
1002
}
1002
{
1000
BEHIND
1070
     0
1002
}
1002
{
1000
OTHER
1070
     0
1002
}
1002
{
1000
REACTOR
1002
}
  0
LINE
  5
18C7F
  8
AM_0
 10
312.0615213976813
 20
261.15181646204411
 30
0.0
 11
321.63239491764949
 21
261.15173425376781
 31
0.0
  0
LINE
  5
18C81
  8
AM_0N
 10
340.63294443444971
 20
275.92239727897447
 30
0.0
 11
328.6329444344496
 21
268.99419404869923
 31
0.0
  0
ARC
  5
18C82
  8
AM_0N
 10
332.63290263158842
 20
287.06751308344519
 30
0.0
 40
4.6188021535170032
 50
245.13021858311291
 51
300.00000000000051
  0
LINE
  5
18C83
  8
AM_0N
 10
330.32350155482987
 20
283.06751308344519
 30
0.0
 11
334.94230370834691
 21
283.06751308344519
 31
0.0
  0
LINE
  5
18C8A
  8
AM_0
 10
406.63294642120258
 20
278.06751308344531
 30
0.0
 11
472.6329178903768
 21
278.06751308344531
 31
0.0
  0
LINE
  5
18C8C
  8
ﾁｭｳｼﾝｾﾝ1
 10
367.13292679154551
 20
208.81751308344519
 30
0.0
 11
367.13293666175502
 21
243.31751308344519
 31
0.0
  0
LINE
  5
18C8D
  8
ｶｸﾚｾﾝ2
 10
376.63293086837172
 20
223.06751308344519
 30
0.0
 11
376.63293258492979
 21
229.06751308344511
 31
0.0
  0
LINE
  5
18C8E
  8
ｶｸﾚｾﾝ2
 10
357.63293086837081
 20
223.06751308344519
 30
0.0
 11
357.63293258492899
 21
229.06751308344511
 31
0.0
  0
ARC
  5
18C90
  8
AM_0
 10
406.63294642120258
 20
338.06751308344531
 30
0.0
 40
60.0
 50
246.44353569089921
 51
270.0
  0
LINE
  5
18C92
  8
AM_0N
 10
352.6329444344496
 20
255.13778758814769
 30
0.0
 11
352.6329444344496
 21
268.994194048699
 31
0.0
  0
LINE
  5
18CA2
  8
AM_0
 10
402.63293215578989
 20
229.06751308344511
 30
0.0
 11
402.63293215578977
 21
265.56742484563478
 31
0.0
  0
LINE
  5
18CA3
  8
AM_0
 10
408.63293215579
 20
229.06751308344511
 30
0.0
 11
408.63293215579
 21
265.56742484563478
 31
0.0
  0
LINE
  5
18CA4
  8
AM_0
 10
408.6329321557896
 20
239.06751308344519
 30
0.0
 11
402.63293215578989
 21
239.06751308344519
 31
0.0
  0
LINE
  5
18CA7
  8
AM_0
 10
408.6329321557896
 20
265.56742484563478
 30
0.0
 11
402.63293215578989
 21
265.56742484563478
 31
0.0
  0
LINE
  5
18CA8
  8
ﾁｭｳｼﾝｾﾝ1
 10
512.13292679154551
 20
208.81751308344511
 30
0.0
 11
512.1329366617548
 21
243.31751308344519
 31
0.0
  0
LINE
  5
18CA9
  8
ｶｸﾚｾﾝ2
 10
502.63293086837081
 20
223.06751308344511
 30
0.0
 11
502.63293258492899
 21
229.06751308344511
 31
0.0
  0
ARC
  5
18CAC
  8
AM_0
 10
472.6329178903768
 20
338.06751308344531
 30
0.0
 40
60.0
 50
270.0
 51
293.5564643091007
  0
LINE
  5
18CAD
  8
AM_0
 10
470.6329321557896
 20
265.56742484563478
 30
0.0
 11
476.63293215579
 21
265.56742484563478
 31
0.0
  0
LINE
  5
18CAE
  8
AM_0
 10
470.6329321557896
 20
239.06751308344519
 30
0.0
 11
476.63293215578989
 21
239.06751308344519
 31
0.0
  0
LINE
  5
18CB3
  8
AM_0
 10
470.6329321557896
 20
229.06751308344511
 30
0.0
 11
470.6329321557896
 21
265.56742484563478
 31
0.0
  0
LINE
  5
18CBB
  8
AM_0
 10
476.63293215578989
 20
229.06751308344511
 30
0.0
 11
476.63293215578989
 21
265.56742484563478
 31
0.0
  0
LINE
  5
18CC4
  8
ﾁｭｳｼﾝｾﾝ1
 10
48.130000000000003
 20
325.06726987482489
 30
0.0
 11
344.04729773306639
 21
325.0672526960073
 31
0.0
  0
ARC
  5
18CDA
  8
AM_0
 10
332.63290263158808
 20
287.06751308344519
 30
0.0
 40
19.999999999999989
 50
16.205985517972941
 51
77.626379667047075
  0
ARC
  5
18CDB
  8
AM_0
 10
332.63290263158808
 20
389.06752071283961
 30
0.0
 40
13.0
 50
270.0
 51
90.000005008956919
  0
ARC
  5
18CDC
  8
AM_0
 10
332.63290263158808
 20
389.06752071283961
 30
0.0
 40
20.000000000000011
 50
282.37362534190697
 51
343.79401266078941
  0
POLYLINE
  5
18CDD
  8
AM_0
 10
349.63294470537045
 20
414.06903534846703
 30
0.0
 66
     1
 70
     8
  0
VERTEX
  8
AM_0
  5
1C39F
 10
349.633
 20
414.069
 30
0.000000
  70
    32
  0
VERTEX
  8
AM_0
  5
1C3A0
 10
349.622
 20
414.511
 30
0.000000
  70
    32
  0
VERTEX
  8
AM_0
  5
1C3A1
 10
349.590
 20
414.951
 30
0.000000
  70
    32
  0
VERTEX
  8
AM_0
  5
1C3A2
 10
349.536
 20
415.390
 30
0.000000
  70
    32
  0
VERTEX
  8
AM_0
  5
1C3A3
 10
349.460
 20
415.825
 30
0.000000
  70
    32
  0
VERTEX
  8
AM_0
  5
1C3A4
 10
349.363
 20
416.256
 30
0.000000
  70
    32
  0
VERTEX
  8
AM_0
  5
1C3A5
 10
349.245
 20
416.682
 30
0.000000
  70
    32
  0
VERTEX
  8
AM_0
  5
1C3A6
 10
349.107
 20
417.101
 30
0.000000
  70
    32
  0
VERTEX
  8
AM_0
  5
1C3A7
 10
348.948
 20
417.513
 30
0.000000
  70
    32
  0
VERTEX
  8
AM_0
  5
1C3A8
 10
348.769
 20
417.917
 30
0.000000
  70
    32
  0
VERTEX
  8
AM_0
  5
1C3A9
 10
348.570
 20
418.312
 30
0.000000
  70
    32
  0
VERTEX
  8
AM_0
  5
1C3AA
 10
348.353
 20
418.696
 30
0.000000
  70
    32
  0
VERTEX
  8
AM_0
  5
1C3AB
 10
348.116
 20
419.069
 30
0.000000
  70
    32
  0
VERTEX
  8
AM_0
  5
1C3AC
 10
347.862
 20
419.430
 30
0.000000
  70
    32
  0
VERTEX
  8
AM_0
  5
1C3AD
 10
347.590
 20
419.779
 30
0.000000
  70
    32
  0
VERTEX
  8
AM_0
  5
1C3AE
 10
347.302
 20
420.113
 30
0.000000
  70
    32
  0
VERTEX
  8
AM_0
  5
1C3AF
 10
346.997
 20
420.433
 30
0.000000
  70
    32
  0
VERTEX
  8
AM_0
  5
1C3B0
 10
346.677
 20
420.738
 30
0.000000
  70
    32
  0
VERTEX
  8
AM_0
  5
1C3B1
 10
346.342
 20
421.026
 30
0.000000
  70
    32
  0
VERTEX
  8
AM_0
  5
1C3B2
 10
345.994
 20
421.298
 30
0.000000
  70
    32
  0
VERTEX
  8
AM_0
  5
1C3B3
 10
345.633
 20
421.552
 30
0.000000
  70
    32
  0
VERTEX
  8
AM_0
  5
1C3B4
 10
345.260
 20
421.789
 30
0.000000
  70
    32
  0
VERTEX
  8
AM_0
  5
1C3B5
 10
344.876
 20
422.006
 30
0.000000
  70
    32
  0
VERTEX
  8
AM_0
  5
1C3B6
 10
344.481
 20
422.205
 30
0.000000
  70
    32
  0
VERTEX
  8
AM_0
  5
1C3B7
 10
344.077
 20
422.384
 30
0.000000
  70
    32
  0
VERTEX
  8
AM_0
  5
1C3B8
 10
343.665
 20
422.543
 30
0.000000
  70
    32
  0
VERTEX
  8
AM_0
  5
1C3B9
 10
343.246
 20
422.682
 30
0.000000
  70
    32
  0
VERTEX
  8
AM_0
  5
1C3BA
 10
342.820
 20
422.799
 30
0.000000
  70
    32
  0
VERTEX
  8
AM_0
  5
1C3BB
 10
342.389
 20
422.896
 30
0.000000
  70
    32
  0
VERTEX
  8
AM_0
  5
1C3BC
 10
341.954
 20
422.972
 30
0.000000
  70
    32
  0
VERTEX
  8
AM_0
  5
1C3BD
 10
341.515
 20
423.026
 30
0.000000
  70
    32
  0
VERTEX
  8
AM_0
  5
1C3BE
 10
341.075
 20
423.058
 30
0.000000
  70
    32
  0
VERTEX
  8
AM_0
  5
1C3BF
 10
340.633
 20
423.069
 30
0.000000
  70
    32
  0
VERTEX
  8
AM_0
  5
1C3C0
 10
340.191
 20
423.058
 30
0.000000
  70
    32
  0
VERTEX
  8
AM_0
  5
1C3C1
 10
339.751
 20
423.026
 30
0.000000
  70
    32
  0
VERTEX
  8
AM_0
  5
1C3C2
 10
339.312
 20
422.972
 30
0.000000
  70
    32
  0
VERTEX
  8
AM_0
  5
1C3C3
 10
338.877
 20
422.896
 30
0.000000
  70
    32
  0
VERTEX
  8
AM_0
  5
1C3C4
 10
338.446
 20
422.799
 30
0.000000
  70
    32
  0
VERTEX
  8
AM_0
  5
1C3C5
 10
338.020
 20
422.682
 30
0.000000
  70
    32
  0
VERTEX
  8
AM_0
  5
1C3C6
 10
337.601
 20
422.543
 30
0.000000
  70
    32
  0
VERTEX
  8
AM_0
  5
1C3C7
 10
337.189
 20
422.384
 30
0.000000
  70
    32
  0
VERTEX
  8
AM_0
  5
1C3C8
 10
336.785
 20
422.205
 30
0.000000
  70
    32
  0
VERTEX
  8
AM_0
  5
1C3C9
 10
336.390
 20
422.006
 30
0.000000
  70
    32
  0
VERTEX
  8
AM_0
  5
1C3CA
 10
336.006
 20
421.789
 30
0.000000
  70
    32
  0
VERTEX
  8
AM_0
  5
1C3CB
 10
335.633
 20
421.552
 30
0.000000
  70
    32
  0
VERTEX
  8
AM_0
  5
1C3CC
 10
335.272
 20
421.298
 30
0.000000
  70
    32
  0
VERTEX
  8
AM_0
  5
1C3CD
 10
334.923
 20
421.026
 30
0.000000
  70
    32
  0
VERTEX
  8
AM_0
  5
1C3CE
 10
334.589
 20
420.738
 30
0.000000
  70
    32
  0
VERTEX
  8
AM_0
  5
1C3CF
 10
334.269
 20
420.433
 30
0.000000
  70
    32
  0
VERTEX
  8
AM_0
  5
1C3D0
 10
333.964
 20
420.113
 30
0.000000
  70
    32
  0
VERTEX
  8
AM_0
  5
1C3D1
 10
333.676
 20
419.779
 30
0.000000
  70
    32
  0
VERTEX
  8
AM_0
  5
1C3D2
 10
333.404
 20
419.430
 30
0.000000
  70
    32
  0
VERTEX
  8
AM_0
  5
1C3D3
 10
333.150
 20
419.069
 30
0.000000
  70
    32
  0
VERTEX
  8
AM_0
  5
1C3D4
 10
332.913
 20
418.696
 30
0.000000
  70
    32
  0
VERTEX
  8
AM_0
  5
1C3D5
 10
332.696
 20
418.312
 30
0.000000
  70
    32
  0
VERTEX
  8
AM_0
  5
1C3D6
 10
332.497
 20
417.917
 30
0.000000
  70
    32
  0
VERTEX
  8
AM_0
  5
1C3D7
 10
332.318
 20
417.513
 30
0.000000
  70
    32
  0
VERTEX
  8
AM_0
  5
1C3D8
 10
332.159
 20
417.101
 30
0.000000
  70
    32
  0
VERTEX
  8
AM_0
  5
1C3D9
 10
332.020
 20
416.682
 30
0.000000
  70
    32
  0
VERTEX
  8
AM_0
  5
1C3DA
 10
331.903
 20
416.256
 30
0.000000
  70
    32
  0
VERTEX
  8
AM_0
  5
1C3DB
 10
331.806
 20
415.825
 30
0.000000
  70
    32
  0
VERTEX
  8
AM_0
  5
1C3DC
 10
331.730
 20
415.390
 30
0.000000
  70
    32
  0
VERTEX
  8
AM_0
  5
1C3DD
 10
331.676
 20
414.951
 30
0.000000
  70
    32
  0
VERTEX
  8
AM_0
  5
1C3DE
 10
331.644
 20
414.511
 30
0.000000
  70
    32
  0
VERTEX
  8
AM_0
  5
1C3DF
 10
331.633
 20
414.069
 30
0.000000
  70
    32
  0
VERTEX
  8
AM_0
  5
1C3E0
 10
331.644
 20
413.627
 30
0.000000
  70
    32
  0
VERTEX
  8
AM_0
  5
1C3E1
 10
331.676
 20
413.187
 30
0.000000
  70
    32
  0
VERTEX
  8
AM_0
  5
1C3E2
 10
331.730
 20
412.748
 30
0.000000
  70
    32
  0
VERTEX
  8
AM_0
  5
1C3E3
 10
331.806
 20
412.313
 30
0.000000
  70
    32
  0
VERTEX
  8
AM_0
  5
1C3E4
 10
331.903
 20
411.882
 30
0.000000
  70
    32
  0
VERTEX
  8
AM_0
  5
1C3E5
 10
332.020
 20
411.456
 30
0.000000
  70
    32
  0
VERTEX
  8
AM_0
  5
1C3E6
 10
332.159
 20
411.037
 30
0.000000
  70
    32
  0
VERTEX
  8
AM_0
  5
1C3E7
 10
332.318
 20
410.625
 30
0.000000
  70
    32
  0
VERTEX
  8
AM_0
  5
1C3E8
 10
332.497
 20
410.221
 30
0.000000
  70
    32
  0
VERTEX
  8
AM_0
  5
1C3E9
 10
332.696
 20
409.826
 30
0.000000
  70
    32
  0
VERTEX
  8
AM_0
  5
1C3EA
 10
332.913
 20
409.442
 30
0.000000
  70
    32
  0
VERTEX
  8
AM_0
  5
1C3EB
 10
333.150
 20
409.069
 30
0.000000
  70
    32
  0
VERTEX
  8
AM_0
  5
1C3EC
 10
333.404
 20
408.708
 30
0.000000
  70
    32
  0
VERTEX
  8
AM_0
  5
1C3ED
 10
333.676
 20
408.359
 30
0.000000
  70
    32
  0
VERTEX
  8
AM_0
  5
1C3EE
 10
333.964
 20
408.025
 30
0.000000
  70
    32
  0
VERTEX
  8
AM_0
  5
1C3EF
 10
334.269
 20
407.705
 30
0.000000
  70
    32
  0
VERTEX
  8
AM_0
  5
1C3F0
 10
334.589
 20
407.400
 30
0.000000
  70
    32
  0
VERTEX
  8
AM_0
  5
1C3F1
 10
334.923
 20
407.112
 30
0.000000
  70
    32
  0
VERTEX
  8
AM_0
  5
1C3F2
 10
335.272
 20
406.840
 30
0.000000
  70
    32
  0
VERTEX
  8
AM_0
  5
1C3F3
 10
335.633
 20
406.586
 30
0.000000
  70
    32
  0
VERTEX
  8
AM_0
  5
1C3F4
 10
336.006
 20
406.349
 30
0.000000
  70
    32
  0
VERTEX
  8
AM_0
  5
1C3F5
 10
336.390
 20
406.132
 30
0.000000
  70
    32
  0
VERTEX
  8
AM_0
  5
1C3F6
 10
336.785
 20
405.933
 30
0.000000
  70
    32
  0
VERTEX
  8
AM_0
  5
1C3F7
 10
337.189
 20
405.754
 30
0.000000
  70
    32
  0
VERTEX
  8
AM_0
  5
1C3F8
 10
337.601
 20
405.595
 30
0.000000
  70
    32
  0
VERTEX
  8
AM_0
  5
1C3F9
 10
338.020
 20
405.456
 30
0.000000
  70
    32
  0
VERTEX
  8
AM_0
  5
1C3FA
 10
338.446
 20
405.339
 30
0.000000
  70
    32
  0
VERTEX
  8
AM_0
  5
1C3FB
 10
338.877
 20
405.242
 30
0.000000
  70
    32
  0
VERTEX
  8
AM_0
  5
1C3FC
 10
339.312
 20
405.166
 30
0.000000
  70
    32
  0
VERTEX
  8
AM_0
  5
1C3FD
 10
339.751
 20
405.112
 30
0.000000
  70
    32
  0
VERTEX
  8
AM_0
  5
1C3FE
 10
340.191
 20
405.080
 30
0.000000
  70
    32
  0
VERTEX
  8
AM_0
  5
1C3FF
 10
340.633
 20
405.069
 30
0.000000
  70
    32
  0
VERTEX
  8
AM_0
  5
1C400
 10
341.075
 20
405.080
 30
0.000000
  70
    32
  0
VERTEX
  8
AM_0
  5
1C401
 10
341.515
 20
405.112
 30
0.000000
  70
    32
  0
VERTEX
  8
AM_0
  5
1C402
 10
341.954
 20
405.166
 30
0.000000
  70
    32
  0
VERTEX
  8
AM_0
  5
1C403
 10
342.389
 20
405.242
 30
0.000000
  70
    32
  0
VERTEX
  8
AM_0
  5
1C404
 10
342.820
 20
405.339
 30
0.000000
  70
    32
  0
VERTEX
  8
AM_0
  5
1C405
 10
343.246
 20
405.456
 30
0.000000
  70
    32
  0
VERTEX
  8
AM_0
  5
1C406
 10
343.665
 20
405.595
 30
0.000000
  70
    32
  0
VERTEX
  8
AM_0
  5
1C407
 10
344.077
 20
405.754
 30
0.000000
  70
    32
  0
VERTEX
  8
AM_0
  5
1C408
 10
344.481
 20
405.933
 30
0.000000
  70
    32
  0
VERTEX
  8
AM_0
  5
1C409
 10
344.876
 20
406.132
 30
0.000000
  70
    32
  0
VERTEX
  8
AM_0
  5
1C40A
 10
345.260
 20
406.349
 30
0.000000
  70
    32
  0
VERTEX
  8
AM_0
  5
1C40B
 10
345.633
 20
406.586
 30
0.000000
  70
    32
  0
VERTEX
  8
AM_0
  5
1C40C
 10
345.994
 20
406.840
 30
0.000000
  70
    32
  0
VERTEX
  8
AM_0
  5
1C40D
 10
346.342
 20
407.112
 30
0.000000
  70
    32
  0
VERTEX
  8
AM_0
  5
1C40E
 10
346.677
 20
407.400
 30
0.000000
  70
    32
  0
VERTEX
  8
AM_0
  5
1C40F
 10
346.997
 20
407.705
 30
0.000000
  70
    32
  0
VERTEX
  8
AM_0
  5
1C410
 10
347.302
 20
408.025
 30
0.000000
  70
    32
  0
VERTEX
  8
AM_0
  5
1C411
 10
347.590
 20
408.359
 30
0.000000
  70
    32
  0
VERTEX
  8
AM_0
  5
1C412
 10
347.862
 20
408.708
 30
0.000000
  70
    32
  0
VERTEX
  8
AM_0
  5
1C413
 10
348.116
 20
409.069
 30
0.000000
  70
    32
  0
VERTEX
  8
AM_0
  5
1C414
 10
348.353
 20
409.442
 30
0.000000
  70
    32
  0
VERTEX
  8
AM_0
  5
1C415
 10
348.570
 20
409.826
 30
0.000000
  70
    32
  0
VERTEX
  8
AM_0
  5
1C416
 10
348.769
 20
410.221
 30
0.000000
  70
    32
  0
VERTEX
  8
AM_0
  5
1C417
 10
348.948
 20
410.625
 30
0.000000
  70
    32
  0
VERTEX
  8
AM_0
  5
1C418
 10
349.107
 20
411.037
 30
0.000000
  70
    32
  0
VERTEX
  8
AM_0
  5
1C419
 10
349.245
 20
411.456
 30
0.000000
  70
    32
  0
VERTEX
  8
AM_0
  5
1C41A
 10
349.363
 20
411.882
 30
0.000000
  70
    32
  0
VERTEX
  8
AM_0
  5
1C41B
 10
349.460
 20
412.313
 30
0.000000
  70
    32
  0
VERTEX
  8
AM_0
  5
1C41C
 10
349.536
 20
412.748
 30
0.000000
  70
    32
  0
VERTEX
  8
AM_0
  5
1C41D
 10
349.590
 20
413.187
 30
0.000000
  70
    32
  0
VERTEX
  8
AM_0
  5
1C41E
 10
349.622
 20
413.627
 30
0.000000
  70
    32
  0
VERTEX
  8
AM_0
  5
1C41F
 10
349.633
 20
414.069
 30
0.000000
  70
    32
  0
SEQEND
  8
AM_0
  5
1C420
  0
LINE
  5
18CDE
  8
ﾁｭｳｼﾝｾﾝ1
 10
328.63294407322172
 20
414.06903534846703
 30
0.0
 11
352.6329447956773
 21
414.06903534846703
 31
0.0
  0
LINE
  5
18CE7
  8
AM_0
 10
296.63294996448138
 20
479.06725626795259
 30
0.0
 11
296.63294996448121
 21
325.06726987482608
 31
0.0
  0
LINE
  5
18CE8
  8
AM_0
 10
310.6329499686812
 20
325.0672526960073
 30
0.0
 11
310.6329499686812
 21
413.06901269600718
 31
0.0
  0
LINE
  5
18D18
  8
AM_0
 10
330.63290263158831
 20
361.7179265966289
 30
0.0
 11
330.63290263158831
 21
314.41710719965619
 31
0.0
  0
LINE
  5
18D19
  8
AM_0
 10
296.63294996448121
 20
286.00553625353342
 30
0.0
 11
310.6329499686812
 21
286.00553625353342
 31
0.0
  0
LINE
  5
18D25
  8
AM_0
 10
312.0615213976813
 20
287.15233723692
 30
0.0
 11
321.63239491764949
 21
287.15225502864359
 31
0.0
  0
ARC
  5
18D26
  8
AM_0
 10
325.63290263158808
 20
303.06751308344519
 30
0.0
 40
3.0000000000000031
 50
179.99999749551819
 51
270.0
  0
LINE
  5
18D27
  8
AM_0N
 10
334.94230370834651
 20
291.06751308344548
 30
0.0
 11
330.32350155483022
 21
291.06751308344548
 31
0.0
  0
LINE
  5
18D28
  8
AM_0
 10
332.63290263158842
 20
300.06751308344519
 30
0.0
 11
325.63290263158842
 21
300.06751308344519
 31
0.0
  0
LINE
  5
18D29
  8
AM_0N
 10
330.32350155483022
 20
291.06751308344548
 30
0.0
 11
328.01410047807138
 21
287.06751308344519
 31
0.0
  0
LINE
  5
18D2A
  8
AM_0N
 10
337.25170478510529
 20
287.06751308344519
 30
0.0
 11
334.94230370834651
 21
291.06751308344548
 31
0.0
  0
ARC
  5
18D2B
  8
AM_0
 10
338.63290263158808
 20
314.41710719965607
 30
0.0
 40
8.0000000000000089
 50
179.99999749551819
 51
257.62637465809303
  0
ARC
  5
18D4B
  8
AM_0
 10
338.63290263158808
 20
361.71792659662879
 30
0.0
 40
7.999999999999992
 50
102.3736203329529
 51
179.99999749551819
  0
LINE
  5
18D4C
  8
AM_0
 10
310.63294996868132
 20
397.06869269600708
 30
0.0
 11
322.63294389260773
 21
397.06869269600708
 31
0.0
  0
LINE
  5
18D4D
  8
AM_0N
 10
334.94230370834691
 20
385.06752071283978
 30
0.0
 11
337.25170478510529
 21
389.06752071283978
 31
0.0
  0
LINE
  5
18D4E
  8
AM_0N
 10
328.01410047807138
 20
389.06752071283978
 30
0.0
 11
330.32350155482987
 21
385.06752071283978
 31
0.0
  0
CIRCLE
  5
18D4F
  8
AM_0N
 10
332.63290263158842
 20
389.06752071283978
 30
0.0
 40
4.6188021535170032
  0
CIRCLE
  5
18D50
  8
AM_0N
 10
332.63290263158842
 20
389.06752071283978
 30
0.0
 40
8.0
  0
LINE
  5
18D51
  8
AM_0N
 10
330.32350155482987
 20
385.06752071283978
 30
0.0
 11
334.94230370834691
 21
385.06752071283978
 31
0.0
  0
LINE
  5
18D52
  8
AM_0
 10
332.63290263158842
 20
376.06752071283978
 30
0.0
 11
325.63290263158842
 21
376.06752071283978
 31
0.0
  0
ARC
  5
18D53
  8
AM_0
 10
325.63290263158808
 20
373.06752071283972
 30
0.0
 40
3.0000000000000111
 50
90.000005008956919
 51
180.000000683243
  0
LINE
  5
18D54
  8
AM_0N
 10
334.94230370834651
 20
393.06752071284001
 30
0.0
 11
330.32350155483022
 21
393.06752071284001
 31
0.0
  0
LINE
  5
18D55
  8
AM_0N
 10
330.32350155483022
 20
393.06752071284001
 30
0.0
 11
328.01410047807138
 21
389.06752071283978
 31
0.0
  0
LINE
  5
18D56
  8
AM_0N
 10
337.25170478510529
 20
389.06752071283978
 30
0.0
 11
334.94230370834651
 21
393.06752071284001
 31
0.0
  0
LINE
  5
18D9F
  8
AM_0
 10
296.63294996448121
 20
413.06901269600718
 30
0.0
 11
310.6329499686812
 21
413.06901269600718
 31
0.0
  0
POLYLINE
  5
18DB1
  8
AM_0
 10
337.63294368847249
 20
432.06939588491974
 30
0.0
 66
     1
 70
     8
  0
VERTEX
  8
AM_0
  5
1C421
 10
337.633
 20
432.069
 30
0.000000
  70
    32
  0
VERTEX
  8
AM_0
  5
1C422
 10
337.449
 20
432.068
 30
0.000000
  70
    32
  0
VERTEX
  8
AM_0
  5
1C423
 10
337.265
 20
432.065
 30
0.000000
  70
    32
  0
VERTEX
  8
AM_0
  5
1C424
 10
337.081
 20
432.059
 30
0.000000
  70
    32
  0
VERTEX
  8
AM_0
  5
1C425
 10
336.897
 20
432.051
 30
0.000000
  70
    32
  0
VERTEX
  8
AM_0
  5
1C426
 10
336.713
 20
432.041
 30
0.000000
  70
    32
  0
VERTEX
  8
AM_0
  5
1C427
 10
336.529
 20
432.029
 30
0.000000
  70
    32
  0
VERTEX
  8
AM_0
  5
1C428
 10
336.346
 20
432.014
 30
0.000000
  70
    32
  0
VERTEX
  8
AM_0
  5
1C429
 10
336.163
 20
431.997
 30
0.000000
  70
    32
  0
VERTEX
  8
AM_0
  5
1C42A
 10
335.980
 20
431.978
 30
0.000000
  70
    32
  0
VERTEX
  8
AM_0
  5
1C42B
 10
335.797
 20
431.957
 30
0.000000
  70
    32
  0
VERTEX
  8
AM_0
  5
1C42C
 10
335.614
 20
431.933
 30
0.000000
  70
    32
  0
VERTEX
  8
AM_0
  5
1C42D
 10
335.432
 20
431.907
 30
0.000000
  70
    32
  0
VERTEX
  8
AM_0
  5
1C42E
 10
335.250
 20
431.879
 30
0.000000
  70
    32
  0
VERTEX
  8
AM_0
  5
1C42F
 10
335.069
 20
431.849
 30
0.000000
  70
    32
  0
VERTEX
  8
AM_0
  5
1C430
 10
334.887
 20
431.816
 30
0.000000
  70
    32
  0
VERTEX
  8
AM_0
  5
1C431
 10
334.707
 20
431.781
 30
0.000000
  70
    32
  0
VERTEX
  8
AM_0
  5
1C432
 10
334.526
 20
431.744
 30
0.000000
  70
    32
  0
VERTEX
  8
AM_0
  5
1C433
 10
334.346
 20
431.705
 30
0.000000
  70
    32
  0
VERTEX
  8
AM_0
  5
1C434
 10
334.167
 20
431.663
 30
0.000000
  70
    32
  0
VERTEX
  8
AM_0
  5
1C435
 10
333.988
 20
431.620
 30
0.000000
  70
    32
  0
VERTEX
  8
AM_0
  5
1C436
 10
333.810
 20
431.574
 30
0.000000
  70
    32
  0
VERTEX
  8
AM_0
  5
1C437
 10
333.632
 20
431.526
 30
0.000000
  70
    32
  0
VERTEX
  8
AM_0
  5
1C438
 10
333.455
 20
431.476
 30
0.000000
  70
    32
  0
VERTEX
  8
AM_0
  5
1C439
 10
333.279
 20
431.423
 30
0.000000
  70
    32
  0
VERTEX
  8
AM_0
  5
1C43A
 10
333.103
 20
431.369
 30
0.000000
  70
    32
  0
VERTEX
  8
AM_0
  5
1C43B
 10
332.928
 20
431.312
 30
0.000000
  70
    32
  0
VERTEX
  8
AM_0
  5
1C43C
 10
332.753
 20
431.253
 30
0.000000
  70
    32
  0
VERTEX
  8
AM_0
  5
1C43D
 10
332.580
 20
431.193
 30
0.000000
  70
    32
  0
VERTEX
  8
AM_0
  5
1C43E
 10
332.407
 20
431.129
 30
0.000000
  70
    32
  0
VERTEX
  8
AM_0
  5
1C43F
 10
332.235
 20
431.064
 30
0.000000
  70
    32
  0
VERTEX
  8
AM_0
  5
1C440
 10
332.063
 20
430.997
 30
0.000000
  70
    32
  0
VERTEX
  8
AM_0
  5
1C441
 10
331.893
 20
430.928
 30
0.000000
  70
    32
  0
VERTEX
  8
AM_0
  5
1C442
 10
331.723
 20
430.856
 30
0.000000
  70
    32
  0
VERTEX
  8
AM_0
  5
1C443
 10
331.554
 20
430.783
 30
0.000000
  70
    32
  0
VERTEX
  8
AM_0
  5
1C444
 10
331.386
 20
430.707
 30
0.000000
  70
    32
  0
VERTEX
  8
AM_0
  5
1C445
 10
331.220
 20
430.629
 30
0.000000
  70
    32
  0
VERTEX
  8
AM_0
  5
1C446
 10
331.054
 20
430.549
 30
0.000000
  70
    32
  0
VERTEX
  8
AM_0
  5
1C447
 10
330.889
 20
430.468
 30
0.000000
  70
    32
  0
VERTEX
  8
AM_0
  5
1C448
 10
330.725
 20
430.384
 30
0.000000
  70
    32
  0
VERTEX
  8
AM_0
  5
1C449
 10
330.562
 20
430.298
 30
0.000000
  70
    32
  0
VERTEX
  8
AM_0
  5
1C44A
 10
330.400
 20
430.210
 30
0.000000
  70
    32
  0
VERTEX
  8
AM_0
  5
1C44B
 10
330.239
 20
430.121
 30
0.000000
  70
    32
  0
VERTEX
  8
AM_0
  5
1C44C
 10
330.080
 20
430.029
 30
0.000000
  70
    32
  0
VERTEX
  8
AM_0
  5
1C44D
 10
329.921
 20
429.935
 30
0.000000
  70
    32
  0
VERTEX
  8
AM_0
  5
1C44E
 10
329.764
 20
429.840
 30
0.000000
  70
    32
  0
VERTEX
  8
AM_0
  5
1C44F
 10
329.608
 20
429.742
 30
0.000000
  70
    32
  0
VERTEX
  8
AM_0
  5
1C450
 10
329.453
 20
429.643
 30
0.000000
  70
    32
  0
VERTEX
  8
AM_0
  5
1C451
 10
329.299
 20
429.541
 30
0.000000
  70
    32
  0
VERTEX
  8
AM_0
  5
1C452
 10
329.147
 20
429.438
 30
0.000000
  70
    32
  0
VERTEX
  8
AM_0
  5
1C453
 10
328.996
 20
429.333
 30
0.000000
  70
    32
  0
VERTEX
  8
AM_0
  5
1C454
 10
328.846
 20
429.226
 30
0.000000
  70
    32
  0
VERTEX
  8
AM_0
  5
1C455
 10
328.697
 20
429.117
 30
0.000000
  70
    32
  0
VERTEX
  8
AM_0
  5
1C456
 10
328.550
 20
429.007
 30
0.000000
  70
    32
  0
VERTEX
  8
AM_0
  5
1C457
 10
328.404
 20
428.895
 30
0.000000
  70
    32
  0
VERTEX
  8
AM_0
  5
1C458
 10
328.260
 20
428.780
 30
0.000000
  70
    32
  0
VERTEX
  8
AM_0
  5
1C459
 10
328.117
 20
428.664
 30
0.000000
  70
    32
  0
VERTEX
  8
AM_0
  5
1C45A
 10
327.975
 20
428.547
 30
0.000000
  70
    32
  0
VERTEX
  8
AM_0
  5
1C45B
 10
327.835
 20
428.427
 30
0.000000
  70
    32
  0
VERTEX
  8
AM_0
  5
1C45C
 10
327.697
 20
428.306
 30
0.000000
  70
    32
  0
VERTEX
  8
AM_0
  5
1C45D
 10
327.560
 20
428.184
 30
0.000000
  70
    32
  0
VERTEX
  8
AM_0
  5
1C45E
 10
327.424
 20
428.059
 30
0.000000
  70
    32
  0
VERTEX
  8
AM_0
  5
1C45F
 10
327.290
 20
427.933
 30
0.000000
  70
    32
  0
VERTEX
  8
AM_0
  5
1C460
 10
327.157
 20
427.805
 30
0.000000
  70
    32
  0
VERTEX
  8
AM_0
  5
1C461
 10
327.026
 20
427.676
 30
0.000000
  70
    32
  0
VERTEX
  8
AM_0
  5
1C462
 10
326.897
 20
427.545
 30
0.000000
  70
    32
  0
VERTEX
  8
AM_0
  5
1C463
 10
326.769
 20
427.412
 30
0.000000
  70
    32
  0
VERTEX
  8
AM_0
  5
1C464
 10
326.643
 20
427.278
 30
0.000000
  70
    32
  0
VERTEX
  8
AM_0
  5
1C465
 10
326.519
 20
427.143
 30
0.000000
  70
    32
  0
VERTEX
  8
AM_0
  5
1C466
 10
326.396
 20
427.006
 30
0.000000
  70
    32
  0
VERTEX
  8
AM_0
  5
1C467
 10
326.275
 20
426.867
 30
0.000000
  70
    32
  0
VERTEX
  8
AM_0
  5
1C468
 10
326.155
 20
426.727
 30
0.000000
  70
    32
  0
VERTEX
  8
AM_0
  5
1C469
 10
326.038
 20
426.585
 30
0.000000
  70
    32
  0
VERTEX
  8
AM_0
  5
1C46A
 10
325.922
 20
426.442
 30
0.000000
  70
    32
  0
VERTEX
  8
AM_0
  5
1C46B
 10
325.808
 20
426.298
 30
0.000000
  70
    32
  0
VERTEX
  8
AM_0
  5
1C46C
 10
325.695
 20
426.152
 30
0.000000
  70
    32
  0
VERTEX
  8
AM_0
  5
1C46D
 10
325.585
 20
426.005
 30
0.000000
  70
    32
  0
VERTEX
  8
AM_0
  5
1C46E
 10
325.476
 20
425.856
 30
0.000000
  70
    32
  0
VERTEX
  8
AM_0
  5
1C46F
 10
325.369
 20
425.706
 30
0.000000
  70
    32
  0
VERTEX
  8
AM_0
  5
1C470
 10
325.264
 20
425.555
 30
0.000000
  70
    32
  0
VERTEX
  8
AM_0
  5
1C471
 10
325.161
 20
425.403
 30
0.000000
  70
    32
  0
VERTEX
  8
AM_0
  5
1C472
 10
325.060
 20
425.249
 30
0.000000
  70
    32
  0
VERTEX
  8
AM_0
  5
1C473
 10
324.960
 20
425.094
 30
0.000000
  70
    32
  0
VERTEX
  8
AM_0
  5
1C474
 10
324.863
 20
424.938
 30
0.000000
  70
    32
  0
VERTEX
  8
AM_0
  5
1C475
 10
324.767
 20
424.781
 30
0.000000
  70
    32
  0
VERTEX
  8
AM_0
  5
1C476
 10
324.673
 20
424.622
 30
0.000000
  70
    32
  0
VERTEX
  8
AM_0
  5
1C477
 10
324.582
 20
424.463
 30
0.000000
  70
    32
  0
VERTEX
  8
AM_0
  5
1C478
 10
324.492
 20
424.302
 30
0.000000
  70
    32
  0
VERTEX
  8
AM_0
  5
1C479
 10
324.404
 20
424.140
 30
0.000000
  70
    32
  0
VERTEX
  8
AM_0
  5
1C47A
 10
324.318
 20
423.977
 30
0.000000
  70
    32
  0
VERTEX
  8
AM_0
  5
1C47B
 10
324.235
 20
423.813
 30
0.000000
  70
    32
  0
VERTEX
  8
AM_0
  5
1C47C
 10
324.153
 20
423.648
 30
0.000000
  70
    32
  0
VERTEX
  8
AM_0
  5
1C47D
 10
324.073
 20
423.483
 30
0.000000
  70
    32
  0
VERTEX
  8
AM_0
  5
1C47E
 10
323.995
 20
423.316
 30
0.000000
  70
    32
  0
VERTEX
  8
AM_0
  5
1C47F
 10
323.920
 20
423.148
 30
0.000000
  70
    32
  0
VERTEX
  8
AM_0
  5
1C480
 10
323.846
 20
422.979
 30
0.000000
  70
    32
  0
VERTEX
  8
AM_0
  5
1C481
 10
323.775
 20
422.809
 30
0.000000
  70
    32
  0
VERTEX
  8
AM_0
  5
1C482
 10
323.705
 20
422.639
 30
0.000000
  70
    32
  0
VERTEX
  8
AM_0
  5
1C483
 10
323.638
 20
422.468
 30
0.000000
  70
    32
  0
VERTEX
  8
AM_0
  5
1C484
 10
323.573
 20
422.295
 30
0.000000
  70
    32
  0
VERTEX
  8
AM_0
  5
1C485
 10
323.510
 20
422.123
 30
0.000000
  70
    32
  0
VERTEX
  8
AM_0
  5
1C486
 10
323.449
 20
421.949
 30
0.000000
  70
    32
  0
VERTEX
  8
AM_0
  5
1C487
 10
323.390
 20
421.774
 30
0.000000
  70
    32
  0
VERTEX
  8
AM_0
  5
1C488
 10
323.333
 20
421.599
 30
0.000000
  70
    32
  0
VERTEX
  8
AM_0
  5
1C489
 10
323.279
 20
421.423
 30
0.000000
  70
    32
  0
VERTEX
  8
AM_0
  5
1C48A
 10
323.226
 20
421.247
 30
0.000000
  70
    32
  0
VERTEX
  8
AM_0
  5
1C48B
 10
323.176
 20
421.070
 30
0.000000
  70
    32
  0
VERTEX
  8
AM_0
  5
1C48C
 10
323.128
 20
420.892
 30
0.000000
  70
    32
  0
VERTEX
  8
AM_0
  5
1C48D
 10
323.082
 20
420.714
 30
0.000000
  70
    32
  0
VERTEX
  8
AM_0
  5
1C48E
 10
323.039
 20
420.535
 30
0.000000
  70
    32
  0
VERTEX
  8
AM_0
  5
1C48F
 10
322.997
 20
420.356
 30
0.000000
  70
    32
  0
VERTEX
  8
AM_0
  5
1C490
 10
322.958
 20
420.176
 30
0.000000
  70
    32
  0
VERTEX
  8
AM_0
  5
1C491
 10
322.921
 20
419.996
 30
0.000000
  70
    32
  0
VERTEX
  8
AM_0
  5
1C492
 10
322.886
 20
419.815
 30
0.000000
  70
    32
  0
VERTEX
  8
AM_0
  5
1C493
 10
322.854
 20
419.634
 30
0.000000
  70
    32
  0
VERTEX
  8
AM_0
  5
1C494
 10
322.823
 20
419.452
 30
0.000000
  70
    32
  0
VERTEX
  8
AM_0
  5
1C495
 10
322.795
 20
419.270
 30
0.000000
  70
    32
  0
VERTEX
  8
AM_0
  5
1C496
 10
322.769
 20
419.088
 30
0.000000
  70
    32
  0
VERTEX
  8
AM_0
  5
1C497
 10
322.746
 20
418.905
 30
0.000000
  70
    32
  0
VERTEX
  8
AM_0
  5
1C498
 10
322.724
 20
418.722
 30
0.000000
  70
    32
  0
VERTEX
  8
AM_0
  5
1C499
 10
322.705
 20
418.539
 30
0.000000
  70
    32
  0
VERTEX
  8
AM_0
  5
1C49A
 10
322.688
 20
418.356
 30
0.000000
  70
    32
  0
VERTEX
  8
AM_0
  5
1C49B
 10
322.674
 20
418.173
 30
0.000000
  70
    32
  0
VERTEX
  8
AM_0
  5
1C49C
 10
322.661
 20
417.989
 30
0.000000
  70
    32
  0
VERTEX
  8
AM_0
  5
1C49D
 10
322.651
 20
417.805
 30
0.000000
  70
    32
  0
VERTEX
  8
AM_0
  5
1C49E
 10
322.643
 20
417.621
 30
0.000000
  70
    32
  0
VERTEX
  8
AM_0
  5
1C49F
 10
322.637
 20
417.437
 30
0.000000
  70
    32
  0
VERTEX
  8
AM_0
  5
1C4A0
 10
322.634
 20
417.253
 30
0.000000
  70
    32
  0
VERTEX
  8
AM_0
  5
1C4A1
 10
322.633
 20
417.069
 30
0.000000
  70
    32
  0
SEQEND
  8
AM_0
  5
1C4A2
  0
LINE
  5
18DB2
  8
AM_0
 10
322.63294389260773
 20
413.06901269600718
 30
0.0
 11
310.6329499686812
 21
413.06901269600718
 31
0.0
  0
LINE
  5
18DB3
  8
ﾁｭｳｼﾝｾﾝ1
 10
340.6329444344496
 20
426.06927570610208
 30
0.0
 11
340.6329444344496
 21
402.0687949908322
 31
0.0
  0
LINE
  5
18DB4
  8
AM_0
 10
332.63290263158842
 20
402.06752071283961
 30
0.0
 11
325.63290263158842
 21
402.06752071283961
 31
0.0
  0
ARC
  5
18DB5
  8
AM_0
 10
325.63290263158808
 20
405.06752071283972
 30
0.0
 40
3.0000000000000031
 50
179.99999749551819
 51
270.0
  0
LINE
  5
18DB6
  8
AM_0
 10
361.95670939428368
 20
418.3002477636208
 30
0.0
 11
351.83819437963518
 21
383.48568782709771
 31
0.0
  0
CIRCLE
  5
18DBC
  8
AM_0N
 10
439.63291789037743
 20
422.06752071283972
 30
0.0
 40
8.0
  0
ARC
  5
18DBD
  8
AM_0
 10
439.6329178903772
 20
422.06752071283972
 30
0.0
 40
20.0
 50
192.37362283742289
 51
347.62637716257711
  0
ARC
  5
18DBE
  8
AM_0
 10
439.6329178903772
 20
422.06752071283972
 30
0.0
 40
13.000000000000011
 50
179.99999749551819
 51
0.0000025044817295
  0
LINE
  5
18DBF
  8
AM_0
 10
369.63882304174462
 20
424.06752071283961
 30
0.0
 11
412.28332377416638
 21
424.06752071283961
 31
0.0
  0
ARC
  5
18DC0
  8
AM_0
 10
369.63882304174439
 20
416.06752071283961
 30
0.0
 40
8.0000000000000018
 50
90.000005008956919
 51
163.79401083954971
  0
ARC
  5
18DC1
  8
AM_0
 10
423.63290263158808
 20
429.06752071283961
 30
0.0
 40
3.0000000000000031
 50
0.0000025044817295
 51
90.000005008956919
  0
ARC
  5
18DC2
  8
AM_0
 10
412.28332377416598
 20
416.06752071283961
 30
0.0
 40
7.9999999999999858
 50
12.373627846391059
 51
90.000005008956919
  0
LINE
  5
18DC3
  8
AM_0
 10
426.63290263158831
 20
422.06752071283972
 30
0.0
 11
426.63290263158831
 21
429.06752071283978
 31
0.0
  0
LINE
  5
18DC4
  8
AM_0
 10
509.62699748022101
 20
424.06752071283961
 30
0.0
 11
466.9824967477993
 21
424.06752071283961
 31
0.0
  0
ARC
  5
18DC5
  8
AM_0
 10
455.6329178903772
 20
429.06752071283961
 30
0.0
 40
3.0000000000000111
 50
90.000005008956919
 51
180.000000683243
  0
LINE
  5
18DC6
  8
AM_0N
 10
441.9423189671358
 20
418.06752071283972
 30
0.0
 11
444.2517200438943
 21
422.06752071283972
 31
0.0
  0
LINE
  5
18DC7
  8
AM_0N
 10
444.2517200438943
 20
422.06752071283972
 30
0.0
 11
441.94231896713558
 21
426.06752071283978
 31
0.0
  0
CIRCLE
  5
18DC8
  8
AM_0N
 10
439.63291789037743
 20
422.06752071283972
 30
0.0
 40
4.6188021535170032
  0
LINE
  5
18DC9
  8
AM_0N
 10
435.01411573686028
 20
422.06752071283972
 30
0.0
 11
437.32351681361871
 21
418.06752071283972
 31
0.0
  0
LINE
  5
18DCA
  8
AM_0N
 10
437.32351681361928
 20
426.06752071283978
 30
0.0
 11
435.01411573686028
 21
422.06752071283972
 31
0.0
  0
LINE
  5
18DCB
  8
AM_0N
 10
437.32351681361871
 20
418.06752071283972
 30
0.0
 11
441.9423189671358
 21
418.06752071283972
 31
0.0
  0
LINE
  5
18DCC
  8
AM_0N
 10
441.94231896713558
 20
426.06752071283978
 30
0.0
 11
437.32351681361928
 21
426.06752071283978
 31
0.0
  0
LINE
  5
18DCD
  8
AM_0
 10
452.63291789037743
 20
422.06752071283972
 30
0.0
 11
452.63291789037743
 21
429.06752071283978
 31
0.0
  0
ARC
  5
18DCE
  8
AM_0
 10
466.98249674779908
 20
416.06752071283961
 30
0.0
 40
8.0000000000000018
 50
90.000005008956919
 51
167.62637534133319
  0
ARC
  5
18DCF
  8
AM_0
 10
509.62699748022101
 20
416.06752071283961
 30
0.0
 40
7.999999999999992
 50
16.205985517972941
 51
90.000005008956919
  0
ARC
  5
18DD0
  8
AM_0N
 10
546.63291789037714
 20
287.06751308344519
 30
0.0
 40
8.0
 50
314.41531894561041
 51
210.00000000000051
  0
ARC
  5
18DD1
  8
AM_0N
 10
546.63291789037714
 20
287.06751308344519
 30
0.0
 40
4.6188021535170032
 50
294.86996062957309
 51
240.00000000004471
  0
LINE
  5
18DD2
  8
AM_0
 10
524.64275522387766
 20
283.06751308344519
 30
0.0
 11
527.42762614233061
 21
292.64934596918738
 31
0.0
  0
LINE
  5
18DD3
  8
AM_0N
 10
548.94231896713563
 20
283.06751308344519
 30
0.0
 11
551.25172004389424
 21
287.06751308344519
 31
0.0
  0
LINE
  5
18DD4
  8
AM_0N
 10
542.01411573686005
 20
287.06751308344519
 30
0.0
 11
544.32351681361865
 21
283.06751308344519
 31
0.0
  0
ARC
  5
18DD5
  8
AM_0
 10
546.63291789037714
 20
287.06751308344519
 30
0.0
 40
12.999999999999989
 50
90.000005008956919
 51
197.92021313939301
  0
LINE
  5
18DD8
  8
AM_0
 10
783.53896964095225
 20
287.7573623348182
 30
0.0
 11
786.53896973125916
 21
289.4894526916143
 31
0.0
  0
LINE
  5
18DD9
  8
AM_0
 10
773.53896933992905
 20
280.06635135487591
 30
0.0
 11
773.53896933992905
 21
294.06663177211681
 31
0.0
  0
LINE
  5
18DDE
  8
ﾁｭｳｼﾝｾﾝ1
 10
841.53904257510715
 20
217.25488025030569
 30
0.0
 11
841.53956638688715
 21
483.78104193341147
 31
0.0
  0
LINE
  5
18DDF
  8
AM_0
 10
911.53897730874701
 20
430.09694426851848
 30
0.0
 11
911.53897730874701
 21
233.06751308344519
 31
0.0
  0
LINE
  5
18DE0
  8
AM_0
 10
556.63292041897205
 20
417.069095437876
 30
0.0
 11
556.63292041897182
 21
223.06751308344511
 31
0.0
  0
LINE
  5
18DE1
  8
AM_0
 10
798.53897009248715
 20
432.06939588491952
 30
0.0
 11
798.53897009248715
 21
244.0656302819709
 31
0.0
  0
LINE
  5
18DE2
  8
AM_0
 10
771.53896927972426
 20
431.5981034862308
 30
0.0
 11
771.53896927972426
 21
233.06751308344519
 31
0.0
  0
LINE
  5
18DE4
  8
AM_0
 10
786.53896973125916
 20
274.06623117605841
 30
0.0
 11
786.53896973125916
 21
300.0667519509343
 31
0.0
  0
LINE
  5
18DE5
  8
AM_0
 10
783.53896964095225
 20
277.66630938698688
 30
0.0
 11
783.53896964095225
 21
296.466673740006
 31
0.0
  0
LINE
  5
18DEA
  8
AM_0
 10
911.53897730874701
 20
246.03809715746641
 30
0.0
 11
798.53897009248715
 21
244.0656302819709
 31
0.0
  0
LINE
  5
18DED
  8
ｶｸﾚｾﾝ2
 10
521.63293086837155
 20
223.06751308344511
 30
0.0
 11
521.6329325849299
 21
229.06751308344511
 31
0.0
  0
LINE
  5
18DEE
  8
AM_0N
 10
550.63291987713023
 20
255.13778758814769
 30
0.0
 11
550.63291987713023
 21
268.994194048699
 31
0.0
  0
LINE
  5
18DEF
  8
AM_0N
 10
526.63291987713046
 20
268.99419404869923
 30
0.0
 11
526.63291987713046
 21
255.13778758814809
 31
0.0
  0
CIRCLE
  5
18DF0
  8
AM_0N
 10
538.63291987713046
 20
262.06599081842347
 30
0.0
 40
12.0
  0
CIRCLE
  5
18DF1
  8
AM_0N
 10
538.63291987713046
 20
262.06599081842347
 30
0.0
 40
6.9174682452695491
  0
CIRCLE
  5
18DF2
  8
AM_12N
 62
     2
 10
538.63291987713046
 20
262.06599081842347
 30
0.0
 40
6.2999999999999519
  0
CIRCLE
  5
18DF3
  8
AM_0
 10
538.63291987713046
 20
262.06599081842347
 30
0.0
 40
15.0
  0
LINE
  5
18DF5
  8
ﾁｭｳｼﾝｾﾝ1
 10
538.63291987713046
 20
274.06623117605852
 30
0.0
 11
538.63291987713046
 21
250.06575046078859
 31
0.0
  0
LINE
  5
18DF6
  8
AM_0N
 10
538.63291987713046
 20
248.2095843578725
 30
0.0
 11
550.63291987713023
 21
255.13778758814769
 31
0.0
  0
LINE
  5
18DFC
  8
AM_0N
 10
526.63291987713046
 20
255.13778758814809
 30
0.0
 11
538.63291987713046
 21
248.2095843578725
 31
0.0
  0
LINE
  5
18DFF
  8
AM_0N
 10
550.63291987713023
 20
268.994194048699
 30
0.0
 11
538.63291987713046
 21
275.92239727897447
 31
0.0
  0
LINE
  5
18E00
  8
ﾁｭｳｼﾝｾﾝ1
 10
526.63291951590224
 20
262.06599081842359
 30
0.0
 11
550.63292023835834
 21
262.06599081842359
 31
0.0
  0
LINE
  5
18E01
  8
AM_0N
 10
538.63291987713046
 20
275.92239727897447
 30
0.0
 11
526.63291987713046
 21
268.99419404869923
 31
0.0
  0
ARC
  5
18E03
  8
AM_0
 10
546.63292041897216
 20
273.06751308344531
 30
0.0
 40
10.0
 50
0.0
 51
90.0
1001
GENIUS_GENODEF_13
1002
{
1000
HIER
1070
     0
1002
}
1002
{
1000
MANEDIT
1070
     0
1002
}
1002
{
1000
NOSEL
1070
     0
1002
}
1002
{
1000
BEHIND
1070
     0
1002
}
1002
{
1000
OTHER
1070
     0
1002
}
1002
{
1000
REACTOR
1002
}
1001
GENIUS_GENOBJ-N-FIL_13
1002
{
1000
OWNER
1000
GEN
1002
}
  0
LINE
  5
18E05
  8
AM_0N
 10
544.32351681361865
 20
283.06751308344519
 30
0.0
 11
548.94231896713563
 21
283.06751308344519
 31
0.0
  0
LINE
  5
18E07
  8
AM_0
 10
798.53897009248715
 20
244.0656302819709
 30
0.0
 11
771.53896927972426
 21
244.53692268066001
 31
0.0
  0
LINE
  5
18E08
  8
AM_0
 10
774.53896937003117
 20
279.06633132507312
 30
0.0
 11
783.53896964095225
 21
279.06633132507312
 31
0.0
  0
LINE
  5
18E09
  8
AM_0
 10
771.53896927972426
 20
274.06623117605841
 30
0.0
 11
786.53896973125916
 21
274.06623117605841
 31
0.0
  0
LINE
  5
18E0B
  8
ｶｸﾚｾﾝ2
 10
727.03902628572371
 20
223.0675130834455
 30
0.0
 11
727.03902800228184
 21
229.06751308344519
 31
0.0
  0
LINE
  5
18E0C
  8
ｶｸﾚｾﾝ2
 10
746.03902628572462
 20
223.0675130834455
 30
0.0
 11
746.03902800228275
 21
229.06751308344519
 31
0.0
  0
ARC
  5
18E0D
  8
AM_0
 10
761.53896927972426
 20
233.06751308344519
 30
0.0
 40
10.0
 50
270.0
 51
0.0
1001
GENIUS_GENODEF_13
1002
{
1000
HIER
1070
     0
1002
}
1002
{
1000
MANEDIT
1070
     0
1002
}
1002
{
1000
NOSEL
1070
     0
1002
}
1002
{
1000
BEHIND
1070
     0
1002
}
1002
{
1000
OTHER
1070
     0
1002
}
1002
{
1000
REACTOR
1002
}
1001
GENIUS_GENOBJ-N-FIL_13
1002
{
1000
OWNER
1000
GEN
1002
}
  0
LINE
  5
18E0E
  8
AM_0
 10
719.03902242343247
 20
223.06751308344519
 30
0.0
 11
719.03903558371155
 21
229.06751308344519
 31
0.0
  0
LINE
  5
18E0F
  8
ﾁｭｳｼﾝｾﾝ1
 10
736.53902263803775
 20
208.81751308344519
 30
0.0
 11
736.53903250824771
 21
243.31751308344519
 31
0.0
  0
LINE
  5
18E10
  8
AM_0
 10
719.03902242343224
 20
223.06751308344519
 30
0.0
 11
761.53896927972426
 21
223.06751308344519
 31
0.0
  0
LINE
  5
18E11
  8
AM_0
 10
729.03905751753484
 20
239.06751308344519
 30
0.0
 11
745.73904484881655
 21
255.76750041472729
 31
0.0
  0
LINE
  5
18E15
  8
AM_0
 10
719.03903558371155
 20
229.06751308344519
 30
0.0
 11
760.53896927972426
 21
229.06751308344519
 31
0.0
  0
LINE
  5
18E19
  8
AM_0
 10
729.03903558373577
 20
229.06751308344519
 30
0.0
 11
729.03905751753484
 21
239.06751308344519
 31
0.0
  0
LINE
  5
18E1D
  8
AM_0
 10
745.73904484881655
 20
268.83909081842341
 30
0.0
 11
745.73904484881655
 21
255.29289081842339
 31
0.0
1001
GENIUS_GENOREF_13
1005
0
  0
LINE
  5
18E1E
  8
AM_0
 10
746.96594484881655
 20
270.06599081842342
 30
0.0
 11
746.96594484881655
 21
254.06599081842339
 31
0.0
1001
GENIUS_GENOREF_13
1005
0
  0
ARC
  5
18E1F
  8
AM_0N
 10
770.43654127426805
 20
262.06599081842342
 30
0.0
 40
22.897571994543771
 50
162.3830311596119
 51
197.61696884038801
1001
GENIUS_GENOREF_13
1005
0
  0
ARC
  5
18E20
  8
AM_0N
 10
739.44139728518041
 20
262.06599081842342
 30
0.0
 40
22.897571994543789
 50
342.3830311596119
 51
17.616968840388061
1001
GENIUS_GENOREF_13
1005
0
  0
LINE
  5
18E21
  8
AM_0N
 10
747.53896927972426
 20
274.06599081842342
 30
0.0
 11
747.53896927972426
 21
250.06599081842339
 31
0.0
1001
GENIUS_GENOREF_13
1005
0
  0
LINE
  5
18E22
  8
AM_0N
 10
762.33896927972432
 20
277.06599081842342
 30
0.0
 11
762.33896927972432
 21
247.06599081842339
 31
0.0
  0
LINE
  5
18E23
  8
AM_0N
 10
765.53896927972426
 20
247.06599081842339
 30
0.0
 11
765.53896927972426
 21
277.06599081842342
 31
0.0
  0
LINE
  5
18E24
  8
AM_0
 10
765.53896927972426
 20
283.06751308344519
 30
0.0
 11
765.53896927972426
 21
234.06751308344519
 31
0.0
  0
LINE
  5
18E25
  8
AM_0N
 10
748.61284078041672
 20
255.13599081842349
 30
0.0
 11
761.26509777903152
 21
255.13599081842349
 31
0.0
1001
GENIUS_GENOREF_13
1005
0
  0
LINE
  5
18E26
  8
AM_0N
 10
748.61284078041672
 20
248.2059908184234
 30
0.0
 11
761.26509777903152
 21
248.2059908184234
 31
0.0
1001
GENIUS_GENOREF_13
1005
0
  0
LINE
  5
18E2C
  8
AM_0
 10
747.53896927972426
 20
254.06599081842339
 30
0.0
 11
746.96594484881655
 21
254.06599081842339
 31
0.0
1001
GENIUS_GENOREF_13
1005
0
  0
LINE
  5
18E2D
  8
AM_0
 10
746.96594484881655
 20
254.06599081842339
 30
0.0
 11
745.73904484881655
 21
255.29289081842339
 31
0.0
1001
GENIUS_GENOREF_13
1005
0
  0
LINE
  5
18E2E
  8
AM_4N
 10
745.73904484881655
 20
255.29289081842339
 30
0.0
 11
747.53896927972426
 21
255.29289081842339
 31
0.0
1001
GENIUS_GENOREF_13
1005
0
  0
LINE
  5
18E2F
  8
AM_0N
 10
748.61284078041672
 20
248.2059908184234
 30
0.0
 11
747.53896927972426
 21
250.06599081842339
 31
0.0
1001
GENIUS_GENOREF_13
1005
0
  0
ARC
  5
18E30
  8
AM_0N
 10
753.66606409112001
 20
251.67099081842349
 30
0.0
 40
6.1270948113957182
 50
145.5615305952663
 51
205.5615305952669
1001
GENIUS_GENOREF_13
1005
0
  0
ARC
  5
18E31
  8
AM_0
 10
760.53896927972426
 20
234.06751308344519
 30
0.0
 40
5.0
 50
270.0
 51
0.0
1001
GENIUS_GENODEF_13
1002
{
1000
HIER
1070
     0
1002
}
1002
{
1000
MANEDIT
1070
     0
1002
}
1002
{
1000
NOSEL
1070
     0
1002
}
1002
{
1000
BEHIND
1070
     0
1002
}
1002
{
1000
OTHER
1070
     0
1002
}
1002
{
1000
REACTOR
1002
}
1001
GENIUS_GENOBJ-N-FIL_13
1002
{
1000
OWNER
1000
GEN
1002
}
  0
LINE
  5
18E32
  8
AM_0N
 10
761.26509777903152
 20
248.2059908184234
 30
0.0
 11
762.33896927972432
 21
250.06599081842339
 31
0.0
1001
GENIUS_GENOREF_13
1005
0
  0
ARC
  5
18E33
  8
AM_0N
 10
756.21187446832846
 20
251.67099081842349
 30
0.0
 40
6.1270948113957138
 50
334.4384694047331
 51
34.438469404733659
1001
GENIUS_GENOREF_13
1005
0
  0
LINE
  5
18E34
  8
AM_0N
 10
762.33896927972432
 20
247.06599081842339
 30
0.0
 11
765.53896927972426
 21
247.06599081842339
 31
0.0
  0
LINE
  5
18E37
  8
AM_0N
 10
748.61284078041672
 20
275.92599081842337
 30
0.0
 11
761.26509777903152
 21
275.92599081842337
 31
0.0
1001
GENIUS_GENOREF_13
1005
0
  0
LINE
  5
18E38
  8
AM_0N
 10
748.61284078041672
 20
268.99599081842342
 30
0.0
 11
761.26509777903152
 21
268.99599081842342
 31
0.0
1001
GENIUS_GENOREF_13
1005
0
  0
ARC
  5
18E39
  8
AM_0N
 10
753.66606409112001
 20
272.4609908184234
 30
0.0
 40
6.1270948113957182
 50
154.4384694047331
 51
214.43846940473361
1001
GENIUS_GENOREF_13
1005
0
  0
LINE
  5
18E3A
  8
AM_0
 10
747.53896927972426
 20
270.06599081842342
 30
0.0
 11
746.96594484881655
 21
270.06599081842342
 31
0.0
1001
GENIUS_GENOREF_13
1005
0
  0
LINE
  5
18E3B
  8
AM_0
 10
746.96594484881655
 20
270.06599081842342
 30
0.0
 11
745.73904484881655
 21
268.83909081842341
 31
0.0
1001
GENIUS_GENOREF_13
1005
0
  0
LINE
  5
18E3C
  8
AM_4N
 10
745.73904484881655
 20
268.83909081842341
 30
0.0
 11
747.53896927972426
 21
268.83909081842347
 31
0.0
1001
GENIUS_GENOREF_13
1005
0
  0
LINE
  5
18E3D
  8
AM_0N
 10
748.61284078041672
 20
275.92599081842337
 30
0.0
 11
747.53896927972426
 21
274.06599081842342
 31
0.0
1001
GENIUS_GENOREF_13
1005
0
  0
ARC
  5
18E3E
  8
AM_0N
 10
756.21187446832846
 20
272.4609908184234
 30
0.0
 40
6.1270948113957182
 50
325.56153059526628
 51
25.561530595266891
1001
GENIUS_GENOREF_13
1005
0
  0
LINE
  5
18E3F
  8
AM_0
 10
765.53896927972426
 20
283.06751308344519
 30
0.0
 11
771.53896927972426
 21
283.06751308344519
 31
0.0
  0
LINE
  5
18E40
  8
AM_0N
 10
761.26509777903152
 20
275.92599081842337
 30
0.0
 11
762.33896927972432
 21
274.06599081842342
 31
0.0
1001
GENIUS_GENOREF_13
1005
0
  0
LINE
  5
18E41
  8
AM_0N
 10
765.53896927972426
 20
277.06599081842342
 30
0.0
 11
762.33896927972432
 21
277.06599081842342
 31
0.0
  0
POLYLINE
  5
18E42
  8
AM_0
 10
773.53896933992894
 20
280.06635126745141
 30
0.0
 66
     1
 70
     8
  0
VERTEX
  8
AM_0
  5
1C4A3
 10
773.539
 20
280.066
 30
0.000000
  70
    32
  0
VERTEX
  8
AM_0
  5
1C4A4
 10
773.539
 20
280.054
 30
0.000000
  70
    32
  0
VERTEX
  8
AM_0
  5
1C4A5
 10
773.539
 20
280.042
 30
0.000000
  70
    32
  0
VERTEX
  8
AM_0
  5
1C4A6
 10
773.540
 20
280.030
 30
0.000000
  70
    32
  0
VERTEX
  8
AM_0
  5
1C4A7
 10
773.540
 20
280.017
 30
0.000000
  70
    32
  0
VERTEX
  8
AM_0
  5
1C4A8
 10
773.541
 20
280.005
 30
0.000000
  70
    32
  0
VERTEX
  8
AM_0
  5
1C4A9
 10
773.542
 20
279.993
 30
0.000000
  70
    32
  0
VERTEX
  8
AM_0
  5
1C4AA
 10
773.543
 20
279.981
 30
0.000000
  70
    32
  0
VERTEX
  8
AM_0
  5
1C4AB
 10
773.544
 20
279.968
 30
0.000000
  70
    32
  0
VERTEX
  8
AM_0
  5
1C4AC
 10
773.545
 20
279.956
 30
0.000000
  70
    32
  0
VERTEX
  8
AM_0
  5
1C4AD
 10
773.546
 20
279.944
 30
0.000000
  70
    32
  0
VERTEX
  8
AM_0
  5
1C4AE
 10
773.548
 20
279.932
 30
0.000000
  70
    32
  0
VERTEX
  8
AM_0
  5
1C4AF
 10
773.550
 20
279.920
 30
0.000000
  70
    32
  0
VERTEX
  8
AM_0
  5
1C4B0
 10
773.552
 20
279.907
 30
0.000000
  70
    32
  0
VERTEX
  8
AM_0
  5
1C4B1
 10
773.554
 20
279.895
 30
0.000000
  70
    32
  0
VERTEX
  8
AM_0
  5
1C4B2
 10
773.556
 20
279.883
 30
0.000000
  70
    32
  0
VERTEX
  8
AM_0
  5
1C4B3
 10
773.558
 20
279.871
 30
0.000000
  70
    32
  0
VERTEX
  8
AM_0
  5
1C4B4
 10
773.561
 20
279.859
 30
0.000000
  70
    32
  0
VERTEX
  8
AM_0
  5
1C4B5
 10
773.563
 20
279.847
 30
0.000000
  70
    32
  0
VERTEX
  8
AM_0
  5
1C4B6
 10
773.566
 20
279.835
 30
0.000000
  70
    32
  0
VERTEX
  8
AM_0
  5
1C4B7
 10
773.569
 20
279.823
 30
0.000000
  70
    32
  0
VERTEX
  8
AM_0
  5
1C4B8
 10
773.572
 20
279.811
 30
0.000000
  70
    32
  0
VERTEX
  8
AM_0
  5
1C4B9
 10
773.575
 20
279.800
 30
0.000000
  70
    32
  0
VERTEX
  8
AM_0
  5
1C4BA
 10
773.579
 20
279.788
 30
0.000000
  70
    32
  0
VERTEX
  8
AM_0
  5
1C4BB
 10
773.582
 20
279.776
 30
0.000000
  70
    32
  0
VERTEX
  8
AM_0
  5
1C4BC
 10
773.586
 20
279.764
 30
0.000000
  70
    32
  0
VERTEX
  8
AM_0
  5
1C4BD
 10
773.589
 20
279.753
 30
0.000000
  70
    32
  0
VERTEX
  8
AM_0
  5
1C4BE
 10
773.593
 20
279.741
 30
0.000000
  70
    32
  0
VERTEX
  8
AM_0
  5
1C4BF
 10
773.597
 20
279.729
 30
0.000000
  70
    32
  0
VERTEX
  8
AM_0
  5
1C4C0
 10
773.602
 20
279.718
 30
0.000000
  70
    32
  0
VERTEX
  8
AM_0
  5
1C4C1
 10
773.606
 20
279.706
 30
0.000000
  70
    32
  0
VERTEX
  8
AM_0
  5
1C4C2
 10
773.610
 20
279.695
 30
0.000000
  70
    32
  0
VERTEX
  8
AM_0
  5
1C4C3
 10
773.615
 20
279.684
 30
0.000000
  70
    32
  0
VERTEX
  8
AM_0
  5
1C4C4
 10
773.620
 20
279.672
 30
0.000000
  70
    32
  0
VERTEX
  8
AM_0
  5
1C4C5
 10
773.625
 20
279.661
 30
0.000000
  70
    32
  0
VERTEX
  8
AM_0
  5
1C4C6
 10
773.630
 20
279.650
 30
0.000000
  70
    32
  0
VERTEX
  8
AM_0
  5
1C4C7
 10
773.635
 20
279.639
 30
0.000000
  70
    32
  0
VERTEX
  8
AM_0
  5
1C4C8
 10
773.640
 20
279.628
 30
0.000000
  70
    32
  0
VERTEX
  8
AM_0
  5
1C4C9
 10
773.646
 20
279.617
 30
0.000000
  70
    32
  0
VERTEX
  8
AM_0
  5
1C4CA
 10
773.651
 20
279.606
 30
0.000000
  70
    32
  0
VERTEX
  8
AM_0
  5
1C4CB
 10
773.657
 20
279.595
 30
0.000000
  70
    32
  0
VERTEX
  8
AM_0
  5
1C4CC
 10
773.663
 20
279.584
 30
0.000000
  70
    32
  0
VERTEX
  8
AM_0
  5
1C4CD
 10
773.669
 20
279.573
 30
0.000000
  70
    32
  0
VERTEX
  8
AM_0
  5
1C4CE
 10
773.675
 20
279.563
 30
0.000000
  70
    32
  0
VERTEX
  8
AM_0
  5
1C4CF
 10
773.681
 20
279.552
 30
0.000000
  70
    32
  0
VERTEX
  8
AM_0
  5
1C4D0
 10
773.688
 20
279.542
 30
0.000000
  70
    32
  0
VERTEX
  8
AM_0
  5
1C4D1
 10
773.694
 20
279.531
 30
0.000000
  70
    32
  0
VERTEX
  8
AM_0
  5
1C4D2
 10
773.701
 20
279.521
 30
0.000000
  70
    32
  0
VERTEX
  8
AM_0
  5
1C4D3
 10
773.707
 20
279.511
 30
0.000000
  70
    32
  0
VERTEX
  8
AM_0
  5
1C4D4
 10
773.714
 20
279.501
 30
0.000000
  70
    32
  0
VERTEX
  8
AM_0
  5
1C4D5
 10
773.721
 20
279.491
 30
0.000000
  70
    32
  0
VERTEX
  8
AM_0
  5
1C4D6
 10
773.729
 20
279.481
 30
0.000000
  70
    32
  0
VERTEX
  8
AM_0
  5
1C4D7
 10
773.736
 20
279.471
 30
0.000000
  70
    32
  0
VERTEX
  8
AM_0
  5
1C4D8
 10
773.743
 20
279.461
 30
0.000000
  70
    32
  0
VERTEX
  8
AM_0
  5
1C4D9
 10
773.751
 20
279.451
 30
0.000000
  70
    32
  0
VERTEX
  8
AM_0
  5
1C4DA
 10
773.758
 20
279.441
 30
0.000000
  70
    32
  0
VERTEX
  8
AM_0
  5
1C4DB
 10
773.766
 20
279.432
 30
0.000000
  70
    32
  0
VERTEX
  8
AM_0
  5
1C4DC
 10
773.774
 20
279.423
 30
0.000000
  70
    32
  0
VERTEX
  8
AM_0
  5
1C4DD
 10
773.782
 20
279.413
 30
0.000000
  70
    32
  0
VERTEX
  8
AM_0
  5
1C4DE
 10
773.790
 20
279.404
 30
0.000000
  70
    32
  0
VERTEX
  8
AM_0
  5
1C4DF
 10
773.798
 20
279.395
 30
0.000000
  70
    32
  0
VERTEX
  8
AM_0
  5
1C4E0
 10
773.806
 20
279.386
 30
0.000000
  70
    32
  0
VERTEX
  8
AM_0
  5
1C4E1
 10
773.815
 20
279.377
 30
0.000000
  70
    32
  0
VERTEX
  8
AM_0
  5
1C4E2
 10
773.823
 20
279.368
 30
0.000000
  70
    32
  0
VERTEX
  8
AM_0
  5
1C4E3
 10
773.832
 20
279.359
 30
0.000000
  70
    32
  0
VERTEX
  8
AM_0
  5
1C4E4
 10
773.841
 20
279.351
 30
0.000000
  70
    32
  0
VERTEX
  8
AM_0
  5
1C4E5
 10
773.849
 20
279.342
 30
0.000000
  70
    32
  0
VERTEX
  8
AM_0
  5
1C4E6
 10
773.858
 20
279.334
 30
0.000000
  70
    32
  0
VERTEX
  8
AM_0
  5
1C4E7
 10
773.867
 20
279.325
 30
0.000000
  70
    32
  0
VERTEX
  8
AM_0
  5
1C4E8
 10
773.877
 20
279.317
 30
0.000000
  70
    32
  0
VERTEX
  8
AM_0
  5
1C4E9
 10
773.886
 20
279.309
 30
0.000000
  70
    32
  0
VERTEX
  8
AM_0
  5
1C4EA
 10
773.895
 20
279.301
 30
0.000000
  70
    32
  0
VERTEX
  8
AM_0
  5
1C4EB
 10
773.905
 20
279.293
 30
0.000000
  70
    32
  0
VERTEX
  8
AM_0
  5
1C4EC
 10
773.914
 20
279.286
 30
0.000000
  70
    32
  0
VERTEX
  8
AM_0
  5
1C4ED
 10
773.924
 20
279.278
 30
0.000000
  70
    32
  0
VERTEX
  8
AM_0
  5
1C4EE
 10
773.933
 20
279.270
 30
0.000000
  70
    32
  0
VERTEX
  8
AM_0
  5
1C4EF
 10
773.943
 20
279.263
 30
0.000000
  70
    32
  0
VERTEX
  8
AM_0
  5
1C4F0
 10
773.953
 20
279.256
 30
0.000000
  70
    32
  0
VERTEX
  8
AM_0
  5
1C4F1
 10
773.963
 20
279.249
 30
0.000000
  70
    32
  0
VERTEX
  8
AM_0
  5
1C4F2
 10
773.973
 20
279.242
 30
0.000000
  70
    32
  0
VERTEX
  8
AM_0
  5
1C4F3
 10
773.983
 20
279.235
 30
0.000000
  70
    32
  0
VERTEX
  8
AM_0
  5
1C4F4
 10
773.994
 20
279.228
 30
0.000000
  70
    32
  0
VERTEX
  8
AM_0
  5
1C4F5
 10
774.004
 20
279.221
 30
0.000000
  70
    32
  0
VERTEX
  8
AM_0
  5
1C4F6
 10
774.014
 20
279.215
 30
0.000000
  70
    32
  0
VERTEX
  8
AM_0
  5
1C4F7
 10
774.025
 20
279.209
 30
0.000000
  70
    32
  0
VERTEX
  8
AM_0
  5
1C4F8
 10
774.035
 20
279.202
 30
0.000000
  70
    32
  0
VERTEX
  8
AM_0
  5
1C4F9
 10
774.046
 20
279.196
 30
0.000000
  70
    32
  0
VERTEX
  8
AM_0
  5
1C4FA
 10
774.057
 20
279.190
 30
0.000000
  70
    32
  0
VERTEX
  8
AM_0
  5
1C4FB
 10
774.068
 20
279.184
 30
0.000000
  70
    32
  0
VERTEX
  8
AM_0
  5
1C4FC
 10
774.078
 20
279.179
 30
0.000000
  70
    32
  0
VERTEX
  8
AM_0
  5
1C4FD
 10
774.089
 20
279.173
 30
0.000000
  70
    32
  0
VERTEX
  8
AM_0
  5
1C4FE
 10
774.100
 20
279.168
 30
0.000000
  70
    32
  0
VERTEX
  8
AM_0
  5
1C4FF
 10
774.111
 20
279.162
 30
0.000000
  70
    32
  0
VERTEX
  8
AM_0
  5
1C500
 10
774.123
 20
279.157
 30
0.000000
  70
    32
  0
VERTEX
  8
AM_0
  5
1C501
 10
774.134
 20
279.152
 30
0.000000
  70
    32
  0
VERTEX
  8
AM_0
  5
1C502
 10
774.145
 20
279.147
 30
0.000000
  70
    32
  0
VERTEX
  8
AM_0
  5
1C503
 10
774.156
 20
279.142
 30
0.000000
  70
    32
  0
VERTEX
  8
AM_0
  5
1C504
 10
774.168
 20
279.138
 30
0.000000
  70
    32
  0
VERTEX
  8
AM_0
  5
1C505
 10
774.179
 20
279.133
 30
0.000000
  70
    32
  0
VERTEX
  8
AM_0
  5
1C506
 10
774.191
 20
279.129
 30
0.000000
  70
    32
  0
VERTEX
  8
AM_0
  5
1C507
 10
774.202
 20
279.125
 30
0.000000
  70
    32
  0
VERTEX
  8
AM_0
  5
1C508
 10
774.214
 20
279.121
 30
0.000000
  70
    32
  0
VERTEX
  8
AM_0
  5
1C509
 10
774.225
 20
279.117
 30
0.000000
  70
    32
  0
VERTEX
  8
AM_0
  5
1C50A
 10
774.237
 20
279.113
 30
0.000000
  70
    32
  0
VERTEX
  8
AM_0
  5
1C50B
 10
774.249
 20
279.109
 30
0.000000
  70
    32
  0
VERTEX
  8
AM_0
  5
1C50C
 10
774.260
 20
279.106
 30
0.000000
  70
    32
  0
VERTEX
  8
AM_0
  5
1C50D
 10
774.272
 20
279.103
 30
0.000000
  70
    32
  0
VERTEX
  8
AM_0
  5
1C50E
 10
774.284
 20
279.099
 30
0.000000
  70
    32
  0
VERTEX
  8
AM_0
  5
1C50F
 10
774.296
 20
279.096
 30
0.000000
  70
    32
  0
VERTEX
  8
AM_0
  5
1C510
 10
774.308
 20
279.093
 30
0.000000
  70
    32
  0
VERTEX
  8
AM_0
  5
1C511
 10
774.320
 20
279.091
 30
0.000000
  70
    32
  0
VERTEX
  8
AM_0
  5
1C512
 10
774.332
 20
279.088
 30
0.000000
  70
    32
  0
VERTEX
  8
AM_0
  5
1C513
 10
774.344
 20
279.086
 30
0.000000
  70
    32
  0
VERTEX
  8
AM_0
  5
1C514
 10
774.356
 20
279.083
 30
0.000000
  70
    32
  0
VERTEX
  8
AM_0
  5
1C515
 10
774.368
 20
279.081
 30
0.000000
  70
    32
  0
VERTEX
  8
AM_0
  5
1C516
 10
774.380
 20
279.079
 30
0.000000
  70
    32
  0
VERTEX
  8
AM_0
  5
1C517
 10
774.392
 20
279.077
 30
0.000000
  70
    32
  0
VERTEX
  8
AM_0
  5
1C518
 10
774.404
 20
279.075
 30
0.000000
  70
    32
  0
VERTEX
  8
AM_0
  5
1C519
 10
774.417
 20
279.074
 30
0.000000
  70
    32
  0
VERTEX
  8
AM_0
  5
1C51A
 10
774.429
 20
279.072
 30
0.000000
  70
    32
  0
VERTEX
  8
AM_0
  5
1C51B
 10
774.441
 20
279.071
 30
0.000000
  70
    32
  0
VERTEX
  8
AM_0
  5
1C51C
 10
774.453
 20
279.070
 30
0.000000
  70
    32
  0
VERTEX
  8
AM_0
  5
1C51D
 10
774.465
 20
279.069
 30
0.000000
  70
    32
  0
VERTEX
  8
AM_0
  5
1C51E
 10
774.478
 20
279.068
 30
0.000000
  70
    32
  0
VERTEX
  8
AM_0
  5
1C51F
 10
774.490
 20
279.068
 30
0.000000
  70
    32
  0
VERTEX
  8
AM_0
  5
1C520
 10
774.502
 20
279.067
 30
0.000000
  70
    32
  0
VERTEX
  8
AM_0
  5
1C521
 10
774.514
 20
279.067
 30
0.000000
  70
    32
  0
VERTEX
  8
AM_0
  5
1C522
 10
774.527
 20
279.066
 30
0.000000
  70
    32
  0
VERTEX
  8
AM_0
  5
1C523
 10
774.539
 20
279.066
 30
0.000000
  70
    32
  0
SEQEND
  8
AM_0
  5
1C524
  0
LINE
  5
18E45
  8
AM_0
 10
783.53896964095225
 20
277.66630938698688
 30
0.0
 11
786.53896973125916
 21
277.66630938698688
 31
0.0
  0
LINE
  5
18E4E
  8
AM_0
 10
964.03899170510806
 20
223.06751308344519
 30
0.0
 11
921.53897730874667
 21
223.06751308344519
 31
0.0
  0
LINE
  5
18E4F
  8
AM_0
 10
964.03897854482875
 20
229.06751308344519
 30
0.0
 11
922.53904484881639
 21
229.06751308344519
 31
0.0
  0
ARC
  5
18E50
  8
AM_0
 10
921.53897730874667
 20
233.06751308344519
 30
0.0
 40
10.0
 50
180.0
 51
270.0
1001
GENIUS_GENOBJ-N-FIL_13
1002
{
1000
OWNER
1000
GEN
1002
}
1001
GENIUS_GENODEF_13
1002
{
1000
HIER
1070
     0
1002
}
1002
{
1000
MANEDIT
1070
     0
1002
}
1002
{
1000
NOSEL
1070
     0
1002
}
1002
{
1000
BEHIND
1070
     0
1002
}
1002
{
1000
OTHER
1070
     0
1002
}
1002
{
1000
REACTOR
1002
}
  0
LINE
  5
18E51
  8
ｶｸﾚｾﾝ2
 10
937.03898741367618
 20
223.06751308344519
 30
0.0
 11
937.03898569711839
 21
229.06751308344519
 31
0.0
  0
LINE
  5
18E52
  8
ﾁｭｳｼﾝｾﾝ1
 10
946.53899191964217
 20
208.81751308344519
 30
0.0
 11
946.53898204943255
 21
243.31751308344519
 31
0.0
  0
LINE
  5
18E53
  8
ｶｸﾚｾﾝ2
 10
956.03898741367721
 20
223.06751308344519
 30
0.0
 11
956.0389856971193
 21
229.06751308344519
 31
0.0
  0
LINE
  5
18E54
  8
AM_0
 10
917.53904484881639
 20
283.06751308344519
 30
0.0
 11
911.53904484881627
 21
283.06751308344519
 31
0.0
  0
LINE
  5
18E58
  8
AM_0
 10
917.53904484881639
 20
283.06751308344519
 30
0.0
 11
917.53904484881639
 21
234.06751308344519
 31
0.0
  0
LINE
  5
18E59
  8
AM_0N
 10
920.73904484881666
 20
274.06599081842342
 30
0.0
 11
920.73904484881666
 21
250.06599081842339
 31
0.0
1001
GENIUS_GENOREF_13
1005
0
  0
LINE
  5
18E5A
  8
AM_0N
 10
936.73904484881655
 20
272.46599081842339
 30
0.0
 11
936.73904484881655
 21
251.66599081842341
 31
0.0
1001
GENIUS_GENOREF_13
1005
0
  0
LINE
  5
18E5B
  8
AM_0N
 10
920.73904484881666
 20
247.06599081842339
 30
0.0
 11
920.73904484881666
 21
277.06599081842342
 31
0.0
1001
GENIUS_GENOREF_13
1005
0
  0
LINE
  5
18E5C
  8
AM_0N
 10
917.53904484881639
 20
277.06599081842342
 30
0.0
 11
917.53904484881639
 21
247.06599081842339
 31
0.0
1001
GENIUS_GENOREF_13
1005
0
  0
LINE
  5
18E5F
  8
AM_0N
 10
935.13904484881664
 20
250.06599081842339
 30
0.0
 11
920.73904484881666
 21
250.06599081842339
 31
0.0
1001
GENIUS_GENOREF_13
1005
0
  0
ARC
  5
18E60
  8
AM_0
 10
922.53904484881639
 20
234.06751308344519
 30
0.0
 40
5.0
 50
180.0
 51
270.0
1001
GENIUS_GENODEF_13
1002
{
1000
HIER
1070
     0
1002
}
1002
{
1000
MANEDIT
1070
     0
1002
}
1002
{
1000
NOSEL
1070
     0
1002
}
1002
{
1000
BEHIND
1070
     0
1002
}
1002
{
1000
OTHER
1070
     0
1002
}
1002
{
1000
REACTOR
1002
}
1001
GENIUS_GENOBJ-N-FIL_13
1002
{
1000
OWNER
1000
GEN
1002
}
  0
LINE
  5
18E63
  8
AM_0N
 10
917.53904484881639
 20
247.06599081842339
 30
0.0
 11
920.73904484881666
 21
247.06599081842339
 31
0.0
1001
GENIUS_GENOREF_13
1005
0
  0
LINE
  5
18E64
  8
AM_0
 10
954.03902763268002
 20
239.06751308344519
 30
0.0
 11
936.73904484881655
 21
256.36749586730872
 31
0.0
  0
LINE
  5
18E67
  8
AM_0
 10
954.03904956647875
 20
229.06751308344519
 30
0.0
 11
954.03902763268002
 21
239.06751308344519
 31
0.0
  0
ARC
  5
18E69
  8
AM_0N
 10
935.13904484881664
 20
251.66599081842341
 30
0.0
 40
1.6000000000000001
 50
270.0
 51
0.0
1001
GENIUS_GENOREF_13
1005
0
  0
LINE
  5
18E6A
  8
AM_0
 10
935.13904484881664
 20
274.06599081842342
 30
0.0
 11
920.73904484881666
 21
274.06599081842342
 31
0.0
1001
GENIUS_GENOREF_13
1005
0
  0
LINE
  5
18E6C
  8
AM_0
 10
920.73904484881666
 20
277.06599081842342
 30
0.0
 11
917.53904484881639
 21
277.06599081842342
 31
0.0
1001
GENIUS_GENOREF_13
1005
0
  0
ARC
  5
18E6D
  8
AM_0
 10
935.13904484881664
 20
272.46599081842339
 30
0.0
 40
1.6000000000000001
 50
0.0
 51
90.0
1001
GENIUS_GENOREF_13
1005
0
  0
LINE
  5
18E6F
  8
AM_0
 10
964.03899170510806
 20
223.06751308344519
 30
0.0
 11
964.03897854482875
 21
229.06751308344519
 31
0.0
  0
LINE
  5
18E76
  8
ﾁｭｳｼﾝｾﾝ1
 10
779.93029920087133
 20
325.06751308344519
 30
0.0
 11
903.14825889746226
 21
325.06751308344519
 31
0.0
  0
LINE
  5
18E77
  8
ﾁｭｳｼﾝｾﾝ1
 10
665.98241757111532
 20
338.06751308344519
 30
0.0
 11
1017.096142452409
 21
338.06751308344519
 31
0.0
  0
LINE
  5
18E78
  8
AM_0
 10
911.53897730874701
 20
430.09694426851848
 30
0.0
 11
798.53897009248715
 21
432.06939588491952
 31
0.0
  0
ARC
  5
18E7E
  8
AM_0
 10
546.63291789037714
 20
389.06752071283961
 30
0.0
 40
12.999999999999989
 50
90.000005008956919
 51
270.00001001791389
  0
LINE
  5
18E81
  8
AM_0
 10
548.63291789037737
 20
314.41710719965619
 30
0.0
 11
548.63291789037737
 21
361.7179265966289
 31
0.0
  0
LINE
  5
18E82
  8
AM_0N
 10
544.32351681361888
 20
291.06751308344542
 30
0.0
 11
542.01411573686005
 21
287.06751308344519
 31
0.0
  0
ARC
  5
18E83
  8
AM_0
 10
540.63291789037726
 20
314.41710719965607
 30
0.0
 40
8.0000000000000018
 50
282.37362534190697
 51
0.0000025044817295
  0
ARC
  5
18E84
  8
AM_0
 10
546.63291789037714
 20
287.06751308344519
 30
0.0
 40
20.0
 50
102.3736203329529
 51
163.79401448202699
  0
ARC
  5
18E85
  8
AM_0
 10
553.63291789037714
 20
303.06751308344519
 30
0.0
 40
3.0
 50
270.0
 51
0.0000025044817295
  0
LINE
  5
18E86
  8
AM_0N
 10
551.25172004389424
 20
287.06751308344519
 30
0.0
 11
548.94231896713541
 21
291.06751308344542
 31
0.0
  0
LINE
  5
18E87
  8
AM_0N
 10
548.94231896713541
 20
291.06751308344542
 30
0.0
 11
544.32351681361888
 21
291.06751308344542
 31
0.0
  0
LINE
  5
18E88
  8
AM_0
 10
546.63291789037748
 20
300.06751308344519
 30
0.0
 11
553.63291789037726
 21
300.06751308344519
 31
0.0
  0
ARC
  5
18E89
  8
AM_0
 10
546.63291789037714
 20
389.06752071283961
 30
0.0
 40
19.999999999999979
 50
196.20598733921071
 51
257.62637465809303
  0
ARC
  5
18E8A
  8
AM_0
 10
540.63291789037726
 20
361.71792659662879
 30
0.0
 40
8.0000000000000089
 50
0.0000025044817295
 51
77.626379667047075
  0
LINE
  5
18E8B
  8
AM_0N
 10
542.01411573686005
 20
389.06752071283961
 30
0.0
 11
544.32351681361865
 21
385.06752071283972
 31
0.0
  0
LINE
  5
18E8C
  8
AM_0N
 10
544.32351681361888
 20
393.06752071284001
 30
0.0
 11
542.01411573686005
 21
389.06752071283961
 31
0.0
  0
CIRCLE
  5
18E8D
  8
AM_0N
 10
546.63291789037714
 20
389.06752071283961
 30
0.0
 40
4.6188021535170032
  0
CIRCLE
  5
18E8E
  8
AM_0N
 10
546.63291789037714
 20
389.06752071283961
 30
0.0
 40
8.0
  0
LINE
  5
18E8F
  8
AM_0N
 10
548.94231896713563
 20
385.06752071283972
 30
0.0
 11
551.25172004389424
 21
389.06752071283961
 31
0.0
  0
ARC
  5
18E90
  8
AM_0
 10
553.63291789037714
 20
373.06752071283972
 30
0.0
 40
3.0000000000000031
 50
0.0000025044817295
 51
90.000005008956919
  0
LINE
  5
18E91
  8
AM_0N
 10
544.32351681361865
 20
385.06752071283972
 30
0.0
 11
548.94231896713563
 21
385.06752071283972
 31
0.0
  0
LINE
  5
18E92
  8
AM_0
 10
546.63291789037748
 20
376.06752071283978
 30
0.0
 11
553.63291789037726
 21
376.06752071283978
 31
0.0
  0
LINE
  5
18E93
  8
AM_0N
 10
551.25172004389424
 20
389.06752071283961
 30
0.0
 11
548.94231896713541
 21
393.06752071284001
 31
0.0
  0
LINE
  5
18E94
  8
AM_0N
 10
548.94231896713541
 20
393.06752071284001
 30
0.0
 11
544.32351681361888
 21
393.06752071284001
 31
0.0
  0
POLYLINE
  5
18E97
  8
AM_0
 10
556.63292041897216
 20
417.069095437876
 30
0.0
 66
     1
 70
     8
  0
VERTEX
  8
AM_0
  5
1C525
 10
556.633
 20
417.069
 30
0.000000
  70
    32
  0
VERTEX
  8
AM_0
  5
1C526
 10
556.632
 20
417.253
 30
0.000000
  70
    32
  0
VERTEX
  8
AM_0
  5
1C527
 10
556.628
 20
417.437
 30
0.000000
  70
    32
  0
VERTEX
  8
AM_0
  5
1C528
 10
556.623
 20
417.621
 30
0.000000
  70
    32
  0
VERTEX
  8
AM_0
  5
1C529
 10
556.615
 20
417.805
 30
0.000000
  70
    32
  0
VERTEX
  8
AM_0
  5
1C52A
 10
556.605
 20
417.989
 30
0.000000
  70
    32
  0
VERTEX
  8
AM_0
  5
1C52B
 10
556.592
 20
418.173
 30
0.000000
  70
    32
  0
VERTEX
  8
AM_0
  5
1C52C
 10
556.578
 20
418.356
 30
0.000000
  70
    32
  0
VERTEX
  8
AM_0
  5
1C52D
 10
556.561
 20
418.539
 30
0.000000
  70
    32
  0
VERTEX
  8
AM_0
  5
1C52E
 10
556.542
 20
418.722
 30
0.000000
  70
    32
  0
VERTEX
  8
AM_0
  5
1C52F
 10
556.520
 20
418.905
 30
0.000000
  70
    32
  0
VERTEX
  8
AM_0
  5
1C530
 10
556.496
 20
419.088
 30
0.000000
  70
    32
  0
VERTEX
  8
AM_0
  5
1C531
 10
556.471
 20
419.270
 30
0.000000
  70
    32
  0
VERTEX
  8
AM_0
  5
1C532
 10
556.442
 20
419.452
 30
0.000000
  70
    32
  0
VERTEX
  8
AM_0
  5
1C533
 10
556.412
 20
419.634
 30
0.000000
  70
    32
  0
VERTEX
  8
AM_0
  5
1C534
 10
556.380
 20
419.815
 30
0.000000
  70
    32
  0
VERTEX
  8
AM_0
  5
1C535
 10
556.345
 20
419.996
 30
0.000000
  70
    32
  0
VERTEX
  8
AM_0
  5
1C536
 10
556.308
 20
420.176
 30
0.000000
  70
    32
  0
VERTEX
  8
AM_0
  5
1C537
 10
556.268
 20
420.356
 30
0.000000
  70
    32
  0
VERTEX
  8
AM_0
  5
1C538
 10
556.227
 20
420.535
 30
0.000000
  70
    32
  0
VERTEX
  8
AM_0
  5
1C539
 10
556.183
 20
420.714
 30
0.000000
  70
    32
  0
VERTEX
  8
AM_0
  5
1C53A
 10
556.138
 20
420.892
 30
0.000000
  70
    32
  0
VERTEX
  8
AM_0
  5
1C53B
 10
556.090
 20
421.070
 30
0.000000
  70
    32
  0
VERTEX
  8
AM_0
  5
1C53C
 10
556.039
 20
421.247
 30
0.000000
  70
    32
  0
VERTEX
  8
AM_0
  5
1C53D
 10
555.987
 20
421.423
 30
0.000000
  70
    32
  0
VERTEX
  8
AM_0
  5
1C53E
 10
555.933
 20
421.599
 30
0.000000
  70
    32
  0
VERTEX
  8
AM_0
  5
1C53F
 10
555.876
 20
421.774
 30
0.000000
  70
    32
  0
VERTEX
  8
AM_0
  5
1C540
 10
555.817
 20
421.949
 30
0.000000
  70
    32
  0
VERTEX
  8
AM_0
  5
1C541
 10
555.756
 20
422.123
 30
0.000000
  70
    32
  0
VERTEX
  8
AM_0
  5
1C542
 10
555.693
 20
422.295
 30
0.000000
  70
    32
  0
VERTEX
  8
AM_0
  5
1C543
 10
555.628
 20
422.468
 30
0.000000
  70
    32
  0
VERTEX
  8
AM_0
  5
1C544
 10
555.561
 20
422.639
 30
0.000000
  70
    32
  0
VERTEX
  8
AM_0
  5
1C545
 10
555.491
 20
422.809
 30
0.000000
  70
    32
  0
VERTEX
  8
AM_0
  5
1C546
 10
555.420
 20
422.979
 30
0.000000
  70
    32
  0
VERTEX
  8
AM_0
  5
1C547
 10
555.346
 20
423.148
 30
0.000000
  70
    32
  0
VERTEX
  8
AM_0
  5
1C548
 10
555.270
 20
423.316
 30
0.000000
  70
    32
  0
VERTEX
  8
AM_0
  5
1C549
 10
555.193
 20
423.483
 30
0.000000
  70
    32
  0
VERTEX
  8
AM_0
  5
1C54A
 10
555.113
 20
423.648
 30
0.000000
  70
    32
  0
VERTEX
  8
AM_0
  5
1C54B
 10
555.031
 20
423.813
 30
0.000000
  70
    32
  0
VERTEX
  8
AM_0
  5
1C54C
 10
554.948
 20
423.977
 30
0.000000
  70
    32
  0
VERTEX
  8
AM_0
  5
1C54D
 10
554.862
 20
424.140
 30
0.000000
  70
    32
  0
VERTEX
  8
AM_0
  5
1C54E
 10
554.774
 20
424.302
 30
0.000000
  70
    32
  0
VERTEX
  8
AM_0
  5
1C54F
 10
554.684
 20
424.463
 30
0.000000
  70
    32
  0
VERTEX
  8
AM_0
  5
1C550
 10
554.593
 20
424.622
 30
0.000000
  70
    32
  0
VERTEX
  8
AM_0
  5
1C551
 10
554.499
 20
424.781
 30
0.000000
  70
    32
  0
VERTEX
  8
AM_0
  5
1C552
 10
554.403
 20
424.938
 30
0.000000
  70
    32
  0
VERTEX
  8
AM_0
  5
1C553
 10
554.306
 20
425.094
 30
0.000000
  70
    32
  0
VERTEX
  8
AM_0
  5
1C554
 10
554.206
 20
425.249
 30
0.000000
  70
    32
  0
VERTEX
  8
AM_0
  5
1C555
 10
554.105
 20
425.403
 30
0.000000
  70
    32
  0
VERTEX
  8
AM_0
  5
1C556
 10
554.002
 20
425.555
 30
0.000000
  70
    32
  0
VERTEX
  8
AM_0
  5
1C557
 10
553.897
 20
425.706
 30
0.000000
  70
    32
  0
VERTEX
  8
AM_0
  5
1C558
 10
553.790
 20
425.856
 30
0.000000
  70
    32
  0
VERTEX
  8
AM_0
  5
1C559
 10
553.681
 20
426.005
 30
0.000000
  70
    32
  0
VERTEX
  8
AM_0
  5
1C55A
 10
553.570
 20
426.152
 30
0.000000
  70
    32
  0
VERTEX
  8
AM_0
  5
1C55B
 10
553.458
 20
426.298
 30
0.000000
  70
    32
  0
VERTEX
  8
AM_0
  5
1C55C
 10
553.344
 20
426.442
 30
0.000000
  70
    32
  0
VERTEX
  8
AM_0
  5
1C55D
 10
553.228
 20
426.585
 30
0.000000
  70
    32
  0
VERTEX
  8
AM_0
  5
1C55E
 10
553.110
 20
426.727
 30
0.000000
  70
    32
  0
VERTEX
  8
AM_0
  5
1C55F
 10
552.991
 20
426.867
 30
0.000000
  70
    32
  0
VERTEX
  8
AM_0
  5
1C560
 10
552.870
 20
427.006
 30
0.000000
  70
    32
  0
VERTEX
  8
AM_0
  5
1C561
 10
552.747
 20
427.143
 30
0.000000
  70
    32
  0
VERTEX
  8
AM_0
  5
1C562
 10
552.623
 20
427.278
 30
0.000000
  70
    32
  0
VERTEX
  8
AM_0
  5
1C563
 10
552.497
 20
427.412
 30
0.000000
  70
    32
  0
VERTEX
  8
AM_0
  5
1C564
 10
552.369
 20
427.545
 30
0.000000
  70
    32
  0
VERTEX
  8
AM_0
  5
1C565
 10
552.240
 20
427.676
 30
0.000000
  70
    32
  0
VERTEX
  8
AM_0
  5
1C566
 10
552.109
 20
427.805
 30
0.000000
  70
    32
  0
VERTEX
  8
AM_0
  5
1C567
 10
551.976
 20
427.933
 30
0.000000
  70
    32
  0
VERTEX
  8
AM_0
  5
1C568
 10
551.842
 20
428.059
 30
0.000000
  70
    32
  0
VERTEX
  8
AM_0
  5
1C569
 10
551.706
 20
428.184
 30
0.000000
  70
    32
  0
VERTEX
  8
AM_0
  5
1C56A
 10
551.569
 20
428.306
 30
0.000000
  70
    32
  0
VERTEX
  8
AM_0
  5
1C56B
 10
551.431
 20
428.427
 30
0.000000
  70
    32
  0
VERTEX
  8
AM_0
  5
1C56C
 10
551.290
 20
428.547
 30
0.000000
  70
    32
  0
VERTEX
  8
AM_0
  5
1C56D
 10
551.149
 20
428.664
 30
0.000000
  70
    32
  0
VERTEX
  8
AM_0
  5
1C56E
 10
551.006
 20
428.780
 30
0.000000
  70
    32
  0
VERTEX
  8
AM_0
  5
1C56F
 10
550.861
 20
428.895
 30
0.000000
  70
    32
  0
VERTEX
  8
AM_0
  5
1C570
 10
550.716
 20
429.007
 30
0.000000
  70
    32
  0
VERTEX
  8
AM_0
  5
1C571
 10
550.568
 20
429.117
 30
0.000000
  70
    32
  0
VERTEX
  8
AM_0
  5
1C572
 10
550.420
 20
429.226
 30
0.000000
  70
    32
  0
VERTEX
  8
AM_0
  5
1C573
 10
550.270
 20
429.333
 30
0.000000
  70
    32
  0
VERTEX
  8
AM_0
  5
1C574
 10
550.119
 20
429.438
 30
0.000000
  70
    32
  0
VERTEX
  8
AM_0
  5
1C575
 10
549.966
 20
429.541
 30
0.000000
  70
    32
  0
VERTEX
  8
AM_0
  5
1C576
 10
549.813
 20
429.643
 30
0.000000
  70
    32
  0
VERTEX
  8
AM_0
  5
1C577
 10
549.658
 20
429.742
 30
0.000000
  70
    32
  0
VERTEX
  8
AM_0
  5
1C578
 10
549.502
 20
429.840
 30
0.000000
  70
    32
  0
VERTEX
  8
AM_0
  5
1C579
 10
549.344
 20
429.935
 30
0.000000
  70
    32
  0
VERTEX
  8
AM_0
  5
1C57A
 10
549.186
 20
430.029
 30
0.000000
  70
    32
  0
VERTEX
  8
AM_0
  5
1C57B
 10
549.026
 20
430.121
 30
0.000000
  70
    32
  0
VERTEX
  8
AM_0
  5
1C57C
 10
548.866
 20
430.210
 30
0.000000
  70
    32
  0
VERTEX
  8
AM_0
  5
1C57D
 10
548.704
 20
430.298
 30
0.000000
  70
    32
  0
VERTEX
  8
AM_0
  5
1C57E
 10
548.541
 20
430.384
 30
0.000000
  70
    32
  0
VERTEX
  8
AM_0
  5
1C57F
 10
548.377
 20
430.468
 30
0.000000
  70
    32
  0
VERTEX
  8
AM_0
  5
1C580
 10
548.212
 20
430.549
 30
0.000000
  70
    32
  0
VERTEX
  8
AM_0
  5
1C581
 10
548.046
 20
430.629
 30
0.000000
  70
    32
  0
VERTEX
  8
AM_0
  5
1C582
 10
547.879
 20
430.707
 30
0.000000
  70
    32
  0
VERTEX
  8
AM_0
  5
1C583
 10
547.712
 20
430.783
 30
0.000000
  70
    32
  0
VERTEX
  8
AM_0
  5
1C584
 10
547.543
 20
430.856
 30
0.000000
  70
    32
  0
VERTEX
  8
AM_0
  5
1C585
 10
547.373
 20
430.928
 30
0.000000
  70
    32
  0
VERTEX
  8
AM_0
  5
1C586
 10
547.203
 20
430.997
 30
0.000000
  70
    32
  0
VERTEX
  8
AM_0
  5
1C587
 10
547.031
 20
431.064
 30
0.000000
  70
    32
  0
VERTEX
  8
AM_0
  5
1C588
 10
546.859
 20
431.129
 30
0.000000
  70
    32
  0
VERTEX
  8
AM_0
  5
1C589
 10
546.686
 20
431.193
 30
0.000000
  70
    32
  0
VERTEX
  8
AM_0
  5
1C58A
 10
546.513
 20
431.253
 30
0.000000
  70
    32
  0
VERTEX
  8
AM_0
  5
1C58B
 10
546.338
 20
431.312
 30
0.000000
  70
    32
  0
VERTEX
  8
AM_0
  5
1C58C
 10
546.163
 20
431.369
 30
0.000000
  70
    32
  0
VERTEX
  8
AM_0
  5
1C58D
 10
545.987
 20
431.423
 30
0.000000
  70
    32
  0
VERTEX
  8
AM_0
  5
1C58E
 10
545.811
 20
431.476
 30
0.000000
  70
    32
  0
VERTEX
  8
AM_0
  5
1C58F
 10
545.634
 20
431.526
 30
0.000000
  70
    32
  0
VERTEX
  8
AM_0
  5
1C590
 10
545.456
 20
431.574
 30
0.000000
  70
    32
  0
VERTEX
  8
AM_0
  5
1C591
 10
545.278
 20
431.620
 30
0.000000
  70
    32
  0
VERTEX
  8
AM_0
  5
1C592
 10
545.099
 20
431.663
 30
0.000000
  70
    32
  0
VERTEX
  8
AM_0
  5
1C593
 10
544.919
 20
431.705
 30
0.000000
  70
    32
  0
VERTEX
  8
AM_0
  5
1C594
 10
544.740
 20
431.744
 30
0.000000
  70
    32
  0
VERTEX
  8
AM_0
  5
1C595
 10
544.559
 20
431.781
 30
0.000000
  70
    32
  0
VERTEX
  8
AM_0
  5
1C596
 10
544.379
 20
431.816
 30
0.000000
  70
    32
  0
VERTEX
  8
AM_0
  5
1C597
 10
544.197
 20
431.849
 30
0.000000
  70
    32
  0
VERTEX
  8
AM_0
  5
1C598
 10
544.016
 20
431.879
 30
0.000000
  70
    32
  0
VERTEX
  8
AM_0
  5
1C599
 10
543.834
 20
431.907
 30
0.000000
  70
    32
  0
VERTEX
  8
AM_0
  5
1C59A
 10
543.652
 20
431.933
 30
0.000000
  70
    32
  0
VERTEX
  8
AM_0
  5
1C59B
 10
543.469
 20
431.957
 30
0.000000
  70
    32
  0
VERTEX
  8
AM_0
  5
1C59C
 10
543.286
 20
431.978
 30
0.000000
  70
    32
  0
VERTEX
  8
AM_0
  5
1C59D
 10
543.103
 20
431.997
 30
0.000000
  70
    32
  0
VERTEX
  8
AM_0
  5
1C59E
 10
542.920
 20
432.014
 30
0.000000
  70
    32
  0
VERTEX
  8
AM_0
  5
1C59F
 10
542.736
 20
432.029
 30
0.000000
  70
    32
  0
VERTEX
  8
AM_0
  5
1C5A0
 10
542.553
 20
432.041
 30
0.000000
  70
    32
  0
VERTEX
  8
AM_0
  5
1C5A1
 10
542.369
 20
432.051
 30
0.000000
  70
    32
  0
VERTEX
  8
AM_0
  5
1C5A2
 10
542.185
 20
432.059
 30
0.000000
  70
    32
  0
VERTEX
  8
AM_0
  5
1C5A3
 10
542.001
 20
432.065
 30
0.000000
  70
    32
  0
VERTEX
  8
AM_0
  5
1C5A4
 10
541.817
 20
432.068
 30
0.000000
  70
    32
  0
VERTEX
  8
AM_0
  5
1C5A5
 10
541.633
 20
432.069
 30
0.000000
  70
    32
  0
SEQEND
  8
AM_0
  5
1C5A6
  0
LINE
  5
18E98
  8
ﾁｭｳｼﾝｾﾝ1
 10
526.63291951590224
 20
414.06903534846703
 30
0.0
 11
550.63292023835834
 21
414.06903534846703
 31
0.0
  0
POLYLINE
  5
18E99
  8
AM_0
 10
547.63292014805131
 20
414.06903534846703
 30
0.0
 66
     1
 70
     8
  0
VERTEX
  8
AM_0
  5
1C5A7
 10
547.633
 20
414.069
 30
0.000000
  70
    32
  0
VERTEX
  8
AM_0
  5
1C5A8
 10
547.622
 20
414.511
 30
0.000000
  70
    32
  0
VERTEX
  8
AM_0
  5
1C5A9
 10
547.590
 20
414.951
 30
0.000000
  70
    32
  0
VERTEX
  8
AM_0
  5
1C5AA
 10
547.536
 20
415.390
 30
0.000000
  70
    32
  0
VERTEX
  8
AM_0
  5
1C5AB
 10
547.460
 20
415.825
 30
0.000000
  70
    32
  0
VERTEX
  8
AM_0
  5
1C5AC
 10
547.363
 20
416.256
 30
0.000000
  70
    32
  0
VERTEX
  8
AM_0
  5
1C5AD
 10
547.245
 20
416.682
 30
0.000000
  70
    32
  0
VERTEX
  8
AM_0
  5
1C5AE
 10
547.107
 20
417.101
 30
0.000000
  70
    32
  0
VERTEX
  8
AM_0
  5
1C5AF
 10
546.948
 20
417.513
 30
0.000000
  70
    32
  0
VERTEX
  8
AM_0
  5
1C5B0
 10
546.769
 20
417.917
 30
0.000000
  70
    32
  0
VERTEX
  8
AM_0
  5
1C5B1
 10
546.570
 20
418.312
 30
0.000000
  70
    32
  0
VERTEX
  8
AM_0
  5
1C5B2
 10
546.352
 20
418.696
 30
0.000000
  70
    32
  0
VERTEX
  8
AM_0
  5
1C5B3
 10
546.116
 20
419.069
 30
0.000000
  70
    32
  0
VERTEX
  8
AM_0
  5
1C5B4
 10
545.862
 20
419.430
 30
0.000000
  70
    32
  0
VERTEX
  8
AM_0
  5
1C5B5
 10
545.590
 20
419.779
 30
0.000000
  70
    32
  0
VERTEX
  8
AM_0
  5
1C5B6
 10
545.301
 20
420.113
 30
0.000000
  70
    32
  0
VERTEX
  8
AM_0
  5
1C5B7
 10
544.997
 20
420.433
 30
0.000000
  70
    32
  0
VERTEX
  8
AM_0
  5
1C5B8
 10
544.677
 20
420.738
 30
0.000000
  70
    32
  0
VERTEX
  8
AM_0
  5
1C5B9
 10
544.342
 20
421.026
 30
0.000000
  70
    32
  0
VERTEX
  8
AM_0
  5
1C5BA
 10
543.994
 20
421.298
 30
0.000000
  70
    32
  0
VERTEX
  8
AM_0
  5
1C5BB
 10
543.633
 20
421.552
 30
0.000000
  70
    32
  0
VERTEX
  8
AM_0
  5
1C5BC
 10
543.260
 20
421.789
 30
0.000000
  70
    32
  0
VERTEX
  8
AM_0
  5
1C5BD
 10
542.875
 20
422.006
 30
0.000000
  70
    32
  0
VERTEX
  8
AM_0
  5
1C5BE
 10
542.481
 20
422.205
 30
0.000000
  70
    32
  0
VERTEX
  8
AM_0
  5
1C5BF
 10
542.077
 20
422.384
 30
0.000000
  70
    32
  0
VERTEX
  8
AM_0
  5
1C5C0
 10
541.665
 20
422.543
 30
0.000000
  70
    32
  0
VERTEX
  8
AM_0
  5
1C5C1
 10
541.245
 20
422.682
 30
0.000000
  70
    32
  0
VERTEX
  8
AM_0
  5
1C5C2
 10
540.820
 20
422.799
 30
0.000000
  70
    32
  0
VERTEX
  8
AM_0
  5
1C5C3
 10
540.389
 20
422.896
 30
0.000000
  70
    32
  0
VERTEX
  8
AM_0
  5
1C5C4
 10
539.953
 20
422.972
 30
0.000000
  70
    32
  0
VERTEX
  8
AM_0
  5
1C5C5
 10
539.515
 20
423.026
 30
0.000000
  70
    32
  0
VERTEX
  8
AM_0
  5
1C5C6
 10
539.075
 20
423.058
 30
0.000000
  70
    32
  0
VERTEX
  8
AM_0
  5
1C5C7
 10
538.633
 20
423.069
 30
0.000000
  70
    32
  0
VERTEX
  8
AM_0
  5
1C5C8
 10
538.191
 20
423.058
 30
0.000000
  70
    32
  0
VERTEX
  8
AM_0
  5
1C5C9
 10
537.751
 20
423.026
 30
0.000000
  70
    32
  0
VERTEX
  8
AM_0
  5
1C5CA
 10
537.312
 20
422.972
 30
0.000000
  70
    32
  0
VERTEX
  8
AM_0
  5
1C5CB
 10
536.877
 20
422.896
 30
0.000000
  70
    32
  0
VERTEX
  8
AM_0
  5
1C5CC
 10
536.446
 20
422.799
 30
0.000000
  70
    32
  0
VERTEX
  8
AM_0
  5
1C5CD
 10
536.020
 20
422.682
 30
0.000000
  70
    32
  0
VERTEX
  8
AM_0
  5
1C5CE
 10
535.601
 20
422.543
 30
0.000000
  70
    32
  0
VERTEX
  8
AM_0
  5
1C5CF
 10
535.189
 20
422.384
 30
0.000000
  70
    32
  0
VERTEX
  8
AM_0
  5
1C5D0
 10
534.785
 20
422.205
 30
0.000000
  70
    32
  0
VERTEX
  8
AM_0
  5
1C5D1
 10
534.390
 20
422.006
 30
0.000000
  70
    32
  0
VERTEX
  8
AM_0
  5
1C5D2
 10
534.006
 20
421.789
 30
0.000000
  70
    32
  0
VERTEX
  8
AM_0
  5
1C5D3
 10
533.633
 20
421.552
 30
0.000000
  70
    32
  0
VERTEX
  8
AM_0
  5
1C5D4
 10
533.272
 20
421.298
 30
0.000000
  70
    32
  0
VERTEX
  8
AM_0
  5
1C5D5
 10
532.923
 20
421.026
 30
0.000000
  70
    32
  0
VERTEX
  8
AM_0
  5
1C5D6
 10
532.589
 20
420.738
 30
0.000000
  70
    32
  0
VERTEX
  8
AM_0
  5
1C5D7
 10
532.269
 20
420.433
 30
0.000000
  70
    32
  0
VERTEX
  8
AM_0
  5
1C5D8
 10
531.964
 20
420.113
 30
0.000000
  70
    32
  0
VERTEX
  8
AM_0
  5
1C5D9
 10
531.676
 20
419.779
 30
0.000000
  70
    32
  0
VERTEX
  8
AM_0
  5
1C5DA
 10
531.404
 20
419.430
 30
0.000000
  70
    32
  0
VERTEX
  8
AM_0
  5
1C5DB
 10
531.150
 20
419.069
 30
0.000000
  70
    32
  0
VERTEX
  8
AM_0
  5
1C5DC
 10
530.913
 20
418.696
 30
0.000000
  70
    32
  0
VERTEX
  8
AM_0
  5
1C5DD
 10
530.696
 20
418.312
 30
0.000000
  70
    32
  0
VERTEX
  8
AM_0
  5
1C5DE
 10
530.497
 20
417.917
 30
0.000000
  70
    32
  0
VERTEX
  8
AM_0
  5
1C5DF
 10
530.318
 20
417.513
 30
0.000000
  70
    32
  0
VERTEX
  8
AM_0
  5
1C5E0
 10
530.159
 20
417.101
 30
0.000000
  70
    32
  0
VERTEX
  8
AM_0
  5
1C5E1
 10
530.020
 20
416.682
 30
0.000000
  70
    32
  0
VERTEX
  8
AM_0
  5
1C5E2
 10
529.903
 20
416.256
 30
0.000000
  70
    32
  0
VERTEX
  8
AM_0
  5
1C5E3
 10
529.806
 20
415.825
 30
0.000000
  70
    32
  0
VERTEX
  8
AM_0
  5
1C5E4
 10
529.730
 20
415.390
 30
0.000000
  70
    32
  0
VERTEX
  8
AM_0
  5
1C5E5
 10
529.676
 20
414.951
 30
0.000000
  70
    32
  0
VERTEX
  8
AM_0
  5
1C5E6
 10
529.644
 20
414.511
 30
0.000000
  70
    32
  0
VERTEX
  8
AM_0
  5
1C5E7
 10
529.633
 20
414.069
 30
0.000000
  70
    32
  0
VERTEX
  8
AM_0
  5
1C5E8
 10
529.644
 20
413.627
 30
0.000000
  70
    32
  0
VERTEX
  8
AM_0
  5
1C5E9
 10
529.676
 20
413.187
 30
0.000000
  70
    32
  0
VERTEX
  8
AM_0
  5
1C5EA
 10
529.730
 20
412.748
 30
0.000000
  70
    32
  0
VERTEX
  8
AM_0
  5
1C5EB
 10
529.806
 20
412.313
 30
0.000000
  70
    32
  0
VERTEX
  8
AM_0
  5
1C5EC
 10
529.903
 20
411.882
 30
0.000000
  70
    32
  0
VERTEX
  8
AM_0
  5
1C5ED
 10
530.020
 20
411.456
 30
0.000000
  70
    32
  0
VERTEX
  8
AM_0
  5
1C5EE
 10
530.159
 20
411.037
 30
0.000000
  70
    32
  0
VERTEX
  8
AM_0
  5
1C5EF
 10
530.318
 20
410.625
 30
0.000000
  70
    32
  0
VERTEX
  8
AM_0
  5
1C5F0
 10
530.497
 20
410.221
 30
0.000000
  70
    32
  0
VERTEX
  8
AM_0
  5
1C5F1
 10
530.696
 20
409.826
 30
0.000000
  70
    32
  0
VERTEX
  8
AM_0
  5
1C5F2
 10
530.913
 20
409.442
 30
0.000000
  70
    32
  0
VERTEX
  8
AM_0
  5
1C5F3
 10
531.150
 20
409.069
 30
0.000000
  70
    32
  0
VERTEX
  8
AM_0
  5
1C5F4
 10
531.404
 20
408.708
 30
0.000000
  70
    32
  0
VERTEX
  8
AM_0
  5
1C5F5
 10
531.676
 20
408.359
 30
0.000000
  70
    32
  0
VERTEX
  8
AM_0
  5
1C5F6
 10
531.964
 20
408.025
 30
0.000000
  70
    32
  0
VERTEX
  8
AM_0
  5
1C5F7
 10
532.269
 20
407.705
 30
0.000000
  70
    32
  0
VERTEX
  8
AM_0
  5
1C5F8
 10
532.589
 20
407.400
 30
0.000000
  70
    32
  0
VERTEX
  8
AM_0
  5
1C5F9
 10
532.923
 20
407.112
 30
0.000000
  70
    32
  0
VERTEX
  8
AM_0
  5
1C5FA
 10
533.272
 20
406.840
 30
0.000000
  70
    32
  0
VERTEX
  8
AM_0
  5
1C5FB
 10
533.633
 20
406.586
 30
0.000000
  70
    32
  0
VERTEX
  8
AM_0
  5
1C5FC
 10
534.006
 20
406.349
 30
0.000000
  70
    32
  0
VERTEX
  8
AM_0
  5
1C5FD
 10
534.390
 20
406.132
 30
0.000000
  70
    32
  0
VERTEX
  8
AM_0
  5
1C5FE
 10
534.785
 20
405.933
 30
0.000000
  70
    32
  0
VERTEX
  8
AM_0
  5
1C5FF
 10
535.189
 20
405.754
 30
0.000000
  70
    32
  0
VERTEX
  8
AM_0
  5
1C600
 10
535.601
 20
405.595
 30
0.000000
  70
    32
  0
VERTEX
  8
AM_0
  5
1C601
 10
536.020
 20
405.456
 30
0.000000
  70
    32
  0
VERTEX
  8
AM_0
  5
1C602
 10
536.446
 20
405.339
 30
0.000000
  70
    32
  0
VERTEX
  8
AM_0
  5
1C603
 10
536.877
 20
405.242
 30
0.000000
  70
    32
  0
VERTEX
  8
AM_0
  5
1C604
 10
537.312
 20
405.166
 30
0.000000
  70
    32
  0
VERTEX
  8
AM_0
  5
1C605
 10
537.751
 20
405.112
 30
0.000000
  70
    32
  0
VERTEX
  8
AM_0
  5
1C606
 10
538.191
 20
405.080
 30
0.000000
  70
    32
  0
VERTEX
  8
AM_0
  5
1C607
 10
538.633
 20
405.069
 30
0.000000
  70
    32
  0
VERTEX
  8
AM_0
  5
1C608
 10
539.075
 20
405.080
 30
0.000000
  70
    32
  0
VERTEX
  8
AM_0
  5
1C609
 10
539.515
 20
405.112
 30
0.000000
  70
    32
  0
VERTEX
  8
AM_0
  5
1C60A
 10
539.953
 20
405.166
 30
0.000000
  70
    32
  0
VERTEX
  8
AM_0
  5
1C60B
 10
540.389
 20
405.242
 30
0.000000
  70
    32
  0
VERTEX
  8
AM_0
  5
1C60C
 10
540.820
 20
405.339
 30
0.000000
  70
    32
  0
VERTEX
  8
AM_0
  5
1C60D
 10
541.245
 20
405.456
 30
0.000000
  70
    32
  0
VERTEX
  8
AM_0
  5
1C60E
 10
541.665
 20
405.595
 30
0.000000
  70
    32
  0
VERTEX
  8
AM_0
  5
1C60F
 10
542.077
 20
405.754
 30
0.000000
  70
    32
  0
VERTEX
  8
AM_0
  5
1C610
 10
542.481
 20
405.933
 30
0.000000
  70
    32
  0
VERTEX
  8
AM_0
  5
1C611
 10
542.875
 20
406.132
 30
0.000000
  70
    32
  0
VERTEX
  8
AM_0
  5
1C612
 10
543.260
 20
406.349
 30
0.000000
  70
    32
  0
VERTEX
  8
AM_0
  5
1C613
 10
543.633
 20
406.586
 30
0.000000
  70
    32
  0
VERTEX
  8
AM_0
  5
1C614
 10
543.994
 20
406.840
 30
0.000000
  70
    32
  0
VERTEX
  8
AM_0
  5
1C615
 10
544.342
 20
407.112
 30
0.000000
  70
    32
  0
VERTEX
  8
AM_0
  5
1C616
 10
544.677
 20
407.400
 30
0.000000
  70
    32
  0
VERTEX
  8
AM_0
  5
1C617
 10
544.997
 20
407.705
 30
0.000000
  70
    32
  0
VERTEX
  8
AM_0
  5
1C618
 10
545.301
 20
408.025
 30
0.000000
  70
    32
  0
VERTEX
  8
AM_0
  5
1C619
 10
545.590
 20
408.359
 30
0.000000
  70
    32
  0
VERTEX
  8
AM_0
  5
1C61A
 10
545.862
 20
408.708
 30
0.000000
  70
    32
  0
VERTEX
  8
AM_0
  5
1C61B
 10
546.116
 20
409.069
 30
0.000000
  70
    32
  0
VERTEX
  8
AM_0
  5
1C61C
 10
546.352
 20
409.442
 30
0.000000
  70
    32
  0
VERTEX
  8
AM_0
  5
1C61D
 10
546.570
 20
409.826
 30
0.000000
  70
    32
  0
VERTEX
  8
AM_0
  5
1C61E
 10
546.769
 20
410.221
 30
0.000000
  70
    32
  0
VERTEX
  8
AM_0
  5
1C61F
 10
546.948
 20
410.625
 30
0.000000
  70
    32
  0
VERTEX
  8
AM_0
  5
1C620
 10
547.107
 20
411.037
 30
0.000000
  70
    32
  0
VERTEX
  8
AM_0
  5
1C621
 10
547.245
 20
411.456
 30
0.000000
  70
    32
  0
VERTEX
  8
AM_0
  5
1C622
 10
547.363
 20
411.882
 30
0.000000
  70
    32
  0
VERTEX
  8
AM_0
  5
1C623
 10
547.460
 20
412.313
 30
0.000000
  70
    32
  0
VERTEX
  8
AM_0
  5
1C624
 10
547.536
 20
412.748
 30
0.000000
  70
    32
  0
VERTEX
  8
AM_0
  5
1C625
 10
547.590
 20
413.187
 30
0.000000
  70
    32
  0
VERTEX
  8
AM_0
  5
1C626
 10
547.622
 20
413.627
 30
0.000000
  70
    32
  0
VERTEX
  8
AM_0
  5
1C627
 10
547.633
 20
414.069
 30
0.000000
  70
    32
  0
SEQEND
  8
AM_0
  5
1C628
  0
LINE
  5
18E9A
  8
ﾁｭｳｼﾝｾﾝ1
 10
538.63291987713046
 20
426.06927570610208
 30
0.0
 11
538.63291987713046
 21
402.0687949908322
 31
0.0
  0
ARC
  5
18E9B
  8
AM_0
 10
553.63291789037714
 20
405.06752071283972
 30
0.0
 40
3.0
 50
270.0
 51
0.0000025044817295
  0
LINE
  5
18E9C
  8
AM_0
 10
546.63291789037748
 20
402.06752071283961
 30
0.0
 11
553.63291789037726
 21
402.06752071283961
 31
0.0
  0
LINE
  5
18E9E
  8
AM_0
 10
786.53896973125916
 20
402.0687949908322
 30
0.0
 11
786.53896973125916
 21
376.06827421595619
 31
0.0
  0
LINE
  5
18E9F
  8
AM_0
 10
774.53896937003117
 20
295.06665180191959
 30
0.0
 11
783.53896964095225
 21
295.06665180191959
 31
0.0
  0
LINE
  5
18EA0
  8
AM_0
 10
771.53896927972426
 20
300.0667519509343
 30
0.0
 11
786.53896973125916
 21
300.0667519509343
 31
0.0
  0
LINE
  5
18EA1
  8
AM_0
 10
774.53896937003117
 20
381.06837436497079
 30
0.0
 11
783.53896964095225
 21
381.06837436497079
 31
0.0
  0
LINE
  5
18EA2
  8
AM_0
 10
771.53896927972426
 20
376.06827421595619
 30
0.0
 11
786.53896973125916
 21
376.06827421595619
 31
0.0
  0
LINE
  5
18EA3
  8
AM_0
 10
774.53896937003117
 20
397.0686948418176
 30
0.0
 11
783.53896964095225
 21
397.0686948418176
 31
0.0
  0
LINE
  5
18EA4
  8
AM_0
 10
761.53896516400391
 20
370.56816405204017
 30
0.0
 11
761.53896516400391
 21
305.56686211485038
 31
0.0
  0
LINE
  5
18EA5
  8
AM_0
 10
766.53896531451551
 20
388.06851457359107
 30
0.0
 11
766.53896531451551
 21
288.06651159329942
 31
0.0
  0
LINE
  5
18EA9
  8
AM_0
 10
771.53896546502699
 20
288.06651159329942
 30
0.0
 11
766.53896531451551
 21
288.06651159329942
 31
0.0
  0
POLYLINE
  5
18EAF
  8
AM_0
 10
774.53896932631994
 20
295.06665180191976
 30
0.0
 66
     1
 70
     8
  0
VERTEX
  8
AM_0
  5
1C629
 10
774.539
 20
295.067
 30
0.000000
  70
    32
  0
VERTEX
  8
AM_0
  5
1C62A
 10
774.527
 20
295.067
 30
0.000000
  70
    32
  0
VERTEX
  8
AM_0
  5
1C62B
 10
774.514
 20
295.066
 30
0.000000
  70
    32
  0
VERTEX
  8
AM_0
  5
1C62C
 10
774.502
 20
295.066
 30
0.000000
  70
    32
  0
VERTEX
  8
AM_0
  5
1C62D
 10
774.490
 20
295.065
 30
0.000000
  70
    32
  0
VERTEX
  8
AM_0
  5
1C62E
 10
774.478
 20
295.065
 30
0.000000
  70
    32
  0
VERTEX
  8
AM_0
  5
1C62F
 10
774.465
 20
295.064
 30
0.000000
  70
    32
  0
VERTEX
  8
AM_0
  5
1C630
 10
774.453
 20
295.063
 30
0.000000
  70
    32
  0
VERTEX
  8
AM_0
  5
1C631
 10
774.441
 20
295.062
 30
0.000000
  70
    32
  0
VERTEX
  8
AM_0
  5
1C632
 10
774.429
 20
295.061
 30
0.000000
  70
    32
  0
VERTEX
  8
AM_0
  5
1C633
 10
774.417
 20
295.059
 30
0.000000
  70
    32
  0
VERTEX
  8
AM_0
  5
1C634
 10
774.404
 20
295.058
 30
0.000000
  70
    32
  0
VERTEX
  8
AM_0
  5
1C635
 10
774.392
 20
295.056
 30
0.000000
  70
    32
  0
VERTEX
  8
AM_0
  5
1C636
 10
774.380
 20
295.054
 30
0.000000
  70
    32
  0
VERTEX
  8
AM_0
  5
1C637
 10
774.368
 20
295.052
 30
0.000000
  70
    32
  0
VERTEX
  8
AM_0
  5
1C638
 10
774.356
 20
295.050
 30
0.000000
  70
    32
  0
VERTEX
  8
AM_0
  5
1C639
 10
774.344
 20
295.047
 30
0.000000
  70
    32
  0
VERTEX
  8
AM_0
  5
1C63A
 10
774.332
 20
295.045
 30
0.000000
  70
    32
  0
VERTEX
  8
AM_0
  5
1C63B
 10
774.320
 20
295.042
 30
0.000000
  70
    32
  0
VERTEX
  8
AM_0
  5
1C63C
 10
774.308
 20
295.040
 30
0.000000
  70
    32
  0
VERTEX
  8
AM_0
  5
1C63D
 10
774.296
 20
295.037
 30
0.000000
  70
    32
  0
VERTEX
  8
AM_0
  5
1C63E
 10
774.284
 20
295.034
 30
0.000000
  70
    32
  0
VERTEX
  8
AM_0
  5
1C63F
 10
774.272
 20
295.030
 30
0.000000
  70
    32
  0
VERTEX
  8
AM_0
  5
1C640
 10
774.260
 20
295.027
 30
0.000000
  70
    32
  0
VERTEX
  8
AM_0
  5
1C641
 10
774.249
 20
295.024
 30
0.000000
  70
    32
  0
VERTEX
  8
AM_0
  5
1C642
 10
774.237
 20
295.020
 30
0.000000
  70
    32
  0
VERTEX
  8
AM_0
  5
1C643
 10
774.225
 20
295.016
 30
0.000000
  70
    32
  0
VERTEX
  8
AM_0
  5
1C644
 10
774.214
 20
295.012
 30
0.000000
  70
    32
  0
VERTEX
  8
AM_0
  5
1C645
 10
774.202
 20
295.008
 30
0.000000
  70
    32
  0
VERTEX
  8
AM_0
  5
1C646
 10
774.191
 20
295.004
 30
0.000000
  70
    32
  0
VERTEX
  8
AM_0
  5
1C647
 10
774.179
 20
295.000
 30
0.000000
  70
    32
  0
VERTEX
  8
AM_0
  5
1C648
 10
774.168
 20
294.995
 30
0.000000
  70
    32
  0
VERTEX
  8
AM_0
  5
1C649
 10
774.156
 20
294.991
 30
0.000000
  70
    32
  0
VERTEX
  8
AM_0
  5
1C64A
 10
774.145
 20
294.986
 30
0.000000
  70
    32
  0
VERTEX
  8
AM_0
  5
1C64B
 10
774.134
 20
294.981
 30
0.000000
  70
    32
  0
VERTEX
  8
AM_0
  5
1C64C
 10
774.123
 20
294.976
 30
0.000000
  70
    32
  0
VERTEX
  8
AM_0
  5
1C64D
 10
774.111
 20
294.971
 30
0.000000
  70
    32
  0
VERTEX
  8
AM_0
  5
1C64E
 10
774.100
 20
294.965
 30
0.000000
  70
    32
  0
VERTEX
  8
AM_0
  5
1C64F
 10
774.089
 20
294.960
 30
0.000000
  70
    32
  0
VERTEX
  8
AM_0
  5
1C650
 10
774.078
 20
294.954
 30
0.000000
  70
    32
  0
VERTEX
  8
AM_0
  5
1C651
 10
774.068
 20
294.949
 30
0.000000
  70
    32
  0
VERTEX
  8
AM_0
  5
1C652
 10
774.057
 20
294.943
 30
0.000000
  70
    32
  0
VERTEX
  8
AM_0
  5
1C653
 10
774.046
 20
294.937
 30
0.000000
  70
    32
  0
VERTEX
  8
AM_0
  5
1C654
 10
774.035
 20
294.931
 30
0.000000
  70
    32
  0
VERTEX
  8
AM_0
  5
1C655
 10
774.025
 20
294.924
 30
0.000000
  70
    32
  0
VERTEX
  8
AM_0
  5
1C656
 10
774.014
 20
294.918
 30
0.000000
  70
    32
  0
VERTEX
  8
AM_0
  5
1C657
 10
774.004
 20
294.912
 30
0.000000
  70
    32
  0
VERTEX
  8
AM_0
  5
1C658
 10
773.994
 20
294.905
 30
0.000000
  70
    32
  0
VERTEX
  8
AM_0
  5
1C659
 10
773.983
 20
294.898
 30
0.000000
  70
    32
  0
VERTEX
  8
AM_0
  5
1C65A
 10
773.973
 20
294.891
 30
0.000000
  70
    32
  0
VERTEX
  8
AM_0
  5
1C65B
 10
773.963
 20
294.884
 30
0.000000
  70
    32
  0
VERTEX
  8
AM_0
  5
1C65C
 10
773.953
 20
294.877
 30
0.000000
  70
    32
  0
VERTEX
  8
AM_0
  5
1C65D
 10
773.943
 20
294.870
 30
0.000000
  70
    32
  0
VERTEX
  8
AM_0
  5
1C65E
 10
773.933
 20
294.862
 30
0.000000
  70
    32
  0
VERTEX
  8
AM_0
  5
1C65F
 10
773.924
 20
294.855
 30
0.000000
  70
    32
  0
VERTEX
  8
AM_0
  5
1C660
 10
773.914
 20
294.847
 30
0.000000
  70
    32
  0
VERTEX
  8
AM_0
  5
1C661
 10
773.905
 20
294.840
 30
0.000000
  70
    32
  0
VERTEX
  8
AM_0
  5
1C662
 10
773.895
 20
294.832
 30
0.000000
  70
    32
  0
VERTEX
  8
AM_0
  5
1C663
 10
773.886
 20
294.824
 30
0.000000
  70
    32
  0
VERTEX
  8
AM_0
  5
1C664
 10
773.877
 20
294.816
 30
0.000000
  70
    32
  0
VERTEX
  8
AM_0
  5
1C665
 10
773.867
 20
294.808
 30
0.000000
  70
    32
  0
VERTEX
  8
AM_0
  5
1C666
 10
773.858
 20
294.799
 30
0.000000
  70
    32
  0
VERTEX
  8
AM_0
  5
1C667
 10
773.849
 20
294.791
 30
0.000000
  70
    32
  0
VERTEX
  8
AM_0
  5
1C668
 10
773.841
 20
294.782
 30
0.000000
  70
    32
  0
VERTEX
  8
AM_0
  5
1C669
 10
773.832
 20
294.774
 30
0.000000
  70
    32
  0
VERTEX
  8
AM_0
  5
1C66A
 10
773.823
 20
294.765
 30
0.000000
  70
    32
  0
VERTEX
  8
AM_0
  5
1C66B
 10
773.815
 20
294.756
 30
0.000000
  70
    32
  0
VERTEX
  8
AM_0
  5
1C66C
 10
773.806
 20
294.747
 30
0.000000
  70
    32
  0
VERTEX
  8
AM_0
  5
1C66D
 10
773.798
 20
294.738
 30
0.000000
  70
    32
  0
VERTEX
  8
AM_0
  5
1C66E
 10
773.790
 20
294.729
 30
0.000000
  70
    32
  0
VERTEX
  8
AM_0
  5
1C66F
 10
773.782
 20
294.720
 30
0.000000
  70
    32
  0
VERTEX
  8
AM_0
  5
1C670
 10
773.774
 20
294.710
 30
0.000000
  70
    32
  0
VERTEX
  8
AM_0
  5
1C671
 10
773.766
 20
294.701
 30
0.000000
  70
    32
  0
VERTEX
  8
AM_0
  5
1C672
 10
773.758
 20
294.692
 30
0.000000
  70
    32
  0
VERTEX
  8
AM_0
  5
1C673
 10
773.751
 20
294.682
 30
0.000000
  70
    32
  0
VERTEX
  8
AM_0
  5
1C674
 10
773.743
 20
294.672
 30
0.000000
  70
    32
  0
VERTEX
  8
AM_0
  5
1C675
 10
773.736
 20
294.662
 30
0.000000
  70
    32
  0
VERTEX
  8
AM_0
  5
1C676
 10
773.729
 20
294.652
 30
0.000000
  70
    32
  0
VERTEX
  8
AM_0
  5
1C677
 10
773.721
 20
294.642
 30
0.000000
  70
    32
  0
VERTEX
  8
AM_0
  5
1C678
 10
773.714
 20
294.632
 30
0.000000
  70
    32
  0
VERTEX
  8
AM_0
  5
1C679
 10
773.707
 20
294.622
 30
0.000000
  70
    32
  0
VERTEX
  8
AM_0
  5
1C67A
 10
773.701
 20
294.612
 30
0.000000
  70
    32
  0
VERTEX
  8
AM_0
  5
1C67B
 10
773.694
 20
294.602
 30
0.000000
  70
    32
  0
VERTEX
  8
AM_0
  5
1C67C
 10
773.688
 20
294.591
 30
0.000000
  70
    32
  0
VERTEX
  8
AM_0
  5
1C67D
 10
773.681
 20
294.581
 30
0.000000
  70
    32
  0
VERTEX
  8
AM_0
  5
1C67E
 10
773.675
 20
294.570
 30
0.000000
  70
    32
  0
VERTEX
  8
AM_0
  5
1C67F
 10
773.669
 20
294.560
 30
0.000000
  70
    32
  0
VERTEX
  8
AM_0
  5
1C680
 10
773.663
 20
294.549
 30
0.000000
  70
    32
  0
VERTEX
  8
AM_0
  5
1C681
 10
773.657
 20
294.538
 30
0.000000
  70
    32
  0
VERTEX
  8
AM_0
  5
1C682
 10
773.651
 20
294.527
 30
0.000000
  70
    32
  0
VERTEX
  8
AM_0
  5
1C683
 10
773.646
 20
294.516
 30
0.000000
  70
    32
  0
VERTEX
  8
AM_0
  5
1C684
 10
773.640
 20
294.505
 30
0.000000
  70
    32
  0
VERTEX
  8
AM_0
  5
1C685
 10
773.635
 20
294.494
 30
0.000000
  70
    32
  0
VERTEX
  8
AM_0
  5
1C686
 10
773.630
 20
294.483
 30
0.000000
  70
    32
  0
VERTEX
  8
AM_0
  5
1C687
 10
773.625
 20
294.472
 30
0.000000
  70
    32
  0
VERTEX
  8
AM_0
  5
1C688
 10
773.620
 20
294.461
 30
0.000000
  70
    32
  0
VERTEX
  8
AM_0
  5
1C689
 10
773.615
 20
294.449
 30
0.000000
  70
    32
  0
VERTEX
  8
AM_0
  5
1C68A
 10
773.610
 20
294.438
 30
0.000000
  70
    32
  0
VERTEX
  8
AM_0
  5
1C68B
 10
773.606
 20
294.427
 30
0.000000
  70
    32
  0
VERTEX
  8
AM_0
  5
1C68C
 10
773.602
 20
294.415
 30
0.000000
  70
    32
  0
VERTEX
  8
AM_0
  5
1C68D
 10
773.597
 20
294.404
 30
0.000000
  70
    32
  0
VERTEX
  8
AM_0
  5
1C68E
 10
773.593
 20
294.392
 30
0.000000
  70
    32
  0
VERTEX
  8
AM_0
  5
1C68F
 10
773.589
 20
294.380
 30
0.000000
  70
    32
  0
VERTEX
  8
AM_0
  5
1C690
 10
773.586
 20
294.369
 30
0.000000
  70
    32
  0
VERTEX
  8
AM_0
  5
1C691
 10
773.582
 20
294.357
 30
0.000000
  70
    32
  0
VERTEX
  8
AM_0
  5
1C692
 10
773.579
 20
294.345
 30
0.000000
  70
    32
  0
VERTEX
  8
AM_0
  5
1C693
 10
773.575
 20
294.333
 30
0.000000
  70
    32
  0
VERTEX
  8
AM_0
  5
1C694
 10
773.572
 20
294.322
 30
0.000000
  70
    32
  0
VERTEX
  8
AM_0
  5
1C695
 10
773.569
 20
294.310
 30
0.000000
  70
    32
  0
VERTEX
  8
AM_0
  5
1C696
 10
773.566
 20
294.298
 30
0.000000
  70
    32
  0
VERTEX
  8
AM_0
  5
1C697
 10
773.563
 20
294.286
 30
0.000000
  70
    32
  0
VERTEX
  8
AM_0
  5
1C698
 10
773.561
 20
294.274
 30
0.000000
  70
    32
  0
VERTEX
  8
AM_0
  5
1C699
 10
773.558
 20
294.262
 30
0.000000
  70
    32
  0
VERTEX
  8
AM_0
  5
1C69A
 10
773.556
 20
294.250
 30
0.000000
  70
    32
  0
VERTEX
  8
AM_0
  5
1C69B
 10
773.554
 20
294.238
 30
0.000000
  70
    32
  0
VERTEX
  8
AM_0
  5
1C69C
 10
773.552
 20
294.225
 30
0.000000
  70
    32
  0
VERTEX
  8
AM_0
  5
1C69D
 10
773.550
 20
294.213
 30
0.000000
  70
    32
  0
VERTEX
  8
AM_0
  5
1C69E
 10
773.548
 20
294.201
 30
0.000000
  70
    32
  0
VERTEX
  8
AM_0
  5
1C69F
 10
773.546
 20
294.189
 30
0.000000
  70
    32
  0
VERTEX
  8
AM_0
  5
1C6A0
 10
773.545
 20
294.177
 30
0.000000
  70
    32
  0
VERTEX
  8
AM_0
  5
1C6A1
 10
773.544
 20
294.165
 30
0.000000
  70
    32
  0
VERTEX
  8
AM_0
  5
1C6A2
 10
773.543
 20
294.152
 30
0.000000
  70
    32
  0
VERTEX
  8
AM_0
  5
1C6A3
 10
773.542
 20
294.140
 30
0.000000
  70
    32
  0
VERTEX
  8
AM_0
  5
1C6A4
 10
773.541
 20
294.128
 30
0.000000
  70
    32
  0
VERTEX
  8
AM_0
  5
1C6A5
 10
773.540
 20
294.116
 30
0.000000
  70
    32
  0
VERTEX
  8
AM_0
  5
1C6A6
 10
773.540
 20
294.103
 30
0.000000
  70
    32
  0
VERTEX
  8
AM_0
  5
1C6A7
 10
773.539
 20
294.091
 30
0.000000
  70
    32
  0
VERTEX
  8
AM_0
  5
1C6A8
 10
773.539
 20
294.079
 30
0.000000
  70
    32
  0
VERTEX
  8
AM_0
  5
1C6A9
 10
773.539
 20
294.067
 30
0.000000
  70
    32
  0
SEQEND
  8
AM_0
  5
1C6AA
  0
LINE
  5
18EB2
  8
AM_0
 10
766.53896531451551
 20
305.56686211485038
 30
0.0
 11
761.53896516400391
 21
305.56686211485038
 31
0.0
  0
LINE
  5
18EB3
  8
AM_0
 10
766.53896531451551
 20
370.56816405204017
 30
0.0
 11
761.53896516400391
 21
370.56816405204017
 31
0.0
  0
LINE
  5
18EB4
  8
AM_0
 10
773.53896933992905
 20
396.06867481201459
 30
0.0
 11
773.53896933992905
 21
382.06839439477358
 31
0.0
  0
POLYLINE
  5
18EB5
  8
AM_0
 10
773.53896933992894
 20
382.06839430734908
 30
0.0
 66
     1
 70
     8
  0
VERTEX
  8
AM_0
  5
1C6AB
 10
773.539
 20
382.068
 30
0.000000
  70
    32
  0
VERTEX
  8
AM_0
  5
1C6AC
 10
773.539
 20
382.056
 30
0.000000
  70
    32
  0
VERTEX
  8
AM_0
  5
1C6AD
 10
773.539
 20
382.044
 30
0.000000
  70
    32
  0
VERTEX
  8
AM_0
  5
1C6AE
 10
773.540
 20
382.032
 30
0.000000
  70
    32
  0
VERTEX
  8
AM_0
  5
1C6AF
 10
773.540
 20
382.019
 30
0.000000
  70
    32
  0
VERTEX
  8
AM_0
  5
1C6B0
 10
773.541
 20
382.007
 30
0.000000
  70
    32
  0
VERTEX
  8
AM_0
  5
1C6B1
 10
773.542
 20
381.995
 30
0.000000
  70
    32
  0
VERTEX
  8
AM_0
  5
1C6B2
 10
773.543
 20
381.983
 30
0.000000
  70
    32
  0
VERTEX
  8
AM_0
  5
1C6B3
 10
773.544
 20
381.970
 30
0.000000
  70
    32
  0
VERTEX
  8
AM_0
  5
1C6B4
 10
773.545
 20
381.958
 30
0.000000
  70
    32
  0
VERTEX
  8
AM_0
  5
1C6B5
 10
773.546
 20
381.946
 30
0.000000
  70
    32
  0
VERTEX
  8
AM_0
  5
1C6B6
 10
773.548
 20
381.934
 30
0.000000
  70
    32
  0
VERTEX
  8
AM_0
  5
1C6B7
 10
773.550
 20
381.922
 30
0.000000
  70
    32
  0
VERTEX
  8
AM_0
  5
1C6B8
 10
773.552
 20
381.910
 30
0.000000
  70
    32
  0
VERTEX
  8
AM_0
  5
1C6B9
 10
773.554
 20
381.897
 30
0.000000
  70
    32
  0
VERTEX
  8
AM_0
  5
1C6BA
 10
773.556
 20
381.885
 30
0.000000
  70
    32
  0
VERTEX
  8
AM_0
  5
1C6BB
 10
773.558
 20
381.873
 30
0.000000
  70
    32
  0
VERTEX
  8
AM_0
  5
1C6BC
 10
773.561
 20
381.861
 30
0.000000
  70
    32
  0
VERTEX
  8
AM_0
  5
1C6BD
 10
773.563
 20
381.849
 30
0.000000
  70
    32
  0
VERTEX
  8
AM_0
  5
1C6BE
 10
773.566
 20
381.837
 30
0.000000
  70
    32
  0
VERTEX
  8
AM_0
  5
1C6BF
 10
773.569
 20
381.825
 30
0.000000
  70
    32
  0
VERTEX
  8
AM_0
  5
1C6C0
 10
773.572
 20
381.814
 30
0.000000
  70
    32
  0
VERTEX
  8
AM_0
  5
1C6C1
 10
773.575
 20
381.802
 30
0.000000
  70
    32
  0
VERTEX
  8
AM_0
  5
1C6C2
 10
773.579
 20
381.790
 30
0.000000
  70
    32
  0
VERTEX
  8
AM_0
  5
1C6C3
 10
773.582
 20
381.778
 30
0.000000
  70
    32
  0
VERTEX
  8
AM_0
  5
1C6C4
 10
773.586
 20
381.766
 30
0.000000
  70
    32
  0
VERTEX
  8
AM_0
  5
1C6C5
 10
773.589
 20
381.755
 30
0.000000
  70
    32
  0
VERTEX
  8
AM_0
  5
1C6C6
 10
773.593
 20
381.743
 30
0.000000
  70
    32
  0
VERTEX
  8
AM_0
  5
1C6C7
 10
773.597
 20
381.731
 30
0.000000
  70
    32
  0
VERTEX
  8
AM_0
  5
1C6C8
 10
773.602
 20
381.720
 30
0.000000
  70
    32
  0
VERTEX
  8
AM_0
  5
1C6C9
 10
773.606
 20
381.708
 30
0.000000
  70
    32
  0
VERTEX
  8
AM_0
  5
1C6CA
 10
773.610
 20
381.697
 30
0.000000
  70
    32
  0
VERTEX
  8
AM_0
  5
1C6CB
 10
773.615
 20
381.686
 30
0.000000
  70
    32
  0
VERTEX
  8
AM_0
  5
1C6CC
 10
773.620
 20
381.674
 30
0.000000
  70
    32
  0
VERTEX
  8
AM_0
  5
1C6CD
 10
773.625
 20
381.663
 30
0.000000
  70
    32
  0
VERTEX
  8
AM_0
  5
1C6CE
 10
773.630
 20
381.652
 30
0.000000
  70
    32
  0
VERTEX
  8
AM_0
  5
1C6CF
 10
773.635
 20
381.641
 30
0.000000
  70
    32
  0
VERTEX
  8
AM_0
  5
1C6D0
 10
773.640
 20
381.630
 30
0.000000
  70
    32
  0
VERTEX
  8
AM_0
  5
1C6D1
 10
773.646
 20
381.619
 30
0.000000
  70
    32
  0
VERTEX
  8
AM_0
  5
1C6D2
 10
773.651
 20
381.608
 30
0.000000
  70
    32
  0
VERTEX
  8
AM_0
  5
1C6D3
 10
773.657
 20
381.597
 30
0.000000
  70
    32
  0
VERTEX
  8
AM_0
  5
1C6D4
 10
773.663
 20
381.586
 30
0.000000
  70
    32
  0
VERTEX
  8
AM_0
  5
1C6D5
 10
773.669
 20
381.575
 30
0.000000
  70
    32
  0
VERTEX
  8
AM_0
  5
1C6D6
 10
773.675
 20
381.565
 30
0.000000
  70
    32
  0
VERTEX
  8
AM_0
  5
1C6D7
 10
773.681
 20
381.554
 30
0.000000
  70
    32
  0
VERTEX
  8
AM_0
  5
1C6D8
 10
773.688
 20
381.544
 30
0.000000
  70
    32
  0
VERTEX
  8
AM_0
  5
1C6D9
 10
773.694
 20
381.533
 30
0.000000
  70
    32
  0
VERTEX
  8
AM_0
  5
1C6DA
 10
773.701
 20
381.523
 30
0.000000
  70
    32
  0
VERTEX
  8
AM_0
  5
1C6DB
 10
773.707
 20
381.513
 30
0.000000
  70
    32
  0
VERTEX
  8
AM_0
  5
1C6DC
 10
773.714
 20
381.503
 30
0.000000
  70
    32
  0
VERTEX
  8
AM_0
  5
1C6DD
 10
773.721
 20
381.493
 30
0.000000
  70
    32
  0
VERTEX
  8
AM_0
  5
1C6DE
 10
773.729
 20
381.483
 30
0.000000
  70
    32
  0
VERTEX
  8
AM_0
  5
1C6DF
 10
773.736
 20
381.473
 30
0.000000
  70
    32
  0
VERTEX
  8
AM_0
  5
1C6E0
 10
773.743
 20
381.463
 30
0.000000
  70
    32
  0
VERTEX
  8
AM_0
  5
1C6E1
 10
773.751
 20
381.453
 30
0.000000
  70
    32
  0
VERTEX
  8
AM_0
  5
1C6E2
 10
773.758
 20
381.444
 30
0.000000
  70
    32
  0
VERTEX
  8
AM_0
  5
1C6E3
 10
773.766
 20
381.434
 30
0.000000
  70
    32
  0
VERTEX
  8
AM_0
  5
1C6E4
 10
773.774
 20
381.425
 30
0.000000
  70
    32
  0
VERTEX
  8
AM_0
  5
1C6E5
 10
773.782
 20
381.415
 30
0.000000
  70
    32
  0
VERTEX
  8
AM_0
  5
1C6E6
 10
773.790
 20
381.406
 30
0.000000
  70
    32
  0
VERTEX
  8
AM_0
  5
1C6E7
 10
773.798
 20
381.397
 30
0.000000
  70
    32
  0
VERTEX
  8
AM_0
  5
1C6E8
 10
773.806
 20
381.388
 30
0.000000
  70
    32
  0
VERTEX
  8
AM_0
  5
1C6E9
 10
773.815
 20
381.379
 30
0.000000
  70
    32
  0
VERTEX
  8
AM_0
  5
1C6EA
 10
773.823
 20
381.370
 30
0.000000
  70
    32
  0
VERTEX
  8
AM_0
  5
1C6EB
 10
773.832
 20
381.361
 30
0.000000
  70
    32
  0
VERTEX
  8
AM_0
  5
1C6EC
 10
773.841
 20
381.353
 30
0.000000
  70
    32
  0
VERTEX
  8
AM_0
  5
1C6ED
 10
773.849
 20
381.344
 30
0.000000
  70
    32
  0
VERTEX
  8
AM_0
  5
1C6EE
 10
773.858
 20
381.336
 30
0.000000
  70
    32
  0
VERTEX
  8
AM_0
  5
1C6EF
 10
773.867
 20
381.327
 30
0.000000
  70
    32
  0
VERTEX
  8
AM_0
  5
1C6F0
 10
773.877
 20
381.319
 30
0.000000
  70
    32
  0
VERTEX
  8
AM_0
  5
1C6F1
 10
773.886
 20
381.311
 30
0.000000
  70
    32
  0
VERTEX
  8
AM_0
  5
1C6F2
 10
773.895
 20
381.303
 30
0.000000
  70
    32
  0
VERTEX
  8
AM_0
  5
1C6F3
 10
773.905
 20
381.295
 30
0.000000
  70
    32
  0
VERTEX
  8
AM_0
  5
1C6F4
 10
773.914
 20
381.288
 30
0.000000
  70
    32
  0
VERTEX
  8
AM_0
  5
1C6F5
 10
773.924
 20
381.280
 30
0.000000
  70
    32
  0
VERTEX
  8
AM_0
  5
1C6F6
 10
773.933
 20
381.273
 30
0.000000
  70
    32
  0
VERTEX
  8
AM_0
  5
1C6F7
 10
773.943
 20
381.265
 30
0.000000
  70
    32
  0
VERTEX
  8
AM_0
  5
1C6F8
 10
773.953
 20
381.258
 30
0.000000
  70
    32
  0
VERTEX
  8
AM_0
  5
1C6F9
 10
773.963
 20
381.251
 30
0.000000
  70
    32
  0
VERTEX
  8
AM_0
  5
1C6FA
 10
773.973
 20
381.244
 30
0.000000
  70
    32
  0
VERTEX
  8
AM_0
  5
1C6FB
 10
773.983
 20
381.237
 30
0.000000
  70
    32
  0
VERTEX
  8
AM_0
  5
1C6FC
 10
773.994
 20
381.230
 30
0.000000
  70
    32
  0
VERTEX
  8
AM_0
  5
1C6FD
 10
774.004
 20
381.224
 30
0.000000
  70
    32
  0
VERTEX
  8
AM_0
  5
1C6FE
 10
774.014
 20
381.217
 30
0.000000
  70
    32
  0
VERTEX
  8
AM_0
  5
1C6FF
 10
774.025
 20
381.211
 30
0.000000
  70
    32
  0
VERTEX
  8
AM_0
  5
1C700
 10
774.035
 20
381.204
 30
0.000000
  70
    32
  0
VERTEX
  8
AM_0
  5
1C701
 10
774.046
 20
381.198
 30
0.000000
  70
    32
  0
VERTEX
  8
AM_0
  5
1C702
 10
774.057
 20
381.192
 30
0.000000
  70
    32
  0
VERTEX
  8
AM_0
  5
1C703
 10
774.068
 20
381.186
 30
0.000000
  70
    32
  0
VERTEX
  8
AM_0
  5
1C704
 10
774.078
 20
381.181
 30
0.000000
  70
    32
  0
VERTEX
  8
AM_0
  5
1C705
 10
774.089
 20
381.175
 30
0.000000
  70
    32
  0
VERTEX
  8
AM_0
  5
1C706
 10
774.100
 20
381.170
 30
0.000000
  70
    32
  0
VERTEX
  8
AM_0
  5
1C707
 10
774.111
 20
381.164
 30
0.000000
  70
    32
  0
VERTEX
  8
AM_0
  5
1C708
 10
774.123
 20
381.159
 30
0.000000
  70
    32
  0
VERTEX
  8
AM_0
  5
1C709
 10
774.134
 20
381.154
 30
0.000000
  70
    32
  0
VERTEX
  8
AM_0
  5
1C70A
 10
774.145
 20
381.149
 30
0.000000
  70
    32
  0
VERTEX
  8
AM_0
  5
1C70B
 10
774.156
 20
381.144
 30
0.000000
  70
    32
  0
VERTEX
  8
AM_0
  5
1C70C
 10
774.168
 20
381.140
 30
0.000000
  70
    32
  0
VERTEX
  8
AM_0
  5
1C70D
 10
774.179
 20
381.135
 30
0.000000
  70
    32
  0
VERTEX
  8
AM_0
  5
1C70E
 10
774.191
 20
381.131
 30
0.000000
  70
    32
  0
VERTEX
  8
AM_0
  5
1C70F
 10
774.202
 20
381.127
 30
0.000000
  70
    32
  0
VERTEX
  8
AM_0
  5
1C710
 10
774.214
 20
381.123
 30
0.000000
  70
    32
  0
VERTEX
  8
AM_0
  5
1C711
 10
774.225
 20
381.119
 30
0.000000
  70
    32
  0
VERTEX
  8
AM_0
  5
1C712
 10
774.237
 20
381.115
 30
0.000000
  70
    32
  0
VERTEX
  8
AM_0
  5
1C713
 10
774.249
 20
381.111
 30
0.000000
  70
    32
  0
VERTEX
  8
AM_0
  5
1C714
 10
774.260
 20
381.108
 30
0.000000
  70
    32
  0
VERTEX
  8
AM_0
  5
1C715
 10
774.272
 20
381.105
 30
0.000000
  70
    32
  0
VERTEX
  8
AM_0
  5
1C716
 10
774.284
 20
381.101
 30
0.000000
  70
    32
  0
VERTEX
  8
AM_0
  5
1C717
 10
774.296
 20
381.098
 30
0.000000
  70
    32
  0
VERTEX
  8
AM_0
  5
1C718
 10
774.308
 20
381.095
 30
0.000000
  70
    32
  0
VERTEX
  8
AM_0
  5
1C719
 10
774.320
 20
381.093
 30
0.000000
  70
    32
  0
VERTEX
  8
AM_0
  5
1C71A
 10
774.332
 20
381.090
 30
0.000000
  70
    32
  0
VERTEX
  8
AM_0
  5
1C71B
 10
774.344
 20
381.088
 30
0.000000
  70
    32
  0
VERTEX
  8
AM_0
  5
1C71C
 10
774.356
 20
381.085
 30
0.000000
  70
    32
  0
VERTEX
  8
AM_0
  5
1C71D
 10
774.368
 20
381.083
 30
0.000000
  70
    32
  0
VERTEX
  8
AM_0
  5
1C71E
 10
774.380
 20
381.081
 30
0.000000
  70
    32
  0
VERTEX
  8
AM_0
  5
1C71F
 10
774.392
 20
381.079
 30
0.000000
  70
    32
  0
VERTEX
  8
AM_0
  5
1C720
 10
774.404
 20
381.077
 30
0.000000
  70
    32
  0
VERTEX
  8
AM_0
  5
1C721
 10
774.417
 20
381.076
 30
0.000000
  70
    32
  0
VERTEX
  8
AM_0
  5
1C722
 10
774.429
 20
381.074
 30
0.000000
  70
    32
  0
VERTEX
  8
AM_0
  5
1C723
 10
774.441
 20
381.073
 30
0.000000
  70
    32
  0
VERTEX
  8
AM_0
  5
1C724
 10
774.453
 20
381.072
 30
0.000000
  70
    32
  0
VERTEX
  8
AM_0
  5
1C725
 10
774.465
 20
381.071
 30
0.000000
  70
    32
  0
VERTEX
  8
AM_0
  5
1C726
 10
774.478
 20
381.070
 30
0.000000
  70
    32
  0
VERTEX
  8
AM_0
  5
1C727
 10
774.490
 20
381.070
 30
0.000000
  70
    32
  0
VERTEX
  8
AM_0
  5
1C728
 10
774.502
 20
381.069
 30
0.000000
  70
    32
  0
VERTEX
  8
AM_0
  5
1C729
 10
774.514
 20
381.069
 30
0.000000
  70
    32
  0
VERTEX
  8
AM_0
  5
1C72A
 10
774.527
 20
381.068
 30
0.000000
  70
    32
  0
VERTEX
  8
AM_0
  5
1C72B
 10
774.539
 20
381.068
 30
0.000000
  70
    32
  0
SEQEND
  8
AM_0
  5
1C72C
  0
LINE
  5
18EB6
  8
AM_0
 10
771.53896546502699
 20
388.06851457359107
 30
0.0
 11
766.53896531451551
 21
388.06851457359107
 31
0.0
  0
POLYLINE
  5
18EB7
  8
AM_0
 10
774.53896932631994
 20
397.06869484181743
 30
0.0
 66
     1
 70
     8
  0
VERTEX
  8
AM_0
  5
1C72D
 10
774.539
 20
397.069
 30
0.000000
  70
    32
  0
VERTEX
  8
AM_0
  5
1C72E
 10
774.527
 20
397.069
 30
0.000000
  70
    32
  0
VERTEX
  8
AM_0
  5
1C72F
 10
774.514
 20
397.068
 30
0.000000
  70
    32
  0
VERTEX
  8
AM_0
  5
1C730
 10
774.502
 20
397.068
 30
0.000000
  70
    32
  0
VERTEX
  8
AM_0
  5
1C731
 10
774.490
 20
397.067
 30
0.000000
  70
    32
  0
VERTEX
  8
AM_0
  5
1C732
 10
774.478
 20
397.067
 30
0.000000
  70
    32
  0
VERTEX
  8
AM_0
  5
1C733
 10
774.465
 20
397.066
 30
0.000000
  70
    32
  0
VERTEX
  8
AM_0
  5
1C734
 10
774.453
 20
397.065
 30
0.000000
  70
    32
  0
VERTEX
  8
AM_0
  5
1C735
 10
774.441
 20
397.064
 30
0.000000
  70
    32
  0
VERTEX
  8
AM_0
  5
1C736
 10
774.429
 20
397.063
 30
0.000000
  70
    32
  0
VERTEX
  8
AM_0
  5
1C737
 10
774.417
 20
397.061
 30
0.000000
  70
    32
  0
VERTEX
  8
AM_0
  5
1C738
 10
774.404
 20
397.060
 30
0.000000
  70
    32
  0
VERTEX
  8
AM_0
  5
1C739
 10
774.392
 20
397.058
 30
0.000000
  70
    32
  0
VERTEX
  8
AM_0
  5
1C73A
 10
774.380
 20
397.056
 30
0.000000
  70
    32
  0
VERTEX
  8
AM_0
  5
1C73B
 10
774.368
 20
397.054
 30
0.000000
  70
    32
  0
VERTEX
  8
AM_0
  5
1C73C
 10
774.356
 20
397.052
 30
0.000000
  70
    32
  0
VERTEX
  8
AM_0
  5
1C73D
 10
774.344
 20
397.049
 30
0.000000
  70
    32
  0
VERTEX
  8
AM_0
  5
1C73E
 10
774.332
 20
397.047
 30
0.000000
  70
    32
  0
VERTEX
  8
AM_0
  5
1C73F
 10
774.320
 20
397.044
 30
0.000000
  70
    32
  0
VERTEX
  8
AM_0
  5
1C740
 10
774.308
 20
397.042
 30
0.000000
  70
    32
  0
VERTEX
  8
AM_0
  5
1C741
 10
774.296
 20
397.039
 30
0.000000
  70
    32
  0
VERTEX
  8
AM_0
  5
1C742
 10
774.284
 20
397.036
 30
0.000000
  70
    32
  0
VERTEX
  8
AM_0
  5
1C743
 10
774.272
 20
397.032
 30
0.000000
  70
    32
  0
VERTEX
  8
AM_0
  5
1C744
 10
774.260
 20
397.029
 30
0.000000
  70
    32
  0
VERTEX
  8
AM_0
  5
1C745
 10
774.249
 20
397.026
 30
0.000000
  70
    32
  0
VERTEX
  8
AM_0
  5
1C746
 10
774.237
 20
397.022
 30
0.000000
  70
    32
  0
VERTEX
  8
AM_0
  5
1C747
 10
774.225
 20
397.018
 30
0.000000
  70
    32
  0
VERTEX
  8
AM_0
  5
1C748
 10
774.214
 20
397.014
 30
0.000000
  70
    32
  0
VERTEX
  8
AM_0
  5
1C749
 10
774.202
 20
397.010
 30
0.000000
  70
    32
  0
VERTEX
  8
AM_0
  5
1C74A
 10
774.191
 20
397.006
 30
0.000000
  70
    32
  0
VERTEX
  8
AM_0
  5
1C74B
 10
774.179
 20
397.002
 30
0.000000
  70
    32
  0
VERTEX
  8
AM_0
  5
1C74C
 10
774.168
 20
396.997
 30
0.000000
  70
    32
  0
VERTEX
  8
AM_0
  5
1C74D
 10
774.156
 20
396.993
 30
0.000000
  70
    32
  0
VERTEX
  8
AM_0
  5
1C74E
 10
774.145
 20
396.988
 30
0.000000
  70
    32
  0
VERTEX
  8
AM_0
  5
1C74F
 10
774.134
 20
396.983
 30
0.000000
  70
    32
  0
VERTEX
  8
AM_0
  5
1C750
 10
774.123
 20
396.978
 30
0.000000
  70
    32
  0
VERTEX
  8
AM_0
  5
1C751
 10
774.111
 20
396.973
 30
0.000000
  70
    32
  0
VERTEX
  8
AM_0
  5
1C752
 10
774.100
 20
396.967
 30
0.000000
  70
    32
  0
VERTEX
  8
AM_0
  5
1C753
 10
774.089
 20
396.962
 30
0.000000
  70
    32
  0
VERTEX
  8
AM_0
  5
1C754
 10
774.078
 20
396.956
 30
0.000000
  70
    32
  0
VERTEX
  8
AM_0
  5
1C755
 10
774.068
 20
396.951
 30
0.000000
  70
    32
  0
VERTEX
  8
AM_0
  5
1C756
 10
774.057
 20
396.945
 30
0.000000
  70
    32
  0
VERTEX
  8
AM_0
  5
1C757
 10
774.046
 20
396.939
 30
0.000000
  70
    32
  0
VERTEX
  8
AM_0
  5
1C758
 10
774.035
 20
396.933
 30
0.000000
  70
    32
  0
VERTEX
  8
AM_0
  5
1C759
 10
774.025
 20
396.926
 30
0.000000
  70
    32
  0
VERTEX
  8
AM_0
  5
1C75A
 10
774.014
 20
396.920
 30
0.000000
  70
    32
  0
VERTEX
  8
AM_0
  5
1C75B
 10
774.004
 20
396.914
 30
0.000000
  70
    32
  0
VERTEX
  8
AM_0
  5
1C75C
 10
773.994
 20
396.907
 30
0.000000
  70
    32
  0
VERTEX
  8
AM_0
  5
1C75D
 10
773.983
 20
396.900
 30
0.000000
  70
    32
  0
VERTEX
  8
AM_0
  5
1C75E
 10
773.973
 20
396.893
 30
0.000000
  70
    32
  0
VERTEX
  8
AM_0
  5
1C75F
 10
773.963
 20
396.886
 30
0.000000
  70
    32
  0
VERTEX
  8
AM_0
  5
1C760
 10
773.953
 20
396.879
 30
0.000000
  70
    32
  0
VERTEX
  8
AM_0
  5
1C761
 10
773.943
 20
396.872
 30
0.000000
  70
    32
  0
VERTEX
  8
AM_0
  5
1C762
 10
773.933
 20
396.865
 30
0.000000
  70
    32
  0
VERTEX
  8
AM_0
  5
1C763
 10
773.924
 20
396.857
 30
0.000000
  70
    32
  0
VERTEX
  8
AM_0
  5
1C764
 10
773.914
 20
396.849
 30
0.000000
  70
    32
  0
VERTEX
  8
AM_0
  5
1C765
 10
773.905
 20
396.842
 30
0.000000
  70
    32
  0
VERTEX
  8
AM_0
  5
1C766
 10
773.895
 20
396.834
 30
0.000000
  70
    32
  0
VERTEX
  8
AM_0
  5
1C767
 10
773.886
 20
396.826
 30
0.000000
  70
    32
  0
VERTEX
  8
AM_0
  5
1C768
 10
773.877
 20
396.818
 30
0.000000
  70
    32
  0
VERTEX
  8
AM_0
  5
1C769
 10
773.867
 20
396.810
 30
0.000000
  70
    32
  0
VERTEX
  8
AM_0
  5
1C76A
 10
773.858
 20
396.801
 30
0.000000
  70
    32
  0
VERTEX
  8
AM_0
  5
1C76B
 10
773.849
 20
396.793
 30
0.000000
  70
    32
  0
VERTEX
  8
AM_0
  5
1C76C
 10
773.841
 20
396.784
 30
0.000000
  70
    32
  0
VERTEX
  8
AM_0
  5
1C76D
 10
773.832
 20
396.776
 30
0.000000
  70
    32
  0
VERTEX
  8
AM_0
  5
1C76E
 10
773.823
 20
396.767
 30
0.000000
  70
    32
  0
VERTEX
  8
AM_0
  5
1C76F
 10
773.815
 20
396.758
 30
0.000000
  70
    32
  0
VERTEX
  8
AM_0
  5
1C770
 10
773.806
 20
396.749
 30
0.000000
  70
    32
  0
VERTEX
  8
AM_0
  5
1C771
 10
773.798
 20
396.740
 30
0.000000
  70
    32
  0
VERTEX
  8
AM_0
  5
1C772
 10
773.790
 20
396.731
 30
0.000000
  70
    32
  0
VERTEX
  8
AM_0
  5
1C773
 10
773.782
 20
396.722
 30
0.000000
  70
    32
  0
VERTEX
  8
AM_0
  5
1C774
 10
773.774
 20
396.713
 30
0.000000
  70
    32
  0
VERTEX
  8
AM_0
  5
1C775
 10
773.766
 20
396.703
 30
0.000000
  70
    32
  0
VERTEX
  8
AM_0
  5
1C776
 10
773.758
 20
396.694
 30
0.000000
  70
    32
  0
VERTEX
  8
AM_0
  5
1C777
 10
773.751
 20
396.684
 30
0.000000
  70
    32
  0
VERTEX
  8
AM_0
  5
1C778
 10
773.743
 20
396.674
 30
0.000000
  70
    32
  0
VERTEX
  8
AM_0
  5
1C779
 10
773.736
 20
396.664
 30
0.000000
  70
    32
  0
VERTEX
  8
AM_0
  5
1C77A
 10
773.729
 20
396.654
 30
0.000000
  70
    32
  0
VERTEX
  8
AM_0
  5
1C77B
 10
773.721
 20
396.644
 30
0.000000
  70
    32
  0
VERTEX
  8
AM_0
  5
1C77C
 10
773.714
 20
396.634
 30
0.000000
  70
    32
  0
VERTEX
  8
AM_0
  5
1C77D
 10
773.707
 20
396.624
 30
0.000000
  70
    32
  0
VERTEX
  8
AM_0
  5
1C77E
 10
773.701
 20
396.614
 30
0.000000
  70
    32
  0
VERTEX
  8
AM_0
  5
1C77F
 10
773.694
 20
396.604
 30
0.000000
  70
    32
  0
VERTEX
  8
AM_0
  5
1C780
 10
773.688
 20
396.593
 30
0.000000
  70
    32
  0
VERTEX
  8
AM_0
  5
1C781
 10
773.681
 20
396.583
 30
0.000000
  70
    32
  0
VERTEX
  8
AM_0
  5
1C782
 10
773.675
 20
396.572
 30
0.000000
  70
    32
  0
VERTEX
  8
AM_0
  5
1C783
 10
773.669
 20
396.562
 30
0.000000
  70
    32
  0
VERTEX
  8
AM_0
  5
1C784
 10
773.663
 20
396.551
 30
0.000000
  70
    32
  0
VERTEX
  8
AM_0
  5
1C785
 10
773.657
 20
396.540
 30
0.000000
  70
    32
  0
VERTEX
  8
AM_0
  5
1C786
 10
773.651
 20
396.529
 30
0.000000
  70
    32
  0
VERTEX
  8
AM_0
  5
1C787
 10
773.646
 20
396.518
 30
0.000000
  70
    32
  0
VERTEX
  8
AM_0
  5
1C788
 10
773.640
 20
396.507
 30
0.000000
  70
    32
  0
VERTEX
  8
AM_0
  5
1C789
 10
773.635
 20
396.496
 30
0.000000
  70
    32
  0
VERTEX
  8
AM_0
  5
1C78A
 10
773.630
 20
396.485
 30
0.000000
  70
    32
  0
VERTEX
  8
AM_0
  5
1C78B
 10
773.625
 20
396.474
 30
0.000000
  70
    32
  0
VERTEX
  8
AM_0
  5
1C78C
 10
773.620
 20
396.463
 30
0.000000
  70
    32
  0
VERTEX
  8
AM_0
  5
1C78D
 10
773.615
 20
396.451
 30
0.000000
  70
    32
  0
VERTEX
  8
AM_0
  5
1C78E
 10
773.610
 20
396.440
 30
0.000000
  70
    32
  0
VERTEX
  8
AM_0
  5
1C78F
 10
773.606
 20
396.429
 30
0.000000
  70
    32
  0
VERTEX
  8
AM_0
  5
1C790
 10
773.602
 20
396.417
 30
0.000000
  70
    32
  0
VERTEX
  8
AM_0
  5
1C791
 10
773.597
 20
396.406
 30
0.000000
  70
    32
  0
VERTEX
  8
AM_0
  5
1C792
 10
773.593
 20
396.394
 30
0.000000
  70
    32
  0
VERTEX
  8
AM_0
  5
1C793
 10
773.589
 20
396.382
 30
0.000000
  70
    32
  0
VERTEX
  8
AM_0
  5
1C794
 10
773.586
 20
396.371
 30
0.000000
  70
    32
  0
VERTEX
  8
AM_0
  5
1C795
 10
773.582
 20
396.359
 30
0.000000
  70
    32
  0
VERTEX
  8
AM_0
  5
1C796
 10
773.579
 20
396.347
 30
0.000000
  70
    32
  0
VERTEX
  8
AM_0
  5
1C797
 10
773.575
 20
396.335
 30
0.000000
  70
    32
  0
VERTEX
  8
AM_0
  5
1C798
 10
773.572
 20
396.324
 30
0.000000
  70
    32
  0
VERTEX
  8
AM_0
  5
1C799
 10
773.569
 20
396.312
 30
0.000000
  70
    32
  0
VERTEX
  8
AM_0
  5
1C79A
 10
773.566
 20
396.300
 30
0.000000
  70
    32
  0
VERTEX
  8
AM_0
  5
1C79B
 10
773.563
 20
396.288
 30
0.000000
  70
    32
  0
VERTEX
  8
AM_0
  5
1C79C
 10
773.561
 20
396.276
 30
0.000000
  70
    32
  0
VERTEX
  8
AM_0
  5
1C79D
 10
773.558
 20
396.264
 30
0.000000
  70
    32
  0
VERTEX
  8
AM_0
  5
1C79E
 10
773.556
 20
396.252
 30
0.000000
  70
    32
  0
VERTEX
  8
AM_0
  5
1C79F
 10
773.554
 20
396.240
 30
0.000000
  70
    32
  0
VERTEX
  8
AM_0
  5
1C7A0
 10
773.552
 20
396.228
 30
0.000000
  70
    32
  0
VERTEX
  8
AM_0
  5
1C7A1
 10
773.550
 20
396.215
 30
0.000000
  70
    32
  0
VERTEX
  8
AM_0
  5
1C7A2
 10
773.548
 20
396.203
 30
0.000000
  70
    32
  0
VERTEX
  8
AM_0
  5
1C7A3
 10
773.546
 20
396.191
 30
0.000000
  70
    32
  0
VERTEX
  8
AM_0
  5
1C7A4
 10
773.545
 20
396.179
 30
0.000000
  70
    32
  0
VERTEX
  8
AM_0
  5
1C7A5
 10
773.544
 20
396.167
 30
0.000000
  70
    32
  0
VERTEX
  8
AM_0
  5
1C7A6
 10
773.543
 20
396.154
 30
0.000000
  70
    32
  0
VERTEX
  8
AM_0
  5
1C7A7
 10
773.542
 20
396.142
 30
0.000000
  70
    32
  0
VERTEX
  8
AM_0
  5
1C7A8
 10
773.541
 20
396.130
 30
0.000000
  70
    32
  0
VERTEX
  8
AM_0
  5
1C7A9
 10
773.540
 20
396.118
 30
0.000000
  70
    32
  0
VERTEX
  8
AM_0
  5
1C7AA
 10
773.540
 20
396.105
 30
0.000000
  70
    32
  0
VERTEX
  8
AM_0
  5
1C7AB
 10
773.539
 20
396.093
 30
0.000000
  70
    32
  0
VERTEX
  8
AM_0
  5
1C7AC
 10
773.539
 20
396.081
 30
0.000000
  70
    32
  0
VERTEX
  8
AM_0
  5
1C7AD
 10
773.539
 20
396.069
 30
0.000000
  70
    32
  0
SEQEND
  8
AM_0
  5
1C7AE
  0
LINE
  5
18EB8
  8
AM_0
 10
783.53896964095225
 20
285.44792887121639
 30
0.0
 11
786.53896973125916
 21
287.17998870982319
 31
0.0
  0
LINE
  5
18EB9
  8
AM_0
 10
783.53896964095225
 20
296.466673740006
 30
0.0
 11
786.53896973125916
 21
296.466673740006
 31
0.0
  0
LINE
  5
18EBA
  8
AM_0
 10
783.53896964095225
 20
398.46871677990362
 30
0.0
 11
783.53896964095225
 21
379.66835242688472
 31
0.0
  0
LINE
  5
18EBB
  8
AM_0
 10
783.53896964095225
 20
379.66835242688472
 30
0.0
 11
786.53896973125916
 21
379.66835242688472
 31
0.0
  0
LINE
  5
18EBC
  8
AM_0
 10
783.53896964095225
 20
389.75940537471598
 30
0.0
 11
786.53896973125916
 21
391.49149573151209
 31
0.0
  0
LINE
  5
18EBD
  8
AM_0
 10
783.53896964095225
 20
387.44997191111401
 30
0.0
 11
786.53896973125916
 21
389.18206226791028
 31
0.0
  0
LINE
  5
18EBE
  8
AM_0
 10
783.53896964095225
 20
398.46871677990362
 30
0.0
 11
786.53896973125916
 21
398.46871677990362
 31
0.0
  0
LINE
  5
18EC0
  8
AM_0
 10
771.53896927972426
 20
402.0687949908322
 30
0.0
 11
786.53896973125916
 21
402.0687949908322
 31
0.0
  0
LINE
  5
18EC1
  8
AM_0
 10
798.53897009248715
 20
432.06939588491952
 30
0.0
 11
771.53896927972426
 21
431.5981034862308
 31
0.0
  0
LINE
  5
19451
  8
AM_0
 10
921.53897379507282
 20
370.56816405204017
 30
0.0
 11
921.53897379507282
 21
305.56686211485038
 31
0.0
  0
LINE
  5
19452
  8
AM_0
 10
916.53897364456134
 20
388.06851457359107
 30
0.0
 11
916.53897364456134
 21
288.06651159329942
 31
0.0
  0
LINE
  5
19453
  8
AM_0
 10
916.53897364456134
 20
288.06651159329942
 30
0.0
 11
911.5389734940494
 21
288.06651159329942
 31
0.0
  0
LINE
  5
1945D
  8
AM_0
 10
921.53897379507282
 20
305.56686211485038
 30
0.0
 11
916.53897364456134
 21
305.56686211485038
 31
0.0
  0
LINE
  5
1945E
  8
AM_0
 10
916.53897364456134
 20
388.06851457359107
 30
0.0
 11
911.5389734940494
 21
388.06851457359107
 31
0.0
  0
LINE
  5
1945F
  8
AM_0
 10
921.53897379507282
 20
370.56816405204017
 30
0.0
 11
916.53897364456134
 21
370.56816405204017
 31
0.0
  0
LINE
  5
1B2AF
  8
AM_0
 10
422.63191640023098
 20
778.50808276225871
 30
0.0
 11
522.6339193805228
 21
778.50808276225871
 31
0.0
  0
LINE
  5
1B2B0
  8
AM_0
 10
322.63294389260761
 20
773.50808642644427
 30
0.0
 11
556.63292041897205
 21
773.50808642644427
 31
0.0
  0
LINE
  5
1B2B1
  8
AM_0
 10
505.13356885897218
 20
783.50875907990417
 30
0.0
 11
440.1322669217825
 21
783.50875907990462
 31
0.0
  0
LINE
  5
1B2B2
  8
AM_0
 10
422.63191640023098
 20
628.50807443221288
 30
0.0
 11
522.6339193805228
 21
628.50807443221288
 31
0.0
  0
LINE
  5
1B2B3
  8
AM_0
 10
446.63305809899731
 20
635.50807845762631
 30
0.0
 11
432.63277768175629
 21
635.50807845762631
 31
0.0
  0
LINE
  5
1B2B4
  8
AM_0
 10
452.63317827781469
 20
648.50807884895676
 30
0.0
 11
426.6326575029388
 21
648.50807884895676
 31
0.0
  0
LINE
  5
1B2B5
  8
AM_0
 10
449.03310006688639
 20
645.50807875864973
 30
0.0
 11
430.23273571386733
 21
645.50807875864973
 31
0.0
  0
LINE
  5
1B2B6
  8
AM_0
 10
440.32378866169881
 20
645.50807875864973
 30
0.0
 11
442.05587901849498
 21
648.50807884895676
 31
0.0
  0
LINE
  5
1B2B7
  8
AM_0
 10
322.63294389260761
 20
633.50807839742208
 30
0.0
 11
556.63292041897205
 21
633.50807839742174
 31
0.0
  0
LINE
  5
1B2B8
  8
AM_0
 10
322.63294389260778
 20
660.50807921018463
 30
0.0
 11
556.63292041897205
 21
660.50807921018463
 31
0.0
  0
LINE
  5
1B2B9
  8
ﾁｭｳｼﾝｾﾝ1
 10
62.130000000000003
 20
703.50841264924679
 30
0.0
 11
561.63292041897205
 21
703.50841764924678
 31
0.0
  0
LINE
  5
1B2BA
  8
AM_0
 10
310.63288996448108
 20
640.50841491801623
 30
0.0
 11
310.63288996448102
 21
770.69357132293294
 31
0.0
  0
LINE
  5
1B2BB
  8
AM_0
 10
324.60539550900847
 20
773.50808642644427
 30
0.0
 11
322.63294389260778
 21
660.50807921018463
 31
0.0
  0
LINE
  5
1B2BC
  8
AM_0
 10
296.63288996448108
 20
630.00842864924675
 30
0.0
 11
296.63288996448102
 21
777.00841764924655
 31
0.0
  0
LINE
  5
1B2BD
  8
AM_0
 10
312.63288994271829
 20
701.00841493977964
 30
0.0
 11
321.30467500025048
 21
701.00841503414074
 31
0.0
  0
LINE
  5
1B2BE
  8
AM_0
 10
312.63288998624392
 20
706.00841493977964
 30
0.0
 11
321.46177295012399
 21
706.00841503585025
 31
0.0
  0
LINE
  5
1B2BF
  8
AM_0
 10
313.4023542587214
 20
664.50807921018463
 30
0.0
 11
320.6675498733631
 21
664.50807921018463
 31
0.0
  0
LINE
  5
1B2C0
  8
AM_0
 10
310.33362646874701
 20
631.93862965584208
 30
0.0
 11
311.40357260468318
 21
662.57787820358965
 31
0.0
  0
LINE
  5
1B2C1
  8
AM_0
 10
296.63294996448121
 20
630.00842864924675
 30
0.0
 11
308.33484481470879
 21
630.00842864924675
 31
0.0
  0
ARC
  5
1B2C2
  8
AM_0
 10
308.33484481470867
 20
632.00842864924698
 30
0.0
 40
2.0
 50
270.0
 51
357.99999999999642
1001
GENIUS_GENODEF_13
1002
{
1000
HIER
1070
     0
1002
}
1002
{
1000
MANEDIT
1070
     0
1002
}
1002
{
1000
NOSEL
1070
     0
1002
}
1002
{
1000
BEHIND
1070
     0
1002
}
1002
{
1000
OTHER
1070
     0
1002
}
1002
{
1000
REACTOR
1002
}
1001
GENIUS_GENOBJ-N-FIL_13
1002
{
1000
OWNER
1000
GEN
1002
}
  0
ARC
  5
1B2C3
  8
AM_0
 10
313.40235425872129
 20
662.50807921018463
 30
0.0
 40
2.0
 50
90.0
 51
177.99999999999619
1001
GENIUS_GENODEF_13
1002
{
1000
HIER
1070
     0
1002
}
1002
{
1000
MANEDIT
1070
     0
1002
}
1002
{
1000
NOSEL
1070
     0
1002
}
1002
{
1000
BEHIND
1070
     0
1002
}
1002
{
1000
OTHER
1070
     0
1002
}
1002
{
1000
REACTOR
1002
}
1001
GENIUS_GENOBJ-N-FIL_13
1002
{
1000
OWNER
1000
GEN
1002
}
  0
ARC
  5
1B2C4
  8
AM_0
 10
312.63288996448102
 20
699.00841493977964
 30
0.0
 40
2.0
 50
90.00000062345957
 51
180.0
1001
GENIUS_GENOBJ-N-FIL_13
1002
{
1000
OWNER
1000
GEN
1002
}
1001
GENIUS_GENODEF_13
1002
{
1000
HIER
1070
     0
1002
}
1002
{
1000
MANEDIT
1070
     0
1002
}
1002
{
1000
NOSEL
1070
     0
1002
}
1002
{
1000
BEHIND
1070
     0
1002
}
1002
{
1000
OTHER
1070
     0
1002
}
1002
{
1000
REACTOR
1002
}
  0
ARC
  5
1B2C5
  8
AM_0
 10
312.63288996448102
 20
708.00841493977964
 30
0.0
 40
2.0
 50
180.0
 51
270.00000062345953
1001
GENIUS_GENOBJ-N-FIL_13
1002
{
1000
OWNER
1000
GEN
1002
}
1001
GENIUS_GENODEF_13
1002
{
1000
HIER
1070
     0
1002
}
1002
{
1000
MANEDIT
1070
     0
1002
}
1002
{
1000
NOSEL
1070
     0
1002
}
1002
{
1000
BEHIND
1070
     0
1002
}
1002
{
1000
OTHER
1070
     0
1002
}
1002
{
1000
REACTOR
1002
}
  0
LINE
  5
1B2C6
  8
AM_0
 10
322.63294389260778
 20
660.50807921018463
 30
0.0
 11
323.10423629129662
 21
633.50807839742208
 31
0.0
  0
LINE
  5
1B2C7
  8
AM_0
 10
426.6326575029388
 20
633.50807839742208
 30
0.0
 11
426.6326575029388
 21
648.50807884895676
 31
0.0
  0
LINE
  5
1B2C8
  8
AM_0
 10
422.63191640023098
 20
633.50807458272482
 30
0.0
 11
422.63191640023098
 21
628.50807443221288
 31
0.0
  0
LINE
  5
1B2C9
  8
AM_0
 10
505.13356885897218
 20
778.50875892939268
 30
0.0
 11
505.13356885897218
 21
783.50875907990417
 31
0.0
  0
ARC
  5
1B2CA
  8
AM_0
 10
320.66754987336299
 20
662.50807921018463
 30
0.0
 40
2.0
 50
358.99998522241918
 51
90.0
1001
GENIUS_GENOBJ-N-FIL_13
1002
{
1000
OWNER
1000
GEN
1002
}
1001
GENIUS_GENODEF_13
1002
{
1000
HIER
1070
     0
1002
}
1002
{
1000
MANEDIT
1070
     0
1002
}
1002
{
1000
NOSEL
1070
     0
1002
}
1002
{
1000
BEHIND
1070
     0
1002
}
1002
{
1000
OTHER
1070
     0
1002
}
1002
{
1000
REACTOR
1002
}
  0
ARC
  5
1B2CB
  8
AM_0
 10
321.30467502201333
 20
699.00841503414085
 30
0.0
 40
2.0
 50
358.99998522241918
 51
90.00000062345957
1001
GENIUS_GENOBJ-N-FIL_13
1002
{
1000
OWNER
1000
GEN
1002
}
1001
GENIUS_GENODEF_13
1002
{
1000
HIER
1070
     0
1002
}
1002
{
1000
MANEDIT
1070
     0
1002
}
1002
{
1000
NOSEL
1070
     0
1002
}
1002
{
1000
BEHIND
1070
     0
1002
}
1002
{
1000
OTHER
1070
     0
1002
}
1002
{
1000
REACTOR
1002
}
  0
ARC
  5
1B2CC
  8
AM_0
 10
321.46177292836109
 20
708.00841503585025
 30
0.0
 40
2.0
 50
270.00000062345953
 51
358.99998522241918
1001
GENIUS_GENODEF_13
1002
{
1000
HIER
1070
     0
1002
}
1002
{
1000
MANEDIT
1070
     0
1002
}
1002
{
1000
NOSEL
1070
     0
1002
}
1002
{
1000
BEHIND
1070
     0
1002
}
1002
{
1000
OTHER
1070
     0
1002
}
1002
{
1000
REACTOR
1002
}
1001
GENIUS_GENOBJ-N-FIL_13
1002
{
1000
OWNER
1000
GEN
1002
}
  0
LINE
  5
1B2CD
  8
AM_0
 10
431.63275765195368
 20
636.50807848772888
 30
0.0
 11
431.63275765195368
 21
645.50807875864973
 31
0.0
  0
POLYLINE
  5
1B2CE
  8
AM_0
 10
431.63275765195334
 20
636.50807844401766
 30
0.0
 66
     1
 70
     8
  0
VERTEX
  8
AM_0
  5
1C7AF
 10
431.633
 20
636.508
 30
0.000000
  70
    32
  0
VERTEX
  8
AM_0
  5
1C7B0
 10
431.633
 20
636.496
 30
0.000000
  70
    32
  0
VERTEX
  8
AM_0
  5
1C7B1
 10
431.633
 20
636.484
 30
0.000000
  70
    32
  0
VERTEX
  8
AM_0
  5
1C7B2
 10
431.633
 20
636.471
 30
0.000000
  70
    32
  0
VERTEX
  8
AM_0
  5
1C7B3
 10
431.634
 20
636.459
 30
0.000000
  70
    32
  0
VERTEX
  8
AM_0
  5
1C7B4
 10
431.635
 20
636.447
 30
0.000000
  70
    32
  0
VERTEX
  8
AM_0
  5
1C7B5
 10
431.635
 20
636.435
 30
0.000000
  70
    32
  0
VERTEX
  8
AM_0
  5
1C7B6
 10
431.636
 20
636.422
 30
0.000000
  70
    32
  0
VERTEX
  8
AM_0
  5
1C7B7
 10
431.638
 20
636.410
 30
0.000000
  70
    32
  0
VERTEX
  8
AM_0
  5
1C7B8
 10
431.639
 20
636.398
 30
0.000000
  70
    32
  0
VERTEX
  8
AM_0
  5
1C7B9
 10
431.640
 20
636.386
 30
0.000000
  70
    32
  0
VERTEX
  8
AM_0
  5
1C7BA
 10
431.642
 20
636.373
 30
0.000000
  70
    32
  0
VERTEX
  8
AM_0
  5
1C7BB
 10
431.644
 20
636.361
 30
0.000000
  70
    32
  0
VERTEX
  8
AM_0
  5
1C7BC
 10
431.645
 20
636.349
 30
0.000000
  70
    32
  0
VERTEX
  8
AM_0
  5
1C7BD
 10
431.647
 20
636.337
 30
0.000000
  70
    32
  0
VERTEX
  8
AM_0
  5
1C7BE
 10
431.650
 20
636.325
 30
0.000000
  70
    32
  0
VERTEX
  8
AM_0
  5
1C7BF
 10
431.652
 20
636.313
 30
0.000000
  70
    32
  0
VERTEX
  8
AM_0
  5
1C7C0
 10
431.654
 20
636.301
 30
0.000000
  70
    32
  0
VERTEX
  8
AM_0
  5
1C7C1
 10
431.657
 20
636.289
 30
0.000000
  70
    32
  0
VERTEX
  8
AM_0
  5
1C7C2
 10
431.660
 20
636.277
 30
0.000000
  70
    32
  0
VERTEX
  8
AM_0
  5
1C7C3
 10
431.663
 20
636.265
 30
0.000000
  70
    32
  0
VERTEX
  8
AM_0
  5
1C7C4
 10
431.666
 20
636.253
 30
0.000000
  70
    32
  0
VERTEX
  8
AM_0
  5
1C7C5
 10
431.669
 20
636.241
 30
0.000000
  70
    32
  0
VERTEX
  8
AM_0
  5
1C7C6
 10
431.672
 20
636.230
 30
0.000000
  70
    32
  0
VERTEX
  8
AM_0
  5
1C7C7
 10
431.676
 20
636.218
 30
0.000000
  70
    32
  0
VERTEX
  8
AM_0
  5
1C7C8
 10
431.679
 20
636.206
 30
0.000000
  70
    32
  0
VERTEX
  8
AM_0
  5
1C7C9
 10
431.683
 20
636.194
 30
0.000000
  70
    32
  0
VERTEX
  8
AM_0
  5
1C7CA
 10
431.687
 20
636.183
 30
0.000000
  70
    32
  0
VERTEX
  8
AM_0
  5
1C7CB
 10
431.691
 20
636.171
 30
0.000000
  70
    32
  0
VERTEX
  8
AM_0
  5
1C7CC
 10
431.695
 20
636.160
 30
0.000000
  70
    32
  0
VERTEX
  8
AM_0
  5
1C7CD
 10
431.700
 20
636.148
 30
0.000000
  70
    32
  0
VERTEX
  8
AM_0
  5
1C7CE
 10
431.704
 20
636.137
 30
0.000000
  70
    32
  0
VERTEX
  8
AM_0
  5
1C7CF
 10
431.709
 20
636.125
 30
0.000000
  70
    32
  0
VERTEX
  8
AM_0
  5
1C7D0
 10
431.714
 20
636.114
 30
0.000000
  70
    32
  0
VERTEX
  8
AM_0
  5
1C7D1
 10
431.719
 20
636.103
 30
0.000000
  70
    32
  0
VERTEX
  8
AM_0
  5
1C7D2
 10
431.724
 20
636.092
 30
0.000000
  70
    32
  0
VERTEX
  8
AM_0
  5
1C7D3
 10
431.729
 20
636.081
 30
0.000000
  70
    32
  0
VERTEX
  8
AM_0
  5
1C7D4
 10
431.734
 20
636.069
 30
0.000000
  70
    32
  0
VERTEX
  8
AM_0
  5
1C7D5
 10
431.740
 20
636.058
 30
0.000000
  70
    32
  0
VERTEX
  8
AM_0
  5
1C7D6
 10
431.745
 20
636.048
 30
0.000000
  70
    32
  0
VERTEX
  8
AM_0
  5
1C7D7
 10
431.751
 20
636.037
 30
0.000000
  70
    32
  0
VERTEX
  8
AM_0
  5
1C7D8
 10
431.757
 20
636.026
 30
0.000000
  70
    32
  0
VERTEX
  8
AM_0
  5
1C7D9
 10
431.763
 20
636.015
 30
0.000000
  70
    32
  0
VERTEX
  8
AM_0
  5
1C7DA
 10
431.769
 20
636.005
 30
0.000000
  70
    32
  0
VERTEX
  8
AM_0
  5
1C7DB
 10
431.775
 20
635.994
 30
0.000000
  70
    32
  0
VERTEX
  8
AM_0
  5
1C7DC
 10
431.781
 20
635.983
 30
0.000000
  70
    32
  0
VERTEX
  8
AM_0
  5
1C7DD
 10
431.788
 20
635.973
 30
0.000000
  70
    32
  0
VERTEX
  8
AM_0
  5
1C7DE
 10
431.795
 20
635.963
 30
0.000000
  70
    32
  0
VERTEX
  8
AM_0
  5
1C7DF
 10
431.801
 20
635.953
 30
0.000000
  70
    32
  0
VERTEX
  8
AM_0
  5
1C7E0
 10
431.808
 20
635.942
 30
0.000000
  70
    32
  0
VERTEX
  8
AM_0
  5
1C7E1
 10
431.815
 20
635.932
 30
0.000000
  70
    32
  0
VERTEX
  8
AM_0
  5
1C7E2
 10
431.822
 20
635.922
 30
0.000000
  70
    32
  0
VERTEX
  8
AM_0
  5
1C7E3
 10
431.830
 20
635.912
 30
0.000000
  70
    32
  0
VERTEX
  8
AM_0
  5
1C7E4
 10
431.837
 20
635.903
 30
0.000000
  70
    32
  0
VERTEX
  8
AM_0
  5
1C7E5
 10
431.844
 20
635.893
 30
0.000000
  70
    32
  0
VERTEX
  8
AM_0
  5
1C7E6
 10
431.852
 20
635.883
 30
0.000000
  70
    32
  0
VERTEX
  8
AM_0
  5
1C7E7
 10
431.860
 20
635.874
 30
0.000000
  70
    32
  0
VERTEX
  8
AM_0
  5
1C7E8
 10
431.868
 20
635.864
 30
0.000000
  70
    32
  0
VERTEX
  8
AM_0
  5
1C7E9
 10
431.876
 20
635.855
 30
0.000000
  70
    32
  0
VERTEX
  8
AM_0
  5
1C7EA
 10
431.884
 20
635.846
 30
0.000000
  70
    32
  0
VERTEX
  8
AM_0
  5
1C7EB
 10
431.892
 20
635.837
 30
0.000000
  70
    32
  0
VERTEX
  8
AM_0
  5
1C7EC
 10
431.900
 20
635.827
 30
0.000000
  70
    32
  0
VERTEX
  8
AM_0
  5
1C7ED
 10
431.909
 20
635.819
 30
0.000000
  70
    32
  0
VERTEX
  8
AM_0
  5
1C7EE
 10
431.917
 20
635.810
 30
0.000000
  70
    32
  0
VERTEX
  8
AM_0
  5
1C7EF
 10
431.926
 20
635.801
 30
0.000000
  70
    32
  0
VERTEX
  8
AM_0
  5
1C7F0
 10
431.934
 20
635.792
 30
0.000000
  70
    32
  0
VERTEX
  8
AM_0
  5
1C7F1
 10
431.943
 20
635.784
 30
0.000000
  70
    32
  0
VERTEX
  8
AM_0
  5
1C7F2
 10
431.952
 20
635.775
 30
0.000000
  70
    32
  0
VERTEX
  8
AM_0
  5
1C7F3
 10
431.961
 20
635.767
 30
0.000000
  70
    32
  0
VERTEX
  8
AM_0
  5
1C7F4
 10
431.970
 20
635.759
 30
0.000000
  70
    32
  0
VERTEX
  8
AM_0
  5
1C7F5
 10
431.980
 20
635.751
 30
0.000000
  70
    32
  0
VERTEX
  8
AM_0
  5
1C7F6
 10
431.989
 20
635.743
 30
0.000000
  70
    32
  0
VERTEX
  8
AM_0
  5
1C7F7
 10
431.998
 20
635.735
 30
0.000000
  70
    32
  0
VERTEX
  8
AM_0
  5
1C7F8
 10
432.008
 20
635.727
 30
0.000000
  70
    32
  0
VERTEX
  8
AM_0
  5
1C7F9
 10
432.018
 20
635.720
 30
0.000000
  70
    32
  0
VERTEX
  8
AM_0
  5
1C7FA
 10
432.027
 20
635.712
 30
0.000000
  70
    32
  0
VERTEX
  8
AM_0
  5
1C7FB
 10
432.037
 20
635.705
 30
0.000000
  70
    32
  0
VERTEX
  8
AM_0
  5
1C7FC
 10
432.047
 20
635.698
 30
0.000000
  70
    32
  0
VERTEX
  8
AM_0
  5
1C7FD
 10
432.057
 20
635.690
 30
0.000000
  70
    32
  0
VERTEX
  8
AM_0
  5
1C7FE
 10
432.067
 20
635.683
 30
0.000000
  70
    32
  0
VERTEX
  8
AM_0
  5
1C7FF
 10
432.077
 20
635.677
 30
0.000000
  70
    32
  0
VERTEX
  8
AM_0
  5
1C800
 10
432.087
 20
635.670
 30
0.000000
  70
    32
  0
VERTEX
  8
AM_0
  5
1C801
 10
432.098
 20
635.663
 30
0.000000
  70
    32
  0
VERTEX
  8
AM_0
  5
1C802
 10
432.108
 20
635.657
 30
0.000000
  70
    32
  0
VERTEX
  8
AM_0
  5
1C803
 10
432.119
 20
635.650
 30
0.000000
  70
    32
  0
VERTEX
  8
AM_0
  5
1C804
 10
432.129
 20
635.644
 30
0.000000
  70
    32
  0
VERTEX
  8
AM_0
  5
1C805
 10
432.140
 20
635.638
 30
0.000000
  70
    32
  0
VERTEX
  8
AM_0
  5
1C806
 10
432.151
 20
635.632
 30
0.000000
  70
    32
  0
VERTEX
  8
AM_0
  5
1C807
 10
432.161
 20
635.626
 30
0.000000
  70
    32
  0
VERTEX
  8
AM_0
  5
1C808
 10
432.172
 20
635.620
 30
0.000000
  70
    32
  0
VERTEX
  8
AM_0
  5
1C809
 10
432.183
 20
635.615
 30
0.000000
  70
    32
  0
VERTEX
  8
AM_0
  5
1C80A
 10
432.194
 20
635.609
 30
0.000000
  70
    32
  0
VERTEX
  8
AM_0
  5
1C80B
 10
432.205
 20
635.604
 30
0.000000
  70
    32
  0
VERTEX
  8
AM_0
  5
1C80C
 10
432.216
 20
635.599
 30
0.000000
  70
    32
  0
VERTEX
  8
AM_0
  5
1C80D
 10
432.228
 20
635.594
 30
0.000000
  70
    32
  0
VERTEX
  8
AM_0
  5
1C80E
 10
432.239
 20
635.589
 30
0.000000
  70
    32
  0
VERTEX
  8
AM_0
  5
1C80F
 10
432.250
 20
635.584
 30
0.000000
  70
    32
  0
VERTEX
  8
AM_0
  5
1C810
 10
432.261
 20
635.580
 30
0.000000
  70
    32
  0
VERTEX
  8
AM_0
  5
1C811
 10
432.273
 20
635.575
 30
0.000000
  70
    32
  0
VERTEX
  8
AM_0
  5
1C812
 10
432.284
 20
635.571
 30
0.000000
  70
    32
  0
VERTEX
  8
AM_0
  5
1C813
 10
432.296
 20
635.567
 30
0.000000
  70
    32
  0
VERTEX
  8
AM_0
  5
1C814
 10
432.307
 20
635.562
 30
0.000000
  70
    32
  0
VERTEX
  8
AM_0
  5
1C815
 10
432.319
 20
635.559
 30
0.000000
  70
    32
  0
VERTEX
  8
AM_0
  5
1C816
 10
432.331
 20
635.555
 30
0.000000
  70
    32
  0
VERTEX
  8
AM_0
  5
1C817
 10
432.342
 20
635.551
 30
0.000000
  70
    32
  0
VERTEX
  8
AM_0
  5
1C818
 10
432.354
 20
635.548
 30
0.000000
  70
    32
  0
VERTEX
  8
AM_0
  5
1C819
 10
432.366
 20
635.544
 30
0.000000
  70
    32
  0
VERTEX
  8
AM_0
  5
1C81A
 10
432.378
 20
635.541
 30
0.000000
  70
    32
  0
VERTEX
  8
AM_0
  5
1C81B
 10
432.390
 20
635.538
 30
0.000000
  70
    32
  0
VERTEX
  8
AM_0
  5
1C81C
 10
432.402
 20
635.535
 30
0.000000
  70
    32
  0
VERTEX
  8
AM_0
  5
1C81D
 10
432.414
 20
635.532
 30
0.000000
  70
    32
  0
VERTEX
  8
AM_0
  5
1C81E
 10
432.426
 20
635.530
 30
0.000000
  70
    32
  0
VERTEX
  8
AM_0
  5
1C81F
 10
432.438
 20
635.527
 30
0.000000
  70
    32
  0
VERTEX
  8
AM_0
  5
1C820
 10
432.450
 20
635.525
 30
0.000000
  70
    32
  0
VERTEX
  8
AM_0
  5
1C821
 10
432.462
 20
635.523
 30
0.000000
  70
    32
  0
VERTEX
  8
AM_0
  5
1C822
 10
432.474
 20
635.521
 30
0.000000
  70
    32
  0
VERTEX
  8
AM_0
  5
1C823
 10
432.486
 20
635.519
 30
0.000000
  70
    32
  0
VERTEX
  8
AM_0
  5
1C824
 10
432.498
 20
635.517
 30
0.000000
  70
    32
  0
VERTEX
  8
AM_0
  5
1C825
 10
432.510
 20
635.516
 30
0.000000
  70
    32
  0
VERTEX
  8
AM_0
  5
1C826
 10
432.523
 20
635.514
 30
0.000000
  70
    32
  0
VERTEX
  8
AM_0
  5
1C827
 10
432.535
 20
635.513
 30
0.000000
  70
    32
  0
VERTEX
  8
AM_0
  5
1C828
 10
432.547
 20
635.512
 30
0.000000
  70
    32
  0
VERTEX
  8
AM_0
  5
1C829
 10
432.559
 20
635.511
 30
0.000000
  70
    32
  0
VERTEX
  8
AM_0
  5
1C82A
 10
432.571
 20
635.510
 30
0.000000
  70
    32
  0
VERTEX
  8
AM_0
  5
1C82B
 10
432.584
 20
635.509
 30
0.000000
  70
    32
  0
VERTEX
  8
AM_0
  5
1C82C
 10
432.596
 20
635.509
 30
0.000000
  70
    32
  0
VERTEX
  8
AM_0
  5
1C82D
 10
432.608
 20
635.508
 30
0.000000
  70
    32
  0
VERTEX
  8
AM_0
  5
1C82E
 10
432.621
 20
635.508
 30
0.000000
  70
    32
  0
VERTEX
  8
AM_0
  5
1C82F
 10
432.633
 20
635.508
 30
0.000000
  70
    32
  0
SEQEND
  8
AM_0
  5
1C830
  0
LINE
  5
1B2CF
  8
AM_0
 10
430.23273571386733
 20
645.50807875864973
 30
0.0
 11
430.23273571386733
 21
648.50807884895676
 31
0.0
  0
LINE
  5
1B2D0
  8
AM_0
 10
438.01435519809701
 20
645.50807875864973
 30
0.0
 11
439.74641503670392
 21
648.50807884895676
 31
0.0
  0
LINE
  5
1B2D1
  8
AM_0
 10
312.45951667679839
 20
769.50808642644427
 30
0.0
 11
322.57018019806679
 21
769.50808642644427
 31
0.0
  0
LINE
  5
1B2D2
  8
AM_0
 10
310.46073502276028
 20
771.43828743303959
 30
0.0
 11
310.33362589386508
 21
775.07821664265168
 31
0.0
  0
ARC
  5
1B2D3
  8
AM_0
 10
312.45951667679839
 20
771.50808642644438
 30
0.0
 40
2.0
 50
182.00000000000369
 51
270.0
1001
GENIUS_GENODEF_13
1002
{
1000
HIER
1070
     0
1002
}
1002
{
1000
MANEDIT
1070
     0
1002
}
1002
{
1000
NOSEL
1070
     0
1002
}
1002
{
1000
BEHIND
1070
     0
1002
}
1002
{
1000
OTHER
1070
     0
1002
}
1002
{
1000
REACTOR
1002
}
1001
GENIUS_GENOBJ-N-FIL_13
1002
{
1000
OWNER
1000
GEN
1002
}
  0
LINE
  5
1B2D4
  8
AM_0
 10
296.6329499644811
 20
777.00841764924655
 30
0.0
 11
308.33484423982702
 21
777.00841764924678
 31
0.0
  0
ARC
  5
1B2D5
  8
AM_0
 10
308.33484423982702
 20
775.00841764924667
 30
0.0
 40
2.0
 50
2.000000000003725
 51
90.0
1001
GENIUS_GENODEF_13
1002
{
1000
HIER
1070
     0
1002
}
1002
{
1000
MANEDIT
1070
     0
1002
}
1002
{
1000
NOSEL
1070
     0
1002
}
1002
{
1000
BEHIND
1070
     0
1002
}
1002
{
1000
OTHER
1070
     0
1002
}
1002
{
1000
REACTOR
1002
}
1001
GENIUS_GENOBJ-N-FIL_13
1002
{
1000
OWNER
1000
GEN
1002
}
  0
ARC
  5
1B2D6
  8
AM_0
 10
322.57018019806702
 20
771.50808642644438
 30
0.0
 40
2.0
 50
270.0
 51
358.99998522241918
1001
GENIUS_GENOBJ-N-FIL_13
1002
{
1000
OWNER
1000
GEN
1002
}
1001
GENIUS_GENODEF_13
1002
{
1000
HIER
1070
     0
1002
}
1002
{
1000
MANEDIT
1070
     0
1002
}
1002
{
1000
NOSEL
1070
     0
1002
}
1002
{
1000
BEHIND
1070
     0
1002
}
1002
{
1000
OTHER
1070
     0
1002
}
1002
{
1000
REACTOR
1002
}
  0
LINE
  5
1B2D7
  8
AM_0
 10
422.63191640023098
 20
778.50808276225871
 30
0.0
 11
422.63191640023098
 21
773.50808261174711
 31
0.0
  0
LINE
  5
1B2D8
  8
ﾁｭｳｼﾝｾﾝ1
 10
472.63291789037743
 20
877.72568805655305
 30
0.0
 11
472.63291789037709
 21
529.29114530505262
 31
0.0
  0
LINE
  5
1B2D9
  8
AM_0
 10
554.66045354347659
 20
773.50808642644427
 30
0.0
 11
556.63292041897205
 21
660.50807921018463
 31
0.0
  0
LINE
  5
1B2DA
  8
AM_0
 10
452.63317827781469
 20
633.50807839742208
 30
0.0
 11
452.63317827781469
 21
648.50807884895676
 31
0.0
  0
LINE
  5
1B2DB
  8
AM_0
 10
556.63292041897205
 20
660.50807921018463
 30
0.0
 11
556.16162802028293
 21
633.50807839742174
 31
0.0
  0
LINE
  5
1B2DC
  8
AM_0
 10
440.1322669217825
 20
778.50875892939268
 30
0.0
 11
440.1322669217825
 21
783.50875907990462
 31
0.0
  0
LINE
  5
1B2DD
  8
AM_0
 10
522.6339193805228
 20
633.50807458272436
 30
0.0
 11
522.6339193805228
 21
628.50807443221288
 31
0.0
  0
LINE
  5
1B2DE
  8
AM_0
 10
447.63307812880021
 20
636.50807848772888
 30
0.0
 11
447.63307812880021
 21
645.50807875864973
 31
0.0
  0
POLYLINE
  5
1B2DF
  8
AM_0
 10
446.63305818642181
 20
635.50807845762665
 30
0.0
 66
     1
 70
     8
  0
VERTEX
  8
AM_0
  5
1C831
 10
446.633
 20
635.508
 30
0.000000
  70
    32
  0
VERTEX
  8
AM_0
  5
1C832
 10
446.645
 20
635.508
 30
0.000000
  70
    32
  0
VERTEX
  8
AM_0
  5
1C833
 10
446.658
 20
635.508
 30
0.000000
  70
    32
  0
VERTEX
  8
AM_0
  5
1C834
 10
446.670
 20
635.509
 30
0.000000
  70
    32
  0
VERTEX
  8
AM_0
  5
1C835
 10
446.682
 20
635.509
 30
0.000000
  70
    32
  0
VERTEX
  8
AM_0
  5
1C836
 10
446.694
 20
635.510
 30
0.000000
  70
    32
  0
VERTEX
  8
AM_0
  5
1C837
 10
446.707
 20
635.511
 30
0.000000
  70
    32
  0
VERTEX
  8
AM_0
  5
1C838
 10
446.719
 20
635.512
 30
0.000000
  70
    32
  0
VERTEX
  8
AM_0
  5
1C839
 10
446.731
 20
635.513
 30
0.000000
  70
    32
  0
VERTEX
  8
AM_0
  5
1C83A
 10
446.743
 20
635.514
 30
0.000000
  70
    32
  0
VERTEX
  8
AM_0
  5
1C83B
 10
446.755
 20
635.516
 30
0.000000
  70
    32
  0
VERTEX
  8
AM_0
  5
1C83C
 10
446.768
 20
635.517
 30
0.000000
  70
    32
  0
VERTEX
  8
AM_0
  5
1C83D
 10
446.780
 20
635.519
 30
0.000000
  70
    32
  0
VERTEX
  8
AM_0
  5
1C83E
 10
446.792
 20
635.521
 30
0.000000
  70
    32
  0
VERTEX
  8
AM_0
  5
1C83F
 10
446.804
 20
635.523
 30
0.000000
  70
    32
  0
VERTEX
  8
AM_0
  5
1C840
 10
446.816
 20
635.525
 30
0.000000
  70
    32
  0
VERTEX
  8
AM_0
  5
1C841
 10
446.828
 20
635.527
 30
0.000000
  70
    32
  0
VERTEX
  8
AM_0
  5
1C842
 10
446.840
 20
635.530
 30
0.000000
  70
    32
  0
VERTEX
  8
AM_0
  5
1C843
 10
446.852
 20
635.532
 30
0.000000
  70
    32
  0
VERTEX
  8
AM_0
  5
1C844
 10
446.864
 20
635.535
 30
0.000000
  70
    32
  0
VERTEX
  8
AM_0
  5
1C845
 10
446.876
 20
635.538
 30
0.000000
  70
    32
  0
VERTEX
  8
AM_0
  5
1C846
 10
446.888
 20
635.541
 30
0.000000
  70
    32
  0
VERTEX
  8
AM_0
  5
1C847
 10
446.900
 20
635.544
 30
0.000000
  70
    32
  0
VERTEX
  8
AM_0
  5
1C848
 10
446.912
 20
635.548
 30
0.000000
  70
    32
  0
VERTEX
  8
AM_0
  5
1C849
 10
446.923
 20
635.551
 30
0.000000
  70
    32
  0
VERTEX
  8
AM_0
  5
1C84A
 10
446.935
 20
635.555
 30
0.000000
  70
    32
  0
VERTEX
  8
AM_0
  5
1C84B
 10
446.947
 20
635.559
 30
0.000000
  70
    32
  0
VERTEX
  8
AM_0
  5
1C84C
 10
446.958
 20
635.562
 30
0.000000
  70
    32
  0
VERTEX
  8
AM_0
  5
1C84D
 10
446.970
 20
635.567
 30
0.000000
  70
    32
  0
VERTEX
  8
AM_0
  5
1C84E
 10
446.981
 20
635.571
 30
0.000000
  70
    32
  0
VERTEX
  8
AM_0
  5
1C84F
 10
446.993
 20
635.575
 30
0.000000
  70
    32
  0
VERTEX
  8
AM_0
  5
1C850
 10
447.004
 20
635.580
 30
0.000000
  70
    32
  0
VERTEX
  8
AM_0
  5
1C851
 10
447.016
 20
635.584
 30
0.000000
  70
    32
  0
VERTEX
  8
AM_0
  5
1C852
 10
447.027
 20
635.589
 30
0.000000
  70
    32
  0
VERTEX
  8
AM_0
  5
1C853
 10
447.038
 20
635.594
 30
0.000000
  70
    32
  0
VERTEX
  8
AM_0
  5
1C854
 10
447.049
 20
635.599
 30
0.000000
  70
    32
  0
VERTEX
  8
AM_0
  5
1C855
 10
447.061
 20
635.604
 30
0.000000
  70
    32
  0
VERTEX
  8
AM_0
  5
1C856
 10
447.072
 20
635.609
 30
0.000000
  70
    32
  0
VERTEX
  8
AM_0
  5
1C857
 10
447.083
 20
635.615
 30
0.000000
  70
    32
  0
VERTEX
  8
AM_0
  5
1C858
 10
447.094
 20
635.620
 30
0.000000
  70
    32
  0
VERTEX
  8
AM_0
  5
1C859
 10
447.104
 20
635.626
 30
0.000000
  70
    32
  0
VERTEX
  8
AM_0
  5
1C85A
 10
447.115
 20
635.632
 30
0.000000
  70
    32
  0
VERTEX
  8
AM_0
  5
1C85B
 10
447.126
 20
635.638
 30
0.000000
  70
    32
  0
VERTEX
  8
AM_0
  5
1C85C
 10
447.137
 20
635.644
 30
0.000000
  70
    32
  0
VERTEX
  8
AM_0
  5
1C85D
 10
447.147
 20
635.650
 30
0.000000
  70
    32
  0
VERTEX
  8
AM_0
  5
1C85E
 10
447.158
 20
635.657
 30
0.000000
  70
    32
  0
VERTEX
  8
AM_0
  5
1C85F
 10
447.168
 20
635.663
 30
0.000000
  70
    32
  0
VERTEX
  8
AM_0
  5
1C860
 10
447.178
 20
635.670
 30
0.000000
  70
    32
  0
VERTEX
  8
AM_0
  5
1C861
 10
447.189
 20
635.677
 30
0.000000
  70
    32
  0
VERTEX
  8
AM_0
  5
1C862
 10
447.199
 20
635.683
 30
0.000000
  70
    32
  0
VERTEX
  8
AM_0
  5
1C863
 10
447.209
 20
635.690
 30
0.000000
  70
    32
  0
VERTEX
  8
AM_0
  5
1C864
 10
447.219
 20
635.698
 30
0.000000
  70
    32
  0
VERTEX
  8
AM_0
  5
1C865
 10
447.229
 20
635.705
 30
0.000000
  70
    32
  0
VERTEX
  8
AM_0
  5
1C866
 10
447.239
 20
635.712
 30
0.000000
  70
    32
  0
VERTEX
  8
AM_0
  5
1C867
 10
447.248
 20
635.720
 30
0.000000
  70
    32
  0
VERTEX
  8
AM_0
  5
1C868
 10
447.258
 20
635.727
 30
0.000000
  70
    32
  0
VERTEX
  8
AM_0
  5
1C869
 10
447.267
 20
635.735
 30
0.000000
  70
    32
  0
VERTEX
  8
AM_0
  5
1C86A
 10
447.277
 20
635.743
 30
0.000000
  70
    32
  0
VERTEX
  8
AM_0
  5
1C86B
 10
447.286
 20
635.751
 30
0.000000
  70
    32
  0
VERTEX
  8
AM_0
  5
1C86C
 10
447.295
 20
635.759
 30
0.000000
  70
    32
  0
VERTEX
  8
AM_0
  5
1C86D
 10
447.305
 20
635.767
 30
0.000000
  70
    32
  0
VERTEX
  8
AM_0
  5
1C86E
 10
447.314
 20
635.775
 30
0.000000
  70
    32
  0
VERTEX
  8
AM_0
  5
1C86F
 10
447.323
 20
635.784
 30
0.000000
  70
    32
  0
VERTEX
  8
AM_0
  5
1C870
 10
447.331
 20
635.792
 30
0.000000
  70
    32
  0
VERTEX
  8
AM_0
  5
1C871
 10
447.340
 20
635.801
 30
0.000000
  70
    32
  0
VERTEX
  8
AM_0
  5
1C872
 10
447.349
 20
635.810
 30
0.000000
  70
    32
  0
VERTEX
  8
AM_0
  5
1C873
 10
447.357
 20
635.819
 30
0.000000
  70
    32
  0
VERTEX
  8
AM_0
  5
1C874
 10
447.366
 20
635.827
 30
0.000000
  70
    32
  0
VERTEX
  8
AM_0
  5
1C875
 10
447.374
 20
635.837
 30
0.000000
  70
    32
  0
VERTEX
  8
AM_0
  5
1C876
 10
447.382
 20
635.846
 30
0.000000
  70
    32
  0
VERTEX
  8
AM_0
  5
1C877
 10
447.390
 20
635.855
 30
0.000000
  70
    32
  0
VERTEX
  8
AM_0
  5
1C878
 10
447.398
 20
635.864
 30
0.000000
  70
    32
  0
VERTEX
  8
AM_0
  5
1C879
 10
447.406
 20
635.874
 30
0.000000
  70
    32
  0
VERTEX
  8
AM_0
  5
1C87A
 10
447.414
 20
635.883
 30
0.000000
  70
    32
  0
VERTEX
  8
AM_0
  5
1C87B
 10
447.421
 20
635.893
 30
0.000000
  70
    32
  0
VERTEX
  8
AM_0
  5
1C87C
 10
447.429
 20
635.903
 30
0.000000
  70
    32
  0
VERTEX
  8
AM_0
  5
1C87D
 10
447.436
 20
635.912
 30
0.000000
  70
    32
  0
VERTEX
  8
AM_0
  5
1C87E
 10
447.444
 20
635.922
 30
0.000000
  70
    32
  0
VERTEX
  8
AM_0
  5
1C87F
 10
447.451
 20
635.932
 30
0.000000
  70
    32
  0
VERTEX
  8
AM_0
  5
1C880
 10
447.458
 20
635.942
 30
0.000000
  70
    32
  0
VERTEX
  8
AM_0
  5
1C881
 10
447.465
 20
635.953
 30
0.000000
  70
    32
  0
VERTEX
  8
AM_0
  5
1C882
 10
447.471
 20
635.963
 30
0.000000
  70
    32
  0
VERTEX
  8
AM_0
  5
1C883
 10
447.478
 20
635.973
 30
0.000000
  70
    32
  0
VERTEX
  8
AM_0
  5
1C884
 10
447.484
 20
635.983
 30
0.000000
  70
    32
  0
VERTEX
  8
AM_0
  5
1C885
 10
447.491
 20
635.994
 30
0.000000
  70
    32
  0
VERTEX
  8
AM_0
  5
1C886
 10
447.497
 20
636.005
 30
0.000000
  70
    32
  0
VERTEX
  8
AM_0
  5
1C887
 10
447.503
 20
636.015
 30
0.000000
  70
    32
  0
VERTEX
  8
AM_0
  5
1C888
 10
447.509
 20
636.026
 30
0.000000
  70
    32
  0
VERTEX
  8
AM_0
  5
1C889
 10
447.515
 20
636.037
 30
0.000000
  70
    32
  0
VERTEX
  8
AM_0
  5
1C88A
 10
447.521
 20
636.048
 30
0.000000
  70
    32
  0
VERTEX
  8
AM_0
  5
1C88B
 10
447.526
 20
636.058
 30
0.000000
  70
    32
  0
VERTEX
  8
AM_0
  5
1C88C
 10
447.532
 20
636.069
 30
0.000000
  70
    32
  0
VERTEX
  8
AM_0
  5
1C88D
 10
447.537
 20
636.081
 30
0.000000
  70
    32
  0
VERTEX
  8
AM_0
  5
1C88E
 10
447.542
 20
636.092
 30
0.000000
  70
    32
  0
VERTEX
  8
AM_0
  5
1C88F
 10
447.547
 20
636.103
 30
0.000000
  70
    32
  0
VERTEX
  8
AM_0
  5
1C890
 10
447.552
 20
636.114
 30
0.000000
  70
    32
  0
VERTEX
  8
AM_0
  5
1C891
 10
447.557
 20
636.125
 30
0.000000
  70
    32
  0
VERTEX
  8
AM_0
  5
1C892
 10
447.562
 20
636.137
 30
0.000000
  70
    32
  0
VERTEX
  8
AM_0
  5
1C893
 10
447.566
 20
636.148
 30
0.000000
  70
    32
  0
VERTEX
  8
AM_0
  5
1C894
 10
447.570
 20
636.160
 30
0.000000
  70
    32
  0
VERTEX
  8
AM_0
  5
1C895
 10
447.575
 20
636.171
 30
0.000000
  70
    32
  0
VERTEX
  8
AM_0
  5
1C896
 10
447.579
 20
636.183
 30
0.000000
  70
    32
  0
VERTEX
  8
AM_0
  5
1C897
 10
447.583
 20
636.194
 30
0.000000
  70
    32
  0
VERTEX
  8
AM_0
  5
1C898
 10
447.586
 20
636.206
 30
0.000000
  70
    32
  0
VERTEX
  8
AM_0
  5
1C899
 10
447.590
 20
636.218
 30
0.000000
  70
    32
  0
VERTEX
  8
AM_0
  5
1C89A
 10
447.594
 20
636.230
 30
0.000000
  70
    32
  0
VERTEX
  8
AM_0
  5
1C89B
 10
447.597
 20
636.241
 30
0.000000
  70
    32
  0
VERTEX
  8
AM_0
  5
1C89C
 10
447.600
 20
636.253
 30
0.000000
  70
    32
  0
VERTEX
  8
AM_0
  5
1C89D
 10
447.603
 20
636.265
 30
0.000000
  70
    32
  0
VERTEX
  8
AM_0
  5
1C89E
 10
447.606
 20
636.277
 30
0.000000
  70
    32
  0
VERTEX
  8
AM_0
  5
1C89F
 10
447.609
 20
636.289
 30
0.000000
  70
    32
  0
VERTEX
  8
AM_0
  5
1C8A0
 10
447.611
 20
636.301
 30
0.000000
  70
    32
  0
VERTEX
  8
AM_0
  5
1C8A1
 10
447.614
 20
636.313
 30
0.000000
  70
    32
  0
VERTEX
  8
AM_0
  5
1C8A2
 10
447.616
 20
636.325
 30
0.000000
  70
    32
  0
VERTEX
  8
AM_0
  5
1C8A3
 10
447.618
 20
636.337
 30
0.000000
  70
    32
  0
VERTEX
  8
AM_0
  5
1C8A4
 10
447.620
 20
636.349
 30
0.000000
  70
    32
  0
VERTEX
  8
AM_0
  5
1C8A5
 10
447.622
 20
636.361
 30
0.000000
  70
    32
  0
VERTEX
  8
AM_0
  5
1C8A6
 10
447.624
 20
636.373
 30
0.000000
  70
    32
  0
VERTEX
  8
AM_0
  5
1C8A7
 10
447.626
 20
636.386
 30
0.000000
  70
    32
  0
VERTEX
  8
AM_0
  5
1C8A8
 10
447.627
 20
636.398
 30
0.000000
  70
    32
  0
VERTEX
  8
AM_0
  5
1C8A9
 10
447.628
 20
636.410
 30
0.000000
  70
    32
  0
VERTEX
  8
AM_0
  5
1C8AA
 10
447.629
 20
636.422
 30
0.000000
  70
    32
  0
VERTEX
  8
AM_0
  5
1C8AB
 10
447.630
 20
636.435
 30
0.000000
  70
    32
  0
VERTEX
  8
AM_0
  5
1C8AC
 10
447.631
 20
636.447
 30
0.000000
  70
    32
  0
VERTEX
  8
AM_0
  5
1C8AD
 10
447.632
 20
636.459
 30
0.000000
  70
    32
  0
VERTEX
  8
AM_0
  5
1C8AE
 10
447.632
 20
636.471
 30
0.000000
  70
    32
  0
VERTEX
  8
AM_0
  5
1C8AF
 10
447.633
 20
636.484
 30
0.000000
  70
    32
  0
VERTEX
  8
AM_0
  5
1C8B0
 10
447.633
 20
636.496
 30
0.000000
  70
    32
  0
VERTEX
  8
AM_0
  5
1C8B1
 10
447.633
 20
636.508
 30
0.000000
  70
    32
  0
SEQEND
  8
AM_0
  5
1C8B2
  0
LINE
  5
1B2E0
  8
AM_0
 10
449.03310006688639
 20
645.50807875864973
 30
0.0
 11
449.03310006688639
 21
648.50807884895676
 31
0.0
  0
LINE
  5
1B2E1
  8
AM_0
 10
522.6339193805228
 20
778.50808276225871
 30
0.0
 11
522.6339193805228
 21
773.50808261174666
 31
0.0
  0
LINE
  5
1B2E2
  8
AM_0
 10
293.43288996448121
 20
636.50841474064976
 30
0.0
 11
293.43288996448109
 21
770.50841474064976
 31
0.0
  0
LINE
  5
1B2E3
  8
AM_0
 10
293.43288996448132
 20
636.50841473085643
 30
0.0
 11
296.63288996448108
 21
636.50841476567723
 31
0.0
  0
LINE
  5
1B2E5
  8
AM_0
 10
293.43288996448109
 20
770.50841473085654
 30
0.0
 11
296.63288850637082
 21
770.50841476567666
 31
0.0
  0
LINE
  5
1B2F6
  8
AM_0
 10
556.63292041897205
 20
591.00814470140915
 30
0.0
 11
556.63292041897205
 21
633.50807839742174
 31
0.0
  0
LINE
  5
1B2F7
  8
AM_0
 10
322.63294389260761
 20
633.50807839742174
 30
0.0
 11
322.63294389260761
 21
591.00814470140915
 31
0.0
  0
LINE
  5
1B2FA
  8
AM_0
 10
556.63292041897205
 20
627.50807839742174
 30
0.0
 11
505.13356884217262
 21
627.50807839742174
 31
0.0
  0
LINE
  5
1B2FB
  8
AM_0
 10
440.13226690498249
 20
627.50807839742174
 30
0.0
 11
322.63294389260761
 21
627.50807839742174
 31
0.0
  0
ARC
  5
1B2FC
  8
AM_0
 10
546.63292041897205
 20
591.00814470140915
 30
0.0
 40
10.0
 50
270.0
 51
0.0
1001
GENIUS_GENODEF_13
1002
{
1000
HIER
1070
     0
1002
}
1002
{
1000
MANEDIT
1070
     0
1002
}
1002
{
1000
NOSEL
1070
     0
1002
}
1002
{
1000
BEHIND
1070
     0
1002
}
1002
{
1000
OTHER
1070
     0
1002
}
1002
{
1000
REACTOR
1002
}
1001
GENIUS_GENOBJ-N-FIL_13
1002
{
1000
OWNER
1000
GEN
1002
}
  0
ARC
  5
1B2FD
  8
AM_0
 10
332.63294389260761
 20
591.00814470140915
 30
0.0
 40
10.0
 50
180.0
 51
270.0
1001
GENIUS_GENODEF_13
1002
{
1000
HIER
1070
     0
1002
}
1002
{
1000
MANEDIT
1070
     0
1002
}
1002
{
1000
NOSEL
1070
     0
1002
}
1002
{
1000
BEHIND
1070
     0
1002
}
1002
{
1000
OTHER
1070
     0
1002
}
1002
{
1000
REACTOR
1002
}
1001
GENIUS_GENOBJ-N-FIL_13
1002
{
1000
OWNER
1000
GEN
1002
}
  0
INSERT
  5
1B2FE
  8
AM_0
  6
CONTINUOUS
  2
*U8
 10
0.0
 20
0.0
 30
0.0
1001
GENIUS_GENODEF_13
1002
{
1000
HIER
1070
     0
1002
}
1002
{
1000
MANEDIT
1070
     0
1002
}
1002
{
1000
NOSEL
1070
     0
1002
}
1002
{
1000
BEHIND
1070
     0
1002
}
1002
{
1000
OTHER
1070
     0
1002
}
1002
{
1000
REACTOR
1002
}
1001
GENIUS_GENOBJ-N-HTC_13
1002
{
1000
OWNER
1000
GEN
1002
}
1001
GENIUS_GENHATCH_13
1002
{
1000
DATA
1040
0.0
1042
1.0
1000
SOLID
1070
     0
1011
409.80133459046817
1021
0.0
1031
0.0
1021
625.82658361798929
1031
0.0
1002
}
1002
{
1000
UCS
1010
0.0
1020
0.0
1030
0.0
1010
1.0
1020
0.0
1030
0.0
1010
0.0
1020
1.0
1030
0.0
1002
}
1001
ACAD
1002
{
1000
R14_HATCH_DATA
1000
1B2FE
1011
1.0
1021
0.0
1031
0.0
1021
0.0
1031
0.0
1011
0.0
1021
0.0
1031
0.0
1021
1.0
1031
0.0
1011
0.0
1021
0.0
1031
0.0
1021
0.0
1031
1.0
1040
0.0
1010
0.0
1020
0.0
1030
1.0
1000
SOLID
1070
     1
1070
     0
1071
        2
1071
        1
1071
        3
1070
     1
1040
413.63293215578972
1040
627.50807839742174
1040
408.6329321557896
1040
622.50807839742185
1070
     1
1040
408.6329321557896
1040
622.50807839742185
1040
408.6329321557896
1040
627.50807839742174
1070
     1
1040
408.6329321557896
1040
627.50807839742174
1040
413.63293215578972
1040
627.50807839742174
1071
        0
1071
       33
1071
        1
1070
     1
1040
486.63292041897182
1040
627.50807839742174
1040
252.63294389260761
1040
627.50807839742174
1071
        0
1070
     0
1070
     1
1071
        1
1040
212.93707317327949
1040
724.43433233392363
1040
0.0
1002
}
  0
LINE
  5
1B2FF
  8
AM_0
 10
408.6329321557896
 20
622.50807839742185
 30
0.0
 11
413.63293215578972
 21
627.50807839742174
 31
0.0
1001
GENIUS_GENFIL_13
1070
     0
1040
5.0
1040
5.0
1040
20.0
1040
0.0
1002
{
1002
}
1001
GENIUS_GENODEF_13
1002
{
1000
HIER
1070
     0
1002
}
1002
{
1000
MANEDIT
1070
     0
1002
}
1002
{
1000
NOSEL
1070
     0
1002
}
1002
{
1000
BEHIND
1070
     0
1002
}
1002
{
1000
OTHER
1070
     0
1002
}
1002
{
1000
REACTOR
1002
}
1001
GENIUS_GENOBJ-N-CHA_13
1002
{
1000
OWNER
1000
GEN
1002
}
  0
LINE
  5
1B300
  8
AM_0
 10
402.63293215578977
 20
622.50807839742185
 30
0.0
 11
397.63293215578977
 21
627.50807839742174
 31
0.0
1001
GENIUS_GENFIL_13
1070
     0
1040
5.0
1040
5.0
1040
20.0
1040
0.0
1002
{
1002
}
1001
GENIUS_GENODEF_13
1002
{
1000
HIER
1070
     0
1002
}
1002
{
1000
MANEDIT
1070
     0
1002
}
1002
{
1000
NOSEL
1070
     0
1002
}
1002
{
1000
BEHIND
1070
     0
1002
}
1002
{
1000
OTHER
1070
     0
1002
}
1002
{
1000
REACTOR
1002
}
1001
GENIUS_GENOBJ-N-CHA_13
1002
{
1000
OWNER
1000
GEN
1002
}
  0
INSERT
  5
1B301
  8
AM_0
  6
CONTINUOUS
  2
*U9
 10
0.0
 20
0.0
 30
0.0
1001
GENIUS_GENODEF_13
1002
{
1000
HIER
1070
     0
1002
}
1002
{
1000
MANEDIT
1070
     0
1002
}
1002
{
1000
NOSEL
1070
     0
1002
}
1002
{
1000
BEHIND
1070
     0
1002
}
1002
{
1000
OTHER
1070
     0
1002
}
1002
{
1000
REACTOR
1002
}
1001
GENIUS_GENOBJ-N-HTC_13
1002
{
1000
OWNER
1000
GEN
1002
}
1001
GENIUS_GENHATCH_13
1002
{
1000
DATA
1040
0.0
1042
1.0
1000
SOLID
1070
     0
1011
401.46452972111121
1021
0.0
1031
0.0
1021
625.82658361798929
1031
0.0
1002
}
1002
{
1000
UCS
1010
0.0
1020
0.0
1030
0.0
1010
1.0
1020
0.0
1030
0.0
1010
0.0
1020
1.0
1030
0.0
1002
}
1001
ACAD
1002
{
1000
R14_HATCH_DATA
1000
1B301
1011
1.0
1021
0.0
1031
0.0
1021
0.0
1031
0.0
1011
0.0
1021
0.0
1031
0.0
1021
1.0
1031
0.0
1011
0.0
1021
0.0
1031
0.0
1021
0.0
1031
1.0
1040
0.0
1010
0.0
1020
0.0
1030
1.0
1000
SOLID
1070
     1
1070
     0
1071
        2
1071
        1
1071
        3
1070
     1
1040
397.63293215578977
1040
627.50807839742174
1040
402.63293215578977
1040
622.50807839742185
1070
     1
1040
402.63293215578977
1040
622.50807839742185
1040
402.63293215578977
1040
627.50807839742174
1070
     1
1040
402.63293215578977
1040
627.50807839742174
1040
397.63293215578977
1040
627.50807839742174
1071
        0
1071
       33
1071
        1
1070
     1
1040
324.63294389260761
1040
627.50807839742174
1040
558.63292041897205
1040
627.50807839742174
1071
        0
1070
     0
1070
     1
1071
        1
1040
598.32879113829995
1040
724.43433233392363
1040
0.0
1002
}
  0
LINE
  5
1B302
  8
AM_0
 10
402.63293215578977
 20
627.50807839742174
 30
0.0
 11
402.63293215578972
 21
589.50807839742174
 31
0.0
  0
LINE
  5
1B303
  8
AM_0
 10
408.63293215578972
 20
627.50807839742174
 30
0.0
 11
408.63293215578972
 21
589.50807839742174
 31
0.0
  0
LINE
  5
1B304
  8
ﾁｭｳｼﾝｾﾝ1
 10
512.13293258492922
 20
613.50813711998001
 30
0.0
 11
512.13293258492922
 21
583.50813711998001
 31
0.0
  0
LINE
  5
1B305
  8
ﾁｭｳｼﾝｾﾝ1
 10
497.13293258492928
 20
598.50813711997978
 30
0.0
 11
527.13293258492922
 21
598.50813711997978
 31
0.0
  0
CIRCLE
  5
1B306
  8
AM_0
 10
512.13293258492922
 20
598.50813711997978
 30
0.0
 40
9.5
  0
CIRCLE
  5
1B307
  8
AM_0
 10
367.13293172665033
 20
598.50813711997978
 30
0.0
 40
9.5
  0
LINE
  5
1B308
  8
AM_5
 10
406.63294642120258
 20
627.50807839742174
 30
0.0
 11
406.63294642120258
 21
633.50807839742174
 31
0.0
  0
LINE
  5
1B309
  8
AM_5
 10
382.65378880463879
 20
627.50807839742174
 30
0.0
 11
382.65378880463879
 21
633.50807839742174
 31
0.0
  0
LINE
  5
1B30A
  8
AM_0
 10
408.63293215578972
 20
619.50807839742174
 30
0.0
 11
402.63293215578977
 21
619.50807839742174
 31
0.0
  0
LINE
  5
1B30B
  8
AM_0
 10
408.63293215578972
 20
589.50807839742174
 30
0.0
 11
402.6329321557896
 21
589.50807839742174
 31
0.0
  0
LINE
  5
1B30C
  8
ﾁｭｳｼﾝｾﾝ1
 10
367.13293172665033
 20
613.50813711998001
 30
0.0
 11
367.13293172665033
 21
583.50813711998001
 31
0.0
  0
LINE
  5
1B30D
  8
ﾁｭｳｼﾝｾﾝ1
 10
352.13293172665033
 20
598.50813711997978
 30
0.0
 11
382.13293172665033
 21
598.50813711997978
 31
0.0
  0
LINE
  5
1B30E
  8
AM_0
 10
556.63292041897205
 20
816.00869059708464
 30
0.0
 11
556.63292041897205
 21
773.50875690107193
 31
0.0
  0
LINE
  5
1B30F
  8
AM_0
 10
322.63294389260761
 20
773.50875690107193
 30
0.0
 11
322.63294389260761
 21
816.00869059708464
 31
0.0
  0
LINE
  5
1B310
  8
AM_0
 10
332.63294389260761
 20
826.00869059708464
 30
0.0
 11
451.63291787357758
 21
826.00869059708464
 31
0.0
  0
LINE
  5
1B311
  8
AM_0
 10
556.63292041897205
 20
779.50875690107193
 30
0.0
 11
505.13356885897218
 21
779.50875690107193
 31
0.0
  0
LINE
  5
1B312
  8
AM_0
 10
440.1322669217825
 20
779.50875690107193
 30
0.0
 11
322.63294389260761
 21
779.50875690107193
 31
0.0
  0
ARC
  5
1B313
  8
AM_0
 10
546.63292041897205
 20
816.00869059708464
 30
0.0
 40
10.0
 50
0.0
 51
90.0
1001
GENIUS_GENODEF_13
1002
{
1000
HIER
1070
     0
1002
}
1002
{
1000
MANEDIT
1070
     0
1002
}
1002
{
1000
NOSEL
1070
     0
1002
}
1002
{
1000
BEHIND
1070
     0
1002
}
1002
{
1000
OTHER
1070
     0
1002
}
1002
{
1000
REACTOR
1002
}
1001
GENIUS_GENOBJ-N-FIL_13
1002
{
1000
OWNER
1000
GEN
1002
}
  0
ARC
  5
1B314
  8
AM_0
 10
332.63294389260761
 20
816.00869059708464
 30
0.0
 40
10.0
 50
90.0
 51
180.0
1001
GENIUS_GENODEF_13
1002
{
1000
HIER
1070
     0
1002
}
1002
{
1000
MANEDIT
1070
     0
1002
}
1002
{
1000
NOSEL
1070
     0
1002
}
1002
{
1000
BEHIND
1070
     0
1002
}
1002
{
1000
OTHER
1070
     0
1002
}
1002
{
1000
REACTOR
1002
}
1001
GENIUS_GENOBJ-N-FIL_13
1002
{
1000
OWNER
1000
GEN
1002
}
  0
INSERT
  5
1B315
  8
AM_0
  6
CONTINUOUS
  2
*U10
 10
0.0
 20
0.0
 30
0.0
1001
GENIUS_GENODEF_13
1002
{
1000
HIER
1070
     0
1002
}
1002
{
1000
MANEDIT
1070
     0
1002
}
1002
{
1000
NOSEL
1070
     0
1002
}
1002
{
1000
BEHIND
1070
     0
1002
}
1002
{
1000
OTHER
1070
     0
1002
}
1002
{
1000
REACTOR
1002
}
1001
GENIUS_GENOBJ-N-HTC_13
1002
{
1000
OWNER
1000
GEN
1002
}
1001
GENIUS_GENHATCH_13
1002
{
1000
DATA
1040
0.0
1042
-0.9999999999999998
1000
SOLID
1070
     0
1011
409.80133459046817
1021
0.0
1031
0.0
1021
781.19025168050462
1031
0.0
1002
}
1002
{
1000
UCS
1010
0.0
1020
0.0
1030
0.0
1010
1.0
1020
0.0
1030
0.0
1010
0.0
1020
1.0
1030
0.0
1002
}
1001
ACAD
1002
{
1000
R14_HATCH_DATA
1000
1B315
1011
1.0
1021
0.0
1031
0.0
1021
0.0
1031
0.0
1011
0.0
1021
0.0
1031
0.0
1021
1.0
1031
0.0
1011
0.0
1021
0.0
1031
0.0
1021
0.0
1031
1.0
1040
0.0
1010
0.0
1020
0.0
1030
1.0
1000
SOLID
1070
     1
1070
     0
1071
        2
1071
        1
1071
        3
1070
     1
1040
413.63293215578972
1040
779.50875690107193
1040
408.6329321557896
1040
784.50875690107193
1070
     1
1040
408.6329321557896
1040
784.50875690107193
1040
408.6329321557896
1040
779.50875690107193
1070
     1
1040
408.6329321557896
1040
779.50875690107193
1040
413.63293215578972
1040
779.50875690107193
1071
        0
1071
       33
1071
        1
1070
     1
1040
486.63292041897182
1040
779.50875690107193
1040
252.63294389260761
1040
779.50875690107193
1071
        0
1070
     0
1070
     1
1071
        1
1040
212.93707317327949
1040
682.58250296457015
1040
0.0
1002
}
  0
LINE
  5
1B316
  8
AM_0
 10
408.6329321557896
 20
784.50875690107193
 30
0.0
 11
413.63293215578972
 21
779.50875690107193
 31
0.0
1001
GENIUS_GENFIL_13
1070
     0
1040
5.0
1040
5.0
1040
20.0
1040
0.0
1002
{
1002
}
1001
GENIUS_GENODEF_13
1002
{
1000
HIER
1070
     0
1002
}
1002
{
1000
MANEDIT
1070
     0
1002
}
1002
{
1000
NOSEL
1070
     0
1002
}
1002
{
1000
BEHIND
1070
     0
1002
}
1002
{
1000
OTHER
1070
     0
1002
}
1002
{
1000
REACTOR
1002
}
1001
GENIUS_GENOBJ-N-CHA_13
1002
{
1000
OWNER
1000
GEN
1002
}
  0
LINE
  5
1B317
  8
AM_0
 10
402.63293215578977
 20
784.50875690107193
 30
0.0
 11
397.63293215578977
 21
779.50875690107193
 31
0.0
1001
GENIUS_GENFIL_13
1070
     0
1040
5.0
1040
5.0
1040
20.0
1040
0.0
1002
{
1002
}
1001
GENIUS_GENODEF_13
1002
{
1000
HIER
1070
     0
1002
}
1002
{
1000
MANEDIT
1070
     0
1002
}
1002
{
1000
NOSEL
1070
     0
1002
}
1002
{
1000
BEHIND
1070
     0
1002
}
1002
{
1000
OTHER
1070
     0
1002
}
1002
{
1000
REACTOR
1002
}
1001
GENIUS_GENOBJ-N-CHA_13
1002
{
1000
OWNER
1000
GEN
1002
}
  0
INSERT
  5
1B318
  8
AM_0
  6
CONTINUOUS
  2
*U11
 10
0.0
 20
0.0
 30
0.0
1001
GENIUS_GENODEF_13
1002
{
1000
HIER
1070
     0
1002
}
1002
{
1000
MANEDIT
1070
     0
1002
}
1002
{
1000
NOSEL
1070
     0
1002
}
1002
{
1000
BEHIND
1070
     0
1002
}
1002
{
1000
OTHER
1070
     0
1002
}
1002
{
1000
REACTOR
1002
}
1001
GENIUS_GENOBJ-N-HTC_13
1002
{
1000
OWNER
1000
GEN
1002
}
1001
GENIUS_GENHATCH_13
1002
{
1000
DATA
1040
0.0
1042
-0.9999999999999998
1000
SOLID
1070
     0
1011
401.46452972111121
1021
0.0
1031
0.0
1021
781.19025168050462
1031
0.0
1002
}
1002
{
1000
UCS
1010
0.0
1020
0.0
1030
0.0
1010
1.0
1020
0.0
1030
0.0
1010
0.0
1020
1.0
1030
0.0
1002
}
1001
ACAD
1002
{
1000
R14_HATCH_DATA
1000
1B318
1011
1.0
1021
0.0
1031
0.0
1021
0.0
1031
0.0
1011
0.0
1021
0.0
1031
0.0
1021
1.0
1031
0.0
1011
0.0
1021
0.0
1031
0.0
1021
0.0
1031
1.0
1040
0.0
1010
0.0
1020
0.0
1030
1.0
1000
SOLID
1070
     1
1070
     0
1071
        2
1071
        1
1071
        3
1070
     1
1040
397.63293215578977
1040
779.50875690107193
1040
402.63293215578977
1040
784.50875690107193
1070
     1
1040
402.63293215578977
1040
784.50875690107193
1040
402.63293215578977
1040
779.50875690107193
1070
     1
1040
402.63293215578977
1040
779.50875690107193
1040
397.63293215578977
1040
779.50875690107193
1071
        0
1071
       33
1071
        1
1070
     1
1040
324.63294389260761
1040
779.50875690107193
1040
558.63292041897205
1040
779.50875690107193
1071
        0
1070
     0
1070
     1
1071
        1
1040
598.32879113829995
1040
682.58250296457015
1040
0.0
1002
}
  0
LINE
  5
1B319
  8
AM_0
 10
402.63293215578977
 20
779.50875690107193
 30
0.0
 11
402.63293215578972
 21
817.50875690107182
 31
0.0
  0
LINE
  5
1B31A
  8
AM_0
 10
408.63293215578972
 20
779.50875690107193
 30
0.0
 11
408.63293215578972
 21
817.50875690107182
 31
0.0
  0
LINE
  5
1B31D
  8
ﾁｭｳｼﾝｾﾝ1
 10
512.13293258492922
 20
793.5086981785139
 30
0.0
 11
512.13293258492922
 21
823.5086981785139
 31
0.0
  0
LINE
  5
1B31E
  8
ﾁｭｳｼﾝｾﾝ1
 10
497.13293258492928
 20
808.50869817851367
 30
0.0
 11
527.13293258492922
 21
808.50869817851367
 31
0.0
  0
CIRCLE
  5
1B31F
  8
AM_0
 10
512.13293258492922
 20
808.50869817851367
 30
0.0
 40
9.5
  0
CIRCLE
  5
1B320
  8
AM_0
 10
367.13293172665033
 20
808.50869817851367
 30
0.0
 40
9.5
  0
LINE
  5
1B321
  8
AM_5
 10
406.63294642120258
 20
779.50875690107193
 30
0.0
 11
406.63294642120258
 21
773.50875690107193
 31
0.0
  0
LINE
  5
1B322
  8
AM_5
 10
382.65378880463879
 20
779.50875690107193
 30
0.0
 11
382.65378880463879
 21
773.50875690107193
 31
0.0
  0
LINE
  5
1B325
  8
AM_0
 10
408.63293215578972
 20
787.50875690107193
 30
0.0
 11
402.63293215578977
 21
787.50875690107193
 31
0.0
  0
LINE
  5
1B326
  8
AM_0
 10
408.63293215578972
 20
817.50875690107182
 30
0.0
 11
402.6329321557896
 21
817.50875690107182
 31
0.0
  0
LINE
  5
1B327
  8
ﾁｭｳｼﾝｾﾝ1
 10
367.13293172665033
 20
793.5086981785139
 30
0.0
 11
367.13293172665033
 21
823.5086981785139
 31
0.0
  0
LINE
  5
1B328
  8
ﾁｭｳｼﾝｾﾝ1
 10
352.13293172665033
 20
808.50869817851367
 30
0.0
 11
382.13293172665033
 21
808.50869817851367
 31
0.0
  0
LINE
  5
1B329
  8
AM_0N
 10
528.23292041355489
 20
798.00875690107193
 30
0.0
 11
549.03292041355473
 21
798.00875690107193
 31
0.0
  0
LINE
  5
1B32A
  8
AM_0N
 10
553.63292041355464
 20
782.00875690107216
 30
0.0
 11
523.63292041355476
 21
782.00875690107216
 31
0.0
  0
LINE
  5
1B32B
  8
AM_0N
 10
526.63292041355464
 20
782.00875690107216
 30
0.0
 11
550.63292041355464
 21
782.00875690107216
 31
0.0
  0
ARC
  5
1B32C
  8
AM_0N
 10
549.03292041355485
 20
796.40875690107225
 30
0.0
 40
1.6000000000000001
 50
0.0
 51
90.0
  0
LINE
  5
1B32D
  8
AM_0N
 10
550.63292041355464
 20
796.40875690107225
 30
0.0
 11
550.63292041355464
 21
782.00875690107216
 31
0.0
  0
LINE
  5
1B32E
  8
AM_0N
 10
553.63292041355464
 20
779.50875690107182
 30
0.0
 11
553.63292041355464
 21
782.00875690107216
 31
0.0
  0
ARC
  5
1B32F
  8
AM_0N
 10
528.23292041355489
 20
796.40875690107225
 30
0.0
 40
1.6000000000000001
 50
90.0
 51
180.0
  0
LINE
  5
1B330
  8
AM_0N
 10
526.63292041355464
 20
796.40875690107225
 30
0.0
 11
526.63292041355464
 21
782.00875690107216
 31
0.0
  0
LINE
  5
1B331
  8
AM_0N
 10
523.63292041355476
 20
782.00875690107216
 30
0.0
 11
523.63292041355476
 21
779.50875690107193
 31
0.0
  0
LINE
  5
1B332
  8
AM_0N
 10
330.23294497087397
 20
798.00875690107193
 30
0.0
 11
351.03294497087398
 21
798.00875690107193
 31
0.0
  0
LINE
  5
1B333
  8
AM_0N
 10
355.63294497087401
 20
782.00875690107216
 30
0.0
 11
325.63294497087401
 21
782.00875690107216
 31
0.0
  0
LINE
  5
1B334
  8
AM_0N
 10
328.63294497087412
 20
782.00875690107216
 30
0.0
 11
352.63294497087401
 21
782.00875690107216
 31
0.0
  0
ARC
  5
1B335
  8
AM_0N
 10
351.03294497087398
 20
796.40875690107225
 30
0.0
 40
1.6000000000000001
 50
0.0
 51
90.0
  0
LINE
  5
1B336
  8
AM_0N
 10
352.63294497087401
 20
796.40875690107225
 30
0.0
 11
352.63294497087401
 21
782.00875690107216
 31
0.0
  0
LINE
  5
1B337
  8
AM_0N
 10
355.63294497087401
 20
779.50875690107182
 30
0.0
 11
355.63294497087401
 21
782.00875690107216
 31
0.0
  0
ARC
  5
1B338
  8
AM_0N
 10
330.2329449708742
 20
796.40875690107225
 30
0.0
 40
1.6000000000000001
 50
90.0
 51
180.0
  0
LINE
  5
1B339
  8
AM_0N
 10
328.63294497087412
 20
796.40875690107225
 30
0.0
 11
328.63294497087412
 21
782.00875690107216
 31
0.0
  0
LINE
  5
1B33A
  8
AM_0N
 10
325.63294497087401
 20
782.00875690107216
 30
0.0
 11
325.63294497087401
 21
779.50875690107193
 31
0.0
  0
ARC
  5
1B33B
  8
AM_0N
 10
538.63292041355476
 20
634.10565039196558
 30
0.0
 40
22.897571994543771
 50
252.38303115960881
 51
287.61696884039111
  0
LINE
  5
1B33C
  8
AM_0N
 10
526.63292041355464
 20
611.20807839742156
 30
0.0
 11
550.63292041355464
 21
611.20807839742156
 31
0.0
  0
LINE
  5
1B33D
  8
AM_0N
 10
523.63292041355476
 20
625.00807839742174
 30
0.0
 11
553.63292041355464
 21
625.00807839742174
 31
0.0
  0
LINE
  5
1B33E
  8
AM_0N
 10
552.49292041355477
 20
612.28194989811448
 30
0.0
 11
552.49292041355477
 21
624.93420689672905
 31
0.0
  0
LINE
  5
1B33F
  8
AM_0N
 10
545.56292041355482
 20
612.28194989811448
 30
0.0
 11
545.56292041355482
 21
624.93420689672905
 31
0.0
  0
ARC
  5
1B340
  8
AM_0N
 10
549.02792041355485
 20
617.33517320881754
 30
0.0
 40
6.1270948113957182
 50
235.56153059526639
 51
295.56153059526548
  0
LINE
  5
1B341
  8
AM_0N
 10
552.49292041355477
 20
612.28194989811448
 30
0.0
 11
550.63292041355464
 21
611.20807839742156
 31
0.0
  0
LINE
  5
1B342
  8
AM_0N
 10
553.63292041355464
 20
625.00807839742174
 30
0.0
 11
553.63292041355464
 21
627.50807839742174
 31
0.0
  0
LINE
  5
1B343
  8
AM_0N
 10
524.77292041355474
 20
612.28194989811448
 30
0.0
 11
524.77292041355474
 21
624.93420689672905
 31
0.0
  0
LINE
  5
1B344
  8
AM_0N
 10
531.70292041355469
 20
612.28194989811448
 30
0.0
 11
531.70292041355469
 21
624.93420689672905
 31
0.0
  0
LINE
  5
1B345
  8
AM_0N
 10
524.77292041355474
 20
612.28194989811448
 30
0.0
 11
526.63292041355464
 21
611.20807839742156
 31
0.0
  0
ARC
  5
1B346
  8
AM_0N
 10
528.23792041355489
 20
617.33517320881754
 30
0.0
 40
6.1270948113957182
 50
244.43846940473449
 51
304.43846940473372
  0
LINE
  5
1B347
  8
AM_0N
 10
523.63292041355476
 20
627.50807839742174
 30
0.0
 11
523.63292041355476
 21
625.00807839742174
 31
0.0
  0
ARC
  5
1B348
  8
AM_0N
 10
340.63294497087412
 20
634.10565039196558
 30
0.0
 40
22.897571994543771
 50
252.38303115960881
 51
287.61696884039111
  0
LINE
  5
1B349
  8
AM_0N
 10
328.63294497087412
 20
611.20807839742156
 30
0.0
 11
352.63294497087401
 21
611.20807839742156
 31
0.0
  0
LINE
  5
1B34A
  8
AM_0N
 10
325.63294497087401
 20
625.00807839742174
 30
0.0
 11
355.63294497087412
 21
625.00807839742174
 31
0.0
  0
LINE
  5
1B34B
  8
AM_0N
 10
354.49294497087408
 20
612.28194989811448
 30
0.0
 11
354.49294497087408
 21
624.93420689672905
 31
0.0
  0
LINE
  5
1B34C
  8
AM_0N
 10
347.56294497087401
 20
612.28194989811448
 30
0.0
 11
347.56294497087401
 21
624.93420689672905
 31
0.0
  0
ARC
  5
1B34D
  8
AM_0N
 10
351.0279449708741
 20
617.33517320881754
 30
0.0
 40
6.1270948113957182
 50
235.56153059526639
 51
295.56153059526548
  0
LINE
  5
1B34E
  8
AM_0N
 10
354.49294497087408
 20
612.28194989811448
 30
0.0
 11
352.63294497087401
 21
611.20807839742156
 31
0.0
  0
LINE
  5
1B34F
  8
AM_0N
 10
355.63294497087389
 20
625.00807839742174
 30
0.0
 11
355.63294497087412
 21
627.50807839742174
 31
0.0
  0
LINE
  5
1B350
  8
AM_0N
 10
326.77294497087422
 20
612.28194989811448
 30
0.0
 11
326.77294497087422
 21
624.93420689672905
 31
0.0
  0
LINE
  5
1B351
  8
AM_0N
 10
333.702944970874
 20
612.28194989811448
 30
0.0
 11
333.702944970874
 21
624.93420689672905
 31
0.0
  0
LINE
  5
1B352
  8
AM_0N
 10
326.77294497087422
 20
612.28194989811448
 30
0.0
 11
328.63294497087412
 21
611.20807839742156
 31
0.0
  0
ARC
  5
1B353
  8
AM_0N
 10
330.23794497087408
 20
617.33517320881754
 30
0.0
 40
6.1270948113957182
 50
244.43846940473449
 51
304.43846940473372
  0
LINE
  5
1B354
  8
AM_0N
 10
325.63294497087401
 20
627.50807839742174
 30
0.0
 11
325.63294497087401
 21
625.00807839742174
 31
0.0
  0
LINE
  5
1B356
  8
AM_0
 10
505.13356885897218
 20
623.50807621858962
 30
0.0
 11
440.1322669217825
 21
623.50807621858928
 31
0.0
  0
LINE
  5
1B357
  8
AM_0
 10
505.13356885897218
 20
628.50807636910065
 30
0.0
 11
505.13356885897218
 21
623.50807621858962
 31
0.0
  0
LINE
  5
1B358
  8
AM_0
 10
440.1322669217825
 20
628.50807636910065
 30
0.0
 11
440.1322669217825
 21
623.50807621858928
 31
0.0
  0
LINE
  5
1B359
  8
AM_0
 10
332.63294389260761
 20
581.00814470140915
 30
0.0
 11
451.63291787357758
 21
581.00814470140915
 31
0.0
  0
ARC
  5
1B5E8
  8
0
 10
841.53955000562269
 20
462.06751960303131
 30
0.0
 40
17.0
 50
18.249745503275701
 51
161.7502544967243
  0
LINE
  5
1B5E9
  8
ﾁｭｳｼﾝｾﾝ
 10
821.53955000562257
 20
462.06751960303131
 30
0.0
 11
861.53955000562269
 21
462.06751960303131
 31
0.0
1001
GENIUS_GENODEF_13
1002
{
1000
HIER
1070
     0
1002
}
1002
{
1000
MANEDIT
1070
     0
1002
}
1002
{
1000
NOSEL
1070
     0
1002
}
1002
{
1000
BEHIND
1070
     0
1002
}
1002
{
1000
REACTOR
1002
}
1001
GENIUS_GENOBJ-N-CEN_13
1002
{
1000
OWNER
1000
GEN
1002
}
  0
CIRCLE
  5
1B5EA
  8
0
 10
841.53955000562269
 20
462.06751960303131
 30
0.0
 40
10.0
  0
ARC
  5
1B5EB
  8
0
 10
730.42458949259901
 20
498.70719141091172
 30
0.0
 40
100.0
 50
318.12667213269242
 51
341.75025449672432
1001
GENIUS_GENODEF_13
1002
{
1000
HIER
1070
     0
1002
}
1002
{
1000
MANEDIT
1070
     0
1002
}
1002
{
1000
NOSEL
1070
     0
1002
}
1002
{
1000
BEHIND
1070
     0
1002
}
1002
{
1000
OTHER
1070
     0
1002
}
1002
{
1000
REACTOR
1002
}
1001
GENIUS_GENOBJ-N-FIL_13
1002
{
1000
OWNER
1000
GEN
1002
}
  0
ARC
  5
1B5EC
  8
0
 10
952.65451051864636
 20
498.70719141091172
 30
0.0
 40
100.0
 50
198.24974550327559
 51
222.881850192103
1001
GENIUS_GENOBJ-N-FIL_13
1002
{
1000
OWNER
1000
GEN
1002
}
1001
GENIUS_GENODEF_13
1002
{
1000
HIER
1070
     0
1002
}
1002
{
1000
MANEDIT
1070
     0
1002
}
1002
{
1000
NOSEL
1070
     0
1002
}
1002
{
1000
BEHIND
1070
     0
1002
}
1002
{
1000
OTHER
1070
     0
1002
}
1002
{
1000
REACTOR
1002
}
  0
LINE
  5
1B63B
  8
AM_0
 10
293.43294996448139
 20
390.5672562679527
 30
0.0
 11
293.43294996448139
 21
479.06725626795259
 31
0.0
  0
LINE
  5
1B64A
  8
AM_0
 10
296.63294996448121
 20
390.5672562679527
 30
0.0
 11
293.43294996448139
 21
390.5672562679527
 31
0.0
  0
LINE
  5
1B663
  8
ｶｸﾚｾﾝ2
 10
296.63294996448121
 20
452.06725626795281
 30
0.0
 11
293.43294996448139
 21
452.06725626795281
 31
0.0
  0
LINE
  5
1B665
  8
AM_0
 10
296.63294996448121
 20
479.06725626795259
 30
0.0
 11
293.43294996448139
 21
479.06725626795259
 31
0.0
  0
LINE
  5
1B666
  8
ｶｸﾚｾﾝ2
 10
296.63294996448121
 20
472.06725626795259
 30
0.0
 11
293.43294996448139
 21
472.06725626795259
 31
0.0
  0
LINE
  5
1B77F
  8
0
 10
674.53951739669947
 20
317.06824567107742
 30
0.0
 11
744.53951739602587
 21
317.06793859789627
 31
0.0
  0
LINE
  5
1B780
  8
0
 10
674.5397016406082
 20
359.06824567067338
 30
0.0
 11
744.53970163993472
 21
359.06793859896669
 31
0.0
  0
LINE
  5
1B781
  8
0
 10
674.53971480088751
 20
362.0682456706445
 30
0.0
 11
730.53971480034863
 21
362.06800001209939
 31
0.0
  0
LINE
  5
1B782
  8
AM_0
 10
744.53949984898668
 20
313.06793859793453
 30
0.0
 11
761.53947120801865
 21
305.5672130544778
 31
0.0
  0
LINE
  5
1B783
  8
AM_0
 10
744.53971918697346
 20
363.06793859745352
 30
0.0
 11
744.53949984898668
 21
313.06793859793453
 31
0.0
  0
LINE
  5
1B784
  8
AM_0
 10
744.53971918697346
 20
363.06793859745352
 30
0.0
 11
761.53973212354526
 21
370.56851499114828
 31
0.0
  0
LINE
  5
1B785
  8
0
 10
730.53971480034863
 20
362.06800001209939
 30
0.0
 11
730.53970164006944
 21
359.06800001330782
 31
0.0
  0
LINE
  5
1B786
  8
AM_0
 10
674.53951738682065
 20
317.06824567107782
 30
0.0
 11
674.53971481217684
 21
362.06824567064439
 31
0.0
  0
LINE
  5
1B787
  8
0
 10
1008.538960084567
 20
317.06758925205588
 30
0.0
 11
938.53896008457457
 21
317.06755732503149
 31
0.0
  0
LINE
  5
1B788
  8
0
 10
1008.538940928352
 20
359.06758925205162
 30
0.0
 11
938.53894092835969
 21
359.06755732650163
 31
0.0
  0
LINE
  5
1B789
  8
0
 10
1008.5389395600509
 20
362.06758925205128
 30
0.0
 11
952.53893956005709
 21
362.0675637104315
 31
0.0
  0
LINE
  5
1B78A
  8
AM_0
 10
938.53896190897603
 20
313.0675573250316
 30
0.0
 11
921.53896106727848
 21
305.56689860272968
 31
0.0
  0
LINE
  5
1B78B
  8
AM_0
 10
938.53893910395823
 20
363.06755732502648
 30
0.0
 11
938.53896190897603
 21
313.0675573250316
 31
0.0
  0
LINE
  5
1B78C
  8
AM_0
 10
938.53893910395823
 20
363.06755732502648
 30
0.0
 11
921.53895564972902
 21
370.56820053992368
 31
0.0
  0
LINE
  5
1B78D
  8
0
 10
952.53893956005709
 20
362.0675637104315
 30
0.0
 11
952.53894092835833
 21
359.06756371161151
 31
0.0
  0
LINE
  5
1B78E
  8
AM_0
 10
1008.538960094446
 20
317.06758925205622
 30
0.0
 11
1008.538939548762
 21
362.06758925205122
 31
0.0
  0
ARC
  5
1B79F
  8
AM_0
 10
472.6329178903768
 20
338.06751308344519
 30
0.0
 40
21.0
 50
106.6015495990234
 51
73.398450400976557
  0
POLYLINE
  5
1B7A0
  8
AM_0
 10
505.13291886870229
 20
338.06751290905316
 30
0.0
 66
     1
 70
     8
  0
VERTEX
  8
AM_0
  5
1C8B3
 10
505.133
 20
338.068
 30
0.000000
  70
    32
  0
VERTEX
  8
AM_0
  5
1C8B4
 10
505.094
 20
336.473
 30
0.000000
  70
    32
  0
VERTEX
  8
AM_0
  5
1C8B5
 10
504.976
 20
334.882
 30
0.000000
  70
    32
  0
VERTEX
  8
AM_0
  5
1C8B6
 10
504.781
 20
333.299
 30
0.000000
  70
    32
  0
VERTEX
  8
AM_0
  5
1C8B7
 10
504.508
 20
331.727
 30
0.000000
  70
    32
  0
VERTEX
  8
AM_0
  5
1C8B8
 10
504.159
 20
330.170
 30
0.000000
  70
    32
  0
VERTEX
  8
AM_0
  5
1C8B9
 10
503.733
 20
328.633
 30
0.000000
  70
    32
  0
VERTEX
  8
AM_0
  5
1C8BA
 10
503.233
 20
327.118
 30
0.000000
  70
    32
  0
VERTEX
  8
AM_0
  5
1C8BB
 10
502.659
 20
325.630
 30
0.000000
  70
    32
  0
VERTEX
  8
AM_0
  5
1C8BC
 10
502.013
 20
324.172
 30
0.000000
  70
    32
  0
VERTEX
  8
AM_0
  5
1C8BD
 10
501.295
 20
322.747
 30
0.000000
  70
    32
  0
VERTEX
  8
AM_0
  5
1C8BE
 10
500.509
 20
321.359
 30
0.000000
  70
    32
  0
VERTEX
  8
AM_0
  5
1C8BF
 10
499.656
 20
320.011
 30
0.000000
  70
    32
  0
VERTEX
  8
AM_0
  5
1C8C0
 10
498.737
 20
318.707
 30
0.000000
  70
    32
  0
VERTEX
  8
AM_0
  5
1C8C1
 10
497.756
 20
317.449
 30
0.000000
  70
    32
  0
VERTEX
  8
AM_0
  5
1C8C2
 10
496.714
 20
316.241
 30
0.000000
  70
    32
  0
VERTEX
  8
AM_0
  5
1C8C3
 10
495.614
 20
315.086
 30
0.000000
  70
    32
  0
VERTEX
  8
AM_0
  5
1C8C4
 10
494.459
 20
313.986
 30
0.000000
  70
    32
  0
VERTEX
  8
AM_0
  5
1C8C5
 10
493.251
 20
312.944
 30
0.000000
  70
    32
  0
VERTEX
  8
AM_0
  5
1C8C6
 10
491.993
 20
311.963
 30
0.000000
  70
    32
  0
VERTEX
  8
AM_0
  5
1C8C7
 10
490.689
 20
311.044
 30
0.000000
  70
    32
  0
VERTEX
  8
AM_0
  5
1C8C8
 10
489.341
 20
310.191
 30
0.000000
  70
    32
  0
VERTEX
  8
AM_0
  5
1C8C9
 10
487.953
 20
309.404
 30
0.000000
  70
    32
  0
VERTEX
  8
AM_0
  5
1C8CA
 10
486.528
 20
308.687
 30
0.000000
  70
    32
  0
VERTEX
  8
AM_0
  5
1C8CB
 10
485.070
 20
308.041
 30
0.000000
  70
    32
  0
VERTEX
  8
AM_0
  5
1C8CC
 10
483.582
 20
307.467
 30
0.000000
  70
    32
  0
VERTEX
  8
AM_0
  5
1C8CD
 10
482.067
 20
306.966
 30
0.000000
  70
    32
  0
VERTEX
  8
AM_0
  5
1C8CE
 10
480.530
 20
306.541
 30
0.000000
  70
    32
  0
VERTEX
  8
AM_0
  5
1C8CF
 10
478.973
 20
306.191
 30
0.000000
  70
    32
  0
VERTEX
  8
AM_0
  5
1C8D0
 10
477.402
 20
305.919
 30
0.000000
  70
    32
  0
VERTEX
  8
AM_0
  5
1C8D1
 10
475.818
 20
305.723
 30
0.000000
  70
    32
  0
VERTEX
  8
AM_0
  5
1C8D2
 10
474.228
 20
305.606
 30
0.000000
  70
    32
  0
VERTEX
  8
AM_0
  5
1C8D3
 10
472.633
 20
305.567
 30
0.000000
  70
    32
  0
VERTEX
  8
AM_0
  5
1C8D4
 10
471.038
 20
305.606
 30
0.000000
  70
    32
  0
VERTEX
  8
AM_0
  5
1C8D5
 10
469.447
 20
305.723
 30
0.000000
  70
    32
  0
VERTEX
  8
AM_0
  5
1C8D6
 10
467.864
 20
305.919
 30
0.000000
  70
    32
  0
VERTEX
  8
AM_0
  5
1C8D7
 10
466.292
 20
306.191
 30
0.000000
  70
    32
  0
VERTEX
  8
AM_0
  5
1C8D8
 10
464.736
 20
306.541
 30
0.000000
  70
    32
  0
VERTEX
  8
AM_0
  5
1C8D9
 10
463.199
 20
306.966
 30
0.000000
  70
    32
  0
VERTEX
  8
AM_0
  5
1C8DA
 10
461.684
 20
307.467
 30
0.000000
  70
    32
  0
VERTEX
  8
AM_0
  5
1C8DB
 10
460.196
 20
308.041
 30
0.000000
  70
    32
  0
VERTEX
  8
AM_0
  5
1C8DC
 10
458.737
 20
308.687
 30
0.000000
  70
    32
  0
VERTEX
  8
AM_0
  5
1C8DD
 10
457.313
 20
309.404
 30
0.000000
  70
    32
  0
VERTEX
  8
AM_0
  5
1C8DE
 10
455.925
 20
310.191
 30
0.000000
  70
    32
  0
VERTEX
  8
AM_0
  5
1C8DF
 10
454.577
 20
311.044
 30
0.000000
  70
    32
  0
VERTEX
  8
AM_0
  5
1C8E0
 10
453.273
 20
311.963
 30
0.000000
  70
    32
  0
VERTEX
  8
AM_0
  5
1C8E1
 10
452.015
 20
312.944
 30
0.000000
  70
    32
  0
VERTEX
  8
AM_0
  5
1C8E2
 10
450.807
 20
313.986
 30
0.000000
  70
    32
  0
VERTEX
  8
AM_0
  5
1C8E3
 10
449.652
 20
315.086
 30
0.000000
  70
    32
  0
VERTEX
  8
AM_0
  5
1C8E4
 10
448.552
 20
316.241
 30
0.000000
  70
    32
  0
VERTEX
  8
AM_0
  5
1C8E5
 10
447.510
 20
317.449
 30
0.000000
  70
    32
  0
VERTEX
  8
AM_0
  5
1C8E6
 10
446.529
 20
318.707
 30
0.000000
  70
    32
  0
VERTEX
  8
AM_0
  5
1C8E7
 10
445.610
 20
320.011
 30
0.000000
  70
    32
  0
VERTEX
  8
AM_0
  5
1C8E8
 10
444.757
 20
321.359
 30
0.000000
  70
    32
  0
VERTEX
  8
AM_0
  5
1C8E9
 10
443.970
 20
322.747
 30
0.000000
  70
    32
  0
VERTEX
  8
AM_0
  5
1C8EA
 10
443.253
 20
324.172
 30
0.000000
  70
    32
  0
VERTEX
  8
AM_0
  5
1C8EB
 10
442.607
 20
325.630
 30
0.000000
  70
    32
  0
VERTEX
  8
AM_0
  5
1C8EC
 10
442.033
 20
327.118
 30
0.000000
  70
    32
  0
VERTEX
  8
AM_0
  5
1C8ED
 10
441.532
 20
328.633
 30
0.000000
  70
    32
  0
VERTEX
  8
AM_0
  5
1C8EE
 10
441.107
 20
330.170
 30
0.000000
  70
    32
  0
VERTEX
  8
AM_0
  5
1C8EF
 10
440.757
 20
331.727
 30
0.000000
  70
    32
  0
VERTEX
  8
AM_0
  5
1C8F0
 10
440.485
 20
333.299
 30
0.000000
  70
    32
  0
VERTEX
  8
AM_0
  5
1C8F1
 10
440.289
 20
334.882
 30
0.000000
  70
    32
  0
VERTEX
  8
AM_0
  5
1C8F2
 10
440.172
 20
336.473
 30
0.000000
  70
    32
  0
VERTEX
  8
AM_0
  5
1C8F3
 10
440.133
 20
338.068
 30
0.000000
  70
    32
  0
VERTEX
  8
AM_0
  5
1C8F4
 10
440.172
 20
339.662
 30
0.000000
  70
    32
  0
VERTEX
  8
AM_0
  5
1C8F5
 10
440.289
 20
341.253
 30
0.000000
  70
    32
  0
VERTEX
  8
AM_0
  5
1C8F6
 10
440.485
 20
342.836
 30
0.000000
  70
    32
  0
VERTEX
  8
AM_0
  5
1C8F7
 10
440.757
 20
344.408
 30
0.000000
  70
    32
  0
VERTEX
  8
AM_0
  5
1C8F8
 10
441.107
 20
345.965
 30
0.000000
  70
    32
  0
VERTEX
  8
AM_0
  5
1C8F9
 10
441.532
 20
347.502
 30
0.000000
  70
    32
  0
VERTEX
  8
AM_0
  5
1C8FA
 10
442.033
 20
349.017
 30
0.000000
  70
    32
  0
VERTEX
  8
AM_0
  5
1C8FB
 10
442.607
 20
350.505
 30
0.000000
  70
    32
  0
VERTEX
  8
AM_0
  5
1C8FC
 10
443.253
 20
351.963
 30
0.000000
  70
    32
  0
VERTEX
  8
AM_0
  5
1C8FD
 10
443.970
 20
353.388
 30
0.000000
  70
    32
  0
VERTEX
  8
AM_0
  5
1C8FE
 10
444.757
 20
354.776
 30
0.000000
  70
    32
  0
VERTEX
  8
AM_0
  5
1C8FF
 10
445.610
 20
356.124
 30
0.000000
  70
    32
  0
VERTEX
  8
AM_0
  5
1C900
 10
446.529
 20
357.428
 30
0.000000
  70
    32
  0
VERTEX
  8
AM_0
  5
1C901
 10
447.510
 20
358.686
 30
0.000000
  70
    32
  0
VERTEX
  8
AM_0
  5
1C902
 10
448.552
 20
359.894
 30
0.000000
  70
    32
  0
VERTEX
  8
AM_0
  5
1C903
 10
449.652
 20
361.049
 30
0.000000
  70
    32
  0
VERTEX
  8
AM_0
  5
1C904
 10
450.807
 20
362.149
 30
0.000000
  70
    32
  0
VERTEX
  8
AM_0
  5
1C905
 10
452.015
 20
363.191
 30
0.000000
  70
    32
  0
VERTEX
  8
AM_0
  5
1C906
 10
453.273
 20
364.172
 30
0.000000
  70
    32
  0
VERTEX
  8
AM_0
  5
1C907
 10
454.577
 20
365.091
 30
0.000000
  70
    32
  0
VERTEX
  8
AM_0
  5
1C908
 10
455.925
 20
365.944
 30
0.000000
  70
    32
  0
VERTEX
  8
AM_0
  5
1C909
 10
457.313
 20
366.731
 30
0.000000
  70
    32
  0
VERTEX
  8
AM_0
  5
1C90A
 10
458.737
 20
367.448
 30
0.000000
  70
    32
  0
VERTEX
  8
AM_0
  5
1C90B
 10
460.196
 20
368.094
 30
0.000000
  70
    32
  0
VERTEX
  8
AM_0
  5
1C90C
 10
461.684
 20
368.668
 30
0.000000
  70
    32
  0
VERTEX
  8
AM_0
  5
1C90D
 10
463.199
 20
369.169
 30
0.000000
  70
    32
  0
VERTEX
  8
AM_0
  5
1C90E
 10
464.736
 20
369.594
 30
0.000000
  70
    32
  0
VERTEX
  8
AM_0
  5
1C90F
 10
466.292
 20
369.944
 30
0.000000
  70
    32
  0
VERTEX
  8
AM_0
  5
1C910
 10
467.864
 20
370.216
 30
0.000000
  70
    32
  0
VERTEX
  8
AM_0
  5
1C911
 10
469.447
 20
370.412
 30
0.000000
  70
    32
  0
VERTEX
  8
AM_0
  5
1C912
 10
471.038
 20
370.529
 30
0.000000
  70
    32
  0
VERTEX
  8
AM_0
  5
1C913
 10
472.633
 20
370.568
 30
0.000000
  70
    32
  0
VERTEX
  8
AM_0
  5
1C914
 10
474.228
 20
370.529
 30
0.000000
  70
    32
  0
VERTEX
  8
AM_0
  5
1C915
 10
475.818
 20
370.412
 30
0.000000
  70
    32
  0
VERTEX
  8
AM_0
  5
1C916
 10
477.402
 20
370.216
 30
0.000000
  70
    32
  0
VERTEX
  8
AM_0
  5
1C917
 10
478.973
 20
369.944
 30
0.000000
  70
    32
  0
VERTEX
  8
AM_0
  5
1C918
 10
480.530
 20
369.594
 30
0.000000
  70
    32
  0
VERTEX
  8
AM_0
  5
1C919
 10
482.067
 20
369.169
 30
0.000000
  70
    32
  0
VERTEX
  8
AM_0
  5
1C91A
 10
483.582
 20
368.668
 30
0.000000
  70
    32
  0
VERTEX
  8
AM_0
  5
1C91B
 10
485.070
 20
368.094
 30
0.000000
  70
    32
  0
VERTEX
  8
AM_0
  5
1C91C
 10
486.528
 20
367.448
 30
0.000000
  70
    32
  0
VERTEX
  8
AM_0
  5
1C91D
 10
487.953
 20
366.731
 30
0.000000
  70
    32
  0
VERTEX
  8
AM_0
  5
1C91E
 10
489.341
 20
365.944
 30
0.000000
  70
    32
  0
VERTEX
  8
AM_0
  5
1C91F
 10
490.689
 20
365.091
 30
0.000000
  70
    32
  0
VERTEX
  8
AM_0
  5
1C920
 10
491.993
 20
364.172
 30
0.000000
  70
    32
  0
VERTEX
  8
AM_0
  5
1C921
 10
493.251
 20
363.191
 30
0.000000
  70
    32
  0
VERTEX
  8
AM_0
  5
1C922
 10
494.459
 20
362.149
 30
0.000000
  70
    32
  0
VERTEX
  8
AM_0
  5
1C923
 10
495.614
 20
361.049
 30
0.000000
  70
    32
  0
VERTEX
  8
AM_0
  5
1C924
 10
496.714
 20
359.894
 30
0.000000
  70
    32
  0
VERTEX
  8
AM_0
  5
1C925
 10
497.756
 20
358.686
 30
0.000000
  70
    32
  0
VERTEX
  8
AM_0
  5
1C926
 10
498.737
 20
357.428
 30
0.000000
  70
    32
  0
VERTEX
  8
AM_0
  5
1C927
 10
499.656
 20
356.124
 30
0.000000
  70
    32
  0
VERTEX
  8
AM_0
  5
1C928
 10
500.509
 20
354.776
 30
0.000000
  70
    32
  0
VERTEX
  8
AM_0
  5
1C929
 10
501.295
 20
353.388
 30
0.000000
  70
    32
  0
VERTEX
  8
AM_0
  5
1C92A
 10
502.013
 20
351.963
 30
0.000000
  70
    32
  0
VERTEX
  8
AM_0
  5
1C92B
 10
502.659
 20
350.505
 30
0.000000
  70
    32
  0
VERTEX
  8
AM_0
  5
1C92C
 10
503.233
 20
349.017
 30
0.000000
  70
    32
  0
VERTEX
  8
AM_0
  5
1C92D
 10
503.733
 20
347.502
 30
0.000000
  70
    32
  0
VERTEX
  8
AM_0
  5
1C92E
 10
504.159
 20
345.965
 30
0.000000
  70
    32
  0
VERTEX
  8
AM_0
  5
1C92F
 10
504.508
 20
344.408
 30
0.000000
  70
    32
  0
VERTEX
  8
AM_0
  5
1C930
 10
504.781
 20
342.836
 30
0.000000
  70
    32
  0
VERTEX
  8
AM_0
  5
1C931
 10
504.976
 20
341.253
 30
0.000000
  70
    32
  0
VERTEX
  8
AM_0
  5
1C932
 10
505.094
 20
339.662
 30
0.000000
  70
    32
  0
VERTEX
  8
AM_0
  5
1C933
 10
505.133
 20
338.068
 30
0.000000
  70
    32
  0
SEQEND
  8
AM_0
  5
1C934
  0
CIRCLE
  5
1B7A1
  8
ｽﾝﾎﾟｳｾﾝ
 10
472.6329178903768
 20
338.06751308344519
 30
0.0
 40
5.0
  0
LINE
  5
1B7A2
  8
AM_0
 10
466.63291789037709
 20
362.06751308344519
 30
0.0
 11
478.63291789037709
 21
362.06751308344519
 31
0.0
  0
LINE
  5
1B7A3
  8
AM_0
 10
478.63291789037709
 20
354.06751308344519
 30
0.0
 11
466.63291789037709
 21
354.06751308344519
 31
0.0
  0
LINE
  5
1B7A4
  8
AM_0
 10
466.63291789037709
 20
354.06751308344519
 30
0.0
 11
466.63291789037709
 21
362.06751308344519
 31
0.0
  0
LINE
  5
1B7A5
  8
AM_0
 10
478.63291789037709
 20
362.06751308344519
 30
0.0
 11
478.63291789037709
 21
354.06751308344519
 31
0.0
  0
CIRCLE
  5
1B7A6
  8
AM_0
 10
472.6329178903768
 20
338.06751308344519
 30
0.0
 40
4.25
  0
LINE
  5
1B7B8
  8
AM_0
 10
497.63291787357758
 20
606.50842021730307
 30
0.0
 11
447.63291787357758
 21
606.50842021730307
 31
0.0
  0
LINE
  5
1B7B9
  8
AM_0
 10
447.63291787357758
 20
606.50842021730307
 30
0.0
 11
440.13226690498249
 21
623.50842448005187
 31
0.0
  0
LINE
  5
1B7BA
  8
AM_0
 10
497.63291787357758
 20
606.50842021730307
 30
0.0
 11
505.13356884217228
 21
623.50840025048524
 31
0.0
  0
LINE
  5
1B7BB
  8
0
 10
493.63291787357758
 20
536.50842021730307
 30
0.0
 11
493.63291787505187
 21
606.50842021730307
 31
0.0
  0
LINE
  5
1B7BC
  8
0
 10
451.63291787357758
 20
536.50842021730307
 30
0.0
 11
451.63291787357758
 21
606.50842021730307
 31
0.0
  0
LINE
  5
1B7BD
  8
AM_0
 10
451.63291787357758
 20
536.50842020742414
 30
0.0
 11
493.63291787357758
 21
536.50842021730307
 31
0.0
  0
LINE
  5
1B7BE
  8
AM_0
 10
478.63291787357753
 20
536.50842021236372
 30
0.0
 11
478.63291787357753
 21
592.50842021730318
 31
0.0
  0
LINE
  5
1B7BF
  8
AM_0
 10
466.63291787357753
 20
536.50842021236372
 30
0.0
 11
466.63291787357753
 21
592.50842021730318
 31
0.0
  0
LINE
  5
1B7C0
  8
AM_0
 10
478.63291787357753
 20
592.50842021730318
 30
0.0
 11
466.63291787357753
 21
592.50842021730318
 31
0.0
  0
ARC
  5
1B7C1
  8
AM_0
 10
472.63291787357758
 20
592.50842021730318
 30
0.0
 40
6.0
 50
0.0
 51
180.0
  0
LINE
  5
1B7C2
  8
AM_0
 10
493.63291787451487
 20
581.00814470140915
 30
0.0
 11
546.63292041897205
 21
581.00814470140915
 31
0.0
  0
LINE
  5
1B7C3
  8
AM_0
 10
493.63291787967478
 20
826.00869059708464
 30
0.0
 11
546.63292041897205
 21
826.00869059708464
 31
0.0
  0
LINE
  5
1B7C5
  8
AM_0
 10
497.63291787357758
 20
800.50841508119083
 30
0.0
 11
447.63291787357758
 21
800.50841508119083
 31
0.0
  0
LINE
  5
1B7C6
  8
AM_0
 10
447.63291787357758
 20
800.50841508119083
 30
0.0
 11
440.13226690498249
 21
783.5084108184418
 31
0.0
  0
LINE
  5
1B7C7
  8
AM_0
 10
497.63291787357758
 20
800.50841508119083
 30
0.0
 11
505.13356884217228
 21
783.50843504800855
 31
0.0
  0
LINE
  5
1B7C8
  8
0
 10
493.63291787357758
 20
870.50841508119061
 30
0.0
 11
493.63291787505187
 21
800.50841508119083
 31
0.0
  0
LINE
  5
1B7C9
  8
0
 10
451.63291787357758
 20
870.50841508119061
 30
0.0
 11
451.63291787357758
 21
800.50841508119083
 31
0.0
  0
LINE
  5
1B7CA
  8
AM_0
 10
451.63291787357758
 20
870.50841509106908
 30
0.0
 11
493.63291787357758
 21
870.50841508119061
 31
0.0
  0
LINE
  5
1B7CB
  8
AM_0
 10
478.63291787357753
 20
870.50841508613007
 30
0.0
 11
478.63291787357753
 21
814.50841508119049
 31
0.0
  0
LINE
  5
1B7CC
  8
AM_0
 10
466.63291787357753
 20
870.50841508613007
 30
0.0
 11
466.63291787357753
 21
814.50841508119049
 31
0.0
  0
LINE
  5
1B7CD
  8
AM_0
 10
478.63291787357753
 20
814.50841508119049
 30
0.0
 11
466.63291787357753
 21
814.50841508119049
 31
0.0
  0
ARC
  5
1B7CE
  8
AM_0
 10
472.63291787357758
 20
814.50841508119049
 30
0.0
 40
6.0
 50
180.0
 51
0.0
  0
ARC
  5
1BD51
  8
0
  6
CONTINUOUS
 62
     0
 10
287.63293915159971
 20
387.10607880619528
 30
0.0
 40
1.0
 50
90.000009986208596
 51
180.00000998620851
  0
ARC
  5
1BD52
  8
AM_0
 10
287.63296077736283
 20
263.02846280619713
 30
0.0
 40
1.0
 50
180.00000998620851
 51
270.00000998620862
  0
LINE
  5
1BD9F
  8
AM_0
 10
287.63288996448108
 20
630.00841476567723
 30
0.0
 11
296.63288996448108
 21
630.00841476567723
 31
0.0
  0
LINE
  5
1BDA0
  8
AM_0
 10
286.63288996448108
 20
765.50841476567723
 30
0.0
 11
286.63288996448108
 21
749.67841476567719
 31
0.0
  0
ARC
  5
1BDA1
  8
AM_0
 10
283.80927096448107
 20
628.61224976567723
 30
0.0
 40
2.0
 50
270.0
 51
345.0000029999984
  0
LINE
  5
1BDA2
  8
AM_0
 10
286.63288996448108
 20
631.00841476567723
 30
0.0
 11
286.63288996448108
 21
631.42273176567721
 31
0.0
  0
LINE
  5
1BDA3
  8
AM_0
 10
286.63288996448108
 20
631.00342076567722
 30
0.0
 11
286.63288996448108
 21
631.00841476567723
 31
0.0
  0
LINE
  5
1BDA4
  8
AM_0
 10
286.54533396448119
 20
631.09597076567718
 30
0.0
 11
286.63288996448108
 21
631.00841476567723
 31
0.0
  0
LINE
  5
1BDA5
  8
AM_0
 10
288.63288996448108
 20
640.50841476567723
 30
0.0
 11
287.55636696448119
 21
636.49077676567731
 31
0.0
  0
ARC
  5
1BDA6
  8
AM_0
 10
287.63039296448119
 20
631.00591776567717
 30
0.0
 40
0.9975059999999999
 50
179.85657799999959
 51
270.14342199999061
  0
LINE
  5
1BDA7
  8
AM_0
 10
287.63288996448108
 20
640.50841476567723
 30
0.0
 11
293.43288996448121
 21
640.50841476567723
 31
0.0
  0
LINE
  5
1BDA8
  8
AM_0
 10
288.63288996448108
 20
638.88683376567735
 30
0.0
 11
285.74112296448112
 21
628.09461176567731
 31
0.0
  0
ARC
  5
1BDA9
  8
AM_0
 10
285.62451496448102
 20
637.00841476567723
 30
0.0
 40
2.0
 50
270.0
 51
344.99999999999932
  0
ARC
  5
1BDAA
  8
AM_0
 10
287.63288996448108
 20
641.50841476567723
 30
0.0
 40
1.0
 50
180.0
 51
270.0
  0
ARC
  5
1BDAB
  8
AM_0
 10
217.63288996448111
 20
625.6462167656772
 30
0.0
 40
2.0
 50
270.0
 51
0.0
  0
ARC
  5
1BDAC
  8
AM_0
 10
217.63288996448111
 20
626.0734947656772
 30
0.0
 40
2.0
 50
270.0
 51
0.0
  0
ARC
  5
1BDAD
  8
AM_0
 10
217.63288996448111
 20
627.07884576567722
 30
0.0
 40
2.0
 50
270.0
 51
346.50868899999909
  0
LINE
  5
1BDAE
  8
AM_0
 10
219.63288996448111
 20
625.6462167656772
 30
0.0
 11
219.63288996448111
 21
626.61224976567723
 31
0.0
  0
ARC
  5
1BDAF
  8
AM_0
 10
136.63288996448111
 20
625.6462167656772
 30
0.0
 40
2.0
 50
180.0
 51
270.0
  0
LINE
  5
1BDB0
  8
AM_0
 10
134.63288996448111
 20
627.6240587656772
 30
0.0
 11
134.63288996448111
 21
627.07884576567722
 31
0.0
  0
ARC
  5
1BDB1
  8
AM_0
 10
136.48233996448101
 20
626.0734947656772
 30
0.0
 40
2.0
 50
195.76954700000161
 51
270.0
  0
ARC
  5
1BDB2
  8
AM_0
 10
136.63288996448111
 20
627.07884576567722
 30
0.0
 40
2.0
 50
180.0
 51
270.0
  0
ARC
  5
1BDB3
  8
AM_0
 10
136.63288996448111
 20
628.61224976567723
 30
0.0
 40
2.0
 50
180.0
 51
270.0
  0
LINE
  5
1BDB4
  8
AM_0
 10
134.63288996448111
 20
631.98004776567723
 30
0.0
 11
134.63288996448111
 21
628.61224976567723
 31
0.0
  0
ARC
  5
1BDB5
  8
AM_0
 10
132.63288996448111
 20
631.98004776567723
 30
0.0
 40
2.0
 50
0.0
 51
90.0
  0
ARC
  5
1BDB6
  8
AM_0
 10
132.63288996448111
 20
627.6240587656772
 30
0.0
 40
2.0
 50
0.0
 51
90.0
  0
ARC
  5
1BDB7
  8
AM_0
 10
132.63288996448111
 20
624.98641976567728
 30
0.0
 40
2.0
 50
15.769547000001671
 51
90.0
  0
ARC
  5
1BDB8
  8
AM_0
 10
132.63288996448111
 20
650.60736476567729
 30
0.0
 40
2.0
 50
0.0
 51
90.0
  0
LINE
  5
1BDB9
  8
AM_0
 10
134.63288996448111
 20
638.15249576567737
 30
0.0
 11
134.63288996448111
 21
650.60736476567729
 31
0.0
  0
ARC
  5
1BDBA
  8
AM_0
 10
136.63288996448111
 20
637.00841476567723
 30
0.0
 40
2.0
 50
180.0
 51
270.0
  0
ARC
  5
1BDBB
  8
AM_0
 10
132.63288996448111
 20
638.15249576567737
 30
0.0
 40
2.0
 50
0.0
 51
90.0
  0
LINE
  5
1BDBC
  8
AM_0
 10
134.63288996448111
 20
638.15249576567737
 30
0.0
 11
134.63288996448111
 21
637.00841476567723
 31
0.0
  0
LINE
  5
1BDBD
  8
AM_0
 10
132.63288996448111
 20
640.15249576567714
 30
0.0
 11
127.12687896448089
 21
640.15249576567714
 31
0.0
  0
LINE
  5
1BDBE
  8
AM_0
 10
136.63288996448111
 20
635.00841476567723
 30
0.0
 11
285.62451496448102
 21
635.00841476567723
 31
0.0
  0
LINE
  5
1BDBF
  8
AM_0
 10
127.12687896448089
 20
652.60736476567718
 30
0.0
 11
285.13288996448119
 21
652.60736476567718
 31
0.0
  0
LINE
  5
1BDC0
  8
AM_0
 10
136.63288996448111
 20
623.64621676567731
 30
0.0
 11
217.63288996448111
 21
623.64621676567731
 31
0.0
  0
LINE
  5
1BDC1
  8
AM_0
 10
136.48233996448101
 20
624.07349476567731
 30
0.0
 11
217.63288996448111
 21
624.07349476567731
 31
0.0
  0
LINE
  5
1BDC2
  8
AM_0
 10
136.63288996448111
 20
625.07884576567722
 30
0.0
 11
217.63288996448111
 21
625.07884576567722
 31
0.0
  0
LINE
  5
1BDC3
  8
AM_0
 10
136.63288996448111
 20
626.61224976567723
 30
0.0
 11
283.80927096448107
 21
626.61224976567723
 31
0.0
  0
LINE
  5
1BDC4
  8
AM_0
 10
132.63288996448111
 20
626.98641976567717
 30
0.0
 11
127.12687896448089
 21
626.98641976567717
 31
0.0
  0
LINE
  5
1BDC5
  8
AM_0
 10
132.63288996448111
 20
629.6240587656772
 30
0.0
 11
127.12687896448089
 21
629.6240587656772
 31
0.0
  0
LINE
  5
1BDC6
  8
AM_0
 10
132.63288996448111
 20
633.98004776567723
 30
0.0
 11
127.12687896448089
 21
633.98004776567723
 31
0.0
  0
LINE
  5
1BDC7
  8
AM_0
 10
287.63288996448108
 20
766.50841476567723
 30
0.0
 11
293.43288996448109
 21
766.50841476567723
 31
0.0
  0
LINE
  5
1BDC8
  8
AM_0
 10
288.63288996448108
 20
766.50841476567723
 30
0.0
 11
287.55636696448119
 21
770.52605276567738
 31
0.0
  0
ARC
  5
1BDC9
  8
AM_0
 10
287.63288996448108
 20
765.50841476567723
 30
0.0
 40
1.0
 50
90.0
 51
180.0
  0
LINE
  5
1BDCA
  8
AM_0
 10
286.54533396448119
 20
775.92085876567739
 30
0.0
 11
286.63288996448108
 21
776.00841476567723
 31
0.0
  0
LINE
  5
1BDCB
  8
AM_0
 10
286.63288996448108
 20
776.01340876567735
 30
0.0
 11
286.63288996448108
 21
776.00841476567723
 31
0.0
  0
ARC
  5
1BDCC
  8
AM_0
 10
287.63039296448119
 20
776.01091176567729
 30
0.0
 40
0.9975059999999999
 50
89.856577999996375
 51
180.1434220000003
  0
LINE
  5
1BDCD
  8
AM_0
 10
286.63288996448108
 20
776.00841476567723
 30
0.0
 11
286.63288996448108
 21
775.59409776567736
 31
0.0
  0
LINE
  5
1BDCE
  8
AM_0
 10
287.63288996448108
 20
777.00841476567723
 30
0.0
 11
296.63288996448108
 21
777.00841476567723
 31
0.0
  0
LINE
  5
1BDCF
  8
AM_0
 10
288.63288996448108
 20
768.12999576567722
 30
0.0
 11
285.74112296448112
 21
778.92221776567715
 31
0.0
  0
ARC
  5
1BDD0
  8
AM_0
 10
285.62451496448102
 20
770.00841476567723
 30
0.0
 40
2.0
 50
15.000000000000741
 51
90.0
  0
ARC
  5
1BDD1
  8
AM_0
 10
283.80927096448107
 20
778.40457976567723
 30
0.0
 40
2.0
 50
14.999997000001709
 51
90.0
  0
LINE
  5
1BDD2
  8
AM_0
 10
219.63288996448111
 20
781.37061276567715
 30
0.0
 11
219.63288996448111
 21
780.40457976567723
 31
0.0
  0
ARC
  5
1BDD3
  8
AM_0
 10
217.63288996448111
 20
779.93798376567713
 30
0.0
 40
2.0
 50
13.49131100000081
 51
90.0
  0
ARC
  5
1BDD4
  8
AM_0
 10
217.63288996448111
 20
780.94333476567715
 30
0.0
 40
2.0
 50
0.0
 51
90.0
  0
ARC
  5
1BDD5
  8
AM_0
 10
217.63288996448111
 20
781.37061276567715
 30
0.0
 40
2.0
 50
0.0
 51
90.0
  0
LINE
  5
1BDD6
  8
AM_0
 10
134.63288996448111
 20
768.86433376567709
 30
0.0
 11
134.63288996448111
 21
770.00841476567723
 31
0.0
  0
ARC
  5
1BDD7
  8
AM_0
 10
132.63288996448111
 20
768.86433376567709
 30
0.0
 40
2.0
 50
270.0
 51
0.0
  0
ARC
  5
1BDD8
  8
AM_0
 10
136.63288996448111
 20
770.00841476567723
 30
0.0
 40
2.0
 50
90.0
 51
180.0
  0
LINE
  5
1BDD9
  8
AM_0
 10
134.63288996448111
 20
768.86433376567709
 30
0.0
 11
134.63288996448111
 21
756.40946476567706
 31
0.0
  0
ARC
  5
1BDDA
  8
AM_0
 10
132.63288996448111
 20
756.40946476567706
 30
0.0
 40
2.0
 50
270.0
 51
0.0
  0
LINE
  5
1BDDB
  8
AM_0
 10
134.63288996448111
 20
775.03678176567735
 30
0.0
 11
134.63288996448111
 21
778.40457976567723
 31
0.0
  0
ARC
  5
1BDDC
  8
AM_0
 10
132.63288996448111
 20
775.03678176567735
 30
0.0
 40
2.0
 50
270.0
 51
0.0
  0
ARC
  5
1BDDD
  8
AM_0
 10
136.63288996448111
 20
778.40457976567723
 30
0.0
 40
2.0
 50
90.0
 51
180.0
  0
ARC
  5
1BDDE
  8
AM_0
 10
132.63288996448111
 20
779.39277076567737
 30
0.0
 40
2.0
 50
270.0
 51
0.0
  0
ARC
  5
1BDDF
  8
AM_0
 10
136.63288996448111
 20
779.93798376567713
 30
0.0
 40
2.0
 50
90.0
 51
180.0
  0
ARC
  5
1BDE0
  8
AM_0
 10
132.63288996448111
 20
782.03040976567729
 30
0.0
 40
2.0
 50
270.0
 51
344.23045299999831
  0
ARC
  5
1BDE1
  8
AM_0
 10
136.48233996448101
 20
780.94333476567715
 30
0.0
 40
2.0
 50
90.0
 51
164.23045299999831
  0
LINE
  5
1BDE2
  8
AM_0
 10
134.63288996448111
 20
779.39277076567737
 30
0.0
 11
134.63288996448111
 21
779.93798376567713
 31
0.0
  0
ARC
  5
1BDE3
  8
AM_0
 10
136.63288996448111
 20
781.37061276567715
 30
0.0
 40
2.0
 50
90.0
 51
180.0
  0
LINE
  5
1BDE4
  8
AM_0
 10
132.63288996448111
 20
780.03040976567718
 30
0.0
 11
127.12687896448089
 21
780.03040976567718
 31
0.0
  0
LINE
  5
1BDE5
  8
AM_0
 10
132.63288996448111
 20
777.39277076567714
 30
0.0
 11
127.12687896448089
 21
777.39277076567714
 31
0.0
  0
LINE
  5
1BDE6
  8
AM_0
 10
132.63288996448111
 20
773.03678176567723
 30
0.0
 11
127.12687896448089
 21
773.03678176567723
 31
0.0
  0
LINE
  5
1BDE7
  8
AM_0
 10
132.63288996448111
 20
766.8643337656772
 30
0.0
 11
127.12687896448089
 21
766.8643337656772
 31
0.0
  0
LINE
  5
1BDE8
  8
AM_0
 10
136.63288996448111
 20
783.37061276567738
 30
0.0
 11
217.63288996448111
 21
783.37061276567738
 31
0.0
  0
LINE
  5
1BDE9
  8
AM_0
 10
136.48233996448101
 20
782.94333476567738
 30
0.0
 11
217.63288996448111
 21
782.94333476567738
 31
0.0
  0
LINE
  5
1BDEA
  8
AM_0
 10
136.63288996448111
 20
781.93798376567713
 30
0.0
 11
217.63288996448111
 21
781.93798376567713
 31
0.0
  0
LINE
  5
1BDEB
  8
AM_0
 10
136.63288996448111
 20
780.40457976567723
 30
0.0
 11
283.80927096448107
 21
780.40457976567723
 31
0.0
  0
LINE
  5
1BDEC
  8
AM_0
 10
136.63288996448111
 20
772.00841476567723
 30
0.0
 11
285.62451496448102
 21
772.00841476567723
 31
0.0
  0
LINE
  5
1BDED
  8
AM_0
 10
127.12687896448089
 20
754.40946476567717
 30
0.0
 11
285.13288996448119
 21
754.40946476567717
 31
0.0
  0
LINE
  5
1BDEE
  8
AM_0
 10
286.63288996448108
 20
659.6784147656773
 30
0.0
 11
286.63288996448108
 21
667.31841476567729
 31
0.0
  0
LINE
  5
1BDEF
  8
AM_0
 10
286.63288996448108
 20
747.33835676567719
 30
0.0
 11
286.63288996448108
 21
739.69841476567706
 31
0.0
  0
ARC
  5
1BE00
  8
AM_0
 10
287.63225096448099
 20
656.46688376567738
 30
0.0
 40
1.002631999999998
 50
0.0540849999984558
 51
81.243758999994057
  0
LINE
  5
1BE01
  8
AM_0
 10
287.78488296448108
 20
657.45783076567716
 30
0.0
 11
286.02608396448107
 21
657.72841476567714
 31
0.0
  0
LINE
  5
1BE02
  8
AM_0
 10
287.77488296448109
 20
659.54783076567719
 30
0.0
 11
286.17219496448109
 21
659.32841476567717
 31
0.0
  0
ARC
  5
1BE03
  8
AM_0
 10
287.62791496448108
 20
660.54403476567722
 30
0.0
 40
1.0069859999999999
 50
278.39216299999532
 51
359.64700200000118
  0
LINE
  5
1BE04
  8
AM_0
 10
288.63488296448122
 20
660.5378307656772
 30
0.0
 11
288.63488296448122
 21
656.46783076567715
 31
0.0
  0
ARC
  5
1BE05
  8
AM_0
 10
286.0915269644812
 20
658.51447476567739
 30
0.0
 40
0.8033630000000001
 50
0.2393300000011609
 51
89.760670000008602
  0
ARC
  5
1BE06
  8
AM_0
 10
286.08982096448108
 20
658.52289276567717
 30
0.0
 40
0.8050779999999997
 50
270.36025099999512
 51
359.6397490000017
  0
ARC
  5
1BE07
  8
AM_0
 10
287.62791496448108
 20
746.47279476567724
 30
0.0
 40
1.0069859999999999
 50
0.3529979999987695
 51
81.60783700000465
  0
LINE
  5
1BE08
  8
AM_0
 10
287.77488296448109
 20
747.46899876567716
 30
0.0
 11
286.17219496448109
 21
747.68841476567729
 31
0.0
  0
ARC
  5
1BE09
  8
AM_0
 10
287.63225096448099
 20
750.54994576567719
 30
0.0
 40
1.002631999999998
 50
278.75624099999311
 51
359.94591500000149
  0
LINE
  5
1BE0A
  8
AM_0
 10
288.63488296448122
 20
746.47899876567715
 30
0.0
 11
288.63488296448122
 21
750.5489987656772
 31
0.0
  0
LINE
  5
1BE0B
  8
AM_0
 10
287.78488296448108
 20
749.55899876567719
 30
0.0
 11
286.02608396448107
 21
749.2884147656772
 31
0.0
  0
ARC
  5
1BE0C
  8
AM_0
 10
286.0915269644812
 20
748.50235476567718
 30
0.0
 40
0.8033630000000001
 50
270.23932999999141
 51
359.76066999999892
  0
ARC
  5
1BE0D
  8
AM_0
 10
286.08982096448108
 20
748.49393676567706
 30
0.0
 40
0.8050779999999997
 50
0.3602510000015905
 51
89.639749000004883
  0
LINE
  5
1BE20
  8
AM_0
 10
286.63288996448108
 20
741.37235976567717
 30
0.0
 11
293.43288996448121
 21
741.37235976567717
 31
0.0
  0
LINE
  5
1BE21
  8
AM_0
 10
286.63288996448108
 20
665.65446976567739
 30
0.0
 11
293.43288996448121
 21
665.65446976567739
 31
0.0
  0
LINE
  5
1BE22
  8
AM_0
 10
287.77288996448118
 20
699.53841476567709
 30
0.0
 11
286.09288996448117
 21
699.30841476567707
 31
0.0
  0
LINE
  5
1BE23
  8
AM_0
 10
287.782889964481
 20
697.44841476567728
 30
0.0
 11
286.09288996448117
 21
697.70841476567739
 31
0.0
  0
LINE
  5
1BE24
  8
AM_0
 10
288.63288996448108
 20
700.52841476567721
 30
0.0
 11
288.63288996448108
 21
696.45841476567739
 31
0.0
  0
LINE
  5
1BE25
  8
AM_0
 10
287.77288996448118
 20
689.5384147656772
 30
0.0
 11
286.09288996448117
 21
689.30841476567718
 31
0.0
  0
LINE
  5
1BE26
  8
AM_0
 10
287.782889964481
 20
687.44841476567706
 30
0.0
 11
286.09288996448117
 21
687.70841476567716
 31
0.0
  0
LINE
  5
1BE27
  8
AM_0
 10
288.63288996448108
 20
690.52841476567721
 30
0.0
 11
288.63288996448108
 21
686.45841476567716
 31
0.0
  0
LINE
  5
1BE28
  8
AM_0
 10
287.782889964481
 20
677.44841476567728
 30
0.0
 11
286.09288996448117
 21
677.70841476567739
 31
0.0
  0
LINE
  5
1BE29
  8
AM_0
 10
287.77288996448118
 20
679.53841476567732
 30
0.0
 11
286.09288996448117
 21
679.3084147656773
 31
0.0
  0
LINE
  5
1BE2A
  8
AM_0
 10
288.63288996448108
 20
680.52841476567721
 30
0.0
 11
288.63288996448108
 21
676.45841476567739
 31
0.0
  0
LINE
  5
1BE2B
  8
AM_0
 10
288.63288996448108
 20
670.5284147656771
 30
0.0
 11
288.63288996448108
 21
666.5284147656771
 31
0.0
  0
LINE
  5
1BE2C
  8
AM_0
 10
287.77288996448118
 20
669.53841476567732
 30
0.0
 11
286.09288996448117
 21
669.30841476567718
 31
0.0
  0
LINE
  5
1BE2D
  8
AM_0
 10
287.782889964481
 20
667.44841476567717
 30
0.0
 11
286.09288996448117
 21
667.70841476567716
 31
0.0
  0
ARC
  5
1BE2E
  8
AM_0
 10
286.08449496448111
 20
698.50841476567723
 30
0.0
 40
0.8000439999999999
 50
270.6012089999997
 51
89.398791000000301
  0
ARC
  5
1BE2F
  8
AM_0
 10
287.63025796448119
 20
696.45746876567705
 30
0.0
 40
1.002631999999998
 50
0.0540849999984558
 51
81.243758999994057
  0
ARC
  5
1BE30
  8
AM_0
 10
287.62592296448111
 20
700.53461876567724
 30
0.0
 40
1.0069859999999999
 50
278.39216299999532
 51
359.64700200000118
  0
ARC
  5
1BE31
  8
AM_0
 10
286.08782796448122
 20
688.51347676567707
 30
0.0
 40
0.8050779999999997
 50
270.36025099999512
 51
359.6397490000017
  0
ARC
  5
1BE32
  8
AM_0
 10
287.63025796448119
 20
686.45746876567716
 30
0.0
 40
1.002631999999998
 50
0.0540849999984558
 51
81.243758999994057
  0
ARC
  5
1BE33
  8
AM_0
 10
287.62592296448111
 20
690.53461876567724
 30
0.0
 40
1.0069859999999999
 50
278.39216299999532
 51
359.64700200000118
  0
ARC
  5
1BE34
  8
AM_0
 10
286.08953396448118
 20
678.50505876567729
 30
0.0
 40
0.8033630000000001
 50
0.2393300000011609
 51
89.760670000008602
  0
ARC
  5
1BE35
  8
AM_0
 10
286.08782796448122
 20
678.5134767656773
 30
0.0
 40
0.8050779999999997
 50
270.36025099999512
 51
359.6397490000017
  0
ARC
  5
1BE36
  8
AM_0
 10
287.62592296448111
 20
680.53461876567724
 30
0.0
 40
1.0069859999999999
 50
278.39216299999532
 51
359.64700200000118
  0
ARC
  5
1BE37
  8
AM_0
 10
287.63025796448119
 20
676.45746876567716
 30
0.0
 40
1.002631999999998
 50
0.0540849999984558
 51
81.243758999994057
  0
ARC
  5
1BE38
  8
AM_0
 10
287.62592296448111
 20
670.53461876567724
 30
0.0
 40
1.0069859999999999
 50
278.39216299999532
 51
359.64700200000118
  0
ARC
  5
1BE39
  8
AM_0
 10
287.63025796448119
 20
666.45746876567739
 30
0.0
 40
1.002631999999998
 50
0.0540849999984558
 51
81.243758999994057
  0
ARC
  5
1BE3A
  8
AM_0
 10
286.08782796448122
 20
668.5134767656773
 30
0.0
 40
0.8050779999999997
 50
270.36025099999512
 51
359.6397490000017
  0
ARC
  5
1BE3B
  8
AM_0
 10
286.08953396448118
 20
668.50505876567729
 30
0.0
 40
0.8033630000000001
 50
0.2393300000011609
 51
89.760670000008602
  0
ARC
  5
1BE3C
  8
AM_0
 10
286.08953396448118
 20
688.50505876567718
 30
0.0
 40
0.8033630000000001
 50
0.2393300000011609
 51
89.760670000008602
  0
LINE
  5
1BE3D
  8
AM_0
 10
285.02698596448113
 20
699.51841476567722
 30
0.0
 11
287.62680296448121
 21
699.51841476567722
 31
0.0
  0
LINE
  5
1BE3E
  8
AM_0
 10
285.02698596448113
 20
697.48841476567713
 30
0.0
 11
287.52288996448118
 21
697.48841476567713
 31
0.0
  0
LINE
  5
1BE3F
  8
AM_0
 10
285.02698596448113
 20
689.5384147656772
 30
0.0
 11
287.77288996448118
 21
689.5384147656772
 31
0.0
  0
LINE
  5
1BE40
  8
AM_0
 10
285.02698596448113
 20
687.45841476567739
 30
0.0
 11
287.68288996448121
 21
687.45841476567739
 31
0.0
  0
LINE
  5
1BE41
  8
AM_0
 10
285.02698596448113
 20
679.58841476567727
 30
0.0
 11
288.13810696448132
 21
679.58841476567727
 31
0.0
  0
LINE
  5
1BE42
  8
AM_0
 10
285.02698596448113
 20
677.40841476567721
 30
0.0
 11
288.04288996448122
 21
677.40841476567721
 31
0.0
  0
LINE
  5
1BE43
  8
AM_0
 10
285.02698596448113
 20
669.65841476567709
 30
0.0
 11
288.12219696448119
 21
669.65841476567709
 31
0.0
  0
LINE
  5
1BE44
  8
AM_0
 10
285.02698596448113
 20
667.31841476567729
 30
0.0
 11
288.14410896448112
 21
667.31841476567729
 31
0.0
  0
LINE
  5
1BE45
  8
AM_0
 10
285.02698596448113
 20
669.30841476567718
 30
0.0
 11
286.09288996448117
 21
669.30841476567718
 31
0.0
  0
LINE
  5
1BE46
  8
AM_0
 10
285.02698596448113
 20
699.30841476567707
 30
0.0
 11
286.09288996448117
 21
699.30841476567707
 31
0.0
  0
LINE
  5
1BE47
  8
AM_0
 10
285.02698596448113
 20
697.70841476567739
 30
0.0
 11
286.09288996448117
 21
697.70841476567739
 31
0.0
  0
LINE
  5
1BE48
  8
AM_0
 10
285.02698596448113
 20
689.30841476567718
 30
0.0
 11
286.09288996448117
 21
689.30841476567718
 31
0.0
  0
LINE
  5
1BE49
  8
AM_0
 10
285.02698596448113
 20
687.70841476567716
 30
0.0
 11
286.09288996448117
 21
687.70841476567716
 31
0.0
  0
LINE
  5
1BE4A
  8
AM_0
 10
285.02698596448113
 20
679.3084147656773
 30
0.0
 11
286.09288996448117
 21
679.3084147656773
 31
0.0
  0
LINE
  5
1BE4B
  8
AM_0
 10
285.02698596448113
 20
677.70841476567739
 30
0.0
 11
286.09288996448117
 21
677.70841476567739
 31
0.0
  0
LINE
  5
1BE4C
  8
AM_0
 10
285.02698596448113
 20
667.70841476567716
 30
0.0
 11
286.09288996448117
 21
667.70841476567716
 31
0.0
  0
LINE
  5
1BE4D
  8
AM_0
 10
287.77288996448118
 20
729.5384147656772
 30
0.0
 11
286.09288996448117
 21
729.30841476567707
 31
0.0
  0
LINE
  5
1BE4E
  8
AM_0
 10
287.782889964481
 20
727.44841476567728
 30
0.0
 11
286.09288996448117
 21
727.70841476567739
 31
0.0
  0
LINE
  5
1BE4F
  8
AM_0
 10
288.63288996448108
 20
730.52841476567721
 30
0.0
 11
288.63288996448108
 21
726.45841476567739
 31
0.0
  0
LINE
  5
1BE50
  8
AM_0
 10
287.77288996448118
 20
719.53841476567709
 30
0.0
 11
286.09288996448117
 21
719.30841476567707
 31
0.0
  0
LINE
  5
1BE51
  8
AM_0
 10
287.782889964481
 20
717.44841476567717
 30
0.0
 11
286.09288996448117
 21
717.70841476567705
 31
0.0
  0
LINE
  5
1BE52
  8
AM_0
 10
288.63288996448108
 20
720.5284147656771
 30
0.0
 11
288.63288996448108
 21
716.45841476567739
 31
0.0
  0
LINE
  5
1BE53
  8
AM_0
 10
287.77288996448118
 20
709.5384147656772
 30
0.0
 11
286.09288996448117
 21
709.30841476567718
 31
0.0
  0
LINE
  5
1BE54
  8
AM_0
 10
287.782889964481
 20
707.44841476567717
 30
0.0
 11
286.09288996448117
 21
707.70841476567739
 31
0.0
  0
LINE
  5
1BE55
  8
AM_0
 10
288.63288996448108
 20
710.52841476567721
 30
0.0
 11
288.63288996448108
 21
706.45841476567716
 31
0.0
  0
LINE
  5
1BE56
  8
AM_0
 10
288.63288996448108
 20
740.52841476567721
 30
0.0
 11
288.63288996448108
 21
736.45841476567705
 31
0.0
  0
LINE
  5
1BE57
  8
AM_0
 10
287.77288996448118
 20
739.5384147656772
 30
0.0
 11
286.09288996448117
 21
739.30841476567718
 31
0.0
  0
LINE
  5
1BE58
  8
AM_0
 10
287.782889964481
 20
737.44841476567706
 30
0.0
 11
286.09288996448117
 21
737.70841476567716
 31
0.0
  0
ARC
  5
1BE59
  8
AM_0
 10
286.08443396448109
 20
728.50942076567708
 30
0.0
 40
0.80105
 50
270.60485600000669
 51
80.046816999998143
  0
ARC
  5
1BE5A
  8
AM_0
 10
287.63025796448119
 20
726.45746876567716
 30
0.0
 40
1.002631999999998
 50
0.0540849999984558
 51
81.243758999994057
  0
ARC
  5
1BE5B
  8
AM_0
 10
287.62592296448111
 20
730.53461876567724
 30
0.0
 40
1.0069859999999999
 50
278.39216299999532
 51
359.64700200000118
  0
ARC
  5
1BE5C
  8
AM_0
 10
286.08449496448111
 20
718.50841476567723
 30
0.0
 40
0.8000439999999999
 50
270.6012089999997
 51
89.398791000000301
  0
ARC
  5
1BE5D
  8
AM_0
 10
287.63025796448119
 20
716.45746876567705
 30
0.0
 40
1.002631999999998
 50
0.0540849999984558
 51
81.243758999994057
  0
ARC
  5
1BE5E
  8
AM_0
 10
287.62592296448111
 20
720.53461876567724
 30
0.0
 40
1.0069859999999999
 50
278.39216299999532
 51
359.64700200000118
  0
ARC
  5
1BE5F
  8
AM_0
 10
286.08449496448111
 20
708.50841476567723
 30
0.0
 40
0.8000439999999999
 50
270.6012089999997
 51
89.398791000000301
  0
ARC
  5
1BE60
  8
AM_0
 10
287.63025796448119
 20
706.45746876567705
 30
0.0
 40
1.002631999999998
 50
0.0540849999984558
 51
81.243758999994057
  0
ARC
  5
1BE61
  8
AM_0
 10
287.62592296448111
 20
710.53461876567724
 30
0.0
 40
1.0069859999999999
 50
278.39216299999532
 51
359.64700200000118
  0
ARC
  5
1BE62
  8
AM_0
 10
287.63025796448119
 20
736.45746876567705
 30
0.0
 40
1.002631999999998
 50
0.0540849999984558
 51
81.243758999994057
  0
ARC
  5
1BE63
  8
AM_0
 10
287.62592296448111
 20
740.53461876567724
 30
0.0
 40
1.0069859999999999
 50
278.39216299999532
 51
359.64700200000118
  0
ARC
  5
1BE64
  8
AM_0
 10
286.08443496448132
 20
738.50963076567723
 30
0.0
 40
0.801261
 50
270.60461100000168
 51
94.506742000002731
  0
LINE
  5
1BE65
  8
AM_0
 10
285.02698596448113
 20
729.60841476567714
 30
0.0
 11
288.02110396448097
 21
729.60841476567714
 31
0.0
  0
LINE
  5
1BE66
  8
AM_0
 10
285.02698596448113
 20
727.42841476567708
 30
0.0
 11
287.88032696448113
 21
727.42841476567708
 31
0.0
  0
LINE
  5
1BE67
  8
AM_0
 10
285.02698596448113
 20
719.54841476567708
 30
0.0
 11
287.82944996448123
 21
719.54841476567708
 31
0.0
  0
LINE
  5
1BE68
  8
AM_0
 10
285.02698596448113
 20
717.46841476567715
 30
0.0
 11
287.65288996448112
 21
717.46841476567715
 31
0.0
  0
LINE
  5
1BE69
  8
AM_0
 10
285.02698596448113
 20
709.52841476567721
 30
0.0
 11
287.69984696448108
 21
709.52841476567721
 31
0.0
  0
LINE
  5
1BE6A
  8
AM_0
 10
285.02698596448113
 20
707.48841476567713
 30
0.0
 11
287.52288996448118
 21
707.48841476567713
 31
0.0
  0
LINE
  5
1BE6B
  8
AM_0
 10
285.02698596448113
 20
739.69841476567706
 30
0.0
 11
288.18697896448111
 21
739.69841476567706
 31
0.0
  0
LINE
  5
1BE6C
  8
AM_0
 10
285.02698596448113
 20
737.34841476567738
 30
0.0
 11
288.09013396448108
 21
737.34841476567738
 31
0.0
  0
LINE
  5
1BE6D
  8
AM_0
 10
285.02698596448113
 20
739.30841476567718
 30
0.0
 11
286.14739496448101
 21
739.30841476567718
 31
0.0
  0
LINE
  5
1BE6E
  8
AM_0
 10
285.02698596448113
 20
737.70841476567716
 30
0.0
 11
286.09288996448117
 21
737.70841476567716
 31
0.0
  0
LINE
  5
1BE6F
  8
AM_0
 10
285.02698596448113
 20
729.30841476567707
 30
0.0
 11
286.14179496448111
 21
729.30841476567707
 31
0.0
  0
LINE
  5
1BE70
  8
AM_0
 10
285.02698596448113
 20
727.70841476567739
 30
0.0
 11
286.09288996448117
 21
727.70841476567739
 31
0.0
  0
LINE
  5
1BE71
  8
AM_0
 10
285.02698596448113
 20
719.30841476567707
 30
0.0
 11
286.09288996448117
 21
719.30841476567707
 31
0.0
  0
LINE
  5
1BE72
  8
AM_0
 10
285.02698596448113
 20
717.70841476567705
 30
0.0
 11
286.09288996448117
 21
717.70841476567705
 31
0.0
  0
LINE
  5
1BE73
  8
AM_0
 10
285.02698596448113
 20
709.30841476567718
 30
0.0
 11
286.09288996448117
 21
709.30841476567718
 31
0.0
  0
LINE
  5
1BE74
  8
AM_0
 10
285.02698596448113
 20
707.70841476567739
 30
0.0
 11
286.09288996448117
 21
707.70841476567739
 31
0.0
  0
ARC
  5
1BE75
  8
AM_0
 10
208.3290929644813
 20
692.2084947656773
 30
0.0
 40
2.6000000000000001
 50
137.10021800000001
 51
180.0
  0
ARC
  5
1BE76
  8
AM_0
 10
208.3290929644813
 20
714.80833476567705
 30
0.0
 40
2.6000000000000001
 50
180.0
 51
222.89978199999999
  0
ARC
  5
1BE77
  8
AM_0
 10
196.1688379644811
 20
703.50841476567723
 30
0.0
 40
14.0
 50
317.10021799999998
 51
42.899781999999959
  0
LINE
  5
1BE79
  8
AM_0
 10
881.743296462476
 20
445.87302108344522
 30
0.0
 11
882.19335146247602
 21
443.000518083445
 31
0.0
  0
LINE
  5
1BE7D
  8
AM_0
 10
873.76468746247576
 20
452.0725260834451
 30
0.0
 11
864.19430483385725
 21
452.0725260834451
 31
0.0
  0
LINE
  5
1BE7F
  8
AM_0
 10
801.33002846247598
 20
445.84330308344488
 30
0.0
 11
800.88435246247604
 21
443.00051208344519
 31
0.0
  0
LINE
  5
1BE81
  8
AM_0
 10
809.31339146247592
 20
438.19252108344511
 30
0.0
 11
810.03598738987262
 21
438.19252108344511
 31
0.0
  0
LINE
  5
1BE83
  8
AM_0
 10
873.76469546247586
 20
438.19251108344508
 30
0.0
 11
874.17368846247598
 21
438.2035120834451
 31
0.0
  0
LINE
  5
1BE84
  8
AM_0
 10
874.17369146247586
 20
438.20349908344508
 30
0.0
 11
874.58068946247602
 21
438.23850308344521
 31
0.0
  0
LINE
  5
1BE85
  8
AM_0
 10
874.58068646247591
 20
438.23847408344523
 30
0.0
 11
874.98068546247589
 21
438.2944730834451
 31
0.0
  0
LINE
  5
1BE86
  8
AM_0
 10
874.980686462476
 20
438.2944930834451
 30
0.0
 11
875.37168246247575
 21
438.3734870834453
 31
0.0
  0
LINE
  5
1BE87
  8
AM_0
 10
875.37168746247585
 20
438.37350908344507
 30
0.0
 11
875.75069846247573
 21
438.47351608344508
 31
0.0
  0
LINE
  5
1BE88
  8
AM_0
 10
875.750680462476
 20
438.47354308344512
 30
0.0
 11
876.11467846247558
 21
438.5945450834451
 31
0.0
  0
LINE
  5
1BE89
  8
AM_0
 10
876.11468846247624
 20
438.59453808344512
 30
0.0
 11
876.45968746247593
 21
438.73552808344522
 31
0.0
  0
LINE
  5
1BE8A
  8
AM_0
 10
876.45968246247605
 20
438.73552808344522
 30
0.0
 11
876.78567946247597
 21
438.8945250834451
 31
0.0
  0
LINE
  5
1BE8B
  8
AM_0
 10
876.78567846247608
 20
438.89452808344532
 30
0.0
 11
877.08768246247598
 21
439.07153108344522
 31
0.0
  0
LINE
  5
1BE8C
  8
AM_0
 10
877.08769446247595
 20
439.07149208344532
 30
0.0
 11
877.36469546247588
 21
439.26450108344511
 31
0.0
  0
LINE
  5
1BE8D
  8
AM_0
 10
877.36470146247564
 20
439.26451308344508
 30
0.0
 11
877.61470346247609
 21
439.47151508344518
 31
0.0
  0
LINE
  5
1BE8E
  8
AM_0
 10
877.61468146247591
 20
439.47152508344499
 30
0.0
 11
877.83468346247594
 21
439.69251908344501
 31
0.0
  0
LINE
  5
1BE8F
  8
AM_0
 10
877.83468946247592
 20
439.69250508344521
 30
0.0
 11
878.0236844624759
 21
439.9244980834452
 31
0.0
  0
LINE
  5
1BE90
  8
AM_0
 10
878.02367946247568
 20
439.92452008344509
 30
0.0
 11
878.18068546247594
 21
440.16652608344521
 31
0.0
  0
LINE
  5
1BE91
  8
AM_0
 10
878.1806884624757
 20
440.16651608344517
 30
0.0
 11
878.30369146247585
 21
440.41652108344522
 31
0.0
  0
LINE
  5
1BE92
  8
AM_0
 10
878.30366546247603
 20
440.41652608344521
 30
0.0
 11
878.39266446247575
 21
440.67153708344517
 31
0.0
  0
LINE
  5
1BE93
  8
AM_0
 10
878.39267846247606
 20
440.67152808344508
 30
0.0
 11
878.44668046247591
 21
440.93152808344519
 31
0.0
  0
LINE
  5
1BE94
  8
AM_0
 10
878.44668546247601
 20
440.93151408344511
 30
0.0
 11
878.46468346247605
 21
441.19252108344517
 31
0.0
  0
LINE
  5
1BE95
  8
AM_0
 10
804.61435246247595
 20
441.19251908344512
 30
0.0
 11
804.63225446247588
 21
440.93152008344492
 31
0.0
  0
LINE
  5
1BE96
  8
AM_0
 10
804.63225246247589
 20
440.93152908344513
 30
0.0
 11
804.68585246247585
 21
440.67154008344522
 31
0.0
  0
LINE
  5
1BE97
  8
AM_0
 10
804.68585446247585
 20
440.67153308344513
 30
0.0
 11
804.77455346247586
 21
440.4165300834452
 31
0.0
  0
LINE
  5
1BE98
  8
AM_0
 10
804.77455846247597
 20
440.41653208344519
 30
0.0
 11
804.89785546247595
 21
440.16653608344512
 31
0.0
  0
LINE
  5
1BE99
  8
AM_0
 10
804.89784146247587
 20
440.16651208344518
 30
0.0
 11
805.05474646247592
 21
439.92450308344507
 31
0.0
  0
LINE
  5
1BE9A
  8
AM_0
 10
805.05476446247565
 20
439.92453708344522
 30
0.0
 11
805.24407246247586
 21
439.69253308344508
 31
0.0
  0
LINE
  5
1BE9B
  8
AM_0
 10
805.24404846247569
 20
439.69252308344511
 30
0.0
 11
805.46445246247606
 21
439.47152408344499
 31
0.0
  0
LINE
  5
1BE9C
  8
AM_0
 10
805.46445046247572
 20
439.47151308344519
 30
0.0
 11
805.71404746247572
 21
439.26451408344519
 31
0.0
  0
LINE
  5
1BE9D
  8
AM_0
 10
805.71402946247565
 20
439.26450908344509
 30
0.0
 11
805.99103346247557
 21
439.07149808344508
 31
0.0
  0
LINE
  5
1BE9E
  8
AM_0
 10
805.99103546247579
 20
439.07150308344512
 30
0.0
 11
806.29333946247596
 21
438.89449908344523
 31
0.0
  0
LINE
  5
1BE9F
  8
AM_0
 10
806.29334846247605
 20
438.894522083445
 30
0.0
 11
806.61864746247591
 21
438.73552708344522
 31
0.0
  0
LINE
  5
1BEA0
  8
AM_0
 10
806.61864746247591
 20
438.73551408344508
 30
0.0
 11
806.96445246247595
 21
438.59452008344488
 31
0.0
  0
LINE
  5
1BEA1
  8
AM_0
 10
806.96445246247595
 20
438.59452408344509
 30
0.0
 11
807.32815246247594
 21
438.47352208344518
 31
0.0
  0
LINE
  5
1BEA2
  8
AM_0
 10
807.32814346247585
 20
438.47350408344528
 30
0.0
 11
807.70694946247579
 21
438.3734970834451
 31
0.0
  0
LINE
  5
1BEA3
  8
AM_0
 10
807.70694946247579
 20
438.37350108344532
 30
0.0
 11
808.09795246247597
 21
438.29450508344507
 31
0.0
  0
LINE
  5
1BEA4
  8
AM_0
 10
808.09795546247608
 20
438.29454708344508
 30
0.0
 11
808.49825546247564
 21
438.2385470834451
 31
0.0
  0
LINE
  5
1BEA5
  8
AM_0
 10
808.49825046247577
 20
438.23854508344499
 30
0.0
 11
808.90475146247593
 21
438.20354108344509
 31
0.0
  0
LINE
  5
1BEA6
  8
AM_0
 10
808.90475146247593
 20
438.20349408344521
 30
0.0
 11
809.31445446247596
 21
438.19249208344507
 31
0.0
  0
ARC
  5
1BEA8
  8
AM_0
 10
873.76468746247576
 20
448.0725260834451
 30
0.0
 40
4.0
 50
359.99998200000078
 51
89.999964000001555
  0
ARC
  5
1BEAA
  8
AM_0
 10
756.56825346247558
 20
432.27652008344512
 30
0.0
 40
122.221001
 50
359.24629120526032
 51
7.4255040000013732
  0
ARC
  5
1BEAB
  8
AM_0
 10
811.51254346247595
 20
430.50851508344522
 30
0.0
 40
71.776710999999963
 50
0.0650877677541012
 51
10.024002000001479
  0
ARC
  5
1BEAD
  8
AM_0
 10
875.80634846247585
 20
445.0055240834451
 30
0.0
 40
5.999991999999998
 50
8.3131340000016767
 51
83.061566999997041
  0
ARC
  5
1BEAF
  8
AM_0
 10
809.31445446247596
 20
448.0725260834451
 30
0.0
 40
4.0
 50
89.999980999992928
 51
180.00001799999919
  0
ARC
  5
1BEB1
  8
AM_0
 10
926.51025546247604
 20
432.27652008344512
 30
0.0
 40
122.221001
 50
172.57495999999981
 51
180.1441544501869
  0
ARC
  5
1BEB2
  8
AM_0
 10
871.56595746247569
 20
430.50851508344522
 30
0.0
 40
71.776702999999983
 50
169.975971000002
 51
178.77158318115801
  0
ARC
  5
1BEB4
  8
AM_0
 10
807.27125646247578
 20
445.0055240834451
 30
0.0
 40
6.0000049999999998
 50
96.921330000002314
 51
171.9735819999984
  0
LINE
  5
1BEB5
  8
AM_0
 10
285.02698596448113
 20
666.77773376567723
 30
0.0
 11
285.02698596448113
 21
740.23627676567719
 31
0.0
  0
LINE
  5
1BEB6
  8
AM_0
 10
279.92699596448119
 20
670.40071776567731
 30
0.0
 11
279.92699596448119
 21
736.62043176567715
 31
0.0
  0
LINE
  5
1BEB7
  8
AM_0
 10
276.60999396448119
 20
670.20391776567715
 30
0.0
 11
276.60999396448119
 21
736.81291976567729
 31
0.0
  0
LINE
  5
1BEB8
  8
AM_0
 10
202.27039496448111
 20
670.84567576567724
 30
0.0
 11
202.27039496448111
 21
690.59891876567724
 31
0.0
  0
LINE
  5
1BEB9
  8
AM_0
 10
202.27039496448111
 20
736.16701476567721
 30
0.0
 11
202.27039496448111
 21
716.4179147656771
 31
0.0
  0
LINE
  5
1BEBA
  8
AM_0
 10
196.781292964481
 20
738.45961876567719
 30
0.0
 11
196.781292964481
 21
668.55721076567715
 31
0.0
  0
LINE
  5
1BEBB
  8
AM_0
 10
194.71749196448101
 20
738.32481476567716
 30
0.0
 11
194.71749196448101
 21
668.69201076567731
 31
0.0
  0
LINE
  5
1BEBC
  8
ﾁｭｳｼﾝｾﾝ1
 10
201.20949296448109
 20
699.6430167656772
 30
0.0
 11
201.20949296448109
 21
708.39171576567708
 31
0.0
  0
LINE
  5
1BEBD
  8
AM_0
 10
205.7290929644812
 20
670.97621876567723
 30
0.0
 11
205.7290929644812
 21
692.2084947656773
 31
0.0
  0
LINE
  5
1BEBE
  8
AM_0
 10
205.7290929644812
 20
714.80833476567705
 30
0.0
 11
205.7290929644812
 21
733.09071276567715
 31
0.0
  0
LINE
  5
1BEBF
  8
AM_0
 10
206.23293767252019
 20
407.06725661880841
 30
0.0
 11
275.9760376725194
 21
407.06726877448813
 31
0.0
  0
LINE
  5
1BEC0
  8
AM_0
 10
285.03105534049621
 20
408.97224935270731
 30
0.0
 11
283.38306095643861
 21
405.43828506547459
 31
0.0
  0
LINE
  5
1BEC1
  8
AM_0
 10
283.38306095643861
 20
405.43828506547459
 30
0.0
 11
194.56493473795169
 21
446.85427858516698
 31
0.0
  0
LINE
  5
1BEC2
  8
AM_0
 10
196.21312712183379
 20
450.38924987243411
 30
0.0
 11
194.56493473795169
 21
446.85427858516698
 31
0.0
  0
LINE
  5
1BEC3
  8
AM_0
 10
203.76613218562539
 20
450.0232471888641
 30
0.0
 11
203.44473030571109
 21
449.33425513284629
 31
0.0
  0
LINE
  5
1BEC4
  8
AM_0
 10
280.05803295164031
 20
434.15326748594867
 30
0.0
 11
280.05803650267148
 21
413.77925948594878
 31
0.0
  0
LINE
  5
1BEC5
  8
AM_0
 10
197.68052202963261
 20
450.91825312818958
 30
0.0
 11
284.50603408620123
 21
410.43126526120028
 31
0.0
  0
LINE
  5
1BEC6
  8
AM_0
 10
202.63293339364441
 20
443.09224999135608
 30
0.0
 11
202.63293904507009
 21
410.66724699135688
 31
0.0
  0
LINE
  5
1BEC7
  8
ﾁｭｳｼﾝｾﾝ1
 10
197.45673518667601
 20
427.0672550891851
 30
0.0
 11
206.0470361866758
 21
427.0672565864075
 31
0.0
  0
LINE
  5
1BEC8
  8
AM_0
 10
200.63293820846681
 20
415.46724964277217
 30
0.0
 11
200.6329341648879
 21
438.667246642772
 31
0.0
  0
LINE
  5
1BEC9
  8
AM_0
 10
200.63293820846681
 20
415.46724964277217
 30
0.0
 11
201.6329382084669
 21
415.46724981706433
 31
0.0
  0
LINE
  5
1BECA
  8
AM_0
 10
200.6329341648879
 20
438.667246642772
 30
0.0
 11
201.63293416488801
 21
438.66724681706421
 31
0.0
  0
ARC
  5
1BECB
  8
AM_0
 10
276.92699596448119
 20
670.40071776567731
 30
0.0
 40
3.0
 50
273.55702099999621
 51
0.0000179999992061
  0
ARC
  5
1BECC
  8
AM_0
 10
281.42699596448119
 20
666.78821476567725
 30
0.0
 40
3.6000059999999978
 50
273.96599899999779
 51
0.0000179999992061
  0
ARC
  5
1BECD
  8
AM_0
 10
205.8703929644812
 20
670.84981876567724
 30
0.0
 40
3.6000009999999998
 50
180.00007799999869
 51
266.68501400000298
  0
ARC
  5
1BECE
  8
AM_0
 10
240.13288996448111
 20
1262.3583907656771
 30
0.0
 40
596.09997599999986
 50
266.68505800000378
 51
273.5570069999996
  0
ARC
  5
1BECF
  8
AM_0
 10
202.38129496448121
 20
668.55721576567726
 30
0.0
 40
5.5999989999999977
 50
180.00005699999849
 51
266.36204100000538
  0
ARC
  5
1BED0
  8
AM_0
 10
200.31749496448131
 20
668.69201576567718
 30
0.0
 40
5.600000999999998
 50
180.00005699999849
 51
266.1630369999973
  0
ARC
  5
1BED1
  8
AM_0
 10
240.13288996448111
 20
1262.3583907656771
 30
0.0
 40
600.59997599999986
 50
266.16305400000141
 51
273.96601299999787
  0
ARC
  5
1BED2
  8
AM_0
 10
273.60999396448119
 20
670.20391776567715
 30
0.0
 40
3.0
 50
273.23604299999789
 51
0.0000179999992061
  0
ARC
  5
1BED3
  8
AM_0
 10
276.92699596448119
 20
736.61611876567713
 30
0.0
 40
3.0000029999999982
 50
0.0000179999992061
 51
86.443253000006408
  0
ARC
  5
1BED4
  8
AM_0
 10
281.42699596448119
 20
740.22841576567714
 30
0.0
 40
3.5999989999999982
 50
0.0000179999992061
 51
86.033744000000851
  0
ARC
  5
1BED5
  8
AM_0
 10
205.8703929644812
 20
736.16701476567721
 30
0.0
 40
3.5999979999999998
 50
93.315004999996319
 51
179.99998200000081
  0
ARC
  5
1BED6
  8
AM_0
 10
240.13288996448111
 20
144.65843876567729
 30
0.0
 40
596.09997599999986
 50
86.443290000005987
 51
93.315089000003056
  0
ARC
  5
1BED7
  8
AM_0
 10
202.38129496448121
 20
738.4596167656772
 30
0.0
 40
5.5999980000000003
 50
93.638055999997619
 51
179.99998200000081
  0
ARC
  5
1BED8
  8
AM_0
 10
200.31749496448131
 20
738.32481376567739
 30
0.0
 40
5.5999980000000003
 50
93.837062000007137
 51
179.99998200000081
  0
ARC
  5
1BED9
  8
AM_0
 10
240.13288996448111
 20
144.65843876567729
 30
0.0
 40
600.59997599999986
 50
86.033760000003653
 51
93.836910000000643
  0
ARC
  5
1BEDA
  8
AM_0
 10
273.60999396448119
 20
736.81291876567707
 30
0.0
 40
2.9999989999999999
 50
0.0000179999992061
 51
86.764376000000055
  0
ARC
  5
1BEDB
  8
AM_0
 10
204.27039496448111
 20
716.4179147656771
 30
0.0
 40
1.999997
 50
179.99998200000081
 51
229.41004900000311
  0
ARC
  5
1BEDC
  8
AM_0
 10
204.27039496448111
 20
690.59891876567724
 30
0.0
 40
2.0
 50
130.59005899999579
 51
179.99998200000081
  0
ARC
  5
1BEDD
  8
AM_0
 10
193.20949296448109
 20
703.50841476567723
 30
0.0
 40
15.000002
 50
310.58999199999721
 51
49.40970199999888
  0
ARC
  5
1BEDE
  8
AM_0
 10
206.2329370450698
 20
410.66724761880852
 30
0.0
 40
3.5999979999999998
 50
180.00002798620781
 51
269.99994898620758
  0
ARC
  5
1BEDF
  8
AM_0
 10
284.03403525944771
 20
409.43726517893452
 30
0.0
 40
1.100006
 50
335.000495986207
 51
65.000183986205499
  0
ARC
  5
1BEE0
  8
AM_0
 10
197.21003120287989
 20
449.92424904618662
 30
0.0
 40
1.099995999999998
 50
64.999814986211589
 51
155.00020698620719
  0
ARC
  5
1BEE1
  8
AM_0
 10
272.45803495164068
 20
434.15326616132819
 30
0.0
 40
7.5999979999999976
 50
359.99999198620941
 51
71.099993986212041
  0
ARC
  5
1BEE2
  8
AM_0
 10
207.02883345072269
 20
448.50225375752763
 30
0.0
 40
3.5999979999999998
 50
90.905988986209508
 51
155.00085298620871
  0
ARC
  5
1BEE3
  8
AM_0
 10
210.13536567753019
 20
252.12626329896901
 30
0.0
 40
200.0
 50
71.100006986206679
 51
90.905957986205536
  0
ARC
  5
1BEE4
  8
AM_0
 10
202.53843023216061
 20
449.75625097488518
 30
0.0
 40
0.9999979999999998
 50
245.0006519862128
 51
335.00074198620661
  0
ARC
  5
1BEE5
  8
AM_0
 10
282.05803650267148
 20
413.77925983453332
 30
0.0
 40
2.0
 50
180.00002798620781
 51
244.99985998621261
  0
ARC
  5
1BEE6
  8
AM_0
 10
275.9760372193611
 20
409.66725977448817
 30
0.0
 40
2.600006
 50
270.00000998620862
 51
319.31387998620789
  0
ARC
  5
1BEE7
  8
AM_0
 10
201.63293838275919
 20
414.4672498170645
 30
0.0
 40
1.0
 50
359.99999198620941
 51
90.001066986213402
  0
ARC
  5
1BEE8
  8
AM_0
 10
201.6329339905958
 20
439.66724681706421
 30
0.0
 40
1.0
 50
270.00000998620862
 51
359.99999198620941
  0
POINT
  5
1BEEA
  8
AM_0
 10
240.13288996448111
 20
703.50841476567723
 30
0.0
  0
LINE
  5
1BEEB
  8
ﾁｭｳｼﾝｾﾝ1
 10
240.13293743020751
 20
396.98254652731458
 30
0.0
 11
240.13293499241311
 21
410.96936852731437
 31
0.0
  0
LINE
  5
1BF48
  8
AM_0
 10
918.98577746247554
 20
301.06690408344531
 30
0.0
 11
916.53897364456134
 21
301.15234840507031
 31
0.0
  0
ARC
  5
1BF49
  8
AM_0
 10
918.95087846247588
 20
300.06751308344519
 30
0.0
 40
1.0
 50
272.00000000000369
 51
87.999999999996334
  0
LINE
  5
1BF4A
  8
AM_0
 10
918.98577746247554
 20
299.06812208344508
 30
0.0
 11
916.53897364456134
 21
298.98267797832671
 31
0.0
  0
ARC
  5
1BF4D
  8
AM_0
 10
917.42541946247604
 20
290.06751308344519
 30
0.0
 40
1.0
 50
274.6137299999952
 51
84.482415999997869
  0
ARC
  5
1BF4F
  8
AM_0
 10
765.63308946247571
 20
290.06751308344519
 30
0.0
 40
1.0
 50
95.517584000002117
 51
265.38627000000491
  0
LINE
  5
1BF51
  8
AM_0
 10
764.07273146247599
 20
299.06812208344508
 30
0.0
 11
766.53896531451551
 21
298.98199947336599
 31
0.0
  0
LINE
  5
1BF52
  8
AM_0
 10
764.07273146247599
 20
301.06690408344531
 30
0.0
 11
766.53896531451551
 21
301.15302691720632
 31
0.0
  0
ARC
  5
1BF54
  8
AM_0
 10
764.10763046247587
 20
300.06751308344519
 30
0.0
 40
1.0
 50
91.999999999990635
 51
267.99999999999642
  0
LINE
  5
1BF60
  8
AM_0
 10
916.53897364456134
 20
288.9927263757487
 30
0.0
 11
917.50585646247612
 21
289.0707530834452
 31
0.0
  0
LINE
  5
1BF61
  8
AM_0
 10
916.53897364456134
 20
291.15779775980951
 30
0.0
 11
917.52157046247589
 21
291.06288008344518
 31
0.0
  0
LINE
  5
1BF63
  8
AM_0
 10
766.53896531451551
 20
288.99115838610601
 30
0.0
 11
765.55265246247575
 21
289.0707530834452
 31
0.0
  0
LINE
  5
1BF65
  8
AM_0
 10
766.53896531451551
 20
291.15967467784662
 30
0.0
 11
765.53693846247597
 21
291.06288008344518
 31
0.0
  0
INSERT
  5
1C074
  8
AM_0
  2
$6-44
 10
286.63288796448109
 20
646.89943876567725
 30
0.0
 41
-1.0
 42
-1.0
 50
270.0
  0
INSERT
  5
1C075
  8
AM_0
  2
$6-44
 10
286.63288996448108
 20
760.11739176567721
 30
0.0
 50
90.0
  0
LINE
  5
1C076
  8
AM_0
 10
296.63293715400278
 20
398.56727237482488
 30
0.0
 11
296.63296277495988
 21
251.5672673748272
 31
0.0
  0
ARC
  5
1C077
  8
AM_0
 10
134.6518112869137
 20
403.54217414277508
 30
0.0
 40
2.0
 50
270.00000998620862
 51
299.68831298621183
  0
LINE
  5
1C078
  8
AM_0
 10
127.1329366354982
 20
401.5421728322936
 30
0.0
 11
134.65181163549801
 21
401.54217414277508
 31
0.0
  0
ARC
  5
1C079
  8
AM_0
 10
132.70756375852599
 20
400.8363018039077
 30
0.0
 40
2.0
 50
270.00000998620862
 51
348.91503998620681
  0
LINE
  5
1C07A
  8
AM_0
 10
127.13293710711081
 20
398.83630083229377
 30
0.0
 11
132.7075641071105
 21
398.83630180390787
 31
0.0
  0
ARC
  5
1C07B
  8
AM_0
 10
136.6329368925669
 20
400.06724448806978
 30
0.0
 40
2.0
 50
90.000009986208596
 51
180.00000998620851
  0
ARC
  5
1C07C
  8
AM_0
 10
136.63293837405149
 20
391.56724048806979
 30
0.0
 40
2.0
 50
90.000009986208596
 51
180.00000998620851
  0
LINE
  5
1C07D
  8
AM_0
 10
134.6329407619391
 20
377.86675713948569
 30
0.0
 11
134.6329368925669
 21
400.06724413948518
 31
0.0
  0
LINE
  5
1C07E
  8
AM_0
 10
127.13294052005951
 20
379.25453983229397
 30
0.0
 11
134.63294052005921
 21
379.2545411394857
 31
0.0
  0
LINE
  5
1C07F
  8
AM_0
 10
127.1329385023316
 20
390.83123483229372
 30
0.0
 11
134.6329385023314
 21
390.83123613948538
 31
0.0
  0
LINE
  5
1C080
  8
AM_0
 10
127.1329374460922
 20
396.89139783229382
 30
0.0
 11
134.632937446092
 21
396.8913991394856
 31
0.0
  0
ARC
  5
1C081
  8
AM_0
 10
284.6329363740478
 20
391.567274283318
 30
0.0
 40
2.0
 50
0.0000119862081462
 51
90.000011986211405
  0
LINE
  5
1C082
  8
AM_0
 10
136.6329411105234
 20
375.86675748807022
 30
0.0
 11
284.63293811052131
 21
375.866783283318
 31
0.0
  0
LINE
  5
1C083
  8
AM_0
 10
136.63293802546721
 20
393.5672404880699
 30
0.0
 11
284.63863902546501
 21
393.56726628431221
 31
0.0
  0
LINE
  5
1C084
  8
AM_0
 10
286.632937154003
 20
398.56727063190272
 30
0.0
 11
293.43294996448139
 21
398.56727237482443
 31
0.0
  0
LINE
  5
1C085
  8
AM_0
 10
287.63293897730722
 20
388.10607880619523
 30
0.0
 11
296.632936977307
 21
388.1060803748249
 31
0.0
  0
INSERT
  5
1C086
  8
AM_0
  2
$6-44
 10
286.63293809797722
 20
381.67624502841329
 30
0.0
 41
-1.0
 42
-1.0
 50
269.99999001379138
  0
LINE
  5
1C087
  8
AM_0
 10
134.6329630281711
 20
250.11445613948769
 30
0.0
 11
134.63296249853121
 21
253.1532601394876
 31
0.0
  0
ARC
  5
1C088
  8
AM_0
 10
136.63296155491659
 20
258.567240488072
 30
0.0
 40
2.0
 50
180.00000998620851
 51
270.00000998620862
  0
LINE
  5
1C089
  8
AM_0
 10
127.13295942412419
 20
270.79264183229583
 30
0.0
 11
134.63295942412401
 21
270.7926431394875
 31
0.0
  0
LINE
  5
1C08A
  8
AM_0
 10
127.1329614399915
 20
259.22662283229579
 30
0.0
 11
134.63296143999131
 21
259.22662413948751
 31
0.0
  0
LINE
  5
1C08B
  8
AM_0
 10
127.1329624985314
 20
253.15325883229599
 30
0.0
 11
134.63296249853121
 21
253.1532601394876
 31
0.0
  0
LINE
  5
1C08C
  8
AM_0
 10
134.6329632940467
 20
248.58899813948781
 30
0.0
 11
134.63296318890019
 21
249.19227413948769
 31
0.0
  0
ARC
  5
1C08D
  8
AM_0
 10
136.6329630281711
 20
250.11445648807219
 30
0.0
 40
2.0
 50
180.00000998620851
 51
270.00000998620862
  0
LINE
  5
1C08E
  8
AM_0
 10
127.1329635406527
 20
247.1740978322961
 30
0.0
 11
133.11363454065261
 21
247.1740988746806
 31
0.0
  0
LINE
  5
1C08F
  8
AM_0
 10
127.13296331154351
 20
248.48860983229611
 30
0.0
 11
132.78427431154341
 21
248.48861081727571
 31
0.0
  0
ARC
  5
1C090
  8
AM_0
 10
132.78427466012789
 20
246.48861081727571
 30
0.0
 40
2.0
 50
15.809635986209081
 51
90.000009986208596
  0
ARC
  5
1C091
  8
AM_0
 10
136.63296347018991
 20
247.57837848807219
 30
0.0
 40
2.0
 50
195.809635986209
 51
270.00000998620862
  0
ARC
  5
1C092
  8
AM_0
 10
133.11363488923709
 20
245.1740988746806
 30
0.0
 40
2.0
 50
28.377866986210488
 51
90.000009986208596
  0
ARC
  5
1C093
  8
AM_0
 10
136.63296355788361
 20
247.07523648807219
 30
0.0
 40
2.0
 50
208.37786598621071
 51
270.00000998620862
  0
ARC
  5
1C094
  8
AM_0
 10
284.63296155491429
 20
258.56726628332041
 30
0.0
 40
2.0
 50
270.00000998620862
 51
0.0000099862085823
  0
ARC
  5
1C095
  8
AM_0
 10
283.50547102816898
 20
250.11448208680761
 30
0.0
 40
2.0
 50
270.00000998620862
 51
345.00000998620777
  0
LINE
  5
1C096
  8
AM_0
 10
288.63296103972931
 20
261.52313698048931
 30
0.0
 11
285.43732311838897
 21
249.59684442351431
 31
0.0
  0
ARC
  5
1C097
  8
AM_0
 10
284.46998729404459
 20
248.58902425491519
 30
0.0
 40
2.0
 50
270.00000998620862
 51
345.00000998620777
  0
LINE
  5
1C098
  8
AM_0
 10
288.63296193299129
 20
256.39805398048941
 30
0.0
 11
286.4018393842648
 21
248.07138559162209
 31
0.0
  0
ARC
  5
1C099
  8
AM_0
 10
285.0176814701876
 20
247.57840435037409
 30
0.0
 40
2.0
 50
270.00000998620862
 51
345.00000998620777
  0
LINE
  5
1C09A
  8
AM_0
 10
288.63296246539079
 20
253.34341698048951
 30
0.0
 11
286.94953256040799
 21
247.0607666870807
 31
0.0
  0
ARC
  5
1C09B
  8
AM_0
 10
285.29871555788122
 20
247.07526239935601
 30
0.0
 40
2.0
 50
270.00000998620862
 51
345.00000998620777
  0
LINE
  5
1C09C
  8
AM_0
 10
288.63296273588838
 20
251.7914389804894
 30
0.0
 11
287.2305676481019
 21
246.55762373606279
 31
0.0
  0
ARC
  5
1C09D
  8
AM_0
 10
132.63296318890019
 20
249.19227379090319
 30
0.0
 40
2.0
 50
0.0000099862085823
 51
90.000009986208596
  0
ARC
  5
1C09E
  8
AM_0
 10
136.6329632940467
 20
248.58899848807221
 30
0.0
 40
2.0
 50
180.00000998620851
 51
270.00000998620862
  0
LINE
  5
1C09F
  8
AM_0
 10
127.132962840316
 20
251.192272832296
 30
0.0
 11
132.63296284031591
 21
251.19227379090319
 31
0.0
  0
LINE
  5
1C0A0
  8
AM_0
 10
134.63296249853121
 20
253.1532601394876
 30
0.0
 11
134.6329591795465
 21
272.19590413948731
 31
0.0
  0
INSERT
  5
1C0A1
  8
AM_0
  2
$6-44
 10
286.63295983098533
 20
268.45829202841531
 30
0.0
 50
89.999990013791418
  0
LINE
  5
1C0A2
  8
AM_0
 10
287.63296095165492
 20
262.02846280619713
 30
0.0
 11
296.6329609516547
 21
262.02846437482708
 31
0.0
  0
LINE
  5
1C0A3
  8
AM_0
 10
136.6329588309622
 20
274.19590448807168
 30
0.0
 11
284.63295883095998
 21
274.19593028332019
 31
0.0
  0
LINE
  5
1C0A4
  8
AM_0
 10
136.63296390646809
 20
245.07523648807219
 30
0.0
 11
285.29871590646582
 21
245.07526239935601
 31
0.0
  0
LINE
  5
1C0A5
  8
AM_0
 10
136.6329619035011
 20
256.567240488072
 30
0.0
 11
284.63296190349888
 21
256.56726628332041
 31
0.0
  0
LINE
  5
1C0A6
  8
AM_0
 10
136.6329633767557
 20
248.11445648807231
 30
0.0
 11
283.50547137675369
 21
248.1144820868077
 31
0.0
  0
LINE
  5
1C0A7
  8
AM_0
 10
136.63296364263101
 20
246.58899848807221
 30
0.0
 11
284.46998764262878
 21
246.58902425491519
 31
0.0
  0
LINE
  5
1C0A8
  8
AM_0
 10
136.63296381877419
 20
245.57837848807219
 30
0.0
 11
285.01768181877191
 21
245.57840435037409
 31
0.0
  0
LINE
  5
1C0A9
  8
AM_0
 10
206.63293619539689
 20
404.06725668852511
 30
0.0
 11
206.63293567252029
 21
407.06725668852488
 31
0.0
  0
LINE
  5
1C0AA
  8
AM_0
 10
273.6329361953961
 20
404.06726836610392
 30
0.0
 11
273.6329356725193
 21
407.0672683661038
 31
0.0
  0
LINE
  5
1C0AB
  8
AM_0
 10
71.132939368742655
 20
385.86020307192962
 30
0.0
 11
71.132960790638663
 21
262.95227307193159
 31
0.0
  0
LINE
  5
1C0AC
  8
AM_0
 10
67.133309053795074
 20
387.66721237482523
 30
0.0
 11
67.133330875167076
 21
262.46729237482708
 31
0.0
  0
LINE
  5
1C0AD
  8
AM_0
 10
71.532921688599131
 20
257.80023314164163
 30
0.0
 11
72.655912799009684
 21
251.42926333737
 31
0.0
  0
LINE
  5
1C0AE
  8
AM_0
 10
78.018033625844964
 20
246.68530427194591
 30
0.0
 11
103.66000386009161
 21
245.34131874114181
 31
0.0
  0
LINE
  5
1C0AF
  8
AM_0
 10
104.1329361857602
 20
404.1225388235726
 30
0.0
 11
104.1329637137992
 21
246.18066882357499
 31
0.0
  0
LINE
  5
1C0B0
  8
AM_0
 10
74.994902518221338
 20
253.0402837450377
 30
0.0
 11
74.994877499101221
 21
396.5872537450357
 31
0.0
  0
LINE
  5
1C0B1
  8
AM_0
 10
71.53289824036959
 20
392.33423314163952
 30
0.0
 11
72.655887130117648
 21
398.7042933373678
 31
0.0
  0
LINE
  5
1C0B2
  8
AM_0
 10
78.01794630328412
 20
403.44824427193311
 30
0.0
 11
103.6599760690351
 21
404.79224874113919
 31
0.0
  0
LINE
  5
1C0B3
  8
AM_0
 10
105.2259840385754
 20
244.31726901408001
 30
0.0
 11
127.1329640385752
 21
244.31727283229611
 31
0.0
  0
LINE
  5
1C0B4
  8
AM_0
 10
105.2259558903872
 20
405.8172390140773
 30
0.0
 11
127.132935890387
 21
405.81724283229357
 31
0.0
  0
LINE
  5
1C0B5
  8
AM_0
 10
273.63293654398058
 20
402.06726836610392
 30
0.0
 11
273.6329361953961
 21
404.06726836610392
 31
0.0
  0
LINE
  5
1C0B6
  8
AM_0
 10
206.63293654398149
 20
402.06725668852511
 30
0.0
 11
206.63293619539689
 21
404.06725668852511
 31
0.0
  0
LINE
  5
1C0B7
  8
AM_0
 10
206.63293619539689
 20
404.06725668852511
 30
0.0
 11
273.6329361953961
 21
404.06726836610392
 31
0.0
  0
LINE
  5
1C0B8
  8
AM_0
 10
136.63293654398259
 20
402.06724448806978
 30
0.0
 11
283.41345654398037
 21
402.06727007077239
 31
0.0
  0
LINE
  5
1C0B9
  8
AM_0
 10
250.13295449607929
 20
299.0672642702383
 30
0.0
 11
127.1329544960813
 21
299.06724283229528
 31
0.0
  0
LINE
  5
1C0BA
  8
AM_0
 10
250.1329454328839
 20
351.0672642702375
 30
0.0
 11
127.1329454328859
 21
351.06724283229448
 31
0.0
  0
LINE
  5
1C0BB
  8
AM_0
 10
266.13295467037142
 20
298.06726705891379
 30
0.0
 11
266.13295571612463
 21
292.0672670589139
 31
0.0
  0
LINE
  5
1C0BC
  8
AM_0
 10
251.13295467037159
 20
298.06726444453062
 30
0.0
 11
251.1329557161248
 21
292.06726444453068
 31
0.0
  0
LINE
  5
1C0BD
  8
AM_0
 10
266.13294525859152
 20
352.06726705891299
 30
0.0
 11
266.13294421283808
 21
358.06726705891288
 31
0.0
  0
LINE
  5
1C0BE
  8
AM_0
 10
251.13294525859169
 20
352.06726444452983
 30
0.0
 11
251.1329442128384
 21
358.0672644445296
 31
0.0
  0
LINE
  5
1C0BF
  8
AM_0
 10
222.6329535374725
 20
304.56725947720219
 30
0.0
 11
222.63294639149149
 21
345.5672594772015
 31
0.0
  0
LINE
  5
1C0C0
  8
AM_0
 10
285.63295353747162
 20
304.56727045761198
 30
0.0
 11
285.63294639149069
 21
345.56727045761141
 31
0.0
  0
LINE
  5
1C0C1
  8
AM_0
 10
222.6329535374725
 20
304.56725947720219
 30
0.0
 11
285.63295353747162
 21
304.56727045761198
 31
0.0
  0
LINE
  5
1C0C2
  8
AM_0
 10
222.63294639149149
 20
345.5672594772015
 30
0.0
 11
285.63294639149069
 21
345.56727045761141
 31
0.0
  0
LINE
  5
1C0C3
  8
AM_0
 10
222.63295223028081
 20
312.06725947720201
 30
0.0
 11
285.6329522302799
 21
312.06727045761193
 31
0.0
  0
LINE
  5
1C0C4
  8
AM_0
 10
134.63295048736009
 20
322.06724413948672
 30
0.0
 11
134.6329494416068
 21
328.0672441394866
 31
0.0
  0
LINE
  5
1C0C5
  8
AM_0
 10
285.34503680215738
 20
400.5859804074318
 30
0.0
 11
286.33294744332278
 21
396.9073005796169
 31
0.0
  0
LINE
  5
1C0C6
  8
AM_0
 10
284.7569568021575
 20
400.58598030493391
 30
0.0
 11
286.33294782502981
 21
394.71726057961678
 31
0.0
  0
LINE
  5
1C0C7
  8
AM_0
 10
286.63294352295088
 20
362.02549063190332
 30
0.0
 11
286.632937154003
 21
398.56727063190272
 31
0.0
  0
LINE
  5
1C0C8
  8
AM_0
 10
285.63294578146792
 20
349.0672704576113
 30
0.0
 11
127.1329457814704
 21
349.06724283229448
 31
0.0
  0
LINE
  5
1C0C9
  8
AM_0
 10
285.63294543288339
 20
351.0672704576113
 30
0.0
 11
267.13294543288362
 21
351.06726723320531
 31
0.0
  0
LINE
  5
1C0CA
  8
AM_0
 10
218.63294717580649
 20
341.06725878003272
 30
0.0
 11
127.1329471758081
 21
341.0672428322946
 31
0.0
  0
LINE
  5
1C0CB
  8
AM_0
 10
218.63294752439111
 20
339.06725878003272
 30
0.0
 11
127.13294752439261
 21
339.0672428322946
 31
0.0
  0
LINE
  5
1C0CC
  8
AM_0
 10
218.63294891872869
 20
331.06725878003277
 30
0.0
 11
127.13294891873031
 21
331.06724283229471
 31
0.0
  0
LINE
  5
1C0CD
  8
AM_0
 10
218.63294926731331
 20
329.067258780033
 30
0.0
 11
135.63294926731459
 21
329.0672443137787
 31
0.0
  0
LINE
  5
1C0CE
  8
AM_0
 10
285.632941947039
 20
371.06727045761102
 30
0.0
 11
127.1329419470414
 21
371.06724283229408
 31
0.0
  0
LINE
  5
1C0CF
  8
AM_0
 10
285.6329440385457
 20
359.0672704576113
 30
0.0
 11
127.1329440385482
 21
359.06724283229443
 31
0.0
  0
LINE
  5
1C0D0
  8
AM_0
 10
285.63294368996122
 20
361.06727045761119
 30
0.0
 11
127.1329436899636
 21
361.0672428322942
 31
0.0
  0
LINE
  5
1C0D1
  8
AM_0
 10
285.63294229562348
 20
369.06727045761102
 30
0.0
 11
127.1329422956259
 21
369.06724283229408
 31
0.0
  0
LINE
  5
1C0D2
  8
AM_0
 10
285.63295763333872
 20
281.06727045761238
 30
0.0
 11
127.13295763334121
 21
281.06724283229551
 31
0.0
  0
LINE
  5
1C0D3
  8
AM_0
 10
285.63295623900098
 20
289.06727045761232
 30
0.0
 11
127.13295623900351
 21
289.06724283229539
 31
0.0
  0
LINE
  5
1C0D4
  8
AM_0
 10
285.63295589041672
 20
291.06727045761232
 30
0.0
 11
127.1329558904192
 21
291.06724283229539
 31
0.0
  0
LINE
  5
1C0D5
  8
AM_0
 10
285.63295798192331
 20
279.06727045761238
 30
0.0
 11
127.1329579819257
 21
279.06724283229551
 31
0.0
  0
LINE
  5
1C0D6
  8
AM_0
 10
218.63295066165099
 20
321.06725878003311
 30
0.0
 11
135.6329506616523
 21
321.06724431377882
 31
0.0
  0
LINE
  5
1C0D7
  8
AM_0
 10
218.6329510102353
 20
319.06725878003311
 30
0.0
 11
127.13295101023679
 21
319.06724283229488
 31
0.0
  0
LINE
  5
1C0D8
  8
AM_0
 10
218.6329524045731
 20
311.06725878003323
 30
0.0
 11
127.13295240457479
 21
311.06724283229499
 31
0.0
  0
LINE
  5
1C0D9
  8
AM_0
 10
218.6329527531575
 20
309.06725878003323
 30
0.0
 11
127.1329527531591
 21
309.06724283229499
 31
0.0
  0
LINE
  5
1C0DA
  8
AM_0
 10
285.63295449607881
 20
299.0672704576121
 30
0.0
 11
267.13295449607898
 21
299.06726723320622
 31
0.0
  0
LINE
  5
1C0DB
  8
AM_0
 10
285.6329541474945
 20
301.0672704576121
 30
0.0
 11
127.132954147497
 21
301.06724283229522
 31
0.0
  0
LINE
  5
1C0DC
  8
AM_0
 10
286.63295640601132
 20
288.10905063190438
 30
0.0
 11
286.6329615549144
 21
258.56726663190489
 31
0.0
  0
LINE
  5
1C0DD
  8
AM_0
 10
127.1329640385752
 20
244.31727283229611
 30
0.0
 11
127.132935890387
 21
405.81724283229357
 31
0.0
  0
ARC
  5
1C0DE
  8
AM_0
 10
103.6329639470666
 20
244.84229873642889
 30
0.0
 40
0.5
 50
24.456059986208039
 51
87.000039986217601
  0
ARC
  5
1C0DF
  8
AM_0
 10
78.318872625067556
 20
252.42725432437999
 30
0.0
 40
5.75
 50
190.00002998621031
 51
267.00002398620649
  0
ARC
  5
1C0E0
  8
AM_0
 10
105.2259838207101
 20
245.56726901408001
 30
0.0
 40
1.25
 50
204.4560299862062
 51
270.00002098621752
  0
ARC
  5
1C0E1
  8
AM_0
 10
69.383330875166848
 20
262.46729276698471
 30
0.0
 40
2.25
 50
180.00002998620729
 51
261.18342198621127
  0
ARC
  5
1C0E2
  8
AM_0
 10
68.578641779414042
 20
257.27918262673347
 30
0.0
 40
3.0
 50
10.000059986207511
 51
81.183039986211256
  0
ARC
  5
1C0E3
  8
AM_0
 10
69.383309053794846
 20
387.6672127669828
 30
0.0
 40
2.25
 50
98.81706998621037
 51
180.00002998620729
  0
ARC
  5
1C0E4
  8
AM_0
 10
68.578618149570275
 20
392.85519262673142
 30
0.0
 40
3.0
 50
278.81681898621429
 51
350.00017798620968
  0
ARC
  5
1C0E5
  8
AM_0
 10
103.63293598206489
 20
405.29123873642641
 30
0.0
 40
0.5
 50
273.00002498621518
 51
335.54361098621081
  0
ARC
  5
1C0E6
  8
AM_0
 10
78.318847304064775
 20
397.70627432437772
 30
0.0
 40
5.75
 50
93.000059986205599
 51
170.00002998620761
  0
ARC
  5
1C0E7
  8
AM_0
 10
105.2259561082524
 20
404.56723901407759
 30
0.0
 40
1.25
 50
90.000049986212616
 51
155.5440399862099
  0
ARC
  5
1C0E8
  8
AM_0
 10
283.41345689256468
 20
400.06727007077228
 30
0.0
 40
2.0
 50
15.03169998621174
 51
90.000019986209608
  0
ARC
  5
1C0E9
  8
AM_0
 10
282.82537689256469
 20
400.06726996827467
 30
0.0
 40
2.0
 50
15.03169998621174
 51
90.000019986209608
  0
ARC
  5
1C0EA
  8
AM_0
 10
267.13294421283808
 20
358.0672672332052
 30
0.0
 40
1.0
 50
90.000009986208596
 51
180.00001998620959
  0
ARC
  5
1C0EB
  8
AM_0
 10
250.13294421283831
 20
358.06726427023727
 30
0.0
 40
1.0
 50
0.0000089862071789
 51
90.000019986209608
  0
ARC
  5
1C0EC
  8
AM_0
 10
250.1329557161248
 20
292.0672642702383
 30
0.0
 40
1.0
 50
270.00000698621091
 51
0.0000099862085823
  0
ARC
  5
1C0ED
  8
AM_0
 10
267.13295571612463
 20
292.06726723320622
 30
0.0
 40
1.0
 50
179.99999998620751
 51
270.00000698621091
  0
ARC
  5
1C0EE
  8
AM_0
 10
267.13294525859152
 20
352.0672672332052
 30
0.0
 40
1.0
 50
179.99999998620751
 51
270.00000698621091
  0
ARC
  5
1C0EF
  8
AM_0
 10
250.13294525859169
 20
352.0672642702375
 30
0.0
 40
1.0
 50
270.00000698621091
 51
0.0000099862085823
  0
ARC
  5
1C0F0
  8
AM_0
 10
267.13295467037142
 20
298.067267233206
 30
0.0
 40
1.0
 50
90.000009986208596
 51
180.00001998620959
  0
ARC
  5
1C0F1
  8
AM_0
 10
250.1329546703717
 20
298.0672642702383
 30
0.0
 40
1.0
 50
0.0000089862071789
 51
90.000019986209608
  0
CIRCLE
  5
1C0F2
  8
AM_0
 10
261.13295493180982
 20
296.56726618745267
 30
0.0
 40
1.0
  0
CIRCLE
  5
1C0F3
  8
AM_0
 10
256.13295493180982
 20
296.56726531599168
 30
0.0
 40
1.149999999999999
  0
CIRCLE
  5
1C0F4
  8
AM_0
 10
256.13295493180982
 20
296.56726531599168
 30
0.0
 40
1.1000000000000001
  0
CIRCLE
  5
1C0F5
  8
AM_0
 10
256.1329449971534
 20
353.56726531599082
 30
0.0
 40
1.1000000000000001
  0
CIRCLE
  5
1C0F6
  8
AM_0
 10
256.1329449971534
 20
353.56726531599082
 30
0.0
 40
1.149999999999999
  0
CIRCLE
  5
1C0F7
  8
AM_0
 10
261.13294499715329
 20
353.56726618745182
 30
0.0
 40
1.0
  0
ARC
  5
1C0F8
  8
AM_0
 10
218.6329525788654
 20
310.06725878003323
 30
0.0
 40
1.0
 50
270.00000698621091
 51
90.000019986209608
  0
ARC
  5
1C0F9
  8
AM_0
 10
218.63295083594309
 20
320.06725878003311
 30
0.0
 40
1.0
 50
270.00000698621091
 51
90.000019986209608
  0
ARC
  5
1C0FA
  8
AM_0
 10
218.6329490930209
 20
330.06725878003289
 30
0.0
 40
1.0
 50
270.00000698621091
 51
90.000019986209608
  0
ARC
  5
1C0FB
  8
AM_0
 10
218.6329473500987
 20
340.06725878003272
 30
0.0
 40
1.0
 50
270.00000698621091
 51
90.000019986209608
  0
ARC
  5
1C0FC
  8
AM_0
 10
283.6829338642537
 20
360.06727011773972
 30
0.0
 40
1.0
 50
270.00000698621091
 51
90.000019986209608
  0
ARC
  5
1C0FD
  8
AM_0
 10
285.6329438642536
 20
360.06727045761119
 30
0.0
 40
1.0
 50
270.00000698621091
 51
90.000019986209608
  0
ARC
  5
1C0FE
  8
AM_0
 10
283.68293560717598
 20
350.06727011773978
 30
0.0
 40
1.0
 50
270.00000698621091
 51
90.000019986209608
  0
ARC
  5
1C0FF
  8
AM_0
 10
285.63294560717583
 20
350.06727045761141
 30
0.0
 40
1.0
 50
270.00000698621091
 51
90.000019986209608
  0
ARC
  5
1C100
  8
AM_0
 10
283.68294432178692
 20
300.06727011774069
 30
0.0
 40
1.0
 50
270.00000698621091
 51
90.000019986209608
  0
ARC
  5
1C101
  8
AM_0
 10
285.63295432178671
 20
300.06727045761221
 30
0.0
 40
1.0
 50
270.00000698621091
 51
90.000019986209608
  0
ARC
  5
1C102
  8
AM_0
 10
283.68294606470909
 20
290.06727011774069
 30
0.0
 40
1.0
 50
270.00000698621091
 51
90.000019986209608
  0
ARC
  5
1C103
  8
AM_0
 10
285.63295606470888
 20
290.06727045761232
 30
0.0
 40
1.0
 50
270.00000698621091
 51
90.000019986209608
  0
ARC
  5
1C104
  8
AM_0
 10
135.63295048736009
 20
322.06724431377882
 30
0.0
 40
1.0
 50
179.99999998620751
 51
270.00000698621091
  0
ARC
  5
1C105
  8
AM_0
 10
135.6329494416068
 20
328.0672443137787
 30
0.0
 40
1.0
 50
90.000009986208596
 51
180.00001998620959
  0
ARC
  5
1C106
  8
AM_0
 10
135.63291735010009
 20
340.06724431377319
 30
0.0
 40
1.0
 50
90.000009986208596
 51
270.00000698621091
  0
ARC
  5
1C107
  8
AM_0
 10
135.63291560717809
 20
350.06724431377307
 30
0.0
 40
1.0
 50
90.000009986208596
 51
270.00000698621091
  0
ARC
  5
1C108
  8
AM_0
 10
283.68293212133148
 20
370.06727011773938
 30
0.0
 40
1.0
 50
270.00000698621091
 51
90.000019986209608
  0
ARC
  5
1C109
  8
AM_0
 10
285.63294212133133
 20
370.06727045761102
 30
0.0
 40
1.0
 50
270.00000698621091
 51
90.000019986209608
  0
ARC
  5
1C10A
  8
AM_0
 10
135.6329121213337
 20
370.06724431377279
 30
0.0
 40
1.0
 50
90.000009986208596
 51
270.00000698621091
  0
ARC
  5
1C10B
  8
AM_0
 10
135.6329138642559
 20
360.0672443137729
 30
0.0
 40
1.0
 50
90.000009986208596
 51
270.00000698621091
  0
ARC
  5
1C10C
  8
AM_0
 10
287.77899737702728
 20
397.28767083165212
 30
0.0
 40
1.4952499999999991
 50
194.73740998620801
 51
219.96235998620739
  0
ARC
  5
1C10D
  8
AM_0
 10
287.77392775626981
 20
395.11177083076848
 30
0.0
 40
1.4940209999999989
 50
195.30966998620829
 51
220.2074299862073
  0
ARC
  5
1C10E
  8
AM_0
 10
287.77712282150583
 20
251.3002108313232
 30
0.0
 40
1.495147999999999
 50
164.9937969862068
 51
164.99811998620731
  0
ARC
  5
1C10F
  8
AM_0
 10
135.6329260647112
 20
290.06724431377398
 30
0.0
 40
1.0
 50
90.000009986208596
 51
270.00000698621091
  0
ARC
  5
1C110
  8
AM_0
 10
135.63292780763339
 20
280.06724431377421
 30
0.0
 40
1.0
 50
90.000009986208596
 51
270.00000698621091
  0
ARC
  5
1C111
  8
AM_0
 10
285.6329578076311
 20
280.06727045761249
 30
0.0
 40
1.0
 50
270.00000698621091
 51
90.000019986209608
  0
ARC
  5
1C112
  8
AM_0
 10
283.68294780763131
 20
280.0672701177408
 30
0.0
 40
1.0
 50
270.00000698621091
 51
90.000019986209608
  0
ARC
  5
1C113
  8
AM_0
 10
135.63292432178901
 20
300.06724431377393
 30
0.0
 40
1.0
 50
90.000009986208596
 51
270.00000698621091
  0
ARC
  5
1C114
  8
AM_0
 10
135.63292257886681
 20
310.0672443137737
 30
0.0
 40
1.0
 50
90.000009986208596
 51
270.00000698621091
  0
LINE
  5
1C115
  8
AM_0
 10
296.63296877495992
 20
251.56726737482819
 30
0.0
 11
288.57289577495999
 21
251.5672659700202
 31
0.0
  0
LINE
  5
1C116
  8
AM_0
 10
287.63294352295088
 20
362.02549080619548
 30
0.0
 11
296.63294352295071
 21
362.02549237482549
 31
0.0
  0
LINE
  5
1C117
  8
AM_0
 10
287.63295640601132
 20
288.10905080619671
 30
0.0
 11
296.6329564060112
 21
288.1090523748266
 31
0.0
  0
LINE
  5
1C11B
  8
AM_0
 10
296.63288996448108
 20
630.00841476567723
 30
0.0
 11
296.63288996448108
 21
777.00835676567715
 31
0.0
  0
LINE
  5
1C11C
  8
AM_0
 10
134.63288996448111
 20
739.30835676567722
 30
0.0
 11
194.8045439644811
 21
739.30835676567722
 31
0.0
  0
LINE
  5
1C11D
  8
AM_0
 10
134.63288996448111
 20
737.70835676567719
 30
0.0
 11
194.71749196448101
 21
737.70835676567719
 31
0.0
  0
LINE
  5
1C11E
  8
AM_0
 10
127.12687896448089
 20
729.30835676567722
 30
0.0
 11
194.71749196448101
 21
729.30835676567722
 31
0.0
  0
LINE
  5
1C11F
  8
AM_0
 10
127.12687896448089
 20
727.70835676567719
 30
0.0
 11
194.71749196448101
 21
727.70835676567719
 31
0.0
  0
LINE
  5
1C120
  8
AM_0
 10
127.12687896448089
 20
717.70835676567708
 30
0.0
 11
194.71749196448101
 21
717.70835676567708
 31
0.0
  0
LINE
  5
1C121
  8
AM_0
 10
127.12687896448089
 20
719.3083567656771
 30
0.0
 11
194.71749196448101
 21
719.3083567656771
 31
0.0
  0
LINE
  5
1C122
  8
AM_0
 10
127.12687896448089
 20
719.55835676567722
 30
0.0
 11
194.71749196448101
 21
719.55835676567722
 31
0.0
  0
LINE
  5
1C123
  8
AM_0
 10
134.63288996448111
 20
737.35835676567729
 30
0.0
 11
194.71749196448101
 21
737.35835676567729
 31
0.0
  0
LINE
  5
1C124
  8
AM_0
 10
134.63288996448111
 20
739.69835676567709
 30
0.0
 11
194.88855696448121
 21
739.69835676567709
 31
0.0
  0
LINE
  5
1C125
  8
AM_0
 10
194.71749196448101
 20
729.60835676567717
 30
0.0
 11
127.12687896448089
 21
729.60835676567717
 31
0.0
  0
LINE
  5
1C126
  8
AM_0
 10
194.71749196448101
 20
727.42835676567722
 30
0.0
 11
127.12687896448089
 21
727.42835676567722
 31
0.0
  0
LINE
  5
1C127
  8
AM_0
 10
194.71749196448101
 20
717.47835676567706
 30
0.0
 11
127.12687896448089
 21
717.47835676567706
 31
0.0
  0
LINE
  5
1C128
  8
AM_0
 10
194.71749196448101
 20
709.52835676567713
 30
0.0
 11
127.12687896448089
 21
709.52835676567713
 31
0.0
  0
LINE
  5
1C129
  8
AM_0
 10
194.71749196448101
 20
707.49835676567704
 30
0.0
 11
127.12687896448089
 21
707.49835676567704
 31
0.0
  0
LINE
  5
1C12A
  8
AM_0
 10
194.71749196448101
 20
709.30835676567722
 30
0.0
 11
127.12687896448089
 21
709.30835676567722
 31
0.0
  0
LINE
  5
1C12B
  8
AM_0
 10
194.71749196448101
 20
707.70835676567719
 30
0.0
 11
127.12687896448089
 21
707.70835676567719
 31
0.0
  0
LINE
  5
1C12C
  8
AM_0
 10
134.63288996448111
 20
749.28835676567724
 30
0.0
 11
286.02570596448118
 21
749.28835676567724
 31
0.0
  0
LINE
  5
1C12D
  8
AM_0
 10
134.63288996448111
 20
747.68835676567721
 30
0.0
 11
286.17261896448122
 21
747.68835676567721
 31
0.0
  0
LINE
  5
1C12E
  8
AM_0
 10
127.12687896448089
 20
749.67835676567722
 30
0.0
 11
288.12783496448139
 21
749.67835676567722
 31
0.0
  0
LINE
  5
1C12F
  8
AM_0
 10
134.63288996448111
 20
747.33835676567719
 30
0.0
 11
288.14252696448102
 21
747.33835676567719
 31
0.0
  0
LINE
  5
1C130
  8
AM_0
 10
285.13288996448119
 20
754.4094067656772
 30
0.0
 11
285.24904996448117
 21
755.61739176567721
 31
0.0
  0
LINE
  5
1C131
  8
AM_0
 10
127.12687896448089
 20
732.78991376567706
 30
0.0
 11
134.63288996448111
 21
732.78991376567706
 31
0.0
  0
LINE
  5
1C132
  8
AM_0
 10
127.12687896448089
 20
738.50835676567715
 30
0.0
 11
134.63288996448111
 21
738.50835676567715
 31
0.0
  0
LINE
  5
1C133
  8
AM_0
 10
127.12687896448089
 20
749.02835676567713
 30
0.0
 11
134.63288996448111
 21
749.02835676567713
 31
0.0
  0
LINE
  5
1C134
  8
AM_0
 10
127.12687896448089
 20
749.43968876567715
 30
0.0
 11
134.63288996448111
 21
749.43968876567715
 31
0.0
  0
LINE
  5
1C135
  8
AM_0
 10
134.63288996448111
 20
749.43968876567715
 30
0.0
 11
134.63288996448111
 21
732.78991376567706
 31
0.0
  0
ARC
  5
1C136
  8
AM_0
 10
69.13166896448115
 20
766.67725376567739
 30
0.0
 40
2.0
 50
96.36937100000398
 51
180.0
  0
ARC
  5
1C137
  8
AM_0
 10
68.576980964481209
 20
771.64638776567722
 30
0.0
 40
2.999997
 50
276.36937100000398
 51
350.00017399999871
  0
LINE
  5
1C138
  8
AM_0
 10
71.531412964481206
 20
771.12536776567708
 30
0.0
 11
72.592274964481021
 21
777.14284376567718
 31
0.0
  0
LINE
  5
1C139
  8
AM_0
 10
67.13166896448115
 20
640.33951776567721
 30
0.0
 11
67.13166896448115
 21
766.67725376567739
 31
0.0
  0
LINE
  5
1C13A
  8
AM_0
 10
74.185867964481062
 20
777.47039276567739
 30
0.0
 11
74.185867964481062
 21
629.54637876567722
 31
0.0
  0
LINE
  5
1C13B
  8
AM_0
 10
104.133506964481
 20
623.75859776567722
 30
0.0
 11
104.133506964481
 21
783.25817376567738
 31
0.0
  0
LINE
  5
1C13C
  8
AM_0
 10
103.82088596448099
 20
783.24179076567714
 30
0.0
 11
77.954215964481151
 21
781.88628776567737
 31
0.0
  0
LINE
  5
1C13D
  8
AM_0
 10
105.38392696448111
 20
784.25835676567738
 30
0.0
 11
127.13288996448109
 21
784.25835676567738
 31
0.0
  0
ARC
  5
1C13E
  8
AM_0
 10
105.38392696448111
 20
783.00835676567738
 30
0.0
 40
1.25
 50
89.999982000000799
 51
154.62363900000179
  0
ARC
  5
1C13F
  8
AM_0
 10
78.255081964481192
 20
776.14434276567715
 30
0.0
 40
5.7500059999999991
 50
92.999882999996146
 51
170.00004799999991
  0
ARC
  5
1C140
  8
AM_0
 10
103.7947199644811
 20
783.74110576567716
 30
0.0
 40
0.5
 50
272.99975299999602
 51
335.24658999999849
  0
LINE
  5
1C141
  8
AM_0
 10
134.63288996448111
 20
667.70841476567716
 30
0.0
 11
194.80455196448111
 21
667.70841476567716
 31
0.0
  0
LINE
  5
1C142
  8
AM_0
 10
134.63288996448111
 20
669.30841476567718
 30
0.0
 11
194.71749196448101
 21
669.30841476567718
 31
0.0
  0
LINE
  5
1C143
  8
AM_0
 10
127.12687896448089
 20
677.70841476567739
 30
0.0
 11
194.71749196448101
 21
677.70841476567739
 31
0.0
  0
LINE
  5
1C144
  8
AM_0
 10
127.12687896448089
 20
679.3084147656773
 30
0.0
 11
194.71749196448101
 21
679.3084147656773
 31
0.0
  0
LINE
  5
1C145
  8
AM_0
 10
127.12687896448089
 20
689.30841476567718
 30
0.0
 11
194.71749196448101
 21
689.30841476567718
 31
0.0
  0
LINE
  5
1C146
  8
AM_0
 10
127.12687896448089
 20
687.70841476567716
 30
0.0
 11
194.71749196448101
 21
687.70841476567716
 31
0.0
  0
LINE
  5
1C147
  8
AM_0
 10
127.12687896448089
 20
687.45841476567739
 30
0.0
 11
194.71749196448101
 21
687.45841476567739
 31
0.0
  0
LINE
  5
1C148
  8
AM_0
 10
134.63288996448111
 20
669.65841476567709
 30
0.0
 11
194.71749196448101
 21
669.65841476567709
 31
0.0
  0
LINE
  5
1C149
  8
AM_0
 10
134.63288996448111
 20
667.31841476567729
 30
0.0
 11
194.88856896448121
 21
667.31841476567729
 31
0.0
  0
LINE
  5
1C14A
  8
AM_0
 10
194.71749196448101
 20
677.40841476567721
 30
0.0
 11
127.12687896448089
 21
677.40841476567721
 31
0.0
  0
LINE
  5
1C14B
  8
AM_0
 10
194.71749196448101
 20
679.58841476567727
 30
0.0
 11
127.12687896448089
 21
679.58841476567727
 31
0.0
  0
LINE
  5
1C14C
  8
AM_0
 10
194.71749196448101
 20
689.5384147656772
 30
0.0
 11
127.12687896448089
 21
689.5384147656772
 31
0.0
  0
LINE
  5
1C14D
  8
AM_0
 10
194.71749196448101
 20
697.48841476567713
 30
0.0
 11
127.12687896448089
 21
697.48841476567713
 31
0.0
  0
LINE
  5
1C14E
  8
AM_0
 10
194.71749196448101
 20
699.51841476567722
 30
0.0
 11
127.12687896448089
 21
699.51841476567722
 31
0.0
  0
LINE
  5
1C14F
  8
AM_0
 10
194.71749196448101
 20
697.70841476567739
 30
0.0
 11
127.12687896448089
 21
697.70841476567739
 31
0.0
  0
LINE
  5
1C150
  8
AM_0
 10
194.71749196448101
 20
699.30841476567707
 30
0.0
 11
127.12687896448089
 21
699.30841476567707
 31
0.0
  0
LINE
  5
1C151
  8
AM_0
 10
134.63288996448111
 20
657.72841476567714
 30
0.0
 11
286.02608396448107
 21
657.72841476567714
 31
0.0
  0
LINE
  5
1C152
  8
AM_0
 10
134.63288996448111
 20
659.32841476567717
 30
0.0
 11
286.17219496448109
 21
659.32841476567717
 31
0.0
  0
LINE
  5
1C153
  8
AM_0
 10
127.12687896448089
 20
657.33841476567716
 30
0.0
 11
288.12793796448108
 21
657.33841476567716
 31
0.0
  0
LINE
  5
1C154
  8
AM_0
 10
134.63288996448111
 20
659.6784147656773
 30
0.0
 11
288.14242896448098
 21
659.6784147656773
 31
0.0
  0
LINE
  5
1C155
  8
AM_0
 10
285.13288996448119
 20
659.6784147656773
 30
0.0
 11
285.13288996448119
 21
667.31841476567729
 31
0.0
  0
LINE
  5
1C156
  8
AM_0
 10
285.13288996448119
 20
652.60736476567718
 30
0.0
 11
285.13288996448119
 21
657.33841476567716
 31
0.0
  0
LINE
  5
1C157
  8
AM_0
 10
286.63288996448108
 20
641.50841476567723
 30
0.0
 11
286.63288996448108
 21
657.33841476567716
 31
0.0
  0
LINE
  5
1C158
  8
AM_0
 10
285.13288996448119
 20
652.60736476567718
 30
0.0
 11
285.24904496448107
 21
651.39943876567725
 31
0.0
  0
LINE
  5
1C159
  8
AM_0
 10
127.12687896448089
 20
674.22685776567721
 30
0.0
 11
134.63288996448111
 21
674.22685776567721
 31
0.0
  0
LINE
  5
1C15A
  8
AM_0
 10
127.12687896448089
 20
668.50841476567723
 30
0.0
 11
134.63288996448111
 21
668.50841476567723
 31
0.0
  0
LINE
  5
1C15B
  8
AM_0
 10
127.12687896448089
 20
657.98841476567725
 30
0.0
 11
134.63288996448111
 21
657.98841476567725
 31
0.0
  0
LINE
  5
1C15C
  8
AM_0
 10
127.12687896448089
 20
657.57708276567723
 30
0.0
 11
134.63288996448111
 21
657.57708276567723
 31
0.0
  0
LINE
  5
1C15D
  8
AM_0
 10
134.63288996448111
 20
657.57708276567723
 30
0.0
 11
134.63288996448111
 21
674.22685776567721
 31
0.0
  0
ARC
  5
1C15E
  8
AM_0
 10
69.13166896448115
 20
640.33951776567721
 30
0.0
 40
2.0
 50
180.0
 51
263.63062899999602
  0
ARC
  5
1C15F
  8
AM_0
 10
68.576980964481209
 20
635.37038376567716
 30
0.0
 40
2.999997
 50
9.9998260000013524
 51
83.630628999996034
  0
LINE
  5
1C160
  8
AM_0
 10
71.531412964481206
 20
635.8914037656773
 30
0.0
 11
72.592274964481021
 21
629.87392776567731
 31
0.0
  0
LINE
  5
1C161
  8
AM_0
 10
71.13166896448115
 20
769.25237576567713
 30
0.0
 11
71.13166896448115
 21
637.76439576567725
 31
0.0
  0
LINE
  5
1C162
  8
AM_0
 10
286.33288996448118
 20
669.65841476567709
 30
0.0
 11
286.63288996448108
 21
669.65841476567709
 31
0.0
  0
LINE
  5
1C163
  8
AM_0
 10
286.28219896448098
 20
667.31841476567729
 30
0.0
 11
286.63288996448108
 21
667.31841476567729
 31
0.0
  0
LINE
  5
1C164
  8
AM_0
 10
103.82088596448099
 20
623.77498076567724
 30
0.0
 11
77.954215964481151
 21
625.13048376567724
 31
0.0
  0
LINE
  5
1C165
  8
AM_0
 10
105.38392696448111
 20
622.75841476567723
 30
0.0
 11
127.13288996448109
 21
622.75841476567723
 31
0.0
  0
ARC
  5
1C166
  8
AM_0
 10
105.38392696448111
 20
624.00841476567723
 30
0.0
 40
1.25
 50
205.3763609999981
 51
270.00001799999922
  0
ARC
  5
1C167
  8
AM_0
 10
78.255081964481192
 20
630.87242876567723
 30
0.0
 40
5.7500059999999991
 50
189.99995200000001
 51
267.00011700000391
  0
ARC
  5
1C168
  8
AM_0
 10
103.7947199644811
 20
623.2756657656771
 30
0.0
 40
0.5
 50
24.753410000001509
 51
87.000247000003981
  0
LINE
  5
1C169
  8
AM_0
 10
285.13288996448119
 20
754.4094067656772
 30
0.0
 11
285.13288996448119
 21
749.67841476567719
 31
0.0
  0
LINE
  5
1C16A
  8
AM_0
 10
285.13288996448119
 20
747.33841476567738
 30
0.0
 11
285.13288996448119
 21
739.69841476567706
 31
0.0
  0
LINE
  5
1C16B
  8
AM_0
 10
127.12687896448089
 20
622.75841476567723
 30
0.0
 11
127.12687896448089
 21
784.25835676567738
 31
0.0
  0
LINE
  5
1C173
  8
AM_0
 10
873.04311262137264
 20
438.19252108344511
 30
0.0
 11
873.76506546247595
 21
438.19252108344511
 31
0.0
  0
LINE
  5
1C174
  8
AM_0
 10
818.88479517738801
 20
452.0725260834451
 30
0.0
 11
809.31445446247596
 21
452.0725260834451
 31
0.0
  0
TEXT
  5
1C2A0
  8
AM_0
 10
673.54324056685755
 20
714.73659971104746
 30
0.0
 40
15.0
  1
VC08-080EKMT~VC08-160EKMT
1001
ACAD
1000
MTEXTBEGIN
1070
    73
1070
     1
1070
    44
1040
1.0
1070
    74
1070
     0
1000
MTEXTEND
  0
VIEWPORT
  5
89
 67
     1
  8
0
 10
210.0
 20
148.5
 30
0.0
 40
420.0
 41
297.0
 68
     1
 69
     1
1001
ACAD
1000
MVIEW
1002
{
1070
    16
1010
0.0
1020
0.0
1030
0.0
1010
0.0
1020
0.0
1030
1.0
1040
0.0
1040
297.0
1040
221.70154043645701
1040
148.5
1040
50.0
1040
0.0
1040
0.0
1070
     0
1070
   100
1070
     1
1070
     1
1070
     0
1070
     0
1070
     0
1070
     0
1040
0.0
1040
0.0
1040
0.0
1040
10.0
1040
10.0
1040
10.0
1040
10.0
1070
     0
1002
{
1002
}
1002
}
1001
GENIUS_GENOREF_13
1005
1B94
1001
GENIUS_GENSCREG_15
1000
PF
1040
1.0
1000
DF
1040
1.0
1000
MIN
1011
0.0
1021
0.0
1031
0.0
1021
0.0
1031
0.0
1000
MAX
1011
420.0
1021
0.0
1031
0.0
1021
297.0
1031
0.0
1000
FLAGS
1070
     4
  0
ENDSEC
  0
EOF
