  0
SECTION
  2
HEADER
  9
$ACADVER
  1
AC1009
  9
$INSBASE
 10
0.0
 20
0.0
 30
0.0
  9
$EXTMIN
 10
100.5920297822063
 20
-122.3446058188477
 30
0.0
  9
$EXTMAX
 10
700.68250552118525
 20
455.3713166601226
 30
0.0
  9
$LIMMIN
 10
0.0
 20
0.0
  9
$LIMMAX
 10
408.0
 20
284.0
  9
$ORTHOMODE
 70
     0
  9
$REGENMODE
 70
     1
  9
$FILLMODE
 70
     1
  9
$QTEXTMODE
 70
     0
  9
$MIRRTEXT
 70
     1
  9
$DRAGMODE
 70
     2
  9
$LTSCALE
 40
1.0
  9
$OSMODE
 70
   551
  9
$ATTMODE
 70
     1
  9
$TEXTSIZE
 40
2.5
  9
$TRACEWID
 40
1.0
  9
$TEXTSTYLE
  7
STANDARD
  9
$CLAYER
  8
AM_0
  9
$CELTYPE
  6
BYLAYER
  9
$CECOLOR
 62
   256
  9
$DIMSCALE
 40
1.0
  9
$DIMASZ
 40
2.5
  9
$DIMEXO
 40
1.0
  9
$DIMDLI
 40
7.0
  9
$DIMRND
 40
0.0
  9
$DIMDLE
 40
0.0
  9
$DIMEXE
 40
1.0
  9
$DIMTP
 40
0.1
  9
$DIMTM
 40
0.1000000001
  9
$DIMTXT
 40
2.5
  9
$DIMCEN
 40
0.0
  9
$DIMTSZ
 40
0.0
  9
$DIMTOL
 70
     0
  9
$DIMLIM
 70
     0
  9
$DIMTIH
 70
     0
  9
$DIMTOH
 70
     0
  9
$DIMSE1
 70
     0
  9
$DIMSE2
 70
     0
  9
$DIMTAD
 70
     3
  9
$DIMZIN
 70
     8
  9
$DIMBLK
  1

  9
$DIMASO
 70
     1
  9
$DIMSHO
 70
     1
  9
$DIMPOST
  1

  9
$DIMAPOST
  1
"
  9
$DIMALT
 70
     0
  9
$DIMALTD
 70
     2
  9
$DIMALTF
 40
0.0393701
  9
$DIMLFAC
 40
1.0
  9
$DIMTOFL
 70
     1
  9
$DIMTVP
 40
0.0
  9
$DIMTIX
 70
     0
  9
$DIMSOXD
 70
     0
  9
$DIMSAH
 70
     0
  9
$DIMBLK1
  1

  9
$DIMBLK2
  1

  9
$DIMSTYLE
  2
AM_JIS
  9
$DIMCLRD
 70
   256
  9
$DIMCLRE
 70
   256
  9
$DIMCLRT
 70
     4
  9
$DIMTFAC
 40
0.71
  9
$DIMGAP
 40
1.0
  9
$LUNITS
 70
     2
  9
$LUPREC
 70
     2
  9
$SKETCHINC
 40
1.0
  9
$FILLETRAD
 40
1.0
  9
$AUNITS
 70
     0
  9
$AUPREC
 70
     3
  9
$MENU
  1
.
  9
$ELEVATION
 40
0.0
  9
$PELEVATION
 40
0.0
  9
$THICKNESS
 40
0.0
  9
$LIMCHECK
 70
     0
  9
$BLIPMODE
 70
     0
  9
$CHAMFERA
 40
2.5
  9
$CHAMFERB
 40
2.5
  9
$SKPOLY
 70
     0
  9
$TDCREATE
 40
2452732.6837268518
  9
$TDUPDATE
 40
2458541.6785431602
  9
$TDINDWG
 40
0.292181331
  9
$TDUSRTIMER
 40
0.2921811343
  9
$USRTIMER
 70
     1
  9
$ANGBASE
 50
0.0
  9
$ANGDIR
 70
     0
  9
$PDMODE
 70
     0
  9
$PDSIZE
 40
0.0
  9
$PLINEWID
 40
0.0
  9
$COORDS
 70
     1
  9
$SPLFRAME
 70
     0
  9
$SPLINETYPE
 70
     6
  9
$SPLINESEGS
 70
     8
  9
$ATTDIA
 70
     1
  9
$ATTREQ
 70
     1
  9
$HANDLING
 70
     1
  9
$HANDSEED
  5
A3B6
  9
$SURFTAB1
 70
     6
  9
$SURFTAB2
 70
     6
  9
$SURFTYPE
 70
     6
  9
$SURFU
 70
     6
  9
$SURFV
 70
     6
  9
$UCSNAME
  2

  9
$UCSORG
 10
0.0
 20
0.0
 30
0.0
  9
$UCSXDIR
 10
1.0
 20
0.0
 30
0.0
  9
$UCSYDIR
 10
0.0
 20
1.0
 30
0.0
  9
$PUCSNAME
  2

  9
$PUCSORG
 10
0.0
 20
0.0
 30
0.0
  9
$PUCSXDIR
 10
1.0
 20
0.0
 30
0.0
  9
$PUCSYDIR
 10
0.0
 20
1.0
 30
0.0
  9
$USERI1
 70
     0
  9
$USERI2
 70
     0
  9
$USERI3
 70
     0
  9
$USERI4
 70
     0
  9
$USERI5
 70
     0
  9
$USERR1
 40
0.0
  9
$USERR2
 40
0.0
  9
$USERR3
 40
0.0
  9
$USERR4
 40
0.0
  9
$USERR5
 40
0.0
  9
$WORLDVIEW
 70
     1
  9
$SHADEDGE
 70
     3
  9
$SHADEDIF
 70
    70
  9
$TILEMODE
 70
     1
  9
$MAXACTVP
 70
    48
  9
$PLIMCHECK
 70
     0
  9
$PEXTMIN
 10
1.0000000000000000E+020
 20
1.0000000000000000E+020
 30
1.0000000000000000E+020
  9
$PEXTMAX
 10
-1.0000000000000000E+020
 20
-1.0000000000000000E+020
 30
-1.0000000000000000E+020
  9
$PLIMMIN
 10
0.0
 20
0.0
  9
$PLIMMAX
 10
420.0
 20
297.0
  9
$UNITMODE
 70
     0
  9
$VISRETAIN
 70
     1
  9
$PLINEGEN
 70
     0
  9
$PSLTSCALE
 70
     1
  0
ENDSEC
  0
SECTION
  2
TABLES
  0
TABLE
  2
VPORT
 70
     1
  0
VPORT
  2
*ACTIVE
 70
     0
 10
0.0
 20
0.0
 11
1.0
 21
1.0
 12
506.09469077355669
 22
166.5201035832909
 13
0.0
 23
0.0
 14
1.0
 24
1.0
 15
10.0
 25
10.0
 16
0.0
 26
0.0
 36
1.0
 17
0.0
 27
0.0
 37
0.0
 40
593.85977639906548
 41
1.7571592210767459
 42
50.0
 43
0.0
 44
0.0
 50
0.0
 51
0.0
 71
     0
 72
   100
 73
     1
 74
     1
 75
     0
 76
     0
 77
     0
 78
     0
  0
ENDTAB
  0
TABLE
  2
LTYPE
 70
    21
  0
LTYPE
  2
CONTINUOUS
 70
     0
  3
Solid line
 72
    65
 73
     0
 40
0.0
  0
LTYPE
  2
HIDDEN
 70
     0
  3
Hidden __ __ __ __ __ __ __ __ __ __ __ __ __ _
 72
    65
 73
     2
 40
9.5249999999999968
 49
6.3499999999999979
 49
-3.174999999999998
  0
LTYPE
  2
PHANTOM2
 70
     0
  3
Phantom (.5x) ___ _ _ ___ _ _ ___ _ _ ___ _ _
 72
    65
 73
     6
 40
31.75
 49
15.875
 49
-3.174999999999998
 49
3.174999999999998
 49
-3.174999999999998
 49
3.174999999999998
 49
-3.174999999999998
  0
LTYPE
  2
CENTER
 70
     0
  3
Center ____ _ ____ _ ____ _ ____ _ ____ _ ____
 72
    65
 73
     4
 40
50.799999999999997
 49
31.75
 49
-6.3499999999999979
 49
6.3499999999999979
 49
-6.3499999999999979
  0
LTYPE
  2
ACANSTGBM
 70
     0
  3
__ . . __ . .
 72
    65
 73
     6
 40
9.0
 49
4.0
 49
-1.0
 49
1.0
 49
-1.0
 49
1.0
 49
-1.0
  0
LTYPE
  2
ACANSTGLM
 70
     0
  3
_ _ _ _ _
 72
    65
 73
     2
 40
3.0
 49
2.0
 49
-1.0
  0
LTYPE
  2
GEN3B
 70
     0
  3
 - - - - -
 72
    65
 73
     2
 40
1.0
 49
0.5
 49
-0.5
  0
LTYPE
  2
GEN7A
 70
     0
  3
__ . __ . __
 72
    65
 73
     4
 40
7.375
 49
4.75
 49
-0.875
 49
0.875
 49
-0.875
  0
LTYPE
  2
AM_ISO02W050
 70
     0
  3
__ __ __ __ __ __ __ __ __ __ __ __ __ __ __
 72
    65
 73
     2
 40
7.5
 49
6.0
 49
-1.5
  0
LTYPE
  2
AM_ISO08W050
 70
     0
  3
____ . ____ . ____ . ____ . ____ . ____ . ____
 72
    65
 73
     4
 40
18.0
 49
12.0
 49
-1.5
 49
3.0
 49
-1.5
  0
LTYPE
  2
AM_ISO09W050
 70
     0
  3
_____ . . _____ . . _____ . . ____ .. ____
 72
    65
 73
     6
 40
22.5
 49
12.0
 49
-1.5
 49
3.0
 49
-1.5
 49
3.0
 49
-1.5
  0
LTYPE
  2
AMCONSTR
 70
     0
  3
_______________________
 72
    65
 73
     2
 40
9999.0
 49
9999.0
 49
0.0
  0
LTYPE
  2
AM_ISO02W050X2
 70
     0
  3
 _ _ _ _ _ _ _ _ _ _ _ _
 72
    65
 73
     2
 40
3.75
 49
3.0
 49
-0.75
  0
LTYPE
  2
AM_ISO08W050X2
 70
     0
  3
__ . __ . __ . __ . __ . __
 72
    65
 73
     4
 40
9.0
 49
6.0
 49
-0.75
 49
1.5
 49
-0.75
  0
LTYPE
  2
AMZIGZAG
 70
     0
  3
/\/-/\/-/\/-/\/-/\/-/\/
 72
    65
 73
     2
 40
11.0001
 49
0.0001
 49
-11.0
  0
LTYPE
  2
ACJISTGB
 70
     0
  3
__ . . __ . .
 72
    65
 73
     6
 40
9.0
 49
4.0
 49
-1.0
 49
1.0
 49
-1.0
 49
1.0
 49
-1.0
  0
LTYPE
  2
ACJISTGL
 70
     0
  3
_ _ _ _ _
 72
    65
 73
     2
 40
3.0
 49
2.0
 49
-1.0
  0
LTYPE
  2
ACISOWELD
 70
     0
  3
_ _ _ _ _
 72
    65
 73
     2
 40
2.0
 49
2.0
 49
-1.0
  0
LTYPE
  2
ACISOTGB
 70
     0
  3
__ . . __ . .
 72
    65
 73
     6
 40
9.0
 49
4.0
 49
-1.0
 49
1.0
 49
-1.0
 49
1.0
 49
-1.0
  0
LTYPE
  2
ACISOTGL
 70
     0
  3
_ _ _ _ _
 72
    65
 73
     2
 40
3.0
 49
2.0
 49
-1.0
  0
ENDTAB
  0
TABLE
  2
LAYER
 70
     8
  0
LAYER
  2
0
 70
     0
 62
     7
  6
CONTINUOUS
  0
LAYER
  2
DEFPOINTS
 70
     0
 62
     7
  6
CONTINUOUS
  0
LAYER
  2
ｶｸﾚｾﾝ2
 70
     0
 62
     3
  6
GEN3B
  0
LAYER
  2
ﾁｭｳｼﾝｾﾝ1
 70
     0
 62
     1
  6
GEN7A
  0
LAYER
  2
AM_0
 70
     0
 62
     7
  6
CONTINUOUS
  0
LAYER
  2
AM_0N
 70
     0
 62
     7
  6
CONTINUOUS
  0
LAYER
  2
AM_5
 70
     0
 62
     2
  6
CONTINUOUS
  0
LAYER
  2
AM_4
 70
     0
 62
     2
  6
CONTINUOUS
  0
ENDTAB
  0
TABLE
  2
STYLE
 70
     8
  0
STYLE
  2
STANDARD
 70
     0
 40
0.0
 41
0.8299999999999999
 50
0.0
 71
     0
 42
2.5
  3
txt.shx
  4
bigfont.shx
  0
STYLE
  2
ACANSTS
 70
     0
 40
1.0
 41
1.0
 50
0.0
 71
     0
 42
2.5
  3
romans.shx
  4
bigfont.shx
  0
STYLE
  2
ACANSGDT
 70
     0
 40
0.0
 41
1.0
 50
0.0
 71
     0
 42
2.5
  3
amgdtans.shx
  4

  0
STYLE
  2

 70
     1
 40
0.0
 41
1.0
 50
0.0
 71
     0
 42
2.5
  3
ltypeshp.shx
  4

  0
STYLE
  2
ACJISTS
 70
     0
 40
1.0
 41
1.0
 50
0.0
 71
     0
 42
2.5
  3
isocp.shx
  4
extfont.shx
  0
STYLE
  2
ACJISGDT
 70
     0
 40
0.0
 41
1.0
 50
0.0
 71
     0
 42
2.5
  3
amgdt.shx
  4

  0
STYLE
  2
ACISOTS
 70
     0
 40
1.0
 41
1.0
 50
0.0
 71
     0
 42
2.5
  3
isocp.shx
  4
extfont.shx
  0
STYLE
  2
ACISOGDT
 70
     0
 40
0.0
 41
1.0
 50
0.0
 71
     0
 42
2.5
  3
amgdt.shx
  4

  0
ENDTAB
  0
TABLE
  2
VIEW
 70
    12
  0
VIEW
  2
GEN1
 70
     0
 40
95.824742268041234
 10
71.5
 20
137.08762886597941
 41
143.0
 11
0.0
 21
0.0
 31
1.0
 12
0.0
 22
0.0
 32
0.0
 42
50.0
 43
0.0
 44
0.0
 50
0.0
 71
     0
  0
VIEW
  2
GEN2
 70
     0
 40
95.824742268041234
 10
214.5
 20
137.08762886597941
 41
143.0
 11
0.0
 21
0.0
 31
1.0
 12
0.0
 22
0.0
 32
0.0
 42
50.0
 43
0.0
 44
0.0
 50
0.0
 71
     0
  0
VIEW
  2
GEN3
 70
     0
 40
95.824742268041234
 10
71.5
 20
47.912371134020603
 41
143.0
 11
0.0
 21
0.0
 31
1.0
 12
0.0
 22
0.0
 32
0.0
 42
50.0
 43
0.0
 44
0.0
 50
0.0
 71
     0
  0
VIEW
  2
GEN4
 70
     0
 40
95.824742268041234
 10
214.5
 20
47.912371134020603
 41
143.0
 11
0.0
 21
0.0
 31
1.0
 12
0.0
 22
0.0
 32
0.0
 42
50.0
 43
0.0
 44
0.0
 50
0.0
 71
     0
  0
VIEW
  2
GEN5
 70
     0
 40
95.824742268041234
 10
143.0
 20
92.500000000000057
 41
143.0
 11
0.0
 21
0.0
 31
1.0
 12
0.0
 22
0.0
 32
0.0
 42
50.0
 43
0.0
 44
0.0
 50
0.0
 71
     0
  0
VIEW
  2
GEN6
 70
     0
 40
191.64756804123709
 10
143.0
 20
92.5
 41
285.99714
 11
0.0
 21
0.0
 31
1.0
 12
0.0
 22
0.0
 32
0.0
 42
50.0
 43
0.0
 44
0.0
 50
0.0
 71
     0
  0
VIEW
  2
AM_VIEW1
 70
     0
 40
142.0
 10
119.7777777777778
 20
213.0
 41
239.5555555555556
 11
0.0
 21
0.0
 31
1.0
 12
0.0
 22
0.0
 32
0.0
 42
50.0
 43
0.0
 44
0.0
 50
0.0
 71
     0
  0
VIEW
  2
AM_VIEW2
 70
     0
 40
142.0
 10
288.22222222222211
 20
213.0
 41
239.5555555555556
 11
0.0
 21
0.0
 31
1.0
 12
0.0
 22
0.0
 32
0.0
 42
50.0
 43
0.0
 44
0.0
 50
0.0
 71
     0
  0
VIEW
  2
AM_VIEW3
 70
     0
 40
142.0
 10
119.7777777777778
 20
71.0
 41
239.5555555555556
 11
0.0
 21
0.0
 31
1.0
 12
0.0
 22
0.0
 32
0.0
 42
50.0
 43
0.0
 44
0.0
 50
0.0
 71
     0
  0
VIEW
  2
AM_VIEW4
 70
     0
 40
142.0
 10
288.22222222222211
 20
71.0
 41
239.5555555555556
 11
0.0
 21
0.0
 31
1.0
 12
0.0
 22
0.0
 32
0.0
 42
50.0
 43
0.0
 44
0.0
 50
0.0
 71
     0
  0
VIEW
  2
AM_VIEW5
 70
     0
 40
142.0
 10
204.0
 20
142.0
 41
239.5555555555556
 11
0.0
 21
0.0
 31
1.0
 12
0.0
 22
0.0
 32
0.0
 42
50.0
 43
0.0
 44
0.0
 50
0.0
 71
     0
  0
VIEW
  2
AM_VIEW6
 70
     0
 40
283.99716000000001
 10
204.0
 20
142.0
 41
479.10631999999993
 11
0.0
 21
0.0
 31
1.0
 12
0.0
 22
0.0
 32
0.0
 42
50.0
 43
0.0
 44
0.0
 50
0.0
 71
     0
  0
ENDTAB
  0
TABLE
  2
UCS
 70
     0
  0
ENDTAB
  0
TABLE
  2
APPID
 70
   101
  0
APPID
  2
ACAD
 70
     0
  0
APPID
  2
MCAD_NO_VIS
 70
     0
  0
APPID
  2
ACAD_TEMP_GRAPHIC
 70
     0
  0
APPID
  2
AD_DRAW
 70
     0
  0
APPID
  2
DESIGNERASSEMBLIES
 70
     0
  0
APPID
  2
ASURF_PCURVE_APPNAME
 70
     0
  0
APPID
  2
GENIUS_GE3SECT_13
 70
     0
  0
APPID
  2
GENIUS_GENCFG_13
 70
     0
  0
APPID
  2
GENIUS_GE3CFG0_13
 70
     0
  0
APPID
  2
GENIUS_GENCFG0_13
 70
     0
  0
APPID
  2
GENIUS_GENCFG1_13
 70
     0
  0
APPID
  2
GENIUS_GENCFG2_13
 70
     0
  0
APPID
  2
GENIUS_GENCFG3_13
 70
     0
  0
APPID
  2
GENIUS_GENCFG4_13
 70
     0
  0
APPID
  2
GENIUS_GEVCFG0_13
 70
     0
  0
APPID
  2
GENIUS_GENOENT_13
 70
     0
  0
APPID
  2
GENIUS_GENREC_14
 70
     0
  0
APPID
  2
GENIUS_GENODEF_13
 70
     0
  0
APPID
  2
GENIUS_GENOBJ-N-REC_13
 70
     0
  0
APPID
  2
GENIUS_GENHINW_13
 70
     0
  0
APPID
  2
GENIUS_FIRSTVISTXT_14
 70
     0
  0
APPID
  2
GENIUS_GENOBJ-N-LEADER_13
 70
     0
  0
APPID
  2
GENIUS_GENOREF_13
 70
     0
  0
APPID
  2
GENIUS_GENOLIS_13
 70
     0
  0
APPID
  2
GEV_VCCNULL_SWITCH_OFF
 70
     0
  0
APPID
  2
GENIUS_GENDTOL_13
 70
     0
  0
APPID
  2
GENIUS_GEFCFG0_13
 70
     0
  0
APPID
  2
GENIUS_GENOBJ-N-TIT_13
 70
     0
  0
APPID
  2
GENIUS_GENTITLE_13
 70
     0
  0
APPID
  2
GENIUS_GENZVEED_13
 70
     0
  0
APPID
  2
GENIUS_GENOBJ-N-SDF_13
 70
     0
  0
APPID
  2
GENIUS_GENSCREG_13
 70
     0
  0
APPID
  2
GENIUS_DUMCFG0_13
 70
     0
  0
APPID
  2
GEVID936201362
 70
     0
  0
APPID
  2
GEVDC
 70
     0
  0
APPID
  2
GEVCON
 70
     0
  0
APPID
  2
VCC
 70
     0
  0
APPID
  2
GEVPT
 70
     0
  0
APPID
  2
GEVIT
 70
     0
  0
APPID
  2
GENBH
 70
     0
  0
APPID
  2
GEVMK
 70
     0
  0
APPID
  2
GENIUS_GENBH_13
 70
     0
  0
APPID
  2
GENIUS_GENOBJ-NBEHI-BHF_13
 70
     0
  0
APPID
  2
GENIUS_GENOBJ-NBEHI-BHB_13
 70
     0
  0
APPID
  2
GENIUS_GENOBJ-F-DESC_13
 70
     0
  0
APPID
  2
GENIUS_GEFDESC_14
 70
     0
  0
APPID
  2
GENIUS_GENOBJ-F-PART_13
 70
     0
  0
APPID
  2
GENIUS_GEFSTDP_13
 70
     0
  0
APPID
  2
GENIUS_GEFPARTINS_13
 70
     0
  0
APPID
  2
GENIUS_GENTRA_14
 70
     0
  0
APPID
  2
GENIUS_GENINF13_13
 70
     0
  0
APPID
  2
GENIUS_GENOBJ-N-INFOPT_13
 70
     0
  0
APPID
  2
GENIUS_GENOBJ-N-RSSYM_13
 70
     0
  0
APPID
  2
GENIUS_GENSYMENT_13
 70
     0
  0
APPID
  2
GENIUS_GENSCSYM_13
 70
     0
  0
APPID
  2
GENIUS_GEFINFNAM_13
 70
     0
  0
APPID
  2
GENIUS_GENSCREG_15
 70
     0
  0
APPID
  2
GENIUS_GENOBJ-N-CEN_13
 70
     0
  0
APPID
  2
GENIUS_GENOBJ-N-CRS_13
 70
     0
  0
APPID
  2
GENIUS_GENOBJ-N-CRC_13
 70
     0
  0
APPID
  2
GENIUS_GENCRC_14
 70
     0
  0
APPID
  2
GEVID942827039
 70
     0
  0
APPID
  2
GEVID942827040
 70
     0
  0
APPID
  2
GEVID942827041
 70
     0
  0
APPID
  2
GENIUS_GENOBJ-F-SCPASSM_13
 70
     0
  0
APPID
  2
GENIUS_GENDIMSH_14
 70
     0
  0
APPID
  2
GENIUS_GENFIL_13
 70
     0
  0
APPID
  2
GENIUS_GENOBJ-N-CHA_13
 70
     0
  0
APPID
  2
GENIUS_GENOBJ-N-FIL_13
 70
     0
  0
APPID
  2
GEVID942827042
 70
     0
  0
APPID
  2
GEVID946020473
 70
     0
  0
APPID
  2
GEVID946020474
 70
     0
  0
APPID
  2
GEVID946020475
 70
     0
  0
APPID
  2
GENIUS_GENOBJ-N-HTC_13
 70
     0
  0
APPID
  2
GENIUS_GENHATCH_13
 70
     0
  0
APPID
  2
GEVID948854295
 70
     0
  0
APPID
  2
GEVID939402019
 70
     0
  0
APPID
  2
GEVID952919491
 70
     0
  0
APPID
  2
GEVID952919492
 70
     0
  0
APPID
  2
GENIUS_GEFWELD_13
 70
     0
  0
APPID
  2
GENIUS_GENOBJ-F-WELS_13
 70
     0
  0
APPID
  2
GEVID952919493
 70
     0
  0
APPID
  2
GENIUS_GENOBJ-N-RSBK_13
 70
     0
  0
APPID
  2
GENIUS_GENOBJ-N-LIB_13
 70
     0
  0
APPID
  2
GENIUS_GENSCALE_13
 70
     0
  0
APPID
  2
GEVID986376691
 70
     0
  0
APPID
  2
ACATTRIBSERVICES
 70
     0
  0
APPID
  2
ACAD_MLEADERVER
 70
     0
  0
APPID
  2
ACADM_DIM_EDIT
 70
     0
  0
APPID
  2
AMDT_DM_ADJ
 70
     0
  0
APPID
  2
ACADANNOTATIVE
 70
     0
  0
APPID
  2
GEVID1057795304
 70
     0
  0
APPID
  2
GENIUS_GEFSH_13
 70
     0
  0
APPID
  2
GENIUS_GENOBJ-F-SHS_13
 70
     0
  0
APPID
  2
ACAECLAYERSTANDARD
 70
     0
  0
APPID
  2
ACAD_PSEXT
 70
     0
  0
APPID
  2
ACAD_DSTYLE_DIMBREAK
 70
     0
  0
APPID
  2
ACAD_DSTYLE_DIMJAG
 70
     0
  0
APPID
  2
ACAD_NAV_VCDISPLAY
 70
     0
  0
APPID
  2
ACADANNOPO
 70
     0
  0
APPID
  2
ACAD_EXEMPT_FROM_CAD_STANDARDS
 70
     0
  0
ENDTAB
  0
TABLE
  2
DIMSTYLE
 70
    21
  0
DIMSTYLE
  2
STANDARD
 70
     0
  3

  4

  5

  6

  7

 40
1.0
 41
0.18
 42
0.0625
 43
0.38
 44
0.18
 45
0.0
 46
0.0
 47
0.0
 48
0.0
140
0.18
141
0.09
142
0.0
143
25.399999999999999
144
1.0
145
0.0
146
1.0
147
0.09
 71
     0
 72
     0
 73
     1
 74
     1
 75
     0
 76
     0
 77
     0
 78
     0
170
     0
171
     2
172
     0
173
     0
174
     0
175
     0
176
     0
177
     0
178
     0
  0
DIMSTYLE
  2
AM_JIS
 70
     0
  3

  4
"
  5

  6

  7

 40
1.0
 41
2.0
 42
1.0
 43
8.0
 44
1.0
 45
0.0
 46
0.0
 47
0.1
 48
0.1
140
2.5
141
0.0
142
0.0
143
0.0393701
144
1.0
145
0.0
146
0.71
147
1.5
 71
     0
 72
     0
 73
     0
 74
     0
 75
     0
 76
     0
 77
     3
 78
     8
170
     0
171
     2
172
     1
173
     0
174
     0
175
     0
176
     2
177
     2
178
     4
  0
DIMSTYLE
  2
AM_JIS$3
 70
     0
  3

  4
"
  5

  6

  7

 40
1.0
 41
2.0
 42
1.0
 43
10.0
 44
1.0
 45
0.0
 46
0.0
 47
0.1
 48
0.1
140
2.5
141
0.0
142
0.0
143
0.0393701
144
1.0
145
0.0
146
0.71
147
1.5
 71
     0
 72
     0
 73
     0
 74
     1
 75
     0
 76
     0
 77
     3
 78
     8
170
     0
171
     2
172
     0
173
     0
174
     0
175
     0
176
     2
177
     2
178
     4
  0
DIMSTYLE
  2
AM_JIS$4
 70
     0
  3

  4
"
  5

  6

  7

 40
1.0
 41
2.0
 42
1.0
 43
10.0
 44
1.0
 45
0.0
 46
0.0
 47
0.1
 48
0.1
140
2.5
141
0.0
142
0.0
143
0.0393701
144
1.0
145
0.0
146
0.71
147
1.5
 71
     0
 72
     0
 73
     0
 74
     0
 75
     0
 76
     0
 77
     3
 78
     8
170
     0
171
     2
172
     0
173
     0
174
     0
175
     0
176
     2
177
     2
178
     4
  0
DIMSTYLE
  2
AM_JIS$6
 70
     0
  3

  4
"
  5

  6

  7

 40
1.0
 41
2.0
 42
1.0
 43
10.0
 44
1.0
 45
0.0
 46
0.0
 47
0.1
 48
0.1
140
2.5
141
0.0
142
0.0
143
0.0393701
144
1.0
145
0.0
146
0.71
147
1.5
 71
     0
 72
     0
 73
     0
 74
     0
 75
     0
 76
     0
 77
     0
 78
     8
170
     0
171
     2
172
     1
173
     0
174
     0
175
     0
176
     2
177
     2
178
     4
  0
DIMSTYLE
  2
AM_JIS$7
 70
     0
  3

  4
"
  5

  6
OPEN30
  7
OPEN30
 40
1.0
 41
2.0
 42
1.0
 43
10.0
 44
1.0
 45
0.0
 46
0.0
 47
0.1
 48
0.1
140
2.5
141
0.0
142
0.0
143
0.0393701
144
1.0
145
0.0
146
0.71
147
1.5
 71
     0
 72
     0
 73
     0
 74
     0
 75
     0
 76
     0
 77
     3
 78
     8
170
     0
171
     2
172
     1
173
     0
174
     0
175
     0
176
     2
177
     2
178
     4
  0
DIMSTYLE
  2
AM_JIS$SF
 70
     0
  3

  4
"
  5

  6

  7

 40
1.0
 41
2.0
 42
1.0
 43
10.0
 44
1.0
 45
0.0
 46
0.0
 47
0.1
 48
0.1
140
2.5
141
0.0
142
0.0
143
0.0393701
144
1.0
145
0.0
146
0.71
147
1.5
 71
     0
 72
     0
 73
     0
 74
     0
 75
     1
 76
     1
 77
     3
 78
     8
170
     0
171
     2
172
     1
173
     0
174
     0
175
     0
176
     2
177
     2
178
     4
  0
DIMSTYLE
  2
AM_JIS$SH
 70
     0
  3

  4
"
  5

  6
GENAXEH
  7

 40
1.0
 41
2.0
 42
1.0
 43
10.0
 44
1.0
 45
0.0
 46
0.0
 47
0.1
 48
0.1
140
2.5
141
0.0
142
0.0
143
0.0393701
144
2.0
145
0.0
146
0.71
147
1.5
 71
     0
 72
     0
 73
     0
 74
     0
 75
     1
 76
     1
 77
     3
 78
     8
170
     0
171
     2
172
     1
173
     1
174
     0
175
     0
176
     2
177
     2
178
     4
  0
DIMSTYLE
  2
AM_ISO
 70
     0
  3

  4
"
  5

  6

  7

 40
1.0
 41
2.5
 42
1.0
 43
10.0
 44
1.0
 45
0.0
 46
0.0
 47
0.1
 48
0.1
140
3.5
141
0.0
142
0.0
143
0.0393701
144
1.0
145
0.0
146
0.71
147
1.5
 71
     0
 72
     0
 73
     0
 74
     0
 75
     0
 76
     0
 77
     1
 78
     8
170
     0
171
     2
172
     1
173
     0
174
     0
175
     0
176
   256
177
   256
178
     2
  0
DIMSTYLE
  2
AM_ISO$3
 70
     0
  3

  4
"
  5

  6

  7

 40
1.0
 41
2.5
 42
1.0
 43
10.0
 44
1.0
 45
0.0
 46
0.0
 47
0.1
 48
0.1
140
3.5
141
0.0
142
0.0
143
0.0393701
144
1.0
145
0.0
146
0.71
147
1.5
 71
     0
 72
     0
 73
     0
 74
     1
 75
     0
 76
     0
 77
     1
 78
     8
170
     0
171
     2
172
     0
173
     0
174
     0
175
     0
176
   256
177
   256
178
     2
  0
DIMSTYLE
  2
AM_ISO$4
 70
     0
  3

  4
"
  5

  6

  7

 40
1.0
 41
2.5
 42
1.0
 43
10.0
 44
1.0
 45
0.0
 46
0.0
 47
0.1
 48
0.1
140
3.5
141
0.0
142
0.0
143
0.0393701
144
1.0
145
0.0
146
0.71
147
1.5
 71
     0
 72
     0
 73
     0
 74
     1
 75
     0
 76
     0
 77
     1
 78
     8
170
     0
171
     2
172
     0
173
     0
174
     0
175
     0
176
   256
177
   256
178
     2
  0
DIMSTYLE
  2
AM_ISO$6
 70
     0
  3

  4
"
  5

  6

  7

 40
1.0
 41
2.5
 42
1.0
 43
10.0
 44
1.0
 45
0.0
 46
0.0
 47
0.1
 48
0.1
140
3.5
141
0.0
142
0.0
143
0.0393701
144
1.0
145
0.0
146
0.71
147
1.5
 71
     0
 72
     0
 73
     0
 74
     0
 75
     0
 76
     0
 77
     0
 78
     8
170
     0
171
     2
172
     1
173
     0
174
     0
175
     0
176
   256
177
   256
178
     2
  0
DIMSTYLE
  2
AM_ISO$7
 70
     0
  3

  4
"
  5

  6

  7

 40
1.0
 41
2.5
 42
1.0
 43
10.0
 44
1.0
 45
0.0
 46
0.0
 47
0.1
 48
0.1
140
5.0
141
0.0
142
0.0
143
0.0393701
144
1.0
145
0.0
146
0.71
147
1.5
 71
     0
 72
     0
 73
     0
 74
     0
 75
     0
 76
     0
 77
     1
 78
     8
170
     0
171
     2
172
     1
173
     0
174
     0
175
     0
176
   256
177
   256
178
     2
  0
DIMSTYLE
  2
AM_ISO$SF
 70
     0
  3

  4
"
  5

  6

  7

 40
1.0
 41
2.5
 42
1.0
 43
10.0
 44
1.0
 45
0.0
 46
0.0
 47
0.1
 48
0.1
140
3.5
141
0.0
142
0.0
143
0.0393701
144
1.0
145
0.0
146
0.71
147
1.5
 71
     0
 72
     0
 73
     0
 74
     0
 75
     1
 76
     1
 77
     1
 78
     8
170
     0
171
     2
172
     1
173
     0
174
     0
175
     0
176
   256
177
   256
178
     2
  0
DIMSTYLE
  2
AM_ISO$SH
 70
     0
  3

  4
"
  5

  6
GENAXEH
  7

 40
1.0
 41
2.5
 42
1.0
 43
10.0
 44
1.0
 45
0.0
 46
0.0
 47
0.1
 48
0.1
140
3.5
141
0.0
142
0.0
143
0.0393701
144
2.0
145
0.0
146
0.71
147
1.5
 71
     0
 72
     0
 73
     0
 74
     0
 75
     1
 76
     1
 77
     1
 78
     8
170
     0
171
     2
172
     1
173
     1
174
     0
175
     0
176
   256
177
   256
178
     2
  0
DIMSTYLE
  2
AM_ANSI
 70
     0
  3

  4
"
  5

  6

  7

 40
1.0
 41
2.5
 42
1.0
 43
10.0
 44
1.0
 45
0.0
 46
0.0
 47
0.1
 48
0.1
140
3.5
141
0.0
142
0.0
143
0.0393701
144
1.0
145
0.0
146
0.71
147
1.5
 71
     0
 72
     0
 73
     1
 74
     1
 75
     0
 76
     0
 77
     0
 78
     8
170
     0
171
     2
172
     0
173
     0
174
     0
175
     0
176
     2
177
     2
178
     4
  0
DIMSTYLE
  2
AM_ANSI$3
 70
     0
  3

  4
"
  5

  6

  7

 40
1.0
 41
2.5
 42
1.0
 43
10.0
 44
1.0
 45
0.0
 46
0.0
 47
0.1
 48
0.1
140
3.5
141
0.0
142
0.0
143
0.0393701
144
1.0
145
0.0
146
0.71
147
1.5
 71
     0
 72
     0
 73
     1
 74
     1
 75
     0
 76
     0
 77
     0
 78
     8
170
     0
171
     2
172
     0
173
     0
174
     0
175
     0
176
     2
177
     2
178
     4
  0
DIMSTYLE
  2
AM_ANSI$4
 70
     0
  3

  4
"
  5

  6

  7

 40
1.0
 41
2.5
 42
1.0
 43
10.0
 44
1.0
 45
0.0
 46
0.0
 47
0.1
 48
0.1
140
3.5
141
0.0
142
0.0
143
0.0393701
144
1.0
145
0.0
146
0.71
147
1.5
 71
     0
 72
     0
 73
     1
 74
     1
 75
     0
 76
     0
 77
     0
 78
     8
170
     0
171
     2
172
     0
173
     0
174
     0
175
     0
176
     2
177
     2
178
     4
  0
DIMSTYLE
  2
AM_ANSI$7
 70
     0
  3

  4
"
  5

  6

  7

 40
1.0
 41
2.5
 42
1.0
 43
10.0
 44
1.0
 45
0.0
 46
0.0
 47
0.1
 48
0.1
140
5.0
141
0.0
142
0.0
143
0.0393701
144
1.0
145
0.0
146
0.71
147
1.5
 71
     0
 72
     0
 73
     1
 74
     1
 75
     0
 76
     0
 77
     0
 78
     8
170
     0
171
     2
172
     0
173
     0
174
     0
175
     0
176
     2
177
     2
178
     4
  0
DIMSTYLE
  2
AM_ANSI$SF
 70
     0
  3

  4
"
  5

  6

  7

 40
1.0
 41
2.5
 42
1.0
 43
10.0
 44
1.0
 45
0.0
 46
0.0
 47
0.1
 48
0.1
140
3.5
141
0.0
142
0.0
143
0.0393701
144
1.0
145
0.0
146
0.71
147
1.5
 71
     0
 72
     0
 73
     1
 74
     1
 75
     1
 76
     1
 77
     0
 78
     8
170
     0
171
     2
172
     0
173
     0
174
     0
175
     0
176
     2
177
     2
178
     4
  0
DIMSTYLE
  2
AM_ANSI$SH
 70
     0
  3

  4
"
  5

  6
GENAXEH
  7

 40
1.0
 41
2.5
 42
1.0
 43
10.0
 44
1.0
 45
0.0
 46
0.0
 47
0.1
 48
0.1
140
3.5
141
0.0
142
0.0
143
0.0393701
144
1.0
145
0.0
146
0.71
147
1.5
 71
     0
 72
     0
 73
     1
 74
     1
 75
     1
 76
     1
 77
     0
 78
     8
170
     0
171
     2
172
     0
173
     1
174
     0
175
     0
176
     2
177
     2
178
     4
  0
ENDTAB
  0
ENDSEC
  0
SECTION
  2
BLOCKS
  0
BLOCK
  8
0
  2
$MODEL_SPACE
 70
     0
 10
0.0
 20
0.0
 30
0.0
  3
$MODEL_SPACE
  1

  0
ENDBLK
  5
1A
  8
0
  0
BLOCK
 67
     1
  8
0
  2
$PAPER_SPACE
 70
     0
 10
0.0
 20
0.0
 30
0.0
  3
$PAPER_SPACE
  1

  0
ENDBLK
  5
17
 67
     1
  8
0
  0
BLOCK
  8
0
  2
_OPEN30
 70
     0
 10
0.0
 20
0.0
 30
0.0
  3
_OPEN30
  1

  0
LINE
  5
A26E
  8
0
  6
BYBLOCK
 62
     0
 10
-1.0
 20
0.26794919
 30
0.0
 11
0.0
 21
0.0
 31
0.0
  0
LINE
  5
A26F
  8
0
  6
BYBLOCK
 62
     0
 10
0.0
 20
0.0
 30
0.0
 11
-1.0
 21
-0.26794919
 31
0.0
  0
LINE
  5
A270
  8
0
  6
BYBLOCK
 62
     0
 10
0.0
 20
0.0
 30
0.0
 11
-1.0
 21
0.0
 31
0.0
  0
ENDBLK
  5
A271
  8
0
  0
BLOCK
  8
0
  2
GENAXEH
 70
     0
 10
0.0
 20
0.0
 30
0.0
  3
GENAXEH
  1

  0
LINE
  5
A22B
  8
0
 10
-1.0
 20
0.0
 30
0.0
 11
1.0
 21
0.0
 31
0.0
  0
ENDBLK
  5
A22C
  8
0
  0
ENDSEC
  0
SECTION
  2
ENTITIES
  0
POINT
  5
1B94
  8
0
 10
0.0
 20
0.0
 30
0.0
1001
GENIUS_GENODEF_13
1002
{
1000
HIER
1070
     1
1002
}
1002
{
1000
MANEDIT
1070
     0
1002
}
1002
{
1000
NOSEL
1070
     0
1002
}
1002
{
1000
BEHIND
1070
     0
1002
}
1002
{
1000
REACTOR
1002
}
1001
GENIUS_GENOBJ-N-SDF_13
1002
{
1000
OWNER
1000
GEN
1002
}
1001
GENIUS_GENOENT_13
1002
{
1000
MYREF
1005
1B94
1002
}
1002
{
1000
GRP
1005
0
1002
}
1001
GENIUS_GENOLIS_13
1002
{
1000
ENT
1005
89
1002
}
  0
LINE
  5
88B0
  8
AM_0
 10
209.08592626658131
 20
192.99980271343509
 30
0.0
 11
227.13164626658141
 21
192.99980271343509
 31
0.0
  0
LINE
  5
88B1
  8
AM_0
 10
223.43309626658129
 20
192.50981271343491
 30
0.0
 11
209.08592626658131
 21
192.50981271343491
 31
0.0
  0
LINE
  5
88B2
  8
AM_0
 10
209.0659662665812
 20
199.869792713435
 30
0.0
 11
226.90593626658119
 21
199.869792713435
 31
0.0
  0
LINE
  5
88B4
  8
AM_0
 10
226.90593626658119
 20
133.13981271343499
 30
0.0
 11
209.0659662665812
 21
133.13981271343499
 31
0.0
  0
LINE
  5
88B5
  8
AM_0
 10
209.08592626658131
 20
140.02983271343501
 30
0.0
 11
227.12016626658129
 21
140.02983271343501
 31
0.0
  0
LINE
  5
88B6
  8
AM_0
 10
223.4187562665812
 20
140.509812713435
 30
0.0
 11
209.08592626658131
 21
140.509812713435
 31
0.0
  0
LINE
  5
88B8
  8
AM_0
 10
223.4259562665811
 20
132.509812713435
 30
0.0
 11
179.08592626658131
 21
132.509812713435
 31
0.0
  0
LINE
  5
88B9
  8
AM_0
 10
223.4259562665811
 20
130.509812713435
 30
0.0
 11
179.08592626658131
 21
130.509812713435
 31
0.0
  0
LINE
  5
88BA
  8
AM_0
 10
179.08592626658131
 20
129.78984271343501
 30
0.0
 11
226.90593626658119
 21
129.78984271343501
 31
0.0
  0
LINE
  5
88BB
  8
AM_0
 10
125.3359262665812
 20
225.63981271343499
 30
0.0
 11
222.2159362665812
 21
225.63981271343499
 31
0.0
  0
LINE
  5
88BC
  8
AM_0
 10
223.4259562665811
 20
202.509812713435
 30
0.0
 11
124.44591626658119
 21
202.509812713435
 31
0.0
  0
LINE
  5
88BD
  8
AM_0
 10
223.4259562665811
 20
200.50981271343491
 30
0.0
 11
124.44591626658119
 21
200.50981271343491
 31
0.0
  0
LINE
  5
88BE
  8
AM_0
 10
223.4187562665812
 20
190.50981271343491
 30
0.0
 11
124.44591626658119
 21
190.50981271343491
 31
0.0
  0
LINE
  5
88BF
  8
AM_0
 10
123.7659162665813
 20
203.2297827134351
 30
0.0
 11
226.90593626658119
 21
203.2297827134351
 31
0.0
  0
LINE
  5
88C0
  8
AM_0
 10
123.5459462665812
 20
190.0698627134351
 30
0.0
 11
227.12016626658129
 21
190.0698627134351
 31
0.0
  0
LINE
  5
88C1
  8
AM_0
 10
125.2959462665812
 20
222.78984271343509
 30
0.0
 11
222.2159362665812
 21
222.78984271343509
 31
0.0
  0
LINE
  5
88C2
  8
AM_0
 10
125.3559462665812
 20
227.48979271343509
 30
0.0
 11
222.2159362665812
 21
227.48979271343509
 31
0.0
  0
LINE
  5
88C3
  8
AM_0
 10
125.3759662665811
 20
228.39982271343499
 30
0.0
 11
222.21599626658119
 21
228.39982271343499
 31
0.0
  0
LINE
  5
88C4
  8
AM_0
 10
223.4187562665812
 20
142.509812713435
 30
0.0
 11
124.44591626658119
 21
142.509812713435
 31
0.0
  0
LINE
  5
88C5
  8
AM_0
 10
123.5459462665812
 20
142.949752713435
 30
0.0
 11
227.12016626658129
 21
142.949752713435
 31
0.0
  0
ARC
  5
88C6
  8
AM_0
 10
210.66502507451739
 20
102.509812713435
 30
0.0
 40
1.5
 50
90.0
 51
178.5000740567499
1001
GENIUS_GENODEF_13
1002
{
1000
HIER
1070
     0
1002
}
1002
{
1000
MANEDIT
1070
     0
1002
}
1002
{
1000
NOSEL
1070
     0
1002
}
1002
{
1000
BEHIND
1070
     0
1002
}
1002
{
1000
REACTOR
1002
}
1001
GENIUS_GENOBJ-N-FIL_13
1002
{
1000
OWNER
1000
GEN
1002
}
  0
LINE
  5
88C7
  8
AM_0
 10
125.2959462665812
 20
110.229782713435
 30
0.0
 11
222.2159362665812
 21
110.229782713435
 31
0.0
  0
LINE
  5
88C8
  8
AM_0
 10
130.585926266581
 20
97.009812713435053
 30
0.0
 11
210.58592626658111
 21
97.009812713435053
 31
0.0
  0
LINE
  5
88C9
  8
AM_0
 10
210.58592626658111
 20
100.5098127134349
 30
0.0
 11
130.585926266581
 21
100.5098127134349
 31
0.0
  0
LINE
  5
88CA
  8
AM_0
 10
210.58592626658111
 20
93.509812713435039
 30
0.0
 11
153.085926266581
 21
93.509812713435039
 31
0.0
  0
LINE
  5
88CD
  8
ﾁｭｳｼﾝｾﾝ1
 10
404.59203386512428
 20
166.509812713435
 30
0.0
 11
100.5920297822063
 21
166.509812713435
 31
0.0
  0
LINE
  5
88CF
  8
AM_0
 10
122.0859262665813
 20
115.729872713435
 30
0.0
 11
123.0952062665813
 21
109.07969271343499
 31
0.0
  0
LINE
  5
88D0
  8
AM_0
 10
122.0859862665811
 20
115.729842713435
 30
0.0
 11
123.0114062665811
 21
109.103252713435
 31
0.0
  0
LINE
  5
88D2
  8
AM_0
 10
122.0859262665813
 20
118.419782713435
 30
0.0
 11
123.32597626658109
 21
111.859782713435
 31
0.0
  0
LINE
  5
88D3
  8
AM_0
 10
122.0859262665813
 20
117.0697727134351
 30
0.0
 11
123.36595626658119
 21
109.0698627134351
 31
0.0
  0
ARC
  5
88D4
  8
AM_0
 10
142.585926266581
 20
88.509812713435039
 30
0.0
 40
7.499999999999992
 50
180.0
 51
270.0
  0
ARC
  5
88D5
  8
AM_0
 10
143.585926266581
 20
89.509812713435053
 30
0.0
 40
7.5000000000000018
 50
180.0
 51
0.0
  0
LINE
  5
88D7
  8
AM_0
 10
124.9921762665813
 20
107.3798027134351
 30
0.0
 11
147.41863908793289
 21
107.3798027134351
 31
0.0
  0
LINE
  5
88DA
  8
AM_0
 10
208.08592626658111
 20
77.009812713435053
 30
0.0
 11
133.085926266581
 21
77.009812713435053
 31
0.0
  0
LINE
  5
88E9
  8
AM_0
 10
132.085926266581
 20
93.509812713435039
 30
0.0
 11
132.085926266581
 21
78.009812713435053
 31
0.0
  0
ARC
  5
88EE
  8
AM_0
 10
133.085926266581
 20
78.009812713435053
 30
0.0
 40
1.0
 50
180.0
 51
270.0
  0
LINE
  5
88EF
  8
AM_0
 10
136.085926266581
 20
97.009812713435053
 30
0.0
 11
136.085926266581
 21
89.509812713435053
 31
0.0
  0
LINE
  5
88F0
  8
AM_0
 10
130.585926266581
 20
100.5098127134349
 30
0.0
 11
130.585926266581
 21
81.009812713435039
 31
0.0
  0
LINE
  5
88F1
  8
AM_0
 10
130.585926266581
 20
93.509812713435039
 30
0.0
 11
134.085926266581
 21
93.509812713435039
 31
0.0
  0
LINE
  5
88F2
  8
AM_0
 10
130.585926266581
 20
81.009812713435039
 30
0.0
 11
132.085926266581
 21
81.009812713435039
 31
0.0
  0
LINE
  5
88F4
  8
AM_0
 10
135.085926266581
 20
92.509812713435025
 30
0.0
 11
135.085926266581
 21
88.509812713435039
 31
0.0
  0
ARC
  5
88F5
  8
AM_0
 10
134.085926266581
 20
92.509812713435025
 30
0.0
 40
1.0
 50
0.0
 51
90.0
  0
ARC
  5
88F6
  8
AM_0
 10
125.29082626658121
 20
112.22904271343501
 30
0.0
 40
1.9992490000000001
 50
190.643100000001
 51
270.14743000000129
  0
ARC
  5
88F7
  8
AM_0
 10
125.3421562665812
 20
109.380172713435
 30
0.0
 40
2.000420099999999
 50
188.92682000000119
 51
269.82270999999929
  0
ARC
  5
88F8
  8
AM_0
 10
125.0725562665811
 20
109.3798027134351
 30
0.0
 40
2.0
 50
188.62961999999749
 51
269.999989999999
  0
ARC
  5
88F9
  8
AM_0
 10
124.9921762665813
 20
109.3798027134351
 30
0.0
 40
2.0
 50
187.9504400000034
 51
269.999989999999
  0
LINE
  5
88FA
  8
AM_0
 10
196.88992626658111
 20
74.009812713435053
 30
0.0
 11
161.28192626658119
 21
74.009812713435053
 31
0.0
  0
ARC
  5
88FB
  8
AM_0
 10
144.585926266581
 20
88.509812713435039
 30
0.0
 40
7.4999999999999956
 50
270.0
 51
0.0
  0
LINE
  5
88FC
  8
AM_0
 10
161.28192626658119
 20
74.009812713435053
 30
0.0
 11
156.09315075637809
 21
77.009812713435053
 31
0.0
  0
LINE
  5
88FD
  8
AM_0
 10
147.585926266581
 20
97.009812713435053
 30
0.0
 11
147.585926266581
 21
89.509812713435053
 31
0.0
  0
LINE
  5
88FE
  8
AM_0
 10
151.085926266581
 20
89.509812713435053
 30
0.0
 11
151.085926266581
 21
97.009812713435053
 31
0.0
  0
LINE
  5
88FF
  8
AM_0
 10
139.585926266581
 20
97.009812713435053
 30
0.0
 11
139.585926266581
 21
89.509812713435053
 31
0.0
  0
ARC
  5
8900
  8
AM_0
 10
143.585926266581
 20
89.509812713435053
 30
0.0
 40
3.999999999999996
 50
180.0
 51
0.0
  0
LINE
  5
8901
  8
AM_0
 10
144.585926266581
 20
81.009812713435039
 30
0.0
 11
142.585926266581
 21
81.009812713435039
 31
0.0
  0
LINE
  5
8902
  8
AM_0
 10
152.085926266581
 20
88.509812713435039
 30
0.0
 11
152.085926266581
 21
92.509812713435025
 31
0.0
  0
ARC
  5
8903
  8
AM_0
 10
153.085926266581
 20
92.509812713435025
 30
0.0
 40
1.0
 50
90.0
 51
180.0
  0
ARC
  5
8904
  8
AM_0
 10
147.41863908793289
 20
105.8798027134351
 30
0.0
 40
1.5
 50
1.499722450987816
 51
90.0
1001
GENIUS_GENODEF_13
1002
{
1000
HIER
1070
     0
1002
}
1002
{
1000
MANEDIT
1070
     0
1002
}
1002
{
1000
NOSEL
1070
     0
1002
}
1002
{
1000
BEHIND
1070
     0
1002
}
1002
{
1000
REACTOR
1002
}
1001
GENIUS_GENOBJ-N-FIL_13
1002
{
1000
OWNER
1000
GEN
1002
}
  0
LINE
  5
8905
  8
AM_0
 10
149.05974519247729
 20
100.509812713435
 30
0.0
 11
148.8052659376178
 21
110.2297827134349
 31
0.0
  0
LINE
  5
8906
  8
AM_0
 10
209.08592626658111
 20
93.509812713435039
 30
0.0
 11
209.08592626658111
 21
78.009812713435053
 31
0.0
  0
LINE
  5
8907
  8
AM_0
 10
202.08592626658111
 20
77.009812713435053
 30
0.0
 11
196.88992626658111
 21
74.009812713435053
 31
0.0
  0
ARC
  5
8908
  8
AM_0
 10
208.08592626658111
 20
78.00981271343494
 30
0.0
 40
1.0
 50
270.0
 51
0.0
  0
LINE
  5
8909
  8
AM_0
 10
209.11214168026891
 20
100.5098127134349
 30
0.0
 11
209.3666554803367
 21
110.229782713435
 31
0.0
  0
LINE
  5
890A
  8
AM_0
 10
158.5246462665813
 20
182.509812713435
 30
0.0
 11
124.44591626658119
 21
182.509812713435
 31
0.0
  0
LINE
  5
890B
  8
AM_0
 10
123.4159462665811
 20
182.8497727134351
 30
0.0
 11
159.7446162665812
 21
182.8497727134351
 31
0.0
  0
LINE
  5
890C
  8
AM_0
 10
158.5246462665813
 20
160.509812713435
 30
0.0
 11
124.44591626658119
 21
160.509812713435
 31
0.0
  0
LINE
  5
890D
  8
AM_0
 10
123.3559462665812
 20
160.23979271343501
 30
0.0
 11
159.80461626658141
 21
160.23979271343501
 31
0.0
  0
LINE
  5
890E
  8
AM_0
 10
123.4159462665811
 20
152.829752713435
 30
0.0
 11
159.7446162665812
 21
152.829752713435
 31
0.0
  0
LINE
  5
890F
  8
AM_0
 10
158.5246462665813
 20
152.509812713435
 30
0.0
 11
124.44591626658119
 21
152.509812713435
 31
0.0
  0
LINE
  5
8910
  8
AM_0
 10
158.5246462665813
 20
150.509812713435
 30
0.0
 11
124.44591626658119
 21
150.509812713435
 31
0.0
  0
LINE
  5
8911
  8
AM_0
 10
123.4159462665811
 20
150.169842713435
 30
0.0
 11
159.7571962665811
 21
150.169842713435
 31
0.0
  0
LINE
  5
8912
  8
AM_0
 10
158.5246462665813
 20
180.509812713435
 30
0.0
 11
124.44591626658119
 21
180.509812713435
 31
0.0
  0
LINE
  5
8913
  8
AM_0
 10
158.5246462665813
 20
172.509812713435
 30
0.0
 11
124.44591626658119
 21
172.509812713435
 31
0.0
  0
LINE
  5
8914
  8
AM_0
 10
158.5246462665813
 20
170.509812713435
 30
0.0
 11
124.44591626658119
 21
170.509812713435
 31
0.0
  0
LINE
  5
8915
  8
AM_0
 10
123.4159462665811
 20
180.1898627134351
 30
0.0
 11
159.7446162665812
 21
180.1898627134351
 31
0.0
  0
LINE
  5
8916
  8
AM_0
 10
123.3559462665812
 20
172.7798327134349
 30
0.0
 11
159.80461626658141
 21
172.7798327134349
 31
0.0
  0
LINE
  5
8917
  8
AM_0
 10
123.3559462665812
 20
170.24980271343509
 30
0.0
 11
159.80461626658141
 21
170.24980271343509
 31
0.0
  0
LINE
  5
8918
  8
AM_0
 10
123.3559462665812
 20
162.77983271343501
 30
0.0
 11
159.80461626658141
 21
162.77983271343501
 31
0.0
  0
LINE
  5
8919
  8
AM_0
 10
158.5246462665813
 20
162.509812713435
 30
0.0
 11
124.44591626658119
 21
162.509812713435
 31
0.0
  0
LINE
  5
891A
  8
AM_0
 10
191.08592626658131
 20
192.50981271343491
 30
0.0
 11
124.44591626658119
 21
192.50981271343491
 31
0.0
  0
LINE
  5
891B
  8
AM_0
 10
123.7659162665813
 20
199.87980271343491
 30
0.0
 11
191.10594626658121
 21
199.87980271343491
 31
0.0
  0
LINE
  5
891C
  8
AM_0
 10
123.5459462665812
 20
192.99980271343509
 30
0.0
 11
191.08592626658131
 21
192.99980271343509
 31
0.0
  0
LINE
  5
891D
  8
AM_0
 10
191.08592626658131
 20
140.509812713435
 30
0.0
 11
124.44591626658119
 21
140.509812713435
 31
0.0
  0
LINE
  5
891E
  8
AM_0
 10
123.5459462665812
 20
140.01982271343499
 30
0.0
 11
191.08592626658131
 21
140.01982271343499
 31
0.0
  0
LINE
  5
891F
  8
AM_0
 10
123.7659162665813
 20
129.78984271343501
 30
0.0
 11
179.08592626658131
 21
129.78984271343501
 31
0.0
  0
LINE
  5
8920
  8
AM_0
 10
179.08592626658131
 20
132.509812713435
 30
0.0
 11
124.44591626658119
 21
132.509812713435
 31
0.0
  0
LINE
  5
8921
  8
AM_0
 10
179.08592626658131
 20
130.509812713435
 30
0.0
 11
124.44591626658119
 21
130.509812713435
 31
0.0
  0
LINE
  5
8922
  8
AM_0
 10
123.7659162665813
 20
133.13981271343499
 30
0.0
 11
191.10594626658121
 21
133.13981271343499
 31
0.0
  0
POLYLINE
  5
8923
  8
AM_0
 66
     1
 10
0.0
 20
0.0
 30
0.0
  0
VERTEX
  5
8924
  8
AM_0
 10
124.48997626658139
 20
172.78019271343501
 30
0.0
 42
-0.00076691987
  0
VERTEX
  5
8925
  8
AM_0
 10
124.5047762665813
 20
173.39795271343499
 30
0.0
 42
-0.00073262795
  0
VERTEX
  5
8926
  8
AM_0
 10
124.5214162665811
 20
174.015552713435
 30
0.0
 42
-0.0007652954
  0
VERTEX
  5
8927
  8
AM_0
 10
124.539906266581
 20
174.63322271343509
 30
0.0
 42
-0.00077334627
  0
VERTEX
  5
8928
  8
AM_0
 10
124.5603162665811
 20
175.25082271343501
 30
0.0
 42
-0.00073282897
  0
VERTEX
  5
8929
  8
AM_0
 10
124.5825762665813
 20
175.868242713435
 30
0.0
 42
-0.0007571179
  0
VERTEX
  5
892A
  8
AM_0
 10
124.6066762665812
 20
176.48576271343501
 30
0.0
 42
-0.00073783152
  0
VERTEX
  5
892B
  8
AM_0
 10
124.63261626658139
 20
177.10315271343501
 30
0.0
 42
-0.0007835518
  0
VERTEX
  5
892C
  8
AM_0
 10
124.6604462665814
 20
177.72042271343491
 30
0.0
 42
-0.00074826133
  0
VERTEX
  5
892D
  8
AM_0
 10
124.6901762665811
 20
178.337812713435
 30
0.0
 42
-0.00074893555
  0
VERTEX
  5
892E
  8
AM_0
 10
124.721736266581
 20
178.95494271343489
 30
0.0
 42
-0.00076039841
  0
VERTEX
  5
892F
  8
AM_0
 10
124.7551562665812
 20
179.57197271343489
 30
0.0
 42
-0.00075618789
  0
VERTEX
  5
8930
  8
AM_0
 10
124.7904562665812
 20
180.189002713435
 30
0.0
  0
SEQEND
  5
8931
  8
AM_0
  0
LINE
  5
8932
  8
AM_0
 10
105.5920297822062
 20
151.2879804380444
 30
0.0
 11
105.5920297822062
 21
181.7316144712475
 31
0.0
  0
LINE
  5
8934
  8
AM_0
 10
108.0859262665813
 20
214.52983271343501
 30
0.0
 11
108.0859262665813
 21
171.509812713435
 31
0.0
  0
LINE
  5
8935
  8
AM_0
 10
106.5859262665812
 20
186.50981271343491
 30
0.0
 11
106.5859262665812
 21
146.509812713435
 31
0.0
  0
LINE
  5
8936
  8
AM_0
 10
114.0859262665813
 20
219.509812713435
 30
0.0
 11
114.0859262665813
 21
113.509812713435
 31
0.0
  0
LINE
  5
8937
  8
AM_0
 10
122.0859262665813
 20
219.509812713435
 30
0.0
 11
122.0859262665813
 21
113.509812713435
 31
0.0
  0
LINE
  5
8938
  8
AM_0
 10
113.0859262665813
 20
216.50981271343511
 30
0.0
 11
113.0859262665813
 21
116.509812713435
 31
0.0
  0
LINE
  5
893C
  8
AM_0
 10
108.0859262665813
 20
118.48979271343499
 30
0.0
 11
108.0859262665813
 21
161.509812713435
 31
0.0
  0
POLYLINE
  5
893D
  8
AM_0
 66
     1
 10
0.0
 20
0.0
 30
0.0
  0
VERTEX
  5
893E
  8
AM_0
 10
124.9641662665813
 20
150.16923271343501
 30
0.0
 42
0.00073721992
  0
VERTEX
  5
893F
  8
AM_0
 10
125.0083162665812
 20
149.56682271343499
 30
0.0
 42
0.00074398496
  0
VERTEX
  5
8940
  8
AM_0
 10
125.0542462665812
 20
148.96455271343501
 30
0.0
 42
0.00073322625
  0
VERTEX
  5
8941
  8
AM_0
 10
125.1019762665812
 20
148.36222271343499
 30
0.0
 42
0.00073594289
  0
VERTEX
  5
8942
  8
AM_0
 10
125.15145626658111
 20
147.76023271343499
 30
0.0
 42
0.00074742568
  0
VERTEX
  5
8943
  8
AM_0
 10
125.20272626658129
 20
147.158372713435
 30
0.0
 42
0.00073216749
  0
VERTEX
  5
8944
  8
AM_0
 10
125.2557862665812
 20
146.556562713435
 30
0.0
 42
0.00074184065
  0
VERTEX
  5
8945
  8
AM_0
 10
125.3106062665811
 20
145.955032713435
 30
0.0
 42
0.00072077528
  0
VERTEX
  5
8946
  8
AM_0
 10
125.3671862665812
 20
145.35380271343499
 30
0.0
 42
0.00074978179
  0
VERTEX
  5
8947
  8
AM_0
 10
125.425526266581
 20
144.75260271343501
 30
0.0
 42
0.00074288888
  0
VERTEX
  5
8948
  8
AM_0
 10
125.48567626658129
 20
144.151582713435
 30
0.0
 42
0.00072503679
  0
VERTEX
  5
8949
  8
AM_0
 10
125.54758626658121
 20
143.550842713435
 30
0.0
 42
0.00074640584
  0
VERTEX
  5
894A
  8
AM_0
 10
125.61125626658119
 20
142.95024271343499
 30
0.0
  0
SEQEND
  5
894B
  8
AM_0
  0
LINE
  5
894C
  8
AM_0
 10
114.0859262665813
 20
113.509812713435
 30
0.0
 11
122.0859262665813
 21
113.509812713435
 31
0.0
  0
ARC
  5
894D
  8
AM_0
 10
112.08269626658119
 20
125.536542713435
 30
0.0
 40
1.0032760000000001
 50
334.19810000000479
 51
359.61811000000478
  0
ARC
  5
894E
  8
AM_0
 10
112.0834862665811
 20
125.53227271343511
 30
0.0
 40
1.002470999999999
 50
270.14107000000013
 51
359.85892999999987
  0
ARC
  5
894F
  8
AM_0
 10
112.08183626658111
 20
121.01396271343501
 30
0.0
 40
1.0041199999999999
 50
270.23460999999998
 51
359.76539000000002
  0
ARC
  5
8950
  8
AM_0
 10
112.5825662665811
 20
118.413252713435
 30
0.0
 40
0.5033929900000002
 50
270.38491000000062
 51
359.61509999999811
  0
LINE
  5
8951
  8
AM_0
 10
110.36595626658119
 20
118.869792713435
 30
0.0
 11
113.0859262665813
 21
118.869792713435
 31
0.0
  0
LINE
  5
8952
  8
AM_0
 10
110.3859762665811
 20
123.38981271343501
 30
0.0
 11
113.0859262665813
 21
123.38981271343501
 31
0.0
  0
ARC
  5
8953
  8
AM_0
 10
112.5864162665812
 20
116.26029271343501
 30
0.0
 40
0.49952301
 50
359.9452300000014
 51
90.054773999999625
  0
LINE
  5
8954
  8
AM_0
 10
110.3559462665812
 20
124.529832713435
 30
0.0
 11
112.0859262665813
 21
124.529832713435
 31
0.0
  0
LINE
  5
8955
  8
AM_0
 10
110.0859262665813
 20
123.679852713435
 30
0.0
 11
110.0859262665813
 21
124.149822713435
 31
0.0
  0
ARC
  5
8956
  8
AM_0
 10
110.3492962665814
 20
125.53080271343499
 30
0.0
 40
1.001044999999998
 50
240.47187000000031
 51
270.37970999999948
  0
LINE
  5
8957
  8
AM_0
 10
110.3359262665813
 20
120.009812713435
 30
0.0
 11
112.0859262665813
 21
120.009812713435
 31
0.0
  0
LINE
  5
8958
  8
AM_0
 10
110.3259162665813
 20
117.90983271343499
 30
0.0
 11
112.5859262665813
 21
117.90983271343499
 31
0.0
  0
LINE
  5
8959
  8
AM_0
 10
110.0859262665813
 20
119.109782713435
 30
0.0
 11
110.0859262665813
 21
119.65983271343499
 31
0.0
  0
ARC
  5
895A
  8
AM_0
 10
110.3317762665811
 20
118.909102713435
 30
0.0
 40
0.9993420200000001
 50
242.86199999999801
 51
269.66546000000159
  0
ARC
  5
895B
  8
AM_0
 10
110.3573462665813
 20
119.8734527134351
 30
0.0
 40
1.003743999999998
 50
239.37112999999741
 51
270.49190000000061
  0
ARC
  5
895C
  8
AM_0
 10
110.3411162665811
 20
121.0104227134351
 30
0.0
 40
1.0006820000000001
 50
241.6506200000012
 51
269.70392999999888
  0
ARC
  5
895D
  8
AM_0
 10
110.37871626658119
 20
124.39030271343501
 30
0.0
 40
1.000521999999999
 50
237.1461799999995
 51
270.41344000000032
  0
ARC
  5
895E
  8
AM_0
 10
109.08354626658139
 20
118.494422713435
 30
0.0
 40
0.9976310099999999
 50
180.2678099999986
 51
240.0792400000002
  0
ARC
  5
895F
  8
AM_0
 10
109.0844062665812
 20
126.269082713435
 30
0.0
 40
0.9984580299999999
 50
179.95957999999851
 51
239.3865699999985
  0
ARC
  5
8960
  8
AM_0
 10
109.0844062665812
 20
126.269082713435
 30
0.0
 40
0.9984580299999999
 50
179.95957999999851
 51
239.3865699999985
  0
LINE
  5
8961
  8
AM_0
 10
108.5759162665813
 20
125.409802713435
 30
0.0
 11
108.5558962665814
 21
125.419782713435
 31
0.0
  0
ARC
  5
8962
  8
AM_0
 10
109.08501626658131
 20
125.2345427134351
 30
0.0
 40
0.9990889999999998
 50
179.6950899999965
 51
236.662090000002
  0
ARC
  5
8963
  8
AM_0
 10
109.08165626658131
 20
119.54020271343499
 30
0.0
 40
0.9956849800000001
 50
180.02113
 51
243.4091400000006
  0
ARC
  5
8964
  8
AM_0
 10
109.0836662665813
 20
121.67106271343501
 30
0.0
 40
0.9977070099999998
 50
180.074020000004
 51
242.04481000000081
  0
ARC
  5
8965
  8
AM_0
 10
109.08470626658119
 20
120.633342713435
 30
0.0
 40
0.9987969999999998
 50
179.62728000000101
 51
238.70795000000021
  0
LINE
  5
8966
  8
AM_0
 10
109.8559462665812
 20
124.659862713435
 30
0.0
 11
108.57597626658109
 21
125.40983271343489
 31
0.0
  0
LINE
  5
8967
  8
AM_0
 10
109.8459962665811
 20
119.009812713435
 30
0.0
 11
108.5659662665812
 21
119.779832713435
 31
0.0
  0
LINE
  5
8968
  8
AM_0
 10
109.8759062665813
 20
118.019792713435
 30
0.0
 11
108.63591626658121
 21
118.649792713435
 31
0.0
  0
LINE
  5
8969
  8
AM_0
 10
109.86595626658119
 20
120.1298027134351
 30
0.0
 11
108.61595626658119
 21
120.78980271343499
 31
0.0
  0
LINE
  5
896A
  8
AM_0
 10
109.83586626658141
 20
123.54978271343489
 30
0.0
 11
108.5358762665812
 21
124.39979271343491
 31
0.0
  0
LINE
  5
896B
  8
AM_0
 10
110.3559462665812
 20
116.759812713435
 30
0.0
 11
112.5859262665813
 21
116.759812713435
 31
0.0
  0
ARC
  5
896C
  8
AM_0
 10
110.36662626658109
 20
117.760902713435
 30
0.0
 40
1.001123999999999
 50
239.32782000000049
 51
269.38767999999868
  0
LINE
  5
896D
  8
AM_0
 10
109.8559462665812
 20
116.899822713435
 30
0.0
 11
108.5859862665811
 21
117.6298027134351
 31
0.0
  0
LINE
  5
896E
  8
AM_0
 10
110.0859262665813
 20
117.009812713435
 30
0.0
 11
110.0859262665813
 21
117.53984271343499
 31
0.0
  0
LINE
  5
896F
  8
AM_0
 10
114.7859362665813
 20
123.3198627134351
 30
0.0
 11
121.0159162665813
 21
123.3198627134351
 31
0.0
  0
LINE
  5
8970
  8
AM_0
 10
113.0859262665813
 20
116.509812713435
 30
0.0
 11
114.0859262665813
 21
116.509812713435
 31
0.0
  0
ARC
  5
8971
  8
AM_0
 10
112.08098626658121
 20
143.51469271343501
 30
0.0
 40
1.0049469
 50
270.28136999999919
 51
359.71863000000081
  0
ARC
  5
8972
  8
AM_0
 10
112.0861062665813
 20
139.50993271343489
 30
0.0
 40
0.9998239899999999
 50
359.98991999999532
 51
90.010077000000464
  0
ARC
  5
8973
  8
AM_0
 10
112.38646626658119
 20
130.120402713435
 30
0.0
 40
0.6994530000000001
 50
359.95517000000092
 51
90.044829000000746
  0
ARC
  5
8974
  8
AM_0
 10
112.0825662665811
 20
133.77311271343501
 30
0.0
 40
1.003352
 50
270.19111000000021
 51
359.80890000000107
  0
LINE
  5
8975
  8
AM_0
 10
110.0859262665813
 20
140.879802713435
 30
0.0
 11
110.0859262665813
 21
142.249802713435
 31
0.0
  0
LINE
  5
8976
  8
AM_0
 10
112.0859262665813
 20
140.509812713435
 30
0.0
 11
109.0859262665813
 21
140.509812713435
 31
0.0
  0
LINE
  5
8977
  8
AM_0
 10
112.0859262665813
 20
142.509812713435
 30
0.0
 11
109.0859262665813
 21
142.509812713435
 31
0.0
  0
LINE
  5
8978
  8
AM_0
 10
110.235956266581
 20
132.76982271343499
 30
0.0
 11
112.0859262665813
 21
132.76982271343499
 31
0.0
  0
ARC
  5
8979
  8
AM_0
 10
110.22649626658129
 20
133.7725027134351
 30
0.0
 40
1.002699
 50
253.752720000002
 51
270.54064000000108
  0
LINE
  5
897A
  8
AM_0
 10
110.2859362665813
 20
130.8198627134351
 30
0.0
 11
112.38591626658121
 21
130.8198627134351
 31
0.0
  0
ARC
  5
897B
  8
AM_0
 10
110.2889262665812
 20
131.82499271343499
 30
0.0
 40
1.005233
 50
246.98639000000031
 51
269.82924999999938
  0
LINE
  5
897C
  8
AM_0
 10
110.0859262665813
 20
131.119792713435
 30
0.0
 11
110.0859262665813
 21
132.179852713435
 31
0.0
  0
ARC
  5
897D
  8
AM_0
 10
109.0824462665814
 20
132.33830271343501
 30
0.0
 40
0.9965090199999998
 50
179.9137499999965
 51
247.17844999999909
  0
ARC
  5
897E
  8
AM_0
 10
109.08232626658121
 20
134.12419271343501
 30
0.0
 40
0.99638802
 50
180.24990999999889
 51
253.29664000000031
  0
ARC
  5
897F
  8
AM_0
 10
109.0810462665813
 20
141.51469271343501
 30
0.0
 40
0.9950849999999999
 50
89.716282999999422
 51
180.28371999999919
  0
ARC
  5
8980
  8
AM_0
 10
109.0861762665813
 20
141.51005271343499
 30
0.0
 40
1.0001959999999981
 50
180.01124999999951
 51
269.98875000000061
  0
LINE
  5
8981
  8
AM_0
 10
109.94591626658119
 20
132.809792713435
 30
0.0
 11
108.7959462665812
 21
133.16981271343499
 31
0.0
  0
LINE
  5
8982
  8
AM_0
 10
109.8959862665811
 20
130.899852713435
 30
0.0
 11
108.6959762665813
 21
131.4198727134351
 31
0.0
  0
LINE
  5
8983
  8
AM_0
 10
127.44591626658119
 20
129.85978271343501
 30
0.0
 11
122.0859862665811
 21
118.4198727134351
 31
0.0
  0
ARC
  5
8984
  8
AM_0
 10
124.6305462665814
 20
141.509812713435
 30
0.0
 40
1.0000138999999999
 50
89.69165999999926
 51
270.30834000000073
  0
ARC
  5
8985
  8
AM_0
 10
123.5459462665812
 20
141.48478271343501
 30
0.0
 40
1.465004
 50
90.000003000000945
 51
270.0
  0
ARC
  5
8986
  8
AM_0
 10
124.6305462665814
 20
131.509812713435
 30
0.0
 40
1.0000138999999999
 50
89.69165999999926
 51
270.30834000000073
  0
ARC
  5
8987
  8
AM_0
 10
123.75908626658109
 20
131.46476271343499
 30
0.0
 40
1.675014
 50
89.766499000000024
 51
270.2335099999994
  0
POLYLINE
  5
8988
  8
AM_0
 66
     1
 10
0.0
 20
0.0
 30
0.0
  0
VERTEX
  5
8989
  8
AM_0
 10
125.9468262665814
 20
140.02677271343509
 30
0.0
 42
0.0006890001
  0
VERTEX
  5
898A
  8
AM_0
 10
126.0177062665811
 20
139.4520227134351
 30
0.0
 42
0.00070644651
  0
VERTEX
  5
898B
  8
AM_0
 10
126.0902062665814
 20
138.87734271343501
 30
0.0
 42
0.0006924559
  0
VERTEX
  5
898C
  8
AM_0
 10
126.1642962665812
 20
138.3030227134351
 30
0.0
 42
0.00069587797
  0
VERTEX
  5
898D
  8
AM_0
 10
126.23997626658139
 20
137.72888271343501
 30
0.0
 42
0.00071687041
  0
VERTEX
  5
898E
  8
AM_0
 10
126.31728626658099
 20
137.15488271343489
 30
0.0
 42
0.00069759113
  0
VERTEX
  5
898F
  8
AM_0
 10
126.39622626658139
 20
136.581092713435
 30
0.0
 42
0.00071003142
  0
VERTEX
  5
8990
  8
AM_0
 10
126.47676626658129
 20
136.00762271343501
 30
0.0
 42
0.00069954544
  0
VERTEX
  5
8991
  8
AM_0
 10
126.5589062665813
 20
135.434522713435
 30
0.0
 42
0.0007188852
  0
VERTEX
  5
8992
  8
AM_0
 10
126.64268626658119
 20
134.86149271343501
 30
0.0
 42
0.00071266165
  0
VERTEX
  5
8993
  8
AM_0
 10
126.7281162665813
 20
134.288732713435
 30
0.0
 42
0.00071614577
  0
VERTEX
  5
8994
  8
AM_0
 10
126.81514626658119
 20
133.716382713435
 30
0.0
 42
0.00072290806
  0
VERTEX
  5
8995
  8
AM_0
 10
126.9038562665812
 20
133.14408271343501
 30
0.0
  0
SEQEND
  5
8996
  8
AM_0
  0
LINE
  5
8997
  8
AM_0
 10
110.0859262665813
 20
160.89982271343499
 30
0.0
 11
110.0859262665813
 21
162.05985271343499
 31
0.0
  0
ARC
  5
8998
  8
AM_0
 10
109.0861762665813
 20
161.51005271343499
 30
0.0
 40
1.0002040000000001
 50
180.01165999999679
 51
269.98832000000073
  0
ARC
  5
8999
  8
AM_0
 10
112.0861062665813
 20
159.50993271343501
 30
0.0
 40
0.9998279799999998
 50
359.9901599999971
 51
90.009838000000173
  0
ARC
  5
899A
  8
AM_0
 10
112.08098626658121
 20
153.51469271343501
 30
0.0
 40
1.004939
 50
270.2809399999997
 51
359.71907000000078
  0
ARC
  5
899B
  8
AM_0
 10
112.0861062665813
 20
149.50993271343501
 30
0.0
 40
0.9998210099999999
 50
359.98971999999799
 51
90.010281999998284
  0
LINE
  5
899C
  8
AM_0
 10
112.0859262665813
 20
160.509812713435
 30
0.0
 11
109.0859262665813
 21
160.509812713435
 31
0.0
  0
LINE
  5
899D
  8
AM_0
 10
110.0859262665813
 20
150.89982271343499
 30
0.0
 11
110.0859262665813
 21
152.119792713435
 31
0.0
  0
LINE
  5
899E
  8
AM_0
 10
112.0859262665813
 20
152.509812713435
 30
0.0
 11
109.0859262665813
 21
152.509812713435
 31
0.0
  0
LINE
  5
899F
  8
AM_0
 10
112.0859262665813
 20
150.509812713435
 30
0.0
 11
109.0859262665813
 21
150.509812713435
 31
0.0
  0
LINE
  5
89A0
  8
AM_0
 10
106.5859262665812
 20
151.35978271343501
 30
0.0
 11
108.0859262665813
 21
151.35978271343501
 31
0.0
  0
ARC
  5
89A1
  8
AM_0
 10
109.0861762665813
 20
151.51005271343499
 30
0.0
 40
1.000199999999998
 50
180.01145999999861
 51
269.98854000000142
  0
ARC
  5
89A2
  8
AM_0
 10
109.0810462665813
 20
151.51469271343501
 30
0.0
 40
0.9950810099999999
 50
89.716072000000082
 51
180.2839200000044
  0
LINE
  5
89A3
  8
AM_0
 10
106.0920297822063
 20
148.5179914243725
 30
0.0
 11
106.59206029978439
 21
148.5579999692944
 31
0.0
  0
LINE
  5
89A4
  8
AM_0
 10
106.5859262665812
 20
149.22978271343499
 30
0.0
 11
108.0859262665813
 21
149.22978271343499
 31
0.0
  0
LINE
  5
89A5
  8
AM_0
 10
106.5859262665812
 20
146.50978271343499
 30
0.0
 11
108.0859262665813
 21
146.37977271343499
 31
0.0
  0
LINE
  5
89A6
  8
AM_0
 10
105.59206029978439
 20
151.2879804380444
 30
0.0
 11
106.09206029978439
 21
148.5179914243725
 31
0.0
  0
ARC
  5
89A7
  8
AM_0
 10
112.0861062665813
 20
169.50993271343489
 30
0.0
 40
0.9998249999999999
 50
359.98994999999871
 51
90.010050000001243
  0
ARC
  5
89A8
  8
AM_0
 10
112.08098626658121
 20
173.51469271343501
 30
0.0
 40
1.0049469
 50
270.28135000000037
 51
359.71866000000068
  0
ARC
  5
89A9
  8
AM_0
 10
112.08098626658121
 20
163.51469271343501
 30
0.0
 40
1.004942999999999
 50
270.28113999999943
 51
359.71886999999822
  0
LINE
  5
89AA
  8
AM_0
 10
112.0859262665813
 20
170.509812713435
 30
0.0
 11
109.0859262665813
 21
170.509812713435
 31
0.0
  0
LINE
  5
89AB
  8
AM_0
 10
112.0859262665813
 20
172.509812713435
 30
0.0
 11
109.0859262665813
 21
172.509812713435
 31
0.0
  0
LINE
  5
89AC
  8
AM_0
 10
110.0859262665813
 20
172.119792713435
 30
0.0
 11
110.0859262665813
 21
170.959762713435
 31
0.0
  0
LINE
  5
89AD
  8
AM_0
 10
112.0859262665813
 20
162.509812713435
 30
0.0
 11
109.0859262665813
 21
162.509812713435
 31
0.0
  0
ARC
  5
89AE
  8
AM_0
 10
109.0861762665813
 20
171.51005271343499
 30
0.0
 40
1.0001959999999981
 50
180.0112199999958
 51
269.98878000000087
  0
ARC
  5
89AF
  8
AM_0
 10
109.0810462665813
 20
171.51469271343501
 30
0.0
 40
0.9950849999999999
 50
89.716311000000914
 51
180.28368999999969
  0
ARC
  5
89B0
  8
AM_0
 10
109.0810462665813
 20
161.51469271343501
 30
0.0
 40
0.9950770099999999
 50
89.715859999999495
 51
180.28414000000049
  0
ARC
  5
89B1
  8
AM_0
 10
124.6305462665814
 20
161.509812713435
 30
0.0
 40
1.0000138999999999
 50
89.69165999999926
 51
270.30834000000073
  0
ARC
  5
89B2
  8
AM_0
 10
123.3500862665812
 20
161.509812713435
 30
0.0
 40
1.2700129999999981
 50
89.736616999998319
 51
270.26336999999921
  0
ARC
  5
89B3
  8
AM_0
 10
123.4159462665811
 20
151.49980271343509
 30
0.0
 40
1.3300049999999981
 50
90.000003000000945
 51
270.0
  0
ARC
  5
89B4
  8
AM_0
 10
124.6305462665814
 20
151.509812713435
 30
0.0
 40
1.0000138999999999
 50
89.69165999999926
 51
270.30834000000073
  0
POLYLINE
  5
89B5
  8
AM_0
 66
     1
 10
0.0
 20
0.0
 30
0.0
  0
VERTEX
  5
89B6
  8
AM_0
 10
124.48997626658139
 20
160.239422713435
 30
0.0
 42
0.00076695232
  0
VERTEX
  5
89B7
  8
AM_0
 10
124.5047762665813
 20
159.621662713435
 30
0.0
 42
0.00073263044
  0
VERTEX
  5
89B8
  8
AM_0
 10
124.5214162665811
 20
159.00406271343499
 30
0.0
 42
0.0007652599
  0
VERTEX
  5
89B9
  8
AM_0
 10
124.539906266581
 20
158.38639271343499
 30
0.0
 42
0.00075144485
  0
VERTEX
  5
89BA
  8
AM_0
 10
124.5602762665812
 20
157.768792713435
 30
0.0
 42
0.00078594403
  0
VERTEX
  5
89BB
  8
AM_0
 10
124.5825262665812
 20
157.15136271343511
 30
0.0
 42
0.00073349202
  0
VERTEX
  5
89BC
  8
AM_0
 10
124.6066762665812
 20
156.53398271343491
 30
0.0
 42
0.0007358075
  0
VERTEX
  5
89BD
  8
AM_0
 10
124.63261626658139
 20
155.91658271343499
 30
0.0
 42
0.00078592699
  0
VERTEX
  5
89BE
  8
AM_0
 10
124.6604462665814
 20
155.29919271343499
 30
0.0
 42
0.00074823144
  0
VERTEX
  5
89BF
  8
AM_0
 10
124.6901762665811
 20
154.68180271343499
 30
0.0
 42
0.00074896603
  0
VERTEX
  5
89C0
  8
AM_0
 10
124.721736266581
 20
154.0646727134349
 30
0.0
 42
0.00076039765
  0
VERTEX
  5
89C1
  8
AM_0
 10
124.7551562665812
 20
153.44764271343499
 30
0.0
 42
0.00075616128
  0
VERTEX
  5
89C2
  8
AM_0
 10
124.7904562665812
 20
152.83061271343499
 30
0.0
  0
SEQEND
  5
89C3
  8
AM_0
  0
POLYLINE
  5
89C4
  8
AM_0
 66
     1
 10
0.0
 20
0.0
 30
0.0
  0
VERTEX
  5
89C5
  8
AM_0
 10
124.44591626658119
 20
166.509812713435
 30
0.0
 42
-0.00039106653
  0
VERTEX
  5
89C6
  8
AM_0
 10
124.4435562665812
 20
166.82094271343499
 30
0.0
 42
-0.00040574511
  0
VERTEX
  5
89C7
  8
AM_0
 10
124.4416862665812
 20
167.13205271343509
 30
0.0
 42
-0.00035346331
  0
VERTEX
  5
89C8
  8
AM_0
 10
124.4402962665813
 20
167.44316271343499
 30
0.0
 42
-0.00034406545
  0
VERTEX
  5
89C9
  8
AM_0
 10
124.4393162665812
 20
167.7543027134351
 30
0.0
 42
-0.00045699059
  0
VERTEX
  5
89CA
  8
AM_0
 10
124.4388562665813
 20
168.06540271343499
 30
0.0
 42
-0.00035573431
  0
VERTEX
  5
89CB
  8
AM_0
 10
124.4388962665812
 20
168.376502713435
 30
0.0
 42
-0.00038545888
  0
VERTEX
  5
89CC
  8
AM_0
 10
124.4393862665811
 20
168.687642713435
 30
0.0
 42
-0.00035501203
  0
VERTEX
  5
89CD
  8
AM_0
 10
124.4403462665814
 20
168.99875271343501
 30
0.0
 42
-0.00040120778
  0
VERTEX
  5
89CE
  8
AM_0
 10
124.4417662665812
 20
169.30998271343501
 30
0.0
 42
-0.00038317821
  0
VERTEX
  5
89CF
  8
AM_0
 10
124.44367626658141
 20
169.62111271343511
 30
0.0
 42
-0.00040741862
  0
VERTEX
  5
89D0
  8
AM_0
 10
124.4460762665812
 20
169.93234271343499
 30
0.0
 42
-0.00035783324
  0
VERTEX
  5
89D1
  8
AM_0
 10
124.44896626658119
 20
170.24345271343509
 30
0.0
  0
SEQEND
  5
89D2
  8
AM_0
  0
ARC
  5
89D3
  8
AM_0
 10
124.6305462665814
 20
171.509812713435
 30
0.0
 40
1.0000138999999999
 50
89.69165999999926
 51
270.30834000000073
  0
ARC
  5
89D4
  8
AM_0
 10
123.3500862665812
 20
171.51481271343499
 30
0.0
 40
1.2650129999999991
 50
89.735579000001735
 51
270.2644099999992
  0
POLYLINE
  5
89D5
  8
AM_0
 66
     1
 10
0.0
 20
0.0
 30
0.0
  0
VERTEX
  5
89D6
  8
AM_0
 10
124.44591626658119
 20
166.509812713435
 30
0.0
 42
0.00039106593
  0
VERTEX
  5
89D7
  8
AM_0
 10
124.4435562665812
 20
166.198672713435
 30
0.0
 42
0.00040574899
  0
VERTEX
  5
89D8
  8
AM_0
 10
124.4416862665812
 20
165.88756271343499
 30
0.0
 42
0.0003534546
  0
VERTEX
  5
89D9
  8
AM_0
 10
124.4402962665813
 20
165.57646271343501
 30
0.0
 42
0.00034407327
  0
VERTEX
  5
89DA
  8
AM_0
 10
124.4393162665812
 20
165.26532271343501
 30
0.0
 42
0.00045699408
  0
VERTEX
  5
89DB
  8
AM_0
 10
124.4388562665813
 20
164.954212713435
 30
0.0
 42
0.00035571853
  0
VERTEX
  5
89DC
  8
AM_0
 10
124.4388962665812
 20
164.64311271343499
 30
0.0
 42
0.00038547362
  0
VERTEX
  5
89DD
  8
AM_0
 10
124.4393862665811
 20
164.33197271343511
 30
0.0
 42
0.00035501498
  0
VERTEX
  5
89DE
  8
AM_0
 10
124.4403462665814
 20
164.0208727134351
 30
0.0
 42
0.00040118614
  0
VERTEX
  5
89DF
  8
AM_0
 10
124.4417662665812
 20
163.70963271343501
 30
0.0
 42
0.00038319871
  0
VERTEX
  5
89E0
  8
AM_0
 10
124.44367626658141
 20
163.39850271343499
 30
0.0
 42
0.00040742136
  0
VERTEX
  5
89E1
  8
AM_0
 10
124.4460762665812
 20
163.087272713435
 30
0.0
 42
0.0003578071
  0
VERTEX
  5
89E2
  8
AM_0
 10
124.44896626658119
 20
162.77616271343501
 30
0.0
  0
SEQEND
  5
89E3
  8
AM_0
  0
LINE
  5
89E7
  8
AM_0
 10
127.4459762665813
 20
203.15983271343501
 30
0.0
 11
122.0859862665811
 21
214.60981271343491
 31
0.0
  0
ARC
  5
89E8
  8
AM_0
 10
112.08098626658121
 20
193.51469271343501
 30
0.0
 40
1.004942999999999
 50
270.28111000000013
 51
359.71888999999987
  0
ARC
  5
89E9
  8
AM_0
 10
112.0861062665813
 20
189.50993271343501
 30
0.0
 40
0.9998289899999999
 50
359.99019000000038
 51
90.009811000000937
  0
ARC
  5
89EA
  8
AM_0
 10
112.0861062665813
 20
179.50993271343501
 30
0.0
 40
0.9998210099999999
 50
359.98975000000149
 51
90.010254999999034
  0
ARC
  5
89EB
  8
AM_0
 10
112.08098626658121
 20
183.51469271343501
 30
0.0
 40
1.004939
 50
270.2809100000008
 51
359.71909999999991
  0
LINE
  5
89EC
  8
AM_0
 10
110.0859262665813
 20
192.13981271343499
 30
0.0
 11
110.0859262665813
 21
190.76982271343499
 31
0.0
  0
LINE
  5
89ED
  8
AM_0
 10
112.0859262665813
 20
192.50981271343491
 30
0.0
 11
109.0859262665813
 21
192.50981271343491
 31
0.0
  0
LINE
  5
89EE
  8
AM_0
 10
112.0859262665813
 20
190.50981271343491
 30
0.0
 11
109.0859262665813
 21
190.50981271343491
 31
0.0
  0
LINE
  5
89EF
  8
AM_0
 10
112.0859262665813
 20
182.509812713435
 30
0.0
 11
109.0859262665813
 21
182.509812713435
 31
0.0
  0
LINE
  5
89F0
  8
AM_0
 10
106.09206029978439
 20
184.50163400249741
 30
0.0
 11
106.5920297822062
 21
184.46162545757559
 31
0.0
  0
LINE
  5
89F1
  8
AM_0
 10
106.5859262665812
 20
186.50978271343499
 30
0.0
 11
108.0859262665813
 21
186.6397827134349
 31
0.0
  0
LINE
  5
89F2
  8
AM_0
 10
106.5859262665812
 20
183.78984271343501
 30
0.0
 11
108.0859262665813
 21
183.78984271343501
 31
0.0
  0
ARC
  5
89F3
  8
AM_0
 10
109.0810462665813
 20
191.5146927134349
 30
0.0
 40
0.99507803
 50
89.715887000001331
 51
180.28410999999991
  0
ARC
  5
89F4
  8
AM_0
 10
109.0861762665813
 20
191.51005271343499
 30
0.0
 40
1.000203
 50
180.01164999999551
 51
269.98835000000122
  0
LINE
  5
89F5
  8
AM_0
 10
110.0859262665813
 20
182.11979271343489
 30
0.0
 11
110.0859262665813
 21
180.90983271343501
 31
0.0
  0
LINE
  5
89F6
  8
AM_0
 10
112.0859262665813
 20
180.509812713435
 30
0.0
 11
109.0859262665813
 21
180.509812713435
 31
0.0
  0
LINE
  5
89F7
  8
AM_0
 10
106.5859262665812
 20
181.65983271343489
 30
0.0
 11
108.0859262665813
 21
181.65983271343489
 31
0.0
  0
ARC
  5
89F8
  8
AM_0
 10
109.0861762665813
 20
181.51005271343499
 30
0.0
 40
1.000199999999998
 50
180.01143000000161
 51
269.98856999999839
  0
LINE
  5
89F9
  8
AM_0
 10
105.5920297822062
 20
181.73164498882571
 30
0.0
 11
106.0920297822063
 21
184.50163400249741
 31
0.0
  0
ARC
  5
89FA
  8
AM_0
 10
109.0810462665813
 20
181.51469271343501
 30
0.0
 40
0.99508202
 50
89.716098999998167
 51
180.2839099999978
  0
ARC
  5
89FB
  8
AM_0
 10
112.0876362665813
 20
199.25150271343489
 30
0.0
 40
0.9982839799999999
 50
359.90142000000009
 51
90.098576000001358
  0
ARC
  5
89FC
  8
AM_0
 10
112.38139626658131
 20
202.90434271343511
 30
0.0
 40
0.704566
 50
270.37010000000009
 51
359.62990999999778
  0
ARC
  5
89FD
  8
AM_0
 10
112.0836062665812
 20
207.49748271343501
 30
0.0
 40
1.002353
 50
0.1343268199984526
 51
89.865672999999376
  0
LINE
  5
89FE
  8
AM_0
 10
110.3859762665811
 20
209.63981271343499
 30
0.0
 11
113.0859262665813
 21
209.63981271343499
 31
0.0
  0
LINE
  5
89FF
  8
AM_0
 10
110.2859362665813
 20
202.199752713435
 30
0.0
 11
112.38591626658121
 21
202.199752713435
 31
0.0
  0
LINE
  5
8A00
  8
AM_0
 10
110.235956266581
 20
200.24980271343509
 30
0.0
 11
112.0859262665813
 21
200.24980271343509
 31
0.0
  0
LINE
  5
8A01
  8
AM_0
 10
110.0859262665813
 20
201.89982271343499
 30
0.0
 11
110.0859262665813
 21
200.83976271343499
 31
0.0
  0
ARC
  5
8A02
  8
AM_0
 10
110.2869162665813
 20
201.20439271343491
 30
0.0
 40
0.9954450099999999
 50
90.056904999999659
 51
113.12745000000059
  0
ARC
  5
8A03
  8
AM_0
 10
110.2250862665812
 20
199.257122713435
 30
0.0
 40
0.9927430199999999
 50
89.374554999998765
 51
106.3320700000012
  0
LINE
  5
8A04
  8
AM_0
 10
110.3559462665812
 20
208.49980271343509
 30
0.0
 11
112.0859262665813
 21
208.49980271343509
 31
0.0
  0
LINE
  5
8A05
  8
AM_0
 10
110.0859262665813
 20
209.33976271343499
 30
0.0
 11
110.0859262665813
 21
208.86979271343509
 31
0.0
  0
ARC
  5
8A06
  8
AM_0
 10
110.3925662665813
 20
208.64359271343491
 30
0.0
 40
0.99617702
 50
90.381317999999197
 51
123.9704899999973
  0
ARC
  5
8A07
  8
AM_0
 10
110.3653462665811
 20
207.5033427134351
 30
0.0
 40
0.99648702
 50
90.540720999998641
 51
120.74376999999789
  0
ARC
  5
8A08
  8
AM_0
 10
109.0822062665811
 20
198.90556271343499
 30
0.0
 40
0.9962710099999999
 50
106.6979199999999
 51
180.33004999999989
  0
ARC
  5
8A09
  8
AM_0
 10
109.08232626658121
 20
200.691322713435
 30
0.0
 40
0.9963999999999998
 50
112.8173600000008
 51
180.0904199999996
  0
ARC
  5
8A0A
  8
AM_0
 10
109.0807362665812
 20
207.78739271343511
 30
0.0
 40
0.9948369899999999
 50
123.204960000002
 51
180.43785999999801
  0
ARC
  5
8A0B
  8
AM_0
 10
109.08000626658119
 20
206.75297271343501
 30
0.0
 40
0.99404597
 50
120.4681999999996
 51
180.18564000000029
  0
LINE
  5
8A0C
  8
AM_0
 10
109.8959262665812
 20
202.11982271343501
 30
0.0
 11
108.6959762665813
 21
201.6098127134351
 31
0.0
  0
LINE
  5
8A0D
  8
AM_0
 10
109.94591626658119
 20
200.209852713435
 30
0.0
 11
108.7959462665812
 21
199.859842713435
 31
0.0
  0
LINE
  5
8A0E
  8
AM_0
 10
109.83586626658141
 20
209.46983271343501
 30
0.0
 11
108.5358762665812
 21
208.61985271343511
 31
0.0
  0
LINE
  5
8A0F
  8
AM_0
 10
109.85588626658129
 20
208.35984271343511
 30
0.0
 11
108.5759162665813
 21
207.60984271343511
 31
0.0
  0
LINE
  5
8A10
  8
AM_0
 10
114.7859362665813
 20
209.699752713435
 30
0.0
 11
121.0159162665813
 21
209.699752713435
 31
0.0
  0
POLYLINE
  5
8A11
  8
AM_0
 66
     1
 10
0.0
 20
0.0
 30
0.0
  0
VERTEX
  5
8A12
  8
AM_0
 10
125.9468262665814
 20
192.9928427134349
 30
0.0
 42
-0.00068898283
  0
VERTEX
  5
8A13
  8
AM_0
 10
126.0177062665811
 20
193.56759271343489
 30
0.0
 42
-0.00070644357
  0
VERTEX
  5
8A14
  8
AM_0
 10
126.0902062665814
 20
194.14228271343509
 30
0.0
 42
-0.00069248074
  0
VERTEX
  5
8A15
  8
AM_0
 10
126.1642962665812
 20
194.71659271343489
 30
0.0
 42
-0.0006958566
  0
VERTEX
  5
8A16
  8
AM_0
 10
126.23997626658139
 20
195.29073271343489
 30
0.0
 42
-0.00071687219
  0
VERTEX
  5
8A17
  8
AM_0
 10
126.31728626658099
 20
195.86473271343499
 30
0.0
 42
-0.00069760022
  0
VERTEX
  5
8A18
  8
AM_0
 10
126.39622626658139
 20
196.43852271343499
 30
0.0
 42
-0.00071002302
  0
VERTEX
  5
8A19
  8
AM_0
 10
126.47676626658129
 20
197.01199271343501
 30
0.0
 42
-0.00069954889
  0
VERTEX
  5
8A1A
  8
AM_0
 10
126.5589062665813
 20
197.58509271343499
 30
0.0
 42
-0.00071887947
  0
VERTEX
  5
8A1B
  8
AM_0
 10
126.64268626658119
 20
198.15812271343509
 30
0.0
 42
-0.00071266929
  0
VERTEX
  5
8A1C
  8
AM_0
 10
126.7281162665813
 20
198.73089271343511
 30
0.0
 42
-0.00071614429
  0
VERTEX
  5
8A1D
  8
AM_0
 10
126.81514626658119
 20
199.30323271343499
 30
0.0
 42
-0.00072288978
  0
VERTEX
  5
8A1E
  8
AM_0
 10
126.9038562665812
 20
199.87553271343501
 30
0.0
  0
SEQEND
  5
8A1F
  8
AM_0
  0
POLYLINE
  5
8A20
  8
AM_0
 66
     1
 10
0.0
 20
0.0
 30
0.0
  0
VERTEX
  5
8A21
  8
AM_0
 10
124.9641662665813
 20
182.85038271343501
 30
0.0
 42
-0.0007337051
  0
VERTEX
  5
8A22
  8
AM_0
 10
125.0083062665812
 20
183.452792713435
 30
0.0
 42
-0.00075211323
  0
VERTEX
  5
8A23
  8
AM_0
 10
125.0542462665812
 20
184.0551927134351
 30
0.0
 42
-0.0007297491
  0
VERTEX
  5
8A24
  8
AM_0
 10
125.1019762665812
 20
184.65739271343489
 30
0.0
 42
-0.00073593041
  0
VERTEX
  5
8A25
  8
AM_0
 10
125.15145626658111
 20
185.259382713435
 30
0.0
 42
-0.00074742739
  0
VERTEX
  5
8A26
  8
AM_0
 10
125.20272626658129
 20
185.86124271343499
 30
0.0
 42
-0.00073217363
  0
VERTEX
  5
8A27
  8
AM_0
 10
125.2557862665812
 20
186.46305271343499
 30
0.0
 42
-0.00073754168
  0
VERTEX
  5
8A28
  8
AM_0
 10
125.3106062665811
 20
187.06459271343499
 30
0.0
 42
-0.00073075073
  0
VERTEX
  5
8A29
  8
AM_0
 10
125.3671862665812
 20
187.66594271343499
 30
0.0
 42
-0.00074550816
  0
VERTEX
  5
8A2A
  8
AM_0
 10
125.425526266581
 20
188.26701271343501
 30
0.0
 42
-0.00074288416
  0
VERTEX
  5
8A2B
  8
AM_0
 10
125.48567626658129
 20
188.86803271343501
 30
0.0
 42
-0.00072504001
  0
VERTEX
  5
8A2C
  8
AM_0
 10
125.54758626658121
 20
189.4687727134351
 30
0.0
 42
-0.00074640667
  0
VERTEX
  5
8A2D
  8
AM_0
 10
125.61125626658119
 20
190.069382713435
 30
0.0
  0
SEQEND
  5
8A2E
  8
AM_0
  0
ARC
  5
8A2F
  8
AM_0
 10
124.6305462665814
 20
191.50981271343491
 30
0.0
 40
1.0000138999999999
 50
89.69165999999926
 51
270.30834000000073
  0
ARC
  5
8A30
  8
AM_0
 10
123.5459462665812
 20
191.53483271343501
 30
0.0
 40
1.465004
 50
90.000003000000945
 51
270.0
  0
ARC
  5
8A31
  8
AM_0
 10
124.6305462665814
 20
181.509812713435
 30
0.0
 40
1.0000138999999999
 50
89.69165999999926
 51
270.30834000000073
  0
ARC
  5
8A32
  8
AM_0
 10
123.4159462665811
 20
181.51982271343499
 30
0.0
 40
1.3300049999999981
 50
90.000003000000945
 51
270.0
  0
ARC
  5
8A33
  8
AM_0
 10
124.6305462665814
 20
201.50981271343511
 30
0.0
 40
1.0000138999999999
 50
89.69165999999926
 51
270.30834000000073
  0
ARC
  5
8A34
  8
AM_0
 10
123.7585362665813
 20
201.554852713435
 30
0.0
 40
1.6750160000000001
 50
89.746145000001235
 51
270.25387000000092
  0
LINE
  5
8A35
  8
AM_0
 10
114.0859262665813
 20
219.509812713435
 30
0.0
 11
122.0859262665813
 21
219.509812713435
 31
0.0
  0
ARC
  5
8A36
  8
AM_0
 10
112.58134626658121
 20
216.7644427134351
 30
0.0
 40
0.50463498
 50
270.52383000000037
 51
359.47616999999963
  0
ARC
  5
8A37
  8
AM_0
 10
112.0869062665811
 20
212.01078271343499
 30
0.0
 40
0.9990100299999999
 50
359.94319000000132
 51
90.056809000000058
  0
LINE
  5
8A38
  8
AM_0
 10
110.36595626658119
 20
214.14982271343499
 30
0.0
 11
113.0859262665813
 21
214.14982271343499
 31
0.0
  0
ARC
  5
8A39
  8
AM_0
 10
112.5876362665813
 20
214.61149271343501
 30
0.0
 40
0.4983060100000002
 50
359.80488999999778
 51
90.195107000000036
  0
LINE
  5
8A3A
  8
AM_0
 10
110.0859262665813
 20
216.00981271343511
 30
0.0
 11
110.0859262665813
 21
215.4797827134351
 31
0.0
  0
LINE
  5
8A3B
  8
AM_0
 10
110.3559462665812
 20
216.25981271343511
 30
0.0
 11
112.5859262665813
 21
216.25981271343511
 31
0.0
  0
ARC
  5
8A3C
  8
AM_0
 10
110.34795626658109
 20
215.26396271343501
 30
0.0
 40
0.9959030199999999
 50
89.541266999999124
 51
119.6071700000001
  0
LINE
  5
8A3D
  8
AM_0
 10
109.8559462665812
 20
216.12977271343499
 30
0.0
 11
108.5859862665811
 21
215.38978271343501
 31
0.0
  0
ARC
  5
8A3E
  8
AM_0
 10
110.3547862665812
 20
213.1555627134349
 30
0.0
 40
0.99427301
 50
89.356066000000055
 51
120.7809100000017
  0
LINE
  5
8A3F
  8
AM_0
 10
110.3259162665813
 20
215.10978271343501
 30
0.0
 11
112.5859262665813
 21
215.10978271343501
 31
0.0
  0
ARC
  5
8A40
  8
AM_0
 10
110.3107162665812
 20
214.11576271343489
 30
0.0
 40
0.99411702
 50
89.122643999998544
 51
115.9349799999995
  0
LINE
  5
8A41
  8
AM_0
 10
110.3359262665813
 20
213.00981271343491
 30
0.0
 11
112.0859262665813
 21
213.00981271343491
 31
0.0
  0
LINE
  5
8A42
  8
AM_0
 10
110.0859262665813
 20
213.90983271343501
 30
0.0
 11
110.0859262665813
 21
213.35978271343501
 31
0.0
  0
ARC
  5
8A43
  8
AM_0
 10
110.3210362665813
 20
212.0144427134351
 30
0.0
 40
0.99545902
 50
89.141290999999939
 51
117.20382000000021
  0
ARC
  5
8A44
  8
AM_0
 10
109.07915626658129
 20
211.35124271343511
 30
0.0
 40
0.9932109699999999
 50
117.79932000000061
 51
180.08187000000001
  0
ARC
  5
8A45
  8
AM_0
 10
109.0815362665812
 20
213.4895427134351
 30
0.0
 40
0.995579
 50
116.5870899999978
 51
179.98263999999989
  0
ARC
  5
8A46
  8
AM_0
 10
109.0803762665812
 20
212.38883271343499
 30
0.0
 40
0.9944329899999999
 50
121.1521299999998
 51
179.94050999999911
  0
LINE
  5
8A47
  8
AM_0
 10
109.8759062665813
 20
215.009812713435
 30
0.0
 11
108.63591626658121
 21
214.37980271343511
 31
0.0
  0
LINE
  5
8A48
  8
AM_0
 10
109.8458762665814
 20
214.00987271343499
 30
0.0
 11
108.56590626658129
 21
213.23985271343511
 31
0.0
  0
LINE
  5
8A49
  8
AM_0
 10
109.86595626658119
 20
212.89985271343511
 30
0.0
 11
108.61595626658119
 21
212.22984271343509
 31
0.0
  0
ARC
  5
8A4A
  8
AM_0
 10
109.07915626658129
 20
214.52775271343501
 30
0.0
 40
0.99319202
 50
119.7733800000008
 51
179.87958999999799
  0
LINE
  5
8A4B
  8
AM_0
 10
113.0859262665813
 20
216.50981271343511
 30
0.0
 11
114.0859262665813
 21
216.50981271343511
 31
0.0
  0
ARC
  5
8A4C
  8
AM_0
 10
125.3724262665812
 20
226.40421271343499
 30
0.0
 40
1.995633
 50
89.899707999999052
 51
172.06112999999939
  0
ARC
  5
8A4D
  8
AM_0
 10
125.35051626658129
 20
225.493082713435
 30
0.0
 40
1.9967330000000001
 50
89.843966999998912
 51
171.45388000000389
  0
LINE
  5
8A4E
  8
AM_0
 10
122.0859862665811
 20
217.29978271343501
 30
0.0
 11
123.3759662665811
 21
225.7898727134351
 31
0.0
  0
LINE
  5
8A4F
  8
AM_0
 10
122.0859862665811
 20
215.949842713435
 30
0.0
 11
123.36595626658119
 21
223.95979271343501
 31
0.0
  0
ARC
  5
8A50
  8
AM_0
 10
125.3361762665813
 20
223.64457271343511
 30
0.0
 40
1.9952829999999999
 50
90.00620400000011
 51
170.90835000000069
  0
ARC
  5
8A51
  8
AM_0
 10
125.28465626658129
 20
220.7956927134351
 30
0.0
 40
1.994108999999999
 50
89.675547999999495
 51
169.18776999999901
  0
LINE
  5
8A52
  8
AM_0
 10
122.0859262665813
 20
217.29981271343499
 30
0.0
 11
123.3959262665812
 21
226.679852713435
 31
0.0
  0
LINE
  5
8A53
  8
AM_0
 10
122.0859262665813
 20
214.60987271343501
 30
0.0
 11
123.3259162665813
 21
221.1698727134351
 31
0.0
  0
ARC
  5
8A55
  8
AM_0
 10
158.5246462665813
 20
161.509812713435
 30
0.0
 40
1.000005699999998
 50
269.999989999999
 51
90.000003000000945
  0
ARC
  5
8A56
  8
AM_0
 10
159.81285626658109
 20
161.509812713435
 30
0.0
 40
1.2700266
 50
269.62932000000001
 51
90.370669999998199
  0
ARC
  5
8A57
  8
AM_0
 10
159.7509062665813
 20
151.49980271343509
 30
0.0
 40
1.3300148000000001
 50
269.7294199999987
 51
90.270567000000995
  0
ARC
  5
8A58
  8
AM_0
 10
158.5246462665813
 20
151.509812713435
 30
0.0
 40
1.000005699999998
 50
269.999989999999
 51
90.000003000000945
  0
ARC
  5
8A59
  8
AM_0
 10
158.5246462665813
 20
171.509812713435
 30
0.0
 40
1.000005699999998
 50
269.999989999999
 51
90.000003000000945
  0
ARC
  5
8A5A
  8
AM_0
 10
159.81285626658109
 20
171.51982271343499
 30
0.0
 40
1.2700266
 50
269.62932000000001
 51
90.370669999998199
  0
ARC
  5
8A5B
  8
AM_0
 10
191.08592626658131
 20
139.009812713435
 30
0.0
 40
1.02
 50
0.0
 51
90.000003000000945
  0
ARC
  5
8A5C
  8
AM_0
 10
191.08592626658131
 20
139.009812713435
 30
0.0
 40
1.5
 50
0.0
 51
90.000003000000945
  0
ARC
  5
8A5D
  8
AM_0
 10
191.08592626658131
 20
134.009812713435
 30
0.0
 40
1.5
 50
269.999989999999
 51
0.0000006832495047
  0
ARC
  5
8A5E
  8
AM_0
 10
191.10594626658121
 20
134.14982271343499
 30
0.0
 40
1.0
 50
269.999989999999
 51
0.0000006832495047
  0
LINE
  5
8A5F
  8
AM_0
 10
192.10594626658121
 20
139.009812713435
 30
0.0
 11
192.10594626658121
 21
134.14982271343499
 31
0.0
  0
LINE
  5
8A60
  8
AM_0
 10
192.58592626658131
 20
139.009812713435
 30
0.0
 11
192.58592626658131
 21
134.009812713435
 31
0.0
  0
CIRCLE
  5
8A61
  8
AM_0
 10
197.58592626658131
 20
138.009812713435
 30
0.0
 40
1.149999999999999
  0
CIRCLE
  5
8A62
  8
AM_0
 10
197.58592626658131
 20
138.009812713435
 30
0.0
 40
1.1000000000000001
  0
LINE
  5
8A63
  8
AM_0
 10
208.0659662665812
 20
139.009812713435
 30
0.0
 11
208.0659662665812
 21
134.14982271343499
 31
0.0
  0
LINE
  5
8A64
  8
AM_0
 10
207.58592626658131
 20
139.009812713435
 30
0.0
 11
207.58592626658131
 21
134.009812713435
 31
0.0
  0
ARC
  5
8A65
  8
AM_0
 10
209.08592626658131
 20
139.009812713435
 30
0.0
 40
1.02
 50
90.000003000000945
 51
180.000010000001
  0
ARC
  5
8A66
  8
AM_0
 10
209.08592626658131
 20
139.009812713435
 30
0.0
 40
1.5
 50
90.000003000000945
 51
180.000010000001
  0
CIRCLE
  5
8A67
  8
AM_0
 10
202.58592626658131
 20
138.009812713435
 30
0.0
 40
1.0
  0
ARC
  5
8A68
  8
AM_0
 10
209.08592626658131
 20
134.009812713435
 30
0.0
 40
1.5
 50
179.999989999999
 51
270.0
  0
ARC
  5
8A69
  8
AM_0
 10
209.0659662665812
 20
134.14982271343499
 30
0.0
 40
1.0
 50
179.999989999999
 51
270.0
  0
ARC
  5
8A6A
  8
AM_0
 10
158.5246462665813
 20
181.509812713435
 30
0.0
 40
1.000005699999998
 50
269.999989999999
 51
90.000003000000945
  0
ARC
  5
8A6B
  8
AM_0
 10
159.7509062665813
 20
181.52482271343499
 30
0.0
 40
1.3350147999999999
 50
269.7304299999999
 51
90.269556000001415
  0
ARC
  5
8A6C
  8
AM_0
 10
191.08592626658131
 20
199.00981271343491
 30
0.0
 40
1.5
 50
0.0
 51
90.000003000000945
  0
ARC
  5
8A6D
  8
AM_0
 10
191.10594626658121
 20
198.869792713435
 30
0.0
 40
1.0
 50
0.0
 51
90.000003000000945
  0
ARC
  5
8A6E
  8
AM_0
 10
191.08592626658131
 20
194.009812713435
 30
0.0
 40
1.02
 50
269.999989999999
 51
0.0000006832429909
  0
ARC
  5
8A6F
  8
AM_0
 10
191.08592626658131
 20
194.009812713435
 30
0.0
 40
1.5
 50
269.999989999999
 51
0.0000006832495047
  0
LINE
  5
8A70
  8
AM_0
 10
192.10594626658121
 20
194.009812713435
 30
0.0
 11
192.10594626658121
 21
198.869792713435
 31
0.0
  0
CIRCLE
  5
8A71
  8
AM_0
 10
202.58592626658131
 20
195.009812713435
 30
0.0
 40
1.0
  0
LINE
  5
8A72
  8
AM_0
 10
208.0659662665812
 20
194.009812713435
 30
0.0
 11
208.0659662665812
 21
198.869792713435
 31
0.0
  0
LINE
  5
8A73
  8
AM_0
 10
207.58592626658131
 20
194.009812713435
 30
0.0
 11
207.58592626658131
 21
199.00981271343491
 31
0.0
  0
LINE
  5
8A74
  8
AM_0
 10
192.58592626658131
 20
194.009812713435
 30
0.0
 11
192.58592626658131
 21
199.00981271343491
 31
0.0
  0
CIRCLE
  5
8A75
  8
AM_0
 10
197.58592626658131
 20
195.009812713435
 30
0.0
 40
1.1000000000000001
  0
CIRCLE
  5
8A76
  8
AM_0
 10
197.58592626658131
 20
195.009812713435
 30
0.0
 40
1.149999999999999
  0
ARC
  5
8A77
  8
AM_0
 10
209.08592626658131
 20
194.009812713435
 30
0.0
 40
1.02
 50
179.999989999999
 51
270.0
  0
ARC
  5
8A78
  8
AM_0
 10
209.08592626658131
 20
194.009812713435
 30
0.0
 40
1.5
 50
179.999989999999
 51
270.0
  0
ARC
  5
8A79
  8
AM_0
 10
209.0659662665812
 20
198.869792713435
 30
0.0
 40
1.0
 50
90.000003000000945
 51
180.000010000001
  0
ARC
  5
8A7A
  8
AM_0
 10
209.08592626658131
 20
199.00981271343491
 30
0.0
 40
1.5
 50
90.000003000000945
 51
180.000010000001
  0
LINE
  5
8A8A
  8
ﾁｭｳｼﾝｾﾝ1
 10
348.59203234520601
 20
222.50981423335361
 30
0.0
 11
348.59203234520601
 21
110.5098111935167
 31
0.0
  0
LINE
  5
8A8C
  8
AM_0
 10
345.59203225579898
 20
179.3098314054524
 30
0.0
 11
351.5920324346128
 21
179.3098314054524
 31
0.0
  0
LINE
  5
8A8D
  8
AM_0
 10
289.59203011003183
 20
211.50981405453979
 30
0.0
 11
372.5920335372989
 21
211.50981405453979
 31
0.0
  0
LINE
  5
8A8E
  8
AM_0
 10
289.59203011003183
 20
121.5098113723306
 30
0.0
 11
372.5920335372989
 21
121.5098113723306
 31
0.0
  0
CIRCLE
  5
8A8F
  8
AM_0
 10
348.59203234520601
 20
166.509812713435
 30
0.0
 40
15.000000447034839
  0
ARC
  5
8A90
  8
AM_0
 10
348.59203234520601
 20
166.509812713435
 30
0.0
 40
10.00000029802324
 50
107.4576040230022
 51
72.542383683107232
  0
CIRCLE
  5
8A91
  8
AM_0
 10
348.59203234520601
 20
166.509812713435
 30
0.0
 40
27.500000819563869
  0
LINE
  5
8A92
  8
AM_0
 10
273.59203011003183
 20
217.50981423335361
 30
0.0
 11
390.5920335372989
 21
217.50981423335361
 31
0.0
  0
LINE
  5
8A93
  8
AM_0
 10
273.59203011003183
 20
115.5098111935167
 30
0.0
 11
390.5920335372989
 21
115.5098111935167
 31
0.0
  0
LINE
  5
8A94
  8
AM_0
 10
229.08592626658131
 20
113.509812713435
 30
0.0
 11
223.3601862665812
 21
104.69291271343501
 31
0.0
  0
LINE
  5
8A95
  8
AM_0
 10
230.08592626658131
 20
222.50981271343511
 30
0.0
 11
230.08592626658131
 21
110.509812713435
 31
0.0
  0
LINE
  5
8A96
  8
AM_0
 10
226.92129394613019
 20
122.0737294892359
 30
0.0
 11
224.1459262665812
 21
111.7098227134351
 31
0.0
  0
ARC
  5
8A97
  8
AM_0
 10
247.64315484538429
 20
112.509812713435
 30
0.0
 40
2.0
 50
270.0
 51
357.99953469735499
1001
GENIUS_GENOBJ-N-FIL_13
1002
{
1000
OWNER
1000
GEN
1002
}
1001
GENIUS_GENODEF_13
1002
{
1000
HIER
1070
     0
1002
}
1002
{
1000
MANEDIT
1070
     0
1002
}
1002
{
1000
NOSEL
1070
     0
1002
}
1002
{
1000
BEHIND
1070
     0
1002
}
1002
{
1000
OTHER
1070
     0
1002
}
1002
{
1000
REACTOR
1002
}
  0
LINE
  5
8A98
  8
AM_0
 10
238.08592626658131
 20
222.50981271343511
 30
0.0
 11
238.08592626658131
 21
110.509812713435
 31
0.0
  0
LINE
  5
8A99
  8
AM_0
 10
238.08592626658131
 20
110.509812713435
 30
0.0
 11
247.64315484538429
 21
110.509812713435
 31
0.0
  0
LINE
  5
8A9A
  8
AM_0
 10
210.58592626658111
 20
100.5098127134349
 30
0.0
 11
210.58592626658111
 21
93.509812713435039
 31
0.0
  0
LINE
  5
8A9B
  8
AM_0
 10
210.66502507451739
 20
104.009812713435
 30
0.0
 11
222.10216626658121
 21
104.009812713435
 31
0.0
  0
ARC
  5
8A9C
  8
AM_0
 10
222.10216626658121
 20
105.509812713435
 30
0.0
 40
1.5
 50
269.999989999999
 51
326.99999999999892
  0
ARC
  5
8A9D
  8
AM_0
 10
222.21110626658131
 20
112.234542713435
 30
0.0
 40
2.0047290000000002
 50
270.13832000000099
 51
344.82650000000189
  0
LINE
  5
8A9E
  8
AM_0
 10
230.08592626658131
 20
110.509812713435
 30
0.0
 11
238.08592626658131
 21
110.509812713435
 31
0.0
  0
ARC
  5
8A9F
  8
AM_0
 10
273.59203011003183
 20
126.5098115213421
 30
0.0
 40
11.0
 50
359.99999946639139
 51
90.000000533608556
  0
ARC
  5
8AA0
  8
AM_0
 10
273.59203011003183
 20
206.50981390552801
 30
0.0
 40
11.0
 50
269.99999946639139
 51
0.0000005336085289
  0
LINE
  5
8AA3
  8
ﾁｭｳｼﾝｾﾝ1
 10
266.09202988651441
 20
126.5098115213422
 30
0.0
 11
281.0920303335493
 21
126.5098115213422
 31
0.0
  0
LINE
  5
8AA4
  8
ﾁｭｳｼﾝｾﾝ1
 10
266.09202988651441
 20
206.50981390552801
 30
0.0
 11
281.0920303335493
 21
206.50981390552801
 31
0.0
  0
ARC
  5
8AA6
  8
AM_0
 10
481.59201452341711
 20
166.509812713435
 30
0.0
 40
236.0
 50
169.43603828764111
 51
180.00000500895041
  0
LINE
  5
8AA7
  8
AM_0
 10
249.59202978220631
 20
115.8695310361889
 30
0.0
 11
249.59202978220631
 21
217.15010202007571
 31
0.0
  0
LINE
  5
8AA8
  8
AM_0
 10
262.59202978220628
 20
206.50981390552801
 30
0.0
 11
262.59202978220628
 21
126.5098115213422
 31
0.0
  0
LINE
  5
8AA9
  8
AM_0
 10
268.59202996102022
 20
190.50981390552789
 30
0.0
 11
268.59202996102022
 21
142.5098115213421
 31
0.0
  0
LINE
  5
8AAA
  8
AM_0
 10
230.08592626658131
 20
134.5698727134351
 30
0.0
 11
247.76667662757501
 21
134.5698727134351
 31
0.0
  0
LINE
  5
8AAB
  8
AM_0
 10
230.08592626658131
 20
120.509812713435
 30
0.0
 11
249.59202978220631
 21
120.509812713435
 31
0.0
  0
ARC
  5
8AAD
  8
AM_0
 10
481.59201452341711
 20
166.509812713435
 30
0.0
 40
236.0
 50
180.00000500895041
 51
190.5639717302731
  0
ARC
  5
8AAE
  8
AM_0
 10
227.1259062665813
 20
141.47978271343499
 30
0.0
 40
1.460011199999999
 50
269.77524999999991
 51
90.224750000000071
  0
ARC
  5
8AAF
  8
AM_0
 10
228.1859262665815
 20
126.8098327134349
 30
0.0
 40
1.699996899999999
 50
90.000003000000945
 51
179.99998000000451
  0
ARC
  5
8AB0
  8
AM_0
 10
228.1859262665815
 20
123.2098227134348
 30
0.0
 40
1.7000007999999991
 50
180.000010000001
 51
269.99998000000119
  0
ARC
  5
8AB1
  8
AM_0
 10
226.90593626658119
 20
131.46476271343499
 30
0.0
 40
1.6750020000000001
 50
269.999989999999
 51
90.000003000000945
  0
LINE
  5
8AB2
  8
AM_0
 10
224.6279762665813
 20
113.509812713435
 30
0.0
 11
230.08592626658131
 21
113.509812713435
 31
0.0
  0
LINE
  5
8AB3
  8
AM_0
 10
226.48594626658129
 20
126.8098327134349
 30
0.0
 11
226.48594626658129
 21
123.2098227134348
 31
0.0
  0
ARC
  5
8AB4
  8
AM_0
 10
223.4258962665813
 20
141.509812713435
 30
0.0
 40
1.0000255999999981
 50
269.58947000000001
 51
90.410531000001029
  0
ARC
  5
8AB5
  8
AM_0
 10
223.4259562665811
 20
131.509812713435
 30
0.0
 40
1.0
 50
269.999989999999
 51
90.000003000000945
  0
LINE
  5
8AB6
  8
AM_0
 10
229.08592626658131
 20
128.80983271343499
 30
0.0
 11
229.08592626658131
 21
121.2098227134349
 31
0.0
  0
LINE
  5
8AB7
  8
AM_0
 10
230.08592626658131
 20
128.80983271343499
 30
0.0
 11
230.08592626658131
 21
121.2098227134349
 31
0.0
  0
LINE
  5
8AB8
  8
AM_0
 10
230.08592626658131
 20
125.787182713435
 30
0.0
 11
229.08592626658131
 21
125.2098227134349
 31
0.0
  0
LINE
  5
8AB9
  8
AM_0
 10
229.08592626658131
 20
128.5098127134352
 30
0.0
 11
228.1859262665815
 21
128.5098127134352
 31
0.0
  0
LINE
  5
8ABA
  8
AM_0
 10
229.08592626658131
 20
121.2098227134349
 30
0.0
 11
230.08592626658131
 21
121.2098227134349
 31
0.0
  0
LINE
  5
8ABB
  8
AM_0
 10
229.08592626658131
 20
121.509812713435
 30
0.0
 11
228.1859262665815
 21
121.509812713435
 31
0.0
  0
LINE
  5
8ABC
  8
AM_0
 10
230.08592626658131
 20
124.787182713435
 30
0.0
 11
229.08592626658131
 21
124.2098227134349
 31
0.0
  0
LINE
  5
8ABD
  8
AM_0
 10
229.08592626658131
 20
128.80983271343499
 30
0.0
 11
230.08592626658131
 21
128.80983271343499
 31
0.0
  0
LINE
  5
8ABE
  8
AM_0
 10
250.09202978220631
 20
123.24320352154049
 30
0.0
 11
262.5920297822064
 21
123.24320352154049
 31
0.0
  0
LINE
  5
8ABF
  8
AM_0
 10
250.78581635958861
 20
117.509812713435
 30
0.0
 11
267.2674744618696
 21
117.509812713435
 31
0.0
  0
ARC
  5
8AC0
  8
AM_0
 10
273.59203011003183
 20
126.5098115213422
 30
0.0
 40
11.000000327825591
 50
180.00000500895689
 51
270.000000683243
  0
ARC
  5
8AC1
  8
AM_0
 10
250.7870836638142
 20
116.5064598578364
 30
0.0
 40
1.003353655944897
 50
90.072368503728555
 51
175.63494469419581
  0
LINE
  5
8AC2
  8
AM_0
 10
249.6419359325146
 20
112.4399974878002
 30
0.0
 11
249.78664037790941
 21
116.5828260190991
 31
0.0
  0
LINE
  5
8AC3
  8
ﾁｭｳｼﾝｾﾝ1
 10
273.59203011003183
 20
134.00981174485969
 30
0.0
 11
273.59203011003183
 21
119.0098112978247
 31
0.0
  0
CIRCLE
  5
8AC4
  8
AM_0
 10
273.59203011003183
 20
126.5098115213422
 30
0.0
 40
4.5000001341104507
  0
ARC
  5
8AC5
  8
AM_0
 10
273.59202996102022
 20
142.5098115213421
 30
0.0
 40
5.0
 50
180.0
 51
270.0000005336085
1001
GENIUS_GENOBJ-N-FIL_13
1002
{
1000
OWNER
1000
GEN
1002
}
1001
GENIUS_GENODEF_13
1002
{
1000
HIER
1070
     0
1002
}
1002
{
1000
MANEDIT
1070
     0
1002
}
1002
{
1000
NOSEL
1070
     0
1002
}
1002
{
1000
BEHIND
1070
     0
1002
}
1002
{
1000
OTHER
1070
     0
1002
}
1002
{
1000
REACTOR
1002
}
  0
LINE
  5
8AC6
  8
AM_0
 10
230.08592626658131
 20
212.509812713435
 30
0.0
 11
249.59202978220631
 21
212.509812713435
 31
0.0
  0
LINE
  5
8AC7
  8
AM_0
 10
230.08592626658131
 20
198.44976271343489
 30
0.0
 11
247.6919424025441
 21
198.44976271343489
 31
0.0
  0
LINE
  5
8AC9
  8
AM_0
 10
238.08592626658131
 20
222.50981271343511
 30
0.0
 11
247.64315537835699
 21
222.50981271343511
 31
0.0
  0
ARC
  5
8ACA
  8
AM_0
 10
228.1859262665813
 20
209.80980271343509
 30
0.0
 40
1.7000007999999991
 50
90.000020000002024
 51
179.999989999999
  0
LINE
  5
8ACB
  8
AM_0
 10
229.08592626658131
 20
204.20979271343501
 30
0.0
 11
229.08592626658131
 21
211.80980271343509
 31
0.0
  0
LINE
  5
8ACC
  8
AM_0
 10
230.08592626658131
 20
204.20979271343501
 30
0.0
 11
230.08592626658131
 21
211.80980271343509
 31
0.0
  0
ARC
  5
8ACD
  8
AM_0
 10
228.1859262665813
 20
206.20979271343521
 30
0.0
 40
1.699996899999999
 50
180.00001999999549
 51
269.9999969999991
  0
ARC
  5
8ACE
  8
AM_0
 10
226.90593626658119
 20
201.554852713435
 30
0.0
 40
1.6750020000000001
 50
269.999989999999
 51
90.000003000000945
  0
ARC
  5
8ACF
  8
AM_0
 10
227.1259062665813
 20
191.53984271343501
 30
0.0
 40
1.460011199999999
 50
269.77524999999991
 51
90.224750000000071
  0
ARC
  5
8AD0
  8
AM_0
 10
223.4258962665813
 20
191.50981271343491
 30
0.0
 40
1.0000255999999981
 50
269.58947000000001
 51
90.410531000001029
  0
LINE
  5
8AD1
  8
AM_0
 10
226.48594626658129
 20
206.20979271343521
 30
0.0
 11
226.48594626658129
 21
209.80980271343509
 31
0.0
  0
ARC
  5
8AD2
  8
AM_0
 10
223.4259562665811
 20
201.50981271343511
 30
0.0
 40
1.0
 50
269.999989999999
 51
90.000003000000945
  0
LINE
  5
8AD3
  8
AM_0
 10
229.08592626658131
 20
204.509812713435
 30
0.0
 11
228.1859262665813
 21
204.509812713435
 31
0.0
  0
LINE
  5
8AD4
  8
AM_0
 10
229.08592626658131
 20
204.20979271343501
 30
0.0
 11
230.08592626658131
 21
204.20979271343501
 31
0.0
  0
LINE
  5
8AD5
  8
AM_0
 10
230.08592626658131
 20
207.23244271343501
 30
0.0
 11
229.08592626658131
 21
207.809802713435
 31
0.0
  0
LINE
  5
8AD6
  8
AM_0
 10
230.08592626658131
 20
208.23244271343501
 30
0.0
 11
229.08592626658131
 21
208.809802713435
 31
0.0
  0
LINE
  5
8AD7
  8
AM_0
 10
226.13029622670041
 20
219.509812713435
 30
0.0
 11
230.08592626658131
 21
219.509812713435
 31
0.0
  0
LINE
  5
8AD8
  8
AM_0
 10
228.03081412247809
 20
211.5027123219943
 30
0.0
 11
224.1459262665812
 21
226.00981271343511
 31
0.0
  0
LINE
  5
8AD9
  8
AM_0
 10
227.5649635899704
 20
211.39233488506909
 30
0.0
 11
224.1459262665812
 21
224.15986271343499
 31
0.0
  0
LINE
  5
8ADA
  8
AM_0
 10
228.29167626658139
 20
211.43870271343511
 30
0.0
 11
224.14595626658121
 21
226.91981271343499
 31
0.0
  0
ARC
  5
8ADB
  8
AM_0
 10
222.21110626658131
 20
225.485032713435
 30
0.0
 40
2.0047290000000002
 50
15.173495999996319
 51
89.861678000000197
  0
ARC
  5
8ADC
  8
AM_0
 10
222.21110626658131
 20
223.63505271343499
 30
0.0
 40
2.0047290000000002
 50
15.173495999996319
 51
89.861678000000197
  0
ARC
  5
8ADD
  8
AM_0
 10
222.21605626658129
 20
220.79154271343509
 30
0.0
 40
1.9982919999999991
 50
15.032547999996
 51
90.002632000001341
  0
LINE
  5
8ADE
  8
AM_0
 10
226.9213100938689
 20
210.94591391209261
 30
0.0
 11
224.1459862665811
 21
221.309792713435
 31
0.0
  0
ARC
  5
8ADF
  8
AM_0
 10
222.21110626658131
 20
226.39506271343501
 30
0.0
 40
2.0047290000000002
 50
15.173495999996319
 51
89.861678000000197
  0
LINE
  5
8AE0
  8
AM_0
 10
230.08592626658131
 20
222.50981271343511
 30
0.0
 11
238.08592626658131
 21
222.50981271343511
 31
0.0
  0
LINE
  5
8AE1
  8
AM_0
 10
229.08592626658131
 20
211.80980271343509
 30
0.0
 11
230.08592626658131
 21
211.80980271343509
 31
0.0
  0
LINE
  5
8AE2
  8
AM_0
 10
229.08592626658131
 20
211.50981271343511
 30
0.0
 11
228.1859262665813
 21
211.50981271343511
 31
0.0
  0
LINE
  5
8AE3
  8
ﾁｭｳｼﾝｾﾝ1
 10
273.59203011003183
 20
199.0098136820105
 30
0.0
 11
273.59203011003183
 21
214.00981412904559
 31
0.0
  0
ARC
  5
8AE4
  8
AM_0
 10
273.59203011003183
 20
206.50981390552801
 30
0.0
 40
11.00000032782555
 50
90.000002504478445
 51
180.00000500895689
  0
CIRCLE
  5
8AE5
  8
AM_0
 10
273.59203011003183
 20
206.50981390552801
 30
0.0
 40
4.5000001341104507
  0
LINE
  5
8AE6
  8
AM_0
 10
250.09202978220631
 20
209.77642953472409
 30
0.0
 11
262.59202978220628
 21
209.77642953472409
 31
0.0
  0
ARC
  5
8AE7
  8
AM_0
 10
273.59202996102022
 20
190.50981390552789
 30
0.0
 40
5.0
 50
89.999999466391486
 51
180.0
1001
GENIUS_GENOBJ-N-FIL_13
1002
{
1000
OWNER
1000
GEN
1002
}
1001
GENIUS_GENODEF_13
1002
{
1000
HIER
1070
     0
1002
}
1002
{
1000
MANEDIT
1070
     0
1002
}
1002
{
1000
NOSEL
1070
     0
1002
}
1002
{
1000
BEHIND
1070
     0
1002
}
1002
{
1000
OTHER
1070
     0
1002
}
1002
{
1000
REACTOR
1002
}
  0
LINE
  5
8AE8
  8
AM_0
 10
250.78581635958861
 20
215.50981271343511
 30
0.0
 11
267.2674744618696
 21
215.50981271343511
 31
0.0
  0
LINE
  5
8AE9
  8
AM_0
 10
249.64193646548719
 20
220.57962793906981
 30
0.0
 11
249.78664037790941
 21
216.43681466656011
 31
0.0
  0
ARC
  5
8AEA
  8
AM_0
 10
247.64315537835699
 20
220.50981271343511
 30
0.0
 40
2.0
 50
2.0004653026450021
 51
90.0
1001
GENIUS_GENODEF_13
1002
{
1000
HIER
1070
     0
1002
}
1002
{
1000
MANEDIT
1070
     0
1002
}
1002
{
1000
NOSEL
1070
     0
1002
}
1002
{
1000
BEHIND
1070
     0
1002
}
1002
{
1000
OTHER
1070
     0
1002
}
1002
{
1000
REACTOR
1002
}
1001
GENIUS_GENOBJ-N-FIL_13
1002
{
1000
OWNER
1000
GEN
1002
}
  0
ARC
  5
8AEB
  8
AM_0
 10
250.7858164033
 20
216.50981271343511
 30
0.0
 40
1.0000000000000091
 50
187.1807504503941
 51
269.99999749552148
  0
LINE
  5
8AED
  8
AM_0
 10
345.59203225579898
 20
176.04921119109079
 30
0.0
 11
345.59203225579898
 21
179.3098314054524
 31
0.0
  0
ARC
  5
8AEE
  8
AM_0
 10
289.59203011003183
 20
126.5098113723303
 30
0.0
 40
5.0
 50
179.99999946639139
 51
270.0
1001
GENIUS_GENODEF_13
1002
{
1000
HIER
1070
     0
1002
}
1002
{
1000
MANEDIT
1070
     0
1002
}
1002
{
1000
NOSEL
1070
     0
1002
}
1002
{
1000
BEHIND
1070
     0
1002
}
1002
{
1000
OTHER
1070
     0
1002
}
1002
{
1000
REACTOR
1002
}
1001
GENIUS_GENOBJ-N-FIL_13
1002
{
1000
OWNER
1000
GEN
1002
}
  0
ARC
  5
8AEF
  8
AM_0
 10
289.59203011003183
 20
206.50981405453979
 30
0.0
 40
5.0
 50
90.0
 51
180.0000005336085
1001
GENIUS_GENODEF_13
1002
{
1000
HIER
1070
     0
1002
}
1002
{
1000
MANEDIT
1070
     0
1002
}
1002
{
1000
NOSEL
1070
     0
1002
}
1002
{
1000
BEHIND
1070
     0
1002
}
1002
{
1000
OTHER
1070
     0
1002
}
1002
{
1000
REACTOR
1002
}
1001
GENIUS_GENOBJ-N-FIL_13
1002
{
1000
OWNER
1000
GEN
1002
}
  0
LINE
  5
8AFC
  8
AM_0
 10
351.5920324346128
 20
176.04921119109079
 30
0.0
 11
351.5920324346128
 21
179.3098314054524
 31
0.0
  0
LINE
  5
8AFD
  8
AM_0
 10
401.59203386512428
 20
206.50981390552801
 30
0.0
 11
401.59203386512428
 21
126.5098115213422
 31
0.0
  0
LINE
  5
8AFE
  8
AM_0
 10
393.59203368631051
 20
190.50981390552789
 30
0.0
 11
393.59203368631051
 21
142.2201696555629
 31
0.0
  0
ARC
  5
8AFF
  8
AM_0
 10
388.5920335372989
 20
126.5098115213421
 30
0.0
 40
11.0
 50
89.999999466391486
 51
180.0000005336085
  0
LINE
  5
8B00
  8
ﾁｭｳｼﾝｾﾝ1
 10
381.09203331378171
 20
126.5098115213422
 30
0.0
 11
396.09203376081632
 21
126.5098115213422
 31
0.0
  0
CIRCLE
  5
8B01
  8
AM_0
 10
388.5920335372989
 20
126.5098115213422
 30
0.0
 40
4.5000001341104507
  0
ARC
  5
8B02
  8
AM_0
 10
372.5920335372989
 20
126.5098113723303
 30
0.0
 40
5.0
 50
270.0
 51
0.0000005336085289
1001
GENIUS_GENODEF_13
1002
{
1000
HIER
1070
     0
1002
}
1002
{
1000
MANEDIT
1070
     0
1002
}
1002
{
1000
NOSEL
1070
     0
1002
}
1002
{
1000
BEHIND
1070
     0
1002
}
1002
{
1000
OTHER
1070
     0
1002
}
1002
{
1000
REACTOR
1002
}
1001
GENIUS_GENOBJ-N-FIL_13
1002
{
1000
OWNER
1000
GEN
1002
}
  0
LINE
  5
8B04
  8
ﾁｭｳｼﾝｾﾝ1
 10
388.5920335372989
 20
134.00981174485969
 30
0.0
 11
388.5920335372989
 21
119.0098112978247
 31
0.0
  0
ARC
  5
8B05
  8
AM_0
 10
390.5920335372989
 20
126.5098115213422
 30
0.0
 40
11.00000032782555
 50
269.99999749552148
 51
0.0
  0
ARC
  5
8B06
  8
AM_0
 10
388.59203368631051
 20
142.5098115213421
 30
0.0
 40
5.0
 50
269.99999946639139
 51
0.0
1001
GENIUS_GENOBJ-N-FIL_13
1002
{
1000
OWNER
1000
GEN
1002
}
1001
GENIUS_GENODEF_13
1002
{
1000
HIER
1070
     0
1002
}
1002
{
1000
MANEDIT
1070
     0
1002
}
1002
{
1000
NOSEL
1070
     0
1002
}
1002
{
1000
BEHIND
1070
     0
1002
}
1002
{
1000
OTHER
1070
     0
1002
}
1002
{
1000
REACTOR
1002
}
  0
ARC
  5
8B07
  8
AM_0
 10
388.5920335372989
 20
206.50981390552801
 30
0.0
 40
11.0
 50
179.99999946639139
 51
270.0000005336085
  0
CIRCLE
  5
8B0A
  8
AM_0
 10
388.5920335372989
 20
206.50981390552801
 30
0.0
 40
4.5000001341104507
  0
LINE
  5
8B0B
  8
ﾁｭｳｼﾝｾﾝ1
 10
381.09203331378171
 20
206.50981390552801
 30
0.0
 11
396.09203376081632
 21
206.50981390552801
 31
0.0
  0
ARC
  5
8B0C
  8
AM_0
 10
372.5920335372989
 20
206.50981405453979
 30
0.0
 40
5.0
 50
359.99999946639139
 51
90.0
1001
GENIUS_GENODEF_13
1002
{
1000
HIER
1070
     0
1002
}
1002
{
1000
MANEDIT
1070
     0
1002
}
1002
{
1000
NOSEL
1070
     0
1002
}
1002
{
1000
BEHIND
1070
     0
1002
}
1002
{
1000
OTHER
1070
     0
1002
}
1002
{
1000
REACTOR
1002
}
1001
GENIUS_GENOBJ-N-FIL_13
1002
{
1000
OWNER
1000
GEN
1002
}
  0
LINE
  5
8B0E
  8
ﾁｭｳｼﾝｾﾝ1
 10
388.5920335372989
 20
199.0098136820105
 30
0.0
 11
388.5920335372989
 21
214.00981412904559
 31
0.0
  0
ARC
  5
8B0F
  8
AM_0
 10
390.5920335372989
 20
206.50981390552801
 30
0.0
 40
11.000000327825539
 50
0.0
 51
90.000002504478445
  0
ARC
  5
8B10
  8
AM_0
 10
388.59203368631051
 20
190.50981390552789
 30
0.0
 40
5.0
 50
0.0
 51
90.000000533608556
1001
GENIUS_GENOBJ-N-FIL_13
1002
{
1000
OWNER
1000
GEN
1002
}
1001
GENIUS_GENODEF_13
1002
{
1000
HIER
1070
     0
1002
}
1002
{
1000
MANEDIT
1070
     0
1002
}
1002
{
1000
NOSEL
1070
     0
1002
}
1002
{
1000
BEHIND
1070
     0
1002
}
1002
{
1000
OTHER
1070
     0
1002
}
1002
{
1000
REACTOR
1002
}
  0
LINE
  5
8B37
  8
AM_0
 10
495.08614376900027
 20
202.53391253614419
 30
0.0
 11
504.39601514183028
 21
202.85902040835271
 31
0.0
  0
LINE
  5
8B38
  8
AM_0
 10
495.06205986466011
 20
200.46334684703851
 30
0.0
 11
504.39601514183028
 21
200.13739794635819
 31
0.0
  0
LINE
  5
8B39
  8
AM_0
 10
492.24604544429172
 20
192.5364234393945
 30
0.0
 11
500.39632054439733
 21
192.8210373174596
 31
0.0
  0
LINE
  5
8B3A
  8
AM_0
 10
492.24604544429172
 20
140.48320198747581
 30
0.0
 11
500.39632054439733
 21
140.19858810941071
 31
0.0
  0
LINE
  5
8B3B
  8
AM_0
 10
495.06205986466011
 20
132.55627857983191
 30
0.0
 11
504.39601514183028
 21
132.8822274805124
 31
0.0
  0
LINE
  5
8B3C
  8
AM_0
 10
495.08614376900027
 20
130.48571289072621
 30
0.0
 11
504.39601514183028
 21
130.16060501851771
 31
0.0
  0
ARC
  5
8B3D
  8
AM_0
 10
550.39601514183028
 20
166.50981271343511
 30
0.0
 40
56.5
 50
144.9813717379171
 51
215.0186282620829
  0
LINE
  5
8B44
  8
ﾁｭｳｼﾝｾﾝ1
 10
616.89601514183028
 20
166.50981271343511
 30
0.0
 11
483.89601514183028
 21
166.50981271343511
 31
0.0
  0
ARC
  5
8BA9
  8
AM_0
 10
492.28094494099417
 20
141.48259281449489
 30
0.0
 40
1.0
 50
193.15111826064859
 51
267.9999999999996
1001
GENIUS_GENODEF_13
1002
{
1000
HIER
1070
     0
1002
}
1002
{
1000
MANEDIT
1070
     0
1002
}
1002
{
1000
NOSEL
1070
     0
1002
}
1002
{
1000
BEHIND
1070
     0
1002
}
1002
{
1000
REACTOR
1002
}
1001
GENIUS_GENOBJ-N-FIL_13
1002
{
1000
OWNER
1000
GEN
1002
}
  0
ARC
  5
8BAA
  8
AM_0
 10
492.26461020667131
 20
141.55260780946031
 30
0.0
 40
1.0
 50
92.000000000003666
 51
193.11367014329909
1001
GENIUS_GENODEF_13
1002
{
1000
HIER
1070
     0
1002
}
1002
{
1000
MANEDIT
1070
     0
1002
}
1002
{
1000
NOSEL
1070
     0
1002
}
1002
{
1000
BEHIND
1070
     0
1002
}
1002
{
1000
REACTOR
1002
}
1001
GENIUS_GENOBJ-N-FIL_13
1002
{
1000
OWNER
1000
GEN
1002
}
  0
ARC
  5
8BAB
  8
AM_0
 10
599.39601514183039
 20
166.50981271343511
 30
0.0
 40
111.0
 50
193.11367014329909
 51
193.15111826064859
  0
LINE
  5
8BAC
  8
AM_0
 10
496.39601514183062
 20
132.6028613245779
 30
0.0
 11
496.39601514183028
 21
140.33828185227031
 31
0.0
  0
LINE
  5
8BAD
  8
AM_0
 10
492.2297107099688
 20
142.5519986364794
 30
0.0
 11
499.11506108371009
 21
142.79244036975081
 31
0.0
  0
ARC
  5
8BAE
  8
AM_0
 10
599.39601514183039
 20
166.50981271343511
 30
0.0
 40
111.0
 50
198.52714231446819
 51
198.56658080189561
  0
ARC
  5
8BAF
  8
AM_0
 10
495.12104326570278
 20
131.48510371774529
 30
0.0
 40
1.0
 50
198.56658080190289
 51
267.99999999999312
1001
GENIUS_GENODEF_13
1002
{
1000
HIER
1070
     0
1002
}
1002
{
1000
MANEDIT
1070
     0
1002
}
1002
{
1000
NOSEL
1070
     0
1002
}
1002
{
1000
BEHIND
1070
     0
1002
}
1002
{
1000
REACTOR
1002
}
1001
GENIUS_GENOBJ-N-FIL_13
1002
{
1000
OWNER
1000
GEN
1002
}
  0
ARC
  5
8BB0
  8
AM_0
 10
495.09695936136279
 20
131.556887752813
 30
0.0
 40
1.0
 50
92.000000000003666
 51
198.52714231446819
1001
GENIUS_GENODEF_13
1002
{
1000
HIER
1070
     0
1002
}
1002
{
1000
MANEDIT
1070
     0
1002
}
1002
{
1000
NOSEL
1070
     0
1002
}
1002
{
1000
BEHIND
1070
     0
1002
}
1002
{
1000
REACTOR
1002
}
1001
GENIUS_GENOBJ-N-FIL_13
1002
{
1000
OWNER
1000
GEN
1002
}
  0
ARC
  5
8BB2
  8
AM_0
 10
599.39601514183039
 20
166.50981271343511
 30
0.0
 40
111.0
 50
182.58663322877331
 51
182.62228408795289
  0
LINE
  5
8BB3
  8
AM_0
 10
490.39275595885817
 20
150.48056535736879
 30
0.0
 11
496.27872029580732
 21
150.2750229535217
 31
0.0
  0
LINE
  5
8BB4
  8
AM_0
 10
490.38327380648462
 20
152.54825476734169
 30
0.0
 11
495.6020329724106
 21
152.73049785320779
 31
0.0
  0
LINE
  5
8BB5
  8
AM_0
 10
489.47630201571383
 20
160.4777552345366
 30
0.0
 11
494.23703542071962
 21
160.31150676068879
 31
0.0
  0
ARC
  5
8BB6
  8
AM_0
 10
599.39601514183039
 20
166.50981271343511
 30
0.0
 40
111.0
 50
187.81694783169451
 51
187.8531780888126
  0
ARC
  5
8BB7
  8
AM_0
 10
489.51120151241639
 20
161.4771460615556
 30
0.0
 40
1.0
 50
182.62228408795289
 51
267.9999999999996
1001
GENIUS_GENODEF_13
1002
{
1000
HIER
1070
     0
1002
}
1002
{
1000
MANEDIT
1070
     0
1002
}
1002
{
1000
NOSEL
1070
     0
1002
}
1002
{
1000
BEHIND
1070
     0
1002
}
1002
{
1000
REACTOR
1002
}
1001
GENIUS_GENOBJ-N-FIL_13
1002
{
1000
OWNER
1000
GEN
1002
}
  0
ARC
  5
8BB8
  8
AM_0
 10
490.4181733031873
 20
151.5488639403226
 30
0.0
 40
1.0
 50
92.000000000000398
 51
187.81694783169451
1001
GENIUS_GENODEF_13
1002
{
1000
HIER
1070
     0
1002
}
1002
{
1000
MANEDIT
1070
     0
1002
}
1002
{
1000
NOSEL
1070
     0
1002
}
1002
{
1000
BEHIND
1070
     0
1002
}
1002
{
1000
REACTOR
1002
}
1001
GENIUS_GENOBJ-N-FIL_13
1002
{
1000
OWNER
1000
GEN
1002
}
  0
ARC
  5
8BB9
  8
AM_0
 10
490.4276554555608
 20
151.47995618438799
 30
0.0
 40
1.0
 50
187.8531780888062
 51
267.9999999999996
1001
GENIUS_GENODEF_13
1002
{
1000
HIER
1070
     0
1002
}
1002
{
1000
MANEDIT
1070
     0
1002
}
1002
{
1000
NOSEL
1070
     0
1002
}
1002
{
1000
BEHIND
1070
     0
1002
}
1002
{
1000
REACTOR
1002
}
1001
GENIUS_GENOBJ-N-FIL_13
1002
{
1000
OWNER
1000
GEN
1002
}
  0
LINE
  5
8BBA
  8
AM_0
 10
489.4731918372533
 20
162.544910922691
 30
0.0
 11
494.02435046502728
 21
162.7038408840516
 31
0.0
  0
LINE
  5
8BBB
  8
AM_0
 10
489.4731918372533
 20
170.47471450417959
 30
0.0
 11
494.02435046502728
 21
170.31578454281851
 31
0.0
  0
LINE
  5
8BBC
  8
AM_0
 10
489.47630201571383
 20
172.54187019233359
 30
0.0
 11
494.23703542071962
 21
172.7081186661816
 31
0.0
  0
ARC
  5
8BBD
  8
AM_0
 10
489.50809133395609
 20
171.4741053311985
 30
0.0
 40
1.0
 50
177.41336677122669
 51
267.99999999999642
1001
GENIUS_GENODEF_13
1002
{
1000
HIER
1070
     0
1002
}
1002
{
1000
MANEDIT
1070
     0
1002
}
1002
{
1000
NOSEL
1070
     0
1002
}
1002
{
1000
BEHIND
1070
     0
1002
}
1002
{
1000
REACTOR
1002
}
1001
GENIUS_GENOBJ-N-FIL_13
1002
{
1000
OWNER
1000
GEN
1002
}
  0
ARC
  5
8BBE
  8
AM_0
 10
599.39601514183039
 20
166.50981271343511
 30
0.0
 40
111.0
 50
177.37771591204699
 51
177.41336677122669
  0
ARC
  5
8BBF
  8
AM_0
 10
489.51120151241639
 20
171.54247936531451
 30
0.0
 40
1.0
 50
92.000000000000398
 51
177.37771591204699
1001
GENIUS_GENODEF_13
1002
{
1000
HIER
1070
     0
1002
}
1002
{
1000
MANEDIT
1070
     0
1002
}
1002
{
1000
NOSEL
1070
     0
1002
}
1002
{
1000
BEHIND
1070
     0
1002
}
1002
{
1000
REACTOR
1002
}
1001
GENIUS_GENOBJ-N-FIL_13
1002
{
1000
OWNER
1000
GEN
1002
}
  0
ARC
  5
8BC0
  8
AM_0
 10
489.50809133395609
 20
161.5455200956718
 30
0.0
 40
1.0
 50
92.000000000003666
 51
182.58663322877331
1001
GENIUS_GENODEF_13
1002
{
1000
HIER
1070
     0
1002
}
1002
{
1000
MANEDIT
1070
     0
1002
}
1002
{
1000
NOSEL
1070
     0
1002
}
1002
{
1000
BEHIND
1070
     0
1002
}
1002
{
1000
REACTOR
1002
}
1001
GENIUS_GENOBJ-N-FIL_13
1002
{
1000
OWNER
1000
GEN
1002
}
  0
LINE
  5
8BC3
  8
AM_0
 10
496.39601514183062
 20
200.41676410229221
 30
0.0
 11
496.39601514183028
 21
192.68134357459979
 31
0.0
  0
LINE
  5
8BC4
  8
AM_0
 10
490.39275595885817
 20
182.53906006950129
 30
0.0
 11
496.27872029580732
 21
182.74460247334869
 31
0.0
  0
ARC
  5
8BC5
  8
AM_0
 10
492.26461020667131
 20
191.46701761741011
 30
0.0
 40
1.0
 50
166.8863298567008
 51
267.99999999999642
1001
GENIUS_GENODEF_13
1002
{
1000
HIER
1070
     0
1002
}
1002
{
1000
MANEDIT
1070
     0
1002
}
1002
{
1000
NOSEL
1070
     0
1002
}
1002
{
1000
BEHIND
1070
     0
1002
}
1002
{
1000
REACTOR
1002
}
1001
GENIUS_GENOBJ-N-FIL_13
1002
{
1000
OWNER
1000
GEN
1002
}
  0
ARC
  5
8BC6
  8
AM_0
 10
492.28094494099417
 20
191.53703261237541
 30
0.0
 40
1.0
 50
92.000000000000398
 51
166.84888173935141
1001
GENIUS_GENODEF_13
1002
{
1000
HIER
1070
     0
1002
}
1002
{
1000
MANEDIT
1070
     0
1002
}
1002
{
1000
NOSEL
1070
     0
1002
}
1002
{
1000
BEHIND
1070
     0
1002
}
1002
{
1000
REACTOR
1002
}
1001
GENIUS_GENOBJ-N-FIL_13
1002
{
1000
OWNER
1000
GEN
1002
}
  0
LINE
  5
8BC7
  8
AM_0
 10
490.38327380648462
 20
180.47137065952879
 30
0.0
 11
495.6020329724106
 21
180.28912757366231
 31
0.0
  0
ARC
  5
8BC8
  8
AM_0
 10
599.39601514183039
 20
166.50981271343511
 30
0.0
 40
111.0
 50
166.84888173935141
 51
166.88632985669449
  0
ARC
  5
8BC9
  8
AM_0
 10
599.39601514183039
 20
166.50981271343511
 30
0.0
 40
111.0
 50
172.14682191118729
 51
172.18305216830549
  0
ARC
  5
8BCA
  8
AM_0
 10
490.4181733031873
 20
181.47076148654779
 30
0.0
 40
1.0
 50
172.18305216830549
 51
267.9999999999996
1001
GENIUS_GENODEF_13
1002
{
1000
HIER
1070
     0
1002
}
1002
{
1000
MANEDIT
1070
     0
1002
}
1002
{
1000
NOSEL
1070
     0
1002
}
1002
{
1000
BEHIND
1070
     0
1002
}
1002
{
1000
REACTOR
1002
}
1001
GENIUS_GENOBJ-N-FIL_13
1002
{
1000
OWNER
1000
GEN
1002
}
  0
ARC
  5
8BCB
  8
AM_0
 10
490.4276554555608
 20
181.53966924248229
 30
0.0
 40
1.0
 50
92.000000000000398
 51
172.14682191119371
1001
GENIUS_GENODEF_13
1002
{
1000
HIER
1070
     0
1002
}
1002
{
1000
MANEDIT
1070
     0
1002
}
1002
{
1000
NOSEL
1070
     0
1002
}
1002
{
1000
BEHIND
1070
     0
1002
}
1002
{
1000
REACTOR
1002
}
1001
GENIUS_GENOBJ-N-FIL_13
1002
{
1000
OWNER
1000
GEN
1002
}
  0
LINE
  5
8BCC
  8
AM_0
 10
492.2297107099688
 20
190.46762679039091
 30
0.0
 11
499.11506108371009
 21
190.22718505711941
 31
0.0
  0
ARC
  5
8BCD
  8
AM_0
 10
495.12104326570278
 20
201.53452170912499
 30
0.0
 40
1.0
 50
92.000000000006921
 51
161.43341919809711
1001
GENIUS_GENODEF_13
1002
{
1000
HIER
1070
     0
1002
}
1002
{
1000
MANEDIT
1070
     0
1002
}
1002
{
1000
NOSEL
1070
     0
1002
}
1002
{
1000
BEHIND
1070
     0
1002
}
1002
{
1000
REACTOR
1002
}
1001
GENIUS_GENOBJ-N-FIL_13
1002
{
1000
OWNER
1000
GEN
1002
}
  0
ARC
  5
8BCE
  8
AM_0
 10
599.39601514183039
 20
166.50981271343511
 30
0.0
 40
111.0
 50
161.43341919810311
 51
161.47285768553169
  0
ARC
  5
8BCF
  8
AM_0
 10
495.09695936136279
 20
201.46273767405759
 30
0.0
 40
1.0
 50
161.47285768553169
 51
267.99999999999642
1001
GENIUS_GENODEF_13
1002
{
1000
HIER
1070
     0
1002
}
1002
{
1000
MANEDIT
1070
     0
1002
}
1002
{
1000
NOSEL
1070
     0
1002
}
1002
{
1000
BEHIND
1070
     0
1002
}
1002
{
1000
REACTOR
1002
}
1001
GENIUS_GENOBJ-N-FIL_13
1002
{
1000
OWNER
1000
GEN
1002
}
  0
LINE
  5
8BDB
  8
AM_0
 10
516.42971719404238
 20
109.4749132167327
 30
0.0
 11
516.67625277203058
 21
116.5347684712562
 31
0.0
  0
LINE
  5
8BDC
  8
AM_0
 10
514.36231308961851
 20
109.4749132167325
 30
0.0
 11
514.11421583662263
 21
116.57948899231221
 31
0.0
  0
ARC
  5
8BDD
  8
AM_0
 10
518.43346419785269
 20
110.55044859144419
 30
0.0
 40
1.9655366667591301
 50
3.1584702260747668
 51
179.35044678892791
  0
LINE
  5
8BDE
  8
AM_0
 10
520.39601514183039
 20
116.4698397775737
 30
0.0
 11
520.39601514183039
 21
100.5098127134351
 31
0.0
  0
LINE
  5
8BDF
  8
AM_0
 10
586.4297171940425
 20
109.4749132167325
 30
0.0
 11
586.64731864264525
 21
115.7062034136454
 31
0.0
  0
LINE
  5
8BE0
  8
AM_0
 10
584.36231308961851
 20
109.4749132167327
 30
0.0
 11
584.14623616158303
 21
115.66254685654749
 31
0.0
  0
ARC
  5
8BE1
  8
AM_0
 10
582.35856608580843
 20
110.55044859144419
 30
0.0
 40
1.9655366667591301
 50
0.6495532110655964
 51
176.84152977392509
  0
LINE
  5
8BE2
  8
AM_0
 10
580.39601514183062
 20
115.5970865051527
 30
0.0
 11
580.3960151418305
 21
100.5098127134348
 31
0.0
  0
ARC
  5
8BE3
  8
AM_0
 10
550.39601514183028
 20
166.50981271343511
 30
0.0
 40
56.5
 50
242.48212463479791
 51
295.5178753652018
  0
LINE
  5
8BE5
  8
ﾁｭｳｼﾝｾﾝ1
 10
550.39601514183062
 20
69.009812713434911
 30
0.0
 11
550.39601514183062
 21
233.00981271343511
 31
0.0
  0
LINE
  5
8BE6
  8
AM_0
 10
572.89888056238919
 20
77.00981271343484
 30
0.0
 11
567.69981514183019
 21
74.009812713434854
 31
0.0
  0
LINE
  5
8BE7
  8
AM_0
 10
520.39601514183039
 20
104.0098127134351
 30
0.0
 11
580.3960151418305
 21
104.0098127134351
 31
0.0
  0
LINE
  5
8BE8
  8
AM_0
 10
581.89601514183005
 20
93.509812713434854
 30
0.0
 11
518.89601514183005
 21
93.509812713435082
 31
0.0
  0
LINE
  5
8BE9
  8
AM_0
 10
517.39601514183016
 20
97.009812713435082
 30
0.0
 11
583.39601514183028
 21
97.009812713434854
 31
0.0
  0
LINE
  5
8BEA
  8
AM_0
 10
518.89601514183005
 20
100.5098127134351
 30
0.0
 11
581.89601514183005
 21
100.5098127134348
 31
0.0
  0
LINE
  5
8BEB
  8
AM_0
 10
521.89601514183005
 20
77.009812713435196
 30
0.0
 11
578.89601514183005
 21
77.00981271343484
 31
0.0
  0
LINE
  5
8BEC
  8
AM_0
 10
567.69981514183019
 20
74.009812713434854
 30
0.0
 11
533.09211514183016
 21
74.009812713434954
 31
0.0
  0
LINE
  5
8BED
  8
AM_0
 10
520.39601514183028
 20
93.509812713435082
 30
0.0
 11
520.39601514183028
 21
78.509812713435196
 31
0.0
  0
ARC
  5
8BEE
  8
AM_0
 10
521.8960151418305
 20
78.509812713435082
 30
0.0
 40
1.5
 50
180.0
 51
270.0
  0
LINE
  5
8BEF
  8
AM_0
 10
533.09211514183016
 20
74.009812713434954
 30
0.0
 11
527.89601514183005
 21
77.009812713434968
 31
0.0
  0
LINE
  5
8BF0
  8
AM_0
 10
518.89601514183005
 20
82.009812713435196
 30
0.0
 11
517.39601514183016
 21
82.009812713435196
 31
0.0
  0
LINE
  5
8BF1
  8
AM_0
 10
517.39601514183016
 20
82.009812713435196
 30
0.0
 11
517.39601514183016
 21
97.009812713435082
 31
0.0
  0
ARC
  5
8BF2
  8
AM_0
 10
515.36170391663734
 20
109.5098127134351
 30
0.0
 40
1.0
 50
181.9999999999971
 51
270.0
1001
GENIUS_GENODEF_13
1002
{
1000
HIER
1070
     0
1002
}
1002
{
1000
MANEDIT
1070
     0
1002
}
1002
{
1000
NOSEL
1070
     0
1002
}
1002
{
1000
BEHIND
1070
     0
1002
}
1002
{
1000
REACTOR
1002
}
1001
GENIUS_GENOBJ-N-FIL_13
1002
{
1000
OWNER
1000
GEN
1002
}
  0
LINE
  5
8BF3
  8
AM_0
 10
515.43032636702344
 20
108.5098127134351
 30
0.0
 11
515.36170391663734
 21
108.5098127134351
 31
0.0
  0
ARC
  5
8BF4
  8
AM_0
 10
515.43032636702344
 20
109.5098127134351
 30
0.0
 40
1.0
 50
269.99999999999352
 51
357.99999999999642
1001
GENIUS_GENODEF_13
1002
{
1000
HIER
1070
     0
1002
}
1002
{
1000
MANEDIT
1070
     0
1002
}
1002
{
1000
NOSEL
1070
     0
1002
}
1002
{
1000
BEHIND
1070
     0
1002
}
1002
{
1000
REACTOR
1002
}
1001
GENIUS_GENOBJ-N-FIL_13
1002
{
1000
OWNER
1000
GEN
1002
}
  0
LINE
  5
8BF5
  8
AM_0
 10
518.89601514183005
 20
81.009812713435196
 30
0.0
 11
518.89601514183005
 21
100.5098127134351
 31
0.0
  0
LINE
  5
8BF6
  8
AM_0
 10
520.39601514183028
 20
81.009812713435196
 30
0.0
 11
518.89601514183005
 21
81.009812713435196
 31
0.0
  0
LINE
  5
8BF9
  8
AM_0
 10
580.39601514183005
 20
93.509812713434854
 30
0.0
 11
580.39601514183005
 21
78.50981271343484
 31
0.0
  0
ARC
  5
8BFA
  8
AM_0
 10
578.89601514183039
 20
78.509812713435082
 30
0.0
 40
1.5
 50
270.0
 51
0.0
  0
LINE
  5
8BFB
  8
AM_0
 10
583.39601514183028
 20
82.009812713434854
 30
0.0
 11
583.39601514183028
 21
97.009812713434854
 31
0.0
  0
LINE
  5
8BFC
  8
AM_0
 10
581.89601514183005
 20
100.5098127134348
 30
0.0
 11
581.89601514183005
 21
81.009812713434826
 31
0.0
  0
LINE
  5
8BFD
  8
AM_0
 10
581.89601514183005
 20
81.009812713434826
 30
0.0
 11
580.39601514183005
 21
81.009812713434826
 31
0.0
  0
LINE
  5
8BFE
  8
AM_0
 10
581.8960151418305
 20
82.009812713434854
 30
0.0
 11
583.39601514183028
 21
82.009812713434854
 31
0.0
  0
ARC
  5
8BFF
  8
AM_0
 10
585.43032636702344
 20
109.5098127134351
 30
0.0
 40
1.0
 50
269.99999999999682
 51
357.99999999999642
1001
GENIUS_GENODEF_13
1002
{
1000
HIER
1070
     0
1002
}
1002
{
1000
MANEDIT
1070
     0
1002
}
1002
{
1000
NOSEL
1070
     0
1002
}
1002
{
1000
BEHIND
1070
     0
1002
}
1002
{
1000
REACTOR
1002
}
1001
GENIUS_GENOBJ-N-FIL_13
1002
{
1000
OWNER
1000
GEN
1002
}
  0
LINE
  5
8C00
  8
AM_0
 10
585.36170391663734
 20
108.5098127134351
 30
0.0
 11
585.43032636702344
 21
108.5098127134351
 31
0.0
  0
ARC
  5
8C01
  8
AM_0
 10
585.36170391663734
 20
109.5098127134351
 30
0.0
 40
1.0
 50
181.9999999999971
 51
270.0000000000033
1001
GENIUS_GENODEF_13
1002
{
1000
HIER
1070
     0
1002
}
1002
{
1000
MANEDIT
1070
     0
1002
}
1002
{
1000
NOSEL
1070
     0
1002
}
1002
{
1000
BEHIND
1070
     0
1002
}
1002
{
1000
REACTOR
1002
}
1001
GENIUS_GENOBJ-N-FIL_13
1002
{
1000
OWNER
1000
GEN
1002
}
  0
ARC
  5
8C02
  8
AM_0
 10
550.39601514183028
 20
166.50981271343511
 30
0.0
 40
56.5
 50
64.482124634798012
 51
117.517875365202
  0
LINE
  5
8C07
  8
ﾁｭｳｼﾝｾﾝ1
 10
509.39601400934242
 20
206.50981390552801
 30
0.0
 11
591.39601627431887
 21
206.50981390552801
 31
0.0
  0
LINE
  5
8C09
  8
AM_0
 10
575.39601588689004
 20
217.50981423335341
 30
0.0
 11
512.39601400934214
 21
216.410145110103
 31
0.0
  0
LINE
  5
8C0A
  8
ﾁｭｳｼﾝｾﾝ1
 10
509.39601400934242
 20
126.5098115213423
 30
0.0
 11
591.39601627431887
 21
126.5098115213423
 31
0.0
  0
LINE
  5
8C0C
  8
AM_0
 10
512.39601400934214
 20
216.410145110103
 30
0.0
 11
512.39601400934214
 21
116.6094803167672
 31
0.0
  0
LINE
  5
8C0D
  8
AM_0
 10
508.39601389013279
 20
194.00981353299889
 30
0.0
 11
508.39601389013279
 21
139.0098118938713
 31
0.0
  0
LINE
  5
8C0E
  8
AM_0
 10
505.39601380072583
 20
181.50981316046989
 30
0.0
 11
505.39601380072583
 21
151.5098122664003
 31
0.0
  0
LINE
  5
8C0F
  8
AM_0
 10
504.39601514183028
 20
133.22693423215
 30
0.0
 11
504.39601514183028
 21
125.5098127134351
 31
0.0
1001
GENIUS_GENODEF_13
1002
{
1000
HIER
1070
     0
1002
}
1002
{
1000
MANEDIT
1070
     0
1002
}
1002
{
1000
NOSEL
1070
     0
1002
}
1002
{
1000
BEHIND
1070
     0
1002
}
1002
{
1000
REACTOR
1002
}
1001
GENIUS_GENOBJ-N-CEN_13
1002
{
1000
OWNER
1000
GEN
1002
}
  0
ARC
  5
8C10
  8
AM_0
 10
509.3960151418305
 20
125.5098127134351
 30
0.0
 40
5.0
 50
180.0
 51
270.0
1001
GENIUS_GENOBJ-N-CEN_13
1002
{
1000
OWNER
1000
GEN
1002
}
1001
GENIUS_GENODEF_13
1002
{
1000
HIER
1070
     0
1002
}
1002
{
1000
MANEDIT
1070
     0
1002
}
1002
{
1000
NOSEL
1070
     0
1002
}
1002
{
1000
BEHIND
1070
     0
1002
}
1002
{
1000
REACTOR
1002
}
1001
GENIUS_GENOBJ-N-FIL_13
1002
{
1000
OWNER
1000
GEN
1002
}
  0
LINE
  5
8C11
  8
AM_0
 10
509.3960151418305
 20
120.5098127134351
 30
0.0
 11
512.39601514183028
 21
120.5098127134351
 31
0.0
  0
LINE
  5
8C12
  8
AM_0
 10
508.39601389013279
 20
139.00981189387119
 30
0.0
 11
512.39601400934214
 21
139.00981189387119
 31
0.0
  0
ARC
  5
8C13
  8
AM_0
 10
502.8960151418305
 20
133.22693423215
 30
0.0
 40
1.5
 50
0.0
 51
35.018628262088782
1001
GENIUS_GENODEF_13
1002
{
1000
HIER
1070
     0
1002
}
1002
{
1000
MANEDIT
1070
     0
1002
}
1002
{
1000
NOSEL
1070
     0
1002
}
1002
{
1000
BEHIND
1070
     0
1002
}
1002
{
1000
REACTOR
1002
}
1001
GENIUS_GENOBJ-N-FIL_13
1002
{
1000
OWNER
1000
GEN
1002
}
  0
LINE
  5
8C14
  8
AM_0
 10
508.39601389013279
 20
151.5098122664003
 30
0.0
 11
505.39601380072583
 21
151.5098122664003
 31
0.0
  0
ARC
  5
8C15
  8
AM_0
 10
535.4350663687178
 20
226.487654552078
 30
0.0
 40
1.0
 50
1.999999999997101
 51
97.816947831691294
1001
GENIUS_GENODEF_13
1002
{
1000
HIER
1070
     0
1002
}
1002
{
1000
MANEDIT
1070
     0
1002
}
1002
{
1000
NOSEL
1070
     0
1002
}
1002
{
1000
BEHIND
1070
     0
1002
}
1002
{
1000
REACTOR
1002
}
1001
GENIUS_GENOBJ-N-FIL_13
1002
{
1000
OWNER
1000
GEN
1002
}
  0
ARC
  5
8C17
  8
AM_0
 10
509.3960151418305
 20
207.50981271343511
 30
0.0
 40
5.0
 50
90.0
 51
180.0
1001
GENIUS_GENOBJ-N-CEN_13
1002
{
1000
OWNER
1000
GEN
1002
}
1001
GENIUS_GENODEF_13
1002
{
1000
HIER
1070
     0
1002
}
1002
{
1000
MANEDIT
1070
     0
1002
}
1002
{
1000
NOSEL
1070
     0
1002
}
1002
{
1000
BEHIND
1070
     0
1002
}
1002
{
1000
REACTOR
1002
}
1001
GENIUS_GENOBJ-N-FIL_13
1002
{
1000
OWNER
1000
GEN
1002
}
  0
LINE
  5
8C19
  8
AM_0
 10
508.39601389013279
 20
194.00981353299889
 30
0.0
 11
512.39601400934214
 21
194.00981353299889
 31
0.0
  0
LINE
  5
8C1A
  8
AM_0
 10
508.39601389013279
 20
181.50981316046989
 30
0.0
 11
505.39601380072583
 21
181.50981316046989
 31
0.0
  0
ARC
  5
8C1B
  8
AM_0
 10
502.8960151418305
 20
199.7926911947205
 30
0.0
 40
1.5
 50
324.98137173791707
 51
0.0
1001
GENIUS_GENODEF_13
1002
{
1000
HIER
1070
     0
1002
}
1002
{
1000
MANEDIT
1070
     0
1002
}
1002
{
1000
NOSEL
1070
     0
1002
}
1002
{
1000
BEHIND
1070
     0
1002
}
1002
{
1000
REACTOR
1002
}
1001
GENIUS_GENOBJ-N-FIL_13
1002
{
1000
OWNER
1000
GEN
1002
}
  0
LINE
  5
8C1C
  8
AM_0
 10
504.39601514183028
 20
207.50981271343511
 30
0.0
 11
504.39601514183028
 21
199.7926911947205
 31
0.0
1001
GENIUS_GENODEF_13
1002
{
1000
HIER
1070
     0
1002
}
1002
{
1000
MANEDIT
1070
     0
1002
}
1002
{
1000
NOSEL
1070
     0
1002
}
1002
{
1000
BEHIND
1070
     0
1002
}
1002
{
1000
REACTOR
1002
}
1001
GENIUS_GENOBJ-N-CEN_13
1002
{
1000
OWNER
1000
GEN
1002
}
  0
ARC
  5
8C20
  8
AM_0
 10
550.39601514183028
 20
117.5098127134351
 30
0.0
 40
111.0
 50
108.5271423144718
 51
108.56658080189619
  0
ARC
  5
8C21
  8
AM_0
 10
515.3713061461408
 20
221.78478458956249
 30
0.0
 40
1.0
 50
108.5665808019029
 51
177.99999999999639
1001
GENIUS_GENODEF_13
1002
{
1000
HIER
1070
     0
1002
}
1002
{
1000
MANEDIT
1070
     0
1002
}
1002
{
1000
NOSEL
1070
     0
1002
}
1002
{
1000
BEHIND
1070
     0
1002
}
1002
{
1000
REACTOR
1002
}
1001
GENIUS_GENOBJ-N-FIL_13
1002
{
1000
OWNER
1000
GEN
1002
}
  0
ARC
  5
8C22
  8
AM_0
 10
515.44309018120805
 20
221.80886849390239
 30
0.0
 40
1.0
 50
1.999999999997101
 51
108.5271423144718
1001
GENIUS_GENODEF_13
1002
{
1000
HIER
1070
     0
1002
}
1002
{
1000
MANEDIT
1070
     0
1002
}
1002
{
1000
NOSEL
1070
     0
1002
}
1002
{
1000
BEHIND
1070
     0
1002
}
1002
{
1000
REACTOR
1002
}
1001
GENIUS_GENOBJ-N-FIL_13
1002
{
1000
OWNER
1000
GEN
1002
}
  0
LINE
  5
8C23
  8
AM_0
 10
514.3719153191214
 20
221.81968408626511
 30
0.0
 11
514.18409997308322
 21
216.44135626669731
 31
0.0
  0
LINE
  5
8C24
  8
AM_0
 10
516.44248100822733
 20
221.8437679906053
 30
0.0
 11
516.62964671366421
 21
216.4840434438392
 31
0.0
  0
LINE
  5
8C25
  8
AM_0
 10
509.3960151418305
 20
212.50981271343511
 30
0.0
 11
512.39601514183062
 21
212.50981271343511
 31
0.0
  0
ARC
  5
8C2B
  8
AM_0
 10
535.36615861278324
 20
226.4781723997047
 30
0.0
 40
1.0
 50
97.853178088806203
 51
178.0000000000029
1001
GENIUS_GENODEF_13
1002
{
1000
HIER
1070
     0
1002
}
1002
{
1000
MANEDIT
1070
     0
1002
}
1002
{
1000
NOSEL
1070
     0
1002
}
1002
{
1000
BEHIND
1070
     0
1002
}
1002
{
1000
REACTOR
1002
}
1001
GENIUS_GENOBJ-N-FIL_13
1002
{
1000
OWNER
1000
GEN
1002
}
  0
ARC
  5
8C2C
  8
AM_0
 10
525.43881023785548
 20
224.64121764859391
 30
0.0
 40
1.0
 50
2.0000000000036109
 51
103.11367014329871
1001
GENIUS_GENODEF_13
1002
{
1000
HIER
1070
     0
1002
}
1002
{
1000
MANEDIT
1070
     0
1002
}
1002
{
1000
NOSEL
1070
     0
1002
}
1002
{
1000
BEHIND
1070
     0
1002
}
1002
{
1000
REACTOR
1002
}
1001
GENIUS_GENOBJ-N-FIL_13
1002
{
1000
OWNER
1000
GEN
1002
}
  0
ARC
  5
8C2D
  8
AM_0
 10
525.3687952428902
 20
224.62488291427141
 30
0.0
 40
1.0
 50
103.1511182606518
 51
178.0000000000029
1001
GENIUS_GENODEF_13
1002
{
1000
HIER
1070
     0
1002
}
1002
{
1000
MANEDIT
1070
     0
1002
}
1002
{
1000
NOSEL
1070
     0
1002
}
1002
{
1000
BEHIND
1070
     0
1002
}
1002
{
1000
REACTOR
1002
}
1001
GENIUS_GENOBJ-N-FIL_13
1002
{
1000
OWNER
1000
GEN
1002
}
  0
ARC
  5
8C2E
  8
AM_0
 10
550.39601514183028
 20
117.5098127134351
 30
0.0
 40
111.0
 50
103.11367014329871
 51
103.1511182606518
  0
LINE
  5
8C2F
  8
AM_0
 10
526.43820106487465
 20
224.6761171452967
 30
0.0
 11
526.67864279814603
 21
217.7907667715553
 31
0.0
  0
LINE
  5
8C30
  8
AM_0
 10
524.36940441587114
 20
224.65978241097389
 30
0.0
 11
524.08844778964692
 21
216.61423730090709
 31
0.0
  0
LINE
  5
8C31
  8
AM_0
 10
534.36676778576407
 20
226.5130718964073
 30
0.0
 11
534.16122538191667
 21
220.6271075594581
 31
0.0
  0
ARC
  5
8C32
  8
AM_0
 10
550.39601514183028
 20
117.5098127134351
 30
0.0
 40
111.0
 50
97.816947831691294
 51
97.853178088809429
  0
LINE
  5
8C34
  8
AM_0
 10
546.4311133510862
 20
227.432636018012
 30
0.0
 11
546.59004331244694
 21
222.8814773902381
 31
0.0
  0
LINE
  5
8C35
  8
AM_0
 10
544.36395766293208
 20
227.4295258395515
 30
0.0
 11
544.19770918908398
 21
222.66879243454599
 31
0.0
  0
LINE
  5
8C36
  8
AM_0
 10
536.43445719573685
 20
226.52255404878079
 30
0.0
 11
536.61670028160313
 21
221.30379488285499
 31
0.0
  0
ARC
  5
8C37
  8
AM_0
 10
545.36334848995102
 20
227.39462634284899
 30
0.0
 40
1.0
 50
92.622284087952934
 51
178.0000000000029
1001
GENIUS_GENODEF_13
1002
{
1000
HIER
1070
     0
1002
}
1002
{
1000
MANEDIT
1070
     0
1002
}
1002
{
1000
NOSEL
1070
     0
1002
}
1002
{
1000
BEHIND
1070
     0
1002
}
1002
{
1000
REACTOR
1002
}
1001
GENIUS_GENOBJ-N-FIL_13
1002
{
1000
OWNER
1000
GEN
1002
}
  0
ARC
  5
8C39
  8
AM_0
 10
545.43172252406703
 20
227.39773652130941
 30
0.0
 40
1.0
 50
2.0000000000036109
 51
92.586633228773294
1001
GENIUS_GENODEF_13
1002
{
1000
HIER
1070
     0
1002
}
1002
{
1000
MANEDIT
1070
     0
1002
}
1002
{
1000
NOSEL
1070
     0
1002
}
1002
{
1000
BEHIND
1070
     0
1002
}
1002
{
1000
REACTOR
1002
}
1001
GENIUS_GENOBJ-N-FIL_13
1002
{
1000
OWNER
1000
GEN
1002
}
  0
ARC
  5
8C3A
  8
AM_0
 10
550.39601514183028
 20
117.5098127134351
 30
0.0
 40
111.0
 50
92.586633228776563
 51
92.62228408795616
  0
LINE
  5
8C3B
  8
AM_0
 10
556.42807262072893
 20
227.4295258395515
 30
0.0
 11
556.59432109457703
 21
222.66879243454599
 31
0.0
  0
LINE
  5
8C3C
  8
AM_0
 10
554.36091693257481
 20
227.432636018012
 30
0.0
 11
554.20198697121396
 21
222.8814773902381
 31
0.0
  0
ARC
  5
8C3D
  8
AM_0
 10
565.35696391494321
 20
226.487654552078
 30
0.0
 40
1.0
 50
82.18305216830872
 51
178.0000000000029
1001
GENIUS_GENODEF_13
1002
{
1000
HIER
1070
     0
1002
}
1002
{
1000
MANEDIT
1070
     0
1002
}
1002
{
1000
NOSEL
1070
     0
1002
}
1002
{
1000
BEHIND
1070
     0
1002
}
1002
{
1000
REACTOR
1002
}
1001
GENIUS_GENOBJ-N-FIL_13
1002
{
1000
OWNER
1000
GEN
1002
}
  0
ARC
  5
8C3E
  8
AM_0
 10
565.42587167087777
 20
226.4781723997047
 30
0.0
 40
1.0
 50
1.999999999997101
 51
82.146821911193769
1001
GENIUS_GENODEF_13
1002
{
1000
HIER
1070
     0
1002
}
1002
{
1000
MANEDIT
1070
     0
1002
}
1002
{
1000
NOSEL
1070
     0
1002
}
1002
{
1000
BEHIND
1070
     0
1002
}
1002
{
1000
REACTOR
1002
}
1001
GENIUS_GENOBJ-N-FIL_13
1002
{
1000
OWNER
1000
GEN
1002
}
  0
LINE
  5
8C3F
  8
AM_0
 10
564.35757308792392
 20
226.52255404878079
 30
0.0
 11
564.17533000205765
 21
221.30379488285499
 31
0.0
  0
LINE
  5
8C40
  8
AM_0
 10
566.42526249789671
 20
226.5130718964073
 30
0.0
 11
566.63080490174411
 21
220.6271075594581
 31
0.0
  0
ARC
  5
8C41
  8
AM_0
 10
555.36030775959398
 20
227.39773652130941
 30
0.0
 40
1.0
 50
87.413366771226706
 51
177.99999999999639
1001
GENIUS_GENODEF_13
1002
{
1000
HIER
1070
     0
1002
}
1002
{
1000
MANEDIT
1070
     0
1002
}
1002
{
1000
NOSEL
1070
     0
1002
}
1002
{
1000
BEHIND
1070
     0
1002
}
1002
{
1000
REACTOR
1002
}
1001
GENIUS_GENOBJ-N-FIL_13
1002
{
1000
OWNER
1000
GEN
1002
}
  0
ARC
  5
8C42
  8
AM_0
 10
555.42868179370976
 20
227.39462634284899
 30
0.0
 40
1.0
 50
1.999999999997101
 51
87.37771591204708
1001
GENIUS_GENODEF_13
1002
{
1000
HIER
1070
     0
1002
}
1002
{
1000
MANEDIT
1070
     0
1002
}
1002
{
1000
NOSEL
1070
     0
1002
}
1002
{
1000
BEHIND
1070
     0
1002
}
1002
{
1000
REACTOR
1002
}
1001
GENIUS_GENOBJ-N-FIL_13
1002
{
1000
OWNER
1000
GEN
1002
}
  0
ARC
  5
8C43
  8
AM_0
 10
550.39601514183028
 20
117.5098127134351
 30
0.0
 40
111.0
 50
87.377715912043826
 51
87.413366771223465
  0
ARC
  5
8C44
  8
AM_0
 10
550.39601514183028
 20
117.5098127134351
 30
0.0
 40
111.0
 50
82.146821911190585
 51
82.183052168305494
  0
ARC
  5
8C45
  8
AM_0
 10
550.39601514183028
 20
166.50981271343511
 30
0.0
 40
56.5
 50
324.98137173791707
 51
35.01862826208292
  0
LINE
  5
8C47
  8
AM_0
 10
592.39601639352793
 20
194.00981353299889
 30
0.0
 11
592.39601639352793
 21
139.0098118938713
 31
0.0
  0
LINE
  5
8C48
  8
AM_0
 10
588.39601627431875
 20
217.282898382524
 30
0.0
 11
588.39601627431875
 21
115.736727044346
 31
0.0
  0
LINE
  5
8C49
  8
AM_0
 10
595.39601648293501
 20
181.50981316046989
 30
0.0
 11
595.39601648293501
 21
151.5098122664003
 31
0.0
  0
LINE
  5
8C4A
  8
AM_0
 10
575.39601588688845
 20
217.50981423335361
 30
0.0
 11
575.39601588688845
 21
115.5098111935167
 31
0.0
  0
LINE
  5
8C4B
  8
AM_0
 10
610.39927432480283
 20
150.48056535736879
 30
0.0
 11
604.51330998785375
 21
150.2750229535217
 31
0.0
  0
LINE
  5
8C4C
  8
AM_0
 10
610.40875647717633
 20
152.54825476734169
 30
0.0
 11
605.18999731125041
 21
152.73049785320779
 31
0.0
  0
LINE
  5
8C4D
  8
AM_0
 10
608.54598483936923
 20
140.48320198747581
 30
0.0
 11
600.39570973926345
 21
140.19858810941071
 31
0.0
  0
LINE
  5
8C4E
  8
AM_0
 10
608.56231957369198
 20
142.5519986364794
 30
0.0
 11
601.67696919995058
 21
142.79244036975081
 31
0.0
  0
ARC
  5
8C4F
  8
AM_0
 10
605.67098701795805
 20
131.48510371774529
 30
0.0
 40
1.0
 50
272.00000000000688
 51
341.433419198097
1001
GENIUS_GENODEF_13
1002
{
1000
HIER
1070
     0
1002
}
1002
{
1000
MANEDIT
1070
     0
1002
}
1002
{
1000
NOSEL
1070
     0
1002
}
1002
{
1000
BEHIND
1070
     0
1002
}
1002
{
1000
REACTOR
1002
}
1001
GENIUS_GENOBJ-N-FIL_13
1002
{
1000
OWNER
1000
GEN
1002
}
  0
ARC
  5
8C50
  8
AM_0
 10
605.6950709222981
 20
131.556887752813
 30
0.0
 40
1.0
 50
341.47285768553172
 51
87.999999999996334
1001
GENIUS_GENODEF_13
1002
{
1000
HIER
1070
     0
1002
}
1002
{
1000
MANEDIT
1070
     0
1002
}
1002
{
1000
NOSEL
1070
     0
1002
}
1002
{
1000
BEHIND
1070
     0
1002
}
1002
{
1000
REACTOR
1002
}
1001
GENIUS_GENOBJ-N-FIL_13
1002
{
1000
OWNER
1000
GEN
1002
}
  0
LINE
  5
8C52
  8
AM_0
 10
596.39601514183028
 20
133.22693423215
 30
0.0
 11
596.39601514183028
 21
125.5098127134351
 31
0.0
1001
GENIUS_GENODEF_13
1002
{
1000
HIER
1070
     0
1002
}
1002
{
1000
MANEDIT
1070
     0
1002
}
1002
{
1000
NOSEL
1070
     0
1002
}
1002
{
1000
BEHIND
1070
     0
1002
}
1002
{
1000
REACTOR
1002
}
1001
GENIUS_GENOBJ-N-CEN_13
1002
{
1000
OWNER
1000
GEN
1002
}
  0
ARC
  5
8C53
  8
AM_0
 10
591.39601514183039
 20
125.5098127134351
 30
0.0
 40
5.0
 50
270.0
 51
0.0
1001
GENIUS_GENODEF_13
1002
{
1000
HIER
1070
     0
1002
}
1002
{
1000
MANEDIT
1070
     0
1002
}
1002
{
1000
NOSEL
1070
     0
1002
}
1002
{
1000
BEHIND
1070
     0
1002
}
1002
{
1000
REACTOR
1002
}
1001
GENIUS_GENOBJ-N-FIL_13
1002
{
1000
OWNER
1000
GEN
1002
}
  0
LINE
  5
8C54
  8
AM_0
 10
588.3960151418305
 20
120.5098127134351
 30
0.0
 11
591.39601514183039
 21
120.5098127134351
 31
0.0
  0
LINE
  5
8C55
  8
AM_0
 10
605.72997041900078
 20
132.55627857983191
 30
0.0
 11
596.39601514183028
 21
132.8822274805124
 31
0.0
  0
LINE
  5
8C56
  8
AM_0
 10
605.70588651466051
 20
130.48571289072621
 30
0.0
 11
596.39601514183028
 21
130.16060501851771
 31
0.0
  0
ARC
  5
8C57
  8
AM_0
 10
597.8960151418305
 20
133.22693423215
 30
0.0
 40
1.5
 50
144.9813717379171
 51
180.0
1001
GENIUS_GENODEF_13
1002
{
1000
HIER
1070
     0
1002
}
1002
{
1000
MANEDIT
1070
     0
1002
}
1002
{
1000
NOSEL
1070
     0
1002
}
1002
{
1000
BEHIND
1070
     0
1002
}
1002
{
1000
REACTOR
1002
}
1001
GENIUS_GENOBJ-N-FIL_13
1002
{
1000
OWNER
1000
GEN
1002
}
  0
LINE
  5
8C58
  8
AM_0
 10
592.39601639352793
 20
139.0098118938713
 30
0.0
 11
588.39601627431875
 21
139.0098118938713
 31
0.0
  0
LINE
  5
8C59
  8
AM_0
 10
604.39601514183016
 20
132.6028613245779
 30
0.0
 11
604.39601514183028
 21
140.33828185227031
 31
0.0
  0
LINE
  5
8C5A
  8
AM_0
 10
595.39601648293501
 20
151.5098122664003
 30
0.0
 11
592.39601639352793
 21
151.5098122664003
 31
0.0
  0
ARC
  5
8C5C
  8
AM_0
 10
608.51108534266677
 20
141.48259281449489
 30
0.0
 40
1.0
 50
271.9999999999971
 51
346.84888173935138
1001
GENIUS_GENODEF_13
1002
{
1000
HIER
1070
     0
1002
}
1002
{
1000
MANEDIT
1070
     0
1002
}
1002
{
1000
NOSEL
1070
     0
1002
}
1002
{
1000
BEHIND
1070
     0
1002
}
1002
{
1000
REACTOR
1002
}
1001
GENIUS_GENOBJ-N-FIL_13
1002
{
1000
OWNER
1000
GEN
1002
}
  0
ARC
  5
8C5D
  8
AM_0
 10
501.3960151418305
 20
166.50981271343511
 30
0.0
 40
111.0
 50
346.84888173935138
 51
346.8863298566946
  0
ARC
  5
8C5E
  8
AM_0
 10
608.52742007698953
 20
141.55260780946031
 30
0.0
 40
1.0
 50
346.88632985670091
 51
87.999999999996334
1001
GENIUS_GENODEF_13
1002
{
1000
HIER
1070
     0
1002
}
1002
{
1000
MANEDIT
1070
     0
1002
}
1002
{
1000
NOSEL
1070
     0
1002
}
1002
{
1000
BEHIND
1070
     0
1002
}
1002
{
1000
REACTOR
1002
}
1001
GENIUS_GENOBJ-N-FIL_13
1002
{
1000
OWNER
1000
GEN
1002
}
  0
ARC
  5
8C5F
  8
AM_0
 10
501.3960151418305
 20
166.50981271343511
 30
0.0
 40
111.0
 50
341.43341919810331
 51
341.47285768553172
  0
ARC
  5
8C61
  8
AM_0
 10
501.3960151418305
 20
166.50981271343511
 30
0.0
 40
111.0
 50
357.37771591204722
 51
357.41336677122672
  0
ARC
  5
8C62
  8
AM_0
 10
610.37385698047365
 20
151.5488639403226
 30
0.0
 40
1.0
 50
352.18305216830549
 51
87.999999999999588
1001
GENIUS_GENODEF_13
1002
{
1000
HIER
1070
     0
1002
}
1002
{
1000
MANEDIT
1070
     0
1002
}
1002
{
1000
NOSEL
1070
     0
1002
}
1002
{
1000
BEHIND
1070
     0
1002
}
1002
{
1000
REACTOR
1002
}
1001
GENIUS_GENOBJ-N-FIL_13
1002
{
1000
OWNER
1000
GEN
1002
}
  0
ARC
  5
8C63
  8
AM_0
 10
501.3960151418305
 20
166.50981271343511
 30
0.0
 40
111.0
 50
352.14682191118732
 51
352.18305216830549
  0
ARC
  5
8C64
  8
AM_0
 10
610.36437482810015
 20
151.47995618438799
 30
0.0
 40
1.0
 50
271.9999999999971
 51
352.14682191119368
1001
GENIUS_GENODEF_13
1002
{
1000
HIER
1070
     0
1002
}
1002
{
1000
MANEDIT
1070
     0
1002
}
1002
{
1000
NOSEL
1070
     0
1002
}
1002
{
1000
BEHIND
1070
     0
1002
}
1002
{
1000
REACTOR
1002
}
1001
GENIUS_GENOBJ-N-FIL_13
1002
{
1000
OWNER
1000
GEN
1002
}
  0
ARC
  5
8C65
  8
AM_0
 10
611.28082877124461
 20
161.4771460615556
 30
0.0
 40
1.0
 50
272.0000000000004
 51
357.37771591204722
1001
GENIUS_GENODEF_13
1002
{
1000
HIER
1070
     0
1002
}
1002
{
1000
MANEDIT
1070
     0
1002
}
1002
{
1000
NOSEL
1070
     0
1002
}
1002
{
1000
BEHIND
1070
     0
1002
}
1002
{
1000
REACTOR
1002
}
1001
GENIUS_GENOBJ-N-FIL_13
1002
{
1000
OWNER
1000
GEN
1002
}
  0
LINE
  5
8C66
  8
AM_0
 10
611.31572826794718
 20
160.4777552345366
 30
0.0
 11
606.55499486294127
 21
160.31150676068879
 31
0.0
  0
ARC
  5
8C67
  8
AM_0
 10
611.28393894970475
 20
171.4741053311985
 30
0.0
 40
1.0
 50
272.00000000000369
 51
2.5866332287732892
1001
GENIUS_GENODEF_13
1002
{
1000
HIER
1070
     0
1002
}
1002
{
1000
MANEDIT
1070
     0
1002
}
1002
{
1000
NOSEL
1070
     0
1002
}
1002
{
1000
BEHIND
1070
     0
1002
}
1002
{
1000
REACTOR
1002
}
1001
GENIUS_GENOBJ-N-FIL_13
1002
{
1000
OWNER
1000
GEN
1002
}
  0
ARC
  5
8C68
  8
AM_0
 10
611.28082877124461
 20
171.54247936531451
 30
0.0
 40
1.0
 50
2.6222840879528522
 51
87.999999999999588
1001
GENIUS_GENODEF_13
1002
{
1000
HIER
1070
     0
1002
}
1002
{
1000
MANEDIT
1070
     0
1002
}
1002
{
1000
NOSEL
1070
     0
1002
}
1002
{
1000
BEHIND
1070
     0
1002
}
1002
{
1000
REACTOR
1002
}
1001
GENIUS_GENOBJ-N-FIL_13
1002
{
1000
OWNER
1000
GEN
1002
}
  0
LINE
  5
8C69
  8
AM_0
 10
611.31883844640765
 20
170.47471450417959
 30
0.0
 11
606.76767981863372
 21
170.31578454281851
 31
0.0
  0
LINE
  5
8C6A
  8
AM_0
 10
611.31572826794718
 20
172.54187019233359
 30
0.0
 11
606.55499486294127
 21
172.7081186661816
 31
0.0
  0
ARC
  5
8C6B
  8
AM_0
 10
501.3960151418305
 20
166.50981271343511
 30
0.0
 40
111.0
 50
2.5866332287732892
 51
2.6222840879528522
  0
ARC
  5
8C6C
  8
AM_0
 10
611.28393894970475
 20
161.5455200956718
 30
0.0
 40
1.0
 50
357.41336677122672
 51
87.999999999996334
1001
GENIUS_GENODEF_13
1002
{
1000
HIER
1070
     0
1002
}
1002
{
1000
MANEDIT
1070
     0
1002
}
1002
{
1000
NOSEL
1070
     0
1002
}
1002
{
1000
BEHIND
1070
     0
1002
}
1002
{
1000
REACTOR
1002
}
1001
GENIUS_GENOBJ-N-FIL_13
1002
{
1000
OWNER
1000
GEN
1002
}
  0
LINE
  5
8C6D
  8
AM_0
 10
611.31883844640765
 20
162.544910922691
 30
0.0
 11
606.76767981863372
 21
162.7038408840516
 31
0.0
  0
LINE
  5
8C6E
  8
AM_0
 10
610.39927432480283
 20
182.53906006950129
 30
0.0
 11
604.51330998785375
 21
182.74460247334869
 31
0.0
  0
LINE
  5
8C6F
  8
AM_0
 10
608.54598483936923
 20
192.5364234393945
 30
0.0
 11
600.39570973926345
 21
192.8210373174596
 31
0.0
  0
LINE
  5
8C70
  8
AM_0
 10
608.56231957369209
 20
190.46762679039091
 30
0.0
 11
601.67696919995058
 21
190.22718505711941
 31
0.0
  0
LINE
  5
8C71
  8
AM_0
 10
610.40875647717633
 20
180.47137065952879
 30
0.0
 11
605.18999731125041
 21
180.28912757366231
 31
0.0
  0
ARC
  5
8C72
  8
AM_0
 10
605.67098701795805
 20
201.53452170912499
 30
0.0
 40
1.0
 50
18.56658080190293
 51
87.999999999993065
1001
GENIUS_GENODEF_13
1002
{
1000
HIER
1070
     0
1002
}
1002
{
1000
MANEDIT
1070
     0
1002
}
1002
{
1000
NOSEL
1070
     0
1002
}
1002
{
1000
BEHIND
1070
     0
1002
}
1002
{
1000
REACTOR
1002
}
1001
GENIUS_GENOBJ-N-FIL_13
1002
{
1000
OWNER
1000
GEN
1002
}
  0
ARC
  5
8C73
  8
AM_0
 10
605.6950709222981
 20
201.46273767405759
 30
0.0
 40
1.0
 50
272.0000000000004
 51
18.52714231446825
1001
GENIUS_GENODEF_13
1002
{
1000
HIER
1070
     0
1002
}
1002
{
1000
MANEDIT
1070
     0
1002
}
1002
{
1000
NOSEL
1070
     0
1002
}
1002
{
1000
BEHIND
1070
     0
1002
}
1002
{
1000
REACTOR
1002
}
1001
GENIUS_GENOBJ-N-FIL_13
1002
{
1000
OWNER
1000
GEN
1002
}
  0
ARC
  5
8C75
  8
AM_0
 10
591.39601514183039
 20
207.50981271343511
 30
0.0
 40
5.0
 50
0.0
 51
90.0
1001
GENIUS_GENODEF_13
1002
{
1000
HIER
1070
     0
1002
}
1002
{
1000
MANEDIT
1070
     0
1002
}
1002
{
1000
NOSEL
1070
     0
1002
}
1002
{
1000
BEHIND
1070
     0
1002
}
1002
{
1000
REACTOR
1002
}
1001
GENIUS_GENOBJ-N-FIL_13
1002
{
1000
OWNER
1000
GEN
1002
}
  0
LINE
  5
8C77
  8
AM_0
 10
604.39601514183016
 20
200.41676410229221
 30
0.0
 11
604.39601514183028
 21
192.68134357459979
 31
0.0
  0
LINE
  5
8C78
  8
AM_0
 10
592.39601639352793
 20
194.00981353299889
 30
0.0
 11
588.39601627431875
 21
194.00981353299889
 31
0.0
  0
LINE
  5
8C79
  8
AM_0
 10
595.39601648293501
 20
181.50981316046989
 30
0.0
 11
592.39601639352793
 21
181.50981316046989
 31
0.0
  0
LINE
  5
8C7A
  8
AM_0
 10
605.70588651466073
 20
202.53391253614419
 30
0.0
 11
596.39601514183028
 21
202.85902040835271
 31
0.0
  0
LINE
  5
8C7B
  8
AM_0
 10
605.72997041900078
 20
200.46334684703851
 30
0.0
 11
596.39601514183028
 21
200.13739794635819
 31
0.0
  0
ARC
  5
8C7C
  8
AM_0
 10
597.8960151418305
 20
199.7926911947205
 30
0.0
 40
1.5
 50
179.99999999999349
 51
215.0186282620829
1001
GENIUS_GENODEF_13
1002
{
1000
HIER
1070
     0
1002
}
1002
{
1000
MANEDIT
1070
     0
1002
}
1002
{
1000
NOSEL
1070
     0
1002
}
1002
{
1000
BEHIND
1070
     0
1002
}
1002
{
1000
REACTOR
1002
}
1001
GENIUS_GENOBJ-N-FIL_13
1002
{
1000
OWNER
1000
GEN
1002
}
  0
LINE
  5
8C7D
  8
AM_0
 10
596.39601514183028
 20
207.50981271343511
 30
0.0
 11
596.39601514183028
 21
199.7926911947205
 31
0.0
1001
GENIUS_GENODEF_13
1002
{
1000
HIER
1070
     0
1002
}
1002
{
1000
MANEDIT
1070
     0
1002
}
1002
{
1000
NOSEL
1070
     0
1002
}
1002
{
1000
BEHIND
1070
     0
1002
}
1002
{
1000
REACTOR
1002
}
1001
GENIUS_GENOBJ-N-CEN_13
1002
{
1000
OWNER
1000
GEN
1002
}
  0
LINE
  5
8C80
  8
AM_0
 10
574.35382921878625
 20
224.6761171452967
 30
0.0
 11
574.11338748551475
 21
217.7907667715553
 31
0.0
  0
ARC
  5
8C81
  8
AM_0
 10
575.42323504077069
 20
224.62488291427141
 30
0.0
 40
1.0
 50
1.999999999997101
 51
76.848881739348215
1001
GENIUS_GENODEF_13
1002
{
1000
HIER
1070
     0
1002
}
1002
{
1000
MANEDIT
1070
     0
1002
}
1002
{
1000
NOSEL
1070
     0
1002
}
1002
{
1000
BEHIND
1070
     0
1002
}
1002
{
1000
REACTOR
1002
}
1001
GENIUS_GENOBJ-N-FIL_13
1002
{
1000
OWNER
1000
GEN
1002
}
  0
ARC
  5
8C82
  8
AM_0
 10
550.39601514183028
 20
117.5098127134351
 30
0.0
 40
111.0
 50
76.848881739348215
 51
76.886329856701238
  0
LINE
  5
8C83
  8
AM_0
 10
576.42262586778975
 20
224.65978241097389
 30
0.0
 11
576.67308668962085
 21
217.48752287957379
 31
0.0
  0
ARC
  5
8C84
  8
AM_0
 10
575.35322004580519
 20
224.64121764859391
 30
0.0
 40
1.0
 50
76.886329856701238
 51
177.99999999999639
1001
GENIUS_GENODEF_13
1002
{
1000
HIER
1070
     0
1002
}
1002
{
1000
MANEDIT
1070
     0
1002
}
1002
{
1000
NOSEL
1070
     0
1002
}
1002
{
1000
BEHIND
1070
     0
1002
}
1002
{
1000
REACTOR
1002
}
1001
GENIUS_GENOBJ-N-FIL_13
1002
{
1000
OWNER
1000
GEN
1002
}
  0
ARC
  5
8C85
  8
AM_0
 10
550.39601514183028
 20
117.5098127134351
 30
0.0
 40
111.0
 50
71.433419198103763
 51
71.472857685528155
  0
ARC
  5
8C86
  8
AM_0
 10
585.42072413752021
 20
221.78478458956249
 30
0.0
 40
1.0
 50
2.0000000000036109
 51
71.43341919809707
1001
GENIUS_GENODEF_13
1002
{
1000
HIER
1070
     0
1002
}
1002
{
1000
MANEDIT
1070
     0
1002
}
1002
{
1000
NOSEL
1070
     0
1002
}
1002
{
1000
BEHIND
1070
     0
1002
}
1002
{
1000
REACTOR
1002
}
1001
GENIUS_GENOBJ-N-FIL_13
1002
{
1000
OWNER
1000
GEN
1002
}
  0
ARC
  5
8C87
  8
AM_0
 10
585.34894010245273
 20
221.80886849390239
 30
0.0
 40
1.0
 50
71.472857685528155
 51
178.0000000000029
1001
GENIUS_GENODEF_13
1002
{
1000
HIER
1070
     0
1002
}
1002
{
1000
MANEDIT
1070
     0
1002
}
1002
{
1000
NOSEL
1070
     0
1002
}
1002
{
1000
BEHIND
1070
     0
1002
}
1002
{
1000
REACTOR
1002
}
1001
GENIUS_GENOBJ-N-FIL_13
1002
{
1000
OWNER
1000
GEN
1002
}
  0
LINE
  5
8C88
  8
AM_0
 10
586.42011496453961
 20
221.81968408626511
 30
0.0
 11
586.57743450618443
 21
217.31464184536401
 31
0.0
  0
LINE
  5
8C89
  8
AM_0
 10
584.34954927543356
 20
221.8437679906053
 30
0.0
 11
584.19284221994997
 21
217.35626505854759
 31
0.0
  0
LINE
  5
8C8D
  8
AM_0
 10
588.3960151418305
 20
212.50981271343511
 30
0.0
 11
591.39601514183039
 21
212.50981271343511
 31
0.0
  0
ARC
  5
8C92
  8
AM_0
 10
610.36437482810015
 20
181.53966924248229
 30
0.0
 40
1.0
 50
7.8531780888062181
 51
87.999999999999588
1001
GENIUS_GENODEF_13
1002
{
1000
HIER
1070
     0
1002
}
1002
{
1000
MANEDIT
1070
     0
1002
}
1002
{
1000
NOSEL
1070
     0
1002
}
1002
{
1000
BEHIND
1070
     0
1002
}
1002
{
1000
REACTOR
1002
}
1001
GENIUS_GENOBJ-N-FIL_13
1002
{
1000
OWNER
1000
GEN
1002
}
  0
ARC
  5
8C93
  8
AM_0
 10
501.3960151418305
 20
166.50981271343511
 30
0.0
 40
111.0
 50
7.8169478316945114
 51
7.8531780888126708
  0
ARC
  5
8C94
  8
AM_0
 10
608.52742007698953
 20
191.46701761741011
 30
0.0
 40
1.0
 50
272.00000000000369
 51
13.11367014329914
1001
GENIUS_GENODEF_13
1002
{
1000
HIER
1070
     0
1002
}
1002
{
1000
MANEDIT
1070
     0
1002
}
1002
{
1000
NOSEL
1070
     0
1002
}
1002
{
1000
BEHIND
1070
     0
1002
}
1002
{
1000
REACTOR
1002
}
1001
GENIUS_GENOBJ-N-FIL_13
1002
{
1000
OWNER
1000
GEN
1002
}
  0
ARC
  5
8C95
  8
AM_0
 10
501.3960151418305
 20
166.50981271343511
 30
0.0
 40
111.0
 50
13.113670143305489
 51
13.151118260648611
  0
ARC
  5
8C96
  8
AM_0
 10
608.51108534266677
 20
191.53703261237541
 30
0.0
 40
1.0
 50
13.151118260648611
 51
87.999999999999588
1001
GENIUS_GENODEF_13
1002
{
1000
HIER
1070
     0
1002
}
1002
{
1000
MANEDIT
1070
     0
1002
}
1002
{
1000
NOSEL
1070
     0
1002
}
1002
{
1000
BEHIND
1070
     0
1002
}
1002
{
1000
REACTOR
1002
}
1001
GENIUS_GENOBJ-N-FIL_13
1002
{
1000
OWNER
1000
GEN
1002
}
  0
ARC
  5
8C97
  8
AM_0
 10
610.37385698047365
 20
181.47076148654779
 30
0.0
 40
1.0
 50
272.0000000000004
 51
7.8169478316945114
1001
GENIUS_GENODEF_13
1002
{
1000
HIER
1070
     0
1002
}
1002
{
1000
MANEDIT
1070
     0
1002
}
1002
{
1000
NOSEL
1070
     0
1002
}
1002
{
1000
BEHIND
1070
     0
1002
}
1002
{
1000
REACTOR
1002
}
1001
GENIUS_GENOBJ-N-FIL_13
1002
{
1000
OWNER
1000
GEN
1002
}
  0
ARC
  5
8C98
  8
AM_0
 10
501.3960151418305
 20
166.50981271343511
 30
0.0
 40
111.0
 50
18.52714231446825
 51
18.566580801895711
  0
LINE
  5
90CB
  8
AM_0
 10
230.08592626658131
 20
-4.456677818847707
 30
0.0
 11
230.08592626658131
 21
-116.4566588188477
 31
0.0
  0
LINE
  5
90CC
  8
AM_0
 10
114.0859262665813
 20
-7.456677818847707
 30
0.0
 11
114.0859262665813
 21
-113.4566588188477
 31
0.0
  0
LINE
  5
90CD
  8
AM_0
 10
122.0859262665813
 20
-7.456677818847707
 30
0.0
 11
122.0859262665813
 21
-109.8969058188477
 31
0.0
  0
LINE
  5
90CE
  8
AM_0
 10
122.0859262665813
 20
-12.36096781884771
 30
0.0
 11
123.3271962665812
 21
-5.801527818847771
 31
0.0
  0
LINE
  5
90CF
  8
AM_0
 10
122.0859862665812
 20
-11.01643781884775
 30
0.0
 11
123.3660162665812
 21
-3.0112478188477212
 31
0.0
  0
LINE
  5
90D0
  8
AM_0
 10
122.0859262665813
 20
-9.6717978188477201
 30
0.0
 11
123.3769462665813
 21
-1.1787578188477139
 31
0.0
  0
LINE
  5
90D1
  8
AM_0
 10
122.0859262665813
 20
-9.6717978188477201
 30
0.0
 11
123.3947662665813
 21
-0.2923578188477336
 31
0.0
  0
LINE
  5
90D2
  8
AM_0
 10
228.28804626658129
 20
-21.12185781884773
 30
0.0
 11
224.14390626658121
 21
-5.6557778188477519
 31
0.0
  0
LINE
  5
90D3
  8
AM_0
 10
238.08592626658131
 20
-4.456637818847752
 30
0.0
 11
238.08592626658131
 21
-116.4566588188477
 31
0.0
  0
LINE
  5
90D4
  8
ﾁｭｳｼﾝｾﾝ1
 10
101.5859262665813
 20
-60.456667818847762
 30
0.0
 11
404.59203386512411
 21
-60.456624369272873
 31
0.0
1001
GENIUS_GENODEF_13
1002
{
1000
HIER
1070
     0
1002
}
1002
{
1000
MANEDIT
1070
     0
1002
}
1002
{
1000
NOSEL
1070
     0
1002
}
1002
{
1000
BEHIND
1070
     0
1002
}
1002
{
1000
REACTOR
1002
}
1001
GENIUS_GENOBJ-N-CEN_13
1002
{
1000
OWNER
1000
GEN
1002
}
  0
ARC
  5
90D5
  8
AM_0
 10
123.7632362665812
 20
-25.411557818847712
 30
0.0
 40
1.6779127
 50
90.000003000000945
 51
270.0
  0
ARC
  5
90D6
  8
AM_0
 10
123.54741626658129
 20
-35.432007818847751
 30
0.0
 40
1.4614868000000001
 50
90.000003000000945
 51
270.0
  0
ARC
  5
90D7
  8
AM_0
 10
123.41685626658121
 20
-45.444107818847719
 30
0.0
 40
1.3309325999999999
 50
90.000003000000945
 51
270.0
  0
ARC
  5
90D8
  8
AM_0
 10
123.35484626658121
 20
-55.45283781884774
 30
0.0
 40
1.268920899999999
 50
90.000003000000945
 51
270.0
  0
ARC
  5
90D9
  8
AM_0
 10
123.35484626658121
 20
-65.460567818847721
 30
0.0
 40
1.268920899999999
 50
90.000003000000945
 51
270.0
  0
ARC
  5
90DA
  8
AM_0
 10
123.41685626658121
 20
-75.469227818847727
 30
0.0
 40
1.3309325999999999
 50
90.000003000000945
 51
270.0
  0
ARC
  5
90DB
  8
AM_0
 10
123.5474762665812
 20
-85.481397818847711
 30
0.0
 40
1.4615020999999999
 50
90.000003000000945
 51
270.0
  0
ARC
  5
90DC
  8
AM_0
 10
123.7638462665812
 20
-95.501839818847714
 30
0.0
 40
1.6779174999999991
 50
90.000003000000945
 51
270.0
  0
LINE
  5
90DD
  8
AM_0
 10
127.4513462665812
 20
-23.805477818847748
 30
0.0
 11
122.0859262665813
 21
-12.36100781884778
 31
0.0
  0
LINE
  5
90DE
  8
AM_0
 10
127.4514062665812
 20
-97.107911818847768
 30
0.0
 11
122.0859862665812
 21
-108.5523848188477
 31
0.0
  0
LINE
  5
90DF
  8
AM_0
 10
122.0859262665813
 20
-108.55241481884769
 30
0.0
 11
123.3271962665812
 21
-115.1117868188477
 31
0.0
  0
LINE
  5
90E0
  8
AM_0
 10
122.0859262665813
 20
-109.8969508188477
 30
0.0
 11
123.36595626658119
 21
-117.9021238188477
 31
0.0
  0
LINE
  5
90E1
  8
AM_0
 10
122.08586626658131
 20
-111.24150181884769
 30
0.0
 11
123.3769462665813
 21
-119.73463581884771
 31
0.0
  0
LINE
  5
90E2
  8
AM_0
 10
122.0859262665813
 20
-111.24154781884771
 30
0.0
 11
123.3947662665813
 21
-120.62098781884769
 31
0.0
  0
ARC
  5
90E3
  8
AM_0
 10
109.0859262665813
 20
-75.456667818847734
 30
0.0
 40
1.0
 50
179.999989999999
 51
270.0
  0
LINE
  5
90E4
  8
AM_0
 10
106.5859262665812
 20
-40.456677818847709
 30
0.0
 11
106.5859262665812
 21
-80.456657818847759
 31
0.0
  0
LINE
  5
90E5
  8
AM_0
 10
110.0859262665813
 20
-76.063777818847768
 30
0.0
 11
110.0859262665813
 21
-74.852417818847755
 31
0.0
  0
LINE
  5
90E6
  8
AM_0
 10
113.0859262665813
 20
-10.456677818847711
 30
0.0
 11
113.0859262665813
 21
-111.5798968188477
 31
0.0
  0
LINE
  5
90E7
  8
AM_0
 10
108.0859262665813
 20
-108.4730768188477
 30
0.0
 11
108.0859262665813
 21
-65.456657818847759
 31
0.0
  0
ARC
  5
90E8
  8
AM_0
 10
109.0859262665813
 20
-108.4730768188477
 30
0.0
 40
1.0
 50
179.999989999999
 51
239.97360999999819
  0
LINE
  5
90E9
  8
AM_0
 10
114.0859262665813
 20
-113.4566588188477
 30
0.0
 11
122.0859262665813
 21
-113.4566588188477
 31
0.0
  0
ARC
  5
90EA
  8
AM_0
 10
110.3541162665813
 20
-109.20604881884771
 30
0.0
 40
1.0
 50
239.9736000000006
 51
270.0
  0
LINE
  5
90EB
  8
AM_0
 10
109.85368626658121
 20
-110.0718248188477
 30
0.0
 11
108.5854962665812
 21
-109.3388458188477
 31
0.0
  0
LINE
  5
90EC
  8
AM_0
 10
110.0859262665813
 20
-109.9528208188477
 30
0.0
 11
110.0859262665813
 21
-109.4270568188477
 31
0.0
  0
ARC
  5
90ED
  8
AM_0
 10
112.5859262665813
 20
-110.70604881884771
 30
0.0
 40
0.5
 50
0.0
 51
90.000003000000945
  0
LINE
  5
90EE
  8
AM_0
 10
110.3541162665813
 20
-110.2060558188477
 30
0.0
 11
112.5859262665813
 21
-110.2060558188477
 31
0.0
  0
LINE
  5
90EF
  8
AM_0
 10
113.0859262665813
 20
-110.4566588188477
 30
0.0
 11
114.0859262665813
 21
-110.4566588188477
 31
0.0
  0
ARC
  5
90F0
  8
AM_0
 10
109.0859262665813
 20
-100.6969088188477
 30
0.0
 40
1.0
 50
179.999989999999
 51
239.64048999999821
  0
ARC
  5
90F1
  8
AM_0
 10
109.0859262665813
 20
-100.6969088188477
 30
0.0
 40
1.0
 50
179.999989999999
 51
239.64048999999821
  0
ARC
  5
90F2
  8
AM_0
 10
110.3251862665812
 20
-108.0597628188477
 30
0.0
 40
1.0
 50
243.08874000000111
 51
270.0
  0
ARC
  5
90F3
  8
AM_0
 10
110.3629662665812
 20
-107.09832181884769
 30
0.0
 40
1.0
 50
239.03339999999869
 51
270.0
  0
ARC
  5
90F4
  8
AM_0
 10
110.3345862665812
 20
-105.9583068188477
 30
0.0
 40
1.0
 50
242.0733999999992
 51
270.0
  0
ARC
  5
90F5
  8
AM_0
 10
110.38457626658121
 20
-102.5816128188477
 30
0.0
 40
1.0
 50
236.74526999999921
 51
270.0
  0
ARC
  5
90F6
  8
AM_0
 10
110.35722626658131
 20
-101.44159881884769
 30
0.0
 40
1.0
 50
239.64049999999861
 51
270.0
  0
ARC
  5
90F7
  8
AM_0
 10
109.0859262665813
 20
-107.4307268188477
 30
0.0
 40
1.0
 50
179.999989999999
 51
243.08874999999981
  0
ARC
  5
90F8
  8
AM_0
 10
109.0859262665813
 20
-101.7300348188477
 30
0.0
 40
1.0
 50
179.999989999999
 51
236.7452799999987
  0
ARC
  5
90F9
  8
AM_0
 10
109.0859262665813
 20
-105.29644881884769
 30
0.0
 40
1.0
 50
179.999989999999
 51
242.07341000000091
  0
ARC
  5
90FA
  8
AM_0
 10
109.0859262665813
 20
-106.3320248188477
 30
0.0
 40
1.0
 50
179.999989999999
 51
239.03339999999869
  0
LINE
  5
90FB
  8
AM_0
 10
108.58049626658121
 20
-101.55977781884771
 30
0.0
 11
108.5569362665812
 21
-101.5459528188477
 31
0.0
  0
LINE
  5
90FC
  8
AM_0
 10
109.8483762665812
 20
-107.9557588188477
 30
0.0
 11
108.5714662665813
 21
-107.1895158188477
 31
0.0
  0
LINE
  5
90FD
  8
AM_0
 10
109.83617626658121
 20
-103.4178328188477
 30
0.0
 11
108.5375262665812
 21
-102.5662698188477
 31
0.0
  0
LINE
  5
90FE
  8
AM_0
 10
109.85185626658119
 20
-102.30449781884769
 30
0.0
 11
108.58049626658121
 21
-101.5598158188477
 31
0.0
  0
LINE
  5
90FF
  8
AM_0
 10
109.8725462665812
 20
-108.9514018188477
 30
0.0
 11
108.63328626658119
 21
-108.32237381884769
 31
0.0
  0
LINE
  5
9100
  8
AM_0
 10
109.86626626658131
 20
-106.84186681884771
 30
0.0
 11
108.6176662665813
 21
-106.1800018188477
 31
0.0
  0
LINE
  5
9101
  8
AM_0
 10
110.0859262665813
 20
-103.2871188188478
 30
0.0
 11
110.0859262665813
 21
-102.8150038188477
 31
0.0
  0
LINE
  5
9102
  8
AM_0
 10
110.0859262665813
 20
-107.85321981884771
 30
0.0
 11
110.0859262665813
 21
-107.3071988188477
 31
0.0
  0
ARC
  5
9103
  8
AM_0
 10
112.0859262665813
 20
-101.44159881884769
 30
0.0
 40
1.0
 50
334.63675999999953
 51
0.0
  0
ARC
  5
9104
  8
AM_0
 10
112.0859262665813
 20
-101.44159881884769
 30
0.0
 40
1.0
 50
270.0
 51
0.0
  0
ARC
  5
9105
  8
AM_0
 10
112.0859262665813
 20
-105.9583068188477
 30
0.0
 40
1.0
 50
270.0
 51
0.0
  0
ARC
  5
9106
  8
AM_0
 10
112.5859262665813
 20
-108.55975481884769
 30
0.0
 40
0.5
 50
270.0
 51
0.0
  0
LINE
  5
9107
  8
AM_0
 10
110.3629662665812
 20
-108.0983288188477
 30
0.0
 11
113.0859262665813
 21
-108.0983288188477
 31
0.0
  0
LINE
  5
9108
  8
AM_0
 10
110.38457626658121
 20
-103.5815978188477
 30
0.0
 11
113.0859262665813
 21
-103.5815978188477
 31
0.0
  0
LINE
  5
9109
  8
AM_0
 10
110.35722626658131
 20
-102.44158281884771
 30
0.0
 11
112.0859262665813
 21
-102.44158281884771
 31
0.0
  0
LINE
  5
910A
  8
AM_0
 10
110.3345862665812
 20
-106.9583148188477
 30
0.0
 11
112.0859262665813
 21
-106.9583148188477
 31
0.0
  0
LINE
  5
910B
  8
AM_0
 10
110.3251862665812
 20
-109.0597468188477
 30
0.0
 11
112.5859262665813
 21
-109.0597468188477
 31
0.0
  0
ARC
  5
910C
  8
AM_0
 10
110.2905762665812
 20
-95.145928818847707
 30
0.0
 40
1.0
 50
246.87297000000149
 51
270.0
  0
ARC
  5
910D
  8
AM_0
 10
110.23625626658119
 20
-93.199837818847698
 30
0.0
 40
1.0
 50
252.90236999999951
 51
270.0
  0
ARC
  5
910E
  8
AM_0
 10
109.0859262665813
 20
-92.845940818847737
 30
0.0
 40
1.0
 50
179.999989999999
 51
252.90236999999951
  0
ARC
  5
910F
  8
AM_0
 10
109.0859262665813
 20
-94.631402818847747
 30
0.0
 40
1.0
 50
179.999989999999
 51
246.8729800000018
  0
LINE
  5
9110
  8
AM_0
 10
109.8978162665812
 20
-96.065568818847737
 30
0.0
 11
108.6931062665812
 21
-95.551056818847712
 31
0.0
  0
LINE
  5
9111
  8
AM_0
 10
109.94224626658119
 20
-94.155602818847726
 30
0.0
 11
108.79185626658121
 21
-93.801751818847706
 31
0.0
  0
LINE
  5
9112
  8
AM_0
 10
110.0859262665813
 20
-95.849557818847785
 30
0.0
 11
110.0859262665813
 21
-94.789605818847775
 31
0.0
  0
ARC
  5
9113
  8
AM_0
 10
112.0859262665813
 20
-93.199837818847698
 30
0.0
 40
1.0
 50
270.0
 51
0.0
  0
ARC
  5
9114
  8
AM_0
 10
112.38591626658121
 20
-96.845879818847735
 30
0.0
 40
0.6999999900000002
 50
0.0
 51
90.000003000000945
  0
LINE
  5
9115
  8
AM_0
 10
110.2905762665812
 20
-96.145936818847701
 30
0.0
 11
112.38591626658121
 21
-96.145936818847701
 31
0.0
  0
LINE
  5
9116
  8
AM_0
 10
110.23625626658119
 20
-94.199822818847736
 30
0.0
 11
112.0859262665813
 21
-94.199822818847736
 31
0.0
  0
LINE
  5
9117
  8
AM_0
 10
114.7840462665813
 20
-103.6481338188477
 30
0.0
 11
121.0138462665812
 21
-103.6481338188477
 31
0.0
  0
ARC
  5
9118
  8
AM_0
 10
112.0859262665813
 20
-83.456657818847745
 30
0.0
 40
1.0
 50
270.0
 51
0.0
  0
LINE
  5
9119
  8
AM_0
 10
112.0859262665813
 20
-86.456657818847773
 30
0.0
 11
109.0859262665813
 21
-86.456657818847773
 31
0.0
  0
LINE
  5
911A
  8
AM_0
 10
112.0859262665813
 20
-84.456667818847734
 30
0.0
 11
109.0859262665813
 21
-84.456667818847734
 31
0.0
  0
ARC
  5
911B
  8
AM_0
 10
109.0859262665813
 20
-85.456677818847709
 30
0.0
 40
1.0
 50
179.999989999999
 51
270.0
  0
ARC
  5
911C
  8
AM_0
 10
109.0859262665813
 20
-85.456677818847709
 30
0.0
 40
1.0
 50
90.000003000000945
 51
180.0000099999977
  0
LINE
  5
911D
  8
AM_0
 10
110.0859262665813
 20
-86.082897818847684
 30
0.0
 11
110.0859262665813
 21
-84.720037818847715
 31
0.0
  0
ARC
  5
911E
  8
AM_0
 10
112.0859262665813
 20
-87.456667818847734
 30
0.0
 40
1.0
 50
0.0
 51
90.000003000000945
  0
LINE
  5
911F
  8
AM_0
 10
112.0859262665813
 20
-76.456677818847709
 30
0.0
 11
109.0859262665813
 21
-76.456677818847709
 31
0.0
  0
LINE
  5
9120
  8
AM_0
 10
106.5859862665812
 20
-80.456657818847759
 30
0.0
 11
108.0859262665813
 21
-80.587887818847705
 31
0.0
  0
LINE
  5
9121
  8
AM_0
 10
106.5859262665812
 20
-77.738707818847729
 30
0.0
 11
108.0859262665813
 21
-77.738707818847729
 31
0.0
  0
ARC
  5
9122
  8
AM_0
 10
112.0859262665813
 20
-77.456657818847759
 30
0.0
 40
1.0
 50
0.0
 51
90.000003000000945
  0
LINE
  5
9123
  8
AM_0
 10
108.0859262665813
 20
-12.440307818847771
 30
0.0
 11
108.0859262665813
 21
-55.456677818847709
 31
0.0
  0
LINE
  5
9124
  8
AM_0
 10
112.0859262665813
 20
-74.456657818847759
 30
0.0
 11
109.0859262665813
 21
-74.456657818847759
 31
0.0
  0
ARC
  5
9125
  8
AM_0
 10
109.0859262665813
 20
-75.456667818847734
 30
0.0
 40
1.0
 50
90.000003000000945
 51
180.0000099999977
  0
LINE
  5
9126
  8
AM_0
 10
106.5859262665812
 20
-75.606697818847749
 30
0.0
 11
109.8796262665812
 21
-75.606697818847749
 31
0.0
  0
ARC
  5
9127
  8
AM_0
 10
112.0859262665813
 20
-73.456677818847695
 30
0.0
 40
1.0
 50
270.0
 51
0.0
  0
LINE
  5
9128
  8
AM_0
 10
112.0859262665813
 20
-66.456667818847734
 30
0.0
 11
109.0859262665813
 21
-66.456667818847734
 31
0.0
  0
LINE
  5
9129
  8
AM_0
 10
112.0859262665813
 20
-64.456677818847709
 30
0.0
 11
109.0859262665813
 21
-64.456677818847709
 31
0.0
  0
ARC
  5
912A
  8
AM_0
 10
109.0859262665813
 20
-65.456657818847759
 30
0.0
 40
1.0
 50
179.999989999999
 51
270.0
  0
ARC
  5
912B
  8
AM_0
 10
109.0859262665813
 20
-65.456657818847759
 30
0.0
 40
1.0
 50
90.000003000000945
 51
180.0000099999977
  0
LINE
  5
912C
  8
AM_0
 10
110.0859262665813
 20
-66.069947818847709
 30
0.0
 11
110.0859262665813
 21
-64.909057818847771
 31
0.0
  0
ARC
  5
912D
  8
AM_0
 10
112.0859262665813
 20
-63.45666781884772
 30
0.0
 40
1.0
 50
270.0
 51
0.0
  0
ARC
  5
912E
  8
AM_0
 10
112.0859262665813
 20
-67.456677818847709
 30
0.0
 40
1.0
 50
0.0
 51
90.000003000000945
  0
LINE
  5
912F
  8
AM_0
 10
112.0859262665813
 20
-54.45666781884772
 30
0.0
 11
109.0859262665813
 21
-54.45666781884772
 31
0.0
  0
LINE
  5
9130
  8
AM_0
 10
112.0859262665813
 20
-56.456667818847741
 30
0.0
 11
109.0859262665813
 21
-56.456667818847741
 31
0.0
  0
ARC
  5
9131
  8
AM_0
 10
109.0859262665813
 20
-55.456677818847709
 30
0.0
 40
1.0
 50
90.000003000000945
 51
180.0000099999977
  0
ARC
  5
9132
  8
AM_0
 10
109.0859262665813
 20
-55.456677818847709
 30
0.0
 40
1.0
 50
179.999989999999
 51
270.0
  0
LINE
  5
9133
  8
AM_0
 10
110.0859262665813
 20
-54.843457818847753
 30
0.0
 11
110.0859262665813
 21
-56.004347818847748
 31
0.0
  0
ARC
  5
9134
  8
AM_0
 10
112.0859262665813
 20
-57.456667818847713
 30
0.0
 40
1.0
 50
0.0
 51
90.000003000000945
  0
ARC
  5
9135
  8
AM_0
 10
112.0859262665813
 20
-53.45666781884772
 30
0.0
 40
1.0
 50
270.0
 51
0.0
  0
LINE
  5
9136
  8
AM_0
 10
112.0859262665813
 20
-44.45666781884772
 30
0.0
 11
109.0859262665813
 21
-44.45666781884772
 31
0.0
  0
LINE
  5
9137
  8
AM_0
 10
112.0859262665813
 20
-46.456677818847702
 30
0.0
 11
109.0859262665813
 21
-46.456677818847702
 31
0.0
  0
LINE
  5
9138
  8
AM_0
 10
106.5859262665812
 20
-45.306637818847712
 30
0.0
 11
111.2634162665813
 21
-45.306637818847712
 31
0.0
  0
ARC
  5
9139
  8
AM_0
 10
109.0859262665813
 20
-45.456667818847713
 30
0.0
 40
1.0
 50
90.000003000000945
 51
180.0000099999977
  0
ARC
  5
913A
  8
AM_0
 10
109.0859262665813
 20
-45.456667818847713
 30
0.0
 40
1.0
 50
179.999989999999
 51
270.0
  0
LINE
  5
913B
  8
AM_0
 10
110.0859262665813
 20
-44.849567818847717
 30
0.0
 11
110.0859262665813
 21
-46.060987818847757
 31
0.0
  0
LINE
  5
913C
  8
AM_0
 10
106.5859262665812
 20
-43.174697818847719
 30
0.0
 11
108.0859262665813
 21
-43.174697818847719
 31
0.0
  0
ARC
  5
913D
  8
AM_0
 10
112.0859262665813
 20
-47.456667818847713
 30
0.0
 40
1.0
 50
0.0
 51
90.000003000000945
  0
ARC
  5
913E
  8
AM_0
 10
112.0859262665813
 20
-43.456677818847687
 30
0.0
 40
1.0
 50
270.0
 51
0.0
  0
ARC
  5
913F
  8
AM_0
 10
109.0859262665813
 20
-26.28193781884778
 30
0.0
 40
1.0
 50
113.1270299999986
 51
180.0000099999977
  0
LINE
  5
9140
  8
AM_0
 10
110.0859262665813
 20
-25.063787818847739
 30
0.0
 11
110.0859262665813
 21
-26.123737818847761
 31
0.0
  0
ARC
  5
9141
  8
AM_0
 10
112.0859262665813
 20
-33.456667818847727
 30
0.0
 40
1.0
 50
270.0
 51
0.0
  0
LINE
  5
9142
  8
AM_0
 10
112.0859262665813
 20
-34.456677818847709
 30
0.0
 11
109.0859262665813
 21
-34.456677818847709
 31
0.0
  0
LINE
  5
9143
  8
AM_0
 10
112.0859262665813
 20
-36.456667818847741
 30
0.0
 11
109.0859262665813
 21
-36.456667818847741
 31
0.0
  0
ARC
  5
9144
  8
AM_0
 10
109.0859262665813
 20
-35.456667818847741
 30
0.0
 40
1.0
 50
90.000003000000945
 51
180.0000099999977
  0
ARC
  5
9145
  8
AM_0
 10
109.0859262665813
 20
-35.456667818847741
 30
0.0
 40
1.0
 50
179.999989999999
 51
270.0
  0
LINE
  5
9146
  8
AM_0
 10
110.0859262665813
 20
-34.830507818847707
 30
0.0
 11
110.0859262665813
 21
-36.193297818847718
 31
0.0
  0
LINE
  5
9147
  8
AM_0
 10
106.5859262665812
 20
-40.456677818847709
 30
0.0
 11
108.0859262665813
 21
-40.32545781884771
 31
0.0
  0
ARC
  5
9148
  8
AM_0
 10
112.0859262665813
 20
-37.456677818847709
 30
0.0
 40
1.0
 50
0.0
 51
90.000003000000945
  0
ARC
  5
9149
  8
AM_0
 10
110.23625626658119
 20
-27.713567818847711
 30
0.0
 40
1.0
 50
90.000003000000945
 51
107.09763000000039
  0
ARC
  5
914A
  8
AM_0
 10
109.0859262665813
 20
-28.06739781884772
 30
0.0
 40
1.0
 50
107.09763000000039
 51
180.0000099999977
  0
LINE
  5
914B
  8
AM_0
 10
109.94224626658119
 20
-26.757737818847708
 30
0.0
 11
108.7919262665813
 21
-27.11157781884771
 31
0.0
  0
ARC
  5
914C
  8
AM_0
 10
112.0859262665813
 20
-27.713567818847711
 30
0.0
 40
1.0
 50
0.0
 51
90.000003000000945
  0
LINE
  5
914D
  8
AM_0
 10
110.23625626658119
 20
-26.713567818847711
 30
0.0
 11
112.0859262665813
 21
-26.713567818847711
 31
0.0
  0
ARC
  5
914E
  8
AM_0
 10
110.38457626658121
 20
-18.331787818847769
 30
0.0
 40
1.0
 50
90.000003000000945
 51
123.25473000000071
  0
ARC
  5
914F
  8
AM_0
 10
110.35722626658131
 20
-19.471737818847771
 30
0.0
 40
1.0
 50
90.000003000000945
 51
120.3595000000014
  0
ARC
  5
9150
  8
AM_0
 10
110.2905762665812
 20
-25.767457818847731
 30
0.0
 40
1.0
 50
90.000003000000945
 51
113.1270299999986
  0
ARC
  5
9151
  8
AM_0
 10
109.0859262665813
 20
-20.216427818847759
 30
0.0
 40
1.0
 50
120.3595000000014
 51
180.0000099999977
  0
ARC
  5
9152
  8
AM_0
 10
109.0859262665813
 20
-19.183347818847711
 30
0.0
 40
1.0
 50
123.25473000000071
 51
180.0000099999977
  0
LINE
  5
9153
  8
AM_0
 10
109.83617626658121
 20
-17.495517818847759
 30
0.0
 11
108.5375862665812
 21
-18.347077818847708
 31
0.0
  0
LINE
  5
9154
  8
AM_0
 10
109.8977562665812
 20
-24.84777781884776
 30
0.0
 11
108.6931662665813
 21
-25.36224781884772
 31
0.0
  0
LINE
  5
9155
  8
AM_0
 10
109.8517962665812
 20
-18.60888781884773
 30
0.0
 11
108.58049626658121
 21
-19.353557818847719
 31
0.0
  0
LINE
  5
9156
  8
AM_0
 10
110.0859262665813
 20
-17.626217818847689
 30
0.0
 11
110.0859262665813
 21
-18.098407818847761
 31
0.0
  0
ARC
  5
9157
  8
AM_0
 10
112.0859262665813
 20
-19.471737818847771
 30
0.0
 40
1.0
 50
0.0
 51
90.000003000000945
  0
ARC
  5
9158
  8
AM_0
 10
112.38591626658121
 20
-24.06745781884775
 30
0.0
 40
0.6999999900000002
 50
270.0
 51
0.0
  0
LINE
  5
9159
  8
AM_0
 10
110.2905762665812
 20
-24.76746781884771
 30
0.0
 11
112.38591626658121
 21
-24.76746781884771
 31
0.0
  0
LINE
  5
915A
  8
AM_0
 10
110.35722626658131
 20
-18.471757818847721
 30
0.0
 11
112.0859262665813
 21
-18.471757818847721
 31
0.0
  0
ARC
  5
915B
  8
AM_0
 10
110.3541162665813
 20
-11.70728781884776
 30
0.0
 40
1.0
 50
90.000003000000945
 51
120.0263999999994
  0
ARC
  5
915C
  8
AM_0
 10
110.3251862665812
 20
-12.85357781884772
 30
0.0
 40
1.0
 50
90.000003000000945
 51
116.9112599999988
  0
ARC
  5
915D
  8
AM_0
 10
110.3629662665812
 20
-13.815067818847689
 30
0.0
 40
1.0
 50
90.000003000000945
 51
120.96660000000119
  0
ARC
  5
915E
  8
AM_0
 10
110.3345862665812
 20
-14.95503781884776
 30
0.0
 40
1.0
 50
90.000003000000945
 51
117.9266000000007
  0
ARC
  5
915F
  8
AM_0
 10
109.0859262665813
 20
-12.440307818847771
 30
0.0
 40
1.0
 50
120.0263999999994
 51
180.0000099999977
  0
ARC
  5
9160
  8
AM_0
 10
109.0859262665813
 20
-13.48260781884772
 30
0.0
 40
1.0
 50
116.9112599999988
 51
180.0000099999977
  0
ARC
  5
9161
  8
AM_0
 10
109.0859262665813
 20
-15.61695781884776
 30
0.0
 40
1.0
 50
117.9266000000007
 51
180.0000099999977
  0
ARC
  5
9162
  8
AM_0
 10
109.0859262665813
 20
-14.581357818847721
 30
0.0
 40
1.0
 50
120.96660000000119
 51
180.0000099999977
  0
LINE
  5
9163
  8
AM_0
 10
109.8537462665813
 20
-10.84155781884777
 30
0.0
 11
108.5855662665813
 21
-11.57450781884773
 31
0.0
  0
LINE
  5
9164
  8
AM_0
 10
109.8483762665812
 20
-12.95756781884773
 30
0.0
 11
108.5713362665811
 21
-13.723867818847729
 31
0.0
  0
LINE
  5
9165
  8
AM_0
 10
109.8726062665812
 20
-11.961857818847699
 30
0.0
 11
108.6333562665812
 21
-12.59087781884773
 31
0.0
  0
LINE
  5
9166
  8
AM_0
 10
109.86626626658131
 20
-14.071507818847749
 30
0.0
 11
108.61760626658121
 21
-14.733367818847739
 31
0.0
  0
LINE
  5
9167
  8
AM_0
 10
110.0859262665813
 20
-13.060117818847679
 30
0.0
 11
110.0859262665813
 21
-13.606197818847759
 31
0.0
  0
LINE
  5
9168
  8
AM_0
 10
110.0859262665813
 20
-10.960507818847701
 30
0.0
 11
110.0859262665813
 21
-11.48628781884776
 31
0.0
  0
ARC
  5
9169
  8
AM_0
 10
112.0859262665813
 20
-14.95503781884776
 30
0.0
 40
1.0
 50
0.0
 51
90.000003000000945
  0
ARC
  5
916A
  8
AM_0
 10
112.5859262665813
 20
-12.35357781884772
 30
0.0
 40
0.5
 50
0.0
 51
90.000003000000945
  0
ARC
  5
916B
  8
AM_0
 10
112.5859262665813
 20
-10.20728781884776
 30
0.0
 40
0.5
 50
270.0
 51
0.0
  0
LINE
  5
916C
  8
AM_0
 10
110.3541162665813
 20
-10.70727781884773
 30
0.0
 11
112.5859262665813
 21
-10.70727781884773
 31
0.0
  0
LINE
  5
916D
  8
AM_0
 10
110.3629662665812
 20
-12.815077818847721
 30
0.0
 11
113.0859262665813
 21
-12.815077818847721
 31
0.0
  0
LINE
  5
916E
  8
AM_0
 10
110.38457626658121
 20
-17.331787818847769
 30
0.0
 11
113.0859262665813
 21
-17.331787818847769
 31
0.0
  0
LINE
  5
916F
  8
AM_0
 10
110.3345862665812
 20
-13.95501781884769
 30
0.0
 11
112.0859262665813
 21
-13.95501781884769
 31
0.0
  0
LINE
  5
9170
  8
AM_0
 10
110.3251862665812
 20
-11.85359781884773
 30
0.0
 11
112.5859262665813
 21
-11.85359781884773
 31
0.0
  0
LINE
  5
9171
  8
AM_0
 10
113.0859262665813
 20
-10.456677818847711
 30
0.0
 11
114.0859262665813
 21
-10.456677818847711
 31
0.0
  0
LINE
  5
9172
  8
AM_0
 10
114.7840462665813
 20
-17.265277818847721
 30
0.0
 11
121.0138462665812
 21
-17.265277818847721
 31
0.0
  0
LINE
  5
9173
  8
AM_0
 10
207.5859262665812
 20
-28.956667818847741
 30
0.0
 11
133.58592626658131
 21
-28.956667818847741
 31
0.0
  0
LINE
  5
9174
  8
AM_0
 10
207.5859262665812
 20
-30.456667818847741
 30
0.0
 11
133.58592626658131
 21
-30.456667818847741
 31
0.0
  0
LINE
  5
9175
  8
AM_0
 10
207.58592626658111
 20
-91.956667818847805
 30
0.0
 11
133.58592626658111
 21
-91.956667818847805
 31
0.0
  0
LINE
  5
9176
  8
AM_0
 10
207.58592626658111
 20
-90.456667818847791
 30
0.0
 11
133.58592626658111
 21
-90.456667818847791
 31
0.0
  0
LINE
  5
9177
  8
AM_0
 10
158.0859262665812
 20
-82.956667818847848
 30
0.0
 11
194.85792626658119
 21
-82.956667818847734
 31
0.0
  0
LINE
  5
9178
  8
AM_0
 10
200.0859262665812
 20
-37.956667818847741
 30
0.0
 11
163.31392626658109
 21
-37.956667818847741
 31
0.0
  0
LINE
  5
9179
  8
AM_0
 10
194.889926266581
 20
-77.760467818847758
 30
0.0
 11
163.28192626658119
 21
-77.760467818847758
 31
0.0
  0
LINE
  5
917A
  8
AM_0
 10
163.28192626658119
 20
-43.152767818847707
 30
0.0
 11
194.889926266581
 21
-43.152767818847707
 31
0.0
  0
LINE
  5
917B
  8
AM_0
 10
223.43031626658129
 20
-24.45666781884773
 30
0.0
 11
124.4513462665812
 21
-24.45666781884773
 31
0.0
  0
LINE
  5
917C
  8
AM_0
 10
223.43031626658129
 20
-26.456667818847741
 30
0.0
 11
124.4513462665812
 21
-26.456667818847741
 31
0.0
  0
LINE
  5
917D
  8
AM_0
 10
123.7632362665812
 20
-23.73365781884775
 30
0.0
 11
226.90803626658121
 21
-23.73365781884775
 31
0.0
  0
LINE
  5
917E
  8
AM_0
 10
223.43031626658129
 20
-94.456673818847719
 30
0.0
 11
179.08592626658131
 21
-94.456673818847719
 31
0.0
  0
LINE
  5
917F
  8
AM_0
 10
223.43031626658129
 20
-96.456666818847737
 30
0.0
 11
179.08592626658131
 21
-96.456666818847737
 31
0.0
  0
LINE
  5
9180
  8
AM_0
 10
179.08592626658131
 20
-97.179749818847725
 30
0.0
 11
226.90803626658121
 21
-97.179749818847725
 31
0.0
  0
LINE
  5
9181
  8
AM_0
 10
147.58592626658131
 20
-22.233657818847739
 30
0.0
 11
230.08592626658131
 21
-22.233657818847739
 31
0.0
  0
LINE
  5
9182
  8
AM_0
 10
125.29234626658121
 20
-116.7399228188477
 30
0.0
 11
222.21211626658129
 21
-116.7399228188477
 31
0.0
  0
LINE
  5
9183
  8
AM_0
 10
147.58592626658131
 20
-98.679749818847711
 30
0.0
 11
230.08592626658131
 21
-98.679749818847711
 31
0.0
  0
LINE
  5
9184
  8
ﾁｭｳｼﾝｾﾝ1
 10
179.08592626658131
 20
-25.95666781884773
 30
0.0
 11
179.08592626658131
 21
-94.956667818847791
 31
0.0
1001
GENIUS_GENODEF_13
1002
{
1000
HIER
1070
     0
1002
}
1002
{
1000
MANEDIT
1070
     0
1002
}
1002
{
1000
NOSEL
1070
     0
1002
}
1002
{
1000
BEHIND
1070
     0
1002
}
1002
{
1000
REACTOR
1002
}
1001
GENIUS_GENOBJ-N-CEN_13
1002
{
1000
OWNER
1000
GEN
1002
}
  0
LINE
  5
9185
  8
AM_0
 10
130.585926266581
 20
-88.956667818847791
 30
0.0
 11
130.5859262665812
 21
-31.95666781884773
 31
0.0
  0
LINE
  5
9186
  8
AM_0
 10
132.08592626658131
 20
-31.95666781884773
 30
0.0
 11
132.08592626658111
 21
-88.956667818847791
 31
0.0
  0
LINE
  5
9187
  8
AM_0
 10
156.08592626658111
 20
-45.185067818847799
 30
0.0
 11
156.08592626658111
 21
-80.956667818847848
 31
0.0
  0
ARC
  5
9188
  8
AM_0
 10
163.28192626658119
 20
-75.760467818847815
 30
0.0
 40
2.0
 50
180.0
 51
270.0
  0
ARC
  5
9189
  8
AM_0
 10
124.6353062665812
 20
-75.456667818847734
 30
0.0
 40
1.0
 50
90.000003000000945
 51
270.0
  0
LINE
  5
918A
  8
AM_0
 10
123.7638462665812
 20
-97.179749818847725
 30
0.0
 11
179.08592626658131
 21
-97.179749818847725
 31
0.0
  0
LINE
  5
918B
  8
AM_0
 10
179.08592626658131
 20
-94.456673818847719
 30
0.0
 11
124.4513462665812
 21
-94.456673818847719
 31
0.0
  0
LINE
  5
918C
  8
AM_0
 10
179.08592626658131
 20
-96.456666818847737
 30
0.0
 11
124.4513462665812
 21
-96.456666818847737
 31
0.0
  0
LINE
  5
918D
  8
AM_0
 10
125.3409362665812
 20
-119.5862978188477
 30
0.0
 11
159.08592626658131
 21
-119.5862978188477
 31
0.0
  0
LINE
  5
918E
  8
AM_0
 10
125.3542962665813
 20
-121.4340838188477
 30
0.0
 11
159.08592626658131
 21
-121.4340838188477
 31
0.0
  0
LINE
  5
918F
  8
AM_0
 10
125.3755962665813
 20
-122.3445978188477
 30
0.0
 11
159.08592626658131
 21
-122.3445978188477
 31
0.0
  0
ARC
  5
9190
  8
AM_0
 10
125.3755962665813
 20
-120.3446058188477
 30
0.0
 40
2.0
 50
187.9440400000023
 51
270.0
  0
ARC
  5
9191
  8
AM_0
 10
125.3409362665812
 20
-117.58630481884769
 30
0.0
 40
2.0
 50
189.08497000000031
 51
270.0
  0
ARC
  5
9192
  8
AM_0
 10
125.3542962665813
 20
-119.43409081884769
 30
0.0
 40
2.0
 50
188.64338999999899
 51
270.0
  0
ARC
  5
9193
  8
AM_0
 10
125.29234626658121
 20
-114.7399308188477
 30
0.0
 40
2.0
 50
190.71568999999951
 51
270.0
  0
LINE
  5
9194
  8
AM_0
 10
150.58592626658131
 20
-93.456667818847777
 30
0.0
 11
136.58592626658131
 21
-93.456667818847919
 31
0.0
  0
LINE
  5
9195
  8
AM_0
 10
123.7638462665812
 20
-93.823906818847703
 30
0.0
 11
147.58592626658131
 21
-93.823906818847703
 31
0.0
  0
ARC
  5
9196
  8
AM_0
 10
133.58592626658111
 20
-88.956667818847734
 30
0.0
 40
3.0
 50
180.0
 51
270.0
  0
LINE
  5
9197
  8
AM_0
 10
136.08592626658131
 20
-92.956667818847905
 30
0.0
 11
136.08592626658131
 21
-91.956667818847905
 31
0.0
  0
POLYLINE
  5
9198
  8
AM_0
 66
     1
 10
0.0
 20
0.0
 30
0.0
  0
VERTEX
  5
9199
  8
AM_0
 10
125.9481262665812
 20
-86.943647818847751
 30
0.0
  0
VERTEX
  5
919A
  8
AM_0
 10
126.9086062665812
 20
-93.825242818847755
 30
0.0
 42
-1.0
  0
SEQEND
  5
919B
  8
AM_0
  0
ARC
  5
919C
  8
AM_0
 10
124.6353062665812
 20
-95.456658818847785
 30
0.0
 40
1.0
 50
90.000003000000945
 51
270.0
  0
ARC
  5
919D
  8
AM_0
 10
136.58592626658131
 20
-92.956667818847848
 30
0.0
 40
0.5
 50
180.0
 51
270.0
  0
LINE
  5
919E
  8
AM_0
 10
130.5854362665811
 20
-84.456667818847734
 30
0.0
 11
124.4513462665812
 21
-84.456667818847734
 31
0.0
  0
LINE
  5
919F
  8
AM_0
 10
130.5854362665811
 20
-86.456657818847773
 30
0.0
 11
124.4513462665812
 21
-86.456657818847773
 31
0.0
  0
LINE
  5
91A0
  8
AM_0
 10
123.5474762665812
 20
-86.942867818847731
 30
0.0
 11
130.5854362665811
 21
-86.942867818847731
 31
0.0
  0
ARC
  5
91A1
  8
AM_0
 10
124.6353062665812
 20
-85.456677818847709
 30
0.0
 40
1.0
 50
90.000003000000945
 51
270.0
  0
LINE
  5
91A2
  8
AM_0
 10
130.5854362665811
 20
-76.456677818847709
 30
0.0
 11
124.4513462665812
 21
-76.456677818847709
 31
0.0
  0
LINE
  5
91A3
  8
AM_0
 10
123.41685626658121
 20
-76.8001778188477
 30
0.0
 11
130.5854362665811
 21
-76.8001778188477
 31
0.0
  0
LINE
  5
91A4
  8
AM_0
 10
123.5474762665812
 20
-84.019887818847735
 30
0.0
 11
130.5854362665811
 21
-84.019887818847735
 31
0.0
  0
POLYLINE
  5
91A5
  8
AM_0
 66
     1
 10
0.0
 20
0.0
 30
0.0
  0
VERTEX
  5
91A6
  8
AM_0
 10
124.96637626658131
 20
-76.799257818847707
 30
0.0
  0
VERTEX
  5
91A7
  8
AM_0
 10
125.6124262665812
 20
-84.020197818847734
 30
0.0
 42
-1.0
  0
SEQEND
  5
91A8
  8
AM_0
  0
ARC
  5
91A9
  8
AM_0
 10
133.58592626658111
 20
-88.956667818847734
 30
0.0
 40
1.5
 50
180.0
 51
270.0
  0
LINE
  5
91AA
  8
AM_0
 10
135.0859262665812
 20
-90.456667818847791
 30
0.0
 11
135.0859262665812
 21
-91.956667818847805
 31
0.0
  0
LINE
  5
91AB
  8
AM_0
 10
151.08592626658131
 20
-91.956667818847805
 30
0.0
 11
151.08592626658131
 21
-92.956667818847791
 31
0.0
  0
LINE
  5
91AC
  8
AM_0
 10
146.0859262665812
 20
-97.179749818847725
 30
0.0
 11
146.0859262665812
 21
-98.679749818847711
 31
0.0
  0
LINE
  5
91AD
  8
AM_0
 10
146.0859262665812
 20
-97.179749818847725
 30
0.0
 11
146.0859262665812
 21
-97.179749818847725
 31
0.0
  0
ARC
  5
91AE
  8
AM_0
 10
150.58592626658131
 20
-92.956667818847734
 30
0.0
 40
0.5
 50
270.0
 51
0.0
  0
ARC
  5
91AF
  8
AM_0
 10
147.58592626658131
 20
-92.323906818847703
 30
0.0
 40
1.5
 50
270.0
 51
310.95942417141811
1001
GENIUS_GENODEF_13
1002
{
1000
HIER
1070
     0
1002
}
1002
{
1000
MANEDIT
1070
     0
1002
}
1002
{
1000
NOSEL
1070
     0
1002
}
1002
{
1000
BEHIND
1070
     0
1002
}
1002
{
1000
REACTOR
1002
}
1001
GENIUS_GENOBJ-N-FIL_13
1002
{
1000
OWNER
1000
GEN
1002
}
  0
LINE
  5
91B0
  8
AM_0
 10
152.08592626658111
 20
-90.456667818847791
 30
0.0
 11
152.08592626658111
 21
-91.956667818847805
 31
0.0
  0
LINE
  5
91B1
  8
AM_0
 10
161.08592626658131
 20
-120.3446058188477
 30
0.0
 11
161.08592626658131
 21
-116.7399228188477
 31
0.0
  0
ARC
  5
91B2
  8
AM_0
 10
159.08592626658131
 20
-120.3446058188477
 30
0.0
 40
2.0
 50
270.0
 51
0.0
  0
ARC
  5
91B3
  8
AM_0
 10
159.08592626658131
 20
-119.43409081884769
 30
0.0
 40
2.0
 50
270.0
 51
0.0
  0
ARC
  5
91B4
  8
AM_0
 10
159.08592626658131
 20
-117.58630481884769
 30
0.0
 40
2.0
 50
270.0
 51
0.0
  0
ARC
  5
91B5
  8
AM_0
 10
158.0859262665812
 20
-80.956667818847905
 30
0.0
 40
2.0
 50
180.0
 51
270.0
  0
LINE
  5
91B6
  8
AM_0
 10
157.63592626658121
 20
-39.546667818847773
 30
0.0
 11
154.5359262665813
 21
-36.366667818847702
 31
0.0
  0
LINE
  5
91B7
  8
AM_0
 10
157.67592626658131
 20
-36.366567818847727
 30
0.0
 11
154.49592626658111
 21
-39.546567818847791
 31
0.0
  0
CIRCLE
  5
91B8
  8
AM_0
 10
156.08592626658111
 20
-37.956667818847741
 30
0.0
 40
4.5000000000000018
  0
POLYLINE
  5
91B9
  8
AM_0
 66
     1
 10
0.0
 20
0.0
 30
0.0
  0
VERTEX
  5
91BA
  8
AM_0
 10
124.96637626658131
 20
-44.114117818847717
 30
0.0
  0
VERTEX
  5
91BB
  8
AM_0
 10
125.6124262665812
 20
-36.893197818847739
 30
0.0
 42
-1.0
  0
SEQEND
  5
91BC
  8
AM_0
  0
POLYLINE
  5
91BD
  8
AM_0
 66
     1
 10
0.0
 20
0.0
 30
0.0
  0
VERTEX
  5
91BE
  8
AM_0
 10
124.4513462665812
 20
-60.45666781884772
 30
0.0
  0
VERTEX
  5
91BF
  8
AM_0
 10
124.45406626658129
 20
-56.724187818847717
 30
0.0
 42
-1.0
  0
SEQEND
  5
91C0
  8
AM_0
  0
LINE
  5
91C1
  8
AM_0
 10
132.08592626658111
 20
-68.956667818847734
 30
0.0
 11
130.585926266581
 21
-68.956667818847734
 31
0.0
  0
POLYLINE
  5
91C2
  8
AM_0
 66
     1
 10
0.0
 20
0.0
 30
0.0
  0
VERTEX
  5
91C3
  8
AM_0
 10
124.4947062665812
 20
-66.727957818847756
 30
0.0
  0
VERTEX
  5
91C4
  8
AM_0
 10
124.79337626658121
 20
-74.138017818847743
 30
0.0
 42
-1.0
  0
SEQEND
  5
91C5
  8
AM_0
  0
LINE
  5
91C6
  8
AM_0
 10
123.41685626658121
 20
-74.13830781884775
 30
0.0
 11
130.5854362665811
 21
-74.13830781884775
 31
0.0
  0
LINE
  5
91C7
  8
AM_0
 10
130.5854362665811
 20
-74.456657818847759
 30
0.0
 11
124.4513462665812
 21
-74.456657818847759
 31
0.0
  0
LINE
  5
91C8
  8
AM_0
 10
123.35484626658121
 20
-64.191647818847741
 30
0.0
 11
130.585926266581
 21
-64.191647818847741
 31
0.0
  0
LINE
  5
91C9
  8
AM_0
 10
130.585926266581
 20
-64.456677818847766
 30
0.0
 11
124.4513462665812
 21
-64.456677818847709
 31
0.0
  0
LINE
  5
91CA
  8
AM_0
 10
130.585926266581
 20
-66.456667818847734
 30
0.0
 11
124.4513462665812
 21
-66.456667818847734
 31
0.0
  0
LINE
  5
91CB
  8
AM_0
 10
123.35484626658121
 20
-66.729497818847719
 30
0.0
 11
130.585926266581
 21
-66.729497818847719
 31
0.0
  0
POLYLINE
  5
91CC
  8
AM_0
 66
     1
 10
0.0
 20
0.0
 30
0.0
  0
VERTEX
  5
91CD
  8
AM_0
 10
124.4513462665812
 20
-60.45666781884772
 30
0.0
  0
VERTEX
  5
91CE
  8
AM_0
 10
124.45406626658129
 20
-64.189137818847769
 30
0.0
 42
-1.0
  0
SEQEND
  5
91CF
  8
AM_0
  0
ARC
  5
91D0
  8
AM_0
 10
124.6353062665812
 20
-65.456657818847759
 30
0.0
 40
1.0
 50
90.000003000000945
 51
270.0
  0
LINE
  5
91D1
  8
AM_0
 10
132.08592626658111
 20
-51.95666781884772
 30
0.0
 11
130.585926266581
 21
-51.95666781884772
 31
0.0
  0
POLYLINE
  5
91D2
  8
AM_0
 66
     1
 10
0.0
 20
0.0
 30
0.0
  0
VERTEX
  5
91D3
  8
AM_0
 10
124.4947062665812
 20
-54.185377818847712
 30
0.0
  0
VERTEX
  5
91D4
  8
AM_0
 10
124.79337626658121
 20
-46.775347818847699
 30
0.0
 42
-1.0
  0
SEQEND
  5
91D5
  8
AM_0
  0
LINE
  5
91D6
  8
AM_0
 10
130.585926266581
 20
-54.45666781884772
 30
0.0
 11
124.4513462665812
 21
-54.45666781884772
 31
0.0
  0
LINE
  5
91D7
  8
AM_0
 10
130.585926266581
 20
-56.456667818847741
 30
0.0
 11
124.4513462665812
 21
-56.456667818847741
 31
0.0
  0
LINE
  5
91D8
  8
AM_0
 10
123.35484626658121
 20
-54.18391781884776
 30
0.0
 11
130.5859262665812
 21
-54.18391781884776
 31
0.0
  0
LINE
  5
91D9
  8
AM_0
 10
123.35484626658121
 20
-56.721757818847721
 30
0.0
 11
130.5859262665812
 21
-56.721757818847721
 31
0.0
  0
ARC
  5
91DA
  8
AM_0
 10
124.6353062665812
 20
-55.456677818847709
 30
0.0
 40
1.0
 50
90.000003000000945
 51
270.0
  0
LINE
  5
91DB
  8
AM_0
 10
130.5854362665811
 20
-44.45666781884772
 30
0.0
 11
124.4513462665812
 21
-44.45666781884772
 31
0.0
  0
LINE
  5
91DC
  8
AM_0
 10
130.5854362665811
 20
-46.456677818847702
 30
0.0
 11
124.4513462665812
 21
-46.456677818847702
 31
0.0
  0
LINE
  5
91DD
  8
AM_0
 10
123.41685626658121
 20
-44.113157818847753
 30
0.0
 11
130.5854362665811
 21
-44.113157818847753
 31
0.0
  0
LINE
  5
91DE
  8
AM_0
 10
123.41685626658121
 20
-46.775027818847711
 30
0.0
 11
130.5854362665811
 21
-46.775027818847711
 31
0.0
  0
ARC
  5
91DF
  8
AM_0
 10
124.6353062665812
 20
-45.456667818847713
 30
0.0
 40
1.0
 50
90.000003000000945
 51
270.0
  0
LINE
  5
91E0
  8
AM_0
 10
150.58592626658131
 20
-27.456667818847741
 30
0.0
 11
136.58592626658131
 21
-27.456667818847741
 31
0.0
  0
LINE
  5
91E1
  8
AM_0
 10
123.7632362665812
 20
-27.08947781884774
 30
0.0
 11
147.58592626658131
 21
-27.08947781884774
 31
0.0
  0
ARC
  5
91E2
  8
AM_0
 10
124.6353062665812
 20
-25.456677818847709
 30
0.0
 40
1.0
 50
90.000003000000945
 51
270.0
  0
ARC
  5
91E3
  8
AM_0
 10
133.58592626658111
 20
-31.95666781884773
 30
0.0
 40
3.0
 50
90.0
 51
180.0
  0
LINE
  5
91E4
  8
AM_0
 10
130.5854362665811
 20
-34.456677818847709
 30
0.0
 11
124.4513462665812
 21
-34.456677818847709
 31
0.0
  0
LINE
  5
91E5
  8
AM_0
 10
130.5854362665811
 20
-36.456667818847741
 30
0.0
 11
124.4513462665812
 21
-36.456667818847741
 31
0.0
  0
LINE
  5
91E6
  8
AM_0
 10
123.54741626658129
 20
-36.89349781884772
 30
0.0
 11
130.5854362665811
 21
-36.89349781884772
 31
0.0
  0
ARC
  5
91E7
  8
AM_0
 10
124.6353062665812
 20
-35.456667818847741
 30
0.0
 40
1.0
 50
90.000003000000945
 51
270.0
  0
POLYLINE
  5
91E8
  8
AM_0
 66
     1
 10
0.0
 20
0.0
 30
0.0
  0
VERTEX
  5
91E9
  8
AM_0
 10
125.9481262665812
 20
-33.969737818847712
 30
0.0
  0
VERTEX
  5
91EA
  8
AM_0
 10
126.9086062665812
 20
-27.088107818847728
 30
0.0
 42
-1.0
  0
SEQEND
  5
91EB
  8
AM_0
  0
LINE
  5
91EC
  8
AM_0
 10
123.54741626658129
 20
-33.970537818847731
 30
0.0
 11
130.5854362665811
 21
-33.970537818847731
 31
0.0
  0
ARC
  5
91ED
  8
AM_0
 10
133.58592626658111
 20
-31.95666781884773
 30
0.0
 40
1.5
 50
90.0
 51
180.0
  0
LINE
  5
91EE
  8
AM_0
 10
135.08592626658131
 20
-30.456667818847741
 30
0.0
 11
135.08592626658131
 21
-28.956667818847741
 31
0.0
  0
LINE
  5
91EF
  8
AM_0
 10
136.08592626658131
 20
-27.956667818847741
 30
0.0
 11
136.08592626658131
 21
-28.956667818847741
 31
0.0
  0
ARC
  5
91F0
  8
AM_0
 10
136.58592626658111
 20
-27.956667818847741
 30
0.0
 40
0.5
 50
90.0
 51
180.0
  0
ARC
  5
91F1
  8
AM_0
 10
150.5859262665812
 20
-27.956667818847741
 30
0.0
 40
0.5
 50
0.0
 51
90.0
  0
ARC
  5
91F2
  8
AM_0
 10
147.58592626658131
 20
-28.58947781884774
 30
0.0
 40
1.5
 50
49.043431124089281
 51
90.0
1001
GENIUS_GENODEF_13
1002
{
1000
HIER
1070
     0
1002
}
1002
{
1000
MANEDIT
1070
     0
1002
}
1002
{
1000
NOSEL
1070
     0
1002
}
1002
{
1000
BEHIND
1070
     0
1002
}
1002
{
1000
REACTOR
1002
}
1001
GENIUS_GENOBJ-N-FIL_13
1002
{
1000
OWNER
1000
GEN
1002
}
  0
LINE
  5
91F3
  8
AM_0
 10
151.08592626658131
 20
-28.956667818847741
 30
0.0
 11
151.08592626658131
 21
-27.956667818847741
 31
0.0
  0
LINE
  5
91F4
  8
AM_0
 10
152.08592626658131
 20
-30.456667818847741
 30
0.0
 11
152.08592626658131
 21
-28.956667818847741
 31
0.0
  0
ARC
  5
91F5
  8
AM_0
 10
147.58592626658131
 20
-23.73365781884775
 30
0.0
 40
1.5
 50
90.000003000000945
 51
180.0000099999977
  0
LINE
  5
91F6
  8
AM_0
 10
146.0859262665812
 20
-23.73365781884775
 30
0.0
 11
146.0859262665812
 21
-23.73365781884775
 31
0.0
  0
ARC
  5
91F7
  8
AM_0
 10
156.08592626658111
 20
-37.956667818847741
 30
0.0
 40
5.499999999999992
 50
285.46600995341942
 51
344.53399004658058
  0
LINE
  5
91F8
  8
AM_0
 10
161.28192626658119
 20
-75.760467818847758
 30
0.0
 11
161.28192626658119
 21
-45.152767818847721
 31
0.0
  0
ARC
  5
91F9
  8
AM_0
 10
158.0859262665812
 20
-45.185083966248257
 30
0.0
 40
2.0
 50
105.4660099534194
 51
180.0
  0
ARC
  5
91FA
  8
AM_0
 10
163.28192626658119
 20
-45.152767818847792
 30
0.0
 40
2.0
 50
90.0
 51
180.0
  0
ARC
  5
91FB
  8
AM_0
 10
163.31434241398159
 20
-39.956667818847791
 30
0.0
 40
2.0
 50
90.0
 51
164.5339900465805
  0
LINE
  5
91FC
  8
AM_0
 10
209.08592626658131
 20
-31.95666781884773
 30
0.0
 11
209.08592626658111
 21
-88.956667818847791
 31
0.0
  0
LINE
  5
91FD
  8
AM_0
 10
210.5859262665812
 20
-31.95666781884773
 30
0.0
 11
210.58592626658111
 21
-88.956667818847791
 31
0.0
  0
ARC
  5
91FE
  8
AM_0
 10
200.0859262665812
 20
-75.72825167144731
 30
0.0
 40
2.0
 50
285.46600995341942
 51
0.0
  0
ARC
  5
91FF
  8
AM_0
 10
194.889926266581
 20
-75.760567818847804
 30
0.0
 40
2.0
 50
270.0
 51
0.0
  0
LINE
  5
9200
  8
AM_0
 10
219.8559462665813
 20
-30.456667818847741
 30
0.0
 11
219.8559462665813
 21
-90.456667818847734
 31
0.0
  0
LINE
  5
9201
  8
AM_0
 10
226.90803626658121
 20
-93.823906818847703
 30
0.0
 11
210.38591626658129
 21
-93.823906818847703
 31
0.0
  0
CIRCLE
  5
9202
  8
AM_0
 10
202.0859262665812
 20
-82.956667818847805
 30
0.0
 40
4.5000000000000018
  0
ARC
  5
9203
  8
AM_0
 10
194.85751011918069
 20
-80.956667818847777
 30
0.0
 40
2.0
 50
270.0
 51
344.53399004658058
  0
LINE
  5
9204
  8
AM_0
 10
200.49592626658119
 20
-84.546767818847727
 30
0.0
 11
203.6759262665812
 21
-81.366767818847777
 31
0.0
  0
LINE
  5
9205
  8
AM_0
 10
200.53592626658121
 20
-81.366667818847702
 30
0.0
 11
203.63592626658129
 21
-84.546667818847766
 31
0.0
  0
ARC
  5
9206
  8
AM_0
 10
202.0859262665812
 20
-82.956667818847805
 30
0.0
 40
5.499999999999992
 50
105.4660099534194
 51
164.5339900465805
  0
ARC
  5
9207
  8
AM_0
 10
207.5859262665812
 20
-88.956667818847791
 30
0.0
 40
3.0
 50
270.0
 51
0.0
  0
LINE
  5
9208
  8
AM_0
 10
209.3859462665813
 20
-92.823922818847734
 30
0.0
 11
209.3859462665813
 21
-91.356652818717549
 31
0.0
  0
ARC
  5
9209
  8
AM_0
 10
210.38591626658129
 20
-92.823922818847734
 30
0.0
 40
1.0
 50
179.999989999999
 51
270.0
  0
LINE
  5
920A
  8
AM_0
 10
209.9989830889719
 20
-90.739125889017657
 30
0.0
 11
219.8559462665813
 21
-90.456687818847726
 31
0.0
  0
LINE
  5
920B
  8
AM_0
 10
210.1840024779346
 20
-90.456667818847734
 30
0.0
 11
219.8559462665813
 21
-90.456667818847734
 31
0.0
  0
ARC
  5
920C
  8
AM_0
 10
207.5859262665812
 20
-88.956667818847791
 30
0.0
 40
1.5
 50
270.0
 51
0.0
  0
LINE
  5
920D
  8
AM_0
 10
228.5859262665812
 20
-98.679696818847731
 30
0.0
 11
224.14390626658121
 21
-115.25755481884769
 31
0.0
  0
LINE
  5
920E
  8
AM_0
 10
230.08592626658131
 20
-116.4566588188477
 30
0.0
 11
238.08592626658131
 21
-116.4566588188477
 31
0.0
  0
LINE
  5
920F
  8
AM_0
 10
224.6264562665813
 20
-113.4566588188477
 30
0.0
 11
230.08592626658131
 21
-113.4566588188477
 31
0.0
  0
ARC
  5
9210
  8
AM_0
 10
222.21211626658129
 20
-114.7399308188477
 30
0.0
 40
2.0
 50
270.0
 51
345.00000000000239
  0
LINE
  5
9211
  8
AM_0
 10
230.08592626658131
 20
-106.4566738188477
 30
0.0
 11
238.08592626658131
 21
-106.4566738188477
 31
0.0
  0
LINE
  5
9212
  8
AM_0
 10
230.08592626658131
 20
-92.39410581884772
 30
0.0
 11
238.08592626658131
 21
-92.39410581884772
 31
0.0
  0
ARC
  5
9213
  8
AM_0
 10
223.43031626658129
 20
-95.456658818847785
 30
0.0
 40
1.0
 50
270.0
 51
90.000003000000945
  0
ARC
  5
9214
  8
AM_0
 10
226.90803626658121
 20
-95.501839818847714
 30
0.0
 40
1.6779127
 50
270.0
 51
90.000003000000945
  0
LINE
  5
9215
  8
AM_0
 10
226.90803626658121
 20
-27.08947781884774
 30
0.0
 11
210.38591626658129
 21
-27.08947781884774
 31
0.0
  0
LINE
  5
9216
  8
AM_0
 10
202.0859262665812
 20
-75.728167818847794
 30
0.0
 11
202.0859262665812
 21
-39.956667818847741
 31
0.0
  0
LINE
  5
9217
  8
AM_0
 10
196.88992626658111
 20
-45.152767818847721
 30
0.0
 11
196.88992626658111
 21
-75.760467818847758
 31
0.0
  0
ARC
  5
9218
  8
AM_0
 10
194.889926266581
 20
-45.152767818847792
 30
0.0
 40
2.0
 50
0.0
 51
90.0
  0
ARC
  5
9219
  8
AM_0
 10
200.0859262665812
 20
-39.956667818847791
 30
0.0
 40
2.0
 50
0.0
 51
90.0
  0
LINE
  5
921A
  8
AM_0
 10
209.99898308897181
 20
-30.174209748677811
 30
0.0
 11
219.8559462665813
 21
-30.456647818847731
 31
0.0
  0
LINE
  5
921B
  8
AM_0
 10
210.18400247793451
 20
-30.456667818847741
 30
0.0
 11
219.8559462665813
 21
-30.456667818847741
 31
0.0
  0
ARC
  5
921C
  8
AM_0
 10
207.5859262665812
 20
-31.956667818847791
 30
0.0
 40
3.0
 50
0.0
 51
90.0
  0
ARC
  5
921D
  8
AM_0
 10
207.5859262665812
 20
-31.956667818847791
 30
0.0
 40
1.5
 50
0.0
 51
90.0
  0
ARC
  5
921E
  8
AM_0
 10
210.38591626658129
 20
-28.08947781884774
 30
0.0
 40
1.0
 50
90.000003000000945
 51
180.0000099999977
  0
LINE
  5
921F
  8
AM_0
 10
209.3859462665813
 20
-28.08947781884774
 30
0.0
 11
209.38594626658119
 21
-29.556682818978
 31
0.0
  0
LINE
  5
9220
  8
AM_0
 10
230.08592626658131
 20
-14.45666781884773
 30
0.0
 11
238.08592626658131
 21
-14.45666781884773
 31
0.0
  0
LINE
  5
9221
  8
AM_0
 10
230.08592626658131
 20
-28.5192278188477
 30
0.0
 11
238.08592626658131
 21
-28.5192278188477
 31
0.0
  0
ARC
  5
9222
  8
AM_0
 10
226.90803626658121
 20
-25.411557818847712
 30
0.0
 40
1.6779127
 50
270.0
 51
90.000003000000945
  0
ARC
  5
9223
  8
AM_0
 10
223.43031626658129
 20
-25.456677818847709
 30
0.0
 40
1.0
 50
270.0
 51
90.000003000000945
  0
ARC
  5
9224
  8
AM_0
 10
229.73692626658129
 20
-20.73365781884775
 30
0.0
 40
1.5
 50
195.00001000000211
 51
270.0
  0
LINE
  5
923D
  8
AM_0
 10
114.0859262665813
 20
-7.456677818847707
 30
0.0
 11
122.0859262665813
 21
-7.456677818847707
 31
0.0
  0
LINE
  5
92EE
  8
AM_0
 10
125.29234626658121
 20
-4.1734178188477227
 30
0.0
 11
222.21211626658129
 21
-4.1734178188477227
 31
0.0
  0
LINE
  5
92F5
  8
AM_0
 10
125.3409362665812
 20
-1.3270478188476871
 30
0.0
 11
159.08592626658131
 21
-1.3270478188476871
 31
0.0
  0
LINE
  5
92F6
  8
AM_0
 10
125.3542962665813
 20
0.5206721811522928
 30
0.0
 11
159.08592626658131
 21
0.5206721811522928
 31
0.0
  0
LINE
  5
92F7
  8
AM_0
 10
125.3755962665813
 20
1.43121218115226
 30
0.0
 11
159.08592626658131
 21
1.43121218115226
 31
0.0
  0
ARC
  5
92F8
  8
AM_0
 10
125.3542962665813
 20
-1.4793078188477571
 30
0.0
 40
2.0
 50
90.000003000000945
 51
171.35661000000101
  0
ARC
  5
92F9
  8
AM_0
 10
125.29234626658121
 20
-6.1733978188477181
 30
0.0
 40
2.0
 50
90.000003000000945
 51
169.2843100000004
  0
ARC
  5
92FA
  8
AM_0
 10
125.3409362665812
 20
-3.3270278188477378
 30
0.0
 40
2.0
 50
90.000003000000945
 51
170.9150299999996
  0
ARC
  5
92FB
  8
AM_0
 10
125.3755962665813
 20
-0.5688078188477448
 30
0.0
 40
2.0
 50
90.000003000000945
 51
172.05595999999761
  0
ARC
  5
9301
  8
AM_0
 10
159.08592626658131
 20
-1.4793078188477571
 30
0.0
 40
2.0
 50
0.0
 51
90.000003000000945
  0
LINE
  5
9302
  8
AM_0
 10
161.08592626658131
 20
-0.5688078188477448
 30
0.0
 11
161.08592626658131
 21
-4.1734178188477227
 31
0.0
  0
ARC
  5
9303
  8
AM_0
 10
159.08592626658131
 20
-3.3270278188477378
 30
0.0
 40
2.0
 50
0.0
 51
90.000003000000945
  0
ARC
  5
9304
  8
AM_0
 10
159.08592626658131
 20
-0.5688078188477448
 30
0.0
 40
2.0
 50
0.0
 51
90.000003000000945
  0
LINE
  5
9336
  8
AM_0
 10
230.08592626658131
 20
-4.456677818847707
 30
0.0
 11
238.08592626658131
 21
-4.456677818847707
 31
0.0
  0
LINE
  5
9337
  8
AM_0
 10
224.6264562665813
 20
-7.456677818847707
 30
0.0
 11
230.08592626658131
 21
-7.456677818847707
 31
0.0
  0
ARC
  5
9338
  8
AM_0
 10
222.21211626658129
 20
-6.1733978188477181
 30
0.0
 40
2.0
 50
14.9999999999976
 51
90.000003000000945
  0
LINE
  5
94DA
  8
AM_0
 10
238.08592626658131
 20
-4.456648318847753
 30
0.0
 11
246.43792833256981
 21
-4.456648318847753
 31
0.0
  0
LINE
  5
94DD
  8
AM_0
 10
238.08592626658131
 20
-14.456648318847749
 30
0.0
 11
247.72350475162449
 21
-14.456648318847749
 31
0.0
  0
LINE
  5
94DE
  8
AM_0
 10
238.08592626658131
 20
-28.516698318847801
 30
0.0
 11
247.723506683209
 21
-28.516698318847801
 31
0.0
  0
LINE
  5
94E0
  8
AM_0
 10
238.08592626658131
 20
-116.4566483188477
 30
0.0
 11
246.4379433709903
 21
-116.4566483188477
 31
0.0
  0
LINE
  5
94E2
  8
AM_0
 10
238.08592626658131
 20
-106.4566738188477
 30
0.0
 11
247.7235173906825
 21
-106.4566524598731
 31
0.0
  0
LINE
  5
94E3
  8
AM_0
 10
238.08592626658131
 20
-92.39410581884772
 30
0.0
 11
247.72351545909439
 21
-92.396577250738659
 31
0.0
  0
LINE
  5
94F1
  8
AM_0
 10
400.49236500963201
 20
-22.456646741492559
 30
0.0
 11
263.69169836994053
 21
-22.456646741492481
 31
0.0
  0
LINE
  5
94F2
  8
AM_0
 10
376.09203316476982
 20
-18.456646622283269
 30
0.0
 11
321.0920315256422
 21
-18.456646622283209
 31
0.0
  0
LINE
  5
94F3
  8
AM_0
 10
376.09203316476982
 20
-18.456646622283269
 30
0.0
 11
376.09203316476982
 21
-22.456646741492559
 31
0.0
  0
LINE
  5
94F4
  8
AM_0
 10
321.0920315256422
 20
-18.456646622283209
 30
0.0
 11
321.0920315256422
 21
-22.456646741492509
 31
0.0
  0
LINE
  5
94F5
  8
AM_0
 10
363.59203279224079
 20
-15.456646532876301
 30
0.0
 11
333.59203189817117
 21
-15.456646532876251
 31
0.0
  0
LINE
  5
94F6
  8
AM_0
 10
333.59203189817117
 20
-18.456646622283209
 30
0.0
 11
333.59203189817117
 21
-15.456646532876251
 31
0.0
  0
LINE
  5
94F7
  8
AM_0
 10
363.59203279224079
 20
-18.456646622283269
 30
0.0
 11
363.59203279224079
 21
-15.456646532876301
 31
0.0
  0
LINE
  5
94F8
  8
AM_0
 10
401.59203359736591
 20
-85.456648619038802
 30
0.0
 11
262.5920292467008
 21
-85.456648619038816
 31
0.0
  0
LINE
  5
94F9
  8
AM_0
 10
401.36511774261459
 20
-98.456649231152795
 30
0.0
 11
262.81894536527761
 21
-98.456633666614721
 31
0.0
  0
LINE
  5
94FA
  8
AM_0
 10
376.09203316476982
 20
-102.4566491256783
 30
0.0
 11
376.09203316476982
 21
-98.456649006469021
 31
0.0
  0
LINE
  5
94FB
  8
AM_0
 10
376.09203316476982
 20
-102.4566491256783
 30
0.0
 11
321.0920315256422
 21
-102.4566491256783
 31
0.0
  0
LINE
  5
94FC
  8
AM_0
 10
363.59203279224079
 20
-105.45664921508521
 30
0.0
 11
333.59203189817117
 21
-105.45664921508521
 31
0.0
  0
LINE
  5
94FD
  8
AM_0
 10
363.59203279224079
 20
-105.45664921508521
 30
0.0
 11
363.59203279224079
 21
-102.4566491256783
 31
0.0
  0
LINE
  5
94FE
  8
AM_0
 10
333.59203189817117
 20
-105.45664921508521
 30
0.0
 11
333.59203189817117
 21
-102.4566491256783
 31
0.0
  0
LINE
  5
94FF
  8
AM_0
 10
321.0920315256422
 20
-102.4566491256783
 30
0.0
 11
321.0920315256422
 21
-98.456649006469021
 31
0.0
  0
LINE
  5
9501
  8
ﾁｭｳｼﾝｾﾝ1
 10
348.59203234520589
 20
-110.45663387523101
 30
0.0
 11
348.59203234520589
 21
-10.45663119302205
 31
0.0
  0
LINE
  5
95AD
  8
AM_0
 10
261.69139371385268
 20
-24.456646741492499
 30
0.0
 11
252.59203234520589
 21
-24.456646741492499
 31
0.0
  0
LINE
  5
95B3
  8
AM_0
 10
261.60933198358498
 20
-83.456648619038802
 30
0.0
 11
255.6131278157016
 21
-83.456648619038802
 31
0.0
  0
LINE
  5
95E2
  8
AM_0
 10
250.59203234520589
 20
-22.456646741492499
 30
0.0
 11
250.59203234520589
 21
-18.498191527957221
 31
0.0
  0
LINE
  5
95EC
  8
AM_0
 10
248.4075437887937
 20
-6.1093516810807937
 30
0.0
 11
250.59203234520589
 21
-18.498191527957221
 31
0.0
1001
GENIUS_GENODEF_13
1002
{
1000
HIER
1070
     0
1002
}
1002
{
1000
MANEDIT
1070
     0
1002
}
1002
{
1000
NOSEL
1070
     0
1002
}
1002
{
1000
BEHIND
1070
     0
1002
}
1002
{
1000
REACTOR
1002
}
1001
GENIUS_GENOBJ-N-CEN_13
1002
{
1000
OWNER
1000
GEN
1002
}
  0
ARC
  5
95F9
  8
AM_0
 10
246.43792833256981
 20
-6.456648318847753
 30
0.0
 40
2.0
 50
10.000008215930929
 51
90.0
1001
GENIUS_GENOBJ-N-CEN_13
1002
{
1000
OWNER
1000
GEN
1002
}
1001
GENIUS_GENOBJ-N-FIL_13
1002
{
1000
OWNER
1000
GEN
1002
}
1001
GENIUS_GENODEF_13
1002
{
1000
HIER
1070
     0
1002
}
1002
{
1000
MANEDIT
1070
     0
1002
}
1002
{
1000
NOSEL
1070
     0
1002
}
1002
{
1000
BEHIND
1070
     0
1002
}
1002
{
1000
OTHER
1070
     0
1002
}
1002
{
1000
REACTOR
1002
}
  0
ARC
  5
95FC
  8
AM_0
 10
252.59203234520589
 20
-22.456646741492499
 30
0.0
 40
2.0
 50
180.0
 51
270.0
1001
GENIUS_GENODEF_13
1002
{
1000
HIER
1070
     0
1002
}
1002
{
1000
MANEDIT
1070
     0
1002
}
1002
{
1000
NOSEL
1070
     0
1002
}
1002
{
1000
BEHIND
1070
     0
1002
}
1002
{
1000
OTHER
1070
     0
1002
}
1002
{
1000
REACTOR
1002
}
1001
GENIUS_GENOBJ-N-FIL_13
1002
{
1000
OWNER
1000
GEN
1002
}
  0
LINE
  5
9603
  8
AM_0
 10
248.40755937505949
 20
-114.80394184962709
 30
0.0
 11
253.6435122598767
 21
-85.109352546138027
 31
0.0
1001
GENIUS_GENODEF_13
1002
{
1000
HIER
1070
     0
1002
}
1002
{
1000
MANEDIT
1070
     0
1002
}
1002
{
1000
NOSEL
1070
     0
1002
}
1002
{
1000
BEHIND
1070
     0
1002
}
1002
{
1000
REACTOR
1002
}
1001
GENIUS_GENOBJ-N-CEN_13
1002
{
1000
OWNER
1000
GEN
1002
}
  0
ARC
  5
9607
  8
AM_0
 10
246.4379433709903
 20
-114.4566483188477
 30
0.0
 40
2.0
 50
270.0
 51
350.0000082159309
1001
GENIUS_GENOBJ-N-CEN_13
1002
{
1000
OWNER
1000
GEN
1002
}
1001
GENIUS_GENODEF_13
1002
{
1000
HIER
1070
     0
1002
}
1002
{
1000
MANEDIT
1070
     0
1002
}
1002
{
1000
NOSEL
1070
     0
1002
}
1002
{
1000
BEHIND
1070
     0
1002
}
1002
{
1000
OTHER
1070
     0
1002
}
1002
{
1000
REACTOR
1002
}
1001
GENIUS_GENOBJ-N-FIL_13
1002
{
1000
OWNER
1000
GEN
1002
}
  0
ARC
  5
9609
  8
AM_0
 10
255.6131278157016
 20
-85.456648619038802
 30
0.0
 40
2.0
 50
90.000000000000057
 51
170.00000821593079
1001
GENIUS_GENODEF_13
1002
{
1000
HIER
1070
     0
1002
}
1002
{
1000
MANEDIT
1070
     0
1002
}
1002
{
1000
NOSEL
1070
     0
1002
}
1002
{
1000
BEHIND
1070
     0
1002
}
1002
{
1000
OTHER
1070
     0
1002
}
1002
{
1000
REACTOR
1002
}
1001
GENIUS_GENOBJ-N-FIL_13
1002
{
1000
OWNER
1000
GEN
1002
}
  0
LINE
  5
960B
  8
AM_0
 10
247.72350344209599
 20
-4.9245593404372414
 30
0.0
 11
247.72351870021041
 21
-115.9887371129131
 31
0.0
  0
LINE
  5
9672
  8
ｶｸﾚｾﾝ2
 10
512.39601400934214
 20
211.00981390552789
 30
0.0
 11
588.39601627431864
 21
211.00981390552801
 31
0.0
  0
LINE
  5
9678
  8
ｶｸﾚｾﾝ2
 10
512.39601400934214
 20
202.00981390552801
 30
0.0
 11
588.39601627431864
 21
202.00981390552801
 31
0.0
  0
LINE
  5
967E
  8
ｶｸﾚｾﾝ2
 10
512.39601400934214
 20
131.0098115213423
 30
0.0
 11
588.39601627431864
 21
131.0098115213423
 31
0.0
  0
LINE
  5
9684
  8
ｶｸﾚｾﾝ2
 10
512.39601400934214
 20
122.0098115213423
 30
0.0
 11
588.39601627431864
 21
122.0098115213423
 31
0.0
  0
LINE
  5
968C
  8
ﾁｭｳｼﾝｾﾝ1
 10
388.5920335372989
 20
-101.45664900646879
 30
0.0
 11
388.5920335372989
 21
-19.456646741492481
 31
0.0
  0
LINE
  5
968D
  8
ｶｸﾚｾﾝ2
 10
393.0920335372989
 20
-98.456649006469092
 30
0.0
 11
393.0920335372989
 21
-22.456646741492708
 31
0.0
  0
LINE
  5
968E
  8
ｶｸﾚｾﾝ2
 10
384.0920335372989
 20
-98.456649006469092
 30
0.0
 11
384.0920335372989
 21
-22.456646741492708
 31
0.0
  0
LINE
  5
969F
  8
ｶｸﾚｾﾝ2
 10
269.09203011003183
 20
-98.456649006469036
 30
0.0
 11
269.09203011003183
 21
-22.456646741492641
 31
0.0
  0
LINE
  5
96A0
  8
ｶｸﾚｾﾝ2
 10
278.09203011003183
 20
-98.456649006469036
 30
0.0
 11
278.09203011003183
 21
-22.456646741492641
 31
0.0
  0
LINE
  5
96A1
  8
ﾁｭｳｼﾝｾﾝ1
 10
273.59203011003183
 20
-101.45664900646879
 30
0.0
 11
273.59203011003183
 21
-19.45664674149241
 31
0.0
  0
LINE
  5
96D1
  8
AM_0
 10
105.5920297822062
 20
-45.234835543457109
 30
0.0
 11
106.0920297822063
 21
-42.46484652978522
 31
0.0
  0
LINE
  5
96D2
  8
AM_0
 10
106.09206029978439
 20
-42.46484652978522
 30
0.0
 11
106.5920297822062
 21
-42.504855074707109
 31
0.0
  0
LINE
  5
96D3
  8
AM_0
 10
105.5920297822062
 20
-75.678500094238345
 30
0.0
 11
105.5920297822062
 21
-45.23486606103522
 31
0.0
  0
LINE
  5
96D4
  8
AM_0
 10
105.59206029978439
 20
-75.678500094238345
 30
0.0
 11
106.09206029978439
 21
-78.448489107910234
 31
0.0
  0
LINE
  5
96D5
  8
AM_0
 10
106.0920297822063
 20
-78.448489107910234
 30
0.0
 11
106.59206029978439
 21
-78.408480562988359
 31
0.0
  0
LINE
  5
98F6
  8
AM_0
 10
575.39601588688845
 20
217.50981423335341
 30
0.0
 11
588.39601627431875
 21
217.282898382524
 31
0.0
  0
LINE
  5
98F8
  8
AM_0
 10
575.39601588688993
 20
115.5098111935166
 30
0.0
 11
512.39601400934214
 21
116.6094803167672
 31
0.0
  0
LINE
  5
98F9
  8
AM_0
 10
575.39601588688834
 20
115.5098111935166
 30
0.0
 11
588.39601627431864
 21
115.736727044346
 31
0.0
  0
LINE
  5
9913
  8
AM_0
 10
401.59203386512422
 20
-85.456633279184658
 30
0.0
 11
401.36511774261459
 21
-98.456649231152795
 31
0.0
  0
LINE
  5
9914
  8
AM_0
 10
401.59203386512422
 20
-85.456633279186121
 30
0.0
 11
400.49236500963201
 21
-22.456646741492559
 31
0.0
  0
LINE
  5
9915
  8
AM_0
 10
262.59202951444809
 20
-85.456633279184516
 30
0.0
 11
262.81894536527761
 21
-98.456633666614721
 31
0.0
  0
LINE
  5
9916
  8
AM_0
 10
262.59202924670092
 20
-85.456648619038816
 30
0.0
 11
263.69169863769872
 21
-22.456631401638219
 31
0.0
  0
ARC
  5
9929
  8
AM_0
 10
261.69139371385268
 20
-22.456646741492481
 30
0.0
 40
2.0
 50
270.0
 51
358.99999999999977
1001
GENIUS_GENODEF_13
1002
{
1000
HIER
1070
     0
1002
}
1002
{
1000
MANEDIT
1070
     0
1002
}
1002
{
1000
NOSEL
1070
     0
1002
}
1002
{
1000
BEHIND
1070
     0
1002
}
1002
{
1000
OTHER
1070
     0
1002
}
1002
{
1000
REACTOR
1002
}
1001
GENIUS_GENOBJ-N-FIL_13
1002
{
1000
OWNER
1000
GEN
1002
}
  0
ARC
  5
992D
  8
AM_0
 10
261.60933198358498
 20
-84.456648619038802
 30
0.0
 40
1.0
 50
359.00000000000978
 51
90.0
1001
GENIUS_GENODEF_13
1002
{
1000
HIER
1070
     0
1002
}
1002
{
1000
MANEDIT
1070
     0
1002
}
1002
{
1000
NOSEL
1070
     0
1002
}
1002
{
1000
BEHIND
1070
     0
1002
}
1002
{
1000
OTHER
1070
     0
1002
}
1002
{
1000
REACTOR
1002
}
1001
GENIUS_GENOBJ-N-FIL_13
1002
{
1000
OWNER
1000
GEN
1002
}
  0
LINE
  5
9970
  8
AM_0
 10
401.36511774261459
 20
431.4762746580227
 30
0.0
 11
262.81894536527761
 21
431.47625909348483
 31
0.0
  0
LINE
  5
9971
  8
AM_0
 10
401.59203359736591
 20
418.47627404590878
 30
0.0
 11
262.5920292467008
 21
418.47627404590878
 31
0.0
  0
LINE
  5
9972
  8
AM_0
 10
400.49236500963201
 20
355.47627216836258
 30
0.0
 11
263.69169836994053
 21
355.47627216836258
 31
0.0
  0
LINE
  5
9973
  8
ﾁｭｳｼﾝｾﾝ1
 10
101.5859262665813
 20
393.4762932457179
 30
0.0
 11
404.59203386512411
 21
393.47624979614289
 31
0.0
1001
GENIUS_GENODEF_13
1002
{
1000
HIER
1070
     0
1002
}
1002
{
1000
MANEDIT
1070
     0
1002
}
1002
{
1000
NOSEL
1070
     0
1002
}
1002
{
1000
BEHIND
1070
     0
1002
}
1002
{
1000
REACTOR
1002
}
1001
GENIUS_GENOBJ-N-CEN_13
1002
{
1000
OWNER
1000
GEN
1002
}
  0
LINE
  5
9978
  8
AM_0
 10
105.5920297822062
 20
408.69812552110841
 30
0.0
 11
105.5920297822062
 21
378.25449148790528
 31
0.0
  0
ARC
  5
9979
  8
AM_0
 10
112.0859262665813
 20
380.47629324571778
 30
0.0
 40
1.0
 50
269.9999969999991
 51
0.0
  0
ARC
  5
997A
  8
AM_0
 10
109.0859262665813
 20
378.47629324571778
 30
0.0
 40
1.0
 50
90.000000000000057
 51
180.000010000001
  0
LINE
  5
997B
  8
AM_0
 10
108.0859262665813
 20
345.45993324571788
 30
0.0
 11
108.0859262665813
 21
388.47630324571787
 31
0.0
  0
LINE
  5
997C
  8
AM_0
 10
113.0859262665813
 20
343.47630324571782
 30
0.0
 11
113.0859262665813
 21
444.59952224571771
 31
0.0
  0
LINE
  5
997D
  8
AM_0
 10
106.5859262665812
 20
373.47630324571787
 30
0.0
 11
106.5859262665812
 21
413.47628324571792
 31
0.0
  0
LINE
  5
997E
  8
AM_0
 10
114.0859262665813
 20
340.47630324571782
 30
0.0
 11
114.0859262665813
 21
446.47628424571792
 31
0.0
  0
LINE
  5
997F
  8
AM_0
 10
109.85368626658121
 20
443.09145024571779
 30
0.0
 11
108.5854962665812
 21
442.35847124571779
 31
0.0
  0
LINE
  5
9980
  8
AM_0
 10
113.0859262665813
 20
443.47628424571781
 30
0.0
 11
114.0859262665813
 21
443.47628424571781
 31
0.0
  0
LINE
  5
9981
  8
AM_0
 10
110.3541162665813
 20
443.22568124571779
 30
0.0
 11
112.5859262665813
 21
443.22568124571779
 31
0.0
  0
ARC
  5
9982
  8
AM_0
 10
112.5859262665813
 20
443.72567424571781
 30
0.0
 40
0.5
 50
269.9999969999991
 51
0.0
  0
ARC
  5
9983
  8
AM_0
 10
110.3541162665813
 20
442.22567424571781
 30
0.0
 40
1.0
 50
90.000000000000057
 51
120.0263999999994
  0
LINE
  5
9984
  8
AM_0
 10
105.59206029978439
 20
408.69812552110841
 30
0.0
 11
106.09206029978439
 21
411.46811453478028
 31
0.0
  0
LINE
  5
9985
  8
AM_0
 10
108.0859262665813
 20
441.49270224571779
 30
0.0
 11
108.0859262665813
 21
398.47628324571792
 31
0.0
  0
ARC
  5
9986
  8
AM_0
 10
112.0859262665813
 20
426.21946324571792
 30
0.0
 40
1.0
 50
0.0
 51
90.000000000000057
  0
ARC
  5
9987
  8
AM_0
 10
110.23625626658119
 20
426.21946324571792
 30
0.0
 40
1.0
 50
90.000000000000057
 51
107.09763000000039
  0
ARC
  5
9988
  8
AM_0
 10
112.0859262665813
 20
434.4612242457178
 30
0.0
 40
1.0
 50
0.0
 51
90.000000000000057
  0
LINE
  5
9989
  8
AM_0
 10
109.85185626658119
 20
435.32412324571777
 30
0.0
 11
108.58049626658121
 21
434.57944124571787
 31
0.0
  0
ARC
  5
998A
  8
AM_0
 10
109.0859262665813
 20
434.74966024571779
 30
0.0
 40
1.0
 50
123.2547200000013
 51
180.000010000001
  0
LINE
  5
998B
  8
AM_0
 10
109.86626626658131
 20
439.86149224571778
 30
0.0
 11
108.6176662665813
 21
439.19962724571781
 31
0.0
  0
LINE
  5
998C
  8
AM_0
 10
109.8725462665812
 20
441.97102724571778
 30
0.0
 11
108.63328626658119
 21
441.34199924571772
 31
0.0
  0
LINE
  5
998D
  8
AM_0
 10
109.83617626658121
 20
436.43745824571778
 30
0.0
 11
108.5375262665812
 21
435.58589524571778
 31
0.0
  0
LINE
  5
998E
  8
AM_0
 10
109.8483762665812
 20
440.97538424571781
 30
0.0
 11
108.5714662665813
 21
440.20914124571777
 31
0.0
  0
ARC
  5
998F
  8
AM_0
 10
109.0859262665813
 20
439.35165024571779
 30
0.0
 40
1.0
 50
120.96660000000119
 51
180.000010000001
  0
ARC
  5
9990
  8
AM_0
 10
109.0859262665813
 20
438.3160742457178
 30
0.0
 40
1.0
 50
117.926589999999
 51
180.000010000001
  0
ARC
  5
9991
  8
AM_0
 10
109.0859262665813
 20
440.4503522457178
 30
0.0
 40
1.0
 50
116.91125000000009
 51
180.000010000001
  0
ARC
  5
9992
  8
AM_0
 10
109.0859262665813
 20
441.49270224571779
 30
0.0
 40
1.0
 50
120.0263900000017
 51
180.000010000001
  0
LINE
  5
9993
  8
AM_0
 10
110.3251862665812
 20
442.07937224571788
 30
0.0
 11
112.5859262665813
 21
442.07937224571788
 31
0.0
  0
LINE
  5
9994
  8
AM_0
 10
110.3345862665812
 20
439.97794024571778
 30
0.0
 11
112.0859262665813
 21
439.97794024571778
 31
0.0
  0
LINE
  5
9995
  8
AM_0
 10
110.35722626658131
 20
435.46120824571778
 30
0.0
 11
112.0859262665813
 21
435.46120824571778
 31
0.0
  0
LINE
  5
9996
  8
AM_0
 10
110.38457626658121
 20
436.60122324571779
 30
0.0
 11
113.0859262665813
 21
436.60122324571779
 31
0.0
  0
LINE
  5
9997
  8
AM_0
 10
110.3629662665812
 20
441.11795424571778
 30
0.0
 11
113.0859262665813
 21
441.11795424571778
 31
0.0
  0
ARC
  5
9998
  8
AM_0
 10
112.5859262665813
 20
441.5793802457178
 30
0.0
 40
0.5
 50
0.0
 51
90.000000000000057
  0
ARC
  5
9999
  8
AM_0
 10
112.0859262665813
 20
438.97793224571791
 30
0.0
 40
1.0
 50
0.0
 51
90.000000000000057
  0
LINE
  5
999A
  8
AM_0
 10
110.0859262665813
 20
440.87284524571783
 30
0.0
 11
110.0859262665813
 21
440.32682424571777
 31
0.0
  0
LINE
  5
999B
  8
AM_0
 10
110.0859262665813
 20
436.30674424571782
 30
0.0
 11
110.0859262665813
 21
435.83462924571779
 31
0.0
  0
ARC
  5
999C
  8
AM_0
 10
110.35722626658131
 20
434.4612242457178
 30
0.0
 40
1.0
 50
90.000000000000057
 51
120.3595000000014
  0
ARC
  5
999D
  8
AM_0
 10
110.38457626658121
 20
435.60123824571781
 30
0.0
 40
1.0
 50
90.000000000000057
 51
123.25473000000071
  0
ARC
  5
999E
  8
AM_0
 10
110.3345862665812
 20
438.97793224571791
 30
0.0
 40
1.0
 50
90.000000000000057
 51
117.9266000000007
  0
ARC
  5
999F
  8
AM_0
 10
110.3629662665812
 20
440.11794724571791
 30
0.0
 40
1.0
 50
90.000000000000057
 51
120.96660000000119
  0
ARC
  5
99A0
  8
AM_0
 10
110.3251862665812
 20
441.07938824571778
 30
0.0
 40
1.0
 50
90.000000000000057
 51
116.9112599999988
  0
LINE
  5
99A1
  8
AM_0
 10
110.0859262665813
 20
442.97244624571778
 30
0.0
 11
110.0859262665813
 21
442.4466822457178
 31
0.0
  0
LINE
  5
99A2
  8
AM_0
 10
109.8978162665812
 20
429.08519424571779
 30
0.0
 11
108.6931062665812
 21
428.57068224571788
 31
0.0
  0
ARC
  5
99A3
  8
AM_0
 10
109.0859262665813
 20
427.65102824571778
 30
0.0
 40
1.0
 50
113.1270199999981
 51
180.000010000001
  0
LINE
  5
99A4
  8
AM_0
 10
108.58049626658121
 20
434.5794032457178
 30
0.0
 11
108.5569362665812
 21
434.5655782457178
 31
0.0
  0
ARC
  5
99A5
  8
AM_0
 10
109.0859262665813
 20
433.71653424571781
 30
0.0
 40
1.0
 50
120.35951000000171
 51
180.000010000001
  0
ARC
  5
99A6
  8
AM_0
 10
109.0859262665813
 20
433.71653424571781
 30
0.0
 40
1.0
 50
120.35951000000171
 51
180.000010000001
  0
LINE
  5
99A7
  8
AM_0
 10
110.23625626658119
 20
427.21944824571779
 30
0.0
 11
112.0859262665813
 21
427.21944824571779
 31
0.0
  0
LINE
  5
99A8
  8
AM_0
 10
110.2905762665812
 20
429.16556224571758
 30
0.0
 11
112.38591626658121
 21
429.16556224571758
 31
0.0
  0
ARC
  5
99A9
  8
AM_0
 10
112.38591626658121
 20
429.86550524571783
 30
0.0
 40
0.6999999900000002
 50
269.9999969999991
 51
0.0
  0
LINE
  5
99AA
  8
AM_0
 10
110.0859262665813
 20
428.86918324571781
 30
0.0
 11
110.0859262665813
 21
427.8092312457178
 31
0.0
  0
ARC
  5
99AB
  8
AM_0
 10
110.2905762665812
 20
428.16555424571777
 30
0.0
 40
1.0
 50
90.000000000000057
 51
113.1270299999986
  0
ARC
  5
99AC
  8
AM_0
 10
112.0859262665813
 20
434.4612242457178
 30
0.0
 40
1.0
 50
0.0
 51
25.363240000000559
  0
ARC
  5
99AD
  8
AM_0
 10
109.0859262665813
 20
418.47630324571782
 30
0.0
 40
1.0
 50
90.000000000000057
 51
180.000010000001
  0
LINE
  5
99AE
  8
AM_0
 10
112.0859262665813
 20
419.47628324571781
 30
0.0
 11
109.0859262665813
 21
419.47628324571781
 31
0.0
  0
LINE
  5
99AF
  8
AM_0
 10
109.94224626658119
 20
427.17522824571779
 30
0.0
 11
108.79185626658121
 21
426.82137724571783
 31
0.0
  0
ARC
  5
99B0
  8
AM_0
 10
109.0859262665813
 20
425.86556624571779
 30
0.0
 40
1.0
 50
107.09763000000039
 51
180.000010000001
  0
ARC
  5
99B1
  8
AM_0
 10
112.0859262665813
 20
420.47629324571778
 30
0.0
 40
1.0
 50
269.9999969999991
 51
0.0
  0
LINE
  5
99B2
  8
AM_0
 10
112.0859262665813
 20
417.47629324571778
 30
0.0
 11
109.0859262665813
 21
417.47629324571778
 31
0.0
  0
LINE
  5
99B3
  8
AM_0
 10
106.0920297822063
 20
411.46811453478028
 30
0.0
 11
106.59206029978439
 21
411.4281059898583
 31
0.0
  0
LINE
  5
99B4
  8
AM_0
 10
106.5859862665812
 20
413.47628324571792
 30
0.0
 11
108.0859262665813
 21
413.60751324571783
 31
0.0
  0
ARC
  5
99B5
  8
AM_0
 10
109.0859262665813
 20
418.47630324571782
 30
0.0
 40
1.0
 50
179.99999000000221
 51
269.9999969999991
  0
LINE
  5
99B6
  8
AM_0
 10
110.0859262665813
 20
419.10252324571758
 30
0.0
 11
110.0859262665813
 21
417.73966324571779
 31
0.0
  0
ARC
  5
99B7
  8
AM_0
 10
112.0859262665813
 20
416.47628324571781
 30
0.0
 40
1.0
 50
0.0
 51
90.000000000000057
  0
LINE
  5
99B8
  8
AM_0
 10
106.5859262665812
 20
408.6263232457178
 30
0.0
 11
109.8796262665812
 21
408.6263232457178
 31
0.0
  0
LINE
  5
99B9
  8
AM_0
 10
112.0859262665813
 20
407.47628324571781
 30
0.0
 11
109.0859262665813
 21
407.47628324571781
 31
0.0
  0
LINE
  5
99BA
  8
AM_0
 10
112.0859262665813
 20
409.47630324571782
 30
0.0
 11
109.0859262665813
 21
409.47630324571782
 31
0.0
  0
ARC
  5
99BB
  8
AM_0
 10
109.0859262665813
 20
408.47629324571778
 30
0.0
 40
1.0
 50
179.99999000000221
 51
269.9999969999991
  0
LINE
  5
99BC
  8
AM_0
 10
106.5859262665812
 20
410.75833324571778
 30
0.0
 11
108.0859262665813
 21
410.75833324571778
 31
0.0
  0
ARC
  5
99BD
  8
AM_0
 10
109.0859262665813
 20
408.47629324571778
 30
0.0
 40
1.0
 50
90.000000000000057
 51
180.000010000001
  0
ARC
  5
99BE
  8
AM_0
 10
112.0859262665813
 20
406.47630324571782
 30
0.0
 40
1.0
 50
0.0
 51
90.000000000000057
  0
ARC
  5
99BF
  8
AM_0
 10
112.0859262665813
 20
410.47628324571781
 30
0.0
 40
1.0
 50
269.9999969999991
 51
0.0
  0
LINE
  5
99C0
  8
AM_0
 10
110.0859262665813
 20
409.08340324571788
 30
0.0
 11
110.0859262665813
 21
407.87204324571792
 31
0.0
  0
LINE
  5
99C1
  8
AM_0
 10
112.0859262665813
 20
397.47630324571787
 30
0.0
 11
109.0859262665813
 21
397.47630324571787
 31
0.0
  0
LINE
  5
99C2
  8
AM_0
 10
112.0859262665813
 20
399.47629324571778
 30
0.0
 11
109.0859262665813
 21
399.47629324571778
 31
0.0
  0
ARC
  5
99C3
  8
AM_0
 10
109.0859262665813
 20
398.47628324571792
 30
0.0
 40
1.0
 50
179.99999000000221
 51
269.9999969999991
  0
ARC
  5
99C4
  8
AM_0
 10
109.0859262665813
 20
398.47628324571792
 30
0.0
 40
1.0
 50
90.000000000000057
 51
180.000010000001
  0
ARC
  5
99C5
  8
AM_0
 10
112.0859262665813
 20
400.4763032457177
 30
0.0
 40
1.0
 50
269.9999969999991
 51
0.0
  0
ARC
  5
99C6
  8
AM_0
 10
112.0859262665813
 20
396.47629324571778
 30
0.0
 40
1.0
 50
0.0
 51
90.000000000000057
  0
LINE
  5
99C7
  8
AM_0
 10
110.0859262665813
 20
399.08957324571787
 30
0.0
 11
110.0859262665813
 21
397.92868324571788
 31
0.0
  0
ARC
  5
99C8
  8
AM_0
 10
112.0859262665813
 20
386.47629324571778
 30
0.0
 40
1.0
 50
0.0
 51
90.000000000000057
  0
ARC
  5
99C9
  8
AM_0
 10
109.0859262665813
 20
388.47630324571787
 30
0.0
 40
1.0
 50
179.99999000000221
 51
269.9999969999991
  0
LINE
  5
99CA
  8
AM_0
 10
112.0859262665813
 20
389.4762932457179
 30
0.0
 11
109.0859262665813
 21
389.4762932457179
 31
0.0
  0
LINE
  5
99CB
  8
AM_0
 10
112.0859262665813
 20
387.47629324571778
 30
0.0
 11
109.0859262665813
 21
387.47629324571778
 31
0.0
  0
ARC
  5
99CC
  8
AM_0
 10
109.0859262665813
 20
388.47630324571787
 30
0.0
 40
1.0
 50
90.000000000000057
 51
180.000010000001
  0
ARC
  5
99CD
  8
AM_0
 10
112.0859262665813
 20
390.47629324571778
 30
0.0
 40
1.0
 50
269.9999969999991
 51
0.0
  0
LINE
  5
99CE
  8
AM_0
 10
110.0859262665813
 20
387.8630832457178
 30
0.0
 11
110.0859262665813
 21
389.02397324571791
 31
0.0
  0
ARC
  5
99CF
  8
AM_0
 10
112.0859262665813
 20
347.97466324571792
 30
0.0
 40
1.0
 50
269.9999969999991
 51
0.0
  0
LINE
  5
99D0
  8
AM_0
 10
109.86626626658131
 20
347.09113324571791
 30
0.0
 11
108.61760626658121
 21
347.7529932457179
 31
0.0
  0
ARC
  5
99D1
  8
AM_0
 10
109.0859262665813
 20
348.63658324571787
 30
0.0
 40
1.0
 50
179.99999000000221
 51
242.0733999999992
  0
LINE
  5
99D2
  8
AM_0
 10
106.5859262665812
 20
378.32626324571783
 30
0.0
 11
111.2634162665813
 21
378.32626324571783
 31
0.0
  0
LINE
  5
99D3
  8
AM_0
 10
112.0859262665813
 20
379.47630324571787
 30
0.0
 11
109.0859262665813
 21
379.47630324571787
 31
0.0
  0
LINE
  5
99D4
  8
AM_0
 10
112.0859262665813
 20
377.47629324571778
 30
0.0
 11
109.0859262665813
 21
377.47629324571778
 31
0.0
  0
LINE
  5
99D5
  8
AM_0
 10
106.09206029978439
 20
375.48447195665528
 30
0.0
 11
106.5920297822062
 21
375.52448050157722
 31
0.0
  0
LINE
  5
99D6
  8
AM_0
 10
105.5920297822062
 20
378.25446097032722
 30
0.0
 11
106.0920297822063
 21
375.48447195665528
 31
0.0
  0
LINE
  5
99D7
  8
AM_0
 10
106.5859262665812
 20
373.47630324571787
 30
0.0
 11
108.0859262665813
 21
373.34508324571777
 31
0.0
  0
LINE
  5
99D8
  8
AM_0
 10
106.5859262665812
 20
376.19432324571778
 30
0.0
 11
108.0859262665813
 21
376.19432324571778
 31
0.0
  0
ARC
  5
99D9
  8
AM_0
 10
109.0859262665813
 20
378.47629324571778
 30
0.0
 40
1.0
 50
179.99999000000221
 51
269.9999969999991
  0
ARC
  5
99DA
  8
AM_0
 10
112.0859262665813
 20
376.47630324571787
 30
0.0
 40
1.0
 50
0.0
 51
90.000000000000057
  0
LINE
  5
99DB
  8
AM_0
 10
110.0859262665813
 20
377.86919324571778
 30
0.0
 11
110.0859262665813
 21
379.08061324571793
 31
0.0
  0
LINE
  5
99DC
  8
AM_0
 10
112.0859262665813
 20
369.47629324571778
 30
0.0
 11
109.0859262665813
 21
369.47629324571778
 31
0.0
  0
LINE
  5
99DD
  8
AM_0
 10
112.0859262665813
 20
367.47630324571787
 30
0.0
 11
109.0859262665813
 21
367.47630324571787
 31
0.0
  0
ARC
  5
99DE
  8
AM_0
 10
109.0859262665813
 20
368.4762932457179
 30
0.0
 40
1.0
 50
90.000000000000057
 51
180.000010000001
  0
ARC
  5
99DF
  8
AM_0
 10
109.0859262665813
 20
368.4762932457179
 30
0.0
 40
1.0
 50
179.99999000000221
 51
269.9999969999991
  0
ARC
  5
99E0
  8
AM_0
 10
112.0859262665813
 20
370.47630324571787
 30
0.0
 40
1.0
 50
269.9999969999991
 51
0.0
  0
LINE
  5
99E1
  8
AM_0
 10
110.0859262665813
 20
367.85013324571793
 30
0.0
 11
110.0859262665813
 21
369.21292324571777
 31
0.0
  0
ARC
  5
99E2
  8
AM_0
 10
112.0859262665813
 20
366.4762932457179
 30
0.0
 40
1.0
 50
0.0
 51
90.000000000000057
  0
LINE
  5
99E3
  8
AM_0
 10
109.8977562665812
 20
357.86740324571792
 30
0.0
 11
108.6931662665813
 21
358.38187324571783
 31
0.0
  0
LINE
  5
99E4
  8
AM_0
 10
109.94224626658119
 20
359.77736324571782
 30
0.0
 11
108.7919262665813
 21
360.13120324571793
 31
0.0
  0
ARC
  5
99E5
  8
AM_0
 10
109.0859262665813
 20
361.08702324571777
 30
0.0
 40
1.0
 50
179.99999000000221
 51
252.90236999999951
  0
ARC
  5
99E6
  8
AM_0
 10
109.0859262665813
 20
359.30156324571777
 30
0.0
 40
1.0
 50
179.99999000000221
 51
246.87297000000149
  0
LINE
  5
99E7
  8
AM_0
 10
110.2905762665812
 20
357.78709324571793
 30
0.0
 11
112.38591626658121
 21
357.78709324571793
 31
0.0
  0
ARC
  5
99E8
  8
AM_0
 10
112.38591626658121
 20
357.08708324571779
 30
0.0
 40
0.6999999900000002
 50
0.0
 51
90.000000000000057
  0
ARC
  5
99E9
  8
AM_0
 10
110.2905762665812
 20
358.78708324571778
 30
0.0
 40
1.0
 50
246.87297000000149
 51
269.9999969999991
  0
LINE
  5
99EA
  8
AM_0
 10
110.23625626658119
 20
359.73319324571793
 30
0.0
 11
112.0859262665813
 21
359.73319324571793
 31
0.0
  0
ARC
  5
99EB
  8
AM_0
 10
112.0859262665813
 20
360.73319324571793
 30
0.0
 40
1.0
 50
269.9999969999991
 51
0.0
  0
ARC
  5
99EC
  8
AM_0
 10
110.23625626658119
 20
360.73319324571793
 30
0.0
 40
1.0
 50
252.90236999999951
 51
269.9999969999991
  0
LINE
  5
99ED
  8
AM_0
 10
110.0859262665813
 20
358.08341324571779
 30
0.0
 11
110.0859262665813
 21
359.14336324571781
 31
0.0
  0
LINE
  5
99EE
  8
AM_0
 10
109.8517962665812
 20
351.62851324571778
 30
0.0
 11
108.58049626658121
 21
352.37318324571783
 31
0.0
  0
LINE
  5
99EF
  8
AM_0
 10
109.83617626658121
 20
350.51514324571792
 30
0.0
 11
108.5375862665812
 21
351.36670324571787
 31
0.0
  0
ARC
  5
99F0
  8
AM_0
 10
109.0859262665813
 20
352.20297324571783
 30
0.0
 40
1.0
 50
179.99999000000221
 51
236.74526999999921
  0
ARC
  5
99F1
  8
AM_0
 10
109.0859262665813
 20
353.23605324571793
 30
0.0
 40
1.0
 50
179.99999000000221
 51
239.64049999999861
  0
LINE
  5
99F2
  8
AM_0
 10
110.38457626658121
 20
350.35141324571782
 30
0.0
 11
113.0859262665813
 21
350.35141324571782
 31
0.0
  0
LINE
  5
99F3
  8
AM_0
 10
110.35722626658131
 20
351.49138324571783
 30
0.0
 11
112.0859262665813
 21
351.49138324571783
 31
0.0
  0
ARC
  5
99F4
  8
AM_0
 10
112.0859262665813
 20
352.49136324571788
 30
0.0
 40
1.0
 50
269.9999969999991
 51
0.0
  0
LINE
  5
99F5
  8
AM_0
 10
110.0859262665813
 20
350.64584324571791
 30
0.0
 11
110.0859262665813
 21
351.11803324571792
 31
0.0
  0
ARC
  5
99F6
  8
AM_0
 10
110.35722626658131
 20
352.49136324571788
 30
0.0
 40
1.0
 50
239.64049999999861
 51
269.9999969999991
  0
ARC
  5
99F7
  8
AM_0
 10
110.38457626658121
 20
351.35141324571782
 30
0.0
 40
1.0
 50
236.74526999999921
 51
269.9999969999991
  0
LINE
  5
99F8
  8
AM_0
 10
109.8726062665812
 20
344.98148324571793
 30
0.0
 11
108.6333562665812
 21
345.61050324571778
 31
0.0
  0
LINE
  5
99F9
  8
AM_0
 10
109.8483762665812
 20
345.97719324571779
 30
0.0
 11
108.5713362665811
 21
346.74349324571779
 31
0.0
  0
LINE
  5
99FA
  8
AM_0
 10
109.8537462665813
 20
343.86118324571783
 30
0.0
 11
108.5855662665813
 21
344.5941332457179
 31
0.0
  0
ARC
  5
99FB
  8
AM_0
 10
109.0859262665813
 20
347.60098324571783
 30
0.0
 40
1.0
 50
179.99999000000221
 51
239.03339999999869
  0
ARC
  5
99FC
  8
AM_0
 10
109.0859262665813
 20
346.50223324571778
 30
0.0
 40
1.0
 50
179.99999000000221
 51
243.08874000000111
  0
ARC
  5
99FD
  8
AM_0
 10
109.0859262665813
 20
345.45993324571788
 30
0.0
 40
1.0
 50
179.99999000000221
 51
239.9736000000006
  0
LINE
  5
99FE
  8
AM_0
 10
113.0859262665813
 20
343.47630324571782
 30
0.0
 11
114.0859262665813
 21
343.47630324571782
 31
0.0
  0
LINE
  5
99FF
  8
AM_0
 10
110.3251862665812
 20
344.87322324571778
 30
0.0
 11
112.5859262665813
 21
344.87322324571778
 31
0.0
  0
LINE
  5
9A00
  8
AM_0
 10
110.3345862665812
 20
346.97464324571791
 30
0.0
 11
112.0859262665813
 21
346.97464324571791
 31
0.0
  0
LINE
  5
9A01
  8
AM_0
 10
110.3629662665812
 20
345.83470324571789
 30
0.0
 11
113.0859262665813
 21
345.83470324571789
 31
0.0
  0
LINE
  5
9A02
  8
AM_0
 10
110.3541162665813
 20
343.72690324571778
 30
0.0
 11
112.5859262665813
 21
343.72690324571778
 31
0.0
  0
ARC
  5
9A03
  8
AM_0
 10
112.5859262665813
 20
343.22691324571792
 30
0.0
 40
0.5
 50
0.0
 51
90.000000000000057
  0
ARC
  5
9A04
  8
AM_0
 10
112.5859262665813
 20
345.37320324571778
 30
0.0
 40
0.5
 50
269.9999969999991
 51
0.0
  0
LINE
  5
9A05
  8
AM_0
 10
110.0859262665813
 20
343.98013324571792
 30
0.0
 11
110.0859262665813
 21
344.50591324571792
 31
0.0
  0
LINE
  5
9A06
  8
AM_0
 10
110.0859262665813
 20
346.07974324571779
 30
0.0
 11
110.0859262665813
 21
346.62582324571792
 31
0.0
  0
ARC
  5
9A07
  8
AM_0
 10
110.3345862665812
 20
347.97466324571792
 30
0.0
 40
1.0
 50
242.0733999999992
 51
269.9999969999991
  0
ARC
  5
9A08
  8
AM_0
 10
110.3629662665812
 20
346.8346932457178
 30
0.0
 40
1.0
 50
239.03339999999869
 51
269.9999969999991
  0
ARC
  5
9A09
  8
AM_0
 10
110.3251862665812
 20
345.87320324571778
 30
0.0
 40
1.0
 50
243.08874000000111
 51
269.9999969999991
  0
ARC
  5
9A0A
  8
AM_0
 10
110.3541162665813
 20
344.72691324571792
 30
0.0
 40
1.0
 50
239.9736000000006
 51
269.9999969999991
  0
LINE
  5
9A0B
  8
AM_0
 10
262.59202924670092
 20
418.47627404590878
 30
0.0
 11
263.69169863769872
 21
355.47625682850833
 31
0.0
  0
LINE
  5
9A0C
  8
ﾁｭｳｼﾝｾﾝ1
 10
273.59203011003183
 20
434.4762744333388
 30
0.0
 11
273.59203011003183
 21
352.47627216836253
 31
0.0
  0
LINE
  5
9A0D
  8
ｶｸﾚｾﾝ2
 10
278.09203011003183
 20
431.47627443333909
 30
0.0
 11
278.09203011003183
 21
355.47627216836281
 31
0.0
  0
LINE
  5
9A0E
  8
ｶｸﾚｾﾝ2
 10
269.09203011003183
 20
431.47627443333909
 30
0.0
 11
269.09203011003183
 21
355.47627216836281
 31
0.0
  0
LINE
  5
9A0F
  8
AM_0
 10
247.72350344209599
 20
337.94418476730732
 30
0.0
 11
247.72351870021041
 21
449.00836253978309
 31
0.0
  0
LINE
  5
9A1B
  8
AM_0
 10
238.08592626658131
 20
337.47626324571792
 30
0.0
 11
238.08592626658131
 21
449.47628424571781
 31
0.0
  0
LINE
  5
9A8C
  8
AM_0
 10
248.40755937505949
 20
447.82356727649727
 30
0.0
 11
253.6435122598767
 21
418.12897797300798
 31
0.0
1001
GENIUS_GENODEF_13
1002
{
1000
HIER
1070
     0
1002
}
1002
{
1000
MANEDIT
1070
     0
1002
}
1002
{
1000
NOSEL
1070
     0
1002
}
1002
{
1000
BEHIND
1070
     0
1002
}
1002
{
1000
REACTOR
1002
}
1001
GENIUS_GENOBJ-N-CEN_13
1002
{
1000
OWNER
1000
GEN
1002
}
  0
ARC
  5
9A91
  8
AM_0
 10
246.4379433709903
 20
447.47627374571778
 30
0.0
 40
2.0
 50
9.9999917840691595
 51
90.000000000000057
1001
GENIUS_GENOBJ-N-CEN_13
1002
{
1000
OWNER
1000
GEN
1002
}
1001
GENIUS_GENODEF_13
1002
{
1000
HIER
1070
     0
1002
}
1002
{
1000
MANEDIT
1070
     0
1002
}
1002
{
1000
NOSEL
1070
     0
1002
}
1002
{
1000
BEHIND
1070
     0
1002
}
1002
{
1000
OTHER
1070
     0
1002
}
1002
{
1000
REACTOR
1002
}
1001
GENIUS_GENOBJ-N-FIL_13
1002
{
1000
OWNER
1000
GEN
1002
}
  0
LINE
  5
9A92
  8
AM_0
 10
238.08592626658131
 20
449.47627374571778
 30
0.0
 11
246.4379433709903
 21
449.47627374571778
 31
0.0
  0
LINE
  5
9A93
  8
AM_0
 10
261.60933198358498
 20
416.47627404590889
 30
0.0
 11
255.6131278157016
 21
416.47627404590889
 31
0.0
  0
LINE
  5
9A98
  8
AM_0
 10
238.08592626658131
 20
439.47629924571783
 30
0.0
 11
247.7235173906825
 21
439.47627788674311
 31
0.0
  0
LINE
  5
9A99
  8
AM_0
 10
238.08592626658131
 20
425.41373124571783
 30
0.0
 11
247.72351545909439
 21
425.41620267760879
 31
0.0
  0
ARC
  5
9A9A
  8
AM_0
 10
255.6131278157016
 20
418.47627404590878
 30
0.0
 40
2.0
 50
189.9999917840691
 51
269.99999999999989
1001
GENIUS_GENODEF_13
1002
{
1000
HIER
1070
     0
1002
}
1002
{
1000
MANEDIT
1070
     0
1002
}
1002
{
1000
NOSEL
1070
     0
1002
}
1002
{
1000
BEHIND
1070
     0
1002
}
1002
{
1000
OTHER
1070
     0
1002
}
1002
{
1000
REACTOR
1002
}
1001
GENIUS_GENOBJ-N-FIL_13
1002
{
1000
OWNER
1000
GEN
1002
}
  0
LINE
  5
9A9B
  8
AM_0
 10
262.59202951444809
 20
418.47625870605458
 30
0.0
 11
262.81894536527761
 21
431.47625909348483
 31
0.0
  0
ARC
  5
9A9C
  8
AM_0
 10
261.60933198358498
 20
417.47627404590889
 30
0.0
 40
1.0
 50
270.0
 51
0.9999999999902319
1001
GENIUS_GENODEF_13
1002
{
1000
HIER
1070
     0
1002
}
1002
{
1000
MANEDIT
1070
     0
1002
}
1002
{
1000
NOSEL
1070
     0
1002
}
1002
{
1000
BEHIND
1070
     0
1002
}
1002
{
1000
OTHER
1070
     0
1002
}
1002
{
1000
REACTOR
1002
}
1001
GENIUS_GENOBJ-N-FIL_13
1002
{
1000
OWNER
1000
GEN
1002
}
  0
LINE
  5
9AE7
  8
AM_0
 10
261.69139371385268
 20
357.47627216836258
 30
0.0
 11
252.59203234520589
 21
357.47627216836258
 31
0.0
  0
LINE
  5
9AE8
  8
AM_0
 10
248.4075437887937
 20
339.1289771079509
 30
0.0
 11
250.59203234520589
 21
351.51781695482742
 31
0.0
1001
GENIUS_GENODEF_13
1002
{
1000
HIER
1070
     0
1002
}
1002
{
1000
MANEDIT
1070
     0
1002
}
1002
{
1000
NOSEL
1070
     0
1002
}
1002
{
1000
BEHIND
1070
     0
1002
}
1002
{
1000
REACTOR
1002
}
1001
GENIUS_GENOBJ-N-CEN_13
1002
{
1000
OWNER
1000
GEN
1002
}
  0
LINE
  5
9AEE
  8
AM_0
 10
238.08592626658131
 20
361.53632374571799
 30
0.0
 11
247.723506683209
 21
361.53632374571799
 31
0.0
  0
ARC
  5
9AEF
  8
AM_0
 10
252.59203234520589
 20
355.47627216836258
 30
0.0
 40
2.0
 50
90.000000000000057
 51
180.0
1001
GENIUS_GENODEF_13
1002
{
1000
HIER
1070
     0
1002
}
1002
{
1000
MANEDIT
1070
     0
1002
}
1002
{
1000
NOSEL
1070
     0
1002
}
1002
{
1000
BEHIND
1070
     0
1002
}
1002
{
1000
OTHER
1070
     0
1002
}
1002
{
1000
REACTOR
1002
}
1001
GENIUS_GENOBJ-N-FIL_13
1002
{
1000
OWNER
1000
GEN
1002
}
  0
LINE
  5
9AF0
  8
AM_0
 10
250.59203234520589
 20
355.47627216836258
 30
0.0
 11
250.59203234520589
 21
351.51781695482742
 31
0.0
  0
ARC
  5
9AF5
  8
AM_0
 10
246.43792833256981
 20
339.47627374571789
 30
0.0
 40
2.0
 50
270.0
 51
349.99999178406921
1001
GENIUS_GENOBJ-N-CEN_13
1002
{
1000
OWNER
1000
GEN
1002
}
1001
GENIUS_GENOBJ-N-FIL_13
1002
{
1000
OWNER
1000
GEN
1002
}
1001
GENIUS_GENODEF_13
1002
{
1000
HIER
1070
     0
1002
}
1002
{
1000
MANEDIT
1070
     0
1002
}
1002
{
1000
NOSEL
1070
     0
1002
}
1002
{
1000
BEHIND
1070
     0
1002
}
1002
{
1000
OTHER
1070
     0
1002
}
1002
{
1000
REACTOR
1002
}
  0
LINE
  5
9AF6
  8
AM_0
 10
238.08592626658131
 20
347.47627374571789
 30
0.0
 11
247.72350475162449
 21
347.47627374571789
 31
0.0
  0
LINE
  5
9AF7
  8
AM_0
 10
238.08592626658131
 20
337.47627374571789
 30
0.0
 11
246.43792833256981
 21
337.47627374571789
 31
0.0
  0
ARC
  5
9AF8
  8
AM_0
 10
261.69139371385268
 20
355.47627216836258
 30
0.0
 40
2.0
 50
1.000000000000103
 51
90.000000000000057
1001
GENIUS_GENODEF_13
1002
{
1000
HIER
1070
     0
1002
}
1002
{
1000
MANEDIT
1070
     0
1002
}
1002
{
1000
NOSEL
1070
     0
1002
}
1002
{
1000
BEHIND
1070
     0
1002
}
1002
{
1000
OTHER
1070
     0
1002
}
1002
{
1000
REACTOR
1002
}
1001
GENIUS_GENOBJ-N-FIL_13
1002
{
1000
OWNER
1000
GEN
1002
}
  0
LINE
  5
9AF9
  8
AM_0
 10
401.59203386512422
 20
418.47625870605623
 30
0.0
 11
400.49236500963201
 21
355.47627216836258
 31
0.0
  0
LINE
  5
9AFA
  8
ｶｸﾚｾﾝ2
 10
384.0920335372989
 20
431.47627443333909
 30
0.0
 11
384.0920335372989
 21
355.47627216836281
 31
0.0
  0
LINE
  5
9AFB
  8
ｶｸﾚｾﾝ2
 10
393.0920335372989
 20
431.47627443333909
 30
0.0
 11
393.0920335372989
 21
355.47627216836281
 31
0.0
  0
LINE
  5
9AFC
  8
ﾁｭｳｼﾝｾﾝ1
 10
388.5920335372989
 20
434.4762744333388
 30
0.0
 11
388.5920335372989
 21
352.4762721683627
 31
0.0
  0
LINE
  5
9AFD
  8
ﾁｭｳｼﾝｾﾝ1
 10
348.59203234520589
 20
443.47625930210108
 30
0.0
 11
348.59203234520589
 21
343.47625661989218
 31
0.0
  0
LINE
  5
9AFE
  8
AM_0
 10
363.59203279224079
 20
438.47627464195529
 30
0.0
 11
333.59203189817117
 21
438.47627464195529
 31
0.0
  0
LINE
  5
9AFF
  8
AM_0
 10
376.09203316476982
 20
435.47627455254838
 30
0.0
 11
321.0920315256422
 21
435.47627455254838
 31
0.0
  0
LINE
  5
9B00
  8
AM_0
 10
321.0920315256422
 20
435.47627455254838
 30
0.0
 11
321.0920315256422
 21
431.47627443333909
 31
0.0
  0
LINE
  5
9B01
  8
AM_0
 10
333.59203189817117
 20
438.47627464195529
 30
0.0
 11
333.59203189817117
 21
435.47627455254838
 31
0.0
  0
LINE
  5
9B02
  8
AM_0
 10
363.59203279224079
 20
438.47627464195529
 30
0.0
 11
363.59203279224079
 21
435.47627455254838
 31
0.0
  0
LINE
  5
9B03
  8
AM_0
 10
376.09203316476982
 20
435.47627455254838
 30
0.0
 11
376.09203316476982
 21
431.47627443333909
 31
0.0
  0
LINE
  5
9B04
  8
AM_0
 10
401.59203386512422
 20
418.47625870605458
 30
0.0
 11
401.36511774261459
 21
431.4762746580227
 31
0.0
  0
LINE
  5
9B05
  8
AM_0
 10
363.59203279224079
 20
348.4762719597465
 30
0.0
 11
333.59203189817117
 21
348.47627195974633
 31
0.0
  0
LINE
  5
9B06
  8
AM_0
 10
376.09203316476982
 20
351.47627204915341
 30
0.0
 11
321.0920315256422
 21
351.47627204915329
 31
0.0
  0
LINE
  5
9B07
  8
AM_0
 10
321.0920315256422
 20
351.47627204915329
 30
0.0
 11
321.0920315256422
 21
355.47627216836258
 31
0.0
  0
LINE
  5
9B08
  8
AM_0
 10
333.59203189817117
 20
351.47627204915329
 30
0.0
 11
333.59203189817117
 21
348.47627195974633
 31
0.0
  0
LINE
  5
9B09
  8
AM_0
 10
363.59203279224079
 20
351.47627204915341
 30
0.0
 11
363.59203279224079
 21
348.4762719597465
 31
0.0
  0
LINE
  5
9B0A
  8
AM_0
 10
376.09203316476982
 20
351.47627204915341
 30
0.0
 11
376.09203316476982
 21
355.47627216836258
 31
0.0
  0
LINE
  5
9C17
  8
AM_0
 10
114.7759562665812
 20
436.67131056932709
 30
0.0
 11
121.0059362665812
 21
436.67131056932709
 31
0.0
  0
LINE
  5
9C18
  8
AM_0
 10
114.08595626658131
 20
446.48129956932718
 30
0.0
 11
122.08595626658131
 21
446.48129956932718
 31
0.0
  0
LINE
  5
9C19
  8
AM_0
 10
114.08595626658131
 20
446.4763105693271
 30
0.0
 11
122.08595626658131
 21
446.4763105693271
 31
0.0
  0
LINE
  5
9C1A
  8
AM_0
 10
114.7759562665812
 20
350.29131656932708
 30
0.0
 11
121.0059362665812
 21
350.29131656932708
 31
0.0
  0
LINE
  5
9C1B
  8
AM_0
 10
114.08595626658131
 20
340.4812965693273
 30
0.0
 11
122.08595626658131
 21
340.4812965693273
 31
0.0
  0
LINE
  5
9C1C
  8
AM_0
 10
114.08595626658131
 20
340.47630656932722
 30
0.0
 11
122.08595626658131
 21
340.47630656932722
 31
0.0
  0
LINE
  5
9C1D
  8
AM_0
 10
127.4108434828933
 20
356.75633000699122
 30
0.0
 11
122.08595626658131
 21
345.38130656932708
 31
0.0
  0
LINE
  5
9C1E
  8
AM_0
 10
228.2859662665812
 20
354.14128656932718
 30
0.0
 11
224.1359762665812
 21
338.68129656932717
 31
0.0
  0
LINE
  5
9C1F
  8
AM_0
 10
230.08595626658129
 20
337.47630656932722
 30
0.0
 11
230.08595626658129
 21
449.4763105693271
 31
0.0
  0
LINE
  5
9C20
  8
AM_0
 10
122.08595626658131
 20
340.4812965693273
 30
0.0
 11
122.08595626658131
 21
442.92129456932707
 31
0.0
  0
LINE
  5
9C21
  8
AM_0
 10
125.2859662665812
 20
337.19130656932731
 30
0.0
 11
222.2059262665812
 21
337.19130656932731
 31
0.0
  0
LINE
  5
9C22
  8
AM_0
 10
125.37593626658121
 20
331.5912965693272
 30
0.0
 11
159.08595626658129
 21
331.5912965693272
 31
0.0
  0
LINE
  5
9C23
  8
AM_0
 10
125.35597626658119
 20
332.50130656932731
 30
0.0
 11
159.08595626658129
 21
332.50130656932731
 31
0.0
  0
LINE
  5
9C24
  8
AM_0
 10
125.33595626658131
 20
334.35130656932722
 30
0.0
 11
159.08595626658129
 21
334.35130656932722
 31
0.0
  0
ARC
  5
9C25
  8
AM_0
 10
125.3343662665812
 20
336.34444656932732
 30
0.0
 40
1.9931281000000001
 50
189.0388199999997
 51
270.04662699999949
  0
LINE
  5
9C26
  8
AM_0
 10
122.08595626658131
 20
342.6913265693272
 30
0.0
 11
123.39595626658119
 21
333.31131656932718
 31
0.0
  0
LINE
  5
9C27
  8
AM_0
 10
122.0860162665812
 20
342.69128656932719
 30
0.0
 11
123.3759962665812
 21
334.20129656932733
 31
0.0
  0
ARC
  5
9C28
  8
AM_0
 10
125.3486562665813
 20
334.49587656932732
 30
0.0
 40
1.994588
 50
188.49291000000221
 51
270.20924700000091
  0
ARC
  5
9C29
  8
AM_0
 10
125.3706262665813
 20
333.58478656932732
 30
0.0
 40
1.9934921000000001
 50
187.88526000000061
 51
270.15390899999858
  0
ARC
  5
9C2A
  8
AM_0
 10
125.2888362665812
 20
339.18820656932718
 30
0.0
 40
1.9969039999999989
 50
190.58743999999859
 51
269.91652600000037
  0
LINE
  5
9C2B
  8
AM_0
 10
122.08595626658131
 20
344.0412965693273
 30
0.0
 11
123.3659262665812
 21
336.0313065693274
 31
0.0
  0
LINE
  5
9C2C
  8
AM_0
 10
122.08595626658131
 20
345.38129656932722
 30
0.0
 11
123.3259462665813
 21
338.82129656932739
 31
0.0
  0
ARC
  5
9C2D
  8
AM_0
 10
159.08552626658121
 20
336.3517265693273
 30
0.0
 40
2.000407899999999
 50
270.01164999999889
 51
359.98835099999928
  0
LINE
  5
9C2E
  8
AM_0
 10
161.08595626658129
 20
333.59131656932732
 30
0.0
 11
161.08595626658129
 21
337.19130656932731
 31
0.0
  0
ARC
  5
9C2F
  8
AM_0
 10
159.08436626658121
 20
334.50285656932732
 30
0.0
 40
2.0015439999999991
 50
270.04421600000092
 51
359.95578600099913
  0
ARC
  5
9C30
  8
AM_0
 10
159.0846762665812
 20
333.59259656932733
 30
0.0
 40
2.001287899999999
 50
270.03687399999882
 51
359.96312800100111
  0
LINE
  5
9C31
  8
AM_0
 10
230.08595626658129
 20
337.47630656932722
 30
0.0
 11
238.08592626658131
 21
337.47630656932722
 31
0.0
  0
ARC
  5
9C32
  8
AM_0
 10
222.20314626658131
 20
339.18990656932732
 30
0.0
 40
1.9986041000000001
 50
270.08048399999888
 51
345.25728400000048
  0
LINE
  5
9C33
  8
AM_0
 10
224.62593626658131
 20
340.4812965693273
 30
0.0
 11
230.08595626658129
 21
340.4812965693273
 31
0.0
  0
LINE
  5
9C36
  8
AM_0
 10
223.425947379322
 20
357.47627630390411
 30
0.0
 11
124.44590737932511
 21
357.4763007389401
 31
0.0
  0
LINE
  5
9C37
  8
AM_0
 10
223.4259478730587
 20
359.47627630390389
 30
0.0
 11
124.4459078730618
 21
359.47630073893993
 31
0.0
  0
LINE
  5
9C38
  8
AM_0
 10
223.41875034174191
 20
369.4762763056811
 30
0.0
 11
124.44591034174491
 21
369.4763007389397
 31
0.0
  0
LINE
  5
9C39
  8
AM_0
 10
123.7659072015873
 20
356.75633090681038
 30
0.0
 11
226.90592720158409
 21
356.7563054448072
 31
0.0
  0
LINE
  5
9C3A
  8
AM_0
 10
123.54594045035221
 20
369.91624096111372
 30
0.0
 11
227.12016045034909
 21
369.91621539192028
 31
0.0
  0
LINE
  5
9C3B
  8
AM_0
 10
123.54593972704529
 20
366.98631096111382
 30
0.0
 11
227.13157972704209
 21
366.986285389101
 31
0.0
  0
LINE
  5
9C3C
  8
AM_0
 10
223.4330898480053
 20
367.47627630214112
 30
0.0
 11
124.4459098480083
 21
367.4763007389397
 31
0.0
  0
LINE
  5
9C3D
  8
AM_0
 10
123.7659080285912
 20
360.10631090681051
 30
0.0
 11
226.90592802858811
 21
360.10628544480733
 31
0.0
  0
LINE
  5
9C3E
  8
AM_0
 10
123.4159422327661
 20
377.13634099320637
 30
0.0
 11
227.4145201891634
 21
377.13631531925239
 31
0.0
  0
LINE
  5
9C3F
  8
AM_0
 10
123.4159428894136
 20
379.79625099320629
 30
0.0
 11
227.26299534740389
 21
379.79622535665919
 31
0.0
  0
LINE
  5
9C40
  8
AM_0
 10
123.35594471871519
 20
387.20628100801821
 30
0.0
 11
227.47204397221901
 21
387.20625530505191
 31
0.0
  0
LINE
  5
9C41
  8
AM_0
 10
123.3559453432995
 20
389.73631100801799
 30
0.0
 11
227.30875731930581
 21
389.73628534536221
 31
0.0
  0
LINE
  5
9C42
  8
AM_0
 10
223.4292915725195
 20
389.47627630307949
 30
0.0
 11
124.4459152791113
 21
389.47630073893902
 31
0.0
  0
LINE
  5
9C43
  8
AM_0
 10
223.42929107878291
 20
387.4762763030796
 30
0.0
 11
124.4459147853747
 21
387.47630073893907
 31
0.0
  0
LINE
  5
9C44
  8
AM_0
 10
223.4292891038327
 20
379.47627630307983
 30
0.0
 11
124.4459128104281
 21
379.47630073893941
 31
0.0
  0
LINE
  5
9C45
  8
AM_0
 10
223.42928861012089
 20
377.47627630307989
 30
0.0
 11
124.4459123166915
 21
377.47630073893941
 31
0.0
  0
LINE
  5
9C46
  8
AM_0
 10
223.42929256001381
 20
409.47627465976711
 30
0.0
 11
124.44591626658141
 21
409.47627465976723
 31
0.0
  0
LINE
  5
9C47
  8
AM_0
 10
223.42929255998899
 20
407.47627465976728
 30
0.0
 11
124.44591626658141
 21
407.47627465976728
 31
0.0
  0
LINE
  5
9C48
  8
AM_0
 10
223.4292925599926
 20
399.4762746597674
 30
0.0
 11
124.44591626658141
 21
399.4762746597674
 31
0.0
  0
LINE
  5
9C49
  8
AM_0
 10
223.4292925599926
 20
397.4762746597674
 30
0.0
 11
124.44591626658141
 21
397.4762746597674
 31
0.0
  0
LINE
  5
9C4A
  8
AM_0
 10
123.3559462665812
 20
397.21626465976738
 30
0.0
 11
227.3087582425907
 21
397.21626465976738
 31
0.0
  0
LINE
  5
9C4B
  8
AM_0
 10
123.3559462665812
 20
399.74629465976727
 30
0.0
 11
227.47204552008819
 21
399.74629465976727
 31
0.0
  0
LINE
  5
9C4C
  8
AM_0
 10
123.4159462665813
 20
407.15632465976728
 30
0.0
 11
227.26299872457469
 21
407.15632465976728
 31
0.0
  0
LINE
  5
9C4D
  8
AM_0
 10
123.4159462665813
 20
409.8162346597673
 30
0.0
 11
227.4145242229817
 21
409.8162346597673
 31
0.0
  0
LINE
  5
9C4E
  8
AM_0
 10
123.7659162665813
 20
426.84626465976709
 30
0.0
 11
226.90593626658119
 21
426.84626465976709
 31
0.0
  0
LINE
  5
9C4F
  8
AM_0
 10
223.4330962665814
 20
419.47627465976728
 30
0.0
 11
124.44591626658141
 21
419.47627465976728
 31
0.0
  0
LINE
  5
9C50
  8
AM_0
 10
123.5459462665813
 20
419.96626465976738
 30
0.0
 11
227.13158626658131
 21
419.96626465976738
 31
0.0
  0
LINE
  5
9C51
  8
AM_0
 10
123.5459462665813
 20
417.03633465976731
 30
0.0
 11
227.12016626658129
 21
417.03633465976731
 31
0.0
  0
LINE
  5
9C52
  8
AM_0
 10
123.7659162665813
 20
430.19624465976739
 30
0.0
 11
226.90593626658119
 21
430.19624465976739
 31
0.0
  0
LINE
  5
9C53
  8
AM_0
 10
223.41875626658131
 20
417.47627465976723
 30
0.0
 11
124.44591626658141
 21
417.47627465976723
 31
0.0
  0
LINE
  5
9C54
  8
AM_0
 10
223.4259562665813
 20
427.47627465976723
 30
0.0
 11
124.44591626658141
 21
427.47627465976723
 31
0.0
  0
LINE
  5
9C55
  8
AM_0
 10
223.4259562665813
 20
429.47627465976723
 30
0.0
 11
124.44591626658141
 21
429.47627465976723
 31
0.0
  0
LINE
  5
9C56
  8
AM_0
 10
147.58595626658129
 20
355.2513165693274
 30
0.0
 11
230.08595626658129
 21
355.2513165693274
 31
0.0
  0
LINE
  5
9C57
  8
AM_0
 10
147.58595626658129
 20
431.70130156932709
 30
0.0
 11
230.08595626658129
 21
431.70130156932709
 31
0.0
  0
LINE
  5
9C58
  8
AM_0
 10
125.2859662665812
 20
449.76131356932723
 30
0.0
 11
222.2059262665812
 21
449.76131356932723
 31
0.0
  0
LINE
  5
9C59
  8
AM_0
 10
127.415503605865
 20
430.19624465976739
 30
0.0
 11
122.0858962665813
 21
441.57128156932731
 31
0.0
  0
POLYLINE
  5
9C5B
  8
AM_0
 66
     1
 10
0.0
 20
0.0
 30
0.0
  0
VERTEX
  5
9C5C
  8
AM_0
 10
124.4459162665846
 20
393.4763007389389
 30
0.0
 42
0.00039106649
  0
VERTEX
  5
9C5D
  8
AM_0
 10
124.4435561897764
 20
393.16517073952139
 30
0.0
 42
0.00035488198
  0
VERTEX
  5
9C5E
  8
AM_0
 10
124.44166611297319
 20
392.8540607399882
 30
0.0
 42
0.00039706113
  0
VERTEX
  5
9C5F
  8
AM_0
 10
124.44023603616991
 20
392.54295074034121
 30
0.0
 42
0.00038765718
  0
VERTEX
  5
9C60
  8
AM_0
 10
124.4393059593593
 20
392.23181074057072
 30
0.0
 42
0.00040613432
  0
VERTEX
  5
9C61
  8
AM_0
 10
124.4388558825585
 20
391.9207107406819
 30
0.0
 42
0.00035573434
  0
VERTEX
  5
9C62
  8
AM_0
 10
124.43889580575549
 20
391.60960074067202
 30
0.0
 42
0.00038545884
  0
VERTEX
  5
9C63
  8
AM_0
 10
124.4393857289472
 20
391.29847074055101
 30
0.0
 42
0.00035501205
  0
VERTEX
  5
9C64
  8
AM_0
 10
124.4403456521441
 20
390.98736074031399
 30
0.0
 42
0.00040120779
  0
VERTEX
  5
9C65
  8
AM_0
 10
124.44176557531119
 20
390.67613073996353
 30
0.0
 42
0.00038317817
  0
VERTEX
  5
9C66
  8
AM_0
 10
124.4436754985031
 20
390.36500073949202
 30
0.0
 42
0.00035656084
  0
VERTEX
  5
9C67
  8
AM_0
 10
124.44605542166779
 20
390.05376073890432
 30
0.0
 42
0.00040143615
  0
VERTEX
  5
9C68
  8
AM_0
 10
124.4489053448671
 20
389.74266073820098
 30
0.0
  0
SEQEND
  5
9C69
  8
AM_0
  0
LINE
  5
9C6A
  8
AM_0
 10
147.5858962665813
 20
355.25130656932708
 30
0.0
 11
127.4084662665812
 21
356.7513065693272
 31
0.0
  0
ARC
  5
9C6B
  8
AM_0
 10
123.54594008869999
 20
368.4512809611137
 30
0.0
 40
1.465004
 50
89.999985855486855
 51
269.99998285548588
  0
ARC
  5
9C6D
  8
AM_0
 10
123.7585276150744
 20
358.43126090863228
 30
0.0
 40
1.6750160000000001
 50
89.746115855487119
 51
270.25384085548518
  0
ARC
  5
9C6E
  8
AM_0
 10
124.6305376261934
 20
358.47630069336071
 30
0.0
 40
1.0000138999999999
 50
89.691645855486485
 51
270.30832585548802
  0
ARC
  5
9C6F
  8
AM_0
 10
124.63054009487659
 20
368.47630069336037
 30
0.0
 40
1.0000138999999999
 50
89.691645855486485
 51
270.30832585548802
  0
POLYLINE
  5
9C70
  8
AM_0
 66
     1
 10
0.0
 20
0.0
 30
0.0
  0
VERTEX
  5
9C71
  8
AM_0
 10
125.9468197287634
 20
366.99327036841271
 30
0.0
 42
0.00068898288
  0
VERTEX
  5
9C72
  8
AM_0
 10
126.01769958687569
 20
366.4185203509146
 30
0.0
 42
0.00070644354
  0
VERTEX
  5
9C73
  8
AM_0
 10
126.09019944500309
 20
365.84383033301668
 30
0.0
 42
0.00069248071
  0
VERTEX
  5
9C74
  8
AM_0
 10
126.164289303224
 20
365.26952031472621
 30
0.0
 42
0.00069585665
  0
VERTEX
  5
9C75
  8
AM_0
 10
126.2399691614872
 20
364.69538029604308
 30
0.0
 42
0.00068980191
  0
VERTEX
  5
9C76
  8
AM_0
 10
126.3172690197847
 20
364.12138027696028
 30
0.0
 42
0.00072080104
  0
VERTEX
  5
9C77
  8
AM_0
 10
126.3961588781342
 20
363.5475902574849
 30
0.0
 42
0.00071002307
  0
VERTEX
  5
9C78
  8
AM_0
 10
126.4766987365625
 20
362.97412023760222
 30
0.0
 42
0.00072659056
  0
VERTEX
  5
9C79
  8
AM_0
 10
126.5588585950824
 20
362.40102021731951
 30
0.0
 42
0.00069570481
  0
VERTEX
  5
9C7A
  8
AM_0
 10
126.6426784536194
 20
361.8279901966269
 30
0.0
 42
0.00071266935
  0
VERTEX
  5
9C7B
  8
AM_0
 10
126.7281083122207
 20
361.25522017553709
 30
0.0
 42
0.00071614426
  0
VERTEX
  5
9C7C
  8
AM_0
 10
126.81513817092799
 20
360.68288015405221
 30
0.0
 42
0.00072288975
  0
VERTEX
  5
9C7D
  8
AM_0
 10
126.9038480296452
 20
360.11058013215239
 30
0.0
  0
SEQEND
  5
9C7E
  8
AM_0
  0
POLYLINE
  5
9C7F
  8
AM_0
 66
     1
 10
0.0
 20
0.0
 30
0.0
  0
VERTEX
  5
9C80
  8
AM_0
 10
124.4899747186264
 20
387.20592072806221
 30
0.0
 42
0.00076691992
  0
VERTEX
  5
9C81
  8
AM_0
 10
124.5047745661184
 20
386.58815072440848
 30
0.0
 42
0.00073262792
  0
VERTEX
  5
9C82
  8
AM_0
 10
124.52141441365509
 20
385.97056072030051
 30
0.0
 42
0.00076529537
  0
VERTEX
  5
9C83
  8
AM_0
 10
124.5399042611718
 20
385.35289071573618
 30
0.0
 42
0.00075141097
  0
VERTEX
  5
9C84
  8
AM_0
 10
124.560274108706
 20
384.73529071070737
 30
0.0
 42
0.00075841687
  0
VERTEX
  5
9C85
  8
AM_0
 10
124.5825039562822
 20
384.11786070521953
 30
0.0
 42
0.00075711788
  0
VERTEX
  5
9C86
  8
AM_0
 10
124.6066138038385
 20
383.50035069926741
 30
0.0
 42
0.00075976003
  0
VERTEX
  5
9C87
  8
AM_0
 10
124.6326036514244
 20
382.88296069285138
 30
0.0
 42
0.00075797311
  0
VERTEX
  5
9C88
  8
AM_0
 10
124.6604434990375
 20
382.2656806859784
 30
0.0
 42
0.0007482613
  0
VERTEX
  5
9C89
  8
AM_0
 10
124.690173346626
 20
381.6483006786392
 30
0.0
 42
0.00074893561
  0
VERTEX
  5
9C8A
  8
AM_0
 10
124.7217331942761
 20
381.03117067084798
 30
0.0
 42
0.00076039839
  0
VERTEX
  5
9C8B
  8
AM_0
 10
124.755153041951
 20
380.41414066259779
 30
0.0
 42
0.00075618786
  0
VERTEX
  5
9C8C
  8
AM_0
 10
124.7904528896234
 20
379.79710065388332
 30
0.0
  0
SEQEND
  5
9C8D
  8
AM_0
  0
ARC
  5
9C8E
  8
AM_0
 10
123.4159425610886
 20
378.46629099320643
 30
0.0
 40
1.3300049999999981
 50
89.999985855486855
 51
269.99998285548588
  0
ARC
  5
9C8F
  8
AM_0
 10
124.6305425635598
 20
378.4763006933602
 30
0.0
 40
1.0000138999999999
 50
89.691645855486485
 51
270.30832585548802
  0
POLYLINE
  5
9C90
  8
AM_0
 66
     1
 10
0.0
 20
0.0
 30
0.0
  0
VERTEX
  5
9C91
  8
AM_0
 10
124.96416223261549
 20
377.13573061099981
 30
0.0
 42
0.0007337051
  0
VERTEX
  5
9C92
  8
AM_0
 10
125.00830208389699
 20
376.53331060010311
 30
0.0
 42
0.00075211323
  0
VERTEX
  5
9C93
  8
AM_0
 10
125.054241935186
 20
375.93092058876198
 30
0.0
 42
0.0007297491
  0
VERTEX
  5
9C94
  8
AM_0
 10
125.1019717865219
 20
375.32872057697898
 30
0.0
 42
0.00073593041
  0
VERTEX
  5
9C95
  8
AM_0
 10
125.1514516379097
 20
374.72673056476413
 30
0.0
 42
0.00074742739
  0
VERTEX
  5
9C96
  8
AM_0
 10
125.2027214893271
 20
374.12486055210718
 30
0.0
 42
0.00073217363
  0
VERTEX
  5
9C97
  8
AM_0
 10
125.2557813407617
 20
373.52306053900833
 30
0.0
 42
0.00073754168
  0
VERTEX
  5
9C98
  8
AM_0
 10
125.31060119226051
 20
372.92152052547499
 30
0.0
 42
0.00073075073
  0
VERTEX
  5
9C99
  8
AM_0
 10
125.3671810438038
 20
372.32016051150742
 30
0.0
 42
0.00074550816
  0
VERTEX
  5
9C9A
  8
AM_0
 10
125.425520895421
 20
371.71910049710488
 30
0.0
 42
0.00074288416
  0
VERTEX
  5
9C9B
  8
AM_0
 10
125.4856707470483
 20
371.11808048225572
 30
0.0
 42
0.00072504001
  0
VERTEX
  5
9C9C
  8
AM_0
 10
125.5475805987421
 20
370.51733046697223
 30
0.0
 42
0.00074640667
  0
VERTEX
  5
9C9D
  8
AM_0
 10
125.61125045047299
 20
369.91673045125413
 30
0.0
  0
SEQEND
  5
9C9E
  8
AM_0
  0
ARC
  5
9C9F
  8
AM_0
 10
123.3500850310086
 20
388.47130100946481
 30
0.0
 40
1.2650129999999991
 50
89.735575855488491
 51
270.26440685548931
  0
ARC
  5
9CA0
  8
AM_0
 10
124.63054503224291
 20
388.4763006933598
 30
0.0
 40
1.0000138999999999
 50
89.691645855486485
 51
270.30832585548802
  0
LINE
  5
9CA1
  8
AM_0
 10
147.58595626658129
 20
431.70130156932709
 30
0.0
 11
127.4131062665812
 21
430.20130156932709
 31
0.0
  0
POLYLINE
  5
9CA2
  8
AM_0
 66
     1
 10
0.0
 20
0.0
 30
0.0
  0
VERTEX
  5
9CA3
  8
AM_0
 10
124.9641662665813
 20
409.81684465976718
 30
0.0
 42
-0.0007337051
  0
VERTEX
  5
9CA4
  8
AM_0
 10
125.0083062665813
 20
410.41926465976718
 30
0.0
 42
-0.00075211323
  0
VERTEX
  5
9CA5
  8
AM_0
 10
125.0542462665813
 20
411.02165465976742
 30
0.0
 42
-0.0007297491
  0
VERTEX
  5
9CA6
  8
AM_0
 10
125.1019762665813
 20
411.62385465976718
 30
0.0
 42
-0.00073593041
  0
VERTEX
  5
9CA7
  8
AM_0
 10
125.15145626658131
 20
412.22584465976729
 30
0.0
 42
-0.00074742739
  0
VERTEX
  5
9CA8
  8
AM_0
 10
125.20272626658129
 20
412.82771465976708
 30
0.0
 42
-0.00073217363
  0
VERTEX
  5
9CA9
  8
AM_0
 10
125.2557862665813
 20
413.42951465976711
 30
0.0
 42
-0.00073754168
  0
VERTEX
  5
9CAA
  8
AM_0
 10
125.3106062665812
 20
414.03105465976728
 30
0.0
 42
-0.00073075073
  0
VERTEX
  5
9CAB
  8
AM_0
 10
125.3671862665813
 20
414.63241465976711
 30
0.0
 42
-0.00074550816
  0
VERTEX
  5
9CAC
  8
AM_0
 10
125.4255262665812
 20
415.2334746597673
 30
0.0
 42
-0.00074288416
  0
VERTEX
  5
9CAD
  8
AM_0
 10
125.48567626658119
 20
415.8344946597673
 30
0.0
 42
-0.00072504001
  0
VERTEX
  5
9CAE
  8
AM_0
 10
125.54758626658131
 20
416.43524465976731
 30
0.0
 42
-0.00074640667
  0
VERTEX
  5
9CAF
  8
AM_0
 10
125.61125626658119
 20
417.03584465976718
 30
0.0
  0
SEQEND
  5
9CB0
  8
AM_0
  0
POLYLINE
  5
9CB1
  8
AM_0
 66
     1
 10
0.0
 20
0.0
 30
0.0
  0
VERTEX
  5
9CB2
  8
AM_0
 10
124.48997626658129
 20
399.74665465976727
 30
0.0
 42
-0.00076691992
  0
VERTEX
  5
9CB3
  8
AM_0
 10
124.5047762665812
 20
400.36442465976722
 30
0.0
 42
-0.00073262792
  0
VERTEX
  5
9CB4
  8
AM_0
 10
124.5214162665813
 20
400.98201465976729
 30
0.0
 42
-0.00076529537
  0
VERTEX
  5
9CB5
  8
AM_0
 10
124.5399062665812
 20
401.59968465976709
 30
0.0
 42
-0.00075141097
  0
VERTEX
  5
9CB6
  8
AM_0
 10
124.5602762665813
 20
402.2172846597673
 30
0.0
 42
-0.00075841687
  0
VERTEX
  5
9CB7
  8
AM_0
 10
124.5825062665813
 20
402.83471465976709
 30
0.0
 42
-0.00075711788
  0
VERTEX
  5
9CB8
  8
AM_0
 10
124.6066162665813
 20
403.45222465976718
 30
0.0
 42
-0.00075976003
  0
VERTEX
  5
9CB9
  8
AM_0
 10
124.63260626658121
 20
404.0696146597673
 30
0.0
 42
-0.00075797311
  0
VERTEX
  5
9CBA
  8
AM_0
 10
124.6604462665813
 20
404.68689465976729
 30
0.0
 42
-0.0007482613
  0
VERTEX
  5
9CBB
  8
AM_0
 10
124.6901762665813
 20
405.30427465976732
 30
0.0
 42
-0.00074893561
  0
VERTEX
  5
9CBC
  8
AM_0
 10
124.7217362665812
 20
405.9214046597674
 30
0.0
 42
-0.00076039839
  0
VERTEX
  5
9CBD
  8
AM_0
 10
124.7551562665813
 20
406.53843465976729
 30
0.0
 42
-0.00075618786
  0
VERTEX
  5
9CBE
  8
AM_0
 10
124.7904562665813
 20
407.15547465976738
 30
0.0
  0
SEQEND
  5
9CBF
  8
AM_0
  0
POLYLINE
  5
9CC0
  8
AM_0
 66
     1
 10
0.0
 20
0.0
 30
0.0
  0
VERTEX
  5
9CC1
  8
AM_0
 10
124.44591626658141
 20
393.47627465976728
 30
0.0
 42
-0.00039106649
  0
VERTEX
  5
9CC2
  8
AM_0
 10
124.4435562665813
 20
393.78740465976739
 30
0.0
 42
-0.00035488198
  0
VERTEX
  5
9CC3
  8
AM_0
 10
124.44166626658129
 20
394.09851465976732
 30
0.0
 42
-0.00039706113
  0
VERTEX
  5
9CC4
  8
AM_0
 10
124.44023626658119
 20
394.40962465976742
 30
0.0
 42
-0.00038765718
  0
VERTEX
  5
9CC5
  8
AM_0
 10
124.4393062665812
 20
394.72076465976738
 30
0.0
 42
-0.00040613432
  0
VERTEX
  5
9CC6
  8
AM_0
 10
124.4388562665812
 20
395.03186465976728
 30
0.0
 42
-0.00035573434
  0
VERTEX
  5
9CC7
  8
AM_0
 10
124.43889626658139
 20
395.34297465976738
 30
0.0
 42
-0.00038545884
  0
VERTEX
  5
9CC8
  8
AM_0
 10
124.4393862665812
 20
395.65410465976731
 30
0.0
 42
-0.00035501205
  0
VERTEX
  5
9CC9
  8
AM_0
 10
124.4403462665813
 20
395.9652146597673
 30
0.0
 42
-0.00040120779
  0
VERTEX
  5
9CCA
  8
AM_0
 10
124.4417662665812
 20
396.27644465976732
 30
0.0
 42
-0.00038317817
  0
VERTEX
  5
9CCB
  8
AM_0
 10
124.44367626658131
 20
396.58757465976743
 30
0.0
 42
-0.00035656084
  0
VERTEX
  5
9CCC
  8
AM_0
 10
124.44605626658119
 20
396.89881465976742
 30
0.0
 42
-0.00040143615
  0
VERTEX
  5
9CCD
  8
AM_0
 10
124.4489062665813
 20
397.20991465976732
 30
0.0
  0
SEQEND
  5
9CCE
  8
AM_0
  0
ARC
  5
9CCF
  8
AM_0
 10
124.63054626658131
 20
398.47627465976728
 30
0.0
 40
1.0000138999999999
 50
89.691659999999231
 51
270.30834000000073
  0
ARC
  5
9CD0
  8
AM_0
 10
123.3500862665813
 20
398.48127465976728
 30
0.0
 40
1.2650129999999991
 50
89.735578999998495
 51
270.2644099999992
  0
ARC
  5
9CD1
  8
AM_0
 10
124.63054626658131
 20
408.47627465976728
 30
0.0
 40
1.0000138999999999
 50
89.691659999999231
 51
270.30834000000073
  0
ARC
  5
9CD2
  8
AM_0
 10
123.4159462665813
 20
408.48628465976731
 30
0.0
 40
1.3300049999999981
 50
90.000003000000945
 51
270.0
  0
POLYLINE
  5
9CD4
  8
AM_0
 66
     1
 10
0.0
 20
0.0
 30
0.0
  0
VERTEX
  5
9CD5
  8
AM_0
 10
125.9468262665813
 20
419.95930465976733
 30
0.0
 42
-0.00068898288
  0
VERTEX
  5
9CD6
  8
AM_0
 10
126.0177062665812
 20
420.53405465976732
 30
0.0
 42
-0.00070644354
  0
VERTEX
  5
9CD7
  8
AM_0
 10
126.0902062665813
 20
421.10874465976718
 30
0.0
 42
-0.00069248071
  0
VERTEX
  5
9CD8
  8
AM_0
 10
126.1642962665813
 20
421.68305465976732
 30
0.0
 42
-0.00069585665
  0
VERTEX
  5
9CD9
  8
AM_0
 10
126.23997626658129
 20
422.25719465976732
 30
0.0
 42
-0.00068980191
  0
VERTEX
  5
9CDA
  8
AM_0
 10
126.3172762665812
 20
422.83119465976722
 30
0.0
 42
-0.00072080104
  0
VERTEX
  5
9CDB
  8
AM_0
 10
126.3961662665813
 20
423.40498465976708
 30
0.0
 42
-0.00071002307
  0
VERTEX
  5
9CDC
  8
AM_0
 10
126.4767062665813
 20
423.97845465976729
 30
0.0
 42
-0.00072659056
  0
VERTEX
  5
9CDD
  8
AM_0
 10
126.5588662665813
 20
424.55155465976731
 30
0.0
 42
-0.00069570481
  0
VERTEX
  5
9CDE
  8
AM_0
 10
126.64268626658129
 20
425.12458465976732
 30
0.0
 42
-0.00071266935
  0
VERTEX
  5
9CDF
  8
AM_0
 10
126.7281162665813
 20
425.69735465976743
 30
0.0
 42
-0.00071614426
  0
VERTEX
  5
9CE0
  8
AM_0
 10
126.81514626658129
 20
426.26969465976731
 30
0.0
 42
-0.00072288975
  0
VERTEX
  5
9CE1
  8
AM_0
 10
126.9038562665812
 20
426.84199465976718
 30
0.0
  0
SEQEND
  5
9CE2
  8
AM_0
  0
ARC
  5
9CE3
  8
AM_0
 10
123.5459462665813
 20
418.50129465976732
 30
0.0
 40
1.465004
 50
90.000003000000945
 51
270.0
  0
ARC
  5
9CE4
  8
AM_0
 10
124.63054626658131
 20
418.47627465976723
 30
0.0
 40
1.0000138999999999
 50
89.691659999999231
 51
270.30834000000073
  0
ARC
  5
9CE5
  8
AM_0
 10
124.63054626658131
 20
428.47627465976728
 30
0.0
 40
1.0000138999999999
 50
89.691659999999231
 51
270.30834000000073
  0
ARC
  5
9CE6
  8
AM_0
 10
123.7585362665813
 20
428.52131465976731
 30
0.0
 40
1.6750160000000001
 50
89.746145000001235
 51
270.25387000000092
  0
LINE
  5
9CE7
  8
ﾁｭｳｼﾝｾﾝ1
 10
179.08595626658121
 20
352.85127975463058
 30
0.0
 11
179.08595626658121
 21
434.10128275463069
 31
0.0
  0
LINE
  5
9CE8
  8
AM_0
 10
125.37593626658121
 20
455.37129956932711
 30
0.0
 11
159.08595626658129
 21
455.37129956932711
 31
0.0
  0
LINE
  5
9CE9
  8
AM_0
 10
125.35597626658119
 20
454.45130856932718
 30
0.0
 11
159.08595626658129
 21
454.45130856932718
 31
0.0
  0
LINE
  5
9CEA
  8
AM_0
 10
125.33595626658131
 20
452.61130456932699
 30
0.0
 11
159.08595626658129
 21
452.61130456932699
 31
0.0
  0
ARC
  5
9CEB
  8
AM_0
 10
125.29060626658131
 20
447.76230556932711
 30
0.0
 40
1.9990078999999989
 50
90.133450000000266
 51
169.3625899999995
  0
LINE
  5
9CEC
  8
AM_0
 10
122.08595626658131
 20
444.26128356932719
 30
0.0
 11
123.39595626658119
 21
453.64128856932712
 31
0.0
  0
LINE
  5
9CED
  8
AM_0
 10
122.0860162665812
 20
444.26130656932708
 30
0.0
 11
123.3759962665812
 21
452.76129856932732
 31
0.0
  0
LINE
  5
9CEE
  8
AM_0
 10
122.08595626658131
 20
442.92131056932709
 30
0.0
 11
123.3659262665812
 21
450.92130256932711
 31
0.0
  0
LINE
  5
9CEF
  8
AM_0
 10
122.08595626658131
 20
441.5713195693271
 30
0.0
 11
123.3259462665813
 21
448.13131656932711
 31
0.0
  0
ARC
  5
9CF0
  8
AM_0
 10
125.3419362665812
 20
450.61112956932709
 30
0.0
 40
2.0001840999999998
 50
90.171470000000795
 51
171.0790000000008
  0
ARC
  5
9CF1
  8
AM_0
 10
125.3495062665813
 20
452.45397156932711
 30
0.0
 40
1.9973480999999991
 50
89.815319999999133
 51
171.14853000000031
  0
ARC
  5
9CF2
  8
AM_0
 10
125.3780762665812
 20
453.37082656932711
 30
0.0
 40
2.0004758999999992
 50
90.060310000000726
 51
172.22953999999919
  0
LINE
  5
9CF3
  8
AM_0
 10
161.08595626658129
 20
453.37130656932709
 30
0.0
 11
161.08595626658129
 21
449.76131356932723
 31
0.0
  0
ARC
  5
9CF4
  8
AM_0
 10
159.07875626658131
 20
450.6041255693271
 30
0.0
 40
2.0071799999999991
 50
0.2046200000009776
 51
89.795379999999028
  0
ARC
  5
9CF5
  8
AM_0
 10
159.08266626658121
 20
452.44802056932713
 30
0.0
 40
2.003279899999999
 50
0.0937900000003977
 51
89.906209999999604
  0
ARC
  5
9CF6
  8
AM_0
 10
159.0779662665812
 20
453.36329656932708
 30
0.0
 40
2.0080360999999991
 50
0.2287899999994317
 51
89.771210000000551
  0
LINE
  5
9CF7
  8
AM_0
 10
228.58595626658121
 20
431.70129356932728
 30
0.0
 11
224.1359462665813
 21
448.28129556932709
 31
0.0
  0
LINE
  5
9CF9
  8
AM_0
 10
230.08595626658129
 20
347.47630656932711
 30
0.0
 11
238.08592626658131
 21
347.47630656932711
 31
0.0
  0
LINE
  5
9CFA
  8
AM_0
 10
230.08595626658129
 20
361.53629656932731
 30
0.0
 11
238.08592626658131
 21
361.53629656932731
 31
0.0
  0
ARC
  5
9CFC
  8
AM_0
 10
223.42589009487361
 20
368.47627630391861
 30
0.0
 40
1.0000255999999981
 50
269.58945485548588
 51
90.410515855486977
  0
ARC
  5
9CFD
  8
AM_0
 10
223.42594762619041
 20
358.47627630390411
 30
0.0
 40
1.0
 50
269.99998285548588
 51
89.999995855487896
  0
ARC
  5
9D02
  8
AM_0
 10
226.90590744731159
 20
358.43125944481289
 30
0.0
 40
1.675026000120903
 50
270.00067271219689
 51
89.999295998819832
  0
ARC
  5
9D03
  8
AM_0
 10
229.73915626658129
 20
353.75353656932731
 30
0.0
 40
1.5027759999999999
 50
90.122410000000286
 51
165.24357000000069
  0
ARC
  5
9D04
  8
AM_0
 10
227.12590008746
 20
368.44624539050341
 30
0.0
 40
1.460011199999999
 50
269.7752358554871
 51
90.224735855487296
  0
ARC
  5
9D05
  8
AM_0
 10
223.4259124635567
 20
378.47627630391332
 30
0.0
 40
1.000005699999998
 50
269.99998285548588
 51
89.999995855487896
  0
ARC
  5
9D06
  8
AM_0
 10
223.42591493223989
 20
388.47627630391298
 30
0.0
 40
1.000005699999998
 50
269.99998285548588
 51
89.999995855487896
  0
ARC
  5
9D07
  8
AM_0
 10
227.25089895985121
 20
378.46126535964532
 30
0.0
 40
1.3350147999999999
 50
269.73042985548523
 51
90.269555855486772
  0
ARC
  5
9D08
  8
AM_0
 10
227.3128514297687
 20
388.46626534435148
 30
0.0
 40
1.2700266
 50
269.6293158554858
 51
90.370665855487275
  0
LINE
  5
9D09
  8
AM_0
 10
230.08595626658129
 20
425.41629756932713
 30
0.0
 11
238.08592626658131
 21
425.41629756932713
 31
0.0
  0
ARC
  5
9D0A
  8
AM_0
 10
223.42591616658129
 20
398.47627465976728
 30
0.0
 40
1.000005699999998
 50
269.999989999999
 51
90.000003000000945
  0
ARC
  5
9D0B
  8
AM_0
 10
223.42591616658129
 20
408.47627465976728
 30
0.0
 40
1.000005699999998
 50
269.999989999999
 51
90.000003000000945
  0
ARC
  5
9D0C
  8
AM_0
 10
227.31285266658131
 20
398.48628465976731
 30
0.0
 40
1.2700266
 50
269.62932000000001
 51
90.370670000001425
  0
ARC
  5
9D0D
  8
AM_0
 10
227.25090266658131
 20
408.49128465976708
 30
0.0
 40
1.3350147999999999
 50
269.7304299999999
 51
90.269556000001415
  0
ARC
  5
9D0E
  8
AM_0
 10
223.4259562665813
 20
428.47627465976728
 30
0.0
 40
1.0
 50
269.999989999999
 51
90.000003000000945
  0
ARC
  5
9D0F
  8
AM_0
 10
223.4258962665813
 20
418.47627465976723
 30
0.0
 40
1.0000255999999981
 50
269.58947000000001
 51
90.410531000001029
  0
ARC
  5
9D16
  8
AM_0
 10
227.1259062665813
 20
418.50630465976712
 30
0.0
 40
1.460011199999999
 50
269.77524999999991
 51
90.224750000000114
  0
ARC
  5
9D17
  8
AM_0
 10
226.9059160988156
 20
428.52129065976658
 30
0.0
 40
1.675026000120903
 50
270.00068985666701
 51
89.999313143289925
  0
LINE
  5
9D18
  8
AM_0
 10
230.08595626658129
 20
439.47630256932712
 30
0.0
 11
238.08592626658131
 21
439.47630256932712
 31
0.0
  0
LINE
  5
9D19
  8
AM_0
 10
230.08595626658129
 20
449.4763105693271
 30
0.0
 11
238.08592626658131
 21
449.4763105693271
 31
0.0
  0
ARC
  5
9D1A
  8
AM_0
 10
222.20308626658121
 20
447.75917056932718
 30
0.0
 40
2.0021281000000002
 50
15.11669999999812
 51
89.918480000000116
  0
LINE
  5
9D1B
  8
AM_0
 10
224.62593626658131
 20
446.48129956932718
 30
0.0
 11
230.08595626658129
 21
446.48129956932718
 31
0.0
  0
LINE
  5
9D25
  8
ｶｸﾚｾﾝ2
 10
207.58595626658121
 20
424.9762710194812
 30
0.0
 11
133.58595626658121
 21
424.9762710194812
 31
0.0
  0
LINE
  5
9D26
  8
ｶｸﾚｾﾝ2
 10
210.58595626658121
 20
421.9762710194812
 30
0.0
 11
210.58595626658101
 21
364.97627101948137
 31
0.0
  0
ARC
  5
9D27
  8
ｶｸﾚｾﾝ2
 10
207.58595626658121
 20
421.9762710194812
 30
0.0
 40
3.0
 50
0.0
 51
90.0
  0
LINE
  5
9D28
  8
ｶｸﾚｾﾝ2
 10
207.58595626658109
 20
361.97627101948137
 30
0.0
 11
133.58595626658109
 21
361.97627101948137
 31
0.0
  0
ARC
  5
9D29
  8
ｶｸﾚｾﾝ2
 10
207.58595626658121
 20
364.97627101948137
 30
0.0
 40
3.0
 50
270.0
 51
0.0
  0
LINE
  5
9D2A
  8
ｶｸﾚｾﾝ2
 10
130.58595626658109
 20
364.97627101948137
 30
0.0
 11
130.58595626658121
 21
421.9762710194812
 31
0.0
  0
ARC
  5
9D2B
  8
ｶｸﾚｾﾝ2
 10
133.58595626658109
 20
364.97627101948137
 30
0.0
 40
3.0
 50
180.0
 51
270.0
  0
ARC
  5
9D2C
  8
ｶｸﾚｾﾝ2
 10
133.58595626658109
 20
421.9762710194812
 30
0.0
 40
3.0
 50
90.0
 51
180.0
  0
LINE
  5
9E75
  8
ﾁｭｳｼﾝｾﾝ1
 10
600.39601648293501
 20
303.12437105514459
 30
0.0
 11
500.396013800726
 21
303.12437105514471
 31
0.0
  0
POLYLINE
  5
9E76
  8
AM_4
 66
     1
 10
0.0
 20
0.0
 30
0.0
  0
VERTEX
  5
9E77
  8
AM_4
 10
592.39601658352785
 20
278.0704379465883
 30
0.0
  0
VERTEX
  5
9E78
  8
AM_4
 10
592.3911330285797
 20
278.07170491163203
 30
0.0
  0
VERTEX
  5
9E79
  8
AM_4
 10
591.59127147476852
 20
278.24088077530581
 30
0.0
  0
VERTEX
  5
9E7A
  8
AM_4
 10
590.88144360767274
 20
278.3754407077152
 30
0.0
  0
VERTEX
  5
9E7B
  8
AM_4
 10
590.26196060357029
 20
278.49725285705432
 30
0.0
  0
VERTEX
  5
9E7C
  8
AM_4
 10
589.72276109394875
 20
278.61035920332102
 30
0.0
  0
VERTEX
  5
9E7D
  8
AM_4
 10
589.25119057409893
 20
278.71434518446409
 30
0.0
  0
VERTEX
  5
9E7E
  8
AM_4
 10
588.83459453931164
 20
278.80879623843271
 30
0.0
  0
VERTEX
  5
9E7F
  8
AM_4
 10
588.46031848487712
 20
278.89329780317559
 30
0.0
  0
VERTEX
  5
9E80
  8
AM_4
 10
588.11570790608619
 20
278.9674353166418
 30
0.0
  0
VERTEX
  5
9E81
  8
AM_4
 10
587.78810829822964
 20
279.03079421678018
 30
0.0
  0
VERTEX
  5
9E82
  8
AM_4
 10
587.46486515659831
 20
279.08295994153968
 30
0.0
  0
VERTEX
  5
9E83
  8
AM_4
 10
587.13564051172807
 20
279.12521072391132
 30
0.0
  0
VERTEX
  5
9E84
  8
AM_4
 10
586.79936253514097
 20
279.16559597705287
 30
0.0
  0
VERTEX
  5
9E85
  8
AM_4
 10
586.45727593360471
 20
279.2138579091648
 30
0.0
  0
VERTEX
  5
9E86
  8
AM_4
 10
586.11062541388628
 20
279.27973872844723
 30
0.0
  0
VERTEX
  5
9E87
  8
AM_4
 10
585.76065568275396
 20
279.37298064310022
 30
0.0
  0
VERTEX
  5
9E88
  8
AM_4
 10
585.40861144697453
 20
279.50332586132367
 30
0.0
  0
VERTEX
  5
9E89
  8
AM_4
 10
585.05573741331591
 20
279.68051659131822
 30
0.0
  0
VERTEX
  5
9E8A
  8
AM_4
 10
584.70327828854545
 20
279.91429504128348
 30
0.0
  0
VERTEX
  5
9E8B
  8
AM_4
 10
584.35195961367128
 20
280.21036878713488
 30
0.0
  0
VERTEX
  5
9E8C
  8
AM_4
 10
584.00043026666356
 20
280.55830687564742
 30
0.0
  0
VERTEX
  5
9E8D
  8
AM_4
 10
583.64681995973172
 20
280.94364372131099
 30
0.0
  0
VERTEX
  5
9E8E
  8
AM_4
 10
583.28925840508646
 20
281.35191373861608
 30
0.0
  0
VERTEX
  5
9E8F
  8
AM_4
 10
582.92587531493825
 20
281.76865134205241
 30
0.0
  0
VERTEX
  5
9E90
  8
AM_4
 10
582.55480040149655
 20
282.17939094611012
 30
0.0
  0
VERTEX
  5
9E91
  8
AM_4
 10
582.17416337697239
 20
282.56966696527923
 30
0.0
  0
VERTEX
  5
9E92
  8
AM_4
 10
581.78209395357555
 20
282.92501381404992
 30
0.0
  0
VERTEX
  5
9E93
  8
AM_4
 10
581.37766150693517
 20
283.23570858466462
 30
0.0
  0
VERTEX
  5
9E94
  8
AM_4
 10
580.96369406635631
 20
283.5109990803748
 30
0.0
  0
VERTEX
  5
9E95
  8
AM_4
 10
580.54395932456225
 20
283.7648757821845
 30
0.0
  0
VERTEX
  5
9E96
  8
AM_4
 10
580.12222497427672
 20
284.01132917109783
 30
0.0
  0
VERTEX
  5
9E97
  8
AM_4
 10
579.70225870822344
 20
284.26434972811848
 30
0.0
  0
VERTEX
  5
9E98
  8
AM_4
 10
579.28782821912625
 20
284.53792793425072
 30
0.0
  0
VERTEX
  5
9E99
  8
AM_4
 10
578.88270119970844
 20
284.8460542704982
 30
0.0
  0
VERTEX
  5
9E9A
  8
AM_4
 10
578.49064534269382
 20
285.20271921786491
 30
0.0
  0
VERTEX
  5
9E9B
  8
AM_4
 10
578.11337737489396
 20
285.6158450619883
 30
0.0
  0
VERTEX
  5
9E9C
  8
AM_4
 10
577.74441015947286
 20
286.06908130703908
 30
0.0
  0
VERTEX
  5
9E9D
  8
AM_4
 10
577.37520559368159
 20
286.54000926182101
 30
0.0
  0
VERTEX
  5
9E9E
  8
AM_4
 10
576.99722557477185
 20
287.0062102351381
 30
0.0
  0
VERTEX
  5
9E9F
  8
AM_4
 10
576.6019319999956
 20
287.44526553579402
 30
0.0
  0
VERTEX
  5
9EA0
  8
AM_4
 10
576.180786766604
 20
287.83475647259291
 30
0.0
  0
VERTEX
  5
9EA1
  8
AM_4
 10
575.72525177184866
 20
288.1522643543388
 30
0.0
  0
VERTEX
  5
9EA2
  8
AM_4
 10
575.22678891298153
 20
288.37537048983569
 30
0.0
  0
VERTEX
  5
9EA3
  8
AM_4
 10
574.67946502328107
 20
288.48934805651959
 30
0.0
  0
VERTEX
  5
9EA4
  8
AM_4
 10
574.08776668013525
 20
288.51023770635771
 30
0.0
  0
VERTEX
  5
9EA5
  8
AM_4
 10
573.45878539695866
 20
288.46177195994937
 30
0.0
  0
VERTEX
  5
9EA6
  8
AM_4
 10
572.79961268716693
 20
288.36768333789382
 30
0.0
  0
VERTEX
  5
9EA7
  8
AM_4
 10
572.1173400641743
 20
288.2517043607906
 30
0.0
  0
VERTEX
  5
9EA8
  8
AM_4
 10
571.41905904139605
 20
288.1375675492389
 30
0.0
  0
VERTEX
  5
9EA9
  8
AM_4
 10
570.71186113224701
 20
288.04900542383803
 30
0.0
  0
VERTEX
  5
9EAA
  8
AM_4
 10
570.00283785014199
 20
288.00975050518753
 30
0.0
  0
VERTEX
  5
9EAB
  8
AM_4
 10
569.29738857526934
 20
288.03674633747352
 30
0.0
  0
VERTEX
  5
9EAC
  8
AM_4
 10
568.59414415490812
 20
288.1197805592297
 30
0.0
  0
VERTEX
  5
9EAD
  8
AM_4
 10
567.89004330311025
 20
288.2418518325764
 30
0.0
  0
VERTEX
  5
9EAE
  8
AM_4
 10
567.18202473392842
 20
288.38595881963442
 30
0.0
  0
VERTEX
  5
9EAF
  8
AM_4
 10
566.46702716141453
 20
288.53510018252359
 30
0.0
  0
VERTEX
  5
9EB0
  8
AM_4
 10
565.74198929962074
 20
288.67227458336498
 30
0.0
  0
VERTEX
  5
9EB1
  8
AM_4
 10
565.00384986259951
 20
288.7804806842787
 30
0.0
  0
VERTEX
  5
9EB2
  8
AM_4
 10
564.24954756440309
 20
288.84271714738537
 30
0.0
  0
VERTEX
  5
9EB3
  8
AM_4
 10
563.47575812671528
 20
288.84660436679292
 30
0.0
  0
VERTEX
  5
9EB4
  8
AM_4
 10
562.67810530174825
 20
288.79824966455891
 30
0.0
  0
VERTEX
  5
9EB5
  8
AM_4
 10
561.8519498493464
 20
288.70838209472879
 30
0.0
  0
VERTEX
  5
9EB6
  8
AM_4
 10
560.99265252935299
 20
288.58773071134777
 30
0.0
  0
VERTEX
  5
9EB7
  8
AM_4
 10
560.09557410161244
 20
288.44702456846102
 30
0.0
  0
VERTEX
  5
9EB8
  8
AM_4
 10
559.15607532596835
 20
288.29699272011391
 30
0.0
  0
VERTEX
  5
9EB9
  8
AM_4
 10
558.16951696226488
 20
288.14836422035143
 30
0.0
  0
VERTEX
  5
9EBA
  8
AM_4
 10
557.13125977034633
 20
288.0118681232189
 30
0.0
  0
VERTEX
  5
9EBB
  8
AM_4
 10
556.03879250520185
 20
287.89654489006472
 30
0.0
  0
VERTEX
  5
9EBC
  8
AM_4
 10
554.89811590240413
 20
287.80468061144899
 30
0.0
  0
VERTEX
  5
9EBD
  8
AM_4
 10
553.71735869267161
 20
287.73687278523488
 30
0.0
  0
VERTEX
  5
9EBE
  8
AM_4
 10
552.5046496067223
 20
287.69371890928568
 30
0.0
  0
VERTEX
  5
9EBF
  8
AM_4
 10
551.26811737527453
 20
287.67581648146461
 30
0.0
  0
VERTEX
  5
9EC0
  8
AM_4
 10
550.01589072904665
 20
287.68376299963461
 30
0.0
  0
VERTEX
  5
9EC1
  8
AM_4
 10
548.75609839875676
 20
287.71815596165919
 30
0.0
  0
VERTEX
  5
9EC2
  8
AM_4
 10
547.49686911512345
 20
287.77959286540141
 30
0.0
  0
VERTEX
  5
9EC3
  8
AM_4
 10
546.24479574213092
 20
287.86744785558261
 30
0.0
  0
VERTEX
  5
9EC4
  8
AM_4
 10
545.00032767682842
 20
287.97620166435712
 30
0.0
  0
VERTEX
  5
9EC5
  8
AM_4
 10
543.76237844953096
 20
288.09911167073722
 30
0.0
  0
VERTEX
  5
9EC6
  8
AM_4
 10
542.52986159055445
 20
288.22943525373512
 30
0.0
  0
VERTEX
  5
9EC7
  8
AM_4
 10
541.30169063021378
 20
288.36042979236328
 30
0.0
  0
VERTEX
  5
9EC8
  8
AM_4
 10
540.07677909882455
 20
288.48535266563408
 30
0.0
  0
VERTEX
  5
9EC9
  8
AM_4
 10
538.85404052670185
 20
288.59746125255992
 30
0.0
  0
VERTEX
  5
9ECA
  8
AM_4
 10
537.63238844416151
 20
288.69001293215302
 30
0.0
  0
VERTEX
  5
9ECB
  8
AM_4
 10
536.41218725260819
 20
288.75800349763131
 30
0.0
  0
VERTEX
  5
9ECC
  8
AM_4
 10
535.19960483780744
 20
288.8033823990358
 30
0.0
  0
VERTEX
  5
9ECD
  8
AM_4
 10
534.00225995661481
 20
288.82983750061288
 30
0.0
  0
VERTEX
  5
9ECE
  8
AM_4
 10
532.82777136588561
 20
288.84105666660929
 30
0.0
  0
VERTEX
  5
9ECF
  8
AM_4
 10
531.68375782247494
 20
288.84072776127118
 30
0.0
  0
VERTEX
  5
9ED0
  8
AM_4
 10
530.57783808323848
 20
288.83253864884529
 30
0.0
  0
VERTEX
  5
9ED1
  8
AM_4
 10
529.5176309050313
 20
288.8201771935781
 30
0.0
  0
VERTEX
  5
9ED2
  8
AM_4
 10
528.51075504470884
 20
288.80733125971619
 30
0.0
  0
VERTEX
  5
9ED3
  8
AM_4
 10
527.56341757261987
 20
288.79556740325978
 30
0.0
  0
VERTEX
  5
9ED4
  8
AM_4
 10
526.67617881308558
 20
288.77796694722548
 30
0.0
  0
VERTEX
  5
9ED5
  8
AM_4
 10
525.84818740392063
 20
288.7454899063834
 30
0.0
  0
VERTEX
  5
9ED6
  8
AM_4
 10
525.07859198294022
 20
288.6890962955037
 30
0.0
  0
VERTEX
  5
9ED7
  8
AM_4
 10
524.36654118795855
 20
288.59974612935662
 30
0.0
  0
VERTEX
  5
9ED8
  8
AM_4
 10
523.71118365679069
 20
288.46839942271282
 30
0.0
  0
VERTEX
  5
9ED9
  8
AM_4
 10
523.11166802725131
 20
288.28601619034191
 30
0.0
  0
VERTEX
  5
9EDA
  8
AM_4
 10
522.56714293715504
 20
288.04355644701468
 30
0.0
  0
VERTEX
  5
9EDB
  8
AM_4
 10
522.07579224794881
 20
287.73565354519678
 30
0.0
  0
VERTEX
  5
9EDC
  8
AM_4
 10
521.6319407156094
 20
287.3716341881364
 30
0.0
  0
VERTEX
  5
9EDD
  8
AM_4
 10
521.2289483197452
 20
286.96449841677719
 30
0.0
  0
VERTEX
  5
9EDE
  8
AM_4
 10
520.86017503996516
 20
286.527246272063
 30
0.0
  0
VERTEX
  5
9EDF
  8
AM_4
 10
520.51898085587811
 20
286.07287779493748
 30
0.0
  0
VERTEX
  5
9EE0
  8
AM_4
 10
520.19872574709245
 20
285.61439302634471
 30
0.0
  0
VERTEX
  5
9EE1
  8
AM_4
 10
519.89276969321725
 20
285.1647920072279
 30
0.0
  0
VERTEX
  5
9EE2
  8
AM_4
 10
519.59447267386111
 20
284.73707477853088
 30
0.0
  0
VERTEX
  5
9EE3
  8
AM_4
 10
519.29845314093927
 20
284.34060659123861
 30
0.0
  0
VERTEX
  5
9EE4
  8
AM_4
 10
519.00436343559352
 20
283.9702135364987
 30
0.0
  0
VERTEX
  5
9EE5
  8
AM_4
 10
518.71311437127133
 20
283.61708691550018
 30
0.0
  0
VERTEX
  5
9EE6
  8
AM_4
 10
518.42561676142088
 20
283.27241802943161
 30
0.0
  0
VERTEX
  5
9EE7
  8
AM_4
 10
518.14278141949001
 20
282.92739817948171
 30
0.0
  0
VERTEX
  5
9EE8
  8
AM_4
 10
517.86551915892676
 20
282.5732186668393
 30
0.0
  0
VERTEX
  5
9EE9
  8
AM_4
 10
517.59474079317908
 20
282.20107079269309
 30
0.0
  0
VERTEX
  5
9EEA
  8
AM_4
 10
517.33135713569459
 20
281.80214585823211
 30
0.0
  0
VERTEX
  5
9EEB
  8
AM_4
 10
517.07415744083585
 20
281.3712967155069
 30
0.0
  0
VERTEX
  5
9EEC
  8
AM_4
 10
516.81344472662079
 20
280.91802242001569
 30
0.0
  0
VERTEX
  5
9EED
  8
AM_4
 10
516.53740045198185
 20
280.45548357811941
 30
0.0
  0
VERTEX
  5
9EEE
  8
AM_4
 10
516.23420607585194
 20
279.99684079617811
 30
0.0
  0
VERTEX
  5
9EEF
  8
AM_4
 10
515.89204305716305
 20
279.55525468055259
 30
0.0
  0
VERTEX
  5
9EF0
  8
AM_4
 10
515.49909285484785
 20
279.14388583760342
 30
0.0
  0
VERTEX
  5
9EF1
  8
AM_4
 10
515.0435369278382
 20
278.77589487369067
 30
0.0
  0
VERTEX
  5
9EF2
  8
AM_4
 10
514.5135567350676
 20
278.46444239517501
 30
0.0
  0
VERTEX
  5
9EF3
  8
AM_4
 10
513.89861080391915
 20
278.21779982345868
 30
0.0
  0
VERTEX
  5
9EF4
  8
AM_4
 10
513.19326593558503
 20
278.02468184011099
 30
0.0
  0
VERTEX
  5
9EF5
  8
AM_4
 10
512.39336599970807
 20
277.86891394174307
 30
0.0
  0
VERTEX
  5
9EF6
  8
AM_4
 10
511.4947548659315
 20
277.73432162496579
 30
0.0
  0
VERTEX
  5
9EF7
  8
AM_4
 10
510.49327640389839
 20
277.60473038639037
 30
0.0
  0
VERTEX
  5
9EF8
  8
AM_4
 10
509.38477448325227
 20
277.46396572262779
 30
0.0
  0
VERTEX
  5
9EF9
  8
AM_4
 10
508.39601408013289
 20
277.32768172286262
 30
0.0
  0
SEQEND
  5
9EFA
  8
AM_4
  0
LINE
  5
9EFB
  8
AM_0
 10
595.39601399072603
 20
315.82437105514458
 30
0.0
 11
505.39601399072598
 21
315.82437105514458
 31
0.0
  0
POLYLINE
  5
9EFC
  8
AM_4
 66
     1
 10
0.0
 20
0.0
 30
0.0
  0
VERTEX
  5
9EFD
  8
AM_4
 10
592.39601658352785
 20
328.17830416370111
 30
0.0
  0
VERTEX
  5
9EFE
  8
AM_4
 10
592.3911330285797
 20
328.17703719865739
 30
0.0
  0
VERTEX
  5
9EFF
  8
AM_4
 10
591.59127147476852
 20
328.00786133498372
 30
0.0
  0
VERTEX
  5
9F00
  8
AM_4
 10
590.88144360767274
 20
327.87330140257421
 30
0.0
  0
VERTEX
  5
9F01
  8
AM_4
 10
590.26196060357029
 20
327.75148925323521
 30
0.0
  0
VERTEX
  5
9F02
  8
AM_4
 10
589.72276109394875
 20
327.63838290696839
 30
0.0
  0
VERTEX
  5
9F03
  8
AM_4
 10
589.25119057409893
 20
327.53439692582532
 30
0.0
  0
VERTEX
  5
9F04
  8
AM_4
 10
588.83459453931164
 20
327.43994587185671
 30
0.0
  0
VERTEX
  5
9F05
  8
AM_4
 10
588.46031848487712
 20
327.35544430711383
 30
0.0
  0
VERTEX
  5
9F06
  8
AM_4
 10
588.11570790608619
 20
327.28130679364762
 30
0.0
  0
VERTEX
  5
9F07
  8
AM_4
 10
587.78810829822964
 20
327.21794789350918
 30
0.0
  0
VERTEX
  5
9F08
  8
AM_4
 10
587.46486515659831
 20
327.16578216874967
 30
0.0
  0
VERTEX
  5
9F09
  8
AM_4
 10
587.13564051172807
 20
327.12353138637809
 30
0.0
  0
VERTEX
  5
9F0A
  8
AM_4
 10
586.79936253514097
 20
327.08314613323648
 30
0.0
  0
VERTEX
  5
9F0B
  8
AM_4
 10
586.45727593360471
 20
327.03488420112461
 30
0.0
  0
VERTEX
  5
9F0C
  8
AM_4
 10
586.11062541388628
 20
326.96900338184219
 30
0.0
  0
VERTEX
  5
9F0D
  8
AM_4
 10
585.76065568275396
 20
326.87576146718919
 30
0.0
  0
VERTEX
  5
9F0E
  8
AM_4
 10
585.40861144697453
 20
326.74541624896568
 30
0.0
  0
VERTEX
  5
9F0F
  8
AM_4
 10
585.05573741331591
 20
326.56822551897119
 30
0.0
  0
VERTEX
  5
9F10
  8
AM_4
 10
584.70327828854545
 20
326.33444706900588
 30
0.0
  0
VERTEX
  5
9F11
  8
AM_4
 10
584.35195961367128
 20
326.03837332315447
 30
0.0
  0
VERTEX
  5
9F12
  8
AM_4
 10
584.00043026666356
 20
325.690435234642
 30
0.0
  0
VERTEX
  5
9F13
  8
AM_4
 10
583.64681995973172
 20
325.30509838897842
 30
0.0
  0
VERTEX
  5
9F14
  8
AM_4
 10
583.28925840508646
 20
324.89682837167328
 30
0.0
  0
VERTEX
  5
9F15
  8
AM_4
 10
582.92587531493825
 20
324.48009076823712
 30
0.0
  0
VERTEX
  5
9F16
  8
AM_4
 10
582.55480040149655
 20
324.06935116417941
 30
0.0
  0
VERTEX
  5
9F17
  8
AM_4
 10
582.17416337697239
 20
323.6790751450103
 30
0.0
  0
VERTEX
  5
9F18
  8
AM_4
 10
581.78209395357555
 20
323.32372829623949
 30
0.0
  0
VERTEX
  5
9F19
  8
AM_4
 10
581.37766150693517
 20
323.01303352562479
 30
0.0
  0
VERTEX
  5
9F1A
  8
AM_4
 10
580.96369406635631
 20
322.73774302991461
 30
0.0
  0
VERTEX
  5
9F1B
  8
AM_4
 10
580.54395932456225
 20
322.4838663281048
 30
0.0
  0
VERTEX
  5
9F1C
  8
AM_4
 10
580.12222497427672
 20
322.2374129391917
 30
0.0
  0
VERTEX
  5
9F1D
  8
AM_4
 10
579.70225870822344
 20
321.98439238217088
 30
0.0
  0
VERTEX
  5
9F1E
  8
AM_4
 10
579.28782821912625
 20
321.71081417603881
 30
0.0
  0
VERTEX
  5
9F1F
  8
AM_4
 10
578.88270119970844
 20
321.40268783979133
 30
0.0
  0
VERTEX
  5
9F20
  8
AM_4
 10
578.49064534269382
 20
321.04602289242439
 30
0.0
  0
VERTEX
  5
9F21
  8
AM_4
 10
578.11337737489396
 20
320.632897048301
 30
0.0
  0
VERTEX
  5
9F22
  8
AM_4
 10
577.74441015947286
 20
320.17966080325027
 30
0.0
  0
VERTEX
  5
9F23
  8
AM_4
 10
577.37520559368159
 20
319.7087328484684
 30
0.0
  0
VERTEX
  5
9F24
  8
AM_4
 10
576.99722557477185
 20
319.24253187515143
 30
0.0
  0
VERTEX
  5
9F25
  8
AM_4
 10
576.6019319999956
 20
318.80347657449539
 30
0.0
  0
VERTEX
  5
9F26
  8
AM_4
 10
576.180786766604
 20
318.4139856376965
 30
0.0
  0
VERTEX
  5
9F27
  8
AM_4
 10
575.72525177184866
 20
318.09647775595062
 30
0.0
  0
VERTEX
  5
9F28
  8
AM_4
 10
575.22678891298153
 20
317.8733716204539
 30
0.0
  0
VERTEX
  5
9F29
  8
AM_4
 10
574.67946502328107
 20
317.75939405376988
 30
0.0
  0
VERTEX
  5
9F2A
  8
AM_4
 10
574.08776668013525
 20
317.7385044039317
 30
0.0
  0
VERTEX
  5
9F2B
  8
AM_4
 10
573.45878539695866
 20
317.78697015033998
 30
0.0
  0
VERTEX
  5
9F2C
  8
AM_4
 10
572.79961268716693
 20
317.88105877239559
 30
0.0
  0
VERTEX
  5
9F2D
  8
AM_4
 10
572.1173400641743
 20
317.99703774949882
 30
0.0
  0
VERTEX
  5
9F2E
  8
AM_4
 10
571.41905904139605
 20
318.11117456105057
 30
0.0
  0
VERTEX
  5
9F2F
  8
AM_4
 10
570.71186113224701
 20
318.19973668645139
 30
0.0
  0
VERTEX
  5
9F30
  8
AM_4
 10
570.00283785014199
 20
318.238991605102
 30
0.0
  0
VERTEX
  5
9F31
  8
AM_4
 10
569.29738857526934
 20
318.21199577281578
 30
0.0
  0
VERTEX
  5
9F32
  8
AM_4
 10
568.59414415490812
 20
318.12896155105972
 30
0.0
  0
VERTEX
  5
9F33
  8
AM_4
 10
567.89004330311025
 20
318.00689027771301
 30
0.0
  0
VERTEX
  5
9F34
  8
AM_4
 10
567.18202473392842
 20
317.86278329065499
 30
0.0
  0
VERTEX
  5
9F35
  8
AM_4
 10
566.46702716141453
 20
317.71364192776582
 30
0.0
  0
VERTEX
  5
9F36
  8
AM_4
 10
565.74198929962074
 20
317.57646752692438
 30
0.0
  0
VERTEX
  5
9F37
  8
AM_4
 10
565.00384986259951
 20
317.46826142601071
 30
0.0
  0
VERTEX
  5
9F38
  8
AM_4
 10
564.24954756440309
 20
317.40602496290398
 30
0.0
  0
VERTEX
  5
9F39
  8
AM_4
 10
563.47575812671528
 20
317.4021377434965
 30
0.0
  0
VERTEX
  5
9F3A
  8
AM_4
 10
562.67810530174825
 20
317.4504924457305
 30
0.0
  0
VERTEX
  5
9F3B
  8
AM_4
 10
561.8519498493464
 20
317.54036001556062
 30
0.0
  0
VERTEX
  5
9F3C
  8
AM_4
 10
560.99265252935299
 20
317.66101139894158
 30
0.0
  0
VERTEX
  5
9F3D
  8
AM_4
 10
560.09557410161244
 20
317.8017175418284
 30
0.0
  0
VERTEX
  5
9F3E
  8
AM_4
 10
559.15607532596835
 20
317.95174939017562
 30
0.0
  0
VERTEX
  5
9F3F
  8
AM_4
 10
558.16951696226488
 20
318.1003778899381
 30
0.0
  0
VERTEX
  5
9F40
  8
AM_4
 10
557.13125977034633
 20
318.23687398707051
 30
0.0
  0
VERTEX
  5
9F41
  8
AM_4
 10
556.03879250520185
 20
318.3521972202247
 30
0.0
  0
VERTEX
  5
9F42
  8
AM_4
 10
554.89811590240413
 20
318.44406149884043
 30
0.0
  0
VERTEX
  5
9F43
  8
AM_4
 10
553.71735869267161
 20
318.51186932505448
 30
0.0
  0
VERTEX
  5
9F44
  8
AM_4
 10
552.5046496067223
 20
318.55502320100368
 30
0.0
  0
VERTEX
  5
9F45
  8
AM_4
 10
551.26811737527453
 20
318.57292562882492
 30
0.0
  0
VERTEX
  5
9F46
  8
AM_4
 10
550.01589072904665
 20
318.5649791106548
 30
0.0
  0
VERTEX
  5
9F47
  8
AM_4
 10
548.75609839875676
 20
318.53058614863022
 30
0.0
  0
VERTEX
  5
9F48
  8
AM_4
 10
547.49686911512345
 20
318.46914924488811
 30
0.0
  0
VERTEX
  5
9F49
  8
AM_4
 10
546.24479574213092
 20
318.3812942547068
 30
0.0
  0
VERTEX
  5
9F4A
  8
AM_4
 10
545.00032767682842
 20
318.27254044593229
 30
0.0
  0
VERTEX
  5
9F4B
  8
AM_4
 10
543.76237844953096
 20
318.14963043955231
 30
0.0
  0
VERTEX
  5
9F4C
  8
AM_4
 10
542.52986159055445
 20
318.01930685655429
 30
0.0
  0
VERTEX
  5
9F4D
  8
AM_4
 10
541.30169063021378
 20
317.88831231792608
 30
0.0
  0
VERTEX
  5
9F4E
  8
AM_4
 10
540.07677909882455
 20
317.76338944465527
 30
0.0
  0
VERTEX
  5
9F4F
  8
AM_4
 10
538.85404052670185
 20
317.6512808577296
 30
0.0
  0
VERTEX
  5
9F50
  8
AM_4
 10
537.63238844416151
 20
317.5587291781365
 30
0.0
  0
VERTEX
  5
9F51
  8
AM_4
 10
536.41218725260819
 20
317.49073861265811
 30
0.0
  0
VERTEX
  5
9F52
  8
AM_4
 10
535.19960483780744
 20
317.44535971125362
 30
0.0
  0
VERTEX
  5
9F53
  8
AM_4
 10
534.00225995661481
 20
317.41890460967647
 30
0.0
  0
VERTEX
  5
9F54
  8
AM_4
 10
532.82777136588561
 20
317.40768544368012
 30
0.0
  0
VERTEX
  5
9F55
  8
AM_4
 10
531.68375782247494
 20
317.40801434901817
 30
0.0
  0
VERTEX
  5
9F56
  8
AM_4
 10
530.57783808323848
 20
317.41620346144401
 30
0.0
  0
VERTEX
  5
9F57
  8
AM_4
 10
529.5176309050313
 20
317.4285649167112
 30
0.0
  0
VERTEX
  5
9F58
  8
AM_4
 10
528.51075504470884
 20
317.44141085057322
 30
0.0
  0
VERTEX
  5
9F59
  8
AM_4
 10
527.56341757261987
 20
317.45317470702958
 30
0.0
  0
VERTEX
  5
9F5A
  8
AM_4
 10
526.67617881308558
 20
317.47077516306388
 30
0.0
  0
VERTEX
  5
9F5B
  8
AM_4
 10
525.84818740392063
 20
317.50325220390602
 30
0.0
  0
VERTEX
  5
9F5C
  8
AM_4
 10
525.07859198294022
 20
317.55964581478571
 30
0.0
  0
VERTEX
  5
9F5D
  8
AM_4
 10
524.36654118795855
 20
317.64899598093268
 30
0.0
  0
VERTEX
  5
9F5E
  8
AM_4
 10
523.71118365679069
 20
317.78034268757671
 30
0.0
  0
VERTEX
  5
9F5F
  8
AM_4
 10
523.11166802725131
 20
317.96272591994727
 30
0.0
  0
VERTEX
  5
9F60
  8
AM_4
 10
522.56714293715504
 20
318.20518566327468
 30
0.0
  0
VERTEX
  5
9F61
  8
AM_4
 10
522.07579224794881
 20
318.51308856509257
 30
0.0
  0
VERTEX
  5
9F62
  8
AM_4
 10
521.6319407156094
 20
318.87710792215302
 30
0.0
  0
VERTEX
  5
9F63
  8
AM_4
 10
521.2289483197452
 20
319.28424369351222
 30
0.0
  0
VERTEX
  5
9F64
  8
AM_4
 10
520.86017503996516
 20
319.7214958382263
 30
0.0
  0
VERTEX
  5
9F65
  8
AM_4
 10
520.51898085587811
 20
320.17586431535187
 30
0.0
  0
VERTEX
  5
9F66
  8
AM_4
 10
520.19872574709245
 20
320.63434908394493
 30
0.0
  0
VERTEX
  5
9F67
  8
AM_4
 10
519.89276969321725
 20
321.08395010306162
 30
0.0
  0
VERTEX
  5
9F68
  8
AM_4
 10
519.59447267386111
 20
321.51166733175847
 30
0.0
  0
VERTEX
  5
9F69
  8
AM_4
 10
519.29845314093927
 20
321.9081355190508
 30
0.0
  0
VERTEX
  5
9F6A
  8
AM_4
 10
519.00436343559352
 20
322.27852857379071
 30
0.0
  0
VERTEX
  5
9F6B
  8
AM_4
 10
518.71311437127133
 20
322.63165519478918
 30
0.0
  0
VERTEX
  5
9F6C
  8
AM_4
 10
518.42561676142088
 20
322.97632408085792
 30
0.0
  0
VERTEX
  5
9F6D
  8
AM_4
 10
518.14278141949001
 20
323.3213439308077
 30
0.0
  0
VERTEX
  5
9F6E
  8
AM_4
 10
517.86551915892676
 20
323.67552344345012
 30
0.0
  0
VERTEX
  5
9F6F
  8
AM_4
 10
517.59474079317908
 20
324.04767131759633
 30
0.0
  0
VERTEX
  5
9F70
  8
AM_4
 10
517.33135713569459
 20
324.4465962520573
 30
0.0
  0
VERTEX
  5
9F71
  8
AM_4
 10
517.07415744083585
 20
324.87744539478263
 30
0.0
  0
VERTEX
  5
9F72
  8
AM_4
 10
516.81344472662079
 20
325.33071969027372
 30
0.0
  0
VERTEX
  5
9F73
  8
AM_4
 10
516.53740045198185
 20
325.79325853217023
 30
0.0
  0
VERTEX
  5
9F74
  8
AM_4
 10
516.23420607585194
 20
326.25190131411119
 30
0.0
  0
VERTEX
  5
9F75
  8
AM_4
 10
515.89204305716305
 20
326.69348742973659
 30
0.0
  0
VERTEX
  5
9F76
  8
AM_4
 10
515.49909285484785
 20
327.10485627268611
 30
0.0
  0
VERTEX
  5
9F77
  8
AM_4
 10
515.0435369278382
 20
327.47284723659868
 30
0.0
  0
VERTEX
  5
9F78
  8
AM_4
 10
514.5135567350676
 20
327.7842997151144
 30
0.0
  0
VERTEX
  5
9F79
  8
AM_4
 10
513.89861080391915
 20
328.03094228683068
 30
0.0
  0
VERTEX
  5
9F7A
  8
AM_4
 10
513.19326593558503
 20
328.22406027017843
 30
0.0
  0
VERTEX
  5
9F7B
  8
AM_4
 10
512.39336599970807
 20
328.37982816854628
 30
0.0
  0
VERTEX
  5
9F7C
  8
AM_4
 10
511.4947548659315
 20
328.51442048532363
 30
0.0
  0
VERTEX
  5
9F7D
  8
AM_4
 10
510.49327640389839
 20
328.64401172389898
 30
0.0
  0
VERTEX
  5
9F7E
  8
AM_4
 10
509.38477448325227
 20
328.78477638766162
 30
0.0
  0
VERTEX
  5
9F7F
  8
AM_4
 10
508.39601408013289
 20
328.92106038742691
 30
0.0
  0
SEQEND
  5
9F80
  8
AM_4
  0
LINE
  5
9F81
  8
AM_0
 10
565.39601399072603
 20
313.37437105514482
 30
0.0
 11
535.39601399072603
 21
313.37437105514482
 31
0.0
  0
LINE
  5
9F82
  8
AM_0
 10
565.39601399072603
 20
292.87437105514482
 30
0.0
 11
535.39601399072603
 21
292.87437105514482
 31
0.0
  0
LINE
  5
9F83
  8
AM_0
 10
535.39601399072603
 20
292.87437105514482
 30
0.0
 11
535.39601399072603
 21
313.37437105514482
 31
0.0
  0
LINE
  5
9F84
  8
AM_0
 10
505.39601399072598
 20
318.12437150217949
 30
0.0
 11
505.39601399072598
 21
288.12437060810998
 31
0.0
  0
LINE
  5
9F85
  8
AM_0
 10
507.39601399072598
 20
313.12437105514471
 30
0.0
 11
507.39601399072598
 21
293.12437105514471
 31
0.0
  0
LINE
  5
9F86
  8
AM_0
 10
519.24598957666353
 20
292.62437105514482
 30
0.0
 11
519.24598957666353
 21
313.62437105514482
 31
0.0
  0
LINE
  5
9F87
  8
AM_0
 10
520.39601399072603
 20
292.62437105514482
 30
0.0
 11
520.39601399072603
 21
313.62437105514482
 31
0.0
  0
LINE
  5
9F88
  8
AM_0
 10
535.39601399072603
 20
293.12437105514482
 30
0.0
 11
520.39601399072603
 21
293.12437105514482
 31
0.0
  0
LINE
  5
9F89
  8
AM_0
 10
508.39601408013289
 20
277.32768172286262
 30
0.0
 11
508.39601408013289
 21
288.12437060810981
 31
0.0
  0
LINE
  5
9F8A
  8
AM_0
 10
522.74863837943985
 20
288.12437060810998
 30
0.0
 11
505.39601399072598
 21
288.12437060810993
 31
0.0
  0
LINE
  5
9F8B
  8
AM_0
 10
519.24598957666353
 20
293.12437105514482
 30
0.0
 11
507.39601399072598
 21
293.12437105514471
 31
0.0
  0
LINE
  5
9F8C
  8
AM_0
 10
516.396014080133
 20
280.62437105514471
 30
0.0
 11
508.39601408013289
 21
280.62437105514459
 31
0.0
  0
LINE
  5
9F8D
  8
AM_0
 10
516.396014080133
 20
280.62437105514471
 30
0.0
 11
508.39601408013289
 21
288.12437060810981
 31
0.0
  0
LINE
  5
9F8E
  8
AM_0
 10
508.39601408013289
 20
280.62437105514459
 30
0.0
 11
516.396014080133
 21
288.12437060810981
 31
0.0
  0
LINE
  5
9F8F
  8
AM_0
 10
507.39601399072598
 20
293.12437105514482
 30
0.0
 11
505.39601399072598
 21
291.96967051676552
 31
0.0
  0
LINE
  5
9F90
  8
AM_0
 10
516.396014080133
 20
280.62437105514471
 30
0.0
 11
516.396014080133
 21
288.12437060810981
 31
0.0
  0
LINE
  5
9F91
  8
AM_0
 10
520.39601399072603
 20
292.62437105514482
 30
0.0
 11
519.24598957666353
 21
292.62437105514482
 31
0.0
  0
LINE
  5
9F92
  8
AM_0
 10
535.39601399072603
 20
313.12437105514482
 30
0.0
 11
520.39601399072603
 21
313.12437105514482
 31
0.0
  0
LINE
  5
9F93
  8
AM_0
 10
516.396014080133
 20
325.62437105514471
 30
0.0
 11
516.396014080133
 21
318.12437150217971
 31
0.0
  0
LINE
  5
9F94
  8
AM_0
 10
508.39601408013289
 20
328.92106038742691
 30
0.0
 11
508.39601408013289
 21
318.12437150217971
 31
0.0
  0
LINE
  5
9F95
  8
AM_0
 10
508.39601408013289
 20
325.62437105514482
 30
0.0
 11
516.396014080133
 21
318.12437150217971
 31
0.0
  0
LINE
  5
9F96
  8
AM_0
 10
516.396014080133
 20
325.62437105514471
 30
0.0
 11
508.39601408013289
 21
318.12437150217971
 31
0.0
  0
LINE
  5
9F97
  8
AM_0
 10
522.74863837943985
 20
318.12437150217937
 30
0.0
 11
505.39601399072598
 21
318.12437150217949
 31
0.0
  0
LINE
  5
9F98
  8
AM_0
 10
519.24598957666353
 20
313.12437105514482
 30
0.0
 11
507.39601399072598
 21
313.12437105514471
 31
0.0
  0
LINE
  5
9F99
  8
AM_0
 10
507.39601399072598
 20
313.12437105514471
 30
0.0
 11
505.39601399072598
 21
314.27907159352401
 31
0.0
  0
LINE
  5
9F9A
  8
AM_0
 10
520.39601399072603
 20
313.62437105514482
 30
0.0
 11
519.24598957666353
 21
313.62437105514482
 31
0.0
  0
LINE
  5
9F9B
  8
AM_0
 10
516.396014080133
 20
325.62437105514471
 30
0.0
 11
508.39601408013289
 21
325.62437105514482
 31
0.0
  0
LINE
  5
9F9C
  8
AM_0
 10
595.39601667293505
 20
318.12437150217949
 30
0.0
 11
595.39601667293505
 21
288.12437060810998
 31
0.0
  0
LINE
  5
9F9D
  8
AM_0
 10
581.54600788721041
 20
292.62437105514482
 30
0.0
 11
581.54600788721041
 21
313.62437105514482
 31
0.0
  0
LINE
  5
9F9E
  8
AM_0
 10
580.39601399072603
 20
292.62437105514482
 30
0.0
 11
580.39601399072603
 21
313.62437105514482
 31
0.0
  0
LINE
  5
9F9F
  8
AM_0
 10
593.39601399072603
 20
313.12437105514482
 30
0.0
 11
593.39601399072603
 21
293.12437105514482
 31
0.0
  0
LINE
  5
9FA0
  8
AM_0
 10
565.39601399072603
 20
292.87437105514482
 30
0.0
 11
565.39601399072603
 21
313.37437105514482
 31
0.0
  0
LINE
  5
9FA1
  8
ﾁｭｳｼﾝｾﾝ1
 10
550.39601508468763
 20
283.12437105514471
 30
0.0
 11
550.39601519897315
 21
323.12437105514471
 31
0.0
  0
LINE
  5
9FA2
  8
AM_0
 10
580.39601399072603
 20
293.12437105514482
 30
0.0
 11
565.39601399072603
 21
293.12437105514482
 31
0.0
  0
LINE
  5
9FA3
  8
AM_0
 10
592.39601658352785
 20
278.0704379465883
 30
0.0
 11
592.39601658352785
 21
288.12437060810981
 31
0.0
  0
LINE
  5
9FA4
  8
AM_0
 10
595.39601667293505
 20
288.12437060810993
 30
0.0
 11
575.76527149505137
 21
288.12437060810993
 31
0.0
  0
LINE
  5
9FA5
  8
AM_0
 10
593.39601399072603
 20
293.12437105514482
 30
0.0
 11
581.54600788721041
 21
293.12437105514482
 31
0.0
  0
LINE
  5
9FA6
  8
AM_0
 10
592.39601658352785
 20
280.62437105514459
 30
0.0
 11
584.39601658352785
 21
280.62437105514471
 31
0.0
  0
LINE
  5
9FA7
  8
AM_0
 10
592.39601658352785
 20
280.62437105514459
 30
0.0
 11
584.39601658352785
 21
288.12437060810981
 31
0.0
  0
LINE
  5
9FA8
  8
AM_0
 10
584.39601658352785
 20
280.62437105514471
 30
0.0
 11
592.39601658352785
 21
288.12437060810981
 31
0.0
  0
LINE
  5
9FA9
  8
AM_0
 10
584.39601658352785
 20
280.62437105514471
 30
0.0
 11
584.39601658352785
 21
288.12437060810981
 31
0.0
  0
LINE
  5
9FAA
  8
AM_0
 10
581.54600788721041
 20
292.62437105514482
 30
0.0
 11
580.39601399072603
 21
292.62437105514482
 31
0.0
  0
LINE
  5
9FAB
  8
AM_0
 10
593.39601399072603
 20
293.12437105514482
 30
0.0
 11
595.39601399072603
 21
291.96967051676552
 31
0.0
  0
LINE
  5
9FAC
  8
AM_0
 10
580.39601399072603
 20
313.12437105514482
 30
0.0
 11
565.39601399072603
 21
313.12437105514482
 31
0.0
  0
LINE
  5
9FAD
  8
AM_0
 10
592.39601658352785
 20
328.17830416370111
 30
0.0
 11
592.39601658352785
 21
318.12437150217971
 31
0.0
  0
LINE
  5
9FAE
  8
AM_0
 10
584.39601658352785
 20
325.62437105514471
 30
0.0
 11
584.39601658352785
 21
318.12437150217971
 31
0.0
  0
LINE
  5
9FAF
  8
AM_0
 10
584.39601658352785
 20
325.62437105514471
 30
0.0
 11
592.39601658352785
 21
318.12437150217971
 31
0.0
  0
LINE
  5
9FB0
  8
AM_0
 10
592.39601658352785
 20
325.62437105514482
 30
0.0
 11
584.39601658352785
 21
318.12437150217971
 31
0.0
  0
LINE
  5
9FB1
  8
AM_0
 10
595.39601667293505
 20
318.12437150217949
 30
0.0
 11
575.76527149505137
 21
318.12437150217949
 31
0.0
  0
LINE
  5
9FB2
  8
AM_0
 10
593.39601399072603
 20
313.12437105514482
 30
0.0
 11
581.54600788721041
 21
313.12437105514482
 31
0.0
  0
LINE
  5
9FB3
  8
AM_0
 10
581.54600788721041
 20
313.62437105514482
 30
0.0
 11
580.39601399072603
 21
313.62437105514482
 31
0.0
  0
LINE
  5
9FB4
  8
AM_0
 10
593.39601399072603
 20
313.12437105514471
 30
0.0
 11
595.39601399072603
 21
314.27907159352401
 31
0.0
  0
LINE
  5
9FB5
  8
AM_0
 10
592.39601658352785
 20
325.62437105514482
 30
0.0
 11
584.39601658352785
 21
325.62437105514471
 31
0.0
  0
TEXT
  5
A34E
  8
AM_0
 10
502.01583885451868
 20
-47.1742911329668
 30
0.0
 40
10.0
  1
VC01-007MH～VC01-060MH
1001
ACAD
1000
MTEXTBEGIN
1070
    73
1070
     1
1070
    44
1040
1.0
1070
    74
1070
     0
1000
MTEXTEND
  0
VIEWPORT
  5
89
 67
     1
  8
0
 10
210.0
 20
148.5
 30
0.0
 40
420.0
 41
297.0
 68
    -1
 69
     1
1001
ACAD
1000
MVIEW
1002
{
1070
    16
1010
0.0
1020
0.0
1030
0.0
1010
0.0
1020
0.0
1030
1.0
1040
0.0
1040
297.0
1040
221.70154043645701
1040
148.5
1040
50.0
1040
0.0
1040
0.0
1070
     0
1070
   100
1070
     1
1070
     1
1070
     0
1070
     0
1070
     0
1070
     0
1040
0.0
1040
0.0
1040
0.0
1040
10.0
1040
10.0
1040
10.0
1040
10.0
1070
     0
1002
{
1002
}
1002
}
1001
GENIUS_GENOREF_13
1005
1B94
1001
GENIUS_GENSCREG_15
1000
PF
1040
1.0
1000
DF
1040
1.0
1000
MIN
1011
0.0
1021
0.0
1031
0.0
1021
0.0
1031
0.0
1000
MAX
1011
420.0
1021
0.0
1031
0.0
1021
297.0
1031
0.0
1000
FLAGS
1070
     4
  0
ENDSEC
  0
EOF
