  0
SECTION
  2
HEADER
  9
$ACADVER
  1
AC1009
  9
$INSBASE
 10
0.0
 20
0.0
 30
0.0
  9
$EXTMIN
 10
100.5606784948522
 20
-133.28813198809979
 30
-0.0015258207003583
  9
$EXTMAX
 10
705.77537251106696
 20
449.81484567772259
 30
0.0000000349246037
  9
$LIMMIN
 10
0.0
 20
0.0
  9
$LIMMAX
 10
408.0
 20
284.0
  9
$ORTHOMODE
 70
     0
  9
$REGENMODE
 70
     1
  9
$FILLMODE
 70
     1
  9
$QTEXTMODE
 70
     0
  9
$MIRRTEXT
 70
     1
  9
$DRAGMODE
 70
     2
  9
$LTSCALE
 40
1.0
  9
$OSMODE
 70
   551
  9
$ATTMODE
 70
     1
  9
$TEXTSIZE
 40
2.5
  9
$TRACEWID
 40
1.0
  9
$TEXTSTYLE
  7
STANDARD
  9
$CLAYER
  8
AM_0
  9
$CELTYPE
  6
BYLAYER
  9
$CECOLOR
 62
   256
  9
$DIMSCALE
 40
1.0
  9
$DIMASZ
 40
2.5
  9
$DIMEXO
 40
1.0
  9
$DIMDLI
 40
7.0
  9
$DIMRND
 40
0.0
  9
$DIMDLE
 40
0.0
  9
$DIMEXE
 40
1.0
  9
$DIMTP
 40
0.1
  9
$DIMTM
 40
0.1000000001
  9
$DIMTXT
 40
2.5
  9
$DIMCEN
 40
0.0
  9
$DIMTSZ
 40
0.0
  9
$DIMTOL
 70
     0
  9
$DIMLIM
 70
     0
  9
$DIMTIH
 70
     0
  9
$DIMTOH
 70
     0
  9
$DIMSE1
 70
     0
  9
$DIMSE2
 70
     0
  9
$DIMTAD
 70
     3
  9
$DIMZIN
 70
     8
  9
$DIMBLK
  1

  9
$DIMASO
 70
     1
  9
$DIMSHO
 70
     1
  9
$DIMPOST
  1

  9
$DIMAPOST
  1
"
  9
$DIMALT
 70
     0
  9
$DIMALTD
 70
     2
  9
$DIMALTF
 40
0.0393701
  9
$DIMLFAC
 40
1.0
  9
$DIMTOFL
 70
     1
  9
$DIMTVP
 40
0.0
  9
$DIMTIX
 70
     0
  9
$DIMSOXD
 70
     0
  9
$DIMSAH
 70
     0
  9
$DIMBLK1
  1

  9
$DIMBLK2
  1

  9
$DIMSTYLE
  2
AM_JIS
  9
$DIMCLRD
 70
   256
  9
$DIMCLRE
 70
   256
  9
$DIMCLRT
 70
     4
  9
$DIMTFAC
 40
0.71
  9
$DIMGAP
 40
1.0
  9
$LUNITS
 70
     2
  9
$LUPREC
 70
     2
  9
$SKETCHINC
 40
1.0
  9
$FILLETRAD
 40
2.0
  9
$AUNITS
 70
     0
  9
$AUPREC
 70
     3
  9
$MENU
  1
.
  9
$ELEVATION
 40
0.0
  9
$PELEVATION
 40
0.0
  9
$THICKNESS
 40
0.0
  9
$LIMCHECK
 70
     0
  9
$BLIPMODE
 70
     0
  9
$CHAMFERA
 40
2.5
  9
$CHAMFERB
 40
2.5
  9
$SKPOLY
 70
     0
  9
$TDCREATE
 40
2452732.6837268518
  9
$TDUPDATE
 40
2458541.6788338432
  9
$TDINDWG
 40
0.3065900463
  9
$TDUSRTIMER
 40
0.3065898495
  9
$USRTIMER
 70
     1
  9
$ANGBASE
 50
0.0
  9
$ANGDIR
 70
     0
  9
$PDMODE
 70
     0
  9
$PDSIZE
 40
0.0
  9
$PLINEWID
 40
0.0
  9
$COORDS
 70
     1
  9
$SPLFRAME
 70
     0
  9
$SPLINETYPE
 70
     6
  9
$SPLINESEGS
 70
     8
  9
$ATTDIA
 70
     1
  9
$ATTREQ
 70
     1
  9
$HANDLING
 70
     1
  9
$HANDSEED
  5
AB51
  9
$SURFTAB1
 70
     6
  9
$SURFTAB2
 70
     6
  9
$SURFTYPE
 70
     6
  9
$SURFU
 70
     6
  9
$SURFV
 70
     6
  9
$UCSNAME
  2

  9
$UCSORG
 10
0.0
 20
0.0
 30
0.0
  9
$UCSXDIR
 10
1.0
 20
0.0
 30
0.0
  9
$UCSYDIR
 10
0.0
 20
1.0
 30
0.0
  9
$PUCSNAME
  2

  9
$PUCSORG
 10
0.0
 20
0.0
 30
0.0
  9
$PUCSXDIR
 10
1.0
 20
0.0
 30
0.0
  9
$PUCSYDIR
 10
0.0
 20
1.0
 30
0.0
  9
$USERI1
 70
     0
  9
$USERI2
 70
     0
  9
$USERI3
 70
     0
  9
$USERI4
 70
     0
  9
$USERI5
 70
     0
  9
$USERR1
 40
0.0
  9
$USERR2
 40
0.0
  9
$USERR3
 40
0.0
  9
$USERR4
 40
0.0
  9
$USERR5
 40
0.0
  9
$WORLDVIEW
 70
     1
  9
$SHADEDGE
 70
     3
  9
$SHADEDIF
 70
    70
  9
$TILEMODE
 70
     1
  9
$MAXACTVP
 70
    48
  9
$PLIMCHECK
 70
     0
  9
$PEXTMIN
 10
1.0000000000000000E+020
 20
1.0000000000000000E+020
 30
1.0000000000000000E+020
  9
$PEXTMAX
 10
-1.0000000000000000E+020
 20
-1.0000000000000000E+020
 30
-1.0000000000000000E+020
  9
$PLIMMIN
 10
0.0
 20
0.0
  9
$PLIMMAX
 10
420.0
 20
297.0
  9
$UNITMODE
 70
     0
  9
$VISRETAIN
 70
     1
  9
$PLINEGEN
 70
     0
  9
$PSLTSCALE
 70
     1
  0
ENDSEC
  0
SECTION
  2
TABLES
  0
TABLE
  2
VPORT
 70
     1
  0
VPORT
  2
*ACTIVE
 70
     0
 10
0.0
 20
0.0
 11
1.0
 21
1.0
 12
403.16802550295961
 22
158.26335684481131
 13
0.0
 23
0.0
 14
1.0
 24
1.0
 15
10.0
 25
10.0
 16
0.0
 26
0.0
 36
1.0
 17
0.0
 27
0.0
 37
0.0
 40
587.10597293583953
 41
1.7571592210767459
 42
50.0
 43
0.0
 44
0.0
 50
0.0
 51
0.0
 71
     0
 72
   100
 73
     1
 74
     1
 75
     0
 76
     0
 77
     0
 78
     0
  0
ENDTAB
  0
TABLE
  2
LTYPE
 70
    21
  0
LTYPE
  2
CONTINUOUS
 70
     0
  3
Solid line
 72
    65
 73
     0
 40
0.0
  0
LTYPE
  2
HIDDEN
 70
     0
  3
Hidden __ __ __ __ __ __ __ __ __ __ __ __ __ _
 72
    65
 73
     2
 40
9.5249999999999968
 49
6.3499999999999979
 49
-3.174999999999998
  0
LTYPE
  2
PHANTOM2
 70
     0
  3
Phantom (.5x) ___ _ _ ___ _ _ ___ _ _ ___ _ _
 72
    65
 73
     6
 40
31.75
 49
15.875
 49
-3.174999999999998
 49
3.174999999999998
 49
-3.174999999999998
 49
3.174999999999998
 49
-3.174999999999998
  0
LTYPE
  2
CENTER
 70
     0
  3
Center ____ _ ____ _ ____ _ ____ _ ____ _ ____
 72
    65
 73
     4
 40
50.799999999999997
 49
31.75
 49
-6.3499999999999979
 49
6.3499999999999979
 49
-6.3499999999999979
  0
LTYPE
  2
ACANSTGBM
 70
     0
  3
__ . . __ . .
 72
    65
 73
     6
 40
9.0
 49
4.0
 49
-1.0
 49
1.0
 49
-1.0
 49
1.0
 49
-1.0
  0
LTYPE
  2
ACANSTGLM
 70
     0
  3
_ _ _ _ _
 72
    65
 73
     2
 40
3.0
 49
2.0
 49
-1.0
  0
LTYPE
  2
GEN3B
 70
     0
  3
 - - - - -
 72
    65
 73
     2
 40
1.0
 49
0.5
 49
-0.5
  0
LTYPE
  2
GEN7A
 70
     0
  3
__ . __ . __
 72
    65
 73
     4
 40
7.375
 49
4.75
 49
-0.875
 49
0.875
 49
-0.875
  0
LTYPE
  2
AM_ISO02W050
 70
     0
  3
__ __ __ __ __ __ __ __ __ __ __ __ __ __ __
 72
    65
 73
     2
 40
7.5
 49
6.0
 49
-1.5
  0
LTYPE
  2
AM_ISO08W050
 70
     0
  3
____ . ____ . ____ . ____ . ____ . ____ . ____
 72
    65
 73
     4
 40
18.0
 49
12.0
 49
-1.5
 49
3.0
 49
-1.5
  0
LTYPE
  2
AM_ISO09W050
 70
     0
  3
_____ . . _____ . . _____ . . ____ .. ____
 72
    65
 73
     6
 40
22.5
 49
12.0
 49
-1.5
 49
3.0
 49
-1.5
 49
3.0
 49
-1.5
  0
LTYPE
  2
AMCONSTR
 70
     0
  3
_______________________
 72
    65
 73
     2
 40
9999.0
 49
9999.0
 49
0.0
  0
LTYPE
  2
AM_ISO02W050X2
 70
     0
  3
 _ _ _ _ _ _ _ _ _ _ _ _
 72
    65
 73
     2
 40
3.75
 49
3.0
 49
-0.75
  0
LTYPE
  2
AM_ISO08W050X2
 70
     0
  3
__ . __ . __ . __ . __ . __
 72
    65
 73
     4
 40
9.0
 49
6.0
 49
-0.75
 49
1.5
 49
-0.75
  0
LTYPE
  2
AMZIGZAG
 70
     0
  3
/\/-/\/-/\/-/\/-/\/-/\/
 72
    65
 73
     2
 40
11.0001
 49
0.0001
 49
-11.0
  0
LTYPE
  2
ACJISTGB
 70
     0
  3
__ . . __ . .
 72
    65
 73
     6
 40
9.0
 49
4.0
 49
-1.0
 49
1.0
 49
-1.0
 49
1.0
 49
-1.0
  0
LTYPE
  2
ACJISTGL
 70
     0
  3
_ _ _ _ _
 72
    65
 73
     2
 40
3.0
 49
2.0
 49
-1.0
  0
LTYPE
  2
ACISOWELD
 70
     0
  3
_ _ _ _ _
 72
    65
 73
     2
 40
2.0
 49
2.0
 49
-1.0
  0
LTYPE
  2
ACISOTGB
 70
     0
  3
__ . . __ . .
 72
    65
 73
     6
 40
9.0
 49
4.0
 49
-1.0
 49
1.0
 49
-1.0
 49
1.0
 49
-1.0
  0
LTYPE
  2
ACISOTGL
 70
     0
  3
_ _ _ _ _
 72
    65
 73
     2
 40
3.0
 49
2.0
 49
-1.0
  0
ENDTAB
  0
TABLE
  2
LAYER
 70
     8
  0
LAYER
  2
0
 70
     0
 62
     7
  6
CONTINUOUS
  0
LAYER
  2
DEFPOINTS
 70
     0
 62
     7
  6
CONTINUOUS
  0
LAYER
  2
ｶｸﾚｾﾝ2
 70
     0
 62
     3
  6
GEN3B
  0
LAYER
  2
ﾁｭｳｼﾝｾﾝ1
 70
     0
 62
     1
  6
GEN7A
  0
LAYER
  2
AM_0
 70
     0
 62
     7
  6
CONTINUOUS
  0
LAYER
  2
AM_0N
 70
     0
 62
     7
  6
CONTINUOUS
  0
LAYER
  2
AM_5
 70
     0
 62
     2
  6
CONTINUOUS
  0
LAYER
  2
AM_4
 70
     0
 62
     2
  6
CONTINUOUS
  0
ENDTAB
  0
TABLE
  2
STYLE
 70
     8
  0
STYLE
  2
STANDARD
 70
     0
 40
0.0
 41
0.8299999999999999
 50
0.0
 71
     0
 42
2.5
  3
txt.shx
  4
bigfont.shx
  0
STYLE
  2
ACANSTS
 70
     0
 40
1.0
 41
1.0
 50
0.0
 71
     0
 42
2.5
  3
romans.shx
  4
bigfont.shx
  0
STYLE
  2
ACANSGDT
 70
     0
 40
0.0
 41
1.0
 50
0.0
 71
     0
 42
2.5
  3
amgdtans.shx
  4

  0
STYLE
  2

 70
     1
 40
0.0
 41
1.0
 50
0.0
 71
     0
 42
2.5
  3
ltypeshp.shx
  4

  0
STYLE
  2
ACJISTS
 70
     0
 40
1.0
 41
1.0
 50
0.0
 71
     0
 42
2.5
  3
isocp.shx
  4
bigfont.shx
  0
STYLE
  2
ACJISGDT
 70
     0
 40
0.0
 41
1.0
 50
0.0
 71
     0
 42
2.5
  3
amgdt.shx
  4

  0
STYLE
  2
ACISOTS
 70
     0
 40
1.0
 41
1.0
 50
0.0
 71
     0
 42
2.5
  3
isocp.shx
  4
extfont.shx
  0
STYLE
  2
ACISOGDT
 70
     0
 40
0.0
 41
1.0
 50
0.0
 71
     0
 42
2.5
  3
amgdt.shx
  4

  0
ENDTAB
  0
TABLE
  2
VIEW
 70
    12
  0
VIEW
  2
GEN1
 70
     0
 40
95.824742268041234
 10
71.5
 20
137.08762886597941
 41
143.0
 11
0.0
 21
0.0
 31
1.0
 12
0.0
 22
0.0
 32
0.0
 42
50.0
 43
0.0
 44
0.0
 50
0.0
 71
     0
  0
VIEW
  2
GEN2
 70
     0
 40
95.824742268041234
 10
214.5
 20
137.08762886597941
 41
143.0
 11
0.0
 21
0.0
 31
1.0
 12
0.0
 22
0.0
 32
0.0
 42
50.0
 43
0.0
 44
0.0
 50
0.0
 71
     0
  0
VIEW
  2
GEN3
 70
     0
 40
95.824742268041234
 10
71.5
 20
47.912371134020603
 41
143.0
 11
0.0
 21
0.0
 31
1.0
 12
0.0
 22
0.0
 32
0.0
 42
50.0
 43
0.0
 44
0.0
 50
0.0
 71
     0
  0
VIEW
  2
GEN4
 70
     0
 40
95.824742268041234
 10
214.5
 20
47.912371134020603
 41
143.0
 11
0.0
 21
0.0
 31
1.0
 12
0.0
 22
0.0
 32
0.0
 42
50.0
 43
0.0
 44
0.0
 50
0.0
 71
     0
  0
VIEW
  2
GEN5
 70
     0
 40
95.824742268041234
 10
143.0
 20
92.500000000000057
 41
143.0
 11
0.0
 21
0.0
 31
1.0
 12
0.0
 22
0.0
 32
0.0
 42
50.0
 43
0.0
 44
0.0
 50
0.0
 71
     0
  0
VIEW
  2
GEN6
 70
     0
 40
191.64756804123709
 10
143.0
 20
92.5
 41
285.99714
 11
0.0
 21
0.0
 31
1.0
 12
0.0
 22
0.0
 32
0.0
 42
50.0
 43
0.0
 44
0.0
 50
0.0
 71
     0
  0
VIEW
  2
AM_VIEW1
 70
     0
 40
142.0
 10
119.7777777777778
 20
213.0
 41
239.5555555555556
 11
0.0
 21
0.0
 31
1.0
 12
0.0
 22
0.0
 32
0.0
 42
50.0
 43
0.0
 44
0.0
 50
0.0
 71
     0
  0
VIEW
  2
AM_VIEW2
 70
     0
 40
142.0
 10
288.22222222222211
 20
213.0
 41
239.5555555555556
 11
0.0
 21
0.0
 31
1.0
 12
0.0
 22
0.0
 32
0.0
 42
50.0
 43
0.0
 44
0.0
 50
0.0
 71
     0
  0
VIEW
  2
AM_VIEW3
 70
     0
 40
142.0
 10
119.7777777777778
 20
71.0
 41
239.5555555555556
 11
0.0
 21
0.0
 31
1.0
 12
0.0
 22
0.0
 32
0.0
 42
50.0
 43
0.0
 44
0.0
 50
0.0
 71
     0
  0
VIEW
  2
AM_VIEW4
 70
     0
 40
142.0
 10
288.22222222222211
 20
71.0
 41
239.5555555555556
 11
0.0
 21
0.0
 31
1.0
 12
0.0
 22
0.0
 32
0.0
 42
50.0
 43
0.0
 44
0.0
 50
0.0
 71
     0
  0
VIEW
  2
AM_VIEW5
 70
     0
 40
142.0
 10
204.0
 20
142.0
 41
239.5555555555556
 11
0.0
 21
0.0
 31
1.0
 12
0.0
 22
0.0
 32
0.0
 42
50.0
 43
0.0
 44
0.0
 50
0.0
 71
     0
  0
VIEW
  2
AM_VIEW6
 70
     0
 40
283.99716000000001
 10
204.0
 20
142.0
 41
479.10631999999993
 11
0.0
 21
0.0
 31
1.0
 12
0.0
 22
0.0
 32
0.0
 42
50.0
 43
0.0
 44
0.0
 50
0.0
 71
     0
  0
ENDTAB
  0
TABLE
  2
UCS
 70
     0
  0
ENDTAB
  0
TABLE
  2
APPID
 70
    95
  0
APPID
  2
ACAD
 70
     0
  0
APPID
  2
MCAD_NO_VIS
 70
     0
  0
APPID
  2
ACAD_TEMP_GRAPHIC
 70
     0
  0
APPID
  2
AD_DRAW
 70
     0
  0
APPID
  2
DESIGNERASSEMBLIES
 70
     0
  0
APPID
  2
ASURF_PCURVE_APPNAME
 70
     0
  0
APPID
  2
GENIUS_GE3SECT_13
 70
     0
  0
APPID
  2
GENIUS_GENCFG_13
 70
     0
  0
APPID
  2
GENIUS_GE3CFG0_13
 70
     0
  0
APPID
  2
GENIUS_GENCFG0_13
 70
     0
  0
APPID
  2
GENIUS_GENCFG1_13
 70
     0
  0
APPID
  2
GENIUS_GENCFG2_13
 70
     0
  0
APPID
  2
GENIUS_GENCFG3_13
 70
     0
  0
APPID
  2
GENIUS_GENCFG4_13
 70
     0
  0
APPID
  2
GENIUS_GEVCFG0_13
 70
     0
  0
APPID
  2
GENIUS_GENOENT_13
 70
     0
  0
APPID
  2
GENIUS_GENREC_14
 70
     0
  0
APPID
  2
GENIUS_GENODEF_13
 70
     0
  0
APPID
  2
GENIUS_GENOBJ-N-REC_13
 70
     0
  0
APPID
  2
GENIUS_GENHINW_13
 70
     0
  0
APPID
  2
GENIUS_FIRSTVISTXT_14
 70
     0
  0
APPID
  2
GENIUS_GENOBJ-N-LEADER_13
 70
     0
  0
APPID
  2
GENIUS_GENOREF_13
 70
     0
  0
APPID
  2
GENIUS_GENOLIS_13
 70
     0
  0
APPID
  2
GEV_VCCNULL_SWITCH_OFF
 70
     0
  0
APPID
  2
GENIUS_GENDTOL_13
 70
     0
  0
APPID
  2
GENIUS_GEFCFG0_13
 70
     0
  0
APPID
  2
GENIUS_GENOBJ-N-TIT_13
 70
     0
  0
APPID
  2
GENIUS_GENTITLE_13
 70
     0
  0
APPID
  2
GENIUS_GENZVEED_13
 70
     0
  0
APPID
  2
GENIUS_GENOBJ-N-SDF_13
 70
     0
  0
APPID
  2
GENIUS_GENSCREG_13
 70
     0
  0
APPID
  2
GENIUS_DUMCFG0_13
 70
     0
  0
APPID
  2
GEVID936201362
 70
     0
  0
APPID
  2
GEVDC
 70
     0
  0
APPID
  2
GEVCON
 70
     0
  0
APPID
  2
VCC
 70
     0
  0
APPID
  2
GEVPT
 70
     0
  0
APPID
  2
GEVIT
 70
     0
  0
APPID
  2
GENBH
 70
     0
  0
APPID
  2
GEVMK
 70
     0
  0
APPID
  2
GENIUS_GENBH_13
 70
     0
  0
APPID
  2
GENIUS_GENOBJ-NBEHI-BHF_13
 70
     0
  0
APPID
  2
GENIUS_GENOBJ-NBEHI-BHB_13
 70
     0
  0
APPID
  2
GENIUS_GENOBJ-F-DESC_13
 70
     0
  0
APPID
  2
GENIUS_GEFDESC_14
 70
     0
  0
APPID
  2
GENIUS_GENOBJ-F-PART_13
 70
     0
  0
APPID
  2
GENIUS_GEFSTDP_13
 70
     0
  0
APPID
  2
GENIUS_GEFPARTINS_13
 70
     0
  0
APPID
  2
GENIUS_GENTRA_14
 70
     0
  0
APPID
  2
GENIUS_GENINF13_13
 70
     0
  0
APPID
  2
GENIUS_GENOBJ-N-INFOPT_13
 70
     0
  0
APPID
  2
GENIUS_GENOBJ-N-RSSYM_13
 70
     0
  0
APPID
  2
GENIUS_GENSYMENT_13
 70
     0
  0
APPID
  2
GENIUS_GENSCSYM_13
 70
     0
  0
APPID
  2
GENIUS_GEFINFNAM_13
 70
     0
  0
APPID
  2
GENIUS_GENSCREG_15
 70
     0
  0
APPID
  2
GENIUS_GENOBJ-N-CEN_13
 70
     0
  0
APPID
  2
GENIUS_GENOBJ-N-CRS_13
 70
     0
  0
APPID
  2
GENIUS_GENOBJ-N-CRC_13
 70
     0
  0
APPID
  2
GENIUS_GENCRC_14
 70
     0
  0
APPID
  2
GEVID942827039
 70
     0
  0
APPID
  2
GEVID942827040
 70
     0
  0
APPID
  2
GEVID942827041
 70
     0
  0
APPID
  2
GENIUS_GENOBJ-F-SCPASSM_13
 70
     0
  0
APPID
  2
GENIUS_GENDIMSH_14
 70
     0
  0
APPID
  2
GENIUS_GENFIL_13
 70
     0
  0
APPID
  2
GENIUS_GENOBJ-N-CHA_13
 70
     0
  0
APPID
  2
GENIUS_GENOBJ-N-FIL_13
 70
     0
  0
APPID
  2
GEVID942827042
 70
     0
  0
APPID
  2
GEVID946020473
 70
     0
  0
APPID
  2
GEVID946020474
 70
     0
  0
APPID
  2
GEVID946020475
 70
     0
  0
APPID
  2
GENIUS_GENOBJ-N-HTC_13
 70
     0
  0
APPID
  2
GENIUS_GENHATCH_13
 70
     0
  0
APPID
  2
GEVID948854295
 70
     0
  0
APPID
  2
GEVID939402019
 70
     0
  0
APPID
  2
GEVID952919491
 70
     0
  0
APPID
  2
GEVID952919492
 70
     0
  0
APPID
  2
GENIUS_GEFWELD_13
 70
     0
  0
APPID
  2
GENIUS_GENOBJ-F-WELS_13
 70
     0
  0
APPID
  2
GEVID952919493
 70
     0
  0
APPID
  2
GENIUS_GENOBJ-N-RSBK_13
 70
     0
  0
APPID
  2
GENIUS_GENOBJ-N-LIB_13
 70
     0
  0
APPID
  2
GENIUS_GENSCALE_13
 70
     0
  0
APPID
  2
GEVID986376691
 70
     0
  0
APPID
  2
ACATTRIBSERVICES
 70
     0
  0
APPID
  2
ACADM_DIM_EDIT
 70
     0
  0
APPID
  2
AMDT_DM_ADJ
 70
     0
  0
APPID
  2
ACAD_MLEADERVER
 70
     0
  0
APPID
  2
ACAD_DSTYLE_DIMBREAK
 70
     0
  0
APPID
  2
ACAD_DSTYLE_DIMJAG
 70
     0
  0
APPID
  2
ACAD_NAV_VCDISPLAY
 70
     0
  0
APPID
  2
ACADANNOPO
 70
     0
  0
APPID
  2
ACAD_EXEMPT_FROM_CAD_STANDARDS
 70
     0
  0
ENDTAB
  0
TABLE
  2
DIMSTYLE
 70
    15
  0
DIMSTYLE
  2
STANDARD
 70
     0
  3

  4

  5

  6

  7

 40
1.0
 41
0.18
 42
0.0625
 43
0.38
 44
0.18
 45
0.0
 46
0.0
 47
0.0
 48
0.0
140
0.18
141
0.09
142
0.0
143
25.399999999999999
144
1.0
145
0.0
146
1.0
147
0.09
 71
     0
 72
     0
 73
     1
 74
     1
 75
     0
 76
     0
 77
     0
 78
     0
170
     0
171
     2
172
     0
173
     0
174
     0
175
     0
176
     0
177
     0
178
     0
  0
DIMSTYLE
  2
AM_JIS
 70
     0
  3

  4
"
  5

  6

  7

 40
1.0
 41
2.5
 42
1.0
 43
7.0
 44
1.0
 45
0.0
 46
0.0
 47
0.1
 48
0.1000000001
140
2.5
141
0.0
142
0.0
143
0.0393701
144
1.0
145
0.0
146
0.71
147
1.0
 71
     0
 72
     0
 73
     0
 74
     0
 75
     0
 76
     0
 77
     3
 78
     8
170
     0
171
     2
172
     1
173
     0
174
     0
175
     0
176
   256
177
   256
178
     4
  0
DIMSTYLE
  2
AM_JIS$3
 70
     0
  3

  4
"
  5

  6

  7

 40
1.0
 41
2.5
 42
1.0
 43
7.0
 44
1.0
 45
0.0
 46
0.0
 47
0.1
 48
0.1000000001
140
2.5
141
0.0
142
0.0
143
0.0393701
144
1.0
145
0.0
146
0.71
147
1.0
 71
     0
 72
     0
 73
     0
 74
     1
 75
     0
 76
     0
 77
     3
 78
     8
170
     0
171
     2
172
     0
173
     0
174
     0
175
     0
176
   256
177
   256
178
     4
  0
DIMSTYLE
  2
AM_JIS$4
 70
     0
  3

  4
"
  5

  6

  7

 40
1.0
 41
2.5
 42
1.0
 43
7.0
 44
1.0
 45
0.0
 46
0.0
 47
0.1
 48
0.1000000001
140
2.5
141
0.0
142
0.0
143
0.0393701
144
1.0
145
0.0
146
0.71
147
1.0
 71
     0
 72
     0
 73
     0
 74
     0
 75
     0
 76
     0
 77
     3
 78
     8
170
     0
171
     2
172
     0
173
     0
174
     0
175
     0
176
   256
177
   256
178
     4
  0
DIMSTYLE
  2
AM_JIS$6
 70
     0
  3

  4
"
  5

  6

  7

 40
1.0
 41
2.5
 42
1.0
 43
7.0
 44
1.0
 45
0.0
 46
0.0
 47
0.1
 48
0.1000000001
140
2.5
141
0.0
142
0.0
143
0.0393701
144
1.0
145
0.0
146
0.71
147
1.0
 71
     0
 72
     0
 73
     0
 74
     0
 75
     0
 76
     0
 77
     0
 78
     8
170
     0
171
     2
172
     1
173
     0
174
     0
175
     0
176
   256
177
   256
178
     4
  0
DIMSTYLE
  2
AM_JIS$7
 70
     0
  3

  4
"
  5

  6

  7

 40
1.0
 41
2.5
 42
1.0
 43
7.0
 44
1.0
 45
0.0
 46
0.0
 47
0.1
 48
0.1000000001
140
2.5
141
0.0
142
0.0
143
0.0393701
144
1.0
145
0.0
146
0.71
147
1.0
 71
     0
 72
     0
 73
     0
 74
     0
 75
     0
 76
     0
 77
     3
 78
     8
170
     0
171
     2
172
     1
173
     0
174
     0
175
     0
176
   256
177
   256
178
     4
  0
DIMSTYLE
  2
AM_JIS$SF
 70
     0
  3

  4
"
  5
OPEN30
  6
OPEN30
  7
OPEN30
 40
1.0
 41
2.5
 42
1.0
 43
10.0
 44
1.0
 45
0.0
 46
0.0
 47
0.1
 48
0.1
140
3.5
141
0.0
142
0.0
143
0.0393701
144
1.0
145
0.0
146
0.71
147
1.5
 71
     0
 72
     0
 73
     0
 74
     0
 75
     1
 76
     1
 77
     3
 78
     8
170
     0
171
     2
172
     1
173
     0
174
     0
175
     0
176
   256
177
   256
178
     4
  0
DIMSTYLE
  2
AM_JIS$SH
 70
     0
  3

  4
"
  5

  6
NONE
  7

 40
1.0
 41
2.5
 42
1.0
 43
10.0
 44
1.0
 45
0.0
 46
0.0
 47
0.1
 48
0.1
140
3.5
141
0.0
142
0.0
143
0.0393701
144
1.0
145
0.0
146
0.71
147
1.5
 71
     0
 72
     0
 73
     0
 74
     0
 75
     1
 76
     0
 77
     3
 78
     8
170
     0
171
     2
172
     1
173
     1
174
     0
175
     0
176
   256
177
   256
178
     4
  0
DIMSTYLE
  2
AM_ISO
 70
     0
  3

  4
"
  5

  6

  7

 40
1.0
 41
2.5
 42
1.0
 43
8.0
 44
0.6
 45
0.0
 46
0.0
 47
0.1
 48
0.1
140
5.9999999999999751
141
0.0
142
0.0
143
0.0393701
144
1.0
145
0.0
146
0.71
147
2.0
 71
     0
 72
     0
 73
     0
 74
     0
 75
     0
 76
     0
 77
     1
 78
     8
170
     0
171
     2
172
     1
173
     0
174
     0
175
     0
176
   256
177
   256
178
     4
  0
DIMSTYLE
  2
AM_ISO$3
 70
     0
  3

  4
"
  5

  6

  7

 40
1.0
 41
2.5
 42
1.0
 43
8.0
 44
0.6
 45
0.0
 46
0.0
 47
0.1
 48
0.1
140
5.9999999999999751
141
0.0
142
0.0
143
0.0393701
144
1.0
145
0.0
146
0.71
147
2.0
 71
     0
 72
     0
 73
     0
 74
     1
 75
     0
 76
     0
 77
     1
 78
     8
170
     0
171
     2
172
     0
173
     0
174
     0
175
     0
176
   256
177
   256
178
     4
  0
DIMSTYLE
  2
AM_ISO$4
 70
     0
  3

  4
"
  5

  6

  7

 40
1.0
 41
2.5
 42
1.0
 43
8.0
 44
0.6
 45
0.0
 46
0.0
 47
0.1
 48
0.1
140
5.9999999999999751
141
0.0
142
0.0
143
0.0393701
144
1.0
145
0.0
146
0.71
147
2.0
 71
     0
 72
     0
 73
     0
 74
     1
 75
     0
 76
     0
 77
     1
 78
     8
170
     0
171
     2
172
     0
173
     0
174
     0
175
     0
176
   256
177
   256
178
     4
  0
DIMSTYLE
  2
AM_ISO$6
 70
     0
  3

  4
"
  5

  6

  7

 40
1.0
 41
2.5
 42
1.0
 43
8.0
 44
0.6
 45
0.0
 46
0.0
 47
0.1
 48
0.1
140
5.9999999999999751
141
0.0
142
0.0
143
0.0393701
144
1.0
145
0.0
146
0.71
147
2.0
 71
     0
 72
     0
 73
     0
 74
     0
 75
     0
 76
     0
 77
     0
 78
     8
170
     0
171
     2
172
     1
173
     0
174
     0
175
     0
176
   256
177
   256
178
     4
  0
DIMSTYLE
  2
AM_ISO$7
 70
     0
  3

  4
"
  5

  6

  7

 40
1.0
 41
2.5
 42
1.0
 43
8.0
 44
0.6
 45
0.0
 46
0.0
 47
0.1
 48
0.1
140
5.9999999999999751
141
0.0
142
0.0
143
0.0393701
144
1.0
145
0.0
146
0.71
147
2.0
 71
     0
 72
     0
 73
     0
 74
     0
 75
     0
 76
     0
 77
     1
 78
     8
170
     0
171
     2
172
     1
173
     0
174
     0
175
     0
176
   256
177
   256
178
     4
  0
DIMSTYLE
  2
AM_ISO$SF
 70
     0
  3

  4
"
  5

  6

  7

 40
1.0
 41
2.5
 42
1.0
 43
10.0
 44
1.0
 45
0.0
 46
0.0
 47
0.1
 48
0.1
140
3.5
141
0.0
142
0.0
143
0.0393701
144
1.0
145
0.0
146
0.71
147
1.5
 71
     0
 72
     0
 73
     0
 74
     0
 75
     1
 76
     1
 77
     1
 78
     8
170
     0
171
     2
172
     1
173
     0
174
     0
175
     0
176
   256
177
   256
178
     2
  0
DIMSTYLE
  2
AM_ISO$SH
 70
     0
  3

  4
"
  5

  6
GENAXEH
  7

 40
1.0
 41
2.5
 42
1.0
 43
10.0
 44
1.0
 45
0.0
 46
0.0
 47
0.1
 48
0.1
140
3.5
141
0.0
142
0.0
143
0.0393701
144
2.0
145
0.0
146
0.71
147
1.5
 71
     0
 72
     0
 73
     0
 74
     0
 75
     1
 76
     1
 77
     1
 78
     8
170
     0
171
     2
172
     1
173
     1
174
     0
175
     0
176
   256
177
   256
178
     2
  0
ENDTAB
  0
ENDSEC
  0
SECTION
  2
BLOCKS
  0
BLOCK
  8
0
  2
$MODEL_SPACE
 70
     0
 10
0.0
 20
0.0
 30
0.0
  3
$MODEL_SPACE
  1

  0
ENDBLK
  5
1A
  8
0
  0
BLOCK
 67
     1
  8
0
  2
$PAPER_SPACE
 70
     0
 10
0.0
 20
0.0
 30
0.0
  3
$PAPER_SPACE
  1

  0
ENDBLK
  5
17
 67
     1
  8
0
  0
BLOCK
  8
0
  2
_OPEN30
 70
     0
 10
0.0
 20
0.0
 30
0.0
  3
_OPEN30
  1

  0
LINE
  5
21C5
  8
0
 62
     0
 10
-1.0
 20
0.26794919
 30
0.0
 11
0.0
 21
0.0
 31
0.0
  0
LINE
  5
21C6
  8
0
 62
     0
 10
0.0
 20
0.0
 30
0.0
 11
-1.0
 21
-0.26794919
 31
0.0
  0
LINE
  5
21C7
  8
0
 62
     0
 10
0.0
 20
0.0
 30
0.0
 11
-1.0
 21
0.0
 31
0.0
  0
ENDBLK
  5
21C9
  8
0
  0
BLOCK
  8
0
  2
GENAXEH
 70
     0
 10
0.0
 20
0.0
 30
0.0
  3
GENAXEH
  1

  0
LINE
  5
21D0
  8
0
 10
-1.0
 20
0.0
 30
0.0
 11
1.0
 21
0.0
 31
0.0
  0
ENDBLK
  5
21D2
  8
0
  0
BLOCK
  8
0
  2
_NONE
 70
     0
 10
0.0
 20
0.0
 30
0.0
  3
_NONE
  1

  0
ENDBLK
  5
8193
  8
0
  0
ENDSEC
  0
SECTION
  2
ENTITIES
  0
POINT
  5
1B94
  8
0
 10
0.0
 20
0.0
 30
0.0
1001
GENIUS_GENODEF_13
1002
{
1000
HIER
1070
     1
1002
}
1002
{
1000
MANEDIT
1070
     0
1002
}
1002
{
1000
NOSEL
1070
     0
1002
}
1002
{
1000
BEHIND
1070
     0
1002
}
1002
{
1000
REACTOR
1002
}
1001
GENIUS_GENOBJ-N-SDF_13
1002
{
1000
OWNER
1000
GEN
1002
}
1001
GENIUS_GENOENT_13
1002
{
1000
MYREF
1005
1B94
1002
}
1002
{
1000
GRP
1005
0
1002
}
1001
GENIUS_GENOLIS_13
1002
{
1000
ENT
1005
89
1002
}
  0
LINE
  5
88B0
  8
AM_0
 10
209.08592626658131
 20
192.99980271343509
 30
0.0
 11
227.13164626658141
 21
192.99980271343509
 31
0.0
  0
LINE
  5
88B1
  8
AM_0
 10
223.43309626658129
 20
192.50981271343491
 30
0.0
 11
209.08592626658131
 21
192.50981271343491
 31
0.0
  0
LINE
  5
88B2
  8
AM_0
 10
209.0659662665812
 20
199.869792713435
 30
0.0
 11
226.90593626658119
 21
199.869792713435
 31
0.0
  0
LINE
  5
88B4
  8
AM_0
 10
226.90593626658119
 20
133.13981271343499
 30
0.0
 11
209.0659662665812
 21
133.13981271343499
 31
0.0
  0
LINE
  5
88B5
  8
AM_0
 10
209.08592626658131
 20
140.02983271343501
 30
0.0
 11
227.12016626658129
 21
140.02983271343501
 31
0.0
  0
LINE
  5
88B6
  8
AM_0
 10
223.4187562665812
 20
140.509812713435
 30
0.0
 11
209.08592626658131
 21
140.509812713435
 31
0.0
  0
LINE
  5
88B8
  8
AM_0
 10
223.4259562665811
 20
132.509812713435
 30
0.0
 11
179.08592626658131
 21
132.509812713435
 31
0.0
  0
LINE
  5
88B9
  8
AM_0
 10
223.4259562665811
 20
130.509812713435
 30
0.0
 11
179.08592626658131
 21
130.509812713435
 31
0.0
  0
LINE
  5
88BA
  8
AM_0
 10
179.08592626658131
 20
129.78984271343501
 30
0.0
 11
226.90593626658119
 21
129.78984271343501
 31
0.0
  0
LINE
  5
88BB
  8
AM_0
 10
125.3359262665812
 20
225.63981271343499
 30
0.0
 11
222.2159362665812
 21
225.63981271343499
 31
0.0
  0
LINE
  5
88BC
  8
AM_0
 10
223.4259562665811
 20
202.509812713435
 30
0.0
 11
124.44591626658119
 21
202.509812713435
 31
0.0
  0
LINE
  5
88BD
  8
AM_0
 10
223.4259562665811
 20
200.50981271343491
 30
0.0
 11
124.44591626658119
 21
200.50981271343491
 31
0.0
  0
LINE
  5
88BE
  8
AM_0
 10
223.4187562665812
 20
190.50981271343491
 30
0.0
 11
124.44591626658119
 21
190.50981271343491
 31
0.0
  0
LINE
  5
88BF
  8
AM_0
 10
123.7659162665813
 20
203.2297827134351
 30
0.0
 11
226.90593626658119
 21
203.2297827134351
 31
0.0
  0
LINE
  5
88C0
  8
AM_0
 10
123.5459462665812
 20
190.0698627134351
 30
0.0
 11
227.12016626658129
 21
190.0698627134351
 31
0.0
  0
LINE
  5
88C1
  8
AM_0
 10
125.2959462665812
 20
222.78984271343509
 30
0.0
 11
222.2159362665812
 21
222.78984271343509
 31
0.0
  0
LINE
  5
88C2
  8
AM_0
 10
125.3559462665812
 20
227.48979271343509
 30
0.0
 11
222.2159362665812
 21
227.48979271343509
 31
0.0
  0
LINE
  5
88C3
  8
AM_0
 10
125.3759662665811
 20
228.39982271343499
 30
0.0
 11
222.21599626658119
 21
228.39982271343499
 31
0.0
  0
LINE
  5
88C4
  8
AM_0
 10
223.4187562665812
 20
142.509812713435
 30
0.0
 11
124.44591626658119
 21
142.509812713435
 31
0.0
  0
LINE
  5
88C5
  8
AM_0
 10
123.5459462665812
 20
142.949752713435
 30
0.0
 11
227.12016626658129
 21
142.949752713435
 31
0.0
  0
ARC
  5
88C6
  8
AM_0
 10
210.66502507451739
 20
102.509812713435
 30
0.0
 40
1.5
 50
90.0
 51
178.5000740567499
1001
GENIUS_GENODEF_13
1002
{
1000
HIER
1070
     0
1002
}
1002
{
1000
MANEDIT
1070
     0
1002
}
1002
{
1000
NOSEL
1070
     0
1002
}
1002
{
1000
BEHIND
1070
     0
1002
}
1002
{
1000
REACTOR
1002
}
1001
GENIUS_GENOBJ-N-FIL_13
1002
{
1000
OWNER
1000
GEN
1002
}
  0
LINE
  5
88C7
  8
AM_0
 10
125.2959462665812
 20
110.229782713435
 30
0.0
 11
222.2159362665812
 21
110.229782713435
 31
0.0
  0
LINE
  5
88C8
  8
AM_0
 10
130.585926266581
 20
97.009812713435053
 30
0.0
 11
210.58592626658111
 21
97.009812713435053
 31
0.0
  0
LINE
  5
88C9
  8
AM_0
 10
210.58592626658111
 20
100.5098127134349
 30
0.0
 11
130.585926266581
 21
100.5098127134349
 31
0.0
  0
LINE
  5
88CA
  8
AM_0
 10
210.58592626658111
 20
93.509812713435039
 30
0.0
 11
153.085926266581
 21
93.509812713435039
 31
0.0
  0
LINE
  5
88CD
  8
ﾁｭｳｼﾝｾﾝ1
 10
273.21688341111923
 20
166.509812713435
 30
0.0
 11
100.5920297822063
 21
166.509812713435
 31
0.0
  0
LINE
  5
88CF
  8
AM_0
 10
122.0859262665813
 20
115.729872713435
 30
0.0
 11
123.0952062665813
 21
109.07969271343499
 31
0.0
  0
LINE
  5
88D0
  8
AM_0
 10
122.0859862665811
 20
115.729842713435
 30
0.0
 11
123.0114062665811
 21
109.103252713435
 31
0.0
  0
LINE
  5
88D2
  8
AM_0
 10
122.0859262665813
 20
118.419782713435
 30
0.0
 11
123.32597626658109
 21
111.859782713435
 31
0.0
  0
LINE
  5
88D3
  8
AM_0
 10
122.0859262665813
 20
117.0697727134351
 30
0.0
 11
123.36595626658119
 21
109.0698627134351
 31
0.0
  0
ARC
  5
88D4
  8
AM_0
 10
142.585926266581
 20
88.509812713435039
 30
0.0
 40
7.499999999999992
 50
180.0
 51
270.0
  0
ARC
  5
88D5
  8
AM_0
 10
143.585926266581
 20
89.509812713435053
 30
0.0
 40
7.5000000000000018
 50
180.0
 51
0.0
  0
LINE
  5
88D7
  8
AM_0
 10
124.9921762665813
 20
107.3798027134351
 30
0.0
 11
147.41863908793289
 21
107.3798027134351
 31
0.0
  0
LINE
  5
88DA
  8
AM_0
 10
208.08592626658111
 20
77.009812713435053
 30
0.0
 11
133.085926266581
 21
77.009812713435053
 31
0.0
  0
LINE
  5
88E9
  8
AM_0
 10
132.085926266581
 20
93.509812713435039
 30
0.0
 11
132.085926266581
 21
78.009812713435053
 31
0.0
  0
ARC
  5
88EE
  8
AM_0
 10
133.085926266581
 20
78.009812713435053
 30
0.0
 40
1.0
 50
180.0
 51
270.0
  0
LINE
  5
88EF
  8
AM_0
 10
136.085926266581
 20
97.009812713435053
 30
0.0
 11
136.085926266581
 21
89.509812713435053
 31
0.0
  0
LINE
  5
88F0
  8
AM_0
 10
130.585926266581
 20
100.5098127134349
 30
0.0
 11
130.585926266581
 21
81.009812713435039
 31
0.0
  0
LINE
  5
88F1
  8
AM_0
 10
130.585926266581
 20
93.509812713435039
 30
0.0
 11
134.085926266581
 21
93.509812713435039
 31
0.0
  0
LINE
  5
88F2
  8
AM_0
 10
130.585926266581
 20
81.009812713435039
 30
0.0
 11
132.085926266581
 21
81.009812713435039
 31
0.0
  0
LINE
  5
88F4
  8
AM_0
 10
135.085926266581
 20
92.509812713435025
 30
0.0
 11
135.085926266581
 21
88.509812713435039
 31
0.0
  0
ARC
  5
88F5
  8
AM_0
 10
134.085926266581
 20
92.509812713435025
 30
0.0
 40
1.0
 50
0.0
 51
90.0
  0
ARC
  5
88F6
  8
AM_0
 10
125.29082626658121
 20
112.22904271343501
 30
0.0
 40
1.9992490000000001
 50
190.643100000001
 51
270.14743000000129
  0
ARC
  5
88F7
  8
AM_0
 10
125.3421562665812
 20
109.380172713435
 30
0.0
 40
2.000420099999999
 50
188.92682000000119
 51
269.82270999999929
  0
ARC
  5
88F8
  8
AM_0
 10
125.0725562665811
 20
109.3798027134351
 30
0.0
 40
2.0
 50
188.62961999999749
 51
269.999989999999
  0
ARC
  5
88F9
  8
AM_0
 10
124.9921762665813
 20
109.3798027134351
 30
0.0
 40
2.0
 50
187.9504400000034
 51
269.999989999999
  0
LINE
  5
88FA
  8
AM_0
 10
196.88992626658111
 20
74.009812713435053
 30
0.0
 11
161.28192626658119
 21
74.009812713435053
 31
0.0
  0
ARC
  5
88FB
  8
AM_0
 10
144.585926266581
 20
88.509812713435039
 30
0.0
 40
7.4999999999999956
 50
270.0
 51
0.0
  0
LINE
  5
88FC
  8
AM_0
 10
161.28192626658119
 20
74.009812713435053
 30
0.0
 11
156.09315075637809
 21
77.009812713435053
 31
0.0
  0
LINE
  5
88FD
  8
AM_0
 10
147.585926266581
 20
97.009812713435053
 30
0.0
 11
147.585926266581
 21
89.509812713435053
 31
0.0
  0
LINE
  5
88FE
  8
AM_0
 10
151.085926266581
 20
89.509812713435053
 30
0.0
 11
151.085926266581
 21
97.009812713435053
 31
0.0
  0
LINE
  5
88FF
  8
AM_0
 10
139.585926266581
 20
97.009812713435053
 30
0.0
 11
139.585926266581
 21
89.509812713435053
 31
0.0
  0
ARC
  5
8900
  8
AM_0
 10
143.585926266581
 20
89.509812713435053
 30
0.0
 40
3.999999999999996
 50
180.0
 51
0.0
  0
LINE
  5
8901
  8
AM_0
 10
144.585926266581
 20
81.009812713435039
 30
0.0
 11
142.585926266581
 21
81.009812713435039
 31
0.0
  0
LINE
  5
8902
  8
AM_0
 10
152.085926266581
 20
88.509812713435039
 30
0.0
 11
152.085926266581
 21
92.509812713435025
 31
0.0
  0
ARC
  5
8903
  8
AM_0
 10
153.085926266581
 20
92.509812713435025
 30
0.0
 40
1.0
 50
90.0
 51
180.0
  0
ARC
  5
8904
  8
AM_0
 10
147.41863908793289
 20
105.8798027134351
 30
0.0
 40
1.5
 50
1.499722450987816
 51
90.0
1001
GENIUS_GENODEF_13
1002
{
1000
HIER
1070
     0
1002
}
1002
{
1000
MANEDIT
1070
     0
1002
}
1002
{
1000
NOSEL
1070
     0
1002
}
1002
{
1000
BEHIND
1070
     0
1002
}
1002
{
1000
REACTOR
1002
}
1001
GENIUS_GENOBJ-N-FIL_13
1002
{
1000
OWNER
1000
GEN
1002
}
  0
LINE
  5
8905
  8
AM_0
 10
149.05974519247729
 20
100.509812713435
 30
0.0
 11
148.8052659376178
 21
110.2297827134349
 31
0.0
  0
LINE
  5
8906
  8
AM_0
 10
209.08592626658111
 20
93.509812713435039
 30
0.0
 11
209.08592626658111
 21
78.009812713435053
 31
0.0
  0
LINE
  5
8907
  8
AM_0
 10
202.08592626658111
 20
77.009812713435053
 30
0.0
 11
196.88992626658111
 21
74.009812713435053
 31
0.0
  0
ARC
  5
8908
  8
AM_0
 10
208.08592626658111
 20
78.00981271343494
 30
0.0
 40
1.0
 50
270.0
 51
0.0
  0
LINE
  5
8909
  8
AM_0
 10
209.11214168026891
 20
100.5098127134349
 30
0.0
 11
209.3666554803367
 21
110.229782713435
 31
0.0
  0
LINE
  5
890A
  8
AM_0
 10
158.5246462665813
 20
182.509812713435
 30
0.0
 11
124.44591626658119
 21
182.509812713435
 31
0.0
  0
LINE
  5
890B
  8
AM_0
 10
123.4159462665811
 20
182.8497727134351
 30
0.0
 11
159.7446162665812
 21
182.8497727134351
 31
0.0
  0
LINE
  5
890C
  8
AM_0
 10
158.5246462665813
 20
160.509812713435
 30
0.0
 11
124.44591626658119
 21
160.509812713435
 31
0.0
  0
LINE
  5
890D
  8
AM_0
 10
123.3559462665812
 20
160.23979271343501
 30
0.0
 11
159.80461626658141
 21
160.23979271343501
 31
0.0
  0
LINE
  5
890E
  8
AM_0
 10
123.4159462665811
 20
152.829752713435
 30
0.0
 11
159.7446162665812
 21
152.829752713435
 31
0.0
  0
LINE
  5
890F
  8
AM_0
 10
158.5246462665813
 20
152.509812713435
 30
0.0
 11
124.44591626658119
 21
152.509812713435
 31
0.0
  0
LINE
  5
8910
  8
AM_0
 10
158.5246462665813
 20
150.509812713435
 30
0.0
 11
124.44591626658119
 21
150.509812713435
 31
0.0
  0
LINE
  5
8911
  8
AM_0
 10
123.4159462665811
 20
150.169842713435
 30
0.0
 11
159.7571962665811
 21
150.169842713435
 31
0.0
  0
LINE
  5
8912
  8
AM_0
 10
158.5246462665813
 20
180.509812713435
 30
0.0
 11
124.44591626658119
 21
180.509812713435
 31
0.0
  0
LINE
  5
8913
  8
AM_0
 10
158.5246462665813
 20
172.509812713435
 30
0.0
 11
124.44591626658119
 21
172.509812713435
 31
0.0
  0
LINE
  5
8914
  8
AM_0
 10
158.5246462665813
 20
170.509812713435
 30
0.0
 11
124.44591626658119
 21
170.509812713435
 31
0.0
  0
LINE
  5
8915
  8
AM_0
 10
123.4159462665811
 20
180.1898627134351
 30
0.0
 11
159.7446162665812
 21
180.1898627134351
 31
0.0
  0
LINE
  5
8916
  8
AM_0
 10
123.3559462665812
 20
172.7798327134349
 30
0.0
 11
159.80461626658141
 21
172.7798327134349
 31
0.0
  0
LINE
  5
8917
  8
AM_0
 10
123.3559462665812
 20
170.24980271343509
 30
0.0
 11
159.80461626658141
 21
170.24980271343509
 31
0.0
  0
LINE
  5
8918
  8
AM_0
 10
123.3559462665812
 20
162.77983271343501
 30
0.0
 11
159.80461626658141
 21
162.77983271343501
 31
0.0
  0
LINE
  5
8919
  8
AM_0
 10
158.5246462665813
 20
162.509812713435
 30
0.0
 11
124.44591626658119
 21
162.509812713435
 31
0.0
  0
LINE
  5
891A
  8
AM_0
 10
191.08592626658131
 20
192.50981271343491
 30
0.0
 11
124.44591626658119
 21
192.50981271343491
 31
0.0
  0
LINE
  5
891B
  8
AM_0
 10
123.7659162665813
 20
199.87980271343491
 30
0.0
 11
191.10594626658121
 21
199.87980271343491
 31
0.0
  0
LINE
  5
891C
  8
AM_0
 10
123.5459462665812
 20
192.99980271343509
 30
0.0
 11
191.08592626658131
 21
192.99980271343509
 31
0.0
  0
LINE
  5
891D
  8
AM_0
 10
191.08592626658131
 20
140.509812713435
 30
0.0
 11
124.44591626658119
 21
140.509812713435
 31
0.0
  0
LINE
  5
891E
  8
AM_0
 10
123.5459462665812
 20
140.01982271343499
 30
0.0
 11
191.08592626658131
 21
140.01982271343499
 31
0.0
  0
LINE
  5
891F
  8
AM_0
 10
123.7659162665813
 20
129.78984271343501
 30
0.0
 11
179.08592626658131
 21
129.78984271343501
 31
0.0
  0
LINE
  5
8920
  8
AM_0
 10
179.08592626658131
 20
132.509812713435
 30
0.0
 11
124.44591626658119
 21
132.509812713435
 31
0.0
  0
LINE
  5
8921
  8
AM_0
 10
179.08592626658131
 20
130.509812713435
 30
0.0
 11
124.44591626658119
 21
130.509812713435
 31
0.0
  0
LINE
  5
8922
  8
AM_0
 10
123.7659162665813
 20
133.13981271343499
 30
0.0
 11
191.10594626658121
 21
133.13981271343499
 31
0.0
  0
POLYLINE
  5
8923
  8
AM_0
 66
     1
 10
0.0
 20
0.0
 30
0.0
  0
VERTEX
  5
8924
  8
AM_0
 10
124.48997626658139
 20
172.78019271343501
 30
0.0
 42
-0.00076691987
  0
VERTEX
  5
8925
  8
AM_0
 10
124.5047762665813
 20
173.39795271343499
 30
0.0
 42
-0.00073262795
  0
VERTEX
  5
8926
  8
AM_0
 10
124.5214162665811
 20
174.015552713435
 30
0.0
 42
-0.0007652954
  0
VERTEX
  5
8927
  8
AM_0
 10
124.539906266581
 20
174.63322271343509
 30
0.0
 42
-0.00077334627
  0
VERTEX
  5
8928
  8
AM_0
 10
124.5603162665811
 20
175.25082271343501
 30
0.0
 42
-0.00073282897
  0
VERTEX
  5
8929
  8
AM_0
 10
124.5825762665813
 20
175.868242713435
 30
0.0
 42
-0.0007571179
  0
VERTEX
  5
892A
  8
AM_0
 10
124.6066762665812
 20
176.48576271343501
 30
0.0
 42
-0.00073783152
  0
VERTEX
  5
892B
  8
AM_0
 10
124.63261626658139
 20
177.10315271343501
 30
0.0
 42
-0.0007835518
  0
VERTEX
  5
892C
  8
AM_0
 10
124.6604462665814
 20
177.72042271343491
 30
0.0
 42
-0.00074826133
  0
VERTEX
  5
892D
  8
AM_0
 10
124.6901762665811
 20
178.337812713435
 30
0.0
 42
-0.00074893555
  0
VERTEX
  5
892E
  8
AM_0
 10
124.721736266581
 20
178.95494271343489
 30
0.0
 42
-0.00076039841
  0
VERTEX
  5
892F
  8
AM_0
 10
124.7551562665812
 20
179.57197271343489
 30
0.0
 42
-0.00075618789
  0
VERTEX
  5
8930
  8
AM_0
 10
124.7904562665812
 20
180.189002713435
 30
0.0
  0
SEQEND
  5
8931
  8
AM_0
  0
LINE
  5
8932
  8
AM_0
 10
105.5920297822062
 20
151.2879804380444
 30
0.0
 11
105.5920297822062
 21
181.7316144712475
 31
0.0
  0
LINE
  5
8934
  8
AM_0
 10
108.0859262665813
 20
214.52983271343501
 30
0.0
 11
108.0859262665813
 21
171.509812713435
 31
0.0
  0
LINE
  5
8935
  8
AM_0
 10
106.5859262665812
 20
186.50981271343491
 30
0.0
 11
106.5859262665812
 21
146.509812713435
 31
0.0
  0
LINE
  5
8936
  8
AM_0
 10
114.0859262665813
 20
219.509812713435
 30
0.0
 11
114.0859262665813
 21
113.509812713435
 31
0.0
  0
LINE
  5
8937
  8
AM_0
 10
122.0859262665813
 20
219.509812713435
 30
0.0
 11
122.0859262665813
 21
113.509812713435
 31
0.0
  0
LINE
  5
8938
  8
AM_0
 10
113.0859262665813
 20
216.50981271343511
 30
0.0
 11
113.0859262665813
 21
116.509812713435
 31
0.0
  0
LINE
  5
893C
  8
AM_0
 10
108.0859262665813
 20
118.48979271343499
 30
0.0
 11
108.0859262665813
 21
161.509812713435
 31
0.0
  0
POLYLINE
  5
893D
  8
AM_0
 66
     1
 10
0.0
 20
0.0
 30
0.0
  0
VERTEX
  5
893E
  8
AM_0
 10
124.9641662665813
 20
150.16923271343501
 30
0.0
 42
0.00073721992
  0
VERTEX
  5
893F
  8
AM_0
 10
125.0083162665812
 20
149.56682271343499
 30
0.0
 42
0.00074398496
  0
VERTEX
  5
8940
  8
AM_0
 10
125.0542462665812
 20
148.96455271343501
 30
0.0
 42
0.00073322625
  0
VERTEX
  5
8941
  8
AM_0
 10
125.1019762665812
 20
148.36222271343499
 30
0.0
 42
0.00073594289
  0
VERTEX
  5
8942
  8
AM_0
 10
125.15145626658111
 20
147.76023271343499
 30
0.0
 42
0.00074742568
  0
VERTEX
  5
8943
  8
AM_0
 10
125.20272626658129
 20
147.158372713435
 30
0.0
 42
0.00073216749
  0
VERTEX
  5
8944
  8
AM_0
 10
125.2557862665812
 20
146.556562713435
 30
0.0
 42
0.00074184065
  0
VERTEX
  5
8945
  8
AM_0
 10
125.3106062665811
 20
145.955032713435
 30
0.0
 42
0.00072077528
  0
VERTEX
  5
8946
  8
AM_0
 10
125.3671862665812
 20
145.35380271343499
 30
0.0
 42
0.00074978179
  0
VERTEX
  5
8947
  8
AM_0
 10
125.425526266581
 20
144.75260271343501
 30
0.0
 42
0.00074288888
  0
VERTEX
  5
8948
  8
AM_0
 10
125.48567626658129
 20
144.151582713435
 30
0.0
 42
0.00072503679
  0
VERTEX
  5
8949
  8
AM_0
 10
125.54758626658121
 20
143.550842713435
 30
0.0
 42
0.00074640584
  0
VERTEX
  5
894A
  8
AM_0
 10
125.61125626658119
 20
142.95024271343499
 30
0.0
  0
SEQEND
  5
894B
  8
AM_0
  0
LINE
  5
894C
  8
AM_0
 10
114.0859262665813
 20
113.509812713435
 30
0.0
 11
122.0859262665813
 21
113.509812713435
 31
0.0
  0
ARC
  5
894D
  8
AM_0
 10
112.08269626658119
 20
125.536542713435
 30
0.0
 40
1.0032760000000001
 50
334.19810000000479
 51
359.61811000000478
  0
ARC
  5
894E
  8
AM_0
 10
112.0834862665811
 20
125.53227271343511
 30
0.0
 40
1.002470999999999
 50
270.14107000000013
 51
359.85892999999987
  0
ARC
  5
894F
  8
AM_0
 10
112.08183626658111
 20
121.01396271343501
 30
0.0
 40
1.0041199999999999
 50
270.23460999999998
 51
359.76539000000002
  0
ARC
  5
8950
  8
AM_0
 10
112.5825662665811
 20
118.413252713435
 30
0.0
 40
0.5033929900000002
 50
270.38491000000062
 51
359.61509999999811
  0
LINE
  5
8951
  8
AM_0
 10
110.36595626658119
 20
118.869792713435
 30
0.0
 11
113.0859262665813
 21
118.869792713435
 31
0.0
  0
LINE
  5
8952
  8
AM_0
 10
110.3859762665811
 20
123.38981271343501
 30
0.0
 11
113.0859262665813
 21
123.38981271343501
 31
0.0
  0
ARC
  5
8953
  8
AM_0
 10
112.5864162665812
 20
116.26029271343501
 30
0.0
 40
0.49952301
 50
359.9452300000014
 51
90.054773999999625
  0
LINE
  5
8954
  8
AM_0
 10
110.3559462665812
 20
124.529832713435
 30
0.0
 11
112.0859262665813
 21
124.529832713435
 31
0.0
  0
LINE
  5
8955
  8
AM_0
 10
110.0859262665813
 20
123.679852713435
 30
0.0
 11
110.0859262665813
 21
124.149822713435
 31
0.0
  0
ARC
  5
8956
  8
AM_0
 10
110.3492962665814
 20
125.53080271343499
 30
0.0
 40
1.001044999999998
 50
240.47187000000031
 51
270.37970999999948
  0
LINE
  5
8957
  8
AM_0
 10
110.3359262665813
 20
120.009812713435
 30
0.0
 11
112.0859262665813
 21
120.009812713435
 31
0.0
  0
LINE
  5
8958
  8
AM_0
 10
110.3259162665813
 20
117.90983271343499
 30
0.0
 11
112.5859262665813
 21
117.90983271343499
 31
0.0
  0
LINE
  5
8959
  8
AM_0
 10
110.0859262665813
 20
119.109782713435
 30
0.0
 11
110.0859262665813
 21
119.65983271343499
 31
0.0
  0
ARC
  5
895A
  8
AM_0
 10
110.3317762665811
 20
118.909102713435
 30
0.0
 40
0.9993420200000001
 50
242.86199999999801
 51
269.66546000000159
  0
ARC
  5
895B
  8
AM_0
 10
110.3573462665813
 20
119.8734527134351
 30
0.0
 40
1.003743999999998
 50
239.37112999999741
 51
270.49190000000061
  0
ARC
  5
895C
  8
AM_0
 10
110.3411162665811
 20
121.0104227134351
 30
0.0
 40
1.0006820000000001
 50
241.6506200000012
 51
269.70392999999888
  0
ARC
  5
895D
  8
AM_0
 10
110.37871626658119
 20
124.39030271343501
 30
0.0
 40
1.000521999999999
 50
237.1461799999995
 51
270.41344000000032
  0
ARC
  5
895E
  8
AM_0
 10
109.08354626658139
 20
118.494422713435
 30
0.0
 40
0.9976310099999999
 50
180.2678099999986
 51
240.0792400000002
  0
ARC
  5
895F
  8
AM_0
 10
109.0844062665812
 20
126.269082713435
 30
0.0
 40
0.9984580299999999
 50
179.95957999999851
 51
239.3865699999985
  0
ARC
  5
8960
  8
AM_0
 10
109.0844062665812
 20
126.269082713435
 30
0.0
 40
0.9984580299999999
 50
179.95957999999851
 51
239.3865699999985
  0
LINE
  5
8961
  8
AM_0
 10
108.5759162665813
 20
125.409802713435
 30
0.0
 11
108.5558962665814
 21
125.419782713435
 31
0.0
  0
ARC
  5
8962
  8
AM_0
 10
109.08501626658131
 20
125.2345427134351
 30
0.0
 40
0.9990889999999998
 50
179.6950899999965
 51
236.662090000002
  0
ARC
  5
8963
  8
AM_0
 10
109.08165626658131
 20
119.54020271343499
 30
0.0
 40
0.9956849800000001
 50
180.02113
 51
243.4091400000006
  0
ARC
  5
8964
  8
AM_0
 10
109.0836662665813
 20
121.67106271343501
 30
0.0
 40
0.9977070099999998
 50
180.074020000004
 51
242.04481000000081
  0
ARC
  5
8965
  8
AM_0
 10
109.08470626658119
 20
120.633342713435
 30
0.0
 40
0.9987969999999998
 50
179.62728000000101
 51
238.70795000000021
  0
LINE
  5
8966
  8
AM_0
 10
109.8559462665812
 20
124.659862713435
 30
0.0
 11
108.57597626658109
 21
125.40983271343489
 31
0.0
  0
LINE
  5
8967
  8
AM_0
 10
109.8459962665811
 20
119.009812713435
 30
0.0
 11
108.5659662665812
 21
119.779832713435
 31
0.0
  0
LINE
  5
8968
  8
AM_0
 10
109.8759062665813
 20
118.019792713435
 30
0.0
 11
108.63591626658121
 21
118.649792713435
 31
0.0
  0
LINE
  5
8969
  8
AM_0
 10
109.86595626658119
 20
120.1298027134351
 30
0.0
 11
108.61595626658119
 21
120.78980271343499
 31
0.0
  0
LINE
  5
896A
  8
AM_0
 10
109.83586626658141
 20
123.54978271343489
 30
0.0
 11
108.5358762665812
 21
124.39979271343491
 31
0.0
  0
LINE
  5
896B
  8
AM_0
 10
110.3559462665812
 20
116.759812713435
 30
0.0
 11
112.5859262665813
 21
116.759812713435
 31
0.0
  0
ARC
  5
896C
  8
AM_0
 10
110.36662626658109
 20
117.760902713435
 30
0.0
 40
1.001123999999999
 50
239.32782000000049
 51
269.38767999999868
  0
LINE
  5
896D
  8
AM_0
 10
109.8559462665812
 20
116.899822713435
 30
0.0
 11
108.5859862665811
 21
117.6298027134351
 31
0.0
  0
LINE
  5
896E
  8
AM_0
 10
110.0859262665813
 20
117.009812713435
 30
0.0
 11
110.0859262665813
 21
117.53984271343499
 31
0.0
  0
LINE
  5
896F
  8
AM_0
 10
114.7859362665813
 20
123.3198627134351
 30
0.0
 11
121.0159162665813
 21
123.3198627134351
 31
0.0
  0
LINE
  5
8970
  8
AM_0
 10
113.0859262665813
 20
116.509812713435
 30
0.0
 11
114.0859262665813
 21
116.509812713435
 31
0.0
  0
ARC
  5
8971
  8
AM_0
 10
112.08098626658121
 20
143.51469271343501
 30
0.0
 40
1.0049469
 50
270.28136999999919
 51
359.71863000000081
  0
ARC
  5
8972
  8
AM_0
 10
112.0861062665813
 20
139.50993271343489
 30
0.0
 40
0.9998239899999999
 50
359.98991999999532
 51
90.010077000000464
  0
ARC
  5
8973
  8
AM_0
 10
112.38646626658119
 20
130.120402713435
 30
0.0
 40
0.6994530000000001
 50
359.95517000000092
 51
90.044829000000746
  0
ARC
  5
8974
  8
AM_0
 10
112.0825662665811
 20
133.77311271343501
 30
0.0
 40
1.003352
 50
270.19111000000021
 51
359.80890000000107
  0
LINE
  5
8975
  8
AM_0
 10
110.0859262665813
 20
140.879802713435
 30
0.0
 11
110.0859262665813
 21
142.249802713435
 31
0.0
  0
LINE
  5
8976
  8
AM_0
 10
112.0859262665813
 20
140.509812713435
 30
0.0
 11
109.0859262665813
 21
140.509812713435
 31
0.0
  0
LINE
  5
8977
  8
AM_0
 10
112.0859262665813
 20
142.509812713435
 30
0.0
 11
109.0859262665813
 21
142.509812713435
 31
0.0
  0
LINE
  5
8978
  8
AM_0
 10
110.235956266581
 20
132.76982271343499
 30
0.0
 11
112.0859262665813
 21
132.76982271343499
 31
0.0
  0
ARC
  5
8979
  8
AM_0
 10
110.22649626658129
 20
133.7725027134351
 30
0.0
 40
1.002699
 50
253.752720000002
 51
270.54064000000108
  0
LINE
  5
897A
  8
AM_0
 10
110.2859362665813
 20
130.8198627134351
 30
0.0
 11
112.38591626658121
 21
130.8198627134351
 31
0.0
  0
ARC
  5
897B
  8
AM_0
 10
110.2889262665812
 20
131.82499271343499
 30
0.0
 40
1.005233
 50
246.98639000000031
 51
269.82924999999938
  0
LINE
  5
897C
  8
AM_0
 10
110.0859262665813
 20
131.119792713435
 30
0.0
 11
110.0859262665813
 21
132.179852713435
 31
0.0
  0
ARC
  5
897D
  8
AM_0
 10
109.0824462665814
 20
132.33830271343501
 30
0.0
 40
0.9965090199999998
 50
179.9137499999965
 51
247.17844999999909
  0
ARC
  5
897E
  8
AM_0
 10
109.08232626658121
 20
134.12419271343501
 30
0.0
 40
0.99638802
 50
180.24990999999889
 51
253.29664000000031
  0
ARC
  5
897F
  8
AM_0
 10
109.0810462665813
 20
141.51469271343501
 30
0.0
 40
0.9950849999999999
 50
89.716282999999422
 51
180.28371999999919
  0
ARC
  5
8980
  8
AM_0
 10
109.0861762665813
 20
141.51005271343499
 30
0.0
 40
1.0001959999999981
 50
180.01124999999951
 51
269.98875000000061
  0
LINE
  5
8981
  8
AM_0
 10
109.94591626658119
 20
132.809792713435
 30
0.0
 11
108.7959462665812
 21
133.16981271343499
 31
0.0
  0
LINE
  5
8982
  8
AM_0
 10
109.8959862665811
 20
130.899852713435
 30
0.0
 11
108.6959762665813
 21
131.4198727134351
 31
0.0
  0
LINE
  5
8983
  8
AM_0
 10
127.44591626658119
 20
129.85978271343501
 30
0.0
 11
122.0859862665811
 21
118.4198727134351
 31
0.0
  0
ARC
  5
8984
  8
AM_0
 10
124.6305462665814
 20
141.509812713435
 30
0.0
 40
1.0000138999999999
 50
89.69165999999926
 51
270.30834000000073
  0
ARC
  5
8985
  8
AM_0
 10
123.5459462665812
 20
141.48478271343501
 30
0.0
 40
1.465004
 50
90.000003000000945
 51
270.0
  0
ARC
  5
8986
  8
AM_0
 10
124.6305462665814
 20
131.509812713435
 30
0.0
 40
1.0000138999999999
 50
89.69165999999926
 51
270.30834000000073
  0
ARC
  5
8987
  8
AM_0
 10
123.75908626658109
 20
131.46476271343499
 30
0.0
 40
1.675014
 50
89.766499000000024
 51
270.2335099999994
  0
POLYLINE
  5
8988
  8
AM_0
 66
     1
 10
0.0
 20
0.0
 30
0.0
  0
VERTEX
  5
8989
  8
AM_0
 10
125.9468262665814
 20
140.02677271343509
 30
0.0
 42
0.0006890001
  0
VERTEX
  5
898A
  8
AM_0
 10
126.0177062665811
 20
139.4520227134351
 30
0.0
 42
0.00070644651
  0
VERTEX
  5
898B
  8
AM_0
 10
126.0902062665814
 20
138.87734271343501
 30
0.0
 42
0.0006924559
  0
VERTEX
  5
898C
  8
AM_0
 10
126.1642962665812
 20
138.3030227134351
 30
0.0
 42
0.00069587797
  0
VERTEX
  5
898D
  8
AM_0
 10
126.23997626658139
 20
137.72888271343501
 30
0.0
 42
0.00071687041
  0
VERTEX
  5
898E
  8
AM_0
 10
126.31728626658099
 20
137.15488271343489
 30
0.0
 42
0.00069759113
  0
VERTEX
  5
898F
  8
AM_0
 10
126.39622626658139
 20
136.581092713435
 30
0.0
 42
0.00071003142
  0
VERTEX
  5
8990
  8
AM_0
 10
126.47676626658129
 20
136.00762271343501
 30
0.0
 42
0.00069954544
  0
VERTEX
  5
8991
  8
AM_0
 10
126.5589062665813
 20
135.434522713435
 30
0.0
 42
0.0007188852
  0
VERTEX
  5
8992
  8
AM_0
 10
126.64268626658119
 20
134.86149271343501
 30
0.0
 42
0.00071266165
  0
VERTEX
  5
8993
  8
AM_0
 10
126.7281162665813
 20
134.288732713435
 30
0.0
 42
0.00071614577
  0
VERTEX
  5
8994
  8
AM_0
 10
126.81514626658119
 20
133.716382713435
 30
0.0
 42
0.00072290806
  0
VERTEX
  5
8995
  8
AM_0
 10
126.9038562665812
 20
133.14408271343501
 30
0.0
  0
SEQEND
  5
8996
  8
AM_0
  0
LINE
  5
8997
  8
AM_0
 10
110.0859262665813
 20
160.89982271343499
 30
0.0
 11
110.0859262665813
 21
162.05985271343499
 31
0.0
  0
ARC
  5
8998
  8
AM_0
 10
109.0861762665813
 20
161.51005271343499
 30
0.0
 40
1.0002040000000001
 50
180.01165999999679
 51
269.98832000000073
  0
ARC
  5
8999
  8
AM_0
 10
112.0861062665813
 20
159.50993271343501
 30
0.0
 40
0.9998279799999998
 50
359.9901599999971
 51
90.009838000000173
  0
ARC
  5
899A
  8
AM_0
 10
112.08098626658121
 20
153.51469271343501
 30
0.0
 40
1.004939
 50
270.2809399999997
 51
359.71907000000078
  0
ARC
  5
899B
  8
AM_0
 10
112.0861062665813
 20
149.50993271343501
 30
0.0
 40
0.9998210099999999
 50
359.98971999999799
 51
90.010281999998284
  0
LINE
  5
899C
  8
AM_0
 10
112.0859262665813
 20
160.509812713435
 30
0.0
 11
109.0859262665813
 21
160.509812713435
 31
0.0
  0
LINE
  5
899D
  8
AM_0
 10
110.0859262665813
 20
150.89982271343499
 30
0.0
 11
110.0859262665813
 21
152.119792713435
 31
0.0
  0
LINE
  5
899E
  8
AM_0
 10
112.0859262665813
 20
152.509812713435
 30
0.0
 11
109.0859262665813
 21
152.509812713435
 31
0.0
  0
LINE
  5
899F
  8
AM_0
 10
112.0859262665813
 20
150.509812713435
 30
0.0
 11
109.0859262665813
 21
150.509812713435
 31
0.0
  0
LINE
  5
89A0
  8
AM_0
 10
106.5859262665812
 20
151.35978271343501
 30
0.0
 11
108.0859262665813
 21
151.35978271343501
 31
0.0
  0
ARC
  5
89A1
  8
AM_0
 10
109.0861762665813
 20
151.51005271343499
 30
0.0
 40
1.000199999999998
 50
180.01145999999861
 51
269.98854000000142
  0
ARC
  5
89A2
  8
AM_0
 10
109.0810462665813
 20
151.51469271343501
 30
0.0
 40
0.9950810099999999
 50
89.716072000000082
 51
180.2839200000044
  0
LINE
  5
89A3
  8
AM_0
 10
106.0920297822063
 20
148.5179914243725
 30
0.0
 11
106.59206029978439
 21
148.5579999692944
 31
0.0
  0
LINE
  5
89A4
  8
AM_0
 10
106.5859262665812
 20
149.22978271343499
 30
0.0
 11
108.0859262665813
 21
149.22978271343499
 31
0.0
  0
LINE
  5
89A5
  8
AM_0
 10
106.5859262665812
 20
146.50978271343499
 30
0.0
 11
108.0859262665813
 21
146.37977271343499
 31
0.0
  0
LINE
  5
89A6
  8
AM_0
 10
105.59206029978439
 20
151.2879804380444
 30
0.0
 11
106.09206029978439
 21
148.5179914243725
 31
0.0
  0
ARC
  5
89A7
  8
AM_0
 10
112.0861062665813
 20
169.50993271343489
 30
0.0
 40
0.9998249999999999
 50
359.98994999999871
 51
90.010050000001243
  0
ARC
  5
89A8
  8
AM_0
 10
112.08098626658121
 20
173.51469271343501
 30
0.0
 40
1.0049469
 50
270.28135000000037
 51
359.71866000000068
  0
ARC
  5
89A9
  8
AM_0
 10
112.08098626658121
 20
163.51469271343501
 30
0.0
 40
1.004942999999999
 50
270.28113999999943
 51
359.71886999999822
  0
LINE
  5
89AA
  8
AM_0
 10
112.0859262665813
 20
170.509812713435
 30
0.0
 11
109.0859262665813
 21
170.509812713435
 31
0.0
  0
LINE
  5
89AB
  8
AM_0
 10
112.0859262665813
 20
172.509812713435
 30
0.0
 11
109.0859262665813
 21
172.509812713435
 31
0.0
  0
LINE
  5
89AC
  8
AM_0
 10
110.0859262665813
 20
172.119792713435
 30
0.0
 11
110.0859262665813
 21
170.959762713435
 31
0.0
  0
LINE
  5
89AD
  8
AM_0
 10
112.0859262665813
 20
162.509812713435
 30
0.0
 11
109.0859262665813
 21
162.509812713435
 31
0.0
  0
ARC
  5
89AE
  8
AM_0
 10
109.0861762665813
 20
171.51005271343499
 30
0.0
 40
1.0001959999999981
 50
180.0112199999958
 51
269.98878000000087
  0
ARC
  5
89AF
  8
AM_0
 10
109.0810462665813
 20
171.51469271343501
 30
0.0
 40
0.9950849999999999
 50
89.716311000000914
 51
180.28368999999969
  0
ARC
  5
89B0
  8
AM_0
 10
109.0810462665813
 20
161.51469271343501
 30
0.0
 40
0.9950770099999999
 50
89.715859999999495
 51
180.28414000000049
  0
ARC
  5
89B1
  8
AM_0
 10
124.6305462665814
 20
161.509812713435
 30
0.0
 40
1.0000138999999999
 50
89.69165999999926
 51
270.30834000000073
  0
ARC
  5
89B2
  8
AM_0
 10
123.3500862665812
 20
161.509812713435
 30
0.0
 40
1.2700129999999981
 50
89.736616999998319
 51
270.26336999999921
  0
ARC
  5
89B3
  8
AM_0
 10
123.4159462665811
 20
151.49980271343509
 30
0.0
 40
1.3300049999999981
 50
90.000003000000945
 51
270.0
  0
ARC
  5
89B4
  8
AM_0
 10
124.6305462665814
 20
151.509812713435
 30
0.0
 40
1.0000138999999999
 50
89.69165999999926
 51
270.30834000000073
  0
POLYLINE
  5
89B5
  8
AM_0
 66
     1
 10
0.0
 20
0.0
 30
0.0
  0
VERTEX
  5
89B6
  8
AM_0
 10
124.48997626658139
 20
160.239422713435
 30
0.0
 42
0.00076695232
  0
VERTEX
  5
89B7
  8
AM_0
 10
124.5047762665813
 20
159.621662713435
 30
0.0
 42
0.00073263044
  0
VERTEX
  5
89B8
  8
AM_0
 10
124.5214162665811
 20
159.00406271343499
 30
0.0
 42
0.0007652599
  0
VERTEX
  5
89B9
  8
AM_0
 10
124.539906266581
 20
158.38639271343499
 30
0.0
 42
0.00075144485
  0
VERTEX
  5
89BA
  8
AM_0
 10
124.5602762665812
 20
157.768792713435
 30
0.0
 42
0.00078594403
  0
VERTEX
  5
89BB
  8
AM_0
 10
124.5825262665812
 20
157.15136271343511
 30
0.0
 42
0.00073349202
  0
VERTEX
  5
89BC
  8
AM_0
 10
124.6066762665812
 20
156.53398271343491
 30
0.0
 42
0.0007358075
  0
VERTEX
  5
89BD
  8
AM_0
 10
124.63261626658139
 20
155.91658271343499
 30
0.0
 42
0.00078592699
  0
VERTEX
  5
89BE
  8
AM_0
 10
124.6604462665814
 20
155.29919271343499
 30
0.0
 42
0.00074823144
  0
VERTEX
  5
89BF
  8
AM_0
 10
124.6901762665811
 20
154.68180271343499
 30
0.0
 42
0.00074896603
  0
VERTEX
  5
89C0
  8
AM_0
 10
124.721736266581
 20
154.0646727134349
 30
0.0
 42
0.00076039765
  0
VERTEX
  5
89C1
  8
AM_0
 10
124.7551562665812
 20
153.44764271343499
 30
0.0
 42
0.00075616128
  0
VERTEX
  5
89C2
  8
AM_0
 10
124.7904562665812
 20
152.83061271343499
 30
0.0
  0
SEQEND
  5
89C3
  8
AM_0
  0
POLYLINE
  5
89C4
  8
AM_0
 66
     1
 10
0.0
 20
0.0
 30
0.0
  0
VERTEX
  5
89C5
  8
AM_0
 10
124.44591626658119
 20
166.509812713435
 30
0.0
 42
-0.00039106653
  0
VERTEX
  5
89C6
  8
AM_0
 10
124.4435562665812
 20
166.82094271343499
 30
0.0
 42
-0.00040574511
  0
VERTEX
  5
89C7
  8
AM_0
 10
124.4416862665812
 20
167.13205271343509
 30
0.0
 42
-0.00035346331
  0
VERTEX
  5
89C8
  8
AM_0
 10
124.4402962665813
 20
167.44316271343499
 30
0.0
 42
-0.00034406545
  0
VERTEX
  5
89C9
  8
AM_0
 10
124.4393162665812
 20
167.7543027134351
 30
0.0
 42
-0.00045699059
  0
VERTEX
  5
89CA
  8
AM_0
 10
124.4388562665813
 20
168.06540271343499
 30
0.0
 42
-0.00035573431
  0
VERTEX
  5
89CB
  8
AM_0
 10
124.4388962665812
 20
168.376502713435
 30
0.0
 42
-0.00038545888
  0
VERTEX
  5
89CC
  8
AM_0
 10
124.4393862665811
 20
168.687642713435
 30
0.0
 42
-0.00035501203
  0
VERTEX
  5
89CD
  8
AM_0
 10
124.4403462665814
 20
168.99875271343501
 30
0.0
 42
-0.00040120778
  0
VERTEX
  5
89CE
  8
AM_0
 10
124.4417662665812
 20
169.30998271343501
 30
0.0
 42
-0.00038317821
  0
VERTEX
  5
89CF
  8
AM_0
 10
124.44367626658141
 20
169.62111271343511
 30
0.0
 42
-0.00040741862
  0
VERTEX
  5
89D0
  8
AM_0
 10
124.4460762665812
 20
169.93234271343499
 30
0.0
 42
-0.00035783324
  0
VERTEX
  5
89D1
  8
AM_0
 10
124.44896626658119
 20
170.24345271343509
 30
0.0
  0
SEQEND
  5
89D2
  8
AM_0
  0
ARC
  5
89D3
  8
AM_0
 10
124.6305462665814
 20
171.509812713435
 30
0.0
 40
1.0000138999999999
 50
89.69165999999926
 51
270.30834000000073
  0
ARC
  5
89D4
  8
AM_0
 10
123.3500862665812
 20
171.51481271343499
 30
0.0
 40
1.2650129999999991
 50
89.735579000001735
 51
270.2644099999992
  0
POLYLINE
  5
89D5
  8
AM_0
 66
     1
 10
0.0
 20
0.0
 30
0.0
  0
VERTEX
  5
89D6
  8
AM_0
 10
124.44591626658119
 20
166.509812713435
 30
0.0
 42
0.00039106593
  0
VERTEX
  5
89D7
  8
AM_0
 10
124.4435562665812
 20
166.198672713435
 30
0.0
 42
0.00040574899
  0
VERTEX
  5
89D8
  8
AM_0
 10
124.4416862665812
 20
165.88756271343499
 30
0.0
 42
0.0003534546
  0
VERTEX
  5
89D9
  8
AM_0
 10
124.4402962665813
 20
165.57646271343501
 30
0.0
 42
0.00034407327
  0
VERTEX
  5
89DA
  8
AM_0
 10
124.4393162665812
 20
165.26532271343501
 30
0.0
 42
0.00045699408
  0
VERTEX
  5
89DB
  8
AM_0
 10
124.4388562665813
 20
164.954212713435
 30
0.0
 42
0.00035571853
  0
VERTEX
  5
89DC
  8
AM_0
 10
124.4388962665812
 20
164.64311271343499
 30
0.0
 42
0.00038547362
  0
VERTEX
  5
89DD
  8
AM_0
 10
124.4393862665811
 20
164.33197271343511
 30
0.0
 42
0.00035501498
  0
VERTEX
  5
89DE
  8
AM_0
 10
124.4403462665814
 20
164.0208727134351
 30
0.0
 42
0.00040118614
  0
VERTEX
  5
89DF
  8
AM_0
 10
124.4417662665812
 20
163.70963271343501
 30
0.0
 42
0.00038319871
  0
VERTEX
  5
89E0
  8
AM_0
 10
124.44367626658141
 20
163.39850271343499
 30
0.0
 42
0.00040742136
  0
VERTEX
  5
89E1
  8
AM_0
 10
124.4460762665812
 20
163.087272713435
 30
0.0
 42
0.0003578071
  0
VERTEX
  5
89E2
  8
AM_0
 10
124.44896626658119
 20
162.77616271343501
 30
0.0
  0
SEQEND
  5
89E3
  8
AM_0
  0
LINE
  5
89E7
  8
AM_0
 10
127.4459762665813
 20
203.15983271343501
 30
0.0
 11
122.0859862665811
 21
214.60981271343491
 31
0.0
  0
ARC
  5
89E8
  8
AM_0
 10
112.08098626658121
 20
193.51469271343501
 30
0.0
 40
1.004942999999999
 50
270.28111000000013
 51
359.71888999999987
  0
ARC
  5
89E9
  8
AM_0
 10
112.0861062665813
 20
189.50993271343501
 30
0.0
 40
0.9998289899999999
 50
359.99019000000038
 51
90.009811000000937
  0
ARC
  5
89EA
  8
AM_0
 10
112.0861062665813
 20
179.50993271343501
 30
0.0
 40
0.9998210099999999
 50
359.98975000000149
 51
90.010254999999034
  0
ARC
  5
89EB
  8
AM_0
 10
112.08098626658121
 20
183.51469271343501
 30
0.0
 40
1.004939
 50
270.2809100000008
 51
359.71909999999991
  0
LINE
  5
89EC
  8
AM_0
 10
110.0859262665813
 20
192.13981271343499
 30
0.0
 11
110.0859262665813
 21
190.76982271343499
 31
0.0
  0
LINE
  5
89ED
  8
AM_0
 10
112.0859262665813
 20
192.50981271343491
 30
0.0
 11
109.0859262665813
 21
192.50981271343491
 31
0.0
  0
LINE
  5
89EE
  8
AM_0
 10
112.0859262665813
 20
190.50981271343491
 30
0.0
 11
109.0859262665813
 21
190.50981271343491
 31
0.0
  0
LINE
  5
89EF
  8
AM_0
 10
112.0859262665813
 20
182.509812713435
 30
0.0
 11
109.0859262665813
 21
182.509812713435
 31
0.0
  0
LINE
  5
89F0
  8
AM_0
 10
106.09206029978439
 20
184.50163400249741
 30
0.0
 11
106.5920297822062
 21
184.46162545757559
 31
0.0
  0
LINE
  5
89F1
  8
AM_0
 10
106.5859262665812
 20
186.50978271343499
 30
0.0
 11
108.0859262665813
 21
186.6397827134349
 31
0.0
  0
LINE
  5
89F2
  8
AM_0
 10
106.5859262665812
 20
183.78984271343501
 30
0.0
 11
108.0859262665813
 21
183.78984271343501
 31
0.0
  0
ARC
  5
89F3
  8
AM_0
 10
109.0810462665813
 20
191.5146927134349
 30
0.0
 40
0.99507803
 50
89.715887000001331
 51
180.28410999999991
  0
ARC
  5
89F4
  8
AM_0
 10
109.0861762665813
 20
191.51005271343499
 30
0.0
 40
1.000203
 50
180.01164999999551
 51
269.98835000000122
  0
LINE
  5
89F5
  8
AM_0
 10
110.0859262665813
 20
182.11979271343489
 30
0.0
 11
110.0859262665813
 21
180.90983271343501
 31
0.0
  0
LINE
  5
89F6
  8
AM_0
 10
112.0859262665813
 20
180.509812713435
 30
0.0
 11
109.0859262665813
 21
180.509812713435
 31
0.0
  0
LINE
  5
89F7
  8
AM_0
 10
106.5859262665812
 20
181.65983271343489
 30
0.0
 11
108.0859262665813
 21
181.65983271343489
 31
0.0
  0
ARC
  5
89F8
  8
AM_0
 10
109.0861762665813
 20
181.51005271343499
 30
0.0
 40
1.000199999999998
 50
180.01143000000161
 51
269.98856999999839
  0
LINE
  5
89F9
  8
AM_0
 10
105.5920297822062
 20
181.73164498882571
 30
0.0
 11
106.0920297822063
 21
184.50163400249741
 31
0.0
  0
ARC
  5
89FA
  8
AM_0
 10
109.0810462665813
 20
181.51469271343501
 30
0.0
 40
0.99508202
 50
89.716098999998167
 51
180.2839099999978
  0
ARC
  5
89FB
  8
AM_0
 10
112.0876362665813
 20
199.25150271343489
 30
0.0
 40
0.9982839799999999
 50
359.90142000000009
 51
90.098576000001358
  0
ARC
  5
89FC
  8
AM_0
 10
112.38139626658131
 20
202.90434271343511
 30
0.0
 40
0.704566
 50
270.37010000000009
 51
359.62990999999778
  0
ARC
  5
89FD
  8
AM_0
 10
112.0836062665812
 20
207.49748271343501
 30
0.0
 40
1.002353
 50
0.1343268199984526
 51
89.865672999999376
  0
LINE
  5
89FE
  8
AM_0
 10
110.3859762665811
 20
209.63981271343499
 30
0.0
 11
113.0859262665813
 21
209.63981271343499
 31
0.0
  0
LINE
  5
89FF
  8
AM_0
 10
110.2859362665813
 20
202.199752713435
 30
0.0
 11
112.38591626658121
 21
202.199752713435
 31
0.0
  0
LINE
  5
8A00
  8
AM_0
 10
110.235956266581
 20
200.24980271343509
 30
0.0
 11
112.0859262665813
 21
200.24980271343509
 31
0.0
  0
LINE
  5
8A01
  8
AM_0
 10
110.0859262665813
 20
201.89982271343499
 30
0.0
 11
110.0859262665813
 21
200.83976271343499
 31
0.0
  0
ARC
  5
8A02
  8
AM_0
 10
110.2869162665813
 20
201.20439271343491
 30
0.0
 40
0.9954450099999999
 50
90.056904999999659
 51
113.12745000000059
  0
ARC
  5
8A03
  8
AM_0
 10
110.2250862665812
 20
199.257122713435
 30
0.0
 40
0.9927430199999999
 50
89.374554999998765
 51
106.3320700000012
  0
LINE
  5
8A04
  8
AM_0
 10
110.3559462665812
 20
208.49980271343509
 30
0.0
 11
112.0859262665813
 21
208.49980271343509
 31
0.0
  0
LINE
  5
8A05
  8
AM_0
 10
110.0859262665813
 20
209.33976271343499
 30
0.0
 11
110.0859262665813
 21
208.86979271343509
 31
0.0
  0
ARC
  5
8A06
  8
AM_0
 10
110.3925662665813
 20
208.64359271343491
 30
0.0
 40
0.99617702
 50
90.381317999999197
 51
123.9704899999973
  0
ARC
  5
8A07
  8
AM_0
 10
110.3653462665811
 20
207.5033427134351
 30
0.0
 40
0.99648702
 50
90.540720999998641
 51
120.74376999999789
  0
ARC
  5
8A08
  8
AM_0
 10
109.0822062665811
 20
198.90556271343499
 30
0.0
 40
0.9962710099999999
 50
106.6979199999999
 51
180.33004999999989
  0
ARC
  5
8A09
  8
AM_0
 10
109.08232626658121
 20
200.691322713435
 30
0.0
 40
0.9963999999999998
 50
112.8173600000008
 51
180.0904199999996
  0
ARC
  5
8A0A
  8
AM_0
 10
109.0807362665812
 20
207.78739271343511
 30
0.0
 40
0.9948369899999999
 50
123.204960000002
 51
180.43785999999801
  0
ARC
  5
8A0B
  8
AM_0
 10
109.08000626658119
 20
206.75297271343501
 30
0.0
 40
0.99404597
 50
120.4681999999996
 51
180.18564000000029
  0
LINE
  5
8A0C
  8
AM_0
 10
109.8959262665812
 20
202.11982271343501
 30
0.0
 11
108.6959762665813
 21
201.6098127134351
 31
0.0
  0
LINE
  5
8A0D
  8
AM_0
 10
109.94591626658119
 20
200.209852713435
 30
0.0
 11
108.7959462665812
 21
199.859842713435
 31
0.0
  0
LINE
  5
8A0E
  8
AM_0
 10
109.83586626658141
 20
209.46983271343501
 30
0.0
 11
108.5358762665812
 21
208.61985271343511
 31
0.0
  0
LINE
  5
8A0F
  8
AM_0
 10
109.85588626658129
 20
208.35984271343511
 30
0.0
 11
108.5759162665813
 21
207.60984271343511
 31
0.0
  0
LINE
  5
8A10
  8
AM_0
 10
114.7859362665813
 20
209.699752713435
 30
0.0
 11
121.0159162665813
 21
209.699752713435
 31
0.0
  0
POLYLINE
  5
8A11
  8
AM_0
 66
     1
 10
0.0
 20
0.0
 30
0.0
  0
VERTEX
  5
8A12
  8
AM_0
 10
125.9468262665814
 20
192.9928427134349
 30
0.0
 42
-0.00068898283
  0
VERTEX
  5
8A13
  8
AM_0
 10
126.0177062665811
 20
193.56759271343489
 30
0.0
 42
-0.00070644357
  0
VERTEX
  5
8A14
  8
AM_0
 10
126.0902062665814
 20
194.14228271343509
 30
0.0
 42
-0.00069248074
  0
VERTEX
  5
8A15
  8
AM_0
 10
126.1642962665812
 20
194.71659271343489
 30
0.0
 42
-0.0006958566
  0
VERTEX
  5
8A16
  8
AM_0
 10
126.23997626658139
 20
195.29073271343489
 30
0.0
 42
-0.00071687219
  0
VERTEX
  5
8A17
  8
AM_0
 10
126.31728626658099
 20
195.86473271343499
 30
0.0
 42
-0.00069760022
  0
VERTEX
  5
8A18
  8
AM_0
 10
126.39622626658139
 20
196.43852271343499
 30
0.0
 42
-0.00071002302
  0
VERTEX
  5
8A19
  8
AM_0
 10
126.47676626658129
 20
197.01199271343501
 30
0.0
 42
-0.00069954889
  0
VERTEX
  5
8A1A
  8
AM_0
 10
126.5589062665813
 20
197.58509271343499
 30
0.0
 42
-0.00071887947
  0
VERTEX
  5
8A1B
  8
AM_0
 10
126.64268626658119
 20
198.15812271343509
 30
0.0
 42
-0.00071266929
  0
VERTEX
  5
8A1C
  8
AM_0
 10
126.7281162665813
 20
198.73089271343511
 30
0.0
 42
-0.00071614429
  0
VERTEX
  5
8A1D
  8
AM_0
 10
126.81514626658119
 20
199.30323271343499
 30
0.0
 42
-0.00072288978
  0
VERTEX
  5
8A1E
  8
AM_0
 10
126.9038562665812
 20
199.87553271343501
 30
0.0
  0
SEQEND
  5
8A1F
  8
AM_0
  0
POLYLINE
  5
8A20
  8
AM_0
 66
     1
 10
0.0
 20
0.0
 30
0.0
  0
VERTEX
  5
8A21
  8
AM_0
 10
124.9641662665813
 20
182.85038271343501
 30
0.0
 42
-0.0007337051
  0
VERTEX
  5
8A22
  8
AM_0
 10
125.0083062665812
 20
183.452792713435
 30
0.0
 42
-0.00075211323
  0
VERTEX
  5
8A23
  8
AM_0
 10
125.0542462665812
 20
184.0551927134351
 30
0.0
 42
-0.0007297491
  0
VERTEX
  5
8A24
  8
AM_0
 10
125.1019762665812
 20
184.65739271343489
 30
0.0
 42
-0.00073593041
  0
VERTEX
  5
8A25
  8
AM_0
 10
125.15145626658111
 20
185.259382713435
 30
0.0
 42
-0.00074742739
  0
VERTEX
  5
8A26
  8
AM_0
 10
125.20272626658129
 20
185.86124271343499
 30
0.0
 42
-0.00073217363
  0
VERTEX
  5
8A27
  8
AM_0
 10
125.2557862665812
 20
186.46305271343499
 30
0.0
 42
-0.00073754168
  0
VERTEX
  5
8A28
  8
AM_0
 10
125.3106062665811
 20
187.06459271343499
 30
0.0
 42
-0.00073075073
  0
VERTEX
  5
8A29
  8
AM_0
 10
125.3671862665812
 20
187.66594271343499
 30
0.0
 42
-0.00074550816
  0
VERTEX
  5
8A2A
  8
AM_0
 10
125.425526266581
 20
188.26701271343501
 30
0.0
 42
-0.00074288416
  0
VERTEX
  5
8A2B
  8
AM_0
 10
125.48567626658129
 20
188.86803271343501
 30
0.0
 42
-0.00072504001
  0
VERTEX
  5
8A2C
  8
AM_0
 10
125.54758626658121
 20
189.4687727134351
 30
0.0
 42
-0.00074640667
  0
VERTEX
  5
8A2D
  8
AM_0
 10
125.61125626658119
 20
190.069382713435
 30
0.0
  0
SEQEND
  5
8A2E
  8
AM_0
  0
ARC
  5
8A2F
  8
AM_0
 10
124.6305462665814
 20
191.50981271343491
 30
0.0
 40
1.0000138999999999
 50
89.69165999999926
 51
270.30834000000073
  0
ARC
  5
8A30
  8
AM_0
 10
123.5459462665812
 20
191.53483271343501
 30
0.0
 40
1.465004
 50
90.000003000000945
 51
270.0
  0
ARC
  5
8A31
  8
AM_0
 10
124.6305462665814
 20
181.509812713435
 30
0.0
 40
1.0000138999999999
 50
89.69165999999926
 51
270.30834000000073
  0
ARC
  5
8A32
  8
AM_0
 10
123.4159462665811
 20
181.51982271343499
 30
0.0
 40
1.3300049999999981
 50
90.000003000000945
 51
270.0
  0
ARC
  5
8A33
  8
AM_0
 10
124.6305462665814
 20
201.50981271343511
 30
0.0
 40
1.0000138999999999
 50
89.69165999999926
 51
270.30834000000073
  0
ARC
  5
8A34
  8
AM_0
 10
123.7585362665813
 20
201.554852713435
 30
0.0
 40
1.6750160000000001
 50
89.746145000001235
 51
270.25387000000092
  0
LINE
  5
8A35
  8
AM_0
 10
114.0859262665813
 20
219.509812713435
 30
0.0
 11
122.0859262665813
 21
219.509812713435
 31
0.0
  0
ARC
  5
8A36
  8
AM_0
 10
112.58134626658121
 20
216.7644427134351
 30
0.0
 40
0.50463498
 50
270.52383000000037
 51
359.47616999999963
  0
ARC
  5
8A37
  8
AM_0
 10
112.0869062665811
 20
212.01078271343499
 30
0.0
 40
0.9990100299999999
 50
359.94319000000132
 51
90.056809000000058
  0
LINE
  5
8A38
  8
AM_0
 10
110.36595626658119
 20
214.14982271343499
 30
0.0
 11
113.0859262665813
 21
214.14982271343499
 31
0.0
  0
ARC
  5
8A39
  8
AM_0
 10
112.5876362665813
 20
214.61149271343501
 30
0.0
 40
0.4983060100000002
 50
359.80488999999778
 51
90.195107000000036
  0
LINE
  5
8A3A
  8
AM_0
 10
110.0859262665813
 20
216.00981271343511
 30
0.0
 11
110.0859262665813
 21
215.4797827134351
 31
0.0
  0
LINE
  5
8A3B
  8
AM_0
 10
110.3559462665812
 20
216.25981271343511
 30
0.0
 11
112.5859262665813
 21
216.25981271343511
 31
0.0
  0
ARC
  5
8A3C
  8
AM_0
 10
110.34795626658109
 20
215.26396271343501
 30
0.0
 40
0.9959030199999999
 50
89.541266999999124
 51
119.6071700000001
  0
LINE
  5
8A3D
  8
AM_0
 10
109.8559462665812
 20
216.12977271343499
 30
0.0
 11
108.5859862665811
 21
215.38978271343501
 31
0.0
  0
ARC
  5
8A3E
  8
AM_0
 10
110.3547862665812
 20
213.1555627134349
 30
0.0
 40
0.99427301
 50
89.356066000000055
 51
120.7809100000017
  0
LINE
  5
8A3F
  8
AM_0
 10
110.3259162665813
 20
215.10978271343501
 30
0.0
 11
112.5859262665813
 21
215.10978271343501
 31
0.0
  0
ARC
  5
8A40
  8
AM_0
 10
110.3107162665812
 20
214.11576271343489
 30
0.0
 40
0.99411702
 50
89.122643999998544
 51
115.9349799999995
  0
LINE
  5
8A41
  8
AM_0
 10
110.3359262665813
 20
213.00981271343491
 30
0.0
 11
112.0859262665813
 21
213.00981271343491
 31
0.0
  0
LINE
  5
8A42
  8
AM_0
 10
110.0859262665813
 20
213.90983271343501
 30
0.0
 11
110.0859262665813
 21
213.35978271343501
 31
0.0
  0
ARC
  5
8A43
  8
AM_0
 10
110.3210362665813
 20
212.0144427134351
 30
0.0
 40
0.99545902
 50
89.141290999999939
 51
117.20382000000021
  0
ARC
  5
8A44
  8
AM_0
 10
109.07915626658129
 20
211.35124271343511
 30
0.0
 40
0.9932109699999999
 50
117.79932000000061
 51
180.08187000000001
  0
ARC
  5
8A45
  8
AM_0
 10
109.0815362665812
 20
213.4895427134351
 30
0.0
 40
0.995579
 50
116.5870899999978
 51
179.98263999999989
  0
ARC
  5
8A46
  8
AM_0
 10
109.0803762665812
 20
212.38883271343499
 30
0.0
 40
0.9944329899999999
 50
121.1521299999998
 51
179.94050999999911
  0
LINE
  5
8A47
  8
AM_0
 10
109.8759062665813
 20
215.009812713435
 30
0.0
 11
108.63591626658121
 21
214.37980271343511
 31
0.0
  0
LINE
  5
8A48
  8
AM_0
 10
109.8458762665814
 20
214.00987271343499
 30
0.0
 11
108.56590626658129
 21
213.23985271343511
 31
0.0
  0
LINE
  5
8A49
  8
AM_0
 10
109.86595626658119
 20
212.89985271343511
 30
0.0
 11
108.61595626658119
 21
212.22984271343509
 31
0.0
  0
ARC
  5
8A4A
  8
AM_0
 10
109.07915626658129
 20
214.52775271343501
 30
0.0
 40
0.99319202
 50
119.7733800000008
 51
179.87958999999799
  0
LINE
  5
8A4B
  8
AM_0
 10
113.0859262665813
 20
216.50981271343511
 30
0.0
 11
114.0859262665813
 21
216.50981271343511
 31
0.0
  0
ARC
  5
8A4C
  8
AM_0
 10
125.3724262665812
 20
226.40421271343499
 30
0.0
 40
1.995633
 50
89.899707999999052
 51
172.06112999999939
  0
ARC
  5
8A4D
  8
AM_0
 10
125.35051626658129
 20
225.493082713435
 30
0.0
 40
1.9967330000000001
 50
89.843966999998912
 51
171.45388000000389
  0
LINE
  5
8A4E
  8
AM_0
 10
122.0859862665811
 20
217.29978271343501
 30
0.0
 11
123.3759662665811
 21
225.7898727134351
 31
0.0
  0
LINE
  5
8A4F
  8
AM_0
 10
122.0859862665811
 20
215.949842713435
 30
0.0
 11
123.36595626658119
 21
223.95979271343501
 31
0.0
  0
ARC
  5
8A50
  8
AM_0
 10
125.3361762665813
 20
223.64457271343511
 30
0.0
 40
1.9952829999999999
 50
90.00620400000011
 51
170.90835000000069
  0
ARC
  5
8A51
  8
AM_0
 10
125.28465626658129
 20
220.7956927134351
 30
0.0
 40
1.994108999999999
 50
89.675547999999495
 51
169.18776999999901
  0
LINE
  5
8A52
  8
AM_0
 10
122.0859262665813
 20
217.29981271343499
 30
0.0
 11
123.3959262665812
 21
226.679852713435
 31
0.0
  0
LINE
  5
8A53
  8
AM_0
 10
122.0859262665813
 20
214.60987271343501
 30
0.0
 11
123.3259162665813
 21
221.1698727134351
 31
0.0
  0
ARC
  5
8A55
  8
AM_0
 10
158.5246462665813
 20
161.509812713435
 30
0.0
 40
1.000005699999998
 50
269.999989999999
 51
90.000003000000945
  0
ARC
  5
8A56
  8
AM_0
 10
159.81285626658109
 20
161.509812713435
 30
0.0
 40
1.2700266
 50
269.62932000000001
 51
90.370669999998199
  0
ARC
  5
8A57
  8
AM_0
 10
159.7509062665813
 20
151.49980271343509
 30
0.0
 40
1.3300148000000001
 50
269.7294199999987
 51
90.270567000000995
  0
ARC
  5
8A58
  8
AM_0
 10
158.5246462665813
 20
151.509812713435
 30
0.0
 40
1.000005699999998
 50
269.999989999999
 51
90.000003000000945
  0
ARC
  5
8A59
  8
AM_0
 10
158.5246462665813
 20
171.509812713435
 30
0.0
 40
1.000005699999998
 50
269.999989999999
 51
90.000003000000945
  0
ARC
  5
8A5A
  8
AM_0
 10
159.81285626658109
 20
171.51982271343499
 30
0.0
 40
1.2700266
 50
269.62932000000001
 51
90.370669999998199
  0
ARC
  5
8A5B
  8
AM_0
 10
191.08592626658131
 20
139.009812713435
 30
0.0
 40
1.02
 50
0.0
 51
90.000003000000945
  0
ARC
  5
8A5C
  8
AM_0
 10
191.08592626658131
 20
139.009812713435
 30
0.0
 40
1.5
 50
0.0
 51
90.000003000000945
  0
ARC
  5
8A5D
  8
AM_0
 10
191.08592626658131
 20
134.009812713435
 30
0.0
 40
1.5
 50
269.999989999999
 51
0.0000006832495047
  0
ARC
  5
8A5E
  8
AM_0
 10
191.10594626658121
 20
134.14982271343499
 30
0.0
 40
1.0
 50
269.999989999999
 51
0.0000006832495047
  0
LINE
  5
8A5F
  8
AM_0
 10
192.10594626658121
 20
139.009812713435
 30
0.0
 11
192.10594626658121
 21
134.14982271343499
 31
0.0
  0
LINE
  5
8A60
  8
AM_0
 10
192.58592626658131
 20
139.009812713435
 30
0.0
 11
192.58592626658131
 21
134.009812713435
 31
0.0
  0
CIRCLE
  5
8A61
  8
AM_0
 10
197.58592626658131
 20
138.009812713435
 30
0.0
 40
1.149999999999999
  0
CIRCLE
  5
8A62
  8
AM_0
 10
197.58592626658131
 20
138.009812713435
 30
0.0
 40
1.1000000000000001
  0
LINE
  5
8A63
  8
AM_0
 10
208.0659662665812
 20
139.009812713435
 30
0.0
 11
208.0659662665812
 21
134.14982271343499
 31
0.0
  0
LINE
  5
8A64
  8
AM_0
 10
207.58592626658131
 20
139.009812713435
 30
0.0
 11
207.58592626658131
 21
134.009812713435
 31
0.0
  0
ARC
  5
8A65
  8
AM_0
 10
209.08592626658131
 20
139.009812713435
 30
0.0
 40
1.02
 50
90.000003000000945
 51
180.000010000001
  0
ARC
  5
8A66
  8
AM_0
 10
209.08592626658131
 20
139.009812713435
 30
0.0
 40
1.5
 50
90.000003000000945
 51
180.000010000001
  0
CIRCLE
  5
8A67
  8
AM_0
 10
202.58592626658131
 20
138.009812713435
 30
0.0
 40
1.0
  0
ARC
  5
8A68
  8
AM_0
 10
209.08592626658131
 20
134.009812713435
 30
0.0
 40
1.5
 50
179.999989999999
 51
270.0
  0
ARC
  5
8A69
  8
AM_0
 10
209.0659662665812
 20
134.14982271343499
 30
0.0
 40
1.0
 50
179.999989999999
 51
270.0
  0
ARC
  5
8A6A
  8
AM_0
 10
158.5246462665813
 20
181.509812713435
 30
0.0
 40
1.000005699999998
 50
269.999989999999
 51
90.000003000000945
  0
ARC
  5
8A6B
  8
AM_0
 10
159.7509062665813
 20
181.52482271343499
 30
0.0
 40
1.3350147999999999
 50
269.7304299999999
 51
90.269556000001415
  0
ARC
  5
8A6C
  8
AM_0
 10
191.08592626658131
 20
199.00981271343491
 30
0.0
 40
1.5
 50
0.0
 51
90.000003000000945
  0
ARC
  5
8A6D
  8
AM_0
 10
191.10594626658121
 20
198.869792713435
 30
0.0
 40
1.0
 50
0.0
 51
90.000003000000945
  0
ARC
  5
8A6E
  8
AM_0
 10
191.08592626658131
 20
194.009812713435
 30
0.0
 40
1.02
 50
269.999989999999
 51
0.0000006832429909
  0
ARC
  5
8A6F
  8
AM_0
 10
191.08592626658131
 20
194.009812713435
 30
0.0
 40
1.5
 50
269.999989999999
 51
0.0000006832495047
  0
LINE
  5
8A70
  8
AM_0
 10
192.10594626658121
 20
194.009812713435
 30
0.0
 11
192.10594626658121
 21
198.869792713435
 31
0.0
  0
CIRCLE
  5
8A71
  8
AM_0
 10
202.58592626658131
 20
195.009812713435
 30
0.0
 40
1.0
  0
LINE
  5
8A72
  8
AM_0
 10
208.0659662665812
 20
194.009812713435
 30
0.0
 11
208.0659662665812
 21
198.869792713435
 31
0.0
  0
LINE
  5
8A73
  8
AM_0
 10
207.58592626658131
 20
194.009812713435
 30
0.0
 11
207.58592626658131
 21
199.00981271343491
 31
0.0
  0
LINE
  5
8A74
  8
AM_0
 10
192.58592626658131
 20
194.009812713435
 30
0.0
 11
192.58592626658131
 21
199.00981271343491
 31
0.0
  0
CIRCLE
  5
8A75
  8
AM_0
 10
197.58592626658131
 20
195.009812713435
 30
0.0
 40
1.1000000000000001
  0
CIRCLE
  5
8A76
  8
AM_0
 10
197.58592626658131
 20
195.009812713435
 30
0.0
 40
1.149999999999999
  0
ARC
  5
8A77
  8
AM_0
 10
209.08592626658131
 20
194.009812713435
 30
0.0
 40
1.02
 50
179.999989999999
 51
270.0
  0
ARC
  5
8A78
  8
AM_0
 10
209.08592626658131
 20
194.009812713435
 30
0.0
 40
1.5
 50
179.999989999999
 51
270.0
  0
ARC
  5
8A79
  8
AM_0
 10
209.0659662665812
 20
198.869792713435
 30
0.0
 40
1.0
 50
90.000003000000945
 51
180.000010000001
  0
ARC
  5
8A7A
  8
AM_0
 10
209.08592626658131
 20
199.00981271343491
 30
0.0
 40
1.5
 50
90.000003000000945
 51
180.000010000001
  0
LINE
  5
8A94
  8
AM_0
 10
229.08592626658131
 20
113.509812713435
 30
0.0
 11
223.3601862665812
 21
104.69291271343501
 31
0.0
  0
LINE
  5
8A95
  8
AM_0
 10
230.08592626658131
 20
222.50981271343511
 30
0.0
 11
230.08592626658131
 21
110.509812713435
 31
0.0
  0
LINE
  5
8A96
  8
AM_0
 10
226.92129394613019
 20
122.0737294892359
 30
0.0
 11
224.1459262665812
 21
111.7098227134351
 31
0.0
  0
LINE
  5
8A98
  8
AM_0
 10
238.08592626658131
 20
222.50981271343511
 30
0.0
 11
238.08592626658131
 21
110.509812713435
 31
0.0
  0
LINE
  5
8A9A
  8
AM_0
 10
210.58592626658111
 20
100.5098127134349
 30
0.0
 11
210.58592626658111
 21
93.509812713435039
 31
0.0
  0
LINE
  5
8A9B
  8
AM_0
 10
210.66502507451739
 20
104.009812713435
 30
0.0
 11
222.10216626658121
 21
104.009812713435
 31
0.0
  0
ARC
  5
8A9C
  8
AM_0
 10
222.10216626658121
 20
105.509812713435
 30
0.0
 40
1.5
 50
269.999989999999
 51
326.99999999999892
  0
ARC
  5
8A9D
  8
AM_0
 10
222.21110626658131
 20
112.234542713435
 30
0.0
 40
2.0047290000000002
 50
270.13832000000099
 51
344.82650000000189
  0
LINE
  5
8A9E
  8
AM_0
 10
230.08592626658131
 20
110.509812713435
 30
0.0
 11
238.08592626658131
 21
110.509812713435
 31
0.0
  0
LINE
  5
8AAA
  8
AM_0
 10
230.08592626658131
 20
134.5698727134351
 30
0.0
 11
238.08592626658131
 21
134.5698727134351
 31
0.0
  0
LINE
  5
8AAB
  8
AM_0
 10
230.08592626658131
 20
120.509812713435
 30
0.0
 11
238.08592626658131
 21
120.509812713435
 31
0.0
  0
ARC
  5
8AAE
  8
AM_0
 10
227.1259062665813
 20
141.47978271343499
 30
0.0
 40
1.460011199999999
 50
269.77524999999991
 51
90.224750000000071
  0
ARC
  5
8AAF
  8
AM_0
 10
228.1859262665815
 20
126.8098327134349
 30
0.0
 40
1.699996899999999
 50
90.000003000000945
 51
179.99998000000451
  0
ARC
  5
8AB0
  8
AM_0
 10
228.1859262665815
 20
123.2098227134348
 30
0.0
 40
1.7000007999999991
 50
180.000010000001
 51
269.99998000000119
  0
ARC
  5
8AB1
  8
AM_0
 10
226.90593626658119
 20
131.46476271343499
 30
0.0
 40
1.6750020000000001
 50
269.999989999999
 51
90.000003000000945
  0
LINE
  5
8AB2
  8
AM_0
 10
224.6279762665813
 20
113.509812713435
 30
0.0
 11
230.08592626658131
 21
113.509812713435
 31
0.0
  0
LINE
  5
8AB3
  8
AM_0
 10
226.48594626658129
 20
126.8098327134349
 30
0.0
 11
226.48594626658129
 21
123.2098227134348
 31
0.0
  0
ARC
  5
8AB4
  8
AM_0
 10
223.4258962665813
 20
141.509812713435
 30
0.0
 40
1.0000255999999981
 50
269.58947000000001
 51
90.410531000001029
  0
ARC
  5
8AB5
  8
AM_0
 10
223.4259562665811
 20
131.509812713435
 30
0.0
 40
1.0
 50
269.999989999999
 51
90.000003000000945
  0
LINE
  5
8AB6
  8
AM_0
 10
229.08592626658131
 20
128.80983271343499
 30
0.0
 11
229.08592626658131
 21
121.2098227134349
 31
0.0
  0
LINE
  5
8AB7
  8
AM_0
 10
230.08592626658131
 20
128.80983271343499
 30
0.0
 11
230.08592626658131
 21
121.2098227134349
 31
0.0
  0
LINE
  5
8AB8
  8
AM_0
 10
230.08592626658131
 20
125.787182713435
 30
0.0
 11
229.08592626658131
 21
125.2098227134349
 31
0.0
  0
LINE
  5
8AB9
  8
AM_0
 10
229.08592626658131
 20
128.5098127134352
 30
0.0
 11
228.1859262665815
 21
128.5098127134352
 31
0.0
  0
LINE
  5
8ABA
  8
AM_0
 10
229.08592626658131
 20
121.2098227134349
 30
0.0
 11
230.08592626658131
 21
121.2098227134349
 31
0.0
  0
LINE
  5
8ABB
  8
AM_0
 10
229.08592626658131
 20
121.509812713435
 30
0.0
 11
228.1859262665815
 21
121.509812713435
 31
0.0
  0
LINE
  5
8ABC
  8
AM_0
 10
230.08592626658131
 20
124.787182713435
 30
0.0
 11
229.08592626658131
 21
124.2098227134349
 31
0.0
  0
LINE
  5
8ABD
  8
AM_0
 10
229.08592626658131
 20
128.80983271343499
 30
0.0
 11
230.08592626658131
 21
128.80983271343499
 31
0.0
  0
LINE
  5
8AC6
  8
AM_0
 10
230.08592626658131
 20
212.509812713435
 30
0.0
 11
238.08592626658131
 21
212.509812713435
 31
0.0
  0
LINE
  5
8AC7
  8
AM_0
 10
230.08592626658131
 20
198.44976271343489
 30
0.0
 11
238.08592626658131
 21
198.44976271343489
 31
0.0
  0
ARC
  5
8ACA
  8
AM_0
 10
228.1859262665813
 20
209.80980271343509
 30
0.0
 40
1.7000007999999991
 50
90.000020000002024
 51
179.999989999999
  0
LINE
  5
8ACB
  8
AM_0
 10
229.08592626658131
 20
204.20979271343501
 30
0.0
 11
229.08592626658131
 21
211.80980271343509
 31
0.0
  0
LINE
  5
8ACC
  8
AM_0
 10
230.08592626658131
 20
204.20979271343501
 30
0.0
 11
230.08592626658131
 21
211.80980271343509
 31
0.0
  0
ARC
  5
8ACD
  8
AM_0
 10
228.1859262665813
 20
206.20979271343521
 30
0.0
 40
1.699996899999999
 50
180.00001999999549
 51
269.9999969999991
  0
ARC
  5
8ACE
  8
AM_0
 10
226.90593626658119
 20
201.554852713435
 30
0.0
 40
1.6750020000000001
 50
269.999989999999
 51
90.000003000000945
  0
ARC
  5
8ACF
  8
AM_0
 10
227.1259062665813
 20
191.53984271343501
 30
0.0
 40
1.460011199999999
 50
269.77524999999991
 51
90.224750000000071
  0
ARC
  5
8AD0
  8
AM_0
 10
223.4258962665813
 20
191.50981271343491
 30
0.0
 40
1.0000255999999981
 50
269.58947000000001
 51
90.410531000001029
  0
LINE
  5
8AD1
  8
AM_0
 10
226.48594626658129
 20
206.20979271343521
 30
0.0
 11
226.48594626658129
 21
209.80980271343509
 31
0.0
  0
ARC
  5
8AD2
  8
AM_0
 10
223.4259562665811
 20
201.50981271343511
 30
0.0
 40
1.0
 50
269.999989999999
 51
90.000003000000945
  0
LINE
  5
8AD3
  8
AM_0
 10
229.08592626658131
 20
204.509812713435
 30
0.0
 11
228.1859262665813
 21
204.509812713435
 31
0.0
  0
LINE
  5
8AD4
  8
AM_0
 10
229.08592626658131
 20
204.20979271343501
 30
0.0
 11
230.08592626658131
 21
204.20979271343501
 31
0.0
  0
LINE
  5
8AD5
  8
AM_0
 10
230.08592626658131
 20
207.23244271343501
 30
0.0
 11
229.08592626658131
 21
207.809802713435
 31
0.0
  0
LINE
  5
8AD6
  8
AM_0
 10
230.08592626658131
 20
208.23244271343501
 30
0.0
 11
229.08592626658131
 21
208.809802713435
 31
0.0
  0
LINE
  5
8AD7
  8
AM_0
 10
226.13029622670041
 20
219.509812713435
 30
0.0
 11
230.08592626658131
 21
219.509812713435
 31
0.0
  0
LINE
  5
8AD8
  8
AM_0
 10
228.03081412247809
 20
211.5027123219943
 30
0.0
 11
224.1459262665812
 21
226.00981271343511
 31
0.0
  0
LINE
  5
8AD9
  8
AM_0
 10
227.5649635899704
 20
211.39233488506909
 30
0.0
 11
224.1459262665812
 21
224.15986271343499
 31
0.0
  0
LINE
  5
8ADA
  8
AM_0
 10
228.29167626658139
 20
211.43870271343511
 30
0.0
 11
224.14595626658121
 21
226.91981271343499
 31
0.0
  0
ARC
  5
8ADB
  8
AM_0
 10
222.21110626658131
 20
225.485032713435
 30
0.0
 40
2.0047290000000002
 50
15.173495999996319
 51
89.861678000000197
  0
ARC
  5
8ADC
  8
AM_0
 10
222.21110626658131
 20
223.63505271343499
 30
0.0
 40
2.0047290000000002
 50
15.173495999996319
 51
89.861678000000197
  0
ARC
  5
8ADD
  8
AM_0
 10
222.21605626658129
 20
220.79154271343509
 30
0.0
 40
1.9982919999999991
 50
15.032547999996
 51
90.002632000001341
  0
LINE
  5
8ADE
  8
AM_0
 10
226.9213100938689
 20
210.94591391209261
 30
0.0
 11
224.1459862665811
 21
221.309792713435
 31
0.0
  0
ARC
  5
8ADF
  8
AM_0
 10
222.21110626658131
 20
226.39506271343501
 30
0.0
 40
2.0047290000000002
 50
15.173495999996319
 51
89.861678000000197
  0
LINE
  5
8AE0
  8
AM_0
 10
230.08592626658131
 20
222.50981271343511
 30
0.0
 11
238.08592626658131
 21
222.50981271343511
 31
0.0
  0
LINE
  5
8AE1
  8
AM_0
 10
229.08592626658131
 20
211.80980271343509
 30
0.0
 11
230.08592626658131
 21
211.80980271343509
 31
0.0
  0
LINE
  5
8AE2
  8
AM_0
 10
229.08592626658131
 20
211.50981271343511
 30
0.0
 11
228.1859262665813
 21
211.50981271343511
 31
0.0
  0
LINE
  5
90CB
  8
AM_0
 10
230.08592626658131
 20
-15.382411541010301
 30
0.0
 11
230.08592626658131
 21
-127.3823925410103
 31
0.0
  0
LINE
  5
90CC
  8
AM_0
 10
114.0859262665813
 20
-18.382411541010299
 30
0.0
 11
114.0859262665813
 21
-124.3823925410103
 31
0.0
  0
LINE
  5
90CD
  8
AM_0
 10
122.0859262665813
 20
-18.382411541010299
 30
0.0
 11
122.0859262665813
 21
-120.8226395410103
 31
0.0
  0
LINE
  5
90CE
  8
AM_0
 10
122.0859262665813
 20
-23.286701541010299
 30
0.0
 11
123.3271962665813
 21
-16.72726154101036
 31
0.0
  0
LINE
  5
90CF
  8
AM_0
 10
122.0859862665812
 20
-21.942171541010339
 30
0.0
 11
123.3660162665813
 21
-13.93698154101031
 31
0.0
  0
LINE
  5
90D0
  8
AM_0
 10
122.0859262665813
 20
-20.597531541010309
 30
0.0
 11
123.3769462665813
 21
-12.104491541010299
 31
0.0
  0
LINE
  5
90D1
  8
AM_0
 10
122.0859262665813
 20
-20.597531541010309
 30
0.0
 11
123.3947662665813
 21
-11.21809154101032
 31
0.0
  0
LINE
  5
90D2
  8
AM_0
 10
228.28804626658129
 20
-32.04759154101032
 30
0.0
 11
224.14390626658121
 21
-16.58151154101034
 31
0.0
  0
LINE
  5
90D3
  8
AM_0
 10
238.08592626658131
 20
-15.38237154101034
 30
0.0
 11
238.08592626658131
 21
-127.3823925410103
 31
0.0
  0
LINE
  5
90D4
  8
ﾁｭｳｼﾝｾﾝ1
 10
101.5859262665813
 20
-71.382401541010324
 30
0.0
 11
414.58593085613882
 21
-71.382358091435435
 31
0.0
1001
GENIUS_GENODEF_13
1002
{
1000
HIER
1070
     0
1002
}
1002
{
1000
MANEDIT
1070
     0
1002
}
1002
{
1000
NOSEL
1070
     0
1002
}
1002
{
1000
BEHIND
1070
     0
1002
}
1002
{
1000
REACTOR
1002
}
1001
GENIUS_GENOBJ-N-CEN_13
1002
{
1000
OWNER
1000
GEN
1002
}
  0
ARC
  5
90D5
  8
AM_0
 10
123.7632362665812
 20
-36.337291541010302
 30
0.0
 40
1.6779127
 50
90.000003000000945
 51
270.0
  0
ARC
  5
90D6
  8
AM_0
 10
123.54741626658129
 20
-46.357741541010341
 30
0.0
 40
1.4614868000000001
 50
90.000003000000945
 51
270.0
  0
ARC
  5
90D7
  8
AM_0
 10
123.41685626658121
 20
-56.369841541010317
 30
0.0
 40
1.3309325999999999
 50
90.000003000000945
 51
270.0
  0
ARC
  5
90D8
  8
AM_0
 10
123.3548462665813
 20
-66.378571541010331
 30
0.0
 40
1.268920899999999
 50
90.000003000000945
 51
270.0
  0
ARC
  5
90D9
  8
AM_0
 10
123.3548462665813
 20
-76.386301541010312
 30
0.0
 40
1.268920899999999
 50
90.000003000000945
 51
270.0
  0
ARC
  5
90DA
  8
AM_0
 10
123.41685626658121
 20
-86.394961541010304
 30
0.0
 40
1.3309325999999999
 50
90.000003000000945
 51
270.0
  0
ARC
  5
90DB
  8
AM_0
 10
123.5474762665813
 20
-96.407131541010301
 30
0.0
 40
1.4615020999999999
 50
90.000003000000945
 51
270.0
  0
ARC
  5
90DC
  8
AM_0
 10
123.7638462665813
 20
-106.4275735410103
 30
0.0
 40
1.6779174999999991
 50
90.000003000000945
 51
270.0
  0
LINE
  5
90DD
  8
AM_0
 10
127.4513462665813
 20
-34.731211541010339
 30
0.0
 11
122.0859262665813
 21
-23.286741541010372
 31
0.0
  0
LINE
  5
90DE
  8
AM_0
 10
127.4514062665812
 20
-108.0336455410103
 30
0.0
 11
122.0859862665812
 21
-119.4781185410103
 31
0.0
  0
LINE
  5
90DF
  8
AM_0
 10
122.0859262665813
 20
-119.4781485410103
 30
0.0
 11
123.3271962665813
 21
-126.0375205410103
 31
0.0
  0
LINE
  5
90E0
  8
AM_0
 10
122.0859262665813
 20
-120.8226845410103
 30
0.0
 11
123.36595626658119
 21
-128.8278575410103
 31
0.0
  0
LINE
  5
90E1
  8
AM_0
 10
122.08586626658131
 20
-122.1672355410103
 30
0.0
 11
123.3769462665813
 21
-130.66036954101031
 31
0.0
  0
LINE
  5
90E2
  8
AM_0
 10
122.0859262665813
 20
-122.1672815410103
 30
0.0
 11
123.3947662665813
 21
-131.5467215410103
 31
0.0
  0
ARC
  5
90E3
  8
AM_0
 10
109.0859262665813
 20
-86.382401541010324
 30
0.0
 40
1.0
 50
179.999989999999
 51
270.0
  0
LINE
  5
90E4
  8
AM_0
 10
106.5859262665812
 20
-51.382411541010292
 30
0.0
 11
106.5859262665812
 21
-91.382391541010335
 31
0.0
  0
LINE
  5
90E5
  8
AM_0
 10
110.0859262665813
 20
-86.989511541010359
 30
0.0
 11
110.0859262665813
 21
-85.778151541010345
 31
0.0
  0
LINE
  5
90E6
  8
AM_0
 10
113.0859262665813
 20
-21.382411541010299
 30
0.0
 11
113.0859262665813
 21
-122.50563054101031
 31
0.0
  0
LINE
  5
90E7
  8
AM_0
 10
108.0859262665813
 20
-119.39881054101031
 30
0.0
 11
108.0859262665813
 21
-76.382391541010335
 31
0.0
  0
ARC
  5
90E8
  8
AM_0
 10
109.0859262665813
 20
-119.39881054101031
 30
0.0
 40
1.0
 50
179.999989999999
 51
239.97360999999819
  0
LINE
  5
90E9
  8
AM_0
 10
114.0859262665813
 20
-124.3823925410103
 30
0.0
 11
122.0859262665813
 21
-124.3823925410103
 31
0.0
  0
ARC
  5
90EA
  8
AM_0
 10
110.3541162665813
 20
-120.1317825410103
 30
0.0
 40
1.0
 50
239.9736000000006
 51
270.0
  0
LINE
  5
90EB
  8
AM_0
 10
109.85368626658121
 20
-120.99755854101031
 30
0.0
 11
108.5854962665812
 21
-120.26457954101031
 31
0.0
  0
LINE
  5
90EC
  8
AM_0
 10
110.0859262665813
 20
-120.8785545410103
 30
0.0
 11
110.0859262665813
 21
-120.35279054101029
 31
0.0
  0
ARC
  5
90ED
  8
AM_0
 10
112.5859262665813
 20
-121.6317825410103
 30
0.0
 40
0.5
 50
0.0
 51
90.000003000000945
  0
LINE
  5
90EE
  8
AM_0
 10
110.3541162665813
 20
-121.13178954101031
 30
0.0
 11
112.5859262665813
 21
-121.13178954101031
 31
0.0
  0
LINE
  5
90EF
  8
AM_0
 10
113.0859262665813
 20
-121.3823925410103
 30
0.0
 11
114.0859262665813
 21
-121.3823925410103
 31
0.0
  0
ARC
  5
90F0
  8
AM_0
 10
109.0859262665813
 20
-111.62264254101029
 30
0.0
 40
1.0
 50
179.999989999999
 51
239.64048999999821
  0
ARC
  5
90F1
  8
AM_0
 10
109.0859262665813
 20
-111.62264254101029
 30
0.0
 40
1.0
 50
179.999989999999
 51
239.64048999999821
  0
ARC
  5
90F2
  8
AM_0
 10
110.3251862665812
 20
-118.98549654101031
 30
0.0
 40
1.0
 50
243.08874000000111
 51
270.0
  0
ARC
  5
90F3
  8
AM_0
 10
110.3629662665812
 20
-118.0240555410103
 30
0.0
 40
1.0
 50
239.03339999999869
 51
270.0
  0
ARC
  5
90F4
  8
AM_0
 10
110.3345862665813
 20
-116.88404054101029
 30
0.0
 40
1.0
 50
242.0733999999992
 51
270.0
  0
ARC
  5
90F5
  8
AM_0
 10
110.38457626658121
 20
-113.50734654101031
 30
0.0
 40
1.0
 50
236.74526999999921
 51
270.0
  0
ARC
  5
90F6
  8
AM_0
 10
110.35722626658131
 20
-112.3673325410103
 30
0.0
 40
1.0
 50
239.64049999999861
 51
270.0
  0
ARC
  5
90F7
  8
AM_0
 10
109.0859262665813
 20
-118.35646054101031
 30
0.0
 40
1.0
 50
179.999989999999
 51
243.08874999999981
  0
ARC
  5
90F8
  8
AM_0
 10
109.0859262665813
 20
-112.6557685410103
 30
0.0
 40
1.0
 50
179.999989999999
 51
236.7452799999987
  0
ARC
  5
90F9
  8
AM_0
 10
109.0859262665813
 20
-116.2221825410103
 30
0.0
 40
1.0
 50
179.999989999999
 51
242.07341000000091
  0
ARC
  5
90FA
  8
AM_0
 10
109.0859262665813
 20
-117.2577585410103
 30
0.0
 40
1.0
 50
179.999989999999
 51
239.03339999999869
  0
LINE
  5
90FB
  8
AM_0
 10
108.58049626658121
 20
-112.4855115410103
 30
0.0
 11
108.5569362665813
 21
-112.4716865410103
 31
0.0
  0
LINE
  5
90FC
  8
AM_0
 10
109.8483762665812
 20
-118.8814925410103
 30
0.0
 11
108.5714662665813
 21
-118.1152495410103
 31
0.0
  0
LINE
  5
90FD
  8
AM_0
 10
109.83617626658121
 20
-114.3435665410103
 30
0.0
 11
108.5375262665813
 21
-113.49200354101031
 31
0.0
  0
LINE
  5
90FE
  8
AM_0
 10
109.85185626658119
 20
-113.2302315410103
 30
0.0
 11
108.58049626658121
 21
-112.4855495410103
 31
0.0
  0
LINE
  5
90FF
  8
AM_0
 10
109.8725462665813
 20
-119.8771355410103
 30
0.0
 11
108.63328626658119
 21
-119.2481075410103
 31
0.0
  0
LINE
  5
9100
  8
AM_0
 10
109.86626626658131
 20
-117.7676005410103
 30
0.0
 11
108.6176662665813
 21
-117.1057355410103
 31
0.0
  0
LINE
  5
9101
  8
AM_0
 10
110.0859262665813
 20
-114.21285254101031
 30
0.0
 11
110.0859262665813
 21
-113.7407375410103
 31
0.0
  0
LINE
  5
9102
  8
AM_0
 10
110.0859262665813
 20
-118.7789535410103
 30
0.0
 11
110.0859262665813
 21
-118.2329325410103
 31
0.0
  0
ARC
  5
9103
  8
AM_0
 10
112.0859262665813
 20
-112.3673325410103
 30
0.0
 40
1.0
 50
334.63675999999953
 51
0.0
  0
ARC
  5
9104
  8
AM_0
 10
112.0859262665813
 20
-112.3673325410103
 30
0.0
 40
1.0
 50
270.0
 51
0.0
  0
ARC
  5
9105
  8
AM_0
 10
112.0859262665813
 20
-116.88404054101029
 30
0.0
 40
1.0
 50
270.0
 51
0.0
  0
ARC
  5
9106
  8
AM_0
 10
112.5859262665813
 20
-119.4854885410103
 30
0.0
 40
0.5
 50
270.0
 51
0.0
  0
LINE
  5
9107
  8
AM_0
 10
110.3629662665812
 20
-119.0240625410103
 30
0.0
 11
113.0859262665813
 21
-119.0240625410103
 31
0.0
  0
LINE
  5
9108
  8
AM_0
 10
110.38457626658121
 20
-114.5073315410103
 30
0.0
 11
113.0859262665813
 21
-114.5073315410103
 31
0.0
  0
LINE
  5
9109
  8
AM_0
 10
110.35722626658131
 20
-113.3673165410103
 30
0.0
 11
112.0859262665813
 21
-113.3673165410103
 31
0.0
  0
LINE
  5
910A
  8
AM_0
 10
110.3345862665813
 20
-117.8840485410103
 30
0.0
 11
112.0859262665813
 21
-117.8840485410103
 31
0.0
  0
LINE
  5
910B
  8
AM_0
 10
110.3251862665812
 20
-119.9854805410103
 30
0.0
 11
112.5859262665813
 21
-119.9854805410103
 31
0.0
  0
ARC
  5
910C
  8
AM_0
 10
110.2905762665812
 20
-106.0716625410103
 30
0.0
 40
1.0
 50
246.87297000000149
 51
270.0
  0
ARC
  5
910D
  8
AM_0
 10
110.23625626658119
 20
-104.1255715410103
 30
0.0
 40
1.0
 50
252.90236999999951
 51
270.0
  0
ARC
  5
910E
  8
AM_0
 10
109.0859262665813
 20
-103.7716745410103
 30
0.0
 40
1.0
 50
179.999989999999
 51
252.90236999999951
  0
ARC
  5
910F
  8
AM_0
 10
109.0859262665813
 20
-105.55713654101029
 30
0.0
 40
1.0
 50
179.999989999999
 51
246.8729800000018
  0
LINE
  5
9110
  8
AM_0
 10
109.8978162665812
 20
-106.9913025410103
 30
0.0
 11
108.6931062665813
 21
-106.4767905410103
 31
0.0
  0
LINE
  5
9111
  8
AM_0
 10
109.94224626658129
 20
-105.0813365410103
 30
0.0
 11
108.79185626658121
 21
-104.7274855410103
 31
0.0
  0
LINE
  5
9112
  8
AM_0
 10
110.0859262665813
 20
-106.7752915410103
 30
0.0
 11
110.0859262665813
 21
-105.71533954101029
 31
0.0
  0
ARC
  5
9113
  8
AM_0
 10
112.0859262665813
 20
-104.1255715410103
 30
0.0
 40
1.0
 50
270.0
 51
0.0
  0
ARC
  5
9114
  8
AM_0
 10
112.3859162665813
 20
-107.7716135410103
 30
0.0
 40
0.6999999900000002
 50
0.0
 51
90.000003000000945
  0
LINE
  5
9115
  8
AM_0
 10
110.2905762665812
 20
-107.07167054101031
 30
0.0
 11
112.3859162665813
 21
-107.07167054101031
 31
0.0
  0
LINE
  5
9116
  8
AM_0
 10
110.23625626658119
 20
-105.1255565410103
 30
0.0
 11
112.0859262665813
 21
-105.1255565410103
 31
0.0
  0
LINE
  5
9117
  8
AM_0
 10
114.7840462665813
 20
-114.5738675410103
 30
0.0
 11
121.0138462665813
 21
-114.5738675410103
 31
0.0
  0
ARC
  5
9118
  8
AM_0
 10
112.0859262665813
 20
-94.382391541010364
 30
0.0
 40
1.0
 50
270.0
 51
0.0
  0
LINE
  5
9119
  8
AM_0
 10
112.0859262665813
 20
-97.382391541010364
 30
0.0
 11
109.0859262665813
 21
-97.382391541010364
 31
0.0
  0
LINE
  5
911A
  8
AM_0
 10
112.0859262665813
 20
-95.382401541010296
 30
0.0
 11
109.0859262665813
 21
-95.382401541010296
 31
0.0
  0
ARC
  5
911B
  8
AM_0
 10
109.0859262665813
 20
-96.382411541010313
 30
0.0
 40
1.0
 50
179.999989999999
 51
270.0
  0
ARC
  5
911C
  8
AM_0
 10
109.0859262665813
 20
-96.382411541010313
 30
0.0
 40
1.0
 50
90.000003000000945
 51
180.0000099999977
  0
LINE
  5
911D
  8
AM_0
 10
110.0859262665813
 20
-97.008631541010274
 30
0.0
 11
110.0859262665813
 21
-95.645771541010348
 31
0.0
  0
ARC
  5
911E
  8
AM_0
 10
112.0859262665813
 20
-98.38240154101031
 30
0.0
 40
1.0
 50
0.0
 51
90.000003000000945
  0
LINE
  5
911F
  8
AM_0
 10
112.0859262665813
 20
-87.382411541010299
 30
0.0
 11
109.0859262665813
 21
-87.382411541010299
 31
0.0
  0
LINE
  5
9120
  8
AM_0
 10
106.5859862665812
 20
-91.382391541010335
 30
0.0
 11
108.0859262665813
 21
-91.513621541010309
 31
0.0
  0
LINE
  5
9121
  8
AM_0
 10
106.5859262665812
 20
-88.664441541010305
 30
0.0
 11
108.0859262665813
 21
-88.664441541010305
 31
0.0
  0
ARC
  5
9122
  8
AM_0
 10
112.0859262665813
 20
-88.382391541010335
 30
0.0
 40
1.0
 50
0.0
 51
90.000003000000945
  0
LINE
  5
9123
  8
AM_0
 10
108.0859262665813
 20
-23.366041541010361
 30
0.0
 11
108.0859262665813
 21
-66.382411541010299
 31
0.0
  0
LINE
  5
9124
  8
AM_0
 10
112.0859262665813
 20
-85.382391541010335
 30
0.0
 11
109.0859262665813
 21
-85.382391541010335
 31
0.0
  0
ARC
  5
9125
  8
AM_0
 10
109.0859262665813
 20
-86.382401541010324
 30
0.0
 40
1.0
 50
90.000003000000945
 51
180.0000099999977
  0
LINE
  5
9126
  8
AM_0
 10
106.5859262665812
 20
-86.532431541010325
 30
0.0
 11
109.8796262665812
 21
-86.532431541010325
 31
0.0
  0
ARC
  5
9127
  8
AM_0
 10
112.0859262665813
 20
-84.382411541010299
 30
0.0
 40
1.0
 50
270.0
 51
0.0
  0
LINE
  5
9128
  8
AM_0
 10
112.0859262665813
 20
-77.38240154101031
 30
0.0
 11
109.0859262665813
 21
-77.38240154101031
 31
0.0
  0
LINE
  5
9129
  8
AM_0
 10
112.0859262665813
 20
-75.382411541010285
 30
0.0
 11
109.0859262665813
 21
-75.382411541010285
 31
0.0
  0
ARC
  5
912A
  8
AM_0
 10
109.0859262665813
 20
-76.382391541010335
 30
0.0
 40
1.0
 50
179.999989999999
 51
270.0
  0
ARC
  5
912B
  8
AM_0
 10
109.0859262665813
 20
-76.382391541010335
 30
0.0
 40
1.0
 50
90.000003000000945
 51
180.0000099999977
  0
LINE
  5
912C
  8
AM_0
 10
110.0859262665813
 20
-76.995681541010285
 30
0.0
 11
110.0859262665813
 21
-75.834791541010361
 31
0.0
  0
ARC
  5
912D
  8
AM_0
 10
112.0859262665813
 20
-74.38240154101031
 30
0.0
 40
1.0
 50
270.0
 51
0.0
  0
ARC
  5
912E
  8
AM_0
 10
112.0859262665813
 20
-78.382411541010299
 30
0.0
 40
1.0
 50
0.0
 51
90.000003000000945
  0
LINE
  5
912F
  8
AM_0
 10
112.0859262665813
 20
-65.382401541010324
 30
0.0
 11
109.0859262665813
 21
-65.382401541010324
 31
0.0
  0
LINE
  5
9130
  8
AM_0
 10
112.0859262665813
 20
-67.382401541010324
 30
0.0
 11
109.0859262665813
 21
-67.382401541010324
 31
0.0
  0
ARC
  5
9131
  8
AM_0
 10
109.0859262665813
 20
-66.382411541010299
 30
0.0
 40
1.0
 50
90.000003000000945
 51
180.0000099999977
  0
ARC
  5
9132
  8
AM_0
 10
109.0859262665813
 20
-66.382411541010299
 30
0.0
 40
1.0
 50
179.999989999999
 51
270.0
  0
LINE
  5
9133
  8
AM_0
 10
110.0859262665813
 20
-65.769191541010343
 30
0.0
 11
110.0859262665813
 21
-66.930081541010338
 31
0.0
  0
ARC
  5
9134
  8
AM_0
 10
112.0859262665813
 20
-68.382401541010339
 30
0.0
 40
1.0
 50
0.0
 51
90.000003000000945
  0
ARC
  5
9135
  8
AM_0
 10
112.0859262665813
 20
-64.382401541010324
 30
0.0
 40
1.0
 50
270.0
 51
0.0
  0
LINE
  5
9136
  8
AM_0
 10
112.0859262665813
 20
-55.382401541010317
 30
0.0
 11
109.0859262665813
 21
-55.382401541010317
 31
0.0
  0
LINE
  5
9137
  8
AM_0
 10
112.0859262665813
 20
-57.382411541010292
 30
0.0
 11
109.0859262665813
 21
-57.382411541010292
 31
0.0
  0
LINE
  5
9138
  8
AM_0
 10
106.5859262665812
 20
-56.232371541010309
 30
0.0
 11
111.2634162665813
 21
-56.232371541010309
 31
0.0
  0
ARC
  5
9139
  8
AM_0
 10
109.0859262665813
 20
-56.382401541010317
 30
0.0
 40
1.0
 50
90.000003000000945
 51
180.0000099999977
  0
ARC
  5
913A
  8
AM_0
 10
109.0859262665813
 20
-56.382401541010317
 30
0.0
 40
1.0
 50
179.999989999999
 51
270.0
  0
LINE
  5
913B
  8
AM_0
 10
110.0859262665813
 20
-55.775301541010322
 30
0.0
 11
110.0859262665813
 21
-56.986721541010361
 31
0.0
  0
LINE
  5
913C
  8
AM_0
 10
106.5859262665812
 20
-54.100431541010323
 30
0.0
 11
108.0859262665813
 21
-54.100431541010323
 31
0.0
  0
ARC
  5
913D
  8
AM_0
 10
112.0859262665813
 20
-58.382401541010331
 30
0.0
 40
1.0
 50
0.0
 51
90.000003000000945
  0
ARC
  5
913E
  8
AM_0
 10
112.0859262665813
 20
-54.382411541010292
 30
0.0
 40
1.0
 50
270.0
 51
0.0
  0
ARC
  5
913F
  8
AM_0
 10
109.0859262665813
 20
-37.207671541010363
 30
0.0
 40
1.0
 50
113.1270299999986
 51
180.0000099999977
  0
LINE
  5
9140
  8
AM_0
 10
110.0859262665813
 20
-35.989521541010333
 30
0.0
 11
110.0859262665813
 21
-37.049471541010348
 31
0.0
  0
ARC
  5
9141
  8
AM_0
 10
112.0859262665813
 20
-44.382401541010317
 30
0.0
 40
1.0
 50
270.0
 51
0.0
  0
LINE
  5
9142
  8
AM_0
 10
112.0859262665813
 20
-45.382411541010292
 30
0.0
 11
109.0859262665813
 21
-45.382411541010292
 31
0.0
  0
LINE
  5
9143
  8
AM_0
 10
112.0859262665813
 20
-47.382401541010317
 30
0.0
 11
109.0859262665813
 21
-47.382401541010317
 31
0.0
  0
ARC
  5
9144
  8
AM_0
 10
109.0859262665813
 20
-46.382401541010317
 30
0.0
 40
1.0
 50
90.000003000000945
 51
180.0000099999977
  0
ARC
  5
9145
  8
AM_0
 10
109.0859262665813
 20
-46.382401541010317
 30
0.0
 40
1.0
 50
179.999989999999
 51
270.0
  0
LINE
  5
9146
  8
AM_0
 10
110.0859262665813
 20
-45.756241541010297
 30
0.0
 11
110.0859262665813
 21
-47.119031541010308
 31
0.0
  0
LINE
  5
9147
  8
AM_0
 10
106.5859262665812
 20
-51.382411541010292
 30
0.0
 11
108.0859262665813
 21
-51.251191541010321
 31
0.0
  0
ARC
  5
9148
  8
AM_0
 10
112.0859262665813
 20
-48.382411541010292
 30
0.0
 40
1.0
 50
0.0
 51
90.000003000000945
  0
ARC
  5
9149
  8
AM_0
 10
110.23625626658119
 20
-38.639301541010298
 30
0.0
 40
1.0
 50
90.000003000000945
 51
107.09763000000039
  0
ARC
  5
914A
  8
AM_0
 10
109.0859262665813
 20
-38.993131541010321
 30
0.0
 40
1.0
 50
107.09763000000039
 51
180.0000099999977
  0
LINE
  5
914B
  8
AM_0
 10
109.94224626658129
 20
-37.683471541010313
 30
0.0
 11
108.7919262665813
 21
-38.037311541010297
 31
0.0
  0
ARC
  5
914C
  8
AM_0
 10
112.0859262665813
 20
-38.639301541010298
 30
0.0
 40
1.0
 50
0.0
 51
90.000003000000945
  0
LINE
  5
914D
  8
AM_0
 10
110.23625626658119
 20
-37.639301541010298
 30
0.0
 11
112.0859262665813
 21
-37.639301541010298
 31
0.0
  0
ARC
  5
914E
  8
AM_0
 10
110.38457626658121
 20
-29.257521541010359
 30
0.0
 40
1.0
 50
90.000003000000945
 51
123.25473000000071
  0
ARC
  5
914F
  8
AM_0
 10
110.35722626658131
 20
-30.397471541010361
 30
0.0
 40
1.0
 50
90.000003000000945
 51
120.3595000000014
  0
ARC
  5
9150
  8
AM_0
 10
110.2905762665812
 20
-36.693191541010322
 30
0.0
 40
1.0
 50
90.000003000000945
 51
113.1270299999986
  0
ARC
  5
9151
  8
AM_0
 10
109.0859262665813
 20
-31.142161541010349
 30
0.0
 40
1.0
 50
120.3595000000014
 51
180.0000099999977
  0
ARC
  5
9152
  8
AM_0
 10
109.0859262665813
 20
-30.109081541010308
 30
0.0
 40
1.0
 50
123.25473000000071
 51
180.0000099999977
  0
LINE
  5
9153
  8
AM_0
 10
109.83617626658121
 20
-28.421251541010349
 30
0.0
 11
108.5375862665812
 21
-29.272811541010299
 31
0.0
  0
LINE
  5
9154
  8
AM_0
 10
109.8977562665813
 20
-35.77351154101035
 30
0.0
 11
108.6931662665813
 21
-36.287981541010311
 31
0.0
  0
LINE
  5
9155
  8
AM_0
 10
109.8517962665812
 20
-29.534621541010321
 30
0.0
 11
108.58049626658121
 21
-30.279291541010309
 31
0.0
  0
LINE
  5
9156
  8
AM_0
 10
110.0859262665813
 20
-28.551951541010279
 30
0.0
 11
110.0859262665813
 21
-29.024141541010351
 31
0.0
  0
ARC
  5
9157
  8
AM_0
 10
112.0859262665813
 20
-30.397471541010361
 30
0.0
 40
1.0
 50
0.0
 51
90.000003000000945
  0
ARC
  5
9158
  8
AM_0
 10
112.3859162665813
 20
-34.99319154101034
 30
0.0
 40
0.6999999900000002
 50
270.0
 51
0.0
  0
LINE
  5
9159
  8
AM_0
 10
110.2905762665812
 20
-35.693201541010303
 30
0.0
 11
112.3859162665813
 21
-35.693201541010303
 31
0.0
  0
LINE
  5
915A
  8
AM_0
 10
110.35722626658131
 20
-29.397491541010311
 30
0.0
 11
112.0859262665813
 21
-29.397491541010311
 31
0.0
  0
ARC
  5
915B
  8
AM_0
 10
110.3541162665813
 20
-22.633021541010351
 30
0.0
 40
1.0
 50
90.000003000000945
 51
120.0263999999994
  0
ARC
  5
915C
  8
AM_0
 10
110.3251862665812
 20
-23.779311541010319
 30
0.0
 40
1.0
 50
90.000003000000945
 51
116.9112599999988
  0
ARC
  5
915D
  8
AM_0
 10
110.3629662665812
 20
-24.740801541010288
 30
0.0
 40
1.0
 50
90.000003000000945
 51
120.96660000000119
  0
ARC
  5
915E
  8
AM_0
 10
110.3345862665813
 20
-25.88077154101035
 30
0.0
 40
1.0
 50
90.000003000000945
 51
117.9266000000007
  0
ARC
  5
915F
  8
AM_0
 10
109.0859262665813
 20
-23.366041541010361
 30
0.0
 40
1.0
 50
120.0263999999994
 51
180.0000099999977
  0
ARC
  5
9160
  8
AM_0
 10
109.0859262665813
 20
-24.408341541010319
 30
0.0
 40
1.0
 50
116.9112599999988
 51
180.0000099999977
  0
ARC
  5
9161
  8
AM_0
 10
109.0859262665813
 20
-26.54269154101036
 30
0.0
 40
1.0
 50
117.9266000000007
 51
180.0000099999977
  0
ARC
  5
9162
  8
AM_0
 10
109.0859262665813
 20
-25.507091541010311
 30
0.0
 40
1.0
 50
120.96660000000119
 51
180.0000099999977
  0
LINE
  5
9163
  8
AM_0
 10
109.8537462665813
 20
-21.767291541010369
 30
0.0
 11
108.5855662665813
 21
-22.500241541010329
 31
0.0
  0
LINE
  5
9164
  8
AM_0
 10
109.8483762665812
 20
-23.883301541010329
 30
0.0
 11
108.5713362665812
 21
-24.64960154101033
 31
0.0
  0
LINE
  5
9165
  8
AM_0
 10
109.8726062665812
 20
-22.887591541010291
 30
0.0
 11
108.6333562665813
 21
-23.51661154101032
 31
0.0
  0
LINE
  5
9166
  8
AM_0
 10
109.86626626658131
 20
-24.99724154101035
 30
0.0
 11
108.61760626658121
 21
-25.65910154101033
 31
0.0
  0
LINE
  5
9167
  8
AM_0
 10
110.0859262665813
 20
-23.98585154101028
 30
0.0
 11
110.0859262665813
 21
-24.531931541010351
 31
0.0
  0
LINE
  5
9168
  8
AM_0
 10
110.0859262665813
 20
-21.886241541010289
 30
0.0
 11
110.0859262665813
 21
-22.41202154101035
 31
0.0
  0
ARC
  5
9169
  8
AM_0
 10
112.0859262665813
 20
-25.88077154101035
 30
0.0
 40
1.0
 50
0.0
 51
90.000003000000945
  0
ARC
  5
916A
  8
AM_0
 10
112.5859262665813
 20
-23.279311541010308
 30
0.0
 40
0.5
 50
0.0
 51
90.000003000000945
  0
ARC
  5
916B
  8
AM_0
 10
112.5859262665813
 20
-21.133021541010351
 30
0.0
 40
0.5
 50
270.0
 51
0.0
  0
LINE
  5
916C
  8
AM_0
 10
110.3541162665813
 20
-21.633011541010319
 30
0.0
 11
112.5859262665813
 21
-21.633011541010319
 31
0.0
  0
LINE
  5
916D
  8
AM_0
 10
110.3629662665812
 20
-23.74081154101032
 30
0.0
 11
113.0859262665813
 21
-23.74081154101032
 31
0.0
  0
LINE
  5
916E
  8
AM_0
 10
110.38457626658121
 20
-28.257521541010359
 30
0.0
 11
113.0859262665813
 21
-28.257521541010359
 31
0.0
  0
LINE
  5
916F
  8
AM_0
 10
110.3345862665813
 20
-24.880751541010291
 30
0.0
 11
112.0859262665813
 21
-24.880751541010291
 31
0.0
  0
LINE
  5
9170
  8
AM_0
 10
110.3251862665812
 20
-22.779331541010318
 30
0.0
 11
112.5859262665813
 21
-22.779331541010318
 31
0.0
  0
LINE
  5
9171
  8
AM_0
 10
113.0859262665813
 20
-21.382411541010299
 30
0.0
 11
114.0859262665813
 21
-21.382411541010299
 31
0.0
  0
LINE
  5
9172
  8
AM_0
 10
114.7840462665813
 20
-28.191011541010312
 30
0.0
 11
121.0138462665813
 21
-28.191011541010312
 31
0.0
  0
LINE
  5
9173
  8
AM_0
 10
207.5859262665812
 20
-39.882401541010331
 30
0.0
 11
133.5859262665812
 21
-39.882401541010331
 31
0.0
  0
LINE
  5
9174
  8
AM_0
 10
207.5859262665812
 20
-41.382401541010317
 30
0.0
 11
133.5859262665812
 21
-41.382401541010317
 31
0.0
  0
LINE
  5
9175
  8
AM_0
 10
207.58592626658111
 20
-102.8824015410104
 30
0.0
 11
133.5859262665812
 21
-102.8824015410104
 31
0.0
  0
LINE
  5
9176
  8
AM_0
 10
207.58592626658111
 20
-101.3824015410104
 30
0.0
 11
133.5859262665812
 21
-101.3824015410104
 31
0.0
  0
LINE
  5
9177
  8
AM_0
 10
158.0859262665812
 20
-93.882401541010438
 30
0.0
 11
194.85792626658119
 21
-93.882401541010324
 31
0.0
  0
LINE
  5
9178
  8
AM_0
 10
200.0859262665812
 20
-48.882401541010317
 30
0.0
 11
163.31392626658109
 21
-48.882401541010317
 31
0.0
  0
LINE
  5
9179
  8
AM_0
 10
194.889926266581
 20
-88.686201541010348
 30
0.0
 11
163.28192626658119
 21
-88.686201541010348
 31
0.0
  0
LINE
  5
917A
  8
AM_0
 10
163.28192626658119
 20
-54.078501541010333
 30
0.0
 11
194.889926266581
 21
-54.078501541010333
 31
0.0
  0
LINE
  5
917B
  8
AM_0
 10
223.43031626658129
 20
-35.382401541010317
 30
0.0
 11
124.4513462665812
 21
-35.382401541010317
 31
0.0
  0
LINE
  5
917C
  8
AM_0
 10
223.43031626658129
 20
-37.382401541010331
 30
0.0
 11
124.4513462665812
 21
-37.382401541010331
 31
0.0
  0
LINE
  5
917D
  8
AM_0
 10
123.7632362665812
 20
-34.659391541010351
 30
0.0
 11
226.90803626658121
 21
-34.659391541010351
 31
0.0
  0
LINE
  5
917E
  8
AM_0
 10
223.43031626658129
 20
-105.38240754101029
 30
0.0
 11
179.0859262665812
 21
-105.38240754101029
 31
0.0
  0
LINE
  5
917F
  8
AM_0
 10
223.43031626658129
 20
-107.3824005410103
 30
0.0
 11
179.0859262665812
 21
-107.3824005410103
 31
0.0
  0
LINE
  5
9180
  8
AM_0
 10
179.0859262665812
 20
-108.1054835410103
 30
0.0
 11
226.90803626658121
 21
-108.1054835410103
 31
0.0
  0
LINE
  5
9181
  8
AM_0
 10
147.58592626658131
 20
-33.159391541010343
 30
0.0
 11
230.08592626658131
 21
-33.159391541010343
 31
0.0
  0
LINE
  5
9182
  8
AM_0
 10
125.2923462665813
 20
-127.66565654101031
 30
0.0
 11
222.21211626658129
 21
-127.66565654101031
 31
0.0
  0
LINE
  5
9183
  8
AM_0
 10
147.58592626658131
 20
-109.6054835410103
 30
0.0
 11
230.08592626658131
 21
-109.6054835410103
 31
0.0
  0
LINE
  5
9184
  8
ﾁｭｳｼﾝｾﾝ1
 10
179.0859262665812
 20
-36.882401541010331
 30
0.0
 11
179.0859262665812
 21
-105.8824015410104
 31
0.0
1001
GENIUS_GENODEF_13
1002
{
1000
HIER
1070
     0
1002
}
1002
{
1000
MANEDIT
1070
     0
1002
}
1002
{
1000
NOSEL
1070
     0
1002
}
1002
{
1000
BEHIND
1070
     0
1002
}
1002
{
1000
REACTOR
1002
}
1001
GENIUS_GENOBJ-N-CEN_13
1002
{
1000
OWNER
1000
GEN
1002
}
  0
LINE
  5
9185
  8
AM_0
 10
130.5859262665812
 20
-99.882401541010381
 30
0.0
 11
130.5859262665812
 21
-42.882401541010317
 31
0.0
  0
LINE
  5
9186
  8
AM_0
 10
132.0859262665812
 20
-42.882401541010317
 30
0.0
 11
132.0859262665812
 21
-99.882401541010381
 31
0.0
  0
LINE
  5
9187
  8
AM_0
 10
156.0859262665812
 20
-56.110801541010389
 30
0.0
 11
156.0859262665812
 21
-91.882401541010424
 31
0.0
  0
ARC
  5
9188
  8
AM_0
 10
163.28192626658119
 20
-86.686201541010405
 30
0.0
 40
2.0
 50
180.0
 51
270.0
  0
ARC
  5
9189
  8
AM_0
 10
124.6353062665812
 20
-86.382401541010324
 30
0.0
 40
1.0
 50
90.000003000000945
 51
270.0
  0
LINE
  5
918A
  8
AM_0
 10
123.7638462665813
 20
-108.1054835410103
 30
0.0
 11
179.0859262665812
 21
-108.1054835410103
 31
0.0
  0
LINE
  5
918B
  8
AM_0
 10
179.0859262665812
 20
-105.38240754101029
 30
0.0
 11
124.4513462665812
 21
-105.38240754101029
 31
0.0
  0
LINE
  5
918C
  8
AM_0
 10
179.0859262665812
 20
-107.3824005410103
 30
0.0
 11
124.4513462665812
 21
-107.3824005410103
 31
0.0
  0
LINE
  5
918D
  8
AM_0
 10
125.34093626658129
 20
-130.51203154101029
 30
0.0
 11
159.08592626658131
 21
-130.51203154101029
 31
0.0
  0
LINE
  5
918E
  8
AM_0
 10
125.3542962665813
 20
-132.3598175410103
 30
0.0
 11
159.08592626658131
 21
-132.3598175410103
 31
0.0
  0
LINE
  5
918F
  8
AM_0
 10
125.3755962665813
 20
-133.27033154101031
 30
0.0
 11
159.08592626658131
 21
-133.27033154101031
 31
0.0
  0
ARC
  5
9190
  8
AM_0
 10
125.3755962665813
 20
-131.27033954101029
 30
0.0
 40
2.0
 50
187.9440400000023
 51
270.0
  0
ARC
  5
9191
  8
AM_0
 10
125.34093626658129
 20
-128.5120385410103
 30
0.0
 40
2.0
 50
189.08497000000031
 51
270.0
  0
ARC
  5
9192
  8
AM_0
 10
125.3542962665813
 20
-130.35982454101031
 30
0.0
 40
2.0
 50
188.64338999999899
 51
270.0
  0
ARC
  5
9193
  8
AM_0
 10
125.2923462665813
 20
-125.6656645410103
 30
0.0
 40
2.0
 50
190.71568999999951
 51
270.0
  0
LINE
  5
9194
  8
AM_0
 10
150.58592626658131
 20
-104.3824015410103
 30
0.0
 11
136.58592626658131
 21
-104.38240154101049
 31
0.0
  0
LINE
  5
9195
  8
AM_0
 10
123.7638462665813
 20
-104.74964054101029
 30
0.0
 11
147.5859262665812
 21
-104.74964054101029
 31
0.0
  0
ARC
  5
9196
  8
AM_0
 10
133.5859262665812
 20
-99.88240154101031
 30
0.0
 40
3.0
 50
180.0
 51
270.0
  0
LINE
  5
9197
  8
AM_0
 10
136.08592626658131
 20
-103.88240154101049
 30
0.0
 11
136.08592626658131
 21
-102.88240154101049
 31
0.0
  0
POLYLINE
  5
9198
  8
AM_0
 66
     1
 10
0.0
 20
0.0
 30
0.0
  0
VERTEX
  5
9199
  8
AM_0
 10
125.9481262665812
 20
-97.869381541010355
 30
0.0
  0
VERTEX
  5
919A
  8
AM_0
 10
126.9086062665813
 20
-104.7509765410103
 30
0.0
 42
-1.0
  0
SEQEND
  5
919B
  8
AM_0
  0
ARC
  5
919C
  8
AM_0
 10
124.6353062665812
 20
-106.3823925410103
 30
0.0
 40
1.0
 50
90.000003000000945
 51
270.0
  0
ARC
  5
919D
  8
AM_0
 10
136.58592626658131
 20
-103.8824015410104
 30
0.0
 40
0.5
 50
180.0
 51
270.0
  0
LINE
  5
919E
  8
AM_0
 10
130.58543626658121
 20
-95.382401541010296
 30
0.0
 11
124.4513462665812
 21
-95.382401541010296
 31
0.0
  0
LINE
  5
919F
  8
AM_0
 10
130.58543626658121
 20
-97.382391541010364
 30
0.0
 11
124.4513462665812
 21
-97.382391541010364
 31
0.0
  0
LINE
  5
91A0
  8
AM_0
 10
123.5474762665813
 20
-97.868601541010307
 30
0.0
 11
130.58543626658121
 21
-97.868601541010307
 31
0.0
  0
ARC
  5
91A1
  8
AM_0
 10
124.6353062665812
 20
-96.382411541010313
 30
0.0
 40
1.0
 50
90.000003000000945
 51
270.0
  0
LINE
  5
91A2
  8
AM_0
 10
130.58543626658121
 20
-87.382411541010299
 30
0.0
 11
124.4513462665812
 21
-87.382411541010299
 31
0.0
  0
LINE
  5
91A3
  8
AM_0
 10
123.41685626658121
 20
-87.725911541010305
 30
0.0
 11
130.58543626658121
 21
-87.725911541010305
 31
0.0
  0
LINE
  5
91A4
  8
AM_0
 10
123.5474762665813
 20
-94.945621541010297
 30
0.0
 11
130.58543626658121
 21
-94.945621541010297
 31
0.0
  0
POLYLINE
  5
91A5
  8
AM_0
 66
     1
 10
0.0
 20
0.0
 30
0.0
  0
VERTEX
  5
91A6
  8
AM_0
 10
124.96637626658131
 20
-87.724991541010297
 30
0.0
  0
VERTEX
  5
91A7
  8
AM_0
 10
125.6124262665812
 20
-94.945931541010339
 30
0.0
 42
-1.0
  0
SEQEND
  5
91A8
  8
AM_0
  0
ARC
  5
91A9
  8
AM_0
 10
133.5859262665812
 20
-99.88240154101031
 30
0.0
 40
1.5
 50
180.0
 51
270.0
  0
LINE
  5
91AA
  8
AM_0
 10
135.0859262665812
 20
-101.3824015410104
 30
0.0
 11
135.0859262665812
 21
-102.8824015410104
 31
0.0
  0
LINE
  5
91AB
  8
AM_0
 10
151.08592626658131
 20
-102.8824015410104
 30
0.0
 11
151.08592626658131
 21
-103.8824015410104
 31
0.0
  0
LINE
  5
91AC
  8
AM_0
 10
146.08592626658131
 20
-108.1054835410103
 30
0.0
 11
146.08592626658131
 21
-109.6054835410103
 31
0.0
  0
LINE
  5
91AD
  8
AM_0
 10
146.08592626658131
 20
-108.1054835410103
 30
0.0
 11
146.08592626658131
 21
-108.1054835410103
 31
0.0
  0
ARC
  5
91AE
  8
AM_0
 10
150.58592626658131
 20
-103.8824015410103
 30
0.0
 40
0.5
 50
270.0
 51
0.0
  0
ARC
  5
91AF
  8
AM_0
 10
147.5859262665812
 20
-103.24964054101029
 30
0.0
 40
1.5
 50
270.0
 51
310.95942417141811
1001
GENIUS_GENODEF_13
1002
{
1000
HIER
1070
     0
1002
}
1002
{
1000
MANEDIT
1070
     0
1002
}
1002
{
1000
NOSEL
1070
     0
1002
}
1002
{
1000
BEHIND
1070
     0
1002
}
1002
{
1000
REACTOR
1002
}
1001
GENIUS_GENOBJ-N-FIL_13
1002
{
1000
OWNER
1000
GEN
1002
}
  0
LINE
  5
91B0
  8
AM_0
 10
152.0859262665812
 20
-101.3824015410104
 30
0.0
 11
152.0859262665812
 21
-102.8824015410104
 31
0.0
  0
LINE
  5
91B1
  8
AM_0
 10
161.08592626658131
 20
-131.27033954101029
 30
0.0
 11
161.08592626658131
 21
-127.66565654101031
 31
0.0
  0
ARC
  5
91B2
  8
AM_0
 10
159.08592626658131
 20
-131.27033954101029
 30
0.0
 40
2.0
 50
270.0
 51
0.0
  0
ARC
  5
91B3
  8
AM_0
 10
159.08592626658131
 20
-130.35982454101031
 30
0.0
 40
2.0
 50
270.0
 51
0.0
  0
ARC
  5
91B4
  8
AM_0
 10
159.08592626658131
 20
-128.5120385410103
 30
0.0
 40
2.0
 50
270.0
 51
0.0
  0
ARC
  5
91B5
  8
AM_0
 10
158.0859262665812
 20
-91.882401541010495
 30
0.0
 40
2.0
 50
180.0
 51
270.0
  0
LINE
  5
91B6
  8
AM_0
 10
157.63592626658121
 20
-50.472401541010363
 30
0.0
 11
154.5359262665813
 21
-47.292401541010278
 31
0.0
  0
LINE
  5
91B7
  8
AM_0
 10
157.67592626658131
 20
-47.292301541010303
 30
0.0
 11
154.49592626658119
 21
-50.472301541010381
 31
0.0
  0
CIRCLE
  5
91B8
  8
AM_0
 10
156.0859262665812
 20
-48.882401541010317
 30
0.0
 40
4.5000000000000018
  0
POLYLINE
  5
91B9
  8
AM_0
 66
     1
 10
0.0
 20
0.0
 30
0.0
  0
VERTEX
  5
91BA
  8
AM_0
 10
124.96637626658131
 20
-55.039851541010293
 30
0.0
  0
VERTEX
  5
91BB
  8
AM_0
 10
125.6124262665812
 20
-47.818931541010329
 30
0.0
 42
-1.0
  0
SEQEND
  5
91BC
  8
AM_0
  0
POLYLINE
  5
91BD
  8
AM_0
 66
     1
 10
0.0
 20
0.0
 30
0.0
  0
VERTEX
  5
91BE
  8
AM_0
 10
124.4513462665812
 20
-71.38240154101031
 30
0.0
  0
VERTEX
  5
91BF
  8
AM_0
 10
124.45406626658129
 20
-67.649921541010315
 30
0.0
 42
-1.0
  0
SEQEND
  5
91C0
  8
AM_0
  0
LINE
  5
91C1
  8
AM_0
 10
132.0859262665812
 20
-79.88240154101031
 30
0.0
 11
130.5859262665812
 21
-79.88240154101031
 31
0.0
  0
POLYLINE
  5
91C2
  8
AM_0
 66
     1
 10
0.0
 20
0.0
 30
0.0
  0
VERTEX
  5
91C3
  8
AM_0
 10
124.4947062665813
 20
-77.653691541010346
 30
0.0
  0
VERTEX
  5
91C4
  8
AM_0
 10
124.7933762665813
 20
-85.063751541010333
 30
0.0
 42
-1.0
  0
SEQEND
  5
91C5
  8
AM_0
  0
LINE
  5
91C6
  8
AM_0
 10
123.41685626658121
 20
-85.06404154101034
 30
0.0
 11
130.58543626658121
 21
-85.06404154101034
 31
0.0
  0
LINE
  5
91C7
  8
AM_0
 10
130.58543626658121
 20
-85.382391541010335
 30
0.0
 11
124.4513462665812
 21
-85.382391541010335
 31
0.0
  0
LINE
  5
91C8
  8
AM_0
 10
123.3548462665813
 20
-75.117381541010332
 30
0.0
 11
130.5859262665812
 21
-75.117381541010332
 31
0.0
  0
LINE
  5
91C9
  8
AM_0
 10
130.5859262665812
 20
-75.382411541010356
 30
0.0
 11
124.4513462665812
 21
-75.382411541010285
 31
0.0
  0
LINE
  5
91CA
  8
AM_0
 10
130.5859262665812
 20
-77.38240154101031
 30
0.0
 11
124.4513462665812
 21
-77.38240154101031
 31
0.0
  0
LINE
  5
91CB
  8
AM_0
 10
123.3548462665813
 20
-77.655231541010309
 30
0.0
 11
130.5859262665812
 21
-77.655231541010309
 31
0.0
  0
POLYLINE
  5
91CC
  8
AM_0
 66
     1
 10
0.0
 20
0.0
 30
0.0
  0
VERTEX
  5
91CD
  8
AM_0
 10
124.4513462665812
 20
-71.38240154101031
 30
0.0
  0
VERTEX
  5
91CE
  8
AM_0
 10
124.45406626658129
 20
-75.114871541010359
 30
0.0
 42
-1.0
  0
SEQEND
  5
91CF
  8
AM_0
  0
ARC
  5
91D0
  8
AM_0
 10
124.6353062665812
 20
-76.382391541010335
 30
0.0
 40
1.0
 50
90.000003000000945
 51
270.0
  0
LINE
  5
91D1
  8
AM_0
 10
132.0859262665812
 20
-62.882401541010317
 30
0.0
 11
130.5859262665812
 21
-62.882401541010317
 31
0.0
  0
POLYLINE
  5
91D2
  8
AM_0
 66
     1
 10
0.0
 20
0.0
 30
0.0
  0
VERTEX
  5
91D3
  8
AM_0
 10
124.4947062665813
 20
-65.111111541010288
 30
0.0
  0
VERTEX
  5
91D4
  8
AM_0
 10
124.7933762665813
 20
-57.701081541010304
 30
0.0
 42
-1.0
  0
SEQEND
  5
91D5
  8
AM_0
  0
LINE
  5
91D6
  8
AM_0
 10
130.5859262665812
 20
-65.382401541010324
 30
0.0
 11
124.4513462665812
 21
-65.382401541010324
 31
0.0
  0
LINE
  5
91D7
  8
AM_0
 10
130.5859262665812
 20
-67.382401541010324
 30
0.0
 11
124.4513462665812
 21
-67.382401541010324
 31
0.0
  0
LINE
  5
91D8
  8
AM_0
 10
123.3548462665813
 20
-65.109651541010351
 30
0.0
 11
130.5859262665812
 21
-65.109651541010351
 31
0.0
  0
LINE
  5
91D9
  8
AM_0
 10
123.3548462665813
 20
-67.647491541010311
 30
0.0
 11
130.5859262665812
 21
-67.647491541010311
 31
0.0
  0
ARC
  5
91DA
  8
AM_0
 10
124.6353062665812
 20
-66.382411541010299
 30
0.0
 40
1.0
 50
90.000003000000945
 51
270.0
  0
LINE
  5
91DB
  8
AM_0
 10
130.58543626658121
 20
-55.382401541010317
 30
0.0
 11
124.4513462665812
 21
-55.382401541010317
 31
0.0
  0
LINE
  5
91DC
  8
AM_0
 10
130.58543626658121
 20
-57.382411541010292
 30
0.0
 11
124.4513462665812
 21
-57.382411541010292
 31
0.0
  0
LINE
  5
91DD
  8
AM_0
 10
123.41685626658121
 20
-55.038891541010351
 30
0.0
 11
130.58543626658121
 21
-55.038891541010351
 31
0.0
  0
LINE
  5
91DE
  8
AM_0
 10
123.41685626658121
 20
-57.700761541010309
 30
0.0
 11
130.58543626658121
 21
-57.700761541010309
 31
0.0
  0
ARC
  5
91DF
  8
AM_0
 10
124.6353062665812
 20
-56.382401541010317
 30
0.0
 40
1.0
 50
90.000003000000945
 51
270.0
  0
LINE
  5
91E0
  8
AM_0
 10
150.5859262665812
 20
-38.382401541010331
 30
0.0
 11
136.5859262665812
 21
-38.382401541010331
 31
0.0
  0
LINE
  5
91E1
  8
AM_0
 10
123.7632362665812
 20
-38.015211541010331
 30
0.0
 11
147.5859262665812
 21
-38.015211541010331
 31
0.0
  0
ARC
  5
91E2
  8
AM_0
 10
124.6353062665812
 20
-36.382411541010299
 30
0.0
 40
1.0
 50
90.000003000000945
 51
270.0
  0
ARC
  5
91E3
  8
AM_0
 10
133.5859262665812
 20
-42.882401541010317
 30
0.0
 40
3.0
 50
90.0
 51
180.0
  0
LINE
  5
91E4
  8
AM_0
 10
130.58543626658121
 20
-45.382411541010292
 30
0.0
 11
124.4513462665812
 21
-45.382411541010292
 31
0.0
  0
LINE
  5
91E5
  8
AM_0
 10
130.58543626658121
 20
-47.382401541010317
 30
0.0
 11
124.4513462665812
 21
-47.382401541010317
 31
0.0
  0
LINE
  5
91E6
  8
AM_0
 10
123.54741626658129
 20
-47.819231541010311
 30
0.0
 11
130.58543626658121
 21
-47.819231541010311
 31
0.0
  0
ARC
  5
91E7
  8
AM_0
 10
124.6353062665812
 20
-46.382401541010317
 30
0.0
 40
1.0
 50
90.000003000000945
 51
270.0
  0
POLYLINE
  5
91E8
  8
AM_0
 66
     1
 10
0.0
 20
0.0
 30
0.0
  0
VERTEX
  5
91E9
  8
AM_0
 10
125.9481262665812
 20
-44.895471541010281
 30
0.0
  0
VERTEX
  5
91EA
  8
AM_0
 10
126.9086062665813
 20
-38.013841541010322
 30
0.0
 42
-1.0
  0
SEQEND
  5
91EB
  8
AM_0
  0
LINE
  5
91EC
  8
AM_0
 10
123.54741626658129
 20
-44.896271541010307
 30
0.0
 11
130.58543626658121
 21
-44.896271541010307
 31
0.0
  0
ARC
  5
91ED
  8
AM_0
 10
133.5859262665812
 20
-42.882401541010317
 30
0.0
 40
1.5
 50
90.0
 51
180.0
  0
LINE
  5
91EE
  8
AM_0
 10
135.0859262665812
 20
-41.382401541010317
 30
0.0
 11
135.0859262665812
 21
-39.882401541010331
 31
0.0
  0
LINE
  5
91EF
  8
AM_0
 10
136.0859262665812
 20
-38.882401541010317
 30
0.0
 11
136.0859262665812
 21
-39.882401541010331
 31
0.0
  0
ARC
  5
91F0
  8
AM_0
 10
136.5859262665812
 20
-38.882401541010317
 30
0.0
 40
0.5
 50
90.0
 51
180.0
  0
ARC
  5
91F1
  8
AM_0
 10
150.5859262665812
 20
-38.882401541010317
 30
0.0
 40
0.5
 50
0.0
 51
90.0
  0
ARC
  5
91F2
  8
AM_0
 10
147.5859262665812
 20
-39.515211541010331
 30
0.0
 40
1.5
 50
49.043431124089281
 51
90.0
1001
GENIUS_GENODEF_13
1002
{
1000
HIER
1070
     0
1002
}
1002
{
1000
MANEDIT
1070
     0
1002
}
1002
{
1000
NOSEL
1070
     0
1002
}
1002
{
1000
BEHIND
1070
     0
1002
}
1002
{
1000
REACTOR
1002
}
1001
GENIUS_GENOBJ-N-FIL_13
1002
{
1000
OWNER
1000
GEN
1002
}
  0
LINE
  5
91F3
  8
AM_0
 10
151.0859262665812
 20
-39.882401541010331
 30
0.0
 11
151.0859262665812
 21
-38.882401541010317
 31
0.0
  0
LINE
  5
91F4
  8
AM_0
 10
152.0859262665812
 20
-41.382401541010317
 30
0.0
 11
152.0859262665812
 21
-39.882401541010331
 31
0.0
  0
ARC
  5
91F5
  8
AM_0
 10
147.58592626658131
 20
-34.659391541010351
 30
0.0
 40
1.5
 50
90.000003000000945
 51
180.0000099999977
  0
LINE
  5
91F6
  8
AM_0
 10
146.08592626658131
 20
-34.659391541010351
 30
0.0
 11
146.08592626658131
 21
-34.659391541010351
 31
0.0
  0
ARC
  5
91F7
  8
AM_0
 10
156.0859262665812
 20
-48.882401541010317
 30
0.0
 40
5.499999999999992
 50
285.46600995341942
 51
344.53399004658058
  0
LINE
  5
91F8
  8
AM_0
 10
161.28192626658119
 20
-86.686201541010334
 30
0.0
 11
161.28192626658119
 21
-56.078501541010333
 31
0.0
  0
ARC
  5
91F9
  8
AM_0
 10
158.0859262665812
 20
-56.110817688410862
 30
0.0
 40
2.0
 50
105.4660099534194
 51
180.0
  0
ARC
  5
91FA
  8
AM_0
 10
163.28192626658119
 20
-56.078501541010382
 30
0.0
 40
2.0
 50
90.0
 51
180.0
  0
ARC
  5
91FB
  8
AM_0
 10
163.31434241398171
 20
-50.882401541010381
 30
0.0
 40
2.0
 50
90.0
 51
164.5339900465805
  0
LINE
  5
91FC
  8
AM_0
 10
209.08592626658131
 20
-42.882401541010317
 30
0.0
 11
209.08592626658111
 21
-99.882401541010381
 31
0.0
  0
LINE
  5
91FD
  8
AM_0
 10
210.5859262665812
 20
-42.882401541010317
 30
0.0
 11
210.58592626658111
 21
-99.882401541010381
 31
0.0
  0
ARC
  5
91FE
  8
AM_0
 10
200.0859262665812
 20
-86.653985393609915
 30
0.0
 40
2.0
 50
285.46600995341942
 51
0.0
  0
ARC
  5
91FF
  8
AM_0
 10
194.889926266581
 20
-86.686301541010366
 30
0.0
 40
2.0
 50
270.0
 51
0.0
  0
LINE
  5
9200
  8
AM_0
 10
219.8559462665813
 20
-41.382401541010317
 30
0.0
 11
219.8559462665813
 21
-101.3824015410103
 31
0.0
  0
LINE
  5
9201
  8
AM_0
 10
226.90803626658121
 20
-104.74964054101029
 30
0.0
 11
210.38591626658129
 21
-104.74964054101029
 31
0.0
  0
CIRCLE
  5
9202
  8
AM_0
 10
202.0859262665812
 20
-93.882401541010395
 30
0.0
 40
4.5000000000000018
  0
ARC
  5
9203
  8
AM_0
 10
194.85751011918069
 20
-91.882401541010381
 30
0.0
 40
2.0
 50
270.0
 51
344.53399004658058
  0
LINE
  5
9204
  8
AM_0
 10
200.49592626658119
 20
-95.472501541010345
 30
0.0
 11
203.6759262665812
 21
-92.292501541010381
 31
0.0
  0
LINE
  5
9205
  8
AM_0
 10
200.53592626658121
 20
-92.292401541010264
 30
0.0
 11
203.63592626658129
 21
-95.472401541010356
 31
0.0
  0
ARC
  5
9206
  8
AM_0
 10
202.0859262665812
 20
-93.882401541010395
 30
0.0
 40
5.499999999999992
 50
105.4660099534194
 51
164.5339900465805
  0
ARC
  5
9207
  8
AM_0
 10
207.5859262665812
 20
-99.882401541010381
 30
0.0
 40
3.0
 50
270.0
 51
0.0
  0
LINE
  5
9208
  8
AM_0
 10
209.3859462665813
 20
-103.7496565410103
 30
0.0
 11
209.3859462665813
 21
-102.2823865408801
 31
0.0
  0
ARC
  5
9209
  8
AM_0
 10
210.38591626658129
 20
-103.7496565410103
 30
0.0
 40
1.0
 50
179.999989999999
 51
270.0
  0
LINE
  5
920A
  8
AM_0
 10
209.9989830889719
 20
-101.6648596111802
 30
0.0
 11
219.8559462665813
 21
-101.3824215410103
 31
0.0
  0
LINE
  5
920B
  8
AM_0
 10
210.1840024779346
 20
-101.3824015410103
 30
0.0
 11
219.8559462665813
 21
-101.3824015410103
 31
0.0
  0
ARC
  5
920C
  8
AM_0
 10
207.5859262665812
 20
-99.882401541010381
 30
0.0
 40
1.5
 50
270.0
 51
0.0
  0
LINE
  5
920D
  8
AM_0
 10
228.5859262665812
 20
-109.60543054101031
 30
0.0
 11
224.14390626658121
 21
-126.1832885410103
 31
0.0
  0
LINE
  5
920E
  8
AM_0
 10
230.08592626658131
 20
-127.3823925410103
 30
0.0
 11
238.08592626658131
 21
-127.3823925410103
 31
0.0
  0
LINE
  5
920F
  8
AM_0
 10
224.6264562665813
 20
-124.3823925410103
 30
0.0
 11
230.08592626658131
 21
-124.3823925410103
 31
0.0
  0
ARC
  5
9210
  8
AM_0
 10
222.21211626658129
 20
-125.6656645410103
 30
0.0
 40
2.0
 50
270.0
 51
345.00000000000239
  0
LINE
  5
9211
  8
AM_0
 10
230.08592626658131
 20
-117.38240754101029
 30
0.0
 11
238.08592626658131
 21
-117.38240754101029
 31
0.0
  0
LINE
  5
9212
  8
AM_0
 10
230.08592626658131
 20
-103.3198395410103
 30
0.0
 11
238.08592626658131
 21
-103.3198395410103
 31
0.0
  0
ARC
  5
9213
  8
AM_0
 10
223.43031626658129
 20
-106.3823925410103
 30
0.0
 40
1.0
 50
270.0
 51
90.000003000000945
  0
ARC
  5
9214
  8
AM_0
 10
226.90803626658121
 20
-106.4275735410103
 30
0.0
 40
1.6779127
 50
270.0
 51
90.000003000000945
  0
LINE
  5
9215
  8
AM_0
 10
226.90803626658121
 20
-38.015211541010331
 30
0.0
 11
210.38591626658129
 21
-38.015211541010331
 31
0.0
  0
LINE
  5
9216
  8
AM_0
 10
202.0859262665812
 20
-86.653901541010384
 30
0.0
 11
202.0859262665812
 21
-50.882401541010331
 31
0.0
  0
LINE
  5
9217
  8
AM_0
 10
196.88992626658111
 20
-56.078501541010333
 30
0.0
 11
196.88992626658111
 21
-86.686201541010334
 31
0.0
  0
ARC
  5
9218
  8
AM_0
 10
194.889926266581
 20
-56.078501541010382
 30
0.0
 40
2.0
 50
0.0
 51
90.0
  0
ARC
  5
9219
  8
AM_0
 10
200.0859262665812
 20
-50.882401541010381
 30
0.0
 40
2.0
 50
0.0
 51
90.0
  0
LINE
  5
921A
  8
AM_0
 10
209.99898308897181
 20
-41.099943470840387
 30
0.0
 11
219.8559462665813
 21
-41.382381541010297
 31
0.0
  0
LINE
  5
921B
  8
AM_0
 10
210.18400247793451
 20
-41.382401541010317
 30
0.0
 11
219.8559462665813
 21
-41.382401541010317
 31
0.0
  0
ARC
  5
921C
  8
AM_0
 10
207.5859262665812
 20
-42.882401541010381
 30
0.0
 40
3.0
 50
0.0
 51
90.0
  0
ARC
  5
921D
  8
AM_0
 10
207.5859262665812
 20
-42.882401541010381
 30
0.0
 40
1.5
 50
0.0
 51
90.0
  0
ARC
  5
921E
  8
AM_0
 10
210.38591626658129
 20
-39.015211541010331
 30
0.0
 40
1.0
 50
90.000003000000945
 51
180.0000099999977
  0
LINE
  5
921F
  8
AM_0
 10
209.3859462665813
 20
-39.015211541010331
 30
0.0
 11
209.38594626658119
 21
-40.482416541140587
 31
0.0
  0
LINE
  5
9220
  8
AM_0
 10
230.08592626658131
 20
-25.382401541010321
 30
0.0
 11
238.08592626658131
 21
-25.382401541010321
 31
0.0
  0
LINE
  5
9221
  8
AM_0
 10
230.08592626658131
 20
-39.444961541010287
 30
0.0
 11
238.08592626658131
 21
-39.444961541010287
 31
0.0
  0
ARC
  5
9222
  8
AM_0
 10
226.90803626658121
 20
-36.337291541010302
 30
0.0
 40
1.6779127
 50
270.0
 51
90.000003000000945
  0
ARC
  5
9223
  8
AM_0
 10
223.43031626658129
 20
-36.382411541010299
 30
0.0
 40
1.0
 50
270.0
 51
90.000003000000945
  0
ARC
  5
9224
  8
AM_0
 10
229.73692626658129
 20
-31.65939154101034
 30
0.0
 40
1.5
 50
195.00001000000211
 51
270.0
  0
LINE
  5
923D
  8
AM_0
 10
114.0859262665813
 20
-18.382411541010299
 30
0.0
 11
122.0859262665813
 21
-18.382411541010299
 31
0.0
  0
LINE
  5
92EE
  8
AM_0
 10
125.2923462665813
 20
-15.099151541010309
 30
0.0
 11
222.21211626658129
 21
-15.099151541010309
 31
0.0
  0
LINE
  5
92F5
  8
AM_0
 10
125.34093626658129
 20
-12.252781541010281
 30
0.0
 11
159.08592626658131
 21
-12.252781541010281
 31
0.0
  0
LINE
  5
92F6
  8
AM_0
 10
125.3542962665813
 20
-10.4050615410103
 30
0.0
 11
159.08592626658131
 21
-10.4050615410103
 31
0.0
  0
LINE
  5
92F7
  8
AM_0
 10
125.3755962665813
 20
-9.4945215410103287
 30
0.0
 11
159.08592626658131
 21
-9.4945215410103287
 31
0.0
  0
ARC
  5
92F8
  8
AM_0
 10
125.3542962665813
 20
-12.40504154101035
 30
0.0
 40
2.0
 50
90.000003000000945
 51
171.35661000000101
  0
ARC
  5
92F9
  8
AM_0
 10
125.2923462665813
 20
-17.099131541010308
 30
0.0
 40
2.0
 50
90.000003000000945
 51
169.2843100000004
  0
ARC
  5
92FA
  8
AM_0
 10
125.34093626658129
 20
-14.252761541010329
 30
0.0
 40
2.0
 50
90.000003000000945
 51
170.9150299999996
  0
ARC
  5
92FB
  8
AM_0
 10
125.3755962665813
 20
-11.49454154101033
 30
0.0
 40
2.0
 50
90.000003000000945
 51
172.05595999999761
  0
ARC
  5
9301
  8
AM_0
 10
159.08592626658131
 20
-12.40504154101035
 30
0.0
 40
2.0
 50
0.0
 51
90.000003000000945
  0
LINE
  5
9302
  8
AM_0
 10
161.08592626658131
 20
-11.49454154101033
 30
0.0
 11
161.08592626658131
 21
-15.099151541010309
 31
0.0
  0
ARC
  5
9303
  8
AM_0
 10
159.08592626658131
 20
-14.252761541010329
 30
0.0
 40
2.0
 50
0.0
 51
90.000003000000945
  0
ARC
  5
9304
  8
AM_0
 10
159.08592626658131
 20
-11.49454154101033
 30
0.0
 40
2.0
 50
0.0
 51
90.000003000000945
  0
LINE
  5
9336
  8
AM_0
 10
230.08592626658131
 20
-15.382411541010301
 30
0.0
 11
238.08592626658131
 21
-15.382411541010301
 31
0.0
  0
LINE
  5
9337
  8
AM_0
 10
224.6264562665813
 20
-18.382411541010299
 30
0.0
 11
230.08592626658131
 21
-18.382411541010299
 31
0.0
  0
ARC
  5
9338
  8
AM_0
 10
222.21211626658129
 20
-17.099131541010308
 30
0.0
 40
2.0
 50
14.9999999999976
 51
90.000003000000945
  0
LINE
  5
94DA
  8
AM_0
 10
238.08592626658131
 20
-15.38238204101034
 30
0.0
 11
245.4379283325699
 21
-15.38238204101034
 31
0.0
  0
LINE
  5
94DD
  8
AM_0
 10
238.08592626658131
 20
-25.382382041010342
 30
0.0
 11
246.72350475162449
 21
-25.382382041010342
 31
0.0
  0
LINE
  5
94DE
  8
AM_0
 10
238.08592626658131
 20
-39.442432041010392
 30
0.0
 11
246.72350668320911
 21
-39.442432041010392
 31
0.0
  0
LINE
  5
94E0
  8
AM_0
 10
238.08592626658131
 20
-127.3823820410103
 30
0.0
 11
245.4379433709903
 21
-127.3823820410103
 31
0.0
  0
LINE
  5
94E2
  8
AM_0
 10
238.08592626658131
 20
-117.38240754101029
 30
0.0
 11
246.7235173906829
 21
-117.3823883982507
 31
0.0
  0
LINE
  5
94E3
  8
AM_0
 10
238.08592626658131
 20
-103.3198395410103
 30
0.0
 11
246.72351545905931
 21
-103.3220545361678
 31
0.0
  0
LINE
  5
95EC
  8
AM_0
 10
247.4075437887937
 20
-17.035085403243379
 30
0.0
 11
249.11696045179789
 21
-26.729660917213259
 31
0.0
1001
GENIUS_GENODEF_13
1002
{
1000
HIER
1070
     0
1002
}
1002
{
1000
MANEDIT
1070
     0
1002
}
1002
{
1000
NOSEL
1070
     0
1002
}
1002
{
1000
BEHIND
1070
     0
1002
}
1002
{
1000
REACTOR
1002
}
1001
GENIUS_GENOBJ-N-CEN_13
1002
{
1000
OWNER
1000
GEN
1002
}
  0
ARC
  5
95F9
  8
AM_0
 10
245.4379283325699
 20
-17.382382041010331
 30
0.0
 40
2.0
 50
10.000008215930929
 51
90.0
1001
GENIUS_GENOBJ-N-CEN_13
1002
{
1000
OWNER
1000
GEN
1002
}
1001
GENIUS_GENOBJ-N-FIL_13
1002
{
1000
OWNER
1000
GEN
1002
}
1001
GENIUS_GENODEF_13
1002
{
1000
HIER
1070
     0
1002
}
1002
{
1000
MANEDIT
1070
     0
1002
}
1002
{
1000
NOSEL
1070
     0
1002
}
1002
{
1000
BEHIND
1070
     0
1002
}
1002
{
1000
OTHER
1070
     0
1002
}
1002
{
1000
REACTOR
1002
}
  0
LINE
  5
9603
  8
AM_0
 10
247.40755937505949
 20
-125.7296755717897
 30
0.0
 11
251.4092272100319
 21
-96.035070501324313
 31
0.0
1001
GENIUS_GENODEF_13
1002
{
1000
HIER
1070
     0
1002
}
1002
{
1000
MANEDIT
1070
     0
1002
}
1002
{
1000
NOSEL
1070
     0
1002
}
1002
{
1000
BEHIND
1070
     0
1002
}
1002
{
1000
REACTOR
1002
}
1001
GENIUS_GENOBJ-N-CEN_13
1002
{
1000
OWNER
1000
GEN
1002
}
  0
ARC
  5
9607
  8
AM_0
 10
245.4379433709903
 20
-125.3823820410103
 30
0.0
 40
2.0
 50
270.0
 51
350.0000082159309
1001
GENIUS_GENOBJ-N-CEN_13
1002
{
1000
OWNER
1000
GEN
1002
}
1001
GENIUS_GENODEF_13
1002
{
1000
HIER
1070
     0
1002
}
1002
{
1000
MANEDIT
1070
     0
1002
}
1002
{
1000
NOSEL
1070
     0
1002
}
1002
{
1000
BEHIND
1070
     0
1002
}
1002
{
1000
OTHER
1070
     0
1002
}
1002
{
1000
REACTOR
1002
}
1001
GENIUS_GENOBJ-N-FIL_13
1002
{
1000
OWNER
1000
GEN
1002
}
  0
LINE
  5
960B
  8
AM_0
 10
246.7235034420959
 20
-15.85029306259983
 30
0.0
 11
246.72351870021041
 21
-126.9144708350757
 31
0.0
  0
LINE
  5
96D1
  8
AM_0
 10
105.5920297822062
 20
-56.160569265619699
 30
0.0
 11
106.0920297822063
 21
-53.390580251947817
 31
0.0
  0
LINE
  5
96D2
  8
AM_0
 10
106.09206029978439
 20
-53.390580251947817
 30
0.0
 11
106.5920297822062
 21
-53.430588796869714
 31
0.0
  0
LINE
  5
96D3
  8
AM_0
 10
105.5920297822062
 20
-86.604233816400949
 30
0.0
 11
105.5920297822062
 21
-56.160599783197817
 31
0.0
  0
LINE
  5
96D4
  8
AM_0
 10
105.59206029978439
 20
-86.604233816400949
 30
0.0
 11
106.09206029978439
 21
-89.374222830072824
 31
0.0
  0
LINE
  5
96D5
  8
AM_0
 10
106.0920297822063
 20
-89.374222830072824
 30
0.0
 11
106.59206029978439
 21
-89.334214285150935
 31
0.0
  0
LINE
  5
9AFC
  8
AM_0
 10
238.08592626658131
 20
120.509812713435
 30
0.0
 11
249.5920297822064
 21
120.509812713435
 31
0.0
  0
LINE
  5
9AFD
  8
AM_0
 10
238.08592626658131
 20
134.5698627134351
 30
0.0
 11
247.6919424025441
 21
134.5698627134351
 31
0.0
  0
LINE
  5
9AFE
  8
AM_0
 10
238.08592626658131
 20
198.449752713435
 30
0.0
 11
247.76667662757501
 21
198.449752713435
 31
0.0
  0
LINE
  5
9B00
  8
AM_0
 10
238.08592626658131
 20
212.509812713435
 30
0.0
 11
249.59202978220631
 21
212.509812713435
 31
0.0
  0
LINE
  5
9CFD
  8
AM_0
 10
249.59202978220631
 20
220.509812713435
 30
0.0
 11
249.5920297822064
 21
112.509812713435
 31
0.0
  0
LINE
  5
9D02
  8
ﾁｭｳｼﾝｾﾝ1
 10
352.08592914250539
 20
215.00981336163559
 30
0.0
 11
352.08592914250539
 21
85.009811081757931
 31
0.0
  0
LINE
  5
9D03
  8
AM_0
 10
409.58593085613887
 20
200.00981371181271
 30
0.0
 11
409.58593085613887
 21
100.0098107315806
 31
0.0
  0
LINE
  5
9D04
  8
AM_0
 10
403.58593067732482
 20
183.51762810099919
 30
0.0
 11
403.58593067732482
 21
116.50199634239419
 31
0.0
  0
CIRCLE
  5
9D05
  8
AM_0
 10
352.08592914250539
 20
150.00981222169659
 30
0.0
 40
37.500001117587097
  0
LINE
  5
9D06
  8
AM_0
 10
255.5859262665814
 20
200.00981371181271
 30
0.0
 11
255.5859262665814
 21
100.0098107315806
 31
0.0
  0
LINE
  5
9D07
  8
AM_0
 10
261.58592644539522
 20
183.51762810099919
 30
0.0
 11
261.58592644539522
 21
116.50199634239419
 31
0.0
  0
LINE
  5
9D08
  8
AM_0
 10
282.0781121754182
 20
96.009810612371311
 30
0.0
 11
383.09374494730241
 21
96.009810612371311
 31
0.0
  0
LINE
  5
9D09
  8
AM_0
 10
265.58592656460462
 20
90.009810433557476
 30
0.0
 11
399.58593055811582
 21
90.009810433557476
 31
0.0
  0
LINE
  5
9D0A
  8
AM_0
 10
265.58592656460462
 20
90.009810433557391
 30
0.0
 11
399.58593055811582
 21
90.009810433557391
 31
0.0
  0
ARC
  5
9D0B
  8
AM_0
 10
266.08592657950578
 20
100.5098107464817
 30
0.0
 40
11.0
 50
1.790784178846567
 51
88.209215821153435
  0
LINE
  5
9D0C
  8
ﾁｭｳｼﾝｾﾝ1
 10
273.5859268030232
 20
100.5098107464817
 30
0.0
 11
258.58592635598842
 21
100.5098107464817
 31
0.0
  0
CIRCLE
  5
9D0D
  8
AM_0
 10
266.08592657950578
 20
100.5098107464817
 30
0.0
 40
4.5000001341104507
  0
ARC
  5
9D0E
  8
AM_0
 10
247.5920297822064
 20
112.509812713435
 30
0.0
 40
2.0
 50
270.0
 51
329.99999999999949
1001
GENIUS_GENOBJ-N-FIL_13
1002
{
1000
OWNER
1000
GEN
1002
}
1001
GENIUS_GENODEF_13
1002
{
1000
HIER
1070
     0
1002
}
1002
{
1000
MANEDIT
1070
     0
1002
}
1002
{
1000
NOSEL
1070
     0
1002
}
1002
{
1000
BEHIND
1070
     0
1002
}
1002
{
1000
OTHER
1070
     0
1002
}
1002
{
1000
REACTOR
1002
}
  0
ARC
  5
9D0F
  8
AM_0
 10
251.0561313973441
 20
110.509812713435
 30
0.0
 40
2.0
 50
90.0
 51
149.9999999999994
1001
GENIUS_GENOBJ-N-FIL_13
1002
{
1000
OWNER
1000
GEN
1002
}
1001
GENIUS_GENODEF_13
1002
{
1000
HIER
1070
     0
1002
}
1002
{
1000
MANEDIT
1070
     0
1002
}
1002
{
1000
NOSEL
1070
     0
1002
}
1002
{
1000
BEHIND
1070
     0
1002
}
1002
{
1000
OTHER
1070
     0
1002
}
1002
{
1000
REACTOR
1002
}
  0
LINE
  5
9D10
  8
AM_0
 10
238.08592626658131
 20
110.509812713435
 30
0.0
 11
247.5920297822064
 21
110.509812713435
 31
0.0
  0
LINE
  5
9D11
  8
ﾁｭｳｼﾝｾﾝ1
 10
266.08592657950578
 20
93.009810522964344
 30
0.0
 11
266.08592657950578
 21
108.00981096999919
 31
0.0
  0
ARC
  5
9D12
  8
AM_0
 10
265.58592656460462
 20
100.0098107315806
 30
0.0
 40
10.000000298023259
 50
179.999994991043
 51
269.99999749551819
  0
ARC
  5
9D13
  8
AM_0
 10
253.5859262665814
 20
110.509812713435
 30
0.0
 40
2.0
 50
0.0
 51
90.0
1001
GENIUS_GENODEF_13
1002
{
1000
HIER
1070
     0
1002
}
1002
{
1000
MANEDIT
1070
     0
1002
}
1002
{
1000
NOSEL
1070
     0
1002
}
1002
{
1000
BEHIND
1070
     0
1002
}
1002
{
1000
OTHER
1070
     0
1002
}
1002
{
1000
REACTOR
1002
}
1001
GENIUS_GENOBJ-N-FIL_13
1002
{
1000
OWNER
1000
GEN
1002
}
  0
LINE
  5
9D14
  8
AM_0
 10
253.5859262665814
 20
112.509812713435
 30
0.0
 11
251.0561313973441
 21
112.509812713435
 31
0.0
  0
ARC
  5
9D15
  8
AM_0
 10
266.58592644539522
 20
116.50199634239419
 30
0.0
 40
5.0
 50
180.0
 51
268.20921582115352
1001
GENIUS_GENOBJ-N-FIL_13
1002
{
1000
OWNER
1000
GEN
1002
}
1001
GENIUS_GENODEF_13
1002
{
1000
HIER
1070
     0
1002
}
1002
{
1000
MANEDIT
1070
     0
1002
}
1002
{
1000
NOSEL
1070
     0
1002
}
1002
{
1000
BEHIND
1070
     0
1002
}
1002
{
1000
OTHER
1070
     0
1002
}
1002
{
1000
REACTOR
1002
}
  0
ARC
  5
9D16
  8
AM_0
 10
282.0781121754182
 20
101.0098106123713
 30
0.0
 40
5.0
 50
181.79078417884651
 51
270.0
1001
GENIUS_GENOBJ-N-FIL_13
1002
{
1000
OWNER
1000
GEN
1002
}
1001
GENIUS_GENODEF_13
1002
{
1000
HIER
1070
     0
1002
}
1002
{
1000
MANEDIT
1070
     0
1002
}
1002
{
1000
NOSEL
1070
     0
1002
}
1002
{
1000
BEHIND
1070
     0
1002
}
1002
{
1000
OTHER
1070
     0
1002
}
1002
{
1000
REACTOR
1002
}
  0
ARC
  5
9D1A
  8
AM_0
 10
399.58593055811582
 20
100.0098107315806
 30
0.0
 40
10.000000298023229
 50
269.99999749551819
 51
0.0
  0
ARC
  5
9D1B
  8
AM_0
 10
399.08593054321477
 20
100.5098107464817
 30
0.0
 40
11.0
 50
91.790784178846565
 51
178.20921582115341
  0
ARC
  5
9D1C
  8
AM_0
 10
383.09374494730241
 20
101.0098106123713
 30
0.0
 40
5.0
 50
270.0
 51
358.20921582115352
1001
GENIUS_GENODEF_13
1002
{
1000
HIER
1070
     0
1002
}
1002
{
1000
MANEDIT
1070
     0
1002
}
1002
{
1000
NOSEL
1070
     0
1002
}
1002
{
1000
BEHIND
1070
     0
1002
}
1002
{
1000
OTHER
1070
     0
1002
}
1002
{
1000
REACTOR
1002
}
1001
GENIUS_GENOBJ-N-FIL_13
1002
{
1000
OWNER
1000
GEN
1002
}
  0
CIRCLE
  5
9D1D
  8
AM_0
 10
399.08593054321477
 20
100.5098107464817
 30
0.0
 40
4.5000001341104507
  0
LINE
  5
9D1E
  8
ﾁｭｳｼﾝｾﾝ1
 10
399.08593054321477
 20
93.009810522964344
 30
0.0
 11
399.08593054321477
 21
108.00981096999919
 31
0.0
  0
LINE
  5
9D1F
  8
ﾁｭｳｼﾝｾﾝ1
 10
391.58593031969713
 20
100.5098107464817
 30
0.0
 11
406.58593076673219
 21
100.5098107464817
 31
0.0
  0
ARC
  5
9D20
  8
AM_0
 10
398.58593067732488
 20
116.50199634239419
 30
0.0
 40
5.0
 50
271.79078417884648
 51
0.0
1001
GENIUS_GENOBJ-N-FIL_13
1002
{
1000
OWNER
1000
GEN
1002
}
1001
GENIUS_GENODEF_13
1002
{
1000
HIER
1070
     0
1002
}
1002
{
1000
MANEDIT
1070
     0
1002
}
1002
{
1000
NOSEL
1070
     0
1002
}
1002
{
1000
BEHIND
1070
     0
1002
}
1002
{
1000
OTHER
1070
     0
1002
}
1002
{
1000
REACTOR
1002
}
  0
LINE
  5
9D24
  8
AM_0
 10
251.59202978220631
 20
210.00981271343511
 30
0.0
 11
399.58592626658128
 21
210.00981271343511
 31
0.0
  0
LINE
  5
9D2A
  8
AM_0
 10
282.0781121754182
 20
204.00981383102209
 30
0.0
 11
383.09374494730241
 21
204.00981383102209
 31
0.0
  0
LINE
  5
9D2B
  8
ﾁｭｳｼﾝｾﾝ1
 10
242.38649240027601
 20
150.00981222169659
 30
0.0
 11
414.5859308561391
 21
150.00981222169659
 31
0.0
  0
ARC
  5
9D34
  8
AM_0
 10
481.59201452341711
 20
166.509812713435
 30
0.0
 40
236.0
 50
169.4360282697306
 51
179.999994991043
  0
ARC
  5
9D35
  8
AM_0
 10
481.59201452341711
 20
166.509812713435
 30
0.0
 40
236.0
 50
179.999994991043
 51
190.5639617123588
  0
LINE
  5
9D36
  8
AM_0
 10
250.0920297822064
 20
123.24319589214601
 30
0.0
 11
255.5859262665814
 21
123.24319589214601
 31
0.0
  0
ARC
  5
9D3C
  8
AM_0
 10
266.08592657950578
 20
199.50981369691169
 30
0.0
 40
11.0
 50
271.79078417884648
 51
358.20921582115352
  0
LINE
  5
9D3E
  8
ﾁｭｳｼﾝｾﾝ1
 10
273.5859268030232
 20
199.50981369691169
 30
0.0
 11
258.58592635598842
 21
199.50981369691169
 31
0.0
  0
CIRCLE
  5
9D3F
  8
AM_0
 10
266.08592657950578
 20
199.50981369691169
 30
0.0
 40
4.5000001341104507
  0
ARC
  5
9D41
  8
AM_0
 10
251.59202978220631
 20
212.00981271343511
 30
0.0
 40
2.0
 50
180.0
 51
270.0
1001
GENIUS_GENOBJ-N-FIL_13
1002
{
1000
OWNER
1000
GEN
1002
}
1001
GENIUS_GENODEF_13
1002
{
1000
HIER
1070
     0
1002
}
1002
{
1000
MANEDIT
1070
     0
1002
}
1002
{
1000
NOSEL
1070
     0
1002
}
1002
{
1000
BEHIND
1070
     0
1002
}
1002
{
1000
OTHER
1070
     0
1002
}
1002
{
1000
REACTOR
1002
}
  0
LINE
  5
9D42
  8
ﾁｭｳｼﾝｾﾝ1
 10
266.08592657950578
 20
207.00981392042911
 30
0.0
 11
266.08592657950578
 21
192.00981347339419
 31
0.0
  0
ARC
  5
9D43
  8
AM_0
 10
266.58592644539522
 20
183.51762810099919
 30
0.0
 40
5.0
 50
91.790784178846565
 51
180.0
1001
GENIUS_GENOBJ-N-FIL_13
1002
{
1000
OWNER
1000
GEN
1002
}
1001
GENIUS_GENODEF_13
1002
{
1000
HIER
1070
     0
1002
}
1002
{
1000
MANEDIT
1070
     0
1002
}
1002
{
1000
NOSEL
1070
     0
1002
}
1002
{
1000
BEHIND
1070
     0
1002
}
1002
{
1000
OTHER
1070
     0
1002
}
1002
{
1000
REACTOR
1002
}
  0
ARC
  5
9D44
  8
AM_0
 10
265.58592656460462
 20
200.00981371181271
 30
0.0
 40
10.000000298023229
 50
90.000002504475205
 51
180.00000500895359
  0
ARC
  5
9D45
  8
AM_0
 10
247.59202978220631
 20
220.509812713435
 30
0.0
 40
2.0
 50
0.0
 51
90.0
1001
GENIUS_GENOBJ-N-FIL_13
1002
{
1000
OWNER
1000
GEN
1002
}
1001
GENIUS_GENODEF_13
1002
{
1000
HIER
1070
     0
1002
}
1002
{
1000
MANEDIT
1070
     0
1002
}
1002
{
1000
NOSEL
1070
     0
1002
}
1002
{
1000
BEHIND
1070
     0
1002
}
1002
{
1000
OTHER
1070
     0
1002
}
1002
{
1000
REACTOR
1002
}
  0
LINE
  5
9D46
  8
AM_0
 10
238.08592626658131
 20
222.50981271343511
 30
0.0
 11
247.59202978220631
 21
222.509812713435
 31
0.0
  0
ARC
  5
9D47
  8
AM_0
 10
282.0781121754182
 20
199.00981383102209
 30
0.0
 40
5.0
 50
90.0
 51
178.20921582115341
1001
GENIUS_GENOBJ-N-FIL_13
1002
{
1000
OWNER
1000
GEN
1002
}
1001
GENIUS_GENODEF_13
1002
{
1000
HIER
1070
     0
1002
}
1002
{
1000
MANEDIT
1070
     0
1002
}
1002
{
1000
NOSEL
1070
     0
1002
}
1002
{
1000
BEHIND
1070
     0
1002
}
1002
{
1000
OTHER
1070
     0
1002
}
1002
{
1000
REACTOR
1002
}
  0
CIRCLE
  5
9D48
  8
AM_0
 10
352.08592914250539
 20
150.00981222169659
 30
0.0
 40
20.000000596046451
  0
ARC
  5
9D49
  8
AM_0
 10
352.08592914250539
 20
150.00981222169659
 30
0.0
 40
12.500000372529
 50
108.6629275058355
 51
71.337073860656602
  0
LINE
  5
9D4A
  8
AM_0
 10
348.08592902329639
 20
165.80980048554181
 30
0.0
 11
356.0859292617148
 21
165.80980048554181
 31
0.0
  0
LINE
  5
9D4B
  8
AM_0
 10
348.08592902329639
 20
165.80980048554181
 30
0.0
 11
348.08592902329639
 21
161.85252497698079
 31
0.0
  0
LINE
  5
9D4C
  8
AM_0
 10
356.0859292617148
 20
165.80980048554181
 30
0.0
 11
356.0859292617148
 21
161.85252497698079
 31
0.0
  0
ARC
  5
9D64
  8
AM_0
 10
399.58593055811582
 20
200.00981371181271
 30
0.0
 40
10.00000029802322
 50
0.0
 51
90.000002504475205
  0
ARC
  5
9D66
  8
AM_0
 10
399.08593054321477
 20
199.50981369691169
 30
0.0
 40
11.0
 50
181.79078417884651
 51
268.20921582115352
  0
ARC
  5
9D67
  8
AM_0
 10
383.09374494730241
 20
199.00981383102209
 30
0.0
 40
5.0
 50
1.790784178846567
 51
90.0
1001
GENIUS_GENOBJ-N-FIL_13
1002
{
1000
OWNER
1000
GEN
1002
}
1001
GENIUS_GENODEF_13
1002
{
1000
HIER
1070
     0
1002
}
1002
{
1000
MANEDIT
1070
     0
1002
}
1002
{
1000
NOSEL
1070
     0
1002
}
1002
{
1000
BEHIND
1070
     0
1002
}
1002
{
1000
OTHER
1070
     0
1002
}
1002
{
1000
REACTOR
1002
}
  0
LINE
  5
9D68
  8
ﾁｭｳｼﾝｾﾝ1
 10
399.08593054321477
 20
207.00981392042911
 30
0.0
 11
399.08593054321477
 21
192.00981347339419
 31
0.0
  0
CIRCLE
  5
9D69
  8
AM_0
 10
399.08593054321477
 20
199.50981369691169
 30
0.0
 40
4.5000001341104507
  0
ARC
  5
9D6A
  8
AM_0
 10
398.58593067732488
 20
183.51762810099919
 30
0.0
 40
5.0
 50
0.0
 51
88.209215821153435
1001
GENIUS_GENOBJ-N-FIL_13
1002
{
1000
OWNER
1000
GEN
1002
}
1001
GENIUS_GENODEF_13
1002
{
1000
HIER
1070
     0
1002
}
1002
{
1000
MANEDIT
1070
     0
1002
}
1002
{
1000
NOSEL
1070
     0
1002
}
1002
{
1000
BEHIND
1070
     0
1002
}
1002
{
1000
OTHER
1070
     0
1002
}
1002
{
1000
REACTOR
1002
}
  0
LINE
  5
9D6B
  8
ﾁｭｳｼﾝｾﾝ1
 10
391.58593031969713
 20
199.50981369691169
 30
0.0
 11
406.58593076673219
 21
199.50981369691169
 31
0.0
  0
LINE
  5
9D82
  8
AM_0
 10
507.0326260830945
 20
192.53642294765601
 30
0.0
 11
515.18290118320033
 21
192.82103682572111
 31
0.0
  0
LINE
  5
9D83
  8
AM_0
 10
509.84864050346312
 20
200.4633463552999
 30
0.0
 11
519.18259578063351
 21
200.13739745461939
 31
0.0
  0
LINE
  5
9D84
  8
AM_0
 10
509.8727244078035
 20
202.53391204440561
 30
0.0
 11
519.18259578063351
 21
202.8590199166141
 31
0.0
  0
ARC
  5
9D85
  8
AM_0
 10
565.18259578063351
 20
166.50981222169659
 30
0.0
 40
56.5
 50
144.98137173791559
 51
200.27287146590029
  0
LINE
  5
9D86
  8
AM_0
 10
507.01629134877192
 20
190.46762629865239
 30
0.0
 11
513.90164172251332
 21
190.22718456538101
 31
0.0
  0
LINE
  5
9D87
  8
AM_0
 10
505.17933659766129
 20
182.539059577763
 30
0.0
 11
511.06530093461009
 21
182.74460198161009
 31
0.0
  0
LINE
  5
9D88
  8
AM_0
 10
505.1698544452878
 20
180.47137016779001
 30
0.0
 11
510.38861361121349
 21
180.28912708192399
 31
0.0
  0
LINE
  5
9D89
  8
AM_0
 10
507.01629134877192
 20
142.55199814474091
 30
0.0
 11
512.18259578063339
 21
142.73240947093009
 31
0.0
  0
LINE
  5
9D8A
  8
AM_0
 10
507.0326260830945
 20
140.48320149573729
 30
0.0
 11
512.18259578063339
 21
140.30336059103999
 31
0.0
  0
LINE
  5
9D8B
  8
AM_0
 10
509.8727244078035
 20
130.4857123989876
 30
0.0
 11
512.18259578063339
 21
130.4050499132214
 31
0.0
  0
LINE
  5
9D8C
  8
AM_0
 10
509.84864050346312
 20
132.55627808809331
 30
0.0
 11
512.18259578063339
 21
132.63778160233139
 31
0.0
  0
LINE
  5
9D8D
  8
AM_0
 10
505.1698544452878
 20
152.548254275603
 30
0.0
 11
510.38861361121349
 21
152.7304973614695
 31
0.0
  0
LINE
  5
9D8E
  8
AM_0
 10
505.17933659766129
 20
150.4805648656305
 30
0.0
 11
511.06530093461009
 21
150.2750224617831
 31
0.0
  0
LINE
  5
9D95
  8
ﾁｭｳｼﾝｾﾝ1
 10
507.18259420111031
 20
150.00981222169659
 30
0.0
 11
623.18259736015659
 21
150.00981222169659
 31
0.0
  0
ARC
  5
9DF7
  8
AM_0
 10
505.2142360943638
 20
181.53966875074369
 30
0.0
 40
1.0
 50
91.999999999997087
 51
172.14682191119741
1001
GENIUS_GENODEF_13
1002
{
1000
HIER
1070
     0
1002
}
1002
{
1000
MANEDIT
1070
     0
1002
}
1002
{
1000
NOSEL
1070
     0
1002
}
1002
{
1000
BEHIND
1070
     0
1002
}
1002
{
1000
REACTOR
1002
}
1001
GENIUS_GENOBJ-N-FIL_13
1002
{
1000
OWNER
1000
GEN
1002
}
  0
ARC
  5
9DFE
  8
AM_0
 10
509.90762390450578
 20
131.48510322600669
 30
0.0
 40
1.0
 50
198.56658080190289
 51
267.99999999999642
1001
GENIUS_GENODEF_13
1002
{
1000
HIER
1070
     0
1002
}
1002
{
1000
MANEDIT
1070
     0
1002
}
1002
{
1000
NOSEL
1070
     0
1002
}
1002
{
1000
BEHIND
1070
     0
1002
}
1002
{
1000
REACTOR
1002
}
1001
GENIUS_GENOBJ-N-FIL_13
1002
{
1000
OWNER
1000
GEN
1002
}
  0
ARC
  5
9DFF
  8
AM_0
 10
614.18259578063351
 20
166.50981222169659
 30
0.0
 40
111.0
 50
198.52714231447129
 51
198.56658080189669
  0
ARC
  5
9E00
  8
AM_0
 10
509.88354000016579
 20
131.55688726107411
 30
0.0
 40
1.0
 50
92.000000000003581
 51
198.52714231447129
1001
GENIUS_GENODEF_13
1002
{
1000
HIER
1070
     0
1002
}
1002
{
1000
MANEDIT
1070
     0
1002
}
1002
{
1000
NOSEL
1070
     0
1002
}
1002
{
1000
BEHIND
1070
     0
1002
}
1002
{
1000
REACTOR
1002
}
1001
GENIUS_GENOBJ-N-FIL_13
1002
{
1000
OWNER
1000
GEN
1002
}
  0
ARC
  5
9E01
  8
AM_0
 10
614.18259578063351
 20
166.50981222169659
 30
0.0
 40
111.0
 50
193.11367014330159
 51
193.15111826064779
  0
ARC
  5
9E02
  8
AM_0
 10
507.05119084547442
 20
141.55260731772159
 30
0.0
 40
1.0
 50
92.000000000003581
 51
193.11367014329841
1001
GENIUS_GENODEF_13
1002
{
1000
HIER
1070
     0
1002
}
1002
{
1000
MANEDIT
1070
     0
1002
}
1002
{
1000
NOSEL
1070
     0
1002
}
1002
{
1000
BEHIND
1070
     0
1002
}
1002
{
1000
REACTOR
1002
}
1001
GENIUS_GENOBJ-N-FIL_13
1002
{
1000
OWNER
1000
GEN
1002
}
  0
ARC
  5
9E03
  8
AM_0
 10
507.06752557979718
 20
141.48259232275629
 30
0.0
 40
1.0
 50
193.15111826064779
 51
268.0000000000029
1001
GENIUS_GENODEF_13
1002
{
1000
HIER
1070
     0
1002
}
1002
{
1000
MANEDIT
1070
     0
1002
}
1002
{
1000
NOSEL
1070
     0
1002
}
1002
{
1000
BEHIND
1070
     0
1002
}
1002
{
1000
REACTOR
1002
}
1001
GENIUS_GENOBJ-N-FIL_13
1002
{
1000
OWNER
1000
GEN
1002
}
  0
ARC
  5
9E04
  8
AM_0
 10
505.2047539419903
 20
151.54886344858389
 30
0.0
 40
1.0
 50
92.000000000003581
 51
187.81694783169081
1001
GENIUS_GENODEF_13
1002
{
1000
HIER
1070
     0
1002
}
1002
{
1000
MANEDIT
1070
     0
1002
}
1002
{
1000
NOSEL
1070
     0
1002
}
1002
{
1000
BEHIND
1070
     0
1002
}
1002
{
1000
REACTOR
1002
}
1001
GENIUS_GENOBJ-N-FIL_13
1002
{
1000
OWNER
1000
GEN
1002
}
  0
ARC
  5
9E05
  8
AM_0
 10
505.2142360943638
 20
151.47995569264941
 30
0.0
 40
1.0
 50
187.85317808880569
 51
268.0000000000029
1001
GENIUS_GENODEF_13
1002
{
1000
HIER
1070
     0
1002
}
1002
{
1000
MANEDIT
1070
     0
1002
}
1002
{
1000
NOSEL
1070
     0
1002
}
1002
{
1000
BEHIND
1070
     0
1002
}
1002
{
1000
REACTOR
1002
}
1001
GENIUS_GENOBJ-N-FIL_13
1002
{
1000
OWNER
1000
GEN
1002
}
  0
LINE
  5
9E06
  8
AM_0
 10
504.26288265451672
 20
160.47775474279811
 30
0.0
 11
509.0236160595224
 21
160.31150626895021
 31
0.0
  0
ARC
  5
9E07
  8
AM_0
 10
614.18259578063351
 20
166.50981222169659
 30
0.0
 40
111.0
 50
187.81694783169499
 51
187.85317808880899
  0
LINE
  5
9E08
  8
AM_0
 10
504.2597724760563
 20
162.5449104309522
 30
0.0
 11
508.81093110383011
 21
162.70384039231331
 31
0.0
  0
ARC
  5
9E09
  8
AM_0
 10
504.29467197275909
 20
161.5455196039332
 30
0.0
 40
1.0
 50
92.000000000003581
 51
182.58663322877649
1001
GENIUS_GENODEF_13
1002
{
1000
HIER
1070
     0
1002
}
1002
{
1000
MANEDIT
1070
     0
1002
}
1002
{
1000
NOSEL
1070
     0
1002
}
1002
{
1000
BEHIND
1070
     0
1002
}
1002
{
1000
REACTOR
1002
}
1001
GENIUS_GENOBJ-N-FIL_13
1002
{
1000
OWNER
1000
GEN
1002
}
  0
ARC
  5
9E0A
  8
AM_0
 10
614.18259578063351
 20
166.50981222169659
 30
0.0
 40
111.0
 50
182.58663322877649
 51
182.62228408795301
  0
ARC
  5
9E0B
  8
AM_0
 10
504.29778215121928
 20
161.47714556981711
 30
0.0
 40
1.0
 50
182.62228408795301
 51
267.99999999999642
1001
GENIUS_GENODEF_13
1002
{
1000
HIER
1070
     0
1002
}
1002
{
1000
MANEDIT
1070
     0
1002
}
1002
{
1000
NOSEL
1070
     0
1002
}
1002
{
1000
BEHIND
1070
     0
1002
}
1002
{
1000
REACTOR
1002
}
1001
GENIUS_GENOBJ-N-FIL_13
1002
{
1000
OWNER
1000
GEN
1002
}
  0
LINE
  5
9E0C
  8
AM_0
 10
504.26288265451672
 20
172.5418697005951
 30
0.0
 11
509.0236160595224
 21
172.708118174443
 31
0.0
  0
LINE
  5
9E0D
  8
AM_0
 10
504.2597724760563
 20
170.47471401244081
 30
0.0
 11
508.81093110383011
 21
170.31578405108019
 31
0.0
  0
ARC
  5
9E0E
  8
AM_0
 10
504.29467197275909
 20
171.4741048394599
 30
0.0
 40
1.0
 50
177.41336677122669
 51
267.99999999999642
1001
GENIUS_GENODEF_13
1002
{
1000
HIER
1070
     0
1002
}
1002
{
1000
MANEDIT
1070
     0
1002
}
1002
{
1000
NOSEL
1070
     0
1002
}
1002
{
1000
BEHIND
1070
     0
1002
}
1002
{
1000
REACTOR
1002
}
1001
GENIUS_GENOBJ-N-FIL_13
1002
{
1000
OWNER
1000
GEN
1002
}
  0
ARC
  5
9E0F
  8
AM_0
 10
614.18259578063351
 20
166.50981222169659
 30
0.0
 40
111.0
 50
177.37771591204699
 51
177.41336677122339
  0
ARC
  5
9E10
  8
AM_0
 10
504.29778215121928
 20
171.5424788735761
 30
0.0
 40
1.0
 50
92.000000000003581
 51
177.37771591204699
1001
GENIUS_GENODEF_13
1002
{
1000
HIER
1070
     0
1002
}
1002
{
1000
MANEDIT
1070
     0
1002
}
1002
{
1000
NOSEL
1070
     0
1002
}
1002
{
1000
BEHIND
1070
     0
1002
}
1002
{
1000
REACTOR
1002
}
1001
GENIUS_GENOBJ-N-FIL_13
1002
{
1000
OWNER
1000
GEN
1002
}
  0
ARC
  5
9E11
  8
AM_0
 10
505.2047539419903
 20
181.4707609948091
 30
0.0
 40
1.0
 50
172.1830521683091
 51
267.99999999999642
1001
GENIUS_GENODEF_13
1002
{
1000
HIER
1070
     0
1002
}
1002
{
1000
MANEDIT
1070
     0
1002
}
1002
{
1000
NOSEL
1070
     0
1002
}
1002
{
1000
BEHIND
1070
     0
1002
}
1002
{
1000
REACTOR
1002
}
1001
GENIUS_GENOBJ-N-FIL_13
1002
{
1000
OWNER
1000
GEN
1002
}
  0
ARC
  5
9E12
  8
AM_0
 10
614.18259578063351
 20
166.50981222169659
 30
0.0
 40
111.0
 50
172.14682191119101
 51
172.1830521683091
  0
ARC
  5
9E13
  8
AM_0
 10
507.06752557979718
 20
191.53703212063661
 30
0.0
 40
1.0
 50
91.999999999997087
 51
166.84888173935209
1001
GENIUS_GENODEF_13
1002
{
1000
HIER
1070
     0
1002
}
1002
{
1000
MANEDIT
1070
     0
1002
}
1002
{
1000
NOSEL
1070
     0
1002
}
1002
{
1000
BEHIND
1070
     0
1002
}
1002
{
1000
REACTOR
1002
}
1001
GENIUS_GENOBJ-N-FIL_13
1002
{
1000
OWNER
1000
GEN
1002
}
  0
ARC
  5
9E14
  8
AM_0
 10
614.18259578063351
 20
166.50981222169659
 30
0.0
 40
111.0
 50
166.84888173935209
 51
166.88632985670159
  0
ARC
  5
9E15
  8
AM_0
 10
507.05119084547442
 20
191.46701712567139
 30
0.0
 40
1.0
 50
166.88632985670159
 51
267.99999999999642
1001
GENIUS_GENODEF_13
1002
{
1000
HIER
1070
     0
1002
}
1002
{
1000
MANEDIT
1070
     0
1002
}
1002
{
1000
NOSEL
1070
     0
1002
}
1002
{
1000
BEHIND
1070
     0
1002
}
1002
{
1000
REACTOR
1002
}
1001
GENIUS_GENOBJ-N-FIL_13
1002
{
1000
OWNER
1000
GEN
1002
}
  0
ARC
  5
9E16
  8
AM_0
 10
509.88354000016579
 20
201.46273718231879
 30
0.0
 40
1.0
 50
161.47285768552871
 51
267.99999999999642
1001
GENIUS_GENODEF_13
1002
{
1000
HIER
1070
     0
1002
}
1002
{
1000
MANEDIT
1070
     0
1002
}
1002
{
1000
NOSEL
1070
     0
1002
}
1002
{
1000
BEHIND
1070
     0
1002
}
1002
{
1000
REACTOR
1002
}
1001
GENIUS_GENOBJ-N-FIL_13
1002
{
1000
OWNER
1000
GEN
1002
}
  0
ARC
  5
9E17
  8
AM_0
 10
614.18259578063351
 20
166.50981222169659
 30
0.0
 40
111.0
 50
161.43341919810311
 51
161.47285768552871
  0
ARC
  5
9E18
  8
AM_0
 10
509.90762390450578
 20
201.53452121738641
 30
0.0
 40
1.0
 50
92.000000000003581
 51
161.43341919809711
1001
GENIUS_GENODEF_13
1002
{
1000
HIER
1070
     0
1002
}
1002
{
1000
MANEDIT
1070
     0
1002
}
1002
{
1000
NOSEL
1070
     0
1002
}
1002
{
1000
BEHIND
1070
     0
1002
}
1002
{
1000
REACTOR
1002
}
1001
GENIUS_GENOBJ-N-FIL_13
1002
{
1000
OWNER
1000
GEN
1002
}
  0
LINE
  5
9E1C
  8
ﾁｭｳｼﾝｾﾝ1
 10
565.18259578063351
 20
69.009812221696606
 30
0.0
 11
565.18259578063351
 21
233.00981222169679
 31
0.0
  0
LINE
  5
9E1D
  8
AM_0
 10
590.18259673430782
 20
210.00981400983599
 30
0.0
 11
590.18259673430782
 21
90.009810433557405
 31
0.0
  0
LINE
  5
9E1E
  8
AM_0
 10
610.1825971217379
 20
90.358931534070067
 30
0.0
 11
610.18259712173801
 21
209.66069290932339
 31
0.0
  0
LINE
  5
9E1F
  8
AM_0
 10
520.182594439529
 20
208.7879456281608
 30
0.0
 11
520.182594439529
 21
91.231651071978945
 31
0.0
  0
LINE
  5
9E20
  8
AM_0
 10
516.18259432031948
 20
187.50981333928371
 30
0.0
 11
516.18259432031948
 21
112.5098111041098
 31
0.0
  0
LINE
  5
9E21
  8
AM_0
 10
614.18259724094719
 20
187.50981333928371
 30
0.0
 11
614.18259724094719
 21
112.5098111041098
 31
0.0
  0
LINE
  5
9E22
  8
AM_0
 10
582.48639578063342
 20
74.009812221696535
 30
0.0
 11
547.87869578063339
 21
74.009812221696649
 31
0.0
  0
LINE
  5
9E23
  8
AM_0
 10
536.68259578063328
 20
77.009812221696876
 30
0.0
 11
593.68259578063316
 21
77.009812221696535
 31
0.0
  0
LINE
  5
9E24
  8
AM_0
 10
590.18259673430782
 20
90.009810433557533
 30
0.0
 11
520.182594439529
 21
91.231651071978945
 31
0.0
  0
LINE
  5
9E25
  8
ｶｸﾚｾﾝ2
 10
520.182594439529
 20
105.0098108805922
 30
0.0
 11
610.18259712173801
 21
105.0098108805922
 31
0.0
  0
LINE
  5
9E26
  8
ﾁｭｳｼﾝｾﾝ1
 10
517.18259443952888
 20
100.5098107464818
 30
0.0
 11
613.18259712173801
 21
100.5098107464818
 31
0.0
  0
LINE
  5
9E27
  8
ｶｸﾚｾﾝ2
 10
520.182594439529
 20
96.009810612371368
 30
0.0
 11
610.18259712173801
 21
96.009810612371368
 31
0.0
  0
LINE
  5
9E28
  8
AM_0
 10
547.87869578063339
 20
74.009812221696649
 30
0.0
 11
542.68259578063316
 21
77.009812221696649
 31
0.0
  0
LINE
  5
9E29
  8
AM_0
 10
532.18259578063305
 20
82.009812221696876
 30
0.0
 11
532.18259578063305
 21
91.022192660278776
 31
0.0
  0
LINE
  5
9E2A
  8
AM_0
 10
533.68259578063328
 20
81.009812221696876
 30
0.0
 11
533.68259578063316
 21
90.996010361742336
 31
0.0
  0
LINE
  5
9E2B
  8
AM_0
 10
535.18259578063305
 20
90.969828063205924
 30
0.0
 11
535.18259578063305
 21
78.509812221696876
 31
0.0
  0
ARC
  5
9E2C
  8
AM_0
 10
536.68259578063351
 20
78.509812221696762
 30
0.0
 40
1.5
 50
180.0
 51
270.0
  0
LINE
  5
9E2D
  8
AM_0
 10
535.18259578063305
 20
81.009812221696876
 30
0.0
 11
533.68259578063328
 21
81.009812221696876
 31
0.0
  0
LINE
  5
9E2E
  8
AM_0
 10
533.68259578063328
 20
82.009812221696876
 30
0.0
 11
532.18259578063305
 21
82.009812221696876
 31
0.0
  0
LINE
  5
9E2F
  8
AM_0
 10
520.182594439529
 20
112.5098111041098
 30
0.0
 11
516.18259432031948
 21
112.5098111041098
 31
0.0
  0
LINE
  5
9E33
  8
AM_0
 10
598.18259578063351
 20
82.009812221696535
 30
0.0
 11
598.18259578063351
 21
90.149454555681032
 31
0.0
  0
LINE
  5
9E34
  8
AM_0
 10
596.68259578063316
 20
90.123271618058894
 30
0.0
 11
596.68259578063316
 21
81.009812221696549
 31
0.0
  0
LINE
  5
9E35
  8
AM_0
 10
595.18259578063328
 20
90.097088680436883
 30
0.0
 11
595.18259578063328
 21
78.509812221696549
 31
0.0
  0
LINE
  5
9E36
  8
AM_0
 10
596.68259578063328
 20
82.009812221696535
 30
0.0
 11
598.18259578063351
 21
82.009812221696535
 31
0.0
  0
LINE
  5
9E37
  8
AM_0
 10
587.68546120119242
 20
77.009812221696535
 30
0.0
 11
582.48639578063342
 21
74.009812221696535
 31
0.0
  0
ARC
  5
9E38
  8
AM_0
 10
593.68259578063351
 20
78.509812221696635
 30
0.0
 40
1.5
 50
270.0
 51
0.0
  0
LINE
  5
9E39
  8
AM_0
 10
596.68259578063316
 20
81.009812221696549
 30
0.0
 11
595.18259578063328
 21
81.009812221696549
 31
0.0
  0
LINE
  5
9E3A
  8
AM_0
 10
610.18259712173801
 20
90.358931534070123
 30
0.0
 11
590.18259673430782
 21
90.009810433557533
 31
0.0
  0
LINE
  5
9E3B
  8
AM_0
 10
610.18259712173801
 20
112.5098111041098
 30
0.0
 11
614.18259724094719
 21
112.5098111041098
 31
0.0
  0
ARC
  5
9E47
  8
AM_0
 10
565.18259578063351
 20
166.50981222169659
 30
0.0
 40
56.5
 50
55.136162045695187
 51
124.8638379543048
  0
ARC
  5
9E48
  8
AM_0
 10
580.21245230968066
 20
226.47817190796641
 30
0.0
 40
1.0
 50
1.9999999999972149
 51
82.146821911193769
1001
GENIUS_GENODEF_13
1002
{
1000
HIER
1070
     0
1002
}
1002
{
1000
MANEDIT
1070
     0
1002
}
1002
{
1000
NOSEL
1070
     0
1002
}
1002
{
1000
BEHIND
1070
     0
1002
}
1002
{
1000
REACTOR
1002
}
1001
GENIUS_GENOBJ-N-FIL_13
1002
{
1000
OWNER
1000
GEN
1002
}
  0
LINE
  5
9E4A
  8
ｶｸﾚｾﾝ2
 10
520.182594439529
 20
204.0098138310222
 30
0.0
 11
610.18259712173801
 21
204.0098138310222
 31
0.0
  0
LINE
  5
9E4B
  8
ﾁｭｳｼﾝｾﾝ1
 10
517.18259443952888
 20
199.50981369691169
 30
0.0
 11
613.18259712173801
 21
199.50981369691181
 31
0.0
  0
LINE
  5
9E4C
  8
ｶｸﾚｾﾝ2
 10
520.182594439529
 20
195.0098135628011
 30
0.0
 11
610.18259712173801
 21
195.0098135628011
 31
0.0
  0
LINE
  5
9E4D
  8
AM_0
 10
590.18259673430782
 20
210.00981400983611
 30
0.0
 11
520.182594439529
 21
208.7879456281608
 31
0.0
  0
LINE
  5
9E4E
  8
ﾁｭｳｼﾝｾﾝ1
 10
498.68259578063339
 20
166.50981271343511
 30
0.0
 11
631.68259578063351
 21
166.50981271343511
 31
0.0
  0
LINE
  5
9E4F
  8
AM_0
 10
512.18259420111042
 20
170.0098128177431
 30
0.0
 11
512.18259420111042
 21
130.00981162565029
 31
0.0
  0
LINE
  5
9E50
  8
AM_0
 10
511.18259578063362
 20
132.60286083283961
 30
0.0
 11
511.18259578063339
 21
140.33828136053191
 31
0.0
  0
LINE
  5
9E51
  8
AM_0
 10
516.18259432031948
 20
130.00981162565029
 30
0.0
 11
512.18259420111042
 21
130.00981162565029
 31
0.0
  0
LINE
  5
9E52
  8
AM_0
 10
516.18259432031948
 20
170.0098128177431
 30
0.0
 11
512.18259420111042
 21
170.0098128177431
 31
0.0
  0
LINE
  5
9E54
  8
AM_0
 10
529.15849595792429
 20
221.81968359452671
 30
0.0
 11
528.83338808571614
 21
212.50981222169679
 31
0.0
  0
LINE
  5
9E55
  8
AM_0
 10
531.22906164703033
 20
221.8437674988669
 30
0.0
 11
531.55470246231334
 21
212.51863463315789
 31
0.0
  0
LINE
  5
9E59
  8
AM_0
 10
524.18259578063351
 20
212.50981222169679
 30
0.0
 11
531.74235056622138
 21
212.50981222169679
 31
0.0
  0
LINE
  5
9E5A
  8
AM_0
 10
511.18259578063362
 20
200.41676361055389
 30
0.0
 11
511.18259578063339
 21
192.6813430828615
 31
0.0
  0
LINE
  5
9E5B
  8
AM_0
 10
520.182594439529
 20
187.50981333928371
 30
0.0
 11
516.18259432031948
 21
187.50981333928371
 31
0.0
  0
ARC
  5
9E5C
  8
AM_0
 10
524.18259578063351
 20
207.50981222169679
 30
0.0
 40
5.0
 50
90.0
 51
180.0
1001
GENIUS_GENOBJ-N-CEN_13
1002
{
1000
OWNER
1000
GEN
1002
}
1001
GENIUS_GENODEF_13
1002
{
1000
HIER
1070
     0
1002
}
1002
{
1000
MANEDIT
1070
     0
1002
}
1002
{
1000
NOSEL
1070
     0
1002
}
1002
{
1000
BEHIND
1070
     0
1002
}
1002
{
1000
REACTOR
1002
}
1001
GENIUS_GENOBJ-N-FIL_13
1002
{
1000
OWNER
1000
GEN
1002
}
  0
ARC
  5
9E5D
  8
AM_0
 10
517.68259578063351
 20
199.79269070298159
 30
0.0
 40
1.5
 50
324.98137173791321
 51
0.0
1001
GENIUS_GENODEF_13
1002
{
1000
HIER
1070
     0
1002
}
1002
{
1000
MANEDIT
1070
     0
1002
}
1002
{
1000
NOSEL
1070
     0
1002
}
1002
{
1000
BEHIND
1070
     0
1002
}
1002
{
1000
REACTOR
1002
}
1001
GENIUS_GENOBJ-N-FIL_13
1002
{
1000
OWNER
1000
GEN
1002
}
  0
LINE
  5
9E5E
  8
AM_0
 10
519.18259578063351
 20
199.79269070298179
 30
0.0
 11
519.18259578063351
 21
207.50981222169679
 31
0.0
1001
GENIUS_GENODEF_13
1002
{
1000
HIER
1070
     0
1002
}
1002
{
1000
MANEDIT
1070
     0
1002
}
1002
{
1000
NOSEL
1070
     0
1002
}
1002
{
1000
BEHIND
1070
     0
1002
}
1002
{
1000
REACTOR
1002
}
1001
GENIUS_GENOBJ-N-CEN_13
1002
{
1000
OWNER
1000
GEN
1002
}
  0
ARC
  5
9E5F
  8
AM_0
 10
531.74235056622138
 20
214.50981222169679
 30
0.0
 40
2.0
 50
270.0
 51
304.86383795430481
1001
GENIUS_GENOBJ-N-FIL_13
1002
{
1000
OWNER
1000
GEN
1002
}
1001
GENIUS_GENODEF_13
1002
{
1000
HIER
1070
     0
1002
}
1002
{
1000
MANEDIT
1070
     0
1002
}
1002
{
1000
NOSEL
1070
     0
1002
}
1002
{
1000
BEHIND
1070
     0
1002
}
1002
{
1000
OTHER
1070
     0
1002
}
1002
{
1000
REACTOR
1002
}
  0
ARC
  5
9E63
  8
AM_0
 10
530.15788678494357
 20
221.7847840978242
 30
0.0
 40
1.0
 50
108.5665808019029
 51
177.99999999999301
1001
GENIUS_GENODEF_13
1002
{
1000
HIER
1070
     0
1002
}
1002
{
1000
MANEDIT
1070
     0
1002
}
1002
{
1000
NOSEL
1070
     0
1002
}
1002
{
1000
BEHIND
1070
     0
1002
}
1002
{
1000
REACTOR
1002
}
1001
GENIUS_GENOBJ-N-FIL_13
1002
{
1000
OWNER
1000
GEN
1002
}
  0
ARC
  5
9E64
  8
AM_0
 10
565.18259578063351
 20
117.50981222169671
 30
0.0
 40
111.0
 50
108.5271423144754
 51
108.5665808018957
  0
ARC
  5
9E65
  8
AM_0
 10
530.22967082001117
 20
221.8088680021641
 30
0.0
 40
1.0
 50
2.0000000000004698
 51
108.5271423144754
1001
GENIUS_GENODEF_13
1002
{
1000
HIER
1070
     0
1002
}
1002
{
1000
MANEDIT
1070
     0
1002
}
1002
{
1000
NOSEL
1070
     0
1002
}
1002
{
1000
BEHIND
1070
     0
1002
}
1002
{
1000
REACTOR
1002
}
1001
GENIUS_GENOBJ-N-FIL_13
1002
{
1000
OWNER
1000
GEN
1002
}
  0
LINE
  5
9E66
  8
AM_0
 10
539.15598505467415
 20
224.6597819192356
 30
0.0
 11
538.8713711766087
 21
216.50950681912971
 31
0.0
  0
LINE
  5
9E67
  8
AM_0
 10
541.22478170367765
 20
224.67611665355841
 30
0.0
 11
541.46522343694903
 21
217.79076627981689
 31
0.0
  0
ARC
  5
9E68
  8
AM_0
 10
540.22539087665871
 20
224.64121715685559
 30
0.0
 40
1.0
 50
2.000000000003725
 51
103.1136701432991
1001
GENIUS_GENODEF_13
1002
{
1000
HIER
1070
     0
1002
}
1002
{
1000
MANEDIT
1070
     0
1002
}
1002
{
1000
NOSEL
1070
     0
1002
}
1002
{
1000
BEHIND
1070
     0
1002
}
1002
{
1000
REACTOR
1002
}
1001
GENIUS_GENOBJ-N-FIL_13
1002
{
1000
OWNER
1000
GEN
1002
}
  0
ARC
  5
9E69
  8
AM_0
 10
540.15537588169298
 20
224.62488242253301
 30
0.0
 40
1.0
 50
103.1511182606549
 51
178.00000000000259
1001
GENIUS_GENODEF_13
1002
{
1000
HIER
1070
     0
1002
}
1002
{
1000
MANEDIT
1070
     0
1002
}
1002
{
1000
NOSEL
1070
     0
1002
}
1002
{
1000
BEHIND
1070
     0
1002
}
1002
{
1000
REACTOR
1002
}
1001
GENIUS_GENOBJ-N-FIL_13
1002
{
1000
OWNER
1000
GEN
1002
}
  0
ARC
  5
9E6A
  8
AM_0
 10
565.18259578063351
 20
117.50981222169671
 30
0.0
 40
111.0
 50
103.1136701432991
 51
103.1511182606549
  0
ARC
  5
9E6C
  8
AM_0
 10
550.22164700752057
 20
226.48765406033971
 30
0.0
 40
1.0
 50
1.9999999999972149
 51
97.816947831694506
1001
GENIUS_GENODEF_13
1002
{
1000
HIER
1070
     0
1002
}
1002
{
1000
MANEDIT
1070
     0
1002
}
1002
{
1000
NOSEL
1070
     0
1002
}
1002
{
1000
BEHIND
1070
     0
1002
}
1002
{
1000
REACTOR
1002
}
1001
GENIUS_GENOBJ-N-FIL_13
1002
{
1000
OWNER
1000
GEN
1002
}
  0
ARC
  5
9E6D
  8
AM_0
 10
565.18259578063351
 20
117.50981222169671
 30
0.0
 40
111.0
 50
97.816947831694506
 51
97.853178088806203
  0
ARC
  5
9E6E
  8
AM_0
 10
550.15273925158601
 20
226.47817190796641
 30
0.0
 40
1.0
 50
97.853178088806203
 51
178.00000000000259
1001
GENIUS_GENODEF_13
1002
{
1000
HIER
1070
     0
1002
}
1002
{
1000
MANEDIT
1070
     0
1002
}
1002
{
1000
NOSEL
1070
     0
1002
}
1002
{
1000
BEHIND
1070
     0
1002
}
1002
{
1000
REACTOR
1002
}
1001
GENIUS_GENOBJ-N-FIL_13
1002
{
1000
OWNER
1000
GEN
1002
}
  0
LINE
  5
9E6F
  8
AM_0
 10
551.22103783453986
 20
226.5225535570425
 30
0.0
 11
551.40328092040613
 21
221.3037943911167
 31
0.0
  0
LINE
  5
9E70
  8
AM_0
 10
549.1533484245673
 20
226.51307140466901
 30
0.0
 11
548.9478060207199
 21
220.62710706771981
 31
0.0
  0
ARC
  5
9E71
  8
AM_0
 10
560.14992912875391
 20
227.39462585111059
 30
0.0
 40
1.0
 50
92.622284087952849
 51
177.99999999999949
1001
GENIUS_GENODEF_13
1002
{
1000
HIER
1070
     0
1002
}
1002
{
1000
MANEDIT
1070
     0
1002
}
1002
{
1000
NOSEL
1070
     0
1002
}
1002
{
1000
BEHIND
1070
     0
1002
}
1002
{
1000
REACTOR
1002
}
1001
GENIUS_GENOBJ-N-FIL_13
1002
{
1000
OWNER
1000
GEN
1002
}
  0
ARC
  5
9E72
  8
AM_0
 10
560.21830316287003
 20
227.39773602957101
 30
0.0
 40
1.0
 50
2.000000000003725
 51
92.586633228773294
1001
GENIUS_GENODEF_13
1002
{
1000
HIER
1070
     0
1002
}
1002
{
1000
MANEDIT
1070
     0
1002
}
1002
{
1000
NOSEL
1070
     0
1002
}
1002
{
1000
BEHIND
1070
     0
1002
}
1002
{
1000
REACTOR
1002
}
1001
GENIUS_GENOBJ-N-FIL_13
1002
{
1000
OWNER
1000
GEN
1002
}
  0
LINE
  5
9E73
  8
AM_0
 10
559.15053830173497
 20
227.42952534781321
 30
0.0
 11
558.98428982788687
 21
222.66879194280759
 31
0.0
  0
LINE
  5
9E74
  8
AM_0
 10
561.21769398988909
 20
227.43263552627371
 30
0.0
 11
561.37662395125005
 21
222.88147689849981
 31
0.0
  0
ARC
  5
9E75
  8
AM_0
 10
570.21526243251299
 20
227.39462585111059
 30
0.0
 40
1.0
 50
2.0000000000004698
 51
87.377715912047151
1001
GENIUS_GENODEF_13
1002
{
1000
HIER
1070
     0
1002
}
1002
{
1000
MANEDIT
1070
     0
1002
}
1002
{
1000
NOSEL
1070
     0
1002
}
1002
{
1000
BEHIND
1070
     0
1002
}
1002
{
1000
REACTOR
1002
}
1001
GENIUS_GENOBJ-N-FIL_13
1002
{
1000
OWNER
1000
GEN
1002
}
  0
ARC
  5
9E76
  8
AM_0
 10
570.14688839839675
 20
227.39773602957101
 30
0.0
 40
1.0
 50
87.413366771226706
 51
177.99999999999619
1001
GENIUS_GENODEF_13
1002
{
1000
HIER
1070
     0
1002
}
1002
{
1000
MANEDIT
1070
     0
1002
}
1002
{
1000
NOSEL
1070
     0
1002
}
1002
{
1000
BEHIND
1070
     0
1002
}
1002
{
1000
REACTOR
1002
}
1001
GENIUS_GENOBJ-N-FIL_13
1002
{
1000
OWNER
1000
GEN
1002
}
  0
LINE
  5
9E77
  8
AM_0
 10
571.21465325953181
 20
227.42952534781321
 30
0.0
 11
571.38090173338003
 21
222.66879194280759
 31
0.0
  0
LINE
  5
9E78
  8
AM_0
 10
569.14749757137758
 20
227.43263552627371
 30
0.0
 11
568.98856761001684
 21
222.88147689849981
 31
0.0
  0
ARC
  5
9E79
  8
AM_0
 10
565.18259578063351
 20
117.50981222169671
 30
0.0
 40
111.0
 50
82.146821911193769
 51
82.183052168305494
  0
ARC
  5
9E7A
  8
AM_0
 10
580.14354455374621
 20
226.48765406033971
 30
0.0
 40
1.0
 50
82.183052168305494
 51
178.00000000000259
1001
GENIUS_GENODEF_13
1002
{
1000
HIER
1070
     0
1002
}
1002
{
1000
MANEDIT
1070
     0
1002
}
1002
{
1000
NOSEL
1070
     0
1002
}
1002
{
1000
BEHIND
1070
     0
1002
}
1002
{
1000
REACTOR
1002
}
1001
GENIUS_GENOBJ-N-FIL_13
1002
{
1000
OWNER
1000
GEN
1002
}
  0
LINE
  5
9E7B
  8
AM_0
 10
579.14415372672704
 20
226.5225535570425
 30
0.0
 11
578.96191064086065
 21
221.3037943911167
 31
0.0
  0
ARC
  5
9E7D
  8
AM_0
 10
625.15095546690316
 20
181.5396687507438
 30
0.0
 40
1.0
 50
7.8531780888025473
 51
88.000000000002899
1001
GENIUS_GENODEF_13
1002
{
1000
HIER
1070
     0
1002
}
1002
{
1000
MANEDIT
1070
     0
1002
}
1002
{
1000
NOSEL
1070
     0
1002
}
1002
{
1000
BEHIND
1070
     0
1002
}
1002
{
1000
REACTOR
1002
}
1001
GENIUS_GENOBJ-N-FIL_13
1002
{
1000
OWNER
1000
GEN
1002
}
  0
ARC
  5
9E7E
  8
AM_0
 10
565.18259578063351
 20
166.50981222169659
 30
0.0
 40
56.5
 50
339.72712853409968
 51
35.018628262084228
  0
LINE
  5
9E80
  8
AM_0
 10
614.18259724094719
 20
130.00981162565029
 30
0.0
 11
618.18259736015659
 21
130.00981162565029
 31
0.0
  0
LINE
  5
9E81
  8
AM_0
 10
614.18259724094719
 20
170.0098128177431
 30
0.0
 11
618.18259736015659
 21
170.0098128177431
 31
0.0
  0
LINE
  5
9E83
  8
AM_0
 10
618.18259736015659
 20
170.0098128177431
 30
0.0
 11
618.18259736015659
 21
130.00981162565029
 31
0.0
  0
LINE
  5
9E84
  8
AM_0
 10
619.18259578063339
 20
132.60286083283961
 30
0.0
 11
619.18259578063351
 21
140.33828136053191
 31
0.0
  0
ARC
  5
9E85
  8
AM_0
 10
620.45756765676094
 20
131.4851032260068
 30
0.0
 40
1.0
 50
272.00000000000358
 51
341.433419198097
1001
GENIUS_GENODEF_13
1002
{
1000
HIER
1070
     0
1002
}
1002
{
1000
MANEDIT
1070
     0
1002
}
1002
{
1000
NOSEL
1070
     0
1002
}
1002
{
1000
BEHIND
1070
     0
1002
}
1002
{
1000
REACTOR
1002
}
1001
GENIUS_GENOBJ-N-FIL_13
1002
{
1000
OWNER
1000
GEN
1002
}
  0
ARC
  5
9E86
  8
AM_0
 10
516.18259578063351
 20
166.50981222169659
 30
0.0
 40
111.0
 50
341.43341919810331
 51
341.4728576855286
  0
ARC
  5
9E87
  8
AM_0
 10
620.48165156110088
 20
131.55688726107419
 30
0.0
 40
1.0
 50
341.4728576855286
 51
88.000000000002899
1001
GENIUS_GENODEF_13
1002
{
1000
HIER
1070
     0
1002
}
1002
{
1000
MANEDIT
1070
     0
1002
}
1002
{
1000
NOSEL
1070
     0
1002
}
1002
{
1000
BEHIND
1070
     0
1002
}
1002
{
1000
REACTOR
1002
}
1001
GENIUS_GENOBJ-N-FIL_13
1002
{
1000
OWNER
1000
GEN
1002
}
  0
LINE
  5
9E88
  8
AM_0
 10
620.49246715346374
 20
130.4857123989876
 30
0.0
 11
618.18259578063351
 21
130.4050499132214
 31
0.0
  0
LINE
  5
9E89
  8
AM_0
 10
620.51655105780389
 20
132.55627808809331
 30
0.0
 11
618.18259578063351
 21
132.63778160233139
 31
0.0
  0
ARC
  5
9E8A
  8
AM_0
 10
623.31400071579242
 20
141.55260731772171
 30
0.0
 40
1.0
 50
346.88632985670171
 51
87.999999999996405
1001
GENIUS_GENODEF_13
1002
{
1000
HIER
1070
     0
1002
}
1002
{
1000
MANEDIT
1070
     0
1002
}
1002
{
1000
NOSEL
1070
     0
1002
}
1002
{
1000
BEHIND
1070
     0
1002
}
1002
{
1000
REACTOR
1002
}
1001
GENIUS_GENOBJ-N-FIL_13
1002
{
1000
OWNER
1000
GEN
1002
}
  0
ARC
  5
9E8B
  8
AM_0
 10
516.18259578063351
 20
166.50981222169659
 30
0.0
 40
111.0
 50
346.84888173935212
 51
346.8863298566983
  0
ARC
  5
9E8C
  8
AM_0
 10
623.29766598146966
 20
141.4825923227564
 30
0.0
 40
1.0
 50
271.9999999999971
 51
346.84888173935212
1001
GENIUS_GENODEF_13
1002
{
1000
HIER
1070
     0
1002
}
1002
{
1000
MANEDIT
1070
     0
1002
}
1002
{
1000
NOSEL
1070
     0
1002
}
1002
{
1000
BEHIND
1070
     0
1002
}
1002
{
1000
REACTOR
1002
}
1001
GENIUS_GENOBJ-N-FIL_13
1002
{
1000
OWNER
1000
GEN
1002
}
  0
LINE
  5
9E8D
  8
AM_0
 10
623.34890021249532
 20
142.55199814474091
 30
0.0
 11
618.18259578063351
 21
142.73240947093009
 31
0.0
  0
LINE
  5
9E8E
  8
AM_0
 10
623.33256547817223
 20
140.48320149573729
 30
0.0
 11
618.18259578063351
 21
140.30336059103999
 31
0.0
  0
LINE
  5
9E8F
  8
AM_0
 10
625.18585496360572
 20
150.4805648656305
 30
0.0
 11
619.29989062665675
 21
150.2750224617831
 31
0.0
  0
LINE
  5
9E90
  8
AM_0
 10
626.10230890674995
 20
160.47775474279811
 30
0.0
 11
621.34157550174416
 21
160.31150626895021
 31
0.0
  0
LINE
  5
9E91
  8
AM_0
 10
625.19533711597921
 20
152.548254275603
 30
0.0
 11
619.97657795005341
 21
152.7304973614695
 31
0.0
  0
LINE
  5
9E92
  8
AM_0
 10
626.10541908521077
 20
162.5449104309522
 30
0.0
 11
621.55426045743673
 21
162.70384039231331
 31
0.0
  0
ARC
  5
9E93
  8
AM_0
 10
625.15095546690316
 20
151.4799556926495
 30
0.0
 40
1.0
 50
271.9999999999971
 51
352.14682191119749
1001
GENIUS_GENODEF_13
1002
{
1000
HIER
1070
     0
1002
}
1002
{
1000
MANEDIT
1070
     0
1002
}
1002
{
1000
NOSEL
1070
     0
1002
}
1002
{
1000
BEHIND
1070
     0
1002
}
1002
{
1000
REACTOR
1002
}
1001
GENIUS_GENOBJ-N-FIL_13
1002
{
1000
OWNER
1000
GEN
1002
}
  0
ARC
  5
9E94
  8
AM_0
 10
516.18259578063351
 20
166.50981222169659
 30
0.0
 40
111.0
 50
352.14682191119101
 51
352.18305216830498
  0
ARC
  5
9E95
  8
AM_0
 10
625.16043761927665
 20
151.548863448584
 30
0.0
 40
1.0
 50
352.18305216830908
 51
88.000000000002899
1001
GENIUS_GENODEF_13
1002
{
1000
HIER
1070
     0
1002
}
1002
{
1000
MANEDIT
1070
     0
1002
}
1002
{
1000
NOSEL
1070
     0
1002
}
1002
{
1000
BEHIND
1070
     0
1002
}
1002
{
1000
REACTOR
1002
}
1001
GENIUS_GENOBJ-N-FIL_13
1002
{
1000
OWNER
1000
GEN
1002
}
  0
ARC
  5
9E96
  8
AM_0
 10
626.07051958850775
 20
161.54551960393329
 30
0.0
 40
1.0
 50
357.41336677122348
 51
87.999999999996405
1001
GENIUS_GENODEF_13
1002
{
1000
HIER
1070
     0
1002
}
1002
{
1000
MANEDIT
1070
     0
1002
}
1002
{
1000
NOSEL
1070
     0
1002
}
1002
{
1000
BEHIND
1070
     0
1002
}
1002
{
1000
REACTOR
1002
}
1001
GENIUS_GENOBJ-N-FIL_13
1002
{
1000
OWNER
1000
GEN
1002
}
  0
ARC
  5
9E97
  8
AM_0
 10
516.18259578063351
 20
166.50981222169659
 30
0.0
 40
111.0
 50
357.37771591204699
 51
357.41336677122348
  0
ARC
  5
9E98
  8
AM_0
 10
626.06740941004762
 20
161.47714556981731
 30
0.0
 40
1.0
 50
271.9999999999971
 51
357.37771591204699
1001
GENIUS_GENODEF_13
1002
{
1000
HIER
1070
     0
1002
}
1002
{
1000
MANEDIT
1070
     0
1002
}
1002
{
1000
NOSEL
1070
     0
1002
}
1002
{
1000
BEHIND
1070
     0
1002
}
1002
{
1000
REACTOR
1002
}
1001
GENIUS_GENOBJ-N-FIL_13
1002
{
1000
OWNER
1000
GEN
1002
}
  0
LINE
  5
9E99
  8
AM_0
 10
626.10541908521077
 20
170.47471401244081
 30
0.0
 11
621.55426045743673
 21
170.31578405108019
 31
0.0
  0
LINE
  5
9E9A
  8
AM_0
 10
626.10230890674995
 20
172.5418697005951
 30
0.0
 11
621.34157550174416
 21
172.708118174443
 31
0.0
  0
LINE
  5
9E9B
  8
AM_0
 10
625.19533711597921
 20
180.47137016779001
 30
0.0
 11
619.97657795005341
 21
180.28912708192399
 31
0.0
  0
ARC
  5
9E9C
  8
AM_0
 10
626.07051958850775
 20
171.47410483946001
 30
0.0
 40
1.0
 50
272.00000000000358
 51
2.586633228776543
1001
GENIUS_GENODEF_13
1002
{
1000
HIER
1070
     0
1002
}
1002
{
1000
MANEDIT
1070
     0
1002
}
1002
{
1000
NOSEL
1070
     0
1002
}
1002
{
1000
BEHIND
1070
     0
1002
}
1002
{
1000
REACTOR
1002
}
1001
GENIUS_GENOBJ-N-FIL_13
1002
{
1000
OWNER
1000
GEN
1002
}
  0
ARC
  5
9E9D
  8
AM_0
 10
626.06740941004762
 20
171.54247887357619
 30
0.0
 40
1.0
 50
2.6222840879530001
 51
88.000000000002899
1001
GENIUS_GENODEF_13
1002
{
1000
HIER
1070
     0
1002
}
1002
{
1000
MANEDIT
1070
     0
1002
}
1002
{
1000
NOSEL
1070
     0
1002
}
1002
{
1000
BEHIND
1070
     0
1002
}
1002
{
1000
REACTOR
1002
}
1001
GENIUS_GENOBJ-N-FIL_13
1002
{
1000
OWNER
1000
GEN
1002
}
  0
ARC
  5
9E9E
  8
AM_0
 10
516.18259578063351
 20
166.50981222169659
 30
0.0
 40
111.0
 50
2.586633228776543
 51
2.6222840879530001
  0
ARC
  5
9E9F
  8
AM_0
 10
625.16043761927665
 20
181.47076099480921
 30
0.0
 40
1.0
 50
271.9999999999971
 51
7.8169478316908387
1001
GENIUS_GENODEF_13
1002
{
1000
HIER
1070
     0
1002
}
1002
{
1000
MANEDIT
1070
     0
1002
}
1002
{
1000
NOSEL
1070
     0
1002
}
1002
{
1000
BEHIND
1070
     0
1002
}
1002
{
1000
REACTOR
1002
}
1001
GENIUS_GENOBJ-N-FIL_13
1002
{
1000
OWNER
1000
GEN
1002
}
  0
ARC
  5
9EA0
  8
AM_0
 10
516.18259578063351
 20
166.50981222169659
 30
0.0
 40
111.0
 50
7.8169478316949537
 51
7.853178088808999
  0
LINE
  5
9EA1
  8
AM_0
 10
623.33256547817223
 20
192.53642294765601
 30
0.0
 11
615.18229037806645
 21
192.82103682572111
 31
0.0
  0
LINE
  5
9EA2
  8
AM_0
 10
620.51655105780389
 20
200.4633463552999
 30
0.0
 11
611.18259578063351
 21
200.13739745461939
 31
0.0
  0
LINE
  5
9EA3
  8
AM_0
 10
620.49246715346351
 20
202.53391204440561
 30
0.0
 11
611.18259578063351
 21
202.8590199166141
 31
0.0
  0
LINE
  5
9EA7
  8
AM_0
 10
599.13612991423679
 20
221.8437674988669
 30
0.0
 11
598.81048909895344
 21
212.5186346331578
 31
0.0
  0
LINE
  5
9EA8
  8
AM_0
 10
601.20669560334261
 20
221.81968359452671
 30
0.0
 11
601.53180347555099
 21
212.50981222169679
 31
0.0
  0
LINE
  5
9EAC
  8
AM_0
 10
610.18259712173801
 20
209.6606929093235
 30
0.0
 11
590.18259673430782
 21
210.00981400983599
 31
0.0
  0
ARC
  5
9EAD
  8
AM_0
 10
598.62284099504541
 20
214.50981222169679
 30
0.0
 40
2.0
 50
235.13616204569519
 51
270.0
1001
GENIUS_GENODEF_13
1002
{
1000
HIER
1070
     0
1002
}
1002
{
1000
MANEDIT
1070
     0
1002
}
1002
{
1000
NOSEL
1070
     0
1002
}
1002
{
1000
BEHIND
1070
     0
1002
}
1002
{
1000
OTHER
1070
     0
1002
}
1002
{
1000
REACTOR
1002
}
1001
GENIUS_GENOBJ-N-FIL_13
1002
{
1000
OWNER
1000
GEN
1002
}
  0
LINE
  5
9EAE
  8
AM_0
 10
610.18259712173801
 20
187.50981333928371
 30
0.0
 11
614.18259724094719
 21
187.50981333928371
 31
0.0
  0
ARC
  5
9EAF
  8
AM_0
 10
606.18259578063351
 20
207.50981222169679
 30
0.0
 40
5.0
 50
0.0
 51
90.0
1001
GENIUS_GENODEF_13
1002
{
1000
HIER
1070
     0
1002
}
1002
{
1000
MANEDIT
1070
     0
1002
}
1002
{
1000
NOSEL
1070
     0
1002
}
1002
{
1000
BEHIND
1070
     0
1002
}
1002
{
1000
REACTOR
1002
}
1001
GENIUS_GENOBJ-N-FIL_13
1002
{
1000
OWNER
1000
GEN
1002
}
  0
LINE
  5
9EB0
  8
AM_0
 10
598.62284099504541
 20
212.50981222169679
 30
0.0
 11
606.18259578063351
 21
212.50981222169679
 31
0.0
  0
ARC
  5
9EB1
  8
AM_0
 10
612.68259578063328
 20
199.79269070298179
 30
0.0
 40
1.5
 50
180.0
 51
215.01862826208421
1001
GENIUS_GENODEF_13
1002
{
1000
HIER
1070
     0
1002
}
1002
{
1000
MANEDIT
1070
     0
1002
}
1002
{
1000
NOSEL
1070
     0
1002
}
1002
{
1000
BEHIND
1070
     0
1002
}
1002
{
1000
REACTOR
1002
}
1001
GENIUS_GENOBJ-N-FIL_13
1002
{
1000
OWNER
1000
GEN
1002
}
  0
LINE
  5
9EB2
  8
AM_0
 10
611.18259578063351
 20
199.79269070298179
 30
0.0
 11
611.18259578063351
 21
207.50981222169679
 31
0.0
1001
GENIUS_GENODEF_13
1002
{
1000
HIER
1070
     0
1002
}
1002
{
1000
MANEDIT
1070
     0
1002
}
1002
{
1000
NOSEL
1070
     0
1002
}
1002
{
1000
BEHIND
1070
     0
1002
}
1002
{
1000
REACTOR
1002
}
1001
GENIUS_GENOBJ-N-CEN_13
1002
{
1000
OWNER
1000
GEN
1002
}
  0
ARC
  5
9EB3
  8
AM_0
 10
590.13980068460819
 20
224.64121715685559
 30
0.0
 40
1.0
 50
76.886329856700854
 51
177.99999999999619
1001
GENIUS_GENODEF_13
1002
{
1000
HIER
1070
     0
1002
}
1002
{
1000
MANEDIT
1070
     0
1002
}
1002
{
1000
NOSEL
1070
     0
1002
}
1002
{
1000
BEHIND
1070
     0
1002
}
1002
{
1000
REACTOR
1002
}
1001
GENIUS_GENOBJ-N-FIL_13
1002
{
1000
OWNER
1000
GEN
1002
}
  0
LINE
  5
9EB4
  8
AM_0
 10
589.14040985758925
 20
224.67611665355841
 30
0.0
 11
588.89996812431798
 21
217.79076627981689
 31
0.0
  0
LINE
  5
9EB5
  8
AM_0
 10
581.21184313669971
 20
226.51307140466901
 30
0.0
 11
581.41738554054712
 21
220.62710706771981
 31
0.0
  0
LINE
  5
9EB6
  8
AM_0
 10
591.20920650659275
 20
224.6597819192356
 30
0.0
 11
591.49382038465797
 21
216.50950681912971
 31
0.0
  0
ARC
  5
9EB7
  8
AM_0
 10
590.20981567957358
 20
224.62488242253301
 30
0.0
 40
1.0
 50
1.9999999999972149
 51
76.848881739345046
1001
GENIUS_GENODEF_13
1002
{
1000
HIER
1070
     0
1002
}
1002
{
1000
MANEDIT
1070
     0
1002
}
1002
{
1000
NOSEL
1070
     0
1002
}
1002
{
1000
BEHIND
1070
     0
1002
}
1002
{
1000
REACTOR
1002
}
1001
GENIUS_GENOBJ-N-FIL_13
1002
{
1000
OWNER
1000
GEN
1002
}
  0
ARC
  5
9EB8
  8
AM_0
 10
565.18259578063351
 20
117.50981222169671
 30
0.0
 40
111.0
 50
76.848881739345046
 51
76.886329856700854
  0
ARC
  5
9EB9
  8
AM_0
 10
600.20730477632321
 20
221.7847840978242
 30
0.0
 40
1.0
 50
2.0000000000069811
 51
71.43341919809707
1001
GENIUS_GENODEF_13
1002
{
1000
HIER
1070
     0
1002
}
1002
{
1000
MANEDIT
1070
     0
1002
}
1002
{
1000
NOSEL
1070
     0
1002
}
1002
{
1000
BEHIND
1070
     0
1002
}
1002
{
1000
REACTOR
1002
}
1001
GENIUS_GENOBJ-N-FIL_13
1002
{
1000
OWNER
1000
GEN
1002
}
  0
ARC
  5
9EBA
  8
AM_0
 10
565.18259578063351
 20
117.50981222169671
 30
0.0
 40
111.0
 50
71.433419198104289
 51
71.472857685524531
  0
ARC
  5
9EBB
  8
AM_0
 10
600.13552074125573
 20
221.8088680021641
 30
0.0
 40
1.0
 50
71.472857685524531
 51
177.99999999999949
1001
GENIUS_GENODEF_13
1002
{
1000
HIER
1070
     0
1002
}
1002
{
1000
MANEDIT
1070
     0
1002
}
1002
{
1000
NOSEL
1070
     0
1002
}
1002
{
1000
BEHIND
1070
     0
1002
}
1002
{
1000
REACTOR
1002
}
1001
GENIUS_GENOBJ-N-FIL_13
1002
{
1000
OWNER
1000
GEN
1002
}
  0
LINE
  5
9EBF
  8
AM_0
 10
619.18259578063339
 20
200.41676361055389
 30
0.0
 11
619.18259578063351
 21
192.6813430828615
 31
0.0
  0
LINE
  5
9EC0
  8
AM_0
 10
625.18585496360572
 20
182.539059577763
 30
0.0
 11
619.29989062665675
 21
182.74460198161009
 31
0.0
  0
ARC
  5
9EC1
  8
AM_0
 10
623.31400071579242
 20
191.4670171256715
 30
0.0
 40
1.0
 50
272.00000000000358
 51
13.11367014329841
1001
GENIUS_GENODEF_13
1002
{
1000
HIER
1070
     0
1002
}
1002
{
1000
MANEDIT
1070
     0
1002
}
1002
{
1000
NOSEL
1070
     0
1002
}
1002
{
1000
BEHIND
1070
     0
1002
}
1002
{
1000
REACTOR
1002
}
1001
GENIUS_GENOBJ-N-FIL_13
1002
{
1000
OWNER
1000
GEN
1002
}
  0
ARC
  5
9EC2
  8
AM_0
 10
623.29766598146966
 20
191.53703212063681
 30
0.0
 40
1.0
 50
13.15111826064787
 51
88.000000000002899
1001
GENIUS_GENODEF_13
1002
{
1000
HIER
1070
     0
1002
}
1002
{
1000
MANEDIT
1070
     0
1002
}
1002
{
1000
NOSEL
1070
     0
1002
}
1002
{
1000
BEHIND
1070
     0
1002
}
1002
{
1000
REACTOR
1002
}
1001
GENIUS_GENOBJ-N-FIL_13
1002
{
1000
OWNER
1000
GEN
1002
}
  0
ARC
  5
9EC3
  8
AM_0
 10
516.18259578063351
 20
166.50981222169659
 30
0.0
 40
111.0
 50
13.113670143301579
 51
13.15111826064787
  0
LINE
  5
9EC4
  8
AM_0
 10
623.3489002124951
 20
190.46762629865239
 30
0.0
 11
616.46354983875369
 21
190.22718456538101
 31
0.0
  0
ARC
  5
9EC5
  8
AM_0
 10
620.48165156110088
 20
201.4627371823189
 30
0.0
 40
1.0
 50
271.9999999999971
 51
18.527142314471341
1001
GENIUS_GENODEF_13
1002
{
1000
HIER
1070
     0
1002
}
1002
{
1000
MANEDIT
1070
     0
1002
}
1002
{
1000
NOSEL
1070
     0
1002
}
1002
{
1000
BEHIND
1070
     0
1002
}
1002
{
1000
REACTOR
1002
}
1001
GENIUS_GENOBJ-N-FIL_13
1002
{
1000
OWNER
1000
GEN
1002
}
  0
ARC
  5
9EC6
  8
AM_0
 10
516.18259578063351
 20
166.50981222169659
 30
0.0
 40
111.0
 50
18.527142314471341
 51
18.566580801896752
  0
ARC
  5
9EC7
  8
AM_0
 10
620.45756765676094
 20
201.5345212173865
 30
0.0
 40
1.0
 50
18.56658080190293
 51
87.999999999996405
1001
GENIUS_GENODEF_13
1002
{
1000
HIER
1070
     0
1002
}
1002
{
1000
MANEDIT
1070
     0
1002
}
1002
{
1000
NOSEL
1070
     0
1002
}
1002
{
1000
BEHIND
1070
     0
1002
}
1002
{
1000
REACTOR
1002
}
1001
GENIUS_GENOBJ-N-FIL_13
1002
{
1000
OWNER
1000
GEN
1002
}
  0
LINE
  5
9F57
  8
ﾁｭｳｼﾝｾﾝ1
 10
399.08593054321472
 20
-23.382364279446161
 30
0.0
 11
399.08593054321472
 21
-119.38236696165529
 31
0.0
  0
LINE
  5
9F58
  8
ｶｸﾚｾﾝ2
 10
403.58593067732488
 20
-26.382364279446278
 30
0.0
 11
403.58593067732488
 21
-116.38236696165529
 31
0.0
  0
LINE
  5
9F59
  8
ｶｸﾚｾﾝ2
 10
394.58593040910421
 20
-26.382364279446278
 30
0.0
 11
394.58593040910421
 21
-116.38236696165529
 31
0.0
  0
LINE
  5
9F5A
  8
AM_0
 10
409.5859308561387
 20
-96.382366574225102
 30
0.0
 11
408.36406247446359
 21
-26.382364279446278
 31
0.0
  0
LINE
  5
9F5B
  8
AM_0
 10
409.5859308561387
 20
-96.382366574225102
 30
0.0
 11
255.5859262665814
 21
-96.382366574225102
 31
0.0
  0
LINE
  5
9F5C
  8
AM_0
 10
409.23680975562633
 20
-116.38236696165529
 30
0.0
 11
409.5859308561387
 21
-96.382366574225102
 31
0.0
  0
LINE
  5
9F5D
  8
AM_0
 10
255.935047367094
 20
-116.38236696165529
 30
0.0
 11
409.23680975562633
 21
-116.38236696165529
 31
0.0
  0
LINE
  5
9F5E
  8
AM_0
 10
389.58593026009231
 20
-116.38236696165529
 30
0.0
 11
389.58593026009231
 21
-120.3823670808646
 31
0.0
  0
LINE
  5
9F5F
  8
AM_0
 10
389.58593026009231
 20
-120.3823670808646
 30
0.0
 11
314.5859280249183
 21
-120.3823670808646
 31
0.0
  0
LINE
  5
9F60
  8
AM_0
 10
372.08592973855161
 20
-120.3823670808646
 30
0.0
 11
372.08592973855161
 21
-124.3823672000738
 31
0.0
  0
LINE
  5
9F61
  8
AM_0
 10
372.08592973855161
 20
-124.3823672000738
 30
0.0
 11
332.08592854645877
 21
-124.3823672000738
 31
0.0
  0
LINE
  5
9F62
  8
AM_0
 10
332.08592854645877
 20
-120.3823670808646
 30
0.0
 11
332.08592854645877
 21
-124.3823672000738
 31
0.0
  0
LINE
  5
9F63
  8
AM_0
 10
314.5859280249183
 20
-116.38236696165529
 30
0.0
 11
314.5859280249183
 21
-120.3823670808646
 31
0.0
  0
LINE
  5
9F64
  8
ﾁｭｳｼﾝｾﾝ1
 10
266.08592657950572
 20
-23.382364279446161
 30
0.0
 11
266.08592657950572
 21
-119.38236696165529
 31
0.0
  0
LINE
  5
9F65
  8
ｶｸﾚｾﾝ2
 10
261.58592644539522
 20
-26.382364279446278
 30
0.0
 11
261.58592644539522
 21
-116.38236696165529
 31
0.0
  0
LINE
  5
9F66
  8
ｶｸﾚｾﾝ2
 10
270.58592671361612
 20
-26.382364279446278
 30
0.0
 11
270.58592671361612
 21
-116.38236696165529
 31
0.0
  0
LINE
  5
9F67
  8
AM_0
 10
255.935047367094
 20
-116.38236696165529
 30
0.0
 11
255.5859262665814
 21
-96.382366574225102
 31
0.0
  0
LINE
  5
9F68
  8
AM_0
 10
255.5859262665814
 20
-96.382366574225102
 30
0.0
 11
256.80776690500278
 21
-26.382364279446278
 31
0.0
  0
LINE
  5
9F69
  8
AM_0
 10
408.36406247446359
 20
-26.382364279446278
 30
0.0
 11
256.80776690500278
 21
-26.382364279446278
 31
0.0
  0
LINE
  5
9F6A
  8
AM_0
 10
389.58593026009231
 20
-22.382364160236989
 30
0.0
 11
314.5859280249183
 21
-22.382364160236989
 31
0.0
  0
LINE
  5
9F6B
  8
AM_0
 10
314.5859280249183
 20
-26.382364279446278
 30
0.0
 11
314.5859280249183
 21
-22.382364160236989
 31
0.0
  0
LINE
  5
9F6C
  8
AM_0
 10
332.08592854645889
 20
-22.382364160236989
 30
0.0
 11
332.08592854645889
 21
-18.382364041027699
 31
0.0
  0
LINE
  5
9F6D
  8
AM_0
 10
372.08592973855161
 20
-18.382364041027699
 30
0.0
 11
332.08592854645889
 21
-18.382364041027699
 31
0.0
  0
LINE
  5
9F6E
  8
AM_0
 10
372.08592973855161
 20
-22.382364160236989
 30
0.0
 11
372.08592973855161
 21
-18.382364041027699
 31
0.0
  0
LINE
  5
9F6F
  8
AM_0
 10
389.58593026009231
 20
-26.382364279446278
 30
0.0
 11
389.58593026009231
 21
-22.382364160236989
 31
0.0
  0
LINE
  5
9F70
  8
ﾁｭｳｼﾝｾﾝ1
 10
352.08592914250539
 20
-13.382364041027699
 30
0.0
 11
352.08592914250539
 21
-129.3823672000739
 31
0.0
  0
LINE
  5
9FD6
  8
AM_0
 10
254.8074622558693
 20
-28.382364279446289
 30
0.0
 11
251.08657590802181
 21
-28.382364279446289
 31
0.0
  0
LINE
  5
9FDC
  8
AM_0
 10
254.60322880770551
 20
-94.382366574225088
 30
0.0
 11
253.37884276585689
 21
-94.382366574225088
 31
0.0
  0
ARC
  5
9FDF
  8
AM_0
 10
251.08657590802181
 20
-26.382364279446289
 30
0.0
 40
2.0
 50
190.00000821593119
 51
270.0
1001
GENIUS_GENOBJ-N-CEN_13
1002
{
1000
OWNER
1000
GEN
1002
}
1001
GENIUS_GENODEF_13
1002
{
1000
HIER
1070
     0
1002
}
1002
{
1000
MANEDIT
1070
     0
1002
}
1002
{
1000
NOSEL
1070
     0
1002
}
1002
{
1000
BEHIND
1070
     0
1002
}
1002
{
1000
OTHER
1070
     0
1002
}
1002
{
1000
REACTOR
1002
}
1001
GENIUS_GENOBJ-N-FIL_13
1002
{
1000
OWNER
1000
GEN
1002
}
  0
ARC
  5
9FE1
  8
AM_0
 10
254.8074622558693
 20
-26.382364279446289
 30
0.0
 40
2.0
 50
270.0
 51
359.00001141197771
1001
GENIUS_GENOBJ-N-FIL_13
1002
{
1000
OWNER
1000
GEN
1002
}
1001
GENIUS_GENODEF_13
1002
{
1000
HIER
1070
     0
1002
}
1002
{
1000
MANEDIT
1070
     0
1002
}
1002
{
1000
NOSEL
1070
     0
1002
}
1002
{
1000
BEHIND
1070
     0
1002
}
1002
{
1000
OTHER
1070
     0
1002
}
1002
{
1000
REACTOR
1002
}
  0
ARC
  5
9FE3
  8
AM_0
 10
253.37884276585689
 20
-96.382366574225102
 30
0.0
 40
2.0
 50
90.0
 51
170.00000821593079
1001
GENIUS_GENOBJ-N-CEN_13
1002
{
1000
OWNER
1000
GEN
1002
}
1001
GENIUS_GENOBJ-N-FIL_13
1002
{
1000
OWNER
1000
GEN
1002
}
1001
GENIUS_GENODEF_13
1002
{
1000
HIER
1070
     0
1002
}
1002
{
1000
MANEDIT
1070
     0
1002
}
1002
{
1000
NOSEL
1070
     0
1002
}
1002
{
1000
BEHIND
1070
     0
1002
}
1002
{
1000
OTHER
1070
     0
1002
}
1002
{
1000
REACTOR
1002
}
  0
ARC
  5
9FE9
  8
AM_0
 10
254.60322880770551
 20
-95.382366574225074
 30
0.0
 40
1.0
 50
359.00001141197771
 51
90.0
1001
GENIUS_GENOBJ-N-FIL_13
1002
{
1000
OWNER
1000
GEN
1002
}
1001
GENIUS_GENODEF_13
1002
{
1000
HIER
1070
     0
1002
}
1002
{
1000
MANEDIT
1070
     0
1002
}
1002
{
1000
NOSEL
1070
     0
1002
}
1002
{
1000
BEHIND
1070
     0
1002
}
1002
{
1000
OTHER
1070
     0
1002
}
1002
{
1000
REACTOR
1002
}
  0
LINE
  5
A2D5
  8
ﾁｭｳｼﾝｾﾝ1
 10
507.18259420111031
 20
301.7697106933781
 30
0.0
 11
623.18259736015659
 21
301.7697106933781
 31
0.0
  0
LINE
  5
A2D6
  8
AM_0
 10
514.18259420111042
 20
314.26971069337782
 30
0.0
 11
512.18259420111042
 21
315.42441123175712
 31
0.0
  0
LINE
  5
A2D7
  8
AM_0
 10
512.18259420111042
 20
317.46971069337809
 30
0.0
 11
618.18259420111042
 21
317.46971069337809
 31
0.0
  0
LINE
  5
A2D8
  8
AM_0
 10
531.2760709872947
 20
321.76971128942438
 30
0.0
 11
512.18259420111042
 21
321.76971128942438
 31
0.0
  0
LINE
  5
A2D9
  8
AM_0
 10
514.18259420111053
 20
289.26971069337782
 30
0.0
 11
512.18259420111053
 21
288.11501015499857
 31
0.0
  0
LINE
  5
A2DA
  8
AM_0
 10
531.2760709872947
 20
281.76971009733171
 30
0.0
 11
512.18259420111042
 21
281.76971009733171
 31
0.0
  0
LINE
  5
A2DB
  8
AM_0
 10
512.18259420111042
 20
321.76971128942438
 30
0.0
 11
512.18259420111042
 21
281.76971009733171
 31
0.0
  0
LINE
  5
A2DC
  8
AM_0
 10
599.53259420111033
 20
314.2697106933781
 30
0.0
 11
616.18259420111042
 21
314.2697106933781
 31
0.0
  0
LINE
  5
A2DD
  8
AM_0
 10
606.18259724094719
 20
329.26971069337822
 30
0.0
 11
614.18259724094719
 21
329.26971069337822
 31
0.0
  0
LINE
  5
A2DE
  8
AM_0
 10
606.18259724094719
 20
329.26971069337822
 30
0.0
 11
614.18259724094708
 21
321.76971128942438
 31
0.0
  0
LINE
  5
A2DF
  8
AM_0
 10
614.18259724094708
 20
329.26971069337822
 30
0.0
 11
606.18259724094696
 21
321.76971128942438
 31
0.0
  0
POLYLINE
  5
A2E0
  8
AM_4
 66
     1
 10
0.0
 20
0.0
 30
0.0
  0
VERTEX
  5
A2E1
  8
AM_4
 10
614.18259724094719
 20
332.21947636044848
 30
0.0
  0
VERTEX
  5
A2E2
  8
AM_4
 10
613.92621642584186
 20
332.20647948429553
 30
0.0
  0
VERTEX
  5
A2E3
  8
AM_4
 10
612.17276204063376
 20
332.02020261111562
 30
0.0
  0
VERTEX
  5
A2E4
  8
AM_4
 10
610.93572076875637
 20
331.78251712535672
 30
0.0
  0
VERTEX
  5
A2E5
  8
AM_4
 10
610.08741851692173
 20
331.50675118280338
 30
0.0
  0
VERTEX
  5
A2E6
  8
AM_4
 10
609.50018119184085
 20
331.20623293924018
 30
0.0
  0
VERTEX
  5
A2E7
  8
AM_4
 10
609.04633470022566
 20
330.89429055045161
 30
0.0
  0
VERTEX
  5
A2E8
  8
AM_4
 10
608.59820494878761
 20
330.5842521722218
 30
0.0
  0
VERTEX
  5
A2E9
  8
AM_4
 10
608.05421375181356
 20
330.28627259007311
 30
0.0
  0
VERTEX
  5
A2EA
  8
AM_4
 10
607.41716655389325
 20
329.99781310847771
 30
0.0
  0
VERTEX
  5
A2EB
  8
AM_4
 10
606.71596470719226
 20
329.7131616616457
 30
0.0
  0
VERTEX
  5
A2EC
  8
AM_4
 10
605.97950956387501
 20
329.42660618378682
 30
0.0
  0
VERTEX
  5
A2ED
  8
AM_4
 10
605.23670247610687
 20
329.13243460911082
 30
0.0
  0
VERTEX
  5
A2EE
  8
AM_4
 10
604.51644479605363
 20
328.82493487182791
 30
0.0
  0
VERTEX
  5
A2EF
  8
AM_4
 10
603.84763787587974
 20
328.49839490614772
 30
0.0
  0
VERTEX
  5
A2F0
  8
AM_4
 10
603.25918306775043
 20
328.14710264628019
 30
0.0
  0
VERTEX
  5
A2F1
  8
AM_4
 10
602.77029500762262
 20
327.766668264163
 30
0.0
  0
VERTEX
  5
A2F2
  8
AM_4
 10
602.36144146661672
 20
327.35799088264503
 30
0.0
  0
VERTEX
  5
A2F3
  8
AM_4
 10
602.00340349964574
 20
326.92329186230279
 30
0.0
  0
VERTEX
  5
A2F4
  8
AM_4
 10
601.66696216162143
 20
326.46479256371327
 30
0.0
  0
VERTEX
  5
A2F5
  8
AM_4
 10
601.32289850745633
 20
325.98471434745289
 30
0.0
  0
VERTEX
  5
A2F6
  8
AM_4
 10
600.94199359206254
 20
325.48527857409829
 30
0.0
  0
VERTEX
  5
A2F7
  8
AM_4
 10
600.49502847035274
 20
324.96870660422633
 30
0.0
  0
VERTEX
  5
A2F8
  8
AM_4
 10
599.952784197239
 20
324.43721979841331
 30
0.0
  0
VERTEX
  5
A2F9
  8
AM_4
 10
599.2948286834071
 20
323.89568399297599
 30
0.0
  0
VERTEX
  5
A2FA
  8
AM_4
 10
598.53587726263686
 20
323.35954292719038
 30
0.0
  0
VERTEX
  5
A2FB
  8
AM_4
 10
597.69943212448231
 20
322.84688481607219
 30
0.0
  0
VERTEX
  5
A2FC
  8
AM_4
 10
596.80899545849604
 20
322.37579787463739
 30
0.0
  0
VERTEX
  5
A2FD
  8
AM_4
 10
595.88806945423221
 20
321.96437031790168
 30
0.0
  0
VERTEX
  5
A2FE
  8
AM_4
 10
594.96015630124373
 20
321.6306903608812
 30
0.0
  0
VERTEX
  5
A2FF
  8
AM_4
 10
594.04875818908442
 20
321.39284621859139
 30
0.0
  0
VERTEX
  5
A300
  8
AM_4
 10
593.17737730730755
 20
321.26892610604841
 30
0.0
  0
VERTEX
  5
A301
  8
AM_4
 10
592.36115245306587
 20
321.2685030252826
 30
0.0
  0
VERTEX
  5
A302
  8
AM_4
 10
591.58176885391003
 20
321.36708912638289
 30
0.0
  0
VERTEX
  5
A303
  8
AM_4
 10
590.81254834498952
 20
321.53168134645341
 30
0.0
  0
VERTEX
  5
A304
  8
AM_4
 10
590.02681276145404
 20
321.72927662259741
 30
0.0
  0
VERTEX
  5
A305
  8
AM_4
 10
589.19788393845363
 20
321.92687189191889
 30
0.0
  0
VERTEX
  5
A306
  8
AM_4
 10
588.29908371113765
 20
322.09146409152152
 30
0.0
  0
VERTEX
  5
A307
  8
AM_4
 10
587.30373391465605
 20
322.19005015850883
 30
0.0
  0
VERTEX
  5
A308
  8
AM_4
 10
586.18515638415897
 20
322.18962702998471
 30
0.0
  0
VERTEX
  5
A309
  8
AM_4
 10
584.92418942249799
 20
322.0679811061521
 30
0.0
  0
VERTEX
  5
A30A
  8
AM_4
 10
583.5317372033353
 20
321.84605663961281
 30
0.0
  0
VERTEX
  5
A30B
  8
AM_4
 10
582.02622036803496
 20
321.55558734606791
 30
0.0
  0
VERTEX
  5
A30C
  8
AM_4
 10
580.42605955796159
 20
321.22830694121802
 30
0.0
  0
VERTEX
  5
A30D
  8
AM_4
 10
578.74967541447916
 20
320.8959491407644
 30
0.0
  0
VERTEX
  5
A30E
  8
AM_4
 10
577.01548857895239
 20
320.59024766040812
 30
0.0
  0
VERTEX
  5
A30F
  8
AM_4
 10
575.24191969274534
 20
320.34293621584987
 30
0.0
  0
VERTEX
  5
A310
  8
AM_4
 10
573.44738939722208
 20
320.18574852279119
 30
0.0
  0
VERTEX
  5
A311
  8
AM_4
 10
571.64618956944469
 20
320.14063373476182
 30
0.0
  0
VERTEX
  5
A312
  8
AM_4
 10
569.83609702926481
 20
320.1904027566103
 30
0.0
  0
VERTEX
  5
A313
  8
AM_4
 10
568.01075983223188
 20
320.3080819310141
 30
0.0
  0
VERTEX
  5
A314
  8
AM_4
 10
566.16382603389491
 20
320.466697600651
 30
0.0
  0
VERTEX
  5
A315
  8
AM_4
 10
564.28894368980343
 20
320.6392761081982
 30
0.0
  0
VERTEX
  5
A316
  8
AM_4
 10
562.37976085550633
 20
320.79884379633307
 30
0.0
  0
VERTEX
  5
A317
  8
AM_4
 10
560.4299255865534
 20
320.91842700773373
 30
0.0
  0
VERTEX
  5
A318
  8
AM_4
 10
558.43308593849315
 20
320.97105208507719
 30
0.0
  0
VERTEX
  5
A319
  8
AM_4
 10
556.38950657516648
 20
320.93794324708568
 30
0.0
  0
VERTEX
  5
A31A
  8
AM_4
 10
554.3259185935774
 20
320.83311621665871
 30
0.0
  0
VERTEX
  5
A31B
  8
AM_4
 10
552.27566969902034
 20
320.67878459273987
 30
0.0
  0
VERTEX
  5
A31C
  8
AM_4
 10
550.27210759679042
 20
320.49716197427352
 30
0.0
  0
VERTEX
  5
A31D
  8
AM_4
 10
548.34857999218286
 20
320.31046196020338
 30
0.0
  0
VERTEX
  5
A31E
  8
AM_4
 10
546.53843459049244
 20
320.14089814947351
 30
0.0
  0
VERTEX
  5
A31F
  8
AM_4
 10
544.87501909701405
 20
320.01068414102753
 30
0.0
  0
VERTEX
  5
A320
  8
AM_4
 10
543.39168121704256
 20
319.94203353380948
 30
0.0
  0
VERTEX
  5
A321
  8
AM_4
 10
542.11097035163777
 20
319.95060162638282
 30
0.0
  0
VERTEX
  5
A322
  8
AM_4
 10
541.01224268491853
 20
320.0258105157879
 30
0.0
  0
VERTEX
  5
A323
  8
AM_4
 10
540.06405609676722
 20
320.15052399868438
 30
0.0
  0
VERTEX
  5
A324
  8
AM_4
 10
539.23496846706735
 20
320.30760587173251
 30
0.0
  0
VERTEX
  5
A325
  8
AM_4
 10
538.49353767570176
 20
320.47991993159201
 30
0.0
  0
VERTEX
  5
A326
  8
AM_4
 10
537.8083216025542
 20
320.65032997492261
 30
0.0
  0
VERTEX
  5
A327
  8
AM_4
 10
537.14787812750706
 20
320.80169979838428
 30
0.0
  0
VERTEX
  5
A328
  8
AM_4
 10
536.48076513044441
 20
320.91689319863679
 30
0.0
  0
VERTEX
  5
A329
  8
AM_4
 10
535.78289815839435
 20
320.98564960937767
 30
0.0
  0
VERTEX
  5
A32A
  8
AM_4
 10
535.05962342696989
 20
321.02521101245333
 30
0.0
  0
VERTEX
  5
A32B
  8
AM_4
 10
534.32364481892989
 20
321.05969502674782
 30
0.0
  0
VERTEX
  5
A32C
  8
AM_4
 10
533.58766621703273
 20
321.113219271145
 30
0.0
  0
VERTEX
  5
A32D
  8
AM_4
 10
532.86439150403703
 20
321.20990136452929
 30
0.0
  0
VERTEX
  5
A32E
  8
AM_4
 10
532.16652456270128
 20
321.37385892578442
 30
0.0
  0
VERTEX
  5
A32F
  8
AM_4
 10
531.50676927578434
 20
321.62920957379453
 30
0.0
  0
VERTEX
  5
A330
  8
AM_4
 10
530.89782952604457
 20
322.0000709274434
 30
0.0
  0
VERTEX
  5
A331
  8
AM_4
 10
530.34796283696835
 20
322.50156938792929
 30
0.0
  0
VERTEX
  5
A332
  8
AM_4
 10
529.84764129495056
 20
323.11286648570558
 30
0.0
  0
VERTEX
  5
A333
  8
AM_4
 10
529.38289062711408
 20
323.80413253353981
 30
0.0
  0
VERTEX
  5
A334
  8
AM_4
 10
528.93973656058131
 20
324.54553784419892
 30
0.0
  0
VERTEX
  5
A335
  8
AM_4
 10
528.50420482247512
 20
325.3072527304505
 30
0.0
  0
VERTEX
  5
A336
  8
AM_4
 10
528.06232113991825
 20
326.059447505062
 30
0.0
  0
VERTEX
  5
A337
  8
AM_4
 10
527.60011124003358
 20
326.77229248080079
 30
0.0
  0
VERTEX
  5
A338
  8
AM_4
 10
527.10360084994306
 20
327.41595797043419
 30
0.0
  0
VERTEX
  5
A339
  8
AM_4
 10
526.56360612041726
 20
327.96799237394731
 30
0.0
  0
VERTEX
  5
A33A
  8
AM_4
 10
525.99010489681382
 20
328.43545644019508
 30
0.0
  0
VERTEX
  5
A33B
  8
AM_4
 10
525.39786544813785
 20
328.8327890052505
 30
0.0
  0
VERTEX
  5
A33C
  8
AM_4
 10
524.80165604339425
 20
329.17442890518629
 30
0.0
  0
VERTEX
  5
A33D
  8
AM_4
 10
524.21624495158858
 20
329.47481497607538
 30
0.0
  0
VERTEX
  5
A33E
  8
AM_4
 10
523.65640044172574
 20
329.7483860539906
 30
0.0
  0
VERTEX
  5
A33F
  8
AM_4
 10
523.13689078281072
 20
330.00958097500438
 30
0.0
  0
VERTEX
  5
A340
  8
AM_4
 10
522.67248424384866
 20
330.27283857518978
 30
0.0
  0
VERTEX
  5
A341
  8
AM_4
 10
522.25862859460483
 20
330.5481020824875
 30
0.0
  0
VERTEX
  5
A342
  8
AM_4
 10
521.81348960788375
 20
330.82733229230797
 30
0.0
  0
VERTEX
  5
A343
  8
AM_4
 10
521.2359125572508
 20
331.09799439193029
 30
0.0
  0
VERTEX
  5
A344
  8
AM_4
 10
520.42474271626975
 20
331.3475535686328
 30
0.0
  0
VERTEX
  5
A345
  8
AM_4
 10
519.27882535850642
 20
331.56347500969417
 30
0.0
  0
VERTEX
  5
A346
  8
AM_4
 10
517.69700575752483
 20
331.73322390239321
 30
0.0
  0
VERTEX
  5
A347
  8
AM_4
 10
516.18259432031948
 20
331.81258792378691
 30
0.0
  0
SEQEND
  5
A348
  8
AM_4
  0
LINE
  5
A349
  8
AM_0
 10
595.34675233562325
 20
321.76971128942449
 30
0.0
 11
618.18259736015659
 21
321.76971128942438
 31
0.0
  0
LINE
  5
A34A
  8
AM_0
 10
599.53259420111033
 20
289.2697106933781
 30
0.0
 11
616.18259420111042
 21
289.2697106933781
 31
0.0
  0
LINE
  5
A34B
  8
AM_0
 10
595.34675233562325
 20
281.76971009733171
 30
0.0
 11
618.18259736015659
 21
281.76971009733171
 31
0.0
  0
POLYLINE
  5
A34C
  8
AM_4
 66
     1
 10
0.0
 20
0.0
 30
0.0
  0
VERTEX
  5
A34D
  8
AM_4
 10
614.18259724094719
 20
271.31994502630761
 30
0.0
  0
VERTEX
  5
A34E
  8
AM_4
 10
613.92621642584186
 20
271.33294190246068
 30
0.0
  0
VERTEX
  5
A34F
  8
AM_4
 10
612.17276204063376
 20
271.51921877564058
 30
0.0
  0
VERTEX
  5
A350
  8
AM_4
 10
610.93572076875637
 20
271.7569042613996
 30
0.0
  0
VERTEX
  5
A351
  8
AM_4
 10
610.08741851692173
 20
272.03267020395282
 30
0.0
  0
VERTEX
  5
A352
  8
AM_4
 10
609.50018119184085
 20
272.33318844751602
 30
0.0
  0
VERTEX
  5
A353
  8
AM_4
 10
609.04633470022566
 20
272.6451308363047
 30
0.0
  0
VERTEX
  5
A354
  8
AM_4
 10
608.59820494878761
 20
272.95516921453452
 30
0.0
  0
VERTEX
  5
A355
  8
AM_4
 10
608.05421375181356
 20
273.25314879668309
 30
0.0
  0
VERTEX
  5
A356
  8
AM_4
 10
607.41716655389325
 20
273.54160827827849
 30
0.0
  0
VERTEX
  5
A357
  8
AM_4
 10
606.71596470719226
 20
273.8262597251105
 30
0.0
  0
VERTEX
  5
A358
  8
AM_4
 10
605.97950956387501
 20
274.11281520296939
 30
0.0
  0
VERTEX
  5
A359
  8
AM_4
 10
605.23670247610687
 20
274.40698677764539
 30
0.0
  0
VERTEX
  5
A35A
  8
AM_4
 10
604.51644479605363
 20
274.7144865149283
 30
0.0
  0
VERTEX
  5
A35B
  8
AM_4
 10
603.84763787587974
 20
275.04102648060848
 30
0.0
  0
VERTEX
  5
A35C
  8
AM_4
 10
603.25918306775043
 20
275.39231874047601
 30
0.0
  0
VERTEX
  5
A35D
  8
AM_4
 10
602.77029500762262
 20
275.7727531225932
 30
0.0
  0
VERTEX
  5
A35E
  8
AM_4
 10
602.36144146661672
 20
276.18143050411118
 30
0.0
  0
VERTEX
  5
A35F
  8
AM_4
 10
602.00340349964574
 20
276.6161295244533
 30
0.0
  0
VERTEX
  5
A360
  8
AM_4
 10
601.66696216162143
 20
277.07462882304287
 30
0.0
  0
VERTEX
  5
A361
  8
AM_4
 10
601.32289850745633
 20
277.55470703930331
 30
0.0
  0
VERTEX
  5
A362
  8
AM_4
 10
600.94199359206254
 20
278.05414281265791
 30
0.0
  0
VERTEX
  5
A363
  8
AM_4
 10
600.49502847035274
 20
278.57071478252988
 30
0.0
  0
VERTEX
  5
A364
  8
AM_4
 10
599.952784197239
 20
279.10220158834289
 30
0.0
  0
VERTEX
  5
A365
  8
AM_4
 10
599.2948286834071
 20
279.64373739378021
 30
0.0
  0
VERTEX
  5
A366
  8
AM_4
 10
598.53587726263686
 20
280.17987845956571
 30
0.0
  0
VERTEX
  5
A367
  8
AM_4
 10
597.69943212448231
 20
280.69253657068401
 30
0.0
  0
VERTEX
  5
A368
  8
AM_4
 10
596.80899545849604
 20
281.16362351211882
 30
0.0
  0
VERTEX
  5
A369
  8
AM_4
 10
595.88806945423221
 20
281.57505106885452
 30
0.0
  0
VERTEX
  5
A36A
  8
AM_4
 10
594.96015630124373
 20
281.90873102587511
 30
0.0
  0
VERTEX
  5
A36B
  8
AM_4
 10
594.04875818908442
 20
282.14657516816482
 30
0.0
  0
VERTEX
  5
A36C
  8
AM_4
 10
593.17737730730755
 20
282.27049528070779
 30
0.0
  0
VERTEX
  5
A36D
  8
AM_4
 10
592.36115245306587
 20
282.27091836147372
 30
0.0
  0
VERTEX
  5
A36E
  8
AM_4
 10
591.58176885391003
 20
282.1723322603732
 30
0.0
  0
VERTEX
  5
A36F
  8
AM_4
 10
590.81254834498952
 20
282.00774004030279
 30
0.0
  0
VERTEX
  5
A370
  8
AM_4
 10
590.02681276145404
 20
281.81014476415891
 30
0.0
  0
VERTEX
  5
A371
  8
AM_4
 10
589.19788393845363
 20
281.61254949483731
 30
0.0
  0
VERTEX
  5
A372
  8
AM_4
 10
588.29908371113765
 20
281.44795729523469
 30
0.0
  0
VERTEX
  5
A373
  8
AM_4
 10
587.30373391465605
 20
281.34937122824749
 30
0.0
  0
VERTEX
  5
A374
  8
AM_4
 10
586.18515638415897
 20
281.34979435677161
 30
0.0
  0
VERTEX
  5
A375
  8
AM_4
 10
584.92418942249799
 20
281.4714402806041
 30
0.0
  0
VERTEX
  5
A376
  8
AM_4
 10
583.5317372033353
 20
281.69336474714328
 30
0.0
  0
VERTEX
  5
A377
  8
AM_4
 10
582.02622036803496
 20
281.98383404068829
 30
0.0
  0
VERTEX
  5
A378
  8
AM_4
 10
580.42605955796159
 20
282.31111444553818
 30
0.0
  0
VERTEX
  5
A379
  8
AM_4
 10
578.74967541447916
 20
282.6434722459918
 30
0.0
  0
VERTEX
  5
A37A
  8
AM_4
 10
577.01548857895239
 20
282.94917372634808
 30
0.0
  0
VERTEX
  5
A37B
  8
AM_4
 10
575.24191969274534
 20
283.19648517090633
 30
0.0
  0
VERTEX
  5
A37C
  8
AM_4
 10
573.44738939722208
 20
283.35367286396507
 30
0.0
  0
VERTEX
  5
A37D
  8
AM_4
 10
571.64618956944469
 20
283.39878765199438
 30
0.0
  0
VERTEX
  5
A37E
  8
AM_4
 10
569.83609702926481
 20
283.34901863014579
 30
0.0
  0
VERTEX
  5
A37F
  8
AM_4
 10
568.01075983223188
 20
283.23133945574199
 30
0.0
  0
VERTEX
  5
A380
  8
AM_4
 10
566.16382603389491
 20
283.0727237861052
 30
0.0
  0
VERTEX
  5
A381
  8
AM_4
 10
564.28894368980343
 20
282.90014527855811
 30
0.0
  0
VERTEX
  5
A382
  8
AM_4
 10
562.37976085550633
 20
282.74057759042307
 30
0.0
  0
VERTEX
  5
A383
  8
AM_4
 10
560.4299255865534
 20
282.62099437902248
 30
0.0
  0
VERTEX
  5
A384
  8
AM_4
 10
558.43308593849315
 20
282.56836930167901
 30
0.0
  0
VERTEX
  5
A385
  8
AM_4
 10
556.38950657516648
 20
282.60147813967041
 30
0.0
  0
VERTEX
  5
A386
  8
AM_4
 10
554.3259185935774
 20
282.70630517009749
 30
0.0
  0
VERTEX
  5
A387
  8
AM_4
 10
552.27566969902034
 20
282.86063679401627
 30
0.0
  0
VERTEX
  5
A388
  8
AM_4
 10
550.27210759679042
 20
283.04225941248268
 30
0.0
  0
VERTEX
  5
A389
  8
AM_4
 10
548.34857999218286
 20
283.22895942655282
 30
0.0
  0
VERTEX
  5
A38A
  8
AM_4
 10
546.53843459049244
 20
283.39852323728269
 30
0.0
  0
VERTEX
  5
A38B
  8
AM_4
 10
544.87501909701405
 20
283.52873724572868
 30
0.0
  0
VERTEX
  5
A38C
  8
AM_4
 10
543.39168121704256
 20
283.59738785294672
 30
0.0
  0
VERTEX
  5
A38D
  8
AM_4
 10
542.11097035163777
 20
283.58881976037338
 30
0.0
  0
VERTEX
  5
A38E
  8
AM_4
 10
541.01224268491853
 20
283.51361087096842
 30
0.0
  0
VERTEX
  5
A38F
  8
AM_4
 10
540.06405609676722
 20
283.38889738807183
 30
0.0
  0
VERTEX
  5
A390
  8
AM_4
 10
539.23496846706735
 20
283.2318155150237
 30
0.0
  0
VERTEX
  5
A391
  8
AM_4
 10
538.49353767570176
 20
283.05950145516431
 30
0.0
  0
VERTEX
  5
A392
  8
AM_4
 10
537.8083216025542
 20
282.88909141183359
 30
0.0
  0
VERTEX
  5
A393
  8
AM_4
 10
537.14787812750706
 20
282.73772158837193
 30
0.0
  0
VERTEX
  5
A394
  8
AM_4
 10
536.48076513044441
 20
282.6225281881193
 30
0.0
  0
VERTEX
  5
A395
  8
AM_4
 10
535.78289815839435
 20
282.55377177737847
 30
0.0
  0
VERTEX
  5
A396
  8
AM_4
 10
535.05962342696989
 20
282.51421037430288
 30
0.0
  0
VERTEX
  5
A397
  8
AM_4
 10
534.32364481892989
 20
282.4797263600085
 30
0.0
  0
VERTEX
  5
A398
  8
AM_4
 10
533.58766621703273
 20
282.4262021156112
 30
0.0
  0
VERTEX
  5
A399
  8
AM_4
 10
532.86439150403703
 20
282.3295200222268
 30
0.0
  0
VERTEX
  5
A39A
  8
AM_4
 10
532.16652456270128
 20
282.16556246097178
 30
0.0
  0
VERTEX
  5
A39B
  8
AM_4
 10
531.50676927578434
 20
281.91021181296168
 30
0.0
  0
VERTEX
  5
A39C
  8
AM_4
 10
530.89782952604457
 20
281.5393504593128
 30
0.0
  0
VERTEX
  5
A39D
  8
AM_4
 10
530.34796283696835
 20
281.03785199882691
 30
0.0
  0
VERTEX
  5
A39E
  8
AM_4
 10
529.84764129495056
 20
280.42655490105051
 30
0.0
  0
VERTEX
  5
A39F
  8
AM_4
 10
529.38289062711408
 20
279.73528885321639
 30
0.0
  0
VERTEX
  5
A3A0
  8
AM_4
 10
528.93973656058131
 20
278.99388354255728
 30
0.0
  0
VERTEX
  5
A3A1
  8
AM_4
 10
528.50420482247512
 20
278.2321686563057
 30
0.0
  0
VERTEX
  5
A3A2
  8
AM_4
 10
528.06232113991825
 20
277.47997388169421
 30
0.0
  0
VERTEX
  5
A3A3
  8
AM_4
 10
527.60011124003358
 20
276.76712890595542
 30
0.0
  0
VERTEX
  5
A3A4
  8
AM_4
 10
527.10360084994306
 20
276.12346341632201
 30
0.0
  0
VERTEX
  5
A3A5
  8
AM_4
 10
526.56360612041726
 20
275.57142901280889
 30
0.0
  0
VERTEX
  5
A3A6
  8
AM_4
 10
525.99010489681382
 20
275.10396494656112
 30
0.0
  0
VERTEX
  5
A3A7
  8
AM_4
 10
525.39786544813785
 20
274.7066323815057
 30
0.0
  0
VERTEX
  5
A3A8
  8
AM_4
 10
524.80165604339425
 20
274.36499248156991
 30
0.0
  0
VERTEX
  5
A3A9
  8
AM_4
 10
524.21624495158858
 20
274.06460641068082
 30
0.0
  0
VERTEX
  5
A3AA
  8
AM_4
 10
523.65640044172574
 20
273.79103533276572
 30
0.0
  0
VERTEX
  5
A3AB
  8
AM_4
 10
523.13689078281072
 20
273.52984041175182
 30
0.0
  0
VERTEX
  5
A3AC
  8
AM_4
 10
522.67248424384866
 20
273.26658281156631
 30
0.0
  0
VERTEX
  5
A3AD
  8
AM_4
 10
522.25862859460483
 20
272.9913193042687
 30
0.0
  0
VERTEX
  5
A3AE
  8
AM_4
 10
521.81348960788375
 20
272.71208909444817
 30
0.0
  0
VERTEX
  5
A3AF
  8
AM_4
 10
521.2359125572508
 20
272.44142699482592
 30
0.0
  0
VERTEX
  5
A3B0
  8
AM_4
 10
520.42474271626975
 20
272.1918678181234
 30
0.0
  0
VERTEX
  5
A3B1
  8
AM_4
 10
519.27882535850642
 20
271.97594637706197
 30
0.0
  0
VERTEX
  5
A3B2
  8
AM_4
 10
517.69700575752483
 20
271.80619748436311
 30
0.0
  0
VERTEX
  5
A3B3
  8
AM_4
 10
516.18259432031948
 20
271.7268334629693
 30
0.0
  0
SEQEND
  5
A3B4
  8
AM_4
  0
LINE
  5
A3B5
  8
AM_0
 10
614.18259724094708
 20
274.2697106933781
 30
0.0
 11
606.18259724094696
 21
281.76971009733171
 31
0.0
  0
LINE
  5
A3B6
  8
AM_0
 10
606.18259724094719
 20
274.2697106933781
 30
0.0
 11
614.18259724094708
 21
281.76971009733171
 31
0.0
  0
LINE
  5
A3B7
  8
AM_0
 10
606.18259724094719
 20
274.2697106933781
 30
0.0
 11
614.18259724094719
 21
274.2697106933781
 31
0.0
  0
LINE
  5
A3B8
  8
AM_0
 10
547.18259420111042
 20
314.51971069337822
 30
0.0
 11
583.18259420111019
 21
314.51971069337799
 31
0.0
  0
LINE
  5
A3B9
  8
AM_0
 10
547.18259420111042
 20
289.0197106933781
 30
0.0
 11
583.18259420111042
 21
289.01971069337799
 31
0.0
  0
LINE
  5
A3BA
  8
AM_0
 10
514.18259420111042
 20
314.2697106933781
 30
0.0
 11
514.18259420111042
 21
289.2697106933781
 31
0.0
  0
LINE
  5
A3BB
  8
AM_0
 10
530.83259420111017
 20
314.86971069337812
 30
0.0
 11
530.83259420111017
 21
288.66971069337808
 31
0.0
  0
LINE
  5
A3BC
  8
AM_0
 10
532.18259420111042
 20
314.86971069337812
 30
0.0
 11
532.18259420111042
 21
288.66971069337808
 31
0.0
  0
LINE
  5
A3BD
  8
AM_0
 10
547.18259420111042
 20
314.51971069337822
 30
0.0
 11
547.18259420111042
 21
289.0197106933781
 31
0.0
  0
LINE
  5
A3BE
  8
AM_0
 10
532.18259420111042
 20
289.2697106933781
 30
0.0
 11
547.18259420111042
 21
289.2697106933781
 31
0.0
  0
LINE
  5
A3BF
  8
AM_0
 10
516.18259432031982
 20
274.2697106933781
 30
0.0
 11
524.18259432031948
 21
281.76971009733171
 31
0.0
  0
LINE
  5
A3C0
  8
AM_0
 10
524.18259432031982
 20
274.2697106933781
 30
0.0
 11
516.18259432031948
 21
281.76971009733171
 31
0.0
  0
LINE
  5
A3C1
  8
AM_0
 10
524.18259432031982
 20
274.26971069337799
 30
0.0
 11
524.18259432031948
 21
281.76971009733188
 31
0.0
  0
LINE
  5
A3C2
  8
AM_0
 10
516.18259432031948
 20
271.7268334629693
 30
0.0
 11
516.18259432031948
 21
281.76971009733188
 31
0.0
  0
LINE
  5
A3C3
  8
AM_0
 10
516.18259432031982
 20
274.2697106933781
 30
0.0
 11
524.18259432031982
 21
274.2697106933781
 31
0.0
  0
LINE
  5
A3C4
  8
AM_0
 10
514.18259420111042
 20
289.2697106933781
 30
0.0
 11
530.83259420111017
 21
289.2697106933781
 31
0.0
  0
LINE
  5
A3C5
  8
AM_0
 10
530.83259420111017
 20
288.66971069337808
 30
0.0
 11
532.18259420111042
 21
288.66971069337808
 31
0.0
  0
LINE
  5
A3C6
  8
AM_0
 10
532.18259420111042
 20
314.2697106933781
 30
0.0
 11
547.18259420111042
 21
314.2697106933781
 31
0.0
  0
LINE
  5
A3C7
  8
AM_0
 10
514.18259420111042
 20
314.2697106933781
 30
0.0
 11
530.83259420111017
 21
314.2697106933781
 31
0.0
  0
LINE
  5
A3C8
  8
AM_0
 10
530.83259420111017
 20
314.86971069337812
 30
0.0
 11
532.18259420111042
 21
314.86971069337812
 31
0.0
  0
LINE
  5
A3C9
  8
AM_0
 10
524.18259432031982
 20
329.26971069337822
 30
0.0
 11
524.18259432031948
 21
321.76971128942438
 31
0.0
  0
LINE
  5
A3CA
  8
AM_0
 10
524.18259432031982
 20
329.26971069337822
 30
0.0
 11
516.18259432031948
 21
321.76971128942438
 31
0.0
  0
LINE
  5
A3CB
  8
AM_0
 10
516.18259432031982
 20
329.26971069337822
 30
0.0
 11
524.18259432031948
 21
321.76971128942438
 31
0.0
  0
LINE
  5
A3CC
  8
AM_0
 10
516.18259432031948
 20
331.81258792378691
 30
0.0
 11
516.18259432031948
 21
321.76971128942438
 31
0.0
  0
LINE
  5
A3CD
  8
AM_0
 10
516.18259432031982
 20
329.26971069337822
 30
0.0
 11
524.18259432031982
 21
329.26971069337822
 31
0.0
  0
LINE
  5
A3CE
  8
AM_0
 10
583.18259420111019
 20
314.51971069337799
 30
0.0
 11
583.18259420111042
 21
289.0197106933781
 31
0.0
  0
LINE
  5
A3CF
  8
AM_0
 10
598.18259420111042
 20
314.86971069337801
 30
0.0
 11
598.18259420111042
 21
288.66971069337808
 31
0.0
  0
LINE
  5
A3D0
  8
AM_0
 10
599.53259420111033
 20
314.86971069337801
 30
0.0
 11
599.53259420111033
 21
288.66971069337808
 31
0.0
  0
LINE
  5
A3D1
  8
ﾁｭｳｼﾝｾﾝ1
 10
565.18259578063351
 20
276.7697106933781
 30
0.0
 11
565.18259578063351
 21
326.7697106933781
 31
0.0
  0
LINE
  5
A3D2
  8
AM_0
 10
583.18259420111042
 20
289.2697106933781
 30
0.0
 11
598.18259420111042
 21
289.2697106933781
 31
0.0
  0
LINE
  5
A3D3
  8
AM_0
 10
606.18259724094719
 20
274.2697106933781
 30
0.0
 11
606.18259724094696
 21
281.76971009733171
 31
0.0
  0
LINE
  5
A3D4
  8
AM_0
 10
598.18259420111042
 20
288.66971069337808
 30
0.0
 11
599.53259420111033
 21
288.66971069337808
 31
0.0
  0
LINE
  5
A3D5
  8
AM_0
 10
583.18259420111019
 20
314.2697106933781
 30
0.0
 11
598.18259420111042
 21
314.2697106933781
 31
0.0
  0
LINE
  5
A3D6
  8
AM_0
 10
598.18259420111008
 20
314.86971069337801
 30
0.0
 11
599.53259420111033
 21
314.86971069337801
 31
0.0
  0
LINE
  5
A3D7
  8
AM_0
 10
606.18259724094719
 20
329.26971069337822
 30
0.0
 11
606.18259724094696
 21
321.76971128942438
 31
0.0
  0
LINE
  5
A3D8
  8
AM_0
 10
618.18259736015659
 20
321.76971128942438
 30
0.0
 11
618.18259736015659
 21
281.76971009733171
 31
0.0
  0
LINE
  5
A3D9
  8
AM_0
 10
616.18259420111042
 20
314.2697106933781
 30
0.0
 11
616.18259420111042
 21
289.2697106933781
 31
0.0
  0
LINE
  5
A3DA
  8
AM_0
 10
614.18259724094719
 20
271.31994502630761
 30
0.0
 11
614.18259724094708
 21
281.76971009733188
 31
0.0
  0
LINE
  5
A3DB
  8
AM_0
 10
616.18259420111042
 20
289.2697106933781
 30
0.0
 11
618.18259420111042
 21
288.1150101549988
 31
0.0
  0
LINE
  5
A3DC
  8
AM_0
 10
616.18259420111042
 20
314.2697106933781
 30
0.0
 11
618.18259420111042
 21
315.42441123175729
 31
0.0
  0
LINE
  5
A3DD
  8
AM_0
 10
614.18259724094719
 20
332.21947636044848
 30
0.0
 11
614.18259724094708
 21
321.76971128942438
 31
0.0
  0
LINE
  5
A3DF
  8
AM_0
 10
389.58593026009231
 20
338.90198909536878
 30
0.0
 11
314.5859280249183
 21
338.90198909536878
 31
0.0
  0
LINE
  5
A3E0
  8
AM_0
 10
408.36406247446359
 20
342.90198921457812
 30
0.0
 11
256.80776690500278
 21
342.90198921457812
 31
0.0
  0
LINE
  5
A3E1
  8
AM_0
 10
389.58593026009231
 20
436.90199201599631
 30
0.0
 11
314.5859280249183
 21
436.90199201599631
 31
0.0
  0
LINE
  5
A3E2
  8
AM_0
 10
255.935047367094
 20
432.90199189678708
 30
0.0
 11
409.23680975562633
 21
432.90199189678708
 31
0.0
  0
LINE
  5
A3E3
  8
AM_0
 10
409.5859308561387
 20
412.90199150935678
 30
0.0
 11
255.5859262665814
 21
412.90199150935678
 31
0.0
  0
LINE
  5
A3E4
  8
ﾁｭｳｼﾝｾﾝ1
 10
101.5859262665813
 20
387.90202647614223
 30
0.0
 11
414.58593085613882
 21
387.90198302656722
 31
0.0
1001
GENIUS_GENODEF_13
1002
{
1000
HIER
1070
     0
1002
}
1002
{
1000
MANEDIT
1070
     0
1002
}
1002
{
1000
NOSEL
1070
     0
1002
}
1002
{
1000
BEHIND
1070
     0
1002
}
1002
{
1000
REACTOR
1002
}
1001
GENIUS_GENOBJ-N-CEN_13
1002
{
1000
OWNER
1000
GEN
1002
}
  0
LINE
  5
A47C
  8
AM_0
 10
255.5859262665814
 20
412.90199150935678
 30
0.0
 11
256.80776690500278
 21
342.90198921457812
 31
0.0
  0
LINE
  5
A47D
  8
ｶｸﾚｾﾝ2
 10
270.58592671361612
 20
342.90198921457812
 30
0.0
 11
270.58592671361612
 21
432.90199189678708
 31
0.0
  0
LINE
  5
A47E
  8
ｶｸﾚｾﾝ2
 10
261.58592644539522
 20
342.90198921457812
 30
0.0
 11
261.58592644539522
 21
432.90199189678708
 31
0.0
  0
LINE
  5
A47F
  8
ﾁｭｳｼﾝｾﾝ1
 10
266.08592657950572
 20
339.9019892145779
 30
0.0
 11
266.08592657950572
 21
435.90199189678702
 31
0.0
  0
LINE
  5
A480
  8
AM_0
 10
246.7235034420959
 20
332.3699179977317
 30
0.0
 11
246.72351870021041
 21
443.43409577020748
 31
0.0
  0
LINE
  5
A48C
  8
AM_0
 10
238.08592626658131
 20
331.90199647614207
 30
0.0
 11
238.08592626658131
 21
443.90201747614208
 31
0.0
  0
LINE
  5
A503
  8
AM_0
 10
247.40755937505949
 20
442.24930050692137
 30
0.0
 11
251.4092272100319
 21
412.55469543645609
 31
0.0
1001
GENIUS_GENODEF_13
1002
{
1000
HIER
1070
     0
1002
}
1002
{
1000
MANEDIT
1070
     0
1002
}
1002
{
1000
NOSEL
1070
     0
1002
}
1002
{
1000
BEHIND
1070
     0
1002
}
1002
{
1000
REACTOR
1002
}
1001
GENIUS_GENOBJ-N-CEN_13
1002
{
1000
OWNER
1000
GEN
1002
}
  0
LINE
  5
A505
  8
AM_0
 10
238.08592626658131
 20
443.90200697614199
 30
0.0
 11
245.4379433709903
 21
443.90200697614199
 31
0.0
  0
ARC
  5
A509
  8
AM_0
 10
245.4379433709903
 20
441.90200697614222
 30
0.0
 40
2.0
 50
9.9999917840691595
 51
90.000000000000057
1001
GENIUS_GENOBJ-N-CEN_13
1002
{
1000
OWNER
1000
GEN
1002
}
1001
GENIUS_GENODEF_13
1002
{
1000
HIER
1070
     0
1002
}
1002
{
1000
MANEDIT
1070
     0
1002
}
1002
{
1000
NOSEL
1070
     0
1002
}
1002
{
1000
BEHIND
1070
     0
1002
}
1002
{
1000
OTHER
1070
     0
1002
}
1002
{
1000
REACTOR
1002
}
1001
GENIUS_GENOBJ-N-FIL_13
1002
{
1000
OWNER
1000
GEN
1002
}
  0
LINE
  5
A50A
  8
AM_0
 10
238.08592626658131
 20
419.83946447614193
 30
0.0
 11
246.72351545905931
 21
419.84167947129953
 31
0.0
  0
LINE
  5
A50B
  8
AM_0
 10
238.08592626658131
 20
433.90203247614198
 30
0.0
 11
246.7235173906829
 21
433.90201333338251
 31
0.0
  0
LINE
  5
A510
  8
AM_0
 10
255.935047367094
 20
432.90199189678702
 30
0.0
 11
255.5859262665814
 21
412.90199150935678
 31
0.0
  0
LINE
  5
A511
  8
AM_0
 10
254.60322880770551
 20
410.90199150935678
 30
0.0
 11
253.37884276585689
 21
410.90199150935678
 31
0.0
  0
ARC
  5
A512
  8
AM_0
 10
253.37884276585689
 20
412.90199150935678
 30
0.0
 40
2.0
 50
189.9999917840691
 51
270.0
1001
GENIUS_GENOBJ-N-CEN_13
1002
{
1000
OWNER
1000
GEN
1002
}
1001
GENIUS_GENOBJ-N-FIL_13
1002
{
1000
OWNER
1000
GEN
1002
}
1001
GENIUS_GENODEF_13
1002
{
1000
HIER
1070
     0
1002
}
1002
{
1000
MANEDIT
1070
     0
1002
}
1002
{
1000
NOSEL
1070
     0
1002
}
1002
{
1000
BEHIND
1070
     0
1002
}
1002
{
1000
OTHER
1070
     0
1002
}
1002
{
1000
REACTOR
1002
}
  0
ARC
  5
A513
  8
AM_0
 10
254.60322880770551
 20
411.90199150935678
 30
0.0
 40
1.0
 50
270.0
 51
0.9999885880222786
1001
GENIUS_GENOBJ-N-FIL_13
1002
{
1000
OWNER
1000
GEN
1002
}
1001
GENIUS_GENODEF_13
1002
{
1000
HIER
1070
     0
1002
}
1002
{
1000
MANEDIT
1070
     0
1002
}
1002
{
1000
NOSEL
1070
     0
1002
}
1002
{
1000
BEHIND
1070
     0
1002
}
1002
{
1000
OTHER
1070
     0
1002
}
1002
{
1000
REACTOR
1002
}
  0
LINE
  5
A514
  8
AM_0
 10
314.5859280249183
 20
432.90199189678708
 30
0.0
 11
314.5859280249183
 21
436.90199201599631
 31
0.0
  0
LINE
  5
A559
  8
AM_0
 10
247.4075437887937
 20
333.55471033837517
 30
0.0
 11
249.11696045179789
 21
343.249285852345
 31
0.0
1001
GENIUS_GENODEF_13
1002
{
1000
HIER
1070
     0
1002
}
1002
{
1000
MANEDIT
1070
     0
1002
}
1002
{
1000
NOSEL
1070
     0
1002
}
1002
{
1000
BEHIND
1070
     0
1002
}
1002
{
1000
REACTOR
1002
}
1001
GENIUS_GENOBJ-N-CEN_13
1002
{
1000
OWNER
1000
GEN
1002
}
  0
LINE
  5
A55B
  8
AM_0
 10
238.08592626658131
 20
355.96205697614221
 30
0.0
 11
246.72350668320911
 21
355.96205697614221
 31
0.0
  0
LINE
  5
A55C
  8
AM_0
 10
238.08592626658131
 20
341.90200697614222
 30
0.0
 11
246.72350475162449
 21
341.9020069761421
 31
0.0
  0
LINE
  5
A562
  8
AM_0
 10
254.8074622558693
 20
344.90198921457812
 30
0.0
 11
251.08657590802181
 21
344.90198921457812
 31
0.0
  0
ARC
  5
A563
  8
AM_0
 10
251.08657590802181
 20
342.90198921457812
 30
0.0
 40
2.0
 50
90.000000000000057
 51
169.99999178406881
1001
GENIUS_GENOBJ-N-CEN_13
1002
{
1000
OWNER
1000
GEN
1002
}
1001
GENIUS_GENODEF_13
1002
{
1000
HIER
1070
     0
1002
}
1002
{
1000
MANEDIT
1070
     0
1002
}
1002
{
1000
NOSEL
1070
     0
1002
}
1002
{
1000
BEHIND
1070
     0
1002
}
1002
{
1000
OTHER
1070
     0
1002
}
1002
{
1000
REACTOR
1002
}
1001
GENIUS_GENOBJ-N-FIL_13
1002
{
1000
OWNER
1000
GEN
1002
}
  0
ARC
  5
A564
  8
AM_0
 10
254.8074622558693
 20
342.90198921457812
 30
0.0
 40
2.0
 50
0.9999885880222786
 51
90.000000000000057
1001
GENIUS_GENOBJ-N-FIL_13
1002
{
1000
OWNER
1000
GEN
1002
}
1001
GENIUS_GENODEF_13
1002
{
1000
HIER
1070
     0
1002
}
1002
{
1000
MANEDIT
1070
     0
1002
}
1002
{
1000
NOSEL
1070
     0
1002
}
1002
{
1000
BEHIND
1070
     0
1002
}
1002
{
1000
OTHER
1070
     0
1002
}
1002
{
1000
REACTOR
1002
}
  0
LINE
  5
A565
  8
AM_0
 10
238.08592626658131
 20
331.90200697614222
 30
0.0
 11
245.4379283325699
 21
331.90200697614222
 31
0.0
  0
ARC
  5
A569
  8
AM_0
 10
245.4379283325699
 20
333.90200697614222
 30
0.0
 40
2.0
 50
270.0
 51
349.99999178406921
1001
GENIUS_GENOBJ-N-CEN_13
1002
{
1000
OWNER
1000
GEN
1002
}
1001
GENIUS_GENOBJ-N-FIL_13
1002
{
1000
OWNER
1000
GEN
1002
}
1001
GENIUS_GENODEF_13
1002
{
1000
HIER
1070
     0
1002
}
1002
{
1000
MANEDIT
1070
     0
1002
}
1002
{
1000
NOSEL
1070
     0
1002
}
1002
{
1000
BEHIND
1070
     0
1002
}
1002
{
1000
OTHER
1070
     0
1002
}
1002
{
1000
REACTOR
1002
}
  0
LINE
  5
A56A
  8
AM_0
 10
314.5859280249183
 20
342.90198921457812
 30
0.0
 11
314.5859280249183
 21
338.90198909536878
 31
0.0
  0
LINE
  5
A56B
  8
ﾁｭｳｼﾝｾﾝ1
 10
352.08592914250539
 20
329.90198897615949
 30
0.0
 11
352.08592914250539
 21
445.9019921352056
 31
0.0
  0
LINE
  5
A56C
  8
AM_0
 10
409.5859308561387
 20
412.90199150935678
 30
0.0
 11
408.36406247446359
 21
342.90198921457812
 31
0.0
  0
LINE
  5
A56D
  8
ｶｸﾚｾﾝ2
 10
394.58593040910421
 20
342.90198921457812
 30
0.0
 11
394.58593040910421
 21
432.90199189678708
 31
0.0
  0
LINE
  5
A56E
  8
ｶｸﾚｾﾝ2
 10
403.58593067732488
 20
342.90198921457812
 30
0.0
 11
403.58593067732488
 21
432.90199189678708
 31
0.0
  0
LINE
  5
A56F
  8
ﾁｭｳｼﾝｾﾝ1
 10
399.08593054321472
 20
339.9019892145779
 30
0.0
 11
399.08593054321472
 21
435.90199189678702
 31
0.0
  0
LINE
  5
A570
  8
AM_0
 10
332.08592854645877
 20
436.90199201599631
 30
0.0
 11
332.08592854645877
 21
440.90199213520549
 31
0.0
  0
LINE
  5
A571
  8
AM_0
 10
372.08592973855161
 20
436.90199201599631
 30
0.0
 11
372.08592973855161
 21
440.90199213520549
 31
0.0
  0
LINE
  5
A572
  8
AM_0
 10
372.08592973855161
 20
440.90199213520549
 30
0.0
 11
332.08592854645877
 21
440.90199213520549
 31
0.0
  0
LINE
  5
A573
  8
AM_0
 10
389.58593026009231
 20
432.90199189678708
 30
0.0
 11
389.58593026009231
 21
436.90199201599631
 31
0.0
  0
LINE
  5
A574
  8
AM_0
 10
409.23680975562633
 20
432.90199189678702
 30
0.0
 11
409.5859308561387
 21
412.90199150935678
 31
0.0
  0
LINE
  5
A575
  8
AM_0
 10
372.08592973855161
 20
334.9019889761596
 30
0.0
 11
332.08592854645889
 21
334.9019889761596
 31
0.0
  0
LINE
  5
A576
  8
AM_0
 10
332.08592854645889
 20
338.90198909536878
 30
0.0
 11
332.08592854645889
 21
334.9019889761596
 31
0.0
  0
LINE
  5
A577
  8
AM_0
 10
389.58593026009231
 20
342.90198921457812
 30
0.0
 11
389.58593026009231
 21
338.90198909536878
 31
0.0
  0
LINE
  5
A578
  8
AM_0
 10
372.08592973855161
 20
338.90198909536878
 30
0.0
 11
372.08592973855161
 21
334.9019889761596
 31
0.0
  0
LINE
  5
A70F
  8
AM_0
 10
161.08595626658129
 20
328.01705042471878
 30
0.0
 11
161.08595626658129
 21
331.61704042471888
 31
0.0
  0
ARC
  5
A710
  8
AM_0
 10
159.08552626658121
 20
330.77746042471892
 30
0.0
 40
2.000407899999999
 50
270.01164999999889
 51
359.98835099999928
  0
LINE
  5
A711
  8
AM_0
 10
122.0860162665812
 20
337.11702042471887
 30
0.0
 11
123.3759962665812
 21
328.62703042471878
 31
0.0
  0
LINE
  5
A712
  8
AM_0
 10
122.08595626658131
 20
337.11706042471877
 30
0.0
 11
123.39595626658119
 21
327.73705042471892
 31
0.0
  0
ARC
  5
A713
  8
AM_0
 10
125.3343662665812
 20
330.77018042471877
 30
0.0
 40
1.9931281000000001
 50
189.0388199999997
 51
270.04662699999949
  0
LINE
  5
A714
  8
AM_0
 10
125.33595626658131
 20
328.7770404247189
 30
0.0
 11
159.08595626658129
 21
328.7770404247189
 31
0.0
  0
LINE
  5
A715
  8
AM_0
 10
125.35597626658119
 20
326.92704042471888
 30
0.0
 11
159.08595626658129
 21
326.92704042471888
 31
0.0
  0
LINE
  5
A716
  8
AM_0
 10
125.37593626658121
 20
326.01703042471888
 30
0.0
 11
159.08595626658129
 21
326.01703042471888
 31
0.0
  0
ARC
  5
A717
  8
AM_0
 10
125.3706262665813
 20
328.01052042471878
 30
0.0
 40
1.9934921000000001
 50
187.88526000000061
 51
270.15390899999858
  0
ARC
  5
A718
  8
AM_0
 10
125.3486562665813
 20
328.92161042471878
 30
0.0
 40
1.994588
 50
188.49291000000221
 51
270.20924700000091
  0
ARC
  5
A719
  8
AM_0
 10
159.0846762665812
 20
328.01833042471878
 30
0.0
 40
2.001287899999999
 50
270.03687399999882
 51
359.96312800100111
  0
ARC
  5
A71A
  8
AM_0
 10
159.08436626658121
 20
328.92859042471878
 30
0.0
 40
2.0015439999999991
 50
270.04421600000092
 51
359.95578600099913
  0
LINE
  5
A71B
  8
AM_0
 10
114.08595626658131
 20
334.90204042471879
 30
0.0
 11
122.08595626658131
 21
334.90204042471879
 31
0.0
  0
LINE
  5
A71C
  8
AM_0
 10
114.08595626658131
 20
334.90703042471881
 30
0.0
 11
122.08595626658131
 21
334.90703042471881
 31
0.0
  0
LINE
  5
A71D
  8
AM_0
 10
114.7759562665812
 20
344.71705042471888
 30
0.0
 11
121.0059362665812
 21
344.71705042471888
 31
0.0
  0
LINE
  5
A71E
  8
AM_0
 10
114.08595626658131
 20
440.90204442471878
 30
0.0
 11
122.08595626658131
 21
440.90204442471878
 31
0.0
  0
LINE
  5
A71F
  8
AM_0
 10
114.08595626658131
 20
440.90703342471869
 30
0.0
 11
122.08595626658131
 21
440.90703342471869
 31
0.0
  0
LINE
  5
A720
  8
AM_0
 10
114.7759562665812
 20
431.09704442471872
 30
0.0
 11
121.0059362665812
 21
431.09704442471872
 31
0.0
  0
LINE
  5
A721
  8
AM_0
 10
110.0859262665813
 20
393.51530710110939
 30
0.0
 11
110.0859262665813
 21
392.3544171011095
 31
0.0
  0
ARC
  5
A722
  8
AM_0
 10
109.0859262665813
 20
392.90201710110949
 30
0.0
 40
1.0
 50
179.99999000000221
 51
269.9999969999991
  0
LINE
  5
A723
  8
AM_0
 10
114.0859262665813
 20
334.9020371011095
 30
0.0
 11
114.0859262665813
 21
440.90201810110938
 31
0.0
  0
LINE
  5
A724
  8
AM_0
 10
106.5859262665812
 20
367.9020371011095
 30
0.0
 11
106.5859262665812
 21
407.90201710110938
 31
0.0
  0
LINE
  5
A725
  8
AM_0
 10
113.0859262665813
 20
337.90203710110939
 30
0.0
 11
113.0859262665813
 21
439.02525610110928
 31
0.0
  0
LINE
  5
A726
  8
AM_0
 10
105.5920297822062
 20
403.12385937649998
 30
0.0
 11
105.5920297822062
 21
372.68022534329702
 31
0.0
  0
ARC
  5
A727
  8
AM_0
 10
112.0859262665813
 20
360.90202710110952
 30
0.0
 40
1.0
 50
0.0
 51
90.0
  0
LINE
  5
A728
  8
AM_0
 10
108.0859262665813
 20
339.8856671011095
 30
0.0
 11
108.0859262665813
 21
382.9020371011095
 31
0.0
  0
LINE
  5
A729
  8
AM_0
 10
110.0859262665813
 20
345.07157710110943
 30
0.0
 11
110.0859262665813
 21
345.54376710110949
 31
0.0
  0
LINE
  5
A72A
  8
AM_0
 10
109.83617626658121
 20
344.94087710110949
 30
0.0
 11
108.5375862665812
 21
345.79243710110939
 31
0.0
  0
LINE
  5
A72B
  8
AM_0
 10
109.8537462665813
 20
338.28691710110951
 30
0.0
 11
108.5855662665813
 21
339.01986710110953
 31
0.0
  0
LINE
  5
A72C
  8
AM_0
 10
109.8483762665812
 20
340.40292710110953
 30
0.0
 11
108.5713362665811
 21
341.16922710110953
 31
0.0
  0
LINE
  5
A72D
  8
AM_0
 10
109.8726062665812
 20
339.4072171011095
 30
0.0
 11
108.6333562665812
 21
340.03623710110952
 31
0.0
  0
LINE
  5
A72E
  8
AM_0
 10
109.86626626658131
 20
341.51686710110948
 30
0.0
 11
108.61760626658121
 21
342.17872710110947
 31
0.0
  0
ARC
  5
A72F
  8
AM_0
 10
109.0859262665813
 20
339.8856671011095
 30
0.0
 40
1.0
 50
179.99999000000221
 51
239.9736000000006
  0
ARC
  5
A730
  8
AM_0
 10
109.0859262665813
 20
340.92796710110952
 30
0.0
 40
1.0
 50
179.99999000000221
 51
243.08874000000111
  0
ARC
  5
A731
  8
AM_0
 10
109.0859262665813
 20
342.02671710110951
 30
0.0
 40
1.0
 50
179.99999000000221
 51
239.03339999999869
  0
ARC
  5
A732
  8
AM_0
 10
109.0859262665813
 20
343.0623171011095
 30
0.0
 40
1.0
 50
179.99999000000221
 51
242.0733999999992
  0
ARC
  5
A733
  8
AM_0
 10
110.3541162665813
 20
339.15264710110949
 30
0.0
 40
1.0
 50
239.9736000000006
 51
269.9999969999991
  0
ARC
  5
A734
  8
AM_0
 10
110.3251862665812
 20
340.2989371011094
 30
0.0
 40
1.0
 50
243.08874000000111
 51
269.9999969999991
  0
ARC
  5
A735
  8
AM_0
 10
110.3629662665812
 20
341.26042710110943
 30
0.0
 40
1.0
 50
239.03339999999869
 51
269.9999969999991
  0
ARC
  5
A736
  8
AM_0
 10
110.3345862665812
 20
342.40039710110949
 30
0.0
 40
1.0
 50
242.0733999999992
 51
269.9999969999991
  0
LINE
  5
A737
  8
AM_0
 10
110.0859262665813
 20
340.50547710110942
 30
0.0
 11
110.0859262665813
 21
341.05155710110949
 31
0.0
  0
LINE
  5
A738
  8
AM_0
 10
110.0859262665813
 20
338.40586710110938
 30
0.0
 11
110.0859262665813
 21
338.93164710110949
 31
0.0
  0
ARC
  5
A739
  8
AM_0
 10
112.5859262665813
 20
339.79893710110952
 30
0.0
 40
0.5
 50
269.9999969999991
 51
0.0
  0
ARC
  5
A73A
  8
AM_0
 10
112.5859262665813
 20
337.65264710110949
 30
0.0
 40
0.5
 50
0.0
 51
90.0
  0
LINE
  5
A73B
  8
AM_0
 10
110.3541162665813
 20
338.15263710110952
 30
0.0
 11
112.5859262665813
 21
338.15263710110952
 31
0.0
  0
LINE
  5
A73C
  8
AM_0
 10
110.3629662665812
 20
340.2604371011094
 30
0.0
 11
113.0859262665813
 21
340.2604371011094
 31
0.0
  0
LINE
  5
A73D
  8
AM_0
 10
110.3345862665812
 20
341.40037710110943
 30
0.0
 11
112.0859262665813
 21
341.40037710110943
 31
0.0
  0
LINE
  5
A73E
  8
AM_0
 10
110.3251862665812
 20
339.29895710110952
 30
0.0
 11
112.5859262665813
 21
339.29895710110952
 31
0.0
  0
LINE
  5
A73F
  8
AM_0
 10
113.0859262665813
 20
337.90203710110939
 30
0.0
 11
114.0859262665813
 21
337.90203710110939
 31
0.0
  0
ARC
  5
A740
  8
AM_0
 10
110.38457626658121
 20
345.77714710110951
 30
0.0
 40
1.0
 50
236.74526999999921
 51
269.9999969999991
  0
LINE
  5
A741
  8
AM_0
 10
110.38457626658121
 20
344.77714710110939
 30
0.0
 11
113.0859262665813
 21
344.77714710110939
 31
0.0
  0
ARC
  5
A742
  8
AM_0
 10
112.0859262665813
 20
342.40039710110949
 30
0.0
 40
1.0
 50
269.9999969999991
 51
0.0
  0
LINE
  5
A743
  8
AM_0
 10
110.0859262665813
 20
352.50914710110948
 30
0.0
 11
110.0859262665813
 21
353.56909710110949
 31
0.0
  0
ARC
  5
A744
  8
AM_0
 10
109.0859262665813
 20
353.72729710110951
 30
0.0
 40
1.0
 50
179.99999000000221
 51
246.87297000000149
  0
LINE
  5
A745
  8
AM_0
 10
109.8517962665812
 20
346.05424710110952
 30
0.0
 11
108.58049626658121
 21
346.7989171011094
 31
0.0
  0
LINE
  5
A746
  8
AM_0
 10
109.8977562665812
 20
352.29313710110949
 30
0.0
 11
108.6931662665813
 21
352.80760710110951
 31
0.0
  0
ARC
  5
A747
  8
AM_0
 10
109.0859262665813
 20
347.66178710110938
 30
0.0
 40
1.0
 50
179.99999000000221
 51
239.64049999999861
  0
ARC
  5
A748
  8
AM_0
 10
109.0859262665813
 20
346.62870710110951
 30
0.0
 40
1.0
 50
179.99999000000221
 51
236.74526999999921
  0
ARC
  5
A749
  8
AM_0
 10
110.35722626658131
 20
346.9170971011095
 30
0.0
 40
1.0
 50
239.64049999999861
 51
269.9999969999991
  0
ARC
  5
A74A
  8
AM_0
 10
112.0859262665813
 20
346.9170971011095
 30
0.0
 40
1.0
 50
269.9999969999991
 51
0.0
  0
LINE
  5
A74B
  8
AM_0
 10
110.35722626658131
 20
345.91711710110951
 30
0.0
 11
112.0859262665813
 21
345.91711710110951
 31
0.0
  0
ARC
  5
A74C
  8
AM_0
 10
110.2905762665812
 20
353.21281710110952
 30
0.0
 40
1.0
 50
246.87297000000149
 51
269.9999969999991
  0
ARC
  5
A74D
  8
AM_0
 10
112.38591626658121
 20
351.51281710110948
 30
0.0
 40
0.6999999900000002
 50
0.0
 51
90.0
  0
LINE
  5
A74E
  8
AM_0
 10
110.2905762665812
 20
352.21282710110938
 30
0.0
 11
112.38591626658121
 21
352.21282710110938
 31
0.0
  0
LINE
  5
A74F
  8
AM_0
 10
109.94224626658119
 20
354.20309710110951
 30
0.0
 11
108.7919262665813
 21
354.55693710110938
 31
0.0
  0
ARC
  5
A750
  8
AM_0
 10
109.0859262665813
 20
355.51275710110951
 30
0.0
 40
1.0
 50
179.99999000000221
 51
252.90236999999951
  0
ARC
  5
A751
  8
AM_0
 10
110.23625626658119
 20
355.15892710110938
 30
0.0
 40
1.0
 50
252.90236999999951
 51
269.9999969999991
  0
ARC
  5
A752
  8
AM_0
 10
112.0859262665813
 20
355.15892710110938
 30
0.0
 40
1.0
 50
269.9999969999991
 51
0.0
  0
LINE
  5
A753
  8
AM_0
 10
110.23625626658119
 20
354.15892710110938
 30
0.0
 11
112.0859262665813
 21
354.15892710110938
 31
0.0
  0
LINE
  5
A754
  8
AM_0
 10
112.0859262665813
 20
361.9020371011095
 30
0.0
 11
109.0859262665813
 21
361.9020371011095
 31
0.0
  0
LINE
  5
A755
  8
AM_0
 10
112.0859262665813
 20
363.90202710110952
 30
0.0
 11
109.0859262665813
 21
363.90202710110952
 31
0.0
  0
ARC
  5
A756
  8
AM_0
 10
109.0859262665813
 20
362.90202710110952
 30
0.0
 40
1.0
 50
179.99999000000221
 51
269.9999969999991
  0
ARC
  5
A757
  8
AM_0
 10
109.0859262665813
 20
362.90202710110952
 30
0.0
 40
1.0
 50
90.0
 51
180.000010000001
  0
LINE
  5
A758
  8
AM_0
 10
106.5859262665812
 20
367.9020371011095
 30
0.0
 11
108.0859262665813
 21
367.77081710110951
 31
0.0
  0
LINE
  5
A759
  8
AM_0
 10
110.0859262665813
 20
362.27586710110938
 30
0.0
 11
110.0859262665813
 21
363.63865710110952
 31
0.0
  0
ARC
  5
A75A
  8
AM_0
 10
112.0859262665813
 20
364.90203710110939
 30
0.0
 40
1.0
 50
269.9999969999991
 51
0.0
  0
LINE
  5
A75B
  8
AM_0
 10
112.0859262665813
 20
371.90202710110952
 30
0.0
 11
109.0859262665813
 21
371.90202710110952
 31
0.0
  0
LINE
  5
A75C
  8
AM_0
 10
112.0859262665813
 20
373.90203710110939
 30
0.0
 11
109.0859262665813
 21
373.90203710110939
 31
0.0
  0
LINE
  5
A75D
  8
AM_0
 10
106.5859262665812
 20
372.75199710110951
 30
0.0
 11
111.2634162665813
 21
372.75199710110951
 31
0.0
  0
ARC
  5
A75E
  8
AM_0
 10
109.0859262665813
 20
372.90202710110952
 30
0.0
 40
1.0
 50
179.99999000000221
 51
269.9999969999991
  0
LINE
  5
A75F
  8
AM_0
 10
106.5859262665812
 20
370.62005710110952
 30
0.0
 11
108.0859262665813
 21
370.62005710110952
 31
0.0
  0
LINE
  5
A760
  8
AM_0
 10
105.5920297822062
 20
372.68019482571879
 30
0.0
 11
106.0920297822063
 21
369.91020581204702
 31
0.0
  0
LINE
  5
A761
  8
AM_0
 10
106.09206029978439
 20
369.91020581204702
 30
0.0
 11
106.5920297822062
 21
369.95021435696879
 31
0.0
  0
ARC
  5
A762
  8
AM_0
 10
109.0859262665813
 20
372.90202710110952
 30
0.0
 40
1.0
 50
90.0
 51
180.000010000001
  0
LINE
  5
A763
  8
AM_0
 10
110.0859262665813
 20
372.29492710110952
 30
0.0
 11
110.0859262665813
 21
373.50634710110938
 31
0.0
  0
ARC
  5
A764
  8
AM_0
 10
112.0859262665813
 20
370.90203710110939
 30
0.0
 40
1.0
 50
0.0
 51
90.0
  0
ARC
  5
A765
  8
AM_0
 10
112.0859262665813
 20
374.90202710110952
 30
0.0
 40
1.0
 50
269.9999969999991
 51
0.0
  0
ARC
  5
A766
  8
AM_0
 10
112.0859262665813
 20
384.90202710110952
 30
0.0
 40
1.0
 50
269.9999969999991
 51
0.0
  0
LINE
  5
A767
  8
AM_0
 10
112.0859262665813
 20
381.90202710110941
 30
0.0
 11
109.0859262665813
 21
381.90202710110941
 31
0.0
  0
LINE
  5
A768
  8
AM_0
 10
112.0859262665813
 20
383.90202710110941
 30
0.0
 11
109.0859262665813
 21
383.90202710110941
 31
0.0
  0
ARC
  5
A769
  8
AM_0
 10
109.0859262665813
 20
382.9020371011095
 30
0.0
 40
1.0
 50
90.0
 51
180.000010000001
  0
ARC
  5
A76A
  8
AM_0
 10
109.0859262665813
 20
382.9020371011095
 30
0.0
 40
1.0
 50
179.99999000000221
 51
269.9999969999991
  0
LINE
  5
A76B
  8
AM_0
 10
110.0859262665813
 20
382.28881710110949
 30
0.0
 11
110.0859262665813
 21
383.44970710110948
 31
0.0
  0
ARC
  5
A76C
  8
AM_0
 10
112.0859262665813
 20
380.90202710110952
 30
0.0
 40
1.0
 50
0.0
 51
90.0
  0
LINE
  5
A76D
  8
AM_0
 10
112.0859262665813
 20
391.90203710110939
 30
0.0
 11
109.0859262665813
 21
391.90203710110939
 31
0.0
  0
ARC
  5
A76E
  8
AM_0
 10
112.0859262665813
 20
390.90202710110952
 30
0.0
 40
1.0
 50
0.0
 51
90.0
  0
LINE
  5
A76F
  8
AM_0
 10
108.0859262665813
 20
435.91843610110931
 30
0.0
 11
108.0859262665813
 21
392.90201710110949
 31
0.0
  0
LINE
  5
A770
  8
AM_0
 10
112.0859262665813
 20
393.90202710110952
 30
0.0
 11
109.0859262665813
 21
393.90202710110952
 31
0.0
  0
ARC
  5
A771
  8
AM_0
 10
109.0859262665813
 20
392.90201710110949
 30
0.0
 40
1.0
 50
90.0
 51
180.000010000001
  0
ARC
  5
A772
  8
AM_0
 10
112.0859262665813
 20
394.9020371011095
 30
0.0
 40
1.0
 50
269.9999969999991
 51
0.0
  0
LINE
  5
A773
  8
AM_0
 10
112.0859262665813
 20
403.90203710110927
 30
0.0
 11
109.0859262665813
 21
403.90203710110927
 31
0.0
  0
LINE
  5
A774
  8
AM_0
 10
112.0859262665813
 20
401.90201710110949
 30
0.0
 11
109.0859262665813
 21
401.90201710110949
 31
0.0
  0
LINE
  5
A775
  8
AM_0
 10
106.5859262665812
 20
403.05205710110931
 30
0.0
 11
109.8796262665812
 21
403.05205710110931
 31
0.0
  0
ARC
  5
A776
  8
AM_0
 10
109.0859262665813
 20
402.90202710110941
 30
0.0
 40
1.0
 50
90.0
 51
180.000010000001
  0
LINE
  5
A777
  8
AM_0
 10
106.5859262665812
 20
405.18406710110952
 30
0.0
 11
108.0859262665813
 21
405.18406710110952
 31
0.0
  0
ARC
  5
A778
  8
AM_0
 10
109.0859262665813
 20
402.90202710110941
 30
0.0
 40
1.0
 50
179.99999000000221
 51
269.9999969999991
  0
LINE
  5
A779
  8
AM_0
 10
106.5859862665812
 20
407.90201710110938
 30
0.0
 11
108.0859262665813
 21
408.0332471011094
 31
0.0
  0
LINE
  5
A77A
  8
AM_0
 10
106.0920297822063
 20
405.89384839017191
 30
0.0
 11
106.59206029978439
 21
405.85383984524998
 31
0.0
  0
LINE
  5
A77B
  8
AM_0
 10
105.59206029978439
 20
403.12385937649998
 30
0.0
 11
106.09206029978439
 21
405.89384839017191
 31
0.0
  0
LINE
  5
A77C
  8
AM_0
 10
110.0859262665813
 20
403.50913710110939
 30
0.0
 11
110.0859262665813
 21
402.29777710110938
 31
0.0
  0
ARC
  5
A77D
  8
AM_0
 10
112.0859262665813
 20
404.90201710110932
 30
0.0
 40
1.0
 50
269.9999969999991
 51
0.0
  0
ARC
  5
A77E
  8
AM_0
 10
112.0859262665813
 20
400.90203710110939
 30
0.0
 40
1.0
 50
0.0
 51
90.0
  0
LINE
  5
A77F
  8
AM_0
 10
112.0859262665813
 20
411.90202710110941
 30
0.0
 11
109.0859262665813
 21
411.90202710110941
 31
0.0
  0
LINE
  5
A780
  8
AM_0
 10
112.0859262665813
 20
413.90201710110949
 30
0.0
 11
109.0859262665813
 21
413.90201710110949
 31
0.0
  0
ARC
  5
A781
  8
AM_0
 10
109.0859262665813
 20
412.90203710110927
 30
0.0
 40
1.0
 50
179.99999000000221
 51
269.9999969999991
  0
ARC
  5
A782
  8
AM_0
 10
109.0859262665813
 20
412.90203710110927
 30
0.0
 40
1.0
 50
90.0
 51
180.000010000001
  0
ARC
  5
A783
  8
AM_0
 10
112.0859262665813
 20
410.90201710110949
 30
0.0
 40
1.0
 50
0.0
 51
90.0
  0
LINE
  5
A784
  8
AM_0
 10
110.0859262665813
 20
413.52825710110932
 30
0.0
 11
110.0859262665813
 21
412.16539710110931
 31
0.0
  0
ARC
  5
A785
  8
AM_0
 10
112.0859262665813
 20
414.90202710110941
 30
0.0
 40
1.0
 50
269.9999969999991
 51
0.0
  0
LINE
  5
A786
  8
AM_0
 10
109.94224626658119
 20
421.60096210110942
 30
0.0
 11
108.79185626658121
 21
421.2471111011094
 31
0.0
  0
LINE
  5
A787
  8
AM_0
 10
109.8978162665812
 20
423.5109281011093
 30
0.0
 11
108.6931062665812
 21
422.99641610110939
 31
0.0
  0
ARC
  5
A788
  8
AM_0
 10
109.0859262665813
 20
420.2913001011093
 30
0.0
 40
1.0
 50
107.09763000000039
 51
180.000010000001
  0
ARC
  5
A789
  8
AM_0
 10
109.0859262665813
 20
422.07676210110941
 30
0.0
 40
1.0
 50
113.1270199999981
 51
180.000010000001
  0
ARC
  5
A78A
  8
AM_0
 10
110.2905762665812
 20
422.5912881011094
 30
0.0
 40
1.0
 50
90.0
 51
113.1270299999986
  0
LINE
  5
A78B
  8
AM_0
 10
110.0859262665813
 20
423.29491710110932
 30
0.0
 11
110.0859262665813
 21
422.23496510110948
 31
0.0
  0
ARC
  5
A78C
  8
AM_0
 10
112.38591626658121
 20
424.2912391011094
 30
0.0
 40
0.6999999900000002
 50
269.9999969999991
 51
0.0
  0
LINE
  5
A78D
  8
AM_0
 10
110.2905762665812
 20
423.59129610110932
 30
0.0
 11
112.38591626658121
 21
423.59129610110932
 31
0.0
  0
LINE
  5
A78E
  8
AM_0
 10
110.23625626658119
 20
421.6451821011093
 30
0.0
 11
112.0859262665813
 21
421.6451821011093
 31
0.0
  0
ARC
  5
A78F
  8
AM_0
 10
110.23625626658119
 20
420.64519710110937
 30
0.0
 40
1.0
 50
90.0
 51
107.09763000000039
  0
ARC
  5
A790
  8
AM_0
 10
112.0859262665813
 20
420.64519710110937
 30
0.0
 40
1.0
 50
0.0
 51
90.0
  0
LINE
  5
A791
  8
AM_0
 10
109.83617626658121
 20
430.86319210110952
 30
0.0
 11
108.5375262665812
 21
430.01162910110941
 31
0.0
  0
LINE
  5
A792
  8
AM_0
 10
109.85185626658119
 20
429.7498571011094
 30
0.0
 11
108.58049626658121
 21
429.00517510110939
 31
0.0
  0
ARC
  5
A793
  8
AM_0
 10
109.0859262665813
 20
428.14226810110932
 30
0.0
 40
1.0
 50
120.35951000000171
 51
180.000010000001
  0
ARC
  5
A794
  8
AM_0
 10
109.0859262665813
 20
428.14226810110932
 30
0.0
 40
1.0
 50
120.35951000000171
 51
180.000010000001
  0
LINE
  5
A795
  8
AM_0
 10
108.58049626658121
 20
429.00513710110931
 30
0.0
 11
108.5569362665812
 21
428.99131210110932
 31
0.0
  0
ARC
  5
A796
  8
AM_0
 10
109.0859262665813
 20
429.1753941011093
 30
0.0
 40
1.0
 50
123.2547200000013
 51
180.000010000001
  0
ARC
  5
A797
  8
AM_0
 10
112.0859262665813
 20
428.88695810110949
 30
0.0
 40
1.0
 50
0.0
 51
25.363240000000559
  0
ARC
  5
A798
  8
AM_0
 10
110.38457626658121
 20
430.02697210110949
 30
0.0
 40
1.0
 50
90.0
 51
123.25473000000071
  0
ARC
  5
A799
  8
AM_0
 10
110.35722626658131
 20
428.88695810110949
 30
0.0
 40
1.0
 50
90.0
 51
120.3595000000014
  0
LINE
  5
A79A
  8
AM_0
 10
110.0859262665813
 20
430.73247810110939
 30
0.0
 11
110.0859262665813
 21
430.26036310110931
 31
0.0
  0
LINE
  5
A79B
  8
AM_0
 10
110.38457626658121
 20
431.02695710110947
 30
0.0
 11
113.0859262665813
 21
431.02695710110947
 31
0.0
  0
LINE
  5
A79C
  8
AM_0
 10
110.35722626658131
 20
429.88694210110953
 30
0.0
 11
112.0859262665813
 21
429.88694210110953
 31
0.0
  0
ARC
  5
A79D
  8
AM_0
 10
112.0859262665813
 20
428.88695810110949
 30
0.0
 40
1.0
 50
0.0
 51
90.0
  0
LINE
  5
A79E
  8
AM_0
 10
109.8483762665812
 20
435.40111810110932
 30
0.0
 11
108.5714662665813
 21
434.6348751011094
 31
0.0
  0
LINE
  5
A79F
  8
AM_0
 10
109.8725462665812
 20
436.39676110110929
 30
0.0
 11
108.63328626658119
 21
435.76773310110929
 31
0.0
  0
LINE
  5
A7A0
  8
AM_0
 10
109.86626626658131
 20
434.28722610110941
 30
0.0
 11
108.6176662665813
 21
433.62536110110949
 31
0.0
  0
LINE
  5
A7A1
  8
AM_0
 10
109.85368626658121
 20
437.51718410110931
 30
0.0
 11
108.5854962665812
 21
436.78420510110931
 31
0.0
  0
ARC
  5
A7A2
  8
AM_0
 10
109.0859262665813
 20
435.91843610110931
 30
0.0
 40
1.0
 50
120.0263900000018
 51
180.000010000001
  0
ARC
  5
A7A3
  8
AM_0
 10
109.0859262665813
 20
434.87608610110931
 30
0.0
 40
1.0
 50
116.91125000000009
 51
180.000010000001
  0
ARC
  5
A7A4
  8
AM_0
 10
109.0859262665813
 20
432.74180810110948
 30
0.0
 40
1.0
 50
117.926589999999
 51
180.000010000001
  0
ARC
  5
A7A5
  8
AM_0
 10
109.0859262665813
 20
433.77738410110931
 30
0.0
 40
1.0
 50
120.96660000000119
 51
180.000010000001
  0
LINE
  5
A7A6
  8
AM_0
 10
110.0859262665813
 20
437.3981801011094
 30
0.0
 11
110.0859262665813
 21
436.87241610110931
 31
0.0
  0
ARC
  5
A7A7
  8
AM_0
 10
110.3251862665812
 20
435.50512210110941
 30
0.0
 40
1.0
 50
90.0
 51
116.9112599999988
  0
ARC
  5
A7A8
  8
AM_0
 10
110.3629662665812
 20
434.54368110110948
 30
0.0
 40
1.0
 50
90.0
 51
120.96660000000119
  0
ARC
  5
A7A9
  8
AM_0
 10
110.3345862665812
 20
433.40366610110942
 30
0.0
 40
1.0
 50
90.0
 51
117.9266000000007
  0
LINE
  5
A7AA
  8
AM_0
 10
110.0859262665813
 20
435.2985791011094
 30
0.0
 11
110.0859262665813
 21
434.7525581011094
 31
0.0
  0
ARC
  5
A7AB
  8
AM_0
 10
112.0859262665813
 20
433.40366610110942
 30
0.0
 40
1.0
 50
0.0
 51
90.0
  0
ARC
  5
A7AC
  8
AM_0
 10
112.5859262665813
 20
436.00511410110931
 30
0.0
 40
0.5
 50
0.0
 51
90.0
  0
LINE
  5
A7AD
  8
AM_0
 10
110.3629662665812
 20
435.54368810110941
 30
0.0
 11
113.0859262665813
 21
435.54368810110941
 31
0.0
  0
LINE
  5
A7AE
  8
AM_0
 10
110.3345862665812
 20
434.4036741011094
 30
0.0
 11
112.0859262665813
 21
434.4036741011094
 31
0.0
  0
LINE
  5
A7AF
  8
AM_0
 10
110.3251862665812
 20
436.50510610110939
 30
0.0
 11
112.5859262665813
 21
436.50510610110939
 31
0.0
  0
ARC
  5
A7B0
  8
AM_0
 10
110.3541162665813
 20
436.65140810110938
 30
0.0
 40
1.0
 50
90.0
 51
120.0263999999994
  0
ARC
  5
A7B1
  8
AM_0
 10
112.5859262665813
 20
438.15140810110933
 30
0.0
 40
0.5
 50
269.9999969999991
 51
0.0
  0
LINE
  5
A7B2
  8
AM_0
 10
110.3541162665813
 20
437.65141510110931
 30
0.0
 11
112.5859262665813
 21
437.65141510110931
 31
0.0
  0
LINE
  5
A7B3
  8
AM_0
 10
113.0859262665813
 20
437.90201810110932
 30
0.0
 11
114.0859262665813
 21
437.90201810110932
 31
0.0
  0
LINE
  5
A7B4
  8
AM_0
 10
125.2859662665812
 20
444.18704742471868
 30
0.0
 11
222.2059262665812
 21
444.18704742471868
 31
0.0
  0
LINE
  5
A7B5
  8
AM_0
 10
147.58595626658129
 20
426.12703542471871
 30
0.0
 11
230.08595626658129
 21
426.12703542471871
 31
0.0
  0
LINE
  5
A7B6
  8
AM_0
 10
147.58595626658129
 20
349.67705042471891
 30
0.0
 11
230.08595626658129
 21
349.67705042471891
 31
0.0
  0
LINE
  5
A7B7
  8
AM_0
 10
223.4259562665813
 20
423.9020085151588
 30
0.0
 11
124.44591626658141
 21
423.9020085151588
 31
0.0
  0
LINE
  5
A7B8
  8
AM_0
 10
223.4259562665813
 20
421.9020085151588
 30
0.0
 11
124.44591626658141
 21
421.9020085151588
 31
0.0
  0
LINE
  5
A7B9
  8
AM_0
 10
223.41875626658131
 20
411.9020085151588
 30
0.0
 11
124.44591626658141
 21
411.9020085151588
 31
0.0
  0
LINE
  5
A7BA
  8
AM_0
 10
123.7659162665813
 20
424.6219785151589
 30
0.0
 11
226.90593626658119
 21
424.6219785151589
 31
0.0
  0
LINE
  5
A7BB
  8
AM_0
 10
123.5459462665813
 20
411.46206851515899
 30
0.0
 11
227.12016626658129
 21
411.46206851515899
 31
0.0
  0
LINE
  5
A7BC
  8
AM_0
 10
123.5459462665813
 20
414.39199851515878
 30
0.0
 11
227.13158626658131
 21
414.39199851515878
 31
0.0
  0
LINE
  5
A7BD
  8
AM_0
 10
223.4330962665814
 20
413.90200851515903
 30
0.0
 11
124.44591626658141
 21
413.90200851515903
 31
0.0
  0
LINE
  5
A7BE
  8
AM_0
 10
123.7659162665813
 20
421.27199851515883
 30
0.0
 11
226.90593626658119
 21
421.27199851515883
 31
0.0
  0
LINE
  5
A7BF
  8
AM_0
 10
123.4159462665813
 20
404.24196851515899
 30
0.0
 11
227.4145242229817
 21
404.24196851515899
 31
0.0
  0
LINE
  5
A7C0
  8
AM_0
 10
123.4159462665813
 20
401.58205851515879
 30
0.0
 11
227.26299872457469
 21
401.58205851515879
 31
0.0
  0
LINE
  5
A7C1
  8
AM_0
 10
123.3559462665812
 20
394.1720285151589
 30
0.0
 11
227.47204552008819
 21
394.1720285151589
 31
0.0
  0
LINE
  5
A7C2
  8
AM_0
 10
123.3559462665812
 20
391.641998515159
 30
0.0
 11
227.3087582425907
 21
391.64199851515917
 31
0.0
  0
LINE
  5
A7C3
  8
AM_0
 10
223.4292925599926
 20
391.90200851515903
 30
0.0
 11
124.44591626658141
 21
391.90200851515903
 31
0.0
  0
LINE
  5
A7C4
  8
AM_0
 10
223.4292925599926
 20
393.90200851515903
 30
0.0
 11
124.44591626658141
 21
393.90200851515903
 31
0.0
  0
LINE
  5
A7C5
  8
AM_0
 10
223.42929255998899
 20
401.90200851515903
 30
0.0
 11
124.44591626658141
 21
401.90200851515903
 31
0.0
  0
LINE
  5
A7C6
  8
AM_0
 10
223.42929256001381
 20
403.9020085151588
 30
0.0
 11
124.44591626658141
 21
403.9020085151588
 31
0.0
  0
LINE
  5
A7C7
  8
AM_0
 10
223.42928861012089
 20
371.90201015847151
 30
0.0
 11
124.4459123166915
 21
371.90203459433098
 31
0.0
  0
LINE
  5
A7C8
  8
AM_0
 10
223.4292891038327
 20
373.9020101584714
 30
0.0
 11
124.4459128104281
 21
373.90203459433098
 31
0.0
  0
LINE
  5
A7C9
  8
AM_0
 10
223.42929107878291
 20
381.90201015847123
 30
0.0
 11
124.4459147853747
 21
381.9020345943307
 31
0.0
  0
LINE
  5
A7CA
  8
AM_0
 10
223.4292915725195
 20
383.902010158471
 30
0.0
 11
124.4459152791113
 21
383.9020345943307
 31
0.0
  0
LINE
  5
A7CB
  8
AM_0
 10
123.3559453432995
 20
384.16204486340968
 30
0.0
 11
227.30875731930581
 21
384.16201920075378
 31
0.0
  0
LINE
  5
A7CC
  8
AM_0
 10
123.35594471871519
 20
381.63201486340978
 30
0.0
 11
227.47204397221901
 21
381.6319891604436
 31
0.0
  0
LINE
  5
A7CD
  8
AM_0
 10
123.4159428894136
 20
374.22198484859803
 30
0.0
 11
227.26299534740389
 21
374.22195921205082
 31
0.0
  0
LINE
  5
A7CE
  8
AM_0
 10
123.4159422327661
 20
371.562074848598
 30
0.0
 11
227.4145201891634
 21
371.56204917464402
 31
0.0
  0
LINE
  5
A7CF
  8
AM_0
 10
123.7659080285912
 20
354.53204476220208
 30
0.0
 11
226.90592802858811
 21
354.5320193001989
 31
0.0
  0
LINE
  5
A7D0
  8
AM_0
 10
223.4330898480053
 20
361.9020101575328
 30
0.0
 11
124.4459098480083
 21
361.90203459433133
 31
0.0
  0
LINE
  5
A7D1
  8
AM_0
 10
123.54593972704529
 20
361.41204481650527
 30
0.0
 11
227.13157972704209
 21
361.41201924449268
 31
0.0
  0
LINE
  5
A7D2
  8
AM_0
 10
123.54594045035221
 20
364.3419748165054
 30
0.0
 11
227.12016045034909
 21
364.34194924731179
 31
0.0
  0
LINE
  5
A7D3
  8
AM_0
 10
123.7659072015873
 20
351.182064762202
 30
0.0
 11
226.90592720158409
 21
351.18203930019882
 31
0.0
  0
LINE
  5
A7D4
  8
AM_0
 10
223.41875034174191
 20
363.90201016107289
 30
0.0
 11
124.44591034174491
 21
363.90203459433133
 31
0.0
  0
LINE
  5
A7D5
  8
AM_0
 10
223.4259478730587
 20
353.90201015929563
 30
0.0
 11
124.4459078730618
 21
353.90203459433161
 31
0.0
  0
LINE
  5
A7D6
  8
AM_0
 10
223.425947379322
 20
351.90201015929563
 30
0.0
 11
124.44590737932511
 21
351.90203459433172
 31
0.0
  0
LINE
  5
A7D7
  8
AM_0
 10
125.2859662665812
 20
331.61704042471888
 30
0.0
 11
222.2059262665812
 21
331.61704042471888
 31
0.0
  0
LINE
  5
A7D8
  8
ｶｸﾚｾﾝ2
 10
210.58595626658121
 20
416.40200487487289
 30
0.0
 11
210.58595626658101
 21
359.40200487487289
 31
0.0
  0
LINE
  5
A7D9
  8
ｶｸﾚｾﾝ2
 10
130.58595626658109
 20
359.40200487487289
 30
0.0
 11
130.58595626658121
 21
416.40200487487289
 31
0.0
  0
LINE
  5
A7DA
  8
AM_0
 10
122.08595626658131
 20
334.90703042471881
 30
0.0
 11
122.08595626658131
 21
437.3470284247187
 31
0.0
  0
LINE
  5
A7DB
  8
ﾁｭｳｼﾝｾﾝ1
 10
179.08595626658121
 20
347.27701361002232
 30
0.0
 11
179.08595626658121
 21
428.52701661002232
 31
0.0
  0
ARC
  5
A7DC
  8
AM_0
 10
123.3500862665813
 20
392.90700851515902
 30
0.0
 40
1.2650129999999991
 50
89.735578999998495
 51
270.2644099999992
  0
ARC
  5
A7DD
  8
AM_0
 10
124.63054626658131
 20
392.90200851515903
 30
0.0
 40
1.0000138999999999
 50
89.691659999999231
 51
270.30834000000073
  0
LINE
  5
A7DE
  8
ｶｸﾚｾﾝ2
 10
207.58595626658109
 20
356.402004874873
 30
0.0
 11
133.58595626658109
 21
356.402004874873
 31
0.0
  0
POLYLINE
  5
A7DF
  8
AM_0
 66
     1
 10
0.0
 20
0.0
 30
0.0
  0
VERTEX
  5
A7E0
  8
AM_0
 10
125.9468197287634
 20
361.41900422380422
 30
0.0
 42
0.00068898288
  0
VERTEX
  5
A7E1
  8
AM_0
 10
126.01769958687569
 20
360.84425420630629
 30
0.0
 42
0.00070644354
  0
VERTEX
  5
A7E2
  8
AM_0
 10
126.09019944500309
 20
360.2695641884082
 30
0.0
 42
0.00069248071
  0
VERTEX
  5
A7E3
  8
AM_0
 10
126.164289303224
 20
359.69525417011778
 30
0.0
 42
0.00069585665
  0
VERTEX
  5
A7E4
  8
AM_0
 10
126.2399691614872
 20
359.12111415143482
 30
0.0
 42
0.00068980191
  0
VERTEX
  5
A7E5
  8
AM_0
 10
126.3172690197847
 20
358.54711413235202
 30
0.0
 42
0.00072080104
  0
VERTEX
  5
A7E6
  8
AM_0
 10
126.3961588781342
 20
357.97332411287658
 30
0.0
 42
0.00071002307
  0
VERTEX
  5
A7E7
  8
AM_0
 10
126.4766987365625
 20
357.39985409299391
 30
0.0
 42
0.00072659056
  0
VERTEX
  5
A7E8
  8
AM_0
 10
126.5588585950824
 20
356.82675407271108
 30
0.0
 42
0.00069570481
  0
VERTEX
  5
A7E9
  8
AM_0
 10
126.6426784536194
 20
356.25372405201853
 30
0.0
 42
0.00071266935
  0
VERTEX
  5
A7EA
  8
AM_0
 10
126.7281083122207
 20
355.6809540309286
 30
0.0
 42
0.00071614426
  0
VERTEX
  5
A7EB
  8
AM_0
 10
126.81513817092799
 20
355.10861400944378
 30
0.0
 42
0.00072288975
  0
VERTEX
  5
A7EC
  8
AM_0
 10
126.9038480296452
 20
354.53631398754402
 30
0.0
  0
SEQEND
  5
A7ED
  8
AM_0
  0
LINE
  5
A7EE
  8
AM_0
 10
147.5858962665813
 20
349.67704042471888
 30
0.0
 11
127.4084662665812
 21
351.17704042471888
 31
0.0
  0
LINE
  5
A7EF
  8
AM_0
 10
127.4108434828933
 20
351.18206386238279
 30
0.0
 11
122.08595626658131
 21
339.80704042471888
 31
0.0
  0
LINE
  5
A7F0
  8
AM_0
 10
122.08595626658131
 20
339.80703042471879
 30
0.0
 11
123.3259462665813
 21
333.2470304247189
 31
0.0
  0
LINE
  5
A7F1
  8
AM_0
 10
122.08595626658131
 20
338.46703042471893
 30
0.0
 11
123.3659262665812
 21
330.45704042471891
 31
0.0
  0
ARC
  5
A7F2
  8
AM_0
 10
125.2888362665812
 20
333.61394042471892
 30
0.0
 40
1.9969039999999989
 50
190.58743999999859
 51
269.91652600000037
  0
ARC
  5
A7F3
  8
AM_0
 10
124.6305376261934
 20
352.90203454875228
 30
0.0
 40
1.0000138999999999
 50
89.691645855486485
 51
270.30832585548802
  0
ARC
  5
A7F4
  8
AM_0
 10
123.7585276150744
 20
352.85699476402402
 30
0.0
 40
1.6750160000000001
 50
89.746115855487119
 51
270.25384085548518
  0
ARC
  5
A7F5
  8
ｶｸﾚｾﾝ2
 10
133.58595626658109
 20
359.40200487487289
 30
0.0
 40
3.0
 50
180.0
 51
270.0
  0
POLYLINE
  5
A7F6
  8
AM_0
 66
     1
 10
0.0
 20
0.0
 30
0.0
  0
VERTEX
  5
A7F7
  8
AM_0
 10
124.4899747186264
 20
381.63165458345372
 30
0.0
 42
0.00076691992
  0
VERTEX
  5
A7F8
  8
AM_0
 10
124.5047745661184
 20
381.01388457980011
 30
0.0
 42
0.00073262792
  0
VERTEX
  5
A7F9
  8
AM_0
 10
124.52141441365509
 20
380.39629457569208
 30
0.0
 42
0.00076529537
  0
VERTEX
  5
A7FA
  8
AM_0
 10
124.5399042611718
 20
379.77862457112769
 30
0.0
 42
0.00075141097
  0
VERTEX
  5
A7FB
  8
AM_0
 10
124.560274108706
 20
379.161024566099
 30
0.0
 42
0.00075841687
  0
VERTEX
  5
A7FC
  8
AM_0
 10
124.5825039562822
 20
378.5435945606111
 30
0.0
 42
0.00075711788
  0
VERTEX
  5
A7FD
  8
AM_0
 10
124.6066138038385
 20
377.92608455465898
 30
0.0
 42
0.00075976003
  0
VERTEX
  5
A7FE
  8
AM_0
 10
124.6326036514244
 20
377.30869454824301
 30
0.0
 42
0.00075797311
  0
VERTEX
  5
A7FF
  8
AM_0
 10
124.6604434990375
 20
376.69141454137008
 30
0.0
 42
0.0007482613
  0
VERTEX
  5
A800
  8
AM_0
 10
124.690173346626
 20
376.07403453403077
 30
0.0
 42
0.00074893561
  0
VERTEX
  5
A801
  8
AM_0
 10
124.7217331942761
 20
375.45690452623961
 30
0.0
 42
0.00076039839
  0
VERTEX
  5
A802
  8
AM_0
 10
124.755153041951
 20
374.83987451798941
 30
0.0
 42
0.00075618786
  0
VERTEX
  5
A803
  8
AM_0
 10
124.7904528896234
 20
374.22283450927489
 30
0.0
  0
SEQEND
  5
A804
  8
AM_0
  0
POLYLINE
  5
A805
  8
AM_0
 66
     1
 10
0.0
 20
0.0
 30
0.0
  0
VERTEX
  5
A806
  8
AM_0
 10
124.96416223261549
 20
371.5614644663915
 30
0.0
 42
0.0007337051
  0
VERTEX
  5
A807
  8
AM_0
 10
125.00830208389699
 20
370.95904445549468
 30
0.0
 42
0.00075211323
  0
VERTEX
  5
A808
  8
AM_0
 10
125.054241935186
 20
370.35665444415372
 30
0.0
 42
0.0007297491
  0
VERTEX
  5
A809
  8
AM_0
 10
125.1019717865219
 20
369.75445443237061
 30
0.0
 42
0.00073593041
  0
VERTEX
  5
A80A
  8
AM_0
 10
125.1514516379097
 20
369.1524644201557
 30
0.0
 42
0.00074742739
  0
VERTEX
  5
A80B
  8
AM_0
 10
125.2027214893271
 20
368.55059440749881
 30
0.0
 42
0.00073217363
  0
VERTEX
  5
A80C
  8
AM_0
 10
125.2557813407617
 20
367.94879439440001
 30
0.0
 42
0.00073754168
  0
VERTEX
  5
A80D
  8
AM_0
 10
125.31060119226051
 20
367.34725438086667
 30
0.0
 42
0.00073075073
  0
VERTEX
  5
A80E
  8
AM_0
 10
125.3671810438038
 20
366.74589436689888
 30
0.0
 42
0.00074550816
  0
VERTEX
  5
A80F
  8
AM_0
 10
125.425520895421
 20
366.1448343524965
 30
0.0
 42
0.00074288416
  0
VERTEX
  5
A810
  8
AM_0
 10
125.4856707470483
 20
365.54381433764729
 30
0.0
 42
0.00072504001
  0
VERTEX
  5
A811
  8
AM_0
 10
125.5475805987421
 20
364.9430643223638
 30
0.0
 42
0.00074640667
  0
VERTEX
  5
A812
  8
AM_0
 10
125.61125045047299
 20
364.34246430664558
 30
0.0
  0
SEQEND
  5
A813
  8
AM_0
  0
ARC
  5
A814
  8
AM_0
 10
124.63054009487659
 20
362.902034548752
 30
0.0
 40
1.0000138999999999
 50
89.691645855486485
 51
270.30832585548802
  0
ARC
  5
A815
  8
AM_0
 10
123.54594008869999
 20
362.87701481650538
 30
0.0
 40
1.465004
 50
89.999985855486855
 51
269.99998285548588
  0
ARC
  5
A816
  8
AM_0
 10
124.6305425635598
 20
372.90203454875171
 30
0.0
 40
1.0000138999999999
 50
89.691645855486485
 51
270.30832585548802
  0
ARC
  5
A817
  8
AM_0
 10
123.4159425610886
 20
372.892024848598
 30
0.0
 40
1.3300049999999981
 50
89.999985855486855
 51
269.99998285548588
  0
POLYLINE
  5
A818
  8
AM_0
 66
     1
 10
0.0
 20
0.0
 30
0.0
  0
VERTEX
  5
A819
  8
AM_0
 10
124.4459162665846
 20
387.90203459433047
 30
0.0
 42
0.00039106649
  0
VERTEX
  5
A81A
  8
AM_0
 10
124.4435561897764
 20
387.59090459491313
 30
0.0
 42
0.00035488198
  0
VERTEX
  5
A81B
  8
AM_0
 10
124.44166611297319
 20
387.27979459537983
 30
0.0
 42
0.00039706113
  0
VERTEX
  5
A81C
  8
AM_0
 10
124.44023603616991
 20
386.96868459573278
 30
0.0
 42
0.00038765718
  0
VERTEX
  5
A81D
  8
AM_0
 10
124.4393059593593
 20
386.65754459596229
 30
0.0
 42
0.00040613432
  0
VERTEX
  5
A81E
  8
AM_0
 10
124.4388558825585
 20
386.34644459607352
 30
0.0
 42
0.00035573434
  0
VERTEX
  5
A81F
  8
AM_0
 10
124.43889580575549
 20
386.03533459606359
 30
0.0
 42
0.00038545884
  0
VERTEX
  5
A820
  8
AM_0
 10
124.4393857289472
 20
385.72420459594258
 30
0.0
 42
0.00035501205
  0
VERTEX
  5
A821
  8
AM_0
 10
124.4403456521441
 20
385.41309459570567
 30
0.0
 42
0.00040120779
  0
VERTEX
  5
A822
  8
AM_0
 10
124.44176557531119
 20
385.10186459535521
 30
0.0
 42
0.00038317817
  0
VERTEX
  5
A823
  8
AM_0
 10
124.4436754985031
 20
384.79073459488359
 30
0.0
 42
0.00035656084
  0
VERTEX
  5
A824
  8
AM_0
 10
124.44605542166779
 20
384.47949459429611
 30
0.0
 42
0.00040143615
  0
VERTEX
  5
A825
  8
AM_0
 10
124.4489053448671
 20
384.16839459359261
 30
0.0
  0
SEQEND
  5
A826
  8
AM_0
  0
ARC
  5
A827
  8
AM_0
 10
124.63054503224291
 20
382.90203454875137
 30
0.0
 40
1.0000138999999999
 50
89.691645855486485
 51
270.30832585548802
  0
ARC
  5
A828
  8
AM_0
 10
123.3500850310086
 20
382.89703486485632
 30
0.0
 40
1.2650129999999991
 50
89.735575855488491
 51
270.26440685548931
  0
POLYLINE
  5
A829
  8
AM_0
 66
     1
 10
0.0
 20
0.0
 30
0.0
  0
VERTEX
  5
A82A
  8
AM_0
 10
124.44591626658141
 20
387.90200851515903
 30
0.0
 42
-0.00039106649
  0
VERTEX
  5
A82B
  8
AM_0
 10
124.4435562665813
 20
388.21313851515902
 30
0.0
 42
-0.00035488198
  0
VERTEX
  5
A82C
  8
AM_0
 10
124.44166626658129
 20
388.52424851515877
 30
0.0
 42
-0.00039706113
  0
VERTEX
  5
A82D
  8
AM_0
 10
124.44023626658119
 20
388.83535851515899
 30
0.0
 42
-0.00038765718
  0
VERTEX
  5
A82E
  8
AM_0
 10
124.4393062665812
 20
389.14649851515901
 30
0.0
 42
-0.00040613432
  0
VERTEX
  5
A82F
  8
AM_0
 10
124.4388562665812
 20
389.45759851515879
 30
0.0
 42
-0.00035573434
  0
VERTEX
  5
A830
  8
AM_0
 10
124.43889626658139
 20
389.76870851515901
 30
0.0
 42
-0.00038545884
  0
VERTEX
  5
A831
  8
AM_0
 10
124.4393862665812
 20
390.07983851515883
 30
0.0
 42
-0.00035501205
  0
VERTEX
  5
A832
  8
AM_0
 10
124.4403462665813
 20
390.39094851515893
 30
0.0
 42
-0.00040120779
  0
VERTEX
  5
A833
  8
AM_0
 10
124.4417662665812
 20
390.70217851515878
 30
0.0
 42
-0.00038317817
  0
VERTEX
  5
A834
  8
AM_0
 10
124.44367626658131
 20
391.013308515159
 30
0.0
 42
-0.00035656084
  0
VERTEX
  5
A835
  8
AM_0
 10
124.44605626658119
 20
391.32454851515899
 30
0.0
 42
-0.00040143615
  0
VERTEX
  5
A836
  8
AM_0
 10
124.4489062665813
 20
391.63564851515878
 30
0.0
  0
SEQEND
  5
A837
  8
AM_0
  0
ARC
  5
A838
  8
ｶｸﾚｾﾝ2
 10
207.58595626658121
 20
359.40200487487289
 30
0.0
 40
3.0
 50
270.0
 51
0.0
  0
LINE
  5
A839
  8
ｶｸﾚｾﾝ2
 10
207.58595626658121
 20
419.40200487487289
 30
0.0
 11
133.58595626658121
 21
419.40200487487289
 31
0.0
  0
ARC
  5
A83A
  8
AM_0
 10
123.7585362665813
 20
422.94704851515883
 30
0.0
 40
1.6750160000000001
 50
89.746145000001235
 51
270.25387000000092
  0
POLYLINE
  5
A83B
  8
AM_0
 66
     1
 10
0.0
 20
0.0
 30
0.0
  0
VERTEX
  5
A83C
  8
AM_0
 10
124.9641662665813
 20
404.24257851515893
 30
0.0
 42
-0.0007337051
  0
VERTEX
  5
A83D
  8
AM_0
 10
125.0083062665813
 20
404.84499851515898
 30
0.0
 42
-0.00075211323
  0
VERTEX
  5
A83E
  8
AM_0
 10
125.0542462665813
 20
405.44738851515899
 30
0.0
 42
-0.0007297491
  0
VERTEX
  5
A83F
  8
AM_0
 10
125.1019762665813
 20
406.04958851515892
 30
0.0
 42
-0.00073593041
  0
VERTEX
  5
A840
  8
AM_0
 10
125.15145626658131
 20
406.6515785151588
 30
0.0
 42
-0.00074742739
  0
VERTEX
  5
A841
  8
AM_0
 10
125.20272626658129
 20
407.25344851515882
 30
0.0
 42
-0.00073217363
  0
VERTEX
  5
A842
  8
AM_0
 10
125.2557862665813
 20
407.85524851515879
 30
0.0
 42
-0.00073754168
  0
VERTEX
  5
A843
  8
AM_0
 10
125.3106062665812
 20
408.45678851515879
 30
0.0
 42
-0.00073075073
  0
VERTEX
  5
A844
  8
AM_0
 10
125.3671862665813
 20
409.05814851515879
 30
0.0
 42
-0.00074550816
  0
VERTEX
  5
A845
  8
AM_0
 10
125.4255262665812
 20
409.65920851515898
 30
0.0
 42
-0.00074288416
  0
VERTEX
  5
A846
  8
AM_0
 10
125.48567626658119
 20
410.26022851515887
 30
0.0
 42
-0.00072504001
  0
VERTEX
  5
A847
  8
AM_0
 10
125.54758626658131
 20
410.86097851515899
 30
0.0
 42
-0.00074640667
  0
VERTEX
  5
A848
  8
AM_0
 10
125.61125626658119
 20
411.46157851515881
 30
0.0
  0
SEQEND
  5
A849
  8
AM_0
  0
POLYLINE
  5
A84A
  8
AM_0
 66
     1
 10
0.0
 20
0.0
 30
0.0
  0
VERTEX
  5
A84B
  8
AM_0
 10
124.48997626658129
 20
394.1723885151589
 30
0.0
 42
-0.00076691992
  0
VERTEX
  5
A84C
  8
AM_0
 10
124.5047762665812
 20
394.79015851515902
 30
0.0
 42
-0.00073262792
  0
VERTEX
  5
A84D
  8
AM_0
 10
124.5214162665813
 20
395.40774851515903
 30
0.0
 42
-0.00076529537
  0
VERTEX
  5
A84E
  8
AM_0
 10
124.5399062665812
 20
396.02541851515878
 30
0.0
 42
-0.00075141097
  0
VERTEX
  5
A84F
  8
AM_0
 10
124.5602762665813
 20
396.64301851515887
 30
0.0
 42
-0.00075841687
  0
VERTEX
  5
A850
  8
AM_0
 10
124.5825062665813
 20
397.260448515159
 30
0.0
 42
-0.00075711788
  0
VERTEX
  5
A851
  8
AM_0
 10
124.6066162665813
 20
397.87795851515898
 30
0.0
 42
-0.00075976003
  0
VERTEX
  5
A852
  8
AM_0
 10
124.63260626658121
 20
398.49534851515898
 30
0.0
 42
-0.00075797311
  0
VERTEX
  5
A853
  8
AM_0
 10
124.6604462665813
 20
399.11262851515897
 30
0.0
 42
-0.0007482613
  0
VERTEX
  5
A854
  8
AM_0
 10
124.6901762665813
 20
399.73000851515877
 30
0.0
 42
-0.00074893561
  0
VERTEX
  5
A855
  8
AM_0
 10
124.7217362665812
 20
400.34713851515892
 30
0.0
 42
-0.00076039839
  0
VERTEX
  5
A856
  8
AM_0
 10
124.7551562665813
 20
400.96416851515892
 30
0.0
 42
-0.00075618786
  0
VERTEX
  5
A857
  8
AM_0
 10
124.7904562665813
 20
401.58120851515901
 30
0.0
  0
SEQEND
  5
A858
  8
AM_0
  0
ARC
  5
A859
  8
AM_0
 10
123.4159462665813
 20
402.91201851515882
 30
0.0
 40
1.3300049999999981
 50
90.000003000000945
 51
270.0
  0
ARC
  5
A85A
  8
AM_0
 10
124.63054626658131
 20
402.9020085151588
 30
0.0
 40
1.0000138999999999
 50
89.691659999999231
 51
270.30834000000073
  0
POLYLINE
  5
A85B
  8
AM_0
 66
     1
 10
0.0
 20
0.0
 30
0.0
  0
VERTEX
  5
A85C
  8
AM_0
 10
125.9468262665813
 20
414.38503851515878
 30
0.0
 42
-0.00068898288
  0
VERTEX
  5
A85D
  8
AM_0
 10
126.0177062665812
 20
414.95978851515878
 30
0.0
 42
-0.00070644354
  0
VERTEX
  5
A85E
  8
AM_0
 10
126.0902062665813
 20
415.53447851515881
 30
0.0
 42
-0.00069248071
  0
VERTEX
  5
A85F
  8
AM_0
 10
126.1642962665813
 20
416.10878851515878
 30
0.0
 42
-0.00069585665
  0
VERTEX
  5
A860
  8
AM_0
 10
126.23997626658129
 20
416.68292851515901
 30
0.0
 42
-0.00068980191
  0
VERTEX
  5
A861
  8
AM_0
 10
126.3172762665812
 20
417.25692851515879
 30
0.0
 42
-0.00072080104
  0
VERTEX
  5
A862
  8
AM_0
 10
126.3961662665813
 20
417.83071851515882
 30
0.0
 42
-0.00071002307
  0
VERTEX
  5
A863
  8
AM_0
 10
126.4767062665813
 20
418.40418851515892
 30
0.0
 42
-0.00072659056
  0
VERTEX
  5
A864
  8
AM_0
 10
126.5588662665813
 20
418.97728851515882
 30
0.0
 42
-0.00069570481
  0
VERTEX
  5
A865
  8
AM_0
 10
126.64268626658129
 20
419.55031851515901
 30
0.0
 42
-0.00071266935
  0
VERTEX
  5
A866
  8
AM_0
 10
126.7281162665813
 20
420.123088515159
 30
0.0
 42
-0.00071614426
  0
VERTEX
  5
A867
  8
AM_0
 10
126.81514626658129
 20
420.69542851515882
 30
0.0
 42
-0.00072288975
  0
VERTEX
  5
A868
  8
AM_0
 10
126.9038562665812
 20
421.26772851515881
 30
0.0
  0
SEQEND
  5
A869
  8
AM_0
  0
ARC
  5
A86A
  8
AM_0
 10
124.63054626658131
 20
412.9020085151588
 30
0.0
 40
1.0000138999999999
 50
89.691659999999231
 51
270.30834000000073
  0
ARC
  5
A86B
  8
AM_0
 10
123.5459462665813
 20
412.92702851515901
 30
0.0
 40
1.465004
 50
90.000003000000945
 51
270.0
  0
ARC
  5
A86C
  8
AM_0
 10
124.63054626658131
 20
422.90200851515903
 30
0.0
 40
1.0000138999999999
 50
89.691659999999231
 51
270.30834000000073
  0
ARC
  5
A86D
  8
ｶｸﾚｾﾝ2
 10
133.58595626658109
 20
416.40200487487289
 30
0.0
 40
3.0
 50
90.0
 51
180.0
  0
LINE
  5
A86E
  8
AM_0
 10
125.33595626658131
 20
447.03703842471867
 30
0.0
 11
159.08595626658129
 21
447.03703842471867
 31
0.0
  0
LINE
  5
A86F
  8
AM_0
 10
125.35597626658119
 20
448.87704242471892
 30
0.0
 11
159.08595626658129
 21
448.87704242471892
 31
0.0
  0
LINE
  5
A870
  8
AM_0
 10
125.37593626658121
 20
449.79703342471868
 30
0.0
 11
159.08595626658129
 21
449.79703342471868
 31
0.0
  0
LINE
  5
A871
  8
AM_0
 10
147.58595626658129
 20
426.12703542471871
 30
0.0
 11
127.4131062665812
 21
424.62703542471883
 31
0.0
  0
LINE
  5
A872
  8
AM_0
 10
122.08595626658131
 20
435.99705342471879
 30
0.0
 11
123.3259462665813
 21
442.5570504247188
 31
0.0
  0
LINE
  5
A873
  8
AM_0
 10
122.08595626658131
 20
437.34704442471872
 30
0.0
 11
123.3659262665812
 21
445.34703642471879
 31
0.0
  0
LINE
  5
A874
  8
AM_0
 10
122.0860162665812
 20
438.6870404247187
 30
0.0
 11
123.3759962665812
 21
447.18703242471878
 31
0.0
  0
LINE
  5
A875
  8
AM_0
 10
122.08595626658131
 20
438.68701742471887
 30
0.0
 11
123.39595626658119
 21
448.06702242471869
 31
0.0
  0
LINE
  5
A876
  8
AM_0
 10
127.415503605865
 20
424.62197851515913
 30
0.0
 11
122.0858962665813
 21
435.99701542471882
 31
0.0
  0
ARC
  5
A877
  8
AM_0
 10
125.3780762665812
 20
447.79656042471868
 30
0.0
 40
2.0004758999999992
 50
90.060310000000726
 51
172.22953999999919
  0
ARC
  5
A878
  8
AM_0
 10
125.3495062665813
 20
446.87970542471879
 30
0.0
 40
1.9973480999999991
 50
89.815319999999133
 51
171.14853000000031
  0
ARC
  5
A879
  8
AM_0
 10
125.3419362665812
 20
445.03686342471877
 30
0.0
 40
2.0001840999999998
 50
90.171470000000795
 51
171.0790000000008
  0
ARC
  5
A87A
  8
AM_0
 10
125.29060626658131
 20
442.1880394247188
 30
0.0
 40
1.9990078999999989
 50
90.133450000000266
 51
169.3625899999995
  0
ARC
  5
A87B
  8
AM_0
 10
159.0779662665812
 20
447.7890304247187
 30
0.0
 40
2.0080360999999991
 50
0.2287899999994317
 51
89.771210000000551
  0
ARC
  5
A87C
  8
AM_0
 10
159.08266626658121
 20
446.8737544247187
 30
0.0
 40
2.003279899999999
 50
0.0937900000003977
 51
89.906209999999604
  0
ARC
  5
A87D
  8
AM_0
 10
159.07875626658131
 20
445.02985942471878
 30
0.0
 40
2.0071799999999991
 50
0.2046200000009776
 51
89.795379999999028
  0
LINE
  5
A87E
  8
AM_0
 10
161.08595626658129
 20
447.79704042471872
 30
0.0
 11
161.08595626658129
 21
444.18704742471868
 31
0.0
  0
ARC
  5
A87F
  8
ｶｸﾚｾﾝ2
 10
207.58595626658121
 20
416.40200487487289
 30
0.0
 40
3.0
 50
0.0
 51
90.0
  0
LINE
  5
A880
  8
AM_0
 10
230.08595626658129
 20
331.9020404247189
 30
0.0
 11
230.08595626658129
 21
443.90204442471878
 31
0.0
  0
ARC
  5
A881
  8
AM_0
 10
227.31285266658131
 20
392.91201851515882
 30
0.0
 40
1.2700266
 50
269.62932000000001
 51
90.370670000001425
  0
ARC
  5
A882
  8
AM_0
 10
223.42591616658129
 20
392.90200851515903
 30
0.0
 40
1.000005699999998
 50
269.999989999999
 51
90.000003000000945
  0
LINE
  5
A883
  8
AM_0
 10
230.08595626658129
 20
331.9020404247189
 30
0.0
 11
238.08592626658131
 21
331.9020404247189
 31
0.0
  0
LINE
  5
A884
  8
AM_0
 10
230.08595626658129
 20
355.96203042471888
 30
0.0
 11
238.08592626658131
 21
355.96203042471888
 31
0.0
  0
LINE
  5
A885
  8
AM_0
 10
230.08595626658129
 20
341.90204042471879
 30
0.0
 11
238.08592626658131
 21
341.90204042471879
 31
0.0
  0
LINE
  5
A886
  8
AM_0
 10
228.2859662665812
 20
348.56702042471892
 30
0.0
 11
224.1359762665812
 21
333.10703042471891
 31
0.0
  0
ARC
  5
A887
  8
AM_0
 10
222.20314626658131
 20
333.61564042471878
 30
0.0
 40
1.9986041000000001
 50
270.08048399999888
 51
345.25728400000048
  0
LINE
  5
A888
  8
AM_0
 10
224.62593626658131
 20
334.90703042471881
 30
0.0
 11
230.08595626658129
 21
334.90703042471881
 31
0.0
  0
ARC
  5
A889
  8
AM_0
 10
223.42594762619041
 20
352.90201015929563
 30
0.0
 40
1.0
 50
269.99998285548588
 51
89.999995855487896
  0
ARC
  5
A88A
  8
AM_0
 10
226.90590744731159
 20
352.85699330020452
 30
0.0
 40
1.675026000120903
 50
270.00067271219689
 51
89.999295998819832
  0
ARC
  5
A88B
  8
AM_0
 10
229.73915626658129
 20
348.17927042471888
 30
0.0
 40
1.5027759999999999
 50
90.122410000000286
 51
165.24357000000069
  0
ARC
  5
A88C
  8
AM_0
 10
223.4259124635567
 20
372.90201015930489
 30
0.0
 40
1.000005699999998
 50
269.99998285548588
 51
89.999995855487896
  0
ARC
  5
A88D
  8
AM_0
 10
223.42589009487361
 20
362.90201015931012
 30
0.0
 40
1.0000255999999981
 50
269.58945485548588
 51
90.410515855486977
  0
ARC
  5
A88E
  8
AM_0
 10
227.12590008746
 20
362.87197924589498
 30
0.0
 40
1.460011199999999
 50
269.7752358554871
 51
90.224735855487296
  0
ARC
  5
A88F
  8
AM_0
 10
227.25089895985121
 20
372.88699921503678
 30
0.0
 40
1.3350147999999999
 50
269.73042985548523
 51
90.269555855486772
  0
ARC
  5
A890
  8
AM_0
 10
223.42591493223989
 20
382.90201015930472
 30
0.0
 40
1.000005699999998
 50
269.99998285548588
 51
89.999995855487896
  0
ARC
  5
A891
  8
AM_0
 10
227.3128514297687
 20
382.89199919974322
 30
0.0
 40
1.2700266
 50
269.6293158554858
 51
90.370665855487275
  0
ARC
  5
A892
  8
AM_0
 10
226.9059160988156
 20
422.94702451515832
 30
0.0
 40
1.675026000120903
 50
270.00068985666701
 51
89.999313143289925
  0
LINE
  5
A893
  8
AM_0
 10
230.08595626658129
 20
419.8420314247187
 30
0.0
 11
238.08592626658131
 21
419.8420314247187
 31
0.0
  0
ARC
  5
A894
  8
AM_0
 10
223.42591616658129
 20
402.9020085151588
 30
0.0
 40
1.000005699999998
 50
269.999989999999
 51
90.000003000000945
  0
ARC
  5
A895
  8
AM_0
 10
227.25090266658131
 20
402.9170185151587
 30
0.0
 40
1.3350147999999999
 50
269.7304299999999
 51
90.269556000001415
  0
ARC
  5
A896
  8
AM_0
 10
223.4258962665813
 20
412.9020085151588
 30
0.0
 40
1.0000255999999981
 50
269.58947000000001
 51
90.410531000001029
  0
ARC
  5
A897
  8
AM_0
 10
223.4259562665813
 20
422.90200851515903
 30
0.0
 40
1.0
 50
269.999989999999
 51
90.000003000000945
  0
ARC
  5
A898
  8
AM_0
 10
227.1259062665813
 20
412.93203851515881
 30
0.0
 40
1.460011199999999
 50
269.77524999999991
 51
90.224750000000114
  0
LINE
  5
A899
  8
AM_0
 10
230.08595626658129
 20
443.90204442471878
 30
0.0
 11
238.08592626658131
 21
443.90204442471878
 31
0.0
  0
LINE
  5
A89A
  8
AM_0
 10
230.08595626658129
 20
433.9020364247188
 30
0.0
 11
238.08592626658131
 21
433.9020364247188
 31
0.0
  0
LINE
  5
A89B
  8
AM_0
 10
228.58595626658121
 20
426.12702742471879
 30
0.0
 11
224.1359462665813
 21
442.70702942471883
 31
0.0
  0
ARC
  5
A89C
  8
AM_0
 10
222.20308626658121
 20
442.18490442471881
 30
0.0
 40
2.0021281000000002
 50
15.11669999999812
 51
89.918480000000116
  0
LINE
  5
A89D
  8
AM_0
 10
224.62593626658131
 20
440.90703342471869
 30
0.0
 11
230.08595626658129
 21
440.90703342471869
 31
0.0
  0
TEXT
  5
AAE7
  8
AM_0
 10
505.4161985008422
 20
-73.412409803398077
 30
0.0
 40
10.0
  1
VC01-080MH～VC01-240MH
1001
ACAD
1000
MTEXTBEGIN
1070
    73
1070
     1
1070
    44
1040
1.0
1070
    74
1070
     0
1000
MTEXTEND
  0
VIEWPORT
  5
89
 67
     1
  8
0
 10
210.0
 20
148.5
 30
0.0
 40
420.0
 41
297.0
 68
     1
 69
     1
1001
ACAD
1000
MVIEW
1002
{
1070
    16
1010
0.0
1020
0.0
1030
0.0
1010
0.0
1020
0.0
1030
1.0
1040
0.0
1040
297.0
1040
221.70154043645701
1040
148.5
1040
50.0
1040
0.0
1040
0.0
1070
     0
1070
   100
1070
     1
1070
     1
1070
     0
1070
     0
1070
     0
1070
     0
1040
0.0
1040
0.0
1040
0.0
1040
10.0
1040
10.0
1040
10.0
1040
10.0
1070
     0
1002
{
1002
}
1002
}
1001
GENIUS_GENOREF_13
1005
1B94
1001
GENIUS_GENSCREG_15
1000
PF
1040
1.0
1000
DF
1040
1.0
1000
MIN
1011
0.0
1021
0.0
1031
0.0
1021
0.0
1031
0.0
1000
MAX
1011
420.0
1021
0.0
1031
0.0
1021
297.0
1031
0.0
1000
FLAGS
1070
     4
  0
ENDSEC
  0
EOF
