  0
SECTION
  2
HEADER
  9
$ACADVER
  1
AC1009
  9
$INSBASE
 10
0.0
 20
0.0
 30
0.0
  9
$EXTMIN
 10
65.85284590895283
 20
-106.1892251436421
 30
0.0
  9
$EXTMAX
 10
770.52168666189016
 20
509.11072730624687
 30
0.0
  9
$LIMMIN
 10
0.0
 20
0.0
  9
$LIMMAX
 10
408.0
 20
284.0
  9
$ORTHOMODE
 70
     0
  9
$REGENMODE
 70
     1
  9
$FILLMODE
 70
     1
  9
$QTEXTMODE
 70
     0
  9
$MIRRTEXT
 70
     1
  9
$DRAGMODE
 70
     2
  9
$LTSCALE
 40
1.0
  9
$OSMODE
 70
   551
  9
$ATTMODE
 70
     1
  9
$TEXTSIZE
 40
2.5
  9
$TRACEWID
 40
1.0
  9
$TEXTSTYLE
  7
STANDARD
  9
$CLAYER
  8
AM_0
  9
$CELTYPE
  6
BYLAYER
  9
$CECOLOR
 62
   256
  9
$DIMSCALE
 40
1.0
  9
$DIMASZ
 40
2.5
  9
$DIMEXO
 40
1.0
  9
$DIMDLI
 40
7.0
  9
$DIMRND
 40
0.0
  9
$DIMDLE
 40
0.0
  9
$DIMEXE
 40
1.0
  9
$DIMTP
 40
0.1
  9
$DIMTM
 40
0.1000000001
  9
$DIMTXT
 40
2.5
  9
$DIMCEN
 40
0.0
  9
$DIMTSZ
 40
0.0
  9
$DIMTOL
 70
     0
  9
$DIMLIM
 70
     0
  9
$DIMTIH
 70
     0
  9
$DIMTOH
 70
     0
  9
$DIMSE1
 70
     0
  9
$DIMSE2
 70
     0
  9
$DIMTAD
 70
     3
  9
$DIMZIN
 70
     8
  9
$DIMBLK
  1

  9
$DIMASO
 70
     1
  9
$DIMSHO
 70
     1
  9
$DIMPOST
  1

  9
$DIMAPOST
  1
"
  9
$DIMALT
 70
     0
  9
$DIMALTD
 70
     2
  9
$DIMALTF
 40
0.0393701
  9
$DIMLFAC
 40
1.0
  9
$DIMTOFL
 70
     1
  9
$DIMTVP
 40
0.0
  9
$DIMTIX
 70
     0
  9
$DIMSOXD
 70
     0
  9
$DIMSAH
 70
     0
  9
$DIMBLK1
  1

  9
$DIMBLK2
  1

  9
$DIMSTYLE
  2
AM_JIS
  9
$DIMCLRD
 70
   256
  9
$DIMCLRE
 70
   256
  9
$DIMCLRT
 70
     4
  9
$DIMTFAC
 40
0.71
  9
$DIMGAP
 40
1.0
  9
$LUNITS
 70
     2
  9
$LUPREC
 70
     2
  9
$SKETCHINC
 40
1.0
  9
$FILLETRAD
 40
1.0
  9
$AUNITS
 70
     0
  9
$AUPREC
 70
     3
  9
$MENU
  1
.
  9
$ELEVATION
 40
0.0
  9
$PELEVATION
 40
0.0
  9
$THICKNESS
 40
0.0
  9
$LIMCHECK
 70
     0
  9
$BLIPMODE
 70
     0
  9
$CHAMFERA
 40
2.5
  9
$CHAMFERB
 40
2.5
  9
$SKPOLY
 70
     0
  9
$TDCREATE
 40
2452732.6837268518
  9
$TDUPDATE
 40
2458541.679972894
  9
$TDINDWG
 40
0.3415674074
  9
$TDUSRTIMER
 40
0.3415672106
  9
$USRTIMER
 70
     1
  9
$ANGBASE
 50
0.0
  9
$ANGDIR
 70
     0
  9
$PDMODE
 70
     0
  9
$PDSIZE
 40
0.0
  9
$PLINEWID
 40
0.0
  9
$COORDS
 70
     1
  9
$SPLFRAME
 70
     0
  9
$SPLINETYPE
 70
     6
  9
$SPLINESEGS
 70
     8
  9
$ATTDIA
 70
     1
  9
$ATTREQ
 70
     1
  9
$HANDLING
 70
     1
  9
$HANDSEED
  5
DBBD
  9
$SURFTAB1
 70
     6
  9
$SURFTAB2
 70
     6
  9
$SURFTYPE
 70
     6
  9
$SURFU
 70
     6
  9
$SURFV
 70
     6
  9
$UCSNAME
  2

  9
$UCSORG
 10
0.0
 20
0.0
 30
0.0
  9
$UCSXDIR
 10
1.0
 20
0.0
 30
0.0
  9
$UCSYDIR
 10
0.0
 20
1.0
 30
0.0
  9
$PUCSNAME
  2

  9
$PUCSORG
 10
0.0
 20
0.0
 30
0.0
  9
$PUCSXDIR
 10
1.0
 20
0.0
 30
0.0
  9
$PUCSYDIR
 10
0.0
 20
1.0
 30
0.0
  9
$USERI1
 70
     0
  9
$USERI2
 70
     0
  9
$USERI3
 70
     0
  9
$USERI4
 70
     0
  9
$USERI5
 70
     0
  9
$USERR1
 40
0.0
  9
$USERR2
 40
0.0
  9
$USERR3
 40
0.0
  9
$USERR4
 40
0.0
  9
$USERR5
 40
0.0
  9
$WORLDVIEW
 70
     1
  9
$SHADEDGE
 70
     3
  9
$SHADEDIF
 70
    70
  9
$TILEMODE
 70
     1
  9
$MAXACTVP
 70
    48
  9
$PLIMCHECK
 70
     0
  9
$PEXTMIN
 10
1.0000000000000000E+020
 20
1.0000000000000000E+020
 30
1.0000000000000000E+020
  9
$PEXTMAX
 10
-1.0000000000000000E+020
 20
-1.0000000000000000E+020
 30
-1.0000000000000000E+020
  9
$PLIMMIN
 10
0.0
 20
0.0
  9
$PLIMMAX
 10
420.0
 20
297.0
  9
$UNITMODE
 70
     0
  9
$VISRETAIN
 70
     1
  9
$PLINEGEN
 70
     0
  9
$PSLTSCALE
 70
     1
  0
ENDSEC
  0
SECTION
  2
TABLES
  0
TABLE
  2
VPORT
 70
     1
  0
VPORT
  2
*ACTIVE
 70
     0
 10
0.0
 20
0.0
 11
1.0
 21
1.0
 12
537.01239638943093
 22
201.46501719417219
 13
0.0
 23
0.0
 14
1.0
 24
1.0
 15
10.0
 25
10.0
 16
0.0
 26
0.0
 36
1.0
 17
0.0
 27
0.0
 37
0.0
 40
620.43596652545341
 41
1.757159221076747
 42
50.0
 43
0.0
 44
0.0
 50
0.0
 51
0.0
 71
     0
 72
   100
 73
     1
 74
     1
 75
     0
 76
     0
 77
     0
 78
     0
  0
ENDTAB
  0
TABLE
  2
LTYPE
 70
    21
  0
LTYPE
  2
CONTINUOUS
 70
     0
  3
Solid line
 72
    65
 73
     0
 40
0.0
  0
LTYPE
  2
HIDDEN
 70
     0
  3
Hidden __ __ __ __ __ __ __ __ __ __ __ __ __ _
 72
    65
 73
     2
 40
9.5249999999999968
 49
6.3499999999999979
 49
-3.174999999999998
  0
LTYPE
  2
PHANTOM2
 70
     0
  3
Phantom (.5x) ___ _ _ ___ _ _ ___ _ _ ___ _ _
 72
    65
 73
     6
 40
31.75
 49
15.875
 49
-3.174999999999998
 49
3.174999999999998
 49
-3.174999999999998
 49
3.174999999999998
 49
-3.174999999999998
  0
LTYPE
  2
CENTER
 70
     0
  3
Center ____ _ ____ _ ____ _ ____ _ ____ _ ____
 72
    65
 73
     4
 40
50.799999999999997
 49
31.75
 49
-6.3499999999999979
 49
6.3499999999999979
 49
-6.3499999999999979
  0
LTYPE
  2
ACANSTGBM
 70
     0
  3
__ . . __ . .
 72
    65
 73
     6
 40
9.0
 49
4.0
 49
-1.0
 49
1.0
 49
-1.0
 49
1.0
 49
-1.0
  0
LTYPE
  2
ACANSTGLM
 70
     0
  3
_ _ _ _ _
 72
    65
 73
     2
 40
3.0
 49
2.0
 49
-1.0
  0
LTYPE
  2
GEN3B
 70
     0
  3
 - - - - -
 72
    65
 73
     2
 40
1.0
 49
0.5
 49
-0.5
  0
LTYPE
  2
GEN7A
 70
     0
  3
__ . __ . __
 72
    65
 73
     4
 40
7.375
 49
4.75
 49
-0.875
 49
0.875
 49
-0.875
  0
LTYPE
  2
AM_ISO02W050
 70
     0
  3
__ __ __ __ __ __ __ __ __ __ __ __ __ __ __
 72
    65
 73
     2
 40
7.5
 49
6.0
 49
-1.5
  0
LTYPE
  2
AM_ISO08W050
 70
     0
  3
____ . ____ . ____ . ____ . ____ . ____ . ____
 72
    65
 73
     4
 40
18.0
 49
12.0
 49
-1.5
 49
3.0
 49
-1.5
  0
LTYPE
  2
AM_ISO09W050
 70
     0
  3
_____ . . _____ . . _____ . . ____ .. ____
 72
    65
 73
     6
 40
22.5
 49
12.0
 49
-1.5
 49
3.0
 49
-1.5
 49
3.0
 49
-1.5
  0
LTYPE
  2
AMCONSTR
 70
     0
  3
_______________________
 72
    65
 73
     2
 40
9999.0
 49
9999.0
 49
0.0
  0
LTYPE
  2
AM_ISO02W050X2
 70
     0
  3
 _ _ _ _ _ _ _ _ _ _ _ _
 72
    65
 73
     2
 40
3.75
 49
3.0
 49
-0.75
  0
LTYPE
  2
AM_ISO08W050X2
 70
     0
  3
__ . __ . __ . __ . __ . __
 72
    65
 73
     4
 40
9.0
 49
6.0
 49
-0.75
 49
1.5
 49
-0.75
  0
LTYPE
  2
AMZIGZAG
 70
     0
  3
/\/-/\/-/\/-/\/-/\/-/\/
 72
    65
 73
     2
 40
11.0001
 49
0.0001
 49
-11.0
  0
LTYPE
  2
ACJISTGB
 70
     0
  3
__ . . __ . .
 72
    65
 73
     6
 40
9.0
 49
4.0
 49
-1.0
 49
1.0
 49
-1.0
 49
1.0
 49
-1.0
  0
LTYPE
  2
ACJISTGL
 70
     0
  3
_ _ _ _ _
 72
    65
 73
     2
 40
3.0
 49
2.0
 49
-1.0
  0
LTYPE
  2
ACISOWELD
 70
     0
  3
_ _ _ _ _
 72
    65
 73
     2
 40
2.0
 49
2.0
 49
-1.0
  0
LTYPE
  2
ACISOTGB
 70
     0
  3
__ . . __ . .
 72
    65
 73
     6
 40
9.0
 49
4.0
 49
-1.0
 49
1.0
 49
-1.0
 49
1.0
 49
-1.0
  0
LTYPE
  2
ACISOTGL
 70
     0
  3
_ _ _ _ _
 72
    65
 73
     2
 40
3.0
 49
2.0
 49
-1.0
  0
ENDTAB
  0
TABLE
  2
LAYER
 70
     8
  0
LAYER
  2
0
 70
     0
 62
     7
  6
CONTINUOUS
  0
LAYER
  2
DEFPOINTS
 70
     0
 62
     7
  6
CONTINUOUS
  0
LAYER
  2
ｶｸﾚｾﾝ2
 70
     0
 62
     3
  6
GEN3B
  0
LAYER
  2
ﾁｭｳｼﾝｾﾝ1
 70
     0
 62
     1
  6
GEN7A
  0
LAYER
  2
AM_0
 70
     0
 62
     7
  6
CONTINUOUS
  0
LAYER
  2
AM_0N
 70
     0
 62
     7
  6
CONTINUOUS
  0
LAYER
  2
AM_5
 70
     0
 62
     2
  6
CONTINUOUS
  0
LAYER
  2
AM_4
 70
     0
 62
     2
  6
CONTINUOUS
  0
ENDTAB
  0
TABLE
  2
STYLE
 70
     8
  0
STYLE
  2
STANDARD
 70
     0
 40
0.0
 41
0.8299999999999999
 50
0.0
 71
     0
 42
2.5
  3
txt.shx
  4
bigfont.shx
  0
STYLE
  2
ACANSTS
 70
     0
 40
1.0
 41
1.0
 50
0.0
 71
     0
 42
2.5
  3
romans.shx
  4
bigfont.shx
  0
STYLE
  2
ACANSGDT
 70
     0
 40
0.0
 41
1.0
 50
0.0
 71
     0
 42
2.5
  3
amgdtans.shx
  4

  0
STYLE
  2

 70
     1
 40
0.0
 41
1.0
 50
0.0
 71
     0
 42
2.5
  3
ltypeshp.shx
  4

  0
STYLE
  2
ACJISTS
 70
     0
 40
1.0
 41
1.0
 50
0.0
 71
     0
 42
2.5
  3
isocp.shx
  4
bigfont.shx
  0
STYLE
  2
ACJISGDT
 70
     0
 40
0.0
 41
1.0
 50
0.0
 71
     0
 42
2.5
  3
amgdt.shx
  4

  0
STYLE
  2
ACISOTS
 70
     0
 40
1.0
 41
1.0
 50
0.0
 71
     0
 42
2.5
  3
isocp.shx
  4
extfont.shx
  0
STYLE
  2
ACISOGDT
 70
     0
 40
0.0
 41
1.0
 50
0.0
 71
     0
 42
2.5
  3
amgdt.shx
  4

  0
ENDTAB
  0
TABLE
  2
VIEW
 70
    12
  0
VIEW
  2
GEN1
 70
     0
 40
95.824742268041234
 10
71.5
 20
137.08762886597941
 41
143.0
 11
0.0
 21
0.0
 31
1.0
 12
0.0
 22
0.0
 32
0.0
 42
50.0
 43
0.0
 44
0.0
 50
0.0
 71
     0
  0
VIEW
  2
GEN2
 70
     0
 40
95.824742268041234
 10
214.5
 20
137.08762886597941
 41
143.0
 11
0.0
 21
0.0
 31
1.0
 12
0.0
 22
0.0
 32
0.0
 42
50.0
 43
0.0
 44
0.0
 50
0.0
 71
     0
  0
VIEW
  2
GEN3
 70
     0
 40
95.824742268041234
 10
71.5
 20
47.912371134020603
 41
143.0
 11
0.0
 21
0.0
 31
1.0
 12
0.0
 22
0.0
 32
0.0
 42
50.0
 43
0.0
 44
0.0
 50
0.0
 71
     0
  0
VIEW
  2
GEN4
 70
     0
 40
95.824742268041234
 10
214.5
 20
47.912371134020603
 41
143.0
 11
0.0
 21
0.0
 31
1.0
 12
0.0
 22
0.0
 32
0.0
 42
50.0
 43
0.0
 44
0.0
 50
0.0
 71
     0
  0
VIEW
  2
GEN5
 70
     0
 40
95.824742268041234
 10
143.0
 20
92.500000000000057
 41
143.0
 11
0.0
 21
0.0
 31
1.0
 12
0.0
 22
0.0
 32
0.0
 42
50.0
 43
0.0
 44
0.0
 50
0.0
 71
     0
  0
VIEW
  2
GEN6
 70
     0
 40
191.64756804123709
 10
143.0
 20
92.5
 41
285.99714
 11
0.0
 21
0.0
 31
1.0
 12
0.0
 22
0.0
 32
0.0
 42
50.0
 43
0.0
 44
0.0
 50
0.0
 71
     0
  0
VIEW
  2
AM_VIEW1
 70
     0
 40
142.0
 10
119.7777777777778
 20
213.0
 41
239.5555555555556
 11
0.0
 21
0.0
 31
1.0
 12
0.0
 22
0.0
 32
0.0
 42
50.0
 43
0.0
 44
0.0
 50
0.0
 71
     0
  0
VIEW
  2
AM_VIEW2
 70
     0
 40
142.0
 10
288.22222222222211
 20
213.0
 41
239.5555555555556
 11
0.0
 21
0.0
 31
1.0
 12
0.0
 22
0.0
 32
0.0
 42
50.0
 43
0.0
 44
0.0
 50
0.0
 71
     0
  0
VIEW
  2
AM_VIEW3
 70
     0
 40
142.0
 10
119.7777777777778
 20
71.0
 41
239.5555555555556
 11
0.0
 21
0.0
 31
1.0
 12
0.0
 22
0.0
 32
0.0
 42
50.0
 43
0.0
 44
0.0
 50
0.0
 71
     0
  0
VIEW
  2
AM_VIEW4
 70
     0
 40
142.0
 10
288.22222222222211
 20
71.0
 41
239.5555555555556
 11
0.0
 21
0.0
 31
1.0
 12
0.0
 22
0.0
 32
0.0
 42
50.0
 43
0.0
 44
0.0
 50
0.0
 71
     0
  0
VIEW
  2
AM_VIEW5
 70
     0
 40
142.0
 10
204.0
 20
142.0
 41
239.5555555555556
 11
0.0
 21
0.0
 31
1.0
 12
0.0
 22
0.0
 32
0.0
 42
50.0
 43
0.0
 44
0.0
 50
0.0
 71
     0
  0
VIEW
  2
AM_VIEW6
 70
     0
 40
283.99716000000001
 10
204.0
 20
142.0
 41
479.10631999999993
 11
0.0
 21
0.0
 31
1.0
 12
0.0
 22
0.0
 32
0.0
 42
50.0
 43
0.0
 44
0.0
 50
0.0
 71
     0
  0
ENDTAB
  0
TABLE
  2
UCS
 70
     0
  0
ENDTAB
  0
TABLE
  2
APPID
 70
    95
  0
APPID
  2
ACAD
 70
     0
  0
APPID
  2
MCAD_NO_VIS
 70
     0
  0
APPID
  2
ACAD_TEMP_GRAPHIC
 70
     0
  0
APPID
  2
AD_DRAW
 70
     0
  0
APPID
  2
DESIGNERASSEMBLIES
 70
     0
  0
APPID
  2
ASURF_PCURVE_APPNAME
 70
     0
  0
APPID
  2
GENIUS_GE3SECT_13
 70
     0
  0
APPID
  2
GENIUS_GENCFG_13
 70
     0
  0
APPID
  2
GENIUS_GE3CFG0_13
 70
     0
  0
APPID
  2
GENIUS_GENCFG0_13
 70
     0
  0
APPID
  2
GENIUS_GENCFG1_13
 70
     0
  0
APPID
  2
GENIUS_GENCFG2_13
 70
     0
  0
APPID
  2
GENIUS_GENCFG3_13
 70
     0
  0
APPID
  2
GENIUS_GENCFG4_13
 70
     0
  0
APPID
  2
GENIUS_GEVCFG0_13
 70
     0
  0
APPID
  2
GENIUS_GENOENT_13
 70
     0
  0
APPID
  2
GENIUS_GENREC_14
 70
     0
  0
APPID
  2
GENIUS_GENODEF_13
 70
     0
  0
APPID
  2
GENIUS_GENOBJ-N-REC_13
 70
     0
  0
APPID
  2
GENIUS_GENHINW_13
 70
     0
  0
APPID
  2
GENIUS_FIRSTVISTXT_14
 70
     0
  0
APPID
  2
GENIUS_GENOBJ-N-LEADER_13
 70
     0
  0
APPID
  2
GENIUS_GENOREF_13
 70
     0
  0
APPID
  2
GENIUS_GENOLIS_13
 70
     0
  0
APPID
  2
GEV_VCCNULL_SWITCH_OFF
 70
     0
  0
APPID
  2
GENIUS_GENDTOL_13
 70
     0
  0
APPID
  2
GENIUS_GEFCFG0_13
 70
     0
  0
APPID
  2
GENIUS_GENOBJ-N-TIT_13
 70
     0
  0
APPID
  2
GENIUS_GENTITLE_13
 70
     0
  0
APPID
  2
GENIUS_GENZVEED_13
 70
     0
  0
APPID
  2
GENIUS_GENOBJ-N-SDF_13
 70
     0
  0
APPID
  2
GENIUS_GENSCREG_13
 70
     0
  0
APPID
  2
GENIUS_DUMCFG0_13
 70
     0
  0
APPID
  2
GEVID936201362
 70
     0
  0
APPID
  2
GEVDC
 70
     0
  0
APPID
  2
GEVCON
 70
     0
  0
APPID
  2
VCC
 70
     0
  0
APPID
  2
GEVPT
 70
     0
  0
APPID
  2
GEVIT
 70
     0
  0
APPID
  2
GENBH
 70
     0
  0
APPID
  2
GEVMK
 70
     0
  0
APPID
  2
GENIUS_GENBH_13
 70
     0
  0
APPID
  2
GENIUS_GENOBJ-NBEHI-BHF_13
 70
     0
  0
APPID
  2
GENIUS_GENOBJ-NBEHI-BHB_13
 70
     0
  0
APPID
  2
GENIUS_GENOBJ-F-DESC_13
 70
     0
  0
APPID
  2
GENIUS_GEFDESC_14
 70
     0
  0
APPID
  2
GENIUS_GENOBJ-F-PART_13
 70
     0
  0
APPID
  2
GENIUS_GEFSTDP_13
 70
     0
  0
APPID
  2
GENIUS_GEFPARTINS_13
 70
     0
  0
APPID
  2
GENIUS_GENTRA_14
 70
     0
  0
APPID
  2
GENIUS_GENINF13_13
 70
     0
  0
APPID
  2
GENIUS_GENOBJ-N-INFOPT_13
 70
     0
  0
APPID
  2
GENIUS_GENOBJ-N-RSSYM_13
 70
     0
  0
APPID
  2
GENIUS_GENSYMENT_13
 70
     0
  0
APPID
  2
GENIUS_GENSCSYM_13
 70
     0
  0
APPID
  2
GENIUS_GEFINFNAM_13
 70
     0
  0
APPID
  2
GENIUS_GENSCREG_15
 70
     0
  0
APPID
  2
GENIUS_GENOBJ-N-CEN_13
 70
     0
  0
APPID
  2
GENIUS_GENOBJ-N-CRS_13
 70
     0
  0
APPID
  2
GENIUS_GENOBJ-N-CRC_13
 70
     0
  0
APPID
  2
GENIUS_GENCRC_14
 70
     0
  0
APPID
  2
GEVID942827039
 70
     0
  0
APPID
  2
GEVID942827040
 70
     0
  0
APPID
  2
GEVID942827041
 70
     0
  0
APPID
  2
GENIUS_GENOBJ-F-SCPASSM_13
 70
     0
  0
APPID
  2
GENIUS_GENDIMSH_14
 70
     0
  0
APPID
  2
GENIUS_GENFIL_13
 70
     0
  0
APPID
  2
GENIUS_GENOBJ-N-CHA_13
 70
     0
  0
APPID
  2
GENIUS_GENOBJ-N-FIL_13
 70
     0
  0
APPID
  2
GEVID942827042
 70
     0
  0
APPID
  2
GEVID946020473
 70
     0
  0
APPID
  2
GEVID946020474
 70
     0
  0
APPID
  2
GEVID946020475
 70
     0
  0
APPID
  2
GENIUS_GENOBJ-N-HTC_13
 70
     0
  0
APPID
  2
GENIUS_GENHATCH_13
 70
     0
  0
APPID
  2
GEVID948854295
 70
     0
  0
APPID
  2
GEVID939402019
 70
     0
  0
APPID
  2
GEVID952919491
 70
     0
  0
APPID
  2
GEVID952919492
 70
     0
  0
APPID
  2
GENIUS_GEFWELD_13
 70
     0
  0
APPID
  2
GENIUS_GENOBJ-F-WELS_13
 70
     0
  0
APPID
  2
GEVID952919493
 70
     0
  0
APPID
  2
GENIUS_GENOBJ-N-RSBK_13
 70
     0
  0
APPID
  2
GENIUS_GENOBJ-N-LIB_13
 70
     0
  0
APPID
  2
GENIUS_GENSCALE_13
 70
     0
  0
APPID
  2
GEVID986376691
 70
     0
  0
APPID
  2
ACATTRIBSERVICES
 70
     0
  0
APPID
  2
ACAD_MLEADERVER
 70
     0
  0
APPID
  2
ACADM_DIM_EDIT
 70
     0
  0
APPID
  2
AMDT_DM_ADJ
 70
     0
  0
APPID
  2
ACAD_DSTYLE_DIMBREAK
 70
     0
  0
APPID
  2
ACAD_DSTYLE_DIMJAG
 70
     0
  0
APPID
  2
ACAD_NAV_VCDISPLAY
 70
     0
  0
APPID
  2
ACADANNOPO
 70
     0
  0
APPID
  2
ACAD_EXEMPT_FROM_CAD_STANDARDS
 70
     0
  0
ENDTAB
  0
TABLE
  2
DIMSTYLE
 70
    15
  0
DIMSTYLE
  2
STANDARD
 70
     0
  3

  4

  5

  6

  7

 40
1.0
 41
0.18
 42
0.0625
 43
0.38
 44
0.18
 45
0.0
 46
0.0
 47
0.0
 48
0.0
140
0.18
141
0.09
142
0.0
143
25.399999999999999
144
1.0
145
0.0
146
1.0
147
0.09
 71
     0
 72
     0
 73
     1
 74
     1
 75
     0
 76
     0
 77
     0
 78
     0
170
     0
171
     2
172
     0
173
     0
174
     0
175
     0
176
     0
177
     0
178
     0
  0
DIMSTYLE
  2
AM_JIS
 70
     0
  3

  4
"
  5

  6

  7

 40
1.0
 41
2.5
 42
1.0
 43
7.0
 44
1.0
 45
0.0
 46
0.0
 47
0.1
 48
0.1000000001
140
2.5
141
0.0
142
0.0
143
0.0393701
144
1.0
145
0.0
146
0.71
147
1.0
 71
     0
 72
     0
 73
     0
 74
     0
 75
     0
 76
     0
 77
     3
 78
     8
170
     0
171
     2
172
     1
173
     0
174
     0
175
     0
176
   256
177
   256
178
     4
  0
DIMSTYLE
  2
AM_JIS$3
 70
     0
  3

  4
"
  5

  6

  7

 40
1.0
 41
2.5
 42
1.0
 43
7.0
 44
1.0
 45
0.0
 46
0.0
 47
0.1
 48
0.1000000001
140
2.5
141
0.0
142
0.0
143
0.0393701
144
1.0
145
0.0
146
0.71
147
1.0
 71
     0
 72
     0
 73
     0
 74
     1
 75
     0
 76
     0
 77
     3
 78
     8
170
     0
171
     2
172
     0
173
     0
174
     0
175
     0
176
   256
177
   256
178
     4
  0
DIMSTYLE
  2
AM_JIS$4
 70
     0
  3

  4
"
  5

  6

  7

 40
1.0
 41
2.5
 42
1.0
 43
7.0
 44
1.0
 45
0.0
 46
0.0
 47
0.1
 48
0.1000000001
140
2.5
141
0.0
142
0.0
143
0.0393701
144
1.0
145
0.0
146
0.71
147
1.0
 71
     0
 72
     0
 73
     0
 74
     0
 75
     0
 76
     0
 77
     3
 78
     8
170
     0
171
     2
172
     0
173
     0
174
     0
175
     0
176
   256
177
   256
178
     4
  0
DIMSTYLE
  2
AM_JIS$6
 70
     0
  3

  4
"
  5

  6

  7

 40
1.0
 41
2.5
 42
1.0
 43
7.0
 44
1.0
 45
0.0
 46
0.0
 47
0.1
 48
0.1000000001
140
2.5
141
0.0
142
0.0
143
0.0393701
144
1.0
145
0.0
146
0.71
147
1.0
 71
     0
 72
     0
 73
     0
 74
     0
 75
     0
 76
     0
 77
     0
 78
     8
170
     0
171
     2
172
     1
173
     0
174
     0
175
     0
176
   256
177
   256
178
     4
  0
DIMSTYLE
  2
AM_JIS$7
 70
     0
  3

  4
"
  5

  6

  7

 40
1.0
 41
2.5
 42
1.0
 43
7.0
 44
1.0
 45
0.0
 46
0.0
 47
0.1
 48
0.1000000001
140
2.5
141
0.0
142
0.0
143
0.0393701
144
1.0
145
0.0
146
0.71
147
1.0
 71
     0
 72
     0
 73
     0
 74
     0
 75
     0
 76
     0
 77
     3
 78
     8
170
     0
171
     2
172
     1
173
     0
174
     0
175
     0
176
   256
177
   256
178
     4
  0
DIMSTYLE
  2
AM_JIS$SF
 70
     0
  3

  4
"
  5
OPEN30
  6
OPEN30
  7
OPEN30
 40
1.0
 41
2.5
 42
1.0
 43
10.0
 44
1.0
 45
0.0
 46
0.0
 47
0.1
 48
0.1
140
3.5
141
0.0
142
0.0
143
0.0393701
144
1.0
145
0.0
146
0.71
147
1.5
 71
     0
 72
     0
 73
     0
 74
     0
 75
     1
 76
     1
 77
     3
 78
     8
170
     0
171
     2
172
     1
173
     0
174
     0
175
     0
176
   256
177
   256
178
     4
  0
DIMSTYLE
  2
AM_JIS$SH
 70
     0
  3

  4
"
  5

  6
NONE
  7

 40
1.0
 41
2.5
 42
1.0
 43
10.0
 44
1.0
 45
0.0
 46
0.0
 47
0.1
 48
0.1
140
3.5
141
0.0
142
0.0
143
0.0393701
144
1.0
145
0.0
146
0.71
147
1.5
 71
     0
 72
     0
 73
     0
 74
     0
 75
     1
 76
     0
 77
     3
 78
     8
170
     0
171
     2
172
     1
173
     1
174
     0
175
     0
176
   256
177
   256
178
     4
  0
DIMSTYLE
  2
AM_ISO
 70
     0
  3

  4
"
  5

  6

  7

 40
1.0
 41
2.5
 42
1.0
 43
8.0
 44
0.6
 45
0.0
 46
0.0
 47
0.1
 48
0.1
140
5.9999999999999751
141
0.0
142
0.0
143
0.0393701
144
1.0
145
0.0
146
0.71
147
2.0
 71
     0
 72
     0
 73
     0
 74
     0
 75
     0
 76
     0
 77
     1
 78
     8
170
     0
171
     2
172
     1
173
     0
174
     0
175
     0
176
   256
177
   256
178
     4
  0
DIMSTYLE
  2
AM_ISO$3
 70
     0
  3

  4
"
  5

  6

  7

 40
1.0
 41
2.5
 42
1.0
 43
8.0
 44
0.6
 45
0.0
 46
0.0
 47
0.1
 48
0.1
140
5.9999999999999751
141
0.0
142
0.0
143
0.0393701
144
1.0
145
0.0
146
0.71
147
2.0
 71
     0
 72
     0
 73
     0
 74
     1
 75
     0
 76
     0
 77
     1
 78
     8
170
     0
171
     2
172
     0
173
     0
174
     0
175
     0
176
   256
177
   256
178
     4
  0
DIMSTYLE
  2
AM_ISO$4
 70
     0
  3

  4
"
  5

  6

  7

 40
1.0
 41
2.5
 42
1.0
 43
8.0
 44
0.6
 45
0.0
 46
0.0
 47
0.1
 48
0.1
140
5.9999999999999751
141
0.0
142
0.0
143
0.0393701
144
1.0
145
0.0
146
0.71
147
2.0
 71
     0
 72
     0
 73
     0
 74
     1
 75
     0
 76
     0
 77
     1
 78
     8
170
     0
171
     2
172
     0
173
     0
174
     0
175
     0
176
   256
177
   256
178
     4
  0
DIMSTYLE
  2
AM_ISO$6
 70
     0
  3

  4
"
  5

  6

  7

 40
1.0
 41
2.5
 42
1.0
 43
8.0
 44
0.6
 45
0.0
 46
0.0
 47
0.1
 48
0.1
140
5.9999999999999751
141
0.0
142
0.0
143
0.0393701
144
1.0
145
0.0
146
0.71
147
2.0
 71
     0
 72
     0
 73
     0
 74
     0
 75
     0
 76
     0
 77
     0
 78
     8
170
     0
171
     2
172
     1
173
     0
174
     0
175
     0
176
   256
177
   256
178
     4
  0
DIMSTYLE
  2
AM_ISO$7
 70
     0
  3

  4
"
  5

  6

  7

 40
1.0
 41
2.5
 42
1.0
 43
8.0
 44
0.6
 45
0.0
 46
0.0
 47
0.1
 48
0.1
140
5.9999999999999751
141
0.0
142
0.0
143
0.0393701
144
1.0
145
0.0
146
0.71
147
2.0
 71
     0
 72
     0
 73
     0
 74
     0
 75
     0
 76
     0
 77
     1
 78
     8
170
     0
171
     2
172
     1
173
     0
174
     0
175
     0
176
   256
177
   256
178
     4
  0
DIMSTYLE
  2
AM_ISO$SF
 70
     0
  3

  4
"
  5

  6

  7

 40
1.0
 41
2.5
 42
1.0
 43
10.0
 44
1.0
 45
0.0
 46
0.0
 47
0.1
 48
0.1
140
3.5
141
0.0
142
0.0
143
0.0393701
144
1.0
145
0.0
146
0.71
147
1.5
 71
     0
 72
     0
 73
     0
 74
     0
 75
     1
 76
     1
 77
     1
 78
     8
170
     0
171
     2
172
     1
173
     0
174
     0
175
     0
176
   256
177
   256
178
     2
  0
DIMSTYLE
  2
AM_ISO$SH
 70
     0
  3

  4
"
  5

  6
GENAXEH
  7

 40
1.0
 41
2.5
 42
1.0
 43
10.0
 44
1.0
 45
0.0
 46
0.0
 47
0.1
 48
0.1
140
3.5
141
0.0
142
0.0
143
0.0393701
144
2.0
145
0.0
146
0.71
147
1.5
 71
     0
 72
     0
 73
     0
 74
     0
 75
     1
 76
     1
 77
     1
 78
     8
170
     0
171
     2
172
     1
173
     1
174
     0
175
     0
176
   256
177
   256
178
     2
  0
ENDTAB
  0
ENDSEC
  0
SECTION
  2
BLOCKS
  0
BLOCK
  8
0
  2
$MODEL_SPACE
 70
     0
 10
0.0
 20
0.0
 30
0.0
  3
$MODEL_SPACE
  1

  0
ENDBLK
  5
1A
  8
0
  0
BLOCK
 67
     1
  8
0
  2
$PAPER_SPACE
 70
     0
 10
0.0
 20
0.0
 30
0.0
  3
$PAPER_SPACE
  1

  0
ENDBLK
  5
17
 67
     1
  8
0
  0
BLOCK
  8
0
  2
_OPEN30
 70
     0
 10
0.0
 20
0.0
 30
0.0
  3
_OPEN30
  1

  0
LINE
  5
21C5
  8
0
 62
     0
 10
-1.0
 20
0.26794919
 30
0.0
 11
0.0
 21
0.0
 31
0.0
  0
LINE
  5
21C6
  8
0
 62
     0
 10
0.0
 20
0.0
 30
0.0
 11
-1.0
 21
-0.26794919
 31
0.0
  0
LINE
  5
21C7
  8
0
 62
     0
 10
0.0
 20
0.0
 30
0.0
 11
-1.0
 21
0.0
 31
0.0
  0
ENDBLK
  5
21C9
  8
0
  0
BLOCK
  8
0
  2
GENAXEH
 70
     0
 10
0.0
 20
0.0
 30
0.0
  3
GENAXEH
  1

  0
LINE
  5
21D0
  8
0
 10
-1.0
 20
0.0
 30
0.0
 11
1.0
 21
0.0
 31
0.0
  0
ENDBLK
  5
21D2
  8
0
  0
BLOCK
  8
0
  2
_NONE
 70
     0
 10
0.0
 20
0.0
 30
0.0
  3
_NONE
  1

  0
ENDBLK
  5
8193
  8
0
  0
BLOCK
  8
0
  2
NEW_BLOCK
 70
     0
 10
0.0
 20
0.0
 30
0.0
  3
NEW_BLOCK
  1

  0
LINE
  5
BBC9
  8
AM_0
 10
-0.899999999999977
 20
37.800000000000011
 30
0.0
 11
-0.899999999999977
 21
28.800000000000011
 31
0.0
  0
LINE
  5
BBCA
  8
AM_0
 10
-6.2999999999999527
 20
27.900000000000009
 30
0.0
 11
-6.2999999999999527
 21
38.700000000000031
 31
0.0
  0
LINE
  5
BBCB
  8
AM_0
 10
-0.899999999999977
 20
28.800000000000011
 30
0.0
 11
-6.2999999999999527
 21
28.800000000000011
 31
0.0
  0
LINE
  5
BBCC
  8
AM_0
 10
0.0
 20
27.900000000000009
 30
0.0
 11
-6.2999999999999527
 21
27.900000000000009
 31
0.0
  0
LINE
  5
BBCD
  8
AM_0
 10
-6.2999999999999527
 20
37.800000000000011
 30
0.0
 11
-0.899999999999977
 21
37.800000000000011
 31
0.0
  0
LINE
  5
BBCE
  8
AM_0
 10
0.0
 20
38.700000000000031
 30
0.0
 11
-6.2999999999999527
 21
38.700000000000031
 31
0.0
  0
LINE
  5
BBCF
  8
AM_0
 10
-6.2999999999999527
 20
-27.900000000000009
 30
0.0
 11
-6.2999999999999527
 21
-38.700000000000031
 31
0.0
  0
LINE
  5
BBD0
  8
AM_0
 10
-0.899999999999977
 20
-37.800000000000011
 30
0.0
 11
-0.899999999999977
 21
-28.800000000000011
 31
0.0
  0
LINE
  5
BBD1
  8
AM_0
 10
0.0
 20
-38.700000000000031
 30
0.0
 11
-6.2999999999999527
 21
-38.700000000000031
 31
0.0
  0
LINE
  5
BBD2
  8
AM_0
 10
-6.2999999999999527
 20
-37.800000000000011
 30
0.0
 11
-0.899999999999977
 21
-37.800000000000011
 31
0.0
  0
LINE
  5
BBD3
  8
AM_0
 10
0.0
 20
-27.900000000000009
 30
0.0
 11
-6.2999999999999527
 21
-27.900000000000009
 31
0.0
  0
LINE
  5
BBD4
  8
AM_0
 10
-0.899999999999977
 20
-28.800000000000011
 30
0.0
 11
-6.2999999999999527
 21
-28.800000000000011
 31
0.0
  0
ENDBLK
  5
BBD6
  8
0
  0
ENDSEC
  0
SECTION
  2
ENTITIES
  0
POINT
  5
1B94
  8
0
 10
0.0
 20
0.0
 30
0.0
1001
GENIUS_GENODEF_13
1002
{
1000
HIER
1070
     1
1002
}
1002
{
1000
MANEDIT
1070
     0
1002
}
1002
{
1000
NOSEL
1070
     0
1002
}
1002
{
1000
BEHIND
1070
     0
1002
}
1002
{
1000
REACTOR
1002
}
1001
GENIUS_GENOBJ-N-SDF_13
1002
{
1000
OWNER
1000
GEN
1002
}
1001
GENIUS_GENOENT_13
1002
{
1000
MYREF
1005
1B94
1002
}
1002
{
1000
GRP
1005
0
1002
}
1001
GENIUS_GENOLIS_13
1002
{
1000
ENT
1005
89
1002
}
  0
LINE
  5
BFC5
  8
AM_0
 10
194.40074590895259
 20
101.46574272737701
 30
0.0
 11
158.7927459089527
 21
101.46574272737701
 31
0.0
  0
LINE
  5
BFC6
  8
AM_0
 10
205.59674590895261
 20
104.46574272737691
 30
0.0
 11
130.59674590895261
 21
104.46574272737691
 31
0.0
  0
LINE
  5
BFC7
  8
AM_0
 10
128.09674590895261
 20
124.46574272737691
 30
0.0
 11
208.09674590895261
 21
124.46574272737691
 31
0.0
  0
LINE
  5
BFC8
  8
AM_0
 10
208.09674590895261
 20
120.96574272737701
 30
0.0
 11
150.59674590895261
 21
120.96574272737701
 31
0.0
  0
LINE
  5
BFC9
  8
AM_0
 10
208.0967459089527
 20
127.96574272737691
 30
0.0
 11
128.09674590895261
 21
127.96574272737691
 31
0.0
  0
LINE
  5
BFCA
  8
AM_0
 10
160.59674590895281
 20
139.60578272737689
 30
0.0
 11
220.41675590895289
 21
139.60578272737689
 31
0.0
  0
LINE
  5
BFCB
  8
AM_0
 10
189.09674590895281
 20
168.09577272737701
 30
0.0
 11
160.59674590895281
 21
168.09577272737701
 31
0.0
  0
LINE
  5
BFCC
  8
AM_0
 10
189.09674590895281
 20
234.83571272737689
 30
0.0
 11
160.59674590895281
 21
234.83571272737689
 31
0.0
  0
LINE
  5
BFCD
  8
AM_0
 10
220.41675590895289
 20
237.465712727377
 30
0.0
 11
160.59674590895281
 21
237.465712727377
 31
0.0
  0
LINE
  5
BFCE
  8
AM_0
 10
220.41675590895289
 20
235.465712727377
 30
0.0
 11
160.59674590895281
 21
235.465712727377
 31
0.0
  0
LINE
  5
BFCF
  8
AM_0
 10
220.41675590895289
 20
167.46577272737699
 30
0.0
 11
160.59674590895281
 21
167.46577272737699
 31
0.0
  0
LINE
  5
BFD0
  8
AM_0
 10
220.41675590895289
 20
165.4657727273769
 30
0.0
 11
160.59674590895281
 21
165.4657727273769
 31
0.0
  0
LINE
  5
BFD1
  8
AM_0
 10
160.59674590895281
 20
164.73579272737689
 30
0.0
 11
220.41675590895289
 21
164.73579272737689
 31
0.0
  0
LINE
  5
BFD2
  8
AM_0
 10
126.5967459089529
 20
155.1257727273769
 30
0.0
 11
220.41675590895289
 21
155.1257727273769
 31
0.0
  0
LINE
  5
BFD3
  8
AM_0
 10
160.59674590895281
 20
263.32570272737701
 30
0.0
 11
220.41675590895289
 21
263.32570272737701
 31
0.0
  0
LINE
  5
BFD4
  8
AM_0
 10
160.59674590895281
 20
238.19569272737701
 30
0.0
 11
220.41675590895289
 21
238.19569272737701
 31
0.0
  0
LINE
  5
BFD5
  8
AM_0
 10
126.5967459089529
 20
247.80571272737711
 30
0.0
 11
220.41675590895289
 21
247.80571272737711
 31
0.0
  0
LINE
  5
BFD6
  8
AM_0
 10
189.1077001957801
 20
175.46571272737691
 30
0.0
 11
97.146765908952645
 21
175.46571272737691
 31
0.0
  0
LINE
  5
BFD7
  8
AM_0
 10
189.09674590895281
 20
227.465712727377
 30
0.0
 11
88.146765908952773
 21
227.465712727377
 31
0.0
  0
LINE
  5
BFD8
  8
AM_0
 10
223.52153199547811
 20
177.465712727377
 30
0.0
 11
97.146765908952645
 21
177.465712727377
 31
0.0
  0
LINE
  5
BFD9
  8
AM_0
 10
96.056765908952855
 20
174.9756927273769
 30
0.0
 11
189.95696773708789
 21
174.9756927273769
 31
0.0
  0
LINE
  5
BFDA
  8
AM_0
 10
96.056765908952855
 20
177.90571272737691
 30
0.0
 11
224.61153194311811
 21
177.90571272737691
 31
0.0
  0
LINE
  5
BFDB
  8
AM_0
 10
223.52153199547811
 20
225.465712727377
 30
0.0
 11
88.146765908952773
 21
225.465712727377
 31
0.0
  0
LINE
  5
BFDC
  8
AM_0
 10
87.056765908952784
 20
225.03569272737701
 30
0.0
 11
224.4415020575087
 21
225.03569272737701
 31
0.0
  0
LINE
  5
BFDD
  8
AM_0
 10
87.056765908952784
 20
227.95570272737709
 30
0.0
 11
189.9569143807652
 21
227.95570272737709
 31
0.0
  0
LINE
  5
BFDE
  8
AM_0
 10
105.596745908953
 20
265.34570272737699
 30
0.0
 11
220.3965160356565
 21
265.34570272737699
 31
0.0
  0
LINE
  5
BFDF
  8
AM_0
 10
105.596745908953
 20
266.705702727377
 30
0.0
 11
220.3965160356565
 21
266.705702727377
 31
0.0
  0
LINE
  5
BFE0
  8
AM_0
 10
105.596745908953
 20
267.36570272737703
 30
0.0
 11
220.3965160356565
 21
267.36570272737703
 31
0.0
  0
LINE
  5
BFE2
  8
ﾁｭｳｼﾝｾﾝ1
 10
65.852845908952872
 20
201.4657427273772
 30
0.0
 11
451.3467815525313
 21
201.46574272737701
 31
0.0
  0
ARC
  5
BFE4
  8
AM_0
 10
96.276765908952754
 20
166.42070272737701
 30
0.0
 40
1.6750062999999991
 50
90.0
 51
269.99999700000228
  0
ARC
  5
BFE5
  8
AM_0
 10
97.146765908952645
 20
166.465712727377
 30
0.0
 40
1.0000031999999981
 50
90.0
 51
269.99999700000228
  0
ARC
  5
BFE6
  8
AM_0
 10
104.5967459089527
 20
166.465712727377
 30
0.0
 40
1.0000031999999981
 50
90.0
 51
269.99999700000228
  0
LINE
  5
BFE7
  8
AM_0
 10
90.596745908952869
 20
153.115702727377
 30
0.0
 11
90.596745908952869
 21
167.15571272737691
 31
0.0
  0
LINE
  5
BFE8
  8
AM_0
 10
74.59674590895294
 20
153.44609272737699
 30
0.0
 11
74.59674590895294
 21
196.465712727377
 31
0.0
  0
LINE
  5
BFE9
  8
AM_0
 10
80.596745908952869
 20
258.88569272737698
 30
0.0
 11
80.596745908952869
 21
144.03569272737701
 31
0.0
  0
LINE
  5
BFEE
  8
AM_0
 10
88.736755908952858
 20
139.79570272737701
 30
0.0
 11
102.0967459089529
 21
139.79570272737701
 31
0.0
  0
LINE
  5
BFEF
  8
AM_0
 10
88.706755908952928
 20
138.16569272737689
 30
0.0
 11
102.2067559089529
 21
138.16569272737689
 31
0.0
  0
LINE
  5
BFF0
  8
AM_0
 10
88.766755908952916
 20
143.19569272737709
 30
0.0
 11
102.0967459089529
 21
143.19569272737709
 31
0.0
  0
LINE
  5
BFF1
  8
AM_0
 10
88.826755908952734
 20
148.485702727377
 30
0.0
 11
102.0967459089529
 21
148.485702727377
 31
0.0
  0
LINE
  5
BFF2
  8
AM_0
 10
96.276765908952754
 20
164.74571272737711
 30
0.0
 11
160.59674590895281
 21
164.74571272737711
 31
0.0
  0
LINE
  5
BFF3
  8
AM_0
 10
127.5967459089528
 20
155.115702727377
 30
0.0
 11
90.596745908952869
 21
157.2617045668072
 31
0.0
  0
ARC
  5
C001
  8
AM_0
 10
75.598485908952853
 20
160.20833272737701
 30
0.0
 40
1.0017338999999981
 50
180.14953999999739
 51
237.2623699999958
  0
ARC
  5
C002
  8
AM_0
 10
75.601745908952751
 20
156.63673272737699
 30
0.0
 40
1.0050607999999981
 50
180.62839999999889
 51
242.44118999999611
  0
ARC
  5
C003
  8
AM_0
 10
75.603915908952786
 20
153.455882727377
 30
0.0
 40
1.007194199999998
 50
179.44232
 51
239.76658000000239
  0
ARC
  5
C004
  8
AM_0
 10
75.599795908952956
 20
154.5056027273769
 30
0.0
 40
1.003051899999998
 50
179.99423000000229
 51
243.7873499999954
  0
ARC
  5
C005
  8
AM_0
 10
75.595735908952861
 20
155.61116272737709
 30
0.0
 40
0.9989832599999996
 50
180.3123899999988
 51
240.03463999999721
  0
ARC
  5
C006
  8
AM_0
 10
75.602295908952783
 20
161.23497272737691
 30
0.0
 40
1.005592899999999
 50
180.5283799999988
 51
239.81867000000071
  0
LINE
  5
C007
  8
AM_0
 10
86.816775908952948
 20
144.77571272737711
 30
0.0
 11
85.856755908952749
 21
149.24571272737711
 31
0.0
  0
LINE
  5
C008
  8
AM_0
 10
86.786775908952905
 20
141.335712727377
 30
0.0
 11
85.8667659089528
 21
145.215712727377
 31
0.0
  0
ARC
  5
C009
  8
AM_0
 10
84.42505590895297
 20
142.83860272737701
 30
0.0
 40
1.507096899999999
 50
14.09782000000339
 51
89.935180000004806
  0
LINE
  5
C00A
  8
AM_0
 10
84.426755908952941
 20
144.34572272737699
 30
0.0
 11
86.076755908952947
 21
144.34572272737699
 31
0.0
  0
LINE
  5
C00B
  8
AM_0
 10
86.766785908952954
 20
139.675702727377
 30
0.0
 11
85.886785908952845
 21
143.205702727377
 31
0.0
  0
LINE
  5
C00C
  8
AM_0
 10
80.596745908952869
 20
144.08532502952079
 30
0.0
 11
85.416755908952865
 21
143.965712727377
 31
0.0
  0
ARC
  5
C00D
  8
AM_0
 10
88.704075908952859
 20
140.16350272737699
 30
0.0
 40
1.9977811999999979
 50
194.13223000000309
 51
270.07691900000231
  0
ARC
  5
C00E
  8
AM_0
 10
88.768435908952938
 20
145.19108272737699
 30
0.0
 40
1.995389499999999
 50
192.01538000000019
 51
269.9519330000021
  0
ARC
  5
C00F
  8
AM_0
 10
88.729555908952847
 20
141.79118272737699
 30
0.0
 40
1.995482299999999
 50
193.19407999999811
 51
270.20654200000092
  0
LINE
  5
C010
  8
AM_0
 10
80.596745908952869
 20
158.775712727377
 30
0.0
 11
90.596745908952869
 21
158.775712727377
 31
0.0
  0
LINE
  5
C011
  8
AM_0
 10
80.596745908952869
 20
153.115702727377
 30
0.0
 11
90.596745908952869
 21
153.115702727377
 31
0.0
  0
LINE
  5
C012
  8
AM_0
 10
84.38675590895275
 20
150.42570272737709
 30
0.0
 11
86.806765908952897
 21
150.42570272737709
 31
0.0
  0
ARC
  5
C013
  8
AM_0
 10
84.38797590895291
 20
148.92155272737699
 30
0.0
 40
1.504139799999999
 50
12.444749999997031
 51
90.045750000001433
  0
ARC
  5
C014
  8
AM_0
 10
84.405945908952901
 20
144.8629027273771
 30
0.0
 40
1.5028080999999991
 50
13.577820000002021
 51
89.969210000004949
  0
LINE
  5
C015
  8
AM_0
 10
84.406775908952895
 20
146.365702727377
 30
0.0
 11
86.466765908952794
 21
146.365702727377
 31
0.0
  0
LINE
  5
C016
  8
AM_0
 10
76.376775908952808
 20
159.62571272737691
 30
0.0
 11
75.096775908952793
 21
160.36574272737701
 31
0.0
  0
LINE
  5
C017
  8
AM_0
 10
76.876745908952842
 20
159.485702727377
 30
0.0
 11
79.59674590895294
 21
159.485702727377
 31
0.0
  0
LINE
  5
C018
  8
AM_0
 10
76.856755908952891
 20
154.965712727377
 30
0.0
 11
79.59674590895294
 21
154.965712727377
 31
0.0
  0
LINE
  5
C019
  8
AM_0
 10
76.376775908952808
 20
151.865702727377
 30
0.0
 11
75.096775908952793
 21
152.585712727377
 31
0.0
  0
LINE
  5
C01A
  8
AM_0
 10
76.376745908952714
 20
153.96568272737699
 30
0.0
 11
75.096745908952855
 21
154.74568272737699
 31
0.0
  0
LINE
  5
C01B
  8
AM_0
 10
76.356755908952778
 20
158.50569272737701
 30
0.0
 11
75.056735908952874
 21
159.3656727273769
 31
0.0
  0
LINE
  5
C01C
  8
AM_0
 10
76.396765908952659
 20
152.9857027273768
 30
0.0
 11
75.156745908952871
 21
153.60569272737689
 31
0.0
  0
LINE
  5
C01D
  8
AM_0
 10
76.376745908952714
 20
155.085712727377
 30
0.0
 11
75.136755908952921
 21
155.7456827273769
 31
0.0
  0
ARC
  5
C01E
  8
AM_0
 10
76.902405908952844
 20
159.35600272737699
 30
0.0
 40
1.0103179999999981
 50
237.31141999999929
 51
269.67986000000519
  0
ARC
  5
C01F
  8
AM_0
 10
76.889005908952754
 20
160.49235272737701
 30
0.0
 40
1.0067359999999981
 50
239.41356999999849
 51
269.30193900000148
  0
LINE
  5
C020
  8
AM_0
 10
76.596745908952926
 20
158.64570272737711
 30
0.0
 11
76.596745908952926
 21
159.12571272737691
 31
0.0
  0
ARC
  5
C021
  8
AM_0
 10
76.887635908952802
 20
152.72746272737709
 30
0.0
 40
1.001807999999998
 50
239.33833000000109
 51
269.37718000000262
  0
ARC
  5
C022
  8
AM_0
 10
76.874335908952844
 20
153.87013272737701
 30
0.0
 40
1.005138299999998
 50
241.63205999999801
 51
267.8577090000025
  0
ARC
  5
C023
  8
AM_0
 10
76.890265908952813
 20
154.83680272737701
 30
0.0
 40
1.0112084999999991
 50
239.4811900000019
 51
269.2343130000009
  0
ARC
  5
C024
  8
AM_0
 10
76.855045908952945
 20
155.978892727377
 30
0.0
 40
1.0131911999999981
 50
241.8312399999993
 51
270.09627600000113
  0
LINE
  5
C025
  8
AM_0
 10
76.596745908952926
 20
154.085712727377
 30
0.0
 11
76.596745908952926
 21
154.62571272737711
 31
0.0
  0
LINE
  5
C026
  8
AM_0
 10
76.596745908952926
 20
151.985702727377
 30
0.0
 11
76.596745908952926
 21
152.5056927273771
 31
0.0
  0
LINE
  5
C027
  8
AM_0
 10
76.896765908952773
 20
158.34572272737691
 30
0.0
 11
80.596745908952869
 21
158.34572272737691
 31
0.0
  0
LINE
  5
C028
  8
AM_0
 10
76.836765908952771
 20
152.86570272737711
 30
0.0
 11
80.096745908952784
 21
152.86570272737711
 31
0.0
  0
LINE
  5
C029
  8
AM_0
 10
76.876745908952842
 20
153.82570272737701
 30
0.0
 11
80.596745908952869
 21
153.82570272737701
 31
0.0
  0
LINE
  5
C02A
  8
AM_0
 10
76.876745908952842
 20
151.7256927273769
 30
0.0
 11
80.096745908952784
 21
151.7256927273769
 31
0.0
  0
ARC
  5
C02B
  8
AM_0
 10
79.589695908952947
 20
155.97276272737699
 30
0.0
 40
1.0070831999999981
 50
270.40157799999861
 51
359.59842201999908
  0
ARC
  5
C02C
  8
AM_0
 10
79.591345908952917
 20
160.4911027273769
 30
0.0
 40
1.005422699999998
 50
270.30818900000043
 51
359.69180761999792
  0
ARC
  5
C02D
  8
AM_0
 10
93.746661908305953
 20
160.2555427273771
 30
0.0
 40
1.0041366999999981
 50
314.20256399999698
 51
5.1511600000042383
  0
ARC
  5
C02E
  8
AM_0
 10
88.818605908952861
 20
150.4791127273771
 30
0.0
 40
1.9934333999999989
 50
190.21196999999981
 51
270.23411600000071
  0
LINE
  5
C02F
  8
AM_0
 10
86.316775908952806
 20
153.1156727273769
 30
0.0
 11
86.856785908952801
 21
150.12568272737701
 31
0.0
  0
ARC
  5
C030
  8
AM_0
 10
89.761711908305983
 20
159.86793272737711
 30
0.0
 40
5.0078935999999974
 50
5.4746799999994851
 51
80.401279999998735
  0
ARC
  5
C031
  8
AM_0
 10
90.217941908305932
 20
163.797652727377
 30
0.0
 40
6.0039071999999978
 50
273.6172860000043
 51
314.77630699999719
  0
ARC
  5
C037
  8
AM_0
 10
141.0967459089525
 20
116.96574272737691
 30
0.0
 40
3.9999999999999978
 50
180.0
 51
0.0
  0
LINE
  5
C038
  8
AM_0
 10
142.09674590895261
 20
108.46574272737701
 30
0.0
 11
140.09674590895261
 21
108.46574272737701
 31
0.0
  0
ARC
  5
C039
  8
AM_0
 10
141.0967459089525
 20
116.96574272737691
 30
0.0
 40
7.5000000000000018
 50
180.0
 51
0.0
  0
LINE
  5
C03A
  8
AM_0
 10
105.596745908953
 20
135.54570272737689
 30
0.0
 11
146.5967459089527
 21
135.54570272737681
 31
0.0
  0
LINE
  5
C03B
  8
AM_0
 10
105.596745908953
 20
136.2256927273769
 30
0.0
 11
146.5967459089527
 21
136.2256927273769
 31
0.0
  0
LINE
  5
C03C
  8
AM_0
 10
105.596745908953
 20
137.57570272737701
 30
0.0
 11
146.5967459089527
 21
137.57570272737701
 31
0.0
  0
LINE
  5
C03D
  8
AM_0
 10
105.596745908953
 20
139.605692727377
 30
0.0
 11
160.59674590895281
 21
139.605692727377
 31
0.0
  0
LINE
  5
C03F
  8
AM_0
 10
160.59674590895281
 20
165.465712727377
 30
0.0
 11
97.146765908952645
 21
165.465712727377
 31
0.0
  0
LINE
  5
C040
  8
AM_0
 10
128.09674590895261
 20
127.96574272737691
 30
0.0
 11
128.09674590895261
 21
108.46574272737701
 31
0.0
  0
ARC
  5
C042
  8
AM_0
 10
130.59674590895261
 20
105.46574272737701
 30
0.0
 40
1.0
 50
180.0
 51
270.0
  0
LINE
  5
C043
  8
AM_0
 10
128.09674590895261
 20
120.96574272737701
 30
0.0
 11
131.59674590895261
 21
120.96574272737701
 31
0.0
  0
LINE
  5
C045
  8
AM_0
 10
128.09674590895261
 20
108.46574272737701
 30
0.0
 11
129.59674590895261
 21
108.46574272737701
 31
0.0
  0
LINE
  5
C046
  8
AM_0
 10
129.59674590895261
 20
120.96574272737701
 30
0.0
 11
129.59674590895261
 21
105.46574272737701
 31
0.0
  0
LINE
  5
C047
  8
AM_0
 10
137.0967459089525
 20
124.46574272737691
 30
0.0
 11
137.0967459089525
 21
116.96574272737691
 31
0.0
  0
LINE
  5
C048
  8
AM_0
 10
133.5967459089525
 20
124.46574272737691
 30
0.0
 11
133.5967459089525
 21
116.96574272737691
 31
0.0
  0
LINE
  5
C049
  8
AM_0
 10
132.59674590895261
 20
119.96574272737701
 30
0.0
 11
132.59674590895261
 21
115.96574272737701
 31
0.0
  0
ARC
  5
C04A
  8
AM_0
 10
131.59674590895261
 20
119.96574272737701
 30
0.0
 40
1.0
 50
0.0
 51
90.0
  0
ARC
  5
C04B
  8
AM_0
 10
140.09674590895261
 20
115.96574272737701
 30
0.0
 40
7.499999999999992
 50
180.0
 51
270.0
  0
LINE
  5
C04C
  8
AM_0
 10
103.5967459089528
 20
139.57570272737709
 30
0.0
 11
103.5967459089528
 21
146.985702727377
 31
0.0
  0
ARC
  5
C04D
  8
AM_0
 10
102.2103959089528
 20
136.65883272737699
 30
0.0
 40
1.5068882999999991
 50
14.876929999998371
 51
90.137770000000501
  0
ARC
  5
C04E
  8
AM_0
 10
105.5939659089528
 20
139.57292272737701
 30
0.0
 40
1.9972083999999981
 50
179.91986000000111
 51
270.08014299999962
  0
ARC
  5
C04F
  8
AM_0
 10
105.59924590895289
 20
137.5405427273771
 30
0.0
 40
1.994845199999999
 50
194.3627999999992
 51
269.92834199999561
  0
ARC
  5
C050
  8
AM_0
 10
105.59131590895269
 20
138.22026272737699
 30
0.0
 40
1.9945768999999991
 50
179.84400999999721
 51
270.15599200000003
  0
ARC
  5
C051
  8
AM_0
 10
102.0949759089529
 20
141.693892727377
 30
0.0
 40
1.5017978999999979
 50
0.0685499999989591
 51
89.931450000001036
  0
ARC
  5
C052
  8
AM_0
 10
102.09292590895269
 20
138.29185272737701
 30
0.0
 40
1.5038474999999989
 50
0.1463999999964968
 51
89.85360000000351
  0
ARC
  5
C053
  8
AM_0
 10
105.59314590895281
 20
141.602092727377
 30
0.0
 40
1.9963852999999989
 50
179.89615999999739
 51
270.103837
  0
ARC
  5
C054
  8
AM_0
 10
102.09109590895299
 20
146.98002272737699
 30
0.0
 40
1.5056744999999989
 50
0.2155299999989793
 51
89.784480000001125
  0
LINE
  5
C056
  8
AM_0
 10
158.7927459089527
 20
101.46574272737701
 30
0.0
 11
153.60397039874951
 21
104.46574272737691
 31
0.0
  0
LINE
  5
C057
  8
AM_0
 10
148.5967459089525
 20
116.96574272737691
 30
0.0
 11
148.5967459089525
 21
124.46574272737691
 31
0.0
  0
LINE
  5
C058
  8
AM_0
 10
149.5967459089525
 20
115.96574272737701
 30
0.0
 11
149.5967459089525
 21
119.96574272737701
 31
0.0
  0
ARC
  5
C059
  8
AM_0
 10
150.59674590895261
 20
119.96574272737701
 30
0.0
 40
1.0
 50
90.0
 51
180.0
  0
LINE
  5
C05A
  8
AM_0
 10
145.09674590895261
 20
124.46574272737691
 30
0.0
 11
145.09674590895261
 21
116.96574272737691
 31
0.0
  0
ARC
  5
C05B
  8
AM_0
 10
142.09674590895261
 20
115.96574272737701
 30
0.0
 40
7.4999999999999956
 50
270.0
 51
0.0
  0
LINE
  5
C05C
  8
AM_0
 10
146.59674590895281
 20
127.96574272737671
 30
0.0
 11
146.5967459089527
 21
139.60578272737661
 31
0.0
  0
ARC
  5
C05E
  8
AM_0
 10
97.146765908952645
 20
176.465712727377
 30
0.0
 40
1.0000031999999981
 50
90.0
 51
269.99999700000228
  0
LINE
  5
C05F
  8
AM_0
 10
88.776765908952754
 20
259.72571272737702
 30
0.0
 11
102.0967459089529
 21
259.72571272737702
 31
0.0
  0
LINE
  5
C060
  8
AM_0
 10
88.836765908952771
 20
254.4457127273769
 30
0.0
 11
102.0967459089529
 21
254.4457127273769
 31
0.0
  0
LINE
  5
C061
  8
AM_0
 10
88.716765908952937
 20
264.765702727377
 30
0.0
 11
102.21676590895289
 21
264.765702727377
 31
0.0
  0
LINE
  5
C062
  8
AM_0
 10
88.736755908952858
 20
263.1257027273769
 30
0.0
 11
102.0967459089529
 21
263.1257027273769
 31
0.0
  0
LINE
  5
C063
  8
AM_0
 10
88.15675838985328
 20
235.46571276846311
 30
0.0
 11
160.59674590895281
 21
235.46571276846311
 31
0.0
  0
LINE
  5
C064
  8
AM_0
 10
86.856755908952891
 20
205.205702727377
 30
0.0
 11
159.32677257866851
 21
205.205702727377
 31
0.0
  0
LINE
  5
C065
  8
AM_0
 10
158.03677810339931
 20
205.465712727377
 30
0.0
 11
88.146765908952773
 21
205.465712727377
 31
0.0
  0
LINE
  5
C066
  8
AM_0
 10
158.03677810339931
 20
207.465712727377
 30
0.0
 11
88.146765908952773
 21
207.465712727377
 31
0.0
  0
LINE
  5
C067
  8
AM_0
 10
86.856755908952891
 20
207.745712727377
 30
0.0
 11
159.32677257866851
 21
207.745712727377
 31
0.0
  0
LINE
  5
C068
  8
AM_0
 10
86.926755908952771
 20
215.15571272737691
 30
0.0
 11
159.32677257866851
 21
215.15571272737691
 31
0.0
  0
LINE
  5
C069
  8
AM_0
 10
158.03677810339931
 20
215.465712727377
 30
0.0
 11
88.146765908952773
 21
215.465712727377
 31
0.0
  0
LINE
  5
C06A
  8
AM_0
 10
126.5967459089529
 20
247.80571272737711
 30
0.0
 11
90.596745908952869
 21
246.15297244554739
 31
0.0
  0
LINE
  5
C06B
  8
AM_0
 10
87.266755908952859
 20
234.83571272737689
 30
0.0
 11
160.59674590895281
 21
234.83571272737689
 31
0.0
  0
LINE
  5
C06C
  8
AM_0
 10
158.03677810339931
 20
217.465712727377
 30
0.0
 11
88.146765908952773
 21
217.465712727377
 31
0.0
  0
LINE
  5
C06D
  8
AM_0
 10
86.926755908952771
 20
217.81569272737701
 30
0.0
 11
159.32677257866851
 21
217.81569272737701
 31
0.0
  0
LINE
  5
C06E
  8
AM_0
 10
87.266755908952859
 20
238.19569272737701
 30
0.0
 11
160.59674590895281
 21
238.19569272737701
 31
0.0
  0
LINE
  5
C06F
  8
AM_0
 10
160.59674590895281
 20
237.465712727377
 30
0.0
 11
88.146765908952773
 21
237.465712727377
 31
0.0
  0
LINE
  5
C070
  8
AM_0
 10
158.03850585256569
 20
185.46571272737691
 30
0.0
 11
88.156775908952895
 21
185.46571272737691
 31
0.0
  0
LINE
  5
C071
  8
AM_0
 10
158.03942935233229
 20
187.465712727377
 30
0.0
 11
88.156775908952895
 21
187.465712727377
 31
0.0
  0
LINE
  5
C072
  8
AM_0
 10
158.03677469796281
 20
195.46571272737691
 30
0.0
 11
88.156775908952895
 21
195.46571272737691
 31
0.0
  0
LINE
  5
C073
  8
AM_0
 10
158.03677469796131
 20
197.465712727377
 30
0.0
 11
88.156775908952895
 21
197.465712727377
 31
0.0
  0
LINE
  5
C074
  8
AM_0
 10
96.276765908952754
 20
168.09572272737699
 30
0.0
 11
160.59674590895281
 21
168.09572272737699
 31
0.0
  0
LINE
  5
C075
  8
AM_0
 10
86.926755908952771
 20
185.12571272737699
 30
0.0
 11
159.13195917648969
 21
185.12571272737699
 31
0.0
  0
LINE
  5
C076
  8
AM_0
 10
86.926755908952771
 20
187.78569272737701
 30
0.0
 11
159.13195917648969
 21
187.78569272737701
 31
0.0
  0
LINE
  5
C077
  8
AM_0
 10
86.866765908952928
 20
195.19569272737701
 30
0.0
 11
159.13195917648969
 21
195.19569272737701
 31
0.0
  0
LINE
  5
C078
  8
AM_0
 10
86.866765908952928
 20
197.72569272737701
 30
0.0
 11
159.13195917648969
 21
197.72569272737701
 31
0.0
  0
LINE
  5
C07A
  8
AM_0
 10
76.376775908952808
 20
247.84572272737691
 30
0.0
 11
75.136755908952921
 21
247.18568272737701
 31
0.0
  0
ARC
  5
C07B
  8
AM_0
 10
79.589695908952947
 20
246.95863272737699
 30
0.0
 40
1.0070831999999981
 50
0.4015799999984364
 51
89.598420000001553
  0
LINE
  5
C07C
  8
AM_0
 10
90.596745908952869
 20
249.80571272737691
 30
0.0
 11
90.596745908952869
 21
238.19569272737701
 31
0.0
  0
LINE
  5
C07D
  8
AM_0
 10
74.59674590895294
 20
249.48530272737699
 30
0.0
 11
74.59674590895294
 21
206.46571272737711
 31
0.0
  0
ARC
  5
C082
  8
AM_0
 10
86.866885908952909
 20
206.455702727377
 30
0.0
 40
1.270038399999998
 50
89.554810000000813
 51
270.44518900000008
  0
ARC
  5
C083
  8
AM_0
 10
88.156775908952895
 20
206.46571272737711
 30
0.0
 40
1.000012399999999
 50
90.0
 51
269.99999700000228
  0
ARC
  5
C084
  8
AM_0
 10
75.5889659089529
 20
206.45790272737699
 30
0.0
 40
0.9922232599999995
 50
179.54914999999909
 51
270.45084500000189
  0
LINE
  5
C085
  8
AM_0
 10
76.596745908952926
 20
207.06569272737701
 30
0.0
 11
76.596745908952926
 21
205.90571272737711
 31
0.0
  0
LINE
  5
C086
  8
AM_0
 10
72.102845908952872
 20
186.243852727377
 30
0.0
 11
72.102845908952872
 21
216.68748272737699
 31
0.0
  0
LINE
  5
C087
  8
AM_0
 10
73.096745908952869
 20
221.465712727377
 30
0.0
 11
73.096745908952869
 21
181.465712727377
 31
0.0
  0
ARC
  5
C088
  8
AM_0
 10
75.60583590895294
 20
176.47480272737701
 30
0.0
 40
1.009131199999999
 50
180.51612999999961
 51
269.48387399999899
  0
ARC
  5
C089
  8
AM_0
 10
75.5889659089529
 20
176.47352272737689
 30
0.0
 40
0.9922232599999995
 50
89.549149999999116
 51
180.4508400000029
  0
ARC
  5
C08A
  8
AM_0
 10
75.601195908952832
 20
169.08903272737689
 30
0.0
 40
1.004450099999999
 50
180.1901499999997
 51
253.54964999999649
  0
ARC
  5
C08B
  8
AM_0
 10
75.596285908952893
 20
167.31038272737689
 30
0.0
 40
0.9995326999999996
 50
180.26813000000021
 51
247.68494999999621
  0
ARC
  5
C08C
  8
AM_0
 10
75.60583590895294
 20
196.47480272737701
 30
0.0
 40
1.009131199999999
 50
180.51612999999961
 51
269.48387399999899
  0
ARC
  5
C08D
  8
AM_0
 10
75.5889659089529
 20
196.47352272737689
 30
0.0
 40
0.9922232599999995
 50
89.549149999999116
 51
180.4508400000029
  0
ARC
  5
C08E
  8
AM_0
 10
75.60583590895294
 20
186.4748027273769
 30
0.0
 40
1.009131199999999
 50
180.51612999999961
 51
269.48387399999899
  0
ARC
  5
C08F
  8
AM_0
 10
75.5889659089529
 20
186.47352272737709
 30
0.0
 40
0.9922232599999995
 50
89.549149999999116
 51
180.4508400000029
  0
LINE
  5
C090
  8
AM_0
 10
72.102845908952872
 20
186.24388272737701
 30
0.0
 11
72.602845908952986
 21
183.47389272737681
 31
0.0
  0
LINE
  5
C091
  8
AM_0
 10
73.096745908952869
 20
181.46568272737699
 30
0.0
 11
74.59674590895294
 21
181.34568272737701
 31
0.0
  0
LINE
  5
C092
  8
AM_0
 10
72.602845908952986
 20
183.47389272737681
 30
0.0
 11
73.102875908952853
 21
183.513902727377
 31
0.0
  0
POINT
  5
C093
  8
AM_0
 10
72.102845908952986
 20
201.46571272737711
 30
0.0
  0
ARC
  5
C094
  8
AM_0
 10
88.148045908952966
 20
186.46571272737691
 30
0.0
 40
1.000037999999998
 50
89.500710000004887
 51
270.49928399999988
  0
ARC
  5
C095
  8
AM_0
 10
86.926755908952771
 20
186.455702727377
 30
0.0
 40
1.330000999999998
 50
90.0
 51
269.99999700000228
  0
LINE
  5
C096
  8
AM_0
 10
76.596745908952926
 20
185.865702727377
 30
0.0
 11
76.596745908952926
 21
187.085712727377
 31
0.0
  0
LINE
  5
C097
  8
AM_0
 10
80.596745908952869
 20
167.15571272737691
 30
0.0
 11
90.596745908952869
 21
167.15571272737691
 31
0.0
  0
LINE
  5
C098
  8
AM_0
 10
79.59674590895294
 20
175.46571272737691
 30
0.0
 11
75.596745908952869
 21
175.46571272737691
 31
0.0
  0
LINE
  5
C099
  8
AM_0
 10
79.59674590895294
 20
177.465712727377
 30
0.0
 11
75.596745908952869
 21
177.465712727377
 31
0.0
  0
LINE
  5
C09A
  8
AM_0
 10
76.596745908952926
 20
175.84572272737691
 30
0.0
 11
76.596745908952926
 21
177.205702727377
 31
0.0
  0
LINE
  5
C09B
  8
AM_0
 10
76.816745908952825
 20
165.7856927273769
 30
0.0
 11
79.896765908952702
 21
165.7856927273769
 31
0.0
  0
LINE
  5
C09C
  8
AM_0
 10
76.756745908952723
 20
167.72569272737701
 30
0.0
 11
79.59674590895294
 21
167.72569272737701
 31
0.0
  0
LINE
  5
C09D
  8
AM_0
 10
76.416755908952894
 20
165.86570272737691
 30
0.0
 11
75.216765908952709
 21
166.38569272737701
 31
0.0
  0
LINE
  5
C09E
  8
AM_0
 10
76.4567559089528
 20
167.765702727377
 30
0.0
 11
75.316745908952953
 21
168.1256827273769
 31
0.0
  0
ARC
  5
C09F
  8
AM_0
 10
76.809995908952814
 20
166.791912727377
 30
0.0
 40
1.0062370999999981
 50
246.99538000000081
 51
270.38475599999748
  0
ARC
  5
C0A0
  8
AM_0
 10
76.739415908952807
 20
168.740702727377
 30
0.0
 40
1.015145099999998
 50
253.8323300000007
 51
270.97838100000092
  0
LINE
  5
C0A1
  8
AM_0
 10
76.596745908952926
 20
166.08571272737689
 30
0.0
 11
76.596745908952926
 21
167.145702727377
 31
0.0
  0
ARC
  5
C0A2
  8
AM_0
 10
79.605775908952964
 20
174.47474272737691
 30
0.0
 40
0.9910124499999998
 50
359.47799761999983
 51
90.521999999995685
  0
ARC
  5
C0A3
  8
AM_0
 10
79.58886590895294
 20
178.47358272737691
 30
0.0
 40
1.0079203999999991
 50
270.44848800000472
 51
359.55151003999867
  0
ARC
  5
C0A4
  8
AM_0
 10
79.590455908952705
 20
168.732012727377
 30
0.0
 40
1.0063294999999981
 50
270.35925199999912
 51
359.64074624000273
  0
LINE
  5
C0A5
  8
AM_0
 10
79.59674590895294
 20
185.46571272737691
 30
0.0
 11
75.596745908952869
 21
185.46571272737691
 31
0.0
  0
ARC
  5
C0A6
  8
AM_0
 10
79.605775908952964
 20
184.47474272737691
 30
0.0
 40
0.9910124499999998
 50
359.47799761999983
 51
90.521999999995685
  0
ARC
  5
C0A7
  8
AM_0
 10
96.056765908952855
 20
176.44069272737701
 30
0.0
 40
1.465000399999999
 50
90.0
 51
269.99999700000228
  0
ARC
  5
C0A8
  8
AM_0
 10
86.866765908952928
 20
196.460712727377
 30
0.0
 40
1.265004999999999
 50
90.0
 51
269.99999700000228
  0
LINE
  5
C0A9
  8
AM_0
 10
79.59674590895294
 20
197.465712727377
 30
0.0
 11
75.596745908952869
 21
197.465712727377
 31
0.0
  0
LINE
  5
C0AA
  8
AM_0
 10
79.59674590895294
 20
195.46571272737691
 30
0.0
 11
75.596745908952869
 21
195.46571272737691
 31
0.0
  0
LINE
  5
C0AB
  8
AM_0
 10
76.596745908952926
 20
195.86570272737691
 30
0.0
 11
76.596745908952926
 21
197.025712727377
 31
0.0
  0
LINE
  5
C0AC
  8
AM_0
 10
79.59674590895294
 20
187.465712727377
 30
0.0
 11
75.596745908952869
 21
187.465712727377
 31
0.0
  0
ARC
  5
C0AD
  8
AM_0
 10
79.58886590895294
 20
198.47358272737691
 30
0.0
 40
1.0079203999999991
 50
270.44848800000472
 51
359.55151003999867
  0
ARC
  5
C0AE
  8
AM_0
 10
79.605775908952964
 20
194.47474272737691
 30
0.0
 40
0.9910124499999998
 50
359.47799761999983
 51
90.521999999995685
  0
ARC
  5
C0AF
  8
AM_0
 10
79.58886590895294
 20
188.47358272737699
 30
0.0
 40
1.0079203999999991
 50
270.44848800000472
 51
359.55151003999867
  0
LINE
  5
C0B0
  8
AM_0
 10
79.59674590895294
 20
205.465712727377
 30
0.0
 11
75.596745908952869
 21
205.465712727377
 31
0.0
  0
ARC
  5
C0B1
  8
AM_0
 10
79.58886590895294
 20
204.4578127273771
 30
0.0
 40
1.0079203999999991
 50
0.4484899999971498
 51
89.551510000002835
  0
ARC
  5
C0B2
  8
AM_0
 10
88.148045908952966
 20
196.465712727377
 30
0.0
 40
1.000037999999998
 50
89.500710000004887
 51
270.49928399999988
  0
ARC
  5
C0B3
  8
AM_0
 10
75.5889659089529
 20
216.45790272737699
 30
0.0
 40
0.9922232599999995
 50
179.54914999999909
 51
270.45084500000189
  0
ARC
  5
C0B4
  8
AM_0
 10
75.60583590895294
 20
216.45662272737701
 30
0.0
 40
1.009131199999999
 50
90.516129999999578
 51
179.48387000000039
  0
ARC
  5
C0B5
  8
AM_0
 10
75.60583590895294
 20
206.45662272737701
 30
0.0
 40
1.009131199999999
 50
90.516129999999578
 51
179.48387000000039
  0
ARC
  5
C0B6
  8
AM_0
 10
75.596285908952893
 20
235.62101272737709
 30
0.0
 40
0.9995326999999996
 50
112.31505000000379
 51
179.73186999999979
  0
ARC
  5
C0B7
  8
AM_0
 10
75.5889659089529
 20
226.45790272737699
 30
0.0
 40
0.9922232599999995
 50
179.54914999999909
 51
270.45084500000189
  0
ARC
  5
C0B8
  8
AM_0
 10
75.60583590895294
 20
226.45662272737701
 30
0.0
 40
1.009131199999999
 50
90.516129999999578
 51
179.48387000000039
  0
ARC
  5
C0B9
  8
AM_0
 10
75.601195908952832
 20
233.84236272737701
 30
0.0
 40
1.004450099999999
 50
106.4503500000035
 51
179.8098500000001
  0
ARC
  5
C0BA
  8
AM_0
 10
75.601745908952751
 20
246.294692727377
 30
0.0
 40
1.0050607999999981
 50
117.5588100000039
 51
179.371600000001
  0
ARC
  5
C0BB
  8
AM_0
 10
75.598485908952853
 20
242.72310272737701
 30
0.0
 40
1.0017338999999981
 50
122.737629999996
 51
179.85046000000261
  0
ARC
  5
C0BC
  8
AM_0
 10
75.602295908952783
 20
241.6964227273769
 30
0.0
 40
1.005592899999999
 50
120.18132999999931
 51
179.47162000000111
  0
LINE
  5
C0BD
  8
AM_0
 10
72.602845908952986
 20
219.457502727377
 30
0.0
 11
73.102845908952915
 21
219.41749272737701
 31
0.0
  0
LINE
  5
C0BE
  8
AM_0
 10
73.096745908952869
 20
221.465712727377
 30
0.0
 11
74.59674590895294
 21
221.58571272737711
 31
0.0
  0
LINE
  5
C0BF
  8
AM_0
 10
72.102845908952872
 20
216.68748272737699
 30
0.0
 11
72.602845908952986
 21
219.457502727377
 31
0.0
  0
ARC
  5
C0C0
  8
AM_0
 10
88.147955908952696
 20
226.46571272737711
 30
0.0
 40
1.0000386999999991
 50
89.495660000003156
 51
270.5043320000014
  0
ARC
  5
C0C1
  8
AM_0
 10
87.059455908952799
 20
226.485702727377
 30
0.0
 40
1.460102599999999
 50
89.321000000002158
 51
270.67899299999812
  0
LINE
  5
C0C2
  8
AM_0
 10
76.596745908952926
 20
227.085712727377
 30
0.0
 11
76.596745908952926
 21
225.72569272737701
 31
0.0
  0
ARC
  5
C0C3
  8
AM_0
 10
86.928895908952938
 20
216.47569272737701
 30
0.0
 40
1.3300231999999981
 50
89.661519999996017
 51
270.33846799999918
  0
LINE
  5
C0C4
  8
AM_0
 10
79.59674590895294
 20
215.465712727377
 30
0.0
 11
75.596745908952869
 21
215.465712727377
 31
0.0
  0
LINE
  5
C0C5
  8
AM_0
 10
79.59674590895294
 20
217.465712727377
 30
0.0
 11
75.596745908952869
 21
217.465712727377
 31
0.0
  0
LINE
  5
C0C6
  8
AM_0
 10
76.596745908952926
 20
217.06569272737701
 30
0.0
 11
76.596745908952926
 21
215.84572272737711
 31
0.0
  0
LINE
  5
C0C7
  8
AM_0
 10
79.59674590895294
 20
207.465712727377
 30
0.0
 11
75.596745908952869
 21
207.465712727377
 31
0.0
  0
ARC
  5
C0C8
  8
AM_0
 10
79.58886590895294
 20
214.4578127273771
 30
0.0
 40
1.0079203999999991
 50
0.4484899999971498
 51
89.551510000002835
  0
ARC
  5
C0C9
  8
AM_0
 10
79.605775908952964
 20
218.456682727377
 30
0.0
 40
0.9910124499999998
 50
269.47800000000427
 51
0.5219999999956863
  0
ARC
  5
C0CA
  8
AM_0
 10
79.605775908952964
 20
208.456682727377
 30
0.0
 40
0.9910124499999998
 50
269.47800000000427
 51
0.5219999999956863
  0
LINE
  5
C0CB
  8
AM_0
 10
79.59674590895294
 20
225.465712727377
 30
0.0
 11
75.596745908952869
 21
225.465712727377
 31
0.0
  0
ARC
  5
C0CC
  8
AM_0
 10
79.58886590895294
 20
224.4578127273771
 30
0.0
 40
1.0079203999999991
 50
0.4484899999971498
 51
89.551510000002835
  0
ARC
  5
C0CD
  8
AM_0
 10
88.156775908952895
 20
216.46571272737691
 30
0.0
 40
1.000012399999999
 50
90.0
 51
269.99999700000228
  0
ARC
  5
C0CE
  8
AM_0
 10
87.276765908952868
 20
236.50569272737701
 30
0.0
 40
1.6800001999999989
 50
90.0
 51
269.99999700000228
  0
LINE
  5
C0CF
  8
AM_0
 10
80.596745908952869
 20
244.14570272737711
 30
0.0
 11
90.596745908952869
 21
244.14570272737711
 31
0.0
  0
LINE
  5
C0D0
  8
AM_0
 10
80.596745908952869
 20
235.765702727377
 30
0.0
 11
85.768516767763003
 21
235.765702727377
 31
0.0
  0
LINE
  5
C0D1
  8
AM_0
 10
76.816745908952825
 20
237.14570272737711
 30
0.0
 11
79.896765908952702
 21
237.14570272737711
 31
0.0
  0
LINE
  5
C0D2
  8
AM_0
 10
76.416755908952894
 20
237.06569272737701
 30
0.0
 11
75.216765908952709
 21
236.54570272737701
 31
0.0
  0
ARC
  5
C0D3
  8
AM_0
 10
76.809995908952814
 20
236.1394827273771
 30
0.0
 40
1.0062370999999981
 50
89.615240000004349
 51
113.00461999999921
  0
LINE
  5
C0D4
  8
AM_0
 10
76.596745908952926
 20
236.84572272737699
 30
0.0
 11
76.596745908952926
 21
235.78569272737701
 31
0.0
  0
LINE
  5
C0D5
  8
AM_0
 10
76.756745908952723
 20
235.205702727377
 30
0.0
 11
79.59674590895294
 21
235.205702727377
 31
0.0
  0
LINE
  5
C0D6
  8
AM_0
 10
79.59674590895294
 20
227.465712727377
 30
0.0
 11
75.596745908952869
 21
227.465712727377
 31
0.0
  0
LINE
  5
C0D7
  8
AM_0
 10
76.456725908952777
 20
235.16569272737701
 30
0.0
 11
75.316745908952953
 21
234.80568272737699
 31
0.0
  0
ARC
  5
C0D8
  8
AM_0
 10
76.739415908952807
 20
234.19072272737691
 30
0.0
 40
1.015145099999998
 50
89.021620000002997
 51
106.1676699999993
  0
ARC
  5
C0D9
  8
AM_0
 10
79.590455908952705
 20
234.19938272737701
 30
0.0
 40
1.0063294999999981
 50
0.3592499999960065
 51
89.640750000004005
  0
ARC
  5
C0DA
  8
AM_0
 10
79.901185908952812
 20
237.841262727377
 30
0.0
 40
0.69557893
 50
269.63466400000277
 51
0.3653399999994615
  0
ARC
  5
C0DB
  8
AM_0
 10
79.605775908952964
 20
228.456682727377
 30
0.0
 40
0.9910124499999998
 50
269.47800000000427
 51
0.5219999999956863
  0
LINE
  5
C0DC
  8
AM_0
 10
76.876745908952842
 20
243.44569272737709
 30
0.0
 11
79.59674590895294
 21
243.44569272737709
 31
0.0
  0
LINE
  5
C0DD
  8
AM_0
 10
76.376745908952714
 20
243.305712727377
 30
0.0
 11
75.096745908952855
 21
242.56569272737701
 31
0.0
  0
LINE
  5
C0DE
  8
AM_0
 10
76.356755908952778
 20
244.42567272737691
 30
0.0
 11
75.056735908952874
 21
243.56569272737701
 31
0.0
  0
ARC
  5
C0DF
  8
AM_0
 10
76.889005908952754
 20
242.439042727377
 30
0.0
 40
1.0067359999999981
 50
90.698060000001064
 51
120.5864300000015
  0
ARC
  5
C0E0
  8
AM_0
 10
76.902405908952844
 20
243.57539272737699
 30
0.0
 40
1.0103179999999981
 50
90.320140000001274
 51
122.6885800000007
  0
LINE
  5
C0E1
  8
AM_0
 10
76.596745908952926
 20
244.2856927273769
 30
0.0
 11
76.596745908952926
 21
243.805712727377
 31
0.0
  0
LINE
  5
C0E2
  8
AM_0
 10
76.896765908952773
 20
244.585712727377
 30
0.0
 11
80.596745908952869
 21
244.585712727377
 31
0.0
  0
ARC
  5
C0E3
  8
AM_0
 10
79.591345908952917
 20
242.44029272737691
 30
0.0
 40
1.005422699999998
 50
0.3081899999967502
 51
89.691810000003244
  0
ARC
  5
C0E4
  8
AM_0
 10
93.746971908305923
 20
242.66328272737701
 30
0.0
 40
1.0127640999999981
 50
355.60674720000202
 51
45.505339999999073
  0
ARC
  5
C0E5
  8
AM_0
 10
88.147955908952696
 20
236.465712727377
 30
0.0
 40
1.0000386999999991
 50
89.495660000003156
 51
270.5043320000014
  0
LINE
  5
C0E6
  8
AM_0
 10
90.596745908952869
 20
240.96571272737711
 30
0.0
 11
90.596745908952869
 21
238.18571272737699
 31
0.0
  0
ARC
  5
C0E7
  8
AM_0
 10
90.236131908306049
 20
239.10515272737709
 30
0.0
 40
6.0113901999999966
 50
45.404040000000251
 51
86.560849999999078
  0
ARC
  5
C0E8
  8
AM_0
 10
89.780321908305893
 20
243.0572927273769
 30
0.0
 40
4.9987220999999984
 50
279.40005900000142
 51
354.5864364999963
  0
ARC
  5
C0EB
  8
AM_0
 10
75.595735908952861
 20
247.32026272737701
 30
0.0
 40
0.9989832599999996
 50
119.9653600000028
 51
179.687610000001
  0
ARC
  5
C0EC
  8
AM_0
 10
75.599795908952956
 20
248.425792727377
 30
0.0
 40
1.003051899999998
 50
116.2126500000046
 51
180.00576999999771
  0
ARC
  5
C0ED
  8
AM_0
 10
75.603915908952786
 20
249.47551272737701
 30
0.0
 40
1.007194199999998
 50
120.23341999999749
 51
180.55767999999989
  0
LINE
  5
C0EE
  8
AM_0
 10
80.596745908952869
 20
249.80571272737691
 30
0.0
 11
90.596745908952869
 21
249.80571272737691
 31
0.0
  0
LINE
  5
C0EF
  8
AM_0
 10
86.816775908952948
 20
258.14569272737702
 30
0.0
 11
85.856755908952749
 21
253.68570272737699
 31
0.0
  0
ARC
  5
C0F0
  8
AM_0
 10
84.41308590895278
 20
258.04910272737698
 30
0.0
 40
1.5034073999999991
 50
270.13958599999978
 51
346.79614399999542
  0
ARC
  5
C0F1
  8
AM_0
 10
84.446595908952986
 20
260.08447272737692
 30
0.0
 40
1.4987989999999991
 50
269.62344200000302
 51
345.36186499999877
  0
LINE
  5
C0F2
  8
AM_0
 10
84.436765908952793
 20
258.58571272737697
 30
0.0
 11
86.076755908952947
 21
258.58571272737697
 31
0.0
  0
LINE
  5
C0F3
  8
AM_0
 10
86.796755908953003
 20
261.58571272737692
 30
0.0
 11
85.876775908952794
 21
257.705702727377
 31
0.0
  0
LINE
  5
C0F4
  8
AM_0
 10
84.416755908952908
 20
256.54570272737692
 30
0.0
 11
86.476745908952921
 21
256.54570272737692
 31
0.0
  0
ARC
  5
C0F5
  8
AM_0
 10
84.387915908952948
 20
253.98465272737701
 30
0.0
 40
1.498966199999999
 50
270.33846799999918
 51
348.49632400000007
  0
LINE
  5
C0F6
  8
AM_0
 10
84.396765908952773
 20
252.485702727377
 30
0.0
 11
86.816745908953024
 21
252.485702727377
 31
0.0
  0
LINE
  5
C0F7
  8
AM_0
 10
86.776765908952768
 20
263.24568272737702
 30
0.0
 11
85.896765908952645
 21
259.70569272737691
 31
0.0
  0
LINE
  5
C0F8
  8
AM_0
 10
80.596745908952869
 20
258.8434390574696
 30
0.0
 11
85.436735908952812
 21
258.94569272737698
 31
0.0
  0
ARC
  5
C0F9
  8
AM_0
 10
80.101105908952832
 20
251.70135272737701
 30
0.0
 40
0.4956644499999998
 50
269.49661899999961
 51
0.5033799999995008
  0
ARC
  5
C0FA
  8
AM_0
 10
80.090395908952871
 20
249.55934272737699
 30
0.0
 40
0.50640076
 50
0.7197000000047436
 51
89.280300000001773
  0
LINE
  5
C0FB
  8
AM_0
 10
76.856755908952891
 20
247.965712727377
 30
0.0
 11
79.59674590895294
 21
247.965712727377
 31
0.0
  0
LINE
  5
C0FC
  8
AM_0
 10
76.396765908952659
 20
249.9457127273769
 30
0.0
 11
75.156775908952795
 21
249.32573272737699
 31
0.0
  0
LINE
  5
C0FD
  8
AM_0
 10
76.376745908952714
 20
248.96568272737699
 30
0.0
 11
75.096775908952793
 21
248.18571272737699
 31
0.0
  0
LINE
  5
C0FE
  8
AM_0
 10
76.376745908952714
 20
251.06570272737699
 30
0.0
 11
75.096775908952793
 21
250.34572272737699
 31
0.0
  0
ARC
  5
C0FF
  8
AM_0
 10
76.855045908952945
 20
246.95250272737701
 30
0.0
 40
1.0131911999999981
 50
89.90372000000059
 51
118.1687600000007
  0
ARC
  5
C100
  8
AM_0
 10
76.890265908952813
 20
248.09459272737701
 30
0.0
 40
1.0112084999999991
 50
90.765689999997619
 51
120.5188099999981
  0
ARC
  5
C101
  8
AM_0
 10
76.874335908952844
 20
249.061262727377
 30
0.0
 40
1.005138299999998
 50
92.142290000000585
 51
118.36794000000209
  0
ARC
  5
C102
  8
AM_0
 10
76.887635908952802
 20
250.20395272737699
 30
0.0
 40
1.001807999999998
 50
90.622820000003856
 51
120.66166999999879
  0
LINE
  5
C103
  8
AM_0
 10
76.596745908952926
 20
250.94571272737701
 30
0.0
 11
76.596745908952926
 21
250.42570272737689
 31
0.0
  0
LINE
  5
C104
  8
AM_0
 10
76.596745908952926
 20
248.84572272737699
 30
0.0
 11
76.596745908952926
 21
248.305712727377
 31
0.0
  0
LINE
  5
C105
  8
AM_0
 10
76.836765908952771
 20
250.0657027273771
 30
0.0
 11
80.096745908952784
 21
250.0657027273771
 31
0.0
  0
LINE
  5
C106
  8
AM_0
 10
76.876745908952842
 20
249.10569272737709
 30
0.0
 11
80.596745908952869
 21
249.10569272737709
 31
0.0
  0
LINE
  5
C107
  8
AM_0
 10
76.876745908952842
 20
251.205702727377
 30
0.0
 11
80.096745908952784
 21
251.205702727377
 31
0.0
  0
ARC
  5
C108
  8
AM_0
 10
88.833165908952765
 20
252.43915272737701
 30
0.0
 40
2.0065659999999981
 50
89.897530000004195
 51
170.054319999999
  0
ARC
  5
C109
  8
AM_0
 10
88.775855908952963
 20
257.72113272737693
 30
0.0
 40
2.0045697999999992
 50
89.974040000003512
 51
167.77209000000249
  0
LINE
  5
C10A
  8
AM_0
 10
86.336765908952771
 20
249.80571272737691
 30
0.0
 11
86.856755908952891
 21
252.78570272737699
 31
0.0
  0
ARC
  5
C10B
  8
AM_0
 10
88.724035908952857
 20
262.75837272737692
 30
0.0
 40
2.007332599999998
 50
90.207820000001149
 51
165.94993999999971
  0
ARC
  5
C10C
  8
AM_0
 10
88.743045908952922
 20
261.12582272737689
 30
0.0
 40
1.9998908999999989
 50
90.180420000001433
 51
166.7056999999993
  0
LINE
  5
C10D
  8
AM_0
 10
160.59674590895281
 20
167.465712727377
 30
0.0
 11
97.146765908952645
 21
167.465712727377
 31
0.0
  0
ARC
  5
C10E
  8
AM_0
 10
104.5967459089527
 20
206.46571272737711
 30
0.0
 40
1.000000699999998
 50
90.0
 51
269.99999700000228
  0
ARC
  5
C10F
  8
AM_0
 10
104.5967459089527
 20
186.46571272737691
 30
0.0
 40
1.0000031999999981
 50
90.0
 51
269.99999700000228
  0
ARC
  5
C110
  8
AM_0
 10
104.5967459089527
 20
176.465712727377
 30
0.0
 40
1.0000031999999981
 50
90.0
 51
269.99999700000228
  0
ARC
  5
C111
  8
AM_0
 10
104.5967459089527
 20
196.465712727377
 30
0.0
 40
1.0000031999999981
 50
90.0
 51
269.99999700000228
  0
ARC
  5
C112
  8
AM_0
 10
104.5967459089527
 20
226.46571272737711
 30
0.0
 40
1.000000699999998
 50
90.0
 51
269.99999700000228
  0
ARC
  5
C113
  8
AM_0
 10
104.5967459089527
 20
216.46571272737691
 30
0.0
 40
1.000000699999998
 50
90.0
 51
269.99999700000228
  0
ARC
  5
C114
  8
AM_0
 10
104.5967459089527
 20
236.465712727377
 30
0.0
 40
1.000000699999998
 50
90.0
 51
269.99999700000228
  0
ARC
  5
C115
  8
AM_0
 10
159.32677257866851
 20
206.4707727273769
 30
0.0
 40
1.265004999999999
 50
270.0
 51
89.999997000002296
  0
ARC
  5
C116
  8
AM_0
 10
158.0454925786685
 20
206.4657727273769
 30
0.0
 40
1.000037999999998
 50
269.50071000000491
 51
90.499283999999861
  0
ARC
  5
C117
  8
AM_0
 10
159.2667825786686
 20
186.455702727377
 30
0.0
 40
1.330000999999998
 50
270.00000299999761
 51
90.0
  0
ARC
  5
C118
  8
AM_0
 10
158.0454925786685
 20
186.46571272737691
 30
0.0
 40
1.000037999999998
 50
269.50071600000012
 51
90.499289999995085
  0
ARC
  5
C119
  8
AM_0
 10
158.0454925786685
 20
176.465712727377
 30
0.0
 40
1.000037999999998
 50
269.50071600000012
 51
90.499289999995085
  0
ARC
  5
C11A
  8
AM_0
 10
159.32677257866851
 20
196.460712727377
 30
0.0
 40
1.265004999999999
 50
270.00000299999761
 51
90.0
  0
ARC
  5
C11B
  8
AM_0
 10
158.0454925786685
 20
196.465712727377
 30
0.0
 40
1.000037999999998
 50
269.50071600000012
 51
90.499289999995085
  0
ARC
  5
C11C
  8
AM_0
 10
158.0454925786685
 20
226.46571269678191
 30
0.0
 40
1.000037999999998
 50
269.50071000000491
 51
90.499283999999861
  0
ARC
  5
C11D
  8
AM_0
 10
159.2667825786686
 20
216.4757827273769
 30
0.0
 40
1.330000999999998
 50
270.0
 51
89.999997000002296
  0
ARC
  5
C11E
  8
AM_0
 10
158.0454925786685
 20
216.4657727273769
 30
0.0
 40
1.000037999999998
 50
269.50071000000491
 51
90.499283999999861
  0
LINE
  5
C11F
  8
AM_0
 10
105.596745908953
 20
263.32570272737701
 30
0.0
 11
160.59674590895281
 21
263.32570272737701
 31
0.0
  0
ARC
  5
C120
  8
AM_0
 10
102.10406590895271
 20
255.938402727377
 30
0.0
 40
1.4927157999999989
 50
269.71972099999988
 51
0.2802800000004985
  0
ARC
  5
C121
  8
AM_0
 10
102.10290590895281
 20
261.2195427273769
 30
0.0
 40
1.4938501999999989
 50
269.76363900000212
 51
0.2363600000010276
  0
ARC
  5
C122
  8
AM_0
 10
102.10089590895279
 20
264.62158272737702
 30
0.0
 40
1.4958794999999989
 50
269.84195400000209
 51
0.1580399999992005
  0
ARC
  5
C123
  8
AM_0
 10
102.2286759089527
 20
266.261762727377
 30
0.0
 40
1.4961156999999989
 50
269.54349500000399
 51
345.44181399999837
  0
ARC
  5
C124
  8
AM_0
 10
105.6046759089528
 20
265.37002272737698
 30
0.0
 40
1.9956942999999989
 50
90.227350000001564
 51
165.02512000000149
  0
ARC
  5
C125
  8
AM_0
 10
105.60425590895289
 20
264.6982127273771
 30
0.0
 40
2.007501099999998
 50
90.213689999998905
 51
179.78630000000209
  0
ARC
  5
C126
  8
AM_0
 10
105.6019059089529
 20
263.34054272737689
 30
0.0
 40
2.0051612999999988
 50
90.147289999999714
 51
179.8527100000002
  0
LINE
  5
C127
  8
AM_0
 10
103.5967459089528
 20
263.34570272737699
 30
0.0
 11
103.5967459089528
 21
255.94571272737701
 31
0.0
  0
ARC
  5
C128
  8
AM_0
 10
105.60608590895291
 20
261.31637272737692
 30
0.0
 40
2.0093488999999991
 50
90.265960000000305
 51
179.73403999999951
  0
LINE
  5
C132
  8
AM_0
 10
302.06730900452192
 20
259.46574445591182
 30
0.0
 11
382.09677967498521
 21
259.46574445591182
 31
0.0
  0
LINE
  5
C133
  8
AM_0
 10
302.06730900452192
 20
143.4657409988427
 30
0.0
 11
382.09677967498521
 21
143.4657409988427
 31
0.0
  0
LINE
  5
C134
  8
AM_0
 10
285.09674626658051
 20
265.46574463472581
 30
0.0
 11
433.09678119490297
 21
265.46574463472581
 31
0.0
  0
LINE
  5
C135
  8
AM_0
 10
285.09674626658051
 20
137.46574082002871
 30
0.0
 11
433.09678119490297
 21
137.46574082002871
 31
0.0
  0
CIRCLE
  5
C136
  8
AM_0
 10
382.0967796749851
 20
201.4657427273772
 30
0.0
 40
22.50000067055225
  0
CIRCLE
  5
C137
  8
AM_0
 10
382.0967796749851
 20
201.4657427273772
 30
0.0
 40
37.500001117587097
  0
ARC
  5
C138
  8
AM_0
 10
284.09674608776669
 20
166.43630391559779
 30
0.0
 40
5.0
 50
180.0
 51
273.37228728714382
1001
GENIUS_GENODEF_13
1002
{
1000
HIER
1070
     0
1002
}
1002
{
1000
MANEDIT
1070
     0
1002
}
1002
{
1000
NOSEL
1070
     0
1002
}
1002
{
1000
BEHIND
1070
     0
1002
}
1002
{
1000
OTHER
1070
     0
1002
}
1002
{
1000
REACTOR
1002
}
1001
GENIUS_GENOBJ-N-FIL_13
1002
{
1000
OWNER
1000
GEN
1002
}
  0
ARC
  5
C139
  8
AM_0
 10
220.93676590895291
 20
166.4657727273769
 30
0.0
 40
1.0000073999999981
 50
270.0
 51
90.000003000004199
  0
ARC
  5
C13A
  8
AM_0
 10
224.4106459089528
 20
166.41578272737689
 30
0.0
 40
1.680010999999999
 50
270.20802999999808
 51
89.791969000000421
  0
ARC
  5
C13B
  8
AM_0
 10
659.25527243495594
 20
201.46574272737161
 30
0.0
 40
397.24800335175252
 50
173.33928567968309
 51
186.6607143203168
  0
LINE
  5
C13C
  8
AM_0
 10
265.00726908320269
 20
247.1944613654712
 30
0.0
 11
265.00726908320411
 21
155.7370240892833
 31
0.0
  0
LINE
  5
C13D
  8
AM_0
 10
226.59674590895281
 20
140.96571272737691
 30
0.0
 11
226.59674565270529
 21
264.46571302768461
 31
0.0
  0
LINE
  5
C13E
  8
AM_0
 10
246.5967459089529
 20
262.96573272737749
 30
0.0
 11
246.5967459089529
 21
139.96575272737721
 31
0.0
  0
LINE
  5
C13F
  8
AM_0
 10
235.5967459089529
 20
137.46574272737701
 30
0.0
 11
235.5967459089529
 21
265.46573272737692
 31
0.0
  0
LINE
  5
C140
  8
AM_0
 10
273.09674590895281
 20
253.46574427709811
 30
0.0
 11
273.09674590895281
 21
149.46574117765641
 31
0.0
  0
LINE
  5
C141
  8
AM_0
 10
249.5967459089527
 20
139.96575272737721
 30
0.0
 11
276.80516885751632
 21
139.96575272737761
 31
0.0
  0
ARC
  5
C142
  8
AM_0
 10
285.09674626658051
 20
149.46574117765641
 30
0.0
 40
12.00000035762791
 50
180.00000500895689
 51
270.00000068324618
  0
LINE
  5
C143
  8
AM_0
 10
226.59674582832511
 20
137.465712727377
 30
0.0
 11
235.5967459089529
 21
137.465712727377
 31
0.0
  0
LINE
  5
C145
  8
AM_0
 10
208.09674590895261
 20
127.96574272737691
 30
0.0
 11
208.09674590895261
 21
120.96574272737701
 31
0.0
  0
ARC
  5
C146
  8
AM_0
 10
205.59674590895261
 20
105.46574272737691
 30
0.0
 40
1.0
 50
270.0
 51
0.0
  0
LINE
  5
C147
  8
AM_0
 10
199.59674590895261
 20
104.46574272737691
 30
0.0
 11
194.40074590895259
 21
101.46574272737701
 31
0.0
  0
LINE
  5
C148
  8
AM_0
 10
206.59674590895261
 20
120.96574272737701
 30
0.0
 11
206.59674590895261
 21
105.46574272737701
 31
0.0
  0
LINE
  5
C149
  8
AM_0
 10
206.59674590895281
 20
132.46574272737689
 30
0.0
 11
218.897467205201
 21
132.46574272737689
 31
0.0
  0
LINE
  5
C14A
  8
AM_0
 10
206.59674590895281
 20
127.96574272737691
 30
0.0
 11
206.5967459089527
 21
132.46574272737689
 31
0.0
  0
LINE
  5
C14B
  8
AM_0
 10
222.35675590895281
 20
141.105772727377
 30
0.0
 11
225.09256590895279
 21
151.30577272737699
 31
0.0
  0
LINE
  5
C14C
  8
AM_0
 10
226.59674590895281
 20
137.4657127797372
 30
0.0
 11
218.897467205201
 21
132.46574272737689
 31
0.0
  0
ARC
  5
C14D
  8
AM_0
 10
227.5967459089529
 20
138.46571272737711
 30
0.0
 40
0.9999999999999998
 50
179.999989999999
 51
269.99999700000228
  0
LINE
  5
C14E
  8
AM_0
 10
222.3167459089529
 20
140.96578272737699
 30
0.0
 11
226.5967459089527
 21
140.96578272737699
 31
0.0
  0
ARC
  5
C14F
  8
AM_0
 10
220.40710590895279
 20
141.622772727377
 30
0.0
 40
2.0170177999999992
 50
270.27370000000269
 51
345.14839999999742
  0
LINE
  5
C150
  8
AM_0
 10
226.59674590895281
 20
138.46571272737711
 30
0.0
 11
226.59674590895281
 21
140.96571272737691
 31
0.0
  0
LINE
  5
C151
  8
AM_0
 10
225.5967459089529
 20
158.60578272737681
 30
0.0
 11
226.59674590895281
 21
158.60578272737681
 31
0.0
  0
LINE
  5
C152
  8
AM_0
 10
226.59674590895281
 20
155.5831427273769
 30
0.0
 11
225.5967459089529
 21
155.0058127273771
 31
0.0
  0
LINE
  5
C153
  8
AM_0
 10
225.5967459089529
 20
151.0057827273769
 30
0.0
 11
226.59674590895281
 21
151.0057827273769
 31
0.0
  0
ARC
  5
C154
  8
AM_0
 10
227.6051659089529
 20
150.43418272737699
 30
0.0
 40
1.008444499999998
 50
189.5460700000034
 51
269.52220000000051
  0
LINE
  5
C155
  8
AM_0
 10
226.59674590895281
 20
154.58314272737701
 30
0.0
 11
225.5967459089529
 21
154.0057827273769
 31
0.0
  0
ARC
  5
C156
  8
AM_0
 10
227.2576059089528
 20
153.638992727377
 30
0.0
 40
1.4868058999999989
 50
116.38977999999901
 51
165.71726000000089
  0
LINE
  5
C157
  8
AM_0
 10
226.59674590895281
 20
158.60578272737681
 30
0.0
 11
226.59674590895281
 21
151.0057827273769
 31
0.0
  0
LINE
  5
C158
  8
AM_0
 10
225.5967459089529
 20
158.60578272737681
 30
0.0
 11
225.5967459089529
 21
151.0057827273769
 31
0.0
  0
LINE
  5
C159
  8
AM_0
 10
220.41675590895289
 20
155.1257727273769
 30
0.0
 11
222.99676590895291
 21
155.1257727273769
 31
0.0
  0
ARC
  5
C15A
  8
AM_0
 10
224.69674590895281
 20
156.605782727377
 30
0.0
 40
1.699996899999999
 50
90.000003000004199
 51
179.99998000000451
  0
ARC
  5
C15B
  8
AM_0
 10
224.69674590895281
 20
153.00578272737701
 30
0.0
 40
1.7000007999999991
 50
180.00001000000091
 51
269.999979999998
  0
LINE
  5
C15C
  8
AM_0
 10
222.99676590895291
 20
156.605782727377
 30
0.0
 11
222.99676590895291
 21
153.00578272737701
 31
0.0
  0
LINE
  5
C15D
  8
AM_0
 10
220.93676590895291
 20
165.4657727273769
 30
0.0
 11
220.41675590895289
 21
165.4657727273769
 31
0.0
  0
LINE
  5
C15E
  8
AM_0
 10
220.41675590895289
 20
164.73579272737689
 30
0.0
 11
226.5967458596327
 21
164.73579272737689
 31
0.0
  0
LINE
  5
C15F
  8
AM_0
 10
225.5967459089529
 20
158.30577272737679
 30
0.0
 11
224.69674590895281
 21
158.30577272737679
 31
0.0
  0
LINE
  5
C160
  8
AM_0
 10
225.5967459089529
 20
151.30578272737691
 30
0.0
 11
224.69674590895281
 21
151.30578272737691
 31
0.0
  0
LINE
  5
C161
  8
AM_0
 10
235.5967459089529
 20
137.46575272737709
 30
0.0
 11
244.72334873654839
 21
137.46575272737709
 31
0.0
  0
LINE
  5
C162
  8
AM_0
 10
235.5967459089529
 20
137.465712727377
 30
0.0
 11
235.5967459089529
 21
141.465712727377
 31
0.0
  0
ARC
  5
C163
  8
AM_0
 10
249.5967459089527
 20
136.96575272737721
 30
0.0
 40
2.9999999999999978
 50
90.0
 51
144.31466528734541
1001
GENIUS_GENOBJ-N-FIL_13
1002
{
1000
OWNER
1000
GEN
1002
}
1001
GENIUS_GENODEF_13
1002
{
1000
HIER
1070
     0
1002
}
1002
{
1000
MANEDIT
1070
     0
1002
}
1002
{
1000
NOSEL
1070
     0
1002
}
1002
{
1000
BEHIND
1070
     0
1002
}
1002
{
1000
OTHER
1070
     0
1002
}
1002
{
1000
REACTOR
1002
}
  0
ARC
  5
C164
  8
AM_0
 10
244.72334873654839
 20
140.46575272737709
 30
0.0
 40
2.9999999999999978
 50
270.0
 51
324.31466528734541
1001
GENIUS_GENOBJ-N-FIL_13
1002
{
1000
OWNER
1000
GEN
1002
}
1001
GENIUS_GENODEF_13
1002
{
1000
HIER
1070
     0
1002
}
1002
{
1000
MANEDIT
1070
     0
1002
}
1002
{
1000
NOSEL
1070
     0
1002
}
1002
{
1000
BEHIND
1070
     0
1002
}
1002
{
1000
OTHER
1070
     0
1002
}
1002
{
1000
REACTOR
1002
}
  0
LINE
  5
C165
  8
AM_0
 10
235.5967459089529
 20
164.32576272737739
 30
0.0
 11
245.5967459089529
 21
164.32576272737739
 31
0.0
  0
LINE
  5
C166
  8
AM_0
 10
235.5967459089529
 20
149.4257527273773
 30
0.0
 11
245.5967459089529
 21
149.4257527273773
 31
0.0
  0
LINE
  5
C167
  8
AM_0
 10
267.6682802626392
 20
152.7370240892833
 30
0.0
 11
272.09674590895281
 21
152.7370240892833
 31
0.0
  0
ARC
  5
C168
  8
AM_0
 10
267.6682802626392
 20
155.7370240892833
 30
0.0
 40
2.9999999999999978
 50
186.6607143203168
 51
270.0
1001
GENIUS_GENOBJ-N-FIL_13
1002
{
1000
OWNER
1000
GEN
1002
}
1001
GENIUS_GENODEF_13
1002
{
1000
HIER
1070
     0
1002
}
1002
{
1000
MANEDIT
1070
     0
1002
}
1002
{
1000
NOSEL
1070
     0
1002
}
1002
{
1000
BEHIND
1070
     0
1002
}
1002
{
1000
OTHER
1070
     0
1002
}
1002
{
1000
REACTOR
1002
}
  0
ARC
  5
C169
  8
AM_0
 10
285.09674626658051
 20
149.46574117765641
 30
0.0
 40
12.0
 50
356.62771271285618
 51
93.37228728714382
  0
LINE
  5
C16A
  8
ﾁｭｳｼﾝｾﾝ1
 10
285.09674626658051
 20
157.96574143097621
 30
0.0
 11
285.09674626658051
 21
140.96574092433681
 31
0.0
  0
CIRCLE
  5
C16B
  8
AM_0
 10
285.09674626658051
 20
149.46574117765641
 30
0.0
 40
5.5000001639127731
  0
ARC
  5
C16C
  8
AM_0
 10
276.80516885751638
 20
136.96575272737761
 30
0.0
 40
2.9999999999999978
 50
56.442621136830532
 51
90.0
1001
GENIUS_GENOBJ-N-FIL_13
1002
{
1000
OWNER
1000
GEN
1002
}
1001
GENIUS_GENODEF_13
1002
{
1000
HIER
1070
     0
1002
}
1002
{
1000
MANEDIT
1070
     0
1002
}
1002
{
1000
NOSEL
1070
     0
1002
}
1002
{
1000
BEHIND
1070
     0
1002
}
1002
{
1000
OTHER
1070
     0
1002
}
1002
{
1000
REACTOR
1002
}
  0
LINE
  5
C16D
  8
ﾁｭｳｼﾝｾﾝ1
 10
276.596746013261
 20
149.46574117765641
 30
0.0
 11
293.59677703747928
 21
149.46574117765641
 31
0.0
  0
ARC
  5
C16E
  8
AM_0
 10
302.06730900452192
 20
148.4657409988427
 30
0.0
 40
5.0
 50
176.62771271285609
 51
270.0
1001
GENIUS_GENOBJ-N-FIL_13
1002
{
1000
OWNER
1000
GEN
1002
}
1001
GENIUS_GENODEF_13
1002
{
1000
HIER
1070
     0
1002
}
1002
{
1000
MANEDIT
1070
     0
1002
}
1002
{
1000
NOSEL
1070
     0
1002
}
1002
{
1000
BEHIND
1070
     0
1002
}
1002
{
1000
OTHER
1070
     0
1002
}
1002
{
1000
REACTOR
1002
}
  0
LINE
  5
C16F
  8
AM_0
 10
249.5967459089527
 20
262.96573272737737
 30
0.0
 11
276.80516885751638
 21
262.96573272737692
 31
0.0
  0
ARC
  5
C170
  8
AM_0
 10
285.09674626658051
 20
253.46574427709811
 30
0.0
 40
12.000000357627879
 50
90.000002504478445
 51
180.00000500895689
  0
LINE
  5
C171
  8
AM_0
 10
225.5967459089529
 20
244.32570272737709
 30
0.0
 11
225.5967459089529
 21
251.925702727377
 31
0.0
  0
LINE
  5
C172
  8
AM_0
 10
226.59674590895281
 20
244.32570272737709
 30
0.0
 11
226.59674590895281
 21
251.925702727377
 31
0.0
  0
LINE
  5
C173
  8
AM_0
 10
222.99676590895291
 20
246.32570272737701
 30
0.0
 11
222.99676590895291
 21
249.925702727377
 31
0.0
  0
LINE
  5
C174
  8
AM_0
 10
235.5967459089529
 20
238.6057227273771
 30
0.0
 11
245.5967459089529
 21
238.6057227273771
 31
0.0
  0
LINE
  5
C175
  8
AM_0
 10
227.5967459089529
 20
238.605692727377
 30
0.0
 11
235.5967459089529
 21
238.605692727377
 31
0.0
  0
LINE
  5
C176
  8
AM_0
 10
205.2365240808177
 20
174.9756927273769
 30
0.0
 11
224.61044935359519
 21
174.9756927273769
 31
0.0
  0
LINE
  5
C177
  8
AM_0
 10
220.41675590895289
 20
168.09577272737701
 30
0.0
 11
206.09674590895281
 21
168.09577272737701
 31
0.0
  0
LINE
  5
C178
  8
AM_0
 10
223.52153199547811
 20
175.46571272737691
 30
0.0
 11
206.08579162212811
 21
175.46571272737691
 31
0.0
  0
LINE
  5
C179
  8
AM_0
 10
205.0967459089529
 20
168.09577272737701
 30
0.0
 11
190.09674590895281
 21
168.09577272737701
 31
0.0
  0
LINE
  5
C17A
  8
AM_0
 10
205.0967459089529
 20
168.0957727273769
 30
0.0
 11
190.09674590895281
 21
168.0957727273769
 31
0.0
  0
CIRCLE
  5
C17B
  8
AM_0
 10
195.09674590895281
 20
172.96574272737701
 30
0.0
 40
0.75
  0
LINE
  5
C17C
  8
AM_0
 10
190.09674590895281
 20
174.46577272737679
 30
0.0
 11
190.09674590895281
 21
169.0957727273769
 31
0.0
  0
ARC
  5
C17D
  8
AM_0
 10
189.09674590895281
 20
174.46577272737699
 30
0.0
 40
0.9999999999999998
 50
0.0
 51
90.0
1001
GENIUS_GENOBJ-N-FIL_13
1002
{
1000
OWNER
1000
GEN
1002
}
1001
GENIUS_GENODEF_13
1002
{
1000
HIER
1070
     0
1002
}
1002
{
1000
MANEDIT
1070
     0
1002
}
1002
{
1000
NOSEL
1070
     0
1002
}
1002
{
1000
BEHIND
1070
     0
1002
}
1002
{
1000
OTHER
1070
     0
1002
}
1002
{
1000
REACTOR
1002
}
  0
ARC
  5
C17E
  8
AM_0
 10
189.09674590895281
 20
169.0957727273769
 30
0.0
 40
0.9999999999999998
 50
270.0
 51
0.0
1001
GENIUS_GENOBJ-N-FIL_13
1002
{
1000
OWNER
1000
GEN
1002
}
1001
GENIUS_GENODEF_13
1002
{
1000
HIER
1070
     0
1002
}
1002
{
1000
MANEDIT
1070
     0
1002
}
1002
{
1000
NOSEL
1070
     0
1002
}
1002
{
1000
BEHIND
1070
     0
1002
}
1002
{
1000
OTHER
1070
     0
1002
}
1002
{
1000
REACTOR
1002
}
  0
LINE
  5
C17F
  8
AM_0
 10
205.0967459089529
 20
174.46577272737679
 30
0.0
 11
205.0967459089529
 21
169.0957727273769
 31
0.0
  0
ARC
  5
C180
  8
AM_0
 10
206.09674590895281
 20
174.46577272737679
 30
0.0
 40
0.9999999999999998
 50
90.0
 51
180.0
1001
GENIUS_GENOBJ-N-FIL_13
1002
{
1000
OWNER
1000
GEN
1002
}
1001
GENIUS_GENODEF_13
1002
{
1000
HIER
1070
     0
1002
}
1002
{
1000
MANEDIT
1070
     0
1002
}
1002
{
1000
NOSEL
1070
     0
1002
}
1002
{
1000
BEHIND
1070
     0
1002
}
1002
{
1000
OTHER
1070
     0
1002
}
1002
{
1000
REACTOR
1002
}
  0
ARC
  5
C181
  8
AM_0
 10
206.09674590895281
 20
169.0957727273769
 30
0.0
 40
0.9999999999999998
 50
180.0
 51
270.0
1001
GENIUS_GENOBJ-N-FIL_13
1002
{
1000
OWNER
1000
GEN
1002
}
1001
GENIUS_GENODEF_13
1002
{
1000
HIER
1070
     0
1002
}
1002
{
1000
MANEDIT
1070
     0
1002
}
1002
{
1000
NOSEL
1070
     0
1002
}
1002
{
1000
BEHIND
1070
     0
1002
}
1002
{
1000
OTHER
1070
     0
1002
}
1002
{
1000
REACTOR
1002
}
  0
CIRCLE
  5
C182
  8
AM_0
 10
200.09674590895281
 20
172.96574272737701
 30
0.0
 40
0.75
  0
ARC
  5
C183
  8
AM_0
 10
223.52153194311811
 20
176.465712727377
 30
0.0
 40
1.0000031999999981
 50
270.00000299999761
 51
90.0
  0
LINE
  5
C184
  8
AM_0
 10
224.41675590895289
 20
168.09577272737701
 30
0.0
 11
220.41675590895289
 21
168.09577272737701
 31
0.0
  0
LINE
  5
C185
  8
AM_0
 10
220.93676590895291
 20
167.46577272737699
 30
0.0
 11
220.41675590895289
 21
167.46577272737699
 31
0.0
  0
ARC
  5
C186
  8
AM_0
 10
224.61153194311811
 20
176.44069272737701
 30
0.0
 40
1.465000399999999
 50
270.00000299999761
 51
90.0
  0
LINE
  5
C187
  8
AM_0
 10
205.2365774371404
 20
227.95570272737709
 30
0.0
 11
224.5952573033417
 21
227.95570272737709
 31
0.0
  0
LINE
  5
C188
  8
AM_0
 10
220.41675590895289
 20
234.83571272737689
 30
0.0
 11
206.09674590895281
 21
234.83571272737689
 31
0.0
  0
LINE
  5
C189
  8
AM_0
 10
223.52153199547811
 20
227.465712727377
 30
0.0
 11
206.09674590895281
 21
227.465712727377
 31
0.0
  0
LINE
  5
C18A
  8
AM_0
 10
205.0967459089529
 20
234.83571272737689
 30
0.0
 11
190.09674590895281
 21
234.83571272737689
 31
0.0
  0
CIRCLE
  5
C18B
  8
AM_0
 10
195.09674590895281
 20
229.96574272737689
 30
0.0
 40
0.75
  0
ARC
  5
C18C
  8
AM_0
 10
189.09674590895281
 20
233.835712727377
 30
0.0
 40
0.9999999999999998
 50
0.0
 51
90.0
1001
GENIUS_GENOBJ-N-FIL_13
1002
{
1000
OWNER
1000
GEN
1002
}
1001
GENIUS_GENODEF_13
1002
{
1000
HIER
1070
     0
1002
}
1002
{
1000
MANEDIT
1070
     0
1002
}
1002
{
1000
NOSEL
1070
     0
1002
}
1002
{
1000
BEHIND
1070
     0
1002
}
1002
{
1000
OTHER
1070
     0
1002
}
1002
{
1000
REACTOR
1002
}
  0
ARC
  5
C18D
  8
AM_0
 10
189.09674590895281
 20
228.46571272737691
 30
0.0
 40
0.9999999999999998
 50
270.0
 51
0.0
1001
GENIUS_GENOBJ-N-FIL_13
1002
{
1000
OWNER
1000
GEN
1002
}
1001
GENIUS_GENODEF_13
1002
{
1000
HIER
1070
     0
1002
}
1002
{
1000
MANEDIT
1070
     0
1002
}
1002
{
1000
NOSEL
1070
     0
1002
}
1002
{
1000
BEHIND
1070
     0
1002
}
1002
{
1000
OTHER
1070
     0
1002
}
1002
{
1000
REACTOR
1002
}
  0
LINE
  5
C18E
  8
AM_0
 10
190.09674590895281
 20
228.46571272737691
 30
0.0
 11
190.09674590895281
 21
233.835712727377
 31
0.0
  0
ARC
  5
C18F
  8
AM_0
 10
206.09674590895281
 20
233.835712727377
 30
0.0
 40
0.9999999999999998
 50
90.0
 51
180.0
1001
GENIUS_GENOBJ-N-FIL_13
1002
{
1000
OWNER
1000
GEN
1002
}
1001
GENIUS_GENODEF_13
1002
{
1000
HIER
1070
     0
1002
}
1002
{
1000
MANEDIT
1070
     0
1002
}
1002
{
1000
NOSEL
1070
     0
1002
}
1002
{
1000
BEHIND
1070
     0
1002
}
1002
{
1000
OTHER
1070
     0
1002
}
1002
{
1000
REACTOR
1002
}
  0
ARC
  5
C190
  8
AM_0
 10
206.09674590895281
 20
228.46571272737691
 30
0.0
 40
0.9999999999999998
 50
180.0
 51
270.0
1001
GENIUS_GENOBJ-N-FIL_13
1002
{
1000
OWNER
1000
GEN
1002
}
1001
GENIUS_GENODEF_13
1002
{
1000
HIER
1070
     0
1002
}
1002
{
1000
MANEDIT
1070
     0
1002
}
1002
{
1000
NOSEL
1070
     0
1002
}
1002
{
1000
BEHIND
1070
     0
1002
}
1002
{
1000
OTHER
1070
     0
1002
}
1002
{
1000
REACTOR
1002
}
  0
LINE
  5
C191
  8
AM_0
 10
205.0967459089529
 20
228.46571272737691
 30
0.0
 11
205.0967459089529
 21
233.835712727377
 31
0.0
  0
CIRCLE
  5
C192
  8
AM_0
 10
200.09674590895281
 20
229.96574272737689
 30
0.0
 40
0.75
  0
ARC
  5
C193
  8
AM_0
 10
223.52153194311811
 20
226.4657727273769
 30
0.0
 40
1.0000031999999981
 50
270.0
 51
89.999997000002296
  0
ARC
  5
C194
  8
AM_0
 10
224.61153194311811
 20
226.490792727377
 30
0.0
 40
1.465000399999999
 50
270.0
 51
89.999997000002296
  0
LINE
  5
C195
  8
AM_0
 10
225.5967459089529
 20
244.32570272737709
 30
0.0
 11
226.59674590895281
 21
244.32570272737709
 31
0.0
  0
ARC
  5
C196
  8
AM_0
 10
220.93676590895291
 20
236.465712727377
 30
0.0
 40
1.0000073999999981
 50
269.99999700000228
 51
90.0
  0
LINE
  5
C197
  8
AM_0
 10
220.93676590895291
 20
237.465712727377
 30
0.0
 11
220.41675590895289
 21
237.465712727377
 31
0.0
  0
LINE
  5
C198
  8
AM_0
 10
220.93676590895291
 20
235.465712727377
 30
0.0
 11
220.41675590895289
 21
235.465712727377
 31
0.0
  0
LINE
  5
C199
  8
AM_0
 10
224.41675590895289
 20
234.83571272737689
 30
0.0
 11
220.41675590895289
 21
234.83571272737689
 31
0.0
  0
ARC
  5
C19A
  8
AM_0
 10
224.69674590895281
 20
246.32570272737701
 30
0.0
 40
1.699996899999999
 50
180.00001999999549
 51
269.99999700000228
  0
ARC
  5
C19B
  8
AM_0
 10
224.4106459089528
 20
236.515702727377
 30
0.0
 40
1.680010999999999
 50
270.20803099999961
 51
89.791970000001896
  0
LINE
  5
C19C
  8
AM_0
 10
220.41675590895289
 20
238.19569272737701
 30
0.0
 11
226.59674570721239
 21
238.19569272737701
 31
0.0
  0
LINE
  5
C19D
  8
AM_0
 10
225.5967459089529
 20
244.62571272737711
 30
0.0
 11
224.69674590895281
 21
244.62571272737711
 31
0.0
  0
LINE
  5
C19F
  8
AM_0
 10
235.5967459089529
 20
253.50573272737719
 30
0.0
 11
245.5967459089529
 21
253.50573272737719
 31
0.0
  0
LINE
  5
C1A0
  8
AM_0
 10
227.5967459089529
 20
253.50570272737701
 30
0.0
 11
235.5967459089529
 21
253.50570272737701
 31
0.0
  0
LINE
  5
C1A1
  8
AM_0
 10
227.5967459089529
 20
265.46570272737699
 30
0.0
 11
235.5967459089529
 21
265.46570272737699
 31
0.0
  0
ARC
  5
C1A2
  8
AM_0
 10
226.93795747126339
 20
254.485702727377
 30
0.0
 40
2.0
 50
195.01429759842219
 51
260.1769509602783
1001
GENIUS_GENOBJ-N-FIL_13
1002
{
1000
OWNER
1000
GEN
1002
}
1001
GENIUS_GENODEF_13
1002
{
1000
HIER
1070
     0
1002
}
1002
{
1000
MANEDIT
1070
     0
1002
}
1002
{
1000
NOSEL
1070
     0
1002
}
1002
{
1000
BEHIND
1070
     0
1002
}
1002
{
1000
OTHER
1070
     0
1002
}
1002
{
1000
REACTOR
1002
}
  0
ARC
  5
C1A3
  8
AM_0
 10
226.21377247126341
 20
258.54570272737692
 30
0.0
 40
2.0
 50
195.01429759842219
 51
270.0
1001
GENIUS_GENODEF_13
1002
{
1000
HIER
1070
     0
1002
}
1002
{
1000
MANEDIT
1070
     0
1002
}
1002
{
1000
NOSEL
1070
     0
1002
}
1002
{
1000
BEHIND
1070
     0
1002
}
1002
{
1000
OTHER
1070
     0
1002
}
1002
{
1000
REACTOR
1002
}
1001
GENIUS_GENOBJ-N-FIL_13
1002
{
1000
OWNER
1000
GEN
1002
}
  0
ARC
  5
C1A4
  8
AM_0
 10
225.84363078909669
 20
260.58571272737697
 30
0.0
 40
2.0
 50
195.01429759842219
 51
270.0
1001
GENIUS_GENOBJ-N-FIL_13
1002
{
1000
OWNER
1000
GEN
1002
}
1001
GENIUS_GENODEF_13
1002
{
1000
HIER
1070
     0
1002
}
1002
{
1000
MANEDIT
1070
     0
1002
}
1002
{
1000
NOSEL
1070
     0
1002
}
1002
{
1000
BEHIND
1070
     0
1002
}
1002
{
1000
OTHER
1070
     0
1002
}
1002
{
1000
REACTOR
1002
}
  0
LINE
  5
C1A5
  8
AM_0
 10
224.86190225778611
 20
252.485702727377
 30
0.0
 11
226.5967456775623
 21
252.48570272737709
 31
0.0
  0
LINE
  5
C1A6
  8
AM_0
 10
224.3147402577861
 20
256.54570272737692
 30
0.0
 11
226.21377247126341
 21
256.54570272737692
 31
0.0
  0
LINE
  5
C1A7
  8
AM_0
 10
224.13235024228621
 20
258.58571272737697
 30
0.0
 11
225.84363078909669
 21
258.58571272737697
 31
0.0
  0
LINE
  5
C1A8
  8
AM_0
 10
222.35675590895281
 20
265.86571272737689
 30
0.0
 11
223.91190836816151
 21
260.0675925787084
 31
0.0
  0
ARC
  5
C1A9
  8
AM_0
 10
220.40710590895279
 20
265.34871272737689
 30
0.0
 40
2.0170177999999992
 50
14.851600000002559
 51
89.726299999997252
  0
LINE
  5
C1AA
  8
AM_0
 10
222.35675590895281
 20
265.20571272737681
 30
0.0
 11
224.28205005032811
 21
258.02758257870829
 31
0.0
  0
ARC
  5
C1AB
  8
AM_0
 10
220.40710590895279
 20
264.68871272737692
 30
0.0
 40
2.0170177999999992
 50
14.851600000002559
 51
89.726299999997252
  0
LINE
  5
C1AC
  8
AM_0
 10
222.35675590895281
 20
263.84571272737691
 30
0.0
 11
225.00623505032809
 21
253.96758257870849
 31
0.0
  0
ARC
  5
C1AD
  8
AM_0
 10
220.40710590895279
 20
263.32871272737691
 30
0.0
 40
2.0170177999999992
 50
14.851600000002559
 51
89.726299999997252
  0
ARC
  5
C1AE
  8
AM_0
 10
227.6051659089529
 20
252.49730272737699
 30
0.0
 40
1.008444499999998
 50
90.477799999999576
 51
170.45392999999649
  0
ARC
  5
C1AF
  8
AM_0
 10
227.2576059089528
 20
249.29249272737701
 30
0.0
 40
1.4868058999999989
 50
194.282739999999
 51
243.61022000000091
  0
LINE
  5
C1B0
  8
AM_0
 10
225.5967459089529
 20
251.925702727377
 30
0.0
 11
226.59674590895281
 21
251.925702727377
 31
0.0
  0
LINE
  5
C1B1
  8
AM_0
 10
226.59674590895281
 20
247.348342727377
 30
0.0
 11
225.5967459089529
 21
247.92567272737691
 31
0.0
  0
LINE
  5
C1B2
  8
AM_0
 10
226.59674590895281
 20
248.348342727377
 30
0.0
 11
225.5967459089529
 21
248.925702727377
 31
0.0
  0
LINE
  5
C1B3
  8
AM_0
 10
220.41675590895289
 20
247.80571272737711
 30
0.0
 11
222.99676590895291
 21
247.80571272737711
 31
0.0
  0
ARC
  5
C1B4
  8
AM_0
 10
224.69674590895281
 20
249.925702727377
 30
0.0
 40
1.7000007999999991
 50
90.000020000002024
 51
179.999989999999
  0
LINE
  5
C1B5
  8
AM_0
 10
222.35675590895281
 20
261.82571272737692
 30
0.0
 11
225.09256590895279
 21
251.62571272737699
 31
0.0
  0
LINE
  5
C1B6
  8
AM_0
 10
223.40280359111949
 20
261.96570272737688
 30
0.0
 11
226.59674565789251
 21
261.96570272737688
 31
0.0
  0
LINE
  5
C1B7
  8
AM_0
 10
225.5967459089529
 20
251.62570272737699
 30
0.0
 11
224.69674590895281
 21
251.62570272737699
 31
0.0
  0
ARC
  5
C1B8
  8
AM_0
 10
227.6058359089528
 20
264.45662272737701
 30
0.0
 40
1.009131199999999
 50
90.516129999999578
 51
179.48387000000039
  0
ARC
  5
C1B9
  8
AM_0
 10
220.40710590895279
 20
261.30871272737693
 30
0.0
 40
2.0170177999999992
 50
14.851600000002559
 51
89.726299999997252
  0
LINE
  5
C1BA
  8
AM_0
 10
235.5967459089529
 20
265.46573272737737
 30
0.0
 11
244.72334873654839
 21
265.46573272737737
 31
0.0
  0
ARC
  5
C1BB
  8
AM_0
 10
244.72334873654839
 20
262.46573272737737
 30
0.0
 40
2.9999999999999978
 50
35.68533471265463
 51
90.0
1001
GENIUS_GENOBJ-N-FIL_13
1002
{
1000
OWNER
1000
GEN
1002
}
1001
GENIUS_GENODEF_13
1002
{
1000
HIER
1070
     0
1002
}
1002
{
1000
MANEDIT
1070
     0
1002
}
1002
{
1000
NOSEL
1070
     0
1002
}
1002
{
1000
BEHIND
1070
     0
1002
}
1002
{
1000
OTHER
1070
     0
1002
}
1002
{
1000
REACTOR
1002
}
  0
ARC
  5
C1BC
  8
AM_0
 10
249.5967459089527
 20
265.96573272737731
 30
0.0
 40
2.9999999999999978
 50
215.68533471265459
 51
270.0
1001
GENIUS_GENOBJ-N-FIL_13
1002
{
1000
OWNER
1000
GEN
1002
}
1001
GENIUS_GENODEF_13
1002
{
1000
HIER
1070
     0
1002
}
1002
{
1000
MANEDIT
1070
     0
1002
}
1002
{
1000
NOSEL
1070
     0
1002
}
1002
{
1000
BEHIND
1070
     0
1002
}
1002
{
1000
OTHER
1070
     0
1002
}
1002
{
1000
REACTOR
1002
}
  0
LINE
  5
C1BD
  8
AM_0
 10
267.66828026264062
 20
250.1944613654714
 30
0.0
 11
272.09674590895281
 21
250.1944613654712
 31
0.0
  0
ARC
  5
C1BE
  8
AM_0
 10
267.66828026264062
 20
247.1944613654714
 30
0.0
 40
2.9999999999999978
 50
90.0
 51
173.33928567968309
1001
GENIUS_GENODEF_13
1002
{
1000
HIER
1070
     0
1002
}
1002
{
1000
MANEDIT
1070
     0
1002
}
1002
{
1000
NOSEL
1070
     0
1002
}
1002
{
1000
BEHIND
1070
     0
1002
}
1002
{
1000
OTHER
1070
     0
1002
}
1002
{
1000
REACTOR
1002
}
1001
GENIUS_GENOBJ-N-FIL_13
1002
{
1000
OWNER
1000
GEN
1002
}
  0
ARC
  5
C1BF
  8
AM_0
 10
285.09674626658051
 20
253.46574427709811
 30
0.0
 40
12.0
 50
266.62771271285948
 51
3.3722872871438159
  0
LINE
  5
C1C0
  8
ﾁｭｳｼﾝｾﾝ1
 10
285.09674626658051
 20
261.96574453041762
 30
0.0
 11
285.09674626658051
 21
244.96574402377831
 31
0.0
  0
LINE
  5
C1C1
  8
AM_0
 10
279.09674608776669
 20
236.4951815391567
 30
0.0
 11
279.09674608776669
 21
166.43630391559779
 31
0.0
  0
ARC
  5
C1C2
  8
AM_0
 10
284.09674608776669
 20
236.4951815391567
 30
0.0
 40
5.0
 50
86.627712712856194
 51
180.0
1001
GENIUS_GENOBJ-N-FIL_13
1002
{
1000
OWNER
1000
GEN
1002
}
1001
GENIUS_GENODEF_13
1002
{
1000
HIER
1070
     0
1002
}
1002
{
1000
MANEDIT
1070
     0
1002
}
1002
{
1000
NOSEL
1070
     0
1002
}
1002
{
1000
BEHIND
1070
     0
1002
}
1002
{
1000
OTHER
1070
     0
1002
}
1002
{
1000
REACTOR
1002
}
  0
LINE
  5
C1C8
  8
ﾁｭｳｼﾝｾﾝ1
 10
276.596746013261
 20
253.46574427709811
 30
0.0
 11
293.59677703747928
 21
253.46574427709811
 31
0.0
  0
CIRCLE
  5
C1C9
  8
AM_0
 10
285.09674626658051
 20
253.46574427709811
 30
0.0
 40
5.5000001639127731
  0
ARC
  5
C1CA
  8
AM_0
 10
276.80516885751638
 20
265.96573272737692
 30
0.0
 40
2.9999999999999978
 50
270.0
 51
303.55737886316939
1001
GENIUS_GENOBJ-N-FIL_13
1002
{
1000
OWNER
1000
GEN
1002
}
1001
GENIUS_GENODEF_13
1002
{
1000
HIER
1070
     0
1002
}
1002
{
1000
MANEDIT
1070
     0
1002
}
1002
{
1000
NOSEL
1070
     0
1002
}
1002
{
1000
BEHIND
1070
     0
1002
}
1002
{
1000
OTHER
1070
     0
1002
}
1002
{
1000
REACTOR
1002
}
  0
ARC
  5
C1CB
  8
AM_0
 10
302.06730900452192
 20
254.46574445591179
 30
0.0
 40
5.0
 50
90.0
 51
183.37228728714379
1001
GENIUS_GENOBJ-N-FIL_13
1002
{
1000
OWNER
1000
GEN
1002
}
1001
GENIUS_GENODEF_13
1002
{
1000
HIER
1070
     0
1002
}
1002
{
1000
MANEDIT
1070
     0
1002
}
1002
{
1000
NOSEL
1070
     0
1002
}
1002
{
1000
BEHIND
1070
     0
1002
}
1002
{
1000
OTHER
1070
     0
1002
}
1002
{
1000
REACTOR
1002
}
  0
ARC
  5
C1D2
  8
AM_0
 10
434.09678137371731
 20
166.43630391559759
 30
0.0
 40
5.0
 50
266.62771271285618
 51
0.0
1001
GENIUS_GENODEF_13
1002
{
1000
HIER
1070
     0
1002
}
1002
{
1000
MANEDIT
1070
     0
1002
}
1002
{
1000
NOSEL
1070
     0
1002
}
1002
{
1000
BEHIND
1070
     0
1002
}
1002
{
1000
OTHER
1070
     0
1002
}
1002
{
1000
REACTOR
1002
}
1001
GENIUS_GENOBJ-N-FIL_13
1002
{
1000
OWNER
1000
GEN
1002
}
  0
LINE
  5
C1D7
  8
AM_0
 10
445.0967815525313
 20
253.46574427709811
 30
0.0
 11
445.0967815525313
 21
149.46574117765641
 31
0.0
  0
LINE
  5
C1D8
  8
ﾁｭｳｼﾝｾﾝ1
 10
382.0967796749851
 20
271.71574463472558
 30
0.0
 11
382.0967796749851
 21
131.2157408200284
 31
0.0
  0
LINE
  5
C1DC
  8
AM_0
 10
382.09677967498521
 20
143.4657409988427
 30
0.0
 11
416.12621845696179
 21
143.4657409988427
 31
0.0
  0
ARC
  5
C1DD
  8
AM_0
 10
433.09678119490297
 20
149.46574117765641
 30
0.0
 40
12.0
 50
86.627712712856194
 51
183.37228728714379
  0
LINE
  5
C1DE
  8
ﾁｭｳｼﾝｾﾝ1
 10
424.59678094158352
 20
149.46574117765641
 30
0.0
 11
441.59678144822323
 21
149.46574117765641
 31
0.0
  0
ARC
  5
C1DF
  8
AM_0
 10
416.12621845696179
 20
148.4657409988427
 30
0.0
 40
5.0
 50
270.0
 51
3.3722872871438159
1001
GENIUS_GENODEF_13
1002
{
1000
HIER
1070
     0
1002
}
1002
{
1000
MANEDIT
1070
     0
1002
}
1002
{
1000
NOSEL
1070
     0
1002
}
1002
{
1000
BEHIND
1070
     0
1002
}
1002
{
1000
OTHER
1070
     0
1002
}
1002
{
1000
REACTOR
1002
}
1001
GENIUS_GENOBJ-N-FIL_13
1002
{
1000
OWNER
1000
GEN
1002
}
  0
ARC
  5
C1E0
  8
AM_0
 10
433.09678119490297
 20
149.46574117765641
 30
0.0
 40
12.000000357627879
 50
269.99999749552148
 51
0.0
  0
LINE
  5
C1E1
  8
ﾁｭｳｼﾝｾﾝ1
 10
433.09678119490297
 20
157.96574143097621
 30
0.0
 11
433.09678119490297
 21
140.96574092433681
 31
0.0
  0
CIRCLE
  5
C1E2
  8
AM_0
 10
433.09678119490297
 20
149.46574117765641
 30
0.0
 40
5.5000001639127731
  0
ARC
  5
C1ED
  8
AM_0
 10
433.09678119490297
 20
253.46574427709811
 30
0.0
 40
12.0
 50
176.62771271285609
 51
273.37228728714382
  0
LINE
  5
C1EE
  8
ﾁｭｳｼﾝｾﾝ1
 10
433.09678119490297
 20
261.96574453041762
 30
0.0
 11
433.09678119490297
 21
244.96574402377831
 31
0.0
  0
ARC
  5
C1EF
  8
AM_0
 10
382.0967796749851
 20
201.4657427273772
 30
0.0
 40
15.00000044703487
 50
105.46600965348711
 51
74.533984882811836
  0
LINE
  5
C1F0
  8
AM_0
 10
378.09677955577558
 20
219.765731065728
 30
0.0
 11
386.09677979419428
 21
219.765731065728
 31
0.0
  0
LINE
  5
C1F1
  8
AM_0
 10
378.09677955577558
 20
215.9225607851773
 30
0.0
 11
378.09677955577558
 21
219.765731065728
 31
0.0
  0
LINE
  5
C1F2
  8
AM_0
 10
386.09677979419428
 20
215.9225607851773
 30
0.0
 11
386.09677979419428
 21
219.765731065728
 31
0.0
  0
LINE
  5
C1F3
  8
AM_0
 10
439.09678137371731
 20
236.49518153915679
 30
0.0
 11
439.09678137371731
 21
166.43630391559759
 31
0.0
  0
ARC
  5
C1F4
  8
AM_0
 10
434.09678137371731
 20
236.49518153915679
 30
0.0
 40
5.0
 50
0.0
 51
93.37228728714382
1001
GENIUS_GENODEF_13
1002
{
1000
HIER
1070
     0
1002
}
1002
{
1000
MANEDIT
1070
     0
1002
}
1002
{
1000
NOSEL
1070
     0
1002
}
1002
{
1000
BEHIND
1070
     0
1002
}
1002
{
1000
OTHER
1070
     0
1002
}
1002
{
1000
REACTOR
1002
}
1001
GENIUS_GENOBJ-N-FIL_13
1002
{
1000
OWNER
1000
GEN
1002
}
  0
LINE
  5
C1F8
  8
AM_0
 10
382.09677967498521
 20
259.46574445591182
 30
0.0
 11
416.12621845696179
 21
259.46574445591182
 31
0.0
  0
LINE
  5
C201
  8
ﾁｭｳｼﾝｾﾝ1
 10
424.59678094158352
 20
253.46574427709811
 30
0.0
 11
441.59678144822323
 21
253.46574427709811
 31
0.0
  0
ARC
  5
C202
  8
AM_0
 10
416.12621845696179
 20
254.46574445591199
 30
0.0
 40
5.0
 50
356.62771271285618
 51
90.0
1001
GENIUS_GENOBJ-N-FIL_13
1002
{
1000
OWNER
1000
GEN
1002
}
1001
GENIUS_GENODEF_13
1002
{
1000
HIER
1070
     0
1002
}
1002
{
1000
MANEDIT
1070
     0
1002
}
1002
{
1000
NOSEL
1070
     0
1002
}
1002
{
1000
BEHIND
1070
     0
1002
}
1002
{
1000
OTHER
1070
     0
1002
}
1002
{
1000
REACTOR
1002
}
  0
ARC
  5
C203
  8
AM_0
 10
433.09678119490297
 20
253.46574427709811
 30
0.0
 40
12.00000035762787
 50
0.0
 51
90.000002504478445
  0
CIRCLE
  5
C205
  8
AM_0
 10
433.09678119490297
 20
253.46574427709811
 30
0.0
 40
5.5000001639127731
  0
LINE
  5
C228
  8
ﾁｭｳｼﾝｾﾝ1
 10
553.78384114526455
 20
201.46574272737729
 30
0.0
 11
694.30249358299238
 21
201.46574272737729
 31
0.0
  0
INSERT
  5
C2A9
  8
AM_0
  2
NEW_BLOCK
 10
673.0431688244422
 20
201.46574272737729
 30
0.0
 41
1.111111111111142
 42
1.111111111111142
 43
1.111111111111142
  0
ARC
  5
C2AA
  8
AM_0
 10
624.06007736412823
 20
201.45574272737721
 30
0.0
 40
64.003665999999996
 50
325.87476838391171
 51
34.125231616088278
  0
ARC
  5
C2AB
  8
AM_0
 10
684.89021736412838
 20
166.46430572737731
 30
0.0
 40
0.9985855199999996
 50
269.59630999999581
 51
70.522550000004287
  0
ARC
  5
C2AC
  8
AM_0
 10
563.22906736412847
 20
166.46625872737729
 30
0.0
 40
1.000534899999999
 50
92.6283099999971
 51
269.66321999999968
  0
LINE
  5
C2B1
  8
AM_0
 10
677.04317657304637
 20
163.9657416097902
 30
0.0
 11
677.04317657304637
 21
238.96574384496441
 31
0.0
  0
LINE
  5
C2B2
  8
AM_0
 10
575.04315827441974
 20
138.82725209107349
 30
0.0
 11
575.04315827441974
 21
264.1042638812599
 31
0.0
  0
LINE
  5
C2B3
  8
AM_0
 10
653.04316822839564
 20
137.46574082002871
 30
0.0
 11
653.04316822839564
 21
265.46574463472581
 31
0.0
  0
LINE
  5
C2B4
  8
ﾁｭｳｼﾝｾﾝ1
 10
624.04316736412864
 20
95.215742727377275
 30
0.0
 11
624.04316736412852
 21
271.71574293994269
 31
0.0
  0
LINE
  5
C2B5
  8
AM_0
 10
571.04316578460543
 20
163.9657416097902
 30
0.0
 11
571.04316578460543
 21
238.96574384496441
 31
0.0
  0
LINE
  5
C2B6
  8
AM_0
 10
673.0431688244422
 20
137.8148314066041
 30
0.0
 11
673.0431688244422
 21
265.11665404815039
 31
0.0
  0
LINE
  5
C2B7
  8
AM_0
 10
647.04316736412852
 20
104.4657627273773
 30
0.0
 11
641.8431573641285
 21
101.4657427273773
 31
0.0
  0
LINE
  5
C2B8
  8
AM_0
 10
653.04316736412852
 20
137.46574272737729
 30
0.0
 11
630.95756684447736
 21
137.85124857532139
 31
0.0
  0
LINE
  5
C2B9
  8
AM_0
 10
654.54316736412852
 20
122.9657427273773
 30
0.0
 11
593.54316736412818
 21
122.9657427273773
 31
0.0
  0
LINE
  5
C2BA
  8
AM_0
 10
655.54316736412852
 20
129.4657427273772
 30
0.0
 11
592.54316736412818
 21
129.4657427273772
 31
0.0
  0
LINE
  5
C2BB
  8
AM_0
 10
594.04316736412852
 20
131.46574272737729
 30
0.0
 11
654.08314736412831
 21
131.46574272737729
 31
0.0
  0
LINE
  5
C2BC
  8
AM_0
 10
657.54316736412829
 20
126.4657427273773
 30
0.0
 11
590.54316736412852
 21
126.4657427273773
 31
0.0
  0
LINE
  5
C2BD
  8
AM_0
 10
653.04316736412852
 20
104.4657427273774
 30
0.0
 11
595.04316736412829
 21
104.4657427273774
 31
0.0
  0
LINE
  5
C2BF
  8
AM_0
 10
653.04316822839564
 20
137.46574082002871
 30
0.0
 11
575.04315827441974
 21
138.82725209107349
 31
0.0
  0
LINE
  5
C2C0
  8
ﾁｭｳｼﾝｾﾝ1
 10
571.29316208911746
 20
149.46574117765641
 30
0.0
 11
676.79317263913981
 21
149.46574117765641
 31
0.0
  0
LINE
  5
C2C1
  8
ｶｸﾚｾﾝ2
 10
575.04316590381472
 20
154.9657413415693
 30
0.0
 11
673.04317645383685
 21
154.9657413415693
 31
0.0
  0
LINE
  5
C2C2
  8
ｶｸﾚｾﾝ2
 10
575.04316590381472
 20
143.9657410137437
 30
0.0
 11
673.04317645383685
 21
143.9657410137437
 31
0.0
  0
LINE
  5
C2C6
  8
AM_0
 10
590.54316736412852
 20
126.4657427273773
 30
0.0
 11
590.54316736412852
 21
111.4657427273773
 31
0.0
  0
LINE
  5
C2C7
  8
AM_0
 10
592.54316736412818
 20
111.4657427273773
 30
0.0
 11
592.54316736412818
 21
129.4657427273772
 31
0.0
  0
ARC
  5
C2C8
  8
AM_0
 10
595.04316736412829
 20
105.4657427273773
 30
0.0
 40
0.9999999999999998
 50
180.00000299999761
 51
270.000010000001
  0
LINE
  5
C2C9
  8
AM_0
 10
592.54316736412818
 20
111.4657427273773
 30
0.0
 11
590.54316736412852
 21
111.4657427273773
 31
0.0
  0
LINE
  5
C2CA
  8
AM_0
 10
594.04316736412852
 20
110.4657427273773
 30
0.0
 11
593.54316736412818
 21
110.4657427273773
 31
0.0
  0
ARC
  5
C2CB
  8
AM_0
 10
593.54316736412818
 20
111.4657427273773
 30
0.0
 40
0.9999999999999998
 50
180.00000299999761
 51
270.000010000001
  0
ARC
  5
C2CC
  8
AM_0
 10
593.54316736412818
 20
123.9657427273773
 30
0.0
 40
0.9999999999999998
 50
180.00000299999761
 51
270.000010000001
  0
LINE
  5
C2CD
  8
AM_0
 10
594.04316736412852
 20
105.4657427273773
 30
0.0
 11
594.04316736412852
 21
122.9657427273773
 31
0.0
  0
LINE
  5
C2CE
  8
AM_0
 10
571.04316736412864
 20
165.17927884355041
 30
0.0
 11
563.18317736412826
 21
165.46574772737731
 31
0.0
  0
ARC
  5
C2CF
  8
AM_0
 10
577.55372736412835
 20
154.97629072737729
 30
0.0
 40
5.010561899999999
 50
180.12064999999691
 51
239.93027090092301
  0
ARC
  5
C2D0
  8
AM_0
 10
569.54317736412816
 20
162.48246687032179
 30
0.0
 40
2.9999999999999978
 50
0.0
 51
29.631860164015841
1001
GENIUS_GENOBJ-N-FIL_13
1002
{
1000
OWNER
1000
GEN
1002
}
1001
GENIUS_GENODEF_13
1002
{
1000
HIER
1070
     0
1002
}
1002
{
1000
MANEDIT
1070
     0
1002
}
1002
{
1000
NOSEL
1070
     0
1002
}
1002
{
1000
BEHIND
1070
     0
1002
}
1002
{
1000
OTHER
1070
     0
1002
}
1002
{
1000
REACTOR
1002
}
  0
LINE
  5
C2D1
  8
AM_0
 10
572.54317736412816
 20
154.9657397273773
 30
0.0
 11
572.54317736412816
 21
162.4824668703217
 31
0.0
  0
LINE
  5
C2D2
  8
AM_0
 10
571.04316578460543
 20
163.9657416097902
 30
0.0
 11
575.04316590381472
 21
163.9657416097902
 31
0.0
  0
ARC
  5
C2D3
  8
AM_0
 10
589.04328736412833
 20
136.57297272737739
 30
0.0
 40
1.000226099999999
 50
179.2686670000009
 51
358.43981999999932
  0
LINE
  5
C2D4
  8
AM_0
 10
587.96996771095121
 20
138.6016004093274
 30
0.0
 11
588.04316736412852
 21
136.54573272737721
 31
0.0
  0
LINE
  5
C2D5
  8
AM_0
 10
590.10256151639078
 20
138.5643758211821
 30
0.0
 11
590.02317736412851
 21
136.3257427273773
 31
0.0
  0
LINE
  5
C2D6
  8
AM_0
 10
593.80148654531013
 20
138.4998108016126
 30
0.0
 11
594.04316887575635
 21
129.4657427273774
 31
0.0
  0
ARC
  5
C2D7
  8
AM_0
 10
591.87437736412869
 20
135.54339272737721
 30
0.0
 40
2.0097484999999988
 50
1.7779099999985699
 51
157.0903460000016
  0
LINE
  5
C2D8
  8
AM_0
 10
641.8431573641285
 20
101.4657427273773
 30
0.0
 11
606.23316736412824
 21
101.4657427273773
 31
0.0
  0
LINE
  5
C2D9
  8
AM_0
 10
601.04316736412818
 20
104.4657427273774
 30
0.0
 11
606.23316736412824
 21
101.4657427273773
 31
0.0
  0
LINE
  5
C2DA
  8
AM_0
 10
614.85974775721502
 20
138.13223723993849
 30
0.0
 11
630.95756684447781
 21
137.85124857532139
 31
0.0
  0
ARC
  5
C2DB
  8
AM_0
 10
624.01655736412863
 20
201.4632527273773
 30
0.0
 40
63.989566999999987
 50
261.77281830828679
 51
270.02382639558652
  0
ARC
  5
C2DC
  8
AM_0
 10
624.01655736412863
 20
201.4632527273773
 30
0.0
 40
63.989566999999987
 50
270.02382639558652
 51
276.22718035921889
  0
LINE
  5
C2E0
  8
AM_0
 10
655.54316736412852
 20
111.4657427273773
 30
0.0
 11
655.54316736412852
 21
129.4657427273772
 31
0.0
  0
LINE
  5
C2E1
  8
AM_0
 10
657.54316736412829
 20
126.4657427273773
 30
0.0
 11
657.54316736412829
 21
111.4657427273773
 31
0.0
  0
ARC
  5
C2E2
  8
AM_0
 10
653.04316736412852
 20
105.4657427273773
 30
0.0
 40
0.9999999999999998
 50
269.999989999999
 51
0.0
  0
ARC
  5
C2E3
  8
AM_0
 10
654.54316736412852
 20
111.4657427273773
 30
0.0
 40
0.9999999999999998
 50
269.999989999999
 51
0.0
  0
ARC
  5
C2E4
  8
AM_0
 10
654.54316736412852
 20
123.9657427273773
 30
0.0
 40
0.9999999999999998
 50
269.999989999999
 51
0.0
  0
LINE
  5
C2E5
  8
AM_0
 10
654.54316736412852
 20
110.4657427273773
 30
0.0
 11
654.04316736412852
 21
110.4657427273773
 31
0.0
  0
LINE
  5
C2E6
  8
AM_0
 10
654.04316736412852
 20
105.4657427273773
 30
0.0
 11
654.04316736412852
 21
122.9657427273773
 31
0.0
  0
LINE
  5
C2E7
  8
AM_0
 10
655.54316736412852
 20
111.4657427273773
 30
0.0
 11
657.54316736412829
 21
111.4657427273773
 31
0.0
  0
LINE
  5
C2E8
  8
AM_0
 10
673.0431688244422
 20
137.8148314066041
 30
0.0
 11
653.04316822839564
 21
137.46574082002871
 31
0.0
  0
ARC
  5
C2E9
  8
AM_0
 10
656.20152736412831
 20
135.5477627273774
 30
0.0
 40
1.9992131999999989
 50
22.90132999999647
 51
178.33797800000431
  0
LINE
  5
C2EA
  8
AM_0
 10
654.24750872991353
 20
137.48676487331991
 30
0.0
 11
654.04314532925173
 21
129.4657427273774
 31
0.0
  0
ARC
  5
C2EB
  8
AM_0
 10
659.04301736412845
 20
136.57365272737741
 30
0.0
 40
1.000231299999998
 50
181.598942999999
 51
0.6925799999989849
  0
LINE
  5
C2EC
  8
AM_0
 10
660.0786508985716
 20
137.5885492387535
 30
0.0
 11
660.04313736412848
 21
136.54574272737739
 31
0.0
  0
LINE
  5
C2ED
  8
AM_0
 10
657.99964494691756
 20
137.55225955563461
 30
0.0
 11
658.04313736412837
 21
136.3257427273773
 31
0.0
  0
LINE
  5
C2EE
  8
AM_0
 10
677.04316736412829
 20
165.17854122259541
 30
0.0
 11
684.92316736412806
 21
165.46573972737721
 31
0.0
  0
ARC
  5
C2EF
  8
AM_0
 10
678.54316736412829
 20
162.45466374882241
 30
0.0
 40
2.9999999999999978
 50
149.75537130699439
 51
180.0
1001
GENIUS_GENOBJ-N-FIL_13
1002
{
1000
OWNER
1000
GEN
1002
}
1001
GENIUS_GENODEF_13
1002
{
1000
HIER
1070
     0
1002
}
1002
{
1000
MANEDIT
1070
     0
1002
}
1002
{
1000
NOSEL
1070
     0
1002
}
1002
{
1000
BEHIND
1070
     0
1002
}
1002
{
1000
OTHER
1070
     0
1002
}
1002
{
1000
REACTOR
1002
}
  0
LINE
  5
C2F0
  8
AM_0
 10
675.54316736412818
 20
162.45466374882241
 30
0.0
 11
675.54316736412818
 21
154.9657397273773
 31
0.0
  0
ARC
  5
C2F1
  8
AM_0
 10
670.54951736412818
 20
154.95939172737721
 30
0.0
 40
4.9936542999999984
 50
299.95791578702659
 51
0.0728599999961018
  0
LINE
  5
C2F2
  8
AM_0
 10
677.04317657304637
 20
163.9657416097902
 30
0.0
 11
673.04317645383685
 21
163.9657416097902
 31
0.0
  0
LINE
  5
C2F6
  8
AM_0
 10
653.04316822839564
 20
265.46574463472581
 30
0.0
 11
575.04315827441974
 21
264.1042638812599
 31
0.0
  0
LINE
  5
C2F7
  8
ﾁｭｳｼﾝｾﾝ1
 10
571.29316208911712
 20
253.4657442770982
 30
0.0
 11
676.79317263913947
 21
253.4657442770982
 31
0.0
  0
LINE
  5
C2F8
  8
ｶｸﾚｾﾝ2
 10
575.04316590381472
 20
258.96574444101083
 30
0.0
 11
673.04317645383685
 21
258.96574444101083
 31
0.0
  0
LINE
  5
C2F9
  8
ｶｸﾚｾﾝ2
 10
575.04316590381472
 20
247.9657441131852
 30
0.0
 11
673.04317645383685
 21
247.9657441131852
 31
0.0
  0
LINE
  5
C2FB
  8
AM_0
 10
572.54317736412816
 20
240.42901858443281
 30
0.0
 11
572.54317736412816
 21
247.9657427273774
 31
0.0
  0
ARC
  5
C2FD
  8
AM_0
 10
624.06007736412823
 20
201.45574272737721
 30
0.0
 40
64.014987999999974
 50
145.91379204811739
 51
214.08620795188261
  0
ARC
  5
C2FE
  8
AM_0
 10
559.14390736412849
 20
206.4653327273773
 30
0.0
 40
1.0004146999999981
 50
90.041480000001087
 51
267.66698999999528
  0
LINE
  5
C2FF
  8
AM_0
 10
567.04316566539592
 20
223.96574339792949
 30
0.0
 11
567.04316566539592
 21
178.96574205682501
 31
0.0
  0
ARC
  5
C300
  8
AM_0
 10
559.81696736412823
 20
186.46597272737731
 30
0.0
 40
1.000333199999998
 50
91.936239999999614
 51
269.20963000000029
  0
LINE
  5
C301
  8
AM_0
 10
569.64465361246528
 20
167.68477860574549
 30
0.0
 11
563.18317736412826
 21
167.4657397273773
 31
0.0
  0
LINE
  5
C302
  8
AM_0
 10
567.04316566539592
 20
178.96574205682501
 30
0.0
 11
571.04316578460543
 21
178.96574205682501
 31
0.0
  0
LINE
  5
C303
  8
AM_0
 10
562.54317736412838
 20
174.22574172737731
 30
0.0
 11
560.52317736412829
 21
174.08574272737729
 31
0.0
  0
LINE
  5
C304
  8
AM_0
 10
562.54316736412829
 20
171.68574072737729
 30
0.0
 11
560.52317736412829
 21
171.82574072737731
 31
0.0
  0
LINE
  5
C305
  8
AM_0
 10
562.54317736412838
 20
175.4057417273772
 30
0.0
 11
561.12318736412828
 21
175.4657397273773
 31
0.0
  0
ARC
  5
C306
  8
AM_0
 10
560.54353736412838
 20
173.5858037273772
 30
0.0
 40
0.50035203
 50
92.331169999999602
 51
180.00710999999771
  0
ARC
  5
C307
  8
AM_0
 10
560.55740736412838
 20
172.3389927273773
 30
0.0
 40
0.5143923799999999
 50
181.47632999999809
 51
266.1853900000005
  0
LINE
  5
C308
  8
AM_0
 10
560.04317736412827
 20
172.96573972737721
 30
0.0
 11
560.04317736412827
 21
173.58574272737729
 31
0.0
  0
LINE
  5
C309
  8
AM_0
 10
560.04317736412827
 20
172.96573972737721
 30
0.0
 11
560.04317736412827
 21
172.32574072737719
 31
0.0
  0
ARC
  5
C30A
  8
AM_0
 10
561.17234736412831
 20
176.4663277273774
 30
0.0
 40
1.000625599999998
 50
92.817069999998395
 51
269.4744600000011
  0
LINE
  5
C30B
  8
AM_0
 10
562.54317736412838
 20
176.4657397273773
 30
0.0
 11
562.54317736412838
 21
167.2057457273774
 31
0.0
  0
ARC
  5
C30C
  8
AM_0
 10
563.64669736412816
 20
176.45617272737741
 30
0.0
 40
1.090437399999999
 50
92.287669999999167
 51
269.814680000002
  0
LINE
  5
C30D
  8
AM_0
 10
564.62932860991725
 20
177.5860477327914
 30
0.0
 11
561.12316736412834
 21
177.46573972737721
 31
0.0
  0
LINE
  5
C30E
  8
AM_0
 10
565.59777533901695
 20
175.3043730817283
 30
0.0
 11
563.60317736412821
 21
175.36574172737721
 31
0.0
  0
LINE
  5
C30F
  8
AM_0
 10
562.06338666784325
 20
185.3854533152745
 30
0.0
 11
559.7831673641283
 21
185.4657427273772
 31
0.0
  0
LINE
  5
C310
  8
AM_0
 10
560.13989788429376
 20
205.42638015522229
 30
0.0
 11
559.10317736412821
 21
205.46574272737729
 31
0.0
  0
LINE
  5
C311
  8
AM_0
 10
561.54750080794167
 20
187.5265815494102
 30
0.0
 11
559.7831673641283
 21
187.46574272737729
 31
0.0
  0
LINE
  5
C312
  8
AM_0
 10
560.29956837860595
 20
195.42448762771059
 30
0.0
 11
559.10317736412821
 21
195.46574272737729
 31
0.0
  0
LINE
  5
C313
  8
AM_0
 10
560.13798884837911
 20
197.4919404864722
 30
0.0
 11
559.10317736412821
 21
197.4657427273772
 31
0.0
  0
ARC
  5
C314
  8
AM_0
 10
559.14407736412829
 20
196.4661627273772
 30
0.0
 40
1.000418199999999
 50
92.342590000002119
 51
269.94893999999681
  0
ARC
  5
C315
  8
AM_0
 10
561.17217736412817
 20
226.46516272737719
 30
0.0
 40
1.0006207999999981
 50
90.515970000001047
 51
267.19250000000471
  0
LINE
  5
C316
  8
AM_0
 10
562.54317736412838
 20
235.72575272737731
 30
0.0
 11
562.54317736412838
 21
226.46574272737729
 31
0.0
  0
ARC
  5
C317
  8
AM_0
 10
563.64669736412816
 20
226.45617272737729
 30
0.0
 40
1.090437399999999
 50
92.287669999999167
 51
269.81468999999669
  0
LINE
  5
C318
  8
AM_0
 10
567.04316566539592
 20
223.96574339792949
 30
0.0
 11
571.04316578460543
 21
223.96574339792949
 31
0.0
  0
LINE
  5
C319
  8
AM_0
 10
562.07488844955935
 20
217.54643656352749
 30
0.0
 11
559.7831673641283
 21
217.4657427273774
 31
0.0
  0
LINE
  5
C31A
  8
AM_0
 10
560.30374490657289
 20
207.5071414771312
 30
0.0
 11
559.10316736412824
 21
207.46574272737729
 31
0.0
  0
LINE
  5
C31B
  8
AM_0
 10
561.55722328682282
 20
215.40456864889671
 30
0.0
 11
559.7831673641283
 21
215.4657427273772
 31
0.0
  0
ARC
  5
C31C
  8
AM_0
 10
559.81689736412829
 20
216.4655127273773
 30
0.0
 40
1.000331199999998
 50
90.785589999996503
 51
268.0685399999997
  0
LINE
  5
C31D
  8
AM_0
 10
564.64674292686834
 20
225.34483581636709
 30
0.0
 11
561.12318736412828
 21
225.4657427273774
 31
0.0
  0
LINE
  5
C31E
  8
AM_0
 10
571.04316736412829
 20
237.7343067300059
 30
0.0
 11
563.18316736412839
 21
237.4657427273772
 31
0.0
  0
LINE
  5
C31F
  8
AM_0
 10
569.66023375456939
 20
235.2278843883806
 30
0.0
 11
563.18317736412826
 21
235.4657427273774
 31
0.0
  0
LINE
  5
C320
  8
AM_0
 10
562.54317736412838
 20
227.5057527273772
 30
0.0
 11
561.12318736412828
 21
227.4657427273772
 31
0.0
  0
LINE
  5
C321
  8
AM_0
 10
562.54316736412829
 20
228.6857427273774
 30
0.0
 11
560.52317736412829
 21
228.8257427273773
 31
0.0
  0
LINE
  5
C322
  8
AM_0
 10
562.54316736412829
 20
231.24574272737729
 30
0.0
 11
560.52317736412829
 21
231.08573272737721
 31
0.0
  0
ARC
  5
C323
  8
AM_0
 10
560.55740736412838
 20
229.33900272737719
 30
0.0
 40
0.5143923799999999
 50
181.47632999999809
 51
266.1853900000005
  0
LINE
  5
C324
  8
AM_0
 10
560.04317736412827
 20
229.9657427273772
 30
0.0
 11
560.04317736412827
 21
229.3257427273773
 31
0.0
  0
ARC
  5
C325
  8
AM_0
 10
560.54353736412838
 20
230.5858127273772
 30
0.0
 40
0.50035203
 50
92.331169999999602
 51
180.00710999999771
  0
LINE
  5
C326
  8
AM_0
 10
560.04317736412827
 20
229.9657427273772
 30
0.0
 11
560.04317736412827
 21
230.58573272737729
 31
0.0
  0
ARC
  5
C327
  8
AM_0
 10
563.22889736412844
 20
236.46522272737721
 30
0.0
 40
1.000530599999998
 50
90.327200000001042
 51
267.38127000000151
  0
LINE
  5
C328
  8
AM_0
 10
565.61566193898523
 20
227.62314627796249
 30
0.0
 11
563.60317736412821
 21
227.54574272737719
 31
0.0
  0
ARC
  5
C329
  8
AM_0
 10
569.54317736412816
 20
240.42901858443281
 30
0.0
 40
2.9999999999999978
 50
330.80663173194722
 51
0.0
1001
GENIUS_GENOBJ-N-FIL_13
1002
{
1000
OWNER
1000
GEN
1002
}
1001
GENIUS_GENODEF_13
1002
{
1000
HIER
1070
     0
1002
}
1002
{
1000
MANEDIT
1070
     0
1002
}
1002
{
1000
NOSEL
1070
     0
1002
}
1002
{
1000
BEHIND
1070
     0
1002
}
1002
{
1000
OTHER
1070
     0
1002
}
1002
{
1000
REACTOR
1002
}
  0
LINE
  5
C32A
  8
AM_0
 10
571.04316578460543
 20
238.96574384496441
 30
0.0
 11
575.04316590381472
 21
238.96574384496441
 31
0.0
  0
ARC
  5
C334
  8
AM_0
 10
577.54954736412844
 20
247.9593627273772
 30
0.0
 40
5.0063781999999977
 50
120.0421768243492
 51
179.92705000000001
  0
ARC
  5
C33B
  8
AM_0
 10
599.04340736412871
 20
264.34953072737721
 30
0.0
 40
1.000393499999999
 50
10.99352963525819
 51
179.0714379999965
  0
ARC
  5
C346
  8
AM_0
 10
624.03312736412852
 20
201.45939272737701
 30
0.0
 40
64.006351000000123
 50
89.991012616410785
 51
98.280567367618843
  0
LINE
  5
C349
  8
AM_0
 10
610.07866201408535
 20
264.71578559217699
 30
0.0
 11
610.04313736412848
 21
265.74574472737731
 31
0.0
  0
LINE
  5
C34A
  8
AM_0
 10
608.00562327250805
 20
264.67960013669159
 30
0.0
 11
608.04316736412852
 21
265.74574872737719
 31
0.0
  0
ARC
  5
C34B
  8
AM_0
 10
609.04356736412865
 20
265.70505272737728
 30
0.0
 40
1.000413999999999
 50
2.3310499999979029
 51
179.96048300000029
  0
LINE
  5
C34C
  8
AM_0
 10
620.07021223523373
 20
265.35693656239198
 30
0.0
 11
620.04316736412829
 21
266.42574472737732
 31
0.0
  0
LINE
  5
C34D
  8
AM_0
 10
618.00067312760223
 20
265.19340715987772
 30
0.0
 11
618.04316736412852
 21
266.42574072737739
 31
0.0
  0
ARC
  5
C34E
  8
AM_0
 10
619.0437173641285
 20
266.37799972737719
 30
0.0
 40
1.0005847999999991
 50
2.7350400000044401
 51
179.5564910000007
  0
LINE
  5
C34F
  8
AM_0
 10
628.00276501507619
 20
265.36181354908069
 30
0.0
 11
628.04316736412852
 21
266.42574072737739
 31
0.0
  0
LINE
  5
C350
  8
AM_0
 10
630.08544780480224
 20
265.19960935718399
 30
0.0
 11
630.04316736412818
 21
266.42574072737739
 31
0.0
  0
ARC
  5
C351
  8
AM_0
 10
629.04258736412851
 20
266.37732072737731
 30
0.0
 40
1.000603799999999
 50
0.4821899999981641
 51
177.22628299999701
  0
ARC
  5
C352
  8
AM_0
 10
624.03312736412852
 20
201.45939272737701
 30
0.0
 40
64.006351000000123
 50
83.71945637507504
 51
89.991012616410785
  0
LINE
  5
C353
  8
AM_0
 10
638.02447465154717
 20
265.20358735820872
 30
0.0
 11
638.04316736412852
 21
265.74574472737731
 31
0.0
  0
LINE
  5
C354
  8
AM_0
 10
640.06100749775283
 20
265.23913559335392
 30
0.0
 11
640.04316736412829
 21
265.74574472737731
 31
0.0
  0
ARC
  5
C355
  8
AM_0
 10
639.04273736412836
 20
265.70437772737739
 30
0.0
 40
1.000428199999998
 50
0.0782199999979826
 51
177.63024800000301
  0
LINE
  5
C35A
  8
AM_0
 10
675.54316736412818
 20
247.9657427273774
 30
0.0
 11
675.54316736412818
 21
240.4568217059321
 31
0.0
  0
ARC
  5
C35E
  8
AM_0
 10
687.56046736412827
 20
230.6032527273774
 30
0.0
 40
0.48302591
 50
357.92275099999972
 51
87.305360000000846
  0
ARC
  5
C35F
  8
AM_0
 10
687.54612736412821
 20
229.32143272737721
 30
0.0
 40
0.4970828599999999
 50
274.27614450000129
 51
0.4957440000002111
  0
LINE
  5
C360
  8
AM_0
 10
685.94547901403178
 20
217.54946432011039
 30
0.0
 11
688.32319736412842
 21
217.4657427273774
 31
0.0
  0
LINE
  5
C361
  8
AM_0
 10
686.4645831635039
 20
215.40165285877771
 30
0.0
 11
688.32319736412842
 21
215.4657427273772
 31
0.0
  0
LINE
  5
C362
  8
AM_0
 10
687.88145842619986
 20
205.42314596513651
 30
0.0
 11
689.00318736412828
 21
205.46574272737729
 31
0.0
  0
LINE
  5
C363
  8
AM_0
 10
687.71712994712755
 20
207.51008136423479
 30
0.0
 11
689.00315736412824
 21
207.46574272737729
 31
0.0
  0
LINE
  5
C364
  8
AM_0
 10
685.9569830920841
 20
185.3824254996585
 30
0.0
 11
688.32316736412815
 21
185.4657427273772
 31
0.0
  0
LINE
  5
C365
  8
AM_0
 10
686.47430352362881
 20
187.52949741258979
 30
0.0
 11
688.32319736412842
 21
187.46574272737729
 31
0.0
  0
LINE
  5
C366
  8
AM_0
 10
687.88329906770355
 20
197.4940937497617
 30
0.0
 11
689.00315736412824
 21
197.4657427273772
 31
0.0
  0
LINE
  5
C367
  8
AM_0
 10
687.7213078665817
 20
195.42154076653111
 30
0.0
 11
689.00315736412824
 21
195.46574272737729
 31
0.0
  0
ARC
  5
C368
  8
AM_0
 10
687.54612736412821
 20
172.3214447273773
 30
0.0
 40
0.4970828599999999
 50
274.27614450000129
 51
0.4957440000002111
  0
ARC
  5
C369
  8
AM_0
 10
687.56046736412827
 20
173.6032517273772
 30
0.0
 40
0.48302591
 50
357.92275099999972
 51
87.305360000000846
  0
LINE
  5
C36B
  8
AM_0
 10
681.04317669225566
 20
223.96574339792949
 30
0.0
 11
681.04317669225566
 21
178.96574205682501
 31
0.0
  0
LINE
  5
C36C
  8
AM_0
 10
681.04317669225566
 20
178.96574205682501
 30
0.0
 11
677.04317657304637
 21
178.96574205682501
 31
0.0
  0
ARC
  5
C36D
  8
AM_0
 10
686.94782736412822
 20
176.4660527273773
 30
0.0
 40
1.000317799999999
 50
269.73379000000142
 51
87.974690000002326
  0
LINE
  5
C36E
  8
AM_0
 10
683.39298490021315
 20
177.58893211041939
 30
0.0
 11
686.98319736412816
 21
177.46573972737721
 31
0.0
  0
ARC
  5
C36F
  8
AM_0
 10
684.47346736412828
 20
176.4559207273773
 30
0.0
 40
1.0902267999999991
 50
269.45945999999799
 51
88.438189999999508
  0
LINE
  5
C370
  8
AM_0
 10
685.54316736412829
 20
171.68574072737729
 30
0.0
 11
687.58317736412823
 21
171.82574072737731
 31
0.0
  0
LINE
  5
C371
  8
AM_0
 10
685.54319736412822
 20
174.22574172737731
 30
0.0
 11
687.58317736412823
 21
174.08574272737729
 31
0.0
  0
LINE
  5
C372
  8
AM_0
 10
685.54316736412829
 20
176.4657397273773
 30
0.0
 11
685.54316736412829
 21
167.2057457273774
 31
0.0
  0
LINE
  5
C373
  8
AM_0
 10
685.54316736412829
 20
175.4057417273772
 30
0.0
 11
686.98316736412824
 21
175.46574772737731
 31
0.0
  0
LINE
  5
C374
  8
AM_0
 10
688.04316736412818
 20
172.96573972737721
 30
0.0
 11
688.04316736412818
 21
172.32574072737719
 31
0.0
  0
LINE
  5
C375
  8
AM_0
 10
688.04316736412818
 20
172.96573972737721
 30
0.0
 11
688.04316736412818
 21
173.58574272737729
 31
0.0
  0
LINE
  5
C376
  8
AM_0
 10
678.3782578553147
 20
167.68760784453809
 30
0.0
 11
684.92316736412806
 21
167.46574772737719
 31
0.0
  0
LINE
  5
C377
  8
AM_0
 10
682.42218731309333
 20
175.30170935580699
 30
0.0
 11
684.50318736412817
 21
175.36574172737721
 31
0.0
  0
ARC
  5
C378
  8
AM_0
 10
686.94798736412815
 20
226.46543272737719
 30
0.0
 40
1.000315299999998
 50
272.01573779999671
 51
90.275789999997585
  0
LINE
  5
C379
  8
AM_0
 10
685.54316736412829
 20
235.72575272737731
 30
0.0
 11
685.54316736412829
 21
226.46574272737729
 31
0.0
  0
ARC
  5
C37A
  8
AM_0
 10
684.47346736412828
 20
226.45591272737741
 30
0.0
 40
1.0902267999999991
 50
269.45943999999838
 51
88.438200000002624
  0
LINE
  5
C37B
  8
AM_0
 10
681.04317669225566
 20
223.96574339792949
 30
0.0
 11
677.04317657304637
 21
223.96574339792949
 31
0.0
  0
LINE
  5
C37C
  8
AM_0
 10
683.37557275688073
 20
225.34195210952751
 30
0.0
 11
686.98316736412824
 21
225.4657427273774
 31
0.0
  0
LINE
  5
C37D
  8
AM_0
 10
677.04316736412829
 20
237.7349913256102
 30
0.0
 11
684.92316736412806
 21
237.4657427273772
 31
0.0
  0
ARC
  5
C37E
  8
AM_0
 10
678.54316736412829
 20
240.4568217059321
 30
0.0
 40
2.9999999999999978
 50
180.0
 51
209.80345756372549
1001
GENIUS_GENODEF_13
1002
{
1000
HIER
1070
     0
1002
}
1002
{
1000
MANEDIT
1070
     0
1002
}
1002
{
1000
NOSEL
1070
     0
1002
}
1002
{
1000
BEHIND
1070
     0
1002
}
1002
{
1000
OTHER
1070
     0
1002
}
1002
{
1000
REACTOR
1002
}
1001
GENIUS_GENOBJ-N-FIL_13
1002
{
1000
OWNER
1000
GEN
1002
}
  0
LINE
  5
C37F
  8
AM_0
 10
677.04317657304637
 20
238.96574384496441
 30
0.0
 11
673.04317645383685
 21
238.96574384496441
 31
0.0
  0
LINE
  5
C380
  8
AM_0
 10
678.36282230427719
 20
235.22482542032819
 30
0.0
 11
684.92316736412806
 21
235.4657427273774
 31
0.0
  0
LINE
  5
C381
  8
AM_0
 10
685.54316736412829
 20
228.6857427273774
 30
0.0
 11
687.58317736412823
 21
228.8257427273773
 31
0.0
  0
LINE
  5
C382
  8
AM_0
 10
685.54316736412829
 20
231.24574272737729
 30
0.0
 11
687.58317736412823
 21
231.08573272737721
 31
0.0
  0
LINE
  5
C383
  8
AM_0
 10
685.54316736412829
 20
227.50573272737731
 30
0.0
 11
686.98316736412824
 21
227.4657427273772
 31
0.0
  0
LINE
  5
C384
  8
AM_0
 10
688.04316736412818
 20
229.9657427273772
 30
0.0
 11
688.04316736412818
 21
229.3257427273773
 31
0.0
  0
LINE
  5
C385
  8
AM_0
 10
688.04316736412818
 20
229.9657427273772
 30
0.0
 11
688.04316736412818
 21
230.58573272737729
 31
0.0
  0
LINE
  5
C386
  8
AM_0
 10
682.40400144517741
 20
227.6264725735449
 30
0.0
 11
684.50318736412817
 21
227.54574272737719
 31
0.0
  0
ARC
  5
C387
  8
AM_0
 10
684.89164736412818
 20
236.46743272737729
 30
0.0
 40
0.9983469799999998
 50
289.39561000000361
 51
90.485539999999006
  0
ARC
  5
C388
  8
AM_0
 10
688.97623736412822
 20
206.46560272737719
 30
0.0
 40
1.000223999999998
 50
271.54276079999562
 51
90.748769999995517
  0
ARC
  5
C38B
  8
AM_0
 10
688.30320736412796
 20
186.46584272737729
 30
0.0
 40
1.000099699999998
 50
269.99821999999642
 51
88.855909999997095
  0
ARC
  5
C38C
  8
AM_0
 10
688.97608736412815
 20
196.46588272737731
 30
0.0
 40
1.000225199999998
 50
269.26081999999792
 51
88.44765000000109
  0
ARC
  5
C38F
  8
AM_0
 10
688.3032973641283
 20
216.46565272737729
 30
0.0
 40
1.0000987999999991
 50
271.1393037999992
 51
90.006579999999261
  0
LINE
  5
C39A
  8
AM_0
 10
673.0431688244422
 20
265.11665404815039
 30
0.0
 11
653.04316822839564
 21
265.46574463472581
 31
0.0
  0
ARC
  5
C39D
  8
AM_0
 10
670.55372736412824
 20
247.97628272737731
 30
0.0
 40
4.9894699999999981
 50
359.87895100000162
 51
60.070185938252052
  0
LINE
  5
C5A0
  8
ﾁｭｳｼﾝｾﾝ1
 10
65.85284590895283
 20
-40.26922114364217
 30
0.0
 11
451.3467815525313
 21
-40.26922114364217
 31
0.0
1001
GENIUS_GENODEF_13
1002
{
1000
HIER
1070
     0
1002
}
1002
{
1000
MANEDIT
1070
     0
1002
}
1002
{
1000
NOSEL
1070
     0
1002
}
1002
{
1000
BEHIND
1070
     0
1002
}
1002
{
1000
REACTOR
1002
}
1001
GENIUS_GENOBJ-N-CEN_13
1002
{
1000
OWNER
1000
GEN
1002
}
  0
LINE
  5
C5A1
  8
AM_0
 10
204.09668590895279
 20
-8.7692211436421701
 30
0.0
 11
130.09668590895279
 21
-8.7692211436421701
 31
0.0
  0
LINE
  5
C5A2
  8
AM_0
 10
204.09668590895279
 20
-10.26922114364217
 30
0.0
 11
130.09668590895279
 21
-10.26922114364217
 31
0.0
  0
LINE
  5
C5A3
  8
AM_0
 10
204.09668590895279
 20
-71.76922114364217
 30
0.0
 11
130.09668590895279
 21
-71.76922114364217
 31
0.0
  0
LINE
  5
C5A4
  8
AM_0
 10
204.09668590895279
 20
-70.26922114364217
 30
0.0
 11
130.09668590895279
 21
-70.26922114364217
 31
0.0
  0
LINE
  5
C5A5
  8
AM_0
 10
147.09668590895279
 20
-7.2692211436421701
 30
0.0
 11
133.09668590895279
 21
-7.2692211436421701
 31
0.0
  0
LINE
  5
C5A6
  8
AM_0
 10
147.09668590895291
 20
-73.26922114364217
 30
0.0
 11
133.09668590895291
 21
-73.269221143642284
 31
0.0
  0
LINE
  5
C5A7
  8
AM_0
 10
124.59668590895279
 20
-86.619210143642164
 30
0.0
 11
226.59668590895279
 21
-86.619210143642164
 31
0.0
  0
LINE
  5
C5A8
  8
AM_0
 10
84.276675908952853
 20
-73.639230143642152
 30
0.0
 11
144.09668590895279
 21
-73.639230143642152
 31
0.0
  0
LINE
  5
C5A9
  8
AM_0
 10
175.59668590895279
 20
-76.269220143642173
 30
0.0
 11
85.146735908952806
 21
-76.269220143642173
 31
0.0
  0
LINE
  5
C5AA
  8
AM_0
 10
84.276675908952853
 20
-76.989213143642161
 30
0.0
 11
175.59668590895279
 21
-76.989213143642161
 31
0.0
  0
LINE
  5
C5AB
  8
AM_0
 10
102.59668590895279
 20
-102.1292281436421
 30
0.0
 11
219.4066859089528
 21
-102.1292281436421
 31
0.0
  0
LINE
  5
C5AC
  8
AM_0
 10
124.59668590895279
 20
6.0807688563578211
 30
0.0
 11
226.59668590895279
 21
6.0807688563578211
 31
0.0
  0
LINE
  5
C5AD
  8
AM_0
 10
102.59668590895279
 20
21.590778856357851
 30
0.0
 11
219.4066859089528
 21
21.590778856357851
 31
0.0
  0
LINE
  5
C5AE
  8
AM_0
 10
102.59668590895279
 20
25.650778856357849
 30
0.0
 11
155.59674590895281
 21
25.650778856357849
 31
0.0
  0
LINE
  5
C5AF
  8
AM_0
 10
102.59668590895279
 20
24.97076885635785
 30
0.0
 11
155.59674590895281
 21
24.97076885635785
 31
0.0
  0
LINE
  5
C5B0
  8
AM_0
 10
102.59668590895279
 20
23.620778856357841
 30
0.0
 11
155.59674590895281
 21
23.620778856357841
 31
0.0
  0
LINE
  5
C5B1
  8
AM_0
 10
219.9366859089528
 20
-4.2692211436421701
 30
0.0
 11
94.146735908952792
 21
-4.2692211436421701
 31
0.0
  0
LINE
  5
C5B2
  8
AM_0
 10
219.9366859089528
 20
-6.2692211436421701
 30
0.0
 11
94.146735908952792
 21
-6.2692211436421701
 31
0.0
  0
LINE
  5
C5B3
  8
AM_0
 10
102.59668590895279
 20
-106.1892251436421
 30
0.0
 11
155.59674590895281
 21
-106.1892251436421
 31
0.0
  0
LINE
  5
C5B4
  8
AM_0
 10
102.59668590895279
 20
-105.5092171436422
 30
0.0
 11
155.59674590895281
 21
-105.5092171436422
 31
0.0
  0
LINE
  5
C5B5
  8
AM_0
 10
102.59668590895279
 20
-104.1592271436421
 30
0.0
 11
155.59674590895281
 21
-104.1592271436421
 31
0.0
  0
LINE
  5
C5B6
  8
AM_0
 10
175.59668590895279
 20
-74.269227143642155
 30
0.0
 11
85.586735908952875
 21
-74.269227143642155
 31
0.0
  0
LINE
  5
C5B7
  8
AM_0
 10
93.276675908952853
 20
-3.5492311436421731
 30
0.0
 11
223.4166959089527
 21
-3.5492311436421731
 31
0.0
  0
LINE
  5
C5B8
  8
AM_0
 10
93.276675908952853
 20
-6.8992111436421624
 30
0.0
 11
144.09668590895279
 21
-6.8992111436421899
 31
0.0
  0
LINE
  5
C5B9
  8
AM_0
 10
127.09668590895279
 20
-68.76922114364217
 30
0.0
 11
127.09668590895279
 21
-11.76922114364217
 31
0.0
  0
LINE
  5
C5BA
  8
AM_0
 10
128.59668590895279
 20
-11.76922114364217
 30
0.0
 11
128.59668590895279
 21
-68.76922114364217
 31
0.0
  0
LINE
  5
C5BB
  8
AM_0
 10
73.096745908952826
 20
-20.26923114364217
 30
0.0
 11
73.096745908952826
 21
-60.269211143642202
 31
0.0
  0
LINE
  5
C5BC
  8
AM_0
 10
79.596685908952864
 20
-97.699220143642165
 30
0.0
 11
79.596685908952864
 21
-40.26922114364217
 31
0.0
  0
LINE
  5
C5BD
  8
AM_0
 10
74.596745908952812
 20
-88.859231143642177
 30
0.0
 11
74.596745908952812
 21
-45.269211143642202
 31
0.0
  0
LINE
  5
C5BE
  8
AM_0
 10
85.766735908952796
 20
-98.529214143642164
 30
0.0
 11
99.096685908952864
 21
-98.529214143642164
 31
0.0
  0
LINE
  5
C5BF
  8
AM_0
 10
85.706675908952903
 20
-103.5692151436421
 30
0.0
 11
99.206675908952917
 21
-103.5692151436421
 31
0.0
  0
LINE
  5
C5C0
  8
AM_0
 10
85.826725908952895
 20
-93.249231143642149
 30
0.0
 11
99.096685908952864
 21
-93.249231143642149
 31
0.0
  0
LINE
  5
C5C1
  8
AM_0
 10
79.596685908952864
 20
-88.619226143642194
 30
0.0
 11
89.596745908952798
 21
-88.619226143642194
 31
0.0
  0
LINE
  5
C5C2
  8
AM_0
 10
127.0967459089528
 20
-54.269211143642188
 30
0.0
 11
85.146735908952806
 21
-54.269211143642188
 31
0.0
  0
LINE
  5
C5C3
  8
AM_0
 10
85.736705908952814
 20
-101.9392101436422
 30
0.0
 11
99.096685908952864
 21
-101.9392101436422
 31
0.0
  0
LINE
  5
C5C4
  8
AM_0
 10
79.596685908952864
 20
-82.959230143642174
 30
0.0
 11
89.596745908952798
 21
-82.959230143642174
 31
0.0
  0
LINE
  5
C5C5
  8
AM_0
 10
84.05670590895285
 20
-66.759221143642179
 30
0.0
 11
127.0967459089528
 21
-66.759221143642179
 31
0.0
  0
LINE
  5
C5C6
  8
AM_0
 10
83.926705908952826
 20
-53.94921114364216
 30
0.0
 11
127.0967459089528
 21
-53.94921114364216
 31
0.0
  0
LINE
  5
C5C7
  8
AM_0
 10
127.0967459089528
 20
-56.269231143642173
 30
0.0
 11
85.146735908952806
 21
-56.269231143642173
 31
0.0
  0
LINE
  5
C5C8
  8
AM_0
 10
83.926705908952826
 20
-56.609231143642177
 30
0.0
 11
127.0967459089528
 21
-56.609231143642177
 31
0.0
  0
LINE
  5
C5C9
  8
AM_0
 10
127.0967459089528
 20
-64.26922114364217
 30
0.0
 11
85.146735908952806
 21
-64.26922114364217
 31
0.0
  0
LINE
  5
C5CA
  8
AM_0
 10
84.05670590895285
 20
-63.829221143642158
 30
0.0
 11
127.0967459089528
 21
-63.829221143642158
 31
0.0
  0
LINE
  5
C5CB
  8
AM_0
 10
127.0967459089528
 20
-66.269211143642181
 30
0.0
 11
85.146735908952806
 21
-66.269211143642181
 31
0.0
  0
ARC
  5
C5CC
  8
AM_0
 10
75.592355908952868
 20
-87.238862143642194
 30
0.0
 40
0.99566799
 50
180.0204300000008
 51
243.4098299999992
  0
ARC
  5
C5CD
  8
AM_0
 10
85.761605908952802
 20
-96.529840143642161
 30
0.0
 40
1.9993919999999989
 50
192.1080399999999
 51
270.14581999999979
  0
ARC
  5
C5CE
  8
AM_0
 10
81.424505908952838
 20
-98.887345143642193
 30
0.0
 40
1.4981281
 50
14.22457499999936
 51
89.916114000000547
  0
LINE
  5
C5CF
  8
AM_0
 10
79.596685908952864
 20
-97.699212143642171
 30
0.0
 11
82.416635908952813
 21
-97.769212143642207
 31
0.0
  0
LINE
  5
C5D0
  8
AM_0
 10
83.786625908952843
 20
-100.3992171436421
 30
0.0
 11
82.866645908952805
 21
-96.519220143642173
 31
0.0
  0
ARC
  5
C5D1
  8
AM_0
 10
85.733715908952846
 20
-99.938462143642198
 30
0.0
 40
2.0007559999999991
 50
193.31416000000041
 51
270.0864499999999
  0
ARC
  5
C5D2
  8
AM_0
 10
85.708195908952817
 20
-101.56608714364209
 30
0.0
 40
2.0031319000000001
 50
194.25159000000031
 51
269.9575499999994
  0
LINE
  5
C5D3
  8
AM_0
 10
83.766665908952746
 20
-102.05922014364209
 30
0.0
 11
82.876655908952785
 21
-98.519227143642155
 31
0.0
  0
ARC
  5
C5D4
  8
AM_0
 10
75.594305908952848
 20
-88.284555143642152
 30
0.0
 40
0.9976240400000001
 50
180.2675100000007
 51
240.07954000000029
  0
ARC
  5
C5D5
  8
AM_0
 10
76.877385908952775
 20
-89.018144143642147
 30
0.0
 40
1.001135899999998
 50
239.3280000000004
 51
269.38750999999928
  0
ARC
  5
C5D6
  8
AM_0
 10
76.842535908952769
 20
-87.869958143642165
 30
0.0
 40
0.99928796
 50
242.86126999999999
 51
269.66618999999969
  0
ARC
  5
C5D7
  8
AM_0
 10
79.093265908952858
 20
-88.365831143642154
 30
0.0
 40
0.50340396
 50
270.38612999999981
 51
359.61387000000008
  0
ARC
  5
C5D8
  8
AM_0
 10
79.097115908952802
 20
-90.518785143642191
 30
0.0
 40
0.49955601
 50
359.94910999999979
 51
90.050894000000824
  0
LINE
  5
C5D9
  8
AM_0
 10
76.366705908952795
 20
-89.879190143642134
 30
0.0
 11
75.09668590895285
 21
-89.149194143642177
 31
0.0
  0
LINE
  5
C5DA
  8
AM_0
 10
76.866705908952795
 20
-90.019227143642155
 30
0.0
 11
79.096745908952812
 21
-90.019227143642155
 31
0.0
  0
LINE
  5
C5DB
  8
AM_0
 10
76.836675908952884
 20
-88.869210143642164
 30
0.0
 11
79.096745908952812
 21
-88.869210143642164
 31
0.0
  0
LINE
  5
C5DC
  8
AM_0
 10
76.386665908952764
 20
-88.759195143642202
 30
0.0
 11
75.146675908952844
 21
-88.129197143642202
 31
0.0
  0
LINE
  5
C5DD
  8
AM_0
 10
76.59668590895285
 20
-89.769220143642201
 30
0.0
 11
76.59668590895285
 21
-89.239221143642155
 31
0.0
  0
ARC
  5
C5DE
  8
AM_0
 10
85.822765908952775
 20
-91.250795143642165
 30
0.0
 40
1.998443999999999
 50
190.33240000000049
 51
270.11369000000047
  0
ARC
  5
C5DF
  8
AM_0
 10
81.379825908952895
 20
-92.798310143642155
 30
0.0
 40
1.4991000000000001
 50
11.89856000000028
 51
89.736658000000475
  0
ARC
  5
C5E0
  8
AM_0
 10
81.410105908952815
 20
-96.866731143642198
 30
0.0
 40
1.497512
 50
13.418232999999841
 51
90.128793000000442
  0
LINE
  5
C5E1
  8
AM_0
 10
83.316655908952853
 20
-88.619210143642178
 30
0.0
 11
83.856695908952815
 21
-91.609216143642158
 31
0.0
  0
LINE
  5
C5E2
  8
AM_0
 10
81.426705908952826
 20
-97.389222143642144
 30
0.0
 11
83.076725908952909
 21
-97.389222143642144
 31
0.0
  0
LINE
  5
C5E3
  8
AM_0
 10
81.406685908952795
 20
-95.369226143642152
 30
0.0
 11
83.466745908952831
 21
-95.369226143642152
 31
0.0
  0
LINE
  5
C5E4
  8
AM_0
 10
81.386665908952764
 20
-91.299226143642201
 30
0.0
 11
83.796695908952771
 21
-91.299226143642201
 31
0.0
  0
LINE
  5
C5E5
  8
AM_0
 10
83.806705908952836
 20
-96.949220143642165
 30
0.0
 11
82.846685908952836
 21
-92.489221143642155
 31
0.0
  0
ARC
  5
C5E6
  8
AM_0
 10
75.593085908952858
 20
-72.654878143642165
 30
0.0
 40
0.9963800299999999
 50
180.24949000000009
 51
253.29706999999979
  0
ARC
  5
C5E7
  8
AM_0
 10
76.868045908952809
 20
-86.905564143642195
 30
0.0
 40
1.003687999999999
 50
239.3702700000006
 51
270.49275000000068
  0
ARC
  5
C5E8
  8
AM_0
 10
76.851875908952834
 20
-85.768594143642161
 30
0.0
 40
1.0006280000000001
 50
241.6498600000001
 51
269.70470999999941
  0
ARC
  5
C5E9
  8
AM_0
 10
76.889475908952832
 20
-82.388719143642192
 30
0.0
 40
1.0005360000000001
 50
237.14640000000011
 51
270.41322000000042
  0
ARC
  5
C5EA
  8
AM_0
 10
76.860055908952873
 20
-81.248223143642193
 30
0.0
 40
1.001012
 50
240.47135999999981
 51
270.3802000000004
  0
ARC
  5
C5EB
  8
AM_0
 10
75.595775908952888
 20
-81.544534143642153
 30
0.0
 40
0.9991000299999999
 50
179.69541999999939
 51
236.6617699999999
  0
ARC
  5
C5EC
  8
AM_0
 10
75.594425908952871
 20
-85.107927143642172
 30
0.0
 40
0.99770796
 50
180.07404999999949
 51
242.0447599999996
  0
ARC
  5
C5ED
  8
AM_0
 10
75.595465908952775
 20
-86.145723143642201
 30
0.0
 40
0.9987800700000001
 50
179.6266700000001
 51
238.70855000000071
  0
ARC
  5
C5EE
  8
AM_0
 10
78.594245908952772
 20
-81.246759143642166
 30
0.0
 40
1.0024599999999999
 50
270.14038000000062
 51
359.85961999999938
  0
ARC
  5
C5EF
  8
AM_0
 10
75.59516590895285
 20
-80.509919143642165
 30
0.0
 40
0.9984599899999999
 50
179.9596199999994
 51
239.38655000000071
  0
ARC
  5
C5F0
  8
AM_0
 10
78.592655908952793
 20
-85.765138143642176
 30
0.0
 40
1.004083999999998
 50
270.23263000000043
 51
359.76736999999957
  0
LINE
  5
C5F1
  8
AM_0
 10
76.876715908952775
 20
-87.909211143642196
 30
0.0
 11
79.596685908952864
 21
-87.909211143642196
 31
0.0
  0
LINE
  5
C5F2
  8
AM_0
 10
76.34668590895285
 20
-83.229211143642175
 30
0.0
 11
75.046695908952771
 21
-82.379205143642167
 31
0.0
  0
LINE
  5
C5F3
  8
AM_0
 10
76.356695908952815
 20
-87.769189143642137
 30
0.0
 11
75.076665908952805
 21
-86.9991771436422
 31
0.0
  0
LINE
  5
C5F4
  8
AM_0
 10
76.866705908952795
 20
-82.249215143642175
 30
0.0
 11
78.59668590895285
 21
-82.249215143642175
 31
0.0
  0
LINE
  5
C5F5
  8
AM_0
 10
76.896735908952806
 20
-83.389230143642152
 30
0.0
 11
79.596685908952864
 21
-83.389230143642152
 31
0.0
  0
LINE
  5
C5F6
  8
AM_0
 10
76.846745908952826
 20
-86.769220143642173
 30
0.0
 11
78.59668590895285
 21
-86.769220143642173
 31
0.0
  0
LINE
  5
C5F7
  8
AM_0
 10
76.366705908952795
 20
-82.119203143642196
 30
0.0
 11
75.086735908952861
 21
-81.369218143642172
 31
0.0
  0
LINE
  5
C5F8
  8
AM_0
 10
76.59668590895285
 20
-83.099214143642158
 30
0.0
 11
76.59668590895285
 21
-82.629228143642138
 31
0.0
  0
LINE
  5
C5F9
  8
AM_0
 10
76.59668590895285
 20
-87.669229143642198
 30
0.0
 11
76.59668590895285
 21
-87.119226143642166
 31
0.0
  0
LINE
  5
C5FA
  8
AM_0
 10
76.376715908952775
 20
-86.649224143642158
 30
0.0
 11
75.126715908952775
 21
-85.989236143642145
 31
0.0
  0
LINE
  5
C5FB
  8
AM_0
 10
79.596685908952864
 20
-74.569223143642162
 30
0.0
 11
82.766735908952811
 21
-74.569223143642162
 31
0.0
  0
ARC
  5
C5FC
  8
AM_0
 10
78.593395908952772
 20
-73.005868143642175
 30
0.0
 40
1.003363999999999
 50
270.19171000000028
 51
359.80827999999968
  0
ARC
  5
C5FD
  8
AM_0
 10
78.897285908952782
 20
-76.658662143642189
 30
0.0
 40
0.69944
 50
359.95415999999977
 51
90.045840000000197
  0
ARC
  5
C5FE
  8
AM_0
 10
76.799685908952853
 20
-74.953996143642172
 30
0.0
 40
1.005223999999999
 50
246.98629000000031
 51
269.82936000000041
  0
ARC
  5
C5FF
  8
AM_0
 10
76.737255908952889
 20
-73.006532143642161
 30
0.0
 40
1.0027280000000001
 50
253.7529700000004
 51
270.54039999999941
  0
ARC
  5
C600
  8
AM_0
 10
75.593205908952896
 20
-74.44075114364216
 30
0.0
 40
0.9964760499999998
 50
179.91258000000059
 51
247.1796599999995
  0
LINE
  5
C601
  8
AM_0
 10
76.796695908952771
 20
-75.959222143642165
 30
0.0
 11
78.896675908952844
 21
-75.959222143642165
 31
0.0
  0
LINE
  5
C602
  8
AM_0
 10
76.406685908952795
 20
-75.879197143642173
 30
0.0
 11
75.206735908952851
 21
-75.359231143642191
 31
0.0
  0
LINE
  5
C603
  8
AM_0
 10
76.746715908952766
 20
-74.009217143642189
 30
0.0
 11
78.59668590895285
 21
-74.009217143642189
 31
0.0
  0
LINE
  5
C604
  8
AM_0
 10
76.456735908952851
 20
-73.969201143642152
 30
0.0
 11
75.30670590895285
 21
-73.609201143642153
 31
0.0
  0
LINE
  5
C605
  8
AM_0
 10
76.59668590895285
 20
-75.65922714364217
 30
0.0
 11
76.59668590895285
 21
-74.599229143642162
 31
0.0
  0
ARC
  5
C606
  8
AM_0
 10
85.141975908952915
 20
-75.269212143642193
 30
0.0
 40
1.0000119000000001
 50
89.728462000000377
 51
270.27154000000053
  0
ARC
  5
C607
  8
AM_0
 10
84.269845908952803
 20
-75.314210143642157
 30
0.0
 40
1.6750160000000001
 50
89.764983000000555
 51
270.23501000000078
  0
ARC
  5
C608
  8
AM_0
 10
75.596865908952751
 20
-65.269021143642163
 30
0.0
 40
1.0001959999999981
 50
180.0112799999998
 51
269.98872000000023
  0
ARC
  5
C609
  8
AM_0
 10
75.591745908952831
 20
-65.264281143642165
 30
0.0
 40
0.99508399
 50
89.716323999999346
 51
180.28367999999989
  0
ARC
  5
C60A
  8
AM_0
 10
75.596865908952751
 20
-55.269011143642189
 30
0.0
 40
1.000199999999998
 50
180.0115000000003
 51
269.98850999999928
  0
ARC
  5
C60B
  8
AM_0
 10
75.591745908952831
 20
-55.264301143642172
 30
0.0
 40
0.99508399
 50
89.716105999999485
 51
180.2838899999995
  0
LINE
  5
C60C
  8
AM_0
 10
73.096745908952826
 20
-60.26922114364217
 30
0.0
 11
74.596685908952864
 21
-60.399221143642158
 31
0.0
  0
LINE
  5
C60D
  8
AM_0
 10
73.096745908952826
 20
-57.549221143642143
 30
0.0
 11
74.596745908952812
 21
-57.549221143642143
 31
0.0
  0
LINE
  5
C60E
  8
AM_0
 10
73.096745908952826
 20
-55.419231143642179
 30
0.0
 11
77.67670590895284
 21
-55.419231143642179
 31
0.0
  0
ARC
  5
C60F
  8
AM_0
 10
78.591805908952793
 20
-63.264311143642182
 30
0.0
 40
1.0049238999999981
 50
270.2800399999993
 51
359.71997000000061
  0
ARC
  5
C610
  8
AM_0
 10
78.596865908952751
 20
-67.269061143642176
 30
0.0
 40
0.99984801
 50
359.9911900000003
 51
90.008807000000289
  0
LINE
  5
C611
  8
AM_0
 10
78.59668590895285
 20
-66.269211143642181
 30
0.0
 11
75.596685908952836
 21
-66.269211143642181
 31
0.0
  0
LINE
  5
C612
  8
AM_0
 10
78.59668590895285
 20
-64.26922114364217
 30
0.0
 11
75.596685908952836
 21
-64.26922114364217
 31
0.0
  0
LINE
  5
C613
  8
AM_0
 10
76.59668590895285
 20
-65.899221143642166
 30
0.0
 11
76.59668590895285
 21
-64.529231143642164
 31
0.0
  0
ARC
  5
C614
  8
AM_0
 10
84.05670590895285
 20
-65.294221143642147
 30
0.0
 40
1.465004
 50
90.000002999999296
 51
270.0
  0
ARC
  5
C615
  8
AM_0
 10
85.141975908952915
 20
-65.269231143642173
 30
0.0
 40
1.0000119000000001
 50
89.728462000000377
 51
270.27154000000053
  0
ARC
  5
C616
  8
AM_0
 10
78.591805908952793
 20
-53.264311143642182
 30
0.0
 40
1.004928
 50
270.28023999999988
 51
359.71976000000001
  0
ARC
  5
C617
  8
AM_0
 10
78.596865908952751
 20
-57.269071143642151
 30
0.0
 40
0.9998440099999999
 50
359.99097999999952
 51
90.009017999999344
  0
LINE
  5
C618
  8
AM_0
 10
78.59668590895285
 20
-56.269231143642173
 30
0.0
 11
75.596685908952836
 21
-56.269231143642173
 31
0.0
  0
LINE
  5
C619
  8
AM_0
 10
78.59668590895285
 20
-54.269211143642188
 30
0.0
 11
75.596685908952836
 21
-54.269211143642188
 31
0.0
  0
LINE
  5
C61A
  8
AM_0
 10
76.59668590895285
 20
-55.879211143642181
 30
0.0
 11
76.59668590895285
 21
-54.659231143642188
 31
0.0
  0
ARC
  5
C61B
  8
AM_0
 10
83.926705908952826
 20
-55.279221143642161
 30
0.0
 40
1.3300080000000001
 50
90.000002999999296
 51
270.0
  0
ARC
  5
C61C
  8
AM_0
 10
85.146735908952806
 20
-55.26922114364217
 30
0.0
 40
1.0
 50
90.000002999999296
 51
270.0
  0
LINE
  5
C61D
  8
AM_0
 10
89.596745908952798
 20
-88.619226143642194
 30
0.0
 11
89.596745908952798
 21
-76.989213143642175
 31
0.0
  0
ARC
  5
C61E
  8
AM_0
 10
102.59717590895281
 20
-100.12877814364209
 30
0.0
 40
2.0004520000000001
 50
180.01290000000029
 51
269.98709999999971
  0
ARC
  5
C61F
  8
AM_0
 10
102.59802590895291
 20
-102.15790714364211
 30
0.0
 40
2.0013119999999991
 50
180.0375600000005
 51
269.9624399999995
  0
ARC
  5
C620
  8
AM_0
 10
102.59534590895279
 20
-103.5105981436421
 30
0.0
 40
1.9986198999999989
 50
179.96047000000021
 51
270.03952999999979
  0
ARC
  5
C621
  8
AM_0
 10
102.59064590895269
 20
-104.1791621436422
 30
0.0
 40
2.0000760999999998
 50
194.77497999999991
 51
270.17353000000008
  0
LINE
  5
C622
  8
AM_0
 10
100.59668590895279
 20
-102.1592111436422
 30
0.0
 11
100.59668590895279
 21
-94.749231143642191
 31
0.0
  0
ARC
  5
C623
  8
AM_0
 10
99.094005908952795
 20
-100.03193814364209
 30
0.0
 40
1.502715899999999
 50
0.1034359999993177
 51
89.896566000000234
  0
ARC
  5
C624
  8
AM_0
 10
99.096995908952763
 20
-103.4389811436421
 30
0.0
 40
1.499755999999999
 50
359.99059000000068
 51
90.009407999999695
  0
ARC
  5
C625
  8
AM_0
 10
99.208255908952907
 20
-105.06587314364209
 30
0.0
 40
1.4966440000000001
 50
14.57574000000073
 51
90.058278000000001
  0
ARC
  5
C626
  8
AM_0
 10
99.095165908952865
 20
-94.750787143642157
 30
0.0
 40
1.5015679999999989
 50
0.0598050029993734
 51
89.940196999999216
  0
LINE
  5
C627
  8
AM_0
 10
124.5967459089527
 20
-86.619210143642164
 30
0.0
 11
89.596685908952864
 21
-84.589212143642186
 31
0.0
  0
ARC
  5
C628
  8
AM_0
 10
101.5919259089528
 20
-75.269212143642193
 30
0.0
 40
1.0000119000000001
 50
89.726507999999697
 51
270.27347999999978
  0
ARC
  5
C629
  8
AM_0
 10
88.760075908952885
 20
-81.857301143642175
 30
0.0
 40
4.9985837999999978
 50
5.3731198999993079
 51
80.364976000000198
  0
ARC
  5
C62A
  8
AM_0
 10
92.737375908952785
 20
-81.488343143642169
 30
0.0
 40
1.0042359999999999
 50
314.9378300000007
 51
5.6649238999993088
  0
ARC
  5
C62B
  8
AM_0
 10
89.226695908952834
 20
-77.922044143642182
 30
0.0
 40
6.0085920999999978
 50
273.53094999999939
 51
314.61477999999931
  0
ARC
  5
C62C
  8
AM_0
 10
101.5919259089528
 20
-55.26922114364217
 30
0.0
 40
1.0000119000000001
 50
89.726507999999697
 51
270.27347999999978
  0
ARC
  5
C62D
  8
AM_0
 10
101.5919259089528
 20
-65.269231143642173
 30
0.0
 40
1.0000119000000001
 50
89.726507999999697
 51
270.27347999999978
  0
ARC
  5
C62E
  8
AM_0
 10
130.09668590895271
 20
-68.76922114364217
 30
0.0
 40
3.0
 50
180.0
 51
270.0
  0
ARC
  5
C62F
  8
AM_0
 10
130.09668590895271
 20
-68.76922114364217
 30
0.0
 40
1.5
 50
180.0
 51
270.0
  0
LINE
  5
C630
  8
AM_0
 10
131.59668590895279
 20
-70.26922114364217
 30
0.0
 11
131.59668590895279
 21
-71.76922114364217
 31
0.0
  0
ARC
  5
C631
  8
AM_0
 10
133.09668590895291
 20
-72.769221143642284
 30
0.0
 40
0.5
 50
180.0
 51
270.0
  0
LINE
  5
C632
  8
AM_0
 10
132.59668590895291
 20
-72.769221143642284
 30
0.0
 11
132.59668590895291
 21
-71.769221143642284
 31
0.0
  0
LINE
  5
C633
  8
AM_0
 10
79.596685908952864
 20
-5.9592211436421669
 30
0.0
 11
89.596745908952798
 21
-5.9592211436421669
 31
0.0
  0
LINE
  5
C634
  8
AM_0
 10
79.596685908952864
 20
2.4207788563578259
 30
0.0
 11
89.596745908952798
 21
2.4207788563578259
 31
0.0
  0
LINE
  5
C635
  8
AM_0
 10
79.596685908952864
 20
8.0807888563578274
 30
0.0
 11
89.596745908952798
 21
8.0807888563578274
 31
0.0
  0
LINE
  5
C636
  8
AM_0
 10
85.826725908952895
 20
12.710788856357819
 30
0.0
 11
99.096685908952864
 21
12.710788856357819
 31
0.0
  0
LINE
  5
C637
  8
AM_0
 10
85.766735908952796
 20
18.000768856357841
 30
0.0
 11
99.096685908952864
 21
18.000768856357841
 31
0.0
  0
LINE
  5
C638
  8
AM_0
 10
85.736705908952814
 20
21.400758856357811
 30
0.0
 11
99.096685908952864
 21
21.400758856357811
 31
0.0
  0
LINE
  5
C639
  8
AM_0
 10
85.706675908952903
 20
23.030768856357842
 30
0.0
 11
99.206675908952917
 21
23.030768856357842
 31
0.0
  0
LINE
  5
C63A
  8
AM_0
 10
127.0967459089528
 20
-24.26922114364217
 30
0.0
 11
85.146735908952806
 21
-24.26922114364217
 31
0.0
  0
LINE
  5
C63B
  8
AM_0
 10
127.0967459089528
 20
-26.26923114364217
 30
0.0
 11
85.146735908952806
 21
-26.26923114364217
 31
0.0
  0
LINE
  5
C63C
  8
AM_0
 10
125.09668590895279
 20
-34.26922114364217
 30
0.0
 11
85.146735908952806
 21
-34.26922114364217
 31
0.0
  0
LINE
  5
C63D
  8
AM_0
 10
125.09668590895279
 20
-36.26922114364217
 30
0.0
 11
85.146735908952806
 21
-36.26922114364217
 31
0.0
  0
LINE
  5
C63E
  8
AM_0
 10
83.926705908952826
 20
-23.929211143642171
 30
0.0
 11
127.0967459089528
 21
-23.929211143642171
 31
0.0
  0
LINE
  5
C63F
  8
AM_0
 10
83.926705908952826
 20
-26.58923114364217
 30
0.0
 11
127.0967459089528
 21
-26.58923114364217
 31
0.0
  0
LINE
  5
C640
  8
AM_0
 10
83.866705908952795
 20
-33.99923114364217
 30
0.0
 11
125.09668590895279
 21
-33.99923114364217
 31
0.0
  0
LINE
  5
C641
  8
AM_0
 10
83.866705908952795
 20
-36.529231143642171
 30
0.0
 11
125.09668590895279
 21
-36.529231143642171
 31
0.0
  0
LINE
  5
C642
  8
AM_0
 10
83.866705908952795
 20
-43.999211143642142
 30
0.0
 11
125.09668590895279
 21
-43.999211143642142
 31
0.0
  0
LINE
  5
C643
  8
AM_0
 10
125.09668590895279
 20
-46.26922114364217
 30
0.0
 11
85.146735908952806
 21
-46.26922114364217
 31
0.0
  0
LINE
  5
C644
  8
AM_0
 10
125.09668590895279
 20
-44.269231143642173
 30
0.0
 11
85.146735908952806
 21
-44.269231143642173
 31
0.0
  0
LINE
  5
C645
  8
AM_0
 10
83.866705908952795
 20
-46.539211143642177
 30
0.0
 11
125.09668590895279
 21
-46.539211143642177
 31
0.0
  0
LINE
  5
C646
  8
AM_0
 10
79.596685908952864
 20
17.16076885635783
 30
0.0
 11
79.596685908952864
 21
-40.26922114364217
 31
0.0
  0
LINE
  5
C647
  8
AM_0
 10
74.596745908952812
 20
7.7507888563578131
 30
0.0
 11
74.596745908952812
 21
-35.26923114364218
 31
0.0
  0
ARC
  5
C648
  8
AM_0
 10
75.591745908952831
 20
-35.264291143642183
 30
0.0
 40
0.9950879799999999
 50
89.716344999999606
 51
180.28365000000051
  0
ARC
  5
C649
  8
AM_0
 10
75.596865908952751
 20
-35.269021143642163
 30
0.0
 40
1.0001959999999981
 50
180.01124999999939
 51
269.98873999999932
  0
ARC
  5
C64A
  8
AM_0
 10
75.596865908952751
 20
-45.269001143642157
 30
0.0
 40
1.0002040000000001
 50
180.01169999999999
 51
269.98829999999992
  0
ARC
  5
C64B
  8
AM_0
 10
75.591745908952831
 20
-45.264291143642168
 30
0.0
 40
0.9950800499999999
 50
89.715893999999523
 51
180.28409999999971
  0
ARC
  5
C64C
  8
AM_0
 10
78.591745908952831
 20
-43.264301143642157
 30
0.0
 40
1.0049318999999981
 50
270.28044999999929
 51
359.71955000000059
  0
ARC
  5
C64D
  8
AM_0
 10
78.596865908952751
 20
-47.269071143642151
 30
0.0
 40
0.99985206
 50
359.99142999999953
 51
90.008573999999584
  0
LINE
  5
C64E
  8
AM_0
 10
78.59668590895285
 20
-46.26922114364217
 30
0.0
 11
75.596685908952836
 21
-46.26922114364217
 31
0.0
  0
LINE
  5
C64F
  8
AM_0
 10
78.59668590895285
 20
-44.269231143642173
 30
0.0
 11
75.596685908952836
 21
-44.269231143642173
 31
0.0
  0
LINE
  5
C650
  8
AM_0
 10
76.59668590895285
 20
-45.879231143642137
 30
0.0
 11
76.59668590895285
 21
-44.71921114364217
 31
0.0
  0
ARC
  5
C651
  8
AM_0
 10
85.146735908952806
 20
-45.269211143642202
 30
0.0
 40
1.0
 50
90.000002999999296
 51
270.0
  0
ARC
  5
C652
  8
AM_0
 10
83.860905908952915
 20
-45.269211143642202
 30
0.0
 40
1.2700119999999999
 50
89.738748000000555
 51
270.26123999999959
  0
ARC
  5
C653
  8
AM_0
 10
78.596865908952751
 20
-37.269071143642151
 30
0.0
 40
0.99984801
 50
359.99122000000051
 51
90.008778999999777
  0
ARC
  5
C654
  8
AM_0
 10
78.591805908952793
 20
-33.26432114364215
 30
0.0
 40
1.0049238999999981
 50
270.28000999999961
 51
359.71999000000051
  0
LINE
  5
C655
  8
AM_0
 10
78.59668590895285
 20
-34.26922114364217
 30
0.0
 11
75.596685908952836
 21
-34.26922114364217
 31
0.0
  0
LINE
  5
C656
  8
AM_0
 10
78.59668590895285
 20
-36.26922114364217
 30
0.0
 11
75.596685908952836
 21
-36.26922114364217
 31
0.0
  0
LINE
  5
C657
  8
AM_0
 10
76.59668590895285
 20
-34.659221143642156
 30
0.0
 11
76.59668590895285
 21
-35.819241143642188
 31
0.0
  0
ARC
  5
C658
  8
AM_0
 10
83.860905908952915
 20
-35.264211143642171
 30
0.0
 40
1.265012
 50
89.737715999999949
 51
270.26227999999981
  0
ARC
  5
C659
  8
AM_0
 10
85.146735908952806
 20
-35.26923114364218
 30
0.0
 40
1.0
 50
90.000002999999296
 51
270.0
  0
ARC
  5
C65A
  8
AM_0
 10
75.591745908952831
 20
-15.26429114364217
 30
0.0
 40
0.9950800499999999
 50
89.715920999999639
 51
180.28406999999919
  0
ARC
  5
C65B
  8
AM_0
 10
75.596865908952751
 20
-15.269001143642161
 30
0.0
 40
1.0002040000000001
 50
180.0116699999995
 51
269.98832000000073
  0
ARC
  5
C65C
  8
AM_0
 10
75.591745908952831
 20
-25.264311143642178
 30
0.0
 40
0.99508399
 50
89.716133000000738
 51
180.28386999999961
  0
ARC
  5
C65D
  8
AM_0
 10
75.596865908952751
 20
-25.26902114364216
 30
0.0
 40
1.000199999999998
 50
180.01146999999989
 51
269.98853000000008
  0
LINE
  5
C65E
  8
AM_0
 10
73.096685908952836
 20
-20.26920114364216
 30
0.0
 11
74.596685908952864
 21
-20.139201143642168
 31
0.0
  0
LINE
  5
C65F
  8
AM_0
 10
73.096745908952826
 20
-22.989221143642169
 30
0.0
 11
74.596745908952812
 21
-22.989221143642169
 31
0.0
  0
LINE
  5
C660
  8
AM_0
 10
73.096745908952826
 20
-25.119211143642161
 30
0.0
 11
77.376715908952775
 21
-25.119211143642161
 31
0.0
  0
ARC
  5
C661
  8
AM_0
 10
78.596865908952751
 20
-27.269081143642179
 30
0.0
 40
0.9998440099999999
 50
359.99100999999962
 51
90.008991000000208
  0
ARC
  5
C662
  8
AM_0
 10
78.591805908952793
 20
-23.264311143642178
 30
0.0
 40
1.004928
 50
270.28021999999982
 51
359.7197800000003
  0
LINE
  5
C663
  8
AM_0
 10
78.59668590895285
 20
-24.26922114364217
 30
0.0
 11
75.596685908952836
 21
-24.26922114364217
 31
0.0
  0
LINE
  5
C664
  8
AM_0
 10
78.59668590895285
 20
-26.26923114364217
 30
0.0
 11
75.596685908952836
 21
-26.26923114364217
 31
0.0
  0
LINE
  5
C665
  8
AM_0
 10
76.59668590895285
 20
-24.65923114364216
 30
0.0
 11
76.59668590895285
 21
-25.869211143642161
 31
0.0
  0
ARC
  5
C666
  8
AM_0
 10
83.926705908952826
 20
-25.259221143642151
 30
0.0
 40
1.3300080000000001
 50
90.000002999999296
 51
270.0
  0
ARC
  5
C667
  8
AM_0
 10
85.146735908952806
 20
-25.26922114364217
 30
0.0
 40
1.0
 50
90.000002999999296
 51
270.0
  0
ARC
  5
C668
  8
AM_0
 10
78.596865908952751
 20
-17.269071143642151
 30
0.0
 40
0.99985206
 50
359.9914500000001
 51
90.008547000000448
  0
ARC
  5
C669
  8
AM_0
 10
78.591805908952793
 20
-13.264311143642169
 30
0.0
 40
1.0049318999999981
 50
270.28042000000022
 51
359.71957999999978
  0
LINE
  5
C66A
  8
AM_0
 10
78.59668590895285
 20
-14.26923114364217
 30
0.0
 11
75.596685908952836
 21
-14.26923114364217
 31
0.0
  0
LINE
  5
C66B
  8
AM_0
 10
78.59668590895285
 20
-16.26922114364217
 30
0.0
 11
75.596685908952836
 21
-16.26922114364217
 31
0.0
  0
LINE
  5
C66C
  8
AM_0
 10
76.59668590895285
 20
-14.63921114364217
 30
0.0
 11
76.59668590895285
 21
-16.009211143642169
 31
0.0
  0
LINE
  5
C66D
  8
AM_0
 10
76.366705908952795
 20
9.3507788563578345
 30
0.0
 11
75.09668590895285
 21
8.6107688563578222
 31
0.0
  0
LINE
  5
C66E
  8
AM_0
 10
76.59668590895285
 20
9.2307788563578281
 30
0.0
 11
76.59668590895285
 21
8.7007788563578252
 31
0.0
  0
LINE
  5
C66F
  8
AM_0
 10
83.316775908952891
 20
8.0807988563578288
 30
0.0
 11
83.856755908952806
 21
11.070788856357829
 31
0.0
  0
ARC
  5
C670
  8
AM_0
 10
75.592965908952806
 20
-7.8734711436421492
 30
0.0
 40
0.9962600499999998
 50
106.6974899999998
 51
180.3304900000002
  0
ARC
  5
C671
  8
AM_0
 10
76.797675908952897
 20
-5.5747011436421579
 30
0.0
 40
0.99548006
 50
90.057321000000357
 51
113.1270300000007
  0
ARC
  5
C672
  8
AM_0
 10
76.735845908952811
 20
-7.5219311436421767
 30
0.0
 40
0.99277198
 50
89.374808000000044
 51
106.3318199999994
  0
ARC
  5
C673
  8
AM_0
 10
75.593085908952858
 20
-6.0876411436421716
 30
0.0
 40
0.99640006
 50
112.8173900000008
 51
180.0904000000003
  0
ARC
  5
C674
  8
AM_0
 10
78.598395908952753
 20
-7.5275211436421596
 30
0.0
 40
0.99829602
 50
359.90204000000062
 51
90.097961000000595
  0
ARC
  5
C675
  8
AM_0
 10
78.892155908952901
 20
-3.8746711436421601
 30
0.0
 40
0.7045519900000002
 50
270.36910999999952
 51
359.63089000000048
  0
LINE
  5
C676
  8
AM_0
 10
76.796695908952771
 20
-4.5792211436421706
 30
0.0
 11
78.896675908952844
 21
-4.5792211436421706
 31
0.0
  0
LINE
  5
C677
  8
AM_0
 10
76.406685908952795
 20
-4.6592011436421767
 30
0.0
 11
75.206675908952903
 21
-5.1692011436421694
 31
0.0
  0
LINE
  5
C678
  8
AM_0
 10
76.746715908952766
 20
-6.5292311436421642
 30
0.0
 11
78.59668590895285
 21
-6.5292311436421642
 31
0.0
  0
LINE
  5
C679
  8
AM_0
 10
76.456735908952851
 20
-6.5692211436421521
 30
0.0
 11
75.30670590895285
 21
-6.9192311436421772
 31
0.0
  0
LINE
  5
C67A
  8
AM_0
 10
76.59668590895285
 20
-4.8792211436421553
 30
0.0
 11
76.59668590895285
 21
-5.9392211436421567
 31
0.0
  0
ARC
  5
C67B
  8
AM_0
 10
75.589915908952804
 20
7.748698856357831
 30
0.0
 40
0.99319202
 50
119.7733999999993
 51
179.8795600000004
  0
ARC
  5
C67C
  8
AM_0
 10
75.592295908952806
 20
6.7104688563578341
 30
0.0
 40
0.99558806
 50
116.5874900000006
 51
179.9822499999994
  0
ARC
  5
C67D
  8
AM_0
 10
76.821475908952848
 20
7.3367488563578416
 30
0.0
 40
0.9941280500000002
 50
89.122808000000347
 51
115.9348100000004
  0
ARC
  5
C67E
  8
AM_0
 10
76.865545908952754
 20
6.3765788563578383
 30
0.0
 40
0.9942600099999999
 50
89.355881999999255
 51
120.7810900000007
  0
ARC
  5
C67F
  8
AM_0
 10
76.831795908952813
 20
5.235418856357823
 30
0.0
 40
0.99546796
 50
89.141447999999968
 51
117.20366
  0
ARC
  5
C680
  8
AM_0
 10
76.903325908952866
 20
1.864588856357811
 30
0.0
 40
0.9962120099999999
 50
90.381906000000214
 51
123.9698999999993
  0
ARC
  5
C681
  8
AM_0
 10
76.876105908952809
 20
0.7242988563578479
 30
0.0
 40
0.9965200400000001
 50
90.541212999999502
 51
120.7432799999998
  0
ARC
  5
C682
  8
AM_0
 10
75.590765908952804
 20
-0.0260211436421685
 30
0.0
 40
0.99407601
 50
120.4691999999993
 51
180.18464000000071
  0
ARC
  5
C683
  8
AM_0
 10
75.59149590895278
 20
1.0083788563578351
 30
0.0
 40
0.9948279899999999
 50
123.2046899999997
 51
180.43813000000009
  0
ARC
  5
C684
  8
AM_0
 10
75.589915908952804
 20
4.5722088563578307
 30
0.0
 40
0.9932120399999999
 50
117.7993400000002
 51
180.08183000000079
  0
ARC
  5
C685
  8
AM_0
 10
75.591135908952779
 20
5.6097488563578386
 30
0.0
 40
0.9944360299999999
 50
121.1521699999997
 51
179.9404899999993
  0
ARC
  5
C686
  8
AM_0
 10
78.594305908952848
 20
0.7184088563578257
 30
0.0
 40
1.002375999999999
 50
0.1355919900006641
 51
89.86440999999931
  0
ARC
  5
C687
  8
AM_0
 10
78.597725908952853
 20
5.2317688563578297
 30
0.0
 40
0.9990080599999998
 50
359.9431500000004
 51
90.056842999999347
  0
ARC
  5
C688
  8
AM_0
 10
79.098335908952805
 20
7.8324188563578323
 30
0.0
 40
0.4983640000000002
 50
359.81140999999991
 51
90.188597999999232
  0
LINE
  5
C689
  8
AM_0
 10
76.356695908952815
 20
7.230778856357829
 30
0.0
 11
75.076665908952805
 21
6.460788856357822
 31
0.0
  0
LINE
  5
C68A
  8
AM_0
 10
76.34668590895285
 20
2.6907388563578252
 30
0.0
 11
75.046695908952771
 21
1.840748856357834
 31
0.0
  0
LINE
  5
C68B
  8
AM_0
 10
76.876715908952775
 20
7.3707688563578397
 30
0.0
 11
79.596685908952864
 21
7.3707688563578397
 31
0.0
  0
LINE
  5
C68C
  8
AM_0
 10
76.896735908952806
 20
2.8607888563578281
 30
0.0
 11
79.596685908952864
 21
2.8607888563578281
 31
0.0
  0
LINE
  5
C68D
  8
AM_0
 10
76.866705908952795
 20
1.7207688563578341
 30
0.0
 11
78.59668590895285
 21
1.7207688563578341
 31
0.0
  0
LINE
  5
C68E
  8
AM_0
 10
76.846745908952826
 20
6.230778856357829
 30
0.0
 11
78.59668590895285
 21
6.230778856357829
 31
0.0
  0
LINE
  5
C68F
  8
AM_0
 10
76.836675908952884
 20
8.3307688563578211
 30
0.0
 11
79.096745908952812
 21
8.3307688563578211
 31
0.0
  0
LINE
  5
C690
  8
AM_0
 10
76.366705908952795
 20
1.5807588563578161
 30
0.0
 11
75.086675908952898
 21
0.8307588563578177
 31
0.0
  0
LINE
  5
C691
  8
AM_0
 10
76.38672590895284
 20
8.230808856357811
 30
0.0
 11
75.146735908952806
 21
7.6008088563578147
 31
0.0
  0
LINE
  5
C692
  8
AM_0
 10
76.376715908952775
 20
6.1207988563578217
 30
0.0
 11
75.126655908952799
 21
5.4507988563578351
 31
0.0
  0
LINE
  5
C693
  8
AM_0
 10
76.59668590895285
 20
2.5607688563578379
 30
0.0
 11
76.59668590895285
 21
2.0907788563578431
 31
0.0
  0
LINE
  5
C694
  8
AM_0
 10
76.59668590895285
 20
7.130788856357837
 30
0.0
 11
76.59668590895285
 21
6.5807888563578274
 31
0.0
  0
LINE
  5
C695
  8
AM_0
 10
83.786685908952805
 20
19.860798856357832
 30
0.0
 11
82.866705908952795
 21
15.980798856357829
 31
0.0
  0
LINE
  5
C696
  8
AM_0
 10
83.766665908952746
 20
21.520788856357822
 30
0.0
 11
82.876715908952775
 21
17.99078885635782
 31
0.0
  0
LINE
  5
C697
  8
AM_0
 10
79.596685908952864
 20
17.16079885635784
 30
0.0
 11
82.416635908952813
 21
17.230798856357829
 31
0.0
  0
ARC
  5
C698
  8
AM_0
 10
76.858715908952846
 20
8.4848988563578303
 30
0.0
 40
0.9959119600000002
 50
89.541444000000595
 51
119.60699000000029
  0
ARC
  5
C699
  8
AM_0
 10
79.092105908952831
 20
9.9853988563578469
 30
0.0
 40
0.5046359900000002
 50
270.52375999999953
 51
359.47624000000047
  0
LINE
  5
C69A
  8
AM_0
 10
76.866705908952795
 20
9.4807788563578281
 30
0.0
 11
79.096745908952812
 21
9.4807788563578281
 31
0.0
  0
ARC
  5
C69B
  8
AM_0
 10
85.817755908952805
 20
10.71834885635783
 30
0.0
 40
1.9924479999999991
 50
89.742108000000741
 51
169.8117900000004
  0
ARC
  5
C69C
  8
AM_0
 10
85.761545908952826
 20
16.001488856357842
 30
0.0
 40
1.999288
 50
89.851814999999618
 51
167.8943299999994
  0
ARC
  5
C69D
  8
AM_0
 10
81.380985908952781
 20
12.27101885635784
 30
0.0
 40
1.500248
 50
270.2166199999993
 51
347.67499999999961
  0
ARC
  5
C69E
  8
AM_0
 10
81.405155908952807
 20
16.33455885635783
 30
0.0
 40
1.503776
 50
270.05983999999961
 51
346.39313000000033
  0
ARC
  5
C69F
  8
AM_0
 10
81.417975908952855
 20
18.353978856357831
 30
0.0
 40
1.5032319999999979
 50
270.33131999999961
 51
346.01802999999938
  0
LINE
  5
C6A0
  8
AM_0
 10
81.386665908952764
 20
10.77078885635782
 30
0.0
 11
83.796695908952771
 21
10.77078885635782
 31
0.0
  0
LINE
  5
C6A1
  8
AM_0
 10
83.806645908952774
 20
16.42079885635783
 30
0.0
 11
82.846625908952902
 21
11.95079885635783
 31
0.0
  0
LINE
  5
C6A2
  8
AM_0
 10
81.406685908952795
 20
14.830788856357829
 30
0.0
 11
83.466745908952831
 21
14.830788856357829
 31
0.0
  0
LINE
  5
C6A3
  8
AM_0
 10
81.426705908952826
 20
16.850778856357831
 30
0.0
 11
83.076725908952909
 21
16.850778856357831
 31
0.0
  0
ARC
  5
C6A4
  8
AM_0
 10
85.728765908952809
 20
19.406268856357819
 30
0.0
 40
1.9945159999999991
 50
89.771334999999539
 51
166.82803999999979
  0
ARC
  5
C6A5
  8
AM_0
 10
85.703255908952897
 20
21.033958856357831
 30
0.0
 40
1.996815999999999
 50
89.901436000000672
 51
165.8894099999994
  0
ARC
  5
C6A6
  8
AM_0
 10
130.09668590895271
 20
-11.76922114364217
 30
0.0
 40
3.0
 50
90.0
 51
180.0
  0
ARC
  5
C6A7
  8
AM_0
 10
130.09668590895271
 20
-11.76922114364217
 30
0.0
 40
1.5
 50
90.0
 51
180.0
  0
LINE
  5
C6A8
  8
AM_0
 10
127.0967459089528
 20
-14.26923114364217
 30
0.0
 11
94.146735908952792
 21
-14.26923114364217
 31
0.0
  0
LINE
  5
C6A9
  8
AM_0
 10
127.0967459089528
 20
-16.26922114364217
 30
0.0
 11
94.146735908952792
 21
-16.26922114364217
 31
0.0
  0
LINE
  5
C6AA
  8
AM_0
 10
93.05670590895285
 20
-13.779211143642179
 30
0.0
 11
127.0967459089528
 21
-13.779211143642179
 31
0.0
  0
LINE
  5
C6AB
  8
AM_0
 10
93.05670590895285
 20
-16.709221143642161
 30
0.0
 11
127.0967459089528
 21
-16.709221143642161
 31
0.0
  0
ARC
  5
C6AC
  8
AM_0
 10
101.5919259089528
 20
-35.26923114364218
 30
0.0
 40
1.0000119000000001
 50
89.726507999999697
 51
270.27347999999978
  0
ARC
  5
C6AD
  8
AM_0
 10
101.5919259089528
 20
-45.269211143642202
 30
0.0
 40
1.0000119000000001
 50
89.726507999999697
 51
270.27347999999978
  0
ARC
  5
C6AE
  8
AM_0
 10
101.5919259089528
 20
-25.26922114364217
 30
0.0
 40
1.0000119000000001
 50
89.726507999999697
 51
270.27347999999978
  0
ARC
  5
C6AF
  8
AM_0
 10
101.5919259089528
 20
-15.26922114364217
 30
0.0
 40
1.0000119000000001
 50
89.726507999999697
 51
270.27347999999978
  0
ARC
  5
C6B0
  8
AM_0
 10
94.141975908952872
 20
-15.26922114364217
 30
0.0
 40
1.0000119000000001
 50
89.728447999999375
 51
270.27154000000053
  0
ARC
  5
C6B1
  8
AM_0
 10
93.05670590895285
 20
-15.244221143642161
 30
0.0
 40
1.465004
 50
90.000002999999296
 51
270.0
  0
LINE
  5
C6B2
  8
AM_0
 10
125.59668590895279
 20
-33.26922114364217
 30
0.0
 11
125.59668590895279
 21
-47.269221143642149
 31
0.0
  0
LINE
  5
C6B3
  8
AM_0
 10
128.59668590895279
 20
-48.76922114364217
 30
0.0
 11
127.09668590895279
 21
-48.76922114364217
 31
0.0
  0
LINE
  5
C6B4
  8
AM_0
 10
127.09668590895279
 20
-47.76922114364217
 30
0.0
 11
126.09668590895279
 21
-47.76922114364217
 31
0.0
  0
ARC
  5
C6B5
  8
AM_0
 10
126.09668590895269
 20
-47.269221143642149
 30
0.0
 40
0.5
 50
180.0
 51
270.0
  0
LINE
  5
C6B6
  8
AM_0
 10
128.59668590895279
 20
-31.76922114364217
 30
0.0
 11
127.09668590895279
 21
-31.76922114364217
 31
0.0
  0
LINE
  5
C6B7
  8
AM_0
 10
127.09668590895279
 20
-32.76922114364217
 30
0.0
 11
126.09668590895279
 21
-32.76922114364217
 31
0.0
  0
ARC
  5
C6B8
  8
AM_0
 10
126.09668590895269
 20
-33.26922114364217
 30
0.0
 40
0.5
 50
90.0
 51
180.0
  0
LINE
  5
C6B9
  8
AM_0
 10
124.59668590895279
 20
6.0807888563578274
 30
0.0
 11
89.596685908952864
 21
4.0507888563578263
 31
0.0
  0
ARC
  5
C6BA
  8
AM_0
 10
101.5919259089528
 20
-5.2692311436421724
 30
0.0
 40
1.0000119000000001
 50
89.726507999999697
 51
270.27347999999978
  0
ARC
  5
C6BB
  8
AM_0
 10
88.755015908952842
 20
1.323598856357846
 30
0.0
 40
5.0041121999999998
 50
279.68356999999992
 51
354.5783399999994
  0
LINE
  5
C6BC
  8
AM_0
 10
89.596745908952798
 20
8.0807888563578274
 30
0.0
 11
89.596745908952798
 21
-5.9592211436421669
 31
0.0
  0
ARC
  5
C6BD
  8
AM_0
 10
93.269845908952774
 20
-5.2242411436421881
 30
0.0
 40
1.6750160000000001
 50
89.766540000000646
 51
270.23345999999941
  0
ARC
  5
C6BE
  8
AM_0
 10
94.141975908952872
 20
-5.2692311436421724
 30
0.0
 40
1.0000119000000001
 50
89.728447999999375
 51
270.27154000000053
  0
ARC
  5
C6C0
  8
AM_0
 10
89.217475908952807
 20
-2.602131143642167
 30
0.0
 40
6.004915699999998
 50
45.227307000000494
 51
86.379093999999753
  0
ARC
  5
C6C1
  8
AM_0
 10
92.740665908952778
 20
0.9510688563578355
 30
0.0
 40
1.0011080999999991
 50
354.25024999999999
 51
45.146993999999928
  0
ARC
  5
C6C2
  8
AM_0
 10
102.5921059089528
 20
19.595418856357838
 30
0.0
 40
1.9953640999999991
 50
89.866758999999234
 51
180.13322999999949
  0
ARC
  5
C6C3
  8
AM_0
 10
102.5929059089528
 20
21.624598856357832
 30
0.0
 40
1.9961880000000001
 50
89.890486999999737
 51
180.10951000000031
  0
ARC
  5
C6C4
  8
AM_0
 10
102.5902759089529
 20
22.977238856357818
 30
0.0
 40
1.9935560999999999
 50
89.81451499999929
 51
180.1854899999997
  0
ARC
  5
C6C5
  8
AM_0
 10
102.5922359089528
 20
23.652048856357819
 30
0.0
 40
1.9987239999999999
 50
89.871136999999564
 51
165.55095999999929
  0
ARC
  5
C6C6
  8
AM_0
 10
99.093875908952924
 20
19.503608856357829
 30
0.0
 40
1.5028360000000001
 50
270.1079400000005
 51
359.8920599999995
  0
LINE
  5
C6C7
  8
AM_0
 10
100.59668590895279
 20
21.620768856357842
 30
0.0
 11
100.59668590895279
 21
14.210788856357819
 31
0.0
  0
ARC
  5
C6C8
  8
AM_0
 10
99.090035908952842
 20
14.21747885635784
 30
0.0
 40
1.506699899999999
 50
270.25415999999939
 51
359.74584000000061
  0
ARC
  5
C6C9
  8
AM_0
 10
99.091865908952769
 20
22.905648856357828
 30
0.0
 40
1.5048719999999991
 50
270.1851799999996
 51
359.8148200000004
  0
ARC
  5
C6CA
  8
AM_0
 10
99.203315908952874
 20
24.53378885635783
 30
0.0
 40
1.5030159999999979
 50
270.12944999999991
 51
345.23654000000067
  0
LINE
  5
C6CB
  8
AM_0
 10
131.59668590895279
 20
-10.26922114364217
 30
0.0
 11
131.59668590895279
 21
-8.7692211436421701
 31
0.0
  0
LINE
  5
C6CC
  8
AM_0
 10
132.59668590895279
 20
-7.7692211436421701
 30
0.0
 11
132.59668590895279
 21
-8.7692211436421701
 31
0.0
  0
ARC
  5
C6CD
  8
AM_0
 10
133.09668590895271
 20
-7.7692211436421701
 30
0.0
 40
0.5
 50
90.0
 51
180.0
  0
LINE
  5
C6CE
  8
ﾁｭｳｼﾝｾﾝ1
 10
175.59668590895279
 20
-5.7692211436421701
 30
0.0
 11
175.59668590895279
 21
-74.76922114364217
 31
0.0
1001
GENIUS_GENODEF_13
1002
{
1000
HIER
1070
     0
1002
}
1002
{
1000
MANEDIT
1070
     0
1002
}
1002
{
1000
NOSEL
1070
     0
1002
}
1002
{
1000
BEHIND
1070
     0
1002
}
1002
{
1000
REACTOR
1002
}
1001
GENIUS_GENOBJ-N-CEN_13
1002
{
1000
OWNER
1000
GEN
1002
}
  0
LINE
  5
C6CF
  8
AM_0
 10
205.59668590895291
 20
-11.76922114364217
 30
0.0
 11
205.59668590895291
 21
-68.76922114364217
 31
0.0
  0
LINE
  5
C6D0
  8
AM_0
 10
207.09668590895291
 20
-11.76922114364217
 30
0.0
 11
207.09668590895291
 21
-68.76922114364217
 31
0.0
  0
LINE
  5
C6D1
  8
AM_0
 10
198.59668590895279
 20
-55.540721143642223
 30
0.0
 11
198.59668590895279
 21
-19.76922114364217
 31
0.0
  0
LINE
  5
C6D2
  8
AM_0
 10
152.59668590895279
 20
-24.997621143642249
 30
0.0
 11
152.59668590895279
 21
-60.769221143642277
 31
0.0
  0
LINE
  5
C6D3
  8
AM_0
 10
157.7926859089529
 20
-55.573021143642187
 30
0.0
 11
157.7926859089529
 21
-24.965321143642171
 31
0.0
  0
LINE
  5
C6D4
  8
AM_0
 10
193.40068590895279
 20
-24.965321143642171
 30
0.0
 11
193.40068590895279
 21
-55.573021143642187
 31
0.0
  0
LINE
  5
C6D5
  8
AM_0
 10
226.59669420432169
 20
22.73078319887972
 30
0.0
 11
226.59672592514551
 21
-103.2692181194767
 31
0.0
  0
LINE
  5
C6D6
  8
AM_0
 10
216.36673590895279
 20
-10.26922114364217
 30
0.0
 11
216.36673590895279
 21
-70.26922114364217
 31
0.0
  0
LINE
  5
C6D7
  8
AM_0
 10
235.59674590895281
 20
23.73080885635822
 30
0.0
 11
235.59674590895281
 21
-104.26920614364199
 31
0.0
  0
CIRCLE
  5
C6D8
  8
AM_0
 10
198.59668590895259
 20
-62.769221143642291
 30
0.0
 40
4.5000000000000018
  0
ARC
  5
C6D9
  8
AM_0
 10
198.59668590895259
 20
-62.769221143642291
 30
0.0
 40
5.499999999999992
 50
105.46600995342131
 51
164.53399004657859
  0
LINE
  5
C6DA
  8
AM_0
 10
175.59668590895279
 20
-76.989213143642161
 30
0.0
 11
223.4166959089527
 21
-76.989213143642161
 31
0.0
  0
LINE
  5
C6DB
  8
AM_0
 10
219.9366859089528
 20
-76.269220143642173
 30
0.0
 11
175.59668590895279
 21
-76.269220143642173
 31
0.0
  0
LINE
  5
C6DC
  8
AM_0
 10
219.9366859089528
 20
-74.269227143642155
 30
0.0
 11
175.59668590895279
 21
-74.269227143642155
 31
0.0
  0
ARC
  5
C6DD
  8
AM_0
 10
155.5907059089528
 20
-102.1531921436422
 30
0.0
 40
2.0060479999999981
 50
270.17249000000038
 51
359.82750999999962
  0
ARC
  5
C6DE
  8
AM_0
 10
155.59332590895281
 20
-103.50586114364209
 30
0.0
 40
2.0033560000000001
 50
270.09593999999981
 51
359.90406000000007
  0
ARC
  5
C6DF
  8
AM_0
 10
155.5947959089527
 20
-104.17733114364211
 30
0.0
 40
2.0019
 50
270.05438000000072
 51
359.94561999999928
  0
LINE
  5
C6E0
  8
AM_0
 10
157.59668590895279
 20
-104.1792311436422
 30
0.0
 11
157.59668590895279
 21
-102.1292281436421
 31
0.0
  0
LINE
  5
C6E1
  8
AM_0
 10
154.59668590895279
 20
-62.769221143642291
 30
0.0
 11
191.3686859089529
 21
-62.76922114364217
 31
0.0
  0
LINE
  5
C6E2
  8
AM_0
 10
191.40068590895279
 20
-57.57302114364218
 30
0.0
 11
159.7926859089529
 21
-57.57302114364218
 31
0.0
  0
ARC
  5
C6E3
  8
AM_0
 10
144.09668590895279
 20
-72.139230143642152
 30
0.0
 40
1.5
 50
270.0
 51
311.12057029130989
1001
GENIUS_GENODEF_13
1002
{
1000
HIER
1070
     0
1002
}
1002
{
1000
MANEDIT
1070
     0
1002
}
1002
{
1000
NOSEL
1070
     0
1002
}
1002
{
1000
BEHIND
1070
     0
1002
}
1002
{
1000
REACTOR
1002
}
1001
GENIUS_GENOBJ-N-FIL_13
1002
{
1000
OWNER
1000
GEN
1002
}
  0
LINE
  5
C6E4
  8
AM_0
 10
148.59668590895279
 20
-70.26922114364217
 30
0.0
 11
148.59668590895279
 21
-71.76922114364217
 31
0.0
  0
ARC
  5
C6E5
  8
AM_0
 10
147.09668590895291
 20
-72.76922114364217
 30
0.0
 40
0.5
 50
270.0
 51
0.0
  0
LINE
  5
C6E6
  8
AM_0
 10
147.59668590895291
 20
-71.76922114364217
 30
0.0
 11
147.59668590895291
 21
-72.76922114364217
 31
0.0
  0
ARC
  5
C6E7
  8
AM_0
 10
154.59668590895271
 20
-60.769221143642277
 30
0.0
 40
2.0
 50
180.0
 51
270.0
  0
ARC
  5
C6E8
  8
AM_0
 10
159.7926859089529
 20
-55.573021143642187
 30
0.0
 40
2.0
 50
180.0
 51
270.0
  0
ARC
  5
C6E9
  8
AM_0
 10
191.36826976155231
 20
-60.769221143642277
 30
0.0
 40
2.0
 50
270.0
 51
344.53399004658019
  0
ARC
  5
C6EA
  8
AM_0
 10
191.40068590895279
 20
-55.573121143642283
 30
0.0
 40
2.0
 50
270.0
 51
0.0
  0
LINE
  5
C6EB
  8
AM_0
 10
221.3366759089528
 20
-100.6492171436421
 30
0.0
 11
224.7966959089529
 21
-87.729219143642155
 31
0.0
  0
LINE
  5
C6EC
  8
AM_0
 10
226.30670590895281
 20
-91.299226143642201
 30
0.0
 11
223.89670590895281
 21
-91.299226143642201
 31
0.0
  0
LINE
  5
C6ED
  8
AM_0
 10
223.39673590895279
 20
-99.189225143642176
 30
0.0
 11
224.83673590895279
 21
-92.489213143642147
 31
0.0
  0
LINE
  5
C6EE
  8
AM_0
 10
221.30673590895279
 20
-100.76921214364221
 30
0.0
 11
226.59668590895279
 21
-100.76921214364221
 31
0.0
  0
ARC
  5
C6EF
  8
AM_0
 10
219.4013759089529
 20
-100.1238341436421
 30
0.0
 40
2.0053917999999991
 50
270.15274999999968
 51
344.81206999999978
  0
ARC
  5
C6F0
  8
AM_0
 10
221.43915590895281
 20
-98.766610143642154
 30
0.0
 40
2.0026237999999998
 50
270.2153399999998
 51
347.8173399999996
  0
LINE
  5
C6F1
  8
AM_0
 10
227.59671590895269
 20
-104.26920614364199
 30
0.0
 11
235.59674590895281
 21
-104.26920614364199
 31
0.0
  0
ARC
  5
C6F2
  8
AM_0
 10
227.59690590895281
 20
-103.26903814364201
 30
0.0
 40
1.0001799999999981
 50
180.0103100000006
 51
269.98967999999991
  0
LINE
  5
C6F3
  8
AM_0
 10
227.5967159089528
 20
-92.309213143642154
 30
0.0
 11
235.5967459089529
 21
-92.309213143642154
 31
0.0
  0
ARC
  5
C6F4
  8
AM_0
 10
227.5961659089528
 20
-91.309755143642136
 30
0.0
 40
0.9994760199999999
 50
179.9700900000004
 51
270.02992000000029
  0
ARC
  5
C6F5
  8
AM_0
 10
226.30377590895279
 20
-92.798539143642145
 30
0.0
 40
1.499328
 50
89.888151000000079
 51
168.09384000000071
  0
ARC
  5
C6F6
  8
AM_0
 10
223.4166959089527
 20
-75.314210143642157
 30
0.0
 40
1.6750041
 50
270.0
 51
90.000002999999296
  0
LINE
  5
C6F7
  8
AM_0
 10
206.69476212030611
 20
-70.269221143642213
 30
0.0
 11
216.36673590895279
 21
-70.26922114364217
 31
0.0
  0
LINE
  5
C6F8
  8
AM_0
 10
206.86670590895281
 20
-70.539221143642152
 30
0.0
 11
216.36667590895291
 21
-70.269231143642173
 31
0.0
  0
LINE
  5
C6F9
  8
AM_0
 10
223.4166959089527
 20
-73.639230143642152
 30
0.0
 11
206.8967059089529
 21
-73.639230143642152
 31
0.0
  0
ARC
  5
C6FA
  8
AM_0
 10
206.89285590895281
 20
-71.535051143642164
 30
0.0
 40
0.99615997
 50
153.11127999765341
 51
180.24055000000061
  0
ARC
  5
C6FB
  8
AM_0
 10
204.09668590895279
 20
-68.769221143642284
 30
0.0
 40
3.0
 50
270.0
 51
0.0
  0
ARC
  5
C6FC
  8
AM_0
 10
204.09668590895279
 20
-68.769221143642284
 30
0.0
 40
1.5
 50
270.0
 51
0.0
  0
ARC
  5
C6FD
  8
AM_0
 10
206.89285590895281
 20
-71.535051143642164
 30
0.0
 40
0.99615997
 50
91.504364999999865
 51
117.5137961292084
  0
ARC
  5
C6FE
  8
AM_0
 10
206.8982959089528
 20
-72.637620143642181
 30
0.0
 40
1.001595999999999
 50
180.09126000000001
 51
269.90875000000068
  0
LINE
  5
C6FF
  8
AM_0
 10
205.89670590895281
 20
-72.639222143642172
 30
0.0
 11
205.89670590895281
 21
-71.539216143642165
 31
0.0
  0
ARC
  5
C700
  8
AM_0
 10
219.9366859089528
 20
-75.269212143642193
 30
0.0
 40
1.0
 50
270.0
 51
90.000002999999296
  0
LINE
  5
C701
  8
AM_0
 10
197.00668590895279
 20
-64.359321143642163
 30
0.0
 11
200.18668590895291
 21
-61.179321143642213
 31
0.0
  0
LINE
  5
C702
  8
AM_0
 10
197.0466859089529
 20
-61.179221143642138
 30
0.0
 11
200.14668590895289
 21
-64.359221143642202
 31
0.0
  0
ARC
  5
C703
  8
AM_0
 10
196.59668590895259
 20
-55.54080499624181
 30
0.0
 40
2.0
 50
285.46600995341959
 51
0.0
  0
ARC
  5
C704
  8
AM_0
 10
226.2420759089529
 20
-88.115205143642157
 30
0.0
 40
1.495995999999999
 50
89.821706999999776
 51
165.04766000000049
  0
LINE
  5
C705
  8
AM_0
 10
226.59668590895279
 20
-77.419213143642153
 30
0.0
 11
235.59674590895281
 21
-77.419213143642153
 31
0.0
  0
ARC
  5
C706
  8
AM_0
 10
196.59668590895259
 20
-19.76922114364228
 30
0.0
 40
2.0
 50
0.0
 51
90.0
  0
LINE
  5
C707
  8
AM_0
 10
196.59668590895279
 20
-17.76922114364217
 30
0.0
 11
159.8246859089528
 21
-17.76922114364217
 31
0.0
  0
LINE
  5
C708
  8
AM_0
 10
159.7926859089529
 20
-22.965321143642171
 30
0.0
 11
191.40068590895279
 21
-22.965321143642171
 31
0.0
  0
ARC
  5
C709
  8
AM_0
 10
152.59668590895271
 20
-17.76922114364217
 30
0.0
 40
5.499999999999992
 50
285.46600995342141
 51
344.53399004657859
  0
CIRCLE
  5
C70A
  8
AM_0
 10
152.59668590895271
 20
-17.76922114364217
 30
0.0
 40
4.5000000000000018
  0
ARC
  5
C70B
  8
AM_0
 10
154.59668590895271
 20
-24.997637291042651
 30
0.0
 40
2.0
 50
105.4660099534196
 51
180.0
  0
LINE
  5
C70C
  8
AM_0
 10
154.14668590895289
 20
-19.359221143642198
 30
0.0
 11
151.0466859089529
 21
-16.179221143642138
 31
0.0
  0
LINE
  5
C70D
  8
AM_0
 10
154.18668590895291
 20
-16.17912114364216
 30
0.0
 11
151.00668590895279
 21
-19.359121143642231
 31
0.0
  0
ARC
  5
C70E
  8
AM_0
 10
159.7926859089529
 20
-24.965321143642171
 30
0.0
 40
2.0
 50
90.0
 51
180.0
  0
ARC
  5
C70F
  8
AM_0
 10
159.8251020563533
 20
-19.76922114364217
 30
0.0
 40
2.0
 50
90.0
 51
164.53399004657959
  0
ARC
  5
C710
  8
AM_0
 10
191.40068590895279
 20
-24.965321143642281
 30
0.0
 40
2.0
 50
0.0
 51
90.0
  0
ARC
  5
C711
  8
AM_0
 10
144.09668590895279
 20
-8.3992111436421908
 30
0.0
 40
1.5
 50
48.879371627014791
 51
90.0
1001
GENIUS_GENODEF_13
1002
{
1000
HIER
1070
     0
1002
}
1002
{
1000
MANEDIT
1070
     0
1002
}
1002
{
1000
NOSEL
1070
     0
1002
}
1002
{
1000
BEHIND
1070
     0
1002
}
1002
{
1000
REACTOR
1002
}
1001
GENIUS_GENOBJ-N-FIL_13
1002
{
1000
OWNER
1000
GEN
1002
}
  0
LINE
  5
C712
  8
AM_0
 10
148.59668590895279
 20
-10.26922114364217
 30
0.0
 11
148.59668590895279
 21
-8.7692211436421701
 31
0.0
  0
LINE
  5
C713
  8
AM_0
 10
147.59668590895279
 20
-8.7692211436421701
 30
0.0
 11
147.59668590895279
 21
-7.7692211436421701
 31
0.0
  0
ARC
  5
C714
  8
AM_0
 10
147.09668590895271
 20
-7.7692211436421701
 30
0.0
 40
0.5
 50
0.0
 51
90.0
  0
ARC
  5
C715
  8
AM_0
 10
155.5957759089529
 20
21.61984885635783
 30
0.0
 40
2.0009238999999992
 50
0.0264629989995744
 51
89.973536000000692
  0
ARC
  5
C716
  8
AM_0
 10
155.59839590895271
 20
22.972478856357839
 30
0.0
 40
1.9982919999999991
 50
359.95103000000051
 51
90.048975000000169
  0
ARC
  5
C717
  8
AM_0
 10
155.5949159089528
 20
23.648958856357812
 30
0.0
 40
2.0018279999999988
 50
0.0523010000006971
 51
89.947697000000545
  0
LINE
  5
C718
  8
AM_0
 10
157.59668590895279
 20
23.650758856357811
 30
0.0
 11
157.59668590895279
 21
21.590778856357851
 31
0.0
  0
ARC
  5
C719
  8
AM_0
 10
204.09668590895279
 20
-11.76922114364228
 30
0.0
 40
3.0
 50
0.0
 51
90.0
  0
ARC
  5
C71A
  8
AM_0
 10
204.09668590895279
 20
-11.76922114364228
 30
0.0
 40
1.5
 50
0.0
 51
90.0
  0
ARC
  5
C71B
  8
AM_0
 10
223.4166959089527
 20
-5.2242411436421881
 30
0.0
 40
1.6750041
 50
270.0
 51
90.000002999999296
  0
LINE
  5
C71C
  8
AM_0
 10
221.3366759089528
 20
20.110788856357829
 30
0.0
 11
224.7966659089528
 21
7.1908188563578221
 31
0.0
  0
LINE
  5
C71D
  8
AM_0
 10
221.30673590895279
 20
20.23076885635783
 30
0.0
 11
226.59668590895279
 21
20.23076885635783
 31
0.0
  0
LINE
  5
C71E
  8
AM_0
 10
226.30670590895281
 20
10.77078885635782
 30
0.0
 11
223.89670590895281
 21
10.77078885635782
 31
0.0
  0
LINE
  5
C71F
  8
AM_0
 10
223.3967059089529
 20
18.650828856357819
 30
0.0
 11
224.83670590895281
 21
11.950828856357839
 31
0.0
  0
LINE
  5
C720
  8
AM_0
 10
206.694762120306
 20
-10.26922114364217
 30
0.0
 11
216.36673590895279
 21
-10.26922114364217
 31
0.0
  0
LINE
  5
C721
  8
AM_0
 10
223.4166959089527
 20
-6.8992111436421624
 30
0.0
 11
206.8967059089529
 21
-6.8992111436421624
 31
0.0
  0
LINE
  5
C722
  8
AM_0
 10
206.8666759089528
 20
-9.9992111436421833
 30
0.0
 11
216.36664590895279
 21
-10.26922114364217
 31
0.0
  0
ARC
  5
C723
  8
AM_0
 10
206.89792590895291
 20
-8.9984711436421492
 30
0.0
 40
1.001239999999999
 50
242.14351737777639
 51
268.21196000000037
  0
ARC
  5
C724
  8
AM_0
 10
206.89322590895279
 20
-7.8957111436421874
 30
0.0
 40
0.996512
 50
89.798963000000256
 51
180.2010300000006
  0
ARC
  5
C725
  8
AM_0
 10
206.89792590895291
 20
-8.9984711436421492
 30
0.0
 40
1.001239999999999
 50
180.04312999999979
 51
207.22944241525551
  0
LINE
  5
C726
  8
AM_0
 10
205.89670590895281
 20
-7.8992211436421638
 30
0.0
 11
205.89670590895281
 21
-8.9992311436421613
 31
0.0
  0
ARC
  5
C727
  8
AM_0
 10
219.9366859089528
 20
-5.2692311436421724
 30
0.0
 40
1.0
 50
270.0
 51
90.000002999999296
  0
ARC
  5
C728
  8
AM_0
 10
221.44415590895281
 20
18.234308856357799
 30
0.0
 40
1.996488
 50
12.040875
 51
89.926440999999329
  0
ARC
  5
C729
  8
AM_0
 10
219.4062859089529
 20
19.591798856357819
 30
0.0
 40
1.9989878999999999
 50
15.04780100000055
 51
89.987373000000403
  0
LINE
  5
C72A
  8
AM_0
 10
226.59668590895279
 20
-3.1192211436421631
 30
0.0
 11
235.59674590895281
 21
-3.1192211436421631
 31
0.0
  0
ARC
  5
C72B
  8
AM_0
 10
226.2469559089528
 20
7.5831688563578146
 30
0.0
 40
1.502391899999999
 50
195.14000999999931
 51
269.99063999999993
  0
LINE
  5
C72C
  8
AM_0
 10
227.5967159089528
 20
11.770768856357821
 30
0.0
 11
235.5967459089529
 21
11.770768856357821
 31
0.0
  0
ARC
  5
C72D
  8
AM_0
 10
227.5911059089529
 20
10.77638885635781
 30
0.0
 40
0.9944000200000001
 50
89.676490999999999
 51
180.32350999999929
  0
ARC
  5
C72E
  8
AM_0
 10
226.30258590895281
 20
12.271248856357831
 30
0.0
 40
1.500475999999999
 50
192.33223000000029
 51
270.15827999999971
  0
LINE
  5
C72F
  8
AM_0
 10
227.5967159089528
 20
23.730773856358208
 30
0.0
 11
235.5967459089529
 21
23.730773856358208
 31
0.0
  0
ARC
  5
C730
  8
AM_0
 10
227.5917459089527
 20
22.73573385635822
 30
0.0
 40
0.9950640200000001
 50
89.714938000000473
 51
180.2850599999997
  0
LINE
  5
C731
  8
AM_0
 10
227.5967046423406
 20
164.32579161628891
 30
0.0
 11
235.59670464233571
 21
164.32578272739991
 31
0.0
  0
LINE
  5
C732
  8
AM_0
 10
227.59668808677381
 20
149.42578161629811
 30
0.0
 11
235.59668808676889
 21
149.42577272740911
 31
0.0
  0
LINE
  5
C733
  8
AM_0
 10
235.5967046423024
 20
164.3257527273997
 30
0.0
 11
245.5967046422962
 21
164.3257416162885
 31
0.0
  0
LINE
  5
C734
  8
AM_0
 10
235.5966880867355
 20
149.4257427274089
 30
0.0
 11
245.5966880867293
 21
149.42573161629761
 31
0.0
  0
LINE
  5
C739
  8
AM_0
 10
72.10284590895283
 20
-55.491111143642399
 30
0.0
 11
72.10284590895283
 21
-25.047481143642361
 31
0.0
  0
LINE
  5
C73A
  8
AM_0
 10
72.10284590895283
 20
-55.49108114364234
 30
0.0
 11
72.602845908952943
 21
-58.261071143642511
 31
0.0
  0
LINE
  5
C73B
  8
AM_0
 10
72.602845908952943
 20
-58.261071143642511
 30
0.0
 11
73.102875908952811
 21
-58.221061143642352
 31
0.0
  0
POINT
  5
C73C
  8
AM_0
 10
72.102845908952943
 20
-40.269251143642343
 30
0.0
  0
LINE
  5
C73D
  8
AM_0
 10
72.602845908952943
 20
-22.277461143642402
 30
0.0
 11
73.102845908952901
 21
-22.317471143642418
 31
0.0
  0
LINE
  5
C73E
  8
AM_0
 10
72.10284590895283
 20
-25.047481143642361
 30
0.0
 11
72.602845908952943
 21
-22.277461143642402
 31
0.0
  0
LINE
  5
CBE0
  8
AM_0
 10
273.09674590895281
 20
-69.26922200790932
 30
0.0
 11
445.09678155253113
 21
-69.269222007909349
 31
0.0
  0
LINE
  5
CBE1
  8
AM_0
 10
273.4458364955284
 20
-89.269222603955797
 30
0.0
 11
444.7476909659556
 21
-89.269222603955797
 31
0.0
  0
LINE
  5
CBE2
  8
AM_0
 10
445.09678155253113
 20
-69.269222007909349
 30
0.0
 11
443.7353007990651
 21
8.7307879460666697
 31
0.0
  0
LINE
  5
CBE3
  8
ｶｸﾚｾﾝ2
 10
438.59678135881558
 20
8.7307803166716802
 30
0.0
 11
438.59678135881558
 21
-89.269230233350683
 31
0.0
  0
LINE
  5
CBE4
  8
AM_0
 10
444.7476909659556
 20
-89.269222603955797
 30
0.0
 11
445.09678155253113
 21
-69.269222007909349
 31
0.0
  0
LINE
  5
CBE5
  8
ﾁｭｳｼﾝｾﾝ1
 10
433.09678119490297
 20
12.48078413136929
 30
0.0
 11
433.09678119490297
 21
-93.019226418653304
 31
0.0
  0
LINE
  5
CBE6
  8
ｶｸﾚｾﾝ2
 10
427.5967810309902
 20
8.7307803166716802
 30
0.0
 11
427.5967810309902
 21
-89.269230233350683
 31
0.0
  0
LINE
  5
CBE8
  8
AM_0
 10
274.45825717999759
 20
8.7307879460666697
 30
0.0
 11
443.7353007990651
 21
8.7307879460666697
 31
0.0
  0
LINE
  5
CBE9
  8
ﾁｭｳｼﾝｾﾝ1
 10
382.0967796749851
 20
21.73078055509049
 30
0.0
 11
382.0967796749851
 21
-102.26923047176921
 31
0.0
  0
LINE
  5
CBEA
  8
ｶｸﾚｾﾝ2
 10
279.59674610266768
 20
8.7307803166716802
 30
0.0
 11
279.59674610266768
 21
-89.269230233350683
 31
0.0
  0
LINE
  5
CBEB
  8
AM_0
 10
273.4458364955284
 20
-89.269222603955797
 30
0.0
 11
273.09674590895281
 21
-69.269222007909349
 31
0.0
  0
LINE
  5
CBEC
  8
ﾁｭｳｼﾝｾﾝ1
 10
285.0967462665804
 20
12.480784131368949
 30
0.0
 11
285.0967462665804
 21
-93.019226418653417
 31
0.0
  0
LINE
  5
CBED
  8
ｶｸﾚｾﾝ2
 10
290.5967464304934
 20
8.7307803166716802
 30
0.0
 11
290.5967464304934
 21
-89.269230233350683
 31
0.0
  0
LINE
  5
CBEE
  8
AM_0
 10
273.0967459090287
 20
-69.26922200790932
 30
0.0
 11
274.45825717999759
 21
8.7307879460666697
 31
0.0
  0
LINE
  5
CBEF
  8
AM_0
 10
344.59677855739801
 20
-93.269230352559944
 30
0.0
 11
344.59677855739801
 21
-89.269230233350683
 31
0.0
  0
LINE
  5
CBF0
  8
AM_0
 10
344.59677855739801
 20
-93.269230352559944
 30
0.0
 11
419.59678079257202
 21
-93.269230352559944
 31
0.0
  0
LINE
  5
CBF1
  8
AM_0
 10
359.59677900443279
 20
-97.269230471769234
 30
0.0
 11
359.59677900443279
 21
-93.269230352559944
 31
0.0
  0
LINE
  5
CBF2
  8
AM_0
 10
404.5967803455373
 20
-97.269230471769234
 30
0.0
 11
359.59677900443279
 21
-97.269230471769234
 31
0.0
  0
LINE
  5
CBF3
  8
AM_0
 10
404.5967803455373
 20
-97.269230471769234
 30
0.0
 11
404.5967803455373
 21
-93.269230352559944
 31
0.0
  0
LINE
  5
CBF4
  8
AM_0
 10
419.59678079257202
 20
-93.269230352559944
 30
0.0
 11
419.59678079257202
 21
-89.269230233350683
 31
0.0
  0
LINE
  5
CBF5
  8
AM_0
 10
419.59678079257202
 20
12.73078043588097
 30
0.0
 11
419.59678079257202
 21
8.7307803166716802
 31
0.0
  0
LINE
  5
CBF6
  8
AM_0
 10
344.59677855739801
 20
12.73078043588097
 30
0.0
 11
419.59678079257202
 21
12.73078043588097
 31
0.0
  0
LINE
  5
CBF7
  8
AM_0
 10
404.5967803455373
 20
16.73078055509049
 30
0.0
 11
359.59677900443279
 21
16.73078055509049
 31
0.0
  0
LINE
  5
CBF8
  8
AM_0
 10
404.5967803455373
 20
16.73078055509049
 30
0.0
 11
404.5967803455373
 21
12.73078043588097
 31
0.0
  0
LINE
  5
CBF9
  8
AM_0
 10
344.59677855739801
 20
12.73078043588097
 30
0.0
 11
344.59677855739801
 21
8.7307803166716802
 31
0.0
  0
LINE
  5
CBFA
  8
AM_0
 10
359.59677900443279
 20
16.73078055509049
 30
0.0
 11
359.59677900443279
 21
12.73078043588097
 31
0.0
  0
LINE
  5
CC11
  8
AM_0
 10
355.09677967498521
 20
-82.26922260395564
 30
0.0
 11
343.09677967498487
 21
-82.26922260395564
 31
0.0
  0
LINE
  5
CC12
  8
AM_0
 10
345.09677967498487
 20
-88.269222603955782
 30
0.0
 11
353.09677967498521
 21
-88.269222603955797
 31
0.0
  0
LINE
  5
CC13
  8
AM_0
 10
343.09677967498487
 20
-89.269222603955782
 30
0.0
 11
343.09677967498487
 21
-82.26922260395564
 31
0.0
  0
LINE
  5
CC14
  8
AM_0
 10
344.09677967498487
 20
-82.26922260395564
 30
0.0
 11
344.09677967498487
 21
-87.269222603955782
 31
0.0
  0
LINE
  5
CC15
  8
AM_0
 10
355.09677967498521
 20
-89.269222603955797
 30
0.0
 11
355.09677967498521
 21
-82.26922260395564
 31
0.0
  0
LINE
  5
CC16
  8
AM_0
 10
354.09677967498521
 20
-87.269222603955797
 30
0.0
 11
354.09677967498521
 21
-82.26922260395564
 31
0.0
  0
ARC
  5
CC28
  8
AM_0
 10
345.09677967498487
 20
-87.269222603955782
 30
0.0
 40
1.0
 50
180.0
 51
270.0
1001
GENIUS_GENOBJ-N-FIL_13
1002
{
1000
OWNER
1000
GEN
1002
}
1001
GENIUS_GENODEF_13
1002
{
1000
HIER
1070
     0
1002
}
1002
{
1000
MANEDIT
1070
     0
1002
}
1002
{
1000
NOSEL
1070
     0
1002
}
1002
{
1000
BEHIND
1070
     0
1002
}
1002
{
1000
OTHER
1070
     0
1002
}
1002
{
1000
REACTOR
1002
}
  0
ARC
  5
CC2A
  8
AM_0
 10
353.09677967498521
 20
-87.269222603955797
 30
0.0
 40
1.0
 50
270.0
 51
0.0
1001
GENIUS_GENOBJ-N-FIL_13
1002
{
1000
OWNER
1000
GEN
1002
}
1001
GENIUS_GENODEF_13
1002
{
1000
HIER
1070
     0
1002
}
1002
{
1000
MANEDIT
1070
     0
1002
}
1002
{
1000
NOSEL
1070
     0
1002
}
1002
{
1000
BEHIND
1070
     0
1002
}
1002
{
1000
OTHER
1070
     0
1002
}
1002
{
1000
REACTOR
1002
}
  0
LINE
  5
CC2B
  8
AM_0
 10
246.5967459089529
 20
21.230773856358319
 30
0.0
 11
246.5967459089529
 21
-101.7692061436419
 31
0.0
  0
LINE
  5
CC2C
  8
AM_0
 10
249.5967459089527
 20
21.230773856358208
 30
0.0
 11
254.4955329385142
 21
21.23077385635813
 31
0.0
  0
LINE
  5
CC2D
  8
AM_0
 10
235.5967459089529
 20
-3.129236143642002
 30
0.0
 11
245.59674590895281
 21
-3.129236143642002
 31
0.0
  0
ARC
  5
CC2E
  8
AM_0
 10
249.5967459089527
 20
24.230773856358159
 30
0.0
 40
2.9999999999999978
 50
215.68533471265459
 51
270.0
1001
GENIUS_GENOBJ-N-FIL_13
1002
{
1000
OWNER
1000
GEN
1002
}
1001
GENIUS_GENODEF_13
1002
{
1000
HIER
1070
     0
1002
}
1002
{
1000
MANEDIT
1070
     0
1002
}
1002
{
1000
NOSEL
1070
     0
1002
}
1002
{
1000
BEHIND
1070
     0
1002
}
1002
{
1000
OTHER
1070
     0
1002
}
1002
{
1000
REACTOR
1002
}
  0
LINE
  5
CC2F
  8
AM_0
 10
235.5967459089529
 20
11.77077385635806
 30
0.0
 11
245.59674590895281
 21
11.77077385635806
 31
0.0
  0
LINE
  5
CC30
  8
AM_0
 10
235.59674590895281
 20
23.730773856358208
 30
0.0
 11
244.72334873654839
 21
23.730773856358208
 31
0.0
  0
ARC
  5
CC31
  8
AM_0
 10
244.72334873654839
 20
20.730773856358208
 30
0.0
 40
2.9999999999999978
 50
35.68533471265463
 51
90.0
1001
GENIUS_GENOBJ-N-FIL_13
1002
{
1000
OWNER
1000
GEN
1002
}
1001
GENIUS_GENODEF_13
1002
{
1000
HIER
1070
     0
1002
}
1002
{
1000
MANEDIT
1070
     0
1002
}
1002
{
1000
NOSEL
1070
     0
1002
}
1002
{
1000
BEHIND
1070
     0
1002
}
1002
{
1000
OTHER
1070
     0
1002
}
1002
{
1000
REACTOR
1002
}
  0
LINE
  5
CC32
  8
AM_0
 10
249.5967459089527
 20
-101.7692061436419
 30
0.0
 11
260.76408356091798
 21
-101.7692061436418
 31
0.0
  0
ARC
  5
CC33
  8
AM_0
 10
249.5967459089527
 20
-104.7692061436419
 30
0.0
 40
2.9999999999999978
 50
90.0
 51
144.31466528734541
1001
GENIUS_GENOBJ-N-FIL_13
1002
{
1000
OWNER
1000
GEN
1002
}
1001
GENIUS_GENODEF_13
1002
{
1000
HIER
1070
     0
1002
}
1002
{
1000
MANEDIT
1070
     0
1002
}
1002
{
1000
NOSEL
1070
     0
1002
}
1002
{
1000
BEHIND
1070
     0
1002
}
1002
{
1000
OTHER
1070
     0
1002
}
1002
{
1000
REACTOR
1002
}
  0
ARC
  5
CC34
  8
AM_0
 10
244.72334873654839
 20
-101.26920614364199
 30
0.0
 40
2.9999999999999978
 50
270.0
 51
324.31466528734541
1001
GENIUS_GENOBJ-N-FIL_13
1002
{
1000
OWNER
1000
GEN
1002
}
1001
GENIUS_GENODEF_13
1002
{
1000
HIER
1070
     0
1002
}
1002
{
1000
MANEDIT
1070
     0
1002
}
1002
{
1000
NOSEL
1070
     0
1002
}
1002
{
1000
BEHIND
1070
     0
1002
}
1002
{
1000
OTHER
1070
     0
1002
}
1002
{
1000
REACTOR
1002
}
  0
LINE
  5
CC35
  8
AM_0
 10
235.59674590895281
 20
-104.26920614364199
 30
0.0
 11
244.72334873654839
 21
-104.26920614364199
 31
0.0
  0
LINE
  5
CC36
  8
AM_0
 10
235.5966880867355
 20
-92.309216143610286
 30
0.0
 11
245.5966880867293
 21
-92.309227254721506
 31
0.0
  0
LINE
  5
CC37
  8
AM_0
 10
235.59674590895281
 20
-92.309206143641831
 30
0.0
 11
245.59674590895281
 21
-92.309206143641831
 31
0.0
  0
LINE
  5
CC38
  8
AM_0
 10
235.5967046423024
 20
-77.4092061436194
 30
0.0
 11
245.5967046422962
 21
-77.409217254730635
 31
0.0
  0
LINE
  5
CC39
  8
AM_0
 10
235.59674590895281
 20
-77.409196143641793
 30
0.0
 11
245.59674590895281
 21
-77.409196143641793
 31
0.0
  0
LINE
  5
CC43
  8
AM_0
 10
265.45537636450501
 20
-69.09491052241404
 30
0.0
 11
262.75647295710149
 21
-99.943517629137119
 31
0.0
  0
LINE
  5
CC57
  8
AM_0
 10
259.42944202301987
 20
6.7307879460666724
 30
0.0
 11
272.4579525167353
 21
6.7307879460666724
 31
0.0
  0
LINE
  5
CC5D
  8
AM_0
 10
267.44776576068853
 20
-67.269222007909349
 30
0.0
 11
272.11404884787459
 21
-67.269222007909349
 31
0.0
  0
LINE
  5
CC67
  8
AM_0
 10
256.4879223346976
 20
19.40508534185345
 30
0.0
 11
257.43705262683642
 21
8.556476460571357
 31
0.0
  0
ARC
  5
CC6A
  8
AM_0
 10
254.49553293851409
 20
19.23077385635813
 30
0.0
 40
2.0
 50
4.9999999999999929
 51
89.999999999999048
1001
GENIUS_GENOBJ-N-FIL_13
1002
{
1000
OWNER
1000
GEN
1002
}
1001
GENIUS_GENODEF_13
1002
{
1000
HIER
1070
     0
1002
}
1002
{
1000
MANEDIT
1070
     0
1002
}
1002
{
1000
NOSEL
1070
     0
1002
}
1002
{
1000
BEHIND
1070
     0
1002
}
1002
{
1000
OTHER
1070
     0
1002
}
1002
{
1000
REACTOR
1002
}
  0
ARC
  5
CC6C
  8
AM_0
 10
259.42944202301987
 20
8.7307879460666733
 30
0.0
 40
2.0
 50
185.0
 51
270.0
1001
GENIUS_GENOBJ-N-FIL_13
1002
{
1000
OWNER
1000
GEN
1002
}
1001
GENIUS_GENODEF_13
1002
{
1000
HIER
1070
     0
1002
}
1002
{
1000
MANEDIT
1070
     0
1002
}
1002
{
1000
NOSEL
1070
     0
1002
}
1002
{
1000
BEHIND
1070
     0
1002
}
1002
{
1000
OTHER
1070
     0
1002
}
1002
{
1000
REACTOR
1002
}
  0
ARC
  5
CC6E
  8
AM_0
 10
260.76408356091798
 20
-99.769206143641796
 30
0.0
 40
2.0
 50
270.00000000000091
 51
355.0
1001
GENIUS_GENOBJ-N-FIL_13
1002
{
1000
OWNER
1000
GEN
1002
}
1001
GENIUS_GENODEF_13
1002
{
1000
HIER
1070
     0
1002
}
1002
{
1000
MANEDIT
1070
     0
1002
}
1002
{
1000
NOSEL
1070
     0
1002
}
1002
{
1000
BEHIND
1070
     0
1002
}
1002
{
1000
OTHER
1070
     0
1002
}
1002
{
1000
REACTOR
1002
}
  0
ARC
  5
CC70
  8
AM_0
 10
267.44776576068853
 20
-69.26922200790932
 30
0.0
 40
2.0
 50
90.0
 51
175.0
1001
GENIUS_GENOBJ-N-FIL_13
1002
{
1000
OWNER
1000
GEN
1002
}
1001
GENIUS_GENODEF_13
1002
{
1000
HIER
1070
     0
1002
}
1002
{
1000
MANEDIT
1070
     0
1002
}
1002
{
1000
NOSEL
1070
     0
1002
}
1002
{
1000
BEHIND
1070
     0
1002
}
1002
{
1000
OTHER
1070
     0
1002
}
1002
{
1000
REACTOR
1002
}
  0
ARC
  5
CC72
  8
AM_0
 10
272.4579525167353
 20
8.7307879460666733
 30
0.0
 40
2.0
 50
270.0
 51
358.99998822644358
1001
GENIUS_GENOBJ-N-FIL_13
1002
{
1000
OWNER
1000
GEN
1002
}
1001
GENIUS_GENODEF_13
1002
{
1000
HIER
1070
     0
1002
}
1002
{
1000
MANEDIT
1070
     0
1002
}
1002
{
1000
NOSEL
1070
     0
1002
}
1002
{
1000
BEHIND
1070
     0
1002
}
1002
{
1000
OTHER
1070
     0
1002
}
1002
{
1000
REACTOR
1002
}
  0
ARC
  5
CC77
  8
AM_0
 10
272.11404884787459
 20
-68.26922200790932
 30
0.0
 40
1.0
 50
358.9999882264994
 51
90.0
1001
GENIUS_GENOBJ-N-FIL_13
1002
{
1000
OWNER
1000
GEN
1002
}
1001
GENIUS_GENODEF_13
1002
{
1000
HIER
1070
     0
1002
}
1002
{
1000
MANEDIT
1070
     0
1002
}
1002
{
1000
NOSEL
1070
     0
1002
}
1002
{
1000
BEHIND
1070
     0
1002
}
1002
{
1000
OTHER
1070
     0
1002
}
1002
{
1000
REACTOR
1002
}
  0
LINE
  5
D0D5
  8
ﾁｭｳｼﾝｾﾝ1
 10
562.03615666807013
 20
353.488991460953
 30
0.0
 11
686.03616588219711
 21
353.48899146095289
 31
0.0
  0
LINE
  5
D0D6
  8
AM_0
 10
681.0361291158232
 20
371.78897925392181
 30
0.0
 11
567.03615963340121
 21
371.78897925392181
 31
0.0
  0
LINE
  5
D0D7
  8
AM_0
 10
681.03617054626045
 20
375.98876713149889
 30
0.0
 11
660.47140222472922
 21
375.988767131499
 31
0.0
  0
POLYLINE
  5
D0D8
  8
AM_4
 66
     1
 10
0.0
 20
0.0
 30
0.0
  0
VERTEX
  5
D0D9
  8
AM_4
 10
677.03617043105146
 20
387.83999216634072
 30
0.0
  0
VERTEX
  5
D0DA
  8
AM_4
 10
676.51700579376734
 20
387.65990631583361
 30
0.0
  0
VERTEX
  5
D0DB
  8
AM_4
 10
675.06206157564668
 20
387.19118864751141
 30
0.0
  0
VERTEX
  5
D0DC
  8
AM_4
 10
673.85408940861203
 20
386.82462071268873
 30
0.0
  0
VERTEX
  5
D0DD
  8
AM_4
 10
672.8393131197771
 20
386.52206201096033
 30
0.0
  0
VERTEX
  5
D0DE
  8
AM_4
 10
671.96395653625609
 20
386.24537204192092
 30
0.0
  0
VERTEX
  5
D0DF
  8
AM_4
 10
671.17424348516272
 20
385.95641030516532
 30
0.0
  0
VERTEX
  5
D0E0
  8
AM_4
 10
670.42573806810844
 20
385.62441821220148
 30
0.0
  0
VERTEX
  5
D0E1
  8
AM_4
 10
669.71136548469315
 20
385.24816482219262
 30
0.0
  0
VERTEX
  5
D0E2
  8
AM_4
 10
669.03339120901319
 20
384.83380110621528
 30
0.0
  0
VERTEX
  5
D0E3
  8
AM_4
 10
668.39408071516505
 20
384.38747803534608
 30
0.0
  0
VERTEX
  5
D0E4
  8
AM_4
 10
667.79569947724588
 20
383.91534658066149
 30
0.0
  0
VERTEX
  5
D0E5
  8
AM_4
 10
667.24051296935261
 20
383.42355771323821
 30
0.0
  0
VERTEX
  5
D0E6
  8
AM_4
 10
666.73078666558126
 20
382.91826240415242
 30
0.0
  0
VERTEX
  5
D0E7
  8
AM_4
 10
666.26878604002945
 20
382.40561162448103
 30
0.0
  0
VERTEX
  5
D0E8
  8
AM_4
 10
665.85515560037834
 20
381.8916356641393
 30
0.0
  0
VERTEX
  5
D0E9
  8
AM_4
 10
665.48405598864872
 20
381.38188208839767
 30
0.0
  0
VERTEX
  5
D0EA
  8
AM_4
 10
665.1480268804462
 20
380.88177778136497
 30
0.0
  0
VERTEX
  5
D0EB
  8
AM_4
 10
664.83960795137659
 20
380.39674962715048
 30
0.0
  0
VERTEX
  5
D0EC
  8
AM_4
 10
664.55133887704528
 20
379.93222450986332
 30
0.0
  0
VERTEX
  5
D0ED
  8
AM_4
 10
664.2757593330582
 20
379.49362931361242
 30
0.0
  0
VERTEX
  5
D0EE
  8
AM_4
 10
664.00540899502073
 20
379.08639092250689
 30
0.0
  0
VERTEX
  5
D0EF
  8
AM_4
 10
663.73282753853857
 20
378.71593622065598
 30
0.0
  0
VERTEX
  5
D0F0
  8
AM_4
 10
663.45204589878324
 20
378.3856064365433
 30
0.0
  0
VERTEX
  5
D0F1
  8
AM_4
 10
663.16306004918795
 20
378.09040017615138
 30
0.0
  0
VERTEX
  5
D0F2
  8
AM_4
 10
662.86735722275182
 20
377.82323038983742
 30
0.0
  0
VERTEX
  5
D0F3
  8
AM_4
 10
662.56642465247376
 20
377.57701002795852
 30
0.0
  0
VERTEX
  5
D0F4
  8
AM_4
 10
662.26174957135265
 20
377.34465204087189
 30
0.0
  0
VERTEX
  5
D0F5
  8
AM_4
 10
661.95481921238775
 20
377.1190693789344
 30
0.0
  0
VERTEX
  5
D0F6
  8
AM_4
 10
661.64712080857805
 20
376.89317499250382
 30
0.0
  0
VERTEX
  5
D0F7
  8
AM_4
 10
661.34014159292235
 20
376.65988183193667
 30
0.0
  0
VERTEX
  5
D0F8
  8
AM_4
 10
661.03186541361561
 20
376.41402863914499
 30
0.0
  0
VERTEX
  5
D0F9
  8
AM_4
 10
660.70626257963409
 20
376.15815732225838
 30
0.0
  0
VERTEX
  5
D0FA
  8
AM_4
 10
660.34380001515092
 20
375.89673558096121
 30
0.0
  0
VERTEX
  5
D0FB
  8
AM_4
 10
659.92494464433776
 20
375.63423111493728
 30
0.0
  0
VERTEX
  5
D0FC
  8
AM_4
 10
659.43016339136705
 20
375.37511162387108
 30
0.0
  0
VERTEX
  5
D0FD
  8
AM_4
 10
658.83992318041135
 20
375.1238448074472
 30
0.0
  0
VERTEX
  5
D0FE
  8
AM_4
 10
658.13469093564299
 20
374.88489836534922
 30
0.0
  0
VERTEX
  5
D0FF
  8
AM_4
 10
657.29493358123432
 20
374.66273999726172
 30
0.0
  0
VERTEX
  5
D100
  8
AM_4
 10
656.30907722145275
 20
374.46186582274362
 30
0.0
  0
VERTEX
  5
D101
  8
AM_4
 10
655.19738468094715
 20
374.28688564085292
 30
0.0
  0
VERTEX
  5
D102
  8
AM_4
 10
653.98807796446124
 20
374.1424376705225
 30
0.0
  0
VERTEX
  5
D103
  8
AM_4
 10
652.70937907673931
 20
374.0331601306853
 30
0.0
  0
VERTEX
  5
D104
  8
AM_4
 10
651.38951002252497
 20
373.96369124027382
 30
0.0
  0
VERTEX
  5
D105
  8
AM_4
 10
650.05669280656195
 20
373.93866921822098
 30
0.0
  0
VERTEX
  5
D106
  8
AM_4
 10
648.73914943359466
 20
373.96273228345979
 30
0.0
  0
VERTEX
  5
D107
  8
AM_4
 10
647.46510190836682
 20
374.04051865492278
 30
0.0
  0
VERTEX
  5
D108
  8
AM_4
 10
646.2546933866173
 20
374.17268757079597
 30
0.0
  0
VERTEX
  5
D109
  8
AM_4
 10
645.09575162806675
 20
374.34398234627719
 30
0.0
  0
VERTEX
  5
D10A
  8
AM_4
 10
643.96802554343037
 20
374.53516731581698
 30
0.0
  0
VERTEX
  5
D10B
  8
AM_4
 10
642.85126404342373
 20
374.72700681386669
 30
0.0
  0
VERTEX
  5
D10C
  8
AM_4
 10
641.72521603876248
 20
374.90026517487672
 30
0.0
  0
VERTEX
  5
D10D
  8
AM_4
 10
640.56963044016197
 20
375.03570673329801
 30
0.0
  0
VERTEX
  5
D10E
  8
AM_4
 10
639.36425615833753
 20
375.11409582358152
 30
0.0
  0
VERTEX
  5
D10F
  8
AM_4
 10
638.08884210400493
 20
375.1161967801778
 30
0.0
  0
VERTEX
  5
D110
  8
AM_4
 10
636.73157515393268
 20
375.0302645327975
 30
0.0
  0
VERTEX
  5
D111
  8
AM_4
 10
635.31439404910316
 20
374.87451639218921
 30
0.0
  0
VERTEX
  5
D112
  8
AM_4
 10
633.86767549655178
 20
374.67466026436108
 30
0.0
  0
VERTEX
  5
D113
  8
AM_4
 10
632.42179620331365
 20
374.45640405532151
 30
0.0
  0
VERTEX
  5
D114
  8
AM_4
 10
631.00713287642475
 20
374.2454556710785
 30
0.0
  0
VERTEX
  5
D115
  8
AM_4
 10
629.65406222292006
 20
374.06752301764038
 30
0.0
  0
VERTEX
  5
D116
  8
AM_4
 10
628.39296094983524
 20
373.94831400101532
 30
0.0
  0
VERTEX
  5
D117
  8
AM_4
 10
627.25420576420549
 20
373.91353652721159
 30
0.0
  0
VERTEX
  5
D118
  8
AM_4
 10
626.25522517282423
 20
373.98005189451271
 30
0.0
  0
VERTEX
  5
D119
  8
AM_4
 10
625.36165488151539
 20
374.12933497030377
 30
0.0
  0
VERTEX
  5
D11A
  8
AM_4
 10
624.52618239586093
 20
374.33401401424538
 30
0.0
  0
VERTEX
  5
D11B
  8
AM_4
 10
623.701495221443
 20
374.56671728599832
 30
0.0
  0
VERTEX
  5
D11C
  8
AM_4
 10
622.84028086384308
 20
374.80007304522252
 30
0.0
  0
VERTEX
  5
D11D
  8
AM_4
 10
621.8952268286431
 20
375.00670955157858
 30
0.0
  0
VERTEX
  5
D11E
  8
AM_4
 10
620.81902062142535
 20
375.1592550647274
 30
0.0
  0
VERTEX
  5
D11F
  8
AM_4
 10
619.56434974777142
 20
375.23033784432909
 30
0.0
  0
VERTEX
  5
D120
  8
AM_4
 10
618.10039177286887
 20
375.20176534343727
 30
0.0
  0
VERTEX
  5
D121
  8
AM_4
 10
616.4622845003297
 20
375.09206178867618
 30
0.0
  0
VERTEX
  5
D122
  8
AM_4
 10
614.7016557933714
 20
374.92893060006338
 30
0.0
  0
VERTEX
  5
D123
  8
AM_4
 10
612.87013351521114
 20
374.74007519761619
 30
0.0
  0
VERTEX
  5
D124
  8
AM_4
 10
611.01934552906641
 20
374.55319900135157
 30
0.0
  0
VERTEX
  5
D125
  8
AM_4
 10
609.20091969815508
 20
374.39600543128751
 30
0.0
  0
VERTEX
  5
D126
  8
AM_4
 10
607.46648388569429
 20
374.29619790744073
 30
0.0
  0
VERTEX
  5
D127
  8
AM_4
 10
605.86766595490155
 20
374.28147984982888
 30
0.0
  0
VERTEX
  5
D128
  8
AM_4
 10
604.44192841416293
 20
374.3701552712817
 30
0.0
  0
VERTEX
  5
D129
  8
AM_4
 10
603.17007235253789
 20
374.542930555878
 30
0.0
  0
VERTEX
  5
D12A
  8
AM_4
 10
602.01873350425421
 20
374.77111268050879
 30
0.0
  0
VERTEX
  5
D12B
  8
AM_4
 10
600.95454760353971
 20
375.02600862206577
 30
0.0
  0
VERTEX
  5
D12C
  8
AM_4
 10
599.94415038462239
 20
375.27892535743968
 30
0.0
  0
VERTEX
  5
D12D
  8
AM_4
 10
598.95417758173005
 20
375.50116986352202
 30
0.0
  0
VERTEX
  5
D12E
  8
AM_4
 10
597.9512649290906
 20
375.66404911720389
 30
0.0
  0
VERTEX
  5
D12F
  8
AM_4
 10
596.90204816093183
 20
375.73887009537663
 30
0.0
  0
VERTEX
  5
D130
  8
AM_4
 10
595.78303909319436
 20
375.7074710625746
 30
0.0
  0
VERTEX
  5
D131
  8
AM_4
 10
594.61025386867107
 20
375.59381543390572
 30
0.0
  0
VERTEX
  5
D132
  8
AM_4
 10
593.4095847118665
 20
375.43239791212068
 30
0.0
  0
VERTEX
  5
D133
  8
AM_4
 10
592.20692384728568
 20
375.25771319997108
 30
0.0
  0
VERTEX
  5
D134
  8
AM_4
 10
591.02816349943464
 20
375.10425600020801
 30
0.0
  0
VERTEX
  5
D135
  8
AM_4
 10
589.8991958928176
 20
375.00652101558222
 30
0.0
  0
VERTEX
  5
D136
  8
AM_4
 10
588.84591325194015
 20
374.99900294884492
 30
0.0
  0
VERTEX
  5
D137
  8
AM_4
 10
587.89420780130706
 20
375.11619650274719
 30
0.0
  0
VERTEX
  5
D138
  8
AM_4
 10
587.06272415611136
 20
375.38298418819198
 30
0.0
  0
VERTEX
  5
D139
  8
AM_4
 10
586.34111649429292
 20
375.78579974868973
 30
0.0
  0
VERTEX
  5
D13A
  8
AM_4
 10
585.71179138447985
 20
376.30146473590253
 30
0.0
  0
VERTEX
  5
D13B
  8
AM_4
 10
585.15715539530015
 20
376.90680070149278
 30
0.0
  0
VERTEX
  5
D13C
  8
AM_4
 10
584.65961509538135
 20
377.57862919712232
 30
0.0
  0
VERTEX
  5
D13D
  8
AM_4
 10
584.20157705335134
 20
378.29377177445389
 30
0.0
  0
VERTEX
  5
D13E
  8
AM_4
 10
583.76544783783811
 20
379.02904998514941
 30
0.0
  0
VERTEX
  5
D13F
  8
AM_4
 10
583.33363401746908
 20
379.76128538087119
 30
0.0
  0
VERTEX
  5
D140
  8
AM_4
 10
582.89164037410649
 20
380.47025926279838
 30
0.0
  0
VERTEX
  5
D141
  8
AM_4
 10
582.43736454254974
 20
381.14759193017812
 30
0.0
  0
VERTEX
  5
D142
  8
AM_4
 10
581.97180237083239
 20
381.78786343177438
 30
0.0
  0
VERTEX
  5
D143
  8
AM_4
 10
581.49594970698774
 20
382.38565381635169
 30
0.0
  0
VERTEX
  5
D144
  8
AM_4
 10
581.01080239904923
 20
382.93554313267367
 30
0.0
  0
VERTEX
  5
D145
  8
AM_4
 10
580.51735629505072
 20
383.43211142950469
 30
0.0
  0
VERTEX
  5
D146
  8
AM_4
 10
580.01660724302553
 20
383.86993875560898
 30
0.0
  0
VERTEX
  5
D147
  8
AM_4
 10
579.50955109100721
 20
384.24360515975019
 30
0.0
  0
VERTEX
  5
D148
  8
AM_4
 10
578.99851149562824
 20
384.55054584895743
 30
0.0
  0
VERTEX
  5
D149
  8
AM_4
 10
578.49112334791755
 20
384.79961666331781
 30
0.0
  0
VERTEX
  5
D14A
  8
AM_4
 10
577.99634934750316
 20
385.00252860118309
 30
0.0
  0
VERTEX
  5
D14B
  8
AM_4
 10
577.52315219401294
 20
385.17099266090531
 30
0.0
  0
VERTEX
  5
D14C
  8
AM_4
 10
577.08049458707467
 20
385.31671984083619
 30
0.0
  0
VERTEX
  5
D14D
  8
AM_4
 10
576.67733922631623
 20
385.45142113932769
 30
0.0
  0
VERTEX
  5
D14E
  8
AM_4
 10
576.32264881136575
 20
385.58680755473142
 30
0.0
  0
VERTEX
  5
D14F
  8
AM_4
 10
576.02538604185065
 20
385.73459008539942
 30
0.0
  0
VERTEX
  5
D150
  8
AM_4
 10
575.77603497248856
 20
385.90601791813629
 30
0.0
  0
VERTEX
  5
D151
  8
AM_4
 10
575.49116507835299
 20
386.11049299355852
 30
0.0
  0
VERTEX
  5
D152
  8
AM_4
 10
575.06886718960664
 20
386.35695544073542
 30
0.0
  0
VERTEX
  5
D153
  8
AM_4
 10
574.40723213641218
 20
386.65434538873609
 30
0.0
  0
VERTEX
  5
D154
  8
AM_4
 10
573.40435074893321
 20
387.01160296662988
 30
0.0
  0
VERTEX
  5
D155
  8
AM_4
 10
571.95831385733175
 20
387.4376683034863
 30
0.0
  0
VERTEX
  5
D156
  8
AM_4
 10
571.03615974861054
 20
387.67100317871041
 30
0.0
  0
SEQEND
  5
D157
  8
AM_4
  0
LINE
  5
D158
  8
AM_0
 10
677.03617043105146
 20
375.98876713149889
 30
0.0
 11
668.03617043105169
 21
383.48899146095289
 31
0.0
  0
LINE
  5
D159
  8
AM_0
 10
677.03617043105146
 20
383.48869235501411
 30
0.0
 11
668.03617043105169
 21
375.98876713149889
 31
0.0
  0
LINE
  5
D15A
  8
AM_0
 10
668.03617043105169
 20
383.48899146095289
 30
0.0
 11
677.03617043105157
 21
383.48899146095289
 31
0.0
  0
LINE
  5
D15B
  8
AM_0
 10
678.03612911582331
 20
368.488991460953
 30
0.0
 11
660.38613521933871
 21
368.488991460953
 31
0.0
  0
LINE
  5
D15C
  8
AM_0
 10
678.03612911582331
 20
338.48899146095289
 30
0.0
 11
660.38613521933871
 21
338.48899146095289
 31
0.0
  0
LINE
  5
D15D
  8
AM_0
 10
681.03617054626045
 20
330.989215790407
 30
0.0
 11
660.47140222472922
 21
330.989215790407
 31
0.0
  0
LINE
  5
D15E
  8
AM_0
 10
668.03617043105169
 20
323.488991460953
 30
0.0
 11
677.03617043105157
 21
323.48899146095312
 31
0.0
  0
LINE
  5
D15F
  8
AM_0
 10
677.03617043105146
 20
323.48929056689178
 30
0.0
 11
668.03617043105169
 21
330.989215790407
 31
0.0
  0
LINE
  5
D160
  8
AM_0
 10
677.03617043105146
 20
330.989215790407
 30
0.0
 11
668.03617043105169
 21
323.488991460953
 31
0.0
  0
POLYLINE
  5
D161
  8
AM_4
 66
     1
 10
0.0
 20
0.0
 30
0.0
  0
VERTEX
  5
D162
  8
AM_4
 10
677.03617043105146
 20
319.13799075556528
 30
0.0
  0
VERTEX
  5
D163
  8
AM_4
 10
676.51700579376734
 20
319.3180766060724
 30
0.0
  0
VERTEX
  5
D164
  8
AM_4
 10
675.06206157564668
 20
319.78679427439459
 30
0.0
  0
VERTEX
  5
D165
  8
AM_4
 10
673.85408940861203
 20
320.15336220921711
 30
0.0
  0
VERTEX
  5
D166
  8
AM_4
 10
672.8393131197771
 20
320.45592091094568
 30
0.0
  0
VERTEX
  5
D167
  8
AM_4
 10
671.96395653625609
 20
320.73261087998509
 30
0.0
  0
VERTEX
  5
D168
  8
AM_4
 10
671.17424348516272
 20
321.02157261674068
 30
0.0
  0
VERTEX
  5
D169
  8
AM_4
 10
670.42573806810844
 20
321.35356470970441
 30
0.0
  0
VERTEX
  5
D16A
  8
AM_4
 10
669.71136548469315
 20
321.72981809971333
 30
0.0
  0
VERTEX
  5
D16B
  8
AM_4
 10
669.03339120901319
 20
322.14418181569062
 30
0.0
  0
VERTEX
  5
D16C
  8
AM_4
 10
668.39408071516505
 20
322.59050488655981
 30
0.0
  0
VERTEX
  5
D16D
  8
AM_4
 10
667.79569947724588
 20
323.0626363412444
 30
0.0
  0
VERTEX
  5
D16E
  8
AM_4
 10
667.24051296935261
 20
323.55442520866791
 30
0.0
  0
VERTEX
  5
D16F
  8
AM_4
 10
666.73078666558126
 20
324.05972051775348
 30
0.0
  0
VERTEX
  5
D170
  8
AM_4
 10
666.26878604002945
 20
324.57237129742492
 30
0.0
  0
VERTEX
  5
D171
  8
AM_4
 10
665.85515560037834
 20
325.08634725776648
 30
0.0
  0
VERTEX
  5
D172
  8
AM_4
 10
665.48405598864872
 20
325.59610083350822
 30
0.0
  0
VERTEX
  5
D173
  8
AM_4
 10
665.1480268804462
 20
326.0962051405408
 30
0.0
  0
VERTEX
  5
D174
  8
AM_4
 10
664.83960795137659
 20
326.58123329475529
 30
0.0
  0
VERTEX
  5
D175
  8
AM_4
 10
664.55133887704528
 20
327.04575841204269
 30
0.0
  0
VERTEX
  5
D176
  8
AM_4
 10
664.2757593330582
 20
327.48435360829347
 30
0.0
  0
VERTEX
  5
D177
  8
AM_4
 10
664.00540899502073
 20
327.891591999399
 30
0.0
  0
VERTEX
  5
D178
  8
AM_4
 10
663.73282753853857
 20
328.26204670124997
 30
0.0
  0
VERTEX
  5
D179
  8
AM_4
 10
663.45204589878324
 20
328.59237648536271
 30
0.0
  0
VERTEX
  5
D17A
  8
AM_4
 10
663.16306004918795
 20
328.88758274575463
 30
0.0
  0
VERTEX
  5
D17B
  8
AM_4
 10
662.86735722275182
 20
329.15475253206853
 30
0.0
  0
VERTEX
  5
D17C
  8
AM_4
 10
662.56642465247376
 20
329.40097289394748
 30
0.0
  0
VERTEX
  5
D17D
  8
AM_4
 10
662.26174957135265
 20
329.63333088103411
 30
0.0
  0
VERTEX
  5
D17E
  8
AM_4
 10
661.95481921238775
 20
329.85891354297138
 30
0.0
  0
VERTEX
  5
D17F
  8
AM_4
 10
661.64712080857805
 20
330.08480792940207
 30
0.0
  0
VERTEX
  5
D180
  8
AM_4
 10
661.34014159292235
 20
330.31810108996922
 30
0.0
  0
VERTEX
  5
D181
  8
AM_4
 10
661.03186541361561
 20
330.56395428276102
 30
0.0
  0
VERTEX
  5
D182
  8
AM_4
 10
660.70626257963409
 20
330.81982559964752
 30
0.0
  0
VERTEX
  5
D183
  8
AM_4
 10
660.34380001515092
 20
331.08124734094491
 30
0.0
  0
VERTEX
  5
D184
  8
AM_4
 10
659.92494464433776
 20
331.34375180696861
 30
0.0
  0
VERTEX
  5
D185
  8
AM_4
 10
659.43016339136705
 20
331.60287129803481
 30
0.0
  0
VERTEX
  5
D186
  8
AM_4
 10
658.83992318041135
 20
331.85413811445881
 30
0.0
  0
VERTEX
  5
D187
  8
AM_4
 10
658.13469093564299
 20
332.09308455655668
 30
0.0
  0
VERTEX
  5
D188
  8
AM_4
 10
657.29493358123432
 20
332.31524292464439
 30
0.0
  0
VERTEX
  5
D189
  8
AM_4
 10
656.30907722145275
 20
332.51611709916239
 30
0.0
  0
VERTEX
  5
D18A
  8
AM_4
 10
655.19738468094715
 20
332.69109728105309
 30
0.0
  0
VERTEX
  5
D18B
  8
AM_4
 10
653.98807796446124
 20
332.83554525138328
 30
0.0
  0
VERTEX
  5
D18C
  8
AM_4
 10
652.70937907673931
 20
332.9448227912207
 30
0.0
  0
VERTEX
  5
D18D
  8
AM_4
 10
651.38951002252497
 20
333.01429168163207
 30
0.0
  0
VERTEX
  5
D18E
  8
AM_4
 10
650.05669280656195
 20
333.03931370368491
 30
0.0
  0
VERTEX
  5
D18F
  8
AM_4
 10
648.73914943359466
 20
333.0152506384461
 30
0.0
  0
VERTEX
  5
D190
  8
AM_4
 10
647.46510190836682
 20
332.93746426698323
 30
0.0
  0
VERTEX
  5
D191
  8
AM_4
 10
646.2546933866173
 20
332.80529535110981
 30
0.0
  0
VERTEX
  5
D192
  8
AM_4
 10
645.09575162806675
 20
332.6340005756287
 30
0.0
  0
VERTEX
  5
D193
  8
AM_4
 10
643.96802554343037
 20
332.44281560608891
 30
0.0
  0
VERTEX
  5
D194
  8
AM_4
 10
642.85126404342373
 20
332.25097610803931
 30
0.0
  0
VERTEX
  5
D195
  8
AM_4
 10
641.72521603876248
 20
332.07771774702928
 30
0.0
  0
VERTEX
  5
D196
  8
AM_4
 10
640.56963044016197
 20
331.94227618860788
 30
0.0
  0
VERTEX
  5
D197
  8
AM_4
 10
639.36425615833753
 20
331.86388709832448
 30
0.0
  0
VERTEX
  5
D198
  8
AM_4
 10
638.08884210400493
 20
331.8617861417282
 30
0.0
  0
VERTEX
  5
D199
  8
AM_4
 10
636.73157515393268
 20
331.9477183891085
 30
0.0
  0
VERTEX
  5
D19A
  8
AM_4
 10
635.31439404910316
 20
332.10346652971668
 30
0.0
  0
VERTEX
  5
D19B
  8
AM_4
 10
633.86767549655178
 20
332.3033226575447
 30
0.0
  0
VERTEX
  5
D19C
  8
AM_4
 10
632.42179620331365
 20
332.52157886658438
 30
0.0
  0
VERTEX
  5
D19D
  8
AM_4
 10
631.00713287642475
 20
332.73252725082739
 30
0.0
  0
VERTEX
  5
D19E
  8
AM_4
 10
629.65406222292006
 20
332.91045990426551
 30
0.0
  0
VERTEX
  5
D19F
  8
AM_4
 10
628.39296094983524
 20
333.02966892089057
 30
0.0
  0
VERTEX
  5
D1A0
  8
AM_4
 10
627.25420576420549
 20
333.0644463946943
 30
0.0
  0
VERTEX
  5
D1A1
  8
AM_4
 10
626.25522517282423
 20
332.99793102739318
 30
0.0
  0
VERTEX
  5
D1A2
  8
AM_4
 10
625.36165488151539
 20
332.848647951602
 30
0.0
  0
VERTEX
  5
D1A3
  8
AM_4
 10
624.52618239586093
 20
332.64396890766039
 30
0.0
  0
VERTEX
  5
D1A4
  8
AM_4
 10
623.701495221443
 20
332.41126563590768
 30
0.0
  0
VERTEX
  5
D1A5
  8
AM_4
 10
622.84028086384308
 20
332.17790987668349
 30
0.0
  0
VERTEX
  5
D1A6
  8
AM_4
 10
621.8952268286431
 20
331.97127337032731
 30
0.0
  0
VERTEX
  5
D1A7
  8
AM_4
 10
620.81902062142535
 20
331.8187278571786
 30
0.0
  0
VERTEX
  5
D1A8
  8
AM_4
 10
619.56434974777142
 20
331.74764507757669
 30
0.0
  0
VERTEX
  5
D1A9
  8
AM_4
 10
618.10039177286887
 20
331.77621757846867
 30
0.0
  0
VERTEX
  5
D1AA
  8
AM_4
 10
616.4622845003297
 20
331.88592113322971
 30
0.0
  0
VERTEX
  5
D1AB
  8
AM_4
 10
614.7016557933714
 20
332.04905232184251
 30
0.0
  0
VERTEX
  5
D1AC
  8
AM_4
 10
612.87013351521114
 20
332.23790772428993
 30
0.0
  0
VERTEX
  5
D1AD
  8
AM_4
 10
611.01934552906641
 20
332.42478392055432
 30
0.0
  0
VERTEX
  5
D1AE
  8
AM_4
 10
609.20091969815508
 20
332.5819774906185
 30
0.0
  0
VERTEX
  5
D1AF
  8
AM_4
 10
607.46648388569429
 20
332.68178501446522
 30
0.0
  0
VERTEX
  5
D1B0
  8
AM_4
 10
605.86766595490155
 20
332.69650307207701
 30
0.0
  0
VERTEX
  5
D1B1
  8
AM_4
 10
604.44192841416293
 20
332.6078276506243
 30
0.0
  0
VERTEX
  5
D1B2
  8
AM_4
 10
603.17007235253789
 20
332.435052366028
 30
0.0
  0
VERTEX
  5
D1B3
  8
AM_4
 10
602.01873350425421
 20
332.20687024139698
 30
0.0
  0
VERTEX
  5
D1B4
  8
AM_4
 10
600.95454760353971
 20
331.95197429984017
 30
0.0
  0
VERTEX
  5
D1B5
  8
AM_4
 10
599.94415038462239
 20
331.69905756446622
 30
0.0
  0
VERTEX
  5
D1B6
  8
AM_4
 10
598.95417758173005
 20
331.47681305838393
 30
0.0
  0
VERTEX
  5
D1B7
  8
AM_4
 10
597.9512649290906
 20
331.31393380470212
 30
0.0
  0
VERTEX
  5
D1B8
  8
AM_4
 10
596.90204816093183
 20
331.23911282652938
 30
0.0
  0
VERTEX
  5
D1B9
  8
AM_4
 10
595.78303909319436
 20
331.27051185933141
 30
0.0
  0
VERTEX
  5
D1BA
  8
AM_4
 10
594.61025386867107
 20
331.38416748800051
 30
0.0
  0
VERTEX
  5
D1BB
  8
AM_4
 10
593.4095847118665
 20
331.54558500978521
 30
0.0
  0
VERTEX
  5
D1BC
  8
AM_4
 10
592.20692384728568
 20
331.72026972193481
 30
0.0
  0
VERTEX
  5
D1BD
  8
AM_4
 10
591.02816349943464
 20
331.87372692169788
 30
0.0
  0
VERTEX
  5
D1BE
  8
AM_4
 10
589.8991958928176
 20
331.97146190632373
 30
0.0
  0
VERTEX
  5
D1BF
  8
AM_4
 10
588.84591325194015
 20
331.97897997306097
 30
0.0
  0
VERTEX
  5
D1C0
  8
AM_4
 10
587.89420780130706
 20
331.86178641915882
 30
0.0
  0
VERTEX
  5
D1C1
  8
AM_4
 10
587.06272415611136
 20
331.59499873371402
 30
0.0
  0
VERTEX
  5
D1C2
  8
AM_4
 10
586.34111649429292
 20
331.19218317321622
 30
0.0
  0
VERTEX
  5
D1C3
  8
AM_4
 10
585.71179138447985
 20
330.67651818600342
 30
0.0
  0
VERTEX
  5
D1C4
  8
AM_4
 10
585.15715539530015
 20
330.07118222041322
 30
0.0
  0
VERTEX
  5
D1C5
  8
AM_4
 10
584.65961509538135
 20
329.39935372478351
 30
0.0
  0
VERTEX
  5
D1C6
  8
AM_4
 10
584.20157705335134
 20
328.68421114745178
 30
0.0
  0
VERTEX
  5
D1C7
  8
AM_4
 10
583.76544783783811
 20
327.94893293675648
 30
0.0
  0
VERTEX
  5
D1C8
  8
AM_4
 10
583.33363401746908
 20
327.2166975410347
 30
0.0
  0
VERTEX
  5
D1C9
  8
AM_4
 10
582.89164037410649
 20
326.50772365910763
 30
0.0
  0
VERTEX
  5
D1CA
  8
AM_4
 10
582.43736454254974
 20
325.83039099172788
 30
0.0
  0
VERTEX
  5
D1CB
  8
AM_4
 10
581.97180237083239
 20
325.19011949013151
 30
0.0
  0
VERTEX
  5
D1CC
  8
AM_4
 10
581.49594970698774
 20
324.5923291055542
 30
0.0
  0
VERTEX
  5
D1CD
  8
AM_4
 10
581.01080239904923
 20
324.04243978923228
 30
0.0
  0
VERTEX
  5
D1CE
  8
AM_4
 10
580.51735629505072
 20
323.54587149240109
 30
0.0
  0
VERTEX
  5
D1CF
  8
AM_4
 10
580.01660724302553
 20
323.10804416629708
 30
0.0
  0
VERTEX
  5
D1D0
  8
AM_4
 10
579.50955109100721
 20
322.73437776215582
 30
0.0
  0
VERTEX
  5
D1D1
  8
AM_4
 10
578.99851149562824
 20
322.42743707294858
 30
0.0
  0
VERTEX
  5
D1D2
  8
AM_4
 10
578.49112334791755
 20
322.1783662585882
 30
0.0
  0
VERTEX
  5
D1D3
  8
AM_4
 10
577.99634934750316
 20
321.9754543207228
 30
0.0
  0
VERTEX
  5
D1D4
  8
AM_4
 10
577.52315219401294
 20
321.80699026100069
 30
0.0
  0
VERTEX
  5
D1D5
  8
AM_4
 10
577.08049458707467
 20
321.66126308106971
 30
0.0
  0
VERTEX
  5
D1D6
  8
AM_4
 10
576.67733922631623
 20
321.52656178257831
 30
0.0
  0
VERTEX
  5
D1D7
  8
AM_4
 10
576.32264881136575
 20
321.39117536717458
 30
0.0
  0
VERTEX
  5
D1D8
  8
AM_4
 10
576.02538604185065
 20
321.24339283650647
 30
0.0
  0
VERTEX
  5
D1D9
  8
AM_4
 10
575.77603497248856
 20
321.07196500376961
 30
0.0
  0
VERTEX
  5
D1DA
  8
AM_4
 10
575.49116507835299
 20
320.86748992834742
 30
0.0
  0
VERTEX
  5
D1DB
  8
AM_4
 10
575.06886718960664
 20
320.62102748117059
 30
0.0
  0
VERTEX
  5
D1DC
  8
AM_4
 10
574.40723213641218
 20
320.32363753316992
 30
0.0
  0
VERTEX
  5
D1DD
  8
AM_4
 10
573.40435074893321
 20
319.96637995527601
 30
0.0
  0
VERTEX
  5
D1DE
  8
AM_4
 10
571.95831385733175
 20
319.54031461841959
 30
0.0
  0
VERTEX
  5
D1DF
  8
AM_4
 10
571.03615974861054
 20
319.3069797431956
 30
0.0
  0
SEQEND
  5
D1E0
  8
AM_4
  0
LINE
  5
D1E1
  8
AM_0
 10
635.03612911582331
 20
368.738991460953
 30
0.0
 11
613.03612911582331
 21
368.738991460953
 31
0.0
  0
LINE
  5
D1E2
  8
AM_0
 10
635.03612911582331
 20
338.23899146095289
 30
0.0
 11
613.03612911582331
 21
338.23899146095289
 31
0.0
  0
LINE
  5
D1E3
  8
AM_0
 10
613.03612911582331
 20
368.738991460953
 30
0.0
 11
613.03612911582331
 21
338.23899146095289
 31
0.0
  0
LINE
  5
D1E4
  8
AM_0
 10
589.03612911582331
 20
369.18900366798403
 30
0.0
 11
589.03612911582331
 21
337.78900977149982
 31
0.0
  0
LINE
  5
D1E5
  8
AM_0
 10
587.68615352988536
 20
369.18900366798403
 30
0.0
 11
587.68615352988536
 21
337.78900977149982
 31
0.0
  0
LINE
  5
D1E6
  8
AM_0
 10
570.03615963340121
 20
368.488991460953
 30
0.0
 11
570.03615963340121
 21
338.48899146095289
 31
0.0
  0
LINE
  5
D1E7
  8
AM_0
 10
567.03615963340121
 20
375.98876713149889
 30
0.0
 11
567.03615963340121
 21
330.98921579040751
 31
0.0
  0
LINE
  5
D1E8
  8
AM_0
 10
567.0361613321337
 20
330.989216460953
 30
0.0
 11
567.0361613321337
 21
375.98876646095289
 31
0.0
  0
LINE
  5
D1E9
  8
AM_0
 10
613.03612911582331
 20
338.48899146095289
 30
0.0
 11
589.03612911582331
 21
338.48899146095289
 31
0.0
  0
LINE
  5
D1EA
  8
AM_0
 10
571.03615974861054
 20
330.989215790407
 30
0.0
 11
571.03615974861054
 21
319.3069797431956
 31
0.0
  0
LINE
  5
D1EB
  8
AM_0
 10
587.68615352988536
 20
338.48899146095289
 30
0.0
 11
570.03615963340121
 21
338.48899146095289
 31
0.0
  0
LINE
  5
D1EC
  8
AM_0
 10
567.03615963340121
 20
330.989215790407
 30
0.0
 11
586.09341212490119
 21
330.989215790407
 31
0.0
  0
LINE
  5
D1ED
  8
AM_0
 10
571.03615974861054
 20
323.48899146095289
 30
0.0
 11
580.03615974861043
 21
323.488991460953
 31
0.0
  0
LINE
  5
D1EE
  8
AM_0
 10
571.03615974861054
 20
330.989215790407
 30
0.0
 11
580.03615974861043
 21
323.488991460953
 31
0.0
  0
LINE
  5
D1EF
  8
AM_0
 10
571.03615974861043
 20
323.48929056689178
 30
0.0
 11
580.03615974861054
 21
330.989215790407
 31
0.0
  0
LINE
  5
D1F0
  8
AM_0
 10
570.03612911582331
 20
338.488991460953
 30
0.0
 11
567.03612911582331
 21
336.75694065338399
 31
0.0
  0
LINE
  5
D1F1
  8
AM_0
 10
580.03615974861054
 20
330.989215790407
 30
0.0
 11
580.03615974861054
 21
323.48899146095289
 31
0.0
  0
LINE
  5
D1F2
  8
AM_0
 10
589.03612911582331
 20
337.78900977149982
 30
0.0
 11
587.68615352988536
 21
337.78900977149982
 31
0.0
  0
LINE
  5
D1F3
  8
AM_0
 10
613.03612911582331
 20
368.488991460953
 30
0.0
 11
589.03612911582331
 21
368.488991460953
 31
0.0
  0
LINE
  5
D1F4
  8
AM_0
 10
570.03612911582331
 20
368.48899146095312
 30
0.0
 11
567.03612911582331
 21
370.22104226852213
 31
0.0
  0
LINE
  5
D1F5
  8
AM_0
 10
587.68615352988536
 20
368.488991460953
 30
0.0
 11
570.03615963340121
 21
368.488991460953
 31
0.0
  0
LINE
  5
D1F6
  8
AM_0
 10
589.03612911582331
 20
369.18900366798403
 30
0.0
 11
587.68615352988536
 21
369.18900366798403
 31
0.0
  0
LINE
  5
D1F7
  8
AM_0
 10
571.03615974861054
 20
383.488991460953
 30
0.0
 11
580.03615974861043
 21
383.488991460953
 31
0.0
  0
LINE
  5
D1F8
  8
AM_0
 10
567.03615963340121
 20
375.98876713149889
 30
0.0
 11
586.09341212490119
 21
375.98876713149889
 31
0.0
  0
LINE
  5
D1F9
  8
AM_0
 10
571.03615974861043
 20
383.48869235501411
 30
0.0
 11
580.03615974861054
 21
375.988767131499
 31
0.0
  0
LINE
  5
D1FA
  8
AM_0
 10
571.03615974861054
 20
375.98876713149889
 30
0.0
 11
580.03615974861043
 21
383.488991460953
 31
0.0
  0
LINE
  5
D1FB
  8
AM_0
 10
571.03615974861054
 20
375.98876713149889
 30
0.0
 11
571.03615974861054
 21
387.67100317871041
 31
0.0
  0
LINE
  5
D1FC
  8
AM_0
 10
580.03615974861054
 20
375.988767131499
 30
0.0
 11
580.03615974861054
 21
383.488991460953
 31
0.0
  0
LINE
  5
D1FD
  8
AM_0
 10
659.03612911582331
 20
369.18900366798403
 30
0.0
 11
659.03612911582331
 21
337.78900977149982
 31
0.0
  0
LINE
  5
D1FE
  8
AM_0
 10
660.38613521933871
 20
369.18900366798403
 30
0.0
 11
660.38613521933871
 21
337.78900977149982
 31
0.0
  0
LINE
  5
D1FF
  8
AM_0
 10
635.03612911582331
 20
368.738991460953
 30
0.0
 11
635.03612911582331
 21
338.23899146095289
 31
0.0
  0
LINE
  5
D200
  8
ﾁｭｳｼﾝｾﾝ1
 10
624.03616127513351
 20
328.488991460953
 30
0.0
 11
624.03616127513351
 21
378.488991460953
 31
0.0
  0
LINE
  5
D201
  8
AM_0
 10
659.03612911582331
 20
338.48899146095289
 30
0.0
 11
635.03612911582331
 21
338.48899146095289
 31
0.0
  0
LINE
  5
D202
  8
AM_0
 10
659.03612911582331
 20
337.78900977149982
 30
0.0
 11
660.38613521933871
 21
337.78900977149982
 31
0.0
  0
LINE
  5
D203
  8
AM_0
 10
668.03617043105169
 20
330.989215790407
 30
0.0
 11
668.03617043105169
 21
323.488991460953
 31
0.0
  0
LINE
  5
D204
  8
AM_0
 10
659.03612911582331
 20
368.488991460953
 30
0.0
 11
635.03612911582331
 21
368.488991460953
 31
0.0
  0
LINE
  5
D205
  8
AM_0
 10
659.03612911582331
 20
369.18900366798403
 30
0.0
 11
660.38613521933871
 21
369.18900366798403
 31
0.0
  0
LINE
  5
D206
  8
AM_0
 10
668.03617043105169
 20
375.98876713149889
 30
0.0
 11
668.03617043105169
 21
383.488991460953
 31
0.0
  0
LINE
  5
D207
  8
AM_0
 10
678.03612911582331
 20
368.488991460953
 30
0.0
 11
678.03612911582331
 21
338.48899146095289
 31
0.0
  0
LINE
  5
D208
  8
AM_0
 10
681.03617054626045
 20
375.98876713149889
 30
0.0
 11
681.03617054626045
 21
330.98921579040751
 31
0.0
  0
LINE
  5
D209
  8
AM_0
 10
677.03617043105157
 20
330.989215790407
 30
0.0
 11
677.03617043105146
 21
319.13799075556528
 31
0.0
  0
LINE
  5
D20A
  8
AM_0
 10
678.03612911582297
 20
338.488991460953
 30
0.0
 11
681.0361291158232
 21
336.75694065338399
 31
0.0
  0
LINE
  5
D20B
  8
AM_0
 10
678.03612911582297
 20
368.48899146095312
 30
0.0
 11
681.0361291158232
 21
370.22104226852213
 31
0.0
  0
LINE
  5
D20C
  8
AM_0
 10
677.03617043105157
 20
375.988767131499
 30
0.0
 11
677.03617043105146
 21
387.83999216634072
 31
0.0
  0
LINE
  5
D20D
  8
AM_0
 10
345.09677967498487
 20
491.20070805870972
 30
0.0
 11
353.09677967498521
 21
491.20070805870972
 31
0.0
  0
LINE
  5
D20E
  8
AM_0
 10
355.09677967498521
 20
485.20070805870961
 30
0.0
 11
343.09677967498487
 21
485.20070805870961
 31
0.0
  0
LINE
  5
D20F
  8
AM_0
 10
344.59677855739801
 20
390.20070501887301
 30
0.0
 11
419.59678079257202
 21
390.20070501887301
 31
0.0
  0
LINE
  5
D210
  8
AM_0
 10
344.59677855739801
 20
496.20071580731383
 30
0.0
 11
419.59678079257202
 21
496.20071580731383
 31
0.0
  0
LINE
  5
D211
  8
AM_0
 10
274.45825717999759
 20
394.20069750868731
 30
0.0
 11
443.7353007990651
 21
394.20069750868731
 31
0.0
  0
LINE
  5
D212
  8
AM_0
 10
273.4458364955284
 20
492.20070805870972
 30
0.0
 11
444.7476909659556
 21
492.20070805870972
 31
0.0
  0
LINE
  5
D213
  8
AM_0
 10
273.09674590895281
 20
472.20070746266322
 30
0.0
 11
445.09678155253113
 21
472.20070746266327
 31
0.0
  0
LINE
  5
D214
  8
ﾁｭｳｼﾝｾﾝ1
 10
65.85284590895283
 20
443.20070659839598
 30
0.0
 11
451.3467815525313
 21
443.2007065983961
 31
0.0
1001
GENIUS_GENODEF_13
1002
{
1000
HIER
1070
     0
1002
}
1002
{
1000
MANEDIT
1070
     0
1002
}
1002
{
1000
NOSEL
1070
     0
1002
}
1002
{
1000
BEHIND
1070
     0
1002
}
1002
{
1000
REACTOR
1002
}
1001
GENIUS_GENOBJ-N-CEN_13
1002
{
1000
OWNER
1000
GEN
1002
}
  0
LINE
  5
D340
  8
AM_0
 10
246.5967459089529
 20
381.70071159839563
 30
0.0
 11
246.5967459089529
 21
504.70069159839579
 31
0.0
  0
LINE
  5
D341
  8
AM_0
 10
273.0967459090287
 20
472.20070746266322
 30
0.0
 11
274.45825717999759
 21
394.20069750868731
 31
0.0
  0
LINE
  5
D342
  8
ｶｸﾚｾﾝ2
 10
290.5967464304934
 20
394.2007051380823
 30
0.0
 11
290.5967464304934
 21
492.20071568810459
 31
0.0
  0
LINE
  5
D343
  8
ﾁｭｳｼﾝｾﾝ1
 10
285.0967462665804
 20
390.45070132338509
 30
0.0
 11
285.0967462665804
 21
495.95071187340722
 31
0.0
  0
LINE
  5
D344
  8
ｶｸﾚｾﾝ2
 10
279.59674610266768
 20
394.2007051380823
 30
0.0
 11
279.59674610266768
 21
492.20071568810459
 31
0.0
  0
LINE
  5
D345
  8
AM_0
 10
235.59674590895281
 20
379.20067659839572
 30
0.0
 11
235.59674590895281
 21
507.20069159839579
 31
0.0
  0
LINE
  5
D34F
  8
AM_0
 10
235.59674590895281
 20
480.34068159839558
 30
0.0
 11
245.59674590895281
 21
480.34068159839558
 31
0.0
  0
LINE
  5
D350
  8
AM_0
 10
235.5967046423024
 20
480.34069159837338
 30
0.0
 11
245.5967046422962
 21
480.34070270948462
 31
0.0
  0
LINE
  5
D351
  8
AM_0
 10
235.59674590895281
 20
495.24069159839559
 30
0.0
 11
245.59674590895281
 21
495.24069159839559
 31
0.0
  0
LINE
  5
D352
  8
AM_0
 10
235.5966880867355
 20
495.24070159836413
 30
0.0
 11
245.5966880867293
 21
495.24071270947547
 31
0.0
  0
LINE
  5
D353
  8
AM_0
 10
235.59674590895281
 20
507.20069159839579
 30
0.0
 11
244.72334873654839
 21
507.20069159839579
 31
0.0
  0
LINE
  5
D386
  8
AM_0
 10
265.45537636450501
 20
472.02639597716802
 30
0.0
 11
262.75647295710149
 21
502.8750030838911
 31
0.0
  0
LINE
  5
D387
  8
AM_0
 10
249.5967459089527
 20
504.70069159839579
 30
0.0
 11
260.76408356091798
 21
504.70069159839562
 31
0.0
  0
ARC
  5
D388
  8
AM_0
 10
249.5967459089527
 20
507.70069159839579
 30
0.0
 40
2.9999999999999978
 50
215.68533471265459
 51
270.0
1001
GENIUS_GENOBJ-N-FIL_13
1002
{
1000
OWNER
1000
GEN
1002
}
1001
GENIUS_GENODEF_13
1002
{
1000
HIER
1070
     0
1002
}
1002
{
1000
MANEDIT
1070
     0
1002
}
1002
{
1000
NOSEL
1070
     0
1002
}
1002
{
1000
BEHIND
1070
     0
1002
}
1002
{
1000
OTHER
1070
     0
1002
}
1002
{
1000
REACTOR
1002
}
  0
ARC
  5
D389
  8
AM_0
 10
244.72334873654839
 20
504.20069159839579
 30
0.0
 40
2.9999999999999978
 50
35.685334712654637
 51
90.000000000000057
1001
GENIUS_GENOBJ-N-FIL_13
1002
{
1000
OWNER
1000
GEN
1002
}
1001
GENIUS_GENODEF_13
1002
{
1000
HIER
1070
     0
1002
}
1002
{
1000
MANEDIT
1070
     0
1002
}
1002
{
1000
NOSEL
1070
     0
1002
}
1002
{
1000
BEHIND
1070
     0
1002
}
1002
{
1000
OTHER
1070
     0
1002
}
1002
{
1000
REACTOR
1002
}
  0
ARC
  5
D38A
  8
AM_0
 10
260.76408356091798
 20
502.70069159839568
 30
0.0
 40
2.0
 50
5.0000000000000062
 51
89.999999999999091
1001
GENIUS_GENOBJ-N-FIL_13
1002
{
1000
OWNER
1000
GEN
1002
}
1001
GENIUS_GENODEF_13
1002
{
1000
HIER
1070
     0
1002
}
1002
{
1000
MANEDIT
1070
     0
1002
}
1002
{
1000
NOSEL
1070
     0
1002
}
1002
{
1000
BEHIND
1070
     0
1002
}
1002
{
1000
OTHER
1070
     0
1002
}
1002
{
1000
REACTOR
1002
}
  0
ARC
  5
D38B
  8
AM_0
 10
267.44776576068853
 20
472.20070746266322
 30
0.0
 40
2.0
 50
185.0
 51
270.0
1001
GENIUS_GENOBJ-N-FIL_13
1002
{
1000
OWNER
1000
GEN
1002
}
1001
GENIUS_GENODEF_13
1002
{
1000
HIER
1070
     0
1002
}
1002
{
1000
MANEDIT
1070
     0
1002
}
1002
{
1000
NOSEL
1070
     0
1002
}
1002
{
1000
BEHIND
1070
     0
1002
}
1002
{
1000
OTHER
1070
     0
1002
}
1002
{
1000
REACTOR
1002
}
  0
LINE
  5
D38C
  8
AM_0
 10
273.4458364955284
 20
492.20070805870972
 30
0.0
 11
273.09674590895281
 21
472.20070746266327
 31
0.0
  0
ARC
  5
D38D
  8
AM_0
 10
272.11404884787459
 20
471.20070746266322
 30
0.0
 40
1.0
 50
270.0
 51
1.0000117735006391
1001
GENIUS_GENOBJ-N-FIL_13
1002
{
1000
OWNER
1000
GEN
1002
}
1001
GENIUS_GENODEF_13
1002
{
1000
HIER
1070
     0
1002
}
1002
{
1000
MANEDIT
1070
     0
1002
}
1002
{
1000
NOSEL
1070
     0
1002
}
1002
{
1000
BEHIND
1070
     0
1002
}
1002
{
1000
OTHER
1070
     0
1002
}
1002
{
1000
REACTOR
1002
}
  0
LINE
  5
D38E
  8
AM_0
 10
267.44776576068853
 20
470.20070746266322
 30
0.0
 11
272.11404884787459
 21
470.20070746266322
 31
0.0
  0
LINE
  5
D38F
  8
AM_0
 10
344.09677967498487
 20
485.20070805870961
 30
0.0
 11
344.09677967498487
 21
490.20070805870972
 31
0.0
  0
LINE
  5
D390
  8
AM_0
 10
343.09677967498487
 20
492.20070805870972
 30
0.0
 11
343.09677967498487
 21
485.20070805870961
 31
0.0
  0
ARC
  5
D391
  8
AM_0
 10
345.09677967498487
 20
490.20070805870972
 30
0.0
 40
1.0
 50
90.000000000000057
 51
180.0
1001
GENIUS_GENOBJ-N-FIL_13
1002
{
1000
OWNER
1000
GEN
1002
}
1001
GENIUS_GENODEF_13
1002
{
1000
HIER
1070
     0
1002
}
1002
{
1000
MANEDIT
1070
     0
1002
}
1002
{
1000
NOSEL
1070
     0
1002
}
1002
{
1000
BEHIND
1070
     0
1002
}
1002
{
1000
OTHER
1070
     0
1002
}
1002
{
1000
REACTOR
1002
}
  0
LINE
  5
D392
  8
AM_0
 10
344.59677855739801
 20
496.20071580731383
 30
0.0
 11
344.59677855739801
 21
492.20071568810459
 31
0.0
  0
LINE
  5
D393
  8
AM_0
 10
235.59674590895281
 20
379.20071159839569
 30
0.0
 11
244.72334873654839
 21
379.20071159839569
 31
0.0
  0
LINE
  5
D394
  8
AM_0
 10
235.5967459089529
 20
391.16071159839578
 30
0.0
 11
245.59674590895281
 21
391.16071159839578
 31
0.0
  0
LINE
  5
D395
  8
AM_0
 10
235.5967459089529
 20
406.06072159839579
 30
0.0
 11
245.59674590895281
 21
406.06072159839579
 31
0.0
  0
LINE
  5
D3C5
  8
AM_0
 10
259.42944202301987
 20
396.20069750868731
 30
0.0
 11
272.4579525167353
 21
396.20069750868731
 31
0.0
  0
LINE
  5
D3C6
  8
AM_0
 10
256.4879223346976
 20
383.52640011290049
 30
0.0
 11
257.43705262683642
 21
394.37500899418268
 31
0.0
  0
ARC
  5
D3C7
  8
AM_0
 10
259.42944202301987
 20
394.20069750868731
 30
0.0
 40
2.0
 50
90.000000000000057
 51
175.0
1001
GENIUS_GENOBJ-N-FIL_13
1002
{
1000
OWNER
1000
GEN
1002
}
1001
GENIUS_GENODEF_13
1002
{
1000
HIER
1070
     0
1002
}
1002
{
1000
MANEDIT
1070
     0
1002
}
1002
{
1000
NOSEL
1070
     0
1002
}
1002
{
1000
BEHIND
1070
     0
1002
}
1002
{
1000
OTHER
1070
     0
1002
}
1002
{
1000
REACTOR
1002
}
  0
LINE
  5
D3C8
  8
AM_0
 10
249.5967459089527
 20
381.70071159839569
 30
0.0
 11
254.4955329385142
 21
381.70071159839591
 31
0.0
  0
ARC
  5
D3C9
  8
AM_0
 10
244.72334873654839
 20
382.20071159839591
 30
0.0
 40
2.9999999999999978
 50
270.0
 51
324.31466528734541
1001
GENIUS_GENOBJ-N-FIL_13
1002
{
1000
OWNER
1000
GEN
1002
}
1001
GENIUS_GENODEF_13
1002
{
1000
HIER
1070
     0
1002
}
1002
{
1000
MANEDIT
1070
     0
1002
}
1002
{
1000
NOSEL
1070
     0
1002
}
1002
{
1000
BEHIND
1070
     0
1002
}
1002
{
1000
OTHER
1070
     0
1002
}
1002
{
1000
REACTOR
1002
}
  0
ARC
  5
D3CA
  8
AM_0
 10
249.5967459089527
 20
378.7007115983958
 30
0.0
 40
2.9999999999999978
 50
90.000000000000057
 51
144.31466528734541
1001
GENIUS_GENOBJ-N-FIL_13
1002
{
1000
OWNER
1000
GEN
1002
}
1001
GENIUS_GENODEF_13
1002
{
1000
HIER
1070
     0
1002
}
1002
{
1000
MANEDIT
1070
     0
1002
}
1002
{
1000
NOSEL
1070
     0
1002
}
1002
{
1000
BEHIND
1070
     0
1002
}
1002
{
1000
OTHER
1070
     0
1002
}
1002
{
1000
REACTOR
1002
}
  0
ARC
  5
D3CB
  8
AM_0
 10
254.49553293851409
 20
383.70071159839591
 30
0.0
 40
2.0
 50
270.00000000000091
 51
355.0
1001
GENIUS_GENOBJ-N-FIL_13
1002
{
1000
OWNER
1000
GEN
1002
}
1001
GENIUS_GENODEF_13
1002
{
1000
HIER
1070
     0
1002
}
1002
{
1000
MANEDIT
1070
     0
1002
}
1002
{
1000
NOSEL
1070
     0
1002
}
1002
{
1000
BEHIND
1070
     0
1002
}
1002
{
1000
OTHER
1070
     0
1002
}
1002
{
1000
REACTOR
1002
}
  0
ARC
  5
D3CC
  8
AM_0
 10
272.4579525167353
 20
394.20069750868731
 30
0.0
 40
2.0
 50
1.0000117735563621
 51
90.000000000000057
1001
GENIUS_GENOBJ-N-FIL_13
1002
{
1000
OWNER
1000
GEN
1002
}
1001
GENIUS_GENODEF_13
1002
{
1000
HIER
1070
     0
1002
}
1002
{
1000
MANEDIT
1070
     0
1002
}
1002
{
1000
NOSEL
1070
     0
1002
}
1002
{
1000
BEHIND
1070
     0
1002
}
1002
{
1000
OTHER
1070
     0
1002
}
1002
{
1000
REACTOR
1002
}
  0
LINE
  5
D3CD
  8
AM_0
 10
344.59677855739801
 20
390.20070501887301
 30
0.0
 11
344.59677855739801
 21
394.2007051380823
 31
0.0
  0
LINE
  5
D3CE
  8
ﾁｭｳｼﾝｾﾝ1
 10
382.0967796749851
 20
381.20070489966349
 30
0.0
 11
382.0967796749851
 21
505.20071592652317
 31
0.0
  0
LINE
  5
D3CF
  8
ｶｸﾚｾﾝ2
 10
427.5967810309902
 20
394.2007051380823
 30
0.0
 11
427.5967810309902
 21
492.20071568810459
 31
0.0
  0
LINE
  5
D3D0
  8
ﾁｭｳｼﾝｾﾝ1
 10
433.09678119490297
 20
390.45070132338469
 30
0.0
 11
433.09678119490297
 21
495.95071187340722
 31
0.0
  0
LINE
  5
D3D1
  8
ｶｸﾚｾﾝ2
 10
438.59678135881558
 20
394.2007051380823
 30
0.0
 11
438.59678135881558
 21
492.20071568810459
 31
0.0
  0
LINE
  5
D3D2
  8
AM_0
 10
445.09678155253113
 20
472.20070746266327
 30
0.0
 11
443.7353007990651
 21
394.20069750868731
 31
0.0
  0
LINE
  5
D3D3
  8
AM_0
 10
404.5967803455373
 20
500.20071592652312
 30
0.0
 11
404.5967803455373
 21
496.20071580731383
 31
0.0
  0
LINE
  5
D3D4
  8
AM_0
 10
359.59677900443279
 20
500.20071592652312
 30
0.0
 11
359.59677900443279
 21
496.20071580731383
 31
0.0
  0
LINE
  5
D3D5
  8
AM_0
 10
404.5967803455373
 20
500.20071592652312
 30
0.0
 11
359.59677900443279
 21
500.20071592652312
 31
0.0
  0
LINE
  5
D3D6
  8
AM_0
 10
354.09677967498521
 20
490.20070805870978
 30
0.0
 11
354.09677967498521
 21
485.20070805870961
 31
0.0
  0
LINE
  5
D3D7
  8
AM_0
 10
355.09677967498521
 20
492.20070805870972
 30
0.0
 11
355.09677967498521
 21
485.20070805870961
 31
0.0
  0
ARC
  5
D3D8
  8
AM_0
 10
353.09677967498521
 20
490.20070805870978
 30
0.0
 40
1.0
 50
0.0
 51
90.000000000000057
1001
GENIUS_GENOBJ-N-FIL_13
1002
{
1000
OWNER
1000
GEN
1002
}
1001
GENIUS_GENODEF_13
1002
{
1000
HIER
1070
     0
1002
}
1002
{
1000
MANEDIT
1070
     0
1002
}
1002
{
1000
NOSEL
1070
     0
1002
}
1002
{
1000
BEHIND
1070
     0
1002
}
1002
{
1000
OTHER
1070
     0
1002
}
1002
{
1000
REACTOR
1002
}
  0
LINE
  5
D3D9
  8
AM_0
 10
419.59678079257202
 20
496.20071580731383
 30
0.0
 11
419.59678079257202
 21
492.20071568810459
 31
0.0
  0
LINE
  5
D3DA
  8
AM_0
 10
444.7476909659556
 20
492.20070805870972
 30
0.0
 11
445.09678155253113
 21
472.20070746266327
 31
0.0
  0
LINE
  5
D3DB
  8
AM_0
 10
404.5967803455373
 20
386.20070489966349
 30
0.0
 11
359.59677900443279
 21
386.20070489966349
 31
0.0
  0
LINE
  5
D3DC
  8
AM_0
 10
359.59677900443279
 20
386.20070489966349
 30
0.0
 11
359.59677900443279
 21
390.20070501887301
 31
0.0
  0
LINE
  5
D3DD
  8
AM_0
 10
419.59678079257202
 20
390.20070501887301
 30
0.0
 11
419.59678079257202
 21
394.2007051380823
 31
0.0
  0
LINE
  5
D3DE
  8
AM_0
 10
404.5967803455373
 20
386.20070489966349
 30
0.0
 11
404.5967803455373
 21
390.20070501887301
 31
0.0
  0
LINE
  5
D698
  8
ｶｸﾚｾﾝ2
 10
204.09668590895279
 20
474.7007065983961
 30
0.0
 11
130.09668590895279
 21
474.7007065983961
 31
0.0
  0
LINE
  5
D699
  8
ｶｸﾚｾﾝ2
 10
207.09668590895291
 20
471.70070659839621
 30
0.0
 11
207.09668590895291
 21
414.70070659839593
 31
0.0
  0
ARC
  5
D69A
  8
ｶｸﾚｾﾝ2
 10
204.09668590895279
 20
471.70070659839598
 30
0.0
 40
3.0
 50
0.0
 51
90.0
  0
LINE
  5
D69B
  8
ｶｸﾚｾﾝ2
 10
204.09668590895279
 20
411.70070659839593
 30
0.0
 11
130.09668590895279
 21
411.70070659839593
 31
0.0
  0
ARC
  5
D69C
  8
ｶｸﾚｾﾝ2
 10
204.09668590895279
 20
414.70070659839593
 30
0.0
 40
3.0
 50
270.0
 51
0.0
  0
LINE
  5
D69D
  8
ｶｸﾚｾﾝ2
 10
127.09668590895279
 20
414.70070659839593
 30
0.0
 11
127.09668590895279
 21
471.70070659839621
 31
0.0
  0
ARC
  5
D69E
  8
ｶｸﾚｾﾝ2
 10
130.09668590895271
 20
414.70070659839593
 30
0.0
 40
3.0
 50
180.0
 51
270.0
  0
ARC
  5
D69F
  8
ｶｸﾚｾﾝ2
 10
130.09668590895271
 20
471.70070659839621
 30
0.0
 40
3.0
 50
90.0
 51
180.0
  0
LINE
  5
D6B6
  8
AM_0
 10
102.5967159089528
 20
379.31072659839617
 30
0.0
 11
155.5967159089528
 21
379.31072659839617
 31
0.0
  0
LINE
  5
D6B7
  8
AM_0
 10
102.5967159089528
 20
377.96071659839617
 30
0.0
 11
155.5967159089528
 21
377.96071659839617
 31
0.0
  0
LINE
  5
D6B8
  8
AM_0
 10
102.5967159089528
 20
377.28072659839609
 30
0.0
 11
155.5967159089528
 21
377.28072659839609
 31
0.0
  0
LINE
  5
D6B9
  8
AM_0
 10
102.5967159089528
 20
507.09071759839611
 30
0.0
 11
155.5967159089528
 21
507.09071759839611
 31
0.0
  0
LINE
  5
D6BA
  8
AM_0
 10
102.5967159089528
 20
508.44073159839593
 30
0.0
 11
155.5967159089528
 21
508.44073159839593
 31
0.0
  0
LINE
  5
D6BB
  8
AM_0
 10
102.5967159089528
 20
509.1107135983961
 30
0.0
 11
155.5967159089528
 21
509.1107135983961
 31
0.0
  0
LINE
  5
D6BC
  8
AM_0
 10
124.5967159089528
 20
489.55072659839601
 30
0.0
 11
226.5967159089528
 21
489.55072659839601
 31
0.0
  0
LINE
  5
D6BD
  8
AM_0
 10
124.5967159089528
 20
396.85071659839622
 30
0.0
 11
226.5967159089528
 21
396.85071659839622
 31
0.0
  0
LINE
  5
D6BE
  8
AM_0
 10
219.94674590895281
 20
479.20070659839621
 30
0.0
 11
85.146765908952858
 21
479.20070659839621
 31
0.0
  0
LINE
  5
D6BF
  8
AM_0
 10
102.5967159089528
 20
381.34072659839597
 30
0.0
 11
219.4067059089528
 21
381.34072659839597
 31
0.0
  0
LINE
  5
D6C0
  8
AM_0
 10
102.5967159089528
 20
505.06071859839602
 30
0.0
 11
219.4067059089528
 21
505.06071859839602
 31
0.0
  0
LINE
  5
D6C1
  8
AM_0
 10
93.276705908952778
 20
406.48072659839607
 30
0.0
 11
223.4167159089528
 21
406.48072659839607
 31
0.0
  0
LINE
  5
D6C2
  8
AM_0
 10
219.94674590895281
 20
407.20070659839621
 30
0.0
 11
94.146765908952887
 21
407.20070659839621
 31
0.0
  0
LINE
  5
D6C3
  8
AM_0
 10
219.94674590895281
 20
477.20071659839618
 30
0.0
 11
85.146765908952858
 21
477.20071659839618
 31
0.0
  0
LINE
  5
D6C4
  8
AM_0
 10
223.4167159089528
 20
476.57071659839602
 30
0.0
 11
84.276705908952778
 21
476.57071659839602
 31
0.0
  0
LINE
  5
D6C5
  8
AM_0
 10
84.276705908952778
 20
479.92072659839607
 30
0.0
 11
223.4167159089528
 21
479.92072659839607
 31
0.0
  0
LINE
  5
D6C6
  8
AM_0
 10
223.4167159089528
 20
409.83072659839598
 30
0.0
 11
93.276705908952778
 21
409.83072659839598
 31
0.0
  0
LINE
  5
D6C7
  8
AM_0
 10
222.54168590895279
 20
469.2007206983962
 30
0.0
 11
85.146765908952858
 21
469.2007265983961
 31
0.0
  0
LINE
  5
D6C8
  8
AM_0
 10
222.54168596131279
 20
467.20071249839611
 30
0.0
 11
85.146765908952858
 21
467.20070659839621
 31
0.0
  0
LINE
  5
D6C9
  8
AM_0
 10
84.056735908952817
 20
469.6807165983962
 30
0.0
 11
223.6317159089528
 21
469.68072659839612
 31
0.0
  0
LINE
  5
D6CA
  8
AM_0
 10
84.056735908952817
 20
466.7607065983961
 30
0.0
 11
223.63171598539819
 21
466.7607265983961
 31
0.0
  0
LINE
  5
D6CB
  8
AM_0
 10
83.926725908952804
 20
459.54072659839591
 30
0.0
 11
223.7617259089528
 21
459.54070659839613
 31
0.0
  0
LINE
  5
D6CC
  8
AM_0
 10
222.53169145111181
 20
459.20070462815431
 30
0.0
 11
85.156705908952773
 21
459.20070659839621
 31
0.0
  0
LINE
  5
D6CD
  8
AM_0
 10
222.53169155583129
 20
457.20070856772531
 30
0.0
 11
85.156705908952773
 21
457.20072659839622
 31
0.0
  0
LINE
  5
D6CE
  8
AM_0
 10
83.926725908952804
 20
456.88071659839619
 30
0.0
 11
223.76172597859139
 21
456.8807065983961
 31
0.0
  0
LINE
  5
D6CF
  8
AM_0
 10
83.866735908952833
 20
449.47071659839611
 30
0.0
 11
223.8217159089528
 21
449.47073059839607
 31
0.0
  0
LINE
  5
D6D0
  8
AM_0
 10
222.53169145111181
 20
449.20072462815432
 30
0.0
 11
85.156705908952773
 21
449.20070659839621
 31
0.0
  0
LINE
  5
D6D1
  8
AM_0
 10
222.53169155583129
 20
447.20072856772532
 30
0.0
 11
85.156705908952773
 21
447.2007065983961
 31
0.0
  0
LINE
  5
D6D2
  8
AM_0
 10
83.866735908952833
 20
446.9307165983962
 30
0.0
 11
223.82171597544991
 21
446.93072259839607
 31
0.0
  0
LINE
  5
D6D3
  8
AM_0
 10
83.866735908952833
 20
439.46071659839617
 30
0.0
 11
223.8217159089528
 21
439.46074059839589
 31
0.0
  0
LINE
  5
D6D4
  8
AM_0
 10
222.53169145111181
 20
439.20072462815438
 30
0.0
 11
85.156705908952773
 21
439.2007265983961
 31
0.0
  0
LINE
  5
D6D5
  8
AM_0
 10
222.53169155583129
 20
437.20072856772521
 30
0.0
 11
85.156705908952773
 21
437.20070659839621
 31
0.0
  0
LINE
  5
D6D6
  8
AM_0
 10
83.866735908952833
 20
436.93071659839609
 30
0.0
 11
223.8217159751882
 21
436.93073259839611
 31
0.0
  0
LINE
  5
D6D7
  8
AM_0
 10
83.926725908952804
 20
429.52071659839612
 30
0.0
 11
223.7617259089528
 21
429.52071659839612
 31
0.0
  0
LINE
  5
D6D8
  8
AM_0
 10
222.53169145111181
 20
429.20070462815431
 30
0.0
 11
85.156705908952773
 21
429.2007265983961
 31
0.0
  0
LINE
  5
D6D9
  8
AM_0
 10
222.53169155583129
 20
427.20070856772531
 30
0.0
 11
85.156705908952773
 21
427.2007265983961
 31
0.0
  0
LINE
  5
D6DA
  8
AM_0
 10
83.926725908952804
 20
426.86072659839618
 30
0.0
 11
223.76172597859139
 21
426.8607165983961
 31
0.0
  0
LINE
  5
D6DB
  8
AM_0
 10
93.056735908952788
 20
419.64071659839618
 30
0.0
 11
223.62672590895281
 21
419.64071659839618
 31
0.0
  0
LINE
  5
D6DC
  8
AM_0
 10
222.53669590895271
 20
419.20073069839623
 30
0.0
 11
94.146765908952887
 21
419.20070659839621
 31
0.0
  0
LINE
  5
D6DD
  8
AM_0
 10
222.5366959613128
 20
417.20072249839609
 30
0.0
 11
94.146765908952887
 21
417.2007265983961
 31
0.0
  0
LINE
  5
D6DE
  8
AM_0
 10
93.056735908952788
 20
416.71073659839612
 30
0.0
 11
223.62672598565999
 21
416.71071659839617
 31
0.0
  0
LINE
  5
D6DF
  8
AM_0
 10
219.9467269088305
 20
409.20072495266407
 30
0.0
 11
94.146765908952887
 21
409.2007265983961
 31
0.0
  0
LINE
  5
D6E0
  8
AM_0
 10
74.596745908952784
 20
491.7907165983961
 30
0.0
 11
74.596745908952784
 21
448.20069659839612
 31
0.0
  0
LINE
  5
D6E1
  8
AM_0
 10
79.596685908952793
 20
500.6307055983961
 30
0.0
 11
79.596685908952793
 21
443.20070659839598
 31
0.0
  0
LINE
  5
D6E2
  8
AM_0
 10
73.096745908952784
 20
423.20071659839613
 30
0.0
 11
73.096745908952784
 21
463.20069659839601
 31
0.0
  0
LINE
  5
D6E3
  8
AM_0
 10
72.102845908952801
 20
458.4225965983963
 30
0.0
 11
72.102845908952801
 21
427.9789665983962
 31
0.0
  0
LINE
  5
D6E4
  8
AM_0
 10
83.316745908952868
 20
394.85071659839622
 30
0.0
 11
83.856785908952844
 21
391.86071659839598
 31
0.0
  0
LINE
  5
D6E5
  8
AM_0
 10
76.596685908952807
 20
393.70070659839621
 30
0.0
 11
76.596685908952807
 21
394.23070659839618
 31
0.0
  0
LINE
  5
D6E6
  8
AM_0
 10
76.366705908952753
 20
393.58070659839609
 30
0.0
 11
75.096685908952793
 21
394.32071659839607
 31
0.0
  0
LINE
  5
D6E7
  8
AM_0
 10
79.596685908952793
 20
385.77071659839612
 30
0.0
 11
79.596685908952793
 21
443.20070659839598
 31
0.0
  0
ARC
  5
D6E8
  8
AM_0
 10
102.5912759089528
 20
379.9552865983963
 30
0.0
 40
1.9945760999999991
 50
179.84400999999721
 51
270.15599200000003
  0
ARC
  5
D6E9
  8
AM_0
 10
102.5992159089528
 20
379.2755665983961
 30
0.0
 40
1.994844099999999
 50
194.36279999999951
 51
269.92834200000209
  0
LINE
  5
D6EA
  8
AM_0
 10
85.706695908952881
 20
379.9007265983962
 30
0.0
 11
99.206695908952867
 21
379.9007265983962
 31
0.0
  0
LINE
  5
D6EB
  8
AM_0
 10
85.736725908952764
 20
381.53072659839609
 30
0.0
 11
99.096715908952774
 21
381.53072659839609
 31
0.0
  0
LINE
  5
D6EC
  8
AM_0
 10
85.766755908952774
 20
384.9307165983962
 30
0.0
 11
99.096715908952774
 21
384.9307165983962
 31
0.0
  0
LINE
  5
D6ED
  8
AM_0
 10
85.826695908952757
 20
390.22072659839608
 30
0.0
 11
99.096715908952774
 21
390.22072659839608
 31
0.0
  0
ARC
  5
D6EE
  8
AM_0
 10
85.768405908952815
 20
386.92611659839622
 30
0.0
 40
1.9953879999999991
 50
192.01538000000019
 51
269.9519330000021
  0
LINE
  5
D6EF
  8
AM_0
 10
83.786715908952857
 20
383.07071659839607
 30
0.0
 11
82.866675908952772
 21
386.95070659839621
 31
0.0
  0
ARC
  5
D6F0
  8
AM_0
 10
81.425015908952815
 20
384.57361659839597
 30
0.0
 40
1.5070961
 50
14.09782000000339
 51
89.935179999998283
  0
LINE
  5
D6F1
  8
AM_0
 10
81.426725908952804
 20
386.08071659839612
 30
0.0
 11
83.076755908952833
 21
386.08071659839612
 31
0.0
  0
LINE
  5
D6F2
  8
AM_0
 10
79.59665590895284
 20
385.77071659839612
 30
0.0
 11
82.416715908952838
 21
385.70072659839622
 31
0.0
  0
ARC
  5
D6F3
  8
AM_0
 10
85.704015908952812
 20
381.89849659839609
 30
0.0
 40
1.9977800999999991
 50
194.13223000000309
 51
270.07691900000231
  0
LINE
  5
D6F4
  8
AM_0
 10
83.766695908952798
 20
381.4107065983963
 30
0.0
 11
82.886685908952842
 21
384.9406965983963
 31
0.0
  0
ARC
  5
D6F5
  8
AM_0
 10
85.729525908952894
 20
383.52617659839621
 30
0.0
 40
1.9954841000000001
 50
193.19407999999851
 51
270.20654200000092
  0
LINE
  5
D6F6
  8
AM_0
 10
81.386685908952828
 20
392.16073659839623
 30
0.0
 11
83.806735908952803
 21
392.16073659839623
 31
0.0
  0
ARC
  5
D6F7
  8
AM_0
 10
81.387915908952806
 20
390.65658659839619
 30
0.0
 40
1.50414
 50
12.44475000000339
 51
90.045750000001433
  0
LINE
  5
D6F8
  8
AM_0
 10
81.406705908952773
 20
388.10073659839622
 30
0.0
 11
83.466705908952846
 21
388.10073659839622
 31
0.0
  0
ARC
  5
D6F9
  8
AM_0
 10
81.405915908952807
 20
386.59791659839613
 30
0.0
 40
1.5028081
 50
13.577820000002429
 51
89.969209999998441
  0
ARC
  5
D6FA
  8
AM_0
 10
76.858715908952803
 20
394.4465865983961
 30
0.0
 40
0.9959119600000002
 50
240.39300999999969
 51
270.45855599999942
  0
ARC
  5
D6FB
  8
AM_0
 10
79.092105908952803
 20
392.94608659839622
 30
0.0
 40
0.5046359900000002
 50
0.5237599999994803
 51
89.476240000000558
  0
LINE
  5
D6FC
  8
AM_0
 10
76.866705908952753
 20
393.45070659839621
 30
0.0
 11
79.096745908952784
 21
393.45070659839621
 31
0.0
  0
ARC
  5
D6FD
  8
AM_0
 10
85.818575908952795
 20
392.21415659839607
 30
0.0
 40
1.993431999999999
 50
190.21196999999981
 51
270.23411600000071
  0
LINE
  5
D6FE
  8
AM_0
 10
83.816745908952839
 20
386.51072659839622
 30
0.0
 11
82.856725908952768
 21
390.98072659839607
 31
0.0
  0
LINE
  5
D6FF
  8
AM_0
 10
100.5967159089528
 20
381.31072659839617
 30
0.0
 11
100.5967159089528
 21
388.7207265983962
 31
0.0
  0
ARC
  5
D700
  8
AM_0
 10
102.5939659089527
 20
381.30793659839622
 30
0.0
 40
1.9972080000000001
 50
179.91986000000111
 51
270.08014299999962
  0
ARC
  5
D701
  8
AM_0
 10
102.5931159089528
 20
383.33710659839608
 30
0.0
 40
1.996383999999999
 50
179.89615999999739
 51
270.103837
  0
ARC
  5
D702
  8
AM_0
 10
99.210355908952863
 20
378.39382659839617
 30
0.0
 40
1.506888
 50
14.876930000005091
 51
90.137770000000501
  0
ARC
  5
D703
  8
AM_0
 10
99.092865908952859
 20
380.02688659839617
 30
0.0
 40
1.503848099999999
 50
0.1464000000030106
 51
89.853599999996987
  0
ARC
  5
D704
  8
AM_0
 10
99.094945908952852
 20
383.42893659839609
 30
0.0
 40
1.5017959999999979
 50
0.0685499999989572
 51
89.931450000001036
  0
ARC
  5
D705
  8
AM_0
 10
99.091035908952804
 20
388.71505659839619
 30
0.0
 40
1.505676
 50
0.2155299999989793
 51
89.784480000001125
  0
LINE
  5
D706
  8
AM_0
 10
73.096745908952784
 20
428.05069659839609
 30
0.0
 11
77.376715908952718
 21
428.05069659839609
 31
0.0
  0
LINE
  5
D707
  8
AM_0
 10
78.596685908952807
 20
427.20070659839593
 30
0.0
 11
75.596685908952807
 21
427.20070659839593
 31
0.0
  0
LINE
  5
D708
  8
AM_0
 10
78.596685908952807
 20
429.20071659839613
 30
0.0
 11
75.596685908952807
 21
429.20071659839613
 31
0.0
  0
LINE
  5
D709
  8
AM_0
 10
78.596685908952807
 20
417.20071659839613
 30
0.0
 11
75.596685908952807
 21
417.20071659839613
 31
0.0
  0
LINE
  5
D70A
  8
AM_0
 10
78.596685908952807
 20
419.20070659839593
 30
0.0
 11
75.596685908952807
 21
419.20070659839593
 31
0.0
  0
LINE
  5
D70B
  8
AM_0
 10
76.406685908952767
 20
407.59068659839608
 30
0.0
 11
75.20667590895286
 21
408.10068659839612
 31
0.0
  0
LINE
  5
D70C
  8
AM_0
 10
76.456735908952808
 20
409.50070659839622
 30
0.0
 11
75.306705908952793
 21
409.8507165983961
 31
0.0
  0
LINE
  5
D70D
  8
AM_0
 10
76.356695908952801
 20
395.70070659839621
 30
0.0
 11
75.076665908952776
 21
396.47069659839622
 31
0.0
  0
LINE
  5
D70E
  8
AM_0
 10
76.346685908952793
 20
400.24074659839602
 30
0.0
 11
75.046695908952714
 21
401.09073659839601
 31
0.0
  0
LINE
  5
D70F
  8
AM_0
 10
76.366705908952753
 20
401.35072659839608
 30
0.0
 11
75.086675908952841
 21
402.10072659839608
 31
0.0
  0
LINE
  5
D710
  8
AM_0
 10
76.386725908952783
 20
394.70067659839623
 30
0.0
 11
75.146735908952763
 21
395.33067659839622
 31
0.0
  0
LINE
  5
D711
  8
AM_0
 10
76.376715908952718
 20
396.81068659839622
 30
0.0
 11
75.126655908952756
 21
397.48068659839618
 31
0.0
  0
LINE
  5
D712
  8
AM_0
 10
78.596685908952807
 20
449.2007065983961
 30
0.0
 11
75.596685908952807
 21
449.2007065983961
 31
0.0
  0
LINE
  5
D713
  8
AM_0
 10
78.596685908952807
 20
447.20071659839618
 30
0.0
 11
75.596685908952807
 21
447.20071659839618
 31
0.0
  0
LINE
  5
D714
  8
AM_0
 10
78.596685908952807
 20
437.2007065983961
 30
0.0
 11
75.596685908952807
 21
437.2007065983961
 31
0.0
  0
LINE
  5
D715
  8
AM_0
 10
78.596685908952807
 20
439.20070659839598
 30
0.0
 11
75.596685908952807
 21
439.20070659839598
 31
0.0
  0
LINE
  5
D716
  8
AM_0
 10
74.596745908952784
 20
395.1806965983962
 30
0.0
 11
74.596745908952784
 21
438.20071659839618
 31
0.0
  0
ARC
  5
D717
  8
AM_0
 10
75.591495908952723
 20
401.92310659839598
 30
0.0
 40
0.9948279899999999
 50
179.56186999999991
 51
236.7953100000002
  0
ARC
  5
D718
  8
AM_0
 10
75.589915908952733
 20
395.18278659839609
 30
0.0
 40
0.99319202
 50
180.1204399999996
 51
240.2266000000007
  0
ARC
  5
D719
  8
AM_0
 10
75.592295908952764
 20
396.22101659839609
 30
0.0
 40
0.99558806
 50
180.01775000000049
 51
243.4125099999994
  0
ARC
  5
D71A
  8
AM_0
 10
75.591135908952737
 20
397.32173659839623
 30
0.0
 40
0.9944360299999999
 50
180.0595100000007
 51
238.8478300000003
  0
ARC
  5
D71B
  8
AM_0
 10
75.589915908952733
 20
398.35927659839609
 30
0.0
 40
0.9932120399999999
 50
179.91816999999921
 51
242.2006599999998
  0
ARC
  5
D71C
  8
AM_0
 10
75.590765908952775
 20
402.95750659839592
 30
0.0
 40
0.99407601
 50
179.8153599999992
 51
239.53080000000071
  0
ARC
  5
D71D
  8
AM_0
 10
75.593085908952801
 20
409.0191265983961
 30
0.0
 40
0.99640006
 50
179.90959999999961
 51
247.1826099999991
  0
ARC
  5
D71E
  8
AM_0
 10
75.592965908952777
 20
410.80495659839602
 30
0.0
 40
0.9962600499999998
 50
179.6695099999998
 51
253.3025100000001
  0
ARC
  5
D71F
  8
AM_0
 10
75.591745908952774
 20
418.19577659839609
 30
0.0
 40
0.9950800499999999
 50
179.71593000000081
 51
270.28407900000042
  0
ARC
  5
D720
  8
AM_0
 10
75.596865908952708
 20
418.20048659839608
 30
0.0
 40
1.0002040000000001
 50
90.011679999999274
 51
179.9883300000003
  0
LINE
  5
D721
  8
AM_0
 10
73.096685908952807
 20
423.20068659839609
 30
0.0
 11
74.596685908952793
 21
423.07068659839609
 31
0.0
  0
ARC
  5
D722
  8
AM_0
 10
75.591745908952774
 20
428.1957965983961
 30
0.0
 40
0.99508399
 50
179.71613000000039
 51
270.2838669999993
  0
LINE
  5
D723
  8
AM_0
 10
73.096745908952784
 20
425.92070659839612
 30
0.0
 11
74.596745908952784
 21
425.92070659839612
 31
0.0
  0
LINE
  5
D724
  8
AM_0
 10
72.602845908952901
 20
425.20894659839632
 30
0.0
 11
73.102845908952844
 21
425.24895659839632
 31
0.0
  0
LINE
  5
D725
  8
AM_0
 10
72.102845908952801
 20
427.9789665983962
 30
0.0
 11
72.602845908952901
 21
425.20894659839632
 31
0.0
  0
ARC
  5
D726
  8
AM_0
 10
75.596865908952708
 20
428.20050659839609
 30
0.0
 40
1.000199999999998
 50
90.011469999999946
 51
179.98853000000011
  0
ARC
  5
D727
  8
AM_0
 10
75.591745908952774
 20
438.19577659839609
 30
0.0
 40
0.9950879799999999
 50
179.71634999999941
 51
270.28365500000041
  0
ARC
  5
D728
  8
AM_0
 10
75.596865908952708
 20
438.20050659839609
 30
0.0
 40
1.0001959999999981
 50
90.011260000000647
 51
179.98875000000049
  0
ARC
  5
D729
  8
AM_0
 10
75.591745908952774
 20
448.19577659839621
 30
0.0
 40
0.9950800499999999
 50
179.7159000000002
 51
270.28410600000052
  0
POINT
  5
D72A
  8
AM_0
 10
72.102845908952901
 20
443.20073659839619
 30
0.0
  0
ARC
  5
D72B
  8
AM_0
 10
75.596865908952708
 20
448.20048659839591
 30
0.0
 40
1.0002040000000001
 50
90.011700000000076
 51
179.98830000000001
  0
LINE
  5
D72C
  8
AM_0
 10
124.5967159089528
 20
396.85073659839622
 30
0.0
 11
89.596715908952817
 21
398.8807365983962
 31
0.0
  0
ARC
  5
D72D
  8
AM_0
 10
101.5967159089528
 20
408.2007265983961
 30
0.0
 40
1.0000040999999991
 50
90.0
 51
269.99999700000228
  0
ARC
  5
D72E
  8
AM_0
 10
94.146765908952887
 20
408.2007265983961
 30
0.0
 40
1.0000040999999991
 50
90.0
 51
269.99999700000228
  0
ARC
  5
D72F
  8
AM_0
 10
93.276705908952778
 20
408.15572659839609
 30
0.0
 40
1.6750081000000001
 50
90.0
 51
269.99999700000228
  0
LINE
  5
D730
  8
AM_0
 10
79.596715908952802
 20
408.8907265983961
 30
0.0
 11
89.596715908952817
 21
408.8907265983961
 31
0.0
  0
LINE
  5
D731
  8
AM_0
 10
79.596715908952802
 20
394.85073659839622
 30
0.0
 11
89.596715908952817
 21
394.85073659839622
 31
0.0
  0
LINE
  5
D732
  8
AM_0
 10
79.596715908952802
 20
400.51072659839588
 30
0.0
 11
89.596715908952817
 21
400.51072659839588
 31
0.0
  0
ARC
  5
D733
  8
AM_0
 10
78.594305908952805
 20
402.21307659839613
 30
0.0
 40
1.002375999999999
 50
270.1355900000006
 51
359.86440800999929
  0
ARC
  5
D734
  8
AM_0
 10
76.821475908952806
 20
395.59473659839608
 30
0.0
 40
0.9941280500000002
 50
244.0651899999996
 51
270.87719199999958
  0
ARC
  5
D735
  8
AM_0
 10
76.865545908952726
 20
396.5549065983962
 30
0.0
 40
0.9942600099999999
 50
239.21890999999931
 51
270.64411800000079
  0
ARC
  5
D736
  8
AM_0
 10
76.831795908952785
 20
397.69606659839621
 30
0.0
 40
0.99546796
 50
242.79633999999999
 51
270.85855199999997
  0
ARC
  5
D737
  8
AM_0
 10
78.59772590895281
 20
397.69971659839609
 30
0.0
 40
0.9990080599999998
 50
269.94315700000072
 51
0.0568499999996159
  0
ARC
  5
D738
  8
AM_0
 10
79.098335908952734
 20
395.09906659839612
 30
0.0
 40
0.4983640000000002
 50
269.81140200000078
 51
0.1885900000000757
  0
LINE
  5
D739
  8
AM_0
 10
76.876715908952718
 20
395.56071659839608
 30
0.0
 11
79.596685908952793
 21
395.56071659839608
 31
0.0
  0
LINE
  5
D73A
  8
AM_0
 10
76.846745908952784
 20
396.70070659839621
 30
0.0
 11
78.596685908952807
 21
396.70070659839621
 31
0.0
  0
LINE
  5
D73B
  8
AM_0
 10
76.836675908952856
 20
394.60071659839622
 30
0.0
 11
79.096745908952784
 21
394.60071659839622
 31
0.0
  0
LINE
  5
D73C
  8
AM_0
 10
76.596685908952807
 20
395.80069659839609
 30
0.0
 11
76.596685908952807
 21
396.3506965983961
 31
0.0
  0
ARC
  5
D73D
  8
AM_0
 10
76.903325908952851
 20
401.06689659839623
 30
0.0
 40
0.9962120099999999
 50
236.03010000000069
 51
269.61809399999981
  0
ARC
  5
D73E
  8
AM_0
 10
76.876105908952781
 20
402.20718659839611
 30
0.0
 40
0.9965200400000001
 50
239.2567200000002
 51
269.45878700000048
  0
LINE
  5
D73F
  8
AM_0
 10
76.896735908952763
 20
400.07069659839613
 30
0.0
 11
79.596685908952793
 21
400.07069659839613
 31
0.0
  0
LINE
  5
D740
  8
AM_0
 10
76.866705908952753
 20
401.21071659839612
 30
0.0
 11
78.596685908952807
 21
401.21071659839612
 31
0.0
  0
LINE
  5
D741
  8
AM_0
 10
76.596685908952807
 20
400.37071659839609
 30
0.0
 11
76.596685908952807
 21
400.84070659839591
 31
0.0
  0
ARC
  5
D742
  8
AM_0
 10
76.797675908952868
 20
408.50618659839591
 30
0.0
 40
0.99548006
 50
246.87296999999921
 51
269.9426789999996
  0
ARC
  5
D743
  8
AM_0
 10
78.892155908952844
 20
406.80615659839623
 30
0.0
 40
0.7045519900000002
 50
0.3691099999995253
 51
89.630890000000505
  0
LINE
  5
D744
  8
AM_0
 10
76.796695908952714
 20
407.5107065983961
 30
0.0
 11
78.896675908952801
 21
407.5107065983961
 31
0.0
  0
LINE
  5
D745
  8
AM_0
 10
76.596685908952807
 20
407.81070659839611
 30
0.0
 11
76.596685908952807
 21
408.87070659839588
 31
0.0
  0
ARC
  5
D746
  8
AM_0
 10
92.746615908952791
 20
401.99056659839601
 30
0.0
 40
1.004135999999999
 50
314.20256399999943
 51
5.151160000004384
  0
LINE
  5
D747
  8
AM_0
 10
89.596715908952817
 20
394.85073659839622
 30
0.0
 11
89.596715908952817
 21
408.8907265983961
 31
0.0
  0
ARC
  5
D748
  8
AM_0
 10
89.217925908952807
 20
405.53266659839619
 30
0.0
 40
6.0039081999999979
 50
273.61728599999782
 51
314.77630699999952
  0
ARC
  5
D749
  8
AM_0
 10
88.761625908952766
 20
401.6029465983961
 30
0.0
 40
5.0078917000000001
 50
5.4746799999993279
 51
80.401279999998295
  0
ARC
  5
D74A
  8
AM_0
 10
78.59180590895275
 20
416.1957965983961
 30
0.0
 40
1.0049318999999981
 50
0.2804200000001815
 51
89.719579999999837
  0
ARC
  5
D74B
  8
AM_0
 10
76.735845908952768
 20
410.45341659839607
 30
0.0
 40
0.99277198
 50
253.6681800000006
 51
270.62519200000003
  0
ARC
  5
D74C
  8
AM_0
 10
78.59839590895271
 20
410.45900659839612
 30
0.0
 40
0.99829602
 50
269.90203899999938
 51
0.0979599999993715
  0
LINE
  5
D74D
  8
AM_0
 10
76.746715908952723
 20
409.46071659839612
 30
0.0
 11
78.596685908952807
 21
409.46071659839612
 31
0.0
  0
ARC
  5
D74E
  8
AM_0
 10
78.596865908952708
 20
420.20055659839608
 30
0.0
 40
0.99985206
 50
269.99145299999958
 51
0.0085499999998779
  0
LINE
  5
D74F
  8
AM_0
 10
76.596685908952807
 20
417.57069659839613
 30
0.0
 11
76.596685908952807
 21
418.94069659839607
 31
0.0
  0
ARC
  5
D750
  8
AM_0
 10
93.056735908952788
 20
418.17571659839598
 30
0.0
 40
1.4650000000000001
 50
90.0
 51
269.99999700000228
  0
ARC
  5
D751
  8
AM_0
 10
94.146765908952887
 20
418.2007265983961
 30
0.0
 40
1.0000040999999991
 50
90.0
 51
269.99999700000228
  0
ARC
  5
D752
  8
AM_0
 10
101.5967159089528
 20
418.2007265983961
 30
0.0
 40
1.0000040999999991
 50
90.0
 51
269.99999700000228
  0
ARC
  5
D753
  8
AM_0
 10
78.596865908952708
 20
440.20055659839608
 30
0.0
 40
0.99984801
 50
269.99122100000022
 51
0.008779999999566
  0
ARC
  5
D754
  8
AM_0
 10
83.926725908952804
 20
428.19071659839619
 30
0.0
 40
1.3300000000000001
 50
90.0
 51
269.99999700000228
  0
ARC
  5
D755
  8
AM_0
 10
78.59180590895275
 20
426.1957965983961
 30
0.0
 40
1.004928
 50
0.2802199999997469
 51
89.719780000000284
  0
ARC
  5
D756
  8
AM_0
 10
78.596865908952708
 20
430.20056659839611
 30
0.0
 40
0.9998440099999999
 50
269.99100899999979
 51
0.0089900000004472
  0
LINE
  5
D757
  8
AM_0
 10
76.596685908952807
 20
427.590716598396
 30
0.0
 11
76.596685908952807
 21
428.80069659839609
 31
0.0
  0
ARC
  5
D758
  8
AM_0
 10
85.148045908952795
 20
428.20070659839621
 30
0.0
 40
1.000035999999999
 50
89.500709999998364
 51
270.49928399999988
  0
ARC
  5
D759
  8
AM_0
 10
83.866735908952833
 20
438.19573659839602
 30
0.0
 40
1.265004
 50
90.0
 51
269.99999700000228
  0
LINE
  5
D75A
  8
AM_0
 10
76.596685908952807
 20
437.59070659839608
 30
0.0
 11
76.596685908952807
 21
438.75072659839623
 31
0.0
  0
ARC
  5
D75B
  8
AM_0
 10
78.59180590895275
 20
436.19580659839602
 30
0.0
 40
1.0049238999999981
 50
0.2800099999995782
 51
89.719990000000436
  0
ARC
  5
D75C
  8
AM_0
 10
85.148045908952795
 20
438.2007265983961
 30
0.0
 40
1.000035999999999
 50
89.500709999998364
 51
270.49928399999988
  0
ARC
  5
D75D
  8
AM_0
 10
101.5967159089528
 20
428.20070659839621
 30
0.0
 40
1.0000040999999991
 50
90.0
 51
269.99999700000228
  0
ARC
  5
D75E
  8
AM_0
 10
101.5967159089528
 20
438.2007265983961
 30
0.0
 40
1.0000040999999991
 50
90.0
 51
269.99999700000228
  0
ARC
  5
D75F
  8
AM_0
 10
85.148045908952795
 20
448.2007265983961
 30
0.0
 40
1.000035999999999
 50
89.500709999998364
 51
270.49928399999988
  0
ARC
  5
D760
  8
AM_0
 10
83.866735908952833
 20
448.2007265983961
 30
0.0
 40
1.270003999999999
 50
90.0
 51
269.99999700000228
  0
ARC
  5
D761
  8
AM_0
 10
78.591745908952774
 20
446.19578659839601
 30
0.0
 40
1.0049318999999981
 50
0.280449999999435
 51
89.719550000000623
  0
ARC
  5
D762
  8
AM_0
 10
78.596865908952708
 20
450.20055659839608
 30
0.0
 40
0.99985206
 50
269.99142600000039
 51
0.0085700000004659
  0
LINE
  5
D763
  8
AM_0
 10
76.596685908952807
 20
448.81071659839608
 30
0.0
 11
76.596685908952807
 21
447.65069659839611
 31
0.0
  0
ARC
  5
D764
  8
AM_0
 10
101.5967159089528
 20
448.2007265983961
 30
0.0
 40
1.0000040999999991
 50
90.0
 51
269.99999700000228
  0
LINE
  5
D765
  8
AM_0
 10
76.366705908952753
 20
492.81067559839602
 30
0.0
 11
75.096685908952793
 21
492.08067959839622
 31
0.0
  0
LINE
  5
D766
  8
AM_0
 10
76.386665908952722
 20
491.69068059839623
 30
0.0
 11
75.146675908952801
 21
491.06068259839611
 31
0.0
  0
LINE
  5
D767
  8
AM_0
 10
76.346685908952793
 20
486.1606965983961
 30
0.0
 11
75.046695908952714
 21
485.31069059839609
 31
0.0
  0
LINE
  5
D768
  8
AM_0
 10
76.356695908952801
 20
490.70067459839589
 30
0.0
 11
75.076665908952776
 21
489.93066259839588
 31
0.0
  0
LINE
  5
D769
  8
AM_0
 10
76.366705908952753
 20
485.05068859839611
 30
0.0
 11
75.086735908952804
 21
484.30070359839613
 31
0.0
  0
LINE
  5
D76A
  8
AM_0
 10
76.376715908952718
 20
489.58070959839591
 30
0.0
 11
75.126715908952718
 21
488.92072159839609
 31
0.0
  0
LINE
  5
D76B
  8
AM_0
 10
76.406685908952767
 20
478.81068259839623
 30
0.0
 11
75.206735908952808
 21
478.2907165983961
 31
0.0
  0
LINE
  5
D76C
  8
AM_0
 10
76.456735908952808
 20
476.90068659839608
 30
0.0
 11
75.306705908952793
 21
476.54068659839612
 31
0.0
  0
LINE
  5
D76D
  8
AM_0
 10
73.096745908952784
 20
458.3507165983961
 30
0.0
 11
77.676705908952812
 21
458.3507165983961
 31
0.0
  0
LINE
  5
D76E
  8
AM_0
 10
78.596685908952807
 20
469.20069659839612
 30
0.0
 11
75.596685908952807
 21
469.20069659839612
 31
0.0
  0
LINE
  5
D76F
  8
AM_0
 10
78.596685908952807
 20
467.2007065983961
 30
0.0
 11
75.596685908952807
 21
467.2007065983961
 31
0.0
  0
LINE
  5
D770
  8
AM_0
 10
78.596685908952807
 20
459.20071659839618
 30
0.0
 11
75.596685908952807
 21
459.20071659839618
 31
0.0
  0
LINE
  5
D771
  8
AM_0
 10
78.596685908952807
 20
457.20069659839612
 30
0.0
 11
75.596685908952807
 21
457.20069659839612
 31
0.0
  0
ARC
  5
D772
  8
AM_0
 10
75.591745908952774
 20
458.19578659839613
 30
0.0
 40
0.99508399
 50
179.71611000000041
 51
270.2838940000006
  0
LINE
  5
D773
  8
AM_0
 10
73.096745908952784
 20
460.48070659839601
 30
0.0
 11
74.596745908952784
 21
460.48070659839601
 31
0.0
  0
LINE
  5
D774
  8
AM_0
 10
72.602845908952901
 20
461.19255659839632
 30
0.0
 11
73.102875908952768
 21
461.1525465983961
 31
0.0
  0
ARC
  5
D775
  8
AM_0
 10
75.596865908952708
 20
458.20049659839611
 30
0.0
 40
1.000199999999998
 50
90.011490000000677
 51
179.9884999999997
  0
LINE
  5
D776
  8
AM_0
 10
72.102845908952801
 20
458.42256659839632
 30
0.0
 11
72.602845908952901
 21
461.19255659839632
 31
0.0
  0
LINE
  5
D777
  8
AM_0
 10
73.096745908952784
 20
463.20070659839621
 30
0.0
 11
74.596685908952793
 21
463.33070659839592
 31
0.0
  0
ARC
  5
D778
  8
AM_0
 10
75.596865908952708
 20
468.20050659839609
 30
0.0
 40
1.0001959999999981
 50
90.011279999999843
 51
179.98872000000009
  0
ARC
  5
D779
  8
AM_0
 10
75.591745908952774
 20
468.19576659839612
 30
0.0
 40
0.99508399
 50
179.71632000000011
 51
270.28367600000058
  0
ARC
  5
D77A
  8
AM_0
 10
75.593205908952854
 20
477.37223659839589
 30
0.0
 40
0.9964760499999998
 50
112.8203400000005
 51
180.08741999999921
  0
ARC
  5
D77B
  8
AM_0
 10
75.593085908952801
 20
475.58636359839608
 30
0.0
 40
0.9963800299999999
 50
106.70293000000009
 51
179.75050999999979
  0
ARC
  5
D77C
  8
AM_0
 10
75.595775908952845
 20
484.47601959839602
 30
0.0
 40
0.9991000299999999
 50
123.3382300000001
 51
180.3045800000005
  0
ARC
  5
D77D
  8
AM_0
 10
75.595165908952794
 20
483.4414045983961
 30
0.0
 40
0.9984599899999999
 50
120.6134499999993
 51
180.04038000000051
  0
ARC
  5
D77E
  8
AM_0
 10
75.594425908952843
 20
488.03941259839598
 30
0.0
 40
0.99770796
 50
117.9552400000004
 51
179.92595000000051
  0
ARC
  5
D77F
  8
AM_0
 10
75.592355908952825
 20
490.17034759839612
 30
0.0
 40
0.99566799
 50
116.5901700000008
 51
179.9795699999992
  0
ARC
  5
D780
  8
AM_0
 10
75.594305908952805
 20
491.21604059839609
 30
0.0
 40
0.9976240400000001
 50
119.92045999999959
 51
179.7324899999993
  0
ARC
  5
D781
  8
AM_0
 10
75.595465908952718
 20
489.07720859839611
 30
0.0
 40
0.9987800700000001
 50
121.2914499999993
 51
180.3733299999999
  0
ARC
  5
D782
  8
AM_0
 10
89.226965908952835
 20
480.85421659839602
 30
0.0
 40
6.007896399999999
 50
45.382730000005701
 51
86.471550000001656
  0
LINE
  5
D783
  8
AM_0
 10
89.596715908952817
 20
491.55071659839592
 30
0.0
 11
89.596715908952859
 21
479.8607162105273
 31
0.0
  0
ARC
  5
D784
  8
AM_0
 10
78.596865908952708
 20
470.2005465983961
 30
0.0
 40
0.99984801
 50
269.99119299999973
 51
0.0088099999996846
  0
ARC
  5
D785
  8
AM_0
 10
83.926725908952804
 20
458.2107065983962
 30
0.0
 40
1.3300000000000001
 50
90.0
 51
269.99999700000228
  0
ARC
  5
D786
  8
AM_0
 10
78.59180590895275
 20
456.19579659839587
 30
0.0
 40
1.004928
 50
0.2802399999999787
 51
89.719760000000036
  0
LINE
  5
D787
  8
AM_0
 10
76.596685908952807
 20
458.81069659839608
 30
0.0
 11
76.596685908952807
 21
457.59071659839611
 31
0.0
  0
ARC
  5
D788
  8
AM_0
 10
78.596865908952708
 20
460.20055659839608
 30
0.0
 40
0.9998440099999999
 50
269.9909820000006
 51
0.0090200000005658
  0
ARC
  5
D789
  8
AM_0
 10
85.148045908952795
 20
458.20070659839621
 30
0.0
 40
1.000035999999999
 50
89.500709999998364
 51
270.49928399999988
  0
ARC
  5
D78A
  8
AM_0
 10
84.056735908952817
 20
468.22072659839608
 30
0.0
 40
1.4599999999999991
 50
90.0
 51
269.99999700000228
  0
LINE
  5
D78B
  8
AM_0
 10
76.596685908952807
 20
468.83070659839609
 30
0.0
 11
76.596685908952807
 21
467.46071659839612
 31
0.0
  0
ARC
  5
D78C
  8
AM_0
 10
78.59180590895275
 20
466.1957965983961
 30
0.0
 40
1.0049238999999981
 50
0.2800299999994028
 51
89.719960000000682
  0
ARC
  5
D78D
  8
AM_0
 10
85.146765908952858
 20
468.20071659839618
 30
0.0
 40
1.0000040999999991
 50
90.0
 51
269.99999700000228
  0
ARC
  5
D78E
  8
AM_0
 10
101.5967159089528
 20
458.20070659839621
 30
0.0
 40
1.0000040999999991
 50
90.0
 51
269.99999700000228
  0
ARC
  5
D78F
  8
AM_0
 10
101.5967159089528
 20
468.20071659839618
 30
0.0
 40
1.0000040999999991
 50
90.0
 51
269.99999700000228
  0
ARC
  5
D790
  8
AM_0
 10
85.146768538874511
 20
478.20072364839621
 30
0.0
 40
1.000007050003423
 50
90.000150682346145
 51
269.99984931765221
  0
ARC
  5
D791
  8
AM_0
 10
84.276705908952778
 20
478.24572659839617
 30
0.0
 40
1.6750081000000001
 50
90.0
 51
269.99999700000228
  0
LINE
  5
D792
  8
AM_0
 10
76.596685908952807
 20
478.59071259839601
 30
0.0
 11
76.596685908952807
 21
477.53071459839612
 31
0.0
  0
LINE
  5
D793
  8
AM_0
 10
79.596715908952802
 20
477.50071659839608
 30
0.0
 11
82.766755908952774
 21
477.50071659839608
 31
0.0
  0
ARC
  5
D794
  8
AM_0
 10
78.593395908952701
 20
475.9373535983961
 30
0.0
 40
1.003363999999999
 50
0.1917200000003402
 51
89.808289999999673
  0
ARC
  5
D795
  8
AM_0
 10
76.737255908952847
 20
475.93801759839602
 30
0.0
 40
1.0027280000000001
 50
89.459600000000606
 51
106.2470299999996
  0
LINE
  5
D796
  8
AM_0
 10
76.746715908952723
 20
476.940702598396
 30
0.0
 11
78.596685908952807
 21
476.940702598396
 31
0.0
  0
ARC
  5
D797
  8
AM_0
 10
78.897285908952725
 20
479.59014759839607
 30
0.0
 40
0.69944
 50
269.95415999999977
 51
0.0458400000002029
  0
ARC
  5
D798
  8
AM_0
 10
76.799685908952796
 20
477.8854815983961
 30
0.0
 40
1.005223999999999
 50
90.170639999999636
 51
113.0137099999997
  0
LINE
  5
D799
  8
AM_0
 10
76.796695908952714
 20
478.89070759839609
 30
0.0
 11
78.896675908952801
 21
478.89070759839609
 31
0.0
  0
ARC
  5
D79A
  8
AM_0
 10
76.86005590895283
 20
484.17970859839608
 30
0.0
 40
1.001012
 50
89.619799999999657
 51
119.52864000000019
  0
ARC
  5
D79B
  8
AM_0
 10
78.594245908952715
 20
484.17824459839608
 30
0.0
 40
1.0024599999999999
 50
0.1403800000005919
 51
89.859619999999452
  0
LINE
  5
D79C
  8
AM_0
 10
76.866705908952753
 20
485.18070059839607
 30
0.0
 11
78.596685908952807
 21
485.18070059839607
 31
0.0
  0
ARC
  5
D79D
  8
AM_0
 10
101.5967159089528
 20
478.20072659839622
 30
0.0
 40
1.0000040999999991
 50
90.0
 51
269.99999700000228
  0
ARC
  5
D79E
  8
AM_0
 10
92.743255908952776
 20
484.40962659839619
 30
0.0
 40
1.007376
 50
354.93659510000271
 51
45.709679999997569
  0
ARC
  5
D79F
  8
AM_0
 10
88.766935908952775
 20
484.79359659839599
 30
0.0
 40
5.0021839000000003
 50
279.54857499999889
 51
354.57547400000249
  0
LINE
  5
D7A0
  8
AM_0
 10
124.59677590895269
 20
489.55071659839609
 30
0.0
 11
89.596775908952765
 21
487.52071659839612
 31
0.0
  0
ARC
  5
D7A1
  8
AM_0
 10
85.768645908952777
 20
499.46501559839601
 30
0.0
 40
1.995695899999999
 50
90.05521999999722
 51
167.9774699999997
  0
LINE
  5
D7A2
  8
AM_0
 10
79.596715908952802
 20
500.63072559839611
 30
0.0
 11
82.416715908952838
 21
500.70072559839599
 31
0.0
  0
ARC
  5
D7A3
  8
AM_0
 10
81.431675908952812
 20
501.82249859839612
 30
0.0
 40
1.501779999999999
 50
269.81061700000078
 51
345.66716400000053
  0
LINE
  5
D7A4
  8
AM_0
 10
100.5967159089528
 20
505.09072459839592
 30
0.0
 11
100.5967159089528
 21
497.68072159839602
 31
0.0
  0
LINE
  5
D7A5
  8
AM_0
 10
83.786715908952857
 20
503.33073059839592
 30
0.0
 11
82.866675908952772
 21
499.4507335983962
 31
0.0
  0
LINE
  5
D7A6
  8
AM_0
 10
79.596715908952802
 20
491.55071659839592
 30
0.0
 11
89.596715908952817
 21
491.55071659839592
 31
0.0
  0
LINE
  5
D7A7
  8
AM_0
 10
85.826695908952757
 20
496.18072159839591
 30
0.0
 11
99.096715908952774
 21
496.18072159839591
 31
0.0
  0
LINE
  5
D7A8
  8
AM_0
 10
79.596715908952802
 20
485.89071659839618
 30
0.0
 11
89.596715908952817
 21
485.89071659839618
 31
0.0
  0
LINE
  5
D7A9
  8
AM_0
 10
83.316745908952868
 20
491.55071659839592
 30
0.0
 11
83.856785908952844
 21
494.54073759839611
 31
0.0
  0
ARC
  5
D7AA
  8
AM_0
 10
79.097115908952773
 20
493.45027059839617
 30
0.0
 40
0.49955601
 50
269.94910599999918
 51
0.0508900000001713
  0
ARC
  5
D7AB
  8
AM_0
 10
76.889475908952804
 20
485.32020459839612
 30
0.0
 40
1.0005360000000001
 50
89.586779999999564
 51
122.8535999999999
  0
LINE
  5
D7AC
  8
AM_0
 10
76.896735908952763
 20
486.32071559839602
 30
0.0
 11
79.596685908952793
 21
486.32071559839602
 31
0.0
  0
LINE
  5
D7AD
  8
AM_0
 10
76.596685908952807
 20
486.0306995983961
 30
0.0
 11
76.596685908952807
 21
485.56071359839598
 31
0.0
  0
ARC
  5
D7AE
  8
AM_0
 10
76.877385908952732
 20
491.94962959839592
 30
0.0
 40
1.001135899999998
 50
90.612490000000719
 51
120.6719999999996
  0
ARC
  5
D7AF
  8
AM_0
 10
76.842535908952726
 20
490.80144359839619
 30
0.0
 40
0.99928796
 50
90.333810000000298
 51
117.1387299999999
  0
ARC
  5
D7B0
  8
AM_0
 10
79.093265908952802
 20
491.29731659839609
 30
0.0
 40
0.50340396
 50
0.3861299999998527
 51
89.613870000000176
  0
LINE
  5
D7B1
  8
AM_0
 10
76.866705908952753
 20
492.95071259839608
 30
0.0
 11
79.096745908952784
 21
492.95071259839608
 31
0.0
  0
LINE
  5
D7B2
  8
AM_0
 10
76.836675908952856
 20
491.80069559839609
 30
0.0
 11
79.096745908952784
 21
491.80069559839609
 31
0.0
  0
LINE
  5
D7B3
  8
AM_0
 10
76.596685908952807
 20
492.70070559839621
 30
0.0
 11
76.596685908952807
 21
492.17070659839612
 31
0.0
  0
ARC
  5
D7B4
  8
AM_0
 10
76.86804590895278
 20
489.83704959839611
 30
0.0
 40
1.003687999999999
 50
89.507249999999246
 51
120.6297299999994
  0
LINE
  5
D7B5
  8
AM_0
 10
76.876715908952718
 20
490.84069659839611
 30
0.0
 11
79.596685908952793
 21
490.84069659839611
 31
0.0
  0
LINE
  5
D7B6
  8
AM_0
 10
76.846745908952784
 20
489.70070559839598
 30
0.0
 11
78.596685908952807
 21
489.70070559839598
 31
0.0
  0
LINE
  5
D7B7
  8
AM_0
 10
76.596685908952807
 20
490.60071459839611
 30
0.0
 11
76.596685908952807
 21
490.05071159839622
 31
0.0
  0
ARC
  5
D7B8
  8
AM_0
 10
76.851875908952792
 20
488.70007959839597
 30
0.0
 40
1.0006280000000001
 50
90.295290000000691
 51
118.3501399999998
  0
ARC
  5
D7B9
  8
AM_0
 10
78.592655908952764
 20
488.69662359839612
 30
0.0
 40
1.004083999999998
 50
0.2326300000003737
 51
89.767369999999659
  0
LINE
  5
D7BA
  8
AM_0
 10
81.426725908952804
 20
500.3207135983962
 30
0.0
 11
83.076755908952833
 21
500.3207135983962
 31
0.0
  0
LINE
  5
D7BB
  8
AM_0
 10
81.406705908952773
 20
498.30071659839609
 30
0.0
 11
83.466705908952846
 21
498.30071659839609
 31
0.0
  0
ARC
  5
D7BC
  8
AM_0
 10
81.411045908952843
 20
499.79705459839619
 30
0.0
 40
1.4963319999999991
 50
269.83540999999917
 51
346.617561999999
  0
LINE
  5
D7BD
  8
AM_0
 10
81.386685908952828
 20
494.2307165983961
 30
0.0
 11
83.806735908952803
 21
494.2307165983961
 31
0.0
  0
ARC
  5
D7BE
  8
AM_0
 10
81.386875908952803
 20
495.73350959839593
 30
0.0
 40
1.5027881000000001
 50
269.9953320000032
 51
347.98665799999748
  0
ARC
  5
D7BF
  8
AM_0
 10
85.823705908952803
 20
494.18109559839593
 30
0.0
 40
1.9996280999999989
 50
89.914670000000115
 51
169.6392399999975
  0
LINE
  5
D7C0
  8
AM_0
 10
83.816745908952839
 20
499.88072559839611
 30
0.0
 11
82.856725908952768
 21
495.42071159839611
 31
0.0
  0
ARC
  5
D7C1
  8
AM_0
 10
99.096345908952856
 20
497.681087598396
 30
0.0
 40
1.5003600999999991
 50
270.01381500000002
 51
359.98618399999862
  0
LINE
  5
D7C2
  8
AM_0
 10
85.736725908952764
 20
504.87072359839613
 30
0.0
 11
99.096715908952774
 21
504.87072359839613
 31
0.0
  0
LINE
  5
D7C3
  8
AM_0
 10
85.706695908952881
 20
506.50072859839611
 30
0.0
 11
99.206695908952867
 21
506.50072859839611
 31
0.0
  0
LINE
  5
D7C4
  8
AM_0
 10
85.766755908952774
 20
501.46072759839592
 30
0.0
 11
99.096715908952774
 21
501.46072759839592
 31
0.0
  0
ARC
  5
D7C5
  8
AM_0
 10
85.734655908952774
 20
502.86878559839619
 30
0.0
 40
2.001947899999998
 50
89.940519999998955
 51
166.65886000000151
  0
ARC
  5
D7C6
  8
AM_0
 10
85.709135908952845
 20
504.4964105983961
 30
0.0
 40
2.0043239999999991
 50
90.068910000001068
 51
165.72194999999999
  0
LINE
  5
D7C7
  8
AM_0
 10
83.766755908952774
 20
504.99071159839599
 30
0.0
 11
82.886755908952779
 21
501.4507105983962
 31
0.0
  0
ARC
  5
D7C8
  8
AM_0
 10
102.5978159089528
 20
507.1142925983961
 30
0.0
 40
1.996427999999999
 50
90.032390000001968
 51
165.30536999999961
  0
ARC
  5
D7C9
  8
AM_0
 10
102.5965259089528
 20
506.44089859839619
 30
0.0
 40
1.999824
 50
89.994939999998735
 51
180.00506000000121
  0
ARC
  5
D7CA
  8
AM_0
 10
102.5983559089527
 20
503.05907859839613
 30
0.0
 40
2.001640099999999
 50
90.046959999998165
 51
179.9530399999953
  0
ARC
  5
D7CB
  8
AM_0
 10
99.098115908952806
 20
506.36928159839613
 30
0.0
 40
1.498559999999999
 50
269.94488499999687
 51
0.055119999999415
  0
ARC
  5
D7CC
  8
AM_0
 10
99.095185908952786
 20
502.96223859839608
 30
0.0
 40
1.5015080999999979
 50
270.05754899999692
 51
359.94245300200021
  0
ARC
  5
D7CD
  8
AM_0
 10
102.5992159089528
 20
505.08820759839608
 30
0.0
 40
2.0025157999999981
 50
90.071899999999786
 51
179.9281000000002
  0
ARC
  5
D7CE
  8
AM_0
 10
99.215425908952795
 20
508.00100359839621
 30
0.0
 40
1.5003120000000001
 50
269.66833699999898
 51
345.31696600000032
  0
LINE
  5
D7CF
  8
AM_0
 10
226.5967159089528
 20
380.20071159839591
 30
0.0
 11
226.59671592514559
 21
506.2006805742306
 31
0.0
  0
LINE
  5
D7D0
  8
ﾁｭｳｼﾝｾﾝ1
 10
175.59668590895279
 20
408.7007065983961
 30
0.0
 11
175.59668590895279
 21
477.70070659839593
 31
0.0
1001
GENIUS_GENODEF_13
1002
{
1000
HIER
1070
     0
1002
}
1002
{
1000
MANEDIT
1070
     0
1002
}
1002
{
1000
NOSEL
1070
     0
1002
}
1002
{
1000
BEHIND
1070
     0
1002
}
1002
{
1000
REACTOR
1002
}
1001
GENIUS_GENOBJ-N-CEN_13
1002
{
1000
OWNER
1000
GEN
1002
}
  0
LINE
  5
D7D5
  8
AM_0
 10
221.33673590895279
 20
382.82071659839607
 30
0.0
 11
224.79672590895279
 21
395.74073659839621
 31
0.0
  0
ARC
  5
D7D6
  8
AM_0
 10
155.59610590895281
 20
379.28133659839619
 30
0.0
 40
2.000623899999999
 50
270.01782400000212
 51
359.9821759990013
  0
ARC
  5
D7D7
  8
AM_0
 10
155.59964590895279
 20
379.9578065983963
 30
0.0
 40
1.9970881
 50
269.91637499999922
 51
0.0836200000014677
  0
ARC
  5
D7D8
  8
AM_0
 10
155.59695590895271
 20
381.31045659839617
 30
0.0
 40
1.9997199999999991
 50
269.99193799999972
 51
0.0080600000040016
  0
LINE
  5
D7D9
  8
AM_0
 10
157.5967159089528
 20
379.28072659839609
 30
0.0
 11
157.5967159089528
 21
381.34072659839597
 31
0.0
  0
LINE
  5
D7DA
  8
AM_0
 10
226.30673590895279
 20
392.16073659839623
 30
0.0
 11
223.89673590895279
 21
392.16073659839623
 31
0.0
  0
LINE
  5
D7DB
  8
AM_0
 10
221.30670590895281
 20
382.70072659839622
 30
0.0
 11
226.5967159089528
 21
382.70072659839622
 31
0.0
  0
ARC
  5
D7DC
  8
AM_0
 10
226.3025559089528
 20
390.6602465983961
 30
0.0
 40
1.500475999999999
 50
89.841720000000251
 51
167.6677700000013
  0
LINE
  5
D7DD
  8
AM_0
 10
223.4067059089528
 20
384.2806865983963
 30
0.0
 11
224.8467159089528
 21
390.98067659839597
 31
0.0
  0
ARC
  5
D7DE
  8
AM_0
 10
221.45117590895279
 20
384.70089659839618
 30
0.0
 40
2.0001799999999981
 50
269.87248500000197
 51
347.87364800000222
  0
ARC
  5
D7DF
  8
AM_0
 10
219.40716590895281
 20
383.33852659839607
 30
0.0
 40
1.997795899999999
 50
269.9864190000028
 51
344.97840299999831
  0
LINE
  5
D7E0
  8
AM_0
 10
227.5967159089528
 20
379.20071159839591
 30
0.0
 11
235.59674590895281
 21
379.20071159839591
 31
0.0
  0
ARC
  5
D7E1
  8
AM_0
 10
227.59176590895279
 20
380.19575159839582
 30
0.0
 40
0.9950640200000001
 50
179.714940000002
 51
270.28506199999953
  0
LINE
  5
D7E2
  8
AM_0
 10
227.5967159089528
 20
391.16071659839622
 30
0.0
 11
235.59674590895281
 21
391.16071659839622
 31
0.0
  0
ARC
  5
D7E3
  8
AM_0
 10
227.59112590895279
 20
392.155106598396
 30
0.0
 40
0.9944000200000001
 50
179.6764900000021
 51
270.323509
  0
ARC
  5
D7E4
  8
AM_0
 10
219.93853590895279
 20
408.2007265983961
 30
0.0
 40
1.000031899999998
 50
270.46929999999787
 51
89.530700000002156
  0
ARC
  5
D7E5
  8
AM_0
 10
223.4167159089528
 20
408.15572659839609
 30
0.0
 40
1.675
 50
269.99999700000228
 51
90.0
  0
ARC
  5
D7E6
  8
AM_0
 10
226.24698590895281
 20
395.34832659839623
 30
0.0
 40
1.502391899999999
 50
90.009360000000058
 51
164.8599899999985
  0
LINE
  5
D7E7
  8
AM_0
 10
226.5967159089528
 20
406.05071659839609
 30
0.0
 11
235.59674590895281
 21
406.05071659839609
 31
0.0
  0
ARC
  5
D7E8
  8
AM_0
 10
223.62672590895281
 20
418.17571659839598
 30
0.0
 40
1.4650000000000001
 50
270.00000299999761
 51
90.0
  0
ARC
  5
D7E9
  8
AM_0
 10
222.53669590895271
 20
418.2007265983961
 30
0.0
 40
1.0000040999999991
 50
270.00000299999761
 51
90.0
  0
ARC
  5
D7EA
  8
AM_0
 10
223.7617259089528
 20
428.19071659839619
 30
0.0
 40
1.3300000000000001
 50
270.00000299999761
 51
90.0
  0
ARC
  5
D7EB
  8
AM_0
 10
222.54040590895281
 20
428.20070659839621
 30
0.0
 40
1.000035999999999
 50
269.50071600000012
 51
90.499290000001622
  0
ARC
  5
D7EC
  8
AM_0
 10
222.54040590895281
 20
438.2007265983961
 30
0.0
 40
1.000035999999999
 50
269.50071600000012
 51
90.499290000001622
  0
ARC
  5
D7ED
  8
AM_0
 10
223.8217159089528
 20
438.19573659839602
 30
0.0
 40
1.265004
 50
270.00000299999761
 51
90.0
  0
ARC
  5
D7EE
  8
AM_0
 10
223.8217159089528
 20
448.2007265983961
 30
0.0
 40
1.270003999999999
 50
270.00000299999761
 51
90.0
  0
ARC
  5
D7EF
  8
AM_0
 10
222.54040590895281
 20
448.2007265983961
 30
0.0
 40
1.000035999999999
 50
269.50071600000012
 51
90.499290000001622
  0
ARC
  5
D7F5
  8
AM_0
 10
155.59585590895281
 20
507.10985159839601
 30
0.0
 40
2.0008759
 50
0.025110000002395
 51
89.9748899999976
  0
ARC
  5
D7F6
  8
AM_0
 10
155.59439590895281
 20
506.43838159839589
 30
0.0
 40
2.002332
 50
0.066740000001314
 51
89.933259999998697
  0
ARC
  5
D7F7
  8
AM_0
 10
155.5917059089528
 20
505.08571259839613
 30
0.0
 40
2.0050240000000001
 50
0.1434100000013043
 51
89.856589999998704
  0
LINE
  5
D7F8
  8
AM_0
 10
157.5967159089528
 20
507.11072159839608
 30
0.0
 11
157.5967159089528
 21
505.06071859839602
 31
0.0
  0
ARC
  5
D7F9
  8
AM_0
 10
223.7617259089528
 20
458.2107065983962
 30
0.0
 40
1.3300000000000001
 50
270.00000299999761
 51
90.0
  0
ARC
  5
D7FA
  8
AM_0
 10
222.54040590895281
 20
458.20070659839621
 30
0.0
 40
1.000035999999999
 50
269.50071600000012
 51
90.499290000001622
  0
ARC
  5
D7FB
  8
AM_0
 10
222.54168590895279
 20
468.20071659839618
 30
0.0
 40
1.0000040999999991
 50
270.00000299999761
 51
90.0
  0
ARC
  5
D7FC
  8
AM_0
 10
223.6317159089528
 20
468.22072659839608
 30
0.0
 40
1.4599999999999991
 50
270.00000299999761
 51
90.0
  0
ARC
  5
D7FD
  8
AM_0
 10
219.93853590895279
 20
478.20072659839622
 30
0.0
 40
1.000031899999998
 50
270.46929999999787
 51
89.530700000002156
  0
ARC
  5
D7FE
  8
AM_0
 10
223.4167159089528
 20
478.24572659839617
 30
0.0
 40
1.675
 50
269.99999700000228
 51
90.0
  0
LINE
  5
D7FF
  8
AM_0
 10
226.5967159089528
 20
480.35072659839619
 30
0.0
 11
235.59674590895281
 21
480.35072659839619
 31
0.0
  0
LINE
  5
D800
  8
AM_0
 10
223.40673590895281
 20
502.12073159839622
 30
0.0
 11
224.84674590895281
 21
495.42073459839611
 31
0.0
  0
LINE
  5
D801
  8
AM_0
 10
221.33673590895279
 20
503.58073059839597
 30
0.0
 11
224.79672590895279
 21
490.6607245983962
 31
0.0
  0
LINE
  5
D802
  8
AM_0
 10
226.30673590895279
 20
494.2307165983961
 30
0.0
 11
223.89673590895279
 21
494.2307165983961
 31
0.0
  0
ARC
  5
D803
  8
AM_0
 10
226.2420359089528
 20
491.04671859839618
 30
0.0
 40
1.495995999999999
 50
194.95233999999479
 51
270.17829300000022
  0
ARC
  5
D804
  8
AM_0
 10
226.3038059089528
 20
495.73005259839618
 30
0.0
 40
1.499328
 50
191.90615999999929
 51
270.11184899999989
  0
LINE
  5
D805
  8
AM_0
 10
227.5967159089528
 20
495.24072659839612
 30
0.0
 11
235.59674590895281
 21
495.24072659839612
 31
0.0
  0
ARC
  5
D806
  8
AM_0
 10
227.59619590895281
 20
494.24124559839589
 30
0.0
 40
0.9994760199999999
 50
89.970079999999669
 51
180.0299099999979
  0
LINE
  5
D807
  8
AM_0
 10
221.30670590895281
 20
503.70072559839599
 30
0.0
 11
226.5967159089528
 21
503.70072559839599
 31
0.0
  0
ARC
  5
D808
  8
AM_0
 10
219.4021359089528
 20
503.05630859839607
 30
0.0
 40
2.0044159999999991
 50
15.16665999999929
 51
89.868520000001183
  0
ARC
  5
D809
  8
AM_0
 10
221.44604590895281
 20
501.69418759839613
 30
0.0
 40
2.0065319999999991
 50
12.27313000000423
 51
89.980730000003206
  0
LINE
  5
D80A
  8
AM_0
 10
227.59671590895289
 20
507.20069159839579
 30
0.0
 11
235.59674590895281
 21
507.20069159839579
 31
0.0
  0
ARC
  5
D80B
  8
AM_0
 10
227.5968959089528
 20
506.20050059839599
 30
0.0
 40
1.000179999999999
 50
90.010320000000135
 51
179.98968999999451
  0
TEXT
  5
DB53
  8
AM_0
 10
519.96684876252402
 20
-43.088977746088631
 30
0.0
 40
10.0
  1
VC04-007MH～VC04-060MH
1001
ACAD
1000
MTEXTBEGIN
1070
    73
1070
     1
1070
    44
1040
1.0
1070
    74
1070
     0
1000
MTEXTEND
  0
VIEWPORT
  5
89
 67
     1
  8
0
 10
210.0
 20
148.5
 30
0.0
 40
420.0
 41
297.0
 68
    -1
 69
     1
1001
ACAD
1000
MVIEW
1002
{
1070
    16
1010
0.0
1020
0.0
1030
0.0
1010
0.0
1020
0.0
1030
1.0
1040
0.0
1040
297.0
1040
221.70154043645701
1040
148.5
1040
50.0
1040
0.0
1040
0.0
1070
     0
1070
   100
1070
     1
1070
     1
1070
     0
1070
     0
1070
     0
1070
     0
1040
0.0
1040
0.0
1040
0.0
1040
10.0
1040
10.0
1040
10.0
1040
10.0
1070
     0
1002
{
1002
}
1002
}
1001
GENIUS_GENOREF_13
1005
1B94
1001
GENIUS_GENSCREG_15
1000
PF
1040
1.0
1000
DF
1040
1.0
1000
MIN
1011
0.0
1021
0.0
1031
0.0
1021
0.0
1031
0.0
1000
MAX
1011
420.0
1021
0.0
1031
0.0
1021
297.0
1031
0.0
1000
FLAGS
1070
     4
  0
ENDSEC
  0
EOF
