  0
SECTION
  2
HEADER
  9
$ACADVER
  1
AC1009
  9
$INSBASE
 10
0.0
 20
0.0
 30
0.0
  9
$EXTMIN
 10
114.1238500814929
 20
168.08366547661851
 30
-0.0015258207003583
  9
$EXTMAX
 10
725.96207611852105
 20
555.71140574259994
 30
0.0000000349246037
  9
$LIMMIN
 10
0.0
 20
0.0
  9
$LIMMAX
 10
853.5
 20
555.00000000000011
  9
$ORTHOMODE
 70
     0
  9
$REGENMODE
 70
     1
  9
$FILLMODE
 70
     1
  9
$QTEXTMODE
 70
     0
  9
$MIRRTEXT
 70
     1
  9
$DRAGMODE
 70
     2
  9
$LTSCALE
 40
3.0
  9
$OSMODE
 70
   551
  9
$ATTMODE
 70
     1
  9
$TEXTSIZE
 40
2.5
  9
$TRACEWID
 40
1.0
  9
$TEXTSTYLE
  7
STANDARD
  9
$CLAYER
  8
AM_0
  9
$CELTYPE
  6
BYLAYER
  9
$CECOLOR
 62
   256
  9
$DIMSCALE
 40
3.0
  9
$DIMASZ
 40
2.5
  9
$DIMEXO
 40
1.0
  9
$DIMDLI
 40
7.0
  9
$DIMRND
 40
0.0
  9
$DIMDLE
 40
0.0
  9
$DIMEXE
 40
1.0
  9
$DIMTP
 40
0.1
  9
$DIMTM
 40
0.1000000001
  9
$DIMTXT
 40
2.5
  9
$DIMCEN
 40
0.0
  9
$DIMTSZ
 40
0.0
  9
$DIMTOL
 70
     0
  9
$DIMLIM
 70
     0
  9
$DIMTIH
 70
     0
  9
$DIMTOH
 70
     0
  9
$DIMSE1
 70
     0
  9
$DIMSE2
 70
     0
  9
$DIMTAD
 70
     3
  9
$DIMZIN
 70
     8
  9
$DIMBLK
  1

  9
$DIMASO
 70
     1
  9
$DIMSHO
 70
     1
  9
$DIMPOST
  1

  9
$DIMAPOST
  1
"
  9
$DIMALT
 70
     0
  9
$DIMALTD
 70
     2
  9
$DIMALTF
 40
0.0393701
  9
$DIMLFAC
 40
1.0
  9
$DIMTOFL
 70
     1
  9
$DIMTVP
 40
0.0
  9
$DIMTIX
 70
     0
  9
$DIMSOXD
 70
     0
  9
$DIMSAH
 70
     0
  9
$DIMBLK1
  1

  9
$DIMBLK2
  1

  9
$DIMSTYLE
  2
AM_JIS
  9
$DIMCLRD
 70
   256
  9
$DIMCLRE
 70
   256
  9
$DIMCLRT
 70
     4
  9
$DIMTFAC
 40
0.71
  9
$DIMGAP
 40
1.0
  9
$LUNITS
 70
     2
  9
$LUPREC
 70
     2
  9
$SKETCHINC
 40
1.0
  9
$FILLETRAD
 40
7.5
  9
$AUNITS
 70
     0
  9
$AUPREC
 70
     3
  9
$MENU
  1
.
  9
$ELEVATION
 40
0.0
  9
$PELEVATION
 40
0.0
  9
$THICKNESS
 40
0.0
  9
$LIMCHECK
 70
     0
  9
$BLIPMODE
 70
     0
  9
$CHAMFERA
 40
7.5
  9
$CHAMFERB
 40
7.5
  9
$SKPOLY
 70
     0
  9
$TDCREATE
 40
2452753.643349607
  9
$TDUPDATE
 40
2458543.4168116781
  9
$TDINDWG
 40
0.2466024537
  9
$TDUSRTIMER
 40
0.2466022569
  9
$USRTIMER
 70
     1
  9
$ANGBASE
 50
0.0
  9
$ANGDIR
 70
     0
  9
$PDMODE
 70
     0
  9
$PDSIZE
 40
0.0
  9
$PLINEWID
 40
0.0
  9
$COORDS
 70
     1
  9
$SPLFRAME
 70
     0
  9
$SPLINETYPE
 70
     6
  9
$SPLINESEGS
 70
     8
  9
$ATTDIA
 70
     1
  9
$ATTREQ
 70
     1
  9
$HANDLING
 70
     1
  9
$HANDSEED
  5
DC89
  9
$SURFTAB1
 70
     6
  9
$SURFTAB2
 70
     6
  9
$SURFTYPE
 70
     6
  9
$SURFU
 70
     6
  9
$SURFV
 70
     6
  9
$UCSNAME
  2

  9
$UCSORG
 10
0.0
 20
0.0
 30
0.0
  9
$UCSXDIR
 10
1.0
 20
0.0
 30
0.0
  9
$UCSYDIR
 10
0.0
 20
1.0
 30
0.0
  9
$PUCSNAME
  2

  9
$PUCSORG
 10
0.0
 20
0.0
 30
0.0
  9
$PUCSXDIR
 10
1.0
 20
0.0
 30
0.0
  9
$PUCSYDIR
 10
0.0
 20
1.0
 30
0.0
  9
$USERI1
 70
     0
  9
$USERI2
 70
     0
  9
$USERI3
 70
     0
  9
$USERI4
 70
     0
  9
$USERI5
 70
     0
  9
$USERR1
 40
0.0
  9
$USERR2
 40
0.0
  9
$USERR3
 40
0.0
  9
$USERR4
 40
0.0
  9
$USERR5
 40
0.0
  9
$WORLDVIEW
 70
     1
  9
$SHADEDGE
 70
     3
  9
$SHADEDIF
 70
    70
  9
$TILEMODE
 70
     1
  9
$MAXACTVP
 70
    48
  9
$PLIMCHECK
 70
     0
  9
$PEXTMIN
 10
1.0000000000000000E+020
 20
1.0000000000000000E+020
 30
1.0000000000000000E+020
  9
$PEXTMAX
 10
-1.0000000000000000E+020
 20
-1.0000000000000000E+020
 30
-1.0000000000000000E+020
  9
$PLIMMIN
 10
0.0
 20
0.0
  9
$PLIMMAX
 10
420.0
 20
297.0
  9
$UNITMODE
 70
     0
  9
$VISRETAIN
 70
     1
  9
$PLINEGEN
 70
     0
  9
$PSLTSCALE
 70
     1
  0
ENDSEC
  0
SECTION
  2
TABLES
  0
TABLE
  2
VPORT
 70
     1
  0
VPORT
  2
*ACTIVE
 70
     0
 10
0.0
 20
0.0
 11
1.0
 21
1.0
 12
420.042963100007
 22
361.89753560960918
 13
0.0
 23
0.0
 14
7.5
 24
7.5
 15
30.0
 25
30.0
 16
0.0
 26
0.0
 36
1.0
 17
0.0
 27
0.0
 37
0.0
 40
390.2888002678074
 41
1.7571592210767459
 42
50.0
 43
0.0
 44
0.0
 50
0.0
 51
0.0
 71
    16
 72
   100
 73
     1
 74
     1
 75
     0
 76
     0
 77
     0
 78
     0
  0
ENDTAB
  0
TABLE
  2
LTYPE
 70
    21
  0
LTYPE
  2
CONTINUOUS
 70
     0
  3
Solid line
 72
    65
 73
     0
 40
0.0
  0
LTYPE
  2
HIDDEN
 70
     0
  3
Hidden __ __ __ __ __ __ __ __ __ __ __ __ __ _
 72
    65
 73
     2
 40
9.5249999999999968
 49
6.3499999999999979
 49
-3.174999999999998
  0
LTYPE
  2
PHANTOM2
 70
     0
  3
Phantom (.5x) ___ _ _ ___ _ _ ___ _ _ ___ _ _
 72
    65
 73
     6
 40
31.75
 49
15.875
 49
-3.174999999999998
 49
3.174999999999998
 49
-3.174999999999998
 49
3.174999999999998
 49
-3.174999999999998
  0
LTYPE
  2
CENTER
 70
     0
  3
Center ____ _ ____ _ ____ _ ____ _ ____ _ ____
 72
    65
 73
     4
 40
50.799999999999997
 49
31.75
 49
-6.3499999999999979
 49
6.3499999999999979
 49
-6.3499999999999979
  0
LTYPE
  2
ACANSTGBM
 70
     0
  3
__ . . __ . .
 72
    65
 73
     6
 40
9.0
 49
4.0
 49
-1.0
 49
1.0
 49
-1.0
 49
1.0
 49
-1.0
  0
LTYPE
  2
ACANSTGLM
 70
     0
  3
_ _ _ _ _
 72
    65
 73
     2
 40
3.0
 49
2.0
 49
-1.0
  0
LTYPE
  2
GEN3B
 70
     0
  3
 - - - - -
 72
    65
 73
     2
 40
1.0
 49
0.5
 49
-0.5
  0
LTYPE
  2
GEN7A
 70
     0
  3
__ . __ . __
 72
    65
 73
     4
 40
7.375
 49
4.75
 49
-0.875
 49
0.875
 49
-0.875
  0
LTYPE
  2
AM_ISO02W050
 70
     0
  3
__ __ __ __ __ __ __ __ __ __ __ __ __ __ __
 72
    65
 73
     2
 40
7.5
 49
6.0
 49
-1.5
  0
LTYPE
  2
AM_ISO08W050
 70
     0
  3
____ . ____ . ____ . ____ . ____ . ____ . ____
 72
    65
 73
     4
 40
18.0
 49
12.0
 49
-1.5
 49
3.0
 49
-1.5
  0
LTYPE
  2
AM_ISO09W050
 70
     0
  3
_____ . . _____ . . _____ . . ____ .. ____
 72
    65
 73
     6
 40
22.5
 49
12.0
 49
-1.5
 49
3.0
 49
-1.5
 49
3.0
 49
-1.5
  0
LTYPE
  2
AMCONSTR
 70
     0
  3
_______________________
 72
    65
 73
     2
 40
9999.0
 49
9999.0
 49
0.0
  0
LTYPE
  2
AM_ISO02W050X2
 70
     0
  3
 _ _ _ _ _ _ _ _ _ _ _ _
 72
    65
 73
     2
 40
3.75
 49
3.0
 49
-0.75
  0
LTYPE
  2
AM_ISO08W050X2
 70
     0
  3
__ . __ . __ . __ . __ . __
 72
    65
 73
     4
 40
9.0
 49
6.0
 49
-0.75
 49
1.5
 49
-0.75
  0
LTYPE
  2
AMZIGZAG
 70
     0
  3
/\/-/\/-/\/-/\/-/\/-/\/
 72
    65
 73
     2
 40
11.0001
 49
0.0001
 49
-11.0
  0
LTYPE
  2
ACJISTGB
 70
     0
  3
__ . . __ . .
 72
    65
 73
     6
 40
9.0
 49
4.0
 49
-1.0
 49
1.0
 49
-1.0
 49
1.0
 49
-1.0
  0
LTYPE
  2
ACJISTGL
 70
     0
  3
_ _ _ _ _
 72
    65
 73
     2
 40
3.0
 49
2.0
 49
-1.0
  0
LTYPE
  2
ACISOWELD
 70
     0
  3
_ _ _ _ _
 72
    65
 73
     2
 40
2.0
 49
2.0
 49
-1.0
  0
LTYPE
  2
ACISOTGB
 70
     0
  3
__ . . __ . .
 72
    65
 73
     6
 40
9.0
 49
4.0
 49
-1.0
 49
1.0
 49
-1.0
 49
1.0
 49
-1.0
  0
LTYPE
  2
ACISOTGL
 70
     0
  3
_ _ _ _ _
 72
    65
 73
     2
 40
3.0
 49
2.0
 49
-1.0
  0
ENDTAB
  0
TABLE
  2
LAYER
 70
     8
  0
LAYER
  2
0
 70
     0
 62
     7
  6
CONTINUOUS
  0
LAYER
  2
ｽﾝﾎﾟｳｾﾝ
 70
     0
 62
     2
  6
CONTINUOUS
  0
LAYER
  2
DEFPOINTS
 70
     0
 62
     7
  6
CONTINUOUS
  0
LAYER
  2
ｶｸﾚｾﾝ2
 70
     0
 62
     3
  6
GEN3B
  0
LAYER
  2
ﾁｭｳｼﾝｾﾝ1
 70
     0
 62
     1
  6
GEN7A
  0
LAYER
  2
AM_0
 70
     0
 62
     7
  6
CONTINUOUS
  0
LAYER
  2
AM_0N
 70
     0
 62
     7
  6
CONTINUOUS
  0
LAYER
  2
AM_5
 70
     0
 62
     2
  6
CONTINUOUS
  0
ENDTAB
  0
TABLE
  2
STYLE
 70
     8
  0
STYLE
  2
STANDARD
 70
     0
 40
0.0
 41
0.8299999999999999
 50
0.0
 71
     0
 42
2.5
  3
txt.shx
  4
bigfont.shx
  0
STYLE
  2
ACANSTS
 70
     0
 40
1.0
 41
1.0
 50
0.0
 71
     0
 42
2.5
  3
romans.shx
  4
bigfont.shx
  0
STYLE
  2
ACANSGDT
 70
     0
 40
0.0
 41
1.0
 50
0.0
 71
     0
 42
2.5
  3
amgdtans.shx
  4

  0
STYLE
  2

 70
     1
 40
0.0
 41
1.0
 50
0.0
 71
     0
 42
2.5
  3
ltypeshp.shx
  4

  0
STYLE
  2
ACJISTS
 70
     0
 40
1.0
 41
1.0
 50
0.0
 71
     0
 42
2.5
  3
isocp.shx
  4
bigfont.shx
  0
STYLE
  2
ACJISGDT
 70
     0
 40
0.0
 41
1.0
 50
0.0
 71
     0
 42
2.5
  3
amgdt.shx
  4

  0
STYLE
  2
ACISOTS
 70
     0
 40
3.0
 41
1.0
 50
0.0
 71
     0
 42
2.5
  3
isocp.shx
  4
extfont.shx
  0
STYLE
  2
ACISOGDT
 70
     0
 40
0.0
 41
1.0
 50
0.0
 71
     0
 42
2.5
  3
amgdt.shx
  4

  0
ENDTAB
  0
TABLE
  2
VIEW
 70
    12
  0
VIEW
  2
GEN1
 70
     0
 40
95.824742268041234
 10
71.5
 20
137.08762886597941
 41
143.0
 11
0.0
 21
0.0
 31
1.0
 12
0.0
 22
0.0
 32
0.0
 42
50.0
 43
0.0
 44
0.0
 50
0.0
 71
     0
  0
VIEW
  2
GEN2
 70
     0
 40
95.824742268041234
 10
214.5
 20
137.08762886597941
 41
143.0
 11
0.0
 21
0.0
 31
1.0
 12
0.0
 22
0.0
 32
0.0
 42
50.0
 43
0.0
 44
0.0
 50
0.0
 71
     0
  0
VIEW
  2
GEN3
 70
     0
 40
95.824742268041234
 10
71.5
 20
47.912371134020603
 41
143.0
 11
0.0
 21
0.0
 31
1.0
 12
0.0
 22
0.0
 32
0.0
 42
50.0
 43
0.0
 44
0.0
 50
0.0
 71
     0
  0
VIEW
  2
GEN4
 70
     0
 40
95.824742268041234
 10
214.5
 20
47.912371134020603
 41
143.0
 11
0.0
 21
0.0
 31
1.0
 12
0.0
 22
0.0
 32
0.0
 42
50.0
 43
0.0
 44
0.0
 50
0.0
 71
     0
  0
VIEW
  2
GEN5
 70
     0
 40
95.824742268041234
 10
143.0
 20
92.500000000000057
 41
143.0
 11
0.0
 21
0.0
 31
1.0
 12
0.0
 22
0.0
 32
0.0
 42
50.0
 43
0.0
 44
0.0
 50
0.0
 71
     0
  0
VIEW
  2
GEN6
 70
     0
 40
191.64756804123709
 10
143.0
 20
92.5
 41
285.99714
 11
0.0
 21
0.0
 31
1.0
 12
0.0
 22
0.0
 32
0.0
 42
50.0
 43
0.0
 44
0.0
 50
0.0
 71
     0
  0
VIEW
  2
AM_VIEW1
 70
     0
 40
277.50000000000011
 10
249.64779005524869
 20
416.25000000000011
 41
499.29558011049721
 11
0.0
 21
0.0
 31
1.0
 12
0.0
 22
0.0
 32
0.0
 42
50.0
 43
0.0
 44
0.0
 50
0.0
 71
    16
  0
VIEW
  2
AM_VIEW2
 70
     0
 40
277.50000000000011
 10
603.85220994475117
 20
416.25000000000011
 41
499.29558011049721
 11
0.0
 21
0.0
 31
1.0
 12
0.0
 22
0.0
 32
0.0
 42
50.0
 43
0.0
 44
0.0
 50
0.0
 71
    16
  0
VIEW
  2
AM_VIEW3
 70
     0
 40
277.50000000000011
 10
249.64779005524869
 20
138.75
 41
499.29558011049721
 11
0.0
 21
0.0
 31
1.0
 12
0.0
 22
0.0
 32
0.0
 42
50.0
 43
0.0
 44
0.0
 50
0.0
 71
    16
  0
VIEW
  2
AM_VIEW4
 70
     0
 40
277.50000000000011
 10
603.85220994475117
 20
138.75
 41
499.29558011049721
 11
0.0
 21
0.0
 31
1.0
 12
0.0
 22
0.0
 32
0.0
 42
50.0
 43
0.0
 44
0.0
 50
0.0
 71
    16
  0
VIEW
  2
AM_VIEW5
 70
     0
 40
277.50000000000011
 10
426.75
 20
277.50000000000011
 41
499.2955801104971
 11
0.0
 21
0.0
 31
1.0
 12
0.0
 22
0.0
 32
0.0
 42
50.0
 43
0.0
 44
0.0
 50
0.0
 71
    16
  0
VIEW
  2
AM_VIEW6
 70
     0
 40
554.99445000000014
 10
426.75
 20
277.5
 41
998.5811743093924
 11
0.0
 21
0.0
 31
1.0
 12
0.0
 22
0.0
 32
0.0
 42
50.0
 43
0.0
 44
0.0
 50
0.0
 71
    16
  0
ENDTAB
  0
TABLE
  2
UCS
 70
     0
  0
ENDTAB
  0
TABLE
  2
APPID
 70
    96
  0
APPID
  2
ACAD
 70
     0
  0
APPID
  2
MCAD_NO_VIS
 70
     0
  0
APPID
  2
ACAD_TEMP_GRAPHIC
 70
     0
  0
APPID
  2
AD_DRAW
 70
     0
  0
APPID
  2
DESIGNERASSEMBLIES
 70
     0
  0
APPID
  2
ASURF_PCURVE_APPNAME
 70
     0
  0
APPID
  2
GENIUS_GE3SECT_13
 70
     0
  0
APPID
  2
GENIUS_GENCFG_13
 70
     0
  0
APPID
  2
GENIUS_GE3CFG0_13
 70
     0
  0
APPID
  2
GENIUS_GENCFG0_13
 70
     0
  0
APPID
  2
GENIUS_GENCFG1_13
 70
     0
  0
APPID
  2
GENIUS_GENCFG2_13
 70
     0
  0
APPID
  2
GENIUS_GENCFG3_13
 70
     0
  0
APPID
  2
GENIUS_GENCFG4_13
 70
     0
  0
APPID
  2
GENIUS_GEVCFG0_13
 70
     0
  0
APPID
  2
GENIUS_GENOENT_13
 70
     0
  0
APPID
  2
GENIUS_GENREC_14
 70
     0
  0
APPID
  2
GENIUS_GENODEF_13
 70
     0
  0
APPID
  2
GENIUS_GENOBJ-N-REC_13
 70
     0
  0
APPID
  2
GENIUS_GENHINW_13
 70
     0
  0
APPID
  2
GENIUS_FIRSTVISTXT_14
 70
     0
  0
APPID
  2
GENIUS_GENOBJ-N-LEADER_13
 70
     0
  0
APPID
  2
GENIUS_GENOREF_13
 70
     0
  0
APPID
  2
GENIUS_GENOLIS_13
 70
     0
  0
APPID
  2
GEV_VCCNULL_SWITCH_OFF
 70
     0
  0
APPID
  2
GENIUS_GENDTOL_13
 70
     0
  0
APPID
  2
GENIUS_GEFCFG0_13
 70
     0
  0
APPID
  2
GENIUS_GENOBJ-N-TIT_13
 70
     0
  0
APPID
  2
GENIUS_GENTITLE_13
 70
     0
  0
APPID
  2
GENIUS_GENZVEED_13
 70
     0
  0
APPID
  2
GENIUS_GENOBJ-N-SDF_13
 70
     0
  0
APPID
  2
GENIUS_GENSCREG_13
 70
     0
  0
APPID
  2
GENIUS_DUMCFG0_13
 70
     0
  0
APPID
  2
GEVID936201362
 70
     0
  0
APPID
  2
GEVDC
 70
     0
  0
APPID
  2
GEVCON
 70
     0
  0
APPID
  2
VCC
 70
     0
  0
APPID
  2
GEVPT
 70
     0
  0
APPID
  2
GEVIT
 70
     0
  0
APPID
  2
GENBH
 70
     0
  0
APPID
  2
GEVMK
 70
     0
  0
APPID
  2
GENIUS_GENBH_13
 70
     0
  0
APPID
  2
GENIUS_GENOBJ-NBEHI-BHF_13
 70
     0
  0
APPID
  2
GENIUS_GENOBJ-NBEHI-BHB_13
 70
     0
  0
APPID
  2
GENIUS_GENOBJ-F-DESC_13
 70
     0
  0
APPID
  2
GENIUS_GEFDESC_14
 70
     0
  0
APPID
  2
GENIUS_GENOBJ-F-PART_13
 70
     0
  0
APPID
  2
GENIUS_GEFSTDP_13
 70
     0
  0
APPID
  2
GENIUS_GEFPARTINS_13
 70
     0
  0
APPID
  2
GENIUS_GENTRA_14
 70
     0
  0
APPID
  2
GENIUS_GENINF13_13
 70
     0
  0
APPID
  2
GENIUS_GENOBJ-N-INFOPT_13
 70
     0
  0
APPID
  2
GENIUS_GENOBJ-N-RSSYM_13
 70
     0
  0
APPID
  2
GENIUS_GENSYMENT_13
 70
     0
  0
APPID
  2
GENIUS_GENSCSYM_13
 70
     0
  0
APPID
  2
GENIUS_GEFINFNAM_13
 70
     0
  0
APPID
  2
GENIUS_GENSCREG_15
 70
     0
  0
APPID
  2
GENIUS_GENOBJ-N-CEN_13
 70
     0
  0
APPID
  2
GENIUS_GENOBJ-N-CRS_13
 70
     0
  0
APPID
  2
GENIUS_GENOBJ-N-CRC_13
 70
     0
  0
APPID
  2
GENIUS_GENCRC_14
 70
     0
  0
APPID
  2
GEVID942827039
 70
     0
  0
APPID
  2
GEVID942827040
 70
     0
  0
APPID
  2
GEVID942827041
 70
     0
  0
APPID
  2
GENIUS_GENOBJ-F-SCPASSM_13
 70
     0
  0
APPID
  2
GENIUS_GENDIMSH_14
 70
     0
  0
APPID
  2
GENIUS_GENFIL_13
 70
     0
  0
APPID
  2
GENIUS_GENOBJ-N-CHA_13
 70
     0
  0
APPID
  2
GENIUS_GENOBJ-N-FIL_13
 70
     0
  0
APPID
  2
GEVID942827042
 70
     0
  0
APPID
  2
GEVID946020473
 70
     0
  0
APPID
  2
GEVID946020474
 70
     0
  0
APPID
  2
GEVID946020475
 70
     0
  0
APPID
  2
GENIUS_GENOBJ-N-HTC_13
 70
     0
  0
APPID
  2
GENIUS_GENHATCH_13
 70
     0
  0
APPID
  2
GEVID948854295
 70
     0
  0
APPID
  2
GEVID939402019
 70
     0
  0
APPID
  2
GEVID952919491
 70
     0
  0
APPID
  2
GEVID952919492
 70
     0
  0
APPID
  2
GENIUS_GEFWELD_13
 70
     0
  0
APPID
  2
GENIUS_GENOBJ-F-WELS_13
 70
     0
  0
APPID
  2
GEVID952919493
 70
     0
  0
APPID
  2
GENIUS_GENOBJ-N-RSBK_13
 70
     0
  0
APPID
  2
GENIUS_GENOBJ-N-LIB_13
 70
     0
  0
APPID
  2
GENIUS_GENSCALE_13
 70
     0
  0
APPID
  2
GEVID986376691
 70
     0
  0
APPID
  2
ACATTRIBSERVICES
 70
     0
  0
APPID
  2
DCO15
 70
     0
  0
APPID
  2
ACADM_DIM_EDIT
 70
     0
  0
APPID
  2
AMDT_DM_ADJ
 70
     0
  0
APPID
  2
ACAD_MLEADERVER
 70
     0
  0
APPID
  2
ACAD_DSTYLE_DIMBREAK
 70
     0
  0
APPID
  2
ACAD_DSTYLE_DIMJAG
 70
     0
  0
APPID
  2
ACAD_NAV_VCDISPLAY
 70
     0
  0
APPID
  2
ACADANNOPO
 70
     0
  0
APPID
  2
ACAD_EXEMPT_FROM_CAD_STANDARDS
 70
     0
  0
ENDTAB
  0
TABLE
  2
DIMSTYLE
 70
    16
  0
DIMSTYLE
  2
STANDARD
 70
     0
  3

  4

  5

  6

  7

 40
1.0
 41
0.18
 42
0.0625
 43
0.38
 44
0.18
 45
0.0
 46
0.0
 47
0.0
 48
0.0
140
0.18
141
0.09
142
0.0
143
25.399999999999999
144
1.0
145
0.0
146
1.0
147
0.09
 71
     0
 72
     0
 73
     1
 74
     1
 75
     0
 76
     0
 77
     0
 78
     0
170
     0
171
     2
172
     0
173
     0
174
     0
175
     0
176
     0
177
     0
178
     0
  0
DIMSTYLE
  2
AM_JIS
 70
     0
  3

  4
"
  5

  6

  7

 40
1.0
 41
2.5
 42
1.0
 43
7.0
 44
1.0
 45
0.0
 46
0.0
 47
0.1
 48
0.1000000001
140
2.5
141
0.0
142
0.0
143
0.0393701
144
1.0
145
0.0
146
0.71
147
1.0
 71
     0
 72
     0
 73
     0
 74
     0
 75
     0
 76
     0
 77
     3
 78
     8
170
     0
171
     2
172
     1
173
     0
174
     0
175
     0
176
   256
177
   256
178
     4
  0
DIMSTYLE
  2
AM_JIS$3
 70
     0
  3

  4
"
  5

  6

  7

 40
1.0
 41
2.5
 42
1.0
 43
7.0
 44
1.0
 45
0.0
 46
0.0
 47
0.1
 48
0.1000000001
140
2.5
141
0.0
142
0.0
143
0.0393701
144
1.0
145
0.0
146
0.71
147
1.0
 71
     0
 72
     0
 73
     0
 74
     1
 75
     0
 76
     0
 77
     3
 78
     8
170
     0
171
     2
172
     0
173
     0
174
     0
175
     0
176
   256
177
   256
178
     4
  0
DIMSTYLE
  2
AM_JIS$4
 70
     0
  3

  4
"
  5

  6

  7

 40
1.0
 41
2.5
 42
1.0
 43
7.0
 44
1.0
 45
0.0
 46
0.0
 47
0.1
 48
0.1000000001
140
2.5
141
0.0
142
0.0
143
0.0393701
144
1.0
145
0.0
146
0.71
147
1.0
 71
     0
 72
     0
 73
     0
 74
     0
 75
     0
 76
     0
 77
     3
 78
     8
170
     0
171
     2
172
     0
173
     0
174
     0
175
     0
176
   256
177
   256
178
     4
  0
DIMSTYLE
  2
AM_JIS$6
 70
     0
  3

  4
"
  5

  6

  7

 40
1.0
 41
2.5
 42
1.0
 43
7.0
 44
1.0
 45
0.0
 46
0.0
 47
0.1
 48
0.1000000001
140
2.5
141
0.0
142
0.0
143
0.0393701
144
1.0
145
0.0
146
0.71
147
1.0
 71
     0
 72
     0
 73
     0
 74
     0
 75
     0
 76
     0
 77
     0
 78
     8
170
     0
171
     2
172
     1
173
     0
174
     0
175
     0
176
   256
177
   256
178
     4
  0
DIMSTYLE
  2
AM_JIS$7
 70
     0
  3

  4
"
  5

  6

  7

 40
1.0
 41
2.5
 42
1.0
 43
7.0
 44
1.0
 45
0.0
 46
0.0
 47
0.1
 48
0.1000000001
140
2.5
141
0.0
142
0.0
143
0.0393701
144
1.0
145
0.0
146
0.71
147
1.0
 71
     0
 72
     0
 73
     0
 74
     0
 75
     0
 76
     0
 77
     3
 78
     8
170
     0
171
     2
172
     1
173
     0
174
     0
175
     0
176
   256
177
   256
178
     4
  0
DIMSTYLE
  2
AM_JIS$SF
 70
     0
  3

  4
"
  5
OPEN30
  6
OPEN30
  7
OPEN30
 40
1.0
 41
2.5
 42
1.0
 43
10.0
 44
1.0
 45
0.0
 46
0.0
 47
0.1
 48
0.1
140
3.5
141
0.0
142
0.0
143
0.0393701
144
1.0
145
0.0
146
0.71
147
1.5
 71
     0
 72
     0
 73
     0
 74
     0
 75
     1
 76
     1
 77
     3
 78
     8
170
     0
171
     2
172
     1
173
     0
174
     0
175
     0
176
   256
177
   256
178
     4
  0
DIMSTYLE
  2
AM_JIS$SH
 70
     0
  3

  4
"
  5

  6
NONE
  7

 40
1.0
 41
2.5
 42
1.0
 43
10.0
 44
1.0
 45
0.0
 46
0.0
 47
0.1
 48
0.1
140
3.5
141
0.0
142
0.0
143
0.0393701
144
1.0
145
0.0
146
0.71
147
1.5
 71
     0
 72
     0
 73
     0
 74
     0
 75
     1
 76
     0
 77
     3
 78
     8
170
     0
171
     2
172
     1
173
     1
174
     0
175
     0
176
   256
177
   256
178
     4
  0
DIMSTYLE
  2
AM_ISO
 70
     0
  3

  4
"
  5

  6

  7

 40
1.0
 41
2.5
 42
1.0
 43
10.0
 44
1.0
 45
0.0
 46
0.0
 47
0.0
 48
0.000000001
140
3.0
141
0.0
142
0.0
143
0.0393701
144
1.0
145
0.0
146
0.71
147
1.299999999999998
 71
     1
 72
     0
 73
     0
 74
     0
 75
     0
 76
     0
 77
     1
 78
     8
170
     0
171
     2
172
     1
173
     0
174
     0
175
     0
176
   256
177
   256
178
     4
  0
DIMSTYLE
  2
AM_ISO$3
 70
     0
  3

  4
"
  5

  6

  7

 40
1.0
 41
2.5
 42
1.0
 43
10.0
 44
1.0
 45
0.0
 46
0.0
 47
0.0
 48
0.000000001
140
2.5
141
0.0
142
0.0
143
0.0393701
144
1.0
145
0.0
146
0.71
147
1.299999999999998
 71
     1
 72
     0
 73
     0
 74
     1
 75
     0
 76
     0
 77
     1
 78
     8
170
     0
171
     2
172
     0
173
     0
174
     0
175
     0
176
   256
177
   256
178
     4
  0
DIMSTYLE
  2
AM_ISO$4
 70
     0
  3

  4
"
  5

  6

  7

 40
1.0
 41
2.5
 42
1.0
 43
10.0
 44
1.0
 45
0.0
 46
0.0
 47
0.0
 48
0.000000001
140
2.5
141
0.0
142
0.0
143
0.0393701
144
1.0
145
0.0
146
0.71
147
1.299999999999998
 71
     1
 72
     0
 73
     0
 74
     1
 75
     0
 76
     0
 77
     1
 78
     8
170
     0
171
     2
172
     0
173
     0
174
     0
175
     0
176
   256
177
   256
178
     4
  0
DIMSTYLE
  2
AM_ISO$6
 70
     0
  3

  4
"
  5

  6

  7

 40
1.0
 41
2.5
 42
1.0
 43
10.0
 44
1.0
 45
0.0
 46
0.0
 47
0.0
 48
0.000000001
140
2.5
141
0.0
142
0.0
143
0.0393701
144
1.0
145
0.0
146
0.71
147
1.299999999999998
 71
     1
 72
     0
 73
     0
 74
     0
 75
     0
 76
     0
 77
     0
 78
     8
170
     0
171
     2
172
     1
173
     0
174
     0
175
     0
176
   256
177
   256
178
     4
  0
DIMSTYLE
  2
AM_ISO$7
 70
     0
  3

  4
"
  5

  6

  7

 40
1.0
 41
2.5
 42
1.0
 43
10.0
 44
1.0
 45
0.0
 46
0.0
 47
0.0
 48
0.000000001
140
2.5
141
0.0
142
0.0
143
0.0393701
144
1.0
145
0.0
146
0.71
147
1.299999999999998
 71
     1
 72
     0
 73
     0
 74
     0
 75
     0
 76
     0
 77
     1
 78
     8
170
     0
171
     2
172
     1
173
     0
174
     0
175
     0
176
   256
177
   256
178
     4
  0
DIMSTYLE
  2
AM_ISO$SF
 70
     0
  3

  4
"
  5

  6

  7

 40
1.0
 41
2.5
 42
1.0
 43
10.0
 44
1.0
 45
0.0
 46
0.0
 47
0.1
 48
0.1
140
3.5
141
0.0
142
0.0
143
0.0393701
144
1.0
145
0.0
146
0.71
147
1.5
 71
     0
 72
     0
 73
     0
 74
     0
 75
     1
 76
     1
 77
     1
 78
     8
170
     0
171
     2
172
     1
173
     0
174
     0
175
     0
176
   256
177
   256
178
     4
  0
DIMSTYLE
  2
AM_ISO$SH
 70
     0
  3

  4
"
  5

  6
GENAXEH
  7

 40
1.0
 41
2.5
 42
1.0
 43
10.0
 44
1.0
 45
0.0
 46
0.0
 47
0.1
 48
0.1
140
3.5
141
0.0
142
0.0
143
0.0393701
144
2.0
145
0.0
146
0.71
147
1.5
 71
     0
 72
     0
 73
     0
 74
     0
 75
     1
 76
     1
 77
     1
 78
     8
170
     0
171
     2
172
     1
173
     1
174
     0
175
     0
176
   256
177
   256
178
     4
  0
DIMSTYLE
  2
AM_JIS$0
 70
     0
  3

  4
"
  5

  6

  7

 40
1.0
 41
2.5
 42
1.0
 43
7.0
 44
1.0
 45
0.0
 46
0.0
 47
0.1
 48
0.1000000001
140
2.5
141
0.0
142
0.0
143
0.0393701
144
1.0
145
0.0
146
0.71
147
1.0
 71
     0
 72
     0
 73
     0
 74
     0
 75
     0
 76
     0
 77
     3
 78
     8
170
     0
171
     2
172
     1
173
     0
174
     0
175
     0
176
   256
177
   256
178
     4
  0
ENDTAB
  0
ENDSEC
  0
SECTION
  2
BLOCKS
  0
BLOCK
  8
0
  2
$MODEL_SPACE
 70
     0
 10
0.0
 20
0.0
 30
0.0
  3
$MODEL_SPACE
  1

  0
ENDBLK
  5
1A
  8
0
  0
BLOCK
 67
     1
  8
0
  2
$PAPER_SPACE
 70
     0
 10
0.0
 20
0.0
 30
0.0
  3
$PAPER_SPACE
  1

  0
ENDBLK
  5
17
 67
     1
  8
0
  0
BLOCK
  8
0
  2
_OPEN30
 70
     0
 10
0.0
 20
0.0
 30
0.0
  3
_OPEN30
  1

  0
LINE
  5
21C5
  8
0
 62
     0
 10
-1.0
 20
0.26794919
 30
0.0
 11
0.0
 21
0.0
 31
0.0
  0
LINE
  5
21C6
  8
0
 62
     0
 10
0.0
 20
0.0
 30
0.0
 11
-1.0
 21
-0.26794919
 31
0.0
  0
LINE
  5
21C7
  8
0
 62
     0
 10
0.0
 20
0.0
 30
0.0
 11
-1.0
 21
0.0
 31
0.0
  0
ENDBLK
  5
21C9
  8
0
  0
BLOCK
  8
0
  2
GENAXEH
 70
     0
 10
0.0
 20
0.0
 30
0.0
  3
GENAXEH
  1

  0
LINE
  5
21D0
  8
0
 10
-1.0
 20
0.0
 30
0.0
 11
1.0
 21
0.0
 31
0.0
  0
ENDBLK
  5
21D2
  8
0
  0
BLOCK
  8
0
  2
_NONE
 70
     0
 10
0.0
 20
0.0
 30
0.0
  3
_NONE
  1

  0
ENDBLK
  5
8193
  8
0
  0
ENDSEC
  0
SECTION
  2
ENTITIES
  0
POINT
  5
1B94
  8
0
 10
0.0
 20
0.0
 30
0.0
1001
GENIUS_GENODEF_13
1002
{
1000
HIER
1070
     1
1002
}
1002
{
1000
MANEDIT
1070
     0
1002
}
1002
{
1000
NOSEL
1070
     0
1002
}
1002
{
1000
BEHIND
1070
     0
1002
}
1002
{
1000
REACTOR
1002
}
1001
GENIUS_GENOBJ-N-SDF_13
1002
{
1000
OWNER
1000
GEN
1002
}
1001
GENIUS_GENOENT_13
1002
{
1000
MYREF
1005
1B94
1002
}
1002
{
1000
GRP
1005
0
1002
}
1001
GENIUS_GENOLIS_13
1002
{
1000
ENT
1005
89
1002
}
  0
LINE
  5
8809
  8
AM_0
 10
287.18501253070542
 20
214.58932958584219
 30
0.0
 11
404.18501595797238
 21
214.58932958584219
 31
0.0
  0
LINE
  5
880A
  8
AM_0
 10
287.18501253070542
 20
316.58933262567899
 30
0.0
 11
404.18501595797238
 21
316.58933262567888
 31
0.0
  0
LINE
  5
880B
  8
AM_0
 10
303.18501253070542
 20
220.5893297646561
 30
0.0
 11
386.1850159579725
 21
220.5893297646561
 31
0.0
  0
LINE
  5
880C
  8
AM_0
 10
303.18501253070542
 20
310.58933244686523
 30
0.0
 11
386.1850159579725
 21
310.58933244686523
 31
0.0
  0
LINE
  5
880D
  8
ﾁｭｳｼﾝｾﾝ1
 10
418.18501628579799
 20
265.58933110576049
 30
0.0
 11
114.1850122028799
 21
265.58933110576049
 31
0.0
  0
LINE
  5
880E
  8
AM_0
 10
222.6789086872547
 20
192.58933110576049
 30
0.0
 11
222.6789086872547
 21
177.08933110576049
 31
0.0
  0
ARC
  5
880F
  8
AM_0
 10
158.17890868725459
 20
187.58933110576049
 30
0.0
 40
7.4999999999999956
 50
270.0
 51
0.0
  0
LINE
  5
8810
  8
AM_0
 10
145.67890868725459
 20
192.58933110576049
 30
0.0
 11
145.67890868725459
 21
177.08933110576049
 31
0.0
  0
ARC
  5
8811
  8
AM_0
 10
156.17890868725459
 20
187.58933110576049
 30
0.0
 40
7.499999999999992
 50
180.0
 51
270.0
  0
LINE
  5
8812
  8
AM_0
 10
210.48290868725471
 20
173.08933110576049
 30
0.0
 11
174.87490868725479
 21
173.08933110576049
 31
0.0
  0
LINE
  5
8813
  8
AM_0
 10
221.67890868725459
 20
176.08933110576049
 30
0.0
 11
146.67890868725459
 21
176.08933110576049
 31
0.0
  0
ARC
  5
8814
  8
AM_0
 10
146.67890868725459
 20
177.08933110576049
 30
0.0
 40
1.0
 50
180.0
 51
270.0
  0
LINE
  5
8815
  8
AM_0
 10
174.87490868725479
 20
173.08933110576049
 30
0.0
 11
169.68613317705169
 21
176.08933110576049
 31
0.0
  0
LINE
  5
8816
  8
AM_0
 10
215.67890868725459
 20
176.08933110576049
 30
0.0
 11
210.48290868725471
 21
173.08933110576049
 31
0.0
  0
ARC
  5
8817
  8
AM_0
 10
221.67890868725459
 20
177.08933110576029
 30
0.0
 40
1.0
 50
270.0
 51
0.0
  0
LINE
  5
8818
  8
AM_0
 10
127.6789086872549
 20
318.58933110576049
 30
0.0
 11
135.67890868725479
 21
318.58933110576049
 31
0.0
  0
LINE
  5
8819
  8
AM_0
 10
128.3789186872549
 20
308.77927110576047
 30
0.0
 11
134.60889868725491
 21
308.77927110576047
 31
0.0
  0
LINE
  5
881A
  8
AM_0
 10
128.3789186872549
 20
222.3993811057606
 30
0.0
 11
134.60889868725491
 21
222.3993811057606
 31
0.0
  0
LINE
  5
881B
  8
AM_0
 10
127.6789086872549
 20
212.58933110576049
 30
0.0
 11
135.67890868725479
 21
212.58933110576049
 31
0.0
  0
LINE
  5
881C
  8
AM_0
 10
123.4488686872549
 20
307.43936110576061
 30
0.0
 11
122.1688986872549
 21
306.68936110576061
 31
0.0
  0
ARC
  5
881D
  8
AM_0
 10
125.67658868725481
 20
306.57700110576047
 30
0.0
 40
1.002353
 50
0.1343268199984526
 51
89.865672999999376
  0
LINE
  5
881E
  8
AM_0
 10
126.6789086872549
 20
315.58933110576049
 30
0.0
 11
126.6789086872549
 21
215.58933110576049
 31
0.0
  0
LINE
  5
881F
  8
AM_0
 10
127.6789086872549
 20
318.58933110576049
 30
0.0
 11
127.6789086872549
 21
212.58933110576049
 31
0.0
  0
LINE
  5
8820
  8
AM_0
 10
121.6789086872549
 20
313.60935110576042
 30
0.0
 11
121.6789086872549
 21
270.58933110576049
 31
0.0
  0
LINE
  5
8821
  8
AM_0
 10
121.6789086872549
 20
217.56931110576039
 30
0.0
 11
121.6789086872549
 21
260.58933110576049
 31
0.0
  0
LINE
  5
8822
  8
AM_0
 10
123.4589386872547
 20
219.20932110576049
 30
0.0
 11
122.2089386872547
 21
219.86932110576049
 31
0.0
  0
ARC
  5
8823
  8
AM_0
 10
122.6776886872547
 20
219.71286110576051
 30
0.0
 40
0.9987969999999998
 50
179.62728000000101
 51
238.70795000000021
  0
ARC
  5
8824
  8
AM_0
 10
125.6748186872547
 20
220.0934811057605
 30
0.0
 40
1.0041199999999999
 50
270.23460999999998
 51
359.76539000000002
  0
LINE
  5
8825
  8
AM_0
 10
123.44892868725481
 20
215.9793411057604
 30
0.0
 11
122.1789686872547
 21
216.70932110576049
 31
0.0
  0
LINE
  5
8826
  8
AM_0
 10
123.4688886872549
 20
217.09931110576039
 30
0.0
 11
122.2288986872548
 21
217.72931110576039
 31
0.0
  0
LINE
  5
8827
  8
AM_0
 10
123.4389786872547
 20
218.08933110576049
 30
0.0
 11
122.15894868725481
 21
218.8593511057604
 31
0.0
  0
ARC
  5
8828
  8
AM_0
 10
122.6746386872549
 20
218.6197211057605
 30
0.0
 40
0.9956849800000001
 50
180.02113
 51
243.4091400000006
  0
ARC
  5
8829
  8
AM_0
 10
122.676528687255
 20
217.5739411057605
 30
0.0
 40
0.9976310099999999
 50
180.2678099999986
 51
240.0792399999994
  0
LINE
  5
882A
  8
AM_0
 10
126.6789086872549
 20
215.58933110576049
 30
0.0
 11
127.6789086872549
 21
215.58933110576049
 31
0.0
  0
LINE
  5
882B
  8
AM_0
 10
123.6789086872549
 20
216.08933110576049
 30
0.0
 11
123.6789086872549
 21
216.6193611057605
 31
0.0
  0
ARC
  5
882C
  8
AM_0
 10
123.9596086872547
 20
216.8404211057605
 30
0.0
 40
1.001123999999999
 50
239.32781999999969
 51
269.38767999999868
  0
LINE
  5
882D
  8
AM_0
 10
123.94892868725481
 20
215.83933110576049
 30
0.0
 11
126.1789086872548
 21
215.83933110576049
 31
0.0
  0
ARC
  5
882E
  8
AM_0
 10
123.9340986872547
 20
220.08994110576049
 30
0.0
 40
1.0006820000000001
 50
241.65062000000049
 51
269.70392999999888
  0
ARC
  5
882F
  8
AM_0
 10
123.9503286872549
 20
218.9529711057605
 30
0.0
 40
1.003743999999998
 50
239.37112999999741
 51
270.49190000000061
  0
ARC
  5
8830
  8
AM_0
 10
123.9247586872546
 20
217.98862110576039
 30
0.0
 40
0.9993420200000001
 50
242.86199999999801
 51
269.66546000000159
  0
LINE
  5
8831
  8
AM_0
 10
123.6789086872549
 20
218.18930110576051
 30
0.0
 11
123.6789086872549
 21
218.73935110576039
 31
0.0
  0
LINE
  5
8832
  8
AM_0
 10
123.9188986872549
 20
216.98935110576039
 30
0.0
 11
126.1789086872548
 21
216.98935110576039
 31
0.0
  0
LINE
  5
8833
  8
AM_0
 10
123.9289086872549
 20
219.08933110576049
 30
0.0
 11
125.6789086872549
 21
219.08933110576049
 31
0.0
  0
ARC
  5
8834
  8
AM_0
 10
126.1793986872548
 20
215.33981110576039
 30
0.0
 40
0.49952301
 50
359.9452300000014
 51
90.054773999999625
  0
LINE
  5
8835
  8
AM_0
 10
123.9589386872548
 20
217.94931110576039
 30
0.0
 11
126.6789086872549
 21
217.94931110576039
 31
0.0
  0
ARC
  5
8836
  8
AM_0
 10
126.1755486872547
 20
217.4927711057604
 30
0.0
 40
0.5033929900000002
 50
270.38491000000062
 51
359.61509999999811
  0
LINE
  5
8837
  8
AM_0
 10
123.428848687255
 20
222.62930110576039
 30
0.0
 11
122.12885868725481
 21
223.47931110576039
 31
0.0
  0
LINE
  5
8838
  8
AM_0
 10
123.44892868725481
 20
223.73938110576049
 30
0.0
 11
122.1689586872547
 21
224.48935110576039
 31
0.0
  0
ARC
  5
8839
  8
AM_0
 10
122.6766486872549
 20
220.75058110576049
 30
0.0
 40
0.9977070099999998
 50
180.074020000004
 51
242.04481000000081
  0
ARC
  5
883A
  8
AM_0
 10
122.6779986872549
 20
224.31406110576049
 30
0.0
 40
0.9990889999999998
 50
179.6950899999965
 51
236.66209000000109
  0
LINE
  5
883B
  8
AM_0
 10
122.1688986872549
 20
224.4893211057605
 30
0.0
 11
122.14887868725501
 21
224.4993011057604
 31
0.0
  0
ARC
  5
883C
  8
AM_0
 10
122.6773886872548
 20
225.34860110576051
 30
0.0
 40
0.9984580299999999
 50
179.95957999999851
 51
239.3865699999977
  0
ARC
  5
883D
  8
AM_0
 10
122.6773886872548
 20
225.34860110576051
 30
0.0
 40
0.9984580299999999
 50
179.95957999999851
 51
239.3865699999977
  0
ARC
  5
883E
  8
AM_0
 10
123.9716986872548
 20
223.4698211057605
 30
0.0
 40
1.000521999999999
 50
237.1461799999995
 51
270.41344000000038
  0
ARC
  5
883F
  8
AM_0
 10
123.942278687255
 20
224.61032110576051
 30
0.0
 40
1.001044999999998
 50
240.47186999999951
 51
270.37970999999948
  0
LINE
  5
8840
  8
AM_0
 10
123.6789086872549
 20
222.75937110576041
 30
0.0
 11
123.6789086872549
 21
223.22934110576051
 31
0.0
  0
LINE
  5
8841
  8
AM_0
 10
123.94892868725481
 20
223.6093511057604
 30
0.0
 11
125.6789086872549
 21
223.6093511057604
 31
0.0
  0
LINE
  5
8842
  8
AM_0
 10
123.9789586872547
 20
222.46933110576049
 30
0.0
 11
126.6789086872549
 21
222.46933110576049
 31
0.0
  0
ARC
  5
8843
  8
AM_0
 10
125.6764686872546
 20
224.61179110576049
 30
0.0
 40
1.002470999999999
 50
270.14107000000013
 51
359.85892999999987
  0
ARC
  5
8844
  8
AM_0
 10
125.6756786872548
 20
224.61606110576039
 30
0.0
 40
1.0032760000000001
 50
334.19810000000479
 51
359.61811000000478
  0
LINE
  5
8845
  8
AM_0
 10
123.4889686872546
 20
229.97937110576049
 30
0.0
 11
122.2889586872549
 21
230.49939110576051
 31
0.0
  0
LINE
  5
8846
  8
AM_0
 10
123.5388986872548
 20
231.8893111057605
 30
0.0
 11
122.3889286872548
 21
232.24933110576049
 31
0.0
  0
ARC
  5
8847
  8
AM_0
 10
122.6753086872548
 20
233.2037111057605
 30
0.0
 40
0.99638802
 50
180.24990999999889
 51
253.29664000000031
  0
ARC
  5
8848
  8
AM_0
 10
122.67542868725501
 20
231.41782110576051
 30
0.0
 40
0.9965090199999998
 50
179.9137499999965
 51
247.17844999999909
  0
LINE
  5
8849
  8
AM_0
 10
123.6789086872549
 20
230.19931110576039
 30
0.0
 11
123.6789086872549
 21
231.25937110576049
 31
0.0
  0
ARC
  5
884A
  8
AM_0
 10
123.88190868725481
 20
230.90451110576041
 30
0.0
 40
1.005233
 50
246.98639000000031
 51
269.82924999999938
  0
LINE
  5
884B
  8
AM_0
 10
123.8789186872549
 20
229.89938110576051
 30
0.0
 11
125.9788986872548
 21
229.89938110576051
 31
0.0
  0
ARC
  5
884C
  8
AM_0
 10
123.8194786872549
 20
232.85202110576051
 30
0.0
 40
1.002699
 50
253.752720000002
 51
270.54064000000108
  0
LINE
  5
884D
  8
AM_0
 10
123.82893868725461
 20
231.8493411057604
 30
0.0
 11
125.6789086872549
 21
231.8493411057604
 31
0.0
  0
ARC
  5
884E
  8
AM_0
 10
125.6755486872547
 20
232.85263110576051
 30
0.0
 40
1.003352
 50
270.19111000000021
 51
359.80890000000107
  0
ARC
  5
884F
  8
AM_0
 10
125.9794486872548
 20
229.1999211057605
 30
0.0
 40
0.6994530000000001
 50
359.95517000000092
 51
90.044829000000746
  0
LINE
  5
8850
  8
AM_0
 10
125.6789086872549
 20
241.58933110576049
 30
0.0
 11
122.6789086872549
 21
241.58933110576049
 31
0.0
  0
LINE
  5
8851
  8
AM_0
 10
125.6789086872549
 20
239.58933110576049
 30
0.0
 11
122.6789086872549
 21
239.58933110576049
 31
0.0
  0
ARC
  5
8852
  8
AM_0
 10
122.6791586872549
 20
240.5895711057604
 30
0.0
 40
1.0001959999999981
 50
180.01124999999939
 51
269.98875000000061
  0
ARC
  5
8853
  8
AM_0
 10
122.6740286872549
 20
240.59421110576039
 30
0.0
 40
0.9950849999999999
 50
89.716282999999422
 51
180.28371999999919
  0
LINE
  5
8854
  8
AM_0
 10
123.6789086872549
 20
239.95932110576049
 30
0.0
 11
123.6789086872549
 21
241.3293211057605
 31
0.0
  0
ARC
  5
8855
  8
AM_0
 10
125.6790886872549
 20
238.58945110576039
 30
0.0
 40
0.9998239899999999
 50
359.98991999999532
 51
90.010077000000464
  0
ARC
  5
8856
  8
AM_0
 10
125.6739686872548
 20
242.59421110576039
 30
0.0
 40
1.0049469
 50
270.28136999999919
 51
359.71863000000081
  0
LINE
  5
8857
  8
AM_0
 10
120.1789086872548
 20
285.58933110576049
 30
0.0
 11
120.1789086872548
 21
245.58933110576049
 31
0.0
  0
LINE
  5
8858
  8
AM_0
 10
119.1850122028798
 20
250.3674988303699
 30
0.0
 11
119.1850122028798
 21
280.81113286357299
 31
0.0
  0
ARC
  5
8859
  8
AM_0
 10
125.6790886872549
 20
258.58945110576042
 30
0.0
 40
0.9998279799999998
 50
359.9901599999971
 51
90.009838000000173
  0
ARC
  5
885A
  8
AM_0
 10
122.6740286872549
 20
250.59421110576051
 30
0.0
 40
0.9950810099999999
 50
89.716072000000082
 51
180.2839200000044
  0
LINE
  5
885B
  8
AM_0
 10
125.6789086872549
 20
249.58933110576049
 30
0.0
 11
122.6789086872549
 21
249.58933110576049
 31
0.0
  0
LINE
  5
885C
  8
AM_0
 10
119.185042720458
 20
250.3674988303699
 30
0.0
 11
119.685042720458
 21
247.59750981669799
 31
0.0
  0
LINE
  5
885D
  8
AM_0
 10
120.1789086872548
 20
245.58930110576051
 30
0.0
 11
121.6789086872549
 21
245.45929110576051
 31
0.0
  0
LINE
  5
885E
  8
AM_0
 10
120.1789086872548
 20
248.30930110576051
 30
0.0
 11
121.6789086872549
 21
248.30930110576051
 31
0.0
  0
LINE
  5
885F
  8
AM_0
 10
119.6850122028799
 20
247.59750981669799
 30
0.0
 11
120.185042720458
 21
247.6375183616199
 31
0.0
  0
ARC
  5
8860
  8
AM_0
 10
122.6791586872549
 20
250.58957110576051
 30
0.0
 40
1.000199999999998
 50
180.01145999999861
 51
269.98854000000142
  0
LINE
  5
8861
  8
AM_0
 10
120.1789086872548
 20
250.43930110576051
 30
0.0
 11
121.6789086872549
 21
250.43930110576051
 31
0.0
  0
LINE
  5
8862
  8
AM_0
 10
123.6789086872549
 20
249.97934110576051
 30
0.0
 11
123.6789086872549
 21
251.19931110576039
 31
0.0
  0
ARC
  5
8863
  8
AM_0
 10
125.6790886872549
 20
248.58945110576039
 30
0.0
 40
0.9998210099999999
 50
359.98971999999799
 51
90.010281999998284
  0
LINE
  5
8864
  8
AM_0
 10
125.6789086872549
 20
251.58933110576049
 30
0.0
 11
122.6789086872549
 21
251.58933110576049
 31
0.0
  0
ARC
  5
8865
  8
AM_0
 10
125.6739686872548
 20
252.59421110576051
 30
0.0
 40
1.004939
 50
270.2809399999997
 51
359.71907000000078
  0
LINE
  5
8866
  8
AM_0
 10
125.6789086872549
 20
261.58933110576049
 30
0.0
 11
122.6789086872549
 21
261.58933110576049
 31
0.0
  0
LINE
  5
8867
  8
AM_0
 10
125.6789086872549
 20
259.58933110576049
 30
0.0
 11
122.6789086872549
 21
259.58933110576049
 31
0.0
  0
ARC
  5
8868
  8
AM_0
 10
122.6740286872549
 20
260.59421110576051
 30
0.0
 40
0.9950770099999999
 50
89.715859999999495
 51
180.28414000000049
  0
ARC
  5
8869
  8
AM_0
 10
122.6791586872549
 20
260.58957110576051
 30
0.0
 40
1.0002040000000001
 50
180.01165999999679
 51
269.98832000000073
  0
ARC
  5
886A
  8
AM_0
 10
125.6739686872548
 20
262.59421110576051
 30
0.0
 40
1.004942999999999
 50
270.28113999999943
 51
359.71886999999822
  0
LINE
  5
886B
  8
AM_0
 10
123.6789086872549
 20
259.9793411057604
 30
0.0
 11
123.6789086872549
 21
261.13937110576052
 31
0.0
  0
LINE
  5
886C
  8
AM_0
 10
125.6789086872549
 20
271.58933110576049
 30
0.0
 11
122.6789086872549
 21
271.58933110576049
 31
0.0
  0
LINE
  5
886D
  8
AM_0
 10
125.6789086872549
 20
269.58933110576049
 30
0.0
 11
122.6789086872549
 21
269.58933110576049
 31
0.0
  0
ARC
  5
886E
  8
AM_0
 10
122.6740286872549
 20
270.59421110576051
 30
0.0
 40
0.9950849999999999
 50
89.716311000000914
 51
180.28368999999969
  0
ARC
  5
886F
  8
AM_0
 10
122.6791586872549
 20
270.58957110576051
 30
0.0
 40
1.0001959999999981
 50
180.0112199999958
 51
269.98878000000087
  0
LINE
  5
8870
  8
AM_0
 10
123.6789086872549
 20
271.19931110576039
 30
0.0
 11
123.6789086872549
 21
270.03928110576038
 31
0.0
  0
ARC
  5
8871
  8
AM_0
 10
125.6739686872548
 20
272.59421110576051
 30
0.0
 40
1.0049469
 50
270.28135000000037
 51
359.71866000000068
  0
ARC
  5
8872
  8
AM_0
 10
125.6790886872549
 20
268.58945110576042
 30
0.0
 40
0.9998249999999999
 50
359.98994999999871
 51
90.010050000001243
  0
ARC
  5
8873
  8
AM_0
 10
122.6740286872549
 20
290.59421110576051
 30
0.0
 40
0.99507803
 50
89.715887000001331
 51
180.28410999999991
  0
LINE
  5
8874
  8
AM_0
 10
123.6789086872549
 20
291.21933110576049
 30
0.0
 11
123.6789086872549
 21
289.84934110576052
 31
0.0
  0
LINE
  5
8875
  8
AM_0
 10
119.1850122028798
 20
280.81116338115112
 30
0.0
 11
119.6850122028799
 21
283.58115239482299
 31
0.0
  0
LINE
  5
8876
  8
AM_0
 10
125.6789086872549
 20
279.58933110576049
 30
0.0
 11
122.6789086872549
 21
279.58933110576049
 31
0.0
  0
LINE
  5
8877
  8
AM_0
 10
125.6789086872549
 20
281.58933110576049
 30
0.0
 11
122.6789086872549
 21
281.58933110576049
 31
0.0
  0
ARC
  5
8878
  8
AM_0
 10
122.6740286872549
 20
280.59421110576039
 30
0.0
 40
0.99508202
 50
89.716098999998167
 51
180.2839099999978
  0
ARC
  5
8879
  8
AM_0
 10
122.6791586872549
 20
280.58957110576051
 30
0.0
 40
1.000199999999998
 50
180.01143000000161
 51
269.98856999999839
  0
LINE
  5
887A
  8
AM_0
 10
120.1789086872548
 20
280.73935110576042
 30
0.0
 11
121.6789086872549
 21
280.73935110576042
 31
0.0
  0
LINE
  5
887B
  8
AM_0
 10
120.1789086872548
 20
282.8693611057605
 30
0.0
 11
121.6789086872549
 21
282.8693611057605
 31
0.0
  0
LINE
  5
887C
  8
AM_0
 10
123.6789086872549
 20
281.1993111057605
 30
0.0
 11
123.6789086872549
 21
279.98935110576042
 31
0.0
  0
ARC
  5
887D
  8
AM_0
 10
125.6739686872548
 20
282.59421110576039
 30
0.0
 40
1.004939
 50
270.2809100000008
 51
359.71909999999991
  0
ARC
  5
887E
  8
AM_0
 10
125.6790886872549
 20
278.58945110576042
 30
0.0
 40
0.9998210099999999
 50
359.98975000000149
 51
90.010254999999034
  0
LINE
  5
887F
  8
AM_0
 10
125.6789086872549
 20
289.58933110576049
 30
0.0
 11
122.6789086872549
 21
289.58933110576049
 31
0.0
  0
ARC
  5
8880
  8
AM_0
 10
122.6791586872549
 20
290.5895711057604
 30
0.0
 40
1.000203
 50
180.01164999999551
 51
269.98835000000122
  0
LINE
  5
8881
  8
AM_0
 10
120.1789086872548
 20
285.5893011057604
 30
0.0
 11
121.6789086872549
 21
285.71930110576051
 31
0.0
  0
LINE
  5
8882
  8
AM_0
 10
119.685042720458
 20
283.58115239482299
 30
0.0
 11
120.1850122028798
 21
283.54114384990112
 31
0.0
  0
ARC
  5
8883
  8
AM_0
 10
125.6790886872549
 20
288.58945110576042
 30
0.0
 40
0.9998289899999999
 50
359.99019000000038
 51
90.009811000000937
  0
ARC
  5
8884
  8
AM_0
 10
122.6751886872547
 20
297.98508110576051
 30
0.0
 40
0.9962710099999999
 50
106.6979199999999
 51
180.33004999999989
  0
ARC
  5
8885
  8
AM_0
 10
125.68061868725491
 20
298.33102110576039
 30
0.0
 40
0.9982839799999999
 50
359.90142000000009
 51
90.098576000001358
  0
LINE
  5
8886
  8
AM_0
 10
125.6789086872549
 20
291.58933110576049
 30
0.0
 11
122.6789086872549
 21
291.58933110576049
 31
0.0
  0
ARC
  5
8887
  8
AM_0
 10
125.6739686872548
 20
292.59421110576039
 30
0.0
 40
1.004942999999999
 50
270.28111000000013
 51
359.71888999999987
  0
LINE
  5
8888
  8
AM_0
 10
123.5388986872548
 20
299.28937110576038
 30
0.0
 11
122.3889286872548
 21
298.93936110576038
 31
0.0
  0
LINE
  5
8889
  8
AM_0
 10
123.48890868725481
 20
301.19934110576048
 30
0.0
 11
122.2889586872549
 21
300.68933110576052
 31
0.0
  0
ARC
  5
888A
  8
AM_0
 10
122.6729886872548
 20
305.83249110576048
 30
0.0
 40
0.99404597
 50
120.4681999999988
 51
180.18564000000029
  0
ARC
  5
888B
  8
AM_0
 10
122.6753086872548
 20
299.7708411057605
 30
0.0
 40
0.9963999999999998
 50
112.8173600000008
 51
180.0904199999996
  0
ARC
  5
888C
  8
AM_0
 10
123.81806868725479
 20
298.33664110576052
 30
0.0
 40
0.9927430199999999
 50
89.374554999998765
 51
106.33207000000171
  0
ARC
  5
888D
  8
AM_0
 10
123.87989868725489
 20
300.28391110576052
 30
0.0
 40
0.9954450099999999
 50
90.056904999999659
 51
113.1274500000013
  0
LINE
  5
888E
  8
AM_0
 10
123.6789086872549
 20
300.97934110576051
 30
0.0
 11
123.6789086872549
 21
299.91928110576038
 31
0.0
  0
LINE
  5
888F
  8
AM_0
 10
123.82893868725461
 20
299.32932110576053
 30
0.0
 11
125.6789086872549
 21
299.32932110576053
 31
0.0
  0
LINE
  5
8890
  8
AM_0
 10
123.8789186872549
 20
301.27927110576047
 30
0.0
 11
125.9788986872548
 21
301.27927110576047
 31
0.0
  0
ARC
  5
8891
  8
AM_0
 10
125.9743786872549
 20
301.98386110576052
 30
0.0
 40
0.704566
 50
270.37010000000009
 51
359.62990999999778
  0
LINE
  5
8892
  8
AM_0
 10
123.44892868725481
 20
315.20929110576049
 30
0.0
 11
122.1789686872547
 21
314.46930110576051
 31
0.0
  0
LINE
  5
8893
  8
AM_0
 10
123.6789086872549
 20
315.08933110576049
 30
0.0
 11
123.6789086872549
 21
314.55930110576048
 31
0.0
  0
LINE
  5
8894
  8
AM_0
 10
123.4589386872547
 20
311.97937110576049
 30
0.0
 11
122.2089386872547
 21
311.3093611057605
 31
0.0
  0
LINE
  5
8895
  8
AM_0
 10
123.43885868725501
 20
313.08939110576051
 30
0.0
 11
122.1588886872549
 21
312.31937110576052
 31
0.0
  0
LINE
  5
8896
  8
AM_0
 10
123.4688886872549
 20
314.08933110576049
 30
0.0
 11
122.2288986872548
 21
313.45932110576052
 31
0.0
  0
LINE
  5
8897
  8
AM_0
 10
123.428848687255
 20
308.54935110576048
 30
0.0
 11
122.12885868725481
 21
307.69937110576052
 31
0.0
  0
ARC
  5
8898
  8
AM_0
 10
122.6721386872549
 20
313.60727110576039
 30
0.0
 40
0.99319202
 50
119.77338000000169
 51
179.87958999999799
  0
ARC
  5
8899
  8
AM_0
 10
122.6733586872548
 20
311.46835110576041
 30
0.0
 40
0.9944329899999999
 50
121.1521299999998
 51
179.94050999999911
  0
ARC
  5
889A
  8
AM_0
 10
122.6745186872548
 20
312.56906110576051
 30
0.0
 40
0.995579
 50
116.5870899999978
 51
179.98263999999989
  0
ARC
  5
889B
  8
AM_0
 10
122.6721386872549
 20
310.43076110576061
 30
0.0
 40
0.9932109699999999
 50
117.79932000000061
 51
180.08187000000001
  0
ARC
  5
889C
  8
AM_0
 10
122.67371868725481
 20
306.86691110576061
 30
0.0
 40
0.9948369899999999
 50
123.20496000000099
 51
180.43785999999801
  0
ARC
  5
889D
  8
AM_0
 10
123.9140186872549
 20
311.09396110576051
 30
0.0
 40
0.99545902
 50
89.141290999999939
 51
117.2038199999995
  0
LINE
  5
889E
  8
AM_0
 10
123.6789086872549
 20
312.98935110576042
 30
0.0
 11
123.6789086872549
 21
312.43930110576048
 31
0.0
  0
LINE
  5
889F
  8
AM_0
 10
123.9289086872549
 20
312.08933110576049
 30
0.0
 11
125.6789086872549
 21
312.08933110576049
 31
0.0
  0
ARC
  5
88A0
  8
AM_0
 10
123.9036986872548
 20
313.19528110576039
 30
0.0
 40
0.99411702
 50
89.122643999998516
 51
115.9349799999988
  0
LINE
  5
88A1
  8
AM_0
 10
123.9188986872549
 20
314.18930110576048
 30
0.0
 11
126.1789086872548
 21
314.18930110576048
 31
0.0
  0
ARC
  5
88A2
  8
AM_0
 10
123.94776868725479
 20
312.2350811057604
 30
0.0
 40
0.99427301
 50
89.356066000000013
 51
120.7809100000017
  0
ARC
  5
88A3
  8
AM_0
 10
126.18061868725481
 20
313.69101110576048
 30
0.0
 40
0.4983060100000002
 50
359.80488999999778
 51
90.195107000000036
  0
LINE
  5
88A4
  8
AM_0
 10
123.9589386872548
 20
313.22934110576051
 30
0.0
 11
126.6789086872549
 21
313.22934110576051
 31
0.0
  0
ARC
  5
88A5
  8
AM_0
 10
125.6798886872547
 20
311.09030110576049
 30
0.0
 40
0.9990100299999999
 50
359.94319000000132
 51
90.056809000000058
  0
ARC
  5
88A6
  8
AM_0
 10
123.95832868725471
 20
306.58286110576063
 30
0.0
 40
0.99648702
 50
90.540720999998641
 51
120.74376999999789
  0
ARC
  5
88A7
  8
AM_0
 10
123.98554868725491
 20
307.72311110576049
 30
0.0
 40
0.99617702
 50
90.381317999999226
 51
123.9704899999973
  0
LINE
  5
88A8
  8
AM_0
 10
123.6789086872549
 20
308.41928110576038
 30
0.0
 11
123.6789086872549
 21
307.94931110576061
 31
0.0
  0
LINE
  5
88A9
  8
AM_0
 10
123.94892868725481
 20
307.57932110576053
 30
0.0
 11
125.6789086872549
 21
307.57932110576053
 31
0.0
  0
LINE
  5
88AA
  8
AM_0
 10
123.9789586872547
 20
308.71933110576049
 30
0.0
 11
126.6789086872549
 21
308.71933110576049
 31
0.0
  0
LINE
  5
88AB
  8
AM_0
 10
126.6789086872549
 20
315.58933110576049
 30
0.0
 11
127.6789086872549
 21
315.58933110576049
 31
0.0
  0
ARC
  5
88AC
  8
AM_0
 10
123.9409386872547
 20
314.34348110576047
 30
0.0
 40
0.9959030199999999
 50
89.541266999999124
 51
119.6071699999994
  0
LINE
  5
88AD
  8
AM_0
 10
123.94892868725481
 20
315.33933110576049
 30
0.0
 11
126.1789086872548
 21
315.33933110576049
 31
0.0
  0
ARC
  5
88AE
  8
AM_0
 10
126.1743286872547
 20
315.84396110576051
 30
0.0
 40
0.50463498
 50
270.52383000000037
 51
359.47616999999963
  0
ARC
  5
88AF
  8
AM_0
 10
303.18501253070542
 20
305.58933244686523
 30
0.0
 40
5.0
 50
90.0
 51
180.0000005336085
1001
GENIUS_GENODEF_13
1002
{
1000
HIER
1070
     0
1002
}
1002
{
1000
MANEDIT
1070
     0
1002
}
1002
{
1000
NOSEL
1070
     0
1002
}
1002
{
1000
BEHIND
1070
     0
1002
}
1002
{
1000
OTHER
1070
     0
1002
}
1002
{
1000
REACTOR
1002
}
1001
GENIUS_GENOBJ-N-FIL_13
1002
{
1000
OWNER
1000
GEN
1002
}
  0
CIRCLE
  5
88B0
  8
AM_0
 10
287.18501253070542
 20
305.58933229785339
 30
0.0
 40
4.5000001341104507
  0
ARC
  5
88B1
  8
AM_0
 10
287.18501253070542
 20
305.58933229785339
 30
0.0
 40
11.00000032782555
 50
90.000002504478445
 51
180.00000500895689
  0
LINE
  5
88B2
  8
ﾁｭｳｼﾝｾﾝ1
 10
287.18501253070542
 20
298.08933207433603
 30
0.0
 11
287.18501253070542
 21
313.08933252137098
 31
0.0
  0
LINE
  5
88B3
  8
AM_0
 10
243.6789086872549
 20
306.31196110576047
 30
0.0
 11
242.6789086872549
 21
306.88932110576047
 31
0.0
  0
LINE
  5
88B4
  8
AM_0
 10
240.07892868725489
 20
305.28931110576059
 30
0.0
 11
240.07892868725489
 21
308.88932110576047
 31
0.0
  0
LINE
  5
88B5
  8
AM_0
 10
243.6789086872549
 20
303.28931110576048
 30
0.0
 11
243.6789086872549
 21
310.88932110576047
 31
0.0
  0
LINE
  5
88B6
  8
AM_0
 10
242.6789086872549
 20
303.28931110576048
 30
0.0
 11
242.6789086872549
 21
310.88932110576047
 31
0.0
  0
LINE
  5
88B7
  8
AM_0
 10
263.18501220287988
 20
214.9490494285144
 30
0.0
 11
263.18501220287988
 21
316.22962041240112
 31
0.0
  0
ARC
  5
88B8
  8
AM_0
 10
495.18499694409059
 20
265.58933110576049
 30
0.0
 40
236.0
 50
169.43603828764111
 51
180.00000500895041
  0
LINE
  5
88B9
  8
AM_0
 10
251.6789086872549
 20
321.58933110576049
 30
0.0
 11
251.6789086872549
 21
209.58933110576049
 31
0.0
  0
LINE
  5
88BA
  8
AM_0
 10
243.6789086872549
 20
321.58933110576049
 30
0.0
 11
243.6789086872549
 21
209.58933110576049
 31
0.0
  0
LINE
  5
88BB
  8
AM_0
 10
141.0389586872549
 20
302.23935110576042
 30
0.0
 11
135.6789686872547
 21
313.6893311057604
 31
0.0
  0
LINE
  5
88BC
  8
AM_0
 10
135.67890868725479
 20
318.58933110576049
 30
0.0
 11
135.67890868725479
 21
212.58933110576049
 31
0.0
  0
LINE
  5
88BD
  8
AM_0
 10
224.25800749519101
 20
203.08933110576049
 30
0.0
 11
235.6951486872548
 21
203.08933110576049
 31
0.0
  0
LINE
  5
88BE
  8
AM_0
 10
138.8889286872548
 20
209.30930110576051
 30
0.0
 11
235.8089186872547
 21
209.30930110576051
 31
0.0
  0
LINE
  5
88BF
  8
AM_0
 10
137.1389286872548
 20
242.0292711057605
 30
0.0
 11
240.7131486872548
 21
242.0292711057605
 31
0.0
  0
LINE
  5
88C0
  8
AM_0
 10
237.01173868725471
 20
241.58933110576049
 30
0.0
 11
138.0388986872548
 21
241.58933110576049
 31
0.0
  0
LINE
  5
88C1
  8
AM_0
 10
137.1389286872548
 20
289.14938110576048
 30
0.0
 11
240.7131486872548
 21
289.14938110576048
 31
0.0
  0
LINE
  5
88C2
  8
AM_0
 10
137.35889868725491
 20
302.30930110576048
 30
0.0
 11
240.4989186872549
 21
302.30930110576048
 31
0.0
  0
LINE
  5
88C3
  8
AM_0
 10
237.01173868725471
 20
289.58933110576049
 30
0.0
 11
138.0388986872548
 21
289.58933110576049
 31
0.0
  0
LINE
  5
88C4
  8
AM_0
 10
237.01893868725469
 20
299.58933110576049
 30
0.0
 11
138.0388986872548
 21
299.58933110576049
 31
0.0
  0
LINE
  5
88C5
  8
AM_0
 10
237.01893868725469
 20
301.58933110576049
 30
0.0
 11
138.0388986872548
 21
301.58933110576049
 31
0.0
  0
LINE
  5
88C6
  8
AM_0
 10
192.6789086872549
 20
228.8693611057605
 30
0.0
 11
240.4989186872549
 21
228.8693611057605
 31
0.0
  0
LINE
  5
88C7
  8
AM_0
 10
237.01893868725469
 20
229.58933110576049
 30
0.0
 11
192.6789086872549
 21
229.58933110576049
 31
0.0
  0
LINE
  5
88C8
  8
AM_0
 10
237.01893868725469
 20
231.58933110576049
 30
0.0
 11
192.6789086872549
 21
231.58933110576049
 31
0.0
  0
LINE
  5
88C9
  8
AM_0
 10
237.01173868725471
 20
239.58933110576049
 30
0.0
 11
222.6789086872549
 21
239.58933110576049
 31
0.0
  0
LINE
  5
88CA
  8
AM_0
 10
222.6789086872549
 20
239.1093511057604
 30
0.0
 11
240.7131486872548
 21
239.1093511057604
 31
0.0
  0
LINE
  5
88CB
  8
AM_0
 10
240.4989186872549
 20
232.21933110576049
 30
0.0
 11
222.65894868725479
 21
232.21933110576049
 31
0.0
  0
LINE
  5
88CC
  8
AM_0
 10
222.65894868725479
 20
298.94931110576039
 30
0.0
 11
240.4989186872549
 21
298.94931110576039
 31
0.0
  0
LINE
  5
88CD
  8
AM_0
 10
237.02607868725491
 20
291.58933110576049
 30
0.0
 11
222.6789086872549
 21
291.58933110576049
 31
0.0
  0
LINE
  5
88CE
  8
AM_0
 10
222.6789086872549
 20
292.07932110576053
 30
0.0
 11
240.72462868725489
 21
292.07932110576053
 31
0.0
  0
POLYLINE
  5
88CF
  8
AM_0
 66
     1
 10
0.0
 20
0.0
 30
0.0
  0
VERTEX
  5
88D0
  8
AM_0
 10
138.55714868725491
 20
249.24875110576039
 30
0.0
 42
0.00073721992
  0
VERTEX
  5
88D1
  8
AM_0
 10
138.6012986872548
 20
248.64634110576051
 30
0.0
 42
0.00074398496
  0
VERTEX
  5
88D2
  8
AM_0
 10
138.6472286872548
 20
248.04407110576051
 30
0.0
 42
0.00073322625
  0
VERTEX
  5
88D3
  8
AM_0
 10
138.6949586872548
 20
247.44174110576051
 30
0.0
 42
0.00073594289
  0
VERTEX
  5
88D4
  8
AM_0
 10
138.7444386872547
 20
246.83975110576051
 30
0.0
 42
0.00074742568
  0
VERTEX
  5
88D5
  8
AM_0
 10
138.79570868725489
 20
246.2378911057605
 30
0.0
 42
0.00073216749
  0
VERTEX
  5
88D6
  8
AM_0
 10
138.84876868725479
 20
245.6360811057605
 30
0.0
 42
0.00074184065
  0
VERTEX
  5
88D7
  8
AM_0
 10
138.9035886872546
 20
245.0345511057605
 30
0.0
 42
0.00072077528
  0
VERTEX
  5
88D8
  8
AM_0
 10
138.96016868725479
 20
244.43332110576051
 30
0.0
 42
0.00074978179
  0
VERTEX
  5
88D9
  8
AM_0
 10
139.01850868725461
 20
243.83212110576051
 30
0.0
 42
0.00074288888
  0
VERTEX
  5
88DA
  8
AM_0
 10
139.07865868725489
 20
243.23110110576039
 30
0.0
 42
0.00072503679
  0
VERTEX
  5
88DB
  8
AM_0
 10
139.14056868725481
 20
242.6303611057605
 30
0.0
 42
0.00074640584
  0
VERTEX
  5
88DC
  8
AM_0
 10
139.20423868725479
 20
242.02976110576051
 30
0.0
  0
SEQEND
  5
88DD
  8
AM_0
  0
LINE
  5
88DE
  8
AM_0
 10
137.35889868725491
 20
232.21933110576049
 30
0.0
 11
204.69892868725481
 21
232.21933110576049
 31
0.0
  0
LINE
  5
88DF
  8
AM_0
 10
192.6789086872549
 20
229.58933110576049
 30
0.0
 11
138.0388986872548
 21
229.58933110576049
 31
0.0
  0
LINE
  5
88E0
  8
AM_0
 10
192.6789086872549
 20
231.58933110576049
 30
0.0
 11
138.0388986872548
 21
231.58933110576049
 31
0.0
  0
LINE
  5
88E1
  8
AM_0
 10
137.35889868725491
 20
228.8693611057605
 30
0.0
 11
192.6789086872549
 21
228.8693611057605
 31
0.0
  0
LINE
  5
88E2
  8
AM_0
 10
137.1389286872548
 20
239.09934110576049
 30
0.0
 11
204.6789086872549
 21
239.09934110576049
 31
0.0
  0
LINE
  5
88E3
  8
AM_0
 10
204.6789086872549
 20
239.58933110576049
 30
0.0
 11
138.0388986872548
 21
239.58933110576049
 31
0.0
  0
LINE
  5
88E4
  8
AM_0
 10
224.1789086872547
 20
192.58933110576049
 30
0.0
 11
166.67890868725459
 21
192.58933110576049
 31
0.0
  0
LINE
  5
88E5
  8
AM_0
 10
224.1789086872547
 20
199.58933110576041
 30
0.0
 11
144.17890868725459
 21
199.58933110576041
 31
0.0
  0
LINE
  5
88E6
  8
AM_0
 10
144.17890868725459
 20
196.08933110576049
 30
0.0
 11
224.1789086872547
 21
196.08933110576049
 31
0.0
  0
LINE
  5
88E7
  8
AM_0
 10
135.67890868725479
 20
216.14929110576051
 30
0.0
 11
136.95893868725469
 21
208.1493811057606
 31
0.0
  0
LINE
  5
88E8
  8
AM_0
 10
135.67890868725479
 20
217.4993011057604
 30
0.0
 11
136.9189586872547
 21
210.93930110576051
 31
0.0
  0
LINE
  5
88E9
  8
AM_0
 10
135.6789686872547
 20
214.80936110576039
 30
0.0
 11
136.6043886872547
 21
208.18277110576051
 31
0.0
  0
LINE
  5
88EA
  8
AM_0
 10
135.67890868725479
 20
214.80939110576051
 30
0.0
 11
136.68818868725481
 21
208.15921110576051
 31
0.0
  0
ARC
  5
88EB
  8
AM_0
 10
157.17890868725459
 20
188.58933110576049
 30
0.0
 40
3.999999999999996
 50
180.0
 51
0.0
  0
LINE
  5
88EC
  8
AM_0
 10
138.58515868725479
 20
206.45932110576049
 30
0.0
 11
161.01162150860651
 21
206.45932110576049
 31
0.0
  0
ARC
  5
88ED
  8
AM_0
 10
157.17890868725459
 20
188.58933110576049
 30
0.0
 40
7.5000000000000018
 50
180.0
 51
0.0
  0
LINE
  5
88EE
  8
AM_0
 10
153.17890868725459
 20
196.08933110576049
 30
0.0
 11
153.17890868725459
 21
188.58933110576049
 31
0.0
  0
LINE
  5
88EF
  8
AM_0
 10
144.17890868725459
 20
199.58933110576041
 30
0.0
 11
144.17890868725459
 21
180.08933110576049
 31
0.0
  0
LINE
  5
88F0
  8
AM_0
 10
149.67890868725459
 20
196.08933110576049
 30
0.0
 11
149.67890868725459
 21
188.58933110576049
 31
0.0
  0
LINE
  5
88F1
  8
AM_0
 10
148.67890868725459
 20
191.58933110576049
 30
0.0
 11
148.67890868725459
 21
187.58933110576049
 31
0.0
  0
LINE
  5
88F2
  8
AM_0
 10
144.17890868725459
 20
180.08933110576049
 30
0.0
 11
145.67890868725459
 21
180.08933110576049
 31
0.0
  0
LINE
  5
88F3
  8
AM_0
 10
144.17890868725459
 20
192.58933110576049
 30
0.0
 11
147.67890868725459
 21
192.58933110576049
 31
0.0
  0
ARC
  5
88F4
  8
AM_0
 10
147.67890868725459
 20
191.58933110576049
 30
0.0
 40
1.0
 50
0.0
 51
90.0
  0
ARC
  5
88F5
  8
AM_0
 10
138.58515868725479
 20
208.45932110576049
 30
0.0
 40
2.0
 50
187.95044000000351
 51
269.999989999999
  0
ARC
  5
88F6
  8
AM_0
 10
138.6655386872547
 20
208.45932110576049
 30
0.0
 40
2.0
 50
188.62961999999749
 51
269.999989999999
  0
ARC
  5
88F7
  8
AM_0
 10
138.93513868725469
 20
208.4596911057605
 30
0.0
 40
2.000420099999999
 50
188.92682000000119
 51
269.82270999999929
  0
ARC
  5
88F8
  8
AM_0
 10
138.8838086872548
 20
211.30856110576039
 30
0.0
 40
1.9992490000000001
 50
190.643100000001
 51
270.14743000000129
  0
LINE
  5
88F9
  8
AM_0
 10
164.67890868725459
 20
188.58933110576049
 30
0.0
 11
164.67890868725459
 21
196.08933110576049
 31
0.0
  0
LINE
  5
88FA
  8
AM_0
 10
161.17890868725459
 20
196.08933110576049
 30
0.0
 11
161.17890868725459
 21
188.58933110576049
 31
0.0
  0
LINE
  5
88FB
  8
AM_0
 10
158.17890868725459
 20
180.08933110576049
 30
0.0
 11
156.17890868725459
 21
180.08933110576049
 31
0.0
  0
LINE
  5
88FC
  8
AM_0
 10
165.67890868725459
 20
187.58933110576049
 30
0.0
 11
165.67890868725459
 21
191.58933110576049
 31
0.0
  0
ARC
  5
88FD
  8
AM_0
 10
166.67890868725459
 20
191.58933110576049
 30
0.0
 40
1.0
 50
90.0
 51
180.0
  0
LINE
  5
88FE
  8
AM_0
 10
162.65272761315089
 20
199.58933110576049
 30
0.0
 11
162.3982483582914
 21
209.3093011057604
 31
0.0
  0
ARC
  5
88FF
  8
AM_0
 10
161.01162150860651
 20
204.95932110576049
 30
0.0
 40
1.5
 50
1.499722450987816
 51
90.0
1001
GENIUS_GENODEF_13
1002
{
1000
HIER
1070
     0
1002
}
1002
{
1000
MANEDIT
1070
     0
1002
}
1002
{
1000
NOSEL
1070
     0
1002
}
1002
{
1000
BEHIND
1070
     0
1002
}
1002
{
1000
REACTOR
1002
}
1001
GENIUS_GENOBJ-N-FIL_13
1002
{
1000
OWNER
1000
GEN
1002
}
  0
LINE
  5
8900
  8
AM_0
 10
141.0388986872548
 20
228.93930110576051
 30
0.0
 11
135.6789686872547
 21
217.49939110576051
 31
0.0
  0
POLYLINE
  5
8901
  8
AM_0
 66
     1
 10
0.0
 20
0.0
 30
0.0
  0
VERTEX
  5
8902
  8
AM_0
 10
139.539808687255
 20
239.10629110576059
 30
0.0
 42
0.0006890001
  0
VERTEX
  5
8903
  8
AM_0
 10
139.61068868725471
 20
238.5315411057606
 30
0.0
 42
0.00070644651
  0
VERTEX
  5
8904
  8
AM_0
 10
139.68318868725501
 20
237.95686110576051
 30
0.0
 42
0.0006924559
  0
VERTEX
  5
8905
  8
AM_0
 10
139.7572786872548
 20
237.38254110576051
 30
0.0
 42
0.00069587797
  0
VERTEX
  5
8906
  8
AM_0
 10
139.832958687255
 20
236.80840110576051
 30
0.0
 42
0.00071687041
  0
VERTEX
  5
8907
  8
AM_0
 10
139.91026868725459
 20
236.23440110576041
 30
0.0
 42
0.00069759113
  0
VERTEX
  5
8908
  8
AM_0
 10
139.98920868725489
 20
235.66061110576049
 30
0.0
 42
0.00071003142
  0
VERTEX
  5
8909
  8
AM_0
 10
140.0697486872549
 20
235.0871411057604
 30
0.0
 42
0.00069954544
  0
VERTEX
  5
890A
  8
AM_0
 10
140.1518886872548
 20
234.5140411057605
 30
0.0
 42
0.0007188852
  0
VERTEX
  5
890B
  8
AM_0
 10
140.23566868725479
 20
233.94101110576051
 30
0.0
 42
0.00071266165
  0
VERTEX
  5
890C
  8
AM_0
 10
140.3210986872549
 20
233.36825110576049
 30
0.0
 42
0.00071614577
  0
VERTEX
  5
890D
  8
AM_0
 10
140.40812868725479
 20
232.79590110576041
 30
0.0
 42
0.00072290806
  0
VERTEX
  5
890E
  8
AM_0
 10
140.49683868725469
 20
232.22360110576051
 30
0.0
  0
SEQEND
  5
890F
  8
AM_0
  0
ARC
  5
8910
  8
AM_0
 10
137.3520686872547
 20
230.5442811057604
 30
0.0
 40
1.675014
 50
89.766499000000024
 51
270.2335099999994
  0
ARC
  5
8911
  8
AM_0
 10
138.223528687255
 20
230.58933110576049
 30
0.0
 40
1.0000138999999999
 50
89.691659999999231
 51
270.30834000000073
  0
ARC
  5
8912
  8
AM_0
 10
137.1389286872548
 20
240.56430110576051
 30
0.0
 40
1.465004
 50
90.000003000000945
 51
270.0
  0
ARC
  5
8913
  8
AM_0
 10
138.223528687255
 20
240.58933110576049
 30
0.0
 40
1.0000138999999999
 50
89.691659999999231
 51
270.30834000000073
  0
LINE
  5
8914
  8
AM_0
 10
224.1789086872547
 20
199.58933110576041
 30
0.0
 11
224.1789086872547
 21
192.58933110576049
 31
0.0
  0
LINE
  5
8915
  8
AM_0
 10
222.7051241009425
 20
199.58933110576041
 30
0.0
 11
222.9596379010103
 21
209.30930110576051
 31
0.0
  0
ARC
  5
8916
  8
AM_0
 10
224.25800749519101
 20
201.58933110576049
 30
0.0
 40
1.5
 50
90.0
 51
178.5000740567499
1001
GENIUS_GENODEF_13
1002
{
1000
HIER
1070
     0
1002
}
1002
{
1000
MANEDIT
1070
     0
1002
}
1002
{
1000
NOSEL
1070
     0
1002
}
1002
{
1000
BEHIND
1070
     0
1002
}
1002
{
1000
REACTOR
1002
}
1001
GENIUS_GENOBJ-N-FIL_13
1002
{
1000
OWNER
1000
GEN
1002
}
  0
LINE
  5
8917
  8
AM_0
 10
206.1789086872549
 20
238.08933110576049
 30
0.0
 11
206.1789086872549
 21
233.08933110576049
 31
0.0
  0
LINE
  5
8918
  8
AM_0
 10
205.69892868725489
 20
238.08933110576049
 30
0.0
 11
205.69892868725489
 21
233.22934110576051
 31
0.0
  0
ARC
  5
8919
  8
AM_0
 10
204.69892868725481
 20
233.22934110576051
 30
0.0
 40
1.0
 50
269.999989999999
 51
0.0000006832495047
  0
ARC
  5
891A
  8
AM_0
 10
204.6789086872549
 20
233.08933110576049
 30
0.0
 40
1.5
 50
269.999989999999
 51
0.0000006832495047
  0
ARC
  5
891B
  8
AM_0
 10
204.6789086872549
 20
238.08933110576049
 30
0.0
 40
1.5
 50
0.0
 51
90.000003000000945
  0
ARC
  5
891C
  8
AM_0
 10
204.6789086872549
 20
238.08933110576049
 30
0.0
 40
1.02
 50
0.0
 51
90.000003000000945
  0
CIRCLE
  5
891D
  8
AM_0
 10
211.1789086872549
 20
237.08933110576049
 30
0.0
 40
1.1000000000000001
  0
CIRCLE
  5
891E
  8
AM_0
 10
211.1789086872549
 20
237.08933110576049
 30
0.0
 40
1.149999999999999
  0
LINE
  5
891F
  8
AM_0
 10
221.1789086872549
 20
238.08933110576049
 30
0.0
 11
221.1789086872549
 21
233.08933110576049
 31
0.0
  0
LINE
  5
8920
  8
AM_0
 10
221.65894868725479
 20
238.08933110576049
 30
0.0
 11
221.65894868725479
 21
233.22934110576051
 31
0.0
  0
ARC
  5
8921
  8
AM_0
 10
222.65894868725479
 20
233.22934110576051
 30
0.0
 40
1.0
 50
179.999989999999
 51
270.0
  0
ARC
  5
8922
  8
AM_0
 10
222.6789086872549
 20
233.08933110576049
 30
0.0
 40
1.5
 50
179.999989999999
 51
270.0
  0
CIRCLE
  5
8923
  8
AM_0
 10
216.1789086872549
 20
237.08933110576049
 30
0.0
 40
1.0
  0
ARC
  5
8924
  8
AM_0
 10
222.6789086872549
 20
238.08933110576049
 30
0.0
 40
1.5
 50
90.000003000000945
 51
180.00001000000091
  0
ARC
  5
8925
  8
AM_0
 10
222.6789086872549
 20
238.08933110576049
 30
0.0
 40
1.02
 50
90.000003000000945
 51
180.00001000000091
  0
LINE
  5
8926
  8
AM_0
 10
137.1389286872548
 20
292.07932110576053
 30
0.0
 11
204.6789086872549
 21
292.07932110576053
 31
0.0
  0
LINE
  5
8927
  8
AM_0
 10
137.35889868725491
 20
298.95932110576052
 30
0.0
 11
204.69892868725481
 21
298.95932110576052
 31
0.0
  0
LINE
  5
8928
  8
AM_0
 10
204.6789086872549
 20
291.58933110576049
 30
0.0
 11
138.0388986872548
 21
291.58933110576049
 31
0.0
  0
POLYLINE
  5
8929
  8
AM_0
 66
     1
 10
0.0
 20
0.0
 30
0.0
  0
VERTEX
  5
892A
  8
AM_0
 10
138.08295868725489
 20
271.85971110576043
 30
0.0
 42
-0.00076691987
  0
VERTEX
  5
892B
  8
AM_0
 10
138.0977586872549
 20
272.47747110576051
 30
0.0
 42
-0.00073262795
  0
VERTEX
  5
892C
  8
AM_0
 10
138.11439868725469
 20
273.09507110576038
 30
0.0
 42
-0.0007652954
  0
VERTEX
  5
892D
  8
AM_0
 10
138.13288868725459
 20
273.71274110576047
 30
0.0
 42
-0.00077334627
  0
VERTEX
  5
892E
  8
AM_0
 10
138.1532986872547
 20
274.3303411057604
 30
0.0
 42
-0.00073282897
  0
VERTEX
  5
892F
  8
AM_0
 10
138.17555868725489
 20
274.94776110576049
 30
0.0
 42
-0.0007571179
  0
VERTEX
  5
8930
  8
AM_0
 10
138.19965868725481
 20
275.5652811057605
 30
0.0
 42
-0.00073783152
  0
VERTEX
  5
8931
  8
AM_0
 10
138.225598687255
 20
276.18267110576051
 30
0.0
 42
-0.0007835518
  0
VERTEX
  5
8932
  8
AM_0
 10
138.253428687255
 20
276.79994110576052
 30
0.0
 42
-0.00074826133
  0
VERTEX
  5
8933
  8
AM_0
 10
138.28315868725471
 20
277.41733110576052
 30
0.0
 42
-0.00074893555
  0
VERTEX
  5
8934
  8
AM_0
 10
138.31471868725461
 20
278.03446110576039
 30
0.0
 42
-0.00076039841
  0
VERTEX
  5
8935
  8
AM_0
 10
138.34813868725479
 20
278.65149110576039
 30
0.0
 42
-0.00075618789
  0
VERTEX
  5
8936
  8
AM_0
 10
138.3834386872548
 20
279.26852110576039
 30
0.0
  0
SEQEND
  5
8937
  8
AM_0
  0
LINE
  5
8938
  8
AM_0
 10
172.11762868725489
 20
261.58933110576049
 30
0.0
 11
138.0388986872548
 21
261.58933110576049
 31
0.0
  0
LINE
  5
8939
  8
AM_0
 10
136.94892868725481
 20
261.85935110576042
 30
0.0
 11
173.39759868725491
 21
261.85935110576042
 31
0.0
  0
LINE
  5
893A
  8
AM_0
 10
136.94892868725481
 20
269.32932110576053
 30
0.0
 11
173.39759868725491
 21
269.32932110576053
 31
0.0
  0
LINE
  5
893B
  8
AM_0
 10
136.94892868725481
 20
271.85935110576042
 30
0.0
 11
173.39759868725491
 21
271.85935110576042
 31
0.0
  0
LINE
  5
893C
  8
AM_0
 10
172.11762868725489
 20
269.58933110576049
 30
0.0
 11
138.0388986872548
 21
269.58933110576049
 31
0.0
  0
LINE
  5
893D
  8
AM_0
 10
172.11762868725489
 20
271.58933110576049
 30
0.0
 11
138.0388986872548
 21
271.58933110576049
 31
0.0
  0
LINE
  5
893E
  8
AM_0
 10
137.00892868725469
 20
249.2493611057605
 30
0.0
 11
173.35017868725461
 21
249.2493611057605
 31
0.0
  0
LINE
  5
893F
  8
AM_0
 10
172.11762868725489
 20
249.58933110576049
 30
0.0
 11
138.0388986872548
 21
249.58933110576049
 31
0.0
  0
LINE
  5
8940
  8
AM_0
 10
172.11762868725489
 20
251.58933110576049
 30
0.0
 11
138.0388986872548
 21
251.58933110576049
 31
0.0
  0
LINE
  5
8941
  8
AM_0
 10
137.00892868725469
 20
251.9092711057605
 30
0.0
 11
173.3375986872548
 21
251.9092711057605
 31
0.0
  0
LINE
  5
8942
  8
AM_0
 10
136.94892868725481
 20
259.31931110576051
 30
0.0
 11
173.39759868725491
 21
259.31931110576051
 31
0.0
  0
LINE
  5
8943
  8
AM_0
 10
172.11762868725489
 20
259.58933110576049
 30
0.0
 11
138.0388986872548
 21
259.58933110576049
 31
0.0
  0
POLYLINE
  5
8944
  8
AM_0
 66
     1
 10
0.0
 20
0.0
 30
0.0
  0
VERTEX
  5
8945
  8
AM_0
 10
138.08295868725489
 20
259.31894110576047
 30
0.0
 42
0.00076695232
  0
VERTEX
  5
8946
  8
AM_0
 10
138.0977586872549
 20
258.7011811057605
 30
0.0
 42
0.00073263044
  0
VERTEX
  5
8947
  8
AM_0
 10
138.11439868725469
 20
258.08358110576052
 30
0.0
 42
0.0007652599
  0
VERTEX
  5
8948
  8
AM_0
 10
138.13288868725459
 20
257.46591110576048
 30
0.0
 42
0.00075144485
  0
VERTEX
  5
8949
  8
AM_0
 10
138.15325868725481
 20
256.84831110576039
 30
0.0
 42
0.00078594403
  0
VERTEX
  5
894A
  8
AM_0
 10
138.17550868725479
 20
256.23088110576049
 30
0.0
 42
0.00073349202
  0
VERTEX
  5
894B
  8
AM_0
 10
138.19965868725481
 20
255.61350110576041
 30
0.0
 42
0.0007358075
  0
VERTEX
  5
894C
  8
AM_0
 10
138.225598687255
 20
254.9961011057604
 30
0.0
 42
0.00078592699
  0
VERTEX
  5
894D
  8
AM_0
 10
138.253428687255
 20
254.3787111057604
 30
0.0
 42
0.00074823144
  0
VERTEX
  5
894E
  8
AM_0
 10
138.28315868725471
 20
253.7613211057604
 30
0.0
 42
0.00074896603
  0
VERTEX
  5
894F
  8
AM_0
 10
138.31471868725461
 20
253.1441911057604
 30
0.0
 42
0.00076039765
  0
VERTEX
  5
8950
  8
AM_0
 10
138.34813868725479
 20
252.52716110576051
 30
0.0
 42
0.00075616128
  0
VERTEX
  5
8951
  8
AM_0
 10
138.3834386872548
 20
251.91013110576051
 30
0.0
  0
SEQEND
  5
8952
  8
AM_0
  0
ARC
  5
8953
  8
AM_0
 10
138.223528687255
 20
250.58933110576049
 30
0.0
 40
1.0000138999999999
 50
89.691659999999231
 51
270.30834000000073
  0
ARC
  5
8954
  8
AM_0
 10
137.00892868725469
 20
250.5793211057605
 30
0.0
 40
1.3300049999999981
 50
90.000003000000945
 51
270.0
  0
POLYLINE
  5
8955
  8
AM_0
 66
     1
 10
0.0
 20
0.0
 30
0.0
  0
VERTEX
  5
8956
  8
AM_0
 10
138.0388986872548
 20
265.58933110576049
 30
0.0
 42
-0.00039106653
  0
VERTEX
  5
8957
  8
AM_0
 10
138.03653868725479
 20
265.90046110576043
 30
0.0
 42
-0.00040574511
  0
VERTEX
  5
8958
  8
AM_0
 10
138.03466868725479
 20
266.21157110576053
 30
0.0
 42
-0.00035346331
  0
VERTEX
  5
8959
  8
AM_0
 10
138.03327868725489
 20
266.52268110576051
 30
0.0
 42
-0.00034406545
  0
VERTEX
  5
895A
  8
AM_0
 10
138.03229868725469
 20
266.83382110576048
 30
0.0
 42
-0.00045699059
  0
VERTEX
  5
895B
  8
AM_0
 10
138.03183868725489
 20
267.14492110576037
 30
0.0
 42
-0.00035573431
  0
VERTEX
  5
895C
  8
AM_0
 10
138.03187868725479
 20
267.45602110576039
 30
0.0
 42
-0.00038545888
  0
VERTEX
  5
895D
  8
AM_0
 10
138.03236868725469
 20
267.76716110576052
 30
0.0
 42
-0.00035501203
  0
VERTEX
  5
895E
  8
AM_0
 10
138.03332868725499
 20
268.07827110576051
 30
0.0
 42
-0.00040120778
  0
VERTEX
  5
895F
  8
AM_0
 10
138.03474868725479
 20
268.38950110576047
 30
0.0
 42
-0.00038317821
  0
VERTEX
  5
8960
  8
AM_0
 10
138.036658687255
 20
268.70063110576052
 30
0.0
 42
-0.00040741862
  0
VERTEX
  5
8961
  8
AM_0
 10
138.03905868725479
 20
269.01186110576037
 30
0.0
 42
-0.00035783324
  0
VERTEX
  5
8962
  8
AM_0
 10
138.0419486872548
 20
269.32297110576047
 30
0.0
  0
SEQEND
  5
8963
  8
AM_0
  0
POLYLINE
  5
8964
  8
AM_0
 66
     1
 10
0.0
 20
0.0
 30
0.0
  0
VERTEX
  5
8965
  8
AM_0
 10
138.0388986872548
 20
265.58933110576049
 30
0.0
 42
0.00039106593
  0
VERTEX
  5
8966
  8
AM_0
 10
138.03653868725479
 20
265.27819110576053
 30
0.0
 42
0.00040574899
  0
VERTEX
  5
8967
  8
AM_0
 10
138.03466868725479
 20
264.96708110576049
 30
0.0
 42
0.0003534546
  0
VERTEX
  5
8968
  8
AM_0
 10
138.03327868725489
 20
264.65598110576047
 30
0.0
 42
0.00034407327
  0
VERTEX
  5
8969
  8
AM_0
 10
138.03229868725469
 20
264.34484110576051
 30
0.0
 42
0.00045699408
  0
VERTEX
  5
896A
  8
AM_0
 10
138.03183868725489
 20
264.03373110576052
 30
0.0
 42
0.00035571853
  0
VERTEX
  5
896B
  8
AM_0
 10
138.03187868725479
 20
263.72263110576051
 30
0.0
 42
0.00038547362
  0
VERTEX
  5
896C
  8
AM_0
 10
138.03236868725469
 20
263.4114911057606
 30
0.0
 42
0.00035501498
  0
VERTEX
  5
896D
  8
AM_0
 10
138.03332868725499
 20
263.10039110576059
 30
0.0
 42
0.00040118614
  0
VERTEX
  5
896E
  8
AM_0
 10
138.03474868725479
 20
262.78915110576042
 30
0.0
 42
0.00038319871
  0
VERTEX
  5
896F
  8
AM_0
 10
138.036658687255
 20
262.47802110576049
 30
0.0
 42
0.00040742136
  0
VERTEX
  5
8970
  8
AM_0
 10
138.03905868725479
 20
262.16679110576052
 30
0.0
 42
0.0003578071
  0
VERTEX
  5
8971
  8
AM_0
 10
138.0419486872548
 20
261.85568110576048
 30
0.0
  0
SEQEND
  5
8972
  8
AM_0
  0
ARC
  5
8973
  8
AM_0
 10
136.94306868725479
 20
260.58933110576049
 30
0.0
 40
1.2700129999999981
 50
89.736616999998319
 51
270.26336999999921
  0
ARC
  5
8974
  8
AM_0
 10
138.223528687255
 20
260.58933110576049
 30
0.0
 40
1.0000138999999999
 50
89.691659999999231
 51
270.30834000000073
  0
ARC
  5
8975
  8
AM_0
 10
136.94306868725479
 20
270.59433110576049
 30
0.0
 40
1.2650129999999991
 50
89.735579000001735
 51
270.2644099999992
  0
ARC
  5
8976
  8
AM_0
 10
138.223528687255
 20
270.58933110576049
 30
0.0
 40
1.0000138999999999
 50
89.691659999999231
 51
270.30834000000073
  0
ARC
  5
8977
  8
AM_0
 10
172.11762868725489
 20
250.58933110576049
 30
0.0
 40
1.000005699999998
 50
269.999989999999
 51
90.000003000000945
  0
ARC
  5
8978
  8
AM_0
 10
173.34388868725489
 20
250.5793211057605
 30
0.0
 40
1.3300148000000001
 50
269.7294199999987
 51
90.270567000000995
  0
ARC
  5
8979
  8
AM_0
 10
172.11762868725489
 20
260.58933110576049
 30
0.0
 40
1.000005699999998
 50
269.999989999999
 51
90.000003000000945
  0
ARC
  5
897A
  8
AM_0
 10
173.40583868725469
 20
260.58933110576049
 30
0.0
 40
1.2700266
 50
269.62932000000001
 51
90.370669999998199
  0
ARC
  5
897B
  8
AM_0
 10
172.11762868725489
 20
270.58933110576049
 30
0.0
 40
1.000005699999998
 50
269.999989999999
 51
90.000003000000945
  0
ARC
  5
897C
  8
AM_0
 10
173.40583868725469
 20
270.59934110576052
 30
0.0
 40
1.2700266
 50
269.62932000000001
 51
90.370669999998199
  0
LINE
  5
897D
  8
AM_0
 10
137.00892868725469
 20
279.26938110576049
 30
0.0
 11
173.3375986872548
 21
279.26938110576049
 31
0.0
  0
LINE
  5
897E
  8
AM_0
 10
172.11762868725489
 20
279.58933110576049
 30
0.0
 11
138.0388986872548
 21
279.58933110576049
 31
0.0
  0
LINE
  5
897F
  8
AM_0
 10
137.00892868725469
 20
281.92929110576051
 30
0.0
 11
173.3375986872548
 21
281.92929110576051
 31
0.0
  0
LINE
  5
8980
  8
AM_0
 10
172.11762868725489
 20
281.58933110576049
 30
0.0
 11
138.0388986872548
 21
281.58933110576049
 31
0.0
  0
ARC
  5
8981
  8
AM_0
 10
137.1389286872548
 20
290.61435110576031
 30
0.0
 40
1.465004
 50
90.000003000000945
 51
270.0
  0
ARC
  5
8982
  8
AM_0
 10
138.223528687255
 20
290.58933110576049
 30
0.0
 40
1.0000138999999999
 50
89.691659999999231
 51
270.30834000000073
  0
POLYLINE
  5
8983
  8
AM_0
 66
     1
 10
0.0
 20
0.0
 30
0.0
  0
VERTEX
  5
8984
  8
AM_0
 10
138.55714868725491
 20
281.92990110576051
 30
0.0
 42
-0.0007337051
  0
VERTEX
  5
8985
  8
AM_0
 10
138.60128868725479
 20
282.53231110576041
 30
0.0
 42
-0.00075211323
  0
VERTEX
  5
8986
  8
AM_0
 10
138.6472286872548
 20
283.13471110576052
 30
0.0
 42
-0.0007297491
  0
VERTEX
  5
8987
  8
AM_0
 10
138.6949586872548
 20
283.73691110576038
 30
0.0
 42
-0.00073593041
  0
VERTEX
  5
8988
  8
AM_0
 10
138.7444386872547
 20
284.33890110576039
 30
0.0
 42
-0.00074742739
  0
VERTEX
  5
8989
  8
AM_0
 10
138.79570868725489
 20
284.94076110576037
 30
0.0
 42
-0.00073217363
  0
VERTEX
  5
898A
  8
AM_0
 10
138.84876868725479
 20
285.54257110576037
 30
0.0
 42
-0.00073754168
  0
VERTEX
  5
898B
  8
AM_0
 10
138.9035886872546
 20
286.14411110576049
 30
0.0
 42
-0.00073075073
  0
VERTEX
  5
898C
  8
AM_0
 10
138.96016868725479
 20
286.7454611057604
 30
0.0
 42
-0.00074550816
  0
VERTEX
  5
898D
  8
AM_0
 10
139.01850868725461
 20
287.3465311057605
 30
0.0
 42
-0.00074288416
  0
VERTEX
  5
898E
  8
AM_0
 10
139.07865868725489
 20
287.9475511057604
 30
0.0
 42
-0.00072504001
  0
VERTEX
  5
898F
  8
AM_0
 10
139.14056868725481
 20
288.54829110576048
 30
0.0
 42
-0.00074640667
  0
VERTEX
  5
8990
  8
AM_0
 10
139.20423868725479
 20
289.1489011057605
 30
0.0
  0
SEQEND
  5
8991
  8
AM_0
  0
ARC
  5
8992
  8
AM_0
 10
137.00892868725469
 20
280.59934110576052
 30
0.0
 40
1.3300049999999981
 50
90.000003000000945
 51
270.0
  0
ARC
  5
8993
  8
AM_0
 10
138.223528687255
 20
280.58933110576049
 30
0.0
 40
1.0000138999999999
 50
89.691659999999231
 51
270.30834000000073
  0
POLYLINE
  5
8994
  8
AM_0
 66
     1
 10
0.0
 20
0.0
 30
0.0
  0
VERTEX
  5
8995
  8
AM_0
 10
139.539808687255
 20
292.07236110576048
 30
0.0
 42
-0.00068898283
  0
VERTEX
  5
8996
  8
AM_0
 10
139.61068868725471
 20
292.64711110576047
 30
0.0
 42
-0.00070644357
  0
VERTEX
  5
8997
  8
AM_0
 10
139.68318868725501
 20
293.22180110576051
 30
0.0
 42
-0.00069248074
  0
VERTEX
  5
8998
  8
AM_0
 10
139.7572786872548
 20
293.79611110576047
 30
0.0
 42
-0.0006958566
  0
VERTEX
  5
8999
  8
AM_0
 10
139.832958687255
 20
294.37025110576042
 30
0.0
 42
-0.00071687219
  0
VERTEX
  5
899A
  8
AM_0
 10
139.91026868725459
 20
294.94425110576049
 30
0.0
 42
-0.00069760022
  0
VERTEX
  5
899B
  8
AM_0
 10
139.98920868725489
 20
295.51804110576052
 30
0.0
 42
-0.00071002302
  0
VERTEX
  5
899C
  8
AM_0
 10
140.0697486872549
 20
296.09151110576039
 30
0.0
 42
-0.00069954889
  0
VERTEX
  5
899D
  8
AM_0
 10
140.1518886872548
 20
296.66461110576051
 30
0.0
 42
-0.00071887947
  0
VERTEX
  5
899E
  8
AM_0
 10
140.23566868725479
 20
297.23764110576047
 30
0.0
 42
-0.00071266929
  0
VERTEX
  5
899F
  8
AM_0
 10
140.3210986872549
 20
297.81041110576052
 30
0.0
 42
-0.00071614429
  0
VERTEX
  5
89A0
  8
AM_0
 10
140.40812868725479
 20
298.38275110576041
 30
0.0
 42
-0.00072288978
  0
VERTEX
  5
89A1
  8
AM_0
 10
140.49683868725469
 20
298.9550511057605
 30
0.0
  0
SEQEND
  5
89A2
  8
AM_0
  0
ARC
  5
89A3
  8
AM_0
 10
137.3515186872549
 20
300.63437110576052
 30
0.0
 40
1.6750160000000001
 50
89.746145000001235
 51
270.25387000000092
  0
ARC
  5
89A4
  8
AM_0
 10
138.223528687255
 20
300.58933110576049
 30
0.0
 40
1.0000138999999999
 50
89.691659999999231
 51
270.30834000000073
  0
ARC
  5
89A5
  8
AM_0
 10
172.11762868725489
 20
280.58933110576049
 30
0.0
 40
1.000005699999998
 50
269.999989999999
 51
90.000003000000945
  0
ARC
  5
89A6
  8
AM_0
 10
173.34388868725489
 20
280.60434110576051
 30
0.0
 40
1.3350147999999999
 50
269.7304299999999
 51
90.269556000001415
  0
ARC
  5
89A7
  8
AM_0
 10
204.69892868725481
 20
297.9493111057605
 30
0.0
 40
1.0
 50
0.0
 51
90.000003000000945
  0
ARC
  5
89A8
  8
AM_0
 10
204.6789086872549
 20
298.08933110576049
 30
0.0
 40
1.5
 50
0.0
 51
90.000003000000945
  0
LINE
  5
89A9
  8
AM_0
 10
206.1789086872549
 20
293.08933110576049
 30
0.0
 11
206.1789086872549
 21
298.08933110576049
 31
0.0
  0
LINE
  5
89AA
  8
AM_0
 10
205.69892868725489
 20
293.08933110576049
 30
0.0
 11
205.69892868725489
 21
297.9493111057605
 31
0.0
  0
ARC
  5
89AB
  8
AM_0
 10
204.6789086872549
 20
293.08933110576049
 30
0.0
 40
1.5
 50
269.999989999999
 51
0.0000006832495047
  0
ARC
  5
89AC
  8
AM_0
 10
204.6789086872549
 20
293.08933110576049
 30
0.0
 40
1.02
 50
269.999989999999
 51
0.0000006832429909
  0
CIRCLE
  5
89AD
  8
AM_0
 10
211.1789086872549
 20
294.08933110576049
 30
0.0
 40
1.149999999999999
  0
CIRCLE
  5
89AE
  8
AM_0
 10
211.1789086872549
 20
294.08933110576049
 30
0.0
 40
1.1000000000000001
  0
ARC
  5
89AF
  8
AM_0
 10
222.6789086872549
 20
298.08933110576049
 30
0.0
 40
1.5
 50
90.000003000000945
 51
180.00001000000091
  0
ARC
  5
89B0
  8
AM_0
 10
222.65894868725479
 20
297.9493111057605
 30
0.0
 40
1.0
 50
90.000003000000945
 51
180.00001000000091
  0
CIRCLE
  5
89B1
  8
AM_0
 10
216.1789086872549
 20
294.08933110576049
 30
0.0
 40
1.0
  0
ARC
  5
89B2
  8
AM_0
 10
222.6789086872549
 20
293.08933110576049
 30
0.0
 40
1.5
 50
179.999989999999
 51
270.0
  0
ARC
  5
89B3
  8
AM_0
 10
222.6789086872549
 20
293.08933110576049
 30
0.0
 40
1.02
 50
179.999989999999
 51
270.0
  0
LINE
  5
89B4
  8
AM_0
 10
221.1789086872549
 20
293.08933110576049
 30
0.0
 11
221.1789086872549
 21
298.08933110576049
 31
0.0
  0
LINE
  5
89B5
  8
AM_0
 10
221.65894868725479
 20
293.08933110576049
 30
0.0
 11
221.65894868725479
 21
297.9493111057605
 31
0.0
  0
ARC
  5
89B6
  8
AM_0
 10
495.18499694409059
 20
265.58933110576049
 30
0.0
 40
236.0
 50
180.00000500895041
 51
190.5639717302731
  0
LINE
  5
89B7
  8
AM_0
 10
282.18501238169381
 20
289.58933229785339
 30
0.0
 11
282.18501238169381
 21
241.5893299136676
 31
0.0
  0
LINE
  5
89B8
  8
AM_0
 10
276.18501220287988
 20
305.58933229785339
 30
0.0
 11
276.18501220287988
 21
225.58932991366771
 31
0.0
  0
LINE
  5
89B9
  8
AM_0
 10
264.37879878026217
 20
216.58933110576049
 30
0.0
 11
280.86045688254319
 21
216.58933110576049
 31
0.0
  0
LINE
  5
89BA
  8
AM_0
 10
263.68501220287988
 20
222.32272191386599
 30
0.0
 11
276.18501220287999
 21
222.32272191386599
 31
0.0
  0
ARC
  5
89BB
  8
AM_0
 10
261.23613726605788
 20
211.58933110576049
 30
0.0
 40
2.0
 50
270.0
 51
357.99953469735499
1001
GENIUS_GENOBJ-N-FIL_13
1002
{
1000
OWNER
1000
GEN
1002
}
1001
GENIUS_GENODEF_13
1002
{
1000
HIER
1070
     0
1002
}
1002
{
1000
MANEDIT
1070
     0
1002
}
1002
{
1000
NOSEL
1070
     0
1002
}
1002
{
1000
BEHIND
1070
     0
1002
}
1002
{
1000
OTHER
1070
     0
1002
}
1002
{
1000
REACTOR
1002
}
  0
LINE
  5
89BC
  8
AM_0
 10
240.5142763668039
 20
221.1532478815613
 30
0.0
 11
237.73890868725479
 21
210.78934110576051
 31
0.0
  0
LINE
  5
89BD
  8
AM_0
 10
242.6789086872549
 20
212.58933110576049
 30
0.0
 11
236.95316868725479
 21
203.7724311057604
 31
0.0
  0
LINE
  5
89BE
  8
AM_0
 10
243.6789086872549
 20
209.58933110576049
 30
0.0
 11
251.6789086872549
 21
209.58933110576049
 31
0.0
  0
ARC
  5
89BF
  8
AM_0
 10
235.8040886872549
 20
211.31406110576049
 30
0.0
 40
2.0047290000000002
 50
270.13832000000099
 51
344.82650000000189
  0
ARC
  5
89C0
  8
AM_0
 10
235.6951486872548
 20
204.58933110576049
 30
0.0
 40
1.5
 50
269.999989999999
 51
326.99999999999892
  0
LINE
  5
89C1
  8
AM_0
 10
251.6789086872549
 20
209.58933110576049
 30
0.0
 11
261.23613726605788
 21
209.58933110576049
 31
0.0
  0
LINE
  5
89C2
  8
AM_0
 10
243.6789086872549
 20
219.58933110576049
 30
0.0
 11
263.18501220287988
 21
219.58933110576049
 31
0.0
  0
LINE
  5
89C3
  8
AM_0
 10
243.6789086872549
 20
233.64939110576049
 30
0.0
 11
261.35965904824849
 21
233.64939110576049
 31
0.0
  0
LINE
  5
89C4
  8
AM_0
 10
243.6789086872549
 20
227.88935110576051
 30
0.0
 11
243.6789086872549
 21
220.2893411057604
 31
0.0
  0
LINE
  5
89C5
  8
AM_0
 10
242.6789086872549
 20
227.88935110576051
 30
0.0
 11
242.6789086872549
 21
220.2893411057604
 31
0.0
  0
ARC
  5
89C6
  8
AM_0
 10
241.7789086872551
 20
225.8893511057604
 30
0.0
 40
1.699996899999999
 50
90.000003000000945
 51
179.99998000000451
  0
LINE
  5
89C7
  8
AM_0
 10
238.22095868725489
 20
212.58933110576049
 30
0.0
 11
243.6789086872549
 21
212.58933110576049
 31
0.0
  0
LINE
  5
89C8
  8
AM_0
 10
243.6789086872549
 20
223.86670110576051
 30
0.0
 11
242.6789086872549
 21
223.2893411057604
 31
0.0
  0
LINE
  5
89C9
  8
AM_0
 10
242.6789086872549
 20
220.58933110576049
 30
0.0
 11
241.7789086872551
 21
220.58933110576049
 31
0.0
  0
LINE
  5
89CA
  8
AM_0
 10
242.6789086872549
 20
220.2893411057604
 30
0.0
 11
243.6789086872549
 21
220.2893411057604
 31
0.0
  0
LINE
  5
89CB
  8
AM_0
 10
243.6789086872549
 20
224.86670110576051
 30
0.0
 11
242.6789086872549
 21
224.2893411057604
 31
0.0
  0
LINE
  5
89CC
  8
AM_0
 10
240.07892868725489
 20
225.8893511057604
 30
0.0
 11
240.07892868725489
 21
222.28934110576029
 31
0.0
  0
ARC
  5
89CD
  8
AM_0
 10
241.7789086872551
 20
222.28934110576029
 30
0.0
 40
1.7000007999999991
 50
180.00001000000091
 51
269.99998000000119
  0
ARC
  5
89CE
  8
AM_0
 10
237.01893868725469
 20
230.58933110576049
 30
0.0
 40
1.0
 50
269.999989999999
 51
90.000003000000945
  0
ARC
  5
89CF
  8
AM_0
 10
237.0188786872549
 20
240.58933110576049
 30
0.0
 40
1.0000255999999981
 50
269.58947000000001
 51
90.410531000001029
  0
LINE
  5
89D0
  8
AM_0
 10
242.6789086872549
 20
227.88935110576051
 30
0.0
 11
243.6789086872549
 21
227.88935110576051
 31
0.0
  0
LINE
  5
89D1
  8
AM_0
 10
242.6789086872549
 20
227.58933110576061
 30
0.0
 11
241.7789086872551
 21
227.58933110576061
 31
0.0
  0
ARC
  5
89D2
  8
AM_0
 10
240.4989186872549
 20
230.5442811057604
 30
0.0
 40
1.6750020000000001
 50
269.999989999999
 51
90.000003000000945
  0
ARC
  5
89D3
  8
AM_0
 10
240.71888868725489
 20
240.55930110576051
 30
0.0
 40
1.460011199999999
 50
269.77524999999991
 51
90.224750000000114
  0
LINE
  5
89D4
  8
AM_0
 10
263.23491835318822
 20
211.51951588012571
 30
0.0
 11
263.379622798583
 21
215.66234441142461
 31
0.0
  0
ARC
  5
89D5
  8
AM_0
 10
264.38006608448779
 20
215.58597825016179
 30
0.0
 40
1.003353655944897
 50
90.072368503728555
 51
175.63494469419581
  0
ARC
  5
89D6
  8
AM_0
 10
303.18501253070542
 20
225.5893297646557
 30
0.0
 40
5.0
 50
179.99999946639139
 51
270.0
1001
GENIUS_GENODEF_13
1002
{
1000
HIER
1070
     0
1002
}
1002
{
1000
MANEDIT
1070
     0
1002
}
1002
{
1000
NOSEL
1070
     0
1002
}
1002
{
1000
BEHIND
1070
     0
1002
}
1002
{
1000
OTHER
1070
     0
1002
}
1002
{
1000
REACTOR
1002
}
1001
GENIUS_GENOBJ-N-FIL_13
1002
{
1000
OWNER
1000
GEN
1002
}
  0
ARC
  5
89D7
  8
AM_0
 10
287.18501253070542
 20
225.5893299136676
 30
0.0
 40
11.0
 50
359.99999946639139
 51
90.000000533608556
  0
CIRCLE
  5
89D8
  8
AM_0
 10
287.18501253070542
 20
225.58932991366771
 30
0.0
 40
4.5000001341104507
  0
LINE
  5
89D9
  8
ﾁｭｳｼﾝｾﾝ1
 10
287.18501253070542
 20
233.0893301371851
 30
0.0
 11
287.18501253070542
 21
218.08932969015021
 31
0.0
  0
ARC
  5
89DA
  8
AM_0
 10
287.18501253070542
 20
225.58932991366771
 30
0.0
 40
11.000000327825591
 50
180.00000500895689
 51
270.000000683243
  0
LINE
  5
89DB
  8
ﾁｭｳｼﾝｾﾝ1
 10
279.685012307188
 20
225.58932991366771
 30
0.0
 11
294.68501275422278
 21
225.58932991366771
 31
0.0
  0
ARC
  5
89DC
  8
AM_0
 10
287.18501238169381
 20
241.5893299136676
 30
0.0
 40
5.0
 50
180.0
 51
270.0000005336085
1001
GENIUS_GENOBJ-N-FIL_13
1002
{
1000
OWNER
1000
GEN
1002
}
1001
GENIUS_GENODEF_13
1002
{
1000
HIER
1070
     0
1002
}
1002
{
1000
MANEDIT
1070
     0
1002
}
1002
{
1000
NOSEL
1070
     0
1002
}
1002
{
1000
BEHIND
1070
     0
1002
}
1002
{
1000
OTHER
1070
     0
1002
}
1002
{
1000
REACTOR
1002
}
  0
LINE
  5
89DD
  8
AM_0
 10
243.6789086872549
 20
297.5292811057605
 30
0.0
 11
261.28492482321769
 21
297.5292811057605
 31
0.0
  0
ARC
  5
89DE
  8
AM_0
 10
237.0188786872549
 20
290.58933110576049
 30
0.0
 40
1.0000255999999981
 50
269.58947000000001
 51
90.410531000001029
  0
ARC
  5
89DF
  8
AM_0
 10
240.71888868725489
 20
290.6193611057605
 30
0.0
 40
1.460011199999999
 50
269.77524999999991
 51
90.224750000000114
  0
ARC
  5
89E0
  8
AM_0
 10
237.01893868725469
 20
300.58933110576049
 30
0.0
 40
1.0
 50
269.999989999999
 51
90.000003000000945
  0
LINE
  5
89E1
  8
AM_0
 10
242.6789086872549
 20
303.28931110576048
 30
0.0
 11
243.6789086872549
 21
303.28931110576048
 31
0.0
  0
LINE
  5
89E2
  8
AM_0
 10
242.6789086872549
 20
303.58933110576038
 30
0.0
 11
241.7789086872549
 21
303.58933110576038
 31
0.0
  0
ARC
  5
89E3
  8
AM_0
 10
240.4989186872549
 20
300.63437110576052
 30
0.0
 40
1.6750020000000001
 50
269.999989999999
 51
90.000003000000945
  0
ARC
  5
89E4
  8
AM_0
 10
241.7789086872549
 20
305.28931110576059
 30
0.0
 40
1.699996899999999
 50
180.00001999999549
 51
269.9999969999991
  0
ARC
  5
89E5
  8
AM_0
 10
287.18501253070542
 20
305.58933229785339
 30
0.0
 40
11.0
 50
269.99999946639139
 51
0.0000005336085289
  0
ARC
  5
89E6
  8
AM_0
 10
287.18501238169381
 20
289.58933229785339
 30
0.0
 40
5.0
 50
89.999999466391486
 51
180.0
1001
GENIUS_GENOBJ-N-FIL_13
1002
{
1000
OWNER
1000
GEN
1002
}
1001
GENIUS_GENODEF_13
1002
{
1000
HIER
1070
     0
1002
}
1002
{
1000
MANEDIT
1070
     0
1002
}
1002
{
1000
NOSEL
1070
     0
1002
}
1002
{
1000
BEHIND
1070
     0
1002
}
1002
{
1000
OTHER
1070
     0
1002
}
1002
{
1000
REACTOR
1002
}
  0
LINE
  5
89E7
  8
ﾁｭｳｼﾝｾﾝ1
 10
279.685012307188
 20
305.58933229785339
 30
0.0
 11
294.68501275422278
 21
305.58933229785339
 31
0.0
  0
LINE
  5
89E8
  8
AM_0
 10
138.96894868725471
 20
327.47934110576051
 30
0.0
 11
235.80897868725481
 21
327.47934110576051
 31
0.0
  0
LINE
  5
89E9
  8
AM_0
 10
138.94892868725481
 20
326.56931110576051
 30
0.0
 11
235.8089186872547
 21
326.56931110576051
 31
0.0
  0
LINE
  5
89EA
  8
AM_0
 10
138.8889286872548
 20
321.8693611057605
 30
0.0
 11
235.8089186872547
 21
321.8693611057605
 31
0.0
  0
LINE
  5
89EB
  8
AM_0
 10
138.92890868725479
 20
324.71933110576049
 30
0.0
 11
235.8089186872547
 21
324.71933110576049
 31
0.0
  0
LINE
  5
89EC
  8
AM_0
 10
135.67890868725479
 20
316.37933110576051
 30
0.0
 11
136.98890868725479
 21
325.75937110576052
 31
0.0
  0
LINE
  5
89ED
  8
AM_0
 10
135.6789686872547
 20
315.02936110576047
 30
0.0
 11
136.95893868725469
 21
323.03931110576048
 31
0.0
  0
LINE
  5
89EE
  8
AM_0
 10
135.6789686872547
 20
316.37930110576042
 30
0.0
 11
136.96894868725471
 21
324.8693911057606
 31
0.0
  0
LINE
  5
89EF
  8
AM_0
 10
135.67890868725479
 20
313.68939110576048
 30
0.0
 11
136.91889868725491
 21
320.24939110576048
 31
0.0
  0
ARC
  5
89F0
  8
AM_0
 10
138.87763868725489
 20
319.87521110576051
 30
0.0
 40
1.994108999999999
 50
89.675547999999495
 51
169.18776999999901
  0
ARC
  5
89F1
  8
AM_0
 10
138.9291586872549
 20
322.72409110576052
 30
0.0
 40
1.9952829999999999
 50
90.00620400000011
 51
170.90835000000069
  0
ARC
  5
89F2
  8
AM_0
 10
138.9434986872549
 20
324.57260110576038
 30
0.0
 40
1.9967330000000001
 50
89.843966999998912
 51
171.45388000000389
  0
ARC
  5
89F3
  8
AM_0
 10
138.96540868725469
 20
325.4837311057604
 30
0.0
 40
1.995633
 50
89.899707999998995
 51
172.06112999999939
  0
LINE
  5
89F4
  8
AM_0
 10
264.37879878026217
 20
314.58933110576049
 30
0.0
 11
280.86045688254319
 21
314.58933110576049
 31
0.0
  0
LINE
  5
89F5
  8
AM_0
 10
263.68501220287988
 20
308.85594792704961
 30
0.0
 11
276.18501220287988
 21
308.85594792704961
 31
0.0
  0
LINE
  5
89F6
  8
AM_0
 10
243.6789086872549
 20
321.58933110576049
 30
0.0
 11
251.6789086872549
 21
321.58933110576049
 31
0.0
  0
LINE
  5
89F7
  8
AM_0
 10
243.6789086872549
 20
311.58933110576049
 30
0.0
 11
263.18501220287988
 21
311.58933110576049
 31
0.0
  0
LINE
  5
89F8
  8
AM_0
 10
241.8846586872549
 20
310.51822110576052
 30
0.0
 11
237.73893868725469
 21
325.99933110576052
 31
0.0
  0
LINE
  5
89F9
  8
AM_0
 10
241.157946010644
 20
310.47185327739447
 30
0.0
 11
237.73890868725479
 21
323.23938110576051
 31
0.0
  0
LINE
  5
89FA
  8
AM_0
 10
241.62379654315171
 20
310.58223071431968
 30
0.0
 11
237.73890868725479
 21
325.08933110576049
 31
0.0
  0
ARC
  5
89FB
  8
AM_0
 10
235.80903868725491
 20
319.87106110576059
 30
0.0
 40
1.9982919999999991
 50
15.032547999996
 51
90.002632000001341
  0
LINE
  5
89FC
  8
AM_0
 10
240.51429251454249
 20
310.02543230441802
 30
0.0
 11
237.7389686872547
 21
320.3893111057605
 31
0.0
  0
LINE
  5
89FD
  8
AM_0
 10
242.6789086872549
 20
310.58933110576049
 30
0.0
 11
241.7789086872549
 21
310.58933110576049
 31
0.0
  0
LINE
  5
89FE
  8
AM_0
 10
242.6789086872549
 20
310.88932110576047
 30
0.0
 11
243.6789086872549
 21
310.88932110576047
 31
0.0
  0
LINE
  5
89FF
  8
AM_0
 10
243.6789086872549
 20
307.31196110576047
 30
0.0
 11
242.6789086872549
 21
307.88932110576047
 31
0.0
  0
ARC
  5
8A00
  8
AM_0
 10
241.7789086872549
 20
308.88932110576047
 30
0.0
 40
1.7000007999999991
 50
90.000020000002024
 51
179.999989999999
  0
LINE
  5
8A01
  8
AM_0
 10
239.72327864737409
 20
318.58933110576049
 30
0.0
 11
243.6789086872549
 21
318.58933110576049
 31
0.0
  0
ARC
  5
8A02
  8
AM_0
 10
235.8040886872549
 20
325.47458110576031
 30
0.0
 40
2.0047290000000002
 50
15.173495999996319
 51
89.861678000000197
  0
ARC
  5
8A03
  8
AM_0
 10
235.8040886872549
 20
322.7145711057604
 30
0.0
 40
2.0047290000000002
 50
15.173495999996319
 51
89.861678000000197
  0
ARC
  5
8A04
  8
AM_0
 10
235.8040886872549
 20
324.5645511057603
 30
0.0
 40
2.0047290000000002
 50
15.173495999996319
 51
89.861678000000197
  0
ARC
  5
8A05
  8
AM_0
 10
261.23613779903059
 20
319.58933110576049
 30
0.0
 40
2.0
 50
2.0004653026450021
 51
90.0
1001
GENIUS_GENODEF_13
1002
{
1000
HIER
1070
     0
1002
}
1002
{
1000
MANEDIT
1070
     0
1002
}
1002
{
1000
NOSEL
1070
     0
1002
}
1002
{
1000
BEHIND
1070
     0
1002
}
1002
{
1000
OTHER
1070
     0
1002
}
1002
{
1000
REACTOR
1002
}
1001
GENIUS_GENOBJ-N-FIL_13
1002
{
1000
OWNER
1000
GEN
1002
}
  0
LINE
  5
8A06
  8
AM_0
 10
251.6789086872549
 20
321.58933110576049
 30
0.0
 11
261.23613779903059
 21
321.58933110576049
 31
0.0
  0
ARC
  5
8A07
  8
AM_0
 10
264.37879882397363
 20
315.58933110576049
 30
0.0
 40
1.0000000000000091
 50
187.1807504503941
 51
269.99999749552148
  0
LINE
  5
8A08
  8
AM_0
 10
263.23491888616081
 20
319.65914633139528
 30
0.0
 11
263.379622798583
 21
315.51633305888549
 31
0.0
  0
LINE
  5
8A09
  8
AM_0
 10
652.55582192313102
 20
192.58933110576029
 30
0.0
 11
652.55582192313102
 21
177.58933110576021
 31
0.0
  0
LINE
  5
8A0A
  8
AM_0
 10
592.55582192313102
 20
192.58933110576049
 30
0.0
 11
592.55582192313102
 21
177.58933110576061
 31
0.0
  0
LINE
  5
8A0B
  8
ﾁｭｳｼﾝｾﾝ1
 10
622.55582192313125
 20
168.08933110576041
 30
0.0
 11
622.55582192313125
 21
332.08933110576049
 31
0.0
  0
LINE
  5
8A0C
  8
AM_0
 10
639.85962192313104
 20
173.08933110576021
 30
0.0
 11
605.25192192313114
 21
173.08933110576041
 31
0.0
  0
LINE
  5
8A0D
  8
AM_0
 10
594.05582192313102
 20
176.08933110576061
 30
0.0
 11
651.05582192313102
 21
176.08933110576021
 31
0.0
  0
ARC
  5
8A0E
  8
AM_0
 10
594.05582192313125
 20
177.58933110576049
 30
0.0
 40
1.5
 50
180.0
 51
270.0
  0
LINE
  5
8A0F
  8
AM_0
 10
605.25192192313114
 20
173.08933110576041
 30
0.0
 11
600.05582192313102
 21
176.08933110576041
 31
0.0
  0
LINE
  5
8A10
  8
AM_0
 10
645.05868734369005
 20
176.08933110576021
 30
0.0
 11
639.85962192313104
 21
173.08933110576021
 31
0.0
  0
ARC
  5
8A11
  8
AM_0
 10
651.05582192313125
 20
177.58933110576049
 30
0.0
 40
1.5
 50
270.0
 51
0.0
  0
LINE
  5
8A12
  8
ﾁｭｳｼﾝｾﾝ1
 10
689.05582192313125
 20
265.58933110576049
 30
0.0
 11
518.02727845210734
 21
265.58933110576049
 31
0.0
  0
LINE
  5
8A14
  8
AM_0
 10
567.24595055030125
 20
229.56523128305159
 30
0.0
 11
576.55582192313125
 21
229.2401234108431
 31
0.0
  0
LINE
  5
8A15
  8
AM_0
 10
567.22186664596074
 20
231.63579697215729
 30
0.0
 11
576.55582192313125
 21
231.96174587283781
 31
0.0
  0
LINE
  5
8A16
  8
AM_0
 10
567.22186664596074
 20
299.54286523936378
 30
0.0
 11
576.55582192313125
 21
299.21691633868369
 31
0.0
  0
LINE
  5
8A17
  8
AM_0
 10
567.24595055030125
 20
301.6134309284696
 30
0.0
 11
576.55582192313125
 21
301.9385388006782
 31
0.0
  0
ARC
  5
8A18
  8
AM_0
 10
404.18501595797238
 20
305.58933229785339
 30
0.0
 40
11.000000327825539
 50
0.0
 51
90.0
  0
LINE
  5
8A19
  8
ﾁｭｳｼﾝｾﾝ1
 10
402.1850159579725
 20
298.08933207433603
 30
0.0
 11
402.1850159579725
 21
313.08933252137098
 31
0.0
  0
ARC
  5
8A1A
  8
AM_0
 10
386.1850159579725
 20
305.58933244686523
 30
0.0
 40
5.0
 50
359.99999946639139
 51
90.0
1001
GENIUS_GENODEF_13
1002
{
1000
HIER
1070
     0
1002
}
1002
{
1000
MANEDIT
1070
     0
1002
}
1002
{
1000
NOSEL
1070
     0
1002
}
1002
{
1000
BEHIND
1070
     0
1002
}
1002
{
1000
OTHER
1070
     0
1002
}
1002
{
1000
REACTOR
1002
}
1001
GENIUS_GENOBJ-N-FIL_13
1002
{
1000
OWNER
1000
GEN
1002
}
  0
CIRCLE
  5
8A1B
  8
AM_0
 10
402.1850159579725
 20
305.58933229785339
 30
0.0
 40
4.5000001341104507
  0
LINE
  5
8A1C
  8
ﾁｭｳｼﾝｾﾝ1
 10
362.1850147658796
 20
321.58933262567899
 30
0.0
 11
362.1850147658796
 21
209.58932958584211
 31
0.0
  0
LINE
  5
8A1D
  8
AM_0
 10
407.18501610698411
 20
289.58933229785339
 30
0.0
 11
407.18501610698411
 21
241.2996880478884
 31
0.0
  0
CIRCLE
  5
8A1F
  8
AM_0
 10
362.1850147658796
 20
265.58933110576049
 30
0.0
 40
27.500000819563869
  0
ARC
  5
8A20
  8
AM_0
 10
402.1850159579725
 20
225.5893299136676
 30
0.0
 40
11.0
 50
89.999999466391486
 51
180.0000005336085
  0
ARC
  5
8A21
  8
AM_0
 10
386.1850159579725
 20
225.5893297646557
 30
0.0
 40
5.0
 50
270.0
 51
0.0000005336085289
1001
GENIUS_GENODEF_13
1002
{
1000
HIER
1070
     0
1002
}
1002
{
1000
MANEDIT
1070
     0
1002
}
1002
{
1000
NOSEL
1070
     0
1002
}
1002
{
1000
BEHIND
1070
     0
1002
}
1002
{
1000
OTHER
1070
     0
1002
}
1002
{
1000
REACTOR
1002
}
1001
GENIUS_GENOBJ-N-FIL_13
1002
{
1000
OWNER
1000
GEN
1002
}
  0
LINE
  5
8A22
  8
ﾁｭｳｼﾝｾﾝ1
 10
402.1850159579725
 20
233.0893301371851
 30
0.0
 11
402.1850159579725
 21
218.08932969015021
 31
0.0
  0
CIRCLE
  5
8A23
  8
AM_0
 10
402.1850159579725
 20
225.58932991366771
 30
0.0
 40
4.5000001341104507
  0
ARC
  5
8A24
  8
AM_0
 10
404.18501595797238
 20
225.58932991366771
 30
0.0
 40
11.00000032782555
 50
270.0
 51
0.0
  0
LINE
  5
8A25
  8
ﾁｭｳｼﾝｾﾝ1
 10
394.68501573445542
 20
225.58932991366771
 30
0.0
 11
409.6850161814898
 21
225.58932991366771
 31
0.0
  0
ARC
  5
8A26
  8
AM_0
 10
402.18501610698399
 20
241.5893299136676
 30
0.0
 40
5.0
 50
269.99999946639139
 51
0.0
1001
GENIUS_GENOBJ-N-FIL_13
1002
{
1000
OWNER
1000
GEN
1002
}
1001
GENIUS_GENODEF_13
1002
{
1000
HIER
1070
     0
1002
}
1002
{
1000
MANEDIT
1070
     0
1002
}
1002
{
1000
NOSEL
1070
     0
1002
}
1002
{
1000
BEHIND
1070
     0
1002
}
1002
{
1000
OTHER
1070
     0
1002
}
1002
{
1000
REACTOR
1002
}
  0
ARC
  5
8A2C
  8
AM_0
 10
402.1850159579725
 20
305.58933229785339
 30
0.0
 40
11.0
 50
179.99999946639139
 51
270.0000005336085
  0
ARC
  5
8A2D
  8
AM_0
 10
402.18501610698399
 20
289.58933229785339
 30
0.0
 40
5.0
 50
0.0
 51
90.000000533608556
1001
GENIUS_GENOBJ-N-FIL_13
1002
{
1000
OWNER
1000
GEN
1002
}
1001
GENIUS_GENODEF_13
1002
{
1000
HIER
1070
     0
1002
}
1002
{
1000
MANEDIT
1070
     0
1002
}
1002
{
1000
NOSEL
1070
     0
1002
}
1002
{
1000
BEHIND
1070
     0
1002
}
1002
{
1000
OTHER
1070
     0
1002
}
1002
{
1000
REACTOR
1002
}
  0
LINE
  5
8A2E
  8
ﾁｭｳｼﾝｾﾝ1
 10
394.68501573445542
 20
305.58933229785339
 30
0.0
 11
409.6850161814898
 21
305.58933229785339
 31
0.0
  0
LINE
  5
8A2F
  8
AM_0
 10
568.55582192313125
 20
231.6823797169034
 30
0.0
 11
568.55582192313125
 21
239.4178002445957
 31
0.0
  0
ARC
  5
8A30
  8
AM_0
 10
567.25676614266365
 20
230.63640614513841
 30
0.0
 40
1.0
 50
92.000000000003581
 51
198.52714231446819
1001
GENIUS_GENODEF_13
1002
{
1000
HIER
1070
     0
1002
}
1002
{
1000
MANEDIT
1070
     0
1002
}
1002
{
1000
NOSEL
1070
     0
1002
}
1002
{
1000
BEHIND
1070
     0
1002
}
1002
{
1000
REACTOR
1002
}
1001
GENIUS_GENOBJ-N-FIL_13
1002
{
1000
OWNER
1000
GEN
1002
}
  0
ARC
  5
8A31
  8
AM_0
 10
567.28085004700347
 20
230.56462211007079
 30
0.0
 40
1.0
 50
198.56658080190289
 51
267.99999999999312
1001
GENIUS_GENODEF_13
1002
{
1000
HIER
1070
     0
1002
}
1002
{
1000
MANEDIT
1070
     0
1002
}
1002
{
1000
NOSEL
1070
     0
1002
}
1002
{
1000
BEHIND
1070
     0
1002
}
1002
{
1000
REACTOR
1002
}
1001
GENIUS_GENOBJ-N-FIL_13
1002
{
1000
OWNER
1000
GEN
1002
}
  0
ARC
  5
8A32
  8
AM_0
 10
671.55582192313125
 20
265.58933110576049
 30
0.0
 40
111.0
 50
198.52714231446819
 51
198.56658080189561
  0
LINE
  5
8A33
  8
AM_0
 10
564.38951749126954
 20
241.63151702880481
 30
0.0
 11
571.27486786501095
 21
241.8719587620763
 31
0.0
  0
LINE
  5
8A34
  8
AM_0
 10
564.4058522255923
 20
239.56272037980119
 30
0.0
 11
572.5561273256983
 21
239.27810650173609
 31
0.0
  0
ARC
  5
8A35
  8
AM_0
 10
671.55582192313125
 20
265.58933110576049
 30
0.0
 40
111.0
 50
193.11367014329909
 51
193.15111826064859
  0
ARC
  5
8A36
  8
AM_0
 10
564.42441698797222
 20
240.6321262017857
 30
0.0
 40
1.0
 50
92.000000000003581
 51
193.11367014329909
1001
GENIUS_GENODEF_13
1002
{
1000
HIER
1070
     0
1002
}
1002
{
1000
MANEDIT
1070
     0
1002
}
1002
{
1000
NOSEL
1070
     0
1002
}
1002
{
1000
BEHIND
1070
     0
1002
}
1002
{
1000
REACTOR
1002
}
1001
GENIUS_GENOBJ-N-FIL_13
1002
{
1000
OWNER
1000
GEN
1002
}
  0
ARC
  5
8A37
  8
AM_0
 10
564.44075172229486
 20
240.56211120682039
 30
0.0
 40
1.0
 50
193.15111826064859
 51
267.99999999999972
1001
GENIUS_GENODEF_13
1002
{
1000
HIER
1070
     0
1002
}
1002
{
1000
MANEDIT
1070
     0
1002
}
1002
{
1000
NOSEL
1070
     0
1002
}
1002
{
1000
BEHIND
1070
     0
1002
}
1002
{
1000
REACTOR
1002
}
1001
GENIUS_GENOBJ-N-FIL_13
1002
{
1000
OWNER
1000
GEN
1002
}
  0
ARC
  5
8A38
  8
AM_0
 10
562.57798008448788
 20
250.62838233264799
 30
0.0
 40
1.0
 50
92.000000000000341
 51
187.81694783169451
1001
GENIUS_GENODEF_13
1002
{
1000
HIER
1070
     0
1002
}
1002
{
1000
MANEDIT
1070
     0
1002
}
1002
{
1000
NOSEL
1070
     0
1002
}
1002
{
1000
BEHIND
1070
     0
1002
}
1002
{
1000
REACTOR
1002
}
1001
GENIUS_GENOBJ-N-FIL_13
1002
{
1000
OWNER
1000
GEN
1002
}
  0
LINE
  5
8A39
  8
AM_0
 10
562.55256274015903
 20
249.56008374969429
 30
0.0
 11
568.43852707710801
 21
249.35454134584711
 31
0.0
  0
ARC
  5
8A3A
  8
AM_0
 10
562.58746223686137
 20
250.55947457671351
 30
0.0
 40
1.0
 50
187.8531780888062
 51
267.99999999999972
1001
GENIUS_GENODEF_13
1002
{
1000
HIER
1070
     0
1002
}
1002
{
1000
MANEDIT
1070
     0
1002
}
1002
{
1000
NOSEL
1070
     0
1002
}
1002
{
1000
BEHIND
1070
     0
1002
}
1002
{
1000
REACTOR
1002
}
1001
GENIUS_GENOBJ-N-FIL_13
1002
{
1000
OWNER
1000
GEN
1002
}
  0
ARC
  5
8A3B
  8
AM_0
 10
671.55582192313125
 20
265.58933110576049
 30
0.0
 40
111.0
 50
187.81694783169451
 51
187.8531780888126
  0
LINE
  5
8A3C
  8
AM_0
 10
562.54308058778554
 20
251.62777315966721
 30
0.0
 11
567.76183975371123
 21
251.81001624553321
 31
0.0
  0
ARC
  5
8A47
  8
AM_0
 10
564.44075172229486
 20
290.6165510047008
 30
0.0
 40
1.0
 50
92.000000000000341
 51
166.84888173935141
1001
GENIUS_GENODEF_13
1002
{
1000
HIER
1070
     0
1002
}
1002
{
1000
MANEDIT
1070
     0
1002
}
1002
{
1000
NOSEL
1070
     0
1002
}
1002
{
1000
BEHIND
1070
     0
1002
}
1002
{
1000
REACTOR
1002
}
1001
GENIUS_GENOBJ-N-FIL_13
1002
{
1000
OWNER
1000
GEN
1002
}
  0
ARC
  5
8A48
  8
AM_0
 10
562.57798008448788
 20
280.5502798788732
 30
0.0
 40
1.0
 50
172.18305216830549
 51
267.99999999999972
1001
GENIUS_GENODEF_13
1002
{
1000
HIER
1070
     0
1002
}
1002
{
1000
MANEDIT
1070
     0
1002
}
1002
{
1000
NOSEL
1070
     0
1002
}
1002
{
1000
BEHIND
1070
     0
1002
}
1002
{
1000
REACTOR
1002
}
1001
GENIUS_GENOBJ-N-FIL_13
1002
{
1000
OWNER
1000
GEN
1002
}
  0
LINE
  5
8A49
  8
AM_0
 10
562.54308058778554
 20
279.55088905185431
 30
0.0
 11
567.76183975371123
 21
279.3686459659877
 31
0.0
  0
LINE
  5
8A4A
  8
AM_0
 10
562.55256274015903
 20
281.6185784618267
 30
0.0
 11
568.43852707710801
 21
281.82412086567422
 31
0.0
  0
ARC
  5
8A4B
  8
AM_0
 10
562.58746223686137
 20
280.61918763480782
 30
0.0
 40
1.0
 50
92.000000000000341
 51
172.14682191119371
1001
GENIUS_GENODEF_13
1002
{
1000
HIER
1070
     0
1002
}
1002
{
1000
MANEDIT
1070
     0
1002
}
1002
{
1000
NOSEL
1070
     0
1002
}
1002
{
1000
BEHIND
1070
     0
1002
}
1002
{
1000
REACTOR
1002
}
1001
GENIUS_GENOBJ-N-FIL_13
1002
{
1000
OWNER
1000
GEN
1002
}
  0
ARC
  5
8A4C
  8
AM_0
 10
671.55582192313125
 20
265.58933110576049
 30
0.0
 40
111.0
 50
172.14682191118729
 51
172.18305216830549
  0
LINE
  5
8A4D
  8
AM_0
 10
564.38951749126954
 20
289.54714518271629
 30
0.0
 11
571.27486786501095
 21
289.30670344944502
 31
0.0
  0
ARC
  5
8A4E
  8
AM_0
 10
671.55582192313125
 20
265.58933110576049
 30
0.0
 40
111.0
 50
166.84888173935141
 51
166.88632985669449
  0
ARC
  5
8A4F
  8
AM_0
 10
564.42441698797222
 20
290.54653600973552
 30
0.0
 40
1.0
 50
166.8863298567008
 51
267.99999999999642
1001
GENIUS_GENODEF_13
1002
{
1000
HIER
1070
     0
1002
}
1002
{
1000
MANEDIT
1070
     0
1002
}
1002
{
1000
NOSEL
1070
     0
1002
}
1002
{
1000
BEHIND
1070
     0
1002
}
1002
{
1000
REACTOR
1002
}
1001
GENIUS_GENOBJ-N-FIL_13
1002
{
1000
OWNER
1000
GEN
1002
}
  0
LINE
  5
8A50
  8
AM_0
 10
568.55582192313125
 20
299.49628249461762
 30
0.0
 11
568.55582192313125
 21
291.76086196692529
 31
0.0
  0
LINE
  5
8A51
  8
AM_0
 10
564.4058522255923
 20
291.61594183171991
 30
0.0
 11
572.5561273256983
 21
291.90055570978512
 31
0.0
  0
ARC
  5
8A52
  8
AM_0
 10
567.25676614266365
 20
300.54225606638312
 30
0.0
 40
1.0
 50
161.47285768553169
 51
267.99999999999642
1001
GENIUS_GENODEF_13
1002
{
1000
HIER
1070
     0
1002
}
1002
{
1000
MANEDIT
1070
     0
1002
}
1002
{
1000
NOSEL
1070
     0
1002
}
1002
{
1000
BEHIND
1070
     0
1002
}
1002
{
1000
REACTOR
1002
}
1001
GENIUS_GENOBJ-N-FIL_13
1002
{
1000
OWNER
1000
GEN
1002
}
  0
ARC
  5
8A53
  8
AM_0
 10
671.55582192313125
 20
265.58933110576049
 30
0.0
 40
111.0
 50
161.43341919810311
 51
161.47285768553169
  0
ARC
  5
8A54
  8
AM_0
 10
567.28085004700347
 20
300.61404010145043
 30
0.0
 40
1.0
 50
92.000000000006864
 51
161.43341919809711
1001
GENIUS_GENODEF_13
1002
{
1000
HIER
1070
     0
1002
}
1002
{
1000
MANEDIT
1070
     0
1002
}
1002
{
1000
NOSEL
1070
     0
1002
}
1002
{
1000
BEHIND
1070
     0
1002
}
1002
{
1000
REACTOR
1002
}
1001
GENIUS_GENOBJ-N-FIL_13
1002
{
1000
OWNER
1000
GEN
1002
}
  0
ARC
  5
8A55
  8
AM_0
 10
663.55582192313125
 20
306.58933110576049
 30
0.0
 40
5.0
 50
0.0
 51
90.0
1001
GENIUS_GENODEF_13
1002
{
1000
HIER
1070
     0
1002
}
1002
{
1000
MANEDIT
1070
     0
1002
}
1002
{
1000
NOSEL
1070
     0
1002
}
1002
{
1000
BEHIND
1070
     0
1002
}
1002
{
1000
REACTOR
1002
}
1001
GENIUS_GENOBJ-N-FIL_13
1002
{
1000
OWNER
1000
GEN
1002
}
  0
LINE
  5
8A56
  8
AM_0
 10
647.55582266818919
 20
316.58933262567899
 30
0.0
 11
647.55582266818919
 21
214.58932958584219
 31
0.0
  0
LINE
  5
8A57
  8
AM_0
 10
660.55582305561927
 20
316.36241677484941
 30
0.0
 11
660.55582305561927
 21
214.81624543667149
 31
0.0
  0
ARC
  5
8A58
  8
AM_0
 10
581.55582192313125
 20
306.58933110576049
 30
0.0
 40
5.0
 50
90.0
 51
180.0
1001
GENIUS_GENOBJ-N-CEN_13
1002
{
1000
OWNER
1000
GEN
1002
}
1001
GENIUS_GENODEF_13
1002
{
1000
HIER
1070
     0
1002
}
1002
{
1000
MANEDIT
1070
     0
1002
}
1002
{
1000
NOSEL
1070
     0
1002
}
1002
{
1000
BEHIND
1070
     0
1002
}
1002
{
1000
REACTOR
1002
}
1001
GENIUS_GENOBJ-N-FIL_13
1002
{
1000
OWNER
1000
GEN
1002
}
  0
LINE
  5
8A59
  8
AM_0
 10
584.555820790643
 20
315.48966350242853
 30
0.0
 11
584.555820790643
 21
215.6889987090926
 31
0.0
  0
LINE
  5
8A5A
  8
AM_0
 10
677.88977720030164
 20
299.54286523936378
 30
0.0
 11
668.55582192313125
 21
299.21691633868369
 31
0.0
  0
LINE
  5
8A5B
  8
AM_0
 10
677.86569329596148
 20
301.6134309284696
 30
0.0
 11
668.55582192313125
 21
301.9385388006782
 31
0.0
  0
LINE
  5
8A5C
  8
AM_0
 10
677.86569329596125
 20
229.56523128305159
 30
0.0
 11
668.55582192313125
 21
229.2401234108431
 31
0.0
  0
LINE
  5
8A5D
  8
AM_0
 10
677.88977720030164
 20
231.63579697215729
 30
0.0
 11
668.55582192313125
 21
231.96174587283781
 31
0.0
  0
ARC
  5
8A5E
  8
AM_0
 10
622.55582192313125
 20
265.58933110576049
 30
0.0
 40
56.5
 50
324.98137173791582
 51
35.018628262084228
  0
LINE
  5
8A5F
  8
AM_0
 10
664.55582317482856
 20
293.0893319253243
 30
0.0
 11
664.55582317482856
 21
238.08933028619671
 31
0.0
  0
LINE
  5
8A60
  8
AM_0
 10
580.55582067143348
 20
293.0893319253243
 30
0.0
 11
580.55582067143348
 21
238.08933028619671
 31
0.0
  0
LINE
  5
8A61
  8
AM_0
 10
647.55582266819044
 20
214.58932958584199
 30
0.0
 11
584.55582079064266
 21
215.6889987090926
 31
0.0
  0
LINE
  5
8A62
  8
ｶｸﾚｾﾝ2
 10
584.555820790643
 20
221.08932991366771
 30
0.0
 11
660.55582305561927
 21
221.0893299136678
 31
0.0
  0
LINE
  5
8A63
  8
ｶｸﾚｾﾝ2
 10
584.555820790643
 20
230.08932991366771
 30
0.0
 11
660.55582305561927
 21
230.08932991366771
 31
0.0
  0
LINE
  5
8A64
  8
ﾁｭｳｼﾝｾﾝ1
 10
581.55582079064322
 20
225.58932991366771
 30
0.0
 11
663.5558230556195
 21
225.58932991366771
 31
0.0
  0
LINE
  5
8A65
  8
AM_0
 10
591.05582192313102
 20
199.58933110576049
 30
0.0
 11
654.05582192313102
 21
199.58933110576029
 31
0.0
  0
LINE
  5
8A66
  8
AM_0
 10
589.55582192313102
 20
196.08933110576049
 30
0.0
 11
655.55582192313125
 21
196.08933110576029
 31
0.0
  0
LINE
  5
8A67
  8
AM_0
 10
654.05582192313102
 20
192.58933110576029
 30
0.0
 11
591.05582192313102
 21
192.58933110576049
 31
0.0
  0
LINE
  5
8A68
  8
AM_0
 10
592.55582192313125
 20
203.08933110576049
 30
0.0
 11
652.55582192313125
 21
203.08933110576049
 31
0.0
  0
ARC
  5
8A69
  8
AM_0
 10
622.55582192313125
 20
265.58933110576049
 30
0.0
 40
56.5
 50
242.4821246347978
 51
295.51787536520283
  0
LINE
  5
8A6A
  8
AM_0
 10
592.55582192313125
 20
215.54935816989911
 30
0.0
 11
592.55582192313125
 21
199.58933110576049
 31
0.0
  0
ARC
  5
8A6B
  8
AM_0
 10
590.5932709791532
 20
209.62996698376969
 30
0.0
 40
1.9655366667591301
 50
3.1584702260747668
 51
179.35044678892791
  0
LINE
  5
8A6C
  8
AM_0
 10
586.52211987091925
 20
208.5544316090579
 30
0.0
 11
586.27402261792338
 21
215.6590073846377
 31
0.0
  0
LINE
  5
8A6D
  8
AM_0
 10
588.58952397534324
 20
208.55443160905821
 30
0.0
 11
588.83605955333155
 21
215.6142868635817
 31
0.0
  0
LINE
  5
8A6E
  8
AM_0
 10
591.05582192313102
 20
180.08933110576061
 30
0.0
 11
591.05582192313102
 21
199.58933110576049
 31
0.0
  0
LINE
  5
8A6F
  8
AM_0
 10
589.55582192313102
 20
181.08933110576061
 30
0.0
 11
589.55582192313102
 21
196.08933110576049
 31
0.0
  0
LINE
  5
8A70
  8
AM_0
 10
592.55582192313102
 20
180.08933110576061
 30
0.0
 11
591.05582192313102
 21
180.08933110576061
 31
0.0
  0
LINE
  5
8A71
  8
AM_0
 10
591.05582192313102
 20
181.08933110576061
 30
0.0
 11
589.55582192313102
 21
181.08933110576061
 31
0.0
  0
ARC
  5
8A72
  8
AM_0
 10
587.5901331483243
 20
208.58933110576049
 30
0.0
 40
1.0
 50
269.99999999999352
 51
357.99999999999642
1001
GENIUS_GENODEF_13
1002
{
1000
HIER
1070
     0
1002
}
1002
{
1000
MANEDIT
1070
     0
1002
}
1002
{
1000
NOSEL
1070
     0
1002
}
1002
{
1000
BEHIND
1070
     0
1002
}
1002
{
1000
REACTOR
1002
}
1001
GENIUS_GENOBJ-N-FIL_13
1002
{
1000
OWNER
1000
GEN
1002
}
  0
LINE
  5
8A73
  8
AM_0
 10
587.5901331483243
 20
207.58933110576049
 30
0.0
 11
587.52151069793808
 21
207.58933110576049
 31
0.0
  0
ARC
  5
8A74
  8
AM_0
 10
587.52151069793808
 20
208.58933110576049
 30
0.0
 40
1.0
 50
181.9999999999971
 51
270.0
1001
GENIUS_GENODEF_13
1002
{
1000
HIER
1070
     0
1002
}
1002
{
1000
MANEDIT
1070
     0
1002
}
1002
{
1000
NOSEL
1070
     0
1002
}
1002
{
1000
BEHIND
1070
     0
1002
}
1002
{
1000
REACTOR
1002
}
1001
GENIUS_GENOBJ-N-FIL_13
1002
{
1000
OWNER
1000
GEN
1002
}
  0
LINE
  5
8A75
  8
AM_0
 10
576.55582192313125
 20
232.3064526244755
 30
0.0
 11
576.55582192313125
 21
224.58933110576049
 31
0.0
1001
GENIUS_GENODEF_13
1002
{
1000
HIER
1070
     0
1002
}
1002
{
1000
MANEDIT
1070
     0
1002
}
1002
{
1000
NOSEL
1070
     0
1002
}
1002
{
1000
BEHIND
1070
     0
1002
}
1002
{
1000
REACTOR
1002
}
1001
GENIUS_GENOBJ-N-CEN_13
1002
{
1000
OWNER
1000
GEN
1002
}
  0
ARC
  5
8A76
  8
AM_0
 10
581.55582192313125
 20
224.58933110576049
 30
0.0
 40
5.0
 50
180.0
 51
270.0
1001
GENIUS_GENOBJ-N-CEN_13
1002
{
1000
OWNER
1000
GEN
1002
}
1001
GENIUS_GENODEF_13
1002
{
1000
HIER
1070
     0
1002
}
1002
{
1000
MANEDIT
1070
     0
1002
}
1002
{
1000
NOSEL
1070
     0
1002
}
1002
{
1000
BEHIND
1070
     0
1002
}
1002
{
1000
REACTOR
1002
}
1001
GENIUS_GENOBJ-N-FIL_13
1002
{
1000
OWNER
1000
GEN
1002
}
  0
LINE
  5
8A77
  8
AM_0
 10
581.55582192313125
 20
219.58933110576049
 30
0.0
 11
584.55582192313125
 21
219.58933110576049
 31
0.0
  0
ARC
  5
8A78
  8
AM_0
 10
575.05582192313125
 20
232.3064526244755
 30
0.0
 40
1.5
 50
0.0
 51
35.018628262088782
1001
GENIUS_GENODEF_13
1002
{
1000
HIER
1070
     0
1002
}
1002
{
1000
MANEDIT
1070
     0
1002
}
1002
{
1000
NOSEL
1070
     0
1002
}
1002
{
1000
BEHIND
1070
     0
1002
}
1002
{
1000
REACTOR
1002
}
1001
GENIUS_GENOBJ-N-FIL_13
1002
{
1000
OWNER
1000
GEN
1002
}
  0
LINE
  5
8A79
  8
AM_0
 10
580.55582067143348
 20
238.0893302861966
 30
0.0
 11
584.555820790643
 21
238.0893302861966
 31
0.0
  0
LINE
  5
8A7A
  8
AM_0
 10
652.55582192313136
 20
214.67660489747809
 30
0.0
 11
652.55582192313125
 21
199.58933110576029
 31
0.0
  0
ARC
  5
8A7B
  8
AM_0
 10
654.51837286710918
 20
209.62996698376969
 30
0.0
 40
1.9655366667591301
 50
0.6495532110655964
 51
176.84152977392509
  0
LINE
  5
8A7C
  8
AM_0
 10
656.52211987091925
 20
208.55443160905821
 30
0.0
 11
656.30604294288366
 21
214.7420652488731
 31
0.0
  0
LINE
  5
8A7D
  8
AM_0
 10
658.58952397534324
 20
208.5544316090579
 30
0.0
 11
658.80712542394588
 21
214.78572180597089
 31
0.0
  0
LINE
  5
8A7E
  8
AM_0
 10
654.05582192313102
 20
199.58933110576029
 30
0.0
 11
654.05582192313102
 21
180.08933110576021
 31
0.0
  0
LINE
  5
8A7F
  8
AM_0
 10
655.55582192313125
 20
181.08933110576029
 30
0.0
 11
655.55582192313125
 21
196.08933110576029
 31
0.0
  0
LINE
  5
8A80
  8
AM_0
 10
654.05582192313125
 20
181.08933110576029
 30
0.0
 11
655.55582192313125
 21
181.08933110576029
 31
0.0
  0
LINE
  5
8A81
  8
AM_0
 10
654.05582192313102
 20
180.08933110576021
 30
0.0
 11
652.55582192313102
 21
180.08933110576021
 31
0.0
  0
ARC
  5
8A82
  8
AM_0
 10
657.5901331483243
 20
208.58933110576049
 30
0.0
 40
1.0
 50
269.99999999999682
 51
357.99999999999642
1001
GENIUS_GENODEF_13
1002
{
1000
HIER
1070
     0
1002
}
1002
{
1000
MANEDIT
1070
     0
1002
}
1002
{
1000
NOSEL
1070
     0
1002
}
1002
{
1000
BEHIND
1070
     0
1002
}
1002
{
1000
REACTOR
1002
}
1001
GENIUS_GENOBJ-N-FIL_13
1002
{
1000
OWNER
1000
GEN
1002
}
  0
ARC
  5
8A83
  8
AM_0
 10
657.52151069793808
 20
208.58933110576049
 30
0.0
 40
1.0
 50
181.9999999999971
 51
270.0000000000033
1001
GENIUS_GENODEF_13
1002
{
1000
HIER
1070
     0
1002
}
1002
{
1000
MANEDIT
1070
     0
1002
}
1002
{
1000
NOSEL
1070
     0
1002
}
1002
{
1000
BEHIND
1070
     0
1002
}
1002
{
1000
REACTOR
1002
}
1001
GENIUS_GENOBJ-N-FIL_13
1002
{
1000
OWNER
1000
GEN
1002
}
  0
LINE
  5
8A84
  8
AM_0
 10
657.52151069793808
 20
207.58933110576049
 30
0.0
 11
657.5901331483243
 21
207.58933110576049
 31
0.0
  0
LINE
  5
8A85
  8
AM_0
 10
668.55582192313125
 20
232.3064526244755
 30
0.0
 11
668.55582192313125
 21
224.58933110576049
 31
0.0
1001
GENIUS_GENODEF_13
1002
{
1000
HIER
1070
     0
1002
}
1002
{
1000
MANEDIT
1070
     0
1002
}
1002
{
1000
NOSEL
1070
     0
1002
}
1002
{
1000
BEHIND
1070
     0
1002
}
1002
{
1000
REACTOR
1002
}
1001
GENIUS_GENOBJ-N-CEN_13
1002
{
1000
OWNER
1000
GEN
1002
}
  0
LINE
  5
8A86
  8
AM_0
 10
647.55582266818919
 20
214.58932958584211
 30
0.0
 11
660.55582305561927
 21
214.81624543667149
 31
0.0
  0
ARC
  5
8A87
  8
AM_0
 10
663.55582192313125
 20
224.58933110576049
 30
0.0
 40
5.0
 50
270.0
 51
0.0
1001
GENIUS_GENODEF_13
1002
{
1000
HIER
1070
     0
1002
}
1002
{
1000
MANEDIT
1070
     0
1002
}
1002
{
1000
NOSEL
1070
     0
1002
}
1002
{
1000
BEHIND
1070
     0
1002
}
1002
{
1000
REACTOR
1002
}
1001
GENIUS_GENOBJ-N-FIL_13
1002
{
1000
OWNER
1000
GEN
1002
}
  0
LINE
  5
8A88
  8
AM_0
 10
660.55582192313125
 20
219.58933110576049
 30
0.0
 11
663.55582192313125
 21
219.58933110576049
 31
0.0
  0
ARC
  5
8A89
  8
AM_0
 10
670.05582192313125
 20
232.3064526244755
 30
0.0
 40
1.5
 50
144.98137173791559
 51
180.0
1001
GENIUS_GENODEF_13
1002
{
1000
HIER
1070
     0
1002
}
1002
{
1000
MANEDIT
1070
     0
1002
}
1002
{
1000
NOSEL
1070
     0
1002
}
1002
{
1000
BEHIND
1070
     0
1002
}
1002
{
1000
REACTOR
1002
}
1001
GENIUS_GENOBJ-N-FIL_13
1002
{
1000
OWNER
1000
GEN
1002
}
  0
LINE
  5
8A8A
  8
AM_0
 10
664.55582317482856
 20
238.08933028619671
 30
0.0
 11
660.55582305561927
 21
238.08933028619671
 31
0.0
  0
LINE
  5
8A8B
  8
ｶｸﾚｾﾝ2
 10
584.555820790643
 20
301.08933229785339
 30
0.0
 11
660.55582305561927
 21
301.08933229785339
 31
0.0
  0
LINE
  5
8A8C
  8
ﾁｭｳｼﾝｾﾝ1
 10
581.55582079064322
 20
305.58933229785339
 30
0.0
 11
663.5558230556195
 21
305.58933229785339
 31
0.0
  0
LINE
  5
8A8D
  8
AM_0
 10
577.55582058202674
 20
280.58933155279527
 30
0.0
 11
577.55582058202674
 21
250.5893306587258
 31
0.0
  0
LINE
  5
8A8E
  8
AM_0
 10
580.55582067143348
 20
250.5893306587258
 30
0.0
 11
577.55582058202674
 21
250.5893306587258
 31
0.0
  0
LINE
  5
8A8F
  8
AM_0
 10
580.55582067143348
 20
280.58933155279527
 30
0.0
 11
577.55582058202674
 21
280.58933155279527
 31
0.0
  0
ARC
  5
8A90
  8
AM_0
 10
575.05582192313125
 20
298.87220958704609
 30
0.0
 40
1.5
 50
324.98137173791582
 51
0.0
1001
GENIUS_GENODEF_13
1002
{
1000
HIER
1070
     0
1002
}
1002
{
1000
MANEDIT
1070
     0
1002
}
1002
{
1000
NOSEL
1070
     0
1002
}
1002
{
1000
BEHIND
1070
     0
1002
}
1002
{
1000
REACTOR
1002
}
1001
GENIUS_GENOBJ-N-FIL_13
1002
{
1000
OWNER
1000
GEN
1002
}
  0
LINE
  5
8A91
  8
AM_0
 10
580.55582067143348
 20
293.0893319253243
 30
0.0
 11
584.555820790643
 21
293.0893319253243
 31
0.0
  0
LINE
  5
8A92
  8
AM_0
 10
576.55582192313125
 20
306.58933110576049
 30
0.0
 11
576.55582192313125
 21
298.87220958704609
 31
0.0
1001
GENIUS_GENODEF_13
1002
{
1000
HIER
1070
     0
1002
}
1002
{
1000
MANEDIT
1070
     0
1002
}
1002
{
1000
NOSEL
1070
     0
1002
}
1002
{
1000
BEHIND
1070
     0
1002
}
1002
{
1000
REACTOR
1002
}
1001
GENIUS_GENOBJ-N-CEN_13
1002
{
1000
OWNER
1000
GEN
1002
}
  0
ARC
  5
8A96
  8
AM_0
 10
670.05582192313125
 20
298.87220958704609
 30
0.0
 40
1.5
 50
179.99999999999349
 51
215.01862826208421
1001
GENIUS_GENODEF_13
1002
{
1000
HIER
1070
     0
1002
}
1002
{
1000
MANEDIT
1070
     0
1002
}
1002
{
1000
NOSEL
1070
     0
1002
}
1002
{
1000
BEHIND
1070
     0
1002
}
1002
{
1000
REACTOR
1002
}
1001
GENIUS_GENOBJ-N-FIL_13
1002
{
1000
OWNER
1000
GEN
1002
}
  0
LINE
  5
8A97
  8
AM_0
 10
664.55582317482856
 20
293.0893319253243
 30
0.0
 11
660.55582305561927
 21
293.0893319253243
 31
0.0
  0
LINE
  5
8A98
  8
AM_0
 10
668.55582192313125
 20
306.58933110576049
 30
0.0
 11
668.55582192313125
 21
298.87220958704609
 31
0.0
1001
GENIUS_GENODEF_13
1002
{
1000
HIER
1070
     0
1002
}
1002
{
1000
MANEDIT
1070
     0
1002
}
1002
{
1000
NOSEL
1070
     0
1002
}
1002
{
1000
BEHIND
1070
     0
1002
}
1002
{
1000
REACTOR
1002
}
1001
GENIUS_GENOBJ-N-CEN_13
1002
{
1000
OWNER
1000
GEN
1002
}
  0
ARC
  5
8A99
  8
AM_0
 10
680.68722685829016
 20
240.6321262017857
 30
0.0
 40
1.0
 50
346.88632985670091
 51
87.999999999996405
1001
GENIUS_GENODEF_13
1002
{
1000
HIER
1070
     0
1002
}
1002
{
1000
MANEDIT
1070
     0
1002
}
1002
{
1000
NOSEL
1070
     0
1002
}
1002
{
1000
BEHIND
1070
     0
1002
}
1002
{
1000
REACTOR
1002
}
1001
GENIUS_GENOBJ-N-FIL_13
1002
{
1000
OWNER
1000
GEN
1002
}
  0
LINE
  5
8A9A
  8
AM_0
 10
676.55582192313113
 20
231.6823797169034
 30
0.0
 11
676.55582192313125
 21
239.4178002445957
 31
0.0
  0
ARC
  5
8A9B
  8
AM_0
 10
573.55582192313125
 20
265.58933110576049
 30
0.0
 40
111.0
 50
341.43341919810331
 51
341.47285768553172
  0
ARC
  5
8A9C
  8
AM_0
 10
677.85487770359873
 20
230.63640614513841
 30
0.0
 40
1.0
 50
341.47285768553172
 51
87.999999999996405
1001
GENIUS_GENODEF_13
1002
{
1000
HIER
1070
     0
1002
}
1002
{
1000
MANEDIT
1070
     0
1002
}
1002
{
1000
NOSEL
1070
     0
1002
}
1002
{
1000
BEHIND
1070
     0
1002
}
1002
{
1000
REACTOR
1002
}
1001
GENIUS_GENOBJ-N-FIL_13
1002
{
1000
OWNER
1000
GEN
1002
}
  0
ARC
  5
8A9D
  8
AM_0
 10
677.83079379925891
 20
230.56462211007079
 30
0.0
 40
1.0
 50
272.00000000000682
 51
341.433419198097
1001
GENIUS_GENODEF_13
1002
{
1000
HIER
1070
     0
1002
}
1002
{
1000
MANEDIT
1070
     0
1002
}
1002
{
1000
NOSEL
1070
     0
1002
}
1002
{
1000
BEHIND
1070
     0
1002
}
1002
{
1000
REACTOR
1002
}
1001
GENIUS_GENOBJ-N-FIL_13
1002
{
1000
OWNER
1000
GEN
1002
}
  0
LINE
  5
8A9E
  8
AM_0
 10
680.72212635499261
 20
241.63151702880481
 30
0.0
 11
673.83677598125132
 21
241.8719587620763
 31
0.0
  0
LINE
  5
8A9F
  8
AM_0
 10
680.70579162067008
 20
239.56272037980119
 30
0.0
 11
672.5555165205642
 21
239.27810650173609
 31
0.0
  0
ARC
  5
8AA0
  8
AM_0
 10
573.55582192313125
 20
265.58933110576049
 30
0.0
 40
111.0
 50
346.84888173935138
 51
346.8863298566946
  0
ARC
  5
8AA1
  8
AM_0
 10
680.67089212396752
 20
240.56211120682039
 30
0.0
 40
1.0
 50
271.9999999999971
 51
346.84888173935138
1001
GENIUS_GENODEF_13
1002
{
1000
HIER
1070
     0
1002
}
1002
{
1000
MANEDIT
1070
     0
1002
}
1002
{
1000
NOSEL
1070
     0
1002
}
1002
{
1000
BEHIND
1070
     0
1002
}
1002
{
1000
REACTOR
1002
}
1001
GENIUS_GENOBJ-N-FIL_13
1002
{
1000
OWNER
1000
GEN
1002
}
  0
LINE
  5
8AA2
  8
AM_0
 10
682.56856325847684
 20
251.62777315966721
 30
0.0
 11
677.34980409255115
 21
251.81001624553321
 31
0.0
  0
LINE
  5
8AA3
  8
AM_0
 10
682.55908110610335
 20
249.56008374969429
 30
0.0
 11
676.67311676915449
 21
249.35454134584711
 31
0.0
  0
ARC
  5
8AA4
  8
AM_0
 10
682.53366376177439
 20
250.62838233264799
 30
0.0
 40
1.0
 50
352.18305216830549
 51
87.999999999999659
1001
GENIUS_GENODEF_13
1002
{
1000
HIER
1070
     0
1002
}
1002
{
1000
MANEDIT
1070
     0
1002
}
1002
{
1000
NOSEL
1070
     0
1002
}
1002
{
1000
BEHIND
1070
     0
1002
}
1002
{
1000
REACTOR
1002
}
1001
GENIUS_GENOBJ-N-FIL_13
1002
{
1000
OWNER
1000
GEN
1002
}
  0
ARC
  5
8AA5
  8
AM_0
 10
682.5241816094009
 20
250.55947457671351
 30
0.0
 40
1.0
 50
271.9999999999971
 51
352.14682191119368
1001
GENIUS_GENODEF_13
1002
{
1000
HIER
1070
     0
1002
}
1002
{
1000
MANEDIT
1070
     0
1002
}
1002
{
1000
NOSEL
1070
     0
1002
}
1002
{
1000
BEHIND
1070
     0
1002
}
1002
{
1000
REACTOR
1002
}
1001
GENIUS_GENOBJ-N-FIL_13
1002
{
1000
OWNER
1000
GEN
1002
}
  0
ARC
  5
8AA6
  8
AM_0
 10
573.55582192313125
 20
265.58933110576049
 30
0.0
 40
111.0
 50
352.14682191118732
 51
352.18305216830549
  0
LINE
  5
8AA7
  8
AM_0
 10
683.4786452277084
 20
261.62442931501641
 30
0.0
 11
678.92748659993435
 21
261.7833592763771
 31
0.0
  0
LINE
  5
8AA8
  8
AM_0
 10
683.4755350492477
 20
271.62138858465909
 30
0.0
 11
678.71480164424213
 21
271.78763705850702
 31
0.0
  0
LINE
  5
8AA9
  8
AM_0
 10
683.4786452277084
 20
269.55423289650503
 30
0.0
 11
678.92748659993435
 21
269.39530293514389
 31
0.0
  0
LINE
  5
8AAA
  8
AM_0
 10
683.4755350492477
 20
259.55727362686213
 30
0.0
 11
678.71480164424213
 21
259.3910251530142
 31
0.0
  0
ARC
  5
8AAB
  8
AM_0
 10
683.44374573100549
 20
260.62503848799719
 30
0.0
 40
1.0
 50
357.41336677122672
 51
87.999999999996405
1001
GENIUS_GENODEF_13
1002
{
1000
HIER
1070
     0
1002
}
1002
{
1000
MANEDIT
1070
     0
1002
}
1002
{
1000
NOSEL
1070
     0
1002
}
1002
{
1000
BEHIND
1070
     0
1002
}
1002
{
1000
REACTOR
1002
}
1001
GENIUS_GENOBJ-N-FIL_13
1002
{
1000
OWNER
1000
GEN
1002
}
  0
ARC
  5
8AAC
  8
AM_0
 10
683.44063555254525
 20
260.55666445388101
 30
0.0
 40
1.0
 50
272.0000000000004
 51
357.37771591204722
1001
GENIUS_GENODEF_13
1002
{
1000
HIER
1070
     0
1002
}
1002
{
1000
MANEDIT
1070
     0
1002
}
1002
{
1000
NOSEL
1070
     0
1002
}
1002
{
1000
BEHIND
1070
     0
1002
}
1002
{
1000
REACTOR
1002
}
1001
GENIUS_GENOBJ-N-FIL_13
1002
{
1000
OWNER
1000
GEN
1002
}
  0
ARC
  5
8AAD
  8
AM_0
 10
573.55582192313125
 20
265.58933110576049
 30
0.0
 40
111.0
 50
357.37771591204722
 51
357.41336677122672
  0
ARC
  5
8AAE
  8
AM_0
 10
573.55582192313125
 20
265.58933110576049
 30
0.0
 40
111.0
 50
2.5866332287732892
 51
2.6222840879528522
  0
ARC
  5
8AAF
  8
AM_0
 10
683.44063555254525
 20
270.62199775763997
 30
0.0
 40
1.0
 50
2.6222840879528522
 51
87.999999999999659
1001
GENIUS_GENODEF_13
1002
{
1000
HIER
1070
     0
1002
}
1002
{
1000
MANEDIT
1070
     0
1002
}
1002
{
1000
NOSEL
1070
     0
1002
}
1002
{
1000
BEHIND
1070
     0
1002
}
1002
{
1000
REACTOR
1002
}
1001
GENIUS_GENOBJ-N-FIL_13
1002
{
1000
OWNER
1000
GEN
1002
}
  0
ARC
  5
8AB0
  8
AM_0
 10
683.44374573100549
 20
270.55362372352403
 30
0.0
 40
1.0
 50
272.00000000000358
 51
2.5866332287732892
1001
GENIUS_GENODEF_13
1002
{
1000
HIER
1070
     0
1002
}
1002
{
1000
MANEDIT
1070
     0
1002
}
1002
{
1000
NOSEL
1070
     0
1002
}
1002
{
1000
BEHIND
1070
     0
1002
}
1002
{
1000
REACTOR
1002
}
1001
GENIUS_GENOBJ-N-FIL_13
1002
{
1000
OWNER
1000
GEN
1002
}
  0
ARC
  5
8AB1
  8
AM_0
 10
680.67089212396752
 20
290.6165510047008
 30
0.0
 40
1.0
 50
13.151118260648611
 51
87.999999999999659
1001
GENIUS_GENODEF_13
1002
{
1000
HIER
1070
     0
1002
}
1002
{
1000
MANEDIT
1070
     0
1002
}
1002
{
1000
NOSEL
1070
     0
1002
}
1002
{
1000
BEHIND
1070
     0
1002
}
1002
{
1000
REACTOR
1002
}
1001
GENIUS_GENOBJ-N-FIL_13
1002
{
1000
OWNER
1000
GEN
1002
}
  0
ARC
  5
8AB2
  8
AM_0
 10
680.68722685829016
 20
290.54653600973552
 30
0.0
 40
1.0
 50
272.00000000000358
 51
13.11367014329914
1001
GENIUS_GENODEF_13
1002
{
1000
HIER
1070
     0
1002
}
1002
{
1000
MANEDIT
1070
     0
1002
}
1002
{
1000
NOSEL
1070
     0
1002
}
1002
{
1000
BEHIND
1070
     0
1002
}
1002
{
1000
REACTOR
1002
}
1001
GENIUS_GENOBJ-N-FIL_13
1002
{
1000
OWNER
1000
GEN
1002
}
  0
LINE
  5
8AB3
  8
AM_0
 10
682.56856325847684
 20
279.55088905185431
 30
0.0
 11
677.34980409255115
 21
279.3686459659877
 31
0.0
  0
LINE
  5
8AB4
  8
AM_0
 10
682.55908110610335
 20
281.6185784618267
 30
0.0
 11
676.67311676915449
 21
281.82412086567422
 31
0.0
  0
LINE
  5
8AB5
  8
AM_0
 10
680.72212635499295
 20
289.54714518271629
 30
0.0
 11
673.83677598125132
 21
289.30670344944502
 31
0.0
  0
ARC
  5
8AB6
  8
AM_0
 10
573.55582192313125
 20
265.58933110576049
 30
0.0
 40
111.0
 50
13.113670143305489
 51
13.151118260648611
  0
ARC
  5
8AB7
  8
AM_0
 10
682.53366376177439
 20
280.5502798788732
 30
0.0
 40
1.0
 50
272.0000000000004
 51
7.8169478316945114
1001
GENIUS_GENODEF_13
1002
{
1000
HIER
1070
     0
1002
}
1002
{
1000
MANEDIT
1070
     0
1002
}
1002
{
1000
NOSEL
1070
     0
1002
}
1002
{
1000
BEHIND
1070
     0
1002
}
1002
{
1000
REACTOR
1002
}
1001
GENIUS_GENOBJ-N-FIL_13
1002
{
1000
OWNER
1000
GEN
1002
}
  0
ARC
  5
8AB8
  8
AM_0
 10
573.55582192313125
 20
265.58933110576049
 30
0.0
 40
111.0
 50
7.8169478316945114
 51
7.8531780888126708
  0
ARC
  5
8AB9
  8
AM_0
 10
682.5241816094009
 20
280.61918763480782
 30
0.0
 40
1.0
 50
7.8531780888062181
 51
87.999999999999659
1001
GENIUS_GENODEF_13
1002
{
1000
HIER
1070
     0
1002
}
1002
{
1000
MANEDIT
1070
     0
1002
}
1002
{
1000
NOSEL
1070
     0
1002
}
1002
{
1000
BEHIND
1070
     0
1002
}
1002
{
1000
REACTOR
1002
}
1001
GENIUS_GENOBJ-N-FIL_13
1002
{
1000
OWNER
1000
GEN
1002
}
  0
LINE
  5
8ABA
  8
AM_0
 10
676.55582192313113
 20
299.49628249461762
 30
0.0
 11
676.55582192313125
 21
291.76086196692529
 31
0.0
  0
LINE
  5
8ABB
  8
AM_0
 10
680.70579162067008
 20
291.61594183171991
 30
0.0
 11
672.5555165205642
 21
291.90055570978512
 31
0.0
  0
ARC
  5
8ABC
  8
AM_0
 10
573.55582192313125
 20
265.58933110576049
 30
0.0
 40
111.0
 50
18.52714231446825
 51
18.566580801895711
  0
ARC
  5
8ABD
  8
AM_0
 10
677.85487770359873
 20
300.54225606638312
 30
0.0
 40
1.0
 50
272.0000000000004
 51
18.52714231446825
1001
GENIUS_GENODEF_13
1002
{
1000
HIER
1070
     0
1002
}
1002
{
1000
MANEDIT
1070
     0
1002
}
1002
{
1000
NOSEL
1070
     0
1002
}
1002
{
1000
BEHIND
1070
     0
1002
}
1002
{
1000
REACTOR
1002
}
1001
GENIUS_GENOBJ-N-FIL_13
1002
{
1000
OWNER
1000
GEN
1002
}
  0
ARC
  5
8ABE
  8
AM_0
 10
677.83079379925891
 20
300.61404010145043
 30
0.0
 40
1.0
 50
18.56658080190293
 51
87.999999999993136
1001
GENIUS_GENODEF_13
1002
{
1000
HIER
1070
     0
1002
}
1002
{
1000
MANEDIT
1070
     0
1002
}
1002
{
1000
NOSEL
1070
     0
1002
}
1002
{
1000
BEHIND
1070
     0
1002
}
1002
{
1000
REACTOR
1002
}
1001
GENIUS_GENOBJ-N-FIL_13
1002
{
1000
OWNER
1000
GEN
1002
}
  0
LINE
  5
8ABF
  8
ｶｸﾚｾﾝ2
 10
584.555820790643
 20
310.08933229785339
 30
0.0
 11
660.55582305561927
 21
310.08933229785339
 31
0.0
  0
LINE
  5
8AC0
  8
AM_0
 10
647.55582266819079
 20
316.58933262567888
 30
0.0
 11
584.555820790643
 21
315.48966350242853
 31
0.0
  0
ARC
  5
8AC1
  8
AM_0
 10
622.55582192313125
 20
265.58933110576049
 30
0.0
 40
56.5
 50
64.482124634797202
 51
117.5178753652022
  0
ARC
  5
8AC2
  8
AM_0
 10
597.59861701915634
 20
323.72073604091929
 30
0.0
 40
1.0
 50
2.0000000000036109
 51
103.1136701432991
1001
GENIUS_GENODEF_13
1002
{
1000
HIER
1070
     0
1002
}
1002
{
1000
MANEDIT
1070
     0
1002
}
1002
{
1000
NOSEL
1070
     0
1002
}
1002
{
1000
BEHIND
1070
     0
1002
}
1002
{
1000
REACTOR
1002
}
1001
GENIUS_GENOBJ-N-FIL_13
1002
{
1000
OWNER
1000
GEN
1002
}
  0
LINE
  5
8AC3
  8
AM_0
 10
596.52921119717178
 20
323.73930080329927
 30
0.0
 11
596.24825457094755
 21
315.69375569323262
 31
0.0
  0
LINE
  5
8AC4
  8
AM_0
 10
581.55582192313125
 20
311.58933110576049
 30
0.0
 11
584.55582192313125
 21
311.58933110576049
 31
0.0
  0
LINE
  5
8AC5
  8
AM_0
 10
588.60228778952785
 20
320.92328638293071
 30
0.0
 11
588.78945349496496
 21
315.56356183616458
 31
0.0
  0
LINE
  5
8AC6
  8
AM_0
 10
586.53172210042214
 20
320.8992024785905
 30
0.0
 11
586.34390675438385
 21
315.5208746590227
 31
0.0
  0
ARC
  5
8AC7
  8
AM_0
 10
587.60289696250879
 20
320.88838688622792
 30
0.0
 40
1.0
 50
1.999999999997101
 51
108.52714231447131
1001
GENIUS_GENODEF_13
1002
{
1000
HIER
1070
     0
1002
}
1002
{
1000
MANEDIT
1070
     0
1002
}
1002
{
1000
NOSEL
1070
     0
1002
}
1002
{
1000
BEHIND
1070
     0
1002
}
1002
{
1000
REACTOR
1002
}
1001
GENIUS_GENOBJ-N-FIL_13
1002
{
1000
OWNER
1000
GEN
1002
}
  0
ARC
  5
8AC8
  8
AM_0
 10
587.53111292744143
 20
320.86430298188787
 30
0.0
 40
1.0
 50
108.5665808019029
 51
177.99999999999639
1001
GENIUS_GENODEF_13
1002
{
1000
HIER
1070
     0
1002
}
1002
{
1000
MANEDIT
1070
     0
1002
}
1002
{
1000
NOSEL
1070
     0
1002
}
1002
{
1000
BEHIND
1070
     0
1002
}
1002
{
1000
REACTOR
1002
}
1001
GENIUS_GENOBJ-N-FIL_13
1002
{
1000
OWNER
1000
GEN
1002
}
  0
ARC
  5
8AC9
  8
AM_0
 10
622.55582192313125
 20
216.58933110576049
 30
0.0
 40
111.0
 50
108.52714231447131
 51
108.5665808018957
  0
ARC
  5
8ACA
  8
AM_0
 10
622.55582192313125
 20
216.58933110576049
 30
0.0
 40
111.0
 50
103.1136701432991
 51
103.1511182606518
  0
ARC
  5
8ACB
  8
AM_0
 10
597.52860202419095
 20
323.70440130659682
 30
0.0
 40
1.0
 50
103.1511182606518
 51
178.0000000000029
1001
GENIUS_GENODEF_13
1002
{
1000
HIER
1070
     0
1002
}
1002
{
1000
MANEDIT
1070
     0
1002
}
1002
{
1000
NOSEL
1070
     0
1002
}
1002
{
1000
BEHIND
1070
     0
1002
}
1002
{
1000
REACTOR
1002
}
1001
GENIUS_GENOBJ-N-FIL_13
1002
{
1000
OWNER
1000
GEN
1002
}
  0
LINE
  5
8ACC
  8
AM_0
 10
608.59426397703771
 20
325.6020724411062
 30
0.0
 11
608.77650706290376
 21
320.3833132751804
 31
0.0
  0
LINE
  5
8ACD
  8
AM_0
 10
616.52376444423282
 20
326.50904423187689
 30
0.0
 11
616.35751597038472
 21
321.74831082687137
 31
0.0
  0
LINE
  5
8ACE
  8
AM_0
 10
618.59092013238683
 20
326.51215441033742
 30
0.0
 11
618.74985009374768
 21
321.96099578256349
 31
0.0
  0
LINE
  5
8ACF
  8
AM_0
 10
606.52657456706493
 20
325.59259028873271
 30
0.0
 11
606.32103216321764
 21
319.70662595178351
 31
0.0
  0
LINE
  5
8AD0
  8
AM_0
 10
598.59800784617539
 20
323.75563553762208
 30
0.0
 11
598.83844957944655
 21
316.87028516388068
 31
0.0
  0
ARC
  5
8AD1
  8
AM_0
 10
622.55582192313125
 20
216.58933110576049
 30
0.0
 40
111.0
 50
97.816947831691294
 51
97.853178088809429
  0
ARC
  5
8AD2
  8
AM_0
 10
607.52596539408398
 20
325.5576907920302
 30
0.0
 40
1.0
 50
97.853178088806203
 51
178.0000000000029
1001
GENIUS_GENODEF_13
1002
{
1000
HIER
1070
     0
1002
}
1002
{
1000
MANEDIT
1070
     0
1002
}
1002
{
1000
NOSEL
1070
     0
1002
}
1002
{
1000
BEHIND
1070
     0
1002
}
1002
{
1000
REACTOR
1002
}
1001
GENIUS_GENOBJ-N-FIL_13
1002
{
1000
OWNER
1000
GEN
1002
}
  0
ARC
  5
8AD3
  8
AM_0
 10
607.59487315001843
 20
325.56717294440341
 30
0.0
 40
1.0
 50
1.999999999997101
 51
97.816947831691294
1001
GENIUS_GENODEF_13
1002
{
1000
HIER
1070
     0
1002
}
1002
{
1000
MANEDIT
1070
     0
1002
}
1002
{
1000
NOSEL
1070
     0
1002
}
1002
{
1000
BEHIND
1070
     0
1002
}
1002
{
1000
REACTOR
1002
}
1001
GENIUS_GENOBJ-N-FIL_13
1002
{
1000
OWNER
1000
GEN
1002
}
  0
ARC
  5
8AD4
  8
AM_0
 10
622.55582192313125
 20
216.58933110576049
 30
0.0
 40
111.0
 50
92.586633228776563
 51
92.622284087956118
  0
ARC
  5
8AD5
  8
AM_0
 10
617.59152930536777
 20
326.47725491363491
 30
0.0
 40
1.0
 50
2.0000000000036109
 51
92.586633228773294
1001
GENIUS_GENODEF_13
1002
{
1000
HIER
1070
     0
1002
}
1002
{
1000
MANEDIT
1070
     0
1002
}
1002
{
1000
NOSEL
1070
     0
1002
}
1002
{
1000
BEHIND
1070
     0
1002
}
1002
{
1000
REACTOR
1002
}
1001
GENIUS_GENOBJ-N-FIL_13
1002
{
1000
OWNER
1000
GEN
1002
}
  0
ARC
  5
8AD6
  8
AM_0
 10
617.52315527125165
 20
326.47414473517438
 30
0.0
 40
1.0
 50
92.622284087952849
 51
178.0000000000029
1001
GENIUS_GENODEF_13
1002
{
1000
HIER
1070
     0
1002
}
1002
{
1000
MANEDIT
1070
     0
1002
}
1002
{
1000
NOSEL
1070
     0
1002
}
1002
{
1000
BEHIND
1070
     0
1002
}
1002
{
1000
REACTOR
1002
}
1001
GENIUS_GENOBJ-N-FIL_13
1002
{
1000
OWNER
1000
GEN
1002
}
  0
LINE
  5
8AD7
  8
AM_0
 10
638.58506927919734
 20
325.59259028873271
 30
0.0
 11
638.79061168304474
 21
319.70662595178351
 31
0.0
  0
LINE
  5
8AD8
  8
AM_0
 10
636.51737986922467
 20
325.6020724411062
 30
0.0
 11
636.33513678335851
 21
320.3833132751804
 31
0.0
  0
LINE
  5
8AD9
  8
AM_0
 10
626.52072371387555
 20
326.51215441033742
 30
0.0
 11
626.3617937525147
 21
321.96099578256349
 31
0.0
  0
LINE
  5
8ADA
  8
AM_0
 10
628.58787940202956
 20
326.50904423187689
 30
0.0
 11
628.75412787587766
 21
321.74831082687137
 31
0.0
  0
ARC
  5
8ADB
  8
AM_0
 10
627.58848857501073
 20
326.47414473517438
 30
0.0
 40
1.0
 50
1.999999999997101
 51
87.377715912047151
1001
GENIUS_GENODEF_13
1002
{
1000
HIER
1070
     0
1002
}
1002
{
1000
MANEDIT
1070
     0
1002
}
1002
{
1000
NOSEL
1070
     0
1002
}
1002
{
1000
BEHIND
1070
     0
1002
}
1002
{
1000
REACTOR
1002
}
1001
GENIUS_GENOBJ-N-FIL_13
1002
{
1000
OWNER
1000
GEN
1002
}
  0
ARC
  5
8ADC
  8
AM_0
 10
622.55582192313125
 20
216.58933110576049
 30
0.0
 40
111.0
 50
87.377715912043897
 51
87.413366771223465
  0
ARC
  5
8ADD
  8
AM_0
 10
627.52011454089472
 20
326.47725491363491
 30
0.0
 40
1.0
 50
87.413366771226706
 51
177.99999999999639
1001
GENIUS_GENODEF_13
1002
{
1000
HIER
1070
     0
1002
}
1002
{
1000
MANEDIT
1070
     0
1002
}
1002
{
1000
NOSEL
1070
     0
1002
}
1002
{
1000
BEHIND
1070
     0
1002
}
1002
{
1000
REACTOR
1002
}
1001
GENIUS_GENOBJ-N-FIL_13
1002
{
1000
OWNER
1000
GEN
1002
}
  0
ARC
  5
8ADE
  8
AM_0
 10
622.55582192313125
 20
216.58933110576049
 30
0.0
 40
111.0
 50
82.146821911190585
 51
82.183052168305494
  0
ARC
  5
8ADF
  8
AM_0
 10
637.58567845217851
 20
325.5576907920302
 30
0.0
 40
1.0
 50
1.999999999997101
 51
82.146821911193769
1001
GENIUS_GENODEF_13
1002
{
1000
HIER
1070
     0
1002
}
1002
{
1000
MANEDIT
1070
     0
1002
}
1002
{
1000
NOSEL
1070
     0
1002
}
1002
{
1000
BEHIND
1070
     0
1002
}
1002
{
1000
REACTOR
1002
}
1001
GENIUS_GENOBJ-N-FIL_13
1002
{
1000
OWNER
1000
GEN
1002
}
  0
ARC
  5
8AE0
  8
AM_0
 10
637.51677069624395
 20
325.56717294440341
 30
0.0
 40
1.0
 50
82.18305216830872
 51
178.0000000000029
1001
GENIUS_GENODEF_13
1002
{
1000
HIER
1070
     0
1002
}
1002
{
1000
MANEDIT
1070
     0
1002
}
1002
{
1000
NOSEL
1070
     0
1002
}
1002
{
1000
BEHIND
1070
     0
1002
}
1002
{
1000
REACTOR
1002
}
1001
GENIUS_GENOBJ-N-FIL_13
1002
{
1000
OWNER
1000
GEN
1002
}
  0
LINE
  5
8AE1
  8
AM_0
 10
648.58243264909049
 20
323.73930080329927
 30
0.0
 11
648.83289347092182
 21
316.56704127189931
 31
0.0
  0
LINE
  5
8AE2
  8
AM_0
 10
646.5136360000871
 20
323.75563553762208
 30
0.0
 11
646.27319426681572
 21
316.87028516388068
 31
0.0
  0
LINE
  5
8AE3
  8
AM_0
 10
647.55582266818919
 20
316.58933262567882
 30
0.0
 11
660.55582305561927
 21
316.36241677484941
 31
0.0
  0
ARC
  5
8AE4
  8
AM_0
 10
657.50874688375336
 20
320.88838688622792
 30
0.0
 40
1.0
 50
71.472857685528666
 51
178.0000000000029
1001
GENIUS_GENODEF_13
1002
{
1000
HIER
1070
     0
1002
}
1002
{
1000
MANEDIT
1070
     0
1002
}
1002
{
1000
NOSEL
1070
     0
1002
}
1002
{
1000
BEHIND
1070
     0
1002
}
1002
{
1000
REACTOR
1002
}
1001
GENIUS_GENOBJ-N-FIL_13
1002
{
1000
OWNER
1000
GEN
1002
}
  0
LINE
  5
8AE5
  8
AM_0
 10
656.50935605673442
 20
320.92328638293071
 30
0.0
 11
656.35264900125071
 21
316.43578345087298
 31
0.0
  0
LINE
  5
8AE6
  8
AM_0
 10
660.55582192313125
 20
311.58933110576049
 30
0.0
 11
663.55582192313125
 21
311.58933110576049
 31
0.0
  0
LINE
  5
8AE7
  8
AM_0
 10
658.57992174584024
 20
320.8992024785905
 30
0.0
 11
658.73724128748518
 21
316.39416023768939
 31
0.0
  0
ARC
  5
8AE8
  8
AM_0
 10
657.58053091882095
 20
320.86430298188787
 30
0.0
 40
1.0
 50
2.0000000000036109
 51
71.43341919809707
1001
GENIUS_GENODEF_13
1002
{
1000
HIER
1070
     0
1002
}
1002
{
1000
MANEDIT
1070
     0
1002
}
1002
{
1000
NOSEL
1070
     0
1002
}
1002
{
1000
BEHIND
1070
     0
1002
}
1002
{
1000
REACTOR
1002
}
1001
GENIUS_GENOBJ-N-FIL_13
1002
{
1000
OWNER
1000
GEN
1002
}
  0
ARC
  5
8AE9
  8
AM_0
 10
622.55582192313125
 20
216.58933110576049
 30
0.0
 40
111.0
 50
71.433419198104289
 51
71.472857685528666
  0
ARC
  5
8AEA
  8
AM_0
 10
647.51302682710605
 20
323.72073604091929
 30
0.0
 40
1.0
 50
76.886329856700854
 51
177.99999999999639
1001
GENIUS_GENODEF_13
1002
{
1000
HIER
1070
     0
1002
}
1002
{
1000
MANEDIT
1070
     0
1002
}
1002
{
1000
NOSEL
1070
     0
1002
}
1002
{
1000
BEHIND
1070
     0
1002
}
1002
{
1000
REACTOR
1002
}
1001
GENIUS_GENOBJ-N-FIL_13
1002
{
1000
OWNER
1000
GEN
1002
}
  0
ARC
  5
8AEB
  8
AM_0
 10
622.55582192313125
 20
216.58933110576049
 30
0.0
 40
111.0
 50
76.848881739348215
 51
76.886329856700854
  0
ARC
  5
8AEC
  8
AM_0
 10
647.58304182207155
 20
323.70440130659682
 30
0.0
 40
1.0
 50
1.999999999997101
 51
76.848881739348215
1001
GENIUS_GENODEF_13
1002
{
1000
HIER
1070
     0
1002
}
1002
{
1000
MANEDIT
1070
     0
1002
}
1002
{
1000
NOSEL
1070
     0
1002
}
1002
{
1000
BEHIND
1070
     0
1002
}
1002
{
1000
REACTOR
1002
}
1001
GENIUS_GENOBJ-N-FIL_13
1002
{
1000
OWNER
1000
GEN
1002
}
  0
CIRCLE
  5
C46D
  8
ｽﾝﾎﾟｳｾﾝ
 10
362.1850147658796
 20
265.58933110576049
 30
0.0
 40
3.0
  0
ARC
  5
C46E
  8
0
 10
362.1850147658796
 20
265.58933110576049
 30
0.0
 40
9.5000000000000124
 50
108.4084801705864
 51
71.591519829413585
  0
CIRCLE
  5
C46F
  8
0
 10
362.1850147658796
 20
265.58933110576049
 30
0.0
 40
15.00000044703483
  0
LINE
  5
C470
  8
0
 10
365.1850147658796
 20
277.58933110576049
 30
0.0
 11
365.1850147658796
 21
271.58933110576049
 31
0.0
  0
LINE
  5
C471
  8
0
 10
359.1850147658796
 20
271.58933110576049
 30
0.0
 11
359.1850147658796
 21
277.58933110576049
 31
0.0
  0
LINE
  5
C472
  8
0
 10
365.1850147658796
 20
271.58933110576049
 30
0.0
 11
359.1850147658796
 21
271.58933110576049
 31
0.0
  0
LINE
  5
C473
  8
0
 10
359.1850147658796
 20
277.58933110576049
 30
0.0
 11
365.1850147658796
 21
277.58933110576049
 31
0.0
  0
LINE
  5
C488
  8
AM_0
 10
577.5558203920267
 20
280.58933155279527
 30
0.0
 11
577.5558203920267
 21
250.5893306587258
 31
0.0
  0
LINE
  5
C489
  8
0
 10
577.5558203920267
 20
280.58933155279527
 30
0.0
 11
553.5558203920267
 21
277.58933110576049
 31
0.0
  0
LINE
  5
C48A
  8
AM_0
 10
577.5558203920267
 20
280.58933155279527
 30
0.0
 11
580.55582048143356
 21
280.58933155279527
 31
0.0
  0
LINE
  5
C48B
  8
0
 10
577.5558203920267
 20
250.5893306587258
 30
0.0
 11
553.5558203920267
 21
253.58933110576049
 31
0.0
  0
LINE
  5
C48C
  8
AM_0
 10
577.5558203920267
 20
250.5893306587258
 30
0.0
 11
580.55582048143356
 21
250.5893306587258
 31
0.0
  0
LINE
  5
C48D
  8
AM_0
 10
553.5558203920267
 20
277.58933110576049
 30
0.0
 11
553.5558203920267
 21
253.58933110576049
 31
0.0
  0
LINE
  5
C48E
  8
0
 10
525.55582039202659
 20
256.08933110576049
 30
0.0
 11
525.55582039202659
 21
277.58933110576049
 31
0.0
  0
LINE
  5
C48F
  8
0
 10
525.55582039202659
 20
256.08933110576049
 30
0.0
 11
553.5558203920267
 21
256.0893311027985
 31
0.0
  0
LINE
  5
C490
  8
0
 10
525.55582039202659
 20
277.58933110576049
 30
0.0
 11
547.55582039202648
 21
277.58933110576049
 31
0.0
  0
LINE
  5
C491
  8
0
 10
553.5558203920267
 20
275.08933110576049
 30
0.0
 11
525.55582039202659
 21
275.08933110576049
 31
0.0
  0
LINE
  5
C492
  8
0
 10
547.55582039202648
 20
277.58933110576049
 30
0.0
 11
547.55582039202648
 21
275.08933110576049
 31
0.0
  0
ARC
  5
C4D3
  8
AM_0
 10
622.5558221131314
 20
265.58933110576049
 30
0.0
 40
56.499999999999972
 50
144.9813717379196
 51
165.88809156090599
  0
ARC
  5
C4D4
  8
AM_0
 10
622.5558221131314
 20
265.58933110576049
 30
0.0
 40
56.499999999999972
 50
194.1119084390939
 51
215.0186282620804
  0
LINE
  5
D508
  8
AM_0
 10
414.95840481937569
 20
531.79940399801831
 30
0.0
 11
276.41192778595132
 21
531.79938843344598
 31
0.0
  0
LINE
  5
D509
  8
AM_0
 10
415.18532067412758
 20
518.79940338587005
 30
0.0
 11
276.18501166737451
 21
518.79940338587005
 31
0.0
  0
LINE
  5
D50A
  8
AM_0
 10
414.08565208639351
 20
455.79940150832391
 30
0.0
 11
277.28468079061417
 21
455.79940150832363
 31
0.0
  0
LINE
  5
D50B
  8
ﾁｭｳｼﾝｾﾝ1
 10
115.178908687255
 20
493.799422585679
 30
0.0
 11
418.18501628579799
 21
493.79937913610411
 31
0.0
1001
GENIUS_GENODEF_13
1002
{
1000
HIER
1070
     0
1002
}
1002
{
1000
MANEDIT
1070
     0
1002
}
1002
{
1000
NOSEL
1070
     0
1002
}
1002
{
1000
BEHIND
1070
     0
1002
}
1002
{
1000
REACTOR
1002
}
1001
GENIUS_GENOBJ-N-CEN_13
1002
{
1000
OWNER
1000
GEN
1002
}
  0
LINE
  5
D50C
  8
AM_0
 10
119.18501220288
 20
509.02125486106962
 30
0.0
 11
119.18501220288
 21
478.57762082786638
 31
0.0
  0
ARC
  5
D50D
  8
AM_0
 10
125.678908687255
 20
480.799422585679
 30
0.0
 40
1.0
 50
269.9999969999991
 51
0.0
  0
ARC
  5
D50E
  8
AM_0
 10
122.678908687255
 20
478.799422585679
 30
0.0
 40
1.0
 50
90.0
 51
180.00001000000091
  0
LINE
  5
D50F
  8
AM_0
 10
121.678908687255
 20
445.78306258567898
 30
0.0
 11
121.678908687255
 21
488.79943258567903
 31
0.0
  0
LINE
  5
D510
  8
AM_0
 10
126.678908687255
 20
443.79943258567903
 30
0.0
 11
126.678908687255
 21
544.92265158567875
 31
0.0
  0
LINE
  5
D511
  8
AM_0
 10
120.178908687255
 20
473.79943258567903
 30
0.0
 11
120.178908687255
 21
513.79941258567885
 31
0.0
  0
LINE
  5
D512
  8
AM_0
 10
127.678908687255
 20
440.79943258567891
 30
0.0
 11
127.678908687255
 21
546.79941358567885
 31
0.0
  0
LINE
  5
D513
  8
AM_0
 10
123.4466686872549
 20
543.41457958567912
 30
0.0
 11
122.17847868725489
 21
542.68160058567901
 31
0.0
  0
LINE
  5
D514
  8
AM_0
 10
126.678908687255
 20
543.79941358567885
 30
0.0
 11
127.678908687255
 21
543.79941358567885
 31
0.0
  0
LINE
  5
D515
  8
AM_0
 10
123.94709868725499
 20
543.54881058567912
 30
0.0
 11
126.178908687255
 21
543.54881058567912
 31
0.0
  0
ARC
  5
D516
  8
AM_0
 10
126.178908687255
 20
544.04880358567902
 30
0.0
 40
0.5
 50
269.9999969999991
 51
0.0
  0
ARC
  5
D517
  8
AM_0
 10
123.94709868725499
 20
542.54880358567902
 30
0.0
 40
1.0
 50
90.0
 51
120.0263999999994
  0
LINE
  5
D518
  8
AM_0
 10
119.1850427204581
 20
509.02125486106962
 30
0.0
 11
119.6850427204581
 21
511.79124387474138
 31
0.0
  0
LINE
  5
D519
  8
AM_0
 10
121.678908687255
 20
541.81583158567901
 30
0.0
 11
121.678908687255
 21
498.79941258567908
 31
0.0
  0
ARC
  5
D51A
  8
AM_0
 10
125.678908687255
 20
526.5425925856789
 30
0.0
 40
1.0
 50
0.0
 51
90.0
  0
ARC
  5
D51B
  8
AM_0
 10
123.8292386872549
 20
526.5425925856789
 30
0.0
 40
1.0
 50
90.0
 51
107.0976299999995
  0
ARC
  5
D51C
  8
AM_0
 10
125.678908687255
 20
534.78435358567913
 30
0.0
 40
1.0
 50
0.0
 51
90.0
  0
LINE
  5
D51D
  8
AM_0
 10
123.4448386872549
 20
535.6472525856791
 30
0.0
 11
122.1734786872549
 21
534.90257058567897
 31
0.0
  0
ARC
  5
D51E
  8
AM_0
 10
122.678908687255
 20
535.07278958567895
 30
0.0
 40
1.0
 50
123.25471999999949
 51
180.00001000000091
  0
LINE
  5
D51F
  8
AM_0
 10
123.459248687255
 20
540.184621585679
 30
0.0
 11
122.210648687255
 21
539.52275658567896
 31
0.0
  0
LINE
  5
D520
  8
AM_0
 10
123.4655286872549
 20
542.29415658567905
 30
0.0
 11
122.2262686872549
 21
541.66512858567876
 31
0.0
  0
LINE
  5
D521
  8
AM_0
 10
123.4291586872549
 20
536.76058758567888
 30
0.0
 11
122.1305086872549
 21
535.90902458567905
 31
0.0
  0
LINE
  5
D522
  8
AM_0
 10
123.4413586872549
 20
541.29851358567885
 30
0.0
 11
122.164448687255
 21
540.53227058567904
 31
0.0
  0
ARC
  5
D523
  8
AM_0
 10
122.678908687255
 20
539.67477958567895
 30
0.0
 40
1.0
 50
120.96660000000119
 51
180.00001000000091
  0
ARC
  5
D524
  8
AM_0
 10
122.678908687255
 20
538.63920358567907
 30
0.0
 40
1.0
 50
117.926589999999
 51
180.00001000000091
  0
ARC
  5
D525
  8
AM_0
 10
122.678908687255
 20
540.77348158567895
 30
0.0
 40
1.0
 50
116.91125000000009
 51
180.00001000000091
  0
ARC
  5
D526
  8
AM_0
 10
122.678908687255
 20
541.81583158567901
 30
0.0
 40
1.0
 50
120.0263900000018
 51
180.00001000000091
  0
LINE
  5
D527
  8
AM_0
 10
123.91816868725491
 20
542.40250158567903
 30
0.0
 11
126.178908687255
 21
542.40250158567903
 31
0.0
  0
LINE
  5
D528
  8
AM_0
 10
123.9275686872549
 20
540.30106958567899
 30
0.0
 11
125.678908687255
 21
540.30106958567899
 31
0.0
  0
LINE
  5
D529
  8
AM_0
 10
123.950208687255
 20
535.78433758567905
 30
0.0
 11
125.678908687255
 21
535.78433758567905
 31
0.0
  0
LINE
  5
D52A
  8
AM_0
 10
123.9775586872549
 20
536.924352585679
 30
0.0
 11
126.678908687255
 21
536.924352585679
 31
0.0
  0
LINE
  5
D52B
  8
AM_0
 10
123.9559486872549
 20
541.44108358567905
 30
0.0
 11
126.678908687255
 21
541.44108358567905
 31
0.0
  0
ARC
  5
D52C
  8
AM_0
 10
126.178908687255
 20
541.90250958567913
 30
0.0
 40
0.5
 50
0.0
 51
90.0
  0
ARC
  5
D52D
  8
AM_0
 10
125.678908687255
 20
539.30106158567878
 30
0.0
 40
1.0
 50
0.0
 51
90.0
  0
LINE
  5
D52E
  8
AM_0
 10
123.678908687255
 20
541.19597458567898
 30
0.0
 11
123.678908687255
 21
540.64995358567899
 31
0.0
  0
LINE
  5
D52F
  8
AM_0
 10
123.678908687255
 20
536.62987358567909
 30
0.0
 11
123.678908687255
 21
536.15775858567906
 31
0.0
  0
ARC
  5
D530
  8
AM_0
 10
123.950208687255
 20
534.78435358567913
 30
0.0
 40
1.0
 50
90.0
 51
120.3595000000014
  0
ARC
  5
D531
  8
AM_0
 10
123.9775586872549
 20
535.92436758567908
 30
0.0
 40
1.0
 50
90.0
 51
123.2547299999989
  0
ARC
  5
D532
  8
AM_0
 10
123.9275686872549
 20
539.30106158567878
 30
0.0
 40
1.0
 50
90.0
 51
117.9265999999992
  0
ARC
  5
D533
  8
AM_0
 10
123.9559486872549
 20
540.44107658567896
 30
0.0
 40
1.0
 50
90.0
 51
120.96660000000119
  0
ARC
  5
D534
  8
AM_0
 10
123.91816868725491
 20
541.40251758567899
 30
0.0
 40
1.0
 50
90.0
 51
116.9112599999988
  0
LINE
  5
D535
  8
AM_0
 10
123.678908687255
 20
543.29557558567899
 30
0.0
 11
123.678908687255
 21
542.76981158567901
 31
0.0
  0
LINE
  5
D536
  8
AM_0
 10
123.49079868725489
 20
529.40832358567877
 30
0.0
 11
122.2860886872549
 21
528.89381158567903
 31
0.0
  0
ARC
  5
D537
  8
AM_0
 10
122.678908687255
 20
527.974157585679
 30
0.0
 40
1.0
 50
113.1270199999981
 51
180.00001000000091
  0
LINE
  5
D538
  8
AM_0
 10
122.1734786872549
 20
534.90253258567896
 30
0.0
 11
122.1499186872549
 21
534.88870758567896
 31
0.0
  0
ARC
  5
D539
  8
AM_0
 10
122.678908687255
 20
534.03966358567914
 30
0.0
 40
1.0
 50
120.35951000000171
 51
180.00001000000091
  0
ARC
  5
D53A
  8
AM_0
 10
122.678908687255
 20
534.03966358567914
 30
0.0
 40
1.0
 50
120.35951000000171
 51
180.00001000000091
  0
LINE
  5
D53B
  8
AM_0
 10
123.8292386872549
 20
527.54257758567906
 30
0.0
 11
125.678908687255
 21
527.54257758567906
 31
0.0
  0
LINE
  5
D53C
  8
AM_0
 10
123.883558687255
 20
529.48869158567902
 30
0.0
 11
125.978898687255
 21
529.48869158567902
 31
0.0
  0
ARC
  5
D53D
  8
AM_0
 10
125.978898687255
 20
530.18863458567887
 30
0.0
 40
0.6999999900000002
 50
269.9999969999991
 51
0.0
  0
LINE
  5
D53E
  8
AM_0
 10
123.678908687255
 20
529.19231258567902
 30
0.0
 11
123.678908687255
 21
528.13236058567895
 31
0.0
  0
ARC
  5
D53F
  8
AM_0
 10
123.883558687255
 20
528.48868358567904
 30
0.0
 40
1.0
 50
90.0
 51
113.1270299999986
  0
ARC
  5
D540
  8
AM_0
 10
125.678908687255
 20
534.78435358567913
 30
0.0
 40
1.0
 50
0.0
 51
25.363240000000559
  0
ARC
  5
D541
  8
AM_0
 10
122.678908687255
 20
518.79943258567903
 30
0.0
 40
1.0
 50
90.0
 51
180.00001000000091
  0
LINE
  5
D542
  8
AM_0
 10
125.678908687255
 20
519.79941258567908
 30
0.0
 11
122.678908687255
 21
519.79941258567908
 31
0.0
  0
LINE
  5
D543
  8
AM_0
 10
123.5352286872549
 20
527.49835758567895
 30
0.0
 11
122.3848386872549
 21
527.14450658567898
 31
0.0
  0
ARC
  5
D544
  8
AM_0
 10
122.678908687255
 20
526.18869558567906
 30
0.0
 40
1.0
 50
107.0976299999995
 51
180.00001000000091
  0
ARC
  5
D545
  8
AM_0
 10
125.678908687255
 20
520.79942258567905
 30
0.0
 40
1.0
 50
269.9999969999991
 51
0.0
  0
LINE
  5
D546
  8
AM_0
 10
125.678908687255
 20
517.79942258567905
 30
0.0
 11
122.678908687255
 21
517.79942258567905
 31
0.0
  0
LINE
  5
D547
  8
AM_0
 10
119.68501220288
 20
511.79124387474138
 30
0.0
 11
120.1850427204581
 21
511.75123532981962
 31
0.0
  0
LINE
  5
D548
  8
AM_0
 10
120.17896868725489
 20
513.79941258567885
 30
0.0
 11
121.678908687255
 21
513.93064258567904
 31
0.0
  0
ARC
  5
D549
  8
AM_0
 10
122.678908687255
 20
518.79943258567903
 30
0.0
 40
1.0
 50
179.999989999999
 51
269.9999969999991
  0
LINE
  5
D54A
  8
AM_0
 10
123.678908687255
 20
519.42565258567902
 30
0.0
 11
123.678908687255
 21
518.06279258567895
 31
0.0
  0
ARC
  5
D54B
  8
AM_0
 10
125.678908687255
 20
516.79941258567897
 30
0.0
 40
1.0
 50
0.0
 51
90.0
  0
LINE
  5
D54C
  8
AM_0
 10
120.178908687255
 20
508.94945258567913
 30
0.0
 11
123.4726086872549
 21
508.94945258567913
 31
0.0
  0
LINE
  5
D54D
  8
AM_0
 10
125.678908687255
 20
507.79941258567908
 30
0.0
 11
122.678908687255
 21
507.79941258567908
 31
0.0
  0
LINE
  5
D54E
  8
AM_0
 10
125.678908687255
 20
509.79943258567903
 30
0.0
 11
122.678908687255
 21
509.79943258567903
 31
0.0
  0
ARC
  5
D54F
  8
AM_0
 10
122.678908687255
 20
508.799422585679
 30
0.0
 40
1.0
 50
179.999989999999
 51
269.9999969999991
  0
LINE
  5
D550
  8
AM_0
 10
120.178908687255
 20
511.08146258567888
 30
0.0
 11
121.678908687255
 21
511.08146258567888
 31
0.0
  0
ARC
  5
D551
  8
AM_0
 10
122.678908687255
 20
508.799422585679
 30
0.0
 40
1.0
 50
90.0
 51
180.00001000000091
  0
ARC
  5
D552
  8
AM_0
 10
125.678908687255
 20
506.79943258567903
 30
0.0
 40
1.0
 50
0.0
 51
90.0
  0
ARC
  5
D553
  8
AM_0
 10
125.678908687255
 20
510.79941258567902
 30
0.0
 40
1.0
 50
269.9999969999991
 51
0.0
  0
LINE
  5
D554
  8
AM_0
 10
123.678908687255
 20
509.40653258567897
 30
0.0
 11
123.678908687255
 21
508.1951725856789
 31
0.0
  0
LINE
  5
D555
  8
AM_0
 10
125.678908687255
 20
497.79943258567903
 30
0.0
 11
122.678908687255
 21
497.79943258567903
 31
0.0
  0
LINE
  5
D556
  8
AM_0
 10
125.678908687255
 20
499.799422585679
 30
0.0
 11
122.678908687255
 21
499.799422585679
 31
0.0
  0
ARC
  5
D557
  8
AM_0
 10
122.678908687255
 20
498.79941258567908
 30
0.0
 40
1.0
 50
179.999989999999
 51
269.9999969999991
  0
ARC
  5
D558
  8
AM_0
 10
122.678908687255
 20
498.79941258567908
 30
0.0
 40
1.0
 50
90.0
 51
180.00001000000091
  0
ARC
  5
D559
  8
AM_0
 10
125.678908687255
 20
500.79943258567903
 30
0.0
 40
1.0
 50
269.9999969999991
 51
0.0
  0
ARC
  5
D55A
  8
AM_0
 10
125.678908687255
 20
496.79942258567911
 30
0.0
 40
1.0
 50
0.0
 51
90.0
  0
LINE
  5
D55B
  8
AM_0
 10
123.678908687255
 20
499.41270258567903
 30
0.0
 11
123.678908687255
 21
498.25181258567909
 31
0.0
  0
ARC
  5
D55C
  8
AM_0
 10
125.678908687255
 20
486.79942258567888
 30
0.0
 40
1.0
 50
0.0
 51
90.0
  0
ARC
  5
D55D
  8
AM_0
 10
122.678908687255
 20
488.79943258567903
 30
0.0
 40
1.0
 50
179.999989999999
 51
269.9999969999991
  0
LINE
  5
D55E
  8
AM_0
 10
125.678908687255
 20
489.79942258567888
 30
0.0
 11
122.678908687255
 21
489.79942258567888
 31
0.0
  0
LINE
  5
D55F
  8
AM_0
 10
125.678908687255
 20
487.799422585679
 30
0.0
 11
122.678908687255
 21
487.799422585679
 31
0.0
  0
ARC
  5
D560
  8
AM_0
 10
122.678908687255
 20
488.79943258567903
 30
0.0
 40
1.0
 50
90.0
 51
180.00001000000091
  0
ARC
  5
D561
  8
AM_0
 10
125.678908687255
 20
490.79942258567888
 30
0.0
 40
1.0
 50
269.9999969999991
 51
0.0
  0
LINE
  5
D562
  8
AM_0
 10
123.678908687255
 20
488.18621258567902
 30
0.0
 11
123.678908687255
 21
489.34710258567901
 31
0.0
  0
ARC
  5
D563
  8
AM_0
 10
125.678908687255
 20
448.29779258567908
 30
0.0
 40
1.0
 50
269.9999969999991
 51
0.0
  0
LINE
  5
D564
  8
AM_0
 10
123.459248687255
 20
447.41426258567901
 30
0.0
 11
122.2105886872549
 21
448.076122585679
 31
0.0
  0
ARC
  5
D565
  8
AM_0
 10
122.678908687255
 20
448.95971258567897
 30
0.0
 40
1.0
 50
179.999989999999
 51
242.07340000000079
  0
LINE
  5
D566
  8
AM_0
 10
120.178908687255
 20
478.64939258567898
 30
0.0
 11
124.85639868725499
 21
478.64939258567898
 31
0.0
  0
LINE
  5
D567
  8
AM_0
 10
125.678908687255
 20
479.79943258567903
 30
0.0
 11
122.678908687255
 21
479.79943258567903
 31
0.0
  0
LINE
  5
D568
  8
AM_0
 10
125.678908687255
 20
477.79942258567888
 30
0.0
 11
122.678908687255
 21
477.79942258567888
 31
0.0
  0
LINE
  5
D569
  8
AM_0
 10
119.6850427204581
 20
475.8076012966165
 30
0.0
 11
120.18501220288
 21
475.84760984153837
 31
0.0
  0
LINE
  5
D56A
  8
AM_0
 10
119.18501220288
 20
478.57759031028837
 30
0.0
 11
119.68501220288
 21
475.8076012966165
 31
0.0
  0
LINE
  5
D56B
  8
AM_0
 10
120.178908687255
 20
473.79943258567903
 30
0.0
 11
121.678908687255
 21
473.66821258567899
 31
0.0
  0
LINE
  5
D56C
  8
AM_0
 10
120.178908687255
 20
476.51745258567911
 30
0.0
 11
121.678908687255
 21
476.51745258567911
 31
0.0
  0
ARC
  5
D56D
  8
AM_0
 10
122.678908687255
 20
478.799422585679
 30
0.0
 40
1.0
 50
179.999989999999
 51
269.9999969999991
  0
ARC
  5
D56E
  8
AM_0
 10
125.678908687255
 20
476.79943258567903
 30
0.0
 40
1.0
 50
0.0
 51
90.0
  0
LINE
  5
D56F
  8
AM_0
 10
123.678908687255
 20
478.19232258567899
 30
0.0
 11
123.678908687255
 21
479.40374258567908
 31
0.0
  0
LINE
  5
D570
  8
AM_0
 10
125.678908687255
 20
469.79942258567888
 30
0.0
 11
122.678908687255
 21
469.79942258567888
 31
0.0
  0
LINE
  5
D571
  8
AM_0
 10
125.678908687255
 20
467.79943258567903
 30
0.0
 11
122.678908687255
 21
467.79943258567903
 31
0.0
  0
ARC
  5
D572
  8
AM_0
 10
122.678908687255
 20
468.79942258567888
 30
0.0
 40
1.0
 50
90.0
 51
180.00001000000091
  0
ARC
  5
D573
  8
AM_0
 10
122.678908687255
 20
468.79942258567888
 30
0.0
 40
1.0
 50
179.999989999999
 51
269.9999969999991
  0
ARC
  5
D574
  8
AM_0
 10
125.678908687255
 20
470.79943258567903
 30
0.0
 40
1.0
 50
269.9999969999991
 51
0.0
  0
LINE
  5
D575
  8
AM_0
 10
123.678908687255
 20
468.17326258567903
 30
0.0
 11
123.678908687255
 21
469.53605258567899
 31
0.0
  0
ARC
  5
D576
  8
AM_0
 10
125.678908687255
 20
466.799422585679
 30
0.0
 40
1.0
 50
0.0
 51
90.0
  0
LINE
  5
D577
  8
AM_0
 10
123.4907386872549
 20
458.19053258567908
 30
0.0
 11
122.28614868725499
 21
458.70500258567898
 31
0.0
  0
LINE
  5
D578
  8
AM_0
 10
123.5352286872549
 20
460.10049258567898
 30
0.0
 11
122.38490868725501
 21
460.45433258567903
 31
0.0
  0
ARC
  5
D579
  8
AM_0
 10
122.678908687255
 20
461.41015258567899
 30
0.0
 40
1.0
 50
179.999989999999
 51
252.9023700000005
  0
ARC
  5
D57A
  8
AM_0
 10
122.678908687255
 20
459.6246925856791
 30
0.0
 40
1.0
 50
179.999989999999
 51
246.87297000000149
  0
LINE
  5
D57B
  8
AM_0
 10
123.883558687255
 20
458.11022258567903
 30
0.0
 11
125.978898687255
 21
458.11022258567903
 31
0.0
  0
ARC
  5
D57C
  8
AM_0
 10
125.978898687255
 20
457.41021258567889
 30
0.0
 40
0.6999999900000002
 50
0.0
 51
90.0
  0
ARC
  5
D57D
  8
AM_0
 10
123.883558687255
 20
459.11021258567911
 30
0.0
 40
1.0
 50
246.87297000000149
 51
269.9999969999991
  0
LINE
  5
D57E
  8
AM_0
 10
123.8292386872549
 20
460.05632258567903
 30
0.0
 11
125.678908687255
 21
460.05632258567903
 31
0.0
  0
ARC
  5
D57F
  8
AM_0
 10
125.678908687255
 20
461.05632258567903
 30
0.0
 40
1.0
 50
269.9999969999991
 51
0.0
  0
ARC
  5
D580
  8
AM_0
 10
123.8292386872549
 20
461.05632258567903
 30
0.0
 40
1.0
 50
252.9023700000005
 51
269.9999969999991
  0
LINE
  5
D581
  8
AM_0
 10
123.678908687255
 20
458.40654258567901
 30
0.0
 11
123.678908687255
 21
459.46649258567908
 31
0.0
  0
LINE
  5
D582
  8
AM_0
 10
123.4447786872549
 20
451.95164258567911
 30
0.0
 11
122.1734786872549
 21
452.69631258567898
 31
0.0
  0
LINE
  5
D583
  8
AM_0
 10
123.4291586872549
 20
450.83827258567891
 30
0.0
 11
122.13056868725489
 21
451.68983258567903
 31
0.0
  0
ARC
  5
D584
  8
AM_0
 10
122.678908687255
 20
452.52610258567898
 30
0.0
 40
1.0
 50
179.999989999999
 51
236.74527000000111
  0
ARC
  5
D585
  8
AM_0
 10
122.678908687255
 20
453.55918258567908
 30
0.0
 40
1.0
 50
179.999989999999
 51
239.64049999999861
  0
LINE
  5
D586
  8
AM_0
 10
123.9775586872549
 20
450.67454258567909
 30
0.0
 11
126.678908687255
 21
450.67454258567909
 31
0.0
  0
LINE
  5
D587
  8
AM_0
 10
123.950208687255
 20
451.81451258567898
 30
0.0
 11
125.678908687255
 21
451.81451258567898
 31
0.0
  0
ARC
  5
D588
  8
AM_0
 10
125.678908687255
 20
452.81449258567909
 30
0.0
 40
1.0
 50
269.9999969999991
 51
0.0
  0
LINE
  5
D589
  8
AM_0
 10
123.678908687255
 20
450.96897258567901
 30
0.0
 11
123.678908687255
 21
451.44116258567908
 31
0.0
  0
ARC
  5
D58A
  8
AM_0
 10
123.950208687255
 20
452.81449258567909
 30
0.0
 40
1.0
 50
239.64049999999861
 51
269.9999969999991
  0
ARC
  5
D58B
  8
AM_0
 10
123.9775586872549
 20
451.67454258567898
 30
0.0
 40
1.0
 50
236.74527000000111
 51
269.9999969999991
  0
LINE
  5
D58C
  8
AM_0
 10
123.46558868725489
 20
445.30461258567902
 30
0.0
 11
122.22633868725489
 21
445.93363258567888
 31
0.0
  0
LINE
  5
D58D
  8
AM_0
 10
123.4413586872549
 20
446.30032258567888
 30
0.0
 11
122.16431868725491
 21
447.06662258567889
 31
0.0
  0
LINE
  5
D58E
  8
AM_0
 10
123.446728687255
 20
444.18431258567909
 30
0.0
 11
122.178548687255
 21
444.917262585679
 31
0.0
  0
ARC
  5
D58F
  8
AM_0
 10
122.678908687255
 20
447.92411258567898
 30
0.0
 40
1.0
 50
179.999989999999
 51
239.03339999999869
  0
ARC
  5
D590
  8
AM_0
 10
122.678908687255
 20
446.82536258567899
 30
0.0
 40
1.0
 50
179.999989999999
 51
243.08874000000111
  0
ARC
  5
D591
  8
AM_0
 10
122.678908687255
 20
445.78306258567898
 30
0.0
 40
1.0
 50
179.999989999999
 51
239.9736000000006
  0
LINE
  5
D592
  8
AM_0
 10
126.678908687255
 20
443.79943258567903
 30
0.0
 11
127.678908687255
 21
443.79943258567903
 31
0.0
  0
LINE
  5
D593
  8
AM_0
 10
123.91816868725491
 20
445.19635258567899
 30
0.0
 11
126.178908687255
 21
445.19635258567899
 31
0.0
  0
LINE
  5
D594
  8
AM_0
 10
123.9275686872549
 20
447.29777258567879
 30
0.0
 11
125.678908687255
 21
447.29777258567879
 31
0.0
  0
LINE
  5
D595
  8
AM_0
 10
123.9559486872549
 20
446.15783258567888
 30
0.0
 11
126.678908687255
 21
446.15783258567888
 31
0.0
  0
LINE
  5
D596
  8
AM_0
 10
123.94709868725499
 20
444.05003258567888
 30
0.0
 11
126.178908687255
 21
444.05003258567888
 31
0.0
  0
ARC
  5
D597
  8
AM_0
 10
126.178908687255
 20
443.55004258567902
 30
0.0
 40
0.5
 50
0.0
 51
90.0
  0
ARC
  5
D598
  8
AM_0
 10
126.178908687255
 20
445.69633258567887
 30
0.0
 40
0.5
 50
269.9999969999991
 51
0.0
  0
LINE
  5
D599
  8
AM_0
 10
123.678908687255
 20
444.30326258567902
 30
0.0
 11
123.678908687255
 21
444.82904258567891
 31
0.0
  0
LINE
  5
D59A
  8
AM_0
 10
123.678908687255
 20
446.40287258567901
 30
0.0
 11
123.678908687255
 21
446.94895258567908
 31
0.0
  0
ARC
  5
D59B
  8
AM_0
 10
123.9275686872549
 20
448.29779258567908
 30
0.0
 40
1.0
 50
242.07340000000079
 51
269.9999969999991
  0
ARC
  5
D59C
  8
AM_0
 10
123.9559486872549
 20
447.15782258567901
 30
0.0
 40
1.0
 50
239.03339999999869
 51
269.9999969999991
  0
ARC
  5
D59D
  8
AM_0
 10
123.91816868725491
 20
446.19633258567899
 30
0.0
 40
1.0
 50
243.08874000000111
 51
269.9999969999991
  0
ARC
  5
D59E
  8
AM_0
 10
123.94709868725499
 20
445.05004258567902
 30
0.0
 40
1.0
 50
239.9736000000006
 51
269.9999969999991
  0
LINE
  5
D59F
  8
AM_0
 10
276.18501166737462
 20
518.79940338587005
 30
0.0
 11
277.28468105837243
 21
455.79938616846943
 31
0.0
  0
LINE
  5
D5A0
  8
ﾁｭｳｼﾝｾﾝ1
 10
287.18501253070548
 20
534.79940377330013
 30
0.0
 11
287.18501253070548
 21
452.79940150832363
 31
0.0
  0
LINE
  5
D5A1
  8
ｶｸﾚｾﾝ2
 10
291.68501253070548
 20
531.79940377330036
 30
0.0
 11
291.68501253070548
 21
455.79940150832391
 31
0.0
  0
LINE
  5
D5A2
  8
ｶｸﾚｾﾝ2
 10
282.68501253070548
 20
531.79940377330036
 30
0.0
 11
282.68501253070548
 21
455.79940150832391
 31
0.0
  0
LINE
  5
D5A3
  8
AM_0
 10
261.3164858627697
 20
438.26731410726848
 30
0.0
 11
261.31650112088408
 21
549.33149187974448
 31
0.0
  0
LINE
  5
D5A4
  8
AM_0
 10
251.67890868725499
 20
437.79939258567907
 30
0.0
 11
251.67890868725499
 21
549.79941358567896
 31
0.0
  0
LINE
  5
D5A5
  8
AM_0
 10
262.00054179573323
 20
548.14669661645837
 30
0.0
 11
267.23649468055032
 21
518.45210731296925
 31
0.0
1001
GENIUS_GENODEF_13
1002
{
1000
HIER
1070
     0
1002
}
1002
{
1000
MANEDIT
1070
     0
1002
}
1002
{
1000
NOSEL
1070
     0
1002
}
1002
{
1000
BEHIND
1070
     0
1002
}
1002
{
1000
REACTOR
1002
}
1001
GENIUS_GENOBJ-N-CEN_13
1002
{
1000
OWNER
1000
GEN
1002
}
  0
ARC
  5
D5A6
  8
AM_0
 10
260.030925791664
 20
547.79940308567905
 30
0.0
 40
2.0
 50
9.9999917840739627
 51
90.0
1001
GENIUS_GENOBJ-N-CEN_13
1002
{
1000
OWNER
1000
GEN
1002
}
1001
GENIUS_GENODEF_13
1002
{
1000
HIER
1070
     0
1002
}
1002
{
1000
MANEDIT
1070
     0
1002
}
1002
{
1000
NOSEL
1070
     0
1002
}
1002
{
1000
BEHIND
1070
     0
1002
}
1002
{
1000
OTHER
1070
     0
1002
}
1002
{
1000
REACTOR
1002
}
1001
GENIUS_GENOBJ-N-FIL_13
1002
{
1000
OWNER
1000
GEN
1002
}
  0
LINE
  5
D5A7
  8
AM_0
 10
251.67890868725499
 20
549.79940308567916
 30
0.0
 11
260.030925791664
 21
549.79940308567916
 31
0.0
  0
LINE
  5
D5A8
  8
AM_0
 10
275.20231440425869
 20
516.79940338587005
 30
0.0
 11
269.20611023637531
 21
516.79940338587005
 31
0.0
  0
LINE
  5
D5A9
  8
AM_0
 10
251.67890868725499
 20
539.79942858567904
 30
0.0
 11
261.31649981135621
 21
539.79940722670426
 31
0.0
  0
LINE
  5
D5AA
  8
AM_0
 10
251.67890868725499
 20
525.73686058567898
 30
0.0
 11
261.31649787976812
 21
525.73933201756984
 31
0.0
  0
ARC
  5
D5AB
  8
AM_0
 10
269.20611023637531
 20
518.79940338587005
 30
0.0
 40
2.0
 50
189.9999917840739
 51
270.0
1001
GENIUS_GENODEF_13
1002
{
1000
HIER
1070
     0
1002
}
1002
{
1000
MANEDIT
1070
     0
1002
}
1002
{
1000
NOSEL
1070
     0
1002
}
1002
{
1000
BEHIND
1070
     0
1002
}
1002
{
1000
OTHER
1070
     0
1002
}
1002
{
1000
REACTOR
1002
}
1001
GENIUS_GENOBJ-N-FIL_13
1002
{
1000
OWNER
1000
GEN
1002
}
  0
LINE
  5
D5AC
  8
AM_0
 10
276.18501193512191
 20
518.79938804601557
 30
0.0
 11
276.41192778595132
 21
531.79938843344598
 31
0.0
  0
ARC
  5
D5AD
  8
AM_0
 10
275.20231440425869
 20
517.79940338587005
 30
0.0
 40
1.0
 50
270.0
 51
0.9999999999887361
1001
GENIUS_GENODEF_13
1002
{
1000
HIER
1070
     0
1002
}
1002
{
1000
MANEDIT
1070
     0
1002
}
1002
{
1000
NOSEL
1070
     0
1002
}
1002
{
1000
BEHIND
1070
     0
1002
}
1002
{
1000
OTHER
1070
     0
1002
}
1002
{
1000
REACTOR
1002
}
1001
GENIUS_GENOBJ-N-FIL_13
1002
{
1000
OWNER
1000
GEN
1002
}
  0
LINE
  5
D5AE
  8
AM_0
 10
275.28437613452638
 20
457.7994015083238
 30
0.0
 11
266.1850147658796
 21
457.7994015083238
 31
0.0
  0
LINE
  5
D5AF
  8
AM_0
 10
262.0005262094673
 20
439.45210644791189
 30
0.0
 11
264.1850147658796
 21
451.84094629478852
 31
0.0
1001
GENIUS_GENODEF_13
1002
{
1000
HIER
1070
     0
1002
}
1002
{
1000
MANEDIT
1070
     0
1002
}
1002
{
1000
NOSEL
1070
     0
1002
}
1002
{
1000
BEHIND
1070
     0
1002
}
1002
{
1000
REACTOR
1002
}
1001
GENIUS_GENOBJ-N-CEN_13
1002
{
1000
OWNER
1000
GEN
1002
}
  0
LINE
  5
D5B0
  8
AM_0
 10
251.67890868725499
 20
461.85945308567909
 30
0.0
 11
261.3164891038827
 21
461.85945308567909
 31
0.0
  0
ARC
  5
D5B1
  8
AM_0
 10
266.1850147658796
 20
455.79940150832363
 30
0.0
 40
2.0
 50
90.0
 51
180.0
1001
GENIUS_GENODEF_13
1002
{
1000
HIER
1070
     0
1002
}
1002
{
1000
MANEDIT
1070
     0
1002
}
1002
{
1000
NOSEL
1070
     0
1002
}
1002
{
1000
BEHIND
1070
     0
1002
}
1002
{
1000
OTHER
1070
     0
1002
}
1002
{
1000
REACTOR
1002
}
1001
GENIUS_GENOBJ-N-FIL_13
1002
{
1000
OWNER
1000
GEN
1002
}
  0
LINE
  5
D5B2
  8
AM_0
 10
264.1850147658796
 20
455.79940150832363
 30
0.0
 11
264.1850147658796
 21
451.84094629478852
 31
0.0
  0
ARC
  5
D5B3
  8
AM_0
 10
260.03091075324357
 20
439.7994030856791
 30
0.0
 40
2.0
 50
270.0
 51
349.99999178406978
1001
GENIUS_GENOBJ-N-CEN_13
1002
{
1000
OWNER
1000
GEN
1002
}
1001
GENIUS_GENOBJ-N-FIL_13
1002
{
1000
OWNER
1000
GEN
1002
}
1001
GENIUS_GENODEF_13
1002
{
1000
HIER
1070
     0
1002
}
1002
{
1000
MANEDIT
1070
     0
1002
}
1002
{
1000
NOSEL
1070
     0
1002
}
1002
{
1000
BEHIND
1070
     0
1002
}
1002
{
1000
OTHER
1070
     0
1002
}
1002
{
1000
REACTOR
1002
}
  0
LINE
  5
D5B4
  8
AM_0
 10
251.67890868725499
 20
447.79940308567888
 30
0.0
 11
261.3164871722982
 21
447.79940308567888
 31
0.0
  0
LINE
  5
D5B5
  8
AM_0
 10
251.67890868725499
 20
437.7994030856791
 30
0.0
 11
260.03091075324357
 21
437.7994030856791
 31
0.0
  0
ARC
  5
D5B6
  8
AM_0
 10
275.28437613452638
 20
455.79940150832363
 30
0.0
 40
2.0
 50
0.9999999999952489
 51
90.0
1001
GENIUS_GENODEF_13
1002
{
1000
HIER
1070
     0
1002
}
1002
{
1000
MANEDIT
1070
     0
1002
}
1002
{
1000
NOSEL
1070
     0
1002
}
1002
{
1000
BEHIND
1070
     0
1002
}
1002
{
1000
OTHER
1070
     0
1002
}
1002
{
1000
REACTOR
1002
}
1001
GENIUS_GENOBJ-N-FIL_13
1002
{
1000
OWNER
1000
GEN
1002
}
  0
LINE
  5
D5B8
  8
ｶｸﾚｾﾝ2
 10
397.68501595797261
 20
531.79940377330036
 30
0.0
 11
397.68501595797261
 21
455.79940150832391
 31
0.0
  0
LINE
  5
D5B9
  8
ｶｸﾚｾﾝ2
 10
406.6850159579725
 20
531.79940377330036
 30
0.0
 11
406.6850159579725
 21
455.79940150832391
 31
0.0
  0
LINE
  5
D5BA
  8
ﾁｭｳｼﾝｾﾝ1
 10
402.18501595797261
 20
534.79940377330013
 30
0.0
 11
402.18501595797261
 21
452.7994015083238
 31
0.0
  0
LINE
  5
D5BB
  8
ﾁｭｳｼﾝｾﾝ1
 10
362.1850147658796
 20
540.79940389250964
 30
0.0
 11
362.1850147658796
 21
392.98855315442552
 31
0.0
  0
LINE
  5
D5BD
  8
AM_0
 10
389.68501558544352
 20
535.79940389250964
 30
0.0
 11
334.68501394631591
 21
535.79940389250964
 31
0.0
  0
LINE
  5
D5BE
  8
AM_0
 10
334.68501394631591
 20
535.79940389250964
 30
0.0
 11
334.68501394631591
 21
531.79940377330036
 31
0.0
  0
LINE
  5
D5C1
  8
AM_0
 10
389.68501558544352
 20
535.79940389250964
 30
0.0
 11
389.68501558544352
 21
531.79940377330036
 31
0.0
  0
LINE
  5
D5C4
  8
AM_0
 10
389.68501558544352
 20
451.79940138911462
 30
0.0
 11
334.68501394631591
 21
451.79940138911439
 31
0.0
  0
LINE
  5
D5C5
  8
AM_0
 10
334.68501394631579
 20
451.79940138911439
 30
0.0
 11
334.68501394631579
 21
455.79940150832363
 31
0.0
  0
LINE
  5
D5C8
  8
AM_0
 10
389.68501558544352
 20
451.79940138911462
 30
0.0
 11
389.68501558544352
 21
455.79940150832391
 31
0.0
  0
LINE
  5
D5C9
  8
AM_0
 10
128.36893868725491
 20
536.99443990928853
 30
0.0
 11
134.59891868725489
 21
536.99443990928853
 31
0.0
  0
LINE
  5
D5CA
  8
AM_0
 10
127.678938687255
 20
546.80442890928816
 30
0.0
 11
135.678938687255
 21
546.80442890928816
 31
0.0
  0
LINE
  5
D5CB
  8
AM_0
 10
127.678938687255
 20
546.79943990928837
 30
0.0
 11
135.678938687255
 21
546.79943990928837
 31
0.0
  0
LINE
  5
D5CC
  8
AM_0
 10
128.36893868725491
 20
450.61444590928841
 30
0.0
 11
134.59891868725489
 21
450.61444590928841
 31
0.0
  0
LINE
  5
D5CD
  8
AM_0
 10
127.678938687255
 20
440.8044259092884
 30
0.0
 11
135.678938687255
 21
440.8044259092884
 31
0.0
  0
LINE
  5
D5CE
  8
AM_0
 10
127.678938687255
 20
440.79943590928838
 30
0.0
 11
135.678938687255
 21
440.79943590928838
 31
0.0
  0
LINE
  5
D5CF
  8
AM_0
 10
141.00382590356699
 20
457.07945934695221
 30
0.0
 11
135.678938687255
 21
445.70443590928841
 31
0.0
  0
LINE
  5
D5D0
  8
AM_0
 10
240.5107234238794
 20
449.36735570202711
 30
0.0
 11
237.7289586872549
 21
439.00442590928827
 31
0.0
  0
LINE
  5
D5D1
  8
AM_0
 10
243.678938687255
 20
437.79943590928838
 30
0.0
 11
243.678938687255
 21
549.79943990928848
 31
0.0
  0
LINE
  5
D5D2
  8
AM_0
 10
135.678938687255
 20
440.8044259092884
 30
0.0
 11
135.678938687255
 21
543.24442390928834
 31
0.0
  0
LINE
  5
D5D3
  8
AM_0
 10
138.8789486872549
 20
437.51443590928841
 30
0.0
 11
235.79890868725491
 21
437.51443590928841
 31
0.0
  0
LINE
  5
D5D4
  8
AM_0
 10
138.9689186872549
 20
431.91442590928841
 30
0.0
 11
172.67893868725491
 21
431.91442590928841
 31
0.0
  0
LINE
  5
D5D5
  8
AM_0
 10
138.9489586872549
 20
432.82443590928841
 30
0.0
 11
172.67893868725491
 21
432.82443590928841
 31
0.0
  0
LINE
  5
D5D6
  8
AM_0
 10
138.928938687255
 20
434.67443590928838
 30
0.0
 11
172.67893868725491
 21
434.67443590928838
 31
0.0
  0
ARC
  5
D5D7
  8
AM_0
 10
138.92734868725489
 20
436.66757590928842
 30
0.0
 40
1.9931281000000001
 50
189.0388199999997
 51
270.04662699999949
  0
LINE
  5
D5D8
  8
AM_0
 10
135.678938687255
 20
443.01445590928842
 30
0.0
 11
136.98893868725489
 21
433.63444590928839
 31
0.0
  0
LINE
  5
D5D9
  8
AM_0
 10
135.6789986872549
 20
443.0144159092884
 30
0.0
 11
136.96897868725489
 21
434.52442590928848
 31
0.0
  0
ARC
  5
D5DA
  8
AM_0
 10
138.94163868725499
 20
434.81900590928848
 30
0.0
 40
1.994588
 50
188.49291000000531
 51
270.20924700000091
  0
ARC
  5
D5DB
  8
AM_0
 10
138.963608687255
 20
433.90791590928842
 30
0.0
 40
1.9934921000000001
 50
187.88525999999729
 51
270.15390899999858
  0
ARC
  5
D5DC
  8
AM_0
 10
138.88181868725491
 20
439.51133590928828
 30
0.0
 40
1.9969039999999989
 50
190.58743999999851
 51
269.91652600000037
  0
LINE
  5
D5DD
  8
AM_0
 10
135.678938687255
 20
444.36442590928829
 30
0.0
 11
136.9589086872549
 21
436.3544359092885
 31
0.0
  0
LINE
  5
D5DE
  8
AM_0
 10
135.678938687255
 20
445.70442590928837
 30
0.0
 11
136.918928687255
 21
439.14442590928837
 31
0.0
  0
ARC
  5
D5DF
  8
AM_0
 10
172.67850868725489
 20
436.6748559092884
 30
0.0
 40
2.000407899999999
 50
270.01164999999889
 51
359.98835099999928
  0
LINE
  5
D5E0
  8
AM_0
 10
174.67893868725491
 20
433.91444590928842
 30
0.0
 11
174.67893868725491
 21
437.51443590928841
 31
0.0
  0
ARC
  5
D5E1
  8
AM_0
 10
172.67734868725489
 20
434.82598590928842
 30
0.0
 40
2.0015439999999991
 50
270.04421600000092
 51
359.95578600099913
  0
ARC
  5
D5E2
  8
AM_0
 10
172.6776586872549
 20
433.91572590928848
 30
0.0
 40
2.001287899999999
 50
270.03687399999882
 51
359.9631280009977
  0
LINE
  5
D5E3
  8
AM_0
 10
243.678938687255
 20
437.79943590928838
 30
0.0
 11
251.67890868725499
 21
437.79943590928838
 31
0.0
  0
ARC
  5
D5E4
  8
AM_0
 10
235.79612868725499
 20
439.51303590928848
 30
0.0
 40
1.9986041000000001
 50
270.08048399999888
 51
345.25728400000048
  0
LINE
  5
D5E5
  8
AM_0
 10
238.21891868725501
 20
440.8044259092884
 30
0.0
 11
243.678938687255
 21
440.8044259092884
 31
0.0
  0
LINE
  5
D5E6
  8
AM_0
 10
237.0189297999957
 20
457.79940564386533
 30
0.0
 11
138.0388897999988
 21
457.79943007890108
 31
0.0
  0
LINE
  5
D5E7
  8
AM_0
 10
237.01893029373241
 20
459.7994056438651
 30
0.0
 11
138.03889029373551
 21
459.79943007890108
 31
0.0
  0
LINE
  5
D5E8
  8
AM_0
 10
237.01173276241559
 20
469.79940564564231
 30
0.0
 11
138.0388927624187
 21
469.7994300789008
 31
0.0
  0
LINE
  5
D5E9
  8
AM_0
 10
137.35888962226099
 20
457.07946024677148
 30
0.0
 11
240.4989096222578
 21
457.0794347847683
 31
0.0
  0
LINE
  5
D5EA
  8
AM_0
 10
137.1389228710259
 20
470.23937030107481
 30
0.0
 11
240.7131428710228
 21
470.23934473188137
 31
0.0
  0
LINE
  5
D5EB
  8
AM_0
 10
137.138922147719
 20
467.30944030107491
 30
0.0
 11
240.7245621477158
 21
467.30941472906233
 31
0.0
  0
LINE
  5
D5EC
  8
AM_0
 10
237.026072268679
 20
467.79940564210222
 30
0.0
 11
138.03889226868199
 21
467.7994300789008
 31
0.0
  0
LINE
  5
D5ED
  8
AM_0
 10
137.35889044926489
 20
460.42944024677161
 30
0.0
 11
240.49891044926181
 21
460.42941478476831
 31
0.0
  0
LINE
  5
D5EE
  8
AM_0
 10
137.00892465343981
 20
477.45947033316759
 30
0.0
 11
241.0075026098371
 21
477.45944465921372
 31
0.0
  0
LINE
  5
D5EF
  8
AM_0
 10
137.00892531008731
 20
480.1193803331675
 30
0.0
 11
240.85597776807759
 21
480.11935469662041
 31
0.0
  0
LINE
  5
D5F0
  8
AM_0
 10
136.9489271393889
 20
487.52941034797931
 30
0.0
 11
241.06502639289269
 21
487.52938464501312
 31
0.0
  0
LINE
  5
D5F1
  8
AM_0
 10
136.94892776397319
 20
490.0594403479792
 30
0.0
 11
240.90173973997949
 21
490.0594146853233
 31
0.0
  0
LINE
  5
D5F2
  8
AM_0
 10
237.02227399319321
 20
489.79940564304059
 30
0.0
 11
138.038897699785
 21
489.79943007890017
 31
0.0
  0
LINE
  5
D5F3
  8
AM_0
 10
237.02227349945659
 20
487.7994056430407
 30
0.0
 11
138.0388972060484
 21
487.79943007890017
 31
0.0
  0
LINE
  5
D5F4
  8
AM_0
 10
237.02227152450649
 20
479.79940564304081
 30
0.0
 11
138.0388952311018
 21
479.79943007890063
 31
0.0
  0
LINE
  5
D5F5
  8
AM_0
 10
237.0222710307946
 20
477.7994056430411
 30
0.0
 11
138.03889473736521
 21
477.79943007890063
 31
0.0
  0
LINE
  5
D5F6
  8
AM_0
 10
237.02227498068751
 20
509.7994039997285
 30
0.0
 11
138.03889868725511
 21
509.79940399972861
 31
0.0
  0
LINE
  5
D5F7
  8
AM_0
 10
237.0222749806627
 20
507.79940399972838
 30
0.0
 11
138.03889868725511
 21
507.79940399972838
 31
0.0
  0
LINE
  5
D5F8
  8
AM_0
 10
237.02227498066631
 20
499.79940399972861
 30
0.0
 11
138.03889868725511
 21
499.79940399972861
 31
0.0
  0
LINE
  5
D5F9
  8
AM_0
 10
237.02227498066631
 20
497.79940399972861
 30
0.0
 11
138.03889868725511
 21
497.79940399972861
 31
0.0
  0
LINE
  5
D5FA
  8
AM_0
 10
136.94892868725501
 20
497.53939399972859
 30
0.0
 11
240.90174066326441
 21
497.53939399972859
 31
0.0
  0
LINE
  5
D5FB
  8
AM_0
 10
136.94892868725501
 20
500.06942399972849
 30
0.0
 11
241.06502794076189
 21
500.06942399972849
 31
0.0
  0
LINE
  5
D5FC
  8
AM_0
 10
137.00892868725501
 20
507.47945399972838
 30
0.0
 11
240.85598114524839
 21
507.47945399972838
 31
0.0
  0
LINE
  5
D5FD
  8
AM_0
 10
137.00892868725501
 20
510.13936399972857
 30
0.0
 11
241.0075066436554
 21
510.13936399972857
 31
0.0
  0
LINE
  5
D5FE
  8
AM_0
 10
137.35889868725499
 20
527.16939399972841
 30
0.0
 11
240.4989186872549
 21
527.16939399972841
 31
0.0
  0
LINE
  5
D5FF
  8
AM_0
 10
237.02607868725511
 20
519.7994039997285
 30
0.0
 11
138.03889868725511
 21
519.7994039997285
 31
0.0
  0
LINE
  5
D600
  8
AM_0
 10
137.138928687255
 20
520.28939399972865
 30
0.0
 11
240.72456868725499
 21
520.28939399972865
 31
0.0
  0
LINE
  5
D601
  8
AM_0
 10
137.138928687255
 20
517.35946399972863
 30
0.0
 11
240.713148687255
 21
517.35946399972863
 31
0.0
  0
LINE
  5
D602
  8
AM_0
 10
137.35889868725499
 20
530.51937399972871
 30
0.0
 11
240.4989186872549
 21
530.51937399972871
 31
0.0
  0
LINE
  5
D603
  8
AM_0
 10
237.01173868725499
 20
517.79940399972861
 30
0.0
 11
138.03889868725511
 21
517.79940399972861
 31
0.0
  0
LINE
  5
D604
  8
AM_0
 10
237.018938687255
 20
527.79940399972861
 30
0.0
 11
138.03889868725511
 21
527.79940399972861
 31
0.0
  0
LINE
  5
D605
  8
AM_0
 10
237.018938687255
 20
529.79940399972861
 30
0.0
 11
138.03889868725511
 21
529.79940399972861
 31
0.0
  0
LINE
  5
D606
  8
AM_0
 10
161.178938687255
 20
455.5744459092885
 30
0.0
 11
240.9337169057888
 21
455.5744459092885
 31
0.0
  0
LINE
  5
D607
  8
AM_0
 10
161.178938687255
 20
532.02443090928841
 30
0.0
 11
240.9337151607013
 21
532.0244309092883
 31
0.0
  0
LINE
  5
D608
  8
AM_0
 10
138.8789486872549
 20
550.08444290928844
 30
0.0
 11
235.79890868725491
 21
550.08444290928844
 31
0.0
  0
LINE
  5
D609
  8
AM_0
 10
141.00848602653869
 20
530.51937399972871
 30
0.0
 11
135.67887868725501
 21
541.89441090928835
 31
0.0
  0
POLYLINE
  5
D60A
  8
AM_0
 66
     1
 10
0.0
 20
0.0
 30
0.0
  0
VERTEX
  5
D60B
  8
AM_0
 10
138.0388986872583
 20
493.79943007889989
 30
0.0
 42
0.00039106649
  0
VERTEX
  5
D60C
  8
AM_0
 10
138.03653861045009
 20
493.4883000794826
 30
0.0
 42
0.00035488198
  0
VERTEX
  5
D60D
  8
AM_0
 10
138.0346485336469
 20
493.17719007994941
 30
0.0
 42
0.00039706113
  0
VERTEX
  5
D60E
  8
AM_0
 10
138.0332184568436
 20
492.8660800803022
 30
0.0
 42
0.00038765718
  0
VERTEX
  5
D60F
  8
AM_0
 10
138.03228838003301
 20
492.55494008053182
 30
0.0
 42
0.00040613432
  0
VERTEX
  5
D610
  8
AM_0
 10
138.03183830323229
 20
492.24384008064322
 30
0.0
 42
0.00035573434
  0
VERTEX
  5
D611
  8
AM_0
 10
138.0318782264292
 20
491.93273008063301
 30
0.0
 42
0.00038545884
  0
VERTEX
  5
D612
  8
AM_0
 10
138.03236814962091
 20
491.62160008051211
 30
0.0
 42
0.00035501205
  0
VERTEX
  5
D613
  8
AM_0
 10
138.0333280728178
 20
491.3104900802752
 30
0.0
 42
0.00040120779
  0
VERTEX
  5
D614
  8
AM_0
 10
138.0347479959849
 20
490.99926007992462
 30
0.0
 42
0.00038317817
  0
VERTEX
  5
D615
  8
AM_0
 10
138.03665791917689
 20
490.68813007945312
 30
0.0
 42
0.00035656084
  0
VERTEX
  5
D616
  8
AM_0
 10
138.03903784234149
 20
490.37689007886559
 30
0.0
 42
0.00040143615
  0
VERTEX
  5
D617
  8
AM_0
 10
138.04188776554079
 20
490.06579007816208
 30
0.0
  0
SEQEND
  5
D618
  8
AM_0
  0
LINE
  5
D619
  8
AM_0
 10
161.17887868725501
 20
455.57443590928841
 30
0.0
 11
141.00144868725491
 21
457.0744359092883
 31
0.0
  0
ARC
  5
D61A
  8
AM_0
 10
137.13892250937371
 20
468.77441030107491
 30
0.0
 40
1.465004
 50
89.999985855485264
 51
269.99998285548429
  0
ARC
  5
D61B
  8
AM_0
 10
137.35151003574811
 20
458.7543902485935
 30
0.0
 40
1.6750160000000001
 50
89.746115855485513
 51
270.25384085548518
  0
ARC
  5
D61C
  8
AM_0
 10
138.22352004686709
 20
458.7994300333217
 30
0.0
 40
1.0000138999999999
 50
89.691645855484865
 51
270.30832585548637
  0
ARC
  5
D61D
  8
AM_0
 10
138.22352251555029
 20
468.79943003332153
 30
0.0
 40
1.0000138999999999
 50
89.691645855484865
 51
270.30832585548637
  0
POLYLINE
  5
D61E
  8
AM_0
 66
     1
 10
0.0
 20
0.0
 30
0.0
  0
VERTEX
  5
D61F
  8
AM_0
 10
139.53980214943709
 20
467.31639970837369
 30
0.0
 42
0.00068898288
  0
VERTEX
  5
D620
  8
AM_0
 10
139.61068200754951
 20
466.7416496908757
 30
0.0
 42
0.00070644354
  0
VERTEX
  5
D621
  8
AM_0
 10
139.6831818656768
 20
466.16695967297778
 30
0.0
 42
0.00069248071
  0
VERTEX
  5
D622
  8
AM_0
 10
139.75727172389779
 20
465.59264965468731
 30
0.0
 42
0.00069585665
  0
VERTEX
  5
D623
  8
AM_0
 10
139.83295158216089
 20
465.0185096360043
 30
0.0
 42
0.00068980191
  0
VERTEX
  5
D624
  8
AM_0
 10
139.91025144045841
 20
464.44450961692138
 30
0.0
 42
0.00072080104
  0
VERTEX
  5
D625
  8
AM_0
 10
139.98914129880791
 20
463.870719597446
 30
0.0
 42
0.00071002307
  0
VERTEX
  5
D626
  8
AM_0
 10
140.06968115723629
 20
463.29724957756332
 30
0.0
 42
0.00072659056
  0
VERTEX
  5
D627
  8
AM_0
 10
140.1518410157561
 20
462.72414955728061
 30
0.0
 42
0.00069570481
  0
VERTEX
  5
D628
  8
AM_0
 10
140.2356608742931
 20
462.15111953658811
 30
0.0
 42
0.00071266935
  0
VERTEX
  5
D629
  8
AM_0
 10
140.32109073289439
 20
461.57834951549819
 30
0.0
 42
0.00071614426
  0
VERTEX
  5
D62A
  8
AM_0
 10
140.40812059160169
 20
461.0060094940132
 30
0.0
 42
0.00072288975
  0
VERTEX
  5
D62B
  8
AM_0
 10
140.4968304503189
 20
460.43370947211349
 30
0.0
  0
SEQEND
  5
D62C
  8
AM_0
  0
POLYLINE
  5
D62D
  8
AM_0
 66
     1
 10
0.0
 20
0.0
 30
0.0
  0
VERTEX
  5
D62E
  8
AM_0
 10
138.08295713930011
 20
487.5290500680232
 30
0.0
 42
0.00076691992
  0
VERTEX
  5
D62F
  8
AM_0
 10
138.09775698679209
 20
486.91128006436958
 30
0.0
 42
0.00073262792
  0
VERTEX
  5
D630
  8
AM_0
 10
138.1143968343288
 20
486.29369006026161
 30
0.0
 42
0.00076529537
  0
VERTEX
  5
D631
  8
AM_0
 10
138.1328866818456
 20
485.67602005569728
 30
0.0
 42
0.00075141097
  0
VERTEX
  5
D632
  8
AM_0
 10
138.15325652937969
 20
485.05842005066859
 30
0.0
 42
0.00075841687
  0
VERTEX
  5
D633
  8
AM_0
 10
138.17548637695589
 20
484.44099004518068
 30
0.0
 42
0.00075711788
  0
VERTEX
  5
D634
  8
AM_0
 10
138.19959622451219
 20
483.82348003922851
 30
0.0
 42
0.00075976003
  0
VERTEX
  5
D635
  8
AM_0
 10
138.22558607209811
 20
483.2060900328126
 30
0.0
 42
0.00075797311
  0
VERTEX
  5
D636
  8
AM_0
 10
138.2534259197113
 20
482.58881002593972
 30
0.0
 42
0.0007482613
  0
VERTEX
  5
D637
  8
AM_0
 10
138.28315576729969
 20
481.97143001860042
 30
0.0
 42
0.00074893561
  0
VERTEX
  5
D638
  8
AM_0
 10
138.31471561494979
 20
481.3543000108092
 30
0.0
 42
0.00076039839
  0
VERTEX
  5
D639
  8
AM_0
 10
138.3481354626247
 20
480.737270002559
 30
0.0
 42
0.00075618786
  0
VERTEX
  5
D63A
  8
AM_0
 10
138.3834353102971
 20
480.1202299938443
 30
0.0
  0
SEQEND
  5
D63B
  8
AM_0
  0
ARC
  5
D63C
  8
AM_0
 10
137.00892498176231
 20
478.78942033316741
 30
0.0
 40
1.3300049999999981
 50
89.999985855485264
 51
269.99998285548429
  0
ARC
  5
D63D
  8
AM_0
 10
138.22352498423351
 20
478.79943003332107
 30
0.0
 40
1.0000138999999999
 50
89.691645855484865
 51
270.30832585548637
  0
POLYLINE
  5
D63E
  8
AM_0
 66
     1
 10
0.0
 20
0.0
 30
0.0
  0
VERTEX
  5
D63F
  8
AM_0
 10
138.55714465328921
 20
477.45885995096091
 30
0.0
 42
0.0007337051
  0
VERTEX
  5
D640
  8
AM_0
 10
138.60128450457071
 20
476.85643994006432
 30
0.0
 42
0.00075211323
  0
VERTEX
  5
D641
  8
AM_0
 10
138.64722435585969
 20
476.25404992872319
 30
0.0
 42
0.0007297491
  0
VERTEX
  5
D642
  8
AM_0
 10
138.69495420719559
 20
475.65184991694008
 30
0.0
 42
0.00073593041
  0
VERTEX
  5
D643
  8
AM_0
 10
138.74443405858341
 20
475.04985990472528
 30
0.0
 42
0.00074742739
  0
VERTEX
  5
D644
  8
AM_0
 10
138.79570391000081
 20
474.44798989206828
 30
0.0
 42
0.00073217363
  0
VERTEX
  5
D645
  8
AM_0
 10
138.84876376143541
 20
473.84618987896948
 30
0.0
 42
0.00073754168
  0
VERTEX
  5
D646
  8
AM_0
 10
138.9035836129342
 20
473.24464986543609
 30
0.0
 42
0.00073075073
  0
VERTEX
  5
D647
  8
AM_0
 10
138.96016346447749
 20
472.6432898514683
 30
0.0
 42
0.00074550816
  0
VERTEX
  5
D648
  8
AM_0
 10
139.01850331609469
 20
472.04222983706592
 30
0.0
 42
0.00074288416
  0
VERTEX
  5
D649
  8
AM_0
 10
139.078653167722
 20
471.44120982221682
 30
0.0
 42
0.00072504001
  0
VERTEX
  5
D64A
  8
AM_0
 10
139.14056301941591
 20
470.84045980693338
 30
0.0
 42
0.00074640667
  0
VERTEX
  5
D64B
  8
AM_0
 10
139.2042328711467
 20
470.23985979121528
 30
0.0
  0
SEQEND
  5
D64C
  8
AM_0
  0
ARC
  5
D64D
  8
AM_0
 10
136.94306745168231
 20
488.79443034942602
 30
0.0
 40
1.2650129999999991
 50
89.735575855488491
 51
270.2644068554892
  0
ARC
  5
D64E
  8
AM_0
 10
138.2235274529167
 20
488.79943003332102
 30
0.0
 40
1.0000138999999999
 50
89.691645855484865
 51
270.30832585548637
  0
LINE
  5
D64F
  8
AM_0
 10
161.178938687255
 20
532.02443090928841
 30
0.0
 11
141.0060886872549
 21
530.52443090928818
 31
0.0
  0
POLYLINE
  5
D650
  8
AM_0
 66
     1
 10
0.0
 20
0.0
 30
0.0
  0
VERTEX
  5
D651
  8
AM_0
 10
138.55714868725499
 20
510.13997399972868
 30
0.0
 42
-0.0007337051
  0
VERTEX
  5
D652
  8
AM_0
 10
138.60128868725499
 20
510.74239399972862
 30
0.0
 42
-0.00075211323
  0
VERTEX
  5
D653
  8
AM_0
 10
138.64722868725499
 20
511.34478399972858
 30
0.0
 42
-0.0007297491
  0
VERTEX
  5
D654
  8
AM_0
 10
138.694958687255
 20
511.94698399972862
 30
0.0
 42
-0.00073593041
  0
VERTEX
  5
D655
  8
AM_0
 10
138.74443868725501
 20
512.54897399972845
 30
0.0
 42
-0.00074742739
  0
VERTEX
  5
D656
  8
AM_0
 10
138.795708687255
 20
513.15084399972852
 30
0.0
 42
-0.00073217363
  0
VERTEX
  5
D657
  8
AM_0
 10
138.84876868725499
 20
513.75264399972843
 30
0.0
 42
-0.00073754168
  0
VERTEX
  5
D658
  8
AM_0
 10
138.90358868725491
 20
514.35418399972843
 30
0.0
 42
-0.00073075073
  0
VERTEX
  5
D659
  8
AM_0
 10
138.96016868725499
 20
514.95554399972843
 30
0.0
 42
-0.00074550816
  0
VERTEX
  5
D65A
  8
AM_0
 10
139.01850868725489
 20
515.55660399972862
 30
0.0
 42
-0.00074288416
  0
VERTEX
  5
D65B
  8
AM_0
 10
139.07865868725489
 20
516.15762399972868
 30
0.0
 42
-0.00072504001
  0
VERTEX
  5
D65C
  8
AM_0
 10
139.14056868725501
 20
516.75837399972852
 30
0.0
 42
-0.00074640667
  0
VERTEX
  5
D65D
  8
AM_0
 10
139.2042386872549
 20
517.35897399972851
 30
0.0
  0
SEQEND
  5
D65E
  8
AM_0
  0
POLYLINE
  5
D65F
  8
AM_0
 66
     1
 10
0.0
 20
0.0
 30
0.0
  0
VERTEX
  5
D660
  8
AM_0
 10
138.082958687255
 20
500.06978399972837
 30
0.0
 42
-0.00076691992
  0
VERTEX
  5
D661
  8
AM_0
 10
138.0977586872549
 20
500.68755399972849
 30
0.0
 42
-0.00073262792
  0
VERTEX
  5
D662
  8
AM_0
 10
138.114398687255
 20
501.30514399972861
 30
0.0
 42
-0.00076529537
  0
VERTEX
  5
D663
  8
AM_0
 10
138.1328886872549
 20
501.92281399972842
 30
0.0
 42
-0.00075141097
  0
VERTEX
  5
D664
  8
AM_0
 10
138.153258687255
 20
502.5404139997284
 30
0.0
 42
-0.00075841687
  0
VERTEX
  5
D665
  8
AM_0
 10
138.17548868725501
 20
503.15784399972858
 30
0.0
 42
-0.00075711788
  0
VERTEX
  5
D666
  8
AM_0
 10
138.19959868725499
 20
503.77535399972862
 30
0.0
 42
-0.00075976003
  0
VERTEX
  5
D667
  8
AM_0
 10
138.22558868725491
 20
504.39274399972828
 30
0.0
 42
-0.00075797311
  0
VERTEX
  5
D668
  8
AM_0
 10
138.253428687255
 20
505.01002399972862
 30
0.0
 42
-0.0007482613
  0
VERTEX
  5
D669
  8
AM_0
 10
138.283158687255
 20
505.62740399972841
 30
0.0
 42
-0.00074893561
  0
VERTEX
  5
D66A
  8
AM_0
 10
138.3147186872549
 20
506.24453399972862
 30
0.0
 42
-0.00076039839
  0
VERTEX
  5
D66B
  8
AM_0
 10
138.34813868725499
 20
506.86156399972839
 30
0.0
 42
-0.00075618786
  0
VERTEX
  5
D66C
  8
AM_0
 10
138.38343868725499
 20
507.47860399972859
 30
0.0
  0
SEQEND
  5
D66D
  8
AM_0
  0
POLYLINE
  5
D66E
  8
AM_0
 66
     1
 10
0.0
 20
0.0
 30
0.0
  0
VERTEX
  5
D66F
  8
AM_0
 10
138.03889868725511
 20
493.79940399972861
 30
0.0
 42
-0.00039106649
  0
VERTEX
  5
D670
  8
AM_0
 10
138.03653868725499
 20
494.11053399972849
 30
0.0
 42
-0.00035488198
  0
VERTEX
  5
D671
  8
AM_0
 10
138.03464868725499
 20
494.42164399972842
 30
0.0
 42
-0.00039706113
  0
VERTEX
  5
D672
  8
AM_0
 10
138.03321868725499
 20
494.73275399972857
 30
0.0
 42
-0.00038765718
  0
VERTEX
  5
D673
  8
AM_0
 10
138.03228868725489
 20
495.0438939997286
 30
0.0
 42
-0.00040613432
  0
VERTEX
  5
D674
  8
AM_0
 10
138.03183868725489
 20
495.35499399972849
 30
0.0
 42
-0.00035573434
  0
VERTEX
  5
D675
  8
AM_0
 10
138.0318786872551
 20
495.66610399972859
 30
0.0
 42
-0.00038545884
  0
VERTEX
  5
D676
  8
AM_0
 10
138.03236868725489
 20
495.97723399972841
 30
0.0
 42
-0.00035501205
  0
VERTEX
  5
D677
  8
AM_0
 10
138.03332868725499
 20
496.2883439997284
 30
0.0
 42
-0.00040120779
  0
VERTEX
  5
D678
  8
AM_0
 10
138.03474868725499
 20
496.59957399972859
 30
0.0
 42
-0.00038317817
  0
VERTEX
  5
D679
  8
AM_0
 10
138.036658687255
 20
496.91070399972858
 30
0.0
 42
-0.00035656084
  0
VERTEX
  5
D67A
  8
AM_0
 10
138.0390386872549
 20
497.22194399972858
 30
0.0
 42
-0.00040143615
  0
VERTEX
  5
D67B
  8
AM_0
 10
138.04188868725501
 20
497.53304399972848
 30
0.0
  0
SEQEND
  5
D67C
  8
AM_0
  0
ARC
  5
D67D
  8
AM_0
 10
138.223528687255
 20
498.7994039997285
 30
0.0
 40
1.0000138999999999
 50
89.691659999999231
 51
270.30834000000073
  0
ARC
  5
D67E
  8
AM_0
 10
136.94306868725499
 20
498.80440399972838
 30
0.0
 40
1.2650129999999991
 50
89.735578999998495
 51
270.2644099999992
  0
ARC
  5
D67F
  8
AM_0
 10
138.223528687255
 20
508.79940399972861
 30
0.0
 40
1.0000138999999999
 50
89.691659999999231
 51
270.30834000000073
  0
ARC
  5
D680
  8
AM_0
 10
137.00892868725501
 20
508.80941399972841
 30
0.0
 40
1.3300049999999981
 50
90.000003000000945
 51
270.0
  0
POLYLINE
  5
D681
  8
AM_0
 66
     1
 10
0.0
 20
0.0
 30
0.0
  0
VERTEX
  5
D682
  8
AM_0
 10
139.539808687255
 20
520.28243399972848
 30
0.0
 42
-0.00068898288
  0
VERTEX
  5
D683
  8
AM_0
 10
139.61068868725491
 20
520.85718399972848
 30
0.0
 42
-0.00070644354
  0
VERTEX
  5
D684
  8
AM_0
 10
139.68318868725501
 20
521.43187399972862
 30
0.0
 42
-0.00069248071
  0
VERTEX
  5
D685
  8
AM_0
 10
139.757278687255
 20
522.00618399972859
 30
0.0
 42
-0.00069585665
  0
VERTEX
  5
D686
  8
AM_0
 10
139.832958687255
 20
522.58032399972842
 30
0.0
 42
-0.00068980191
  0
VERTEX
  5
D687
  8
AM_0
 10
139.9102586872549
 20
523.1543239997286
 30
0.0
 42
-0.00072080104
  0
VERTEX
  5
D688
  8
AM_0
 10
139.98914868725501
 20
523.72811399972852
 30
0.0
 42
-0.00071002307
  0
VERTEX
  5
D689
  8
AM_0
 10
140.069688687255
 20
524.30158399972845
 30
0.0
 42
-0.00072659056
  0
VERTEX
  5
D68A
  8
AM_0
 10
140.15184868725501
 20
524.87468399972863
 30
0.0
 42
-0.00069570481
  0
VERTEX
  5
D68B
  8
AM_0
 10
140.23566868725499
 20
525.44771399972865
 30
0.0
 42
-0.00071266935
  0
VERTEX
  5
D68C
  8
AM_0
 10
140.3210986872551
 20
526.02048399972864
 30
0.0
 42
-0.00071614426
  0
VERTEX
  5
D68D
  8
AM_0
 10
140.40812868725499
 20
526.59282399972835
 30
0.0
 42
-0.00072288975
  0
VERTEX
  5
D68E
  8
AM_0
 10
140.49683868725501
 20
527.16512399972862
 30
0.0
  0
SEQEND
  5
D68F
  8
AM_0
  0
ARC
  5
D690
  8
AM_0
 10
137.138928687255
 20
518.82442399972865
 30
0.0
 40
1.465004
 50
90.000003000000945
 51
270.0
  0
ARC
  5
D691
  8
AM_0
 10
138.223528687255
 20
518.79940399972861
 30
0.0
 40
1.0000138999999999
 50
89.691659999999231
 51
270.30834000000073
  0
ARC
  5
D692
  8
AM_0
 10
138.223528687255
 20
528.79940399972838
 30
0.0
 40
1.0000138999999999
 50
89.691659999999231
 51
270.30834000000073
  0
ARC
  5
D693
  8
AM_0
 10
137.35151868725501
 20
528.84444399972836
 30
0.0
 40
1.6750160000000001
 50
89.746145000001221
 51
270.25387000000092
  0
LINE
  5
D694
  8
ﾁｭｳｼﾝｾﾝ1
 10
192.67893868725491
 20
453.17440997255858
 30
0.0
 11
192.67893868725491
 21
534.4244129725588
 31
0.0
  0
LINE
  5
D695
  8
AM_0
 10
138.9689186872549
 20
555.69442890928849
 30
0.0
 11
172.67893868725491
 21
555.69442890928849
 31
0.0
  0
LINE
  5
D696
  8
AM_0
 10
138.9489586872549
 20
554.77443790928828
 30
0.0
 11
172.67893868725491
 21
554.77443790928828
 31
0.0
  0
LINE
  5
D697
  8
AM_0
 10
138.928938687255
 20
552.93443390928826
 30
0.0
 11
172.67893868725491
 21
552.93443390928826
 31
0.0
  0
ARC
  5
D698
  8
AM_0
 10
138.88358868725501
 20
548.08543490928844
 30
0.0
 40
1.9990078999999989
 50
90.133450000000266
 51
169.362590000003
  0
LINE
  5
D699
  8
AM_0
 10
135.678938687255
 20
544.5844129092884
 30
0.0
 11
136.98893868725489
 21
553.96441790928827
 31
0.0
  0
LINE
  5
D69A
  8
AM_0
 10
135.6789986872549
 20
544.58443590928835
 30
0.0
 11
136.96897868725489
 21
553.08442790928837
 31
0.0
  0
LINE
  5
D69B
  8
AM_0
 10
135.678938687255
 20
543.24443990928853
 30
0.0
 11
136.9589086872549
 21
551.24443190928844
 31
0.0
  0
LINE
  5
D69C
  8
AM_0
 10
135.678938687255
 20
541.89444890928849
 30
0.0
 11
136.918928687255
 21
548.45444590928844
 31
0.0
  0
ARC
  5
D69D
  8
AM_0
 10
138.93491868725491
 20
550.93425890928825
 30
0.0
 40
2.0001840999999998
 50
90.171470000000795
 51
171.07899999999731
  0
ARC
  5
D69E
  8
AM_0
 10
138.94248868725501
 20
552.77710090928849
 30
0.0
 40
1.9973480999999991
 50
89.815319999999133
 51
171.14853000000031
  0
ARC
  5
D69F
  8
AM_0
 10
138.9710586872549
 20
553.69395590928843
 30
0.0
 40
2.0004758999999992
 50
90.060310000000726
 51
172.22953999999919
  0
LINE
  5
D6A0
  8
AM_0
 10
174.67893868725491
 20
553.69443590928825
 30
0.0
 11
174.67893868725491
 21
550.08444290928844
 31
0.0
  0
ARC
  5
D6A1
  8
AM_0
 10
172.67173868725499
 20
550.92725490928842
 30
0.0
 40
2.0071799999999991
 50
0.2046199999977149
 51
89.795379999999028
  0
ARC
  5
D6A2
  8
AM_0
 10
172.67564868725489
 20
552.7711499092884
 30
0.0
 40
2.003279899999999
 50
0.0937899999971381
 51
89.906209999999604
  0
ARC
  5
D6A3
  8
AM_0
 10
172.67094868725491
 20
553.68642590928835
 30
0.0
 40
2.0080360999999991
 50
0.2287899999994382
 51
89.771210000000551
  0
LINE
  5
D6A4
  8
AM_0
 10
240.5124568303591
 20
538.23345896095952
 30
0.0
 11
237.72892868725501
 21
548.60442490928835
 31
0.0
  0
LINE
  5
D6A5
  8
AM_0
 10
243.678938687255
 20
447.79943590928838
 30
0.0
 11
251.67890868725499
 21
447.79943590928838
 31
0.0
  0
LINE
  5
D6A6
  8
AM_0
 10
243.678938687255
 20
461.85942590928829
 30
0.0
 11
251.67890868725499
 21
461.85942590928829
 31
0.0
  0
ARC
  5
D6A7
  8
AM_0
 10
237.01887251554729
 20
468.79940564387971
 30
0.0
 40
1.0000255999999981
 50
269.58945485548588
 51
90.410515855487006
  0
ARC
  5
D6A8
  8
AM_0
 10
237.01893004686411
 20
458.79940564386521
 30
0.0
 40
1.0
 50
269.99998285548429
 51
89.999995855486276
  0
ARC
  5
D6A9
  8
AM_0
 10
240.4988898679853
 20
458.75438878477399
 30
0.0
 40
1.675026000120903
 50
270.0006727121953
 51
89.999295998819832
  0
ARC
  5
D6AB
  8
AM_0
 10
240.7188825081337
 20
468.76937473046462
 30
0.0
 40
1.460011199999999
 50
269.7752358554871
 51
90.224735855487296
  0
ARC
  5
D6AC
  8
AM_0
 10
237.01889488423041
 20
478.79940564387431
 30
0.0
 40
1.000005699999998
 50
269.99998285548429
 51
89.999995855486276
  0
ARC
  5
D6AD
  8
AM_0
 10
237.01889735291371
 20
488.79940564387408
 30
0.0
 40
1.000005699999998
 50
269.99998285548429
 51
89.999995855486276
  0
ARC
  5
D6AE
  8
AM_0
 10
240.84388138052489
 20
478.78439469960648
 30
0.0
 40
1.3350147999999999
 50
269.73042985548369
 51
90.269555855485152
  0
ARC
  5
D6AF
  8
AM_0
 10
240.90583385044241
 20
488.78939468431258
 30
0.0
 40
1.2700266
 50
269.62931585548409
 51
90.370665855485655
  0
LINE
  5
D6B0
  8
AM_0
 10
243.678938687255
 20
525.73942690928845
 30
0.0
 11
251.67890868725499
 21
525.73942690928845
 31
0.0
  0
ARC
  5
D6B1
  8
AM_0
 10
237.01889858725499
 20
498.7994039997285
 30
0.0
 40
1.000005699999998
 50
269.999989999999
 51
90.000003000000945
  0
ARC
  5
D6B2
  8
AM_0
 10
237.01889858725499
 20
508.79940399972861
 30
0.0
 40
1.000005699999998
 50
269.999989999999
 51
90.000003000000945
  0
ARC
  5
D6B3
  8
AM_0
 10
240.90583508725501
 20
498.80941399972858
 30
0.0
 40
1.2700266
 50
269.62931999999989
 51
90.370670000001468
  0
ARC
  5
D6B4
  8
AM_0
 10
240.84388508725499
 20
508.81441399972829
 30
0.0
 40
1.3350147999999999
 50
269.7304299999999
 51
90.269556000001415
  0
ARC
  5
D6B5
  8
AM_0
 10
237.018938687255
 20
528.79940399972838
 30
0.0
 40
1.0
 50
269.999989999999
 51
90.000003000000945
  0
ARC
  5
D6B6
  8
AM_0
 10
237.01887868725501
 20
518.79940399972861
 30
0.0
 40
1.0000255999999981
 50
269.58947000000001
 51
90.410531000001029
  0
ARC
  5
D6B7
  8
AM_0
 10
240.718888687255
 20
518.82943399972851
 30
0.0
 40
1.460011199999999
 50
269.77524999999991
 51
90.224750000000071
  0
ARC
  5
D6B8
  8
AM_0
 10
240.49889851948939
 20
528.84441999972785
 30
0.0
 40
1.675026000120903
 50
270.00068985666542
 51
89.999313143289925
  0
LINE
  5
D6B9
  8
AM_0
 10
243.678938687255
 20
539.79943190928839
 30
0.0
 11
251.67890868725499
 21
539.79943190928839
 31
0.0
  0
LINE
  5
D6BA
  8
AM_0
 10
243.678938687255
 20
549.79943990928848
 30
0.0
 11
251.67890868725499
 21
549.79943990928848
 31
0.0
  0
ARC
  5
D6BB
  8
AM_0
 10
235.79606868725489
 20
548.08229990928817
 30
0.0
 40
2.0021281000000002
 50
15.116699999994969
 51
89.918480000000116
  0
LINE
  5
D6BC
  8
AM_0
 10
238.21891868725501
 20
546.80442890928816
 30
0.0
 11
243.678938687255
 21
546.80442890928816
 31
0.0
  0
LINE
  5
D6BD
  8
ｶｸﾚｾﾝ2
 10
221.17893868725491
 20
525.29940035944264
 30
0.0
 11
147.17893868725491
 21
525.29940035944264
 31
0.0
  0
LINE
  5
D6BE
  8
ｶｸﾚｾﾝ2
 10
224.17893868725491
 20
522.29940035944264
 30
0.0
 11
224.1789386872548
 21
465.29940035944247
 31
0.0
  0
ARC
  5
D6BF
  8
ｶｸﾚｾﾝ2
 10
221.17893868725491
 20
522.29940035944264
 30
0.0
 40
3.0
 50
0.0
 51
90.0
  0
LINE
  5
D6C0
  8
ｶｸﾚｾﾝ2
 10
221.1789386872548
 20
462.29940035944259
 30
0.0
 11
147.1789386872548
 21
462.29940035944259
 31
0.0
  0
ARC
  5
D6C1
  8
ｶｸﾚｾﾝ2
 10
221.17893868725491
 20
465.29940035944247
 30
0.0
 40
3.0
 50
270.0
 51
0.0
  0
LINE
  5
D6C2
  8
ｶｸﾚｾﾝ2
 10
144.1789386872548
 20
465.29940035944247
 30
0.0
 11
144.17893868725491
 21
522.29940035944264
 31
0.0
  0
ARC
  5
D6C3
  8
ｶｸﾚｾﾝ2
 10
147.1789386872548
 20
465.29940035944247
 30
0.0
 40
3.0
 50
180.0
 51
270.0
  0
ARC
  5
D6C4
  8
ｶｸﾚｾﾝ2
 10
147.1789386872548
 20
522.29940035944264
 30
0.0
 40
3.0
 50
90.0
 51
180.0
  0
LINE
  5
D6C6
  8
AM_0
 10
347.18501431884488
 20
448.79940129970748
 30
0.0
 11
377.18501521291449
 21
448.79940129970748
 31
0.0
  0
LINE
  5
D6C7
  8
AM_0
 10
377.18501521291449
 20
451.79940138911439
 30
0.0
 11
377.18501521291449
 21
448.79940129970748
 31
0.0
  0
LINE
  5
D6C8
  8
AM_0
 10
347.18501431884488
 20
451.79940138911439
 30
0.0
 11
347.18501431884488
 21
448.79940129970748
 31
0.0
  0
LINE
  5
D6C9
  8
AM_0
 10
347.18501431884488
 20
448.79940110970728
 30
0.0
 11
377.18501521291449
 21
448.79940110970728
 31
0.0
  0
LINE
  5
D6CA
  8
0
 10
347.18501431884488
 20
448.79940110970728
 30
0.0
 11
350.18501476587983
 21
424.79940110970728
 31
0.0
  0
LINE
  5
D6CB
  8
AM_0
 10
347.18501431884488
 20
448.79940110970728
 30
0.0
 11
347.18501431884488
 21
451.7994011991143
 31
0.0
  0
LINE
  5
D6CC
  8
0
 10
377.18501521291449
 20
448.79940110970728
 30
0.0
 11
374.18501476587983
 21
424.79940110970728
 31
0.0
  0
LINE
  5
D6CD
  8
AM_0
 10
377.18501521291449
 20
448.79940110970728
 30
0.0
 11
377.18501521291449
 21
451.7994011991143
 31
0.0
  0
LINE
  5
D6CE
  8
AM_0
 10
350.18501476587983
 20
424.79940110970728
 30
0.0
 11
374.18501476587983
 21
424.79940110970728
 31
0.0
  0
LINE
  5
D6CF
  8
0
 10
371.68501476587983
 20
396.79940110970739
 30
0.0
 11
352.68501476587988
 21
396.79940110970739
 31
0.0
  0
LINE
  5
D6D0
  8
0
 10
371.68501476587983
 20
396.79940110970739
 30
0.0
 11
371.68501476884182
 21
424.79940110970728
 31
0.0
  0
LINE
  5
D6D2
  8
0
 10
352.68501476587988
 20
424.79940110970728
 30
0.0
 11
352.68501476587988
 21
396.79940110970739
 31
0.0
  0
LINE
  5
D6D3
  8
0
 10
359.1850147658796
 20
418.79940110970739
 30
0.0
 11
365.18501476587949
 21
418.79940110970739
 31
0.0
  0
LINE
  5
D6D4
  8
AM_0
 10
359.1850147658796
 20
396.79940110970739
 30
0.0
 11
359.1850147658796
 21
418.7994011097075
 31
0.0
  0
LINE
  5
D6D6
  8
AM_0
 10
365.1850147658796
 20
396.79940110970739
 30
0.0
 11
365.18501476587971
 21
418.79940110970739
 31
0.0
  0
ARC
  5
D6D7
  8
AM_0
 10
362.1850147658796
 20
418.79940110970739
 30
0.0
 40
2.9999999999999432
 50
0.0000000000010856
 51
179.99999999999781
  0
LINE
  5
D6D8
  8
AM_0
 10
243.678938687255
 20
534.52206790928835
 30
0.0
 11
242.67893868725491
 21
535.09942790928835
 31
0.0
  0
LINE
  5
D6D9
  8
AM_0
 10
240.07895868725501
 20
533.49941790928858
 30
0.0
 11
240.07895868725501
 21
537.09942790928835
 31
0.0
  0
LINE
  5
D6DA
  8
AM_0
 10
242.67893868725491
 20
531.49941790928835
 30
0.0
 11
242.67893868725491
 21
539.09942790928835
 31
0.0
  0
LINE
  5
D6DB
  8
AM_0
 10
242.67893868725491
 20
456.09945790928828
 30
0.0
 11
242.67893868725491
 21
448.49944790928828
 31
0.0
  0
ARC
  5
D6DC
  8
AM_0
 10
241.77893868725511
 20
454.09945790928839
 30
0.0
 40
1.699996899999999
 50
90.000003000000945
 51
179.99998000000451
  0
LINE
  5
D6DD
  8
AM_0
 10
243.678938687255
 20
452.0768079092885
 30
0.0
 11
242.67893868725491
 21
451.49944790928839
 31
0.0
  0
LINE
  5
D6DE
  8
AM_0
 10
242.67893868725491
 20
448.79943790928837
 30
0.0
 11
241.77893868725511
 21
448.79943790928837
 31
0.0
  0
LINE
  5
D6DF
  8
AM_0
 10
242.67893868725491
 20
448.49944790928828
 30
0.0
 11
243.678938687255
 21
448.49944790928828
 31
0.0
  0
LINE
  5
D6E0
  8
AM_0
 10
243.678938687255
 20
453.0768079092885
 30
0.0
 11
242.67893868725491
 21
452.49944790928828
 31
0.0
  0
LINE
  5
D6E1
  8
AM_0
 10
240.07895868725501
 20
454.09945790928839
 30
0.0
 11
240.07895868725501
 21
450.49944790928811
 31
0.0
  0
ARC
  5
D6E2
  8
AM_0
 10
241.77893868725511
 20
450.49944790928811
 30
0.0
 40
1.7000007999999991
 50
180.00001000000091
 51
269.99998000000119
  0
LINE
  5
D6E3
  8
AM_0
 10
242.67893868725491
 20
456.09945790928828
 30
0.0
 11
243.678938687255
 21
456.09945790928828
 31
0.0
  0
LINE
  5
D6E4
  8
AM_0
 10
242.67893868725491
 20
455.79943790928837
 30
0.0
 11
241.77893868725511
 21
455.79943790928837
 31
0.0
  0
LINE
  5
D6E5
  8
AM_0
 10
242.67893868725491
 20
531.49941790928835
 30
0.0
 11
243.678938687255
 21
531.49941790928835
 31
0.0
  0
LINE
  5
D6E6
  8
AM_0
 10
242.67893868725491
 20
531.79943790928826
 30
0.0
 11
241.77893868725491
 21
531.79943790928826
 31
0.0
  0
ARC
  5
D6E7
  8
AM_0
 10
241.77893868725491
 20
533.49941790928858
 30
0.0
 40
1.699996899999999
 50
180.00001999999549
 51
269.9999969999991
  0
LINE
  5
D6E8
  8
AM_0
 10
242.67893868725491
 20
538.79943790928849
 30
0.0
 11
241.77893868725491
 21
538.79943790928849
 31
0.0
  0
LINE
  5
D6E9
  8
AM_0
 10
242.67893868725491
 20
539.09942790928835
 30
0.0
 11
243.678938687255
 21
539.09942790928835
 31
0.0
  0
LINE
  5
D6EA
  8
AM_0
 10
243.678938687255
 20
535.52206790928847
 30
0.0
 11
242.67893868725491
 21
536.09942790928835
 31
0.0
  0
ARC
  5
D6EB
  8
AM_0
 10
241.77893868725491
 20
537.09942790928835
 30
0.0
 40
1.7000007999999991
 50
90.000020000002024
 51
179.999989999999
  0
CIRCLE
  5
D713
  8
AM_0
 10
362.1850147658796
 20
265.58933110576049
 30
0.0
 40
2.5
  0
LINE
  5
DB8E
  8
AM_0
 10
415.18501628579799
 20
305.58933229785339
 30
0.0
 11
415.18501628579799
 21
225.58932991366771
 31
0.0
  0
LINE
  5
DB8F
  8
AM_0
 10
415.18471167611079
 20
518.76448323314276
 30
0.0
 11
414.08504255286022
 21
455.76448135559508
 31
0.0
  0
LINE
  5
DB90
  8
AM_0
 10
415.18532067412758
 20
518.79940338587005
 30
0.0
 11
414.95779555752318
 21
531.83430858617476
 31
0.0
  0
TEXT
  5
DC2E
  8
AM_0
 10
529.25252746543526
 20
508.21516571651358
 30
0.0
 40
10.0
  1
VC01-007ML~VC01-060ML
1001
ACAD
1000
MTEXTBEGIN
1070
    73
1070
     1
1070
    44
1040
1.0
1070
    74
1070
     0
1000
MTEXTEND
  0
VIEWPORT
  5
89
 67
     1
  8
0
 10
210.0
 20
148.5
 30
0.0
 40
420.0
 41
297.0
 68
     1
 69
     1
1001
ACAD
1000
MVIEW
1002
{
1070
    16
1010
0.0
1020
0.0
1030
0.0
1010
0.0
1020
0.0
1030
1.0
1040
0.0
1040
297.0
1040
221.70154043645701
1040
148.5
1040
50.0
1040
0.0
1040
0.0
1070
     0
1070
   100
1070
     1
1070
     1
1070
     0
1070
     0
1070
     0
1070
     0
1040
0.0
1040
0.0
1040
0.0
1040
10.0
1040
10.0
1040
10.0
1040
10.0
1070
     0
1002
{
1002
}
1002
}
1001
GENIUS_GENOREF_13
1005
1B94
1001
GENIUS_GENSCREG_15
1000
PF
1040
1.0
1000
DF
1040
1.0
1000
MIN
1011
0.0
1021
0.0
1031
0.0
1021
0.0
1031
0.0
1000
MAX
1011
420.0
1021
0.0
1031
0.0
1021
297.0
1031
0.0
1000
FLAGS
1070
     4
  0
ENDSEC
  0
EOF
