  0
SECTION
  2
HEADER
  9
$ACADVER
  1
AC1009
  9
$INSBASE
 10
0.0
 20
0.0
 30
0.0
  9
$EXTMIN
 10
82.477045235080809
 20
157.189563691556
 30
-0.0015258207003583
  9
$EXTMAX
 10
772.8462314465387
 20
596.76125506292442
 30
0.0000000349246037
  9
$LIMMIN
 10
0.0
 20
0.0
  9
$LIMMAX
 10
853.5
 20
555.00000000000011
  9
$ORTHOMODE
 70
     0
  9
$REGENMODE
 70
     1
  9
$FILLMODE
 70
     1
  9
$QTEXTMODE
 70
     0
  9
$MIRRTEXT
 70
     1
  9
$DRAGMODE
 70
     2
  9
$LTSCALE
 40
3.0
  9
$OSMODE
 70
   551
  9
$ATTMODE
 70
     1
  9
$TEXTSIZE
 40
2.5
  9
$TRACEWID
 40
1.0
  9
$TEXTSTYLE
  7
STANDARD
  9
$CLAYER
  8
AM_0
  9
$CELTYPE
  6
BYLAYER
  9
$CECOLOR
 62
   256
  9
$DIMSCALE
 40
3.0
  9
$DIMASZ
 40
2.5
  9
$DIMEXO
 40
1.0
  9
$DIMDLI
 40
7.0
  9
$DIMRND
 40
0.0
  9
$DIMDLE
 40
0.0
  9
$DIMEXE
 40
1.0
  9
$DIMTP
 40
0.1
  9
$DIMTM
 40
0.1000000001
  9
$DIMTXT
 40
2.5
  9
$DIMCEN
 40
0.0
  9
$DIMTSZ
 40
0.0
  9
$DIMTOL
 70
     0
  9
$DIMLIM
 70
     0
  9
$DIMTIH
 70
     0
  9
$DIMTOH
 70
     0
  9
$DIMSE1
 70
     0
  9
$DIMSE2
 70
     0
  9
$DIMTAD
 70
     3
  9
$DIMZIN
 70
     8
  9
$DIMBLK
  1

  9
$DIMASO
 70
     1
  9
$DIMSHO
 70
     1
  9
$DIMPOST
  1

  9
$DIMAPOST
  1
"
  9
$DIMALT
 70
     0
  9
$DIMALTD
 70
     2
  9
$DIMALTF
 40
0.0393701
  9
$DIMLFAC
 40
1.0
  9
$DIMTOFL
 70
     1
  9
$DIMTVP
 40
0.0
  9
$DIMTIX
 70
     0
  9
$DIMSOXD
 70
     0
  9
$DIMSAH
 70
     0
  9
$DIMBLK1
  1

  9
$DIMBLK2
  1

  9
$DIMSTYLE
  2
AM_JIS
  9
$DIMCLRD
 70
   256
  9
$DIMCLRE
 70
   256
  9
$DIMCLRT
 70
     4
  9
$DIMTFAC
 40
0.71
  9
$DIMGAP
 40
1.0
  9
$LUNITS
 70
     2
  9
$LUPREC
 70
     2
  9
$SKETCHINC
 40
1.0
  9
$FILLETRAD
 40
5.0
  9
$AUNITS
 70
     0
  9
$AUPREC
 70
     3
  9
$MENU
  1
.
  9
$ELEVATION
 40
0.0
  9
$PELEVATION
 40
0.0
  9
$THICKNESS
 40
0.0
  9
$LIMCHECK
 70
     0
  9
$BLIPMODE
 70
     0
  9
$CHAMFERA
 40
7.5
  9
$CHAMFERB
 40
7.5
  9
$SKPOLY
 70
     0
  9
$TDCREATE
 40
2452753.643349607
  9
$TDUPDATE
 40
2458543.418863541
  9
$TDINDWG
 40
0.4337938542
  9
$TDUSRTIMER
 40
0.433793669
  9
$USRTIMER
 70
     1
  9
$ANGBASE
 50
0.0
  9
$ANGDIR
 70
     0
  9
$PDMODE
 70
     0
  9
$PDSIZE
 40
0.0
  9
$PLINEWID
 40
0.0
  9
$COORDS
 70
     1
  9
$SPLFRAME
 70
     0
  9
$SPLINETYPE
 70
     6
  9
$SPLINESEGS
 70
     8
  9
$ATTDIA
 70
     1
  9
$ATTREQ
 70
     1
  9
$HANDLING
 70
     1
  9
$HANDSEED
  5
19113
  9
$SURFTAB1
 70
     6
  9
$SURFTAB2
 70
     6
  9
$SURFTYPE
 70
     6
  9
$SURFU
 70
     6
  9
$SURFV
 70
     6
  9
$UCSNAME
  2

  9
$UCSORG
 10
0.0
 20
0.0
 30
0.0
  9
$UCSXDIR
 10
1.0
 20
0.0
 30
0.0
  9
$UCSYDIR
 10
0.0
 20
1.0
 30
0.0
  9
$PUCSNAME
  2

  9
$PUCSORG
 10
0.0
 20
0.0
 30
0.0
  9
$PUCSXDIR
 10
1.0
 20
0.0
 30
0.0
  9
$PUCSYDIR
 10
0.0
 20
1.0
 30
0.0
  9
$USERI1
 70
     0
  9
$USERI2
 70
     0
  9
$USERI3
 70
     0
  9
$USERI4
 70
     0
  9
$USERI5
 70
     0
  9
$USERR1
 40
0.0
  9
$USERR2
 40
0.0
  9
$USERR3
 40
0.0
  9
$USERR4
 40
0.0
  9
$USERR5
 40
0.0
  9
$WORLDVIEW
 70
     1
  9
$SHADEDGE
 70
     3
  9
$SHADEDIF
 70
    70
  9
$TILEMODE
 70
     1
  9
$MAXACTVP
 70
    48
  9
$PLIMCHECK
 70
     0
  9
$PEXTMIN
 10
1.0000000000000000E+020
 20
1.0000000000000000E+020
 30
1.0000000000000000E+020
  9
$PEXTMAX
 10
-1.0000000000000000E+020
 20
-1.0000000000000000E+020
 30
-1.0000000000000000E+020
  9
$PLIMMIN
 10
0.0
 20
0.0
  9
$PLIMMAX
 10
420.0
 20
297.0
  9
$UNITMODE
 70
     0
  9
$VISRETAIN
 70
     1
  9
$PLINEGEN
 70
     0
  9
$PSLTSCALE
 70
     1
  0
ENDSEC
  0
SECTION
  2
TABLES
  0
TABLE
  2
VPORT
 70
     1
  0
VPORT
  2
*ACTIVE
 70
     0
 10
0.0
 20
0.0
 11
1.0
 21
1.0
 12
427.6616383408097
 22
376.97540937724023
 13
0.0
 23
0.0
 14
7.5
 24
7.5
 15
30.0
 25
30.0
 16
0.0
 26
0.0
 36
1.0
 17
0.0
 27
0.0
 37
0.0
 40
442.58934600320839
 41
1.7571592210767459
 42
50.0
 43
0.0
 44
0.0
 50
0.0
 51
0.0
 71
    16
 72
   100
 73
     1
 74
     1
 75
     0
 76
     0
 77
     0
 78
     0
  0
ENDTAB
  0
TABLE
  2
LTYPE
 70
    21
  0
LTYPE
  2
CONTINUOUS
 70
     0
  3
Solid line
 72
    65
 73
     0
 40
0.0
  0
LTYPE
  2
PHANTOM2
 70
     0
  3
Phantom (.5x) ___ _ _ ___ _ _ ___ _ _ ___ _ _
 72
    65
 73
     6
 40
31.75
 49
15.875
 49
-3.174999999999998
 49
3.174999999999998
 49
-3.174999999999998
 49
3.174999999999998
 49
-3.174999999999998
  0
LTYPE
  2
CENTER
 70
     0
  3
Center ____ _ ____ _ ____ _ ____ _ ____ _ ____
 72
    65
 73
     4
 40
50.799999999999997
 49
31.75
 49
-6.3499999999999979
 49
6.3499999999999979
 49
-6.3499999999999979
  0
LTYPE
  2
ACANSTGBM
 70
     0
  3
__ . . __ . .
 72
    65
 73
     6
 40
9.0
 49
4.0
 49
-1.0
 49
1.0
 49
-1.0
 49
1.0
 49
-1.0
  0
LTYPE
  2
ACANSTGLM
 70
     0
  3
_ _ _ _ _
 72
    65
 73
     2
 40
3.0
 49
2.0
 49
-1.0
  0
LTYPE
  2
GEN3B
 70
     0
  3
 - - - - -
 72
    65
 73
     2
 40
1.0
 49
0.5
 49
-0.5
  0
LTYPE
  2
GEN7A
 70
     0
  3
__ . __ . __
 72
    65
 73
     4
 40
7.375
 49
4.75
 49
-0.875
 49
0.875
 49
-0.875
  0
LTYPE
  2
AM_ISO02W050
 70
     0
  3
__ __ __ __ __ __ __ __ __ __ __ __ __ __ __
 72
    65
 73
     2
 40
7.5
 49
6.0
 49
-1.5
  0
LTYPE
  2
AM_ISO08W050
 70
     0
  3
____ . ____ . ____ . ____ . ____ . ____ . ____
 72
    65
 73
     4
 40
18.0
 49
12.0
 49
-1.5
 49
3.0
 49
-1.5
  0
LTYPE
  2
AM_ISO09W050
 70
     0
  3
_____ . . _____ . . _____ . . ____ .. ____
 72
    65
 73
     6
 40
22.5
 49
12.0
 49
-1.5
 49
3.0
 49
-1.5
 49
3.0
 49
-1.5
  0
LTYPE
  2
AMCONSTR
 70
     0
  3
_______________________
 72
    65
 73
     2
 40
9999.0
 49
9999.0
 49
0.0
  0
LTYPE
  2
AM_ISO02W050X2
 70
     0
  3
 _ _ _ _ _ _ _ _ _ _ _ _
 72
    65
 73
     2
 40
3.75
 49
3.0
 49
-0.75
  0
LTYPE
  2
AM_ISO08W050X2
 70
     0
  3
__ . __ . __ . __ . __ . __
 72
    65
 73
     4
 40
9.0
 49
6.0
 49
-0.75
 49
1.5
 49
-0.75
  0
LTYPE
  2
AMZIGZAG
 70
     0
  3
/\/-/\/-/\/-/\/-/\/-/\/
 72
    65
 73
     2
 40
11.0001
 49
0.0001
 49
-11.0
  0
LTYPE
  2
ACJISTGB
 70
     0
  3
__ . . __ . .
 72
    65
 73
     6
 40
9.0
 49
4.0
 49
-1.0
 49
1.0
 49
-1.0
 49
1.0
 49
-1.0
  0
LTYPE
  2
ACJISTGL
 70
     0
  3
_ _ _ _ _
 72
    65
 73
     2
 40
3.0
 49
2.0
 49
-1.0
  0
LTYPE
  2
ACISOWELD
 70
     0
  3
_ _ _ _ _
 72
    65
 73
     2
 40
2.0
 49
2.0
 49
-1.0
  0
LTYPE
  2
ACISOTGB
 70
     0
  3
__ . . __ . .
 72
    65
 73
     6
 40
9.0
 49
4.0
 49
-1.0
 49
1.0
 49
-1.0
 49
1.0
 49
-1.0
  0
LTYPE
  2
ACISOTGL
 70
     0
  3
_ _ _ _ _
 72
    65
 73
     2
 40
3.0
 49
2.0
 49
-1.0
  0
LTYPE
  2
HIDDEN
 70
     0
  3
Hidden __ __ __ __ __ __ __ __ __ __ __ __ __ _
 72
    65
 73
     2
 40
9.5249999999999968
 49
6.3499999999999979
 49
-3.174999999999998
  0
ENDTAB
  0
TABLE
  2
LAYER
 70
     8
  0
LAYER
  2
0
 70
     0
 62
     7
  6
CONTINUOUS
  0
LAYER
  2
ｽﾝﾎﾟｳｾﾝ
 70
     0
 62
     2
  6
CONTINUOUS
  0
LAYER
  2
DEFPOINTS
 70
     0
 62
     7
  6
CONTINUOUS
  0
LAYER
  2
ｶｸﾚｾﾝ2
 70
     0
 62
     3
  6
GEN3B
  0
LAYER
  2
ﾁｭｳｼﾝｾﾝ1
 70
     0
 62
     1
  6
GEN7A
  0
LAYER
  2
AM_0
 70
     0
 62
     7
  6
CONTINUOUS
  0
LAYER
  2
AM_0N
 70
     0
 62
     7
  6
CONTINUOUS
  0
LAYER
  2
AM_5
 70
     0
 62
     2
  6
CONTINUOUS
  0
ENDTAB
  0
TABLE
  2
STYLE
 70
     8
  0
STYLE
  2
STANDARD
 70
     0
 40
0.0
 41
0.8299999999999999
 50
0.0
 71
     0
 42
2.5
  3
txt.shx
  4
bigfont.shx
  0
STYLE
  2
ACANSTS
 70
     0
 40
1.0
 41
1.0
 50
0.0
 71
     0
 42
2.5
  3
romans.shx
  4
bigfont.shx
  0
STYLE
  2
ACANSGDT
 70
     0
 40
0.0
 41
1.0
 50
0.0
 71
     0
 42
2.5
  3
amgdtans.shx
  4

  0
STYLE
  2

 70
     1
 40
0.0
 41
1.0
 50
0.0
 71
     0
 42
2.5
  3
ltypeshp.shx
  4

  0
STYLE
  2
ACJISTS
 70
     0
 40
1.0
 41
1.0
 50
0.0
 71
     0
 42
2.5
  3
isocp.shx
  4
bigfont.shx
  0
STYLE
  2
ACJISGDT
 70
     0
 40
0.0
 41
1.0
 50
0.0
 71
     0
 42
2.5
  3
amgdt.shx
  4

  0
STYLE
  2
ACISOTS
 70
     0
 40
3.0
 41
1.0
 50
0.0
 71
     0
 42
2.5
  3
isocp.shx
  4
extfont.shx
  0
STYLE
  2
ACISOGDT
 70
     0
 40
0.0
 41
1.0
 50
0.0
 71
     0
 42
2.5
  3
amgdt.shx
  4

  0
ENDTAB
  0
TABLE
  2
VIEW
 70
    12
  0
VIEW
  2
GEN1
 70
     0
 40
95.824742268041234
 10
71.5
 20
137.08762886597941
 41
143.0
 11
0.0
 21
0.0
 31
1.0
 12
0.0
 22
0.0
 32
0.0
 42
50.0
 43
0.0
 44
0.0
 50
0.0
 71
     0
  0
VIEW
  2
GEN2
 70
     0
 40
95.824742268041234
 10
214.5
 20
137.08762886597941
 41
143.0
 11
0.0
 21
0.0
 31
1.0
 12
0.0
 22
0.0
 32
0.0
 42
50.0
 43
0.0
 44
0.0
 50
0.0
 71
     0
  0
VIEW
  2
GEN3
 70
     0
 40
95.824742268041234
 10
71.5
 20
47.912371134020603
 41
143.0
 11
0.0
 21
0.0
 31
1.0
 12
0.0
 22
0.0
 32
0.0
 42
50.0
 43
0.0
 44
0.0
 50
0.0
 71
     0
  0
VIEW
  2
GEN4
 70
     0
 40
95.824742268041234
 10
214.5
 20
47.912371134020603
 41
143.0
 11
0.0
 21
0.0
 31
1.0
 12
0.0
 22
0.0
 32
0.0
 42
50.0
 43
0.0
 44
0.0
 50
0.0
 71
     0
  0
VIEW
  2
GEN5
 70
     0
 40
95.824742268041234
 10
143.0
 20
92.500000000000057
 41
143.0
 11
0.0
 21
0.0
 31
1.0
 12
0.0
 22
0.0
 32
0.0
 42
50.0
 43
0.0
 44
0.0
 50
0.0
 71
     0
  0
VIEW
  2
GEN6
 70
     0
 40
191.64756804123709
 10
143.0
 20
92.5
 41
285.99714
 11
0.0
 21
0.0
 31
1.0
 12
0.0
 22
0.0
 32
0.0
 42
50.0
 43
0.0
 44
0.0
 50
0.0
 71
     0
  0
VIEW
  2
AM_VIEW1
 70
     0
 40
277.50000000000011
 10
249.64779005524869
 20
416.25000000000011
 41
499.29558011049721
 11
0.0
 21
0.0
 31
1.0
 12
0.0
 22
0.0
 32
0.0
 42
50.0
 43
0.0
 44
0.0
 50
0.0
 71
    16
  0
VIEW
  2
AM_VIEW2
 70
     0
 40
277.50000000000011
 10
603.85220994475117
 20
416.25000000000011
 41
499.29558011049721
 11
0.0
 21
0.0
 31
1.0
 12
0.0
 22
0.0
 32
0.0
 42
50.0
 43
0.0
 44
0.0
 50
0.0
 71
    16
  0
VIEW
  2
AM_VIEW3
 70
     0
 40
277.50000000000011
 10
249.64779005524869
 20
138.75
 41
499.29558011049721
 11
0.0
 21
0.0
 31
1.0
 12
0.0
 22
0.0
 32
0.0
 42
50.0
 43
0.0
 44
0.0
 50
0.0
 71
    16
  0
VIEW
  2
AM_VIEW4
 70
     0
 40
277.50000000000011
 10
603.85220994475117
 20
138.75
 41
499.29558011049721
 11
0.0
 21
0.0
 31
1.0
 12
0.0
 22
0.0
 32
0.0
 42
50.0
 43
0.0
 44
0.0
 50
0.0
 71
    16
  0
VIEW
  2
AM_VIEW5
 70
     0
 40
277.50000000000011
 10
426.75
 20
277.50000000000011
 41
499.2955801104971
 11
0.0
 21
0.0
 31
1.0
 12
0.0
 22
0.0
 32
0.0
 42
50.0
 43
0.0
 44
0.0
 50
0.0
 71
    16
  0
VIEW
  2
AM_VIEW6
 70
     0
 40
554.99445000000014
 10
426.75
 20
277.5
 41
998.5811743093924
 11
0.0
 21
0.0
 31
1.0
 12
0.0
 22
0.0
 32
0.0
 42
50.0
 43
0.0
 44
0.0
 50
0.0
 71
    16
  0
ENDTAB
  0
TABLE
  2
UCS
 70
     0
  0
ENDTAB
  0
TABLE
  2
APPID
 70
    97
  0
APPID
  2
ACAD
 70
     0
  0
APPID
  2
MCAD_NO_VIS
 70
     0
  0
APPID
  2
ACAD_TEMP_GRAPHIC
 70
     0
  0
APPID
  2
AD_DRAW
 70
     0
  0
APPID
  2
DESIGNERASSEMBLIES
 70
     0
  0
APPID
  2
ASURF_PCURVE_APPNAME
 70
     0
  0
APPID
  2
GENIUS_GE3SECT_13
 70
     0
  0
APPID
  2
GENIUS_GENCFG_13
 70
     0
  0
APPID
  2
GENIUS_GE3CFG0_13
 70
     0
  0
APPID
  2
GENIUS_GENCFG0_13
 70
     0
  0
APPID
  2
GENIUS_GENCFG1_13
 70
     0
  0
APPID
  2
GENIUS_GENCFG2_13
 70
     0
  0
APPID
  2
GENIUS_GENCFG3_13
 70
     0
  0
APPID
  2
GENIUS_GENCFG4_13
 70
     0
  0
APPID
  2
GENIUS_GEVCFG0_13
 70
     0
  0
APPID
  2
GENIUS_GENOENT_13
 70
     0
  0
APPID
  2
GENIUS_GENREC_14
 70
     0
  0
APPID
  2
GENIUS_GENODEF_13
 70
     0
  0
APPID
  2
GENIUS_GENOBJ-N-REC_13
 70
     0
  0
APPID
  2
GENIUS_GENHINW_13
 70
     0
  0
APPID
  2
GENIUS_FIRSTVISTXT_14
 70
     0
  0
APPID
  2
GENIUS_GENOBJ-N-LEADER_13
 70
     0
  0
APPID
  2
GENIUS_GENOREF_13
 70
     0
  0
APPID
  2
GENIUS_GENOLIS_13
 70
     0
  0
APPID
  2
GEV_VCCNULL_SWITCH_OFF
 70
     0
  0
APPID
  2
GENIUS_GENDTOL_13
 70
     0
  0
APPID
  2
GENIUS_GEFCFG0_13
 70
     0
  0
APPID
  2
GENIUS_GENOBJ-N-TIT_13
 70
     0
  0
APPID
  2
GENIUS_GENTITLE_13
 70
     0
  0
APPID
  2
GENIUS_GENZVEED_13
 70
     0
  0
APPID
  2
GENIUS_GENOBJ-N-SDF_13
 70
     0
  0
APPID
  2
GENIUS_GENSCREG_13
 70
     0
  0
APPID
  2
GENIUS_DUMCFG0_13
 70
     0
  0
APPID
  2
GEVID936201362
 70
     0
  0
APPID
  2
GEVDC
 70
     0
  0
APPID
  2
GEVCON
 70
     0
  0
APPID
  2
VCC
 70
     0
  0
APPID
  2
GEVPT
 70
     0
  0
APPID
  2
GEVIT
 70
     0
  0
APPID
  2
GENBH
 70
     0
  0
APPID
  2
GEVMK
 70
     0
  0
APPID
  2
GENIUS_GENBH_13
 70
     0
  0
APPID
  2
GENIUS_GENOBJ-NBEHI-BHF_13
 70
     0
  0
APPID
  2
GENIUS_GENOBJ-NBEHI-BHB_13
 70
     0
  0
APPID
  2
GENIUS_GENOBJ-F-DESC_13
 70
     0
  0
APPID
  2
GENIUS_GEFDESC_14
 70
     0
  0
APPID
  2
GENIUS_GENOBJ-F-PART_13
 70
     0
  0
APPID
  2
GENIUS_GEFSTDP_13
 70
     0
  0
APPID
  2
GENIUS_GEFPARTINS_13
 70
     0
  0
APPID
  2
GENIUS_GENTRA_14
 70
     0
  0
APPID
  2
GENIUS_GENINF13_13
 70
     0
  0
APPID
  2
GENIUS_GENOBJ-N-INFOPT_13
 70
     0
  0
APPID
  2
GENIUS_GENOBJ-N-RSSYM_13
 70
     0
  0
APPID
  2
GENIUS_GENSYMENT_13
 70
     0
  0
APPID
  2
GENIUS_GENSCSYM_13
 70
     0
  0
APPID
  2
GENIUS_GEFINFNAM_13
 70
     0
  0
APPID
  2
GENIUS_GENSCREG_15
 70
     0
  0
APPID
  2
GENIUS_GENOBJ-N-CEN_13
 70
     0
  0
APPID
  2
GENIUS_GENOBJ-N-CRS_13
 70
     0
  0
APPID
  2
GENIUS_GENOBJ-N-CRC_13
 70
     0
  0
APPID
  2
GENIUS_GENCRC_14
 70
     0
  0
APPID
  2
GEVID942827039
 70
     0
  0
APPID
  2
GEVID942827040
 70
     0
  0
APPID
  2
GEVID942827041
 70
     0
  0
APPID
  2
GENIUS_GENOBJ-F-SCPASSM_13
 70
     0
  0
APPID
  2
GENIUS_GENDIMSH_14
 70
     0
  0
APPID
  2
GENIUS_GENFIL_13
 70
     0
  0
APPID
  2
GENIUS_GENOBJ-N-CHA_13
 70
     0
  0
APPID
  2
GENIUS_GENOBJ-N-FIL_13
 70
     0
  0
APPID
  2
GEVID942827042
 70
     0
  0
APPID
  2
GEVID946020473
 70
     0
  0
APPID
  2
GEVID946020474
 70
     0
  0
APPID
  2
GEVID946020475
 70
     0
  0
APPID
  2
GENIUS_GENOBJ-N-HTC_13
 70
     0
  0
APPID
  2
GENIUS_GENHATCH_13
 70
     0
  0
APPID
  2
GEVID948854295
 70
     0
  0
APPID
  2
GEVID939402019
 70
     0
  0
APPID
  2
GEVID952919491
 70
     0
  0
APPID
  2
GEVID952919492
 70
     0
  0
APPID
  2
GENIUS_GEFWELD_13
 70
     0
  0
APPID
  2
GENIUS_GENOBJ-F-WELS_13
 70
     0
  0
APPID
  2
GEVID952919493
 70
     0
  0
APPID
  2
GENIUS_GENOBJ-N-RSBK_13
 70
     0
  0
APPID
  2
GENIUS_GENOBJ-N-LIB_13
 70
     0
  0
APPID
  2
GENIUS_GENSCALE_13
 70
     0
  0
APPID
  2
GEVID986376691
 70
     0
  0
APPID
  2
ACATTRIBSERVICES
 70
     0
  0
APPID
  2
DCO15
 70
     0
  0
APPID
  2
GEVID1088155249
 70
     0
  0
APPID
  2
ACADM_DIM_EDIT
 70
     0
  0
APPID
  2
AMDT_DM_ADJ
 70
     0
  0
APPID
  2
ACAD_MLEADERVER
 70
     0
  0
APPID
  2
ACAD_DSTYLE_DIMBREAK
 70
     0
  0
APPID
  2
ACAD_DSTYLE_DIMJAG
 70
     0
  0
APPID
  2
ACAD_NAV_VCDISPLAY
 70
     0
  0
APPID
  2
ACADANNOPO
 70
     0
  0
APPID
  2
ACAD_EXEMPT_FROM_CAD_STANDARDS
 70
     0
  0
ENDTAB
  0
TABLE
  2
DIMSTYLE
 70
    16
  0
DIMSTYLE
  2
STANDARD
 70
     0
  3

  4

  5

  6

  7

 40
1.0
 41
0.18
 42
0.0625
 43
0.38
 44
0.18
 45
0.0
 46
0.0
 47
0.0
 48
0.0
140
0.18
141
0.09
142
0.0
143
25.399999999999999
144
1.0
145
0.0
146
1.0
147
0.09
 71
     0
 72
     0
 73
     1
 74
     1
 75
     0
 76
     0
 77
     0
 78
     0
170
     0
171
     2
172
     0
173
     0
174
     0
175
     0
176
     0
177
     0
178
     0
  0
DIMSTYLE
  2
AM_JIS
 70
     0
  3

  4
"
  5

  6

  7

 40
1.0
 41
2.5
 42
1.0
 43
7.0
 44
1.0
 45
0.0
 46
0.0
 47
0.1
 48
0.1000000001
140
2.5
141
0.0
142
0.0
143
0.0393701
144
1.0
145
0.0
146
0.71
147
1.0
 71
     0
 72
     0
 73
     0
 74
     0
 75
     0
 76
     0
 77
     3
 78
     8
170
     0
171
     2
172
     1
173
     0
174
     0
175
     0
176
   256
177
   256
178
     4
  0
DIMSTYLE
  2
AM_JIS$3
 70
     0
  3

  4
"
  5

  6

  7

 40
1.0
 41
2.5
 42
1.0
 43
7.0
 44
1.0
 45
0.0
 46
0.0
 47
0.1
 48
0.1000000001
140
2.5
141
0.0
142
0.0
143
0.0393701
144
1.0
145
0.0
146
0.71
147
1.0
 71
     0
 72
     0
 73
     0
 74
     1
 75
     0
 76
     0
 77
     3
 78
     8
170
     0
171
     2
172
     0
173
     0
174
     0
175
     0
176
   256
177
   256
178
     4
  0
DIMSTYLE
  2
AM_JIS$4
 70
     0
  3

  4
"
  5

  6

  7

 40
1.0
 41
2.5
 42
1.0
 43
7.0
 44
1.0
 45
0.0
 46
0.0
 47
0.1
 48
0.1000000001
140
2.5
141
0.0
142
0.0
143
0.0393701
144
1.0
145
0.0
146
0.71
147
1.0
 71
     0
 72
     0
 73
     0
 74
     0
 75
     0
 76
     0
 77
     3
 78
     8
170
     0
171
     2
172
     0
173
     0
174
     0
175
     0
176
   256
177
   256
178
     4
  0
DIMSTYLE
  2
AM_JIS$6
 70
     0
  3

  4
"
  5

  6

  7

 40
1.0
 41
2.5
 42
1.0
 43
7.0
 44
1.0
 45
0.0
 46
0.0
 47
0.1
 48
0.1000000001
140
2.5
141
0.0
142
0.0
143
0.0393701
144
1.0
145
0.0
146
0.71
147
1.0
 71
     0
 72
     0
 73
     0
 74
     0
 75
     0
 76
     0
 77
     0
 78
     8
170
     0
171
     2
172
     1
173
     0
174
     0
175
     0
176
   256
177
   256
178
     4
  0
DIMSTYLE
  2
AM_JIS$7
 70
     0
  3

  4
"
  5

  6

  7

 40
1.0
 41
2.5
 42
1.0
 43
7.0
 44
1.0
 45
0.0
 46
0.0
 47
0.1
 48
0.1000000001
140
2.5
141
0.0
142
0.0
143
0.0393701
144
1.0
145
0.0
146
0.71
147
1.0
 71
     0
 72
     0
 73
     0
 74
     0
 75
     0
 76
     0
 77
     3
 78
     8
170
     0
171
     2
172
     1
173
     0
174
     0
175
     0
176
   256
177
   256
178
     4
  0
DIMSTYLE
  2
AM_JIS$SF
 70
     0
  3

  4
"
  5
OPEN30
  6
OPEN30
  7
OPEN30
 40
1.0
 41
2.5
 42
1.0
 43
10.0
 44
1.0
 45
0.0
 46
0.0
 47
0.1
 48
0.1
140
3.5
141
0.0
142
0.0
143
0.0393701
144
1.0
145
0.0
146
0.71
147
1.5
 71
     0
 72
     0
 73
     0
 74
     0
 75
     1
 76
     1
 77
     3
 78
     8
170
     0
171
     2
172
     1
173
     0
174
     0
175
     0
176
   256
177
   256
178
     4
  0
DIMSTYLE
  2
AM_JIS$SH
 70
     0
  3

  4
"
  5

  6
NONE
  7

 40
1.0
 41
2.5
 42
1.0
 43
10.0
 44
1.0
 45
0.0
 46
0.0
 47
0.1
 48
0.1
140
3.5
141
0.0
142
0.0
143
0.0393701
144
1.0
145
0.0
146
0.71
147
1.5
 71
     0
 72
     0
 73
     0
 74
     0
 75
     1
 76
     0
 77
     3
 78
     8
170
     0
171
     2
172
     1
173
     1
174
     0
175
     0
176
   256
177
   256
178
     4
  0
DIMSTYLE
  2
AM_ISO
 70
     0
  3

  4
"
  5

  6

  7

 40
1.0
 41
2.5
 42
1.0
 43
10.0
 44
1.0
 45
0.0
 46
0.0
 47
0.0
 48
0.000000001
140
3.0
141
0.0
142
0.0
143
0.0393701
144
1.0
145
0.0
146
0.71
147
1.299999999999998
 71
     1
 72
     0
 73
     0
 74
     0
 75
     0
 76
     0
 77
     1
 78
     8
170
     0
171
     2
172
     1
173
     0
174
     0
175
     0
176
   256
177
   256
178
     4
  0
DIMSTYLE
  2
AM_ISO$3
 70
     0
  3

  4
"
  5

  6

  7

 40
1.0
 41
2.5
 42
1.0
 43
10.0
 44
1.0
 45
0.0
 46
0.0
 47
0.0
 48
0.000000001
140
2.5
141
0.0
142
0.0
143
0.0393701
144
1.0
145
0.0
146
0.71
147
1.299999999999998
 71
     1
 72
     0
 73
     0
 74
     1
 75
     0
 76
     0
 77
     1
 78
     8
170
     0
171
     2
172
     0
173
     0
174
     0
175
     0
176
   256
177
   256
178
     4
  0
DIMSTYLE
  2
AM_ISO$4
 70
     0
  3

  4
"
  5

  6

  7

 40
1.0
 41
2.5
 42
1.0
 43
10.0
 44
1.0
 45
0.0
 46
0.0
 47
0.0
 48
0.000000001
140
2.5
141
0.0
142
0.0
143
0.0393701
144
1.0
145
0.0
146
0.71
147
1.299999999999998
 71
     1
 72
     0
 73
     0
 74
     1
 75
     0
 76
     0
 77
     1
 78
     8
170
     0
171
     2
172
     0
173
     0
174
     0
175
     0
176
   256
177
   256
178
     4
  0
DIMSTYLE
  2
AM_ISO$6
 70
     0
  3

  4
"
  5

  6

  7

 40
1.0
 41
2.5
 42
1.0
 43
10.0
 44
1.0
 45
0.0
 46
0.0
 47
0.0
 48
0.000000001
140
2.5
141
0.0
142
0.0
143
0.0393701
144
1.0
145
0.0
146
0.71
147
1.299999999999998
 71
     1
 72
     0
 73
     0
 74
     0
 75
     0
 76
     0
 77
     0
 78
     8
170
     0
171
     2
172
     1
173
     0
174
     0
175
     0
176
   256
177
   256
178
     4
  0
DIMSTYLE
  2
AM_ISO$7
 70
     0
  3

  4
"
  5

  6

  7

 40
1.0
 41
2.5
 42
1.0
 43
10.0
 44
1.0
 45
0.0
 46
0.0
 47
0.0
 48
0.000000001
140
2.5
141
0.0
142
0.0
143
0.0393701
144
1.0
145
0.0
146
0.71
147
1.299999999999998
 71
     1
 72
     0
 73
     0
 74
     0
 75
     0
 76
     0
 77
     1
 78
     8
170
     0
171
     2
172
     1
173
     0
174
     0
175
     0
176
   256
177
   256
178
     4
  0
DIMSTYLE
  2
AM_ISO$SF
 70
     0
  3

  4
"
  5

  6

  7

 40
1.0
 41
2.5
 42
1.0
 43
10.0
 44
1.0
 45
0.0
 46
0.0
 47
0.1
 48
0.1
140
3.5
141
0.0
142
0.0
143
0.0393701
144
1.0
145
0.0
146
0.71
147
1.5
 71
     0
 72
     0
 73
     0
 74
     0
 75
     1
 76
     1
 77
     1
 78
     8
170
     0
171
     2
172
     1
173
     0
174
     0
175
     0
176
   256
177
   256
178
     4
  0
DIMSTYLE
  2
AM_ISO$SH
 70
     0
  3

  4
"
  5

  6
GENAXEH
  7

 40
1.0
 41
2.5
 42
1.0
 43
10.0
 44
1.0
 45
0.0
 46
0.0
 47
0.1
 48
0.1
140
3.5
141
0.0
142
0.0
143
0.0393701
144
2.0
145
0.0
146
0.71
147
1.5
 71
     0
 72
     0
 73
     0
 74
     0
 75
     1
 76
     1
 77
     1
 78
     8
170
     0
171
     2
172
     1
173
     1
174
     0
175
     0
176
   256
177
   256
178
     4
  0
DIMSTYLE
  2
AM_JIS$0
 70
     0
  3

  4
"
  5

  6

  7

 40
1.0
 41
2.5
 42
1.0
 43
7.0
 44
1.0
 45
0.0
 46
0.0
 47
0.1
 48
0.1000000001
140
2.5
141
0.0
142
0.0
143
0.0393701
144
1.0
145
0.0
146
0.71
147
1.0
 71
     0
 72
     0
 73
     0
 74
     0
 75
     0
 76
     0
 77
     3
 78
     8
170
     0
171
     2
172
     1
173
     0
174
     0
175
     0
176
   256
177
   256
178
     4
  0
ENDTAB
  0
ENDSEC
  0
SECTION
  2
BLOCKS
  0
BLOCK
  8
0
  2
$MODEL_SPACE
 70
     0
 10
0.0
 20
0.0
 30
0.0
  3
$MODEL_SPACE
  1

  0
ENDBLK
  5
1A
  8
0
  0
BLOCK
 67
     1
  8
0
  2
$PAPER_SPACE
 70
     0
 10
0.0
 20
0.0
 30
0.0
  3
$PAPER_SPACE
  1

  0
ENDBLK
  5
17
 67
     1
  8
0
  0
BLOCK
  8
0
  2
_OPEN30
 70
     0
 10
0.0
 20
0.0
 30
0.0
  3
_OPEN30
  1

  0
LINE
  5
21C5
  8
0
 62
     0
 10
-1.0
 20
0.26794919
 30
0.0
 11
0.0
 21
0.0
 31
0.0
  0
LINE
  5
21C6
  8
0
 62
     0
 10
0.0
 20
0.0
 30
0.0
 11
-1.0
 21
-0.26794919
 31
0.0
  0
LINE
  5
21C7
  8
0
 62
     0
 10
0.0
 20
0.0
 30
0.0
 11
-1.0
 21
0.0
 31
0.0
  0
ENDBLK
  5
21C9
  8
0
  0
BLOCK
  8
0
  2
GENAXEH
 70
     0
 10
0.0
 20
0.0
 30
0.0
  3
GENAXEH
  1

  0
LINE
  5
21D0
  8
0
 10
-1.0
 20
0.0
 30
0.0
 11
1.0
 21
0.0
 31
0.0
  0
ENDBLK
  5
21D2
  8
0
  0
BLOCK
  8
0
  2
_NONE
 70
     0
 10
0.0
 20
0.0
 30
0.0
  3
_NONE
  1

  0
ENDBLK
  5
8193
  8
0
  0
BLOCK
  8
0
  2
NEW_BLOCK
 70
     0
 10
0.0
 20
0.0
 30
0.0
  3
NEW_BLOCK
  1

  0
LINE
  5
17AFE
  8
AM_0
 10
-0.899999999999977
 20
37.800000000000011
 30
0.0
 11
-0.899999999999977
 21
28.800000000000011
 31
0.0
  0
LINE
  5
17AFF
  8
AM_0
 10
-6.2999999999999527
 20
27.900000000000009
 30
0.0
 11
-6.2999999999999527
 21
38.700000000000031
 31
0.0
  0
LINE
  5
17B00
  8
AM_0
 10
-0.899999999999977
 20
28.800000000000011
 30
0.0
 11
-6.2999999999999527
 21
28.800000000000011
 31
0.0
  0
LINE
  5
17B01
  8
AM_0
 10
0.0
 20
27.900000000000009
 30
0.0
 11
-6.2999999999999527
 21
27.900000000000009
 31
0.0
  0
LINE
  5
17B02
  8
AM_0
 10
-6.2999999999999527
 20
37.800000000000011
 30
0.0
 11
-0.899999999999977
 21
37.800000000000011
 31
0.0
  0
LINE
  5
17B03
  8
AM_0
 10
0.0
 20
38.700000000000031
 30
0.0
 11
-6.2999999999999527
 21
38.700000000000031
 31
0.0
  0
LINE
  5
17B04
  8
AM_0
 10
-6.2999999999999527
 20
-27.900000000000009
 30
0.0
 11
-6.2999999999999527
 21
-38.700000000000031
 31
0.0
  0
LINE
  5
17B05
  8
AM_0
 10
-0.899999999999977
 20
-37.800000000000011
 30
0.0
 11
-0.899999999999977
 21
-28.800000000000011
 31
0.0
  0
LINE
  5
17B06
  8
AM_0
 10
0.0
 20
-38.700000000000031
 30
0.0
 11
-6.2999999999999527
 21
-38.700000000000031
 31
0.0
  0
LINE
  5
17B07
  8
AM_0
 10
-6.2999999999999527
 20
-37.800000000000011
 30
0.0
 11
-0.899999999999977
 21
-37.800000000000011
 31
0.0
  0
LINE
  5
17B08
  8
AM_0
 10
0.0
 20
-27.900000000000009
 30
0.0
 11
-6.2999999999999527
 21
-27.900000000000009
 31
0.0
  0
LINE
  5
17B09
  8
AM_0
 10
-0.899999999999977
 20
-28.800000000000011
 30
0.0
 11
-6.2999999999999527
 21
-28.800000000000011
 31
0.0
  0
ENDBLK
  5
17B0B
  8
0
  0
ENDSEC
  0
SECTION
  2
ENTITIES
  0
POINT
  5
1B94
  8
0
 10
0.0
 20
0.0
 30
0.0
1001
GENIUS_GENODEF_13
1002
{
1000
HIER
1070
     1
1002
}
1002
{
1000
MANEDIT
1070
     0
1002
}
1002
{
1000
NOSEL
1070
     0
1002
}
1002
{
1000
BEHIND
1070
     0
1002
}
1002
{
1000
REACTOR
1002
}
1001
GENIUS_GENOBJ-N-SDF_13
1002
{
1000
OWNER
1000
GEN
1002
}
1001
GENIUS_GENOENT_13
1002
{
1000
MYREF
1005
1B94
1002
}
1002
{
1000
GRP
1005
0
1002
}
1001
GENIUS_GENOLIS_13
1002
{
1000
ENT
1005
89
1002
}
  0
LINE
  5
17E9B
  8
AM_0
 10
398.72757012139391
 20
321.46685317814178
 30
0.0
 11
432.75700890337049
 21
321.46685317814178
 31
0.0
  0
LINE
  5
17E9C
  8
AM_0
 10
398.72757012139391
 20
205.46684972107269
 30
0.0
 11
432.75700890337049
 21
205.46684972107269
 31
0.0
  0
LINE
  5
17E9D
  8
ﾁｭｳｼﾝｾﾝ1
 10
82.483636355361526
 20
263.46685144960719
 30
0.0
 11
467.97757199893988
 21
263.46685144960702
 31
0.0
  0
LINE
  5
17E9E
  8
AM_0
 10
301.72753671298909
 20
327.46685335695588
 30
0.0
 11
449.72757164131178
 21
327.46685335695588
 31
0.0
  0
LINE
  5
17E9F
  8
AM_0
 10
301.72753671298909
 20
199.4668495422587
 30
0.0
 11
449.72757164131178
 21
199.4668495422587
 31
0.0
  0
CIRCLE
  5
17EA0
  8
AM_0
 10
398.7275701213938
 20
263.46685144960719
 30
0.0
 40
37.500001117587097
  0
LINE
  5
17EA3
  8
ﾁｭｳｼﾝｾﾝ1
 10
398.7275701213938
 20
333.71685335695571
 30
0.0
 11
398.72757012139368
 21
193.21684954225839
 31
0.0
  0
ARC
  5
17EA5
  8
AM_0
 10
675.88606288136452
 20
263.46685144960162
 30
0.0
 40
397.24800335175252
 50
173.3392856796832
 51
186.6607143203168
  0
LINE
  5
17EA6
  8
AM_0
 10
281.63805952961138
 20
309.19557008770119
 30
0.0
 11
281.6380595296128
 21
217.73813281151331
 31
0.0
  0
LINE
  5
17EA7
  8
AM_0
 10
243.22753635536139
 20
202.96682144960701
 30
0.0
 11
243.22753609911391
 21
326.46682174991457
 31
0.0
  0
LINE
  5
17EA8
  8
AM_0
 10
263.22753635536151
 20
324.9668414496075
 30
0.0
 11
263.22753635536151
 21
201.96686144960719
 31
0.0
  0
LINE
  5
17EA9
  8
AM_0
 10
252.22753635536151
 20
199.46685144960711
 30
0.0
 11
252.22753635536151
 21
327.46684144960699
 31
0.0
  0
LINE
  5
17EAA
  8
AM_0
 10
289.72753635536139
 20
315.46685299932813
 30
0.0
 11
289.72753635536139
 21
211.46684989988631
 31
0.0
  0
LINE
  5
17EAB
  8
AM_0
 10
295.72753653417527
 20
298.49629026138672
 30
0.0
 11
295.72753653417527
 21
228.4374126378278
 31
0.0
  0
ARC
  5
17EAC
  8
AM_0
 10
96.236566355361646
 20
270.45779144960699
 30
0.0
 40
0.9910124499999998
 50
269.47800000000427
 51
0.5219999999956863
  0
LINE
  5
17EAD
  8
AM_0
 10
97.227536355361565
 20
320.88680144960699
 30
0.0
 11
97.227536355361565
 21
206.036801449607
 31
0.0
  0
LINE
  5
17EAE
  8
AM_0
 10
91.227536355361536
 20
311.48641144960698
 30
0.0
 11
91.227536355361536
 21
268.4668214496071
 31
0.0
  0
LINE
  5
17EAF
  8
AM_0
 10
88.733636355361526
 20
248.24496144960699
 30
0.0
 11
88.733636355361526
 21
278.68859144960709
 31
0.0
  0
LINE
  5
17EB0
  8
AM_0
 10
89.727536355361565
 20
283.4668214496071
 30
0.0
 11
89.727536355361565
 21
243.4668214496071
 31
0.0
  0
ARC
  5
17EB2
  8
AM_0
 10
156.7275363553612
 20
177.96685144960699
 30
0.0
 40
7.499999999999992
 50
180.0
 51
270.0
  0
ARC
  5
17EB3
  8
AM_0
 10
157.72753635536111
 20
178.96685144960691
 30
0.0
 40
3.9999999999999978
 50
180.0
 51
0.0
  0
ARC
  5
17EB4
  8
AM_0
 10
157.72753635536111
 20
178.96685144960691
 30
0.0
 40
7.5000000000000018
 50
180.0
 51
0.0
  0
LINE
  5
17EB5
  8
AM_0
 10
222.2275363553612
 20
166.46685144960691
 30
0.0
 11
147.2275363553612
 21
166.46685144960691
 31
0.0
  0
LINE
  5
17EB6
  8
AM_0
 10
144.7275363553612
 20
186.46685144960691
 30
0.0
 11
224.7275363553612
 21
186.46685144960691
 31
0.0
  0
LINE
  5
17EB7
  8
AM_0
 10
224.72753635536139
 20
189.96685144960691
 30
0.0
 11
144.7275363553612
 21
189.96685144960691
 31
0.0
  0
LINE
  5
17EB8
  8
AM_0
 10
143.22753635536151
 20
217.12688144960691
 30
0.0
 11
237.0475463553615
 21
217.12688144960691
 31
0.0
  0
LINE
  5
17EB9
  8
AM_0
 10
205.73849064218879
 20
237.46682144960701
 30
0.0
 11
113.7775563553612
 21
237.46682144960701
 31
0.0
  0
LINE
  5
17EBA
  8
AM_0
 10
240.15232244188681
 20
239.46682144960701
 30
0.0
 11
113.7775563553612
 21
239.46682144960701
 31
0.0
  0
LINE
  5
17EBB
  8
AM_0
 10
112.68755635536149
 20
236.976801449607
 30
0.0
 11
206.5877581834965
 21
236.976801449607
 31
0.0
  0
LINE
  5
17EBC
  8
AM_0
 10
112.68755635536149
 20
239.90682144960701
 30
0.0
 11
241.24232238952669
 21
239.90682144960701
 31
0.0
  0
LINE
  5
17EBD
  8
AM_0
 10
112.90755635536129
 20
226.7468214496071
 30
0.0
 11
177.22753635536151
 21
226.7468214496071
 31
0.0
  0
LINE
  5
17EBE
  8
AM_0
 10
122.22753635536149
 20
197.54681144960691
 30
0.0
 11
163.22753635536131
 21
197.54681144960679
 31
0.0
  0
LINE
  5
17EBF
  8
AM_0
 10
122.22753635536149
 20
198.22680144960691
 30
0.0
 11
163.22753635536131
 21
198.22680144960691
 31
0.0
  0
LINE
  5
17EC0
  8
AM_0
 10
122.22753635536149
 20
199.57681144960699
 30
0.0
 11
163.22753635536131
 21
199.57681144960699
 31
0.0
  0
LINE
  5
17EC1
  8
AM_0
 10
122.22753635536149
 20
201.60680144960699
 30
0.0
 11
177.22753635536151
 21
201.60680144960699
 31
0.0
  0
LINE
  5
17EC2
  8
AM_0
 10
177.22753635536151
 20
227.46682144960701
 30
0.0
 11
113.7775563553612
 21
227.46682144960701
 31
0.0
  0
LINE
  5
17EC3
  8
AM_0
 10
103.4875463553615
 20
267.20681144960702
 30
0.0
 11
175.95756302507721
 21
267.20681144960702
 31
0.0
  0
LINE
  5
17EC4
  8
AM_0
 10
174.66756854980801
 20
267.46682144960698
 30
0.0
 11
104.7775563553615
 21
267.46682144960698
 31
0.0
  0
LINE
  5
17EC5
  8
AM_0
 10
174.66756854980801
 20
269.46682144960698
 30
0.0
 11
104.7775563553615
 21
269.46682144960698
 31
0.0
  0
LINE
  5
17EC6
  8
AM_0
 10
103.4875463553615
 20
269.74682144960713
 30
0.0
 11
175.95756302507721
 21
269.74682144960713
 31
0.0
  0
LINE
  5
17EC7
  8
AM_0
 10
174.66929629897439
 20
247.46682144960701
 30
0.0
 11
104.78756635536151
 21
247.46682144960701
 31
0.0
  0
LINE
  5
17EC8
  8
AM_0
 10
174.67021979874099
 20
249.46682144960701
 30
0.0
 11
104.78756635536151
 21
249.46682144960701
 31
0.0
  0
LINE
  5
17EC9
  8
AM_0
 10
174.66756514437139
 20
257.46682144960698
 30
0.0
 11
104.78756635536151
 21
257.46682144960698
 31
0.0
  0
LINE
  5
17ECA
  8
AM_0
 10
174.66756514436989
 20
259.46682144960698
 30
0.0
 11
104.78756635536151
 21
259.46682144960698
 31
0.0
  0
LINE
  5
17ECB
  8
AM_0
 10
112.90755635536129
 20
230.09683144960701
 30
0.0
 11
177.22753635536151
 21
230.09683144960701
 31
0.0
  0
LINE
  5
17ECC
  8
AM_0
 10
103.5575463553614
 20
247.12682144960701
 30
0.0
 11
175.7627496228983
 21
247.12682144960701
 31
0.0
  0
LINE
  5
17ECD
  8
AM_0
 10
103.5575463553614
 20
249.786801449607
 30
0.0
 11
175.7627496228983
 21
249.786801449607
 31
0.0
  0
LINE
  5
17ECE
  8
AM_0
 10
103.4975563553615
 20
257.19680144960711
 30
0.0
 11
175.7627496228983
 21
257.19680144960711
 31
0.0
  0
LINE
  5
17ECF
  8
AM_0
 10
103.4975563553615
 20
259.72680144960702
 30
0.0
 11
175.7627496228983
 21
259.72680144960702
 31
0.0
  0
LINE
  5
17ED0
  8
AM_0
 10
177.22753635536151
 20
229.46682144960701
 30
0.0
 11
113.7775563553612
 21
229.46682144960701
 31
0.0
  0
LINE
  5
17ED4
  8
AM_0
 10
153.72753635536131
 20
186.46685144960691
 30
0.0
 11
153.72753635536131
 21
178.96685144960691
 31
0.0
  0
LINE
  5
17ED5
  8
AM_0
 10
150.22753635536111
 20
186.46685144960691
 30
0.0
 11
150.22753635536111
 21
178.96685144960691
 31
0.0
  0
LINE
  5
17ED6
  8
AM_0
 10
144.7275363553612
 20
189.96685144960691
 30
0.0
 11
144.7275363553612
 21
170.46685144960699
 31
0.0
  0
LINE
  5
17EDC
  8
AM_0
 10
146.2275363553612
 20
182.96685144960699
 30
0.0
 11
146.2275363553612
 21
167.46685144960699
 31
0.0
  0
ARC
  5
17EDD
  8
AM_0
 10
147.2275363553612
 20
167.46685144960699
 30
0.0
 40
1.0
 50
180.0
 51
270.0
  0
LINE
  5
17EDE
  8
AM_0
 10
144.7275363553612
 20
170.46685144960699
 30
0.0
 11
146.2275363553612
 21
170.46685144960699
 31
0.0
  0
LINE
  5
17EDF
  8
AM_0
 10
144.7275363553612
 20
182.96685144960699
 30
0.0
 11
148.2275363553612
 21
182.96685144960699
 31
0.0
  0
ARC
  5
17EE0
  8
AM_0
 10
148.2275363553612
 20
181.96685144960699
 30
0.0
 40
1.0
 50
0.0
 51
90.0
  0
LINE
  5
17EE1
  8
AM_0
 10
149.2275363553612
 20
181.96685144960699
 30
0.0
 11
149.2275363553612
 21
177.96685144960699
 31
0.0
  0
LINE
  5
17EE2
  8
AM_0
 10
107.22753635536149
 20
215.11681144960701
 30
0.0
 11
107.22753635536149
 21
229.15682144960689
 31
0.0
  0
ARC
  5
17EE3
  8
AM_0
 10
106.39250235471459
 20
221.86904144960721
 30
0.0
 40
5.0078935999999974
 50
5.4746799999993279
 51
80.401279999998735
  0
LINE
  5
17EE4
  8
AM_0
 10
91.227536355361536
 20
215.44720144960709
 30
0.0
 11
91.227536355361536
 21
258.4668214496071
 31
0.0
  0
LINE
  5
17EE5
  8
AM_0
 10
144.22753635536151
 20
217.1168114496071
 30
0.0
 11
107.22753635536149
 21
219.26281328903721
 31
0.0
  0
ARC
  5
17EE6
  8
AM_0
 10
122.22475635536139
 20
201.57403144960711
 30
0.0
 40
1.9972083999999981
 50
179.91986000000111
 51
270.08014299999962
  0
ARC
  5
17EE7
  8
AM_0
 10
122.23003635536161
 20
199.54165144960709
 30
0.0
 40
1.994845199999999
 50
194.36280000000039
 51
269.92834199999561
  0
ARC
  5
17EE8
  8
AM_0
 10
122.2221063553614
 20
200.22137144960709
 30
0.0
 40
1.9945768999999991
 50
179.84400999999721
 51
270.15599200000003
  0
ARC
  5
17EE9
  8
AM_0
 10
122.2239363553615
 20
203.6032014496071
 30
0.0
 40
1.9963852999999989
 50
179.89615999999739
 51
270.103837
  0
LINE
  5
17EEA
  8
AM_0
 10
120.22753635536139
 20
201.57681144960711
 30
0.0
 11
120.22753635536139
 21
208.98681144960699
 31
0.0
  0
ARC
  5
17EEB
  8
AM_0
 10
105.39922635536161
 20
207.19219144960701
 30
0.0
 40
1.995389499999999
 50
192.01537999999999
 51
269.9519330000021
  0
LINE
  5
17EEC
  8
AM_0
 10
103.4175663553615
 20
203.33682144960699
 30
0.0
 11
102.4975563553615
 21
207.2168214496071
 31
0.0
  0
LINE
  5
17EED
  8
AM_0
 10
103.39757635536149
 20
201.67681144960699
 30
0.0
 11
102.5175763553614
 21
205.20681144960699
 31
0.0
  0
ARC
  5
17EEE
  8
AM_0
 10
118.7257663553616
 20
203.6950014496071
 30
0.0
 40
1.5017978999999979
 50
0.0685499999989572
 51
89.931450000001036
  0
ARC
  5
17EEF
  8
AM_0
 10
105.3348663553615
 20
202.16461144960701
 30
0.0
 40
1.9977811999999979
 50
194.13223000000329
 51
270.07691900000231
  0
ARC
  5
17EF0
  8
AM_0
 10
105.3603463553615
 20
203.79229144960701
 30
0.0
 40
1.995482299999999
 50
193.1940799999993
 51
270.20654200000092
  0
LINE
  5
17EF1
  8
AM_0
 10
105.3675463553615
 20
201.79681144960711
 30
0.0
 11
118.72753635536149
 21
201.79681144960711
 31
0.0
  0
LINE
  5
17EF2
  8
AM_0
 10
105.3375463553615
 20
200.16680144960699
 30
0.0
 11
118.8375463553617
 21
200.16680144960699
 31
0.0
  0
ARC
  5
17EF3
  8
AM_0
 10
118.8411863553616
 20
198.659941449607
 30
0.0
 40
1.5068882999999991
 50
14.87692999999916
 51
90.137770000000501
  0
ARC
  5
17EF4
  8
AM_0
 10
118.7237163553614
 20
200.29296144960711
 30
0.0
 40
1.5038474999999989
 50
0.1463999999964948
 51
89.85360000000351
  0
LINE
  5
17EF5
  8
AM_0
 10
97.227536355361565
 20
220.77682144960701
 30
0.0
 11
107.22753635536149
 21
220.77682144960701
 31
0.0
  0
LINE
  5
17EF6
  8
AM_0
 10
97.227536355361565
 20
215.11681144960701
 30
0.0
 11
107.22753635536149
 21
215.11681144960701
 31
0.0
  0
ARC
  5
17EF7
  8
AM_0
 10
105.4493963553614
 20
212.48022144960709
 30
0.0
 40
1.9934333999999989
 50
190.21196999999961
 51
270.23411600000071
  0
ARC
  5
17EF8
  8
AM_0
 10
93.521056355361523
 20
216.83791144960711
 30
0.0
 40
1.0112084999999991
 50
239.48119000000261
 51
269.2343130000009
  0
ARC
  5
17EF9
  8
AM_0
 10
92.230586355361595
 20
216.506711449607
 30
0.0
 40
1.003051899999998
 50
179.99423000000229
 51
243.78734999999801
  0
LINE
  5
17EFA
  8
AM_0
 10
93.467556355361396
 20
214.8668114496071
 30
0.0
 11
96.727536355361352
 21
214.8668114496071
 31
0.0
  0
LINE
  5
17EFB
  8
AM_0
 10
93.507536355361538
 20
213.72680144960691
 30
0.0
 11
96.727536355361352
 21
213.72680144960691
 31
0.0
  0
ARC
  5
17EFC
  8
AM_0
 10
93.518426355361441
 20
214.7285714496071
 30
0.0
 40
1.001807999999998
 50
239.33833000000479
 51
269.37718000000262
  0
ARC
  5
17EFD
  8
AM_0
 10
93.505126355361483
 20
215.87124144960711
 30
0.0
 40
1.005138299999998
 50
241.63205999999801
 51
267.8577090000025
  0
LINE
  5
17EFE
  8
AM_0
 10
93.227536355361551
 20
213.98681144960699
 30
0.0
 11
93.227536355361551
 21
214.50680144960711
 31
0.0
  0
ARC
  5
17EFF
  8
AM_0
 10
92.234706355361425
 20
215.45699144960699
 30
0.0
 40
1.007194199999998
 50
179.44232
 51
239.76658000000239
  0
LINE
  5
17F00
  8
AM_0
 10
93.007566355361462
 20
213.86681144960701
 30
0.0
 11
91.727566355361475
 21
214.58682144960699
 31
0.0
  0
LINE
  5
17F01
  8
AM_0
 10
93.027556355361213
 20
214.98681144960699
 30
0.0
 11
91.787536355361524
 21
215.60680144960691
 31
0.0
  0
LINE
  5
17F02
  8
AM_0
 10
101.0175463553614
 20
212.4268114496071
 30
0.0
 11
103.43755635536149
 21
212.4268114496071
 31
0.0
  0
LINE
  5
17F03
  8
AM_0
 10
102.9475663553615
 20
215.11678144960689
 30
0.0
 11
103.4875763553614
 21
212.126791449607
 31
0.0
  0
LINE
  5
17F04
  8
AM_0
 10
103.4475663553615
 20
206.7768214496071
 30
0.0
 11
102.4875463553614
 21
211.2468214496071
 31
0.0
  0
ARC
  5
17F05
  8
AM_0
 10
101.0558463553616
 20
204.83971144960699
 30
0.0
 40
1.507096899999999
 50
14.09782000000437
 51
89.935180000004806
  0
LINE
  5
17F06
  8
AM_0
 10
101.0575463553615
 20
206.34683144960701
 30
0.0
 11
102.7075463553615
 21
206.34683144960701
 31
0.0
  0
ARC
  5
17F07
  8
AM_0
 10
101.0367363553615
 20
206.86401144960709
 30
0.0
 40
1.5028080999999991
 50
13.577820000002429
 51
89.969210000004949
  0
LINE
  5
17F08
  8
AM_0
 10
101.03756635536151
 20
208.36681144960701
 30
0.0
 11
103.09755635536141
 21
208.36681144960701
 31
0.0
  0
LINE
  5
17F09
  8
AM_0
 10
97.227536355361565
 20
206.08643375175089
 30
0.0
 11
102.0475463553615
 21
205.9668214496071
 31
0.0
  0
ARC
  5
17F0A
  8
AM_0
 10
101.01876635536161
 20
210.92266144960701
 30
0.0
 40
1.504139799999999
 50
12.44474999999685
 51
90.045750000001433
  0
LINE
  5
17F0B
  8
AM_0
 10
93.527556355361455
 20
220.34683144960701
 30
0.0
 11
97.227536355361565
 21
220.34683144960701
 31
0.0
  0
ARC
  5
17F0C
  8
AM_0
 10
96.222136355361556
 20
222.492211449607
 30
0.0
 40
1.005422699999998
 50
270.30818900000043
 51
359.69180761999792
  0
LINE
  5
17F0D
  8
AM_0
 10
93.507536355361538
 20
215.82681144960699
 30
0.0
 11
97.227536355361565
 21
215.82681144960699
 31
0.0
  0
ARC
  5
17F0E
  8
AM_0
 10
96.220486355361629
 20
217.973871449607
 30
0.0
 40
1.0070831999999981
 50
270.40157799999861
 51
359.59842201999908
  0
LINE
  5
17F0F
  8
AM_0
 10
93.507536355361538
 20
221.48681144960699
 30
0.0
 11
96.227536355361565
 21
221.48681144960699
 31
0.0
  0
ARC
  5
17F10
  8
AM_0
 10
93.533196355361554
 20
221.357111449607
 30
0.0
 40
1.0103179999999981
 50
237.31141999999861
 51
269.67986000000519
  0
ARC
  5
17F11
  8
AM_0
 10
93.519796355361407
 20
222.49346144960711
 30
0.0
 40
1.0067359999999981
 50
239.41356999999849
 51
269.30193900000148
  0
LINE
  5
17F12
  8
AM_0
 10
93.227536355361551
 20
220.6468114496071
 30
0.0
 11
93.227536355361551
 21
221.12682144960689
 31
0.0
  0
LINE
  5
17F13
  8
AM_0
 10
93.487546355361516
 20
216.96682144960701
 30
0.0
 11
96.227536355361565
 21
216.96682144960701
 31
0.0
  0
ARC
  5
17F14
  8
AM_0
 10
93.485836355361513
 20
217.9800014496071
 30
0.0
 40
1.0131911999999981
 50
241.83123999999859
 51
270.09627600000113
  0
LINE
  5
17F15
  8
AM_0
 10
93.227536355361551
 20
216.0868214496071
 30
0.0
 11
93.227536355361551
 21
216.62682144960709
 31
0.0
  0
ARC
  5
17F16
  8
AM_0
 10
92.229276355361506
 20
222.20944144960711
 30
0.0
 40
1.0017338999999981
 50
180.14953999999739
 51
237.2623699999958
  0
ARC
  5
17F17
  8
AM_0
 10
92.233086355361422
 20
223.23608144960701
 30
0.0
 40
1.005592899999999
 50
180.5283799999988
 51
239.8186699999996
  0
ARC
  5
17F18
  8
AM_0
 10
92.232536355361447
 20
218.63784144960701
 30
0.0
 40
1.0050607999999981
 50
180.62839999999889
 51
242.44118999999611
  0
ARC
  5
17F19
  8
AM_0
 10
92.2265263553615
 20
217.61227144960711
 30
0.0
 40
0.9989832599999996
 50
180.3123899999988
 51
240.03463999999681
  0
LINE
  5
17F1A
  8
AM_0
 10
93.007566355361462
 20
221.62682144960701
 30
0.0
 11
91.727566355361475
 21
222.366851449607
 31
0.0
  0
LINE
  5
17F1B
  8
AM_0
 10
93.007536355361296
 20
215.966791449607
 30
0.0
 11
91.727536355361551
 21
216.746791449607
 31
0.0
  0
LINE
  5
17F1C
  8
AM_0
 10
92.987546355361388
 20
220.506801449607
 30
0.0
 11
91.687526355361513
 21
221.36678144960689
 31
0.0
  0
LINE
  5
17F1D
  8
AM_0
 10
93.007536355361296
 20
217.08682144960699
 30
0.0
 11
91.767546355361503
 21
217.746791449607
 31
0.0
  0
LINE
  5
17F1E
  8
AM_0
 10
105.3975463553616
 20
205.19680144960711
 30
0.0
 11
118.72753635536149
 21
205.19680144960711
 31
0.0
  0
LINE
  5
17F1F
  8
AM_0
 10
105.4575463553613
 20
210.4868114496071
 30
0.0
 11
118.72753635536149
 21
210.4868114496071
 31
0.0
  0
ARC
  5
17F20
  8
AM_0
 10
118.7218863553616
 20
208.98113144960701
 30
0.0
 40
1.5056744999999989
 50
0.2155299999989793
 51
89.784480000001125
  0
ARC
  5
17F21
  8
AM_0
 10
110.37745235471451
 20
222.2566514496072
 30
0.0
 40
1.0041366999999981
 50
314.20256399999528
 51
5.1511600000043121
  0
ARC
  5
17F22
  8
AM_0
 10
106.8487323547145
 20
225.79876144960701
 30
0.0
 40
6.0039071999999978
 50
273.6172860000043
 51
314.77630699999548
  0
ARC
  5
17F23
  8
AM_0
 10
121.22753635536129
 20
248.4668214496069
 30
0.0
 40
1.0000031999999981
 50
90.0
 51
269.99999700000228
  0
ARC
  5
17F24
  8
AM_0
 10
104.77883635536161
 20
248.4668214496069
 30
0.0
 40
1.000037999999998
 50
89.500710000004887
 51
270.49928399999988
  0
ARC
  5
17F25
  8
AM_0
 10
103.5575463553614
 20
248.45681144960699
 30
0.0
 40
1.330000999999998
 50
90.0
 51
269.99999700000228
  0
LINE
  5
17F26
  8
AM_0
 10
93.227536355361551
 20
247.8668114496071
 30
0.0
 11
93.227536355361551
 21
249.08682144960699
 31
0.0
  0
ARC
  5
17F27
  8
AM_0
 10
92.236626355361565
 20
248.475911449607
 30
0.0
 40
1.009131199999999
 50
180.51612999999961
 51
269.48387399999899
  0
LINE
  5
17F28
  8
AM_0
 10
97.227536355361565
 20
229.15682144960689
 30
0.0
 11
107.22753635536149
 21
229.15682144960689
 31
0.0
  0
ARC
  5
17F29
  8
AM_0
 10
96.236566355361646
 20
236.47585144960701
 30
0.0
 40
0.9910124499999998
 50
359.47799761999983
 51
90.521999999995685
  0
ARC
  5
17F2A
  8
AM_0
 10
92.236626355361565
 20
238.475911449607
 30
0.0
 40
1.009131199999999
 50
180.51612999999961
 51
269.48387399999899
  0
LINE
  5
17F2B
  8
AM_0
 10
93.447536355361478
 20
227.786801449607
 30
0.0
 11
96.527556355361384
 21
227.786801449607
 31
0.0
  0
ARC
  5
17F2C
  8
AM_0
 10
96.221246355361316
 20
230.7331214496071
 30
0.0
 40
1.0063294999999981
 50
270.35925199999912
 51
359.64074624000273
  0
LINE
  5
17F2D
  8
AM_0
 10
93.387536355361405
 20
229.726801449607
 30
0.0
 11
96.227536355361565
 21
229.726801449607
 31
0.0
  0
ARC
  5
17F2E
  8
AM_0
 10
93.440786355361467
 20
228.79302144960701
 30
0.0
 40
1.0062370999999981
 50
246.99538000000081
 51
270.38475599999748
  0
ARC
  5
17F2F
  8
AM_0
 10
93.370206355361518
 20
230.74181144960701
 30
0.0
 40
1.015145099999998
 50
253.8323300000007
 51
270.97838100000092
  0
LINE
  5
17F30
  8
AM_0
 10
93.227536355361551
 20
228.08682144960699
 30
0.0
 11
93.227536355361551
 21
229.1468114496071
 31
0.0
  0
ARC
  5
17F31
  8
AM_0
 10
92.231986355361485
 20
231.0901414496069
 30
0.0
 40
1.004450099999999
 50
180.1901499999997
 51
253.54964999999649
  0
ARC
  5
17F32
  8
AM_0
 10
92.227076355361575
 20
229.3114914496069
 30
0.0
 40
0.9995326999999996
 50
180.26813000000021
 51
247.6849499999995
  0
LINE
  5
17F33
  8
AM_0
 10
96.227536355361565
 20
237.46682144960701
 30
0.0
 11
92.227536355361565
 21
237.46682144960701
 31
0.0
  0
LINE
  5
17F34
  8
AM_0
 10
93.047546355361476
 20
227.8668114496069
 30
0.0
 11
91.847556355361405
 21
228.38680144960699
 31
0.0
  0
LINE
  5
17F35
  8
AM_0
 10
93.087546355361454
 20
229.7668114496071
 30
0.0
 11
91.947536355361592
 21
230.126791449607
 31
0.0
  0
ARC
  5
17F36
  8
AM_0
 10
96.236566355361646
 20
246.47585144960701
 30
0.0
 40
0.9910124499999998
 50
359.47799761999983
 51
90.521999999995685
  0
ARC
  5
17F37
  8
AM_0
 10
96.219656355361565
 20
240.47469144960701
 30
0.0
 40
1.0079203999999991
 50
270.44848800000472
 51
359.55151003999867
  0
LINE
  5
17F38
  8
AM_0
 10
93.227536355361551
 20
237.8468314496069
 30
0.0
 11
93.227536355361551
 21
239.2068114496071
 31
0.0
  0
LINE
  5
17F39
  8
AM_0
 10
88.733636355361526
 20
248.24499144960711
 30
0.0
 11
89.233636355361639
 21
245.47500144960691
 31
0.0
  0
LINE
  5
17F3A
  8
AM_0
 10
89.727536355361565
 20
243.466791449607
 30
0.0
 11
91.227536355361536
 21
243.346791449607
 31
0.0
  0
LINE
  5
17F3B
  8
AM_0
 10
89.233636355361639
 20
245.47500144960691
 30
0.0
 11
89.733666355361535
 21
245.5150114496071
 31
0.0
  0
ARC
  5
17F3C
  8
AM_0
 10
92.219756355361525
 20
238.4746314496069
 30
0.0
 40
0.9922232599999995
 50
89.549149999999116
 51
180.4508400000029
  0
LINE
  5
17F3D
  8
AM_0
 10
96.227536355361565
 20
239.46682144960701
 30
0.0
 11
92.227536355361565
 21
239.46682144960701
 31
0.0
  0
LINE
  5
17F3E
  8
AM_0
 10
96.227536355361565
 20
247.46682144960701
 30
0.0
 11
92.227536355361565
 21
247.46682144960701
 31
0.0
  0
ARC
  5
17F3F
  8
AM_0
 10
121.22753635536129
 20
238.4668214496071
 30
0.0
 40
1.0000031999999981
 50
90.0
 51
269.99999700000228
  0
ARC
  5
17F40
  8
AM_0
 10
112.68755635536149
 20
238.441801449607
 30
0.0
 40
1.465000399999999
 50
90.0
 51
269.99999700000228
  0
ARC
  5
17F41
  8
AM_0
 10
113.7775563553612
 20
238.4668214496071
 30
0.0
 40
1.0000031999999981
 50
90.0
 51
269.99999700000228
  0
ARC
  5
17F42
  8
AM_0
 10
113.7775563553612
 20
228.4668214496071
 30
0.0
 40
1.0000031999999981
 50
90.0
 51
269.99999700000228
  0
ARC
  5
17F43
  8
AM_0
 10
112.90755635536129
 20
228.42181144960699
 30
0.0
 40
1.6750062999999991
 50
90.0
 51
269.99999700000228
  0
ARC
  5
17F44
  8
AM_0
 10
121.22753635536129
 20
228.4668214496071
 30
0.0
 40
1.0000031999999981
 50
90.0
 51
269.99999700000228
  0
ARC
  5
17F45
  8
AM_0
 10
103.49767635536151
 20
268.45681144960702
 30
0.0
 40
1.270038399999998
 50
89.554810000000813
 51
270.44518900000008
  0
ARC
  5
17F46
  8
AM_0
 10
104.78756635536151
 20
268.4668214496071
 30
0.0
 40
1.000012399999999
 50
90.0
 51
269.99999700000228
  0
ARC
  5
17F47
  8
AM_0
 10
104.77883635536161
 20
258.4668214496071
 30
0.0
 40
1.000037999999998
 50
89.500710000004887
 51
270.49928399999988
  0
ARC
  5
17F48
  8
AM_0
 10
103.4975563553615
 20
258.46182144960699
 30
0.0
 40
1.265004999999999
 50
90.0
 51
269.99999700000228
  0
ARC
  5
17F49
  8
AM_0
 10
92.219756355361525
 20
258.47463144960687
 30
0.0
 40
0.9922232599999995
 50
89.549149999999116
 51
180.4508400000029
  0
ARC
  5
17F4A
  8
AM_0
 10
96.219656355361565
 20
250.47469144960701
 30
0.0
 40
1.0079203999999991
 50
270.44848800000472
 51
359.55151003999867
  0
ARC
  5
17F4B
  8
AM_0
 10
96.236566355361646
 20
256.47585144960698
 30
0.0
 40
0.9910124499999998
 50
359.47799761999983
 51
90.521999999995685
  0
LINE
  5
17F4C
  8
AM_0
 10
93.227536355361551
 20
257.86681144960693
 30
0.0
 11
93.227536355361551
 21
259.02682144960698
 31
0.0
  0
ARC
  5
17F4D
  8
AM_0
 10
92.219756355361525
 20
248.4746314496071
 30
0.0
 40
0.9922232599999995
 50
89.549149999999116
 51
180.4508400000029
  0
ARC
  5
17F4E
  8
AM_0
 10
92.236626355361565
 20
258.475911449607
 30
0.0
 40
1.009131199999999
 50
180.51612999999961
 51
269.48387399999899
  0
LINE
  5
17F4F
  8
AM_0
 10
96.227536355361565
 20
257.46682144960698
 30
0.0
 11
92.227536355361565
 21
257.46682144960698
 31
0.0
  0
LINE
  5
17F50
  8
AM_0
 10
96.227536355361565
 20
249.46682144960701
 30
0.0
 11
92.227536355361565
 21
249.46682144960701
 31
0.0
  0
ARC
  5
17F51
  8
AM_0
 10
96.219656355361565
 20
266.45892144960709
 30
0.0
 40
1.0079203999999991
 50
0.4484899999971561
 51
89.551510000002835
  0
ARC
  5
17F52
  8
AM_0
 10
96.219656355361565
 20
260.47469144960701
 30
0.0
 40
1.0079203999999991
 50
270.44848800000472
 51
359.55151003999867
  0
LINE
  5
17F53
  8
AM_0
 10
93.227536355361551
 20
269.066801449607
 30
0.0
 11
93.227536355361551
 21
267.90682144960709
 31
0.0
  0
ARC
  5
17F54
  8
AM_0
 10
92.219756355361525
 20
268.45901144960698
 30
0.0
 40
0.9922232599999995
 50
179.54914999999909
 51
270.45084500000189
  0
ARC
  5
17F55
  8
AM_0
 10
92.236626355361565
 20
268.45773144960702
 30
0.0
 40
1.009131199999999
 50
90.516129999999578
 51
179.48387000000039
  0
POINT
  5
17F56
  8
AM_0
 10
88.733636355361625
 20
263.4668214496071
 30
0.0
  0
LINE
  5
17F57
  8
AM_0
 10
96.227536355361565
 20
259.46682144960698
 30
0.0
 11
92.227536355361565
 21
259.46682144960698
 31
0.0
  0
LINE
  5
17F58
  8
AM_0
 10
96.227536355361565
 20
267.46682144960698
 30
0.0
 11
92.227536355361565
 21
267.46682144960698
 31
0.0
  0
LINE
  5
17F59
  8
AM_0
 10
96.227536355361565
 20
269.46682144960698
 30
0.0
 11
92.227536355361565
 21
269.46682144960698
 31
0.0
  0
ARC
  5
17F5A
  8
AM_0
 10
121.22753635536129
 20
258.4668214496071
 30
0.0
 40
1.0000031999999981
 50
90.0
 51
269.99999700000228
  0
ARC
  5
17F5B
  8
AM_0
 10
121.22753635536129
 20
268.4668214496071
 30
0.0
 40
1.000000699999998
 50
90.0
 51
269.99999700000228
  0
LINE
  5
17F5C
  8
AM_0
 10
284.2990707090479
 20
214.73813281151331
 30
0.0
 11
288.72753635536139
 21
214.73813281151331
 31
0.0
  0
ARC
  5
17F5D
  8
AM_0
 10
301.72753671298909
 20
211.46684989988631
 30
0.0
 40
12.00000035762791
 50
180.00000500895689
 51
270.000000683243
  0
LINE
  5
17F5E
  8
AM_0
 10
266.22753635536139
 20
201.96686144960719
 30
0.0
 11
293.43595930392502
 21
201.96686144960759
 31
0.0
  0
LINE
  5
17F5F
  8
AM_0
 10
224.7275363553612
 20
189.96685144960691
 30
0.0
 11
224.7275363553612
 21
182.96685144960699
 31
0.0
  0
LINE
  5
17F60
  8
AM_0
 10
165.22753635536111
 20
178.96685144960691
 30
0.0
 11
165.22753635536111
 21
186.46685144960691
 31
0.0
  0
LINE
  5
17F61
  8
AM_0
 10
161.7275363553612
 20
186.46685144960691
 30
0.0
 11
161.7275363553612
 21
178.96685144960691
 31
0.0
  0
LINE
  5
17F62
  8
AM_0
 10
224.7275363553612
 20
182.96685144960699
 30
0.0
 11
167.2275363553612
 21
182.96685144960699
 31
0.0
  0
LINE
  5
17F63
  8
AM_0
 10
211.03153635536131
 20
163.46685144960699
 30
0.0
 11
175.42353635536131
 21
163.46685144960699
 31
0.0
  0
LINE
  5
17F64
  8
AM_0
 10
175.42353635536131
 20
163.46685144960699
 30
0.0
 11
170.23476084515821
 21
166.46685144960691
 31
0.0
  0
ARC
  5
17F65
  8
AM_0
 10
158.7275363553612
 20
177.96685144960699
 30
0.0
 40
7.4999999999999956
 50
270.0
 51
0.0
  0
LINE
  5
17F66
  8
AM_0
 10
158.7275363553612
 20
170.46685144960699
 30
0.0
 11
156.7275363553612
 21
170.46685144960699
 31
0.0
  0
ARC
  5
17F67
  8
AM_0
 10
167.2275363553612
 20
181.96685144960699
 30
0.0
 40
1.0
 50
90.0
 51
180.0
  0
LINE
  5
17F68
  8
AM_0
 10
166.22753635536131
 20
177.96685144960699
 30
0.0
 11
166.22753635536131
 21
181.96685144960699
 31
0.0
  0
LINE
  5
17F69
  8
AM_0
 10
216.22753635536139
 20
166.46685144960691
 30
0.0
 11
211.03153635536131
 21
163.46685144960699
 31
0.0
  0
LINE
  5
17F6A
  8
AM_0
 10
223.2275363553612
 20
182.96685144960699
 30
0.0
 11
223.2275363553612
 21
167.46685144960699
 31
0.0
  0
ARC
  5
17F6B
  8
AM_0
 10
222.2275363553612
 20
167.46685144960691
 30
0.0
 40
1.0
 50
270.0
 51
0.0
  0
LINE
  5
17F6C
  8
AM_0
 10
221.72753635536151
 20
230.09688144960711
 30
0.0
 11
206.72753635536151
 21
230.09688144960711
 31
0.0
  0
LINE
  5
17F6D
  8
AM_0
 10
221.72753635536151
 20
230.09688144960691
 30
0.0
 11
206.72753635536151
 21
230.09688144960691
 31
0.0
  0
LINE
  5
17F6E
  8
AM_0
 10
237.0475463553615
 20
229.466881449607
 30
0.0
 11
177.22753635536151
 21
229.466881449607
 31
0.0
  0
LINE
  5
17F6F
  8
AM_0
 10
237.0475463553615
 20
227.46688144960689
 30
0.0
 11
177.22753635536151
 21
227.46688144960689
 31
0.0
  0
LINE
  5
17F70
  8
AM_0
 10
177.22753635536151
 20
226.73690144960699
 30
0.0
 11
237.0475463553615
 21
226.73690144960699
 31
0.0
  0
LINE
  5
17F71
  8
AM_0
 10
177.22753635536151
 20
201.60689144960699
 30
0.0
 11
237.0475463553615
 21
201.60689144960699
 31
0.0
  0
LINE
  5
17F72
  8
AM_0
 10
163.22753635536139
 20
189.96685144960679
 30
0.0
 11
163.22753635536131
 21
201.60689144960671
 31
0.0
  0
LINE
  5
17F73
  8
AM_0
 10
205.72753635536151
 20
230.09688144960711
 30
0.0
 11
177.22753635536151
 21
230.09688144960711
 31
0.0
  0
ARC
  5
17F74
  8
AM_0
 10
175.89757302507729
 20
248.45681144960699
 30
0.0
 40
1.330000999999998
 50
270.00000299999761
 51
90.0
  0
ARC
  5
17F75
  8
AM_0
 10
174.67628302507711
 20
248.4668214496069
 30
0.0
 40
1.000037999999998
 50
269.50071600000012
 51
90.499289999995085
  0
ARC
  5
17F76
  8
AM_0
 10
174.67628302507711
 20
238.4668214496071
 30
0.0
 40
1.000037999999998
 50
269.50071600000012
 51
90.499289999995085
  0
ARC
  5
17F77
  8
AM_0
 10
175.95756302507721
 20
258.46182144960699
 30
0.0
 40
1.265004999999999
 50
270.00000299999761
 51
90.0
  0
ARC
  5
17F78
  8
AM_0
 10
174.67628302507711
 20
258.4668214496071
 30
0.0
 40
1.000037999999998
 50
269.50071600000012
 51
90.499289999995085
  0
ARC
  5
17F79
  8
AM_0
 10
175.95756302507721
 20
268.47188144960688
 30
0.0
 40
1.265004999999999
 50
270.0
 51
89.999997000002296
  0
ARC
  5
17F7A
  8
AM_0
 10
174.67628302507711
 20
268.46688144960689
 30
0.0
 40
1.000037999999998
 50
269.50071000000491
 51
90.499283999999861
  0
ARC
  5
17F7B
  8
AM_0
 10
205.72753635536151
 20
236.46688144960709
 30
0.0
 40
0.9999999999999998
 50
0.0
 51
90.0
1001
GENIUS_GENOBJ-N-FIL_13
1002
{
1000
OWNER
1000
GEN
1002
}
1001
GENIUS_GENODEF_13
1002
{
1000
HIER
1070
     0
1002
}
1002
{
1000
MANEDIT
1070
     0
1002
}
1002
{
1000
NOSEL
1070
     0
1002
}
1002
{
1000
BEHIND
1070
     0
1002
}
1002
{
1000
OTHER
1070
     0
1002
}
1002
{
1000
REACTOR
1002
}
  0
ARC
  5
17F7C
  8
AM_0
 10
205.72753635536151
 20
231.096881449607
 30
0.0
 40
0.9999999999999998
 50
270.0
 51
0.0
1001
GENIUS_GENOBJ-N-FIL_13
1002
{
1000
OWNER
1000
GEN
1002
}
1001
GENIUS_GENODEF_13
1002
{
1000
HIER
1070
     0
1002
}
1002
{
1000
MANEDIT
1070
     0
1002
}
1002
{
1000
NOSEL
1070
     0
1002
}
1002
{
1000
BEHIND
1070
     0
1002
}
1002
{
1000
OTHER
1070
     0
1002
}
1002
{
1000
REACTOR
1002
}
  0
CIRCLE
  5
17F7D
  8
AM_0
 10
211.72753635536151
 20
234.96685144960699
 30
0.0
 40
0.75
  0
LINE
  5
17F7E
  8
AM_0
 10
206.72753635536151
 20
236.46688144960689
 30
0.0
 11
206.72753635536151
 21
231.096881449607
 31
0.0
  0
CIRCLE
  5
17F7F
  8
AM_0
 10
216.72753635536139
 20
234.96685144960699
 30
0.0
 40
0.75
  0
LINE
  5
17F80
  8
AM_0
 10
252.22753635536151
 20
199.46686144960719
 30
0.0
 11
261.354139182957
 21
199.46686144960719
 31
0.0
  0
LINE
  5
17F81
  8
AM_0
 10
252.22753635536151
 20
226.32687144960741
 30
0.0
 11
262.22753635536151
 21
226.32687144960741
 31
0.0
  0
LINE
  5
17F82
  8
AM_0
 10
252.22753635536151
 20
211.42686144960729
 30
0.0
 11
262.22753635536151
 21
211.42686144960729
 31
0.0
  0
LINE
  5
17F83
  8
AM_0
 10
252.22749508871101
 20
226.32686144962969
 30
0.0
 11
262.22749508870493
 21
226.32685033851851
 31
0.0
  0
LINE
  5
17F84
  8
AM_0
 10
252.22747853314419
 20
211.42685144963889
 30
0.0
 11
262.22747853313803
 21
211.42684033852771
 31
0.0
  0
LINE
  5
17F85
  8
AM_0
 10
238.9875463553615
 20
203.10688144960699
 30
0.0
 11
241.7233563553614
 21
213.306881449607
 31
0.0
  0
ARC
  5
17F86
  8
AM_0
 10
237.0378963553614
 20
203.62388144960701
 30
0.0
 40
2.0170177999999992
 50
270.27370000000269
 51
345.14839999999532
  0
LINE
  5
17F87
  8
AM_0
 10
243.22753635536139
 20
199.4668215019671
 30
0.0
 11
235.52825765160961
 21
194.46685144960691
 31
0.0
  0
LINE
  5
17F88
  8
AM_0
 10
223.22753635536151
 20
189.96685144960691
 30
0.0
 11
223.22753635536131
 21
194.46685144960691
 31
0.0
  0
LINE
  5
17F89
  8
AM_0
 10
223.22753635536151
 20
194.46685144960691
 30
0.0
 11
235.52825765160961
 21
194.46685144960691
 31
0.0
  0
LINE
  5
17F8A
  8
AM_0
 10
243.22753627473369
 20
199.46682144960701
 30
0.0
 11
252.22753635536151
 21
199.46682144960701
 31
0.0
  0
ARC
  5
17F8B
  8
AM_0
 10
244.22753635536151
 20
200.4668214496071
 30
0.0
 40
0.9999999999999998
 50
179.999989999999
 51
269.99999700000228
  0
LINE
  5
17F8C
  8
AM_0
 10
243.22753635536139
 20
200.4668214496071
 30
0.0
 11
243.22753635536139
 21
202.96682144960701
 31
0.0
  0
LINE
  5
17F8D
  8
AM_0
 10
238.94753635536151
 20
202.966891449607
 30
0.0
 11
243.22753635536139
 21
202.966891449607
 31
0.0
  0
LINE
  5
17F8E
  8
AM_0
 10
252.22753635536151
 20
199.46682144960701
 30
0.0
 11
252.22753635536151
 21
203.4668214496071
 31
0.0
  0
LINE
  5
17F8F
  8
AM_0
 10
237.0475463553615
 20
217.12688144960691
 30
0.0
 11
239.62755635536149
 21
217.12688144960691
 31
0.0
  0
LINE
  5
17F90
  8
AM_0
 10
243.22753635536139
 20
220.60689144960691
 30
0.0
 11
243.22753635536139
 21
213.006891449607
 31
0.0
  0
LINE
  5
17F91
  8
AM_0
 10
242.22753635536151
 20
220.60689144960691
 30
0.0
 11
242.22753635536151
 21
213.006891449607
 31
0.0
  0
LINE
  5
17F92
  8
AM_0
 10
239.62755635536149
 20
218.60689144960699
 30
0.0
 11
239.62755635536149
 21
215.006891449607
 31
0.0
  0
LINE
  5
17F93
  8
AM_0
 10
244.22747853318251
 20
211.4268903385281
 30
0.0
 11
252.2274785331775
 21
211.42688144963921
 31
0.0
  0
LINE
  5
17F94
  8
AM_0
 10
242.22753635536151
 20
213.006891449607
 30
0.0
 11
243.22753635536139
 21
213.006891449607
 31
0.0
  0
ARC
  5
17F95
  8
AM_0
 10
241.3275363553615
 20
215.006891449607
 30
0.0
 40
1.7000007999999991
 50
180.00001000000091
 51
269.999979999998
  0
LINE
  5
17F96
  8
AM_0
 10
242.22753635536151
 20
213.30689144960701
 30
0.0
 11
241.3275363553615
 21
213.30689144960701
 31
0.0
  0
ARC
  5
17F97
  8
AM_0
 10
244.23595635536151
 20
212.43529144960701
 30
0.0
 40
1.008444499999998
 50
189.5460700000036
 51
269.52220000000051
  0
LINE
  5
17F98
  8
AM_0
 10
244.22749508874929
 20
226.32690033851901
 30
0.0
 11
252.22749508874429
 21
226.32689144963001
 31
0.0
  0
LINE
  5
17F99
  8
AM_0
 10
242.22753635536151
 20
220.60689144960691
 30
0.0
 11
243.22753635536139
 21
220.60689144960691
 31
0.0
  0
LINE
  5
17F9A
  8
AM_0
 10
243.22753635536139
 20
217.584251449607
 30
0.0
 11
242.22753635536151
 21
217.00692144960709
 31
0.0
  0
LINE
  5
17F9B
  8
AM_0
 10
243.22753635536139
 20
216.584251449607
 30
0.0
 11
242.22753635536151
 21
216.00689144960691
 31
0.0
  0
ARC
  5
17F9C
  8
AM_0
 10
243.88839635536141
 20
215.64010144960699
 30
0.0
 40
1.4868058999999989
 50
116.38977999999901
 51
165.71726000000069
  0
ARC
  5
17F9D
  8
AM_0
 10
241.3275363553615
 20
218.60689144960699
 30
0.0
 40
1.699996899999999
 50
90.000003000004199
 51
179.99998000000451
  0
LINE
  5
17F9E
  8
AM_0
 10
242.22753635536151
 20
220.30688144960689
 30
0.0
 11
241.3275363553615
 21
220.30688144960689
 31
0.0
  0
ARC
  5
17F9F
  8
AM_0
 10
261.354139182957
 20
202.46686144960711
 30
0.0
 40
2.9999999999999978
 50
270.0
 51
324.31466528734541
1001
GENIUS_GENOBJ-N-FIL_13
1002
{
1000
OWNER
1000
GEN
1002
}
1001
GENIUS_GENODEF_13
1002
{
1000
HIER
1070
     0
1002
}
1002
{
1000
MANEDIT
1070
     0
1002
}
1002
{
1000
NOSEL
1070
     0
1002
}
1002
{
1000
BEHIND
1070
     0
1002
}
1002
{
1000
OTHER
1070
     0
1002
}
1002
{
1000
REACTOR
1002
}
  0
ARC
  5
17FA0
  8
AM_0
 10
266.22753635536139
 20
198.96686144960719
 30
0.0
 40
2.9999999999999978
 50
90.0
 51
144.31466528734541
1001
GENIUS_GENOBJ-N-FIL_13
1002
{
1000
OWNER
1000
GEN
1002
}
1001
GENIUS_GENODEF_13
1002
{
1000
HIER
1070
     0
1002
}
1002
{
1000
MANEDIT
1070
     0
1002
}
1002
{
1000
NOSEL
1070
     0
1002
}
1002
{
1000
BEHIND
1070
     0
1002
}
1002
{
1000
OTHER
1070
     0
1002
}
1002
{
1000
REACTOR
1002
}
  0
ARC
  5
17FA1
  8
AM_0
 10
284.2990707090479
 20
217.73813281151331
 30
0.0
 40
2.9999999999999978
 50
186.6607143203168
 51
270.0
1001
GENIUS_GENOBJ-N-FIL_13
1002
{
1000
OWNER
1000
GEN
1002
}
1001
GENIUS_GENODEF_13
1002
{
1000
HIER
1070
     0
1002
}
1002
{
1000
MANEDIT
1070
     0
1002
}
1002
{
1000
NOSEL
1070
     0
1002
}
1002
{
1000
BEHIND
1070
     0
1002
}
1002
{
1000
OTHER
1070
     0
1002
}
1002
{
1000
REACTOR
1002
}
  0
ARC
  5
17FA2
  8
AM_0
 10
237.56755635536149
 20
228.466881449607
 30
0.0
 40
1.0000073999999981
 50
270.0
 51
90.000003000004199
  0
LINE
  5
17FA3
  8
AM_0
 10
241.0475463553615
 20
230.09688144960711
 30
0.0
 11
237.0475463553615
 21
230.09688144960711
 31
0.0
  0
LINE
  5
17FA4
  8
AM_0
 10
237.0475463553615
 20
226.73690144960699
 30
0.0
 11
243.2275363060414
 21
226.73690144960699
 31
0.0
  0
LINE
  5
17FA5
  8
AM_0
 10
221.8673145272264
 20
236.976801449607
 30
0.0
 11
241.24123980000391
 21
236.976801449607
 31
0.0
  0
LINE
  5
17FA6
  8
AM_0
 10
240.15232244188681
 20
237.46682144960701
 30
0.0
 11
222.7165820685367
 21
237.46682144960701
 31
0.0
  0
ARC
  5
17FA7
  8
AM_0
 10
222.72753635536139
 20
236.46688144960689
 30
0.0
 40
0.9999999999999998
 50
90.0
 51
180.0
1001
GENIUS_GENOBJ-N-FIL_13
1002
{
1000
OWNER
1000
GEN
1002
}
1001
GENIUS_GENODEF_13
1002
{
1000
HIER
1070
     0
1002
}
1002
{
1000
MANEDIT
1070
     0
1002
}
1002
{
1000
NOSEL
1070
     0
1002
}
1002
{
1000
BEHIND
1070
     0
1002
}
1002
{
1000
OTHER
1070
     0
1002
}
1002
{
1000
REACTOR
1002
}
  0
LINE
  5
17FA8
  8
AM_0
 10
237.0475463553615
 20
230.09688144960711
 30
0.0
 11
222.72753635536139
 21
230.09688144960711
 31
0.0
  0
ARC
  5
17FA9
  8
AM_0
 10
222.72753635536139
 20
231.096881449607
 30
0.0
 40
0.9999999999999998
 50
180.0
 51
270.0
1001
GENIUS_GENOBJ-N-FIL_13
1002
{
1000
OWNER
1000
GEN
1002
}
1001
GENIUS_GENODEF_13
1002
{
1000
HIER
1070
     0
1002
}
1002
{
1000
MANEDIT
1070
     0
1002
}
1002
{
1000
NOSEL
1070
     0
1002
}
1002
{
1000
BEHIND
1070
     0
1002
}
1002
{
1000
OTHER
1070
     0
1002
}
1002
{
1000
REACTOR
1002
}
  0
LINE
  5
17FAA
  8
AM_0
 10
221.72753635536151
 20
236.46688144960689
 30
0.0
 11
221.72753635536151
 21
231.096881449607
 31
0.0
  0
LINE
  5
17FAB
  8
AM_0
 10
237.56755635536149
 20
227.46688144960689
 30
0.0
 11
237.0475463553615
 21
227.46688144960689
 31
0.0
  0
LINE
  5
17FAC
  8
AM_0
 10
237.56755635536149
 20
229.466881449607
 30
0.0
 11
237.0475463553615
 21
229.466881449607
 31
0.0
  0
ARC
  5
17FAD
  8
AM_0
 10
240.1523223895268
 20
238.4668214496071
 30
0.0
 40
1.0000031999999981
 50
270.00000299999761
 51
90.0
  0
ARC
  5
17FAE
  8
AM_0
 10
241.24232238952669
 20
238.441801449607
 30
0.0
 40
1.465000399999999
 50
270.00000299999761
 51
90.0
  0
ARC
  5
17FAF
  8
AM_0
 10
241.0414363553615
 20
228.41689144960699
 30
0.0
 40
1.680010999999999
 50
270.20802999999808
 51
89.791969000000421
  0
LINE
  5
17FB0
  8
AM_0
 10
318.6980994509305
 20
205.46684972107269
 30
0.0
 11
398.72757012139391
 21
205.46684972107269
 31
0.0
  0
ARC
  5
17FB1
  8
AM_0
 10
300.72753653417527
 20
228.4374126378278
 30
0.0
 40
5.0
 50
180.0
 51
273.37228728714382
1001
GENIUS_GENODEF_13
1002
{
1000
HIER
1070
     0
1002
}
1002
{
1000
MANEDIT
1070
     0
1002
}
1002
{
1000
NOSEL
1070
     0
1002
}
1002
{
1000
BEHIND
1070
     0
1002
}
1002
{
1000
OTHER
1070
     0
1002
}
1002
{
1000
REACTOR
1002
}
1001
GENIUS_GENOBJ-N-FIL_13
1002
{
1000
OWNER
1000
GEN
1002
}
  0
ARC
  5
17FB2
  8
AM_0
 10
318.6980994509305
 20
210.46684972107269
 30
0.0
 40
5.0
 50
176.62771271285609
 51
270.0
1001
GENIUS_GENOBJ-N-FIL_13
1002
{
1000
OWNER
1000
GEN
1002
}
1001
GENIUS_GENODEF_13
1002
{
1000
HIER
1070
     0
1002
}
1002
{
1000
MANEDIT
1070
     0
1002
}
1002
{
1000
NOSEL
1070
     0
1002
}
1002
{
1000
BEHIND
1070
     0
1002
}
1002
{
1000
OTHER
1070
     0
1002
}
1002
{
1000
REACTOR
1002
}
  0
LINE
  5
17FB3
  8
ﾁｭｳｼﾝｾﾝ1
 10
301.72753671298909
 20
219.9668501532062
 30
0.0
 11
301.72753671298909
 21
202.96684964656691
 31
0.0
  0
ARC
  5
17FB4
  8
AM_0
 10
293.43595930392507
 20
198.96686144960771
 30
0.0
 40
2.9999999999999978
 50
56.442621136830091
 51
90.0
1001
GENIUS_GENOBJ-N-FIL_13
1002
{
1000
OWNER
1000
GEN
1002
}
1001
GENIUS_GENODEF_13
1002
{
1000
HIER
1070
     0
1002
}
1002
{
1000
MANEDIT
1070
     0
1002
}
1002
{
1000
NOSEL
1070
     0
1002
}
1002
{
1000
BEHIND
1070
     0
1002
}
1002
{
1000
OTHER
1070
     0
1002
}
1002
{
1000
REACTOR
1002
}
  0
LINE
  5
17FB5
  8
ﾁｭｳｼﾝｾﾝ1
 10
293.22753645966952
 20
211.46684989988631
 30
0.0
 11
310.22756748388821
 21
211.46684989988631
 31
0.0
  0
ARC
  5
17FB6
  8
AM_0
 10
301.72753671298909
 20
211.46684989988631
 30
0.0
 40
12.0
 50
356.62771271285618
 51
93.37228728714382
  0
CIRCLE
  5
17FB7
  8
AM_0
 10
301.72753671298909
 20
211.46684989988631
 30
0.0
 40
5.5000001639127731
  0
LINE
  5
17FB9
  8
AM_0
 10
143.22753635536151
 20
309.80682144960713
 30
0.0
 11
237.0475463553615
 21
309.80682144960713
 31
0.0
  0
LINE
  5
17FBA
  8
AM_0
 10
205.72753635536151
 20
289.46682144960698
 30
0.0
 11
104.7775563553615
 21
289.46682144960698
 31
0.0
  0
LINE
  5
17FBB
  8
AM_0
 10
240.15232244188681
 20
287.46682144960698
 30
0.0
 11
104.7775563553615
 21
287.46682144960698
 31
0.0
  0
LINE
  5
17FBC
  8
AM_0
 10
103.68755635536139
 20
287.03680144960703
 30
0.0
 11
241.07229250391731
 21
287.03680144960703
 31
0.0
  0
LINE
  5
17FBD
  8
AM_0
 10
103.68755635536139
 20
289.95681144960707
 30
0.0
 11
206.58770482717389
 21
289.95681144960707
 31
0.0
  0
LINE
  5
17FBE
  8
AM_0
 10
122.22753635536149
 20
327.346811449607
 30
0.0
 11
237.0273064820652
 21
327.346811449607
 31
0.0
  0
LINE
  5
17FBF
  8
AM_0
 10
122.22753635536149
 20
328.70681144960702
 30
0.0
 11
237.0273064820652
 21
328.70681144960702
 31
0.0
  0
LINE
  5
17FC0
  8
AM_0
 10
122.22753635536149
 20
329.36681144960698
 30
0.0
 11
237.0273064820652
 21
329.36681144960698
 31
0.0
  0
LINE
  5
17FC1
  8
AM_0
 10
104.78754883626191
 20
297.46682149069312
 30
0.0
 11
177.22753635536151
 21
297.46682149069312
 31
0.0
  0
LINE
  5
17FC2
  8
AM_0
 10
103.5575463553614
 20
277.15682144960692
 30
0.0
 11
175.95756302507721
 21
277.15682144960692
 31
0.0
  0
LINE
  5
17FC3
  8
AM_0
 10
174.66756854980801
 20
277.46682144960698
 30
0.0
 11
104.7775563553615
 21
277.46682144960698
 31
0.0
  0
LINE
  5
17FC4
  8
AM_0
 10
103.8975463553615
 20
296.83682144960699
 30
0.0
 11
177.22753635536151
 21
296.83682144960699
 31
0.0
  0
LINE
  5
17FC5
  8
AM_0
 10
174.66756854980801
 20
279.46682144960698
 30
0.0
 11
104.7775563553615
 21
279.46682144960698
 31
0.0
  0
LINE
  5
17FC6
  8
AM_0
 10
103.5575463553614
 20
279.816801449607
 30
0.0
 11
175.95756302507721
 21
279.816801449607
 31
0.0
  0
LINE
  5
17FC7
  8
AM_0
 10
103.8975463553615
 20
300.19680144960699
 30
0.0
 11
177.22753635536151
 21
300.19680144960699
 31
0.0
  0
LINE
  5
17FC8
  8
AM_0
 10
177.22753635536151
 20
299.46682144960698
 30
0.0
 11
104.7775563553615
 21
299.46682144960698
 31
0.0
  0
LINE
  5
17FC9
  8
AM_0
 10
122.22753635536149
 20
325.32681144960702
 30
0.0
 11
177.22753635536151
 21
325.32681144960702
 31
0.0
  0
LINE
  5
17FCA
  8
AM_0
 10
102.9675563553614
 20
311.80682144960701
 30
0.0
 11
103.4875463553615
 21
314.786811449607
 31
0.0
  0
ARC
  5
17FCB
  8
AM_0
 10
96.731896355361485
 20
313.70246144960697
 30
0.0
 40
0.4956644499999998
 50
269.49661899999961
 51
0.5033799999995008
  0
LINE
  5
17FCC
  8
AM_0
 10
143.22753635536151
 20
309.80682144960713
 30
0.0
 11
107.22753635536149
 21
308.15408116777752
 31
0.0
  0
ARC
  5
17FCD
  8
AM_0
 10
103.55968635536151
 20
278.47680144960702
 30
0.0
 40
1.3300231999999981
 50
89.661519999996017
 51
270.33846799999918
  0
ARC
  5
17FCE
  8
AM_0
 10
104.78756635536151
 20
278.46682144960693
 30
0.0
 40
1.000012399999999
 50
90.0
 51
269.99999700000228
  0
ARC
  5
17FCF
  8
AM_0
 10
104.77874635536141
 20
288.4668214496071
 30
0.0
 40
1.0000386999999991
 50
89.495660000003156
 51
270.5043320000014
  0
ARC
  5
17FD0
  8
AM_0
 10
103.6902463553614
 20
288.48681144960699
 30
0.0
 40
1.460102599999999
 50
89.321000000002158
 51
270.67899299999812
  0
LINE
  5
17FD1
  8
AM_0
 10
88.733636355361526
 20
278.68859144960709
 30
0.0
 11
89.233636355361639
 21
281.45861144960702
 31
0.0
  0
ARC
  5
17FD2
  8
AM_0
 10
96.219656355361565
 20
276.45892144960709
 30
0.0
 40
1.0079203999999991
 50
0.4484899999971561
 51
89.551510000002835
  0
ARC
  5
17FD3
  8
AM_0
 10
96.236566355361646
 20
280.45779144960699
 30
0.0
 40
0.9910124499999998
 50
269.47800000000427
 51
0.5219999999956863
  0
LINE
  5
17FD4
  8
AM_0
 10
93.227536355361551
 20
279.066801449607
 30
0.0
 11
93.227536355361551
 21
277.84683144960712
 31
0.0
  0
ARC
  5
17FD5
  8
AM_0
 10
92.219756355361525
 20
278.45901144960698
 30
0.0
 40
0.9922232599999995
 50
179.54914999999909
 51
270.45084500000189
  0
ARC
  5
17FD6
  8
AM_0
 10
92.236626355361565
 20
278.45773144960702
 30
0.0
 40
1.009131199999999
 50
90.516129999999578
 51
179.48387000000039
  0
LINE
  5
17FD7
  8
AM_0
 10
96.227536355361565
 20
277.46682144960698
 30
0.0
 11
92.227536355361565
 21
277.46682144960698
 31
0.0
  0
LINE
  5
17FD8
  8
AM_0
 10
96.227536355361565
 20
279.46682144960698
 30
0.0
 11
92.227536355361565
 21
279.46682144960698
 31
0.0
  0
ARC
  5
17FD9
  8
AM_0
 10
96.236566355361646
 20
290.4577914496071
 30
0.0
 40
0.9910124499999998
 50
269.47800000000427
 51
0.5219999999956863
  0
ARC
  5
17FDA
  8
AM_0
 10
96.219656355361565
 20
286.4589214496072
 30
0.0
 40
1.0079203999999991
 50
0.4484899999971561
 51
89.551510000002835
  0
LINE
  5
17FDB
  8
AM_0
 10
93.227536355361551
 20
289.08682144960699
 30
0.0
 11
93.227536355361551
 21
287.72680144960702
 31
0.0
  0
ARC
  5
17FDC
  8
AM_0
 10
92.236626355361565
 20
288.45773144960702
 30
0.0
 40
1.009131199999999
 50
90.516129999999578
 51
179.48387000000039
  0
LINE
  5
17FDD
  8
AM_0
 10
89.233636355361639
 20
281.45861144960702
 30
0.0
 11
89.733636355361654
 21
281.41860144960691
 31
0.0
  0
LINE
  5
17FDE
  8
AM_0
 10
89.727536355361565
 20
283.4668214496071
 30
0.0
 11
91.227536355361536
 21
283.5868214496071
 31
0.0
  0
ARC
  5
17FDF
  8
AM_0
 10
92.219756355361525
 20
288.45901144960698
 30
0.0
 40
0.9922232599999995
 50
179.54914999999909
 51
270.45084500000189
  0
LINE
  5
17FE0
  8
AM_0
 10
96.227536355361565
 20
287.46682144960698
 30
0.0
 11
92.227536355361565
 21
287.46682144960698
 31
0.0
  0
LINE
  5
17FE1
  8
AM_0
 10
96.227536355361565
 20
289.46682144960698
 30
0.0
 11
92.227536355361565
 21
289.46682144960698
 31
0.0
  0
ARC
  5
17FE2
  8
AM_0
 10
121.22753635536129
 20
278.46682144960693
 30
0.0
 40
1.000000699999998
 50
90.0
 51
269.99999700000228
  0
ARC
  5
17FE3
  8
AM_0
 10
121.22753635536129
 20
288.4668214496071
 30
0.0
 40
1.000000699999998
 50
90.0
 51
269.99999700000228
  0
LINE
  5
17FE4
  8
AM_0
 10
97.227536355361565
 20
306.14681144960713
 30
0.0
 11
107.22753635536149
 21
306.14681144960713
 31
0.0
  0
LINE
  5
17FE5
  8
AM_0
 10
97.227536355361565
 20
311.80682144960701
 30
0.0
 11
107.22753635536149
 21
311.80682144960701
 31
0.0
  0
ARC
  5
17FE6
  8
AM_0
 10
104.77874635536141
 20
298.4668214496071
 30
0.0
 40
1.0000386999999991
 50
89.495660000003156
 51
270.5043320000014
  0
LINE
  5
17FE7
  8
AM_0
 10
93.447536355361478
 20
299.14681144960701
 30
0.0
 11
96.527556355361384
 21
299.14681144960701
 31
0.0
  0
ARC
  5
17FE8
  8
AM_0
 10
96.221246355361316
 20
296.200491449607
 30
0.0
 40
1.0063294999999981
 50
0.3592499999959963
 51
89.640750000004005
  0
ARC
  5
17FE9
  8
AM_0
 10
93.440786355361467
 20
298.14059144960709
 30
0.0
 40
1.0062370999999981
 50
89.615240000004349
 51
113.00461999999921
  0
LINE
  5
17FEA
  8
AM_0
 10
93.227536355361551
 20
298.84683144960701
 30
0.0
 11
93.227536355361551
 21
297.78680144960703
 31
0.0
  0
LINE
  5
17FEB
  8
AM_0
 10
93.387536355361405
 20
297.20681144960702
 30
0.0
 11
96.227536355361565
 21
297.20681144960702
 31
0.0
  0
ARC
  5
17FEC
  8
AM_0
 10
93.370206355361518
 20
296.19183144960698
 30
0.0
 40
1.015145099999998
 50
89.021620000002997
 51
106.1676699999993
  0
ARC
  5
17FED
  8
AM_0
 10
92.227076355361575
 20
297.62212144960711
 30
0.0
 40
0.9995326999999996
 50
112.3150500000005
 51
179.73186999999979
  0
ARC
  5
17FEE
  8
AM_0
 10
92.231986355361485
 20
295.84347144960702
 30
0.0
 40
1.004450099999999
 50
106.4503500000035
 51
179.8098500000001
  0
LINE
  5
17FEF
  8
AM_0
 10
93.047546355361476
 20
299.066801449607
 30
0.0
 11
91.847556355361405
 21
298.54681144960699
 31
0.0
  0
LINE
  5
17FF0
  8
AM_0
 10
93.087516355361402
 20
297.16680144960702
 30
0.0
 11
91.947536355361592
 21
296.80679144960698
 31
0.0
  0
ARC
  5
17FF1
  8
AM_0
 10
103.90755635536151
 20
298.506801449607
 30
0.0
 40
1.6800001999999989
 50
90.0
 51
269.99999700000228
  0
ARC
  5
17FF2
  8
AM_0
 10
96.531976355361451
 20
299.84237144960701
 30
0.0
 40
0.69557893
 50
269.63466400000277
 51
0.3653399999994615
  0
LINE
  5
17FF3
  8
AM_0
 10
97.227536355361565
 20
297.76681144960702
 30
0.0
 11
102.3993072141716
 21
297.76681144960702
 31
0.0
  0
LINE
  5
17FF4
  8
AM_0
 10
93.467556355361396
 20
312.06681144960709
 30
0.0
 11
96.727536355361352
 21
312.06681144960709
 31
0.0
  0
LINE
  5
17FF5
  8
AM_0
 10
93.507536355361538
 20
311.10680144960708
 30
0.0
 11
97.227536355361565
 21
311.10680144960708
 31
0.0
  0
LINE
  5
17FF6
  8
AM_0
 10
93.507536355361538
 20
313.20681144960702
 30
0.0
 11
96.727536355361352
 21
313.20681144960702
 31
0.0
  0
ARC
  5
17FF7
  8
AM_0
 10
96.220486355361629
 20
308.95974144960701
 30
0.0
 40
1.0070831999999981
 50
0.4015799999984364
 51
89.598420000001553
  0
LINE
  5
17FF8
  8
AM_0
 10
93.527556355361455
 20
306.5868214496071
 30
0.0
 11
97.227536355361565
 21
306.5868214496071
 31
0.0
  0
ARC
  5
17FF9
  8
AM_0
 10
96.222136355361556
 20
304.44140144960687
 30
0.0
 40
1.005422699999998
 50
0.3081899999967546
 51
89.691810000003244
  0
ARC
  5
17FFA
  8
AM_0
 10
93.521056355361523
 20
310.09570144960702
 30
0.0
 40
1.0112084999999991
 50
90.765689999997619
 51
120.5188099999973
  0
ARC
  5
17FFB
  8
AM_0
 10
93.505126355361483
 20
311.06237144960699
 30
0.0
 40
1.005138299999998
 50
92.142290000000585
 51
118.3679400000013
  0
ARC
  5
17FFC
  8
AM_0
 10
93.518426355361441
 20
312.20506144960711
 30
0.0
 40
1.001807999999998
 50
90.622820000003856
 51
120.6616699999951
  0
LINE
  5
17FFD
  8
AM_0
 10
93.227536355361551
 20
312.946821449607
 30
0.0
 11
93.227536355361551
 21
312.42681144960687
 31
0.0
  0
LINE
  5
17FFE
  8
AM_0
 10
93.507536355361538
 20
305.44680144960699
 30
0.0
 11
96.227536355361565
 21
305.44680144960699
 31
0.0
  0
ARC
  5
17FFF
  8
AM_0
 10
93.519796355361407
 20
304.44015144960701
 30
0.0
 40
1.0067359999999981
 50
90.698060000001064
 51
120.5864300000015
  0
ARC
  5
18000
  8
AM_0
 10
93.533196355361554
 20
305.57650144960701
 30
0.0
 40
1.0103179999999981
 50
90.320140000001274
 51
122.68858000000139
  0
LINE
  5
18001
  8
AM_0
 10
93.227536355361551
 20
306.28680144960703
 30
0.0
 11
93.227536355361551
 21
305.80682144960701
 31
0.0
  0
LINE
  5
18002
  8
AM_0
 10
93.487546355361516
 20
309.96682144960698
 30
0.0
 11
96.227536355361565
 21
309.96682144960698
 31
0.0
  0
ARC
  5
18003
  8
AM_0
 10
93.485836355361513
 20
308.95361144960702
 30
0.0
 40
1.0131911999999981
 50
89.90372000000059
 51
118.1687600000007
  0
LINE
  5
18004
  8
AM_0
 10
93.227536355361551
 20
310.84683144960712
 30
0.0
 11
93.227536355361551
 21
310.30682144960701
 31
0.0
  0
ARC
  5
18005
  8
AM_0
 10
92.234706355361425
 20
311.47662144960702
 30
0.0
 40
1.007194199999998
 50
120.23341999999749
 51
180.55767999999989
  0
ARC
  5
18006
  8
AM_0
 10
92.232536355361447
 20
308.29580144960698
 30
0.0
 40
1.0050607999999981
 50
117.5588100000039
 51
179.371600000001
  0
ARC
  5
18007
  8
AM_0
 10
92.229276355361506
 20
304.72421144960703
 30
0.0
 40
1.0017338999999981
 50
122.7376299999965
 51
179.85046000000261
  0
ARC
  5
18008
  8
AM_0
 10
92.233086355361422
 20
303.69753144960691
 30
0.0
 40
1.005592899999999
 50
120.1813300000004
 51
179.47162000000111
  0
ARC
  5
18009
  8
AM_0
 10
92.2265263553615
 20
309.321371449607
 30
0.0
 40
0.9989832599999996
 50
119.9653600000032
 51
179.687610000001
  0
ARC
  5
1800A
  8
AM_0
 10
92.230586355361595
 20
310.42690144960699
 30
0.0
 40
1.003051899999998
 50
116.212650000002
 51
180.00576999999771
  0
LINE
  5
1800B
  8
AM_0
 10
93.007566355361462
 20
309.84683144960701
 30
0.0
 11
91.767546355361503
 21
309.18679144960709
 31
0.0
  0
LINE
  5
1800C
  8
AM_0
 10
93.007536355361296
 20
305.30682144960701
 30
0.0
 11
91.727536355361551
 21
304.56680144960688
 31
0.0
  0
LINE
  5
1800D
  8
AM_0
 10
92.987546355361388
 20
306.42678144960701
 30
0.0
 11
91.687526355361513
 21
305.56680144960711
 31
0.0
  0
LINE
  5
1800E
  8
AM_0
 10
93.027556355361213
 20
311.94682144960677
 30
0.0
 11
91.787566355361434
 21
311.326841449607
 31
0.0
  0
LINE
  5
1800F
  8
AM_0
 10
93.007536355361296
 20
310.966791449607
 30
0.0
 11
91.727566355361475
 21
310.18682144960701
 31
0.0
  0
LINE
  5
18010
  8
AM_0
 10
93.007536355361296
 20
313.06681144960697
 30
0.0
 11
91.727566355361475
 21
312.3468314496069
 31
0.0
  0
ARC
  5
18011
  8
AM_0
 10
96.721186355361425
 20
311.560451449607
 30
0.0
 40
0.50640076
 50
0.7197000000047436
 51
89.280300000001773
  0
LINE
  5
18012
  8
AM_0
 10
107.22753635536149
 20
302.9668214496071
 30
0.0
 11
107.22753635536149
 21
300.18682144960701
 31
0.0
  0
LINE
  5
18013
  8
AM_0
 10
107.22753635536149
 20
311.80682144960701
 30
0.0
 11
107.22753635536149
 21
300.19680144960699
 31
0.0
  0
ARC
  5
18014
  8
AM_0
 10
106.4111123547146
 20
305.058401449607
 30
0.0
 40
4.9987220999999984
 50
279.40005900000142
 51
354.5864364999963
  0
ARC
  5
18015
  8
AM_0
 10
121.22753635536129
 20
298.4668214496071
 30
0.0
 40
1.000000699999998
 50
90.0
 51
269.99999700000228
  0
ARC
  5
18016
  8
AM_0
 10
110.37776235471451
 20
304.66439144960702
 30
0.0
 40
1.0127640999999981
 50
355.60674720000208
 51
45.505339999999073
  0
ARC
  5
18017
  8
AM_0
 10
106.8669223547147
 20
301.10626144960708
 30
0.0
 40
6.0113901999999966
 50
45.404039999999092
 51
86.560849999999078
  0
ARC
  5
18018
  8
AM_0
 10
122.2354663553615
 20
327.37113144960699
 30
0.0
 40
1.9956942999999989
 50
90.227350000001564
 51
165.02512000000129
  0
ARC
  5
18019
  8
AM_0
 10
122.2350463553616
 20
326.699321449607
 30
0.0
 40
2.007501099999998
 50
90.213689999998905
 51
179.78630000000209
  0
ARC
  5
1801A
  8
AM_0
 10
122.2368763553615
 20
323.31748144960687
 30
0.0
 40
2.0093488999999991
 50
90.265960000000305
 51
179.73403999999971
  0
ARC
  5
1801B
  8
AM_0
 10
122.2326963553615
 20
325.34165144960701
 30
0.0
 40
2.0051612999999988
 50
90.147289999999714
 51
179.8527100000002
  0
ARC
  5
1801C
  8
AM_0
 10
105.4066463553616
 20
319.72224144960688
 30
0.0
 40
2.0045697999999992
 50
89.974040000003512
 51
167.77209000000329
  0
ARC
  5
1801D
  8
AM_0
 10
105.3738363553615
 20
323.12693144960679
 30
0.0
 40
1.9998908999999989
 50
90.180420000001433
 51
166.7056999999981
  0
ARC
  5
1801E
  8
AM_0
 10
105.3548263553614
 20
324.75948144960699
 30
0.0
 40
2.007332599999998
 50
90.207820000001149
 51
165.9499399999994
  0
ARC
  5
1801F
  8
AM_0
 10
105.4639563553614
 20
314.44026144960691
 30
0.0
 40
2.0065659999999981
 50
89.897530000004195
 51
170.05431999999911
  0
LINE
  5
18020
  8
AM_0
 10
103.40755635536129
 20
325.24679144960697
 30
0.0
 11
102.5275563553612
 21
321.70680144960693
 31
0.0
  0
ARC
  5
18021
  8
AM_0
 10
101.0773863553616
 20
322.08558144960688
 30
0.0
 40
1.4987989999999991
 50
269.62344200000302
 51
345.36186499999963
  0
LINE
  5
18022
  8
AM_0
 10
101.0675563553614
 20
320.58682144960699
 30
0.0
 11
102.7075463553615
 21
320.58682144960699
 31
0.0
  0
LINE
  5
18023
  8
AM_0
 10
103.4275463553615
 20
323.58682144960687
 30
0.0
 11
102.5075663553614
 21
319.70681144960702
 31
0.0
  0
LINE
  5
18024
  8
AM_0
 10
101.0475463553615
 20
318.54681144960688
 30
0.0
 11
103.1075363553615
 21
318.54681144960688
 31
0.0
  0
LINE
  5
18025
  8
AM_0
 10
97.227536355361565
 20
320.84454777969961
 30
0.0
 11
102.06752635536149
 21
320.94680144960711
 31
0.0
  0
ARC
  5
18026
  8
AM_0
 10
101.0187063553615
 20
315.98576144960703
 30
0.0
 40
1.498966199999999
 50
270.33846799999918
 51
348.49632400000007
  0
LINE
  5
18027
  8
AM_0
 10
101.0275563553614
 20
314.48681144960699
 30
0.0
 11
103.44753635536161
 21
314.48681144960699
 31
0.0
  0
LINE
  5
18028
  8
AM_0
 10
103.4475663553615
 20
320.14680144960698
 30
0.0
 11
102.4875463553614
 21
315.68681144960709
 31
0.0
  0
ARC
  5
18029
  8
AM_0
 10
101.04387635536141
 20
320.0502114496071
 30
0.0
 40
1.5034073999999991
 50
270.13958599999978
 51
346.79614399999542
  0
LINE
  5
1802A
  8
AM_0
 10
120.22753635536139
 20
325.346811449607
 30
0.0
 11
120.22753635536139
 21
317.946821449607
 31
0.0
  0
LINE
  5
1802B
  8
AM_0
 10
105.40755635536129
 20
321.72682144960697
 30
0.0
 11
118.72753635536149
 21
321.72682144960697
 31
0.0
  0
LINE
  5
1802C
  8
AM_0
 10
105.4675563553614
 20
316.446821449607
 30
0.0
 11
118.72753635536149
 21
316.446821449607
 31
0.0
  0
ARC
  5
1802D
  8
AM_0
 10
118.7348563553614
 20
317.93951144960698
 30
0.0
 40
1.4927157999999989
 50
269.71972099999988
 51
0.2802800000004945
  0
ARC
  5
1802E
  8
AM_0
 10
118.7336963553615
 20
323.22065144960698
 30
0.0
 40
1.4938501999999989
 50
269.76363900000212
 51
0.2363600000010309
  0
LINE
  5
1802F
  8
AM_0
 10
105.3475563553616
 20
326.76681144960691
 30
0.0
 11
118.8475563553615
 21
326.76681144960691
 31
0.0
  0
LINE
  5
18030
  8
AM_0
 10
105.3675463553615
 20
325.12681144960692
 30
0.0
 11
118.72753635536149
 21
325.12681144960692
 31
0.0
  0
ARC
  5
18031
  8
AM_0
 10
118.7316863553614
 20
326.62269144960698
 30
0.0
 40
1.4958794999999989
 50
269.84195400000209
 51
0.1580399999992005
  0
ARC
  5
18032
  8
AM_0
 10
118.85946635536131
 20
328.26287144960702
 30
0.0
 40
1.4961156999999989
 50
269.54349500000399
 51
345.44181399999883
  0
LINE
  5
18033
  8
AM_0
 10
284.2990707090492
 20
312.19557008770141
 30
0.0
 11
288.72753635536139
 21
312.19557008770119
 31
0.0
  0
ARC
  5
18034
  8
AM_0
 10
301.72753671298909
 20
315.46685299932813
 30
0.0
 40
12.000000357627879
 50
90.000002504475205
 51
180.00000500895689
  0
LINE
  5
18035
  8
AM_0
 10
266.22753635536139
 20
324.96684144960739
 30
0.0
 11
293.43595930392507
 21
324.96684144960687
 31
0.0
  0
LINE
  5
18036
  8
AM_0
 10
221.72753635536151
 20
296.83682144960699
 30
0.0
 11
206.72753635536151
 21
296.83682144960699
 31
0.0
  0
LINE
  5
18037
  8
AM_0
 10
237.0475463553615
 20
299.46682144960698
 30
0.0
 11
177.22753635536151
 21
299.46682144960698
 31
0.0
  0
LINE
  5
18038
  8
AM_0
 10
237.0475463553615
 20
297.46682144960698
 30
0.0
 11
177.22753635536151
 21
297.46682144960698
 31
0.0
  0
LINE
  5
18039
  8
AM_0
 10
177.22753635536151
 20
325.32681144960702
 30
0.0
 11
237.0475463553615
 21
325.32681144960702
 31
0.0
  0
LINE
  5
1803A
  8
AM_0
 10
177.22753635536151
 20
300.19680144960699
 30
0.0
 11
237.0475463553615
 21
300.19680144960699
 31
0.0
  0
LINE
  5
1803B
  8
AM_0
 10
205.72753635536151
 20
296.83682144960699
 30
0.0
 11
177.22753635536151
 21
296.83682144960699
 31
0.0
  0
ARC
  5
1803C
  8
AM_0
 10
175.89757302507729
 20
278.47689144960691
 30
0.0
 40
1.330000999999998
 50
270.0
 51
89.999997000002296
  0
ARC
  5
1803D
  8
AM_0
 10
174.67628302507711
 20
278.466881449607
 30
0.0
 40
1.000037999999998
 50
269.50071000000491
 51
90.499283999999861
  0
ARC
  5
1803E
  8
AM_0
 10
174.67628302507711
 20
288.46682141901192
 30
0.0
 40
1.000037999999998
 50
269.50071000000491
 51
90.499283999999861
  0
CIRCLE
  5
1803F
  8
AM_0
 10
216.72753635536139
 20
291.96685144960679
 30
0.0
 40
0.75
  0
CIRCLE
  5
18040
  8
AM_0
 10
211.72753635536151
 20
291.96685144960679
 30
0.0
 40
0.75
  0
LINE
  5
18041
  8
AM_0
 10
206.72753635536151
 20
290.46682144960698
 30
0.0
 11
206.72753635536151
 21
295.83682144960699
 31
0.0
  0
ARC
  5
18042
  8
AM_0
 10
205.72753635536151
 20
290.46682144960698
 30
0.0
 40
0.9999999999999998
 50
270.0
 51
0.0
1001
GENIUS_GENOBJ-N-FIL_13
1002
{
1000
OWNER
1000
GEN
1002
}
1001
GENIUS_GENODEF_13
1002
{
1000
HIER
1070
     0
1002
}
1002
{
1000
MANEDIT
1070
     0
1002
}
1002
{
1000
NOSEL
1070
     0
1002
}
1002
{
1000
BEHIND
1070
     0
1002
}
1002
{
1000
OTHER
1070
     0
1002
}
1002
{
1000
REACTOR
1002
}
  0
ARC
  5
18043
  8
AM_0
 10
205.72753635536151
 20
295.83682144960699
 30
0.0
 40
0.9999999999999998
 50
0.0
 51
90.0
1001
GENIUS_GENOBJ-N-FIL_13
1002
{
1000
OWNER
1000
GEN
1002
}
1001
GENIUS_GENODEF_13
1002
{
1000
HIER
1070
     0
1002
}
1002
{
1000
MANEDIT
1070
     0
1002
}
1002
{
1000
NOSEL
1070
     0
1002
}
1002
{
1000
BEHIND
1070
     0
1002
}
1002
{
1000
OTHER
1070
     0
1002
}
1002
{
1000
REACTOR
1002
}
  0
LINE
  5
18044
  8
AM_0
 10
242.22753635536151
 20
306.32681144960719
 30
0.0
 11
242.22753635536151
 21
313.92681144960699
 31
0.0
  0
LINE
  5
18045
  8
AM_0
 10
243.22753635536139
 20
306.32681144960719
 30
0.0
 11
243.22753635536139
 21
313.92681144960699
 31
0.0
  0
ARC
  5
18046
  8
AM_0
 10
241.3275363553615
 20
311.92681144960699
 30
0.0
 40
1.7000007999999991
 50
90.000020000002024
 51
179.999989999999
  0
LINE
  5
18047
  8
AM_0
 10
252.22753635536159
 20
300.60683144960723
 30
0.0
 11
262.22753635536151
 21
300.60683144960723
 31
0.0
  0
LINE
  5
18048
  8
AM_0
 10
221.72753635536151
 20
290.46682144960698
 30
0.0
 11
221.72753635536151
 21
295.83682144960699
 31
0.0
  0
LINE
  5
18049
  8
AM_0
 10
221.86736788354901
 20
289.95681144960707
 30
0.0
 11
241.22604774975039
 21
289.95681144960707
 31
0.0
  0
LINE
  5
1804A
  8
AM_0
 10
240.15232244188681
 20
289.46682144960698
 30
0.0
 11
222.72753635536139
 21
289.46682144960698
 31
0.0
  0
ARC
  5
1804B
  8
AM_0
 10
222.72753635536139
 20
290.46682144960698
 30
0.0
 40
0.9999999999999998
 50
180.0
 51
270.0
1001
GENIUS_GENOBJ-N-FIL_13
1002
{
1000
OWNER
1000
GEN
1002
}
1001
GENIUS_GENODEF_13
1002
{
1000
HIER
1070
     0
1002
}
1002
{
1000
MANEDIT
1070
     0
1002
}
1002
{
1000
NOSEL
1070
     0
1002
}
1002
{
1000
BEHIND
1070
     0
1002
}
1002
{
1000
OTHER
1070
     0
1002
}
1002
{
1000
REACTOR
1002
}
  0
ARC
  5
1804C
  8
AM_0
 10
240.1523223895268
 20
288.466881449607
 30
0.0
 40
1.0000031999999981
 50
270.0
 51
89.999997000002296
  0
ARC
  5
1804D
  8
AM_0
 10
241.24232238952669
 20
288.49190144960698
 30
0.0
 40
1.465000399999999
 50
270.0
 51
89.999997000002296
  0
LINE
  5
1804E
  8
AM_0
 10
237.0475463553615
 20
309.80682144960713
 30
0.0
 11
239.62755635536149
 21
309.80682144960713
 31
0.0
  0
ARC
  5
1804F
  8
AM_0
 10
237.56755635536149
 20
298.4668214496071
 30
0.0
 40
1.0000073999999981
 50
269.99999700000228
 51
90.0
  0
LINE
  5
18050
  8
AM_0
 10
241.0475463553615
 20
296.83682144960699
 30
0.0
 11
237.0475463553615
 21
296.83682144960699
 31
0.0
  0
LINE
  5
18051
  8
AM_0
 10
237.0475463553615
 20
300.19680144960699
 30
0.0
 11
243.227536153621
 21
300.19680144960699
 31
0.0
  0
LINE
  5
18052
  8
AM_0
 10
237.0475463553615
 20
296.83682144960699
 30
0.0
 11
222.72753635536139
 21
296.83682144960699
 31
0.0
  0
ARC
  5
18053
  8
AM_0
 10
222.72753635536139
 20
295.83682144960699
 30
0.0
 40
0.9999999999999998
 50
90.0
 51
180.0
1001
GENIUS_GENOBJ-N-FIL_13
1002
{
1000
OWNER
1000
GEN
1002
}
1001
GENIUS_GENODEF_13
1002
{
1000
HIER
1070
     0
1002
}
1002
{
1000
MANEDIT
1070
     0
1002
}
1002
{
1000
NOSEL
1070
     0
1002
}
1002
{
1000
BEHIND
1070
     0
1002
}
1002
{
1000
OTHER
1070
     0
1002
}
1002
{
1000
REACTOR
1002
}
  0
LINE
  5
18054
  8
AM_0
 10
237.56755635536149
 20
299.46682144960698
 30
0.0
 11
237.0475463553615
 21
299.46682144960698
 31
0.0
  0
LINE
  5
18055
  8
AM_0
 10
237.56755635536149
 20
297.46682144960698
 30
0.0
 11
237.0475463553615
 21
297.46682144960698
 31
0.0
  0
LINE
  5
18056
  8
AM_0
 10
244.22753635536151
 20
300.60680144960702
 30
0.0
 11
252.22753635536151
 21
300.60680144960702
 31
0.0
  0
ARC
  5
18057
  8
AM_0
 10
241.0414363553615
 20
298.51681144960719
 30
0.0
 40
1.680010999999999
 50
270.20803099999961
 51
89.791970000001896
  0
LINE
  5
18058
  8
AM_0
 10
242.22753635536151
 20
306.32681144960719
 30
0.0
 11
243.22753635536139
 21
306.32681144960719
 31
0.0
  0
LINE
  5
18059
  8
AM_0
 10
243.22753635536139
 20
309.34945144960699
 30
0.0
 11
242.22753635536151
 21
309.92678144960689
 31
0.0
  0
ARC
  5
1805A
  8
AM_0
 10
243.88839635536141
 20
311.29360144960702
 30
0.0
 40
1.4868058999999989
 50
194.28273999999931
 51
243.61022000000091
  0
LINE
  5
1805B
  8
AM_0
 10
243.22753635536139
 20
310.34945144960699
 30
0.0
 11
242.22753635536151
 21
310.92681144960699
 31
0.0
  0
ARC
  5
1805C
  8
AM_0
 10
241.3275363553615
 20
308.32681144960702
 30
0.0
 40
1.699996899999999
 50
180.00001999999549
 51
269.99999700000228
  0
LINE
  5
1805D
  8
AM_0
 10
239.62755635536149
 20
308.32681144960702
 30
0.0
 11
239.62755635536149
 21
311.92681144960699
 31
0.0
  0
LINE
  5
1805E
  8
AM_0
 10
242.22753635536151
 20
306.62682144960712
 30
0.0
 11
241.3275363553615
 21
306.62682144960712
 31
0.0
  0
ARC
  5
1805F
  8
AM_0
 10
284.2990707090492
 20
309.19557008770141
 30
0.0
 40
2.9999999999999978
 50
90.0
 51
173.3392856796832
1001
GENIUS_GENODEF_13
1002
{
1000
HIER
1070
     0
1002
}
1002
{
1000
MANEDIT
1070
     0
1002
}
1002
{
1000
NOSEL
1070
     0
1002
}
1002
{
1000
BEHIND
1070
     0
1002
}
1002
{
1000
OTHER
1070
     0
1002
}
1002
{
1000
REACTOR
1002
}
1001
GENIUS_GENOBJ-N-FIL_13
1002
{
1000
OWNER
1000
GEN
1002
}
  0
LINE
  5
18060
  8
AM_0
 10
252.22753635536159
 20
315.50684144960729
 30
0.0
 11
262.22753635536151
 21
315.50684144960729
 31
0.0
  0
LINE
  5
18061
  8
AM_0
 10
252.22753635536151
 20
327.46684144960739
 30
0.0
 11
261.354139182957
 21
327.46684144960739
 31
0.0
  0
ARC
  5
18062
  8
AM_0
 10
237.0378963553614
 20
327.34982144960679
 30
0.0
 40
2.0170177999999992
 50
14.85160000000471
 51
89.726299999997252
  0
ARC
  5
18063
  8
AM_0
 10
237.0378963553614
 20
326.689821449607
 30
0.0
 40
2.0170177999999992
 50
14.85160000000471
 51
89.726299999997252
  0
ARC
  5
18064
  8
AM_0
 10
237.0378963553614
 20
323.30982144960677
 30
0.0
 40
2.0170177999999992
 50
14.85160000000471
 51
89.726299999997252
  0
ARC
  5
18065
  8
AM_0
 10
237.0378963553614
 20
325.32982144960692
 30
0.0
 40
2.0170177999999992
 50
14.85160000000471
 51
89.726299999997252
  0
LINE
  5
18066
  8
AM_0
 10
238.9875463553615
 20
327.8668214496069
 30
0.0
 11
240.54269881457009
 21
322.06870130093841
 31
0.0
  0
LINE
  5
18067
  8
AM_0
 10
238.9875463553615
 20
327.20682144960688
 30
0.0
 11
240.91284049673681
 21
320.02869130093842
 31
0.0
  0
LINE
  5
18068
  8
AM_0
 10
238.9875463553615
 20
325.84682144960692
 30
0.0
 11
241.63702549673681
 21
315.96869130093847
 31
0.0
  0
LINE
  5
18069
  8
AM_0
 10
244.22753635536151
 20
315.50681144960703
 30
0.0
 11
252.22753635536151
 21
315.50681144960703
 31
0.0
  0
ARC
  5
1806A
  8
AM_0
 10
242.4744212355053
 20
322.58682144960699
 30
0.0
 40
2.0
 50
195.0142975984233
 51
270.0
1001
GENIUS_GENOBJ-N-FIL_13
1002
{
1000
OWNER
1000
GEN
1002
}
1001
GENIUS_GENODEF_13
1002
{
1000
HIER
1070
     0
1002
}
1002
{
1000
MANEDIT
1070
     0
1002
}
1002
{
1000
NOSEL
1070
     0
1002
}
1002
{
1000
BEHIND
1070
     0
1002
}
1002
{
1000
OTHER
1070
     0
1002
}
1002
{
1000
REACTOR
1002
}
  0
LINE
  5
1806B
  8
AM_0
 10
240.94553070419479
 20
318.54681144960688
 30
0.0
 11
242.84456291767199
 21
318.54681144960688
 31
0.0
  0
LINE
  5
1806C
  8
AM_0
 10
240.76314068869479
 20
320.58682144960699
 30
0.0
 11
242.4744212355053
 21
320.58682144960699
 31
0.0
  0
LINE
  5
1806D
  8
AM_0
 10
240.03359403752819
 20
323.96681144960689
 30
0.0
 11
243.22753610430109
 21
323.96681144960689
 31
0.0
  0
ARC
  5
1806E
  8
AM_0
 10
244.23595635536151
 20
314.49841144960698
 30
0.0
 40
1.008444499999998
 50
90.477799999999576
 51
170.45392999999629
  0
LINE
  5
1806F
  8
AM_0
 10
242.22753635536151
 20
313.92681144960699
 30
0.0
 11
243.22753635536139
 21
313.92681144960699
 31
0.0
  0
ARC
  5
18070
  8
AM_0
 10
243.56874791767211
 20
316.48681144960699
 30
0.0
 40
2.0
 50
195.0142975984233
 51
260.1769509602783
1001
GENIUS_GENOBJ-N-FIL_13
1002
{
1000
OWNER
1000
GEN
1002
}
1001
GENIUS_GENODEF_13
1002
{
1000
HIER
1070
     0
1002
}
1002
{
1000
MANEDIT
1070
     0
1002
}
1002
{
1000
NOSEL
1070
     0
1002
}
1002
{
1000
BEHIND
1070
     0
1002
}
1002
{
1000
OTHER
1070
     0
1002
}
1002
{
1000
REACTOR
1002
}
  0
LINE
  5
18071
  8
AM_0
 10
241.49269270419481
 20
314.48681144960699
 30
0.0
 11
243.22753612397099
 21
314.4868114496071
 31
0.0
  0
LINE
  5
18072
  8
AM_0
 10
242.22753635536151
 20
313.62681144960698
 30
0.0
 11
241.3275363553615
 21
313.62681144960698
 31
0.0
  0
ARC
  5
18073
  8
AM_0
 10
242.84456291767199
 20
320.54681144960688
 30
0.0
 40
2.0
 50
195.0142975984233
 51
270.0
1001
GENIUS_GENODEF_13
1002
{
1000
HIER
1070
     0
1002
}
1002
{
1000
MANEDIT
1070
     0
1002
}
1002
{
1000
NOSEL
1070
     0
1002
}
1002
{
1000
BEHIND
1070
     0
1002
}
1002
{
1000
OTHER
1070
     0
1002
}
1002
{
1000
REACTOR
1002
}
1001
GENIUS_GENOBJ-N-FIL_13
1002
{
1000
OWNER
1000
GEN
1002
}
  0
LINE
  5
18074
  8
AM_0
 10
238.9875463553615
 20
323.82682144960688
 30
0.0
 11
241.7233563553614
 21
313.62682144960701
 31
0.0
  0
LINE
  5
18075
  8
AM_0
 10
244.22753635536151
 20
327.46681144960701
 30
0.0
 11
252.22753635536151
 21
327.46681144960701
 31
0.0
  0
ARC
  5
18076
  8
AM_0
 10
244.23662635536149
 20
326.45773144960702
 30
0.0
 40
1.009131199999999
 50
90.516129999999578
 51
179.48387000000039
  0
ARC
  5
18077
  8
AM_0
 10
261.354139182957
 20
324.46684144960739
 30
0.0
 40
2.9999999999999978
 50
35.68533471265463
 51
90.0
1001
GENIUS_GENOBJ-N-FIL_13
1002
{
1000
OWNER
1000
GEN
1002
}
1001
GENIUS_GENODEF_13
1002
{
1000
HIER
1070
     0
1002
}
1002
{
1000
MANEDIT
1070
     0
1002
}
1002
{
1000
NOSEL
1070
     0
1002
}
1002
{
1000
BEHIND
1070
     0
1002
}
1002
{
1000
OTHER
1070
     0
1002
}
1002
{
1000
REACTOR
1002
}
  0
ARC
  5
18078
  8
AM_0
 10
266.22753635536139
 20
327.96684144960727
 30
0.0
 40
2.9999999999999978
 50
215.68533471265459
 51
270.0
1001
GENIUS_GENOBJ-N-FIL_13
1002
{
1000
OWNER
1000
GEN
1002
}
1001
GENIUS_GENODEF_13
1002
{
1000
HIER
1070
     0
1002
}
1002
{
1000
MANEDIT
1070
     0
1002
}
1002
{
1000
NOSEL
1070
     0
1002
}
1002
{
1000
BEHIND
1070
     0
1002
}
1002
{
1000
OTHER
1070
     0
1002
}
1002
{
1000
REACTOR
1002
}
  0
LINE
  5
1807B
  8
AM_0
 10
318.6980994509305
 20
321.46685317814178
 30
0.0
 11
398.72757012139391
 21
321.46685317814178
 31
0.0
  0
LINE
  5
1807C
  8
ﾁｭｳｼﾝｾﾝ1
 10
301.72753671298909
 20
323.96685325264758
 30
0.0
 11
301.72753671298909
 21
306.96685274600839
 31
0.0
  0
CIRCLE
  5
1807D
  8
AM_0
 10
301.72753671298909
 20
315.46685299932813
 30
0.0
 40
5.5000001639127731
  0
ARC
  5
1807E
  8
AM_0
 10
301.72753671298909
 20
315.46685299932813
 30
0.0
 40
12.0
 50
266.62771271285618
 51
3.3722872871438159
  0
ARC
  5
1807F
  8
AM_0
 10
300.72753653417539
 20
298.49629026138672
 30
0.0
 40
5.0
 50
86.627712712856194
 51
180.0
1001
GENIUS_GENOBJ-N-FIL_13
1002
{
1000
OWNER
1000
GEN
1002
}
1001
GENIUS_GENODEF_13
1002
{
1000
HIER
1070
     0
1002
}
1002
{
1000
MANEDIT
1070
     0
1002
}
1002
{
1000
NOSEL
1070
     0
1002
}
1002
{
1000
BEHIND
1070
     0
1002
}
1002
{
1000
OTHER
1070
     0
1002
}
1002
{
1000
REACTOR
1002
}
  0
LINE
  5
18080
  8
ﾁｭｳｼﾝｾﾝ1
 10
293.22753645966952
 20
315.46685299932813
 30
0.0
 11
310.22756748388821
 21
315.46685299932813
 31
0.0
  0
ARC
  5
18081
  8
AM_0
 10
293.43595930392507
 20
327.96684144960687
 30
0.0
 40
2.9999999999999978
 50
270.0
 51
303.55737886317002
1001
GENIUS_GENOBJ-N-FIL_13
1002
{
1000
OWNER
1000
GEN
1002
}
1001
GENIUS_GENODEF_13
1002
{
1000
HIER
1070
     0
1002
}
1002
{
1000
MANEDIT
1070
     0
1002
}
1002
{
1000
NOSEL
1070
     0
1002
}
1002
{
1000
BEHIND
1070
     0
1002
}
1002
{
1000
OTHER
1070
     0
1002
}
1002
{
1000
REACTOR
1002
}
  0
ARC
  5
18082
  8
AM_0
 10
318.6980994509305
 20
316.46685317814178
 30
0.0
 40
5.0
 50
90.0
 51
183.37228728714379
1001
GENIUS_GENOBJ-N-FIL_13
1002
{
1000
OWNER
1000
GEN
1002
}
1001
GENIUS_GENODEF_13
1002
{
1000
HIER
1070
     0
1002
}
1002
{
1000
MANEDIT
1070
     0
1002
}
1002
{
1000
NOSEL
1070
     0
1002
}
1002
{
1000
BEHIND
1070
     0
1002
}
1002
{
1000
OTHER
1070
     0
1002
}
1002
{
1000
REACTOR
1002
}
  0
LINE
  5
18089
  8
AM_0
 10
461.72757199893988
 20
315.46685299932813
 30
0.0
 11
461.72757199893988
 21
211.46684989988631
 31
0.0
  0
LINE
  5
1808A
  8
AM_0
 10
455.72757182012589
 20
298.49629026138678
 30
0.0
 11
455.72757182012589
 21
228.43741263782769
 31
0.0
  0
ARC
  5
1808D
  8
AM_0
 10
450.72757182012612
 20
228.43741263782769
 30
0.0
 40
5.0
 50
266.62771271285618
 51
0.0
1001
GENIUS_GENODEF_13
1002
{
1000
HIER
1070
     0
1002
}
1002
{
1000
MANEDIT
1070
     0
1002
}
1002
{
1000
NOSEL
1070
     0
1002
}
1002
{
1000
BEHIND
1070
     0
1002
}
1002
{
1000
OTHER
1070
     0
1002
}
1002
{
1000
REACTOR
1002
}
1001
GENIUS_GENOBJ-N-FIL_13
1002
{
1000
OWNER
1000
GEN
1002
}
  0
ARC
  5
1808E
  8
AM_0
 10
449.72757164131178
 20
211.46684989988631
 30
0.0
 40
12.000000357627879
 50
269.99999749551819
 51
0.0
  0
LINE
  5
1808F
  8
ﾁｭｳｼﾝｾﾝ1
 10
441.2275713879921
 20
211.46684989988631
 30
0.0
 11
458.22757189463181
 21
211.46684989988631
 31
0.0
  0
CIRCLE
  5
18090
  8
AM_0
 10
449.72757164131178
 20
211.46684989988631
 30
0.0
 40
5.5000001639127731
  0
ARC
  5
18091
  8
AM_0
 10
432.75700890337049
 20
210.46684972107269
 30
0.0
 40
5.0
 50
270.0
 51
3.3722872871438159
1001
GENIUS_GENODEF_13
1002
{
1000
HIER
1070
     0
1002
}
1002
{
1000
MANEDIT
1070
     0
1002
}
1002
{
1000
NOSEL
1070
     0
1002
}
1002
{
1000
BEHIND
1070
     0
1002
}
1002
{
1000
OTHER
1070
     0
1002
}
1002
{
1000
REACTOR
1002
}
1001
GENIUS_GENOBJ-N-FIL_13
1002
{
1000
OWNER
1000
GEN
1002
}
  0
LINE
  5
18092
  8
ﾁｭｳｼﾝｾﾝ1
 10
449.72757164131178
 20
219.9668501532062
 30
0.0
 11
449.72757164131178
 21
202.96684964656691
 31
0.0
  0
ARC
  5
18093
  8
AM_0
 10
449.72757164131178
 20
211.46684989988631
 30
0.0
 40
12.0
 50
86.627712712856194
 51
183.37228728714379
  0
LINE
  5
18096
  8
ﾁｭｳｼﾝｾﾝ1
 10
449.72757164131178
 20
323.96685325264758
 30
0.0
 11
449.72757164131178
 21
306.96685274600839
 31
0.0
  0
CIRCLE
  5
18097
  8
AM_0
 10
449.72757164131178
 20
315.46685299932813
 30
0.0
 40
5.5000001639127731
  0
ARC
  5
18098
  8
AM_0
 10
449.72757164131178
 20
315.46685299932813
 30
0.0
 40
12.0
 50
176.62771271285609
 51
273.37228728714382
  0
ARC
  5
18099
  8
AM_0
 10
450.72757182012612
 20
298.49629026138678
 30
0.0
 40
5.0
 50
0.0
 51
93.37228728714382
1001
GENIUS_GENODEF_13
1002
{
1000
HIER
1070
     0
1002
}
1002
{
1000
MANEDIT
1070
     0
1002
}
1002
{
1000
NOSEL
1070
     0
1002
}
1002
{
1000
BEHIND
1070
     0
1002
}
1002
{
1000
OTHER
1070
     0
1002
}
1002
{
1000
REACTOR
1002
}
1001
GENIUS_GENOBJ-N-FIL_13
1002
{
1000
OWNER
1000
GEN
1002
}
  0
ARC
  5
1809A
  8
AM_0
 10
449.72757164131178
 20
315.46685299932813
 30
0.0
 40
12.00000035762787
 50
0.0
 51
90.000002504475205
  0
LINE
  5
1809B
  8
ﾁｭｳｼﾝｾﾝ1
 10
441.2275713879921
 20
315.46685299932813
 30
0.0
 11
458.22757189463181
 21
315.46685299932813
 31
0.0
  0
ARC
  5
1809C
  8
AM_0
 10
432.75700890337049
 20
316.466853178142
 30
0.0
 40
5.0
 50
356.62771271285618
 51
90.0
1001
GENIUS_GENOBJ-N-FIL_13
1002
{
1000
OWNER
1000
GEN
1002
}
1001
GENIUS_GENODEF_13
1002
{
1000
HIER
1070
     0
1002
}
1002
{
1000
MANEDIT
1070
     0
1002
}
1002
{
1000
NOSEL
1070
     0
1002
}
1002
{
1000
BEHIND
1070
     0
1002
}
1002
{
1000
OTHER
1070
     0
1002
}
1002
{
1000
REACTOR
1002
}
  0
INSERT
  5
1809D
  8
AM_0
  2
NEW_BLOCK
 10
738.25778769087356
 20
263.4668514496073
 30
0.0
 41
1.1111111111110841
 42
1.1111111111110841
 43
1.1111111111110841
  0
ARC
  5
1809E
  8
AM_0
 10
689.27469623055958
 20
263.45685144960731
 30
0.0
 40
64.003665999999996
 50
325.87476838391399
 51
34.125231616086019
  0
LINE
  5
1809F
  8
AM_0
 10
742.2577954394776
 20
225.96685033202019
 30
0.0
 11
742.2577954394776
 21
300.96685256719439
 31
0.0
  0
LINE
  5
180A0
  8
AM_0
 10
640.25777714085132
 20
200.8283608133035
 30
0.0
 11
640.25777714085132
 21
326.1053726034898
 31
0.0
  0
LINE
  5
180A1
  8
AM_0
 10
718.25778709482711
 20
199.4668495422587
 30
0.0
 11
718.25778709482711
 21
327.46685335695588
 31
0.0
  0
LINE
  5
180A2
  8
ﾁｭｳｼﾝｾﾝ1
 10
689.25778623055999
 20
157.2168514496073
 30
0.0
 11
689.25778623055999
 21
333.71685166217281
 31
0.0
  0
LINE
  5
180A3
  8
AM_0
 10
636.2577846510369
 20
225.96685033202019
 30
0.0
 11
636.2577846510369
 21
300.96685256719439
 31
0.0
  0
LINE
  5
180A4
  8
AM_0
 10
738.25778769087356
 20
199.8159401288342
 30
0.0
 11
738.25778769087356
 21
327.1177627703803
 31
0.0
  0
ARC
  5
180A7
  8
AM_0
 10
689.27469623055958
 20
263.45685144960731
 30
0.0
 40
64.014987999999974
 50
145.9137920481208
 51
160.916775465418
  0
ARC
  5
180AB
  8
AM_0
 10
689.2311762305601
 20
263.4643614496074
 30
0.0
 40
63.989566999999987
 50
270.02382639558652
 51
276.22718035921889
  0
LINE
  5
180AC
  8
AM_0
 10
719.75778623055999
 20
184.9668514496073
 30
0.0
 11
658.75778623055976
 21
184.9668514496073
 31
0.0
  0
LINE
  5
180AD
  8
AM_0
 10
720.75778623055987
 20
191.4668514496073
 30
0.0
 11
657.75778623055965
 21
191.4668514496073
 31
0.0
  0
LINE
  5
180AE
  8
AM_0
 10
659.25778623055976
 20
193.4668514496073
 30
0.0
 11
719.29776623055955
 21
193.4668514496073
 31
0.0
  0
LINE
  5
180AF
  8
AM_0
 10
722.75778623055965
 20
188.4668514496073
 30
0.0
 11
655.75778623055976
 21
188.4668514496073
 31
0.0
  0
LINE
  5
180B0
  8
AM_0
 10
718.25778623055976
 20
166.46685144960739
 30
0.0
 11
660.25778623055965
 21
166.46685144960739
 31
0.0
  0
LINE
  5
180B1
  8
AM_0
 10
718.25778709482711
 20
199.4668495422587
 30
0.0
 11
640.25777714085132
 21
200.8283608133035
 31
0.0
  0
LINE
  5
180B2
  8
AM_0
 10
707.05777623055997
 20
163.4668514496073
 30
0.0
 11
671.44778623055981
 21
163.4668514496073
 31
0.0
  0
LINE
  5
180B3
  8
AM_0
 10
680.07436662364626
 20
200.13334596216851
 30
0.0
 11
696.17218571090916
 21
199.85235729755141
 31
0.0
  0
LINE
  5
180B4
  8
ﾁｭｳｼﾝｾﾝ1
 10
636.5077809555487
 20
211.46684989988631
 30
0.0
 11
742.00779150557128
 21
211.4668498998864
 31
0.0
  0
LINE
  5
180B5
  8
ｶｸﾚｾﾝ2
 10
640.25778477024608
 20
216.9668500637994
 30
0.0
 11
738.25779532026854
 21
216.9668500637994
 31
0.0
  0
LINE
  5
180B6
  8
ｶｸﾚｾﾝ2
 10
640.25778477024608
 20
205.9668497359738
 30
0.0
 11
738.25779532026854
 21
205.9668497359738
 31
0.0
  0
LINE
  5
180B7
  8
ﾁｭｳｼﾝｾﾝ1
 10
571.85844996075139
 20
263.46685144960742
 30
0.0
 11
759.52836144935452
 21
263.4668514496073
 31
0.0
  0
LINE
  5
180B8
  8
AM_0
 10
655.75778623055976
 20
188.4668514496073
 30
0.0
 11
655.75778623055976
 21
173.4668514496073
 31
0.0
  0
LINE
  5
180B9
  8
AM_0
 10
657.75778623055965
 20
173.4668514496073
 30
0.0
 11
657.75778623055965
 21
191.4668514496073
 31
0.0
  0
LINE
  5
180BA
  8
AM_0
 10
659.25778623055976
 20
167.4668514496073
 30
0.0
 11
659.25778623055976
 21
184.9668514496073
 31
0.0
  0
LINE
  5
180BB
  8
AM_0
 10
657.75778623055965
 20
173.4668514496073
 30
0.0
 11
655.75778623055976
 21
173.4668514496073
 31
0.0
  0
ARC
  5
180BC
  8
AM_0
 10
658.75778623055976
 20
173.4668514496073
 30
0.0
 40
0.9999999999999998
 50
180.00000299999761
 51
270.000010000001
  0
ARC
  5
180BD
  8
AM_0
 10
660.25778623055965
 20
167.4668514496073
 30
0.0
 40
0.9999999999999998
 50
180.00000299999761
 51
270.000010000001
  0
LINE
  5
180BE
  8
AM_0
 10
666.25778623055965
 20
166.46685144960739
 30
0.0
 11
671.44778623055981
 21
163.4668514496073
 31
0.0
  0
LINE
  5
180BF
  8
AM_0
 10
659.25778623055976
 20
172.4668514496073
 30
0.0
 11
658.75778623055976
 21
172.4668514496073
 31
0.0
  0
ARC
  5
180C2
  8
AM_0
 10
657.08899623056004
 20
197.54450144960731
 30
0.0
 40
2.0097484999999988
 50
1.777909999998595
 51
157.09034600000129
  0
ARC
  5
180C3
  8
AM_0
 10
654.25790623055968
 20
198.57408144960741
 30
0.0
 40
1.000226099999999
 50
179.2686670000009
 51
358.43981999999932
  0
LINE
  5
180C4
  8
AM_0
 10
653.18458657738245
 20
200.6027091315575
 30
0.0
 11
653.25778623055999
 21
198.54684144960731
 31
0.0
  0
LINE
  5
180C5
  8
AM_0
 10
655.31718038282247
 20
200.56548454341211
 30
0.0
 11
655.23779623055975
 21
198.32685144960729
 31
0.0
  0
ARC
  5
180C6
  8
AM_0
 10
642.76834623055981
 20
216.9773994496073
 30
0.0
 40
5.010561899999999
 50
180.12064999999691
 51
239.93027090092261
  0
ARC
  5
180C7
  8
AM_0
 10
634.75779623055973
 20
224.48357559255189
 30
0.0
 40
2.9999999999999978
 50
0.0
 51
29.631860164016871
1001
GENIUS_GENOBJ-N-FIL_13
1002
{
1000
OWNER
1000
GEN
1002
}
1001
GENIUS_GENODEF_13
1002
{
1000
HIER
1070
     0
1002
}
1002
{
1000
MANEDIT
1070
     0
1002
}
1002
{
1000
NOSEL
1070
     0
1002
}
1002
{
1000
BEHIND
1070
     0
1002
}
1002
{
1000
OTHER
1070
     0
1002
}
1002
{
1000
REACTOR
1002
}
  0
LINE
  5
180C8
  8
AM_0
 10
636.2577846510369
 20
225.96685033202019
 30
0.0
 11
640.25778477024608
 21
225.96685033202019
 31
0.0
  0
LINE
  5
180C9
  8
AM_0
 10
637.75779623055973
 20
216.96684844960731
 30
0.0
 11
637.75779623055973
 21
224.48357559255169
 31
0.0
  0
LINE
  5
180CA
  8
AM_0
 10
659.01610541174159
 20
200.5009195238427
 30
0.0
 11
659.25778774218793
 21
191.46685144960739
 31
0.0
  0
ARC
  5
180CB
  8
AM_0
 10
658.75778623055976
 20
185.9668514496073
 30
0.0
 40
0.9999999999999998
 50
180.00000299999761
 51
270.000010000001
  0
ARC
  5
180CC
  8
AM_0
 10
689.2311762305601
 20
263.4643614496074
 30
0.0
 40
63.989566999999987
 50
261.77281830828679
 51
270.02382639558652
  0
ARC
  5
180CE
  8
AM_0
 10
626.38696623055989
 20
238.46743644960739
 30
0.0
 40
1.000625599999998
 50
92.817069999998395
 51
269.4744600000011
  0
ARC
  5
180CF
  8
AM_0
 10
628.86131623055974
 20
238.45728144960739
 30
0.0
 40
1.090437399999999
 50
92.287669999999167
 51
269.814680000002
  0
LINE
  5
180D0
  8
AM_0
 10
627.75779623055973
 20
238.4668484496074
 30
0.0
 11
627.75779623055973
 21
229.20685444960739
 31
0.0
  0
LINE
  5
180D1
  8
AM_0
 10
636.25778623055999
 20
227.18038756578039
 30
0.0
 11
628.39779623055972
 21
227.46685644960741
 31
0.0
  0
LINE
  5
180D2
  8
AM_0
 10
634.85927247889674
 20
229.68588732797559
 30
0.0
 11
628.39779623055972
 21
229.46684844960731
 31
0.0
  0
LINE
  5
180D3
  8
AM_0
 10
627.75779623055973
 20
236.22685044960741
 30
0.0
 11
625.73779623055975
 21
236.08685144960731
 31
0.0
  0
LINE
  5
180D4
  8
AM_0
 10
627.75779623055973
 20
237.4068504496073
 30
0.0
 11
626.33780623055975
 21
237.4668484496074
 31
0.0
  0
ARC
  5
180D5
  8
AM_0
 10
625.75815623055985
 20
235.5869124496073
 30
0.0
 40
0.50035203
 50
92.331169999999602
 51
180.00710999999771
  0
LINE
  5
180D6
  8
AM_0
 10
625.25779623055973
 20
234.9668484496072
 30
0.0
 11
625.25779623055973
 21
235.58685144960739
 31
0.0
  0
ARC
  5
180D7
  8
AM_0
 10
628.44368623055971
 20
228.46736744960739
 30
0.0
 40
1.000534899999999
 50
92.6283099999971
 51
269.66321999999968
  0
LINE
  5
180D8
  8
AM_0
 10
627.75778623055965
 20
233.68684944960731
 30
0.0
 11
625.73779623055975
 21
233.82684944960729
 31
0.0
  0
ARC
  5
180D9
  8
AM_0
 10
625.77202623055973
 20
234.34010144960729
 30
0.0
 40
0.5143923799999999
 50
181.47632999999809
 51
266.1853900000005
  0
LINE
  5
180DA
  8
AM_0
 10
625.25779623055973
 20
234.9668484496072
 30
0.0
 11
625.25779623055973
 21
234.32684944960729
 31
0.0
  0
LINE
  5
180DB
  8
AM_0
 10
630.81239420544853
 20
237.30548180395829
 30
0.0
 11
628.81779623055979
 21
237.3668504496072
 31
0.0
  0
LINE
  5
180DE
  8
AM_0
 10
629.84394747634872
 20
239.58715645502139
 30
0.0
 11
626.33778623055969
 21
239.4668484496072
 31
0.0
  0
LINE
  5
180E4
  8
AM_0
 10
720.75778623055987
 20
173.4668514496073
 30
0.0
 11
720.75778623055987
 21
191.4668514496073
 31
0.0
  0
LINE
  5
180E5
  8
AM_0
 10
722.75778623055965
 20
188.4668514496073
 30
0.0
 11
722.75778623055965
 21
173.4668514496073
 31
0.0
  0
LINE
  5
180E6
  8
AM_0
 10
719.25778623055999
 20
167.4668514496073
 30
0.0
 11
719.25778623055999
 21
184.9668514496073
 31
0.0
  0
LINE
  5
180E7
  8
AM_0
 10
712.25778623055987
 20
166.46687144960731
 30
0.0
 11
707.05777623055997
 21
163.4668514496073
 31
0.0
  0
ARC
  5
180E8
  8
AM_0
 10
719.75778623055999
 20
173.4668514496073
 30
0.0
 40
0.9999999999999998
 50
269.999989999999
 51
0.0
  0
ARC
  5
180E9
  8
AM_0
 10
718.25778623055976
 20
167.4668514496073
 30
0.0
 40
0.9999999999999998
 50
269.999989999999
 51
0.0
  0
LINE
  5
180EA
  8
AM_0
 10
719.75778623055999
 20
172.4668514496073
 30
0.0
 11
719.25778623055999
 21
172.4668514496073
 31
0.0
  0
LINE
  5
180EB
  8
AM_0
 10
720.75778623055987
 20
173.4668514496073
 30
0.0
 11
722.75778623055965
 21
173.4668514496073
 31
0.0
  0
ARC
  5
180EC
  8
AM_0
 10
724.2576362305598
 20
198.57476144960739
 30
0.0
 40
1.000231299999998
 50
181.598942999999
 51
0.6925799999989949
  0
LINE
  5
180ED
  8
AM_0
 10
738.25778769087356
 20
199.8159401288342
 30
0.0
 11
718.25778709482711
 21
199.4668495422587
 31
0.0
  0
LINE
  5
180EE
  8
AM_0
 10
718.25778623055976
 20
199.46685144960739
 30
0.0
 11
696.17218571090882
 21
199.85235729755141
 31
0.0
  0
LINE
  5
180EF
  8
AM_0
 10
719.462127596345
 20
199.48787359555001
 30
0.0
 11
719.25776419568297
 21
191.46685144960739
 31
0.0
  0
ARC
  5
180F0
  8
AM_0
 10
719.75778623055999
 20
185.9668514496073
 30
0.0
 40
0.9999999999999998
 50
269.999989999999
 51
0.0
  0
ARC
  5
180F1
  8
AM_0
 10
721.41614623055966
 20
197.5488714496075
 30
0.0
 40
1.9992131999999989
 50
22.901329999994228
 51
178.33797800000431
  0
LINE
  5
180F2
  8
AM_0
 10
723.21426381334913
 20
199.55336827786459
 30
0.0
 11
723.25775623055995
 21
198.32685144960729
 31
0.0
  0
LINE
  5
180F3
  8
AM_0
 10
725.29326976500295
 20
199.58965796098349
 30
0.0
 11
725.25775623055972
 21
198.5468514496074
 31
0.0
  0
LINE
  5
180F4
  8
AM_0
 10
742.2577954394776
 20
225.96685033202019
 30
0.0
 11
738.25779532026854
 21
225.96685033202019
 31
0.0
  0
ARC
  5
180F5
  8
AM_0
 10
735.76413623055964
 20
216.96050044960731
 30
0.0
 40
4.9936542999999984
 50
299.95791578702313
 51
0.0728599999961039
  0
ARC
  5
180F6
  8
AM_0
 10
743.75778623055965
 20
224.4557724710524
 30
0.0
 40
2.9999999999999978
 50
149.75537130699689
 51
180.0
1001
GENIUS_GENOBJ-N-FIL_13
1002
{
1000
OWNER
1000
GEN
1002
}
1001
GENIUS_GENODEF_13
1002
{
1000
HIER
1070
     0
1002
}
1002
{
1000
MANEDIT
1070
     0
1002
}
1002
{
1000
NOSEL
1070
     0
1002
}
1002
{
1000
BEHIND
1070
     0
1002
}
1002
{
1000
OTHER
1070
     0
1002
}
1002
{
1000
REACTOR
1002
}
  0
LINE
  5
180F7
  8
AM_0
 10
740.75778623055965
 20
224.4557724710524
 30
0.0
 11
740.75778623055965
 21
216.96684844960731
 31
0.0
  0
ARC
  5
180F8
  8
AM_0
 10
753.51782623055965
 20
248.46695144960731
 30
0.0
 40
1.000099699999998
 50
269.99821999999642
 51
88.855909999997095
  0
ARC
  5
180F9
  8
AM_0
 10
752.16244623055957
 20
238.4671614496074
 30
0.0
 40
1.000317799999999
 50
269.73379000000142
 51
87.974690000002326
  0
ARC
  5
180FA
  8
AM_0
 10
749.68808623055975
 20
238.4570294496074
 30
0.0
 40
1.0902267999999991
 50
269.45945999999799
 51
88.438189999999508
  0
LINE
  5
180FB
  8
AM_0
 10
750.75778623055965
 20
238.4668484496074
 30
0.0
 11
750.75778623055965
 21
229.20685444960739
 31
0.0
  0
LINE
  5
180FC
  8
AM_0
 10
747.63680617952468
 20
237.30281807803701
 30
0.0
 11
749.71780623055975
 21
237.3668504496072
 31
0.0
  0
LINE
  5
180FD
  8
AM_0
 10
742.25778623055965
 20
227.1796499448254
 30
0.0
 11
750.13778623055964
 21
227.46684844960731
 31
0.0
  0
LINE
  5
180FE
  8
AM_0
 10
743.59287672174605
 20
229.68871656676811
 30
0.0
 11
750.13778623055964
 21
229.46685644960721
 31
0.0
  0
ARC
  5
180FF
  8
AM_0
 10
752.77508623055974
 20
235.6043604496073
 30
0.0
 40
0.48302591
 50
357.92275099999972
 51
87.305360000000846
  0
LINE
  5
18100
  8
AM_0
 10
753.25778623055965
 20
234.9668484496072
 30
0.0
 11
753.25778623055965
 21
235.58685144960739
 31
0.0
  0
ARC
  5
18101
  8
AM_0
 10
752.76074623055968
 20
234.3225534496074
 30
0.0
 40
0.4970828599999999
 50
274.27614450000129
 51
0.4957440000002111
  0
LINE
  5
18102
  8
AM_0
 10
753.25778623055965
 20
234.9668484496072
 30
0.0
 11
753.25778623055965
 21
234.32684944960729
 31
0.0
  0
ARC
  5
18103
  8
AM_0
 10
750.10483623055973
 20
228.46541444960729
 30
0.0
 40
0.9985855199999996
 50
269.59630999999581
 51
70.522550000004287
  0
LINE
  5
18104
  8
AM_0
 10
750.75778623055965
 20
233.68684944960731
 30
0.0
 11
752.79779623055958
 21
233.82684944960729
 31
0.0
  0
LINE
  5
18105
  8
AM_0
 10
750.75781623055968
 20
236.22685044960741
 30
0.0
 11
752.79779623055958
 21
236.08685144960731
 31
0.0
  0
LINE
  5
18106
  8
AM_0
 10
750.75778623055965
 20
237.4068504496073
 30
0.0
 11
752.1977862305597
 21
237.46685644960741
 31
0.0
  0
LINE
  5
18107
  8
AM_0
 10
748.60760376664462
 20
239.59004083264941
 30
0.0
 11
752.19781623055974
 21
239.4668484496072
 31
0.0
  0
LINE
  5
18109
  8
AM_0
 10
751.17160195851545
 20
247.38353422188871
 30
0.0
 11
753.5377862305595
 21
247.4668514496073
 31
0.0
  0
ARC
  5
1810A
  8
AM_0
 10
754.1907062305595
 20
258.46699144960729
 30
0.0
 40
1.000225199999998
 50
269.26081999999792
 51
88.44765000000109
  0
LINE
  5
1810B
  8
AM_0
 10
752.93592673301316
 20
257.42264948876112
 30
0.0
 11
754.21777623055959
 21
257.46685144960742
 31
0.0
  0
LINE
  5
1810C
  8
AM_0
 10
751.68892239005993
 20
249.53060613481981
 30
0.0
 11
753.53781623055966
 21
249.46685144960739
 31
0.0
  0
LINE
  5
1810D
  8
AM_0
 10
753.09607729263143
 20
267.4242546873665
 30
0.0
 11
754.21780623055975
 21
267.46685144960742
 31
0.0
  0
LINE
  5
1810E
  8
AM_0
 10
752.93174881355924
 20
269.51119008646492
 30
0.0
 11
754.21777623055959
 21
269.46685144960719
 31
0.0
  0
ARC
  5
1810F
  8
AM_0
 10
754.19085623055969
 20
268.46671144960732
 30
0.0
 40
1.000223999999998
 50
271.54276079999562
 51
90.748769999995517
  0
LINE
  5
18110
  8
AM_0
 10
753.09791793413501
 20
259.49520247199177
 30
0.0
 11
754.21777623055959
 21
259.46685144960719
 31
0.0
  0
ARC
  5
18111
  8
AM_0
 10
689.24774623055964
 20
263.46050144960702
 30
0.0
 40
64.006351000000123
 50
83.71945637507504
 51
89.991012616410785
  0
LINE
  5
18112
  8
AM_0
 10
718.25778709482711
 20
327.46685335695588
 30
0.0
 11
640.25777714085132
 21
326.1053726034898
 31
0.0
  0
LINE
  5
18113
  8
ﾁｭｳｼﾝｾﾝ1
 10
636.50778095554847
 20
315.4668529993283
 30
0.0
 11
742.00779150557094
 21
315.4668529993283
 31
0.0
  0
LINE
  5
18114
  8
ｶｸﾚｾﾝ2
 10
640.25778477024608
 20
320.96685316324078
 30
0.0
 11
738.25779532026854
 21
320.96685316324078
 31
0.0
  0
LINE
  5
18115
  8
ｶｸﾚｾﾝ2
 10
640.25778477024608
 20
309.96685283541518
 30
0.0
 11
738.25779532026854
 21
309.96685283541518
 31
0.0
  0
ARC
  5
1811C
  8
AM_0
 10
642.76416623056002
 20
309.96047144960733
 30
0.0
 40
5.0063781999999977
 50
120.04217682435279
 51
179.92705000000001
  0
LINE
  5
1811D
  8
AM_0
 10
625.25779623055973
 20
291.9668514496073
 30
0.0
 11
625.25779623055973
 21
291.32685144960732
 31
0.0
  0
LINE
  5
1811E
  8
AM_0
 10
627.75779623055973
 20
297.72686144960733
 30
0.0
 11
627.75779623055973
 21
288.4668514496073
 31
0.0
  0
LINE
  5
18123
  8
AM_0
 10
627.75779623055973
 20
289.5068614496073
 30
0.0
 11
626.33780623055975
 21
289.4668514496073
 31
0.0
  0
LINE
  5
18124
  8
AM_0
 10
627.75778623055965
 20
290.68685144960739
 30
0.0
 11
625.73779623055975
 21
290.82685144960737
 31
0.0
  0
ARC
  5
18125
  8
AM_0
 10
625.77202623055973
 20
291.34011144960721
 30
0.0
 40
0.5143923799999999
 50
181.47632999999809
 51
266.1853900000005
  0
ARC
  5
18126
  8
AM_0
 10
626.38679623055987
 20
288.46627144960729
 30
0.0
 40
1.0006207999999981
 50
90.515970000001047
 51
267.19250000000471
  0
ARC
  5
18127
  8
AM_0
 10
628.86131623055974
 20
288.45728144960731
 30
0.0
 40
1.090437399999999
 50
92.287669999999167
 51
269.81468999999669
  0
LINE
  5
18128
  8
AM_0
 10
629.86136179329992
 20
287.34594453859711
 30
0.0
 11
626.33780623055975
 21
287.4668514496073
 31
0.0
  0
LINE
  5
18129
  8
AM_0
 10
630.83028080541658
 20
289.62425500019248
 30
0.0
 11
628.81779623055979
 21
289.54685144960717
 31
0.0
  0
LINE
  5
1812A
  8
AM_0
 10
637.75779623055973
 20
302.43012730666283
 30
0.0
 11
637.75779623055973
 21
309.96685144960742
 31
0.0
  0
LINE
  5
1812B
  8
AM_0
 10
636.25778623055965
 20
299.735415452236
 30
0.0
 11
628.39778623055975
 21
299.4668514496073
 31
0.0
  0
LINE
  5
1812C
  8
AM_0
 10
634.87485262100074
 20
297.22899311061047
 30
0.0
 11
628.39779623055972
 21
297.4668514496073
 31
0.0
  0
ARC
  5
1812D
  8
AM_0
 10
628.44351623055979
 20
298.4663314496072
 30
0.0
 40
1.000530599999998
 50
90.327200000001042
 51
267.38127000000151
  0
LINE
  5
1812E
  8
AM_0
 10
627.75778623055965
 20
293.24685144960722
 30
0.0
 11
625.73779623055975
 21
293.08684144960722
 31
0.0
  0
ARC
  5
1812F
  8
AM_0
 10
625.75815623055985
 20
292.58692144960719
 30
0.0
 40
0.50035203
 50
92.331169999999602
 51
180.00710999999771
  0
LINE
  5
18130
  8
AM_0
 10
625.25779623055973
 20
291.9668514496073
 30
0.0
 11
625.25779623055973
 21
292.58684144960728
 31
0.0
  0
ARC
  5
18131
  8
AM_0
 10
634.75779623055973
 20
302.43012730666283
 30
0.0
 40
2.9999999999999978
 50
330.80663173194762
 51
0.0
1001
GENIUS_GENOBJ-N-FIL_13
1002
{
1000
OWNER
1000
GEN
1002
}
1001
GENIUS_GENODEF_13
1002
{
1000
HIER
1070
     0
1002
}
1002
{
1000
MANEDIT
1070
     0
1002
}
1002
{
1000
NOSEL
1070
     0
1002
}
1002
{
1000
BEHIND
1070
     0
1002
}
1002
{
1000
OTHER
1070
     0
1002
}
1002
{
1000
REACTOR
1002
}
  0
LINE
  5
18132
  8
AM_0
 10
636.2577846510369
 20
300.96685256719439
 30
0.0
 11
640.25778477024608
 21
300.96685256719439
 31
0.0
  0
ARC
  5
18133
  8
AM_0
 10
674.25818623056011
 20
327.70616144960729
 30
0.0
 40
1.000413999999999
 50
2.331049999997969
 51
179.96048300000029
  0
ARC
  5
18134
  8
AM_0
 10
664.25802623055995
 20
326.35063944960717
 30
0.0
 40
1.000393499999999
 50
10.993529635258341
 51
179.0714379999965
  0
LINE
  5
18135
  8
AM_0
 10
673.22024213893951
 20
326.68070885892172
 30
0.0
 11
673.25778623055999
 21
327.74685744960721
 31
0.0
  0
ARC
  5
18136
  8
AM_0
 10
689.24774623055964
 20
263.46050144960702
 30
0.0
 40
64.006351000000123
 50
89.991012616410785
 51
98.280567367618843
  0
LINE
  5
18137
  8
AM_0
 10
675.29328088051693
 20
326.716894314407
 30
0.0
 11
675.25775623055972
 21
327.74685344960727
 31
0.0
  0
LINE
  5
18138
  8
AM_0
 10
685.2848311016653
 20
327.35804528462199
 30
0.0
 11
685.25778623055965
 21
328.42685344960739
 31
0.0
  0
LINE
  5
18139
  8
AM_0
 10
683.21529199403369
 20
327.19451588210768
 30
0.0
 11
683.25778623055987
 21
328.4268494496074
 31
0.0
  0
ARC
  5
1813A
  8
AM_0
 10
684.25833623055996
 20
328.3791084496072
 30
0.0
 40
1.0005847999999991
 50
2.7350400000044401
 51
179.5564910000007
  0
ARC
  5
1813D
  8
AM_0
 10
735.7683462305597
 20
309.9773914496073
 30
0.0
 40
4.9894699999999981
 50
359.87895100000162
 51
60.070185938252052
  0
LINE
  5
1813E
  8
AM_0
 10
753.25778623055965
 20
291.9668514496073
 30
0.0
 11
753.25778623055965
 21
291.32685144960732
 31
0.0
  0
LINE
  5
1813F
  8
AM_0
 10
750.75778623055965
 20
297.72686144960733
 30
0.0
 11
750.75778623055965
 21
288.4668514496073
 31
0.0
  0
LINE
  5
18140
  8
AM_0
 10
751.67920202993525
 20
277.40276158100761
 30
0.0
 11
753.53781623055966
 21
277.46685144960719
 31
0.0
  0
ARC
  5
18141
  8
AM_0
 10
753.51791623055965
 20
278.46676144960719
 30
0.0
 40
1.0000987999999991
 50
271.1393037999992
 51
90.006579999999261
  0
LINE
  5
18142
  8
AM_0
 10
751.16009788046324
 20
279.55057304234049
 30
0.0
 11
753.53781623055966
 21
279.4668514496073
 31
0.0
  0
LINE
  5
18143
  8
AM_0
 10
747.61862031160899
 20
289.62758129577492
 30
0.0
 11
749.71780623055975
 21
289.54685144960717
 31
0.0
  0
LINE
  5
18144
  8
AM_0
 10
748.59019162331219
 20
287.3430608317575
 30
0.0
 11
752.1977862305597
 21
287.4668514496073
 31
0.0
  0
ARC
  5
18146
  8
AM_0
 10
752.76074623055968
 20
291.32254144960717
 30
0.0
 40
0.4970828599999999
 50
274.27614450000129
 51
0.4957440000002111
  0
LINE
  5
18147
  8
AM_0
 10
750.75778623055965
 20
290.68685144960739
 30
0.0
 11
752.79779623055958
 21
290.82685144960737
 31
0.0
  0
LINE
  5
18148
  8
AM_0
 10
750.75778623055965
 20
289.50684144960741
 30
0.0
 11
752.1977862305597
 21
289.4668514496073
 31
0.0
  0
ARC
  5
18149
  8
AM_0
 10
752.16260623055928
 20
288.46654144960729
 30
0.0
 40
1.000315299999998
 50
272.01573779999671
 51
90.275789999997585
  0
ARC
  5
1814A
  8
AM_0
 10
749.68808623055975
 20
288.4570214496074
 30
0.0
 40
1.0902267999999991
 50
269.45943999999838
 51
88.438200000002624
  0
LINE
  5
1814B
  8
AM_0
 10
742.2577954394776
 20
300.96685256719439
 30
0.0
 11
738.25779532026854
 21
300.96685256719439
 31
0.0
  0
LINE
  5
1814C
  8
AM_0
 10
740.75778623055965
 20
309.96685144960742
 30
0.0
 11
740.75778623055965
 21
302.45793042816217
 31
0.0
  0
LINE
  5
1814D
  8
AM_0
 10
742.25778623055965
 20
299.73610004784018
 30
0.0
 11
750.13778623055964
 21
299.4668514496073
 31
0.0
  0
LINE
  5
1814E
  8
AM_0
 10
743.57744117070888
 20
297.22593414255817
 30
0.0
 11
750.13778623055964
 21
297.4668514496073
 31
0.0
  0
ARC
  5
1814F
  8
AM_0
 10
743.75778623055965
 20
302.45793042816217
 30
0.0
 40
2.9999999999999978
 50
180.0
 51
209.80345756372509
1001
GENIUS_GENODEF_13
1002
{
1000
HIER
1070
     0
1002
}
1002
{
1000
MANEDIT
1070
     0
1002
}
1002
{
1000
NOSEL
1070
     0
1002
}
1002
{
1000
BEHIND
1070
     0
1002
}
1002
{
1000
OTHER
1070
     0
1002
}
1002
{
1000
REACTOR
1002
}
1001
GENIUS_GENOBJ-N-FIL_13
1002
{
1000
OWNER
1000
GEN
1002
}
  0
ARC
  5
18150
  8
AM_0
 10
752.77508623055974
 20
292.60436144960738
 30
0.0
 40
0.48302591
 50
357.92275099999972
 51
87.305360000000846
  0
LINE
  5
18151
  8
AM_0
 10
753.25778623055965
 20
291.9668514496073
 30
0.0
 11
753.25778623055965
 21
292.58684144960728
 31
0.0
  0
ARC
  5
18152
  8
AM_0
 10
750.10626623055964
 20
298.4685414496073
 30
0.0
 40
0.9983469799999998
 50
289.39561000000361
 51
90.485539999999006
  0
LINE
  5
18153
  8
AM_0
 10
750.75778623055965
 20
293.24685144960722
 30
0.0
 11
752.79779623055958
 21
293.08684144960722
 31
0.0
  0
LINE
  5
18154
  8
AM_0
 10
738.25778769087356
 20
327.1177627703803
 30
0.0
 11
718.25778709482711
 21
327.46685335695588
 31
0.0
  0
LINE
  5
18155
  8
AM_0
 10
693.21738388150754
 20
327.36292227131071
 30
0.0
 11
693.25778623055976
 21
328.4268494496074
 31
0.0
  0
LINE
  5
18156
  8
AM_0
 10
695.30006667123382
 20
327.20071807941412
 30
0.0
 11
695.25778623055965
 21
328.4268494496074
 31
0.0
  0
ARC
  5
18157
  8
AM_0
 10
694.25720623055986
 20
328.37842944960732
 30
0.0
 40
1.000603799999999
 50
0.4821899999981778
 51
177.2262829999969
  0
LINE
  5
18158
  8
AM_0
 10
705.27562636418429
 20
327.24024431558399
 30
0.0
 11
705.25778623055965
 21
327.74685344960727
 31
0.0
  0
LINE
  5
18159
  8
AM_0
 10
703.23909351797886
 20
327.20469608043868
 30
0.0
 11
703.25778623055999
 21
327.74685344960727
 31
0.0
  0
ARC
  5
1815A
  8
AM_0
 10
704.25735623055982
 20
327.70548644960729
 30
0.0
 40
1.000428199999998
 50
0.0782199999979815
 51
177.63024800000301
  0
ARC
  5
18484
  8
AM_0
 10
689.27469623055958
 20
263.45685144960731
 30
0.0
 40
64.014987999999974
 50
199.06075530302689
 51
214.0862079518792
  0
LINE
  5
18485
  8
0
 10
579.25078014157521
 20
280.46685144960747
 30
0.0
 11
611.25078014157521
 21
280.46685144960747
 31
0.0
  0
LINE
  5
18486
  8
0
 10
579.25078014157521
 20
277.46685144960747
 30
0.0
 11
621.25078014157509
 21
277.46685144960747
 31
0.0
  0
LINE
  5
18487
  8
0
 10
579.25078014157521
 20
249.4668514496073
 30
0.0
 11
621.25078014157509
 21
249.4668514496073
 31
0.0
  0
LINE
  5
18488
  8
AM_0
 10
579.25078014157521
 20
249.4668514496073
 30
0.0
 11
579.25078014157521
 21
280.46685144960747
 31
0.0
  0
LINE
  5
18489
  8
0
 10
611.25078014157521
 20
280.46685144960747
 30
0.0
 11
611.25078014157521
 21
277.46685144960747
 31
0.0
  0
LINE
  5
1848A
  8
0
 10
621.25078014157509
 20
280.96685144960742
 30
0.0
 11
621.25078014157509
 21
245.96685144960739
 31
0.0
  0
LINE
  5
1848B
  8
0
 10
621.25078014157509
 20
280.96685144960742
 30
0.0
 11
632.25778453182727
 21
285.9668521201595
 31
0.0
  0
LINE
  5
1848C
  8
AM_0
 10
632.25778453182727
 20
285.9668521201595
 30
0.0
 11
632.25778453182727
 21
240.96685077905531
 31
0.0
  0
LINE
  5
1848D
  8
AM_0
 10
632.25778453182727
 20
285.9668521201595
 30
0.0
 11
636.2577846510369
 21
285.9668521201595
 31
0.0
  0
LINE
  5
1848E
  8
0
 10
621.25078014157509
 20
245.96685144960739
 30
0.0
 11
632.25778453182727
 21
240.96685077905531
 31
0.0
  0
LINE
  5
1848F
  8
AM_0
 10
632.25778453182727
 20
240.96685077905531
 30
0.0
 11
636.2577846510369
 21
240.96685077905531
 31
0.0
  0
CIRCLE
  5
1851C
  8
AM_0
 10
398.7275701213938
 20
263.46685380780269
 30
0.0
 40
22.50000067055224
  0
ARC
  5
1851D
  8
0
 10
398.7275701213938
 20
263.46685144960719
 30
0.0
 40
14.00000000000014
 50
106.6015495990207
 51
73.3984504009793
  0
CIRCLE
  5
1851E
  8
ｽﾝﾎﾟｳｾﾝ
 10
398.7275701213938
 20
263.46685144960719
 30
0.0
 40
4.0
  0
LINE
  5
1851F
  8
0
 10
394.72757012139368
 20
273.46685144960702
 30
0.0
 11
402.72757012139368
 21
273.46685144960702
 31
0.0
  0
LINE
  5
18520
  8
0
 10
394.72757012139368
 20
280.46685144960679
 30
0.0
 11
402.72757012139368
 21
280.46685144960679
 31
0.0
  0
LINE
  5
18521
  8
0
 10
394.72757012139368
 20
280.46685144960679
 30
0.0
 11
394.72757012139368
 21
273.46685144960702
 31
0.0
  0
LINE
  5
18522
  8
0
 10
402.72757012139368
 20
280.46685144960679
 30
0.0
 11
402.72757012139368
 21
273.46685144960702
 31
0.0
  0
CIRCLE
  5
186E3
  8
AM_0
 10
398.7275701213938
 20
263.46685380780269
 30
0.0
 40
3.399999999999999
  0
LINE
  5
1887C
  8
AM_0
 10
361.72757012139368
 20
578.83302327354465
 30
0.0
 11
369.72757012139402
 21
578.83302327354465
 31
0.0
  0
LINE
  5
1887D
  8
AM_0
 10
371.72757012139402
 20
572.83302327354465
 30
0.0
 11
359.72757012139368
 21
572.83302327354465
 31
0.0
  0
LINE
  5
1887E
  8
AM_0
 10
361.22756900380671
 20
477.83302023370788
 30
0.0
 11
436.22757123898072
 21
477.83302023370788
 31
0.0
  0
LINE
  5
1887F
  8
AM_0
 10
361.22756900380671
 20
583.83303102214893
 30
0.0
 11
436.22757123898072
 21
583.83303102214893
 31
0.0
  0
LINE
  5
18880
  8
AM_0
 10
291.08904762640651
 20
481.83301272352207
 30
0.0
 11
460.3660912454738
 21
481.8330127235223
 31
0.0
  0
LINE
  5
18881
  8
AM_0
 10
290.07662694193721
 20
579.83302327354465
 30
0.0
 11
461.37848141236429
 21
579.83302327354465
 31
0.0
  0
LINE
  5
18882
  8
AM_0
 10
289.72753635536162
 20
559.83302267749832
 30
0.0
 11
461.72757199893988
 21
559.83302267749832
 31
0.0
  0
LINE
  5
18883
  8
ﾁｭｳｼﾝｾﾝ1
 10
82.483636355361554
 20
530.83302181323108
 30
0.0
 11
467.97757199893999
 21
530.83302181323108
 31
0.0
1001
GENIUS_GENODEF_13
1002
{
1000
HIER
1070
     0
1002
}
1002
{
1000
MANEDIT
1070
     0
1002
}
1002
{
1000
NOSEL
1070
     0
1002
}
1002
{
1000
BEHIND
1070
     0
1002
}
1002
{
1000
REACTOR
1002
}
1001
GENIUS_GENOBJ-N-CEN_13
1002
{
1000
OWNER
1000
GEN
1002
}
  0
LINE
  5
18884
  8
AM_0
 10
263.22753635536151
 20
469.33302681323067
 30
0.0
 11
263.22753635536151
 21
592.33300681323067
 31
0.0
  0
LINE
  5
18885
  8
AM_0
 10
289.72753635543751
 20
559.83302267749832
 30
0.0
 11
291.08904762640651
 21
481.8330127235223
 31
0.0
  0
LINE
  5
18886
  8
ｶｸﾚｾﾝ2
 10
307.22753687690198
 20
481.83302035291729
 30
0.0
 11
307.22753687690198
 21
579.83303090293975
 31
0.0
  0
LINE
  5
18887
  8
ﾁｭｳｼﾝｾﾝ1
 10
301.72753671298909
 20
478.08301653822008
 30
0.0
 11
301.72753671298909
 21
583.58302708824226
 31
0.0
  0
LINE
  5
18888
  8
ｶｸﾚｾﾝ2
 10
296.22753654907649
 20
481.83302035291729
 30
0.0
 11
296.22753654907649
 21
579.83303090293975
 31
0.0
  0
LINE
  5
18889
  8
AM_0
 10
252.22753635536159
 20
466.83299181323071
 30
0.0
 11
252.22753635536159
 21
594.8330068132309
 31
0.0
  0
LINE
  5
1888A
  8
AM_0
 10
252.22753635536159
 20
567.97299681323068
 30
0.0
 11
262.22753635536162
 21
567.97299681323068
 31
0.0
  0
LINE
  5
1888B
  8
AM_0
 10
252.22749508871109
 20
567.97300681320849
 30
0.0
 11
262.22749508870493
 21
567.97301792431972
 31
0.0
  0
LINE
  5
1888C
  8
AM_0
 10
252.22753635536159
 20
582.87300681323075
 30
0.0
 11
262.22753635536162
 21
582.87300681323075
 31
0.0
  0
LINE
  5
1888D
  8
AM_0
 10
252.22747853314431
 20
582.87301681319923
 30
0.0
 11
262.22747853313808
 21
582.87302792431035
 31
0.0
  0
LINE
  5
1888E
  8
AM_0
 10
252.22753635536159
 20
594.8330068132309
 30
0.0
 11
261.35413918295711
 21
594.8330068132309
 31
0.0
  0
LINE
  5
1888F
  8
AM_0
 10
282.08616681091371
 20
559.65871119200301
 30
0.0
 11
279.38726340351019
 21
590.50731829872632
 31
0.0
  0
LINE
  5
18890
  8
AM_0
 10
266.22753635536151
 20
592.33300681323067
 30
0.0
 11
277.39487400732679
 21
592.33300681323067
 31
0.0
  0
ARC
  5
18891
  8
AM_0
 10
266.22753635536151
 20
595.33300681323078
 30
0.0
 40
2.9999999999999978
 50
215.68533471265459
 51
270.0
1001
GENIUS_GENOBJ-N-FIL_13
1002
{
1000
OWNER
1000
GEN
1002
}
1001
GENIUS_GENODEF_13
1002
{
1000
HIER
1070
     0
1002
}
1002
{
1000
MANEDIT
1070
     0
1002
}
1002
{
1000
NOSEL
1070
     0
1002
}
1002
{
1000
BEHIND
1070
     0
1002
}
1002
{
1000
OTHER
1070
     0
1002
}
1002
{
1000
REACTOR
1002
}
  0
ARC
  5
18892
  8
AM_0
 10
261.35413918295711
 20
591.83300681323101
 30
0.0
 40
2.9999999999999978
 50
35.68533471265463
 51
90.0
1001
GENIUS_GENOBJ-N-FIL_13
1002
{
1000
OWNER
1000
GEN
1002
}
1001
GENIUS_GENODEF_13
1002
{
1000
HIER
1070
     0
1002
}
1002
{
1000
MANEDIT
1070
     0
1002
}
1002
{
1000
NOSEL
1070
     0
1002
}
1002
{
1000
BEHIND
1070
     0
1002
}
1002
{
1000
OTHER
1070
     0
1002
}
1002
{
1000
REACTOR
1002
}
  0
ARC
  5
18893
  8
AM_0
 10
277.39487400732668
 20
590.33300681323078
 30
0.0
 40
2.0
 50
4.9999999999997433
 51
90.0
1001
GENIUS_GENOBJ-N-FIL_13
1002
{
1000
OWNER
1000
GEN
1002
}
1001
GENIUS_GENODEF_13
1002
{
1000
HIER
1070
     0
1002
}
1002
{
1000
MANEDIT
1070
     0
1002
}
1002
{
1000
NOSEL
1070
     0
1002
}
1002
{
1000
BEHIND
1070
     0
1002
}
1002
{
1000
OTHER
1070
     0
1002
}
1002
{
1000
REACTOR
1002
}
  0
ARC
  5
18894
  8
AM_0
 10
284.07855620709722
 20
559.83302267749832
 30
0.0
 40
2.0
 50
184.99999999999969
 51
270.0
1001
GENIUS_GENOBJ-N-FIL_13
1002
{
1000
OWNER
1000
GEN
1002
}
1001
GENIUS_GENODEF_13
1002
{
1000
HIER
1070
     0
1002
}
1002
{
1000
MANEDIT
1070
     0
1002
}
1002
{
1000
NOSEL
1070
     0
1002
}
1002
{
1000
BEHIND
1070
     0
1002
}
1002
{
1000
OTHER
1070
     0
1002
}
1002
{
1000
REACTOR
1002
}
  0
LINE
  5
18895
  8
AM_0
 10
290.07662694193721
 20
579.83302327354465
 30
0.0
 11
289.72753635536162
 21
559.83302267749832
 31
0.0
  0
ARC
  5
18896
  8
AM_0
 10
288.74483929428339
 20
558.83302267749832
 30
0.0
 40
1.0
 50
270.0
 51
1.000011773500677
1001
GENIUS_GENOBJ-N-FIL_13
1002
{
1000
OWNER
1000
GEN
1002
}
1001
GENIUS_GENODEF_13
1002
{
1000
HIER
1070
     0
1002
}
1002
{
1000
MANEDIT
1070
     0
1002
}
1002
{
1000
NOSEL
1070
     0
1002
}
1002
{
1000
BEHIND
1070
     0
1002
}
1002
{
1000
OTHER
1070
     0
1002
}
1002
{
1000
REACTOR
1002
}
  0
LINE
  5
18897
  8
AM_0
 10
284.07855620709722
 20
557.83302267749832
 30
0.0
 11
288.74483929428339
 21
557.83302267749832
 31
0.0
  0
LINE
  5
18898
  8
AM_0
 10
360.72757012139368
 20
572.83302327354465
 30
0.0
 11
360.72757012139368
 21
577.83302327354477
 31
0.0
  0
LINE
  5
18899
  8
AM_0
 10
359.72757012139368
 20
579.83302327354465
 30
0.0
 11
359.72757012139368
 21
572.83302327354465
 31
0.0
  0
ARC
  5
1889A
  8
AM_0
 10
361.72757012139368
 20
577.83302327354477
 30
0.0
 40
1.0
 50
90.0
 51
180.0
1001
GENIUS_GENOBJ-N-FIL_13
1002
{
1000
OWNER
1000
GEN
1002
}
1001
GENIUS_GENODEF_13
1002
{
1000
HIER
1070
     0
1002
}
1002
{
1000
MANEDIT
1070
     0
1002
}
1002
{
1000
NOSEL
1070
     0
1002
}
1002
{
1000
BEHIND
1070
     0
1002
}
1002
{
1000
OTHER
1070
     0
1002
}
1002
{
1000
REACTOR
1002
}
  0
LINE
  5
1889B
  8
AM_0
 10
361.22756900380671
 20
583.83303102214893
 30
0.0
 11
361.22756900380671
 21
579.83303090293975
 31
0.0
  0
LINE
  5
1889C
  8
AM_0
 10
252.22753635536159
 20
466.83302681323062
 30
0.0
 11
261.35413918295711
 21
466.83302681323062
 31
0.0
  0
LINE
  5
1889D
  8
AM_0
 10
252.22753635536159
 20
478.79302681323082
 30
0.0
 11
262.22753635536162
 21
478.79302681323082
 31
0.0
  0
LINE
  5
1889E
  8
AM_0
 10
252.22753635536159
 20
493.69303681323078
 30
0.0
 11
262.22753635536162
 21
493.69303681323078
 31
0.0
  0
LINE
  5
1889F
  8
AM_0
 10
276.06023246942863
 20
483.8330127235223
 30
0.0
 11
289.088742963144
 21
483.8330127235223
 31
0.0
  0
LINE
  5
188A0
  8
AM_0
 10
273.11871278110641
 20
471.15871532773548
 30
0.0
 11
274.06784307324511
 21
482.00732420901772
 31
0.0
  0
ARC
  5
188A1
  8
AM_0
 10
276.06023246942863
 20
481.83301272352207
 30
0.0
 40
2.0
 50
90.0
 51
175.0000000000002
1001
GENIUS_GENOBJ-N-FIL_13
1002
{
1000
OWNER
1000
GEN
1002
}
1001
GENIUS_GENODEF_13
1002
{
1000
HIER
1070
     0
1002
}
1002
{
1000
MANEDIT
1070
     0
1002
}
1002
{
1000
NOSEL
1070
     0
1002
}
1002
{
1000
BEHIND
1070
     0
1002
}
1002
{
1000
OTHER
1070
     0
1002
}
1002
{
1000
REACTOR
1002
}
  0
LINE
  5
188A2
  8
AM_0
 10
266.22753635536151
 20
469.33302681323067
 30
0.0
 11
271.1263233849229
 21
469.33302681323079
 31
0.0
  0
ARC
  5
188A3
  8
AM_0
 10
261.35413918295711
 20
469.83302681323062
 30
0.0
 40
2.9999999999999978
 50
270.0
 51
324.31466528734541
1001
GENIUS_GENOBJ-N-FIL_13
1002
{
1000
OWNER
1000
GEN
1002
}
1001
GENIUS_GENODEF_13
1002
{
1000
HIER
1070
     0
1002
}
1002
{
1000
MANEDIT
1070
     0
1002
}
1002
{
1000
NOSEL
1070
     0
1002
}
1002
{
1000
BEHIND
1070
     0
1002
}
1002
{
1000
OTHER
1070
     0
1002
}
1002
{
1000
REACTOR
1002
}
  0
ARC
  5
188A4
  8
AM_0
 10
266.22753635536151
 20
466.33302681323079
 30
0.0
 40
2.9999999999999978
 50
90.0
 51
144.31466528734541
1001
GENIUS_GENOBJ-N-FIL_13
1002
{
1000
OWNER
1000
GEN
1002
}
1001
GENIUS_GENODEF_13
1002
{
1000
HIER
1070
     0
1002
}
1002
{
1000
MANEDIT
1070
     0
1002
}
1002
{
1000
NOSEL
1070
     0
1002
}
1002
{
1000
BEHIND
1070
     0
1002
}
1002
{
1000
OTHER
1070
     0
1002
}
1002
{
1000
REACTOR
1002
}
  0
ARC
  5
188A5
  8
AM_0
 10
271.1263233849229
 20
471.33302681323079
 30
0.0
 40
2.0
 50
270.0
 51
355.00000000000028
1001
GENIUS_GENOBJ-N-FIL_13
1002
{
1000
OWNER
1000
GEN
1002
}
1001
GENIUS_GENODEF_13
1002
{
1000
HIER
1070
     0
1002
}
1002
{
1000
MANEDIT
1070
     0
1002
}
1002
{
1000
NOSEL
1070
     0
1002
}
1002
{
1000
BEHIND
1070
     0
1002
}
1002
{
1000
OTHER
1070
     0
1002
}
1002
{
1000
REACTOR
1002
}
  0
ARC
  5
188A6
  8
AM_0
 10
289.088742963144
 20
481.83301272352207
 30
0.0
 40
2.0
 50
1.0000117735560941
 51
90.0
1001
GENIUS_GENOBJ-N-FIL_13
1002
{
1000
OWNER
1000
GEN
1002
}
1001
GENIUS_GENODEF_13
1002
{
1000
HIER
1070
     0
1002
}
1002
{
1000
MANEDIT
1070
     0
1002
}
1002
{
1000
NOSEL
1070
     0
1002
}
1002
{
1000
BEHIND
1070
     0
1002
}
1002
{
1000
OTHER
1070
     0
1002
}
1002
{
1000
REACTOR
1002
}
  0
LINE
  5
188A7
  8
AM_0
 10
361.22756900380671
 20
477.83302023370788
 30
0.0
 11
361.22756900380671
 21
481.83302035291729
 31
0.0
  0
LINE
  5
188A8
  8
ﾁｭｳｼﾝｾﾝ1
 10
398.72757012139391
 20
415.82601572424619
 30
0.0
 11
398.7275701213938
 21
592.83303114135811
 31
0.0
  0
LINE
  5
188A9
  8
ｶｸﾚｾﾝ2
 10
444.22757147739878
 20
481.83302035291729
 30
0.0
 11
444.22757147739878
 21
579.83303090293975
 31
0.0
  0
LINE
  5
188AA
  8
ﾁｭｳｼﾝｾﾝ1
 10
449.72757164131201
 20
478.08301653821962
 30
0.0
 11
449.72757164131201
 21
583.58302708824215
 31
0.0
  0
LINE
  5
188AB
  8
ｶｸﾚｾﾝ2
 10
455.2275718052245
 20
481.83302035291729
 30
0.0
 11
455.2275718052245
 21
579.83303090293975
 31
0.0
  0
LINE
  5
188AC
  8
AM_0
 10
461.72757199893988
 20
559.83302267749832
 30
0.0
 11
460.3660912454738
 21
481.8330127235223
 31
0.0
  0
LINE
  5
188B0
  8
AM_0
 10
370.72757012139402
 20
577.83302327354477
 30
0.0
 11
370.72757012139402
 21
572.83302327354465
 31
0.0
  0
LINE
  5
188B1
  8
AM_0
 10
371.72757012139402
 20
579.83302327354465
 30
0.0
 11
371.72757012139402
 21
572.83302327354465
 31
0.0
  0
ARC
  5
188B2
  8
AM_0
 10
369.72757012139402
 20
577.83302327354477
 30
0.0
 40
1.0
 50
0.0
 51
90.0
1001
GENIUS_GENOBJ-N-FIL_13
1002
{
1000
OWNER
1000
GEN
1002
}
1001
GENIUS_GENODEF_13
1002
{
1000
HIER
1070
     0
1002
}
1002
{
1000
MANEDIT
1070
     0
1002
}
1002
{
1000
NOSEL
1070
     0
1002
}
1002
{
1000
BEHIND
1070
     0
1002
}
1002
{
1000
OTHER
1070
     0
1002
}
1002
{
1000
REACTOR
1002
}
  0
LINE
  5
188B3
  8
AM_0
 10
436.22757123898072
 20
583.83303102214893
 30
0.0
 11
436.22757123898072
 21
579.83303090293975
 31
0.0
  0
LINE
  5
188B4
  8
AM_0
 10
461.37848141236429
 20
579.83302327354465
 30
0.0
 11
461.72757199893988
 21
559.83302267749832
 31
0.0
  0
LINE
  5
188B7
  8
AM_0
 10
436.22757123898072
 20
477.83302023370788
 30
0.0
 11
436.22757123898072
 21
481.83302035291729
 31
0.0
  0
LINE
  5
188B9
  8
ｶｸﾚｾﾝ2
 10
220.7274763553616
 20
562.3330218132312
 30
0.0
 11
146.7274763553616
 21
562.3330218132312
 31
0.0
  0
LINE
  5
188BA
  8
ｶｸﾚｾﾝ2
 10
223.7274763553616
 20
559.3330218132312
 30
0.0
 11
223.7274763553616
 21
502.33302181323108
 31
0.0
  0
ARC
  5
188BB
  8
ｶｸﾚｾﾝ2
 10
220.72747635536149
 20
559.33302181323074
 30
0.0
 40
3.0
 50
0.0
 51
90.0
  0
LINE
  5
188BC
  8
ｶｸﾚｾﾝ2
 10
220.7274763553616
 20
499.3330218132312
 30
0.0
 11
146.7274763553616
 21
499.3330218132312
 31
0.0
  0
ARC
  5
188BD
  8
ｶｸﾚｾﾝ2
 10
220.72747635536149
 20
502.33302181323103
 30
0.0
 40
3.0
 50
270.0
 51
0.0
  0
LINE
  5
188BE
  8
ｶｸﾚｾﾝ2
 10
143.7274763553616
 20
502.33302181323108
 30
0.0
 11
143.7274763553616
 21
559.3330218132312
 31
0.0
  0
ARC
  5
188BF
  8
ｶｸﾚｾﾝ2
 10
146.72747635536149
 20
502.33302181323108
 30
0.0
 40
3.0
 50
180.0
 51
270.0
  0
ARC
  5
188C0
  8
ｶｸﾚｾﾝ2
 10
146.72747635536149
 20
559.3330218132312
 30
0.0
 40
3.0
 50
90.0
 51
180.0
  0
LINE
  5
188C1
  8
AM_0
 10
119.2275063553616
 20
466.9430418132311
 30
0.0
 11
172.22750635536161
 21
466.9430418132311
 31
0.0
  0
LINE
  5
188C2
  8
AM_0
 10
119.2275063553616
 20
465.59303181323122
 30
0.0
 11
172.22750635536161
 21
465.59303181323122
 31
0.0
  0
LINE
  5
188C3
  8
AM_0
 10
119.2275063553616
 20
464.91304181323108
 30
0.0
 11
172.22750635536161
 21
464.91304181323108
 31
0.0
  0
LINE
  5
188C4
  8
AM_0
 10
119.2275063553616
 20
594.72303281323104
 30
0.0
 11
172.22750635536161
 21
594.72303281323104
 31
0.0
  0
LINE
  5
188C5
  8
AM_0
 10
119.2275063553616
 20
596.07304681323092
 30
0.0
 11
172.22750635536161
 21
596.07304681323092
 31
0.0
  0
LINE
  5
188C6
  8
AM_0
 10
119.2275063553616
 20
596.74302881323115
 30
0.0
 11
172.22750635536161
 21
596.74302881323115
 31
0.0
  0
LINE
  5
188C7
  8
AM_0
 10
141.22750635536161
 20
577.18304181323094
 30
0.0
 11
239.62752648898831
 21
577.18304181323094
 31
0.0
  0
LINE
  5
188C8
  8
AM_0
 10
141.22750635536161
 20
484.48303181323092
 30
0.0
 11
239.62752648898831
 21
484.48303181323109
 31
0.0
  0
LINE
  5
188C9
  8
AM_0
 10
236.5775363553615
 20
566.83302181323131
 30
0.0
 11
101.7775563553616
 21
566.83302181323131
 31
0.0
  0
LINE
  5
188CA
  8
AM_0
 10
119.2275063553616
 20
468.97304181323102
 30
0.0
 11
236.03749635536161
 21
468.97304181323102
 31
0.0
  0
LINE
  5
188CB
  8
AM_0
 10
119.2275063553616
 20
592.69303381323107
 30
0.0
 11
236.03749635536161
 21
592.69303381323107
 31
0.0
  0
LINE
  5
188CC
  8
AM_0
 10
109.9074963553615
 20
494.11304181323112
 30
0.0
 11
240.04750635536149
 21
494.11304181323112
 31
0.0
  0
LINE
  5
188CD
  8
AM_0
 10
236.5775363553615
 20
494.83302181323108
 30
0.0
 11
110.7775563553616
 21
494.83302181323108
 31
0.0
  0
LINE
  5
188CE
  8
AM_0
 10
236.5775363553615
 20
564.83303181323129
 30
0.0
 11
101.7775563553616
 21
564.83303181323129
 31
0.0
  0
LINE
  5
188CF
  8
AM_0
 10
240.04750635536149
 20
564.20303181323095
 30
0.0
 11
100.9074963553615
 21
564.20303181323095
 31
0.0
  0
LINE
  5
188D0
  8
AM_0
 10
100.9074963553615
 20
567.55304181323118
 30
0.0
 11
240.04750635536149
 21
567.55304181323118
 31
0.0
  0
LINE
  5
188D1
  8
AM_0
 10
240.04750635536149
 20
497.46304181323092
 30
0.0
 11
109.9074963553615
 21
497.46304181323092
 31
0.0
  0
LINE
  5
188D2
  8
AM_0
 10
239.17247635536151
 20
556.83303591323124
 30
0.0
 11
101.7775563553616
 21
556.83304181323115
 31
0.0
  0
LINE
  5
188D3
  8
AM_0
 10
239.1724764077216
 20
554.83302771323088
 30
0.0
 11
101.7775563553616
 21
554.8330218132312
 31
0.0
  0
LINE
  5
188D4
  8
AM_0
 10
100.6875263553616
 20
557.31303181323119
 30
0.0
 11
240.26250635536161
 21
557.31304181323105
 31
0.0
  0
LINE
  5
188D5
  8
AM_0
 10
100.6875263553616
 20
554.39302181323114
 30
0.0
 11
240.26250643180691
 21
554.39304181323109
 31
0.0
  0
LINE
  5
188D6
  8
AM_0
 10
100.5575163553616
 20
547.17304181323095
 30
0.0
 11
240.39251635536149
 21
547.17302181323112
 31
0.0
  0
LINE
  5
188D7
  8
AM_0
 10
239.16248189752051
 20
546.83301984298919
 30
0.0
 11
101.7874963553615
 21
546.8330218132312
 31
0.0
  0
LINE
  5
188D8
  8
AM_0
 10
239.16248200224001
 20
544.8330237825603
 30
0.0
 11
101.7874963553615
 21
544.83304181323115
 31
0.0
  0
LINE
  5
188D9
  8
AM_0
 10
100.5575163553616
 20
544.51303181323124
 30
0.0
 11
240.3925164250002
 21
544.51302181323115
 31
0.0
  0
LINE
  5
188DA
  8
AM_0
 10
100.4975263553616
 20
537.10303181323115
 30
0.0
 11
240.45250635536149
 21
537.10304581323101
 31
0.0
  0
LINE
  5
188DB
  8
AM_0
 10
239.16248189752051
 20
536.83303984298925
 30
0.0
 11
101.7874963553615
 21
536.8330218132312
 31
0.0
  0
LINE
  5
188DC
  8
AM_0
 10
239.16248200224001
 20
534.83304378256014
 30
0.0
 11
101.7874963553615
 21
534.8330218132312
 31
0.0
  0
LINE
  5
188DD
  8
AM_0
 10
100.4975263553616
 20
534.56303181323119
 30
0.0
 11
240.45250642185869
 21
534.56303781323118
 31
0.0
  0
LINE
  5
188DE
  8
AM_0
 10
100.4975263553616
 20
527.09303181323105
 30
0.0
 11
240.45250635536149
 21
527.09305581323099
 31
0.0
  0
LINE
  5
188DF
  8
AM_0
 10
239.16248189752051
 20
526.83303984298936
 30
0.0
 11
101.7874963553615
 21
526.83304181323115
 31
0.0
  0
LINE
  5
188E0
  8
AM_0
 10
239.16248200224001
 20
524.83304378256014
 30
0.0
 11
101.7874963553615
 21
524.8330218132312
 31
0.0
  0
LINE
  5
188E1
  8
AM_0
 10
100.4975263553616
 20
524.56303181323096
 30
0.0
 11
240.45250642159689
 21
524.56304781323115
 31
0.0
  0
LINE
  5
188E2
  8
AM_0
 10
100.5575163553616
 20
517.15303181323111
 30
0.0
 11
240.39251635536149
 21
517.15303181323111
 31
0.0
  0
LINE
  5
188E3
  8
AM_0
 10
239.16248189752051
 20
516.8330198429893
 30
0.0
 11
101.7874963553615
 21
516.83304181323115
 31
0.0
  0
LINE
  5
188E4
  8
AM_0
 10
239.16248200224001
 20
514.8330237825603
 30
0.0
 11
101.7874963553615
 21
514.83304181323115
 31
0.0
  0
LINE
  5
188E5
  8
AM_0
 10
100.5575163553616
 20
514.49304181323123
 30
0.0
 11
240.3925164250002
 21
514.49303181323126
 31
0.0
  0
LINE
  5
188E6
  8
AM_0
 10
109.6875263553615
 20
507.27303181323123
 30
0.0
 11
240.2575163553615
 21
507.27303181323123
 31
0.0
  0
LINE
  5
188E7
  8
AM_0
 10
239.1674863553614
 20
506.83304591323122
 30
0.0
 11
110.7775563553616
 21
506.83302181323108
 31
0.0
  0
LINE
  5
188E8
  8
AM_0
 10
239.1674864077215
 20
504.83303771323108
 30
0.0
 11
110.7775563553616
 21
504.83304181323109
 31
0.0
  0
LINE
  5
188E9
  8
AM_0
 10
109.6875263553615
 20
504.34305181323111
 30
0.0
 11
240.2575164320686
 21
504.34303181323111
 31
0.0
  0
LINE
  5
188EA
  8
AM_0
 10
236.57751735523931
 20
496.83304016749901
 30
0.0
 11
110.7775563553616
 21
496.83304181323109
 31
0.0
  0
LINE
  5
188EB
  8
AM_0
 10
91.227536355361522
 20
579.42303181323109
 30
0.0
 11
91.227536355361522
 21
535.83301181323122
 31
0.0
  0
LINE
  5
188EC
  8
AM_0
 10
96.227476355361574
 20
588.26302081323115
 30
0.0
 11
96.227476355361574
 21
530.83302181323108
 31
0.0
  0
LINE
  5
188ED
  8
AM_0
 10
89.727536355361494
 20
510.83303181323117
 30
0.0
 11
89.727536355361494
 21
550.83301181323122
 31
0.0
  0
LINE
  5
188EE
  8
AM_0
 10
88.733636355361554
 20
546.05491181323134
 30
0.0
 11
88.733636355361554
 21
515.61128181323124
 31
0.0
  0
LINE
  5
188EF
  8
AM_0
 10
99.947536355361635
 20
482.48303181323121
 30
0.0
 11
100.4875763553616
 21
479.49303181323091
 31
0.0
  0
LINE
  5
188F0
  8
AM_0
 10
93.227476355361532
 20
481.33302181323108
 30
0.0
 11
93.227476355361532
 21
481.86302181323111
 31
0.0
  0
LINE
  5
188F1
  8
AM_0
 10
92.997496355361477
 20
481.21302181323108
 30
0.0
 11
91.727476355361517
 21
481.95303181323112
 31
0.0
  0
LINE
  5
188F2
  8
AM_0
 10
96.227476355361574
 20
473.40303181323111
 30
0.0
 11
96.227476355361574
 21
530.83302181323108
 31
0.0
  0
ARC
  5
188F3
  8
AM_0
 10
119.22206635536151
 20
467.58760181323129
 30
0.0
 40
1.9945760999999991
 50
179.84400999999721
 51
270.15599200000003
  0
ARC
  5
188F4
  8
AM_0
 10
119.2300063553616
 20
466.90788181323109
 30
0.0
 40
1.994844099999999
 50
194.3627999999992
 51
269.92834200000209
  0
LINE
  5
188F5
  8
AM_0
 10
102.33748635536161
 20
467.53304181323108
 30
0.0
 11
115.83748635536161
 21
467.53304181323108
 31
0.0
  0
LINE
  5
188F6
  8
AM_0
 10
102.3675163553615
 20
469.16304181323108
 30
0.0
 11
115.7275063553615
 21
469.16304181323108
 31
0.0
  0
LINE
  5
188F7
  8
AM_0
 10
102.3975463553615
 20
472.56303181323119
 30
0.0
 11
115.7275063553615
 21
472.56303181323119
 31
0.0
  0
LINE
  5
188F8
  8
AM_0
 10
102.4574863553615
 20
477.85304181323107
 30
0.0
 11
115.7275063553615
 21
477.85304181323107
 31
0.0
  0
ARC
  5
188F9
  8
AM_0
 10
102.3991963553616
 20
474.55843181323121
 30
0.0
 40
1.9953879999999991
 50
192.01538000000019
 51
269.9519330000021
  0
LINE
  5
188FA
  8
AM_0
 10
100.4175063553616
 20
470.70303181323112
 30
0.0
 11
99.497466355361567
 21
474.58302181323108
 31
0.0
  0
ARC
  5
188FB
  8
AM_0
 10
98.055806355361597
 20
472.2059318132309
 30
0.0
 40
1.5070961
 50
14.09782000000339
 51
89.935179999998283
  0
LINE
  5
188FC
  8
AM_0
 10
98.057516355361614
 20
473.71303181323111
 30
0.0
 11
99.7075463553616
 21
473.71303181323111
 31
0.0
  0
LINE
  5
188FD
  8
AM_0
 10
96.227446355361636
 20
473.40303181323111
 30
0.0
 11
99.047506355361634
 21
473.3330418132312
 31
0.0
  0
ARC
  5
188FE
  8
AM_0
 10
102.33480635536159
 20
469.53081181323108
 30
0.0
 40
1.9977800999999991
 50
194.13223000000309
 51
270.07691900000231
  0
LINE
  5
188FF
  8
AM_0
 10
100.39748635536159
 20
469.04302181323129
 30
0.0
 11
99.517476355361651
 21
472.57301181323129
 31
0.0
  0
ARC
  5
18900
  8
AM_0
 10
102.3603163553616
 20
471.15849181323108
 30
0.0
 40
1.9954841000000001
 50
193.19407999999811
 51
270.20654200000092
  0
LINE
  5
18901
  8
AM_0
 10
98.017476355361637
 20
479.79305181323122
 30
0.0
 11
100.4375263553615
 21
479.79305181323122
 31
0.0
  0
ARC
  5
18902
  8
AM_0
 10
98.018706355361616
 20
478.28890181323112
 30
0.0
 40
1.50414
 50
12.44475000000339
 51
90.045750000001433
  0
LINE
  5
18903
  8
AM_0
 10
98.037496355361554
 20
475.73305181323121
 30
0.0
 11
100.0974963553616
 21
475.73305181323121
 31
0.0
  0
ARC
  5
18904
  8
AM_0
 10
98.036706355361645
 20
474.23023181323111
 30
0.0
 40
1.5028081
 50
13.577820000002809
 51
89.969209999998441
  0
ARC
  5
18905
  8
AM_0
 10
93.489506355361513
 20
482.0789018132312
 30
0.0
 40
0.9959119600000002
 50
240.39300999999989
 51
270.45855599999942
  0
ARC
  5
18906
  8
AM_0
 10
95.722896355361513
 20
480.57840181323093
 30
0.0
 40
0.5046359900000002
 50
0.5237599999994802
 51
89.476240000000516
  0
LINE
  5
18907
  8
AM_0
 10
93.497496355361477
 20
481.08302181323108
 30
0.0
 11
95.727536355361494
 21
481.08302181323108
 31
0.0
  0
ARC
  5
18908
  8
AM_0
 10
102.44936635536151
 20
479.84647181323112
 30
0.0
 40
1.993431999999999
 50
190.21196999999981
 51
270.23411600000071
  0
LINE
  5
18909
  8
AM_0
 10
100.44753635536161
 20
474.14304181323109
 30
0.0
 11
99.487516355361535
 21
478.61304181323101
 31
0.0
  0
LINE
  5
1890A
  8
AM_0
 10
117.2275063553616
 20
468.94304181323088
 30
0.0
 11
117.2275063553616
 21
476.35304181323119
 31
0.0
  0
ARC
  5
1890B
  8
AM_0
 10
119.22475635536161
 20
468.94025181323087
 30
0.0
 40
1.9972080000000001
 50
179.91986000000111
 51
270.08014299999962
  0
ARC
  5
1890C
  8
AM_0
 10
119.22390635536151
 20
470.96942181323112
 30
0.0
 40
1.996383999999999
 50
179.89615999999739
 51
270.103837
  0
ARC
  5
1890D
  8
AM_0
 10
115.8411463553616
 20
466.02614181323122
 30
0.0
 40
1.506888
 50
14.87693000000551
 51
90.137770000000501
  0
ARC
  5
1890E
  8
AM_0
 10
115.7236563553616
 20
467.65920181323111
 30
0.0
 40
1.503848099999999
 50
0.1464000000030106
 51
89.853599999996987
  0
ARC
  5
1890F
  8
AM_0
 10
115.7257363553616
 20
471.06125181323119
 30
0.0
 40
1.5017959999999979
 50
0.0685499999989591
 51
89.931450000001036
  0
ARC
  5
18910
  8
AM_0
 10
115.7218263553616
 20
476.34737181323118
 30
0.0
 40
1.505676
 50
0.2155299999989793
 51
89.784480000001125
  0
LINE
  5
18911
  8
AM_0
 10
89.727536355361494
 20
515.68301181323113
 30
0.0
 11
94.007506355361443
 21
515.68301181323113
 31
0.0
  0
LINE
  5
18912
  8
AM_0
 10
95.227476355361546
 20
514.83302181323097
 30
0.0
 11
92.227476355361574
 21
514.83302181323097
 31
0.0
  0
LINE
  5
18913
  8
AM_0
 10
95.227476355361546
 20
516.83303181323106
 30
0.0
 11
92.227476355361574
 21
516.83303181323106
 31
0.0
  0
LINE
  5
18914
  8
AM_0
 10
95.227476355361546
 20
504.83303181323112
 30
0.0
 11
92.227476355361574
 21
504.83303181323112
 31
0.0
  0
LINE
  5
18915
  8
AM_0
 10
95.227476355361546
 20
506.83302181323108
 30
0.0
 11
92.227476355361574
 21
506.83302181323108
 31
0.0
  0
LINE
  5
18916
  8
AM_0
 10
93.037476355361477
 20
495.22300181323101
 30
0.0
 11
91.837466355361585
 21
495.73300181323111
 31
0.0
  0
LINE
  5
18917
  8
AM_0
 10
93.087526355361575
 20
497.1330218132311
 30
0.0
 11
91.937496355361517
 21
497.48303181323121
 31
0.0
  0
LINE
  5
18918
  8
AM_0
 10
92.987486355361526
 20
483.33302181323108
 30
0.0
 11
91.707456355361501
 21
484.10301181323109
 31
0.0
  0
LINE
  5
18919
  8
AM_0
 10
92.977476355361517
 20
487.87306181323112
 30
0.0
 11
91.677486355361438
 21
488.72305181323111
 31
0.0
  0
LINE
  5
1891A
  8
AM_0
 10
92.997496355361477
 20
488.98304181323113
 30
0.0
 11
91.717466355361552
 21
489.73304181323118
 31
0.0
  0
LINE
  5
1891B
  8
AM_0
 10
93.017516355361522
 20
482.33299181323122
 30
0.0
 11
91.777526355361488
 21
482.96299181323121
 31
0.0
  0
LINE
  5
1891C
  8
AM_0
 10
93.007506355361457
 20
484.44300181323121
 30
0.0
 11
91.757446355361481
 21
485.11300181323122
 31
0.0
  0
LINE
  5
1891D
  8
AM_0
 10
95.227476355361546
 20
536.8330218132312
 30
0.0
 11
92.227476355361574
 21
536.8330218132312
 31
0.0
  0
LINE
  5
1891E
  8
AM_0
 10
95.227476355361546
 20
534.83303181323106
 30
0.0
 11
92.227476355361574
 21
534.83303181323106
 31
0.0
  0
LINE
  5
1891F
  8
AM_0
 10
95.227476355361546
 20
524.8330218132312
 30
0.0
 11
92.227476355361574
 21
524.8330218132312
 31
0.0
  0
LINE
  5
18920
  8
AM_0
 10
95.227476355361546
 20
526.83302181323108
 30
0.0
 11
92.227476355361574
 21
526.83302181323108
 31
0.0
  0
LINE
  5
18921
  8
AM_0
 10
91.227536355361522
 20
482.81301181323113
 30
0.0
 11
91.227536355361522
 21
525.83303181323106
 31
0.0
  0
ARC
  5
18922
  8
AM_0
 10
92.222286355361447
 20
489.55542181323108
 30
0.0
 40
0.9948279899999999
 50
179.56186999999991
 51
236.79531000000051
  0
ARC
  5
18923
  8
AM_0
 10
92.220706355361457
 20
482.81510181323108
 30
0.0
 40
0.99319202
 50
180.1204399999996
 51
240.2265999999988
  0
ARC
  5
18924
  8
AM_0
 10
92.223086355361474
 20
483.85333181323108
 30
0.0
 40
0.99558806
 50
180.0177499999989
 51
243.41250999999991
  0
ARC
  5
18925
  8
AM_0
 10
92.221926355361461
 20
484.9540518132311
 30
0.0
 40
0.9944360299999999
 50
180.0595100000007
 51
238.8478299999995
  0
ARC
  5
18926
  8
AM_0
 10
92.220706355361457
 20
485.9915918132312
 30
0.0
 40
0.9932120399999999
 50
179.91816999999921
 51
242.20066
  0
ARC
  5
18927
  8
AM_0
 10
92.221556355361486
 20
490.58982181323108
 30
0.0
 40
0.99407601
 50
179.8153599999992
 51
239.53080000000151
  0
ARC
  5
18928
  8
AM_0
 10
92.22387635536154
 20
496.65144181323109
 30
0.0
 40
0.99640006
 50
179.90960000000121
 51
247.18261000000129
  0
ARC
  5
18929
  8
AM_0
 10
92.223756355361516
 20
498.43727181323089
 30
0.0
 40
0.9962600499999998
 50
179.6695099999998
 51
253.30251000000001
  0
ARC
  5
1892A
  8
AM_0
 10
92.222536355361513
 20
505.82809181323108
 30
0.0
 40
0.9950800499999999
 50
179.71593000000081
 51
270.28407899999871
  0
ARC
  5
1892B
  8
AM_0
 10
92.227656355361447
 20
505.83280181323107
 30
0.0
 40
1.0002040000000001
 50
90.011679999999231
 51
179.98832999999871
  0
LINE
  5
1892C
  8
AM_0
 10
89.727476355361532
 20
510.83300181323131
 30
0.0
 11
91.227476355361546
 21
510.70300181323108
 31
0.0
  0
ARC
  5
1892D
  8
AM_0
 10
92.222536355361513
 20
515.82811181323086
 30
0.0
 40
0.99508399
 50
179.7161299999988
 51
270.28386699999919
  0
LINE
  5
1892E
  8
AM_0
 10
89.727536355361494
 20
513.55302181323123
 30
0.0
 11
91.227536355361522
 21
513.55302181323123
 31
0.0
  0
LINE
  5
1892F
  8
AM_0
 10
89.233636355361668
 20
512.84126181323131
 30
0.0
 11
89.733636355361554
 21
512.88127181323148
 31
0.0
  0
LINE
  5
18930
  8
AM_0
 10
88.733636355361554
 20
515.61128181323124
 30
0.0
 11
89.233636355361668
 21
512.84126181323131
 31
0.0
  0
ARC
  5
18931
  8
AM_0
 10
92.227656355361447
 20
515.83282181323125
 30
0.0
 40
1.000199999999998
 50
90.011469999999875
 51
179.98853000000011
  0
ARC
  5
18932
  8
AM_0
 10
92.222536355361513
 20
525.82809181323114
 30
0.0
 40
0.9950879799999999
 50
179.71634999999941
 51
270.28365500000041
  0
ARC
  5
18933
  8
AM_0
 10
92.227656355361447
 20
525.83282181323125
 30
0.0
 40
1.0001959999999981
 50
90.011260000000647
 51
179.98875000000049
  0
ARC
  5
18934
  8
AM_0
 10
92.222536355361513
 20
535.82809181323114
 30
0.0
 40
0.9950800499999999
 50
179.7159000000002
 51
270.28410600000052
  0
POINT
  5
18935
  8
AM_0
 10
88.733636355361696
 20
530.83305181323124
 30
0.0
  0
ARC
  5
18936
  8
AM_0
 10
92.227656355361447
 20
535.83280181323096
 30
0.0
 40
1.0002040000000001
 50
90.011700000001682
 51
179.98830000000149
  0
LINE
  5
18937
  8
AM_0
 10
141.22750635536161
 20
484.48305181323133
 30
0.0
 11
106.2275063553616
 21
486.51305181323107
 31
0.0
  0
ARC
  5
18938
  8
AM_0
 10
118.2275063553616
 20
495.8330418132312
 30
0.0
 40
1.0000040999999991
 50
90.0
 51
269.99999700000228
  0
ARC
  5
18939
  8
AM_0
 10
110.7775563553616
 20
495.8330418132312
 30
0.0
 40
1.0000040999999991
 50
90.0
 51
269.99999700000228
  0
ARC
  5
1893A
  8
AM_0
 10
109.9074963553615
 20
495.78804181323108
 30
0.0
 40
1.6750081000000001
 50
90.0
 51
269.99999700000228
  0
LINE
  5
1893B
  8
AM_0
 10
96.227506355361555
 20
496.52304181323109
 30
0.0
 11
106.2275063553616
 21
496.52304181323109
 31
0.0
  0
LINE
  5
1893C
  8
AM_0
 10
96.227506355361555
 20
482.48305181323121
 30
0.0
 11
106.2275063553616
 21
482.48305181323121
 31
0.0
  0
LINE
  5
1893D
  8
AM_0
 10
96.227506355361555
 20
488.14304181323109
 30
0.0
 11
106.2275063553616
 21
488.14304181323109
 31
0.0
  0
ARC
  5
1893E
  8
AM_0
 10
95.225096355361515
 20
489.84539181323112
 30
0.0
 40
1.002375999999999
 50
270.1355900000006
 51
359.86440800999929
  0
ARC
  5
1893F
  8
AM_0
 10
93.452266355361516
 20
483.22705181323113
 30
0.0
 40
0.9941280500000002
 50
244.0651900000006
 51
270.87719199999799
  0
ARC
  5
18940
  8
AM_0
 10
93.496336355361436
 20
484.18722181323108
 30
0.0
 40
0.9942600099999999
 50
239.21890999999769
 51
270.64411800000079
  0
ARC
  5
18941
  8
AM_0
 10
93.462586355361495
 20
485.32838181323109
 30
0.0
 40
0.99546796
 50
242.79633999999999
 51
270.85855199999838
  0
ARC
  5
18942
  8
AM_0
 10
95.228516355361535
 20
485.33203181323108
 30
0.0
 40
0.9990080599999998
 50
269.94315700000072
 51
0.0568499999996038
  0
ARC
  5
18943
  8
AM_0
 10
95.729126355361458
 20
482.73138181323111
 30
0.0
 40
0.4983640000000002
 50
269.81140200000237
 51
0.1885900000016733
  0
LINE
  5
18944
  8
AM_0
 10
93.507506355361443
 20
483.19303181323107
 30
0.0
 11
96.227476355361574
 21
483.19303181323107
 31
0.0
  0
LINE
  5
18945
  8
AM_0
 10
93.477536355361494
 20
484.33302181323108
 30
0.0
 11
95.227476355361546
 21
484.33302181323108
 31
0.0
  0
LINE
  5
18946
  8
AM_0
 10
93.46746635536158
 20
482.23303181323121
 30
0.0
 11
95.727536355361494
 21
482.23303181323121
 31
0.0
  0
LINE
  5
18947
  8
AM_0
 10
93.227476355361532
 20
483.43301181323119
 30
0.0
 11
93.227476355361532
 21
483.98301181323109
 31
0.0
  0
ARC
  5
18948
  8
AM_0
 10
93.534116355361562
 20
488.69921181323122
 30
0.0
 40
0.9962120099999999
 50
236.03009999999909
 51
269.61809400000141
  0
ARC
  5
18949
  8
AM_0
 10
93.506896355361505
 20
489.8395018132311
 30
0.0
 40
0.9965200400000001
 50
239.2567200000021
 51
269.45878700000048
  0
LINE
  5
1894A
  8
AM_0
 10
93.527526355361474
 20
487.70301181323111
 30
0.0
 11
96.227476355361574
 21
487.70301181323111
 31
0.0
  0
LINE
  5
1894B
  8
AM_0
 10
93.497496355361477
 20
488.84303181323122
 30
0.0
 11
95.227476355361546
 21
488.84303181323122
 31
0.0
  0
LINE
  5
1894C
  8
AM_0
 10
93.227476355361532
 20
488.00303181323119
 30
0.0
 11
93.227476355361532
 21
488.47302181323113
 31
0.0
  0
ARC
  5
1894D
  8
AM_0
 10
93.428466355361607
 20
496.13850181323107
 30
0.0
 40
0.99548006
 50
246.87296999999711
 51
269.94267899999801
  0
ARC
  5
1894E
  8
AM_0
 10
95.522946355361555
 20
494.43847181323122
 30
0.0
 40
0.7045519900000002
 50
0.3691099999995231
 51
89.630890000000477
  0
LINE
  5
1894F
  8
AM_0
 10
93.427486355361438
 20
495.14302181323109
 30
0.0
 11
95.527466355361526
 21
495.14302181323109
 31
0.0
  0
LINE
  5
18950
  8
AM_0
 10
93.227476355361532
 20
495.44302181323093
 30
0.0
 11
93.227476355361532
 21
496.50302181323099
 31
0.0
  0
ARC
  5
18951
  8
AM_0
 10
109.3774063553616
 20
489.62288181323112
 30
0.0
 40
1.004135999999999
 50
314.20256400000051
 51
5.1511600000042383
  0
LINE
  5
18952
  8
AM_0
 10
106.2275063553616
 20
482.48305181323121
 30
0.0
 11
106.2275063553616
 21
496.52304181323109
 31
0.0
  0
ARC
  5
18953
  8
AM_0
 10
105.8487163553616
 20
493.16498181323118
 30
0.0
 40
6.0039081999999979
 50
273.61728599999782
 51
314.7763070000006
  0
ARC
  5
18954
  8
AM_0
 10
105.3924163553615
 20
489.23526181323109
 30
0.0
 40
5.0078917000000001
 50
5.4746799999994851
 51
80.401279999998863
  0
ARC
  5
18955
  8
AM_0
 10
95.222596355361475
 20
503.82811181323092
 30
0.0
 40
1.0049318999999981
 50
0.2804200000001813
 51
89.719579999999823
  0
ARC
  5
18956
  8
AM_0
 10
93.366636355361464
 20
498.08573181323112
 30
0.0
 40
0.99277198
 50
253.66818000000049
 51
270.62519199999991
  0
ARC
  5
18957
  8
AM_0
 10
95.229186355361449
 20
498.0913218132311
 30
0.0
 40
0.99829602
 50
269.90203899999779
 51
0.0979599999993559
  0
LINE
  5
18958
  8
AM_0
 10
93.377506355361433
 20
497.09303181323099
 30
0.0
 11
95.227476355361546
 21
497.09303181323099
 31
0.0
  0
ARC
  5
18959
  8
AM_0
 10
95.227656355361447
 20
507.83287181323101
 30
0.0
 40
0.99985206
 50
269.99145300000112
 51
0.0085499999998415
  0
LINE
  5
1895A
  8
AM_0
 10
93.227476355361532
 20
505.20301181323111
 30
0.0
 11
93.227476355361532
 21
506.57301181323118
 31
0.0
  0
ARC
  5
1895B
  8
AM_0
 10
109.6875263553615
 20
505.80803181323108
 30
0.0
 40
1.4650000000000001
 50
90.0
 51
269.99999700000228
  0
ARC
  5
1895C
  8
AM_0
 10
110.7775563553616
 20
505.83304181323109
 30
0.0
 40
1.0000040999999991
 50
90.0
 51
269.99999700000228
  0
ARC
  5
1895D
  8
AM_0
 10
118.2275063553616
 20
505.83304181323109
 30
0.0
 40
1.0000040999999991
 50
90.0
 51
269.99999700000228
  0
ARC
  5
1895E
  8
AM_0
 10
95.227656355361447
 20
527.83287181323112
 30
0.0
 40
0.99984801
 50
269.99122099999857
 51
0.0087799999995646
  0
ARC
  5
1895F
  8
AM_0
 10
100.5575163553616
 20
515.82303181323118
 30
0.0
 40
1.3300000000000001
 50
90.0
 51
269.99999700000228
  0
ARC
  5
18960
  8
AM_0
 10
95.222596355361475
 20
513.82811181323109
 30
0.0
 40
1.004928
 50
0.2802199999997394
 51
89.719780000000256
  0
ARC
  5
18961
  8
AM_0
 10
95.227656355361447
 20
517.83288181323087
 30
0.0
 40
0.9998440099999999
 50
269.99100899999809
 51
0.0089900000004266
  0
LINE
  5
18962
  8
AM_0
 10
93.227476355361532
 20
515.22303181323093
 30
0.0
 11
93.227476355361532
 21
516.43301181323113
 31
0.0
  0
ARC
  5
18963
  8
AM_0
 10
101.77883635536161
 20
515.8330218132312
 30
0.0
 40
1.000035999999999
 50
89.500709999998392
 51
270.49928399999988
  0
ARC
  5
18964
  8
AM_0
 10
100.4975263553616
 20
525.82805181323101
 30
0.0
 40
1.265004
 50
90.0
 51
269.99999700000228
  0
LINE
  5
18965
  8
AM_0
 10
93.227476355361532
 20
525.22302181323084
 30
0.0
 11
93.227476355361532
 21
526.3830418132311
 31
0.0
  0
ARC
  5
18966
  8
AM_0
 10
95.222596355361475
 20
523.82812181323106
 30
0.0
 40
1.0049238999999981
 50
0.2800099999995513
 51
89.719990000000436
  0
ARC
  5
18967
  8
AM_0
 10
101.77883635536161
 20
525.83304181323115
 30
0.0
 40
1.000035999999999
 50
89.500709999998392
 51
270.49928399999988
  0
ARC
  5
18968
  8
AM_0
 10
118.2275063553616
 20
515.8330218132312
 30
0.0
 40
1.0000040999999991
 50
90.0
 51
269.99999700000228
  0
ARC
  5
18969
  8
AM_0
 10
118.2275063553616
 20
525.83304181323115
 30
0.0
 40
1.0000040999999991
 50
90.0
 51
269.99999700000228
  0
ARC
  5
1896A
  8
AM_0
 10
101.77883635536161
 20
535.83304181323115
 30
0.0
 40
1.000035999999999
 50
89.500709999998392
 51
270.49928399999988
  0
ARC
  5
1896B
  8
AM_0
 10
100.4975263553616
 20
535.83304181323115
 30
0.0
 40
1.270003999999999
 50
90.0
 51
269.99999700000228
  0
ARC
  5
1896C
  8
AM_0
 10
95.222536355361498
 20
533.82810181323111
 30
0.0
 40
1.0049318999999981
 50
0.2804500000010229
 51
89.719550000002229
  0
ARC
  5
1896D
  8
AM_0
 10
95.227656355361447
 20
537.83287181323112
 30
0.0
 40
0.99985206
 50
269.9914259999988
 51
0.0085700000020774
  0
LINE
  5
1896E
  8
AM_0
 10
93.227476355361532
 20
536.44303181323107
 30
0.0
 11
93.227476355361532
 21
535.28301181323116
 31
0.0
  0
ARC
  5
1896F
  8
AM_0
 10
118.2275063553616
 20
535.83304181323115
 30
0.0
 40
1.0000040999999991
 50
90.0
 51
269.99999700000228
  0
LINE
  5
18970
  8
AM_0
 10
92.997496355361477
 20
580.44299081323095
 30
0.0
 11
91.727476355361517
 21
579.71299481323126
 31
0.0
  0
LINE
  5
18971
  8
AM_0
 10
93.017456355361446
 20
579.32299581323127
 30
0.0
 11
91.777466355361526
 21
578.69299781323105
 31
0.0
  0
LINE
  5
18972
  8
AM_0
 10
92.977476355361517
 20
573.79301181323115
 30
0.0
 11
91.677486355361438
 21
572.94300581323114
 31
0.0
  0
LINE
  5
18973
  8
AM_0
 10
92.987486355361526
 20
578.33298981323094
 30
0.0
 11
91.707456355361501
 21
577.56297781323099
 31
0.0
  0
LINE
  5
18974
  8
AM_0
 10
92.997496355361477
 20
572.68300381323115
 30
0.0
 11
91.717526355361542
 21
571.93301881323123
 31
0.0
  0
LINE
  5
18975
  8
AM_0
 10
93.007506355361457
 20
577.21302481323096
 30
0.0
 11
91.757506355361457
 21
576.55303681323085
 31
0.0
  0
LINE
  5
18976
  8
AM_0
 10
93.037476355361477
 20
566.44299781323105
 30
0.0
 11
91.837526355361575
 21
565.92303181323086
 31
0.0
  0
LINE
  5
18977
  8
AM_0
 10
93.087526355361575
 20
564.53300181323118
 30
0.0
 11
91.937496355361517
 21
564.17300181323105
 31
0.0
  0
LINE
  5
18978
  8
AM_0
 10
89.727536355361494
 20
545.98303181323115
 30
0.0
 11
94.307496355361522
 21
545.98303181323115
 31
0.0
  0
LINE
  5
18979
  8
AM_0
 10
95.227476355361546
 20
556.83301181323122
 30
0.0
 11
92.227476355361574
 21
556.83301181323122
 31
0.0
  0
LINE
  5
1897A
  8
AM_0
 10
95.227476355361546
 20
554.8330218132312
 30
0.0
 11
92.227476355361574
 21
554.8330218132312
 31
0.0
  0
LINE
  5
1897B
  8
AM_0
 10
95.227476355361546
 20
546.83303181323106
 30
0.0
 11
92.227476355361574
 21
546.83303181323106
 31
0.0
  0
LINE
  5
1897C
  8
AM_0
 10
95.227476355361546
 20
544.83301181323122
 30
0.0
 11
92.227476355361574
 21
544.83301181323122
 31
0.0
  0
ARC
  5
1897D
  8
AM_0
 10
92.222536355361513
 20
545.82810181323111
 30
0.0
 40
0.99508399
 50
179.71610999999879
 51
270.2838940000006
  0
LINE
  5
1897E
  8
AM_0
 10
89.727536355361494
 20
548.11302181323106
 30
0.0
 11
91.227536355361522
 21
548.11302181323106
 31
0.0
  0
LINE
  5
1897F
  8
AM_0
 10
89.233636355361668
 20
548.82487181323154
 30
0.0
 11
89.733666355361507
 21
548.78486181323115
 31
0.0
  0
ARC
  5
18980
  8
AM_0
 10
92.227656355361447
 20
545.83281181323105
 30
0.0
 40
1.000199999999998
 50
90.011489999999029
 51
179.9884999999997
  0
LINE
  5
18981
  8
AM_0
 10
88.733636355361554
 20
546.0548818132313
 30
0.0
 11
89.233636355361668
 21
548.82487181323154
 31
0.0
  0
LINE
  5
18982
  8
AM_0
 10
89.727536355361494
 20
550.8330218132312
 30
0.0
 11
91.227476355361546
 21
550.96302181323097
 31
0.0
  0
ARC
  5
18983
  8
AM_0
 10
92.227656355361447
 20
555.83282181323125
 30
0.0
 40
1.0001959999999981
 50
90.011279999999786
 51
179.98872000000009
  0
ARC
  5
18984
  8
AM_0
 10
92.222536355361513
 20
555.82808181323117
 30
0.0
 40
0.99508399
 50
179.71632000000011
 51
270.28367600000058
  0
ARC
  5
18985
  8
AM_0
 10
92.223996355361578
 20
565.00455181323093
 30
0.0
 40
0.9964760499999998
 50
112.82034
 51
180.08741999999921
  0
ARC
  5
18986
  8
AM_0
 10
92.22387635536154
 20
563.21867881323124
 30
0.0
 40
0.9963800299999999
 50
106.7029300000017
 51
179.75050999999979
  0
ARC
  5
18987
  8
AM_0
 10
92.226566355361555
 20
572.10833481323095
 30
0.0
 40
0.9991000299999999
 50
123.33823000000029
 51
180.30457999999891
  0
ARC
  5
18988
  8
AM_0
 10
92.225956355361504
 20
571.07371981323126
 30
0.0
 40
0.9984599899999999
 50
120.613450000001
 51
180.04038000000051
  0
ARC
  5
18989
  8
AM_0
 10
92.225216355361553
 20
575.67172781323109
 30
0.0
 40
0.99770796
 50
117.95523999999889
 51
179.92595000000051
  0
ARC
  5
1898A
  8
AM_0
 10
92.223146355361564
 20
577.80266281323111
 30
0.0
 40
0.99566799
 50
116.5901700000028
 51
179.9795699999992
  0
ARC
  5
1898B
  8
AM_0
 10
92.225096355361515
 20
578.84835581323114
 30
0.0
 40
0.9976240400000001
 50
119.92045999999741
 51
179.7324899999993
  0
ARC
  5
1898C
  8
AM_0
 10
92.226256355361457
 20
576.70952381323116
 30
0.0
 40
0.9987800700000001
 50
121.29145000000111
 51
180.37332999999981
  0
ARC
  5
1898D
  8
AM_0
 10
105.8577563553616
 20
568.48653181323095
 30
0.0
 40
6.007896399999999
 50
45.382730000005701
 51
86.471550000001656
  0
LINE
  5
1898E
  8
AM_0
 10
106.2275063553616
 20
579.18303181323085
 30
0.0
 11
106.2275063553616
 21
567.49303142536235
 31
0.0
  0
ARC
  5
1898F
  8
AM_0
 10
95.227656355361447
 20
557.83286181323115
 30
0.0
 40
0.99984801
 50
269.99119299999802
 51
0.0088099999996805
  0
ARC
  5
18990
  8
AM_0
 10
100.5575163553616
 20
545.84302181323119
 30
0.0
 40
1.3300000000000001
 50
90.0
 51
269.99999700000228
  0
ARC
  5
18991
  8
AM_0
 10
95.222596355361475
 20
543.82811181323098
 30
0.0
 40
1.004928
 50
0.2802399999999659
 51
89.719760000000036
  0
LINE
  5
18992
  8
AM_0
 10
93.227476355361532
 20
546.44301181323112
 30
0.0
 11
93.227476355361532
 21
545.22303181323105
 31
0.0
  0
ARC
  5
18993
  8
AM_0
 10
95.227656355361447
 20
547.83287181323112
 30
0.0
 40
0.9998440099999999
 50
269.9909820000023
 51
0.0090200000005597
  0
ARC
  5
18994
  8
AM_0
 10
101.77883635536161
 20
545.8330218132312
 30
0.0
 40
1.000035999999999
 50
89.500709999998392
 51
270.49928399999988
  0
ARC
  5
18995
  8
AM_0
 10
100.6875263553616
 20
555.85304181323113
 30
0.0
 40
1.4599999999999991
 50
90.0
 51
269.99999700000228
  0
LINE
  5
18996
  8
AM_0
 10
93.227476355361532
 20
556.46302181323085
 30
0.0
 11
93.227476355361532
 21
555.09303181323105
 31
0.0
  0
ARC
  5
18997
  8
AM_0
 10
95.222596355361475
 20
553.82811181323086
 30
0.0
 40
1.0049238999999981
 50
0.2800299999994114
 51
89.719960000000654
  0
ARC
  5
18998
  8
AM_0
 10
101.7775563553616
 20
555.83303181323117
 30
0.0
 40
1.0000040999999991
 50
90.0
 51
269.99999700000228
  0
ARC
  5
18999
  8
AM_0
 10
118.2275063553616
 20
545.8330218132312
 30
0.0
 40
1.0000040999999991
 50
90.0
 51
269.99999700000228
  0
ARC
  5
1899A
  8
AM_0
 10
118.2275063553616
 20
555.83303181323117
 30
0.0
 40
1.0000040999999991
 50
90.0
 51
269.99999700000228
  0
ARC
  5
1899B
  8
AM_0
 10
101.77755898528321
 20
565.83303886323131
 30
0.0
 40
1.000007050003423
 50
90.000150682346145
 51
269.99984931765061
  0
ARC
  5
1899C
  8
AM_0
 10
100.9074963553615
 20
565.87804181323122
 30
0.0
 40
1.6750081000000001
 50
90.0
 51
269.99999700000228
  0
LINE
  5
1899D
  8
AM_0
 10
93.227476355361532
 20
566.22302781323106
 30
0.0
 11
93.227476355361532
 21
565.16302981323088
 31
0.0
  0
LINE
  5
1899E
  8
AM_0
 10
96.227506355361555
 20
565.13303181323113
 30
0.0
 11
99.397546355361555
 21
565.13303181323113
 31
0.0
  0
ARC
  5
1899F
  8
AM_0
 10
95.224186355361439
 20
563.56966881323115
 30
0.0
 40
1.003363999999999
 50
0.1917200000003444
 51
89.808290000001264
  0
ARC
  5
189A0
  8
AM_0
 10
93.368046355361557
 20
563.57033281323106
 30
0.0
 40
1.0027280000000001
 50
89.459600000000592
 51
106.2470300000014
  0
LINE
  5
189A1
  8
AM_0
 10
93.377506355361433
 20
564.5730178132311
 30
0.0
 11
95.227476355361546
 21
564.5730178132311
 31
0.0
  0
ARC
  5
189A2
  8
AM_0
 10
95.528076355361449
 20
567.22246281323123
 30
0.0
 40
0.69944
 50
269.95415999999977
 51
0.045840000000191
  0
ARC
  5
189A3
  8
AM_0
 10
93.43047635536152
 20
565.51779681323114
 30
0.0
 40
1.005223999999999
 50
90.170639999999636
 51
113.0137099999986
  0
LINE
  5
189A4
  8
AM_0
 10
93.427486355361438
 20
566.52302281323114
 30
0.0
 11
95.527466355361526
 21
566.52302281323114
 31
0.0
  0
ARC
  5
189A5
  8
AM_0
 10
93.490846355361555
 20
571.81202381323124
 30
0.0
 40
1.001012
 50
89.619799999999586
 51
119.528640000001
  0
ARC
  5
189A6
  8
AM_0
 10
95.225036355361439
 20
571.81055981323095
 30
0.0
 40
1.0024599999999999
 50
0.1403800000022178
 51
89.859620000001044
  0
LINE
  5
189A7
  8
AM_0
 10
93.497496355361477
 20
572.81301581323123
 30
0.0
 11
95.227476355361546
 21
572.81301581323123
 31
0.0
  0
ARC
  5
189A8
  8
AM_0
 10
118.2275063553616
 20
565.83304181323115
 30
0.0
 40
1.0000040999999991
 50
90.0
 51
269.99999700000228
  0
ARC
  5
189A9
  8
AM_0
 10
109.3740463553615
 20
572.04194181323123
 30
0.0
 40
1.007376
 50
354.93659510000271
 51
45.709679999997569
  0
ARC
  5
189AA
  8
AM_0
 10
105.3977263553615
 20
572.4259118132311
 30
0.0
 40
5.0021839000000003
 50
279.54857499999838
 51
354.57547400000232
  0
LINE
  5
189AB
  8
AM_0
 10
141.22756635536149
 20
577.18303181323108
 30
0.0
 11
106.2275663553615
 21
575.15303181323111
 31
0.0
  0
ARC
  5
189AC
  8
AM_0
 10
102.3994363553615
 20
587.097330813231
 30
0.0
 40
1.995695899999999
 50
90.05521999999722
 51
167.97747000000001
  0
LINE
  5
189AD
  8
AM_0
 10
96.227506355361555
 20
588.26304081323087
 30
0.0
 11
99.047506355361634
 21
588.33304081323092
 31
0.0
  0
ARC
  5
189AE
  8
AM_0
 10
98.062466355361636
 20
589.45481381323111
 30
0.0
 40
1.501779999999999
 50
269.81061700000078
 51
345.66716400000013
  0
LINE
  5
189AF
  8
AM_0
 10
117.2275063553616
 20
592.72303981323103
 30
0.0
 11
117.2275063553616
 21
585.31303681323095
 31
0.0
  0
LINE
  5
189B0
  8
AM_0
 10
100.4175063553616
 20
590.96304581323102
 30
0.0
 11
99.497466355361567
 21
587.08304881323124
 31
0.0
  0
LINE
  5
189B1
  8
AM_0
 10
96.227506355361555
 20
579.18303181323085
 30
0.0
 11
106.2275063553616
 21
579.18303181323085
 31
0.0
  0
LINE
  5
189B2
  8
AM_0
 10
102.4574863553615
 20
583.81303681323095
 30
0.0
 11
115.7275063553615
 21
583.81303681323095
 31
0.0
  0
LINE
  5
189B3
  8
AM_0
 10
96.227506355361555
 20
573.52303181323123
 30
0.0
 11
106.2275063553616
 21
573.52303181323123
 31
0.0
  0
LINE
  5
189B4
  8
AM_0
 10
99.947536355361635
 20
579.18303181323085
 30
0.0
 11
100.4875763553616
 21
582.17305281323115
 31
0.0
  0
ARC
  5
189B5
  8
AM_0
 10
95.727906355361483
 20
581.08258581323105
 30
0.0
 40
0.49955601
 50
269.94910599999918
 51
0.0508900000001327
  0
ARC
  5
189B6
  8
AM_0
 10
93.520266355361514
 20
572.95251981323133
 30
0.0
 40
1.0005360000000001
 50
89.586780000001184
 51
122.8536000000007
  0
LINE
  5
189B7
  8
AM_0
 10
93.527526355361474
 20
573.95303081323107
 30
0.0
 11
96.227476355361574
 21
573.95303081323107
 31
0.0
  0
LINE
  5
189B8
  8
AM_0
 10
93.227476355361532
 20
573.66301481323114
 30
0.0
 11
93.227476355361532
 21
573.19302881323108
 31
0.0
  0
ARC
  5
189B9
  8
AM_0
 10
93.508176355361428
 20
579.58194481323085
 30
0.0
 40
1.001135899999998
 50
90.61249000000069
 51
120.67199999999799
  0
ARC
  5
189BA
  8
AM_0
 10
93.473326355361465
 20
578.43375881323107
 30
0.0
 40
0.99928796
 50
90.333809999998678
 51
117.1387300000016
  0
ARC
  5
189BB
  8
AM_0
 10
95.724056355361554
 20
578.92963181323125
 30
0.0
 40
0.50340396
 50
0.3861300000014544
 51
89.613870000001796
  0
LINE
  5
189BC
  8
AM_0
 10
93.497496355361477
 20
580.5830278132313
 30
0.0
 11
95.727536355361494
 21
580.5830278132313
 31
0.0
  0
LINE
  5
189BD
  8
AM_0
 10
93.46746635536158
 20
579.43301081323125
 30
0.0
 11
95.727536355361494
 21
579.43301081323125
 31
0.0
  0
LINE
  5
189BE
  8
AM_0
 10
93.227476355361532
 20
580.33302081323109
 30
0.0
 11
93.227476355361532
 21
579.80302181323123
 31
0.0
  0
ARC
  5
189BF
  8
AM_0
 10
93.498836355361505
 20
577.4693648132311
 30
0.0
 40
1.003687999999999
 50
89.507249999999203
 51
120.6297299999992
  0
LINE
  5
189C0
  8
AM_0
 10
93.507506355361443
 20
578.47301181323087
 30
0.0
 11
96.227476355361574
 21
578.47301181323087
 31
0.0
  0
LINE
  5
189C1
  8
AM_0
 10
93.477536355361494
 20
577.33302081323109
 30
0.0
 11
95.227476355361546
 21
577.33302081323109
 31
0.0
  0
LINE
  5
189C2
  8
AM_0
 10
93.227476355361532
 20
578.23302981323116
 30
0.0
 11
93.227476355361532
 21
577.68302681323132
 31
0.0
  0
ARC
  5
189C3
  8
AM_0
 10
93.482666355361516
 20
576.33239481323108
 30
0.0
 40
1.0006280000000001
 50
90.295290000000691
 51
118.35014000000071
  0
ARC
  5
189C4
  8
AM_0
 10
95.223446355361475
 20
576.32893881323105
 30
0.0
 40
1.004083999999998
 50
0.2326300000003719
 51
89.767369999999616
  0
LINE
  5
189C5
  8
AM_0
 10
98.057516355361614
 20
587.95302881323096
 30
0.0
 11
99.7075463553616
 21
587.95302881323096
 31
0.0
  0
LINE
  5
189C6
  8
AM_0
 10
98.037496355361554
 20
585.93303181323085
 30
0.0
 11
100.0974963553616
 21
585.93303181323085
 31
0.0
  0
ARC
  5
189C7
  8
AM_0
 10
98.041836355361639
 20
587.42936981323123
 30
0.0
 40
1.4963319999999991
 50
269.83540999999917
 51
346.617561999999
  0
LINE
  5
189C8
  8
AM_0
 10
98.017476355361637
 20
581.86303181323115
 30
0.0
 11
100.4375263553615
 21
581.86303181323115
 31
0.0
  0
ARC
  5
189C9
  8
AM_0
 10
98.017666355361612
 20
583.36582481323103
 30
0.0
 40
1.5027881000000001
 50
269.9953320000032
 51
347.98665799999787
  0
ARC
  5
189CA
  8
AM_0
 10
102.4544963553616
 20
581.81341081323092
 30
0.0
 40
1.9996280999999989
 50
89.914670000000115
 51
169.63923999999781
  0
LINE
  5
189CB
  8
AM_0
 10
100.44753635536161
 20
587.5130408132311
 30
0.0
 11
99.487516355361535
 21
583.0530268132311
 31
0.0
  0
ARC
  5
189CC
  8
AM_0
 10
115.72713635536159
 20
585.31340281323094
 30
0.0
 40
1.5003600999999991
 50
270.01381500000002
 51
359.98618399999862
  0
LINE
  5
189CD
  8
AM_0
 10
102.3675163553615
 20
592.50303881323111
 30
0.0
 11
115.7275063553615
 21
592.50303881323111
 31
0.0
  0
LINE
  5
189CE
  8
AM_0
 10
102.33748635536161
 20
594.13304381323087
 30
0.0
 11
115.83748635536161
 21
594.13304381323087
 31
0.0
  0
LINE
  5
189CF
  8
AM_0
 10
102.3975463553615
 20
589.09304281323102
 30
0.0
 11
115.7275063553615
 21
589.09304281323102
 31
0.0
  0
ARC
  5
189D0
  8
AM_0
 10
102.3654463553615
 20
590.50110081323123
 30
0.0
 40
2.001947899999998
 50
89.940519999998955
 51
166.65886000000151
  0
ARC
  5
189D1
  8
AM_0
 10
102.3399263553616
 20
592.12872581323086
 30
0.0
 40
2.0043239999999991
 50
90.068910000001068
 51
165.72194999999999
  0
LINE
  5
189D2
  8
AM_0
 10
100.3975463553615
 20
592.62302681323092
 30
0.0
 11
99.51754635536156
 21
589.0830258132313
 31
0.0
  0
ARC
  5
189D3
  8
AM_0
 10
119.22860635536161
 20
594.74660781323087
 30
0.0
 40
1.996427999999999
 50
90.032390000001968
 51
165.30536999999919
  0
ARC
  5
189D4
  8
AM_0
 10
119.22731635536159
 20
594.07321381323106
 30
0.0
 40
1.999824
 50
89.994939999998735
 51
180.00506000000121
  0
ARC
  5
189D5
  8
AM_0
 10
119.22914635536149
 20
590.69139381323112
 30
0.0
 40
2.001640099999999
 50
90.046959999998165
 51
179.9530399999953
  0
ARC
  5
189D6
  8
AM_0
 10
115.7289063553615
 20
594.00159681323112
 30
0.0
 40
1.498559999999999
 50
269.94488499999687
 51
0.055119999999415
  0
ARC
  5
189D7
  8
AM_0
 10
115.7259763553616
 20
590.59455381323119
 30
0.0
 40
1.5015080999999979
 50
270.05754899999692
 51
359.94245300200021
  0
ARC
  5
189D8
  8
AM_0
 10
119.2300063553616
 20
592.72052281323113
 30
0.0
 40
2.0025157999999981
 50
90.071899999999786
 51
179.9281000000002
  0
ARC
  5
189D9
  8
AM_0
 10
115.84621635536151
 20
595.63331881323131
 30
0.0
 40
1.5003120000000001
 50
269.66833699999898
 51
345.31696600000072
  0
LINE
  5
189DA
  8
AM_0
 10
243.22750635536161
 20
467.8330268132309
 30
0.0
 11
243.22750637155431
 21
593.83299578906565
 31
0.0
  0
LINE
  5
189DB
  8
ﾁｭｳｼﾝｾﾝ1
 10
192.22747635536149
 20
496.3330218132312
 30
0.0
 11
192.22747635536149
 21
565.33302181323097
 31
0.0
1001
GENIUS_GENODEF_13
1002
{
1000
HIER
1070
     0
1002
}
1002
{
1000
MANEDIT
1070
     0
1002
}
1002
{
1000
NOSEL
1070
     0
1002
}
1002
{
1000
BEHIND
1070
     0
1002
}
1002
{
1000
REACTOR
1002
}
1001
GENIUS_GENOBJ-N-CEN_13
1002
{
1000
OWNER
1000
GEN
1002
}
  0
LINE
  5
189DC
  8
AM_0
 10
237.9675263553616
 20
470.45303181323112
 30
0.0
 11
240.73318203594781
 21
480.7803237147358
 31
0.0
  0
ARC
  5
189DD
  8
AM_0
 10
172.22689635536159
 20
466.91365181323118
 30
0.0
 40
2.000623899999999
 50
270.01782400000212
 51
359.9821759990013
  0
ARC
  5
189DE
  8
AM_0
 10
172.23043635536149
 20
467.59012181323112
 30
0.0
 40
1.9970881
 50
269.91637499999922
 51
0.0836200000014677
  0
ARC
  5
189DF
  8
AM_0
 10
172.22774635536149
 20
468.9427718132311
 30
0.0
 40
1.9997199999999991
 50
269.99193799999972
 51
0.0080600000040013
  0
LINE
  5
189E0
  8
AM_0
 10
174.22750635536161
 20
466.91304181323108
 30
0.0
 11
174.22750635536161
 21
468.97304181323102
 31
0.0
  0
LINE
  5
189E1
  8
AM_0
 10
242.9375263553616
 20
479.79305181323122
 30
0.0
 11
240.5275263553616
 21
479.79305181323122
 31
0.0
  0
LINE
  5
189E2
  8
AM_0
 10
237.9374963553615
 20
470.3330418132312
 30
0.0
 11
243.22750635536161
 21
470.3330418132312
 31
0.0
  0
ARC
  5
189E3
  8
AM_0
 10
242.93334635536161
 20
478.29256181323109
 30
0.0
 40
1.500475999999999
 50
89.841720000000251
 51
167.6677700000013
  0
LINE
  5
189E4
  8
AM_0
 10
240.03749635536161
 20
471.91300181323112
 30
0.0
 11
241.47750635536161
 21
478.61299181323091
 31
0.0
  0
ARC
  5
189E5
  8
AM_0
 10
238.0819663553616
 20
472.33321181323117
 30
0.0
 40
2.0001799999999981
 50
269.87248500000197
 51
347.87364800000222
  0
ARC
  5
189E6
  8
AM_0
 10
236.0379563553615
 20
470.97084181323112
 30
0.0
 40
1.997795899999999
 50
269.9864190000028
 51
344.9784029999978
  0
LINE
  5
189E7
  8
AM_0
 10
244.22750635536161
 20
466.8330268132309
 30
0.0
 11
252.22753635536159
 21
466.8330268132309
 31
0.0
  0
ARC
  5
189E8
  8
AM_0
 10
244.2225563553616
 20
467.82806681323092
 30
0.0
 40
0.9950640200000001
 50
179.714940000002
 51
270.28506199999953
  0
LINE
  5
189E9
  8
AM_0
 10
244.22750635536161
 20
478.7930318132311
 30
0.0
 11
252.22753635536159
 21
478.7930318132311
 31
0.0
  0
ARC
  5
189EA
  8
AM_0
 10
244.2219163553616
 20
479.78742181323111
 30
0.0
 40
0.9944000200000001
 50
179.6764900000021
 51
270.323509
  0
ARC
  5
189EB
  8
AM_0
 10
236.5693263553616
 20
495.8330418132312
 30
0.0
 40
1.000031899999998
 50
270.46929999999787
 51
89.530700000002156
  0
ARC
  5
189EC
  8
AM_0
 10
240.04750635536149
 20
495.78804181323108
 30
0.0
 40
1.675
 50
269.99999700000228
 51
90.0
  0
LINE
  5
189EE
  8
AM_0
 10
243.22750635536161
 20
493.68303181323108
 30
0.0
 11
252.22753635536159
 21
493.68303181323108
 31
0.0
  0
ARC
  5
189EF
  8
AM_0
 10
240.2575163553615
 20
505.80803181323108
 30
0.0
 40
1.4650000000000001
 50
270.00000299999761
 51
90.0
  0
ARC
  5
189F0
  8
AM_0
 10
239.1674863553614
 20
505.83304181323109
 30
0.0
 40
1.0000040999999991
 50
270.00000299999761
 51
90.0
  0
ARC
  5
189F1
  8
AM_0
 10
240.39251635536149
 20
515.82303181323118
 30
0.0
 40
1.3300000000000001
 50
270.00000299999761
 51
90.0
  0
ARC
  5
189F2
  8
AM_0
 10
239.1711963553615
 20
515.8330218132312
 30
0.0
 40
1.000035999999999
 50
269.50071600000012
 51
90.499290000001594
  0
ARC
  5
189F3
  8
AM_0
 10
239.1711963553615
 20
525.83304181323115
 30
0.0
 40
1.000035999999999
 50
269.50071600000012
 51
90.499290000001594
  0
ARC
  5
189F4
  8
AM_0
 10
240.45250635536149
 20
525.82805181323101
 30
0.0
 40
1.265004
 50
270.00000299999761
 51
90.0
  0
ARC
  5
189F5
  8
AM_0
 10
240.45250635536149
 20
535.83304181323115
 30
0.0
 40
1.270003999999999
 50
270.00000299999761
 51
90.0
  0
ARC
  5
189F6
  8
AM_0
 10
239.1711963553615
 20
535.83304181323115
 30
0.0
 40
1.000035999999999
 50
269.50071600000012
 51
90.499290000001594
  0
ARC
  5
189F7
  8
AM_0
 10
172.22664635536159
 20
594.74216681323094
 30
0.0
 40
2.0008759
 50
0.0251100000023943
 51
89.9748899999976
  0
ARC
  5
189F8
  8
AM_0
 10
172.22518635536159
 20
594.07069681323094
 30
0.0
 40
2.002332
 50
0.0667400000013121
 51
89.933259999998697
  0
ARC
  5
189F9
  8
AM_0
 10
172.22249635536161
 20
592.71802781323106
 30
0.0
 40
2.0050240000000001
 50
0.1434100000013002
 51
89.856589999998704
  0
LINE
  5
189FA
  8
AM_0
 10
174.22750635536161
 20
594.74303681323113
 30
0.0
 11
174.22750635536161
 21
592.69303381323107
 31
0.0
  0
ARC
  5
189FB
  8
AM_0
 10
240.39251635536149
 20
545.84302181323119
 30
0.0
 40
1.3300000000000001
 50
270.00000299999761
 51
90.0
  0
ARC
  5
189FC
  8
AM_0
 10
239.1711963553615
 20
545.8330218132312
 30
0.0
 40
1.000035999999999
 50
269.50071600000012
 51
90.499290000001594
  0
ARC
  5
189FD
  8
AM_0
 10
239.17247635536151
 20
555.83303181323117
 30
0.0
 40
1.0000040999999991
 50
270.00000299999761
 51
90.0
  0
ARC
  5
189FE
  8
AM_0
 10
240.26250635536161
 20
555.85304181323113
 30
0.0
 40
1.4599999999999991
 50
270.00000299999761
 51
90.0
  0
ARC
  5
189FF
  8
AM_0
 10
236.5693263553616
 20
565.83304181323115
 30
0.0
 40
1.000031899999998
 50
270.46929999999787
 51
89.530700000002156
  0
ARC
  5
18A00
  8
AM_0
 10
240.04750635536149
 20
565.87804181323122
 30
0.0
 40
1.675
 50
269.99999700000228
 51
90.0
  0
LINE
  5
18A01
  8
AM_0
 10
243.22750635536161
 20
567.98304181323124
 30
0.0
 11
252.22753635536159
 21
567.98304181323124
 31
0.0
  0
LINE
  5
18A02
  8
AM_0
 10
240.03752635536159
 20
589.75304681323109
 30
0.0
 11
241.47753635536151
 21
583.05304981323115
 31
0.0
  0
LINE
  5
18A03
  8
AM_0
 10
237.9675263553616
 20
591.21304581323102
 30
0.0
 11
240.73319815733251
 21
580.88570490314351
 31
0.0
  0
LINE
  5
18A04
  8
AM_0
 10
242.9375263553616
 20
581.86303181323115
 30
0.0
 11
240.5275263553616
 21
581.86303181323115
 31
0.0
  0
ARC
  5
18A06
  8
AM_0
 10
242.93459635536161
 20
583.36236781323123
 30
0.0
 40
1.499328
 50
191.90615999999929
 51
270.11184899999989
  0
LINE
  5
18A07
  8
AM_0
 10
244.22750635536161
 20
582.87304181323111
 30
0.0
 11
252.22753635536159
 21
582.87304181323111
 31
0.0
  0
ARC
  5
18A08
  8
AM_0
 10
244.2269863553615
 20
581.87356081323094
 30
0.0
 40
0.9994760199999999
 50
89.970079999999669
 51
180.0299099999979
  0
LINE
  5
18A09
  8
AM_0
 10
237.9374963553615
 20
591.33304081323092
 30
0.0
 11
243.22750635536161
 21
591.33304081323092
 31
0.0
  0
ARC
  5
18A0A
  8
AM_0
 10
236.03292635536161
 20
590.68862381323095
 30
0.0
 40
2.0044159999999991
 50
15.16665999999886
 51
89.868520000001183
  0
ARC
  5
18A0B
  8
AM_0
 10
238.07683635536159
 20
589.32650281323117
 30
0.0
 40
2.0065319999999991
 50
12.27313000000388
 51
89.980730000003206
  0
LINE
  5
18A0C
  8
AM_0
 10
244.22750635536161
 20
594.8330068132309
 30
0.0
 11
252.22753635536159
 21
594.8330068132309
 31
0.0
  0
ARC
  5
18A0D
  8
AM_0
 10
244.22768635536161
 20
593.83281581323092
 30
0.0
 40
1.000179999999999
 50
90.010320000000135
 51
179.98968999999451
  0
LINE
  5
18A99
  8
0
 10
384.72757012139368
 20
420.82601572424619
 30
0.0
 11
384.72757012139368
 21
462.8260157242463
 31
0.0
  0
LINE
  5
18A9A
  8
0
 10
412.72757012139363
 20
420.82601572424619
 30
0.0
 11
412.72757012139363
 21
462.8260157242463
 31
0.0
  0
LINE
  5
18A9B
  8
AM_0
 10
412.72757012139363
 20
420.82601572424619
 30
0.0
 11
384.72757012139368
 21
420.82601572424619
 31
0.0
  0
LINE
  5
18A9C
  8
0
 10
394.72757012139351
 20
452.8260157242463
 30
0.0
 11
402.72757012139368
 21
452.8260157242463
 31
0.0
  0
LINE
  5
18A9D
  8
0
 10
381.22757012139368
 20
462.8260157242463
 30
0.0
 11
416.22757012139351
 21
462.8260157242463
 31
0.0
  0
LINE
  5
18A9E
  8
0
 10
381.22757012139368
 20
462.8260157242463
 30
0.0
 11
376.22756945084149
 21
473.83302011449848
 31
0.0
  0
LINE
  5
18A9F
  8
AM_0
 10
376.22756945084149
 20
473.83302011449848
 30
0.0
 11
421.22757079194571
 21
473.83302011449848
 31
0.0
  0
LINE
  5
18AA0
  8
AM_0
 10
376.22756945084149
 20
473.83302011449848
 30
0.0
 11
376.22756945084149
 21
477.83302023370788
 31
0.0
  0
LINE
  5
18AA1
  8
0
 10
416.22757012139351
 20
462.8260157242463
 30
0.0
 11
421.22757079194571
 21
473.83302011449848
 31
0.0
  0
LINE
  5
18AA2
  8
AM_0
 10
421.22757079194571
 20
473.83302011449848
 30
0.0
 11
421.22757079194571
 21
477.83302023370788
 31
0.0
  0
LINE
  5
18AE3
  8
AM_0
 10
402.72757012139368
 20
420.82601572424619
 30
0.0
 11
402.72757012139368
 21
452.8260157242463
 31
0.0
  0
LINE
  5
18AEA
  8
AM_0
 10
394.72757012139368
 20
420.82601572424619
 30
0.0
 11
394.72757012139368
 21
452.8260157242463
 31
0.0
  0
ARC
  5
18AEB
  8
AM_0
 10
398.72757012139368
 20
452.8260157242463
 30
0.0
 40
4.0
 50
0.0
 51
180.0
  0
LINE
  5
18B1C
  8
AM_0
 10
243.22750648898821
 20
487.9730513011479
 30
0.0
 11
243.22750648898821
 21
480.37305130114822
 31
0.0
  0
LINE
  5
18B1D
  8
AM_0
 10
242.22750648898821
 20
487.9730513011479
 30
0.0
 11
242.22750648898821
 21
480.37305130114822
 31
0.0
  0
LINE
  5
18B1E
  8
AM_0
 10
239.62752648898831
 20
485.97305130114819
 30
0.0
 11
239.62752648898831
 21
482.37305130114811
 31
0.0
  0
LINE
  5
18B1F
  8
AM_0
 10
242.22750648898821
 20
480.37305130114822
 30
0.0
 11
243.22750648898821
 21
480.37305130114822
 31
0.0
  0
ARC
  5
18B20
  8
AM_0
 10
241.32750648898821
 20
482.37305130114811
 30
0.0
 40
1.7000007999999991
 50
180.00001000000091
 51
269.999979999998
  0
LINE
  5
18B21
  8
AM_0
 10
242.22750648898821
 20
480.67305130114812
 30
0.0
 11
241.32750648898821
 21
480.67305130114812
 31
0.0
  0
LINE
  5
18B22
  8
AM_0
 10
242.22750648898821
 20
487.9730513011479
 30
0.0
 11
243.22750648898821
 21
487.9730513011479
 31
0.0
  0
LINE
  5
18B23
  8
AM_0
 10
243.22750648898821
 20
484.95041130114811
 30
0.0
 11
242.22750648898821
 21
484.3730813011482
 31
0.0
  0
LINE
  5
18B24
  8
AM_0
 10
243.22750648898821
 20
483.95041130114811
 30
0.0
 11
242.22750648898821
 21
483.37305130114811
 31
0.0
  0
ARC
  5
18B26
  8
AM_0
 10
241.32750648898821
 20
485.97305130114819
 30
0.0
 40
1.699996899999999
 50
90.000003000004199
 51
179.99998000000451
  0
LINE
  5
18B27
  8
AM_0
 10
242.22750648898821
 20
487.67304130114792
 30
0.0
 11
241.32750648898821
 21
487.67304130114792
 31
0.0
  0
LINE
  5
18B28
  8
AM_0
 10
242.22750648898821
 20
573.69297130114808
 30
0.0
 11
242.22750648898821
 21
581.29297130114821
 31
0.0
  0
LINE
  5
18B29
  8
AM_0
 10
243.22750648898821
 20
573.69297130114808
 30
0.0
 11
243.22750648898821
 21
581.29297130114821
 31
0.0
  0
ARC
  5
18B2A
  8
AM_0
 10
241.32750648898821
 20
579.29297130114799
 30
0.0
 40
1.7000007999999991
 50
90.000020000002024
 51
179.999989999999
  0
LINE
  5
18B2B
  8
AM_0
 10
242.22750648898821
 20
573.69297130114808
 30
0.0
 11
243.22750648898821
 21
573.69297130114808
 31
0.0
  0
LINE
  5
18B2C
  8
AM_0
 10
243.22750648898821
 20
576.7156113011481
 30
0.0
 11
242.22750648898821
 21
577.29294130114795
 31
0.0
  0
LINE
  5
18B2E
  8
AM_0
 10
243.22750648898821
 20
577.71561130114787
 30
0.0
 11
242.22750648898821
 21
578.29297130114821
 31
0.0
  0
ARC
  5
18B2F
  8
AM_0
 10
241.32750648898821
 20
575.69297130114819
 30
0.0
 40
1.699996899999999
 50
180.00001999999549
 51
269.99999700000228
  0
LINE
  5
18B30
  8
AM_0
 10
239.62752648898831
 20
575.69297130114819
 30
0.0
 11
239.62752648898831
 21
579.29297130114799
 31
0.0
  0
LINE
  5
18B31
  8
AM_0
 10
242.22750648898821
 20
573.99298130114823
 30
0.0
 11
241.32750648898821
 21
573.99298130114823
 31
0.0
  0
LINE
  5
18B32
  8
AM_0
 10
242.22750648898821
 20
581.29297130114821
 30
0.0
 11
243.22750648898821
 21
581.29297130114821
 31
0.0
  0
LINE
  5
18B33
  8
AM_0
 10
242.22750648898821
 20
580.99297130114815
 30
0.0
 11
241.32750648898821
 21
580.99297130114815
 31
0.0
  0
TEXT
  5
190B8
  8
AM_0
 10
569.45391151621959
 20
554.31868511752907
 30
0.0
 40
10.0
  1
VC04-007ML~VC04-060ML
1001
ACAD
1000
MTEXTBEGIN
1070
    73
1070
     1
1070
    44
1040
1.0
1070
    74
1070
     0
1000
MTEXTEND
  0
VIEWPORT
  5
89
 67
     1
  8
0
 10
210.0
 20
148.5
 30
0.0
 40
420.0
 41
297.0
 68
     1
 69
     1
1001
ACAD
1000
MVIEW
1002
{
1070
    16
1010
0.0
1020
0.0
1030
0.0
1010
0.0
1020
0.0
1030
1.0
1040
0.0
1040
297.0
1040
221.70154043645701
1040
148.5
1040
50.0
1040
0.0
1040
0.0
1070
     0
1070
   100
1070
     1
1070
     1
1070
     0
1070
     0
1070
     0
1070
     0
1040
0.0
1040
0.0
1040
0.0
1040
10.0
1040
10.0
1040
10.0
1040
10.0
1070
     0
1002
{
1002
}
1002
}
1001
GENIUS_GENOREF_13
1005
1B94
1001
GENIUS_GENSCREG_15
1000
PF
1040
1.0
1000
DF
1040
1.0
1000
MIN
1011
0.0
1021
0.0
1031
0.0
1021
0.0
1031
0.0
1000
MAX
1011
420.0
1021
0.0
1031
0.0
1021
297.0
1031
0.0
1000
FLAGS
1070
     4
  0
ENDSEC
  0
EOF
