  0
SECTION
  2
HEADER
  9
$ACADVER
  1
AC1009
  9
$INSBASE
 10
0.0
 20
0.0
 30
0.0
  9
$EXTMIN
 10
128.11529820891471
 20
235.96985063046441
 30
-0.0000000349181948
  9
$EXTMAX
 10
956.92297607162345
 20
730.59417895809077
 30
0.0000000814935747
  9
$LIMMIN
 10
0.0
 20
0.0
  9
$LIMMAX
 10
1138.0
 20
740.00000000000011
  9
$ORTHOMODE
 70
     0
  9
$REGENMODE
 70
     1
  9
$FILLMODE
 70
     1
  9
$QTEXTMODE
 70
     0
  9
$MIRRTEXT
 70
     1
  9
$DRAGMODE
 70
     2
  9
$LTSCALE
 40
4.0
  9
$OSMODE
 70
   551
  9
$ATTMODE
 70
     1
  9
$TEXTSIZE
 40
2.5
  9
$TRACEWID
 40
1.0
  9
$TEXTSTYLE
  7
STANDARD
  9
$CLAYER
  8
AM_0
  9
$CELTYPE
  6
BYLAYER
  9
$CECOLOR
 62
   256
  9
$DIMSCALE
 40
4.0
  9
$DIMASZ
 40
2.5
  9
$DIMEXO
 40
1.0
  9
$DIMDLI
 40
7.0
  9
$DIMRND
 40
0.0
  9
$DIMDLE
 40
0.0
  9
$DIMEXE
 40
1.0
  9
$DIMTP
 40
0.1
  9
$DIMTM
 40
0.1000000001
  9
$DIMTXT
 40
2.5
  9
$DIMCEN
 40
0.0
  9
$DIMTSZ
 40
0.0
  9
$DIMTOL
 70
     0
  9
$DIMLIM
 70
     0
  9
$DIMTIH
 70
     0
  9
$DIMTOH
 70
     0
  9
$DIMSE1
 70
     0
  9
$DIMSE2
 70
     0
  9
$DIMTAD
 70
     3
  9
$DIMZIN
 70
     8
  9
$DIMBLK
  1

  9
$DIMASO
 70
     1
  9
$DIMSHO
 70
     1
  9
$DIMPOST
  1

  9
$DIMAPOST
  1
"
  9
$DIMALT
 70
     0
  9
$DIMALTD
 70
     2
  9
$DIMALTF
 40
0.0393701
  9
$DIMLFAC
 40
1.0
  9
$DIMTOFL
 70
     1
  9
$DIMTVP
 40
0.0
  9
$DIMTIX
 70
     0
  9
$DIMSOXD
 70
     0
  9
$DIMSAH
 70
     0
  9
$DIMBLK1
  1

  9
$DIMBLK2
  1

  9
$DIMSTYLE
  2
AM_JIS
  9
$DIMCLRD
 70
   256
  9
$DIMCLRE
 70
   256
  9
$DIMCLRT
 70
     4
  9
$DIMTFAC
 40
0.71
  9
$DIMGAP
 40
1.0
  9
$LUNITS
 70
     2
  9
$LUPREC
 70
     2
  9
$SKETCHINC
 40
1.0
  9
$FILLETRAD
 40
10.0
  9
$AUNITS
 70
     0
  9
$AUPREC
 70
     3
  9
$MENU
  1
.
  9
$ELEVATION
 40
0.0
  9
$PELEVATION
 40
0.0
  9
$THICKNESS
 40
0.0
  9
$LIMCHECK
 70
     0
  9
$BLIPMODE
 70
     0
  9
$CHAMFERA
 40
10.0
  9
$CHAMFERB
 40
10.0
  9
$SKPOLY
 70
     0
  9
$TDCREATE
 40
2452753.643349607
  9
$TDUPDATE
 40
2458543.4196890281
  9
$TDINDWG
 40
0.6433919444
  9
$TDUSRTIMER
 40
0.6433917593
  9
$USRTIMER
 70
     1
  9
$ANGBASE
 50
0.0
  9
$ANGDIR
 70
     0
  9
$PDMODE
 70
     0
  9
$PDSIZE
 40
0.0
  9
$PLINEWID
 40
0.0
  9
$COORDS
 70
     1
  9
$SPLFRAME
 70
     0
  9
$SPLINETYPE
 70
     6
  9
$SPLINESEGS
 70
     8
  9
$ATTDIA
 70
     1
  9
$ATTREQ
 70
     1
  9
$HANDLING
 70
     1
  9
$HANDSEED
  5
1D72E
  9
$SURFTAB1
 70
     6
  9
$SURFTAB2
 70
     6
  9
$SURFTYPE
 70
     6
  9
$SURFU
 70
     6
  9
$SURFV
 70
     6
  9
$UCSNAME
  2

  9
$UCSORG
 10
0.0
 20
0.0
 30
0.0
  9
$UCSXDIR
 10
1.0
 20
0.0
 30
0.0
  9
$UCSYDIR
 10
0.0
 20
1.0
 30
0.0
  9
$PUCSNAME
  2

  9
$PUCSORG
 10
0.0
 20
0.0
 30
0.0
  9
$PUCSXDIR
 10
1.0
 20
0.0
 30
0.0
  9
$PUCSYDIR
 10
0.0
 20
1.0
 30
0.0
  9
$USERI1
 70
     0
  9
$USERI2
 70
     0
  9
$USERI3
 70
     0
  9
$USERI4
 70
     0
  9
$USERI5
 70
     0
  9
$USERR1
 40
0.0
  9
$USERR2
 40
0.0
  9
$USERR3
 40
0.0
  9
$USERR4
 40
0.0
  9
$USERR5
 40
0.0
  9
$WORLDVIEW
 70
     1
  9
$SHADEDGE
 70
     3
  9
$SHADEDIF
 70
    70
  9
$TILEMODE
 70
     1
  9
$MAXACTVP
 70
    48
  9
$PLIMCHECK
 70
     0
  9
$PEXTMIN
 10
1.0000000000000000E+020
 20
1.0000000000000000E+020
 30
1.0000000000000000E+020
  9
$PEXTMAX
 10
-1.0000000000000000E+020
 20
-1.0000000000000000E+020
 30
-1.0000000000000000E+020
  9
$PLIMMIN
 10
0.0
 20
0.0
  9
$PLIMMAX
 10
420.0
 20
297.0
  9
$UNITMODE
 70
     0
  9
$VISRETAIN
 70
     1
  9
$PLINEGEN
 70
     0
  9
$PSLTSCALE
 70
     1
  0
ENDSEC
  0
SECTION
  2
TABLES
  0
TABLE
  2
VPORT
 70
     1
  0
VPORT
  2
*ACTIVE
 70
     0
 10
0.0
 20
0.0
 11
1.0
 21
1.0
 12
542.51913714026887
 22
483.28201479427759
 13
0.0
 23
0.0
 14
10.0
 24
10.0
 15
40.0
 25
40.0
 16
0.0
 26
0.0
 36
1.0
 17
0.0
 27
0.0
 37
0.0
 40
498.01991868227827
 41
1.7571592210767459
 42
50.0
 43
0.0
 44
0.0
 50
0.0
 51
0.0
 71
     0
 72
   100
 73
     1
 74
     1
 75
     0
 76
     0
 77
     0
 78
     0
  0
ENDTAB
  0
TABLE
  2
LTYPE
 70
    21
  0
LTYPE
  2
CONTINUOUS
 70
     0
  3
Solid line
 72
    65
 73
     0
 40
0.0
  0
LTYPE
  2
PHANTOM2
 70
     0
  3
Phantom (.5x) ___ _ _ ___ _ _ ___ _ _ ___ _ _
 72
    65
 73
     6
 40
31.75
 49
15.875
 49
-3.174999999999998
 49
3.174999999999998
 49
-3.174999999999998
 49
3.174999999999998
 49
-3.174999999999998
  0
LTYPE
  2
CENTER
 70
     0
  3
Center ____ _ ____ _ ____ _ ____ _ ____ _ ____
 72
    65
 73
     4
 40
50.799999999999997
 49
31.75
 49
-6.3499999999999979
 49
6.3499999999999979
 49
-6.3499999999999979
  0
LTYPE
  2
ACANSTGBM
 70
     0
  3
__ . . __ . .
 72
    65
 73
     6
 40
9.0
 49
4.0
 49
-1.0
 49
1.0
 49
-1.0
 49
1.0
 49
-1.0
  0
LTYPE
  2
ACANSTGLM
 70
     0
  3
_ _ _ _ _
 72
    65
 73
     2
 40
3.0
 49
2.0
 49
-1.0
  0
LTYPE
  2
GEN3B
 70
     0
  3
 - - - - -
 72
    65
 73
     2
 40
1.0
 49
0.5
 49
-0.5
  0
LTYPE
  2
GEN7A
 70
     0
  3
__ . __ . __
 72
    65
 73
     4
 40
7.375
 49
4.75
 49
-0.875
 49
0.875
 49
-0.875
  0
LTYPE
  2
AM_ISO02W050
 70
     0
  3
__ __ __ __ __ __ __ __ __ __ __ __ __ __ __
 72
    65
 73
     2
 40
7.5
 49
6.0
 49
-1.5
  0
LTYPE
  2
AM_ISO08W050
 70
     0
  3
____ . ____ . ____ . ____ . ____ . ____ . ____
 72
    65
 73
     4
 40
18.0
 49
12.0
 49
-1.5
 49
3.0
 49
-1.5
  0
LTYPE
  2
AM_ISO09W050
 70
     0
  3
_____ . . _____ . . _____ . . ____ .. ____
 72
    65
 73
     6
 40
22.5
 49
12.0
 49
-1.5
 49
3.0
 49
-1.5
 49
3.0
 49
-1.5
  0
LTYPE
  2
AMCONSTR
 70
     0
  3
_______________________
 72
    65
 73
     2
 40
9999.0
 49
9999.0
 49
0.0
  0
LTYPE
  2
AM_ISO02W050X2
 70
     0
  3
 _ _ _ _ _ _ _ _ _ _ _ _
 72
    65
 73
     2
 40
3.75
 49
3.0
 49
-0.75
  0
LTYPE
  2
AM_ISO08W050X2
 70
     0
  3
__ . __ . __ . __ . __ . __
 72
    65
 73
     4
 40
9.0
 49
6.0
 49
-0.75
 49
1.5
 49
-0.75
  0
LTYPE
  2
AMZIGZAG
 70
     0
  3
/\/-/\/-/\/-/\/-/\/-/\/
 72
    65
 73
     2
 40
11.0001
 49
0.0001
 49
-11.0
  0
LTYPE
  2
ACJISTGB
 70
     0
  3
__ . . __ . .
 72
    65
 73
     6
 40
9.0
 49
4.0
 49
-1.0
 49
1.0
 49
-1.0
 49
1.0
 49
-1.0
  0
LTYPE
  2
ACJISTGL
 70
     0
  3
_ _ _ _ _
 72
    65
 73
     2
 40
3.0
 49
2.0
 49
-1.0
  0
LTYPE
  2
ACISOWELD
 70
     0
  3
_ _ _ _ _
 72
    65
 73
     2
 40
2.0
 49
2.0
 49
-1.0
  0
LTYPE
  2
ACISOTGB
 70
     0
  3
__ . . __ . .
 72
    65
 73
     6
 40
9.0
 49
4.0
 49
-1.0
 49
1.0
 49
-1.0
 49
1.0
 49
-1.0
  0
LTYPE
  2
ACISOTGL
 70
     0
  3
_ _ _ _ _
 72
    65
 73
     2
 40
3.0
 49
2.0
 49
-1.0
  0
LTYPE
  2
HIDDEN
 70
     0
  3
Hidden __ __ __ __ __ __ __ __ __ __ __ __ __ _
 72
    65
 73
     2
 40
9.5249999999999968
 49
6.3499999999999979
 49
-3.174999999999998
  0
ENDTAB
  0
TABLE
  2
LAYER
 70
     8
  0
LAYER
  2
0
 70
     0
 62
     7
  6
CONTINUOUS
  0
LAYER
  2
ｽﾝﾎﾟｳｾﾝ
 70
     0
 62
     2
  6
CONTINUOUS
  0
LAYER
  2
DEFPOINTS
 70
     0
 62
     7
  6
CONTINUOUS
  0
LAYER
  2
ｶｸﾚｾﾝ2
 70
     0
 62
     3
  6
GEN3B
  0
LAYER
  2
ﾁｭｳｼﾝｾﾝ1
 70
     0
 62
     1
  6
GEN7A
  0
LAYER
  2
AM_0
 70
     0
 62
     7
  6
CONTINUOUS
  0
LAYER
  2
AM_0N
 70
     0
 62
     7
  6
CONTINUOUS
  0
LAYER
  2
AM_5
 70
     0
 62
     2
  6
CONTINUOUS
  0
ENDTAB
  0
TABLE
  2
STYLE
 70
     8
  0
STYLE
  2
STANDARD
 70
     0
 40
0.0
 41
0.8299999999999999
 50
0.0
 71
     0
 42
2.5
  3
txt.shx
  4
bigfont.shx
  0
STYLE
  2
ACANSTS
 70
     0
 40
1.0
 41
1.0
 50
0.0
 71
     0
 42
2.5
  3
romans.shx
  4
bigfont.shx
  0
STYLE
  2
ACANSGDT
 70
     0
 40
0.0
 41
1.0
 50
0.0
 71
     0
 42
2.5
  3
amgdtans.shx
  4

  0
STYLE
  2

 70
     1
 40
0.0
 41
1.0
 50
0.0
 71
     0
 42
2.5
  3
ltypeshp.shx
  4

  0
STYLE
  2
ACJISTS
 70
     0
 40
1.0
 41
1.0
 50
0.0
 71
     0
 42
2.5
  3
isocp.shx
  4
bigfont.shx
  0
STYLE
  2
ACJISGDT
 70
     0
 40
0.0
 41
1.0
 50
0.0
 71
     0
 42
2.5
  3
amgdt.shx
  4

  0
STYLE
  2
ACISOTS
 70
     0
 40
3.0
 41
1.0
 50
0.0
 71
     0
 42
2.5
  3
isocp.shx
  4
extfont.shx
  0
STYLE
  2
ACISOGDT
 70
     0
 40
0.0
 41
1.0
 50
0.0
 71
     0
 42
2.5
  3
amgdt.shx
  4

  0
ENDTAB
  0
TABLE
  2
VIEW
 70
    12
  0
VIEW
  2
GEN1
 70
     0
 40
95.824742268041234
 10
71.5
 20
137.08762886597941
 41
143.0
 11
0.0
 21
0.0
 31
1.0
 12
0.0
 22
0.0
 32
0.0
 42
50.0
 43
0.0
 44
0.0
 50
0.0
 71
     0
  0
VIEW
  2
GEN2
 70
     0
 40
95.824742268041234
 10
214.5
 20
137.08762886597941
 41
143.0
 11
0.0
 21
0.0
 31
1.0
 12
0.0
 22
0.0
 32
0.0
 42
50.0
 43
0.0
 44
0.0
 50
0.0
 71
     0
  0
VIEW
  2
GEN3
 70
     0
 40
95.824742268041234
 10
71.5
 20
47.912371134020603
 41
143.0
 11
0.0
 21
0.0
 31
1.0
 12
0.0
 22
0.0
 32
0.0
 42
50.0
 43
0.0
 44
0.0
 50
0.0
 71
     0
  0
VIEW
  2
GEN4
 70
     0
 40
95.824742268041234
 10
214.5
 20
47.912371134020603
 41
143.0
 11
0.0
 21
0.0
 31
1.0
 12
0.0
 22
0.0
 32
0.0
 42
50.0
 43
0.0
 44
0.0
 50
0.0
 71
     0
  0
VIEW
  2
GEN5
 70
     0
 40
95.824742268041234
 10
143.0
 20
92.500000000000057
 41
143.0
 11
0.0
 21
0.0
 31
1.0
 12
0.0
 22
0.0
 32
0.0
 42
50.0
 43
0.0
 44
0.0
 50
0.0
 71
     0
  0
VIEW
  2
GEN6
 70
     0
 40
191.64756804123709
 10
143.0
 20
92.5
 41
285.99714
 11
0.0
 21
0.0
 31
1.0
 12
0.0
 22
0.0
 32
0.0
 42
50.0
 43
0.0
 44
0.0
 50
0.0
 71
     0
  0
VIEW
  2
AM_VIEW1
 70
     0
 40
370.00000000000023
 10
332.86372007366492
 20
555.00000000000011
 41
665.72744014732973
 11
0.0
 21
0.0
 31
1.0
 12
0.0
 22
0.0
 32
0.0
 42
50.0
 43
0.0
 44
0.0
 50
0.0
 71
     0
  0
VIEW
  2
AM_VIEW2
 70
     0
 40
370.00000000000023
 10
805.13627992633508
 20
555.00000000000011
 41
665.72744014732973
 11
0.0
 21
0.0
 31
1.0
 12
0.0
 22
0.0
 32
0.0
 42
50.0
 43
0.0
 44
0.0
 50
0.0
 71
     0
  0
VIEW
  2
AM_VIEW3
 70
     0
 40
370.00000000000023
 10
332.86372007366492
 20
185.0
 41
665.72744014732973
 11
0.0
 21
0.0
 31
1.0
 12
0.0
 22
0.0
 32
0.0
 42
50.0
 43
0.0
 44
0.0
 50
0.0
 71
     0
  0
VIEW
  2
AM_VIEW4
 70
     0
 40
370.00000000000023
 10
805.13627992633508
 20
185.0
 41
665.72744014732973
 11
0.0
 21
0.0
 31
1.0
 12
0.0
 22
0.0
 32
0.0
 42
50.0
 43
0.0
 44
0.0
 50
0.0
 71
     0
  0
VIEW
  2
AM_VIEW5
 70
     0
 40
370.00000000000023
 10
569.0
 20
370.00000000000023
 41
665.72744014732962
 11
0.0
 21
0.0
 31
1.0
 12
0.0
 22
0.0
 32
0.0
 42
50.0
 43
0.0
 44
0.0
 50
0.0
 71
     0
  0
VIEW
  2
AM_VIEW6
 70
     0
 40
739.99260000000015
 10
569.0
 20
370.00000000000023
 41
1331.4415657458569
 11
0.0
 21
0.0
 31
1.0
 12
0.0
 22
0.0
 32
0.0
 42
50.0
 43
0.0
 44
0.0
 50
0.0
 71
     0
  0
ENDTAB
  0
TABLE
  2
UCS
 70
     0
  0
ENDTAB
  0
TABLE
  2
APPID
 70
    96
  0
APPID
  2
ACAD
 70
     0
  0
APPID
  2
MCAD_NO_VIS
 70
     0
  0
APPID
  2
ACAD_TEMP_GRAPHIC
 70
     0
  0
APPID
  2
AD_DRAW
 70
     0
  0
APPID
  2
DESIGNERASSEMBLIES
 70
     0
  0
APPID
  2
ASURF_PCURVE_APPNAME
 70
     0
  0
APPID
  2
GENIUS_GE3SECT_13
 70
     0
  0
APPID
  2
GENIUS_GENCFG_13
 70
     0
  0
APPID
  2
GENIUS_GE3CFG0_13
 70
     0
  0
APPID
  2
GENIUS_GENCFG0_13
 70
     0
  0
APPID
  2
GENIUS_GENCFG1_13
 70
     0
  0
APPID
  2
GENIUS_GENCFG2_13
 70
     0
  0
APPID
  2
GENIUS_GENCFG3_13
 70
     0
  0
APPID
  2
GENIUS_GENCFG4_13
 70
     0
  0
APPID
  2
GENIUS_GEVCFG0_13
 70
     0
  0
APPID
  2
GENIUS_GENOENT_13
 70
     0
  0
APPID
  2
GENIUS_GENREC_14
 70
     0
  0
APPID
  2
GENIUS_GENODEF_13
 70
     0
  0
APPID
  2
GENIUS_GENOBJ-N-REC_13
 70
     0
  0
APPID
  2
GENIUS_GENHINW_13
 70
     0
  0
APPID
  2
GENIUS_FIRSTVISTXT_14
 70
     0
  0
APPID
  2
GENIUS_GENOBJ-N-LEADER_13
 70
     0
  0
APPID
  2
GENIUS_GENOREF_13
 70
     0
  0
APPID
  2
GENIUS_GENOLIS_13
 70
     0
  0
APPID
  2
GEV_VCCNULL_SWITCH_OFF
 70
     0
  0
APPID
  2
GENIUS_GENDTOL_13
 70
     0
  0
APPID
  2
GENIUS_GEFCFG0_13
 70
     0
  0
APPID
  2
GENIUS_GENOBJ-N-TIT_13
 70
     0
  0
APPID
  2
GENIUS_GENTITLE_13
 70
     0
  0
APPID
  2
GENIUS_GENZVEED_13
 70
     0
  0
APPID
  2
GENIUS_GENOBJ-N-SDF_13
 70
     0
  0
APPID
  2
GENIUS_GENSCREG_13
 70
     0
  0
APPID
  2
GENIUS_DUMCFG0_13
 70
     0
  0
APPID
  2
GEVID936201362
 70
     0
  0
APPID
  2
GEVDC
 70
     0
  0
APPID
  2
GEVCON
 70
     0
  0
APPID
  2
VCC
 70
     0
  0
APPID
  2
GEVPT
 70
     0
  0
APPID
  2
GEVIT
 70
     0
  0
APPID
  2
GENBH
 70
     0
  0
APPID
  2
GEVMK
 70
     0
  0
APPID
  2
GENIUS_GENBH_13
 70
     0
  0
APPID
  2
GENIUS_GENOBJ-NBEHI-BHF_13
 70
     0
  0
APPID
  2
GENIUS_GENOBJ-NBEHI-BHB_13
 70
     0
  0
APPID
  2
GENIUS_GENOBJ-F-DESC_13
 70
     0
  0
APPID
  2
GENIUS_GEFDESC_14
 70
     0
  0
APPID
  2
GENIUS_GENOBJ-F-PART_13
 70
     0
  0
APPID
  2
GENIUS_GEFSTDP_13
 70
     0
  0
APPID
  2
GENIUS_GEFPARTINS_13
 70
     0
  0
APPID
  2
GENIUS_GENTRA_14
 70
     0
  0
APPID
  2
GENIUS_GENINF13_13
 70
     0
  0
APPID
  2
GENIUS_GENOBJ-N-INFOPT_13
 70
     0
  0
APPID
  2
GENIUS_GENOBJ-N-RSSYM_13
 70
     0
  0
APPID
  2
GENIUS_GENSYMENT_13
 70
     0
  0
APPID
  2
GENIUS_GENSCSYM_13
 70
     0
  0
APPID
  2
GENIUS_GEFINFNAM_13
 70
     0
  0
APPID
  2
GENIUS_GENSCREG_15
 70
     0
  0
APPID
  2
GENIUS_GENOBJ-N-CEN_13
 70
     0
  0
APPID
  2
GENIUS_GENOBJ-N-CRS_13
 70
     0
  0
APPID
  2
GENIUS_GENOBJ-N-CRC_13
 70
     0
  0
APPID
  2
GENIUS_GENCRC_14
 70
     0
  0
APPID
  2
GEVID942827039
 70
     0
  0
APPID
  2
GEVID942827040
 70
     0
  0
APPID
  2
GEVID942827041
 70
     0
  0
APPID
  2
GENIUS_GENOBJ-F-SCPASSM_13
 70
     0
  0
APPID
  2
GENIUS_GENDIMSH_14
 70
     0
  0
APPID
  2
GENIUS_GENFIL_13
 70
     0
  0
APPID
  2
GENIUS_GENOBJ-N-CHA_13
 70
     0
  0
APPID
  2
GENIUS_GENOBJ-N-FIL_13
 70
     0
  0
APPID
  2
GEVID942827042
 70
     0
  0
APPID
  2
GEVID946020473
 70
     0
  0
APPID
  2
GEVID946020474
 70
     0
  0
APPID
  2
GEVID946020475
 70
     0
  0
APPID
  2
GENIUS_GENOBJ-N-HTC_13
 70
     0
  0
APPID
  2
GENIUS_GENHATCH_13
 70
     0
  0
APPID
  2
GEVID948854295
 70
     0
  0
APPID
  2
GEVID939402019
 70
     0
  0
APPID
  2
GEVID952919491
 70
     0
  0
APPID
  2
GEVID952919492
 70
     0
  0
APPID
  2
GENIUS_GEFWELD_13
 70
     0
  0
APPID
  2
GENIUS_GENOBJ-F-WELS_13
 70
     0
  0
APPID
  2
GEVID952919493
 70
     0
  0
APPID
  2
GENIUS_GENOBJ-N-RSBK_13
 70
     0
  0
APPID
  2
GENIUS_GENOBJ-N-LIB_13
 70
     0
  0
APPID
  2
GENIUS_GENSCALE_13
 70
     0
  0
APPID
  2
GEVID986376691
 70
     0
  0
APPID
  2
ACATTRIBSERVICES
 70
     0
  0
APPID
  2
DCO15
 70
     0
  0
APPID
  2
ACADM_DIM_EDIT
 70
     0
  0
APPID
  2
AMDT_DM_ADJ
 70
     0
  0
APPID
  2
ACAD_MLEADERVER
 70
     0
  0
APPID
  2
ACAD_DSTYLE_DIMBREAK
 70
     0
  0
APPID
  2
ACAD_DSTYLE_DIMJAG
 70
     0
  0
APPID
  2
ACAD_NAV_VCDISPLAY
 70
     0
  0
APPID
  2
ACADANNOPO
 70
     0
  0
APPID
  2
ACAD_EXEMPT_FROM_CAD_STANDARDS
 70
     0
  0
ENDTAB
  0
TABLE
  2
DIMSTYLE
 70
    16
  0
DIMSTYLE
  2
STANDARD
 70
     0
  3

  4

  5

  6

  7

 40
1.0
 41
0.18
 42
0.0625
 43
0.38
 44
0.18
 45
0.0
 46
0.0
 47
0.0
 48
0.0
140
0.18
141
0.09
142
0.0
143
25.399999999999999
144
1.0
145
0.0
146
1.0
147
0.09
 71
     0
 72
     0
 73
     1
 74
     1
 75
     0
 76
     0
 77
     0
 78
     0
170
     0
171
     2
172
     0
173
     0
174
     0
175
     0
176
     0
177
     0
178
     0
  0
DIMSTYLE
  2
AM_JIS
 70
     0
  3

  4
"
  5

  6

  7

 40
1.0
 41
2.5
 42
1.0
 43
7.0
 44
1.0
 45
0.0
 46
0.0
 47
0.1
 48
0.1000000001
140
2.5
141
0.0
142
0.0
143
0.0393701
144
1.0
145
0.0
146
0.71
147
1.0
 71
     0
 72
     0
 73
     0
 74
     0
 75
     0
 76
     0
 77
     3
 78
     8
170
     0
171
     2
172
     1
173
     0
174
     0
175
     0
176
   256
177
   256
178
     4
  0
DIMSTYLE
  2
AM_JIS$3
 70
     0
  3

  4
"
  5

  6

  7

 40
1.0
 41
2.5
 42
1.0
 43
7.0
 44
1.0
 45
0.0
 46
0.0
 47
0.1
 48
0.1000000001
140
2.5
141
0.0
142
0.0
143
0.0393701
144
1.0
145
0.0
146
0.71
147
1.0
 71
     0
 72
     0
 73
     0
 74
     1
 75
     0
 76
     0
 77
     3
 78
     8
170
     0
171
     2
172
     0
173
     0
174
     0
175
     0
176
   256
177
   256
178
     4
  0
DIMSTYLE
  2
AM_JIS$4
 70
     0
  3

  4
"
  5

  6

  7

 40
1.0
 41
2.5
 42
1.0
 43
7.0
 44
1.0
 45
0.0
 46
0.0
 47
0.1
 48
0.1000000001
140
2.5
141
0.0
142
0.0
143
0.0393701
144
1.0
145
0.0
146
0.71
147
1.0
 71
     0
 72
     0
 73
     0
 74
     0
 75
     0
 76
     0
 77
     3
 78
     8
170
     0
171
     2
172
     0
173
     0
174
     0
175
     0
176
   256
177
   256
178
     4
  0
DIMSTYLE
  2
AM_JIS$6
 70
     0
  3

  4
"
  5

  6

  7

 40
1.0
 41
2.5
 42
1.0
 43
7.0
 44
1.0
 45
0.0
 46
0.0
 47
0.1
 48
0.1000000001
140
2.5
141
0.0
142
0.0
143
0.0393701
144
1.0
145
0.0
146
0.71
147
1.0
 71
     0
 72
     0
 73
     0
 74
     0
 75
     0
 76
     0
 77
     0
 78
     8
170
     0
171
     2
172
     1
173
     0
174
     0
175
     0
176
   256
177
   256
178
     4
  0
DIMSTYLE
  2
AM_JIS$7
 70
     0
  3

  4
"
  5

  6

  7

 40
1.0
 41
2.5
 42
1.0
 43
7.0
 44
1.0
 45
0.0
 46
0.0
 47
0.1
 48
0.1000000001
140
2.5
141
0.0
142
0.0
143
0.0393701
144
1.0
145
0.0
146
0.71
147
1.0
 71
     0
 72
     0
 73
     0
 74
     0
 75
     0
 76
     0
 77
     3
 78
     8
170
     0
171
     2
172
     1
173
     0
174
     0
175
     0
176
   256
177
   256
178
     4
  0
DIMSTYLE
  2
AM_JIS$SF
 70
     0
  3

  4
"
  5
OPEN30
  6
OPEN30
  7
OPEN30
 40
1.0
 41
2.5
 42
1.0
 43
10.0
 44
1.0
 45
0.0
 46
0.0
 47
0.1
 48
0.1
140
3.5
141
0.0
142
0.0
143
0.0393701
144
1.0
145
0.0
146
0.71
147
1.5
 71
     0
 72
     0
 73
     0
 74
     0
 75
     1
 76
     1
 77
     3
 78
     8
170
     0
171
     2
172
     1
173
     0
174
     0
175
     0
176
   256
177
   256
178
     4
  0
DIMSTYLE
  2
AM_JIS$SH
 70
     0
  3

  4
"
  5

  6
NONE
  7

 40
1.0
 41
2.5
 42
1.0
 43
10.0
 44
1.0
 45
0.0
 46
0.0
 47
0.1
 48
0.1
140
3.5
141
0.0
142
0.0
143
0.0393701
144
1.0
145
0.0
146
0.71
147
1.5
 71
     0
 72
     0
 73
     0
 74
     0
 75
     1
 76
     0
 77
     3
 78
     8
170
     0
171
     2
172
     1
173
     1
174
     0
175
     0
176
   256
177
   256
178
     4
  0
DIMSTYLE
  2
AM_ISO
 70
     0
  3

  4
"
  5

  6

  7

 40
1.0
 41
2.5
 42
1.0
 43
10.0
 44
1.0
 45
0.0
 46
0.0
 47
0.0
 48
0.000000001
140
3.0
141
0.0
142
0.0
143
0.0393701
144
1.0
145
0.0
146
0.71
147
1.299999999999998
 71
     1
 72
     0
 73
     0
 74
     0
 75
     0
 76
     0
 77
     1
 78
     8
170
     0
171
     2
172
     1
173
     0
174
     0
175
     0
176
   256
177
   256
178
     4
  0
DIMSTYLE
  2
AM_ISO$3
 70
     0
  3

  4
"
  5

  6

  7

 40
1.0
 41
2.5
 42
1.0
 43
10.0
 44
1.0
 45
0.0
 46
0.0
 47
0.0
 48
0.000000001
140
2.5
141
0.0
142
0.0
143
0.0393701
144
1.0
145
0.0
146
0.71
147
1.299999999999998
 71
     1
 72
     0
 73
     0
 74
     1
 75
     0
 76
     0
 77
     1
 78
     8
170
     0
171
     2
172
     0
173
     0
174
     0
175
     0
176
   256
177
   256
178
     4
  0
DIMSTYLE
  2
AM_ISO$4
 70
     0
  3

  4
"
  5

  6

  7

 40
1.0
 41
2.5
 42
1.0
 43
10.0
 44
1.0
 45
0.0
 46
0.0
 47
0.0
 48
0.000000001
140
2.5
141
0.0
142
0.0
143
0.0393701
144
1.0
145
0.0
146
0.71
147
1.299999999999998
 71
     1
 72
     0
 73
     0
 74
     1
 75
     0
 76
     0
 77
     1
 78
     8
170
     0
171
     2
172
     0
173
     0
174
     0
175
     0
176
   256
177
   256
178
     4
  0
DIMSTYLE
  2
AM_ISO$6
 70
     0
  3

  4
"
  5

  6

  7

 40
1.0
 41
2.5
 42
1.0
 43
10.0
 44
1.0
 45
0.0
 46
0.0
 47
0.0
 48
0.000000001
140
2.5
141
0.0
142
0.0
143
0.0393701
144
1.0
145
0.0
146
0.71
147
1.299999999999998
 71
     1
 72
     0
 73
     0
 74
     0
 75
     0
 76
     0
 77
     0
 78
     8
170
     0
171
     2
172
     1
173
     0
174
     0
175
     0
176
   256
177
   256
178
     4
  0
DIMSTYLE
  2
AM_ISO$7
 70
     0
  3

  4
"
  5

  6

  7

 40
1.0
 41
2.5
 42
1.0
 43
10.0
 44
1.0
 45
0.0
 46
0.0
 47
0.0
 48
0.000000001
140
2.5
141
0.0
142
0.0
143
0.0393701
144
1.0
145
0.0
146
0.71
147
1.299999999999998
 71
     1
 72
     0
 73
     0
 74
     0
 75
     0
 76
     0
 77
     1
 78
     8
170
     0
171
     2
172
     1
173
     0
174
     0
175
     0
176
   256
177
   256
178
     4
  0
DIMSTYLE
  2
AM_ISO$SF
 70
     0
  3

  4
"
  5

  6

  7

 40
1.0
 41
2.5
 42
1.0
 43
10.0
 44
1.0
 45
0.0
 46
0.0
 47
0.1
 48
0.1
140
3.5
141
0.0
142
0.0
143
0.0393701
144
1.0
145
0.0
146
0.71
147
1.5
 71
     0
 72
     0
 73
     0
 74
     0
 75
     1
 76
     1
 77
     1
 78
     8
170
     0
171
     2
172
     1
173
     0
174
     0
175
     0
176
   256
177
   256
178
     4
  0
DIMSTYLE
  2
AM_ISO$SH
 70
     0
  3

  4
"
  5

  6
GENAXEH
  7

 40
1.0
 41
2.5
 42
1.0
 43
10.0
 44
1.0
 45
0.0
 46
0.0
 47
0.1
 48
0.1
140
3.5
141
0.0
142
0.0
143
0.0393701
144
2.0
145
0.0
146
0.71
147
1.5
 71
     0
 72
     0
 73
     0
 74
     0
 75
     1
 76
     1
 77
     1
 78
     8
170
     0
171
     2
172
     1
173
     1
174
     0
175
     0
176
   256
177
   256
178
     4
  0
DIMSTYLE
  2
AM_JIS$0
 70
     0
  3

  4
"
  5

  6

  7

 40
1.0
 41
2.5
 42
1.0
 43
7.0
 44
1.0
 45
0.0
 46
0.0
 47
0.1
 48
0.1000000001
140
2.5
141
0.0
142
0.0
143
0.0393701
144
1.0
145
0.0
146
0.71
147
1.0
 71
     0
 72
     0
 73
     0
 74
     0
 75
     0
 76
     0
 77
     3
 78
     8
170
     0
171
     2
172
     1
173
     0
174
     0
175
     0
176
   256
177
   256
178
     4
  0
ENDTAB
  0
ENDSEC
  0
SECTION
  2
BLOCKS
  0
BLOCK
  8
0
  2
$MODEL_SPACE
 70
     0
 10
0.0
 20
0.0
 30
0.0
  3
$MODEL_SPACE
  1

  0
ENDBLK
  5
1A
  8
0
  0
BLOCK
 67
     1
  8
0
  2
$PAPER_SPACE
 70
     0
 10
0.0
 20
0.0
 30
0.0
  3
$PAPER_SPACE
  1

  0
ENDBLK
  5
17
 67
     1
  8
0
  0
BLOCK
  8
0
  2
_OPEN30
 70
     0
 10
0.0
 20
0.0
 30
0.0
  3
_OPEN30
  1

  0
LINE
  5
21C5
  8
0
 62
     0
 10
-1.0
 20
0.26794919
 30
0.0
 11
0.0
 21
0.0
 31
0.0
  0
LINE
  5
21C6
  8
0
 62
     0
 10
0.0
 20
0.0
 30
0.0
 11
-1.0
 21
-0.26794919
 31
0.0
  0
LINE
  5
21C7
  8
0
 62
     0
 10
0.0
 20
0.0
 30
0.0
 11
-1.0
 21
0.0
 31
0.0
  0
ENDBLK
  5
21C9
  8
0
  0
BLOCK
  8
0
  2
GENAXEH
 70
     0
 10
0.0
 20
0.0
 30
0.0
  3
GENAXEH
  1

  0
LINE
  5
21D0
  8
0
 10
-1.0
 20
0.0
 30
0.0
 11
1.0
 21
0.0
 31
0.0
  0
ENDBLK
  5
21D2
  8
0
  0
BLOCK
  8
0
  2
_NONE
 70
     0
 10
0.0
 20
0.0
 30
0.0
  3
_NONE
  1

  0
ENDBLK
  5
8193
  8
0
  0
ENDSEC
  0
SECTION
  2
ENTITIES
  0
POINT
  5
1B94
  8
0
 10
0.0
 20
0.0
 30
0.0
1001
GENIUS_GENODEF_13
1002
{
1000
HIER
1070
     1
1002
}
1002
{
1000
MANEDIT
1070
     0
1002
}
1002
{
1000
NOSEL
1070
     0
1002
}
1002
{
1000
BEHIND
1070
     0
1002
}
1002
{
1000
REACTOR
1002
}
1001
GENIUS_GENOBJ-N-SDF_13
1002
{
1000
OWNER
1000
GEN
1002
}
1001
GENIUS_GENOENT_13
1002
{
1000
MYREF
1005
1B94
1002
}
1002
{
1000
GRP
1005
0
1002
}
1001
GENIUS_GENOLIS_13
1002
{
1000
ENT
1005
89
1002
}
  0
CIRCLE
  5
1B7F7
  8
AM_0
 10
454.87874155029817
 20
322.97519248972208
 30
0.0
 40
50.0
  0
LINE
  5
1B7F8
  8
ﾁｭｳｼﾝｾﾝ1
 10
454.87874155029817
 20
407.97679487555541
 30
0.0
 11
454.87874155029817
 21
237.97359010388871
 31
0.0
  0
LINE
  5
1B7F9
  8
AM_0
 10
521.87874354839357
 20
280.46138707011733
 30
0.0
 11
521.87874354839357
 21
365.488997909327
 31
0.0
  0
LINE
  5
1B7FA
  8
AM_0
 10
529.87874378697222
 20
387.97649442821222
 30
0.0
 11
529.87874378697222
 21
257.97389055123273
 31
0.0
  0
LINE
  5
1B7FC
  8
AM_0
 10
142.8787681873356
 20
398.39550302768311
 30
0.0
 11
142.8787681873356
 21
283.54550302538593
 31
0.0
  0
LINE
  5
1B7FD
  8
AM_0
 10
288.87876819025558
 20
280.47552302532449
 30
0.0
 11
288.87876793400829
 21
403.97552332810221
 31
0.0
  0
LINE
  5
1B7FE
  8
AM_0
 10
297.87876819043572
 20
276.97555302525438
 30
0.0
 11
297.87876819043572
 21
404.97554302781441
 31
0.0
  0
LINE
  5
1B7FF
  8
AM_0
 10
308.87876819065559
 20
279.47556302530433
 30
0.0
 11
308.87876819065559
 21
402.4755430277645
 31
0.0
  0
LINE
  5
1B800
  8
AM_0
 10
135.3787681871859
 20
360.97552302693458
 30
0.0
 11
135.3787681871859
 21
320.97552302613462
 31
0.0
  0
LINE
  5
1B801
  8
AM_0
 10
136.8787681872156
 20
388.99511302749488
 30
0.0
 11
136.8787681872156
 21
345.97552302663451
 31
0.0
  0
LINE
  5
1B803
  8
AM_0
 10
317.78929136508373
 20
295.24683438752601
 30
0.0
 11
317.78929136508509
 21
386.7042716655431
 31
0.0
  0
ARC
  5
1B804
  8
AM_0
 10
712.03729472472185
 20
340.97555302654001
 30
0.0
 40
397.24800335969758
 50
173.3392856796832
 51
186.6607143203168
  0
LINE
  5
1B805
  8
AM_0
 10
324.87876819097551
 20
387.97649442821222
 30
0.0
 11
324.87876819097551
 21
257.97389055123273
 31
0.0
  0
LINE
  5
1B806
  8
AM_0
 10
332.87876842955387
 20
280.46138707011733
 30
0.0
 11
332.87876842955387
 21
365.488997909327
 31
0.0
  0
LINE
  5
1B809
  8
AM_0
 10
149.20877818746251
 20
354.66552302680827
 30
0.0
 11
221.608794858626
 21
354.66552302680827
 31
0.0
  0
LINE
  5
1B80A
  8
AM_0
 10
220.31880038333091
 20
354.97552302681453
 30
0.0
 11
150.4287881874867
 21
354.97552302681453
 31
0.0
  0
LINE
  5
1B80B
  8
AM_0
 10
220.31880038333091
 20
356.97552302685449
 30
0.0
 11
150.4287881874867
 21
356.97552302685449
 31
0.0
  0
LINE
  5
1B80C
  8
AM_0
 10
149.20877818746251
 20
357.32550302686172
 30
0.0
 11
221.608794858626
 21
357.32550302686172
 31
0.0
  0
LINE
  5
1B80D
  8
AM_0
 10
189.87876818827559
 20
294.62551302560752
 30
0.0
 11
152.87876818753571
 21
296.77151486508052
 31
0.0
  0
LINE
  5
1B80E
  8
AM_0
 10
158.5587881876491
 20
307.60553302586698
 30
0.0
 11
222.87876818893571
 21
307.60553302586698
 31
0.0
  0
LINE
  5
1B80F
  8
AM_0
 10
222.87876818893571
 20
304.97552302581443
 30
0.0
 11
159.42878818766641
 21
304.97552302581443
 31
0.0
  0
LINE
  5
1B810
  8
AM_0
 10
222.87876818893571
 20
306.97552302585461
 30
0.0
 11
159.42878818766641
 21
306.97552302585461
 31
0.0
  0
LINE
  5
1B811
  8
AM_0
 10
158.5587881876491
 20
304.25552302580007
 30
0.0
 11
222.87876818893571
 21
304.25552302580007
 31
0.0
  0
LINE
  5
1B812
  8
AM_0
 10
167.87876818783539
 20
275.05551302521621
 30
0.0
 11
208.87876818865541
 21
275.05551302521621
 31
0.0
  0
LINE
  5
1B813
  8
AM_0
 10
167.87876818783539
 20
275.73550302522972
 30
0.0
 11
208.87876818865541
 21
275.73550302522972
 31
0.0
  0
LINE
  5
1B814
  8
AM_0
 10
167.87876818783539
 20
277.08551302525677
 30
0.0
 11
208.87876818865541
 21
277.08551302525677
 31
0.0
  0
LINE
  5
1B815
  8
AM_0
 10
167.87876818783539
 20
279.11550302529719
 30
0.0
 11
222.87876818893571
 21
279.11550302529719
 31
0.0
  0
LINE
  5
1B816
  8
AM_0
 10
220.3205281324974
 20
324.97552302621449
 30
0.0
 11
150.4387981874867
 21
324.97552302621449
 31
0.0
  0
LINE
  5
1B817
  8
AM_0
 10
220.32145163226409
 20
326.97552302625462
 30
0.0
 11
150.4387981874867
 21
326.97552302625462
 31
0.0
  0
LINE
  5
1B818
  8
AM_0
 10
220.31879697789441
 20
334.97552302641458
 30
0.0
 11
150.4387981874867
 21
334.97552302641458
 31
0.0
  0
LINE
  5
1B819
  8
AM_0
 10
220.31879697789279
 20
336.9755230264546
 30
0.0
 11
150.4387981874867
 21
336.9755230264546
 31
0.0
  0
LINE
  5
1B81A
  8
AM_0
 10
149.20877818746251
 20
324.63552302620781
 30
0.0
 11
221.41398145644331
 21
324.63552302620781
 31
0.0
  0
LINE
  5
1B81B
  8
AM_0
 10
149.20877818746251
 20
327.2955030262608
 30
0.0
 11
221.41398145644331
 21
327.2955030262608
 31
0.0
  0
LINE
  5
1B81C
  8
AM_0
 10
149.14878818746089
 20
334.70550302640908
 30
0.0
 11
221.41398145644331
 21
334.70550302640908
 31
0.0
  0
LINE
  5
1B81D
  8
AM_0
 10
149.14878818746089
 20
337.23550302645958
 30
0.0
 11
221.41398145644331
 21
337.23550302645958
 31
0.0
  0
LINE
  5
1B81E
  8
AM_0
 10
149.1387781874607
 20
344.7155130266093
 30
0.0
 11
221.608794858626
 21
344.7155130266093
 31
0.0
  0
LINE
  5
1B81F
  8
AM_0
 10
220.31880038333091
 20
344.9755230266145
 30
0.0
 11
150.4287881874867
 21
344.9755230266145
 31
0.0
  0
LINE
  5
1B820
  8
AM_0
 10
220.31880038333091
 20
346.97552302665451
 30
0.0
 11
150.4287881874867
 21
346.97552302665451
 31
0.0
  0
LINE
  5
1B821
  8
AM_0
 10
149.1387781874607
 20
347.25552302666023
 30
0.0
 11
221.608794858626
 21
347.25552302666023
 31
0.0
  0
LINE
  5
1B822
  8
AM_0
 10
251.38972247633319
 20
314.97552302601451
 30
0.0
 11
159.42878818766641
 21
314.97552302601451
 31
0.0
  0
LINE
  5
1B823
  8
AM_0
 10
158.33878818764489
 20
314.48550302600472
 30
0.0
 11
252.2389900176579
 21
314.48550302600472
 31
0.0
  0
LINE
  5
1B825
  8
ﾁｭｳｼﾝｾﾝ1
 10
129.38486818716589
 20
340.97555302653433
 30
0.0
 11
340.54274765532108
 21
340.97555302653433
 31
0.0
  0
LINE
  5
1B826
  8
AM_0
 10
285.80355427671952
 20
316.97552302605447
 30
0.0
 11
159.42878818766641
 21
316.97552302605447
 31
0.0
  0
LINE
  5
1B827
  8
AM_0
 10
158.33878818764489
 20
317.41552302606328
 30
0.0
 11
286.89355422438121
 21
317.41552302606328
 31
0.0
  0
LINE
  5
1B82A
  8
AM_0
 10
152.87876818753571
 20
292.6255130255675
 30
0.0
 11
152.87876818753571
 21
306.66552302584819
 31
0.0
  0
ARC
  5
1B82B
  8
AM_0
 10
152.0437481875191
 20
299.3777430257025
 30
0.0
 40
5.0078936001001573
 50
5.4746799999993279
 51
80.401280000006096
  0
LINE
  5
1B82C
  8
AM_0
 10
136.8787681872156
 20
292.95590302557412
 30
0.0
 11
136.8787681872156
 21
335.97552302643459
 31
0.0
  0
LINE
  5
1B82D
  8
AM_0
 10
151.04877818749901
 20
282.70550302536913
 30
0.0
 11
164.37876818776559
 21
282.70550302536913
 31
0.0
  0
LINE
  5
1B82E
  8
AM_0
 10
151.10877818750021
 20
287.99551302547491
 30
0.0
 11
164.37876818776559
 21
287.99551302547491
 31
0.0
  0
LINE
  5
1B82F
  8
AM_0
 10
151.0187781874983
 20
279.30551302530108
 30
0.0
 11
164.37876818776559
 21
279.30551302530108
 31
0.0
  0
LINE
  5
1B830
  8
AM_0
 10
150.9887781874979
 20
277.67550302526848
 30
0.0
 11
164.48877818776779
 21
277.67550302526848
 31
0.0
  0
LINE
  5
1B831
  8
AM_0
 10
149.09879818746009
 20
284.28552302540072
 30
0.0
 11
148.13877818744081
 21
288.75552302549022
 31
0.0
  0
ARC
  5
1B832
  8
AM_0
 10
146.6879681874118
 20
284.37271302540239
 30
0.0
 40
1.502808100030055
 50
13.577820000000839
 51
89.969210000004949
  0
ARC
  5
1B833
  8
AM_0
 10
146.70707818741209
 20
282.34841302536199
 30
0.0
 40
1.5070969000301411
 50
14.097819999996659
 51
89.935179999998283
  0
LINE
  5
1B834
  8
AM_0
 10
146.70877818741241
 20
283.85553302539211
 30
0.0
 11
148.3587781874453
 21
283.85553302539211
 31
0.0
  0
LINE
  5
1B835
  8
AM_0
 10
146.68879818741169
 20
285.8755130254325
 30
0.0
 11
148.7487881874531
 21
285.8755130254325
 31
0.0
  0
LINE
  5
1B836
  8
AM_0
 10
142.8787681873356
 20
283.59513532753101
 30
0.0
 11
147.6987781874322
 21
283.47552302538469
 31
0.0
  0
ARC
  5
1B837
  8
AM_0
 10
151.05045818749909
 20
284.70089302540902
 30
0.0
 40
1.9953895000399069
 50
192.01537999999999
 51
269.95193300000881
  0
ARC
  5
1B838
  8
AM_0
 10
151.01157818749829
 20
281.30099302534092
 30
0.0
 40
1.9954823000399089
 50
193.19407999999669
 51
270.20654200000092
  0
LINE
  5
1B839
  8
AM_0
 10
149.06879818745929
 20
280.84552302533189
 30
0.0
 11
148.14878818744111
 21
284.72552302540959
 31
0.0
  0
LINE
  5
1B83A
  8
AM_0
 10
149.048808187459
 20
279.18551302529869
 30
0.0
 11
148.1688081874415
 21
282.71551302536932
 31
0.0
  0
ARC
  5
1B83B
  8
AM_0
 10
150.9860981874979
 20
279.6733130253084
 30
0.0
 40
1.9977812000399551
 50
194.13223000000329
 51
270.07691900000231
  0
LINE
  5
1B83C
  8
AM_0
 10
146.66877818741139
 20
289.93551302551379
 30
0.0
 11
149.08878818745981
 21
289.93551302551379
 31
0.0
  0
LINE
  5
1B83D
  8
AM_0
 10
142.8787681873356
 20
298.28552302568062
 30
0.0
 11
152.87876818753571
 21
298.28552302568062
 31
0.0
  0
LINE
  5
1B83E
  8
AM_0
 10
142.8787681873356
 20
292.6255130255675
 30
0.0
 11
152.87876818753571
 21
292.6255130255675
 31
0.0
  0
ARC
  5
1B83F
  8
AM_0
 10
146.66999818741141
 20
288.43136302548368
 30
0.0
 40
1.504139800030081
 50
12.44475000000498
 51
90.045749999994939
  0
LINE
  5
1B840
  8
AM_0
 10
139.1587681872613
 20
293.33551302558169
 30
0.0
 11
142.8787681873356
 21
293.33551302558169
 31
0.0
  0
LINE
  5
1B841
  8
AM_0
 10
139.1387781872609
 20
294.4755230256045
 30
0.0
 11
141.8787681873157
 21
294.4755230256045
 31
0.0
  0
LINE
  5
1B842
  8
AM_0
 10
138.65876818725121
 20
294.59552302560678
 30
0.0
 11
137.4187781872262
 21
295.25549302562018
 31
0.0
  0
ARC
  5
1B843
  8
AM_0
 10
137.87775818723549
 20
295.1209730256175
 30
0.0
 40
0.99898326001998
 50
180.3123899999988
 51
240.03464000000409
  0
ARC
  5
1B844
  8
AM_0
 10
137.8837681872358
 20
296.14654302563798
 30
0.0
 40
1.0050608000201
 50
180.62839999999889
 51
242.44119000000481
  0
LINE
  5
1B845
  8
AM_0
 10
138.65876818725121
 20
293.47549302558451
 30
0.0
 11
137.3787681872258
 21
294.25549302560012
 31
0.0
  0
LINE
  5
1B846
  8
AM_0
 10
138.8787681872557
 20
293.59552302558677
 30
0.0
 11
138.8787681872557
 21
294.13552302559771
 31
0.0
  0
ARC
  5
1B847
  8
AM_0
 10
139.1722881872615
 20
294.34661302560193
 30
0.0
 40
1.011208500020224
 50
239.48118999998769
 51
269.23431300000738
  0
ARC
  5
1B848
  8
AM_0
 10
139.13706818726081
 20
295.48870302562477
 30
0.0
 40
1.0131912000202621
 50
241.8312399999993
 51
270.09627600000113
  0
ARC
  5
1B849
  8
AM_0
 10
141.87171818731559
 20
295.48257302562462
 30
0.0
 40
1.0070832000201411
 50
270.40157799999861
 51
359.59842201999908
  0
LINE
  5
1B84A
  8
AM_0
 10
139.11878818726041
 20
292.3755130255625
 30
0.0
 11
142.37876818732579
 21
292.3755130255625
 31
0.0
  0
LINE
  5
1B84B
  8
AM_0
 10
139.1587681872613
 20
291.23550302553969
 30
0.0
 11
142.37876818732579
 21
291.23550302553969
 31
0.0
  0
ARC
  5
1B84C
  8
AM_0
 10
137.88593818723601
 20
292.96569302557441
 30
0.0
 40
1.007194200020143
 50
179.44232
 51
239.76658000000199
  0
LINE
  5
1B84D
  8
AM_0
 10
138.67878818725171
 20
292.49551302556489
 30
0.0
 11
137.438768187227
 21
293.11550302557731
 31
0.0
  0
LINE
  5
1B84E
  8
AM_0
 10
138.65879818725111
 20
291.37551302554249
 30
0.0
 11
137.3787981872257
 21
292.09552302555699
 31
0.0
  0
LINE
  5
1B84F
  8
AM_0
 10
138.8787681872557
 20
291.49551302554488
 30
0.0
 11
138.8787681872557
 21
292.01550302555529
 31
0.0
  0
ARC
  5
1B850
  8
AM_0
 10
139.16965818726149
 20
292.23727302555977
 30
0.0
 40
1.001808000020036
 50
239.33833000000371
 51
269.37718000000922
  0
ARC
  5
1B851
  8
AM_0
 10
139.15635818726099
 20
293.37994302558269
 30
0.0
 40
1.005138300020102
 50
241.63206000000301
 51
267.85770900000898
  0
ARC
  5
1B852
  8
AM_0
 10
137.88181818723569
 20
294.01541302559519
 30
0.0
 40
1.0030519000200611
 50
179.99423000000229
 51
243.78734999999099
  0
LINE
  5
1B853
  8
AM_0
 10
139.1787881872616
 20
297.85553302567212
 30
0.0
 11
142.8787681873356
 21
297.85553302567212
 31
0.0
  0
LINE
  5
1B854
  8
AM_0
 10
139.1587681872613
 20
298.99551302569478
 30
0.0
 11
141.8787681873157
 21
298.99551302569478
 31
0.0
  0
ARC
  5
1B855
  8
AM_0
 10
137.88050818723571
 20
299.71814302570931
 30
0.0
 40
1.001733900020034
 50
180.14953999999739
 51
237.2623699999958
  0
LINE
  5
1B856
  8
AM_0
 10
138.63877818725081
 20
298.01550302567529
 30
0.0
 11
137.33875818722481
 21
298.87548302569252
 31
0.0
  0
LINE
  5
1B857
  8
AM_0
 10
138.8787681872557
 20
298.1555130256782
 30
0.0
 11
138.8787681872557
 21
298.6355230256878
 31
0.0
  0
LINE
  5
1B858
  8
AM_0
 10
138.65879818725111
 20
299.13552302569781
 30
0.0
 11
137.3787981872257
 21
299.87555302571258
 31
0.0
  0
ARC
  5
1B859
  8
AM_0
 10
139.1844281872618
 20
298.8658130256922
 30
0.0
 40
1.010318000020205
 50
237.31141999999309
 51
269.67986000000519
  0
ARC
  5
1B85A
  8
AM_0
 10
139.1710281872615
 20
300.00216302571522
 30
0.0
 40
1.0067360000201351
 50
239.41356999999849
 51
269.30193900000148
  0
ARC
  5
1B85B
  8
AM_0
 10
141.87336818731541
 20
300.00091302571502
 30
0.0
 40
1.005422700020107
 50
270.30818899999389
 51
359.69180761999792
  0
ARC
  5
1B85C
  8
AM_0
 10
137.88431818723569
 20
300.74478302572982
 30
0.0
 40
1.00559290002011
 50
180.5283799999988
 51
239.81866999999261
  0
ARC
  5
1B85D
  8
AM_0
 10
156.02869818759859
 20
299.7653530257104
 30
0.0
 40
1.004136700020082
 50
314.20256399999818
 51
5.151160000004384
  0
ARC
  5
1B85E
  8
AM_0
 10
152.49997818752831
 20
303.30746302578132
 30
0.0
 40
6.0039072001200786
 50
273.61728599999782
 51
314.77630699998912
  0
LINE
  5
1B85F
  8
AM_0
 10
148.59879818745
 20
292.62548302556752
 30
0.0
 11
149.13880818746091
 21
289.63549302550763
 31
0.0
  0
ARC
  5
1B860
  8
AM_0
 10
151.10062818750001
 20
289.98892302551468
 30
0.0
 40
1.9934334000398679
 50
190.21196999999961
 51
270.23411599999417
  0
ARC
  5
1B861
  8
AM_0
 10
164.37311818776561
 20
286.4898330254448
 30
0.0
 40
1.505674500030113
 50
0.2155299999989793
 51
89.784480000007648
  0
LINE
  5
1B862
  8
AM_0
 10
165.87876818779549
 20
279.08551302529679
 30
0.0
 11
165.87876818779549
 21
286.49551302544478
 31
0.0
  0
ARC
  5
1B863
  8
AM_0
 10
167.8751681878357
 20
281.1119030253372
 30
0.0
 40
1.9963853000399261
 50
179.89615999999739
 51
270.10383699999352
  0
ARC
  5
1B864
  8
AM_0
 10
164.37699818776559
 20
281.20370302533911
 30
0.0
 40
1.501797900030035
 50
0.0685499999989572
 51
89.931450000001036
  0
ARC
  5
1B865
  8
AM_0
 10
167.8812681878357
 20
277.05035302525607
 30
0.0
 40
1.9948452000398971
 50
194.36279999999951
 51
269.92834199999561
  0
ARC
  5
1B866
  8
AM_0
 10
167.87333818783549
 20
277.73007302526958
 30
0.0
 40
1.9945769000398901
 50
179.84401000000369
 51
270.15599200000003
  0
ARC
  5
1B867
  8
AM_0
 10
164.4924181877679
 20
276.16864302523828
 30
0.0
 40
1.5068883000301361
 50
14.876929999996801
 51
90.137770000000472
  0
ARC
  5
1B868
  8
AM_0
 10
164.3749481877656
 20
277.80166302527113
 30
0.0
 40
1.5038475000300759
 50
0.1463999999964968
 51
89.853600000010005
  0
ARC
  5
1B869
  8
AM_0
 10
167.87598818783559
 20
279.08273302529659
 30
0.0
 40
1.9972084000399439
 50
179.91986000000111
 51
270.08014299999962
  0
LINE
  5
1B86A
  8
AM_0
 10
135.3787681871859
 20
320.97549302613447
 30
0.0
 11
136.8787681872156
 21
320.85549302613219
 31
0.0
  0
LINE
  5
1B86B
  8
AM_0
 10
134.38486818716589
 20
325.75366302623007
 30
0.0
 11
134.38486818716589
 21
356.19729302683902
 31
0.0
  0
LINE
  5
1B86C
  8
AM_0
 10
134.38486818716589
 20
325.75369302623011
 30
0.0
 11
134.8848681871759
 21
322.98370302617462
 31
0.0
  0
LINE
  5
1B86D
  8
AM_0
 10
134.8848681871759
 20
322.98370302617462
 30
0.0
 11
135.3848981871856
 21
323.02371302617553
 31
0.0
  0
POINT
  5
1B86E
  8
AM_0
 10
134.38486818716589
 20
340.9755230265344
 30
0.0
  0
LINE
  5
1B86F
  8
AM_0
 10
134.38486818716589
 20
356.19729302683902
 30
0.0
 11
134.8848681871759
 21
358.96731302689437
 31
0.0
  0
LINE
  5
1B870
  8
AM_0
 10
134.8848681871759
 20
358.96731302689437
 30
0.0
 11
135.3848681871859
 21
358.92730302689353
 31
0.0
  0
ARC
  5
1B871
  8
AM_0
 10
158.33878818764489
 20
315.95050302603403
 30
0.0
 40
1.465000400029298
 50
90.0
 51
269.99999700000228
  0
ARC
  5
1B872
  8
AM_0
 10
158.5587881876491
 20
305.9305130258337
 30
0.0
 40
1.6750063000334989
 50
90.0
 51
269.99999700000228
  0
LINE
  5
1B873
  8
AM_0
 10
138.8787681872557
 20
315.35553302602221
 30
0.0
 11
138.8787681872557
 21
316.71551302604928
 31
0.0
  0
ARC
  5
1B874
  8
AM_0
 10
137.88785818723591
 20
315.98461302603482
 30
0.0
 40
1.0091312000201811
 50
180.51612999999961
 51
269.48387399999899
  0
LINE
  5
1B875
  8
AM_0
 10
142.8787681873356
 20
306.66552302584819
 30
0.0
 11
152.87876818753571
 21
306.66552302584819
 31
0.0
  0
LINE
  5
1B876
  8
AM_0
 10
141.8787681873157
 20
314.97552302601451
 30
0.0
 11
137.87876818723589
 21
314.97552302601451
 31
0.0
  0
ARC
  5
1B877
  8
AM_0
 10
141.88779818731601
 20
313.98455302599479
 30
0.0
 40
0.9910124500198204
 50
359.47799761999983
 51
90.521999999995685
  0
ARC
  5
1B878
  8
AM_0
 10
137.8832181872358
 20
308.59884302588688
 30
0.0
 40
1.0044501000200889
 50
180.1901499999997
 51
253.54965000000419
  0
ARC
  5
1B879
  8
AM_0
 10
141.87247818731541
 20
308.24182302587991
 30
0.0
 40
1.0063295000201249
 50
270.35925199999912
 51
359.64074623999619
  0
LINE
  5
1B87A
  8
AM_0
 10
139.09876818726011
 20
305.29550302582089
 30
0.0
 11
142.17878818732169
 21
305.29550302582089
 31
0.0
  0
LINE
  5
1B87B
  8
AM_0
 10
139.03876818725891
 20
307.2355030258596
 30
0.0
 11
141.8787681873157
 21
307.2355030258596
 31
0.0
  0
ARC
  5
1B87C
  8
AM_0
 10
137.87830818723569
 20
306.82019302585132
 30
0.0
 40
0.999532700019991
 50
180.26813000000021
 51
247.6849499999995
  0
LINE
  5
1B87D
  8
AM_0
 10
138.6987781872522
 20
305.3755130258225
 30
0.0
 11
137.498788187228
 21
305.89550302583302
 31
0.0
  0
LINE
  5
1B87E
  8
AM_0
 10
138.8787681872557
 20
305.59552302582688
 30
0.0
 11
138.8787681872557
 21
306.65551302584811
 31
0.0
  0
ARC
  5
1B87F
  8
AM_0
 10
139.0214381872583
 20
308.25051302588002
 30
0.0
 40
1.015145100020302
 50
253.83232999999399
 51
270.97838100000092
  0
LINE
  5
1B880
  8
AM_0
 10
138.73877818725299
 20
307.27551302586062
 30
0.0
 11
137.59876818723001
 21
307.63549302586767
 31
0.0
  0
ARC
  5
1B881
  8
AM_0
 10
139.09201818725981
 20
306.30172302584111
 30
0.0
 40
1.006237100020124
 50
246.99537999999981
 51
270.38475599999748
  0
LINE
  5
1B882
  8
AM_0
 10
141.8787681873157
 20
326.97552302625462
 30
0.0
 11
137.87876818723589
 21
326.97552302625462
 31
0.0
  0
ARC
  5
1B883
  8
AM_0
 10
137.8709881872355
 20
325.98333302623467
 30
0.0
 40
0.9922232600198446
 50
89.549149999992622
 51
180.4508400000029
  0
ARC
  5
1B884
  8
AM_0
 10
141.8708881873155
 20
327.98339302627471
 30
0.0
 40
1.007920400020158
 50
270.44848800000472
 51
359.55151003999867
  0
LINE
  5
1B885
  8
AM_0
 10
141.8787681873157
 20
324.97552302621449
 30
0.0
 11
137.87876818723589
 21
324.97552302621449
 31
0.0
  0
ARC
  5
1B886
  8
AM_0
 10
141.88779818731601
 20
323.9845530261947
 30
0.0
 40
0.9910124500198204
 50
359.47799761999983
 51
90.521999999995685
  0
ARC
  5
1B887
  8
AM_0
 10
137.88785818723591
 20
325.9846130262348
 30
0.0
 40
1.0091312000201811
 50
180.51612999999961
 51
269.48387399999899
  0
LINE
  5
1B888
  8
AM_0
 10
138.8787681872557
 20
325.37551302622262
 30
0.0
 11
138.8787681872557
 21
326.59552302624689
 31
0.0
  0
LINE
  5
1B889
  8
AM_0
 10
141.8787681873157
 20
316.97552302605447
 30
0.0
 11
137.87876818723589
 21
316.97552302605447
 31
0.0
  0
ARC
  5
1B88A
  8
AM_0
 10
137.8709881872355
 20
315.9833330260347
 30
0.0
 40
0.9922232600198446
 50
89.549149999992622
 51
180.4508400000029
  0
ARC
  5
1B88B
  8
AM_0
 10
141.8708881873155
 20
317.98339302607468
 30
0.0
 40
1.007920400020158
 50
270.44848800000472
 51
359.55151003999867
  0
ARC
  5
1B88C
  8
AM_0
 10
149.20877818746251
 20
325.96551302623431
 30
0.0
 40
1.3300010000266
 50
90.0
 51
269.99999700000228
  0
ARC
  5
1B88D
  8
AM_0
 10
150.4300681874866
 20
325.9755230262345
 30
0.0
 40
1.0000380000199991
 50
89.500710000004943
 51
270.49928400000641
  0
ARC
  5
1B88E
  8
AM_0
 10
166.87876818781569
 20
315.97552302603452
 30
0.0
 40
1.0000032000200001
 50
90.0
 51
269.99999700000228
  0
ARC
  5
1B88F
  8
AM_0
 10
159.42878818766641
 20
315.97552302603452
 30
0.0
 40
1.0000032000200001
 50
90.0
 51
269.99999700000228
  0
ARC
  5
1B890
  8
AM_0
 10
166.87876818781569
 20
305.97552302583438
 30
0.0
 40
1.0000032000200001
 50
90.0
 51
269.99999700000228
  0
LINE
  5
1B891
  8
AM_0
 10
165.87876818779549
 20
303.73550302578968
 30
0.0
 11
165.87876818779549
 21
303.80551302579107
 31
0.0
  0
ARC
  5
1B892
  8
AM_0
 10
159.42878818766641
 20
305.97552302583438
 30
0.0
 40
1.0000032000200001
 50
90.0
 51
269.99999700000228
  0
ARC
  5
1B893
  8
AM_0
 10
166.87876818781569
 20
325.9755230262345
 30
0.0
 40
1.0000032000200001
 50
90.0
 51
269.99999700000228
  0
ARC
  5
1B894
  8
AM_0
 10
149.14890818746099
 20
345.96551302663443
 30
0.0
 40
1.270038400025399
 50
89.554809999994333
 51
270.44518900000668
  0
ARC
  5
1B895
  8
AM_0
 10
137.8709881872355
 20
345.96771302663439
 30
0.0
 40
0.9922232600198446
 50
179.54914999999909
 51
270.45084499999541
  0
ARC
  5
1B896
  8
AM_0
 10
141.8708881873155
 20
343.96762302659448
 30
0.0
 40
1.007920400020158
 50
0.4484899999971624
 51
89.551510000009358
  0
LINE
  5
1B897
  8
AM_0
 10
141.8787681873157
 20
336.9755230264546
 30
0.0
 11
137.87876818723589
 21
336.9755230264546
 31
0.0
  0
ARC
  5
1B898
  8
AM_0
 10
141.8708881873155
 20
337.98339302647469
 30
0.0
 40
1.007920400020158
 50
270.44848800000472
 51
359.55151003999867
  0
LINE
  5
1B899
  8
AM_0
 10
141.8787681873157
 20
334.97552302641458
 30
0.0
 11
137.87876818723589
 21
334.97552302641458
 31
0.0
  0
ARC
  5
1B89A
  8
AM_0
 10
137.88785818723591
 20
335.98461302643477
 30
0.0
 40
1.0091312000201811
 50
180.51612999999961
 51
269.48387399999899
  0
LINE
  5
1B89B
  8
AM_0
 10
138.8787681872557
 20
335.37551302642242
 30
0.0
 11
138.8787681872557
 21
336.53552302644579
 31
0.0
  0
ARC
  5
1B89C
  8
AM_0
 10
141.88779818731601
 20
333.98455302639468
 30
0.0
 40
0.9910124500198204
 50
359.47799761999983
 51
90.521999999995685
  0
ARC
  5
1B89D
  8
AM_0
 10
137.8709881872355
 20
335.98333302643471
 30
0.0
 40
0.9922232600198446
 50
89.549149999992622
 51
180.4508400000029
  0
ARC
  5
1B89E
  8
AM_0
 10
149.14878818746089
 20
335.97052302643448
 30
0.0
 40
1.2650050000252999
 50
90.0
 51
269.99999700000228
  0
ARC
  5
1B89F
  8
AM_0
 10
150.4300681874866
 20
335.97552302643459
 30
0.0
 40
1.0000380000199991
 50
89.500710000004943
 51
270.49928400000641
  0
LINE
  5
1B8A0
  8
AM_0
 10
141.8787681873157
 20
354.97552302681453
 30
0.0
 11
137.87876818723589
 21
354.97552302681453
 31
0.0
  0
LINE
  5
1B8A1
  8
AM_0
 10
141.8787681873157
 20
356.97552302685449
 30
0.0
 11
137.87876818723589
 21
356.97552302685449
 31
0.0
  0
ARC
  5
1B8A2
  8
AM_0
 10
137.88785818723591
 20
355.9664330268343
 30
0.0
 40
1.0091312000201811
 50
90.51612999999962
 51
179.48387000000039
  0
ARC
  5
1B8A3
  8
AM_0
 10
137.8709881872355
 20
355.96771302683447
 30
0.0
 40
0.9922232600198446
 50
179.54914999999909
 51
270.45084499999541
  0
LINE
  5
1B8A4
  8
AM_0
 10
138.8787681872557
 20
356.5755030268466
 30
0.0
 11
138.8787681872557
 21
355.35553302682212
 31
0.0
  0
ARC
  5
1B8A5
  8
AM_0
 10
141.88779818731601
 20
357.96649302687439
 30
0.0
 40
0.9910124500198204
 50
269.47800000000427
 51
0.5219999999956863
  0
LINE
  5
1B8A6
  8
AM_0
 10
141.8787681873157
 20
346.97552302665451
 30
0.0
 11
137.87876818723589
 21
346.97552302665451
 31
0.0
  0
LINE
  5
1B8A7
  8
AM_0
 10
141.8787681873157
 20
344.9755230266145
 30
0.0
 11
137.87876818723589
 21
344.9755230266145
 31
0.0
  0
ARC
  5
1B8A8
  8
AM_0
 10
137.88785818723591
 20
345.96643302663432
 30
0.0
 40
1.0091312000201811
 50
90.51612999999962
 51
179.48387000000039
  0
LINE
  5
1B8A9
  8
AM_0
 10
138.8787681872557
 20
346.57550302664652
 30
0.0
 11
138.8787681872557
 21
345.41552302662342
 31
0.0
  0
ARC
  5
1B8AA
  8
AM_0
 10
141.88779818731601
 20
347.96649302667441
 30
0.0
 40
0.9910124500198204
 50
269.47800000000427
 51
0.5219999999956863
  0
ARC
  5
1B8AB
  8
AM_0
 10
141.8708881873155
 20
353.96762302679451
 30
0.0
 40
1.007920400020158
 50
0.4484899999971624
 51
89.551510000009358
  0
ARC
  5
1B8AC
  8
AM_0
 10
150.4387981874867
 20
355.97552302683448
 30
0.0
 40
1.0000124000199999
 50
90.0
 51
269.99999700000228
  0
ARC
  5
1B8AD
  8
AM_0
 10
149.2109181874624
 20
355.98550302683469
 30
0.0
 40
1.3300232000265999
 50
89.661519999989508
 51
270.3384679999927
  0
ARC
  5
1B8AE
  8
AM_0
 10
150.4387981874867
 20
345.97552302663451
 30
0.0
 40
1.0000124000199999
 50
90.0
 51
269.99999700000228
  0
ARC
  5
1B8AF
  8
AM_0
 10
166.87876818781569
 20
335.97552302643459
 30
0.0
 40
1.0000032000200001
 50
90.0
 51
269.99999700000228
  0
ARC
  5
1B8B0
  8
AM_0
 10
166.87876818781569
 20
355.97552302683448
 30
0.0
 40
1.0000007000199991
 50
90.0
 51
269.99999700000228
  0
ARC
  5
1B8B1
  8
AM_0
 10
166.87876818781569
 20
345.97552302663451
 30
0.0
 40
1.0000007000199991
 50
90.0
 51
269.99999700000228
  0
ARC
  5
1B8B2
  8
AM_0
 10
362.36626048749611
 20
257.22375034247221
 30
0.0
 40
6.25
 50
178.0894295910561
 51
270.0
1001
GENIUS_GENODEF_13
1002
{
1000
HIER
1070
     0
1002
}
1002
{
1000
MANEDIT
1070
     0
1002
}
1002
{
1000
NOSEL
1070
     0
1002
}
1002
{
1000
BEHIND
1070
     0
1002
}
1002
{
1000
OTHER
1070
     0
1002
}
1002
{
1000
REACTOR
1002
}
1001
GENIUS_GENOBJ-N-FIL_13
1002
{
1000
OWNER
1000
GEN
1002
}
  0
ARC
  5
1B8B3
  8
AM_0
 10
339.87876863831008
 20
257.97389055123227
 30
0.0
 40
16.25
 50
358.08942959105622
 51
91.910213703606075
  0
LINE
  5
1B8B4
  8
ﾁｭｳｼﾝｾﾝ1
 10
321.68022073230611
 20
322.97519248972208
 30
0.0
 11
534.87874378697222
 21
322.97519248972208
 31
0.0
  0
LINE
  5
1B8B5
  8
AM_0
 10
339.87876863831008
 20
242.97359010388891
 30
0.0
 11
514.87874333963748
 21
242.97359010388891
 31
0.0
  0
POLYLINE
  5
1B8B6
  8
AM_0
 10
324.87876819097522
 20
257.9738892398646
 30
0.0
 66
     1
 70
     8
  0
VERTEX
  8
AM_0
  5
1CF90
 10
324.879
 20
257.974
 30
0.000000
  70
    32
  0
VERTEX
  8
AM_0
  5
1CF91
 10
324.880
 20
257.790
 30
0.000000
  70
    32
  0
VERTEX
  8
AM_0
  5
1CF92
 10
324.883
 20
257.606
 30
0.000000
  70
    32
  0
VERTEX
  8
AM_0
  5
1CF93
 10
324.889
 20
257.422
 30
0.000000
  70
    32
  0
VERTEX
  8
AM_0
  5
1CF94
 10
324.897
 20
257.238
 30
0.000000
  70
    32
  0
VERTEX
  8
AM_0
  5
1CF95
 10
324.907
 20
257.054
 30
0.000000
  70
    32
  0
VERTEX
  8
AM_0
  5
1CF96
 10
324.919
 20
256.870
 30
0.000000
  70
    32
  0
VERTEX
  8
AM_0
  5
1CF97
 10
324.934
 20
256.687
 30
0.000000
  70
    32
  0
VERTEX
  8
AM_0
  5
1CF98
 10
324.951
 20
256.504
 30
0.000000
  70
    32
  0
VERTEX
  8
AM_0
  5
1CF99
 10
324.970
 20
256.321
 30
0.000000
  70
    32
  0
VERTEX
  8
AM_0
  5
1CF9A
 10
324.992
 20
256.138
 30
0.000000
  70
    32
  0
VERTEX
  8
AM_0
  5
1CF9B
 10
325.015
 20
255.955
 30
0.000000
  70
    32
  0
VERTEX
  8
AM_0
  5
1CF9C
 10
325.041
 20
255.773
 30
0.000000
  70
    32
  0
VERTEX
  8
AM_0
  5
1CF9D
 10
325.069
 20
255.591
 30
0.000000
  70
    32
  0
VERTEX
  8
AM_0
  5
1CF9E
 10
325.100
 20
255.409
 30
0.000000
  70
    32
  0
VERTEX
  8
AM_0
  5
1CF9F
 10
325.132
 20
255.228
 30
0.000000
  70
    32
  0
VERTEX
  8
AM_0
  5
1CFA0
 10
325.167
 20
255.047
 30
0.000000
  70
    32
  0
VERTEX
  8
AM_0
  5
1CFA1
 10
325.204
 20
254.867
 30
0.000000
  70
    32
  0
VERTEX
  8
AM_0
  5
1CFA2
 10
325.243
 20
254.687
 30
0.000000
  70
    32
  0
VERTEX
  8
AM_0
  5
1CFA3
 10
325.285
 20
254.508
 30
0.000000
  70
    32
  0
VERTEX
  8
AM_0
  5
1CFA4
 10
325.328
 20
254.329
 30
0.000000
  70
    32
  0
VERTEX
  8
AM_0
  5
1CFA5
 10
325.374
 20
254.151
 30
0.000000
  70
    32
  0
VERTEX
  8
AM_0
  5
1CFA6
 10
325.422
 20
253.973
 30
0.000000
  70
    32
  0
VERTEX
  8
AM_0
  5
1CFA7
 10
325.472
 20
253.796
 30
0.000000
  70
    32
  0
VERTEX
  8
AM_0
  5
1CFA8
 10
325.525
 20
253.620
 30
0.000000
  70
    32
  0
VERTEX
  8
AM_0
  5
1CFA9
 10
325.579
 20
253.444
 30
0.000000
  70
    32
  0
VERTEX
  8
AM_0
  5
1CFAA
 10
325.636
 20
253.269
 30
0.000000
  70
    32
  0
VERTEX
  8
AM_0
  5
1CFAB
 10
325.695
 20
253.094
 30
0.000000
  70
    32
  0
VERTEX
  8
AM_0
  5
1CFAC
 10
325.756
 20
252.920
 30
0.000000
  70
    32
  0
VERTEX
  8
AM_0
  5
1CFAD
 10
325.819
 20
252.748
 30
0.000000
  70
    32
  0
VERTEX
  8
AM_0
  5
1CFAE
 10
325.884
 20
252.575
 30
0.000000
  70
    32
  0
VERTEX
  8
AM_0
  5
1CFAF
 10
325.951
 20
252.404
 30
0.000000
  70
    32
  0
VERTEX
  8
AM_0
  5
1CFB0
 10
326.021
 20
252.234
 30
0.000000
  70
    32
  0
VERTEX
  8
AM_0
  5
1CFB1
 10
326.092
 20
252.064
 30
0.000000
  70
    32
  0
VERTEX
  8
AM_0
  5
1CFB2
 10
326.166
 20
251.895
 30
0.000000
  70
    32
  0
VERTEX
  8
AM_0
  5
1CFB3
 10
326.241
 20
251.727
 30
0.000000
  70
    32
  0
VERTEX
  8
AM_0
  5
1CFB4
 10
326.319
 20
251.560
 30
0.000000
  70
    32
  0
VERTEX
  8
AM_0
  5
1CFB5
 10
326.399
 20
251.395
 30
0.000000
  70
    32
  0
VERTEX
  8
AM_0
  5
1CFB6
 10
326.480
 20
251.230
 30
0.000000
  70
    32
  0
VERTEX
  8
AM_0
  5
1CFB7
 10
326.564
 20
251.066
 30
0.000000
  70
    32
  0
VERTEX
  8
AM_0
  5
1CFB8
 10
326.650
 20
250.903
 30
0.000000
  70
    32
  0
VERTEX
  8
AM_0
  5
1CFB9
 10
326.738
 20
250.741
 30
0.000000
  70
    32
  0
VERTEX
  8
AM_0
  5
1CFBA
 10
326.827
 20
250.580
 30
0.000000
  70
    32
  0
VERTEX
  8
AM_0
  5
1CFBB
 10
326.919
 20
250.421
 30
0.000000
  70
    32
  0
VERTEX
  8
AM_0
  5
1CFBC
 10
327.013
 20
250.262
 30
0.000000
  70
    32
  0
VERTEX
  8
AM_0
  5
1CFBD
 10
327.108
 20
250.105
 30
0.000000
  70
    32
  0
VERTEX
  8
AM_0
  5
1CFBE
 10
327.206
 20
249.949
 30
0.000000
  70
    32
  0
VERTEX
  8
AM_0
  5
1CFBF
 10
327.305
 20
249.794
 30
0.000000
  70
    32
  0
VERTEX
  8
AM_0
  5
1CFC0
 10
327.407
 20
249.640
 30
0.000000
  70
    32
  0
VERTEX
  8
AM_0
  5
1CFC1
 10
327.510
 20
249.488
 30
0.000000
  70
    32
  0
VERTEX
  8
AM_0
  5
1CFC2
 10
327.615
 20
249.337
 30
0.000000
  70
    32
  0
VERTEX
  8
AM_0
  5
1CFC3
 10
327.722
 20
249.187
 30
0.000000
  70
    32
  0
VERTEX
  8
AM_0
  5
1CFC4
 10
327.831
 20
249.038
 30
0.000000
  70
    32
  0
VERTEX
  8
AM_0
  5
1CFC5
 10
327.941
 20
248.891
 30
0.000000
  70
    32
  0
VERTEX
  8
AM_0
  5
1CFC6
 10
328.054
 20
248.745
 30
0.000000
  70
    32
  0
VERTEX
  8
AM_0
  5
1CFC7
 10
328.168
 20
248.601
 30
0.000000
  70
    32
  0
VERTEX
  8
AM_0
  5
1CFC8
 10
328.284
 20
248.458
 30
0.000000
  70
    32
  0
VERTEX
  8
AM_0
  5
1CFC9
 10
328.401
 20
248.316
 30
0.000000
  70
    32
  0
VERTEX
  8
AM_0
  5
1CFCA
 10
328.521
 20
248.176
 30
0.000000
  70
    32
  0
VERTEX
  8
AM_0
  5
1CFCB
 10
328.642
 20
248.037
 30
0.000000
  70
    32
  0
VERTEX
  8
AM_0
  5
1CFCC
 10
328.765
 20
247.900
 30
0.000000
  70
    32
  0
VERTEX
  8
AM_0
  5
1CFCD
 10
328.889
 20
247.765
 30
0.000000
  70
    32
  0
VERTEX
  8
AM_0
  5
1CFCE
 10
329.015
 20
247.631
 30
0.000000
  70
    32
  0
VERTEX
  8
AM_0
  5
1CFCF
 10
329.143
 20
247.498
 30
0.000000
  70
    32
  0
VERTEX
  8
AM_0
  5
1CFD0
 10
329.272
 20
247.367
 30
0.000000
  70
    32
  0
VERTEX
  8
AM_0
  5
1CFD1
 10
329.403
 20
247.238
 30
0.000000
  70
    32
  0
VERTEX
  8
AM_0
  5
1CFD2
 10
329.536
 20
247.110
 30
0.000000
  70
    32
  0
VERTEX
  8
AM_0
  5
1CFD3
 10
329.670
 20
246.984
 30
0.000000
  70
    32
  0
VERTEX
  8
AM_0
  5
1CFD4
 10
329.805
 20
246.859
 30
0.000000
  70
    32
  0
VERTEX
  8
AM_0
  5
1CFD5
 10
329.943
 20
246.737
 30
0.000000
  70
    32
  0
VERTEX
  8
AM_0
  5
1CFD6
 10
330.081
 20
246.616
 30
0.000000
  70
    32
  0
VERTEX
  8
AM_0
  5
1CFD7
 10
330.221
 20
246.496
 30
0.000000
  70
    32
  0
VERTEX
  8
AM_0
  5
1CFD8
 10
330.363
 20
246.379
 30
0.000000
  70
    32
  0
VERTEX
  8
AM_0
  5
1CFD9
 10
330.506
 20
246.263
 30
0.000000
  70
    32
  0
VERTEX
  8
AM_0
  5
1CFDA
 10
330.650
 20
246.148
 30
0.000000
  70
    32
  0
VERTEX
  8
AM_0
  5
1CFDB
 10
330.796
 20
246.036
 30
0.000000
  70
    32
  0
VERTEX
  8
AM_0
  5
1CFDC
 10
330.943
 20
245.926
 30
0.000000
  70
    32
  0
VERTEX
  8
AM_0
  5
1CFDD
 10
331.092
 20
245.817
 30
0.000000
  70
    32
  0
VERTEX
  8
AM_0
  5
1CFDE
 10
331.242
 20
245.710
 30
0.000000
  70
    32
  0
VERTEX
  8
AM_0
  5
1CFDF
 10
331.393
 20
245.605
 30
0.000000
  70
    32
  0
VERTEX
  8
AM_0
  5
1CFE0
 10
331.545
 20
245.502
 30
0.000000
  70
    32
  0
VERTEX
  8
AM_0
  5
1CFE1
 10
331.699
 20
245.400
 30
0.000000
  70
    32
  0
VERTEX
  8
AM_0
  5
1CFE2
 10
331.854
 20
245.301
 30
0.000000
  70
    32
  0
VERTEX
  8
AM_0
  5
1CFE3
 10
332.010
 20
245.203
 30
0.000000
  70
    32
  0
VERTEX
  8
AM_0
  5
1CFE4
 10
332.167
 20
245.108
 30
0.000000
  70
    32
  0
VERTEX
  8
AM_0
  5
1CFE5
 10
332.326
 20
245.014
 30
0.000000
  70
    32
  0
VERTEX
  8
AM_0
  5
1CFE6
 10
332.485
 20
244.922
 30
0.000000
  70
    32
  0
VERTEX
  8
AM_0
  5
1CFE7
 10
332.646
 20
244.833
 30
0.000000
  70
    32
  0
VERTEX
  8
AM_0
  5
1CFE8
 10
332.808
 20
244.745
 30
0.000000
  70
    32
  0
VERTEX
  8
AM_0
  5
1CFE9
 10
332.971
 20
244.659
 30
0.000000
  70
    32
  0
VERTEX
  8
AM_0
  5
1CFEA
 10
333.135
 20
244.575
 30
0.000000
  70
    32
  0
VERTEX
  8
AM_0
  5
1CFEB
 10
333.300
 20
244.494
 30
0.000000
  70
    32
  0
VERTEX
  8
AM_0
  5
1CFEC
 10
333.465
 20
244.414
 30
0.000000
  70
    32
  0
VERTEX
  8
AM_0
  5
1CFED
 10
333.632
 20
244.336
 30
0.000000
  70
    32
  0
VERTEX
  8
AM_0
  5
1CFEE
 10
333.800
 20
244.260
 30
0.000000
  70
    32
  0
VERTEX
  8
AM_0
  5
1CFEF
 10
333.969
 20
244.187
 30
0.000000
  70
    32
  0
VERTEX
  8
AM_0
  5
1CFF0
 10
334.139
 20
244.115
 30
0.000000
  70
    32
  0
VERTEX
  8
AM_0
  5
1CFF1
 10
334.309
 20
244.046
 30
0.000000
  70
    32
  0
VERTEX
  8
AM_0
  5
1CFF2
 10
334.480
 20
243.979
 30
0.000000
  70
    32
  0
VERTEX
  8
AM_0
  5
1CFF3
 10
334.652
 20
243.914
 30
0.000000
  70
    32
  0
VERTEX
  8
AM_0
  5
1CFF4
 10
334.825
 20
243.850
 30
0.000000
  70
    32
  0
VERTEX
  8
AM_0
  5
1CFF5
 10
334.999
 20
243.789
 30
0.000000
  70
    32
  0
VERTEX
  8
AM_0
  5
1CFF6
 10
335.174
 20
243.731
 30
0.000000
  70
    32
  0
VERTEX
  8
AM_0
  5
1CFF7
 10
335.349
 20
243.674
 30
0.000000
  70
    32
  0
VERTEX
  8
AM_0
  5
1CFF8
 10
335.524
 20
243.619
 30
0.000000
  70
    32
  0
VERTEX
  8
AM_0
  5
1CFF9
 10
335.701
 20
243.567
 30
0.000000
  70
    32
  0
VERTEX
  8
AM_0
  5
1CFFA
 10
335.878
 20
243.517
 30
0.000000
  70
    32
  0
VERTEX
  8
AM_0
  5
1CFFB
 10
336.056
 20
243.469
 30
0.000000
  70
    32
  0
VERTEX
  8
AM_0
  5
1CFFC
 10
336.234
 20
243.423
 30
0.000000
  70
    32
  0
VERTEX
  8
AM_0
  5
1CFFD
 10
336.413
 20
243.379
 30
0.000000
  70
    32
  0
VERTEX
  8
AM_0
  5
1CFFE
 10
336.592
 20
243.338
 30
0.000000
  70
    32
  0
VERTEX
  8
AM_0
  5
1CFFF
 10
336.772
 20
243.299
 30
0.000000
  70
    32
  0
VERTEX
  8
AM_0
  5
1D000
 10
336.952
 20
243.262
 30
0.000000
  70
    32
  0
VERTEX
  8
AM_0
  5
1D001
 10
337.133
 20
243.227
 30
0.000000
  70
    32
  0
VERTEX
  8
AM_0
  5
1D002
 10
337.314
 20
243.194
 30
0.000000
  70
    32
  0
VERTEX
  8
AM_0
  5
1D003
 10
337.496
 20
243.164
 30
0.000000
  70
    32
  0
VERTEX
  8
AM_0
  5
1D004
 10
337.678
 20
243.136
 30
0.000000
  70
    32
  0
VERTEX
  8
AM_0
  5
1D005
 10
337.860
 20
243.110
 30
0.000000
  70
    32
  0
VERTEX
  8
AM_0
  5
1D006
 10
338.043
 20
243.086
 30
0.000000
  70
    32
  0
VERTEX
  8
AM_0
  5
1D007
 10
338.225
 20
243.065
 30
0.000000
  70
    32
  0
VERTEX
  8
AM_0
  5
1D008
 10
338.409
 20
243.046
 30
0.000000
  70
    32
  0
VERTEX
  8
AM_0
  5
1D009
 10
338.592
 20
243.029
 30
0.000000
  70
    32
  0
VERTEX
  8
AM_0
  5
1D00A
 10
338.775
 20
243.014
 30
0.000000
  70
    32
  0
VERTEX
  8
AM_0
  5
1D00B
 10
338.959
 20
243.002
 30
0.000000
  70
    32
  0
VERTEX
  8
AM_0
  5
1D00C
 10
339.143
 20
242.992
 30
0.000000
  70
    32
  0
VERTEX
  8
AM_0
  5
1D00D
 10
339.327
 20
242.984
 30
0.000000
  70
    32
  0
VERTEX
  8
AM_0
  5
1D00E
 10
339.511
 20
242.978
 30
0.000000
  70
    32
  0
VERTEX
  8
AM_0
  5
1D00F
 10
339.695
 20
242.975
 30
0.000000
  70
    32
  0
VERTEX
  8
AM_0
  5
1D010
 10
339.879
 20
242.974
 30
0.000000
  70
    32
  0
SEQEND
  8
AM_0
  5
1D011
  0
LINE
  5
1B8B7
  8
AM_0
 10
221.0747681888995
 20
240.97555302453429
 30
0.0
 11
215.8859926785924
 21
243.97555302459421
 31
0.0
  0
LINE
  5
1B8B8
  8
AM_0
 10
261.8787681897154
 20
243.97555302459421
 30
0.0
 11
256.68276818961158
 21
240.97555302453429
 31
0.0
  0
LINE
  5
1B8BE
  8
AM_0
 10
256.68276818961158
 20
240.97555302453429
 30
0.0
 11
221.0747681888995
 21
240.97555302453429
 31
0.0
  0
LINE
  5
1B8C0
  8
AM_0
 10
285.80355427671952
 20
314.97552302601451
 30
0.0
 11
268.36781390302082
 21
314.97552302601451
 31
0.0
  0
LINE
  5
1B8C1
  8
AM_0
 10
267.5185463616935
 20
314.48550302600472
 30
0.0
 11
286.89247163485828
 21
314.48550302600472
 31
0.0
  0
LINE
  5
1B8C2
  8
AM_0
 10
282.69877819013232
 20
307.60558302586702
 30
0.0
 11
268.37876818984569
 21
307.60558302586702
 31
0.0
  0
LINE
  5
1B8C3
  8
AM_0
 10
268.87876818985541
 20
271.97555302515428
 30
0.0
 11
281.17948948634989
 21
271.97555302515428
 31
0.0
  0
LINE
  5
1B8C4
  8
AM_0
 10
282.69877819013232
 20
306.97558302585441
 30
0.0
 11
222.87876818893571
 21
306.97558302585441
 31
0.0
  0
LINE
  5
1B8C5
  8
AM_0
 10
282.69877819013232
 20
304.97558302581439
 30
0.0
 11
222.87876818893571
 21
304.97558302581439
 31
0.0
  0
LINE
  5
1B8C6
  8
AM_0
 10
222.87876818893571
 20
304.24560302579982
 30
0.0
 11
282.69877819013232
 21
304.24560302579982
 31
0.0
  0
LINE
  5
1B8C7
  8
AM_0
 10
188.87876818825561
 20
294.6355830256075
 30
0.0
 11
282.69877819013232
 21
294.6355830256075
 31
0.0
  0
LINE
  5
1B8C8
  8
AM_0
 10
222.87876818893571
 20
279.1155930252973
 30
0.0
 11
282.69877819013232
 21
279.1155930252973
 31
0.0
  0
LINE
  5
1B8C9
  8
AM_0
 10
270.37876818988559
 20
267.47555302506407
 30
0.0
 11
190.37876818828539
 21
267.47555302506407
 31
0.0
  0
LINE
  5
1B8CA
  8
AM_0
 10
190.37876818828539
 20
263.97555302499433
 30
0.0
 11
270.37876818988531
 21
263.97555302499433
 31
0.0
  0
LINE
  5
1B8CB
  8
AM_0
 10
270.37876818988531
 20
260.4755530249243
 30
0.0
 11
212.87876818873539
 21
260.4755530249243
 31
0.0
  0
LINE
  5
1B8CC
  8
AM_0
 10
267.8787681898354
 20
243.97555302459421
 30
0.0
 11
192.87876818833541
 21
243.97555302459421
 31
0.0
  0
LINE
  5
1B8CD
  8
AM_0
 10
208.87876818865541
 20
267.47555302506407
 30
0.0
 11
208.87876818865541
 21
279.1155930252969
 31
0.0
  0
LINE
  5
1B8CE
  8
AM_0
 10
204.37876818856549
 20
247.97555302467441
 30
0.0
 11
202.3787681885255
 21
247.97555302467441
 31
0.0
  0
ARC
  5
1B8CF
  8
AM_0
 10
203.37876818854531
 20
256.47555302484432
 30
0.0
 40
4.0000000000799973
 50
180.0
 51
0.0
  0
ARC
  5
1B8D0
  8
AM_0
 10
203.37876818854531
 20
256.47555302484432
 30
0.0
 40
7.5000000001500027
 50
180.0
 51
0.0
  0
LINE
  5
1B8D1
  8
AM_0
 10
194.87876818837549
 20
259.47555302490451
 30
0.0
 11
194.87876818837549
 21
255.47555302482451
 31
0.0
  0
LINE
  5
1B8D2
  8
AM_0
 10
195.8787681883955
 20
263.97555302499433
 30
0.0
 11
195.8787681883955
 21
256.47555302484432
 31
0.0
  0
LINE
  5
1B8D3
  8
AM_0
 10
199.37876818846539
 20
263.97555302499433
 30
0.0
 11
199.37876818846539
 21
256.47555302484432
 31
0.0
  0
LINE
  5
1B8D4
  8
AM_0
 10
190.37876818828539
 20
267.47555302506407
 30
0.0
 11
190.37876818828539
 21
247.97555302467441
 31
0.0
  0
LINE
  5
1B8D5
  8
AM_0
 10
191.87876818831529
 20
260.4755530249243
 30
0.0
 11
191.87876818831529
 21
244.9755530246143
 31
0.0
  0
LINE
  5
1B8D6
  8
AM_0
 10
190.37876818828539
 20
247.97555302467441
 30
0.0
 11
191.87876818831529
 21
247.97555302467441
 31
0.0
  0
ARC
  5
1B8D7
  8
AM_0
 10
192.87876818833541
 20
244.9755530246143
 30
0.0
 40
1.00000000002
 50
180.0
 51
270.0
  0
ARC
  5
1B8D8
  8
AM_0
 10
202.3787681885255
 20
255.47555302482451
 30
0.0
 40
7.500000000149992
 50
180.0
 51
270.0
  0
LINE
  5
1B8D9
  8
AM_0
 10
190.37876818828539
 20
260.4755530249243
 30
0.0
 11
193.87876818835511
 21
260.4755530249243
 31
0.0
  0
ARC
  5
1B8DA
  8
AM_0
 10
193.87876818835511
 20
259.47555302490451
 30
0.0
 40
1.00000000002
 50
0.0
 51
90.0
  0
LINE
  5
1B8DB
  8
AM_0
 10
211.87876818871541
 20
255.47555302482451
 30
0.0
 11
211.87876818871541
 21
259.47555302490451
 31
0.0
  0
LINE
  5
1B8DC
  8
AM_0
 10
210.8787681886954
 20
256.47555302484432
 30
0.0
 11
210.8787681886954
 21
263.97555302499433
 31
0.0
  0
LINE
  5
1B8DD
  8
AM_0
 10
207.3787681886254
 20
263.97555302499433
 30
0.0
 11
207.3787681886254
 21
256.47555302484432
 31
0.0
  0
ARC
  5
1B8DE
  8
AM_0
 10
204.37876818856549
 20
255.47555302482451
 30
0.0
 40
7.5000000001499956
 50
270.0
 51
0.0
  0
ARC
  5
1B8DF
  8
AM_0
 10
212.87876818873539
 20
259.47555302490451
 30
0.0
 40
1.00000000002
 50
90.0
 51
180.0
  0
LINE
  5
1B8E0
  8
AM_0
 10
189.87876818827559
 20
294.62551302560752
 30
0.0
 11
222.87876818893571
 21
294.62551302560752
 31
0.0
  0
LINE
  5
1B8E1
  8
AM_0
 10
268.87876818985541
 20
260.4755530249243
 30
0.0
 11
268.87876818985541
 21
244.9755530246143
 31
0.0
  0
ARC
  5
1B8E2
  8
AM_0
 10
267.8787681898354
 20
244.97555302461419
 30
0.0
 40
1.00000000002
 50
270.0
 51
0.0
  0
LINE
  5
1B8E3
  8
AM_0
 10
268.87876818985541
 20
267.47555302506407
 30
0.0
 11
268.87876818985541
 21
271.97555302515428
 31
0.0
  0
LINE
  5
1B8E4
  8
AM_0
 10
251.37876818950571
 20
307.60558302586702
 30
0.0
 11
222.87876818893571
 21
307.60558302586702
 31
0.0
  0
ARC
  5
1B8E5
  8
AM_0
 10
220.32751485860041
 20
315.97552302603452
 30
0.0
 40
1.0000380000199991
 50
269.50071599999359
 51
90.499289999995057
  0
ARC
  5
1B8E6
  8
AM_0
 10
221.54880485862461
 20
325.96551302623431
 30
0.0
 40
1.3300010000266
 50
270.00000299999761
 51
90.0
  0
ARC
  5
1B8E7
  8
AM_0
 10
220.32751485860041
 20
325.9755230262345
 30
0.0
 40
1.0000380000199991
 50
269.50071599999359
 51
90.499289999995057
  0
ARC
  5
1B8E8
  8
AM_0
 10
221.608794858626
 20
345.98058302663452
 30
0.0
 40
1.2650050000252999
 50
270.0
 51
89.999997000002296
  0
ARC
  5
1B8E9
  8
AM_0
 10
221.608794858626
 20
335.97052302643448
 30
0.0
 40
1.2650050000252999
 50
270.00000299999761
 51
90.0
  0
ARC
  5
1B8EA
  8
AM_0
 10
220.32751485860041
 20
335.97552302643459
 30
0.0
 40
1.0000380000199991
 50
269.50071599999359
 51
90.499289999995057
  0
ARC
  5
1B8EB
  8
AM_0
 10
221.54880485862461
 20
355.98559302683469
 30
0.0
 40
1.3300010000266
 50
270.0
 51
89.999997000002296
  0
ARC
  5
1B8EC
  8
AM_0
 10
220.32751485860041
 20
355.97558302683439
 30
0.0
 40
1.0000380000199991
 50
269.50071000000491
 51
90.499284000006355
  0
ARC
  5
1B8ED
  8
AM_0
 10
220.32751485860041
 20
345.97558302663452
 30
0.0
 40
1.0000380000199991
 50
269.50071000000491
 51
90.499284000006355
  0
LINE
  5
1B8EE
  8
AM_0
 10
267.37876818982591
 20
307.60558302586702
 30
0.0
 11
252.37876818952569
 21
307.60558302586702
 31
0.0
  0
LINE
  5
1B8EF
  8
AM_0
 10
267.37876818982591
 20
307.60558302586702
 30
0.0
 11
252.37876818952569
 21
307.60558302586702
 31
0.0
  0
CIRCLE
  5
1B8F0
  8
AM_0
 10
257.3787681896257
 20
312.47555302596442
 30
0.0
 40
0.750000000015
  0
ARC
  5
1B8F1
  8
AM_0
 10
251.37876818950571
 20
313.97558302599452
 30
0.0
 40
1.00000000002
 50
359.99999999999352
 51
90.0
1001
GENIUS_GENOBJ-N-FIL_13
1002
{
1000
OWNER
1000
GEN
1002
}
1001
GENIUS_GENODEF_13
1002
{
1000
HIER
1070
     0
1002
}
1002
{
1000
MANEDIT
1070
     0
1002
}
1002
{
1000
NOSEL
1070
     0
1002
}
1002
{
1000
BEHIND
1070
     0
1002
}
1002
{
1000
OTHER
1070
     0
1002
}
1002
{
1000
REACTOR
1002
}
  0
ARC
  5
1B8F2
  8
AM_0
 10
251.37876818950571
 20
308.60558302588697
 30
0.0
 40
1.00000000002
 50
270.0
 51
0.0
1001
GENIUS_GENOBJ-N-FIL_13
1002
{
1000
OWNER
1000
GEN
1002
}
1001
GENIUS_GENODEF_13
1002
{
1000
HIER
1070
     0
1002
}
1002
{
1000
MANEDIT
1070
     0
1002
}
1002
{
1000
NOSEL
1070
     0
1002
}
1002
{
1000
BEHIND
1070
     0
1002
}
1002
{
1000
OTHER
1070
     0
1002
}
1002
{
1000
REACTOR
1002
}
  0
LINE
  5
1B8F3
  8
AM_0
 10
252.37876818952569
 20
313.97558302599452
 30
0.0
 11
252.37876818952569
 21
308.60558302588697
 31
0.0
  0
CIRCLE
  5
1B8F4
  8
AM_0
 10
262.37876818972569
 20
312.47555302596442
 30
0.0
 40
0.750000000015
  0
ARC
  5
1B8F5
  8
AM_0
 10
268.37876818984569
 20
313.97558302599452
 30
0.0
 40
1.00000000002
 50
90.0
 51
180.0
1001
GENIUS_GENOBJ-N-FIL_13
1002
{
1000
OWNER
1000
GEN
1002
}
1001
GENIUS_GENODEF_13
1002
{
1000
HIER
1070
     0
1002
}
1002
{
1000
MANEDIT
1070
     0
1002
}
1002
{
1000
NOSEL
1070
     0
1002
}
1002
{
1000
BEHIND
1070
     0
1002
}
1002
{
1000
OTHER
1070
     0
1002
}
1002
{
1000
REACTOR
1002
}
  0
ARC
  5
1B8F6
  8
AM_0
 10
268.37876818984569
 20
308.60558302588697
 30
0.0
 40
1.00000000002
 50
180.0
 51
270.0
1001
GENIUS_GENOBJ-N-FIL_13
1002
{
1000
OWNER
1000
GEN
1002
}
1001
GENIUS_GENODEF_13
1002
{
1000
HIER
1070
     0
1002
}
1002
{
1000
MANEDIT
1070
     0
1002
}
1002
{
1000
NOSEL
1070
     0
1002
}
1002
{
1000
BEHIND
1070
     0
1002
}
1002
{
1000
OTHER
1070
     0
1002
}
1002
{
1000
REACTOR
1002
}
  0
LINE
  5
1B8F7
  8
AM_0
 10
267.37876818982591
 20
313.97558302599452
 30
0.0
 11
267.37876818982591
 21
308.60558302588697
 31
0.0
  0
LINE
  5
1B8F8
  8
AM_0
 10
311.87876819071562
 20
279.47556302530433
 30
0.0
 11
321.87876819091571
 21
279.47556302530438
 31
0.0
  0
LINE
  5
1B8F9
  8
AM_0
 10
288.87876819025558
 20
276.97552307761453
 30
0.0
 11
281.17948948634989
 21
271.97555302515428
 31
0.0
  0
LINE
  5
1B8FA
  8
AM_0
 10
270.37876818988531
 20
267.47555302506407
 30
0.0
 11
270.37876818988531
 21
260.4755530249243
 31
0.0
  0
LINE
  5
1B8FB
  8
AM_0
 10
289.8787103681002
 20
288.93559191441432
 30
0.0
 11
297.87871036825533
 21
288.93558302552577
 31
0.0
  0
LINE
  5
1B8FC
  8
AM_0
 10
288.87876819025558
 20
276.97552302525452
 30
0.0
 11
297.87876819043572
 21
276.97552302525452
 31
0.0
  0
LINE
  5
1B8FD
  8
AM_0
 10
284.6387781901708
 20
280.61558302532723
 30
0.0
 11
287.3745881902255
 21
290.81558302553123
 31
0.0
  0
ARC
  5
1B8FE
  8
AM_0
 10
282.6891281901319
 20
281.13258302533751
 30
0.0
 40
2.0170178000403398
 50
270.27369999999632
 51
345.14839999999862
  0
LINE
  5
1B8FF
  8
AM_0
 10
284.59876819017001
 20
280.47559302532437
 30
0.0
 11
288.87876819025558
 21
280.47559302532437
 31
0.0
  0
ARC
  5
1B900
  8
AM_0
 10
289.87876819027559
 20
277.97552302527453
 30
0.0
 40
1.00000000002
 50
179.999989999999
 51
269.99999700000228
  0
LINE
  5
1B901
  8
AM_0
 10
288.87876819025558
 20
277.97552302527453
 30
0.0
 11
288.87876819025558
 21
280.47552302532449
 31
0.0
  0
LINE
  5
1B902
  8
AM_0
 10
288.87876819025558
 20
298.11559302567719
 30
0.0
 11
288.87876819025558
 21
290.51559302552522
 31
0.0
  0
LINE
  5
1B903
  8
AM_0
 10
287.8787681902358
 20
298.11559302567719
 30
0.0
 11
287.8787681902358
 21
290.51559302552522
 31
0.0
  0
LINE
  5
1B904
  8
AM_0
 10
288.87876819025558
 20
295.09295302561668
 30
0.0
 11
287.8787681902358
 21
294.51562302560529
 31
0.0
  0
LINE
  5
1B905
  8
AM_0
 10
288.87876819025558
 20
294.09295302559673
 30
0.0
 11
287.8787681902358
 21
293.51559302558508
 31
0.0
  0
ARC
  5
1B906
  8
AM_0
 10
289.5396281902689
 20
293.14880302557782
 30
0.0
 40
1.4868059000297349
 50
116.38977999999901
 51
165.71726000000069
  0
LINE
  5
1B907
  8
AM_0
 10
287.8787681902358
 20
290.51559302552522
 30
0.0
 11
288.87876819025558
 21
290.51559302552522
 31
0.0
  0
LINE
  5
1B908
  8
AM_0
 10
287.8787681902358
 20
290.8155930255312
 30
0.0
 11
286.97876819021781
 21
290.8155930255312
 31
0.0
  0
LINE
  5
1B909
  8
AM_0
 10
287.8787681902358
 20
298.11559302567719
 30
0.0
 11
288.87876819025558
 21
298.11559302567719
 31
0.0
  0
LINE
  5
1B90A
  8
AM_0
 10
287.8787681902358
 20
297.81558302567129
 30
0.0
 11
286.97876819021781
 21
297.81558302567129
 31
0.0
  0
LINE
  5
1B90B
  8
AM_0
 10
282.69877819013232
 20
294.6355830256075
 30
0.0
 11
285.27878819018377
 21
294.6355830256075
 31
0.0
  0
LINE
  5
1B90C
  8
AM_0
 10
285.27878819018377
 20
296.11559302563722
 30
0.0
 11
285.27878819018377
 21
292.51559302556541
 31
0.0
  0
ARC
  5
1B90D
  8
AM_0
 10
286.97876819021781
 20
296.11559302563722
 30
0.0
 40
1.6999969000339989
 50
90.00000299999769
 51
179.99997999999789
  0
ARC
  5
1B90E
  8
AM_0
 10
286.97876819021781
 20
292.51559302556541
 30
0.0
 40
1.700000800033999
 50
180.00001000000091
 51
269.999979999998
  0
ARC
  5
1B90F
  8
AM_0
 10
289.88718819027582
 20
289.94399302551369
 30
0.0
 40
1.0084445000201681
 50
189.5460700000036
 51
269.52220000000051
  0
LINE
  5
1B910
  8
AM_0
 10
297.87876819043572
 20
276.97556302525442
 30
0.0
 11
307.00537101821368
 21
276.97556302525442
 31
0.0
  0
LINE
  5
1B911
  8
AM_0
 10
297.87876819043572
 20
276.97552302525452
 30
0.0
 11
297.87876819043572
 21
280.97552302533461
 31
0.0
  0
ARC
  5
1B912
  8
AM_0
 10
307.00537101821368
 20
279.9755630253145
 30
0.0
 40
3.00000000006
 50
270.0
 51
324.31466528734131
1001
GENIUS_GENOBJ-N-FIL_13
1002
{
1000
OWNER
1000
GEN
1002
}
1001
GENIUS_GENODEF_13
1002
{
1000
HIER
1070
     0
1002
}
1002
{
1000
MANEDIT
1070
     0
1002
}
1002
{
1000
NOSEL
1070
     0
1002
}
1002
{
1000
BEHIND
1070
     0
1002
}
1002
{
1000
OTHER
1070
     0
1002
}
1002
{
1000
REACTOR
1002
}
  0
ARC
  5
1B913
  8
AM_0
 10
311.87876819071562
 20
276.47556302524441
 30
0.0
 40
3.00000000006
 50
90.0
 51
144.31466528734131
1001
GENIUS_GENOBJ-N-FIL_13
1002
{
1000
OWNER
1000
GEN
1002
}
1001
GENIUS_GENODEF_13
1002
{
1000
HIER
1070
     0
1002
}
1002
{
1000
MANEDIT
1070
     0
1002
}
1002
{
1000
NOSEL
1070
     0
1002
}
1002
{
1000
BEHIND
1070
     0
1002
}
1002
{
1000
OTHER
1070
     0
1002
}
1002
{
1000
REACTOR
1002
}
  0
LINE
  5
1B914
  8
AM_0
 10
297.87876819043572
 20
288.93556302549382
 30
0.0
 11
307.87876819063581
 21
288.93556302549382
 31
0.0
  0
POLYLINE
  5
1B915
  8
AM_0
 10
346.87876884706634
 20
257.97389055123273
 30
0.0
 66
     1
 70
     8
  0
VERTEX
  8
AM_0
  5
1D012
 10
346.879
 20
257.974
 30
0.000000
  70
    32
  0
VERTEX
  8
AM_0
  5
1D013
 10
346.870
 20
258.317
 30
0.000000
  70
    32
  0
VERTEX
  8
AM_0
  5
1D014
 10
346.845
 20
258.660
 30
0.000000
  70
    32
  0
VERTEX
  8
AM_0
  5
1D015
 10
346.803
 20
259.001
 30
0.000000
  70
    32
  0
VERTEX
  8
AM_0
  5
1D016
 10
346.744
 20
259.340
 30
0.000000
  70
    32
  0
VERTEX
  8
AM_0
  5
1D017
 10
346.669
 20
259.675
 30
0.000000
  70
    32
  0
VERTEX
  8
AM_0
  5
1D018
 10
346.577
 20
260.006
 30
0.000000
  70
    32
  0
VERTEX
  8
AM_0
  5
1D019
 10
346.470
 20
260.332
 30
0.000000
  70
    32
  0
VERTEX
  8
AM_0
  5
1D01A
 10
346.346
 20
260.653
 30
0.000000
  70
    32
  0
VERTEX
  8
AM_0
  5
1D01B
 10
346.207
 20
260.967
 30
0.000000
  70
    32
  0
VERTEX
  8
AM_0
  5
1D01C
 10
346.052
 20
261.274
 30
0.000000
  70
    32
  0
VERTEX
  8
AM_0
  5
1D01D
 10
345.883
 20
261.573
 30
0.000000
  70
    32
  0
VERTEX
  8
AM_0
  5
1D01E
 10
345.699
 20
261.863
 30
0.000000
  70
    32
  0
VERTEX
  8
AM_0
  5
1D01F
 10
345.501
 20
262.144
 30
0.000000
  70
    32
  0
VERTEX
  8
AM_0
  5
1D020
 10
345.290
 20
262.415
 30
0.000000
  70
    32
  0
VERTEX
  8
AM_0
  5
1D021
 10
345.065
 20
262.675
 30
0.000000
  70
    32
  0
VERTEX
  8
AM_0
  5
1D022
 10
344.829
 20
262.924
 30
0.000000
  70
    32
  0
VERTEX
  8
AM_0
  5
1D023
 10
344.580
 20
263.161
 30
0.000000
  70
    32
  0
VERTEX
  8
AM_0
  5
1D024
 10
344.320
 20
263.385
 30
0.000000
  70
    32
  0
VERTEX
  8
AM_0
  5
1D025
 10
344.049
 20
263.596
 30
0.000000
  70
    32
  0
VERTEX
  8
AM_0
  5
1D026
 10
343.768
 20
263.794
 30
0.000000
  70
    32
  0
VERTEX
  8
AM_0
  5
1D027
 10
343.477
 20
263.978
 30
0.000000
  70
    32
  0
VERTEX
  8
AM_0
  5
1D028
 10
343.179
 20
264.147
 30
0.000000
  70
    32
  0
VERTEX
  8
AM_0
  5
1D029
 10
342.872
 20
264.302
 30
0.000000
  70
    32
  0
VERTEX
  8
AM_0
  5
1D02A
 10
342.558
 20
264.441
 30
0.000000
  70
    32
  0
VERTEX
  8
AM_0
  5
1D02B
 10
342.237
 20
264.565
 30
0.000000
  70
    32
  0
VERTEX
  8
AM_0
  5
1D02C
 10
341.911
 20
264.673
 30
0.000000
  70
    32
  0
VERTEX
  8
AM_0
  5
1D02D
 10
341.580
 20
264.764
 30
0.000000
  70
    32
  0
VERTEX
  8
AM_0
  5
1D02E
 10
341.244
 20
264.840
 30
0.000000
  70
    32
  0
VERTEX
  8
AM_0
  5
1D02F
 10
340.906
 20
264.898
 30
0.000000
  70
    32
  0
VERTEX
  8
AM_0
  5
1D030
 10
340.565
 20
264.940
 30
0.000000
  70
    32
  0
VERTEX
  8
AM_0
  5
1D031
 10
340.222
 20
264.966
 30
0.000000
  70
    32
  0
VERTEX
  8
AM_0
  5
1D032
 10
339.879
 20
264.974
 30
0.000000
  70
    32
  0
VERTEX
  8
AM_0
  5
1D033
 10
339.535
 20
264.966
 30
0.000000
  70
    32
  0
VERTEX
  8
AM_0
  5
1D034
 10
339.193
 20
264.940
 30
0.000000
  70
    32
  0
VERTEX
  8
AM_0
  5
1D035
 10
338.852
 20
264.898
 30
0.000000
  70
    32
  0
VERTEX
  8
AM_0
  5
1D036
 10
338.513
 20
264.840
 30
0.000000
  70
    32
  0
VERTEX
  8
AM_0
  5
1D037
 10
338.178
 20
264.764
 30
0.000000
  70
    32
  0
VERTEX
  8
AM_0
  5
1D038
 10
337.847
 20
264.673
 30
0.000000
  70
    32
  0
VERTEX
  8
AM_0
  5
1D039
 10
337.521
 20
264.565
 30
0.000000
  70
    32
  0
VERTEX
  8
AM_0
  5
1D03A
 10
337.200
 20
264.441
 30
0.000000
  70
    32
  0
VERTEX
  8
AM_0
  5
1D03B
 10
336.886
 20
264.302
 30
0.000000
  70
    32
  0
VERTEX
  8
AM_0
  5
1D03C
 10
336.579
 20
264.147
 30
0.000000
  70
    32
  0
VERTEX
  8
AM_0
  5
1D03D
 10
336.280
 20
263.978
 30
0.000000
  70
    32
  0
VERTEX
  8
AM_0
  5
1D03E
 10
335.990
 20
263.794
 30
0.000000
  70
    32
  0
VERTEX
  8
AM_0
  5
1D03F
 10
335.709
 20
263.596
 30
0.000000
  70
    32
  0
VERTEX
  8
AM_0
  5
1D040
 10
335.438
 20
263.385
 30
0.000000
  70
    32
  0
VERTEX
  8
AM_0
  5
1D041
 10
335.178
 20
263.161
 30
0.000000
  70
    32
  0
VERTEX
  8
AM_0
  5
1D042
 10
334.929
 20
262.924
 30
0.000000
  70
    32
  0
VERTEX
  8
AM_0
  5
1D043
 10
334.692
 20
262.675
 30
0.000000
  70
    32
  0
VERTEX
  8
AM_0
  5
1D044
 10
334.468
 20
262.415
 30
0.000000
  70
    32
  0
VERTEX
  8
AM_0
  5
1D045
 10
334.256
 20
262.144
 30
0.000000
  70
    32
  0
VERTEX
  8
AM_0
  5
1D046
 10
334.058
 20
261.863
 30
0.000000
  70
    32
  0
VERTEX
  8
AM_0
  5
1D047
 10
333.875
 20
261.573
 30
0.000000
  70
    32
  0
VERTEX
  8
AM_0
  5
1D048
 10
333.705
 20
261.274
 30
0.000000
  70
    32
  0
VERTEX
  8
AM_0
  5
1D049
 10
333.551
 20
260.967
 30
0.000000
  70
    32
  0
VERTEX
  8
AM_0
  5
1D04A
 10
333.412
 20
260.653
 30
0.000000
  70
    32
  0
VERTEX
  8
AM_0
  5
1D04B
 10
333.288
 20
260.332
 30
0.000000
  70
    32
  0
VERTEX
  8
AM_0
  5
1D04C
 10
333.180
 20
260.006
 30
0.000000
  70
    32
  0
VERTEX
  8
AM_0
  5
1D04D
 10
333.089
 20
259.675
 30
0.000000
  70
    32
  0
VERTEX
  8
AM_0
  5
1D04E
 10
333.013
 20
259.340
 30
0.000000
  70
    32
  0
VERTEX
  8
AM_0
  5
1D04F
 10
332.955
 20
259.001
 30
0.000000
  70
    32
  0
VERTEX
  8
AM_0
  5
1D050
 10
332.912
 20
258.660
 30
0.000000
  70
    32
  0
VERTEX
  8
AM_0
  5
1D051
 10
332.887
 20
258.317
 30
0.000000
  70
    32
  0
VERTEX
  8
AM_0
  5
1D052
 10
332.879
 20
257.974
 30
0.000000
  70
    32
  0
VERTEX
  8
AM_0
  5
1D053
 10
332.887
 20
257.630
 30
0.000000
  70
    32
  0
VERTEX
  8
AM_0
  5
1D054
 10
332.912
 20
257.288
 30
0.000000
  70
    32
  0
VERTEX
  8
AM_0
  5
1D055
 10
332.955
 20
256.947
 30
0.000000
  70
    32
  0
VERTEX
  8
AM_0
  5
1D056
 10
333.013
 20
256.608
 30
0.000000
  70
    32
  0
VERTEX
  8
AM_0
  5
1D057
 10
333.089
 20
256.273
 30
0.000000
  70
    32
  0
VERTEX
  8
AM_0
  5
1D058
 10
333.180
 20
255.942
 30
0.000000
  70
    32
  0
VERTEX
  8
AM_0
  5
1D059
 10
333.288
 20
255.616
 30
0.000000
  70
    32
  0
VERTEX
  8
AM_0
  5
1D05A
 10
333.412
 20
255.295
 30
0.000000
  70
    32
  0
VERTEX
  8
AM_0
  5
1D05B
 10
333.551
 20
254.981
 30
0.000000
  70
    32
  0
VERTEX
  8
AM_0
  5
1D05C
 10
333.705
 20
254.674
 30
0.000000
  70
    32
  0
VERTEX
  8
AM_0
  5
1D05D
 10
333.875
 20
254.375
 30
0.000000
  70
    32
  0
VERTEX
  8
AM_0
  5
1D05E
 10
334.058
 20
254.085
 30
0.000000
  70
    32
  0
VERTEX
  8
AM_0
  5
1D05F
 10
334.256
 20
253.804
 30
0.000000
  70
    32
  0
VERTEX
  8
AM_0
  5
1D060
 10
334.468
 20
253.533
 30
0.000000
  70
    32
  0
VERTEX
  8
AM_0
  5
1D061
 10
334.692
 20
253.273
 30
0.000000
  70
    32
  0
VERTEX
  8
AM_0
  5
1D062
 10
334.929
 20
253.024
 30
0.000000
  70
    32
  0
VERTEX
  8
AM_0
  5
1D063
 10
335.178
 20
252.787
 30
0.000000
  70
    32
  0
VERTEX
  8
AM_0
  5
1D064
 10
335.438
 20
252.563
 30
0.000000
  70
    32
  0
VERTEX
  8
AM_0
  5
1D065
 10
335.709
 20
252.351
 30
0.000000
  70
    32
  0
VERTEX
  8
AM_0
  5
1D066
 10
335.990
 20
252.153
 30
0.000000
  70
    32
  0
VERTEX
  8
AM_0
  5
1D067
 10
336.280
 20
251.970
 30
0.000000
  70
    32
  0
VERTEX
  8
AM_0
  5
1D068
 10
336.579
 20
251.800
 30
0.000000
  70
    32
  0
VERTEX
  8
AM_0
  5
1D069
 10
336.886
 20
251.646
 30
0.000000
  70
    32
  0
VERTEX
  8
AM_0
  5
1D06A
 10
337.200
 20
251.507
 30
0.000000
  70
    32
  0
VERTEX
  8
AM_0
  5
1D06B
 10
337.521
 20
251.383
 30
0.000000
  70
    32
  0
VERTEX
  8
AM_0
  5
1D06C
 10
337.847
 20
251.275
 30
0.000000
  70
    32
  0
VERTEX
  8
AM_0
  5
1D06D
 10
338.178
 20
251.184
 30
0.000000
  70
    32
  0
VERTEX
  8
AM_0
  5
1D06E
 10
338.513
 20
251.108
 30
0.000000
  70
    32
  0
VERTEX
  8
AM_0
  5
1D06F
 10
338.852
 20
251.050
 30
0.000000
  70
    32
  0
VERTEX
  8
AM_0
  5
1D070
 10
339.193
 20
251.007
 30
0.000000
  70
    32
  0
VERTEX
  8
AM_0
  5
1D071
 10
339.535
 20
250.982
 30
0.000000
  70
    32
  0
VERTEX
  8
AM_0
  5
1D072
 10
339.879
 20
250.974
 30
0.000000
  70
    32
  0
VERTEX
  8
AM_0
  5
1D073
 10
340.222
 20
250.982
 30
0.000000
  70
    32
  0
VERTEX
  8
AM_0
  5
1D074
 10
340.565
 20
251.007
 30
0.000000
  70
    32
  0
VERTEX
  8
AM_0
  5
1D075
 10
340.906
 20
251.050
 30
0.000000
  70
    32
  0
VERTEX
  8
AM_0
  5
1D076
 10
341.244
 20
251.108
 30
0.000000
  70
    32
  0
VERTEX
  8
AM_0
  5
1D077
 10
341.580
 20
251.184
 30
0.000000
  70
    32
  0
VERTEX
  8
AM_0
  5
1D078
 10
341.911
 20
251.275
 30
0.000000
  70
    32
  0
VERTEX
  8
AM_0
  5
1D079
 10
342.237
 20
251.383
 30
0.000000
  70
    32
  0
VERTEX
  8
AM_0
  5
1D07A
 10
342.558
 20
251.507
 30
0.000000
  70
    32
  0
VERTEX
  8
AM_0
  5
1D07B
 10
342.872
 20
251.646
 30
0.000000
  70
    32
  0
VERTEX
  8
AM_0
  5
1D07C
 10
343.179
 20
251.800
 30
0.000000
  70
    32
  0
VERTEX
  8
AM_0
  5
1D07D
 10
343.477
 20
251.970
 30
0.000000
  70
    32
  0
VERTEX
  8
AM_0
  5
1D07E
 10
343.768
 20
252.153
 30
0.000000
  70
    32
  0
VERTEX
  8
AM_0
  5
1D07F
 10
344.049
 20
252.351
 30
0.000000
  70
    32
  0
VERTEX
  8
AM_0
  5
1D080
 10
344.320
 20
252.563
 30
0.000000
  70
    32
  0
VERTEX
  8
AM_0
  5
1D081
 10
344.580
 20
252.787
 30
0.000000
  70
    32
  0
VERTEX
  8
AM_0
  5
1D082
 10
344.829
 20
253.024
 30
0.000000
  70
    32
  0
VERTEX
  8
AM_0
  5
1D083
 10
345.065
 20
253.273
 30
0.000000
  70
    32
  0
VERTEX
  8
AM_0
  5
1D084
 10
345.290
 20
253.533
 30
0.000000
  70
    32
  0
VERTEX
  8
AM_0
  5
1D085
 10
345.501
 20
253.804
 30
0.000000
  70
    32
  0
VERTEX
  8
AM_0
  5
1D086
 10
345.699
 20
254.085
 30
0.000000
  70
    32
  0
VERTEX
  8
AM_0
  5
1D087
 10
345.883
 20
254.375
 30
0.000000
  70
    32
  0
VERTEX
  8
AM_0
  5
1D088
 10
346.052
 20
254.674
 30
0.000000
  70
    32
  0
VERTEX
  8
AM_0
  5
1D089
 10
346.207
 20
254.981
 30
0.000000
  70
    32
  0
VERTEX
  8
AM_0
  5
1D08A
 10
346.346
 20
255.295
 30
0.000000
  70
    32
  0
VERTEX
  8
AM_0
  5
1D08B
 10
346.470
 20
255.616
 30
0.000000
  70
    32
  0
VERTEX
  8
AM_0
  5
1D08C
 10
346.577
 20
255.942
 30
0.000000
  70
    32
  0
VERTEX
  8
AM_0
  5
1D08D
 10
346.669
 20
256.273
 30
0.000000
  70
    32
  0
VERTEX
  8
AM_0
  5
1D08E
 10
346.744
 20
256.608
 30
0.000000
  70
    32
  0
VERTEX
  8
AM_0
  5
1D08F
 10
346.803
 20
256.947
 30
0.000000
  70
    32
  0
VERTEX
  8
AM_0
  5
1D090
 10
346.845
 20
257.288
 30
0.000000
  70
    32
  0
VERTEX
  8
AM_0
  5
1D091
 10
346.870
 20
257.630
 30
0.000000
  70
    32
  0
VERTEX
  8
AM_0
  5
1D092
 10
346.879
 20
257.974
 30
0.000000
  70
    32
  0
SEQEND
  8
AM_0
  5
1D093
  0
LINE
  5
1B916
  8
ﾁｭｳｼﾝｾﾝ1
 10
327.87876828044239
 20
257.97389055123273
 30
0.0
 11
351.87873847859902
 21
257.97389055123273
 31
0.0
  0
LINE
  5
1B917
  8
ﾁｭｳｼﾝｾﾝ1
 10
339.87876863831008
 20
269.9741309091076
 30
0.0
 11
339.87876863831008
 21
245.9736501933576
 31
0.0
  0
ARC
  5
1B918
  8
AM_0
 10
339.12876842955387
 20
280.46138707011733
 30
0.0
 40
6.25
 50
180.0
 51
271.910213703593
1001
GENIUS_GENODEF_13
1002
{
1000
HIER
1070
     0
1002
}
1002
{
1000
MANEDIT
1070
     0
1002
}
1002
{
1000
NOSEL
1070
     0
1002
}
1002
{
1000
BEHIND
1070
     0
1002
}
1002
{
1000
OTHER
1070
     0
1002
}
1002
{
1000
REACTOR
1002
}
1001
GENIUS_GENOBJ-N-FIL_13
1002
{
1000
OWNER
1000
GEN
1002
}
  0
ARC
  5
1B919
  8
AM_0
 10
321.87876819091571
 20
276.47556302524441
 30
0.0
 40
3.00000000006
 50
0.0
 51
90.0
1001
GENIUS_GENODEF_13
1002
{
1000
HIER
1070
     0
1002
}
1002
{
1000
MANEDIT
1070
     0
1002
}
1002
{
1000
NOSEL
1070
     0
1002
}
1002
{
1000
BEHIND
1070
     0
1002
}
1002
{
1000
OTHER
1070
     0
1002
}
1002
{
1000
REACTOR
1002
}
1001
GENIUS_GENOBJ-N-FIL_13
1002
{
1000
OWNER
1000
GEN
1002
}
  0
LINE
  5
1B91A
  8
AM_0
 10
320.45030254457481
 20
292.24683438746592
 30
0.0
 11
323.87876819095561
 21
292.24683438746592
 31
0.0
  0
ARC
  5
1B91B
  8
AM_0
 10
320.45030254457481
 20
295.24683438752601
 30
0.0
 40
3.00000000006
 50
186.6607143203168
 51
270.0
1001
GENIUS_GENODEF_13
1002
{
1000
HIER
1070
     0
1002
}
1002
{
1000
MANEDIT
1070
     0
1002
}
1002
{
1000
NOSEL
1070
     0
1002
}
1002
{
1000
BEHIND
1070
     0
1002
}
1002
{
1000
OTHER
1070
     0
1002
}
1002
{
1000
REACTOR
1002
}
1001
GENIUS_GENOBJ-N-FIL_13
1002
{
1000
OWNER
1000
GEN
1002
}
  0
LINE
  5
1B91C
  8
AM_0
 10
289.87872692366608
 20
303.83560191470309
 30
0.0
 11
297.87872692382109
 21
303.8355930258146
 31
0.0
  0
ARC
  5
1B91D
  8
AM_0
 10
286.89355422438121
 20
315.95050302603403
 30
0.0
 40
1.465000400029298
 50
270.00000299999761
 51
90.0
  0
ARC
  5
1B91E
  8
AM_0
 10
285.80355422435952
 20
315.97552302603452
 30
0.0
 40
1.0000032000200001
 50
270.00000299999761
 51
90.0
  0
ARC
  5
1B91F
  8
AM_0
 10
286.69266819021198
 20
305.92559302583351
 30
0.0
 40
1.680011000033599
 50
270.20802999999808
 51
89.791969000000421
  0
ARC
  5
1B920
  8
AM_0
 10
283.2187881901425
 20
305.9755830258344
 30
0.0
 40
1.0000074000200001
 50
270.0
 51
90.00000299999769
  0
LINE
  5
1B921
  8
AM_0
 10
283.2187881901425
 20
306.97558302585441
 30
0.0
 11
282.69877819013232
 21
306.97558302585441
 31
0.0
  0
LINE
  5
1B922
  8
AM_0
 10
283.2187881901425
 20
304.97558302581439
 30
0.0
 11
282.69877819013232
 21
304.97558302581439
 31
0.0
  0
LINE
  5
1B923
  8
AM_0
 10
286.69877819021212
 20
307.60558302586702
 30
0.0
 11
282.69877819013232
 21
307.60558302586702
 31
0.0
  0
LINE
  5
1B924
  8
AM_0
 10
282.69877819013232
 20
304.24560302579982
 30
0.0
 11
288.87876814093568
 21
304.24560302579982
 31
0.0
  0
LINE
  5
1B925
  8
AM_0
 10
297.87876819043572
 20
303.83557302579169
 30
0.0
 11
307.87876819063581
 21
303.83557302579169
 31
0.0
  0
POLYLINE
  5
1B926
  8
AM_0
 10
514.87874268396547
 20
242.97359010388891
 30
0.0
 66
     1
 70
     8
  0
VERTEX
  8
AM_0
  5
1D094
 10
514.879
 20
242.974
 30
0.000000
  70
    32
  0
VERTEX
  8
AM_0
  5
1D095
 10
515.063
 20
242.975
 30
0.000000
  70
    32
  0
VERTEX
  8
AM_0
  5
1D096
 10
515.247
 20
242.978
 30
0.000000
  70
    32
  0
VERTEX
  8
AM_0
  5
1D097
 10
515.431
 20
242.984
 30
0.000000
  70
    32
  0
VERTEX
  8
AM_0
  5
1D098
 10
515.615
 20
242.992
 30
0.000000
  70
    32
  0
VERTEX
  8
AM_0
  5
1D099
 10
515.799
 20
243.002
 30
0.000000
  70
    32
  0
VERTEX
  8
AM_0
  5
1D09A
 10
515.982
 20
243.014
 30
0.000000
  70
    32
  0
VERTEX
  8
AM_0
  5
1D09B
 10
516.166
 20
243.029
 30
0.000000
  70
    32
  0
VERTEX
  8
AM_0
  5
1D09C
 10
516.349
 20
243.046
 30
0.000000
  70
    32
  0
VERTEX
  8
AM_0
  5
1D09D
 10
516.532
 20
243.065
 30
0.000000
  70
    32
  0
VERTEX
  8
AM_0
  5
1D09E
 10
516.715
 20
243.086
 30
0.000000
  70
    32
  0
VERTEX
  8
AM_0
  5
1D09F
 10
516.897
 20
243.110
 30
0.000000
  70
    32
  0
VERTEX
  8
AM_0
  5
1D0A0
 10
517.080
 20
243.136
 30
0.000000
  70
    32
  0
VERTEX
  8
AM_0
  5
1D0A1
 10
517.262
 20
243.164
 30
0.000000
  70
    32
  0
VERTEX
  8
AM_0
  5
1D0A2
 10
517.443
 20
243.194
 30
0.000000
  70
    32
  0
VERTEX
  8
AM_0
  5
1D0A3
 10
517.624
 20
243.227
 30
0.000000
  70
    32
  0
VERTEX
  8
AM_0
  5
1D0A4
 10
517.805
 20
243.262
 30
0.000000
  70
    32
  0
VERTEX
  8
AM_0
  5
1D0A5
 10
517.985
 20
243.299
 30
0.000000
  70
    32
  0
VERTEX
  8
AM_0
  5
1D0A6
 10
518.165
 20
243.338
 30
0.000000
  70
    32
  0
VERTEX
  8
AM_0
  5
1D0A7
 10
518.345
 20
243.379
 30
0.000000
  70
    32
  0
VERTEX
  8
AM_0
  5
1D0A8
 10
518.523
 20
243.423
 30
0.000000
  70
    32
  0
VERTEX
  8
AM_0
  5
1D0A9
 10
518.702
 20
243.469
 30
0.000000
  70
    32
  0
VERTEX
  8
AM_0
  5
1D0AA
 10
518.879
 20
243.517
 30
0.000000
  70
    32
  0
VERTEX
  8
AM_0
  5
1D0AB
 10
519.057
 20
243.567
 30
0.000000
  70
    32
  0
VERTEX
  8
AM_0
  5
1D0AC
 10
519.233
 20
243.619
 30
0.000000
  70
    32
  0
VERTEX
  8
AM_0
  5
1D0AD
 10
519.409
 20
243.674
 30
0.000000
  70
    32
  0
VERTEX
  8
AM_0
  5
1D0AE
 10
519.584
 20
243.731
 30
0.000000
  70
    32
  0
VERTEX
  8
AM_0
  5
1D0AF
 10
519.758
 20
243.789
 30
0.000000
  70
    32
  0
VERTEX
  8
AM_0
  5
1D0B0
 10
519.932
 20
243.850
 30
0.000000
  70
    32
  0
VERTEX
  8
AM_0
  5
1D0B1
 10
520.105
 20
243.914
 30
0.000000
  70
    32
  0
VERTEX
  8
AM_0
  5
1D0B2
 10
520.277
 20
243.979
 30
0.000000
  70
    32
  0
VERTEX
  8
AM_0
  5
1D0B3
 10
520.449
 20
244.046
 30
0.000000
  70
    32
  0
VERTEX
  8
AM_0
  5
1D0B4
 10
520.619
 20
244.115
 30
0.000000
  70
    32
  0
VERTEX
  8
AM_0
  5
1D0B5
 10
520.789
 20
244.187
 30
0.000000
  70
    32
  0
VERTEX
  8
AM_0
  5
1D0B6
 10
520.957
 20
244.260
 30
0.000000
  70
    32
  0
VERTEX
  8
AM_0
  5
1D0B7
 10
521.125
 20
244.336
 30
0.000000
  70
    32
  0
VERTEX
  8
AM_0
  5
1D0B8
 10
521.292
 20
244.414
 30
0.000000
  70
    32
  0
VERTEX
  8
AM_0
  5
1D0B9
 10
521.458
 20
244.494
 30
0.000000
  70
    32
  0
VERTEX
  8
AM_0
  5
1D0BA
 10
521.623
 20
244.575
 30
0.000000
  70
    32
  0
VERTEX
  8
AM_0
  5
1D0BB
 10
521.787
 20
244.659
 30
0.000000
  70
    32
  0
VERTEX
  8
AM_0
  5
1D0BC
 10
521.950
 20
244.745
 30
0.000000
  70
    32
  0
VERTEX
  8
AM_0
  5
1D0BD
 10
522.111
 20
244.833
 30
0.000000
  70
    32
  0
VERTEX
  8
AM_0
  5
1D0BE
 10
522.272
 20
244.922
 30
0.000000
  70
    32
  0
VERTEX
  8
AM_0
  5
1D0BF
 10
522.432
 20
245.014
 30
0.000000
  70
    32
  0
VERTEX
  8
AM_0
  5
1D0C0
 10
522.590
 20
245.108
 30
0.000000
  70
    32
  0
VERTEX
  8
AM_0
  5
1D0C1
 10
522.748
 20
245.203
 30
0.000000
  70
    32
  0
VERTEX
  8
AM_0
  5
1D0C2
 10
522.904
 20
245.301
 30
0.000000
  70
    32
  0
VERTEX
  8
AM_0
  5
1D0C3
 10
523.059
 20
245.400
 30
0.000000
  70
    32
  0
VERTEX
  8
AM_0
  5
1D0C4
 10
523.212
 20
245.502
 30
0.000000
  70
    32
  0
VERTEX
  8
AM_0
  5
1D0C5
 10
523.365
 20
245.605
 30
0.000000
  70
    32
  0
VERTEX
  8
AM_0
  5
1D0C6
 10
523.516
 20
245.710
 30
0.000000
  70
    32
  0
VERTEX
  8
AM_0
  5
1D0C7
 10
523.666
 20
245.817
 30
0.000000
  70
    32
  0
VERTEX
  8
AM_0
  5
1D0C8
 10
523.814
 20
245.926
 30
0.000000
  70
    32
  0
VERTEX
  8
AM_0
  5
1D0C9
 10
523.961
 20
246.036
 30
0.000000
  70
    32
  0
VERTEX
  8
AM_0
  5
1D0CA
 10
524.107
 20
246.148
 30
0.000000
  70
    32
  0
VERTEX
  8
AM_0
  5
1D0CB
 10
524.252
 20
246.263
 30
0.000000
  70
    32
  0
VERTEX
  8
AM_0
  5
1D0CC
 10
524.395
 20
246.379
 30
0.000000
  70
    32
  0
VERTEX
  8
AM_0
  5
1D0CD
 10
524.536
 20
246.496
 30
0.000000
  70
    32
  0
VERTEX
  8
AM_0
  5
1D0CE
 10
524.676
 20
246.616
 30
0.000000
  70
    32
  0
VERTEX
  8
AM_0
  5
1D0CF
 10
524.815
 20
246.737
 30
0.000000
  70
    32
  0
VERTEX
  8
AM_0
  5
1D0D0
 10
524.952
 20
246.859
 30
0.000000
  70
    32
  0
VERTEX
  8
AM_0
  5
1D0D1
 10
525.088
 20
246.984
 30
0.000000
  70
    32
  0
VERTEX
  8
AM_0
  5
1D0D2
 10
525.222
 20
247.110
 30
0.000000
  70
    32
  0
VERTEX
  8
AM_0
  5
1D0D3
 10
525.354
 20
247.238
 30
0.000000
  70
    32
  0
VERTEX
  8
AM_0
  5
1D0D4
 10
525.485
 20
247.367
 30
0.000000
  70
    32
  0
VERTEX
  8
AM_0
  5
1D0D5
 10
525.615
 20
247.498
 30
0.000000
  70
    32
  0
VERTEX
  8
AM_0
  5
1D0D6
 10
525.742
 20
247.631
 30
0.000000
  70
    32
  0
VERTEX
  8
AM_0
  5
1D0D7
 10
525.869
 20
247.765
 30
0.000000
  70
    32
  0
VERTEX
  8
AM_0
  5
1D0D8
 10
525.993
 20
247.900
 30
0.000000
  70
    32
  0
VERTEX
  8
AM_0
  5
1D0D9
 10
526.116
 20
248.037
 30
0.000000
  70
    32
  0
VERTEX
  8
AM_0
  5
1D0DA
 10
526.237
 20
248.176
 30
0.000000
  70
    32
  0
VERTEX
  8
AM_0
  5
1D0DB
 10
526.356
 20
248.316
 30
0.000000
  70
    32
  0
VERTEX
  8
AM_0
  5
1D0DC
 10
526.474
 20
248.458
 30
0.000000
  70
    32
  0
VERTEX
  8
AM_0
  5
1D0DD
 10
526.590
 20
248.601
 30
0.000000
  70
    32
  0
VERTEX
  8
AM_0
  5
1D0DE
 10
526.704
 20
248.745
 30
0.000000
  70
    32
  0
VERTEX
  8
AM_0
  5
1D0DF
 10
526.816
 20
248.891
 30
0.000000
  70
    32
  0
VERTEX
  8
AM_0
  5
1D0E0
 10
526.927
 20
249.038
 30
0.000000
  70
    32
  0
VERTEX
  8
AM_0
  5
1D0E1
 10
527.036
 20
249.187
 30
0.000000
  70
    32
  0
VERTEX
  8
AM_0
  5
1D0E2
 10
527.143
 20
249.337
 30
0.000000
  70
    32
  0
VERTEX
  8
AM_0
  5
1D0E3
 10
527.248
 20
249.488
 30
0.000000
  70
    32
  0
VERTEX
  8
AM_0
  5
1D0E4
 10
527.351
 20
249.640
 30
0.000000
  70
    32
  0
VERTEX
  8
AM_0
  5
1D0E5
 10
527.452
 20
249.794
 30
0.000000
  70
    32
  0
VERTEX
  8
AM_0
  5
1D0E6
 10
527.552
 20
249.949
 30
0.000000
  70
    32
  0
VERTEX
  8
AM_0
  5
1D0E7
 10
527.649
 20
250.105
 30
0.000000
  70
    32
  0
VERTEX
  8
AM_0
  5
1D0E8
 10
527.745
 20
250.262
 30
0.000000
  70
    32
  0
VERTEX
  8
AM_0
  5
1D0E9
 10
527.838
 20
250.421
 30
0.000000
  70
    32
  0
VERTEX
  8
AM_0
  5
1D0EA
 10
527.930
 20
250.580
 30
0.000000
  70
    32
  0
VERTEX
  8
AM_0
  5
1D0EB
 10
528.020
 20
250.741
 30
0.000000
  70
    32
  0
VERTEX
  8
AM_0
  5
1D0EC
 10
528.108
 20
250.903
 30
0.000000
  70
    32
  0
VERTEX
  8
AM_0
  5
1D0ED
 10
528.193
 20
251.066
 30
0.000000
  70
    32
  0
VERTEX
  8
AM_0
  5
1D0EE
 10
528.277
 20
251.230
 30
0.000000
  70
    32
  0
VERTEX
  8
AM_0
  5
1D0EF
 10
528.359
 20
251.395
 30
0.000000
  70
    32
  0
VERTEX
  8
AM_0
  5
1D0F0
 10
528.439
 20
251.560
 30
0.000000
  70
    32
  0
VERTEX
  8
AM_0
  5
1D0F1
 10
528.516
 20
251.727
 30
0.000000
  70
    32
  0
VERTEX
  8
AM_0
  5
1D0F2
 10
528.592
 20
251.895
 30
0.000000
  70
    32
  0
VERTEX
  8
AM_0
  5
1D0F3
 10
528.665
 20
252.064
 30
0.000000
  70
    32
  0
VERTEX
  8
AM_0
  5
1D0F4
 10
528.737
 20
252.234
 30
0.000000
  70
    32
  0
VERTEX
  8
AM_0
  5
1D0F5
 10
528.806
 20
252.404
 30
0.000000
  70
    32
  0
VERTEX
  8
AM_0
  5
1D0F6
 10
528.874
 20
252.575
 30
0.000000
  70
    32
  0
VERTEX
  8
AM_0
  5
1D0F7
 10
528.939
 20
252.748
 30
0.000000
  70
    32
  0
VERTEX
  8
AM_0
  5
1D0F8
 10
529.002
 20
252.920
 30
0.000000
  70
    32
  0
VERTEX
  8
AM_0
  5
1D0F9
 10
529.063
 20
253.094
 30
0.000000
  70
    32
  0
VERTEX
  8
AM_0
  5
1D0FA
 10
529.122
 20
253.269
 30
0.000000
  70
    32
  0
VERTEX
  8
AM_0
  5
1D0FB
 10
529.178
 20
253.444
 30
0.000000
  70
    32
  0
VERTEX
  8
AM_0
  5
1D0FC
 10
529.233
 20
253.620
 30
0.000000
  70
    32
  0
VERTEX
  8
AM_0
  5
1D0FD
 10
529.285
 20
253.796
 30
0.000000
  70
    32
  0
VERTEX
  8
AM_0
  5
1D0FE
 10
529.335
 20
253.973
 30
0.000000
  70
    32
  0
VERTEX
  8
AM_0
  5
1D0FF
 10
529.383
 20
254.151
 30
0.000000
  70
    32
  0
VERTEX
  8
AM_0
  5
1D100
 10
529.429
 20
254.329
 30
0.000000
  70
    32
  0
VERTEX
  8
AM_0
  5
1D101
 10
529.473
 20
254.508
 30
0.000000
  70
    32
  0
VERTEX
  8
AM_0
  5
1D102
 10
529.514
 20
254.687
 30
0.000000
  70
    32
  0
VERTEX
  8
AM_0
  5
1D103
 10
529.554
 20
254.867
 30
0.000000
  70
    32
  0
VERTEX
  8
AM_0
  5
1D104
 10
529.591
 20
255.047
 30
0.000000
  70
    32
  0
VERTEX
  8
AM_0
  5
1D105
 10
529.625
 20
255.228
 30
0.000000
  70
    32
  0
VERTEX
  8
AM_0
  5
1D106
 10
529.658
 20
255.409
 30
0.000000
  70
    32
  0
VERTEX
  8
AM_0
  5
1D107
 10
529.688
 20
255.591
 30
0.000000
  70
    32
  0
VERTEX
  8
AM_0
  5
1D108
 10
529.716
 20
255.773
 30
0.000000
  70
    32
  0
VERTEX
  8
AM_0
  5
1D109
 10
529.742
 20
255.955
 30
0.000000
  70
    32
  0
VERTEX
  8
AM_0
  5
1D10A
 10
529.766
 20
256.138
 30
0.000000
  70
    32
  0
VERTEX
  8
AM_0
  5
1D10B
 10
529.787
 20
256.321
 30
0.000000
  70
    32
  0
VERTEX
  8
AM_0
  5
1D10C
 10
529.807
 20
256.504
 30
0.000000
  70
    32
  0
VERTEX
  8
AM_0
  5
1D10D
 10
529.823
 20
256.687
 30
0.000000
  70
    32
  0
VERTEX
  8
AM_0
  5
1D10E
 10
529.838
 20
256.870
 30
0.000000
  70
    32
  0
VERTEX
  8
AM_0
  5
1D10F
 10
529.851
 20
257.054
 30
0.000000
  70
    32
  0
VERTEX
  8
AM_0
  5
1D110
 10
529.861
 20
257.238
 30
0.000000
  70
    32
  0
VERTEX
  8
AM_0
  5
1D111
 10
529.869
 20
257.422
 30
0.000000
  70
    32
  0
VERTEX
  8
AM_0
  5
1D112
 10
529.874
 20
257.606
 30
0.000000
  70
    32
  0
VERTEX
  8
AM_0
  5
1D113
 10
529.878
 20
257.790
 30
0.000000
  70
    32
  0
VERTEX
  8
AM_0
  5
1D114
 10
529.879
 20
257.974
 30
0.000000
  70
    32
  0
SEQEND
  8
AM_0
  5
1D115
  0
POLYLINE
  5
1B927
  8
AM_0
 10
479.87874229585623
 20
322.97519248972208
 30
0.0
 66
     1
 70
     8
  0
VERTEX
  8
AM_0
  5
1D116
 10
479.879
 20
322.975
 30
0.000000
  70
    32
  0
VERTEX
  8
AM_0
  5
1D117
 10
479.849
 20
324.202
 30
0.000000
  70
    32
  0
VERTEX
  8
AM_0
  5
1D118
 10
479.758
 20
325.426
 30
0.000000
  70
    32
  0
VERTEX
  8
AM_0
  5
1D119
 10
479.608
 20
326.644
 30
0.000000
  70
    32
  0
VERTEX
  8
AM_0
  5
1D11A
 10
479.398
 20
327.853
 30
0.000000
  70
    32
  0
VERTEX
  8
AM_0
  5
1D11B
 10
479.130
 20
329.050
 30
0.000000
  70
    32
  0
VERTEX
  8
AM_0
  5
1D11C
 10
478.802
 20
330.232
 30
0.000000
  70
    32
  0
VERTEX
  8
AM_0
  5
1D11D
 10
478.417
 20
331.398
 30
0.000000
  70
    32
  0
VERTEX
  8
AM_0
  5
1D11E
 10
477.976
 20
332.542
 30
0.000000
  70
    32
  0
VERTEX
  8
AM_0
  5
1D11F
 10
477.478
 20
333.664
 30
0.000000
  70
    32
  0
VERTEX
  8
AM_0
  5
1D120
 10
476.927
 20
334.760
 30
0.000000
  70
    32
  0
VERTEX
  8
AM_0
  5
1D121
 10
476.322
 20
335.828
 30
0.000000
  70
    32
  0
VERTEX
  8
AM_0
  5
1D122
 10
475.665
 20
336.865
 30
0.000000
  70
    32
  0
VERTEX
  8
AM_0
  5
1D123
 10
474.959
 20
337.868
 30
0.000000
  70
    32
  0
VERTEX
  8
AM_0
  5
1D124
 10
474.204
 20
338.835
 30
0.000000
  70
    32
  0
VERTEX
  8
AM_0
  5
1D125
 10
473.403
 20
339.765
 30
0.000000
  70
    32
  0
VERTEX
  8
AM_0
  5
1D126
 10
472.556
 20
340.653
 30
0.000000
  70
    32
  0
VERTEX
  8
AM_0
  5
1D127
 10
471.668
 20
341.499
 30
0.000000
  70
    32
  0
VERTEX
  8
AM_0
  5
1D128
 10
470.739
 20
342.301
 30
0.000000
  70
    32
  0
VERTEX
  8
AM_0
  5
1D129
 10
469.771
 20
343.056
 30
0.000000
  70
    32
  0
VERTEX
  8
AM_0
  5
1D12A
 10
468.768
 20
343.762
 30
0.000000
  70
    32
  0
VERTEX
  8
AM_0
  5
1D12B
 10
467.731
 20
344.419
 30
0.000000
  70
    32
  0
VERTEX
  8
AM_0
  5
1D12C
 10
466.664
 20
345.024
 30
0.000000
  70
    32
  0
VERTEX
  8
AM_0
  5
1D12D
 10
465.568
 20
345.575
 30
0.000000
  70
    32
  0
VERTEX
  8
AM_0
  5
1D12E
 10
464.446
 20
346.073
 30
0.000000
  70
    32
  0
VERTEX
  8
AM_0
  5
1D12F
 10
463.301
 20
346.514
 30
0.000000
  70
    32
  0
VERTEX
  8
AM_0
  5
1D130
 10
462.136
 20
346.899
 30
0.000000
  70
    32
  0
VERTEX
  8
AM_0
  5
1D131
 10
460.953
 20
347.226
 30
0.000000
  70
    32
  0
VERTEX
  8
AM_0
  5
1D132
 10
459.756
 20
347.495
 30
0.000000
  70
    32
  0
VERTEX
  8
AM_0
  5
1D133
 10
458.547
 20
347.705
 30
0.000000
  70
    32
  0
VERTEX
  8
AM_0
  5
1D134
 10
457.329
 20
347.855
 30
0.000000
  70
    32
  0
VERTEX
  8
AM_0
  5
1D135
 10
456.105
 20
347.946
 30
0.000000
  70
    32
  0
VERTEX
  8
AM_0
  5
1D136
 10
454.879
 20
347.976
 30
0.000000
  70
    32
  0
VERTEX
  8
AM_0
  5
1D137
 10
453.652
 20
347.946
 30
0.000000
  70
    32
  0
VERTEX
  8
AM_0
  5
1D138
 10
452.428
 20
347.855
 30
0.000000
  70
    32
  0
VERTEX
  8
AM_0
  5
1D139
 10
451.210
 20
347.705
 30
0.000000
  70
    32
  0
VERTEX
  8
AM_0
  5
1D13A
 10
450.001
 20
347.495
 30
0.000000
  70
    32
  0
VERTEX
  8
AM_0
  5
1D13B
 10
448.804
 20
347.226
 30
0.000000
  70
    32
  0
VERTEX
  8
AM_0
  5
1D13C
 10
447.622
 20
346.899
 30
0.000000
  70
    32
  0
VERTEX
  8
AM_0
  5
1D13D
 10
446.456
 20
346.514
 30
0.000000
  70
    32
  0
VERTEX
  8
AM_0
  5
1D13E
 10
445.312
 20
346.073
 30
0.000000
  70
    32
  0
VERTEX
  8
AM_0
  5
1D13F
 10
444.190
 20
345.575
 30
0.000000
  70
    32
  0
VERTEX
  8
AM_0
  5
1D140
 10
443.094
 20
345.024
 30
0.000000
  70
    32
  0
VERTEX
  8
AM_0
  5
1D141
 10
442.026
 20
344.419
 30
0.000000
  70
    32
  0
VERTEX
  8
AM_0
  5
1D142
 10
440.989
 20
343.762
 30
0.000000
  70
    32
  0
VERTEX
  8
AM_0
  5
1D143
 10
439.986
 20
343.056
 30
0.000000
  70
    32
  0
VERTEX
  8
AM_0
  5
1D144
 10
439.019
 20
342.301
 30
0.000000
  70
    32
  0
VERTEX
  8
AM_0
  5
1D145
 10
438.090
 20
341.499
 30
0.000000
  70
    32
  0
VERTEX
  8
AM_0
  5
1D146
 10
437.201
 20
340.653
 30
0.000000
  70
    32
  0
VERTEX
  8
AM_0
  5
1D147
 10
436.355
 20
339.765
 30
0.000000
  70
    32
  0
VERTEX
  8
AM_0
  5
1D148
 10
435.553
 20
338.835
 30
0.000000
  70
    32
  0
VERTEX
  8
AM_0
  5
1D149
 10
434.799
 20
337.868
 30
0.000000
  70
    32
  0
VERTEX
  8
AM_0
  5
1D14A
 10
434.092
 20
336.865
 30
0.000000
  70
    32
  0
VERTEX
  8
AM_0
  5
1D14B
 10
433.436
 20
335.828
 30
0.000000
  70
    32
  0
VERTEX
  8
AM_0
  5
1D14C
 10
432.831
 20
334.760
 30
0.000000
  70
    32
  0
VERTEX
  8
AM_0
  5
1D14D
 10
432.279
 20
333.664
 30
0.000000
  70
    32
  0
VERTEX
  8
AM_0
  5
1D14E
 10
431.782
 20
332.542
 30
0.000000
  70
    32
  0
VERTEX
  8
AM_0
  5
1D14F
 10
431.340
 20
331.398
 30
0.000000
  70
    32
  0
VERTEX
  8
AM_0
  5
1D150
 10
430.955
 20
330.232
 30
0.000000
  70
    32
  0
VERTEX
  8
AM_0
  5
1D151
 10
430.628
 20
329.050
 30
0.000000
  70
    32
  0
VERTEX
  8
AM_0
  5
1D152
 10
430.359
 20
327.853
 30
0.000000
  70
    32
  0
VERTEX
  8
AM_0
  5
1D153
 10
430.149
 20
326.644
 30
0.000000
  70
    32
  0
VERTEX
  8
AM_0
  5
1D154
 10
429.999
 20
325.426
 30
0.000000
  70
    32
  0
VERTEX
  8
AM_0
  5
1D155
 10
429.909
 20
324.202
 30
0.000000
  70
    32
  0
VERTEX
  8
AM_0
  5
1D156
 10
429.879
 20
322.975
 30
0.000000
  70
    32
  0
VERTEX
  8
AM_0
  5
1D157
 10
429.909
 20
321.748
 30
0.000000
  70
    32
  0
VERTEX
  8
AM_0
  5
1D158
 10
429.999
 20
320.525
 30
0.000000
  70
    32
  0
VERTEX
  8
AM_0
  5
1D159
 10
430.149
 20
319.307
 30
0.000000
  70
    32
  0
VERTEX
  8
AM_0
  5
1D15A
 10
430.359
 20
318.098
 30
0.000000
  70
    32
  0
VERTEX
  8
AM_0
  5
1D15B
 10
430.628
 20
316.901
 30
0.000000
  70
    32
  0
VERTEX
  8
AM_0
  5
1D15C
 10
430.955
 20
315.718
 30
0.000000
  70
    32
  0
VERTEX
  8
AM_0
  5
1D15D
 10
431.340
 20
314.553
 30
0.000000
  70
    32
  0
VERTEX
  8
AM_0
  5
1D15E
 10
431.782
 20
313.408
 30
0.000000
  70
    32
  0
VERTEX
  8
AM_0
  5
1D15F
 10
432.279
 20
312.286
 30
0.000000
  70
    32
  0
VERTEX
  8
AM_0
  5
1D160
 10
432.831
 20
311.190
 30
0.000000
  70
    32
  0
VERTEX
  8
AM_0
  5
1D161
 10
433.436
 20
310.122
 30
0.000000
  70
    32
  0
VERTEX
  8
AM_0
  5
1D162
 10
434.092
 20
309.086
 30
0.000000
  70
    32
  0
VERTEX
  8
AM_0
  5
1D163
 10
434.799
 20
308.082
 30
0.000000
  70
    32
  0
VERTEX
  8
AM_0
  5
1D164
 10
435.553
 20
307.115
 30
0.000000
  70
    32
  0
VERTEX
  8
AM_0
  5
1D165
 10
436.355
 20
306.186
 30
0.000000
  70
    32
  0
VERTEX
  8
AM_0
  5
1D166
 10
437.201
 20
305.297
 30
0.000000
  70
    32
  0
VERTEX
  8
AM_0
  5
1D167
 10
438.090
 20
304.451
 30
0.000000
  70
    32
  0
VERTEX
  8
AM_0
  5
1D168
 10
439.019
 20
303.650
 30
0.000000
  70
    32
  0
VERTEX
  8
AM_0
  5
1D169
 10
439.986
 20
302.895
 30
0.000000
  70
    32
  0
VERTEX
  8
AM_0
  5
1D16A
 10
440.989
 20
302.188
 30
0.000000
  70
    32
  0
VERTEX
  8
AM_0
  5
1D16B
 10
442.026
 20
301.532
 30
0.000000
  70
    32
  0
VERTEX
  8
AM_0
  5
1D16C
 10
443.094
 20
300.927
 30
0.000000
  70
    32
  0
VERTEX
  8
AM_0
  5
1D16D
 10
444.190
 20
300.375
 30
0.000000
  70
    32
  0
VERTEX
  8
AM_0
  5
1D16E
 10
445.312
 20
299.878
 30
0.000000
  70
    32
  0
VERTEX
  8
AM_0
  5
1D16F
 10
446.456
 20
299.436
 30
0.000000
  70
    32
  0
VERTEX
  8
AM_0
  5
1D170
 10
447.622
 20
299.051
 30
0.000000
  70
    32
  0
VERTEX
  8
AM_0
  5
1D171
 10
448.804
 20
298.724
 30
0.000000
  70
    32
  0
VERTEX
  8
AM_0
  5
1D172
 10
450.001
 20
298.455
 30
0.000000
  70
    32
  0
VERTEX
  8
AM_0
  5
1D173
 10
451.210
 20
298.245
 30
0.000000
  70
    32
  0
VERTEX
  8
AM_0
  5
1D174
 10
452.428
 20
298.095
 30
0.000000
  70
    32
  0
VERTEX
  8
AM_0
  5
1D175
 10
453.652
 20
298.005
 30
0.000000
  70
    32
  0
VERTEX
  8
AM_0
  5
1D176
 10
454.879
 20
297.975
 30
0.000000
  70
    32
  0
VERTEX
  8
AM_0
  5
1D177
 10
456.105
 20
298.005
 30
0.000000
  70
    32
  0
VERTEX
  8
AM_0
  5
1D178
 10
457.329
 20
298.095
 30
0.000000
  70
    32
  0
VERTEX
  8
AM_0
  5
1D179
 10
458.547
 20
298.245
 30
0.000000
  70
    32
  0
VERTEX
  8
AM_0
  5
1D17A
 10
459.756
 20
298.455
 30
0.000000
  70
    32
  0
VERTEX
  8
AM_0
  5
1D17B
 10
460.953
 20
298.724
 30
0.000000
  70
    32
  0
VERTEX
  8
AM_0
  5
1D17C
 10
462.136
 20
299.051
 30
0.000000
  70
    32
  0
VERTEX
  8
AM_0
  5
1D17D
 10
463.301
 20
299.436
 30
0.000000
  70
    32
  0
VERTEX
  8
AM_0
  5
1D17E
 10
464.446
 20
299.878
 30
0.000000
  70
    32
  0
VERTEX
  8
AM_0
  5
1D17F
 10
465.568
 20
300.375
 30
0.000000
  70
    32
  0
VERTEX
  8
AM_0
  5
1D180
 10
466.664
 20
300.927
 30
0.000000
  70
    32
  0
VERTEX
  8
AM_0
  5
1D181
 10
467.731
 20
301.532
 30
0.000000
  70
    32
  0
VERTEX
  8
AM_0
  5
1D182
 10
468.768
 20
302.188
 30
0.000000
  70
    32
  0
VERTEX
  8
AM_0
  5
1D183
 10
469.771
 20
302.895
 30
0.000000
  70
    32
  0
VERTEX
  8
AM_0
  5
1D184
 10
470.739
 20
303.650
 30
0.000000
  70
    32
  0
VERTEX
  8
AM_0
  5
1D185
 10
471.668
 20
304.451
 30
0.000000
  70
    32
  0
VERTEX
  8
AM_0
  5
1D186
 10
472.556
 20
305.297
 30
0.000000
  70
    32
  0
VERTEX
  8
AM_0
  5
1D187
 10
473.403
 20
306.186
 30
0.000000
  70
    32
  0
VERTEX
  8
AM_0
  5
1D188
 10
474.204
 20
307.115
 30
0.000000
  70
    32
  0
VERTEX
  8
AM_0
  5
1D189
 10
474.959
 20
308.082
 30
0.000000
  70
    32
  0
VERTEX
  8
AM_0
  5
1D18A
 10
475.665
 20
309.086
 30
0.000000
  70
    32
  0
VERTEX
  8
AM_0
  5
1D18B
 10
476.322
 20
310.122
 30
0.000000
  70
    32
  0
VERTEX
  8
AM_0
  5
1D18C
 10
476.927
 20
311.190
 30
0.000000
  70
    32
  0
VERTEX
  8
AM_0
  5
1D18D
 10
477.478
 20
312.286
 30
0.000000
  70
    32
  0
VERTEX
  8
AM_0
  5
1D18E
 10
477.976
 20
313.408
 30
0.000000
  70
    32
  0
VERTEX
  8
AM_0
  5
1D18F
 10
478.417
 20
314.553
 30
0.000000
  70
    32
  0
VERTEX
  8
AM_0
  5
1D190
 10
478.802
 20
315.718
 30
0.000000
  70
    32
  0
VERTEX
  8
AM_0
  5
1D191
 10
479.130
 20
316.901
 30
0.000000
  70
    32
  0
VERTEX
  8
AM_0
  5
1D192
 10
479.398
 20
318.098
 30
0.000000
  70
    32
  0
VERTEX
  8
AM_0
  5
1D193
 10
479.608
 20
319.307
 30
0.000000
  70
    32
  0
VERTEX
  8
AM_0
  5
1D194
 10
479.758
 20
320.525
 30
0.000000
  70
    32
  0
VERTEX
  8
AM_0
  5
1D195
 10
479.849
 20
321.748
 30
0.000000
  70
    32
  0
VERTEX
  8
AM_0
  5
1D196
 10
479.879
 20
322.975
 30
0.000000
  70
    32
  0
SEQEND
  8
AM_0
  5
1D197
  0
LINE
  5
1B929
  8
AM_0
 10
362.36626048749611
 20
250.97375034247219
 30
0.0
 11
454.87874155029778
 21
250.97375034247219
 31
0.0
  0
LINE
  5
1B92A
  8
AM_0
 10
454.87874155029817
 20
250.97375034247219
 30
0.0
 11
492.39125149045151
 21
250.97375034247219
 31
0.0
  0
ARC
  5
1B92B
  8
AM_0
 10
514.87874333963748
 20
257.97389055123227
 30
0.0
 40
16.25
 50
88.089786296393925
 51
181.9105704089439
  0
POLYLINE
  5
1B92C
  8
AM_0
 10
521.87874354839346
 20
257.97389055123273
 30
0.0
 66
     1
 70
     8
  0
VERTEX
  8
AM_0
  5
1D198
 10
521.879
 20
257.974
 30
0.000000
  70
    32
  0
VERTEX
  8
AM_0
  5
1D199
 10
521.870
 20
258.317
 30
0.000000
  70
    32
  0
VERTEX
  8
AM_0
  5
1D19A
 10
521.845
 20
258.660
 30
0.000000
  70
    32
  0
VERTEX
  8
AM_0
  5
1D19B
 10
521.803
 20
259.001
 30
0.000000
  70
    32
  0
VERTEX
  8
AM_0
  5
1D19C
 10
521.744
 20
259.340
 30
0.000000
  70
    32
  0
VERTEX
  8
AM_0
  5
1D19D
 10
521.669
 20
259.675
 30
0.000000
  70
    32
  0
VERTEX
  8
AM_0
  5
1D19E
 10
521.577
 20
260.006
 30
0.000000
  70
    32
  0
VERTEX
  8
AM_0
  5
1D19F
 10
521.470
 20
260.332
 30
0.000000
  70
    32
  0
VERTEX
  8
AM_0
  5
1D1A0
 10
521.346
 20
260.653
 30
0.000000
  70
    32
  0
VERTEX
  8
AM_0
  5
1D1A1
 10
521.207
 20
260.967
 30
0.000000
  70
    32
  0
VERTEX
  8
AM_0
  5
1D1A2
 10
521.052
 20
261.274
 30
0.000000
  70
    32
  0
VERTEX
  8
AM_0
  5
1D1A3
 10
520.883
 20
261.573
 30
0.000000
  70
    32
  0
VERTEX
  8
AM_0
  5
1D1A4
 10
520.699
 20
261.863
 30
0.000000
  70
    32
  0
VERTEX
  8
AM_0
  5
1D1A5
 10
520.501
 20
262.144
 30
0.000000
  70
    32
  0
VERTEX
  8
AM_0
  5
1D1A6
 10
520.290
 20
262.415
 30
0.000000
  70
    32
  0
VERTEX
  8
AM_0
  5
1D1A7
 10
520.065
 20
262.675
 30
0.000000
  70
    32
  0
VERTEX
  8
AM_0
  5
1D1A8
 10
519.828
 20
262.924
 30
0.000000
  70
    32
  0
VERTEX
  8
AM_0
  5
1D1A9
 10
519.580
 20
263.161
 30
0.000000
  70
    32
  0
VERTEX
  8
AM_0
  5
1D1AA
 10
519.319
 20
263.385
 30
0.000000
  70
    32
  0
VERTEX
  8
AM_0
  5
1D1AB
 10
519.049
 20
263.596
 30
0.000000
  70
    32
  0
VERTEX
  8
AM_0
  5
1D1AC
 10
518.768
 20
263.794
 30
0.000000
  70
    32
  0
VERTEX
  8
AM_0
  5
1D1AD
 10
518.477
 20
263.978
 30
0.000000
  70
    32
  0
VERTEX
  8
AM_0
  5
1D1AE
 10
518.179
 20
264.147
 30
0.000000
  70
    32
  0
VERTEX
  8
AM_0
  5
1D1AF
 10
517.872
 20
264.302
 30
0.000000
  70
    32
  0
VERTEX
  8
AM_0
  5
1D1B0
 10
517.558
 20
264.441
 30
0.000000
  70
    32
  0
VERTEX
  8
AM_0
  5
1D1B1
 10
517.237
 20
264.565
 30
0.000000
  70
    32
  0
VERTEX
  8
AM_0
  5
1D1B2
 10
516.911
 20
264.673
 30
0.000000
  70
    32
  0
VERTEX
  8
AM_0
  5
1D1B3
 10
516.580
 20
264.764
 30
0.000000
  70
    32
  0
VERTEX
  8
AM_0
  5
1D1B4
 10
516.244
 20
264.840
 30
0.000000
  70
    32
  0
VERTEX
  8
AM_0
  5
1D1B5
 10
515.906
 20
264.898
 30
0.000000
  70
    32
  0
VERTEX
  8
AM_0
  5
1D1B6
 10
515.565
 20
264.940
 30
0.000000
  70
    32
  0
VERTEX
  8
AM_0
  5
1D1B7
 10
515.222
 20
264.966
 30
0.000000
  70
    32
  0
VERTEX
  8
AM_0
  5
1D1B8
 10
514.879
 20
264.974
 30
0.000000
  70
    32
  0
VERTEX
  8
AM_0
  5
1D1B9
 10
514.535
 20
264.966
 30
0.000000
  70
    32
  0
VERTEX
  8
AM_0
  5
1D1BA
 10
514.193
 20
264.940
 30
0.000000
  70
    32
  0
VERTEX
  8
AM_0
  5
1D1BB
 10
513.852
 20
264.898
 30
0.000000
  70
    32
  0
VERTEX
  8
AM_0
  5
1D1BC
 10
513.513
 20
264.840
 30
0.000000
  70
    32
  0
VERTEX
  8
AM_0
  5
1D1BD
 10
513.178
 20
264.764
 30
0.000000
  70
    32
  0
VERTEX
  8
AM_0
  5
1D1BE
 10
512.847
 20
264.673
 30
0.000000
  70
    32
  0
VERTEX
  8
AM_0
  5
1D1BF
 10
512.521
 20
264.565
 30
0.000000
  70
    32
  0
VERTEX
  8
AM_0
  5
1D1C0
 10
512.200
 20
264.441
 30
0.000000
  70
    32
  0
VERTEX
  8
AM_0
  5
1D1C1
 10
511.886
 20
264.302
 30
0.000000
  70
    32
  0
VERTEX
  8
AM_0
  5
1D1C2
 10
511.579
 20
264.147
 30
0.000000
  70
    32
  0
VERTEX
  8
AM_0
  5
1D1C3
 10
511.280
 20
263.978
 30
0.000000
  70
    32
  0
VERTEX
  8
AM_0
  5
1D1C4
 10
510.990
 20
263.794
 30
0.000000
  70
    32
  0
VERTEX
  8
AM_0
  5
1D1C5
 10
510.709
 20
263.596
 30
0.000000
  70
    32
  0
VERTEX
  8
AM_0
  5
1D1C6
 10
510.438
 20
263.385
 30
0.000000
  70
    32
  0
VERTEX
  8
AM_0
  5
1D1C7
 10
510.178
 20
263.161
 30
0.000000
  70
    32
  0
VERTEX
  8
AM_0
  5
1D1C8
 10
509.929
 20
262.924
 30
0.000000
  70
    32
  0
VERTEX
  8
AM_0
  5
1D1C9
 10
509.692
 20
262.675
 30
0.000000
  70
    32
  0
VERTEX
  8
AM_0
  5
1D1CA
 10
509.468
 20
262.415
 30
0.000000
  70
    32
  0
VERTEX
  8
AM_0
  5
1D1CB
 10
509.256
 20
262.144
 30
0.000000
  70
    32
  0
VERTEX
  8
AM_0
  5
1D1CC
 10
509.058
 20
261.863
 30
0.000000
  70
    32
  0
VERTEX
  8
AM_0
  5
1D1CD
 10
508.875
 20
261.573
 30
0.000000
  70
    32
  0
VERTEX
  8
AM_0
  5
1D1CE
 10
508.705
 20
261.274
 30
0.000000
  70
    32
  0
VERTEX
  8
AM_0
  5
1D1CF
 10
508.551
 20
260.967
 30
0.000000
  70
    32
  0
VERTEX
  8
AM_0
  5
1D1D0
 10
508.412
 20
260.653
 30
0.000000
  70
    32
  0
VERTEX
  8
AM_0
  5
1D1D1
 10
508.288
 20
260.332
 30
0.000000
  70
    32
  0
VERTEX
  8
AM_0
  5
1D1D2
 10
508.180
 20
260.006
 30
0.000000
  70
    32
  0
VERTEX
  8
AM_0
  5
1D1D3
 10
508.089
 20
259.675
 30
0.000000
  70
    32
  0
VERTEX
  8
AM_0
  5
1D1D4
 10
508.013
 20
259.340
 30
0.000000
  70
    32
  0
VERTEX
  8
AM_0
  5
1D1D5
 10
507.955
 20
259.001
 30
0.000000
  70
    32
  0
VERTEX
  8
AM_0
  5
1D1D6
 10
507.912
 20
258.660
 30
0.000000
  70
    32
  0
VERTEX
  8
AM_0
  5
1D1D7
 10
507.887
 20
258.317
 30
0.000000
  70
    32
  0
VERTEX
  8
AM_0
  5
1D1D8
 10
507.879
 20
257.974
 30
0.000000
  70
    32
  0
VERTEX
  8
AM_0
  5
1D1D9
 10
507.887
 20
257.630
 30
0.000000
  70
    32
  0
VERTEX
  8
AM_0
  5
1D1DA
 10
507.912
 20
257.288
 30
0.000000
  70
    32
  0
VERTEX
  8
AM_0
  5
1D1DB
 10
507.955
 20
256.947
 30
0.000000
  70
    32
  0
VERTEX
  8
AM_0
  5
1D1DC
 10
508.013
 20
256.608
 30
0.000000
  70
    32
  0
VERTEX
  8
AM_0
  5
1D1DD
 10
508.089
 20
256.273
 30
0.000000
  70
    32
  0
VERTEX
  8
AM_0
  5
1D1DE
 10
508.180
 20
255.942
 30
0.000000
  70
    32
  0
VERTEX
  8
AM_0
  5
1D1DF
 10
508.288
 20
255.616
 30
0.000000
  70
    32
  0
VERTEX
  8
AM_0
  5
1D1E0
 10
508.412
 20
255.295
 30
0.000000
  70
    32
  0
VERTEX
  8
AM_0
  5
1D1E1
 10
508.551
 20
254.981
 30
0.000000
  70
    32
  0
VERTEX
  8
AM_0
  5
1D1E2
 10
508.705
 20
254.674
 30
0.000000
  70
    32
  0
VERTEX
  8
AM_0
  5
1D1E3
 10
508.875
 20
254.375
 30
0.000000
  70
    32
  0
VERTEX
  8
AM_0
  5
1D1E4
 10
509.058
 20
254.085
 30
0.000000
  70
    32
  0
VERTEX
  8
AM_0
  5
1D1E5
 10
509.256
 20
253.804
 30
0.000000
  70
    32
  0
VERTEX
  8
AM_0
  5
1D1E6
 10
509.468
 20
253.533
 30
0.000000
  70
    32
  0
VERTEX
  8
AM_0
  5
1D1E7
 10
509.692
 20
253.273
 30
0.000000
  70
    32
  0
VERTEX
  8
AM_0
  5
1D1E8
 10
509.929
 20
253.024
 30
0.000000
  70
    32
  0
VERTEX
  8
AM_0
  5
1D1E9
 10
510.178
 20
252.787
 30
0.000000
  70
    32
  0
VERTEX
  8
AM_0
  5
1D1EA
 10
510.438
 20
252.563
 30
0.000000
  70
    32
  0
VERTEX
  8
AM_0
  5
1D1EB
 10
510.709
 20
252.351
 30
0.000000
  70
    32
  0
VERTEX
  8
AM_0
  5
1D1EC
 10
510.990
 20
252.153
 30
0.000000
  70
    32
  0
VERTEX
  8
AM_0
  5
1D1ED
 10
511.280
 20
251.970
 30
0.000000
  70
    32
  0
VERTEX
  8
AM_0
  5
1D1EE
 10
511.579
 20
251.800
 30
0.000000
  70
    32
  0
VERTEX
  8
AM_0
  5
1D1EF
 10
511.886
 20
251.646
 30
0.000000
  70
    32
  0
VERTEX
  8
AM_0
  5
1D1F0
 10
512.200
 20
251.507
 30
0.000000
  70
    32
  0
VERTEX
  8
AM_0
  5
1D1F1
 10
512.521
 20
251.383
 30
0.000000
  70
    32
  0
VERTEX
  8
AM_0
  5
1D1F2
 10
512.847
 20
251.275
 30
0.000000
  70
    32
  0
VERTEX
  8
AM_0
  5
1D1F3
 10
513.178
 20
251.184
 30
0.000000
  70
    32
  0
VERTEX
  8
AM_0
  5
1D1F4
 10
513.513
 20
251.108
 30
0.000000
  70
    32
  0
VERTEX
  8
AM_0
  5
1D1F5
 10
513.852
 20
251.050
 30
0.000000
  70
    32
  0
VERTEX
  8
AM_0
  5
1D1F6
 10
514.193
 20
251.007
 30
0.000000
  70
    32
  0
VERTEX
  8
AM_0
  5
1D1F7
 10
514.535
 20
250.982
 30
0.000000
  70
    32
  0
VERTEX
  8
AM_0
  5
1D1F8
 10
514.879
 20
250.974
 30
0.000000
  70
    32
  0
VERTEX
  8
AM_0
  5
1D1F9
 10
515.222
 20
250.982
 30
0.000000
  70
    32
  0
VERTEX
  8
AM_0
  5
1D1FA
 10
515.565
 20
251.007
 30
0.000000
  70
    32
  0
VERTEX
  8
AM_0
  5
1D1FB
 10
515.906
 20
251.050
 30
0.000000
  70
    32
  0
VERTEX
  8
AM_0
  5
1D1FC
 10
516.244
 20
251.108
 30
0.000000
  70
    32
  0
VERTEX
  8
AM_0
  5
1D1FD
 10
516.580
 20
251.184
 30
0.000000
  70
    32
  0
VERTEX
  8
AM_0
  5
1D1FE
 10
516.911
 20
251.275
 30
0.000000
  70
    32
  0
VERTEX
  8
AM_0
  5
1D1FF
 10
517.237
 20
251.383
 30
0.000000
  70
    32
  0
VERTEX
  8
AM_0
  5
1D200
 10
517.558
 20
251.507
 30
0.000000
  70
    32
  0
VERTEX
  8
AM_0
  5
1D201
 10
517.872
 20
251.646
 30
0.000000
  70
    32
  0
VERTEX
  8
AM_0
  5
1D202
 10
518.179
 20
251.800
 30
0.000000
  70
    32
  0
VERTEX
  8
AM_0
  5
1D203
 10
518.477
 20
251.970
 30
0.000000
  70
    32
  0
VERTEX
  8
AM_0
  5
1D204
 10
518.768
 20
252.153
 30
0.000000
  70
    32
  0
VERTEX
  8
AM_0
  5
1D205
 10
519.049
 20
252.351
 30
0.000000
  70
    32
  0
VERTEX
  8
AM_0
  5
1D206
 10
519.319
 20
252.563
 30
0.000000
  70
    32
  0
VERTEX
  8
AM_0
  5
1D207
 10
519.580
 20
252.787
 30
0.000000
  70
    32
  0
VERTEX
  8
AM_0
  5
1D208
 10
519.828
 20
253.024
 30
0.000000
  70
    32
  0
VERTEX
  8
AM_0
  5
1D209
 10
520.065
 20
253.273
 30
0.000000
  70
    32
  0
VERTEX
  8
AM_0
  5
1D20A
 10
520.290
 20
253.533
 30
0.000000
  70
    32
  0
VERTEX
  8
AM_0
  5
1D20B
 10
520.501
 20
253.804
 30
0.000000
  70
    32
  0
VERTEX
  8
AM_0
  5
1D20C
 10
520.699
 20
254.085
 30
0.000000
  70
    32
  0
VERTEX
  8
AM_0
  5
1D20D
 10
520.883
 20
254.375
 30
0.000000
  70
    32
  0
VERTEX
  8
AM_0
  5
1D20E
 10
521.052
 20
254.674
 30
0.000000
  70
    32
  0
VERTEX
  8
AM_0
  5
1D20F
 10
521.207
 20
254.981
 30
0.000000
  70
    32
  0
VERTEX
  8
AM_0
  5
1D210
 10
521.346
 20
255.295
 30
0.000000
  70
    32
  0
VERTEX
  8
AM_0
  5
1D211
 10
521.470
 20
255.616
 30
0.000000
  70
    32
  0
VERTEX
  8
AM_0
  5
1D212
 10
521.577
 20
255.942
 30
0.000000
  70
    32
  0
VERTEX
  8
AM_0
  5
1D213
 10
521.669
 20
256.273
 30
0.000000
  70
    32
  0
VERTEX
  8
AM_0
  5
1D214
 10
521.744
 20
256.608
 30
0.000000
  70
    32
  0
VERTEX
  8
AM_0
  5
1D215
 10
521.803
 20
256.947
 30
0.000000
  70
    32
  0
VERTEX
  8
AM_0
  5
1D216
 10
521.845
 20
257.288
 30
0.000000
  70
    32
  0
VERTEX
  8
AM_0
  5
1D217
 10
521.870
 20
257.630
 30
0.000000
  70
    32
  0
VERTEX
  8
AM_0
  5
1D218
 10
521.879
 20
257.974
 30
0.000000
  70
    32
  0
SEQEND
  8
AM_0
  5
1D219
  0
LINE
  5
1B92D
  8
ﾁｭｳｼﾝｾﾝ1
 10
502.87874298176962
 20
257.97389055123273
 30
0.0
 11
526.87874369750534
 21
257.97389055123273
 31
0.0
  0
ARC
  5
1B92E
  8
AM_0
 10
492.39125149045151
 20
257.22375034247221
 30
0.0
 40
6.25
 50
270.0
 51
1.91057040894385
1001
GENIUS_GENODEF_13
1002
{
1000
HIER
1070
     0
1002
}
1002
{
1000
MANEDIT
1070
     0
1002
}
1002
{
1000
NOSEL
1070
     0
1002
}
1002
{
1000
BEHIND
1070
     0
1002
}
1002
{
1000
OTHER
1070
     0
1002
}
1002
{
1000
REACTOR
1002
}
1001
GENIUS_GENOBJ-N-FIL_13
1002
{
1000
OWNER
1000
GEN
1002
}
  0
LINE
  5
1B92F
  8
ﾁｭｳｼﾝｾﾝ1
 10
514.87874333963748
 20
269.9741309091076
 30
0.0
 11
514.87874333963748
 21
245.9736501933576
 31
0.0
  0
ARC
  5
1B930
  8
AM_0
 10
515.62874354839357
 20
280.46138707011733
 30
0.0
 40
6.25
 50
268.08978629639392
 51
0.0
1001
GENIUS_GENOBJ-N-FIL_13
1002
{
1000
OWNER
1000
GEN
1002
}
1001
GENIUS_GENODEF_13
1002
{
1000
HIER
1070
     0
1002
}
1002
{
1000
MANEDIT
1070
     0
1002
}
1002
{
1000
NOSEL
1070
     0
1002
}
1002
{
1000
BEHIND
1070
     0
1002
}
1002
{
1000
OTHER
1070
     0
1002
}
1002
{
1000
REACTOR
1002
}
  0
LINE
  5
1B934
  8
AM_0
 10
188.87876818825561
 20
387.3155230274615
 30
0.0
 11
152.87876818753571
 21
385.66278274559869
 31
0.0
  0
LINE
  5
1B935
  8
AM_0
 10
150.43878066838741
 20
374.97552306830067
 30
0.0
 11
222.87876818893571
 21
374.97552306830067
 31
0.0
  0
LINE
  5
1B936
  8
AM_0
 10
149.54877818746891
 20
374.34552302720198
 30
0.0
 11
222.87876818893571
 21
374.34552302720198
 31
0.0
  0
LINE
  5
1B937
  8
AM_0
 10
149.54877818746891
 20
377.70550302726917
 30
0.0
 11
222.87876818893571
 21
377.70550302726917
 31
0.0
  0
LINE
  5
1B938
  8
AM_0
 10
222.87876818893571
 20
376.97552302725472
 30
0.0
 11
150.4287881874867
 21
376.97552302725472
 31
0.0
  0
LINE
  5
1B939
  8
AM_0
 10
251.37876818950571
 20
366.97552302705452
 30
0.0
 11
150.4287881874867
 21
366.97552302705452
 31
0.0
  0
LINE
  5
1B93A
  8
AM_0
 10
149.33878818746479
 20
367.46551302706422
 30
0.0
 11
252.23893666133529
 21
367.46551302706422
 31
0.0
  0
LINE
  5
1B93B
  8
AM_0
 10
167.87876818783539
 20
402.83551302777158
 30
0.0
 11
222.87876818893571
 21
402.83551302777158
 31
0.0
  0
LINE
  5
1B93C
  8
AM_0
 10
285.80355427671952
 20
364.97552302701462
 30
0.0
 11
150.4287881874867
 21
364.97552302701462
 31
0.0
  0
LINE
  5
1B93D
  8
AM_0
 10
149.33878818746479
 20
364.54550302700591
 30
0.0
 11
286.72352433876853
 21
364.54550302700591
 31
0.0
  0
LINE
  5
1B93E
  8
AM_0
 10
167.87876818783539
 20
404.85551302781209
 30
0.0
 11
282.67853856051107
 21
404.85551302781209
 31
0.0
  0
LINE
  5
1B93F
  8
AM_0
 10
167.87876818783539
 20
406.21551302783928
 30
0.0
 11
282.6785385656998
 21
406.21551302783928
 31
0.0
  0
LINE
  5
1B940
  8
AM_0
 10
167.87876818783539
 20
406.87551302785261
 30
0.0
 11
282.67853856820238
 21
406.87551302785232
 31
0.0
  0
LINE
  5
1B941
  8
AM_0
 10
135.3787681871859
 20
360.97552302693458
 30
0.0
 11
136.8787681872156
 21
361.09552302693697
 31
0.0
  0
LINE
  5
1B942
  8
AM_0
 10
152.87876818753571
 20
389.31552302750129
 30
0.0
 11
152.87876818753571
 21
377.70550302726917
 31
0.0
  0
ARC
  5
1B943
  8
AM_0
 10
137.88181818723569
 20
387.93560302747369
 30
0.0
 40
1.0030519000200611
 50
116.21265000000891
 51
180.00576999999771
  0
LINE
  5
1B944
  8
AM_0
 10
138.65876818725121
 20
388.47549302748462
 30
0.0
 11
137.3787981872257
 21
387.69552302746888
 31
0.0
  0
LINE
  5
1B945
  8
AM_0
 10
138.8787681872557
 20
388.35553302748201
 30
0.0
 11
138.8787681872557
 21
387.81552302747139
 31
0.0
  0
ARC
  5
1B946
  8
AM_0
 10
137.8832181872358
 20
373.35217302718218
 30
0.0
 40
1.0044501000200889
 50
106.45034999999579
 51
179.8098500000001
  0
ARC
  5
1B947
  8
AM_0
 10
141.87247818731541
 20
373.7091930271892
 30
0.0
 40
1.0063295000201249
 50
0.3592499999959963
 51
89.640750000004005
  0
LINE
  5
1B948
  8
AM_0
 10
141.8787681873157
 20
366.97552302705452
 30
0.0
 11
137.87876818723589
 21
366.97552302705452
 31
0.0
  0
ARC
  5
1B949
  8
AM_0
 10
137.88785818723591
 20
365.96643302703438
 30
0.0
 40
1.0091312000201811
 50
90.51612999999962
 51
179.48387000000039
  0
ARC
  5
1B94A
  8
AM_0
 10
141.88779818731601
 20
367.96649302707459
 30
0.0
 40
0.9910124500198204
 50
269.47800000000427
 51
0.5219999999956863
  0
LINE
  5
1B94B
  8
AM_0
 10
141.8787681873157
 20
364.97552302701462
 30
0.0
 11
137.87876818723589
 21
364.97552302701462
 31
0.0
  0
ARC
  5
1B94C
  8
AM_0
 10
141.8708881873155
 20
363.96762302699449
 30
0.0
 40
1.007920400020158
 50
0.4484899999971624
 51
89.551510000009358
  0
ARC
  5
1B94D
  8
AM_0
 10
137.8709881872355
 20
365.96771302703428
 30
0.0
 40
0.9922232600198446
 50
179.54914999999909
 51
270.45084499999541
  0
LINE
  5
1B94E
  8
AM_0
 10
138.8787681872557
 20
366.59552302704702
 30
0.0
 11
138.8787681872557
 21
365.23550302701972
 31
0.0
  0
ARC
  5
1B94F
  8
AM_0
 10
150.4299781874868
 20
365.97552302703451
 30
0.0
 40
1.0000387000199991
 50
89.495659999996661
 51
270.50433199999492
  0
ARC
  5
1B950
  8
AM_0
 10
149.3414781874651
 20
365.99551302703497
 30
0.0
 40
1.460102600029201
 50
89.320999999995635
 51
270.67899300000448
  0
LINE
  5
1B951
  8
AM_0
 10
142.8787681873356
 20
383.65551302738822
 30
0.0
 11
152.87876818753571
 21
383.65551302738822
 31
0.0
  0
LINE
  5
1B952
  8
AM_0
 10
144.87876818737561
 20
375.2755130272206
 30
0.0
 11
148.05878818743921
 21
375.2755130272206
 31
0.0
  0
LINE
  5
1B953
  8
AM_0
 10
139.1387781872609
 20
387.47552302746448
 30
0.0
 11
141.8787681873157
 21
387.47552302746448
 31
0.0
  0
ARC
  5
1B954
  8
AM_0
 10
139.13706818726081
 20
386.46231302744428
 30
0.0
 40
1.0131912000202621
 50
89.90372000000059
 51
118.1687600000007
  0
LINE
  5
1B955
  8
AM_0
 10
138.63877818725081
 20
383.93548302739367
 30
0.0
 11
137.33875818722481
 21
383.0755030273765
 31
0.0
  0
LINE
  5
1B956
  8
AM_0
 10
138.8787681872557
 20
383.79550302739091
 30
0.0
 11
138.8787681872557
 21
383.31552302738129
 31
0.0
  0
LINE
  5
1B957
  8
AM_0
 10
139.1587681872613
 20
382.95550302737422
 30
0.0
 11
141.8787681873157
 21
382.95550302737422
 31
0.0
  0
ARC
  5
1B958
  8
AM_0
 10
137.88050818723571
 20
382.2329130273597
 30
0.0
 40
1.001733900020034
 50
122.7376300000042
 51
179.85045999999599
  0
ARC
  5
1B959
  8
AM_0
 10
137.88431818723569
 20
381.20623302733912
 30
0.0
 40
1.00559290002011
 50
120.18133000000741
 51
179.47162000000111
  0
LINE
  5
1B95A
  8
AM_0
 10
138.65876818725121
 20
382.81552302737151
 30
0.0
 11
137.3787681872258
 21
382.07550302735649
 31
0.0
  0
ARC
  5
1B95B
  8
AM_0
 10
139.1710281872615
 20
381.94885302735412
 30
0.0
 40
1.0067360000201351
 50
90.698059999994584
 51
120.5864300000015
  0
ARC
  5
1B95C
  8
AM_0
 10
141.87336818731541
 20
381.95010302735398
 30
0.0
 40
1.005422700020107
 50
0.3081900000032638
 51
89.691810000009767
  0
LINE
  5
1B95D
  8
AM_0
 10
139.09876818726011
 20
376.65551302724822
 30
0.0
 11
142.17878818732169
 21
376.65551302724822
 31
0.0
  0
ARC
  5
1B95E
  8
AM_0
 10
139.09201818725981
 20
375.649293027228
 30
0.0
 40
1.006237100020124
 50
89.615239999997826
 51
113.0046200000002
  0
ARC
  5
1B95F
  8
AM_0
 10
142.18320818732161
 20
377.35107302726209
 30
0.0
 40
0.6955789300139117
 50
269.63466399998981
 51
0.3653399999994615
  0
LINE
  5
1B960
  8
AM_0
 10
139.1787881872616
 20
384.09552302739701
 30
0.0
 11
142.8787681873356
 21
384.09552302739701
 31
0.0
  0
ARC
  5
1B961
  8
AM_0
 10
137.8837681872358
 20
385.80450302743111
 30
0.0
 40
1.0050608000201
 50
117.55880999999511
 51
179.371600000001
  0
ARC
  5
1B962
  8
AM_0
 10
139.1844281872618
 20
383.08520302737662
 30
0.0
 40
1.010318000020205
 50
90.320139999994765
 51
122.6885800000062
  0
ARC
  5
1B963
  8
AM_0
 10
137.87775818723549
 20
386.83007302745159
 30
0.0
 40
0.99898326001998
 50
119.9653599999959
 51
179.687610000001
  0
LINE
  5
1B964
  8
AM_0
 10
138.65879818725111
 20
387.35553302746217
 30
0.0
 11
137.4187781872262
 21
386.69549302744889
 31
0.0
  0
ARC
  5
1B965
  8
AM_0
 10
141.87171818731559
 20
386.46844302744432
 30
0.0
 40
1.0070832000201411
 50
0.4015799999984364
 51
89.598420000001553
  0
LINE
  5
1B966
  8
AM_0
 10
139.03876818725891
 20
374.71551302720928
 30
0.0
 11
141.8787681873157
 21
374.71551302720928
 31
0.0
  0
ARC
  5
1B967
  8
AM_0
 10
137.87830818723569
 20
375.13082302721762
 30
0.0
 40
0.999532700019991
 50
112.3150500000005
 51
179.73186999999979
  0
LINE
  5
1B968
  8
AM_0
 10
138.7387481872529
 20
374.67550302720838
 30
0.0
 11
137.59876818723001
 21
374.31549302720128
 31
0.0
  0
ARC
  5
1B969
  8
AM_0
 10
139.0214381872583
 20
373.70053302718912
 30
0.0
 40
1.015145100020302
 50
89.021620000009563
 51
106.1676700000059
  0
LINE
  5
1B96A
  8
AM_0
 10
138.6987781872522
 20
376.5755030272465
 30
0.0
 11
137.498788187228
 21
376.05551302723609
 31
0.0
  0
LINE
  5
1B96B
  8
AM_0
 10
138.8787681872557
 20
376.35553302724207
 30
0.0
 11
138.8787681872557
 21
375.295503027221
 31
0.0
  0
ARC
  5
1B96C
  8
AM_0
 10
152.51816818752829
 20
378.61496302728739
 30
0.0
 40
6.0113902001202266
 50
45.404039999991028
 51
86.560850000005559
  0
ARC
  5
1B96D
  8
AM_0
 10
156.02900818759869
 20
382.17309302735839
 30
0.0
 40
1.0127641000202541
 50
355.60674720000208
 51
45.505339999994469
  0
LINE
  5
1B96E
  8
AM_0
 10
152.87876818753571
 20
380.47552302732453
 30
0.0
 11
152.87876818753571
 21
377.69552302726902
 31
0.0
  0
ARC
  5
1B96F
  8
AM_0
 10
152.06235818751929
 20
382.56710302736639
 30
0.0
 40
4.9987221000999753
 50
279.40005899999471
 51
354.5864364999963
  0
ARC
  5
1B970
  8
AM_0
 10
149.55878818746919
 20
376.01550302723541
 30
0.0
 40
1.6800002000336001
 50
90.0
 51
269.99999700000228
  0
ARC
  5
1B971
  8
AM_0
 10
150.4299781874868
 20
375.97552302723449
 30
0.0
 40
1.0000387000199991
 50
89.495659999996661
 51
270.50433199999492
  0
ARC
  5
1B972
  8
AM_0
 10
166.87876818781569
 20
365.97552302703451
 30
0.0
 40
1.0000007000199991
 50
90.0
 51
269.99999700000228
  0
ARC
  5
1B973
  8
AM_0
 10
166.87876818781569
 20
375.97552302723449
 30
0.0
 40
1.0000007000199991
 50
90.0
 51
269.99999700000228
  0
LINE
  5
1B974
  8
AM_0
 10
150.99878818749789
 20
404.27551302780029
 30
0.0
 11
164.49878818776801
 21
404.27551302780029
 31
0.0
  0
LINE
  5
1B975
  8
AM_0
 10
151.0187781874983
 20
402.63551302776767
 30
0.0
 11
164.37876818776559
 21
402.63551302776767
 31
0.0
  0
LINE
  5
1B976
  8
AM_0
 10
151.05878818749909
 20
399.23552302769968
 30
0.0
 11
164.37876818776559
 21
399.23552302769968
 31
0.0
  0
LINE
  5
1B977
  8
AM_0
 10
151.11878818750051
 20
393.95552302759421
 30
0.0
 11
164.37876818776559
 21
393.95552302759421
 31
0.0
  0
LINE
  5
1B978
  8
AM_0
 10
149.05878818745919
 20
402.75549302777011
 30
0.0
 11
148.17878818744151
 21
399.2155030276993
 31
0.0
  0
ARC
  5
1B979
  8
AM_0
 10
151.02506818749859
 20
400.63563302772758
 30
0.0
 40
1.999890900039996
 50
90.180420000001433
 51
166.7056999999991
  0
LINE
  5
1B97A
  8
AM_0
 10
146.7187881874124
 20
398.0955230276769
 30
0.0
 11
148.3587781874453
 21
398.0955230276769
 31
0.0
  0
LINE
  5
1B97B
  8
AM_0
 10
142.8787681873356
 20
398.35324935777459
 30
0.0
 11
147.71875818743229
 21
398.45550302768407
 31
0.0
  0
LINE
  5
1B97C
  8
AM_0
 10
146.67878818741161
 20
391.99551302755492
 30
0.0
 11
149.09876818746011
 21
391.99551302755492
 31
0.0
  0
ARC
  5
1B97D
  8
AM_0
 10
146.66993818741159
 20
393.49446302758503
 30
0.0
 40
1.498966200029979
 50
270.3384679999927
 51
348.49632400000172
  0
ARC
  5
1B97E
  8
AM_0
 10
146.6951081874119
 20
397.55891302766622
 30
0.0
 40
1.5034074000300679
 50
270.13958599999978
 51
346.79614399999542
  0
LINE
  5
1B97F
  8
AM_0
 10
146.69877818741199
 20
396.05551302763621
 30
0.0
 11
148.75876818745309
 21
396.05551302763621
 31
0.0
  0
LINE
  5
1B980
  8
AM_0
 10
142.8787681873356
 20
389.31552302750129
 30
0.0
 11
152.87876818753571
 21
389.31552302750129
 31
0.0
  0
ARC
  5
1B981
  8
AM_0
 10
146.72861818741279
 20
399.59428302770681
 30
0.0
 40
1.4987990000299749
 50
269.62344199999649
 51
345.36186499999729
  0
LINE
  5
1B982
  8
AM_0
 10
139.11878818726041
 20
389.57551302750659
 30
0.0
 11
142.37876818732579
 21
389.57551302750659
 31
0.0
  0
LINE
  5
1B983
  8
AM_0
 10
139.1587681872613
 20
390.71551302752943
 30
0.0
 11
142.37876818732579
 21
390.71551302752943
 31
0.0
  0
LINE
  5
1B984
  8
AM_0
 10
139.1587681872613
 20
388.61550302748719
 30
0.0
 11
142.8787681873356
 21
388.61550302748719
 31
0.0
  0
ARC
  5
1B985
  8
AM_0
 10
137.88593818723601
 20
388.98532302749481
 30
0.0
 40
1.007194200020143
 50
120.23341999999791
 51
180.55767999999989
  0
LINE
  5
1B986
  8
AM_0
 10
138.67878818725171
 20
389.45552302750423
 30
0.0
 11
137.43879818722689
 21
388.83554302749172
 31
0.0
  0
ARC
  5
1B987
  8
AM_0
 10
139.1722881872615
 20
387.60440302746707
 30
0.0
 40
1.011208500020224
 50
90.765689999997619
 51
120.51881000001229
  0
LINE
  5
1B988
  8
AM_0
 10
138.65876818725121
 20
390.57551302752671
 30
0.0
 11
137.3787981872257
 21
389.85553302751219
 31
0.0
  0
LINE
  5
1B989
  8
AM_0
 10
138.8787681872557
 20
390.45552302752418
 30
0.0
 11
138.8787681872557
 21
389.93551302751382
 31
0.0
  0
ARC
  5
1B98A
  8
AM_0
 10
139.15635818726099
 20
388.57107302748642
 30
0.0
 40
1.005138300020102
 50
92.142290000000585
 51
118.36793999999701
  0
ARC
  5
1B98B
  8
AM_0
 10
139.16965818726149
 20
389.71376302750929
 30
0.0
 40
1.001808000020036
 50
90.622820000003856
 51
120.66166999999631
  0
ARC
  5
1B98C
  8
AM_0
 10
142.37241818732559
 20
389.0691530274965
 30
0.0
 40
0.506400760010128
 50
0.7197000000047436
 51
89.280300000001773
  0
ARC
  5
1B98D
  8
AM_0
 10
142.38312818732581
 20
391.21116302753933
 30
0.0
 40
0.4956644500099134
 50
269.49661899999961
 51
0.5033799999995008
  0
LINE
  5
1B98E
  8
AM_0
 10
149.09879818746009
 20
397.65550302766809
 30
0.0
 11
148.13877818744081
 21
393.19551302757901
 31
0.0
  0
ARC
  5
1B98F
  8
AM_0
 10
151.11518818750051
 20
391.9489630275541
 30
0.0
 40
2.00656600004013
 50
89.897530000004195
 51
170.0543200000007
  0
LINE
  5
1B990
  8
AM_0
 10
148.61878818745049
 20
389.31552302750129
 30
0.0
 11
149.1387781874607
 21
392.29551302756101
 31
0.0
  0
LINE
  5
1B991
  8
AM_0
 10
149.07877818745959
 20
401.09552302773682
 30
0.0
 11
148.15879818744131
 21
397.21551302765943
 31
0.0
  0
ARC
  5
1B992
  8
AM_0
 10
151.0578781874994
 20
397.23094302765958
 30
0.0
 40
2.0045698000400902
 50
89.974040000003512
 51
167.77208999999749
  0
ARC
  5
1B993
  8
AM_0
 10
151.00605818749841
 20
402.26818302776007
 30
0.0
 40
2.0073326000401459
 50
90.207820000001149
 51
165.9499399999977
  0
ARC
  5
1B994
  8
AM_0
 10
164.38291818776591
 20
404.13139302779769
 30
0.0
 40
1.4958795000299161
 50
269.84195400000863
 51
0.1580399999992005
  0
ARC
  5
1B995
  8
AM_0
 10
167.88810818783571
 20
400.82618302773142
 30
0.0
 40
2.0093489000401861
 50
90.265960000000305
 51
179.73403999999971
  0
LINE
  5
1B996
  8
AM_0
 10
165.87876818779549
 20
402.85551302777208
 30
0.0
 11
165.87876818779549
 21
395.45552302762422
 31
0.0
  0
ARC
  5
1B997
  8
AM_0
 10
164.38492818776581
 20
400.7293530277297
 30
0.0
 40
1.4938502000298759
 50
269.7636390000086
 51
0.2363600000010276
  0
ARC
  5
1B998
  8
AM_0
 10
164.38608818776581
 20
395.44821302762398
 30
0.0
 40
1.492715800029853
 50
269.71972099999329
 51
0.2802800000004985
  0
ARC
  5
1B999
  8
AM_0
 10
164.51069818776841
 20
405.77157302783019
 30
0.0
 40
1.496115700029921
 50
269.54349499999751
 51
345.44181399999883
  0
ARC
  5
1B99A
  8
AM_0
 10
167.88627818783581
 20
404.20802302779919
 30
0.0
 40
2.007501100040149
 50
90.213689999998877
 51
179.78629999999561
  0
ARC
  5
1B99B
  8
AM_0
 10
167.88392818783561
 20
402.85035302777209
 30
0.0
 40
2.0051613000401018
 50
90.147289999993205
 51
179.8527100000002
  0
ARC
  5
1B99C
  8
AM_0
 10
167.88669818783589
 20
404.87983302781259
 30
0.0
 40
1.995694300039913
 50
90.227350000001564
 51
165.02512000000129
  0
ARC
  5
1B99D
  8
AM_0
 10
339.87876863831008
 20
387.97649442821199
 30
0.0
 40
16.25
 50
268.08978629639392
 51
1.91057040894385
  0
ARC
  5
1B99E
  8
AM_0
 10
362.36626048749611
 20
388.72663463697228
 30
0.0
 40
6.25
 50
90.0
 51
181.9105704089439
1001
GENIUS_GENOBJ-N-FIL_13
1002
{
1000
OWNER
1000
GEN
1002
}
1001
GENIUS_GENODEF_13
1002
{
1000
HIER
1070
     0
1002
}
1002
{
1000
MANEDIT
1070
     0
1002
}
1002
{
1000
NOSEL
1070
     0
1002
}
1002
{
1000
BEHIND
1070
     0
1002
}
1002
{
1000
OTHER
1070
     0
1002
}
1002
{
1000
REACTOR
1002
}
  0
LINE
  5
1B9A3
  8
AM_0
 10
339.87876863831008
 20
402.9767948755557
 30
0.0
 11
514.87874333963748
 21
402.9767948755557
 31
0.0
  0
LINE
  5
1B9A4
  8
AM_0
 10
285.80355427671952
 20
366.97552302705452
 30
0.0
 11
268.37876818984569
 21
366.97552302705452
 31
0.0
  0
LINE
  5
1B9A5
  8
AM_0
 10
267.51859971801611
 20
367.46551302706422
 30
0.0
 11
286.87727958460459
 21
367.46551302706422
 31
0.0
  0
LINE
  5
1B9A6
  8
AM_0
 10
282.69877819013232
 20
374.34552302720198
 30
0.0
 11
268.37876818984569
 21
374.34552302720198
 31
0.0
  0
LINE
  5
1B9A7
  8
AM_0
 10
282.69877819013232
 20
376.97552302725472
 30
0.0
 11
222.87876818893571
 21
376.97552302725472
 31
0.0
  0
LINE
  5
1B9A8
  8
AM_0
 10
282.69877819013232
 20
374.97552302721448
 30
0.0
 11
222.87876818893571
 21
374.97552302721448
 31
0.0
  0
LINE
  5
1B9A9
  8
AM_0
 10
222.87876818893571
 20
377.70550302726917
 30
0.0
 11
282.69877819013232
 21
377.70550302726917
 31
0.0
  0
LINE
  5
1B9AA
  8
AM_0
 10
188.87876818825561
 20
387.3155230274615
 30
0.0
 11
282.69877819013232
 21
387.3155230274615
 31
0.0
  0
LINE
  5
1B9AB
  8
AM_0
 10
222.87876818893571
 20
402.83551302777158
 30
0.0
 11
282.69877819013232
 21
402.83551302777158
 31
0.0
  0
LINE
  5
1B9AC
  8
AM_0
 10
251.37876818950571
 20
374.34552302720198
 30
0.0
 11
222.87876818893571
 21
374.34552302720198
 31
0.0
  0
ARC
  5
1B9AD
  8
AM_0
 10
220.32751485860041
 20
365.97552299643962
 30
0.0
 40
1.0000380000199991
 50
269.50071000000491
 51
90.499284000006355
  0
ARC
  5
1B9AE
  8
AM_0
 10
268.37876818984569
 20
373.34552302718191
 30
0.0
 40
1.00000000002
 50
90.0
 51
180.0
1001
GENIUS_GENOBJ-N-FIL_13
1002
{
1000
OWNER
1000
GEN
1002
}
1001
GENIUS_GENODEF_13
1002
{
1000
HIER
1070
     0
1002
}
1002
{
1000
MANEDIT
1070
     0
1002
}
1002
{
1000
NOSEL
1070
     0
1002
}
1002
{
1000
BEHIND
1070
     0
1002
}
1002
{
1000
OTHER
1070
     0
1002
}
1002
{
1000
REACTOR
1002
}
  0
ARC
  5
1B9AF
  8
AM_0
 10
251.37876818950571
 20
373.34552302718191
 30
0.0
 40
1.00000000002
 50
0.0
 51
90.0
1001
GENIUS_GENOBJ-N-FIL_13
1002
{
1000
OWNER
1000
GEN
1002
}
1001
GENIUS_GENODEF_13
1002
{
1000
HIER
1070
     0
1002
}
1002
{
1000
MANEDIT
1070
     0
1002
}
1002
{
1000
NOSEL
1070
     0
1002
}
1002
{
1000
BEHIND
1070
     0
1002
}
1002
{
1000
OTHER
1070
     0
1002
}
1002
{
1000
REACTOR
1002
}
  0
LINE
  5
1B9B0
  8
AM_0
 10
252.37876818952569
 20
367.97552302707447
 30
0.0
 11
252.37876818952569
 21
373.34552302718191
 31
0.0
  0
CIRCLE
  5
1B9B1
  8
AM_0
 10
257.3787681896257
 20
369.47555302710452
 30
0.0
 40
0.750000000015
  0
ARC
  5
1B9B2
  8
AM_0
 10
251.37876818950571
 20
367.97552302707447
 30
0.0
 40
1.00000000002
 50
270.0
 51
0.0
1001
GENIUS_GENOBJ-N-FIL_13
1002
{
1000
OWNER
1000
GEN
1002
}
1001
GENIUS_GENODEF_13
1002
{
1000
HIER
1070
     0
1002
}
1002
{
1000
MANEDIT
1070
     0
1002
}
1002
{
1000
NOSEL
1070
     0
1002
}
1002
{
1000
BEHIND
1070
     0
1002
}
1002
{
1000
OTHER
1070
     0
1002
}
1002
{
1000
REACTOR
1002
}
  0
LINE
  5
1B9B3
  8
AM_0
 10
267.37876818982591
 20
367.97552302707447
 30
0.0
 11
267.37876818982591
 21
373.34552302718191
 31
0.0
  0
ARC
  5
1B9B4
  8
AM_0
 10
268.37876818984569
 20
367.97552302707447
 30
0.0
 40
1.00000000002
 50
180.0
 51
270.0
1001
GENIUS_GENOBJ-N-FIL_13
1002
{
1000
OWNER
1000
GEN
1002
}
1001
GENIUS_GENODEF_13
1002
{
1000
HIER
1070
     0
1002
}
1002
{
1000
MANEDIT
1070
     0
1002
}
1002
{
1000
NOSEL
1070
     0
1002
}
1002
{
1000
BEHIND
1070
     0
1002
}
1002
{
1000
OTHER
1070
     0
1002
}
1002
{
1000
REACTOR
1002
}
  0
CIRCLE
  5
1B9B5
  8
AM_0
 10
262.37876818972569
 20
369.47555302710452
 30
0.0
 40
0.750000000015
  0
LINE
  5
1B9B6
  8
AM_0
 10
267.37876818982591
 20
374.34552302720198
 30
0.0
 11
252.37876818952569
 21
374.34552302720198
 31
0.0
  0
LINE
  5
1B9B7
  8
AM_0
 10
311.87876819071562
 20
402.4755430277645
 30
0.0
 11
336.03812875848229
 21
402.47554302776399
 31
0.0
  0
ARC
  5
1B9B8
  8
AM_0
 10
289.5396281902689
 20
388.80230302749118
 30
0.0
 40
1.4868059000297349
 50
194.28273999999931
 51
243.61022000000091
  0
LINE
  5
1B9B9
  8
AM_0
 10
288.87876819025558
 20
387.85815302747221
 30
0.0
 11
287.8787681902358
 21
388.43551302748381
 31
0.0
  0
LINE
  5
1B9BA
  8
AM_0
 10
285.27878819018377
 20
385.83551302743177
 30
0.0
 11
285.27878819018377
 21
389.43551302750382
 31
0.0
  0
LINE
  5
1B9BB
  8
AM_0
 10
287.8787681902358
 20
383.83551302739181
 30
0.0
 11
287.8787681902358
 21
391.43551302754372
 31
0.0
  0
LINE
  5
1B9BC
  8
AM_0
 10
288.87876819025558
 20
383.83551302739181
 30
0.0
 11
288.87876819025558
 21
391.43551302754372
 31
0.0
  0
LINE
  5
1B9BD
  8
AM_0
 10
289.87876819027559
 20
378.11550302727733
 30
0.0
 11
297.87876819043572
 21
378.11550302727733
 31
0.0
  0
ARC
  5
1B9BE
  8
AM_0
 10
286.89355422438121
 20
366.00060302703503
 30
0.0
 40
1.465000400029298
 50
270.0
 51
89.999997000002296
  0
ARC
  5
1B9BF
  8
AM_0
 10
285.80355422435952
 20
365.97558302703447
 30
0.0
 40
1.0000032000200001
 50
270.0
 51
89.999997000002296
  0
LINE
  5
1B9C0
  8
AM_0
 10
282.69877819013232
 20
387.3155230274615
 30
0.0
 11
285.27878819018377
 21
387.3155230274615
 31
0.0
  0
LINE
  5
1B9C1
  8
AM_0
 10
287.8787681902358
 20
384.13552302739782
 30
0.0
 11
286.97876819021781
 21
384.13552302739782
 31
0.0
  0
LINE
  5
1B9C2
  8
AM_0
 10
287.8787681902358
 20
383.83551302739181
 30
0.0
 11
288.87876819025558
 21
383.83551302739181
 31
0.0
  0
LINE
  5
1B9C3
  8
AM_0
 10
283.2187881901425
 20
376.97552302725472
 30
0.0
 11
282.69877819013232
 21
376.97552302725472
 31
0.0
  0
LINE
  5
1B9C4
  8
AM_0
 10
282.69877819013232
 20
377.70550302726917
 30
0.0
 11
288.87876798851511
 21
377.70550302726917
 31
0.0
  0
ARC
  5
1B9C5
  8
AM_0
 10
286.97876819021781
 20
385.83551302743177
 30
0.0
 40
1.6999969000339989
 50
180.00001999999549
 51
269.99999700000228
  0
LINE
  5
1B9C6
  8
AM_0
 10
288.87876819025558
 20
386.85815302745209
 30
0.0
 11
287.8787681902358
 21
387.4354830274637
 31
0.0
  0
LINE
  5
1B9C7
  8
AM_0
 10
283.2187881901425
 20
374.97552302721448
 30
0.0
 11
282.69877819013232
 21
374.97552302721448
 31
0.0
  0
LINE
  5
1B9C8
  8
AM_0
 10
286.69877819021212
 20
374.34552302720198
 30
0.0
 11
282.69877819013232
 21
374.34552302720198
 31
0.0
  0
ARC
  5
1B9C9
  8
AM_0
 10
283.2187881901425
 20
375.97552302723449
 30
0.0
 40
1.0000074000200001
 50
269.99999700000228
 51
90.0
  0
ARC
  5
1B9CA
  8
AM_0
 10
286.69266819021198
 20
376.02551302723572
 30
0.0
 40
1.680011000033599
 50
270.20803099999961
 51
89.791970000001896
  0
LINE
  5
1B9CB
  8
AM_0
 10
297.87876819043572
 20
378.11553302727731
 30
0.0
 11
307.87876819063581
 21
378.11553302727731
 31
0.0
  0
LINE
  5
1B9CC
  8
AM_0
 10
289.87769293507017
 20
404.9755130278146
 30
0.0
 11
297.87876819043572
 21
404.9755130278146
 31
0.0
  0
LINE
  5
1B9CD
  8
AM_0
 10
289.87876819027559
 20
393.01551302757531
 30
0.0
 11
297.87876819043572
 21
393.01551302757531
 31
0.0
  0
ARC
  5
1B9CE
  8
AM_0
 10
282.6891281901319
 20
400.81852302773132
 30
0.0
 40
2.0170178000403398
 50
14.851600000001349
 51
89.726300000003775
  0
LINE
  5
1B9CF
  8
AM_0
 10
284.63877819043569
 20
405.37552302653398
 30
0.0
 11
286.19393064964441
 21
399.57740287786578
 31
0.0
  0
LINE
  5
1B9D0
  8
AM_0
 10
284.63877819043569
 20
403.355523026534
 30
0.0
 11
287.28825733181122
 21
393.47739287786573
 31
0.0
  0
LINE
  5
1B9D1
  8
AM_0
 10
284.63877819043569
 20
404.71552302653407
 30
0.0
 11
286.56407233181119
 21
397.5373928778659
 31
0.0
  0
LINE
  5
1B9D2
  8
AM_0
 10
285.68482587260218
 20
401.47551302653432
 30
0.0
 11
288.87876793937539
 21
401.47551302653432
 31
0.0
  0
LINE
  5
1B9D3
  8
AM_0
 10
286.41437252376898
 20
398.09552302653441
 30
0.0
 11
288.1256530705794
 21
398.09552302653441
 31
0.0
  0
ARC
  5
1B9D4
  8
AM_0
 10
289.88718819027582
 20
392.00711302755508
 30
0.0
 40
1.0084445000201681
 50
90.477799999999576
 51
170.45392999999629
  0
LINE
  5
1B9D5
  8
AM_0
 10
287.8787681902358
 20
391.13551302753768
 30
0.0
 11
286.97876819021781
 21
391.13551302753768
 31
0.0
  0
LINE
  5
1B9D6
  8
AM_0
 10
287.8787681902358
 20
391.43551302754372
 30
0.0
 11
288.87876819025558
 21
391.43551302754372
 31
0.0
  0
LINE
  5
1B9D7
  8
AM_0
 10
287.14392453926888
 20
391.99551302653418
 30
0.0
 11
288.87876795904532
 21
391.99551302653452
 31
0.0
  0
ARC
  5
1B9D8
  8
AM_0
 10
289.21997975274621
 20
393.99551302653441
 30
0.0
 40
2.0
 50
195.01429759842071
 51
260.17695096027899
1001
GENIUS_GENOBJ-N-FIL_13
1002
{
1000
OWNER
1000
GEN
1002
}
1001
GENIUS_GENODEF_13
1002
{
1000
HIER
1070
     0
1002
}
1002
{
1000
MANEDIT
1070
     0
1002
}
1002
{
1000
NOSEL
1070
     0
1002
}
1002
{
1000
BEHIND
1070
     0
1002
}
1002
{
1000
OTHER
1070
     0
1002
}
1002
{
1000
REACTOR
1002
}
  0
LINE
  5
1B9D9
  8
AM_0
 10
286.59676253926898
 20
396.05551302653441
 30
0.0
 11
288.49579475274618
 21
396.05551302653441
 31
0.0
  0
ARC
  5
1B9DA
  8
AM_0
 10
288.49579475274618
 20
398.05551302653419
 30
0.0
 40
2.0
 50
195.01429759842071
 51
270.0
1001
GENIUS_GENODEF_13
1002
{
1000
HIER
1070
     0
1002
}
1002
{
1000
MANEDIT
1070
     0
1002
}
1002
{
1000
NOSEL
1070
     0
1002
}
1002
{
1000
BEHIND
1070
     0
1002
}
1002
{
1000
OTHER
1070
     0
1002
}
1002
{
1000
REACTOR
1002
}
1001
GENIUS_GENOBJ-N-FIL_13
1002
{
1000
OWNER
1000
GEN
1002
}
  0
ARC
  5
1B9DB
  8
AM_0
 10
286.97876819021781
 20
389.43551302750382
 30
0.0
 40
1.700000800033999
 50
90.000020000002024
 51
179.999989999999
  0
LINE
  5
1B9DC
  8
AM_0
 10
284.6387781901708
 20
401.33552302774177
 30
0.0
 11
287.3745881902255
 21
391.13552302753777
 31
0.0
  0
ARC
  5
1B9DD
  8
AM_0
 10
288.1256530705794
 20
400.09552302653429
 30
0.0
 40
2.0
 50
195.01429759842071
 51
270.0
1001
GENIUS_GENOBJ-N-FIL_13
1002
{
1000
OWNER
1000
GEN
1002
}
1001
GENIUS_GENODEF_13
1002
{
1000
HIER
1070
     0
1002
}
1002
{
1000
MANEDIT
1070
     0
1002
}
1002
{
1000
NOSEL
1070
     0
1002
}
1002
{
1000
BEHIND
1070
     0
1002
}
1002
{
1000
OTHER
1070
     0
1002
}
1002
{
1000
REACTOR
1002
}
  0
ARC
  5
1B9DE
  8
AM_0
 10
289.88785819027589
 20
403.96643302779421
 30
0.0
 40
1.0091312000201811
 50
90.51612999999962
 51
179.48387000000039
  0
ARC
  5
1B9DF
  8
AM_0
 10
282.68912819043572
 20
404.19852302653442
 30
0.0
 40
2.0170177999999992
 50
14.851600000001349
 51
89.726300000003775
  0
ARC
  5
1B9E0
  8
AM_0
 10
282.68912819043572
 20
402.83852302653429
 30
0.0
 40
2.0170177999999992
 50
14.851600000001349
 51
89.726300000003775
  0
ARC
  5
1B9E1
  8
AM_0
 10
282.68912819043572
 20
404.85852302653427
 30
0.0
 40
2.0170177999999992
 50
14.851600000001349
 51
89.726300000003775
  0
ARC
  5
1B9E2
  8
AM_0
 10
311.87876819071562
 20
405.47554302782459
 30
0.0
 40
3.00000000006
 50
215.68533471265869
 51
270.0
1001
GENIUS_GENOBJ-N-FIL_13
1002
{
1000
OWNER
1000
GEN
1002
}
1001
GENIUS_GENODEF_13
1002
{
1000
HIER
1070
     0
1002
}
1002
{
1000
MANEDIT
1070
     0
1002
}
1002
{
1000
NOSEL
1070
     0
1002
}
1002
{
1000
BEHIND
1070
     0
1002
}
1002
{
1000
OTHER
1070
     0
1002
}
1002
{
1000
REACTOR
1002
}
  0
LINE
  5
1B9E3
  8
AM_0
 10
297.87876819043572
 20
393.01554302757518
 30
0.0
 11
307.87876819063581
 21
393.01554302757518
 31
0.0
  0
LINE
  5
1B9E4
  8
AM_0
 10
297.87876819043572
 20
404.97554302781441
 30
0.0
 11
307.00537101821368
 21
404.97554302781441
 31
0.0
  0
ARC
  5
1B9E5
  8
AM_0
 10
307.00537101821368
 20
401.97554302775438
 30
0.0
 40
3.00000000006
 50
35.685334712658687
 51
90.0
1001
GENIUS_GENOBJ-N-FIL_13
1002
{
1000
OWNER
1000
GEN
1002
}
1001
GENIUS_GENODEF_13
1002
{
1000
HIER
1070
     0
1002
}
1002
{
1000
MANEDIT
1070
     0
1002
}
1002
{
1000
NOSEL
1070
     0
1002
}
1002
{
1000
BEHIND
1070
     0
1002
}
1002
{
1000
OTHER
1070
     0
1002
}
1002
{
1000
REACTOR
1002
}
  0
POLYLINE
  5
1B9E6
  8
AM_0
 10
346.87876884706634
 20
387.97649442821199
 30
0.0
 66
     1
 70
     8
  0
VERTEX
  8
AM_0
  5
1D21A
 10
346.879
 20
387.976
 30
0.000000
  70
    32
  0
VERTEX
  8
AM_0
  5
1D21B
 10
346.870
 20
388.320
 30
0.000000
  70
    32
  0
VERTEX
  8
AM_0
  5
1D21C
 10
346.845
 20
388.663
 30
0.000000
  70
    32
  0
VERTEX
  8
AM_0
  5
1D21D
 10
346.803
 20
389.004
 30
0.000000
  70
    32
  0
VERTEX
  8
AM_0
  5
1D21E
 10
346.744
 20
389.342
 30
0.000000
  70
    32
  0
VERTEX
  8
AM_0
  5
1D21F
 10
346.669
 20
389.677
 30
0.000000
  70
    32
  0
VERTEX
  8
AM_0
  5
1D220
 10
346.577
 20
390.009
 30
0.000000
  70
    32
  0
VERTEX
  8
AM_0
  5
1D221
 10
346.470
 20
390.335
 30
0.000000
  70
    32
  0
VERTEX
  8
AM_0
  5
1D222
 10
346.346
 20
390.655
 30
0.000000
  70
    32
  0
VERTEX
  8
AM_0
  5
1D223
 10
346.207
 20
390.969
 30
0.000000
  70
    32
  0
VERTEX
  8
AM_0
  5
1D224
 10
346.052
 20
391.276
 30
0.000000
  70
    32
  0
VERTEX
  8
AM_0
  5
1D225
 10
345.883
 20
391.575
 30
0.000000
  70
    32
  0
VERTEX
  8
AM_0
  5
1D226
 10
345.699
 20
391.866
 30
0.000000
  70
    32
  0
VERTEX
  8
AM_0
  5
1D227
 10
345.501
 20
392.146
 30
0.000000
  70
    32
  0
VERTEX
  8
AM_0
  5
1D228
 10
345.290
 20
392.417
 30
0.000000
  70
    32
  0
VERTEX
  8
AM_0
  5
1D229
 10
345.065
 20
392.678
 30
0.000000
  70
    32
  0
VERTEX
  8
AM_0
  5
1D22A
 10
344.829
 20
392.926
 30
0.000000
  70
    32
  0
VERTEX
  8
AM_0
  5
1D22B
 10
344.580
 20
393.163
 30
0.000000
  70
    32
  0
VERTEX
  8
AM_0
  5
1D22C
 10
344.320
 20
393.388
 30
0.000000
  70
    32
  0
VERTEX
  8
AM_0
  5
1D22D
 10
344.049
 20
393.599
 30
0.000000
  70
    32
  0
VERTEX
  8
AM_0
  5
1D22E
 10
343.768
 20
393.797
 30
0.000000
  70
    32
  0
VERTEX
  8
AM_0
  5
1D22F
 10
343.477
 20
393.981
 30
0.000000
  70
    32
  0
VERTEX
  8
AM_0
  5
1D230
 10
343.179
 20
394.150
 30
0.000000
  70
    32
  0
VERTEX
  8
AM_0
  5
1D231
 10
342.872
 20
394.305
 30
0.000000
  70
    32
  0
VERTEX
  8
AM_0
  5
1D232
 10
342.558
 20
394.444
 30
0.000000
  70
    32
  0
VERTEX
  8
AM_0
  5
1D233
 10
342.237
 20
394.567
 30
0.000000
  70
    32
  0
VERTEX
  8
AM_0
  5
1D234
 10
341.911
 20
394.675
 30
0.000000
  70
    32
  0
VERTEX
  8
AM_0
  5
1D235
 10
341.580
 20
394.767
 30
0.000000
  70
    32
  0
VERTEX
  8
AM_0
  5
1D236
 10
341.244
 20
394.842
 30
0.000000
  70
    32
  0
VERTEX
  8
AM_0
  5
1D237
 10
340.906
 20
394.901
 30
0.000000
  70
    32
  0
VERTEX
  8
AM_0
  5
1D238
 10
340.565
 20
394.943
 30
0.000000
  70
    32
  0
VERTEX
  8
AM_0
  5
1D239
 10
340.222
 20
394.968
 30
0.000000
  70
    32
  0
VERTEX
  8
AM_0
  5
1D23A
 10
339.879
 20
394.977
 30
0.000000
  70
    32
  0
VERTEX
  8
AM_0
  5
1D23B
 10
339.535
 20
394.968
 30
0.000000
  70
    32
  0
VERTEX
  8
AM_0
  5
1D23C
 10
339.193
 20
394.943
 30
0.000000
  70
    32
  0
VERTEX
  8
AM_0
  5
1D23D
 10
338.852
 20
394.901
 30
0.000000
  70
    32
  0
VERTEX
  8
AM_0
  5
1D23E
 10
338.513
 20
394.842
 30
0.000000
  70
    32
  0
VERTEX
  8
AM_0
  5
1D23F
 10
338.178
 20
394.767
 30
0.000000
  70
    32
  0
VERTEX
  8
AM_0
  5
1D240
 10
337.847
 20
394.675
 30
0.000000
  70
    32
  0
VERTEX
  8
AM_0
  5
1D241
 10
337.521
 20
394.567
 30
0.000000
  70
    32
  0
VERTEX
  8
AM_0
  5
1D242
 10
337.200
 20
394.444
 30
0.000000
  70
    32
  0
VERTEX
  8
AM_0
  5
1D243
 10
336.886
 20
394.305
 30
0.000000
  70
    32
  0
VERTEX
  8
AM_0
  5
1D244
 10
336.579
 20
394.150
 30
0.000000
  70
    32
  0
VERTEX
  8
AM_0
  5
1D245
 10
336.280
 20
393.981
 30
0.000000
  70
    32
  0
VERTEX
  8
AM_0
  5
1D246
 10
335.990
 20
393.797
 30
0.000000
  70
    32
  0
VERTEX
  8
AM_0
  5
1D247
 10
335.709
 20
393.599
 30
0.000000
  70
    32
  0
VERTEX
  8
AM_0
  5
1D248
 10
335.438
 20
393.388
 30
0.000000
  70
    32
  0
VERTEX
  8
AM_0
  5
1D249
 10
335.178
 20
393.163
 30
0.000000
  70
    32
  0
VERTEX
  8
AM_0
  5
1D24A
 10
334.929
 20
392.926
 30
0.000000
  70
    32
  0
VERTEX
  8
AM_0
  5
1D24B
 10
334.692
 20
392.678
 30
0.000000
  70
    32
  0
VERTEX
  8
AM_0
  5
1D24C
 10
334.468
 20
392.417
 30
0.000000
  70
    32
  0
VERTEX
  8
AM_0
  5
1D24D
 10
334.256
 20
392.146
 30
0.000000
  70
    32
  0
VERTEX
  8
AM_0
  5
1D24E
 10
334.058
 20
391.866
 30
0.000000
  70
    32
  0
VERTEX
  8
AM_0
  5
1D24F
 10
333.875
 20
391.575
 30
0.000000
  70
    32
  0
VERTEX
  8
AM_0
  5
1D250
 10
333.705
 20
391.276
 30
0.000000
  70
    32
  0
VERTEX
  8
AM_0
  5
1D251
 10
333.551
 20
390.969
 30
0.000000
  70
    32
  0
VERTEX
  8
AM_0
  5
1D252
 10
333.412
 20
390.655
 30
0.000000
  70
    32
  0
VERTEX
  8
AM_0
  5
1D253
 10
333.288
 20
390.335
 30
0.000000
  70
    32
  0
VERTEX
  8
AM_0
  5
1D254
 10
333.180
 20
390.009
 30
0.000000
  70
    32
  0
VERTEX
  8
AM_0
  5
1D255
 10
333.089
 20
389.677
 30
0.000000
  70
    32
  0
VERTEX
  8
AM_0
  5
1D256
 10
333.013
 20
389.342
 30
0.000000
  70
    32
  0
VERTEX
  8
AM_0
  5
1D257
 10
332.955
 20
389.004
 30
0.000000
  70
    32
  0
VERTEX
  8
AM_0
  5
1D258
 10
332.912
 20
388.663
 30
0.000000
  70
    32
  0
VERTEX
  8
AM_0
  5
1D259
 10
332.887
 20
388.320
 30
0.000000
  70
    32
  0
VERTEX
  8
AM_0
  5
1D25A
 10
332.879
 20
387.976
 30
0.000000
  70
    32
  0
VERTEX
  8
AM_0
  5
1D25B
 10
332.887
 20
387.633
 30
0.000000
  70
    32
  0
VERTEX
  8
AM_0
  5
1D25C
 10
332.912
 20
387.290
 30
0.000000
  70
    32
  0
VERTEX
  8
AM_0
  5
1D25D
 10
332.955
 20
386.949
 30
0.000000
  70
    32
  0
VERTEX
  8
AM_0
  5
1D25E
 10
333.013
 20
386.611
 30
0.000000
  70
    32
  0
VERTEX
  8
AM_0
  5
1D25F
 10
333.089
 20
386.276
 30
0.000000
  70
    32
  0
VERTEX
  8
AM_0
  5
1D260
 10
333.180
 20
385.944
 30
0.000000
  70
    32
  0
VERTEX
  8
AM_0
  5
1D261
 10
333.288
 20
385.618
 30
0.000000
  70
    32
  0
VERTEX
  8
AM_0
  5
1D262
 10
333.412
 20
385.298
 30
0.000000
  70
    32
  0
VERTEX
  8
AM_0
  5
1D263
 10
333.551
 20
384.984
 30
0.000000
  70
    32
  0
VERTEX
  8
AM_0
  5
1D264
 10
333.705
 20
384.677
 30
0.000000
  70
    32
  0
VERTEX
  8
AM_0
  5
1D265
 10
333.875
 20
384.378
 30
0.000000
  70
    32
  0
VERTEX
  8
AM_0
  5
1D266
 10
334.058
 20
384.087
 30
0.000000
  70
    32
  0
VERTEX
  8
AM_0
  5
1D267
 10
334.256
 20
383.807
 30
0.000000
  70
    32
  0
VERTEX
  8
AM_0
  5
1D268
 10
334.468
 20
383.536
 30
0.000000
  70
    32
  0
VERTEX
  8
AM_0
  5
1D269
 10
334.692
 20
383.275
 30
0.000000
  70
    32
  0
VERTEX
  8
AM_0
  5
1D26A
 10
334.929
 20
383.027
 30
0.000000
  70
    32
  0
VERTEX
  8
AM_0
  5
1D26B
 10
335.178
 20
382.790
 30
0.000000
  70
    32
  0
VERTEX
  8
AM_0
  5
1D26C
 10
335.438
 20
382.565
 30
0.000000
  70
    32
  0
VERTEX
  8
AM_0
  5
1D26D
 10
335.709
 20
382.354
 30
0.000000
  70
    32
  0
VERTEX
  8
AM_0
  5
1D26E
 10
335.990
 20
382.156
 30
0.000000
  70
    32
  0
VERTEX
  8
AM_0
  5
1D26F
 10
336.280
 20
381.972
 30
0.000000
  70
    32
  0
VERTEX
  8
AM_0
  5
1D270
 10
336.579
 20
381.803
 30
0.000000
  70
    32
  0
VERTEX
  8
AM_0
  5
1D271
 10
336.886
 20
381.648
 30
0.000000
  70
    32
  0
VERTEX
  8
AM_0
  5
1D272
 10
337.200
 20
381.509
 30
0.000000
  70
    32
  0
VERTEX
  8
AM_0
  5
1D273
 10
337.521
 20
381.386
 30
0.000000
  70
    32
  0
VERTEX
  8
AM_0
  5
1D274
 10
337.847
 20
381.278
 30
0.000000
  70
    32
  0
VERTEX
  8
AM_0
  5
1D275
 10
338.178
 20
381.186
 30
0.000000
  70
    32
  0
VERTEX
  8
AM_0
  5
1D276
 10
338.513
 20
381.111
 30
0.000000
  70
    32
  0
VERTEX
  8
AM_0
  5
1D277
 10
338.852
 20
381.052
 30
0.000000
  70
    32
  0
VERTEX
  8
AM_0
  5
1D278
 10
339.193
 20
381.010
 30
0.000000
  70
    32
  0
VERTEX
  8
AM_0
  5
1D279
 10
339.535
 20
380.985
 30
0.000000
  70
    32
  0
VERTEX
  8
AM_0
  5
1D27A
 10
339.879
 20
380.976
 30
0.000000
  70
    32
  0
VERTEX
  8
AM_0
  5
1D27B
 10
340.222
 20
380.985
 30
0.000000
  70
    32
  0
VERTEX
  8
AM_0
  5
1D27C
 10
340.565
 20
381.010
 30
0.000000
  70
    32
  0
VERTEX
  8
AM_0
  5
1D27D
 10
340.906
 20
381.052
 30
0.000000
  70
    32
  0
VERTEX
  8
AM_0
  5
1D27E
 10
341.244
 20
381.111
 30
0.000000
  70
    32
  0
VERTEX
  8
AM_0
  5
1D27F
 10
341.580
 20
381.186
 30
0.000000
  70
    32
  0
VERTEX
  8
AM_0
  5
1D280
 10
341.911
 20
381.278
 30
0.000000
  70
    32
  0
VERTEX
  8
AM_0
  5
1D281
 10
342.237
 20
381.386
 30
0.000000
  70
    32
  0
VERTEX
  8
AM_0
  5
1D282
 10
342.558
 20
381.509
 30
0.000000
  70
    32
  0
VERTEX
  8
AM_0
  5
1D283
 10
342.872
 20
381.648
 30
0.000000
  70
    32
  0
VERTEX
  8
AM_0
  5
1D284
 10
343.179
 20
381.803
 30
0.000000
  70
    32
  0
VERTEX
  8
AM_0
  5
1D285
 10
343.477
 20
381.972
 30
0.000000
  70
    32
  0
VERTEX
  8
AM_0
  5
1D286
 10
343.768
 20
382.156
 30
0.000000
  70
    32
  0
VERTEX
  8
AM_0
  5
1D287
 10
344.049
 20
382.354
 30
0.000000
  70
    32
  0
VERTEX
  8
AM_0
  5
1D288
 10
344.320
 20
382.565
 30
0.000000
  70
    32
  0
VERTEX
  8
AM_0
  5
1D289
 10
344.580
 20
382.790
 30
0.000000
  70
    32
  0
VERTEX
  8
AM_0
  5
1D28A
 10
344.829
 20
383.027
 30
0.000000
  70
    32
  0
VERTEX
  8
AM_0
  5
1D28B
 10
345.065
 20
383.275
 30
0.000000
  70
    32
  0
VERTEX
  8
AM_0
  5
1D28C
 10
345.290
 20
383.536
 30
0.000000
  70
    32
  0
VERTEX
  8
AM_0
  5
1D28D
 10
345.501
 20
383.807
 30
0.000000
  70
    32
  0
VERTEX
  8
AM_0
  5
1D28E
 10
345.699
 20
384.087
 30
0.000000
  70
    32
  0
VERTEX
  8
AM_0
  5
1D28F
 10
345.883
 20
384.378
 30
0.000000
  70
    32
  0
VERTEX
  8
AM_0
  5
1D290
 10
346.052
 20
384.677
 30
0.000000
  70
    32
  0
VERTEX
  8
AM_0
  5
1D291
 10
346.207
 20
384.984
 30
0.000000
  70
    32
  0
VERTEX
  8
AM_0
  5
1D292
 10
346.346
 20
385.298
 30
0.000000
  70
    32
  0
VERTEX
  8
AM_0
  5
1D293
 10
346.470
 20
385.618
 30
0.000000
  70
    32
  0
VERTEX
  8
AM_0
  5
1D294
 10
346.577
 20
385.944
 30
0.000000
  70
    32
  0
VERTEX
  8
AM_0
  5
1D295
 10
346.669
 20
386.276
 30
0.000000
  70
    32
  0
VERTEX
  8
AM_0
  5
1D296
 10
346.744
 20
386.611
 30
0.000000
  70
    32
  0
VERTEX
  8
AM_0
  5
1D297
 10
346.803
 20
386.949
 30
0.000000
  70
    32
  0
VERTEX
  8
AM_0
  5
1D298
 10
346.845
 20
387.290
 30
0.000000
  70
    32
  0
VERTEX
  8
AM_0
  5
1D299
 10
346.870
 20
387.633
 30
0.000000
  70
    32
  0
VERTEX
  8
AM_0
  5
1D29A
 10
346.879
 20
387.976
 30
0.000000
  70
    32
  0
SEQEND
  8
AM_0
  5
1D29B
  0
LINE
  5
1B9E7
  8
ﾁｭｳｼﾝｾﾝ1
 10
339.87876863831008
 20
399.97673478608709
 30
0.0
 11
339.87876863831008
 21
375.97625407033712
 31
0.0
  0
ARC
  5
1B9E8
  8
AM_0
 10
320.45030254457362
 20
386.7042716655431
 30
0.0
 40
3.00000000006
 50
90.0
 51
173.3392856796832
1001
GENIUS_GENOBJ-N-FIL_13
1002
{
1000
OWNER
1000
GEN
1002
}
1001
GENIUS_GENODEF_13
1002
{
1000
HIER
1070
     0
1002
}
1002
{
1000
MANEDIT
1070
     0
1002
}
1002
{
1000
NOSEL
1070
     0
1002
}
1002
{
1000
BEHIND
1070
     0
1002
}
1002
{
1000
OTHER
1070
     0
1002
}
1002
{
1000
REACTOR
1002
}
  0
POLYLINE
  5
1B9E9
  8
AM_0
 10
339.87876798264
 20
402.97679487555575
 30
0.0
 66
     1
 70
     8
  0
VERTEX
  8
AM_0
  5
1D29C
 10
339.879
 20
402.977
 30
0.000000
  70
    32
  0
VERTEX
  8
AM_0
  5
1D29D
 10
339.695
 20
402.976
 30
0.000000
  70
    32
  0
VERTEX
  8
AM_0
  5
1D29E
 10
339.511
 20
402.972
 30
0.000000
  70
    32
  0
VERTEX
  8
AM_0
  5
1D29F
 10
339.327
 20
402.967
 30
0.000000
  70
    32
  0
VERTEX
  8
AM_0
  5
1D2A0
 10
339.143
 20
402.959
 30
0.000000
  70
    32
  0
VERTEX
  8
AM_0
  5
1D2A1
 10
338.959
 20
402.949
 30
0.000000
  70
    32
  0
VERTEX
  8
AM_0
  5
1D2A2
 10
338.775
 20
402.936
 30
0.000000
  70
    32
  0
VERTEX
  8
AM_0
  5
1D2A3
 10
338.592
 20
402.921
 30
0.000000
  70
    32
  0
VERTEX
  8
AM_0
  5
1D2A4
 10
338.409
 20
402.905
 30
0.000000
  70
    32
  0
VERTEX
  8
AM_0
  5
1D2A5
 10
338.225
 20
402.885
 30
0.000000
  70
    32
  0
VERTEX
  8
AM_0
  5
1D2A6
 10
338.043
 20
402.864
 30
0.000000
  70
    32
  0
VERTEX
  8
AM_0
  5
1D2A7
 10
337.860
 20
402.840
 30
0.000000
  70
    32
  0
VERTEX
  8
AM_0
  5
1D2A8
 10
337.678
 20
402.814
 30
0.000000
  70
    32
  0
VERTEX
  8
AM_0
  5
1D2A9
 10
337.496
 20
402.786
 30
0.000000
  70
    32
  0
VERTEX
  8
AM_0
  5
1D2AA
 10
337.314
 20
402.756
 30
0.000000
  70
    32
  0
VERTEX
  8
AM_0
  5
1D2AB
 10
337.133
 20
402.723
 30
0.000000
  70
    32
  0
VERTEX
  8
AM_0
  5
1D2AC
 10
336.952
 20
402.689
 30
0.000000
  70
    32
  0
VERTEX
  8
AM_0
  5
1D2AD
 10
336.772
 20
402.652
 30
0.000000
  70
    32
  0
VERTEX
  8
AM_0
  5
1D2AE
 10
336.592
 20
402.612
 30
0.000000
  70
    32
  0
VERTEX
  8
AM_0
  5
1D2AF
 10
336.413
 20
402.571
 30
0.000000
  70
    32
  0
VERTEX
  8
AM_0
  5
1D2B0
 10
336.234
 20
402.527
 30
0.000000
  70
    32
  0
VERTEX
  8
AM_0
  5
1D2B1
 10
336.056
 20
402.481
 30
0.000000
  70
    32
  0
VERTEX
  8
AM_0
  5
1D2B2
 10
335.878
 20
402.433
 30
0.000000
  70
    32
  0
VERTEX
  8
AM_0
  5
1D2B3
 10
335.701
 20
402.383
 30
0.000000
  70
    32
  0
VERTEX
  8
AM_0
  5
1D2B4
 10
335.524
 20
402.331
 30
0.000000
  70
    32
  0
VERTEX
  8
AM_0
  5
1D2B5
 10
335.349
 20
402.276
 30
0.000000
  70
    32
  0
VERTEX
  8
AM_0
  5
1D2B6
 10
335.174
 20
402.220
 30
0.000000
  70
    32
  0
VERTEX
  8
AM_0
  5
1D2B7
 10
334.999
 20
402.161
 30
0.000000
  70
    32
  0
VERTEX
  8
AM_0
  5
1D2B8
 10
334.825
 20
402.100
 30
0.000000
  70
    32
  0
VERTEX
  8
AM_0
  5
1D2B9
 10
334.652
 20
402.037
 30
0.000000
  70
    32
  0
VERTEX
  8
AM_0
  5
1D2BA
 10
334.480
 20
401.972
 30
0.000000
  70
    32
  0
VERTEX
  8
AM_0
  5
1D2BB
 10
334.309
 20
401.904
 30
0.000000
  70
    32
  0
VERTEX
  8
AM_0
  5
1D2BC
 10
334.139
 20
401.835
 30
0.000000
  70
    32
  0
VERTEX
  8
AM_0
  5
1D2BD
 10
333.969
 20
401.763
 30
0.000000
  70
    32
  0
VERTEX
  8
AM_0
  5
1D2BE
 10
333.800
 20
401.690
 30
0.000000
  70
    32
  0
VERTEX
  8
AM_0
  5
1D2BF
 10
333.632
 20
401.614
 30
0.000000
  70
    32
  0
VERTEX
  8
AM_0
  5
1D2C0
 10
333.465
 20
401.537
 30
0.000000
  70
    32
  0
VERTEX
  8
AM_0
  5
1D2C1
 10
333.300
 20
401.457
 30
0.000000
  70
    32
  0
VERTEX
  8
AM_0
  5
1D2C2
 10
333.135
 20
401.375
 30
0.000000
  70
    32
  0
VERTEX
  8
AM_0
  5
1D2C3
 10
332.971
 20
401.291
 30
0.000000
  70
    32
  0
VERTEX
  8
AM_0
  5
1D2C4
 10
332.808
 20
401.206
 30
0.000000
  70
    32
  0
VERTEX
  8
AM_0
  5
1D2C5
 10
332.646
 20
401.118
 30
0.000000
  70
    32
  0
VERTEX
  8
AM_0
  5
1D2C6
 10
332.485
 20
401.028
 30
0.000000
  70
    32
  0
VERTEX
  8
AM_0
  5
1D2C7
 10
332.326
 20
400.936
 30
0.000000
  70
    32
  0
VERTEX
  8
AM_0
  5
1D2C8
 10
332.167
 20
400.843
 30
0.000000
  70
    32
  0
VERTEX
  8
AM_0
  5
1D2C9
 10
332.010
 20
400.747
 30
0.000000
  70
    32
  0
VERTEX
  8
AM_0
  5
1D2CA
 10
331.854
 20
400.650
 30
0.000000
  70
    32
  0
VERTEX
  8
AM_0
  5
1D2CB
 10
331.699
 20
400.550
 30
0.000000
  70
    32
  0
VERTEX
  8
AM_0
  5
1D2CC
 10
331.545
 20
400.449
 30
0.000000
  70
    32
  0
VERTEX
  8
AM_0
  5
1D2CD
 10
331.393
 20
400.346
 30
0.000000
  70
    32
  0
VERTEX
  8
AM_0
  5
1D2CE
 10
331.242
 20
400.241
 30
0.000000
  70
    32
  0
VERTEX
  8
AM_0
  5
1D2CF
 10
331.092
 20
400.134
 30
0.000000
  70
    32
  0
VERTEX
  8
AM_0
  5
1D2D0
 10
330.943
 20
400.025
 30
0.000000
  70
    32
  0
VERTEX
  8
AM_0
  5
1D2D1
 10
330.796
 20
399.914
 30
0.000000
  70
    32
  0
VERTEX
  8
AM_0
  5
1D2D2
 10
330.650
 20
399.802
 30
0.000000
  70
    32
  0
VERTEX
  8
AM_0
  5
1D2D3
 10
330.506
 20
399.688
 30
0.000000
  70
    32
  0
VERTEX
  8
AM_0
  5
1D2D4
 10
330.363
 20
399.572
 30
0.000000
  70
    32
  0
VERTEX
  8
AM_0
  5
1D2D5
 10
330.221
 20
399.454
 30
0.000000
  70
    32
  0
VERTEX
  8
AM_0
  5
1D2D6
 10
330.081
 20
399.335
 30
0.000000
  70
    32
  0
VERTEX
  8
AM_0
  5
1D2D7
 10
329.943
 20
399.214
 30
0.000000
  70
    32
  0
VERTEX
  8
AM_0
  5
1D2D8
 10
329.805
 20
399.091
 30
0.000000
  70
    32
  0
VERTEX
  8
AM_0
  5
1D2D9
 10
329.670
 20
398.967
 30
0.000000
  70
    32
  0
VERTEX
  8
AM_0
  5
1D2DA
 10
329.536
 20
398.840
 30
0.000000
  70
    32
  0
VERTEX
  8
AM_0
  5
1D2DB
 10
329.403
 20
398.713
 30
0.000000
  70
    32
  0
VERTEX
  8
AM_0
  5
1D2DC
 10
329.272
 20
398.583
 30
0.000000
  70
    32
  0
VERTEX
  8
AM_0
  5
1D2DD
 10
329.143
 20
398.452
 30
0.000000
  70
    32
  0
VERTEX
  8
AM_0
  5
1D2DE
 10
329.015
 20
398.320
 30
0.000000
  70
    32
  0
VERTEX
  8
AM_0
  5
1D2DF
 10
328.889
 20
398.186
 30
0.000000
  70
    32
  0
VERTEX
  8
AM_0
  5
1D2E0
 10
328.765
 20
398.050
 30
0.000000
  70
    32
  0
VERTEX
  8
AM_0
  5
1D2E1
 10
328.642
 20
397.913
 30
0.000000
  70
    32
  0
VERTEX
  8
AM_0
  5
1D2E2
 10
328.521
 20
397.774
 30
0.000000
  70
    32
  0
VERTEX
  8
AM_0
  5
1D2E3
 10
328.401
 20
397.634
 30
0.000000
  70
    32
  0
VERTEX
  8
AM_0
  5
1D2E4
 10
328.284
 20
397.493
 30
0.000000
  70
    32
  0
VERTEX
  8
AM_0
  5
1D2E5
 10
328.168
 20
397.350
 30
0.000000
  70
    32
  0
VERTEX
  8
AM_0
  5
1D2E6
 10
328.054
 20
397.205
 30
0.000000
  70
    32
  0
VERTEX
  8
AM_0
  5
1D2E7
 10
327.941
 20
397.059
 30
0.000000
  70
    32
  0
VERTEX
  8
AM_0
  5
1D2E8
 10
327.831
 20
396.912
 30
0.000000
  70
    32
  0
VERTEX
  8
AM_0
  5
1D2E9
 10
327.722
 20
396.764
 30
0.000000
  70
    32
  0
VERTEX
  8
AM_0
  5
1D2EA
 10
327.615
 20
396.614
 30
0.000000
  70
    32
  0
VERTEX
  8
AM_0
  5
1D2EB
 10
327.510
 20
396.463
 30
0.000000
  70
    32
  0
VERTEX
  8
AM_0
  5
1D2EC
 10
327.407
 20
396.310
 30
0.000000
  70
    32
  0
VERTEX
  8
AM_0
  5
1D2ED
 10
327.305
 20
396.157
 30
0.000000
  70
    32
  0
VERTEX
  8
AM_0
  5
1D2EE
 10
327.206
 20
396.002
 30
0.000000
  70
    32
  0
VERTEX
  8
AM_0
  5
1D2EF
 10
327.108
 20
395.845
 30
0.000000
  70
    32
  0
VERTEX
  8
AM_0
  5
1D2F0
 10
327.013
 20
395.688
 30
0.000000
  70
    32
  0
VERTEX
  8
AM_0
  5
1D2F1
 10
326.919
 20
395.530
 30
0.000000
  70
    32
  0
VERTEX
  8
AM_0
  5
1D2F2
 10
326.827
 20
395.370
 30
0.000000
  70
    32
  0
VERTEX
  8
AM_0
  5
1D2F3
 10
326.738
 20
395.209
 30
0.000000
  70
    32
  0
VERTEX
  8
AM_0
  5
1D2F4
 10
326.650
 20
395.048
 30
0.000000
  70
    32
  0
VERTEX
  8
AM_0
  5
1D2F5
 10
326.564
 20
394.885
 30
0.000000
  70
    32
  0
VERTEX
  8
AM_0
  5
1D2F6
 10
326.480
 20
394.721
 30
0.000000
  70
    32
  0
VERTEX
  8
AM_0
  5
1D2F7
 10
326.399
 20
394.556
 30
0.000000
  70
    32
  0
VERTEX
  8
AM_0
  5
1D2F8
 10
326.319
 20
394.390
 30
0.000000
  70
    32
  0
VERTEX
  8
AM_0
  5
1D2F9
 10
326.241
 20
394.223
 30
0.000000
  70
    32
  0
VERTEX
  8
AM_0
  5
1D2FA
 10
326.166
 20
394.055
 30
0.000000
  70
    32
  0
VERTEX
  8
AM_0
  5
1D2FB
 10
326.092
 20
393.886
 30
0.000000
  70
    32
  0
VERTEX
  8
AM_0
  5
1D2FC
 10
326.021
 20
393.717
 30
0.000000
  70
    32
  0
VERTEX
  8
AM_0
  5
1D2FD
 10
325.951
 20
393.546
 30
0.000000
  70
    32
  0
VERTEX
  8
AM_0
  5
1D2FE
 10
325.884
 20
393.375
 30
0.000000
  70
    32
  0
VERTEX
  8
AM_0
  5
1D2FF
 10
325.819
 20
393.203
 30
0.000000
  70
    32
  0
VERTEX
  8
AM_0
  5
1D300
 10
325.756
 20
393.030
 30
0.000000
  70
    32
  0
VERTEX
  8
AM_0
  5
1D301
 10
325.695
 20
392.856
 30
0.000000
  70
    32
  0
VERTEX
  8
AM_0
  5
1D302
 10
325.636
 20
392.682
 30
0.000000
  70
    32
  0
VERTEX
  8
AM_0
  5
1D303
 10
325.579
 20
392.507
 30
0.000000
  70
    32
  0
VERTEX
  8
AM_0
  5
1D304
 10
325.525
 20
392.331
 30
0.000000
  70
    32
  0
VERTEX
  8
AM_0
  5
1D305
 10
325.472
 20
392.154
 30
0.000000
  70
    32
  0
VERTEX
  8
AM_0
  5
1D306
 10
325.422
 20
391.977
 30
0.000000
  70
    32
  0
VERTEX
  8
AM_0
  5
1D307
 10
325.374
 20
391.800
 30
0.000000
  70
    32
  0
VERTEX
  8
AM_0
  5
1D308
 10
325.328
 20
391.621
 30
0.000000
  70
    32
  0
VERTEX
  8
AM_0
  5
1D309
 10
325.285
 20
391.442
 30
0.000000
  70
    32
  0
VERTEX
  8
AM_0
  5
1D30A
 10
325.243
 20
391.263
 30
0.000000
  70
    32
  0
VERTEX
  8
AM_0
  5
1D30B
 10
325.204
 20
391.083
 30
0.000000
  70
    32
  0
VERTEX
  8
AM_0
  5
1D30C
 10
325.167
 20
390.903
 30
0.000000
  70
    32
  0
VERTEX
  8
AM_0
  5
1D30D
 10
325.132
 20
390.722
 30
0.000000
  70
    32
  0
VERTEX
  8
AM_0
  5
1D30E
 10
325.100
 20
390.541
 30
0.000000
  70
    32
  0
VERTEX
  8
AM_0
  5
1D30F
 10
325.069
 20
390.359
 30
0.000000
  70
    32
  0
VERTEX
  8
AM_0
  5
1D310
 10
325.041
 20
390.177
 30
0.000000
  70
    32
  0
VERTEX
  8
AM_0
  5
1D311
 10
325.015
 20
389.995
 30
0.000000
  70
    32
  0
VERTEX
  8
AM_0
  5
1D312
 10
324.992
 20
389.813
 30
0.000000
  70
    32
  0
VERTEX
  8
AM_0
  5
1D313
 10
324.970
 20
389.630
 30
0.000000
  70
    32
  0
VERTEX
  8
AM_0
  5
1D314
 10
324.951
 20
389.447
 30
0.000000
  70
    32
  0
VERTEX
  8
AM_0
  5
1D315
 10
324.934
 20
389.263
 30
0.000000
  70
    32
  0
VERTEX
  8
AM_0
  5
1D316
 10
324.919
 20
389.080
 30
0.000000
  70
    32
  0
VERTEX
  8
AM_0
  5
1D317
 10
324.907
 20
388.896
 30
0.000000
  70
    32
  0
VERTEX
  8
AM_0
  5
1D318
 10
324.897
 20
388.713
 30
0.000000
  70
    32
  0
VERTEX
  8
AM_0
  5
1D319
 10
324.889
 20
388.529
 30
0.000000
  70
    32
  0
VERTEX
  8
AM_0
  5
1D31A
 10
324.883
 20
388.345
 30
0.000000
  70
    32
  0
VERTEX
  8
AM_0
  5
1D31B
 10
324.880
 20
388.161
 30
0.000000
  70
    32
  0
VERTEX
  8
AM_0
  5
1D31C
 10
324.879
 20
387.976
 30
0.000000
  70
    32
  0
SEQEND
  8
AM_0
  5
1D31D
  0
LINE
  5
1B9EA
  8
ﾁｭｳｼﾝｾﾝ1
 10
327.87876828044239
 20
387.97649442821222
 30
0.0
 11
351.87873847859902
 21
387.97649442821222
 31
0.0
  0
ARC
  5
1B9EB
  8
AM_0
 10
339.12876842955387
 20
365.488997909327
 30
0.0
 40
6.25
 50
88.089786296393925
 51
180.0
1001
GENIUS_GENODEF_13
1002
{
1000
HIER
1070
     0
1002
}
1002
{
1000
MANEDIT
1070
     0
1002
}
1002
{
1000
NOSEL
1070
     0
1002
}
1002
{
1000
BEHIND
1070
     0
1002
}
1002
{
1000
OTHER
1070
     0
1002
}
1002
{
1000
REACTOR
1002
}
1001
GENIUS_GENOBJ-N-FIL_13
1002
{
1000
OWNER
1000
GEN
1002
}
  0
LINE
  5
1B9EC
  8
AM_0
 10
320.45030254457362
 20
389.70427166560302
 30
0.0
 11
323.87876819095561
 21
389.70427166560302
 31
0.0
  0
LINE
  5
1B9EE
  8
AM_0
 10
362.36626048749611
 20
394.97663463697251
 30
0.0
 11
454.87874155029817
 21
394.97663463697251
 31
0.0
  0
LINE
  5
1B9F0
  8
AM_0
 10
454.87874155029817
 20
394.97663463697228
 30
0.0
 11
492.39125149045151
 21
394.97663463697251
 31
0.0
  0
POLYLINE
  5
1B9F1
  8
AM_0
 10
521.87874354839346
 20
387.97649442821199
 30
0.0
 66
     1
 70
     8
  0
VERTEX
  8
AM_0
  5
1D31E
 10
521.879
 20
387.976
 30
0.000000
  70
    32
  0
VERTEX
  8
AM_0
  5
1D31F
 10
521.870
 20
388.320
 30
0.000000
  70
    32
  0
VERTEX
  8
AM_0
  5
1D320
 10
521.845
 20
388.663
 30
0.000000
  70
    32
  0
VERTEX
  8
AM_0
  5
1D321
 10
521.803
 20
389.004
 30
0.000000
  70
    32
  0
VERTEX
  8
AM_0
  5
1D322
 10
521.744
 20
389.342
 30
0.000000
  70
    32
  0
VERTEX
  8
AM_0
  5
1D323
 10
521.669
 20
389.677
 30
0.000000
  70
    32
  0
VERTEX
  8
AM_0
  5
1D324
 10
521.577
 20
390.009
 30
0.000000
  70
    32
  0
VERTEX
  8
AM_0
  5
1D325
 10
521.470
 20
390.335
 30
0.000000
  70
    32
  0
VERTEX
  8
AM_0
  5
1D326
 10
521.346
 20
390.655
 30
0.000000
  70
    32
  0
VERTEX
  8
AM_0
  5
1D327
 10
521.207
 20
390.969
 30
0.000000
  70
    32
  0
VERTEX
  8
AM_0
  5
1D328
 10
521.052
 20
391.276
 30
0.000000
  70
    32
  0
VERTEX
  8
AM_0
  5
1D329
 10
520.883
 20
391.575
 30
0.000000
  70
    32
  0
VERTEX
  8
AM_0
  5
1D32A
 10
520.699
 20
391.866
 30
0.000000
  70
    32
  0
VERTEX
  8
AM_0
  5
1D32B
 10
520.501
 20
392.146
 30
0.000000
  70
    32
  0
VERTEX
  8
AM_0
  5
1D32C
 10
520.290
 20
392.417
 30
0.000000
  70
    32
  0
VERTEX
  8
AM_0
  5
1D32D
 10
520.065
 20
392.678
 30
0.000000
  70
    32
  0
VERTEX
  8
AM_0
  5
1D32E
 10
519.828
 20
392.926
 30
0.000000
  70
    32
  0
VERTEX
  8
AM_0
  5
1D32F
 10
519.580
 20
393.163
 30
0.000000
  70
    32
  0
VERTEX
  8
AM_0
  5
1D330
 10
519.319
 20
393.388
 30
0.000000
  70
    32
  0
VERTEX
  8
AM_0
  5
1D331
 10
519.049
 20
393.599
 30
0.000000
  70
    32
  0
VERTEX
  8
AM_0
  5
1D332
 10
518.768
 20
393.797
 30
0.000000
  70
    32
  0
VERTEX
  8
AM_0
  5
1D333
 10
518.477
 20
393.981
 30
0.000000
  70
    32
  0
VERTEX
  8
AM_0
  5
1D334
 10
518.179
 20
394.150
 30
0.000000
  70
    32
  0
VERTEX
  8
AM_0
  5
1D335
 10
517.872
 20
394.305
 30
0.000000
  70
    32
  0
VERTEX
  8
AM_0
  5
1D336
 10
517.558
 20
394.444
 30
0.000000
  70
    32
  0
VERTEX
  8
AM_0
  5
1D337
 10
517.237
 20
394.567
 30
0.000000
  70
    32
  0
VERTEX
  8
AM_0
  5
1D338
 10
516.911
 20
394.675
 30
0.000000
  70
    32
  0
VERTEX
  8
AM_0
  5
1D339
 10
516.580
 20
394.767
 30
0.000000
  70
    32
  0
VERTEX
  8
AM_0
  5
1D33A
 10
516.244
 20
394.842
 30
0.000000
  70
    32
  0
VERTEX
  8
AM_0
  5
1D33B
 10
515.906
 20
394.901
 30
0.000000
  70
    32
  0
VERTEX
  8
AM_0
  5
1D33C
 10
515.565
 20
394.943
 30
0.000000
  70
    32
  0
VERTEX
  8
AM_0
  5
1D33D
 10
515.222
 20
394.968
 30
0.000000
  70
    32
  0
VERTEX
  8
AM_0
  5
1D33E
 10
514.879
 20
394.977
 30
0.000000
  70
    32
  0
VERTEX
  8
AM_0
  5
1D33F
 10
514.535
 20
394.968
 30
0.000000
  70
    32
  0
VERTEX
  8
AM_0
  5
1D340
 10
514.193
 20
394.943
 30
0.000000
  70
    32
  0
VERTEX
  8
AM_0
  5
1D341
 10
513.852
 20
394.901
 30
0.000000
  70
    32
  0
VERTEX
  8
AM_0
  5
1D342
 10
513.513
 20
394.842
 30
0.000000
  70
    32
  0
VERTEX
  8
AM_0
  5
1D343
 10
513.178
 20
394.767
 30
0.000000
  70
    32
  0
VERTEX
  8
AM_0
  5
1D344
 10
512.847
 20
394.675
 30
0.000000
  70
    32
  0
VERTEX
  8
AM_0
  5
1D345
 10
512.521
 20
394.567
 30
0.000000
  70
    32
  0
VERTEX
  8
AM_0
  5
1D346
 10
512.200
 20
394.444
 30
0.000000
  70
    32
  0
VERTEX
  8
AM_0
  5
1D347
 10
511.886
 20
394.305
 30
0.000000
  70
    32
  0
VERTEX
  8
AM_0
  5
1D348
 10
511.579
 20
394.150
 30
0.000000
  70
    32
  0
VERTEX
  8
AM_0
  5
1D349
 10
511.280
 20
393.981
 30
0.000000
  70
    32
  0
VERTEX
  8
AM_0
  5
1D34A
 10
510.990
 20
393.797
 30
0.000000
  70
    32
  0
VERTEX
  8
AM_0
  5
1D34B
 10
510.709
 20
393.599
 30
0.000000
  70
    32
  0
VERTEX
  8
AM_0
  5
1D34C
 10
510.438
 20
393.388
 30
0.000000
  70
    32
  0
VERTEX
  8
AM_0
  5
1D34D
 10
510.178
 20
393.163
 30
0.000000
  70
    32
  0
VERTEX
  8
AM_0
  5
1D34E
 10
509.929
 20
392.926
 30
0.000000
  70
    32
  0
VERTEX
  8
AM_0
  5
1D34F
 10
509.692
 20
392.678
 30
0.000000
  70
    32
  0
VERTEX
  8
AM_0
  5
1D350
 10
509.468
 20
392.417
 30
0.000000
  70
    32
  0
VERTEX
  8
AM_0
  5
1D351
 10
509.256
 20
392.146
 30
0.000000
  70
    32
  0
VERTEX
  8
AM_0
  5
1D352
 10
509.058
 20
391.866
 30
0.000000
  70
    32
  0
VERTEX
  8
AM_0
  5
1D353
 10
508.875
 20
391.575
 30
0.000000
  70
    32
  0
VERTEX
  8
AM_0
  5
1D354
 10
508.705
 20
391.276
 30
0.000000
  70
    32
  0
VERTEX
  8
AM_0
  5
1D355
 10
508.551
 20
390.969
 30
0.000000
  70
    32
  0
VERTEX
  8
AM_0
  5
1D356
 10
508.412
 20
390.655
 30
0.000000
  70
    32
  0
VERTEX
  8
AM_0
  5
1D357
 10
508.288
 20
390.335
 30
0.000000
  70
    32
  0
VERTEX
  8
AM_0
  5
1D358
 10
508.180
 20
390.009
 30
0.000000
  70
    32
  0
VERTEX
  8
AM_0
  5
1D359
 10
508.089
 20
389.677
 30
0.000000
  70
    32
  0
VERTEX
  8
AM_0
  5
1D35A
 10
508.013
 20
389.342
 30
0.000000
  70
    32
  0
VERTEX
  8
AM_0
  5
1D35B
 10
507.955
 20
389.004
 30
0.000000
  70
    32
  0
VERTEX
  8
AM_0
  5
1D35C
 10
507.912
 20
388.663
 30
0.000000
  70
    32
  0
VERTEX
  8
AM_0
  5
1D35D
 10
507.887
 20
388.320
 30
0.000000
  70
    32
  0
VERTEX
  8
AM_0
  5
1D35E
 10
507.879
 20
387.976
 30
0.000000
  70
    32
  0
VERTEX
  8
AM_0
  5
1D35F
 10
507.887
 20
387.633
 30
0.000000
  70
    32
  0
VERTEX
  8
AM_0
  5
1D360
 10
507.912
 20
387.290
 30
0.000000
  70
    32
  0
VERTEX
  8
AM_0
  5
1D361
 10
507.955
 20
386.949
 30
0.000000
  70
    32
  0
VERTEX
  8
AM_0
  5
1D362
 10
508.013
 20
386.611
 30
0.000000
  70
    32
  0
VERTEX
  8
AM_0
  5
1D363
 10
508.089
 20
386.276
 30
0.000000
  70
    32
  0
VERTEX
  8
AM_0
  5
1D364
 10
508.180
 20
385.944
 30
0.000000
  70
    32
  0
VERTEX
  8
AM_0
  5
1D365
 10
508.288
 20
385.618
 30
0.000000
  70
    32
  0
VERTEX
  8
AM_0
  5
1D366
 10
508.412
 20
385.298
 30
0.000000
  70
    32
  0
VERTEX
  8
AM_0
  5
1D367
 10
508.551
 20
384.984
 30
0.000000
  70
    32
  0
VERTEX
  8
AM_0
  5
1D368
 10
508.705
 20
384.677
 30
0.000000
  70
    32
  0
VERTEX
  8
AM_0
  5
1D369
 10
508.875
 20
384.378
 30
0.000000
  70
    32
  0
VERTEX
  8
AM_0
  5
1D36A
 10
509.058
 20
384.087
 30
0.000000
  70
    32
  0
VERTEX
  8
AM_0
  5
1D36B
 10
509.256
 20
383.807
 30
0.000000
  70
    32
  0
VERTEX
  8
AM_0
  5
1D36C
 10
509.468
 20
383.536
 30
0.000000
  70
    32
  0
VERTEX
  8
AM_0
  5
1D36D
 10
509.692
 20
383.275
 30
0.000000
  70
    32
  0
VERTEX
  8
AM_0
  5
1D36E
 10
509.929
 20
383.027
 30
0.000000
  70
    32
  0
VERTEX
  8
AM_0
  5
1D36F
 10
510.178
 20
382.790
 30
0.000000
  70
    32
  0
VERTEX
  8
AM_0
  5
1D370
 10
510.438
 20
382.565
 30
0.000000
  70
    32
  0
VERTEX
  8
AM_0
  5
1D371
 10
510.709
 20
382.354
 30
0.000000
  70
    32
  0
VERTEX
  8
AM_0
  5
1D372
 10
510.990
 20
382.156
 30
0.000000
  70
    32
  0
VERTEX
  8
AM_0
  5
1D373
 10
511.280
 20
381.972
 30
0.000000
  70
    32
  0
VERTEX
  8
AM_0
  5
1D374
 10
511.579
 20
381.803
 30
0.000000
  70
    32
  0
VERTEX
  8
AM_0
  5
1D375
 10
511.886
 20
381.648
 30
0.000000
  70
    32
  0
VERTEX
  8
AM_0
  5
1D376
 10
512.200
 20
381.509
 30
0.000000
  70
    32
  0
VERTEX
  8
AM_0
  5
1D377
 10
512.521
 20
381.386
 30
0.000000
  70
    32
  0
VERTEX
  8
AM_0
  5
1D378
 10
512.847
 20
381.278
 30
0.000000
  70
    32
  0
VERTEX
  8
AM_0
  5
1D379
 10
513.178
 20
381.186
 30
0.000000
  70
    32
  0
VERTEX
  8
AM_0
  5
1D37A
 10
513.513
 20
381.111
 30
0.000000
  70
    32
  0
VERTEX
  8
AM_0
  5
1D37B
 10
513.852
 20
381.052
 30
0.000000
  70
    32
  0
VERTEX
  8
AM_0
  5
1D37C
 10
514.193
 20
381.010
 30
0.000000
  70
    32
  0
VERTEX
  8
AM_0
  5
1D37D
 10
514.535
 20
380.985
 30
0.000000
  70
    32
  0
VERTEX
  8
AM_0
  5
1D37E
 10
514.879
 20
380.976
 30
0.000000
  70
    32
  0
VERTEX
  8
AM_0
  5
1D37F
 10
515.222
 20
380.985
 30
0.000000
  70
    32
  0
VERTEX
  8
AM_0
  5
1D380
 10
515.565
 20
381.010
 30
0.000000
  70
    32
  0
VERTEX
  8
AM_0
  5
1D381
 10
515.906
 20
381.052
 30
0.000000
  70
    32
  0
VERTEX
  8
AM_0
  5
1D382
 10
516.244
 20
381.111
 30
0.000000
  70
    32
  0
VERTEX
  8
AM_0
  5
1D383
 10
516.580
 20
381.186
 30
0.000000
  70
    32
  0
VERTEX
  8
AM_0
  5
1D384
 10
516.911
 20
381.278
 30
0.000000
  70
    32
  0
VERTEX
  8
AM_0
  5
1D385
 10
517.237
 20
381.386
 30
0.000000
  70
    32
  0
VERTEX
  8
AM_0
  5
1D386
 10
517.558
 20
381.509
 30
0.000000
  70
    32
  0
VERTEX
  8
AM_0
  5
1D387
 10
517.872
 20
381.648
 30
0.000000
  70
    32
  0
VERTEX
  8
AM_0
  5
1D388
 10
518.179
 20
381.803
 30
0.000000
  70
    32
  0
VERTEX
  8
AM_0
  5
1D389
 10
518.477
 20
381.972
 30
0.000000
  70
    32
  0
VERTEX
  8
AM_0
  5
1D38A
 10
518.768
 20
382.156
 30
0.000000
  70
    32
  0
VERTEX
  8
AM_0
  5
1D38B
 10
519.049
 20
382.354
 30
0.000000
  70
    32
  0
VERTEX
  8
AM_0
  5
1D38C
 10
519.319
 20
382.565
 30
0.000000
  70
    32
  0
VERTEX
  8
AM_0
  5
1D38D
 10
519.580
 20
382.790
 30
0.000000
  70
    32
  0
VERTEX
  8
AM_0
  5
1D38E
 10
519.828
 20
383.027
 30
0.000000
  70
    32
  0
VERTEX
  8
AM_0
  5
1D38F
 10
520.065
 20
383.275
 30
0.000000
  70
    32
  0
VERTEX
  8
AM_0
  5
1D390
 10
520.290
 20
383.536
 30
0.000000
  70
    32
  0
VERTEX
  8
AM_0
  5
1D391
 10
520.501
 20
383.807
 30
0.000000
  70
    32
  0
VERTEX
  8
AM_0
  5
1D392
 10
520.699
 20
384.087
 30
0.000000
  70
    32
  0
VERTEX
  8
AM_0
  5
1D393
 10
520.883
 20
384.378
 30
0.000000
  70
    32
  0
VERTEX
  8
AM_0
  5
1D394
 10
521.052
 20
384.677
 30
0.000000
  70
    32
  0
VERTEX
  8
AM_0
  5
1D395
 10
521.207
 20
384.984
 30
0.000000
  70
    32
  0
VERTEX
  8
AM_0
  5
1D396
 10
521.346
 20
385.298
 30
0.000000
  70
    32
  0
VERTEX
  8
AM_0
  5
1D397
 10
521.470
 20
385.618
 30
0.000000
  70
    32
  0
VERTEX
  8
AM_0
  5
1D398
 10
521.577
 20
385.944
 30
0.000000
  70
    32
  0
VERTEX
  8
AM_0
  5
1D399
 10
521.669
 20
386.276
 30
0.000000
  70
    32
  0
VERTEX
  8
AM_0
  5
1D39A
 10
521.744
 20
386.611
 30
0.000000
  70
    32
  0
VERTEX
  8
AM_0
  5
1D39B
 10
521.803
 20
386.949
 30
0.000000
  70
    32
  0
VERTEX
  8
AM_0
  5
1D39C
 10
521.845
 20
387.290
 30
0.000000
  70
    32
  0
VERTEX
  8
AM_0
  5
1D39D
 10
521.870
 20
387.633
 30
0.000000
  70
    32
  0
VERTEX
  8
AM_0
  5
1D39E
 10
521.879
 20
387.976
 30
0.000000
  70
    32
  0
SEQEND
  8
AM_0
  5
1D39F
  0
ARC
  5
1B9F2
  8
AM_0
 10
514.87874333963748
 20
387.97649442821199
 30
0.0
 40
16.25
 50
178.0894295910561
 51
271.910213703593
  0
LINE
  5
1B9F3
  8
ﾁｭｳｼﾝｾﾝ1
 10
514.87874333963748
 20
399.97673478608709
 30
0.0
 11
514.87874333963748
 21
375.97625407033712
 31
0.0
  0
POLYLINE
  5
1B9F4
  8
AM_0
 10
529.87874378697211
 20
387.97649442821199
 30
0.0
 66
     1
 70
     8
  0
VERTEX
  8
AM_0
  5
1D3A0
 10
529.879
 20
387.976
 30
0.000000
  70
    32
  0
VERTEX
  8
AM_0
  5
1D3A1
 10
529.878
 20
388.161
 30
0.000000
  70
    32
  0
VERTEX
  8
AM_0
  5
1D3A2
 10
529.874
 20
388.345
 30
0.000000
  70
    32
  0
VERTEX
  8
AM_0
  5
1D3A3
 10
529.869
 20
388.529
 30
0.000000
  70
    32
  0
VERTEX
  8
AM_0
  5
1D3A4
 10
529.861
 20
388.713
 30
0.000000
  70
    32
  0
VERTEX
  8
AM_0
  5
1D3A5
 10
529.851
 20
388.896
 30
0.000000
  70
    32
  0
VERTEX
  8
AM_0
  5
1D3A6
 10
529.838
 20
389.080
 30
0.000000
  70
    32
  0
VERTEX
  8
AM_0
  5
1D3A7
 10
529.823
 20
389.263
 30
0.000000
  70
    32
  0
VERTEX
  8
AM_0
  5
1D3A8
 10
529.807
 20
389.447
 30
0.000000
  70
    32
  0
VERTEX
  8
AM_0
  5
1D3A9
 10
529.787
 20
389.630
 30
0.000000
  70
    32
  0
VERTEX
  8
AM_0
  5
1D3AA
 10
529.766
 20
389.813
 30
0.000000
  70
    32
  0
VERTEX
  8
AM_0
  5
1D3AB
 10
529.742
 20
389.995
 30
0.000000
  70
    32
  0
VERTEX
  8
AM_0
  5
1D3AC
 10
529.716
 20
390.177
 30
0.000000
  70
    32
  0
VERTEX
  8
AM_0
  5
1D3AD
 10
529.688
 20
390.359
 30
0.000000
  70
    32
  0
VERTEX
  8
AM_0
  5
1D3AE
 10
529.658
 20
390.541
 30
0.000000
  70
    32
  0
VERTEX
  8
AM_0
  5
1D3AF
 10
529.625
 20
390.722
 30
0.000000
  70
    32
  0
VERTEX
  8
AM_0
  5
1D3B0
 10
529.591
 20
390.903
 30
0.000000
  70
    32
  0
VERTEX
  8
AM_0
  5
1D3B1
 10
529.554
 20
391.083
 30
0.000000
  70
    32
  0
VERTEX
  8
AM_0
  5
1D3B2
 10
529.514
 20
391.263
 30
0.000000
  70
    32
  0
VERTEX
  8
AM_0
  5
1D3B3
 10
529.473
 20
391.442
 30
0.000000
  70
    32
  0
VERTEX
  8
AM_0
  5
1D3B4
 10
529.429
 20
391.621
 30
0.000000
  70
    32
  0
VERTEX
  8
AM_0
  5
1D3B5
 10
529.383
 20
391.800
 30
0.000000
  70
    32
  0
VERTEX
  8
AM_0
  5
1D3B6
 10
529.335
 20
391.977
 30
0.000000
  70
    32
  0
VERTEX
  8
AM_0
  5
1D3B7
 10
529.285
 20
392.154
 30
0.000000
  70
    32
  0
VERTEX
  8
AM_0
  5
1D3B8
 10
529.233
 20
392.331
 30
0.000000
  70
    32
  0
VERTEX
  8
AM_0
  5
1D3B9
 10
529.178
 20
392.507
 30
0.000000
  70
    32
  0
VERTEX
  8
AM_0
  5
1D3BA
 10
529.122
 20
392.682
 30
0.000000
  70
    32
  0
VERTEX
  8
AM_0
  5
1D3BB
 10
529.063
 20
392.856
 30
0.000000
  70
    32
  0
VERTEX
  8
AM_0
  5
1D3BC
 10
529.002
 20
393.030
 30
0.000000
  70
    32
  0
VERTEX
  8
AM_0
  5
1D3BD
 10
528.939
 20
393.203
 30
0.000000
  70
    32
  0
VERTEX
  8
AM_0
  5
1D3BE
 10
528.874
 20
393.375
 30
0.000000
  70
    32
  0
VERTEX
  8
AM_0
  5
1D3BF
 10
528.806
 20
393.546
 30
0.000000
  70
    32
  0
VERTEX
  8
AM_0
  5
1D3C0
 10
528.737
 20
393.717
 30
0.000000
  70
    32
  0
VERTEX
  8
AM_0
  5
1D3C1
 10
528.665
 20
393.886
 30
0.000000
  70
    32
  0
VERTEX
  8
AM_0
  5
1D3C2
 10
528.592
 20
394.055
 30
0.000000
  70
    32
  0
VERTEX
  8
AM_0
  5
1D3C3
 10
528.516
 20
394.223
 30
0.000000
  70
    32
  0
VERTEX
  8
AM_0
  5
1D3C4
 10
528.439
 20
394.390
 30
0.000000
  70
    32
  0
VERTEX
  8
AM_0
  5
1D3C5
 10
528.359
 20
394.556
 30
0.000000
  70
    32
  0
VERTEX
  8
AM_0
  5
1D3C6
 10
528.277
 20
394.721
 30
0.000000
  70
    32
  0
VERTEX
  8
AM_0
  5
1D3C7
 10
528.193
 20
394.885
 30
0.000000
  70
    32
  0
VERTEX
  8
AM_0
  5
1D3C8
 10
528.108
 20
395.048
 30
0.000000
  70
    32
  0
VERTEX
  8
AM_0
  5
1D3C9
 10
528.020
 20
395.209
 30
0.000000
  70
    32
  0
VERTEX
  8
AM_0
  5
1D3CA
 10
527.930
 20
395.370
 30
0.000000
  70
    32
  0
VERTEX
  8
AM_0
  5
1D3CB
 10
527.838
 20
395.530
 30
0.000000
  70
    32
  0
VERTEX
  8
AM_0
  5
1D3CC
 10
527.745
 20
395.688
 30
0.000000
  70
    32
  0
VERTEX
  8
AM_0
  5
1D3CD
 10
527.649
 20
395.845
 30
0.000000
  70
    32
  0
VERTEX
  8
AM_0
  5
1D3CE
 10
527.552
 20
396.002
 30
0.000000
  70
    32
  0
VERTEX
  8
AM_0
  5
1D3CF
 10
527.452
 20
396.157
 30
0.000000
  70
    32
  0
VERTEX
  8
AM_0
  5
1D3D0
 10
527.351
 20
396.310
 30
0.000000
  70
    32
  0
VERTEX
  8
AM_0
  5
1D3D1
 10
527.248
 20
396.463
 30
0.000000
  70
    32
  0
VERTEX
  8
AM_0
  5
1D3D2
 10
527.143
 20
396.614
 30
0.000000
  70
    32
  0
VERTEX
  8
AM_0
  5
1D3D3
 10
527.036
 20
396.764
 30
0.000000
  70
    32
  0
VERTEX
  8
AM_0
  5
1D3D4
 10
526.927
 20
396.912
 30
0.000000
  70
    32
  0
VERTEX
  8
AM_0
  5
1D3D5
 10
526.816
 20
397.059
 30
0.000000
  70
    32
  0
VERTEX
  8
AM_0
  5
1D3D6
 10
526.704
 20
397.205
 30
0.000000
  70
    32
  0
VERTEX
  8
AM_0
  5
1D3D7
 10
526.590
 20
397.350
 30
0.000000
  70
    32
  0
VERTEX
  8
AM_0
  5
1D3D8
 10
526.474
 20
397.493
 30
0.000000
  70
    32
  0
VERTEX
  8
AM_0
  5
1D3D9
 10
526.356
 20
397.634
 30
0.000000
  70
    32
  0
VERTEX
  8
AM_0
  5
1D3DA
 10
526.237
 20
397.774
 30
0.000000
  70
    32
  0
VERTEX
  8
AM_0
  5
1D3DB
 10
526.116
 20
397.913
 30
0.000000
  70
    32
  0
VERTEX
  8
AM_0
  5
1D3DC
 10
525.993
 20
398.050
 30
0.000000
  70
    32
  0
VERTEX
  8
AM_0
  5
1D3DD
 10
525.869
 20
398.186
 30
0.000000
  70
    32
  0
VERTEX
  8
AM_0
  5
1D3DE
 10
525.742
 20
398.320
 30
0.000000
  70
    32
  0
VERTEX
  8
AM_0
  5
1D3DF
 10
525.615
 20
398.452
 30
0.000000
  70
    32
  0
VERTEX
  8
AM_0
  5
1D3E0
 10
525.485
 20
398.583
 30
0.000000
  70
    32
  0
VERTEX
  8
AM_0
  5
1D3E1
 10
525.354
 20
398.713
 30
0.000000
  70
    32
  0
VERTEX
  8
AM_0
  5
1D3E2
 10
525.222
 20
398.840
 30
0.000000
  70
    32
  0
VERTEX
  8
AM_0
  5
1D3E3
 10
525.088
 20
398.967
 30
0.000000
  70
    32
  0
VERTEX
  8
AM_0
  5
1D3E4
 10
524.952
 20
399.091
 30
0.000000
  70
    32
  0
VERTEX
  8
AM_0
  5
1D3E5
 10
524.815
 20
399.214
 30
0.000000
  70
    32
  0
VERTEX
  8
AM_0
  5
1D3E6
 10
524.676
 20
399.335
 30
0.000000
  70
    32
  0
VERTEX
  8
AM_0
  5
1D3E7
 10
524.536
 20
399.454
 30
0.000000
  70
    32
  0
VERTEX
  8
AM_0
  5
1D3E8
 10
524.395
 20
399.572
 30
0.000000
  70
    32
  0
VERTEX
  8
AM_0
  5
1D3E9
 10
524.252
 20
399.688
 30
0.000000
  70
    32
  0
VERTEX
  8
AM_0
  5
1D3EA
 10
524.107
 20
399.802
 30
0.000000
  70
    32
  0
VERTEX
  8
AM_0
  5
1D3EB
 10
523.961
 20
399.914
 30
0.000000
  70
    32
  0
VERTEX
  8
AM_0
  5
1D3EC
 10
523.814
 20
400.025
 30
0.000000
  70
    32
  0
VERTEX
  8
AM_0
  5
1D3ED
 10
523.666
 20
400.134
 30
0.000000
  70
    32
  0
VERTEX
  8
AM_0
  5
1D3EE
 10
523.516
 20
400.241
 30
0.000000
  70
    32
  0
VERTEX
  8
AM_0
  5
1D3EF
 10
523.365
 20
400.346
 30
0.000000
  70
    32
  0
VERTEX
  8
AM_0
  5
1D3F0
 10
523.212
 20
400.449
 30
0.000000
  70
    32
  0
VERTEX
  8
AM_0
  5
1D3F1
 10
523.059
 20
400.550
 30
0.000000
  70
    32
  0
VERTEX
  8
AM_0
  5
1D3F2
 10
522.904
 20
400.650
 30
0.000000
  70
    32
  0
VERTEX
  8
AM_0
  5
1D3F3
 10
522.748
 20
400.747
 30
0.000000
  70
    32
  0
VERTEX
  8
AM_0
  5
1D3F4
 10
522.590
 20
400.843
 30
0.000000
  70
    32
  0
VERTEX
  8
AM_0
  5
1D3F5
 10
522.432
 20
400.936
 30
0.000000
  70
    32
  0
VERTEX
  8
AM_0
  5
1D3F6
 10
522.272
 20
401.028
 30
0.000000
  70
    32
  0
VERTEX
  8
AM_0
  5
1D3F7
 10
522.111
 20
401.118
 30
0.000000
  70
    32
  0
VERTEX
  8
AM_0
  5
1D3F8
 10
521.950
 20
401.206
 30
0.000000
  70
    32
  0
VERTEX
  8
AM_0
  5
1D3F9
 10
521.787
 20
401.291
 30
0.000000
  70
    32
  0
VERTEX
  8
AM_0
  5
1D3FA
 10
521.623
 20
401.375
 30
0.000000
  70
    32
  0
VERTEX
  8
AM_0
  5
1D3FB
 10
521.458
 20
401.457
 30
0.000000
  70
    32
  0
VERTEX
  8
AM_0
  5
1D3FC
 10
521.292
 20
401.537
 30
0.000000
  70
    32
  0
VERTEX
  8
AM_0
  5
1D3FD
 10
521.125
 20
401.614
 30
0.000000
  70
    32
  0
VERTEX
  8
AM_0
  5
1D3FE
 10
520.957
 20
401.690
 30
0.000000
  70
    32
  0
VERTEX
  8
AM_0
  5
1D3FF
 10
520.789
 20
401.763
 30
0.000000
  70
    32
  0
VERTEX
  8
AM_0
  5
1D400
 10
520.619
 20
401.835
 30
0.000000
  70
    32
  0
VERTEX
  8
AM_0
  5
1D401
 10
520.449
 20
401.904
 30
0.000000
  70
    32
  0
VERTEX
  8
AM_0
  5
1D402
 10
520.277
 20
401.972
 30
0.000000
  70
    32
  0
VERTEX
  8
AM_0
  5
1D403
 10
520.105
 20
402.037
 30
0.000000
  70
    32
  0
VERTEX
  8
AM_0
  5
1D404
 10
519.932
 20
402.100
 30
0.000000
  70
    32
  0
VERTEX
  8
AM_0
  5
1D405
 10
519.758
 20
402.161
 30
0.000000
  70
    32
  0
VERTEX
  8
AM_0
  5
1D406
 10
519.584
 20
402.220
 30
0.000000
  70
    32
  0
VERTEX
  8
AM_0
  5
1D407
 10
519.409
 20
402.276
 30
0.000000
  70
    32
  0
VERTEX
  8
AM_0
  5
1D408
 10
519.233
 20
402.331
 30
0.000000
  70
    32
  0
VERTEX
  8
AM_0
  5
1D409
 10
519.057
 20
402.383
 30
0.000000
  70
    32
  0
VERTEX
  8
AM_0
  5
1D40A
 10
518.879
 20
402.433
 30
0.000000
  70
    32
  0
VERTEX
  8
AM_0
  5
1D40B
 10
518.702
 20
402.481
 30
0.000000
  70
    32
  0
VERTEX
  8
AM_0
  5
1D40C
 10
518.523
 20
402.527
 30
0.000000
  70
    32
  0
VERTEX
  8
AM_0
  5
1D40D
 10
518.345
 20
402.571
 30
0.000000
  70
    32
  0
VERTEX
  8
AM_0
  5
1D40E
 10
518.165
 20
402.612
 30
0.000000
  70
    32
  0
VERTEX
  8
AM_0
  5
1D40F
 10
517.985
 20
402.652
 30
0.000000
  70
    32
  0
VERTEX
  8
AM_0
  5
1D410
 10
517.805
 20
402.689
 30
0.000000
  70
    32
  0
VERTEX
  8
AM_0
  5
1D411
 10
517.624
 20
402.723
 30
0.000000
  70
    32
  0
VERTEX
  8
AM_0
  5
1D412
 10
517.443
 20
402.756
 30
0.000000
  70
    32
  0
VERTEX
  8
AM_0
  5
1D413
 10
517.262
 20
402.786
 30
0.000000
  70
    32
  0
VERTEX
  8
AM_0
  5
1D414
 10
517.080
 20
402.814
 30
0.000000
  70
    32
  0
VERTEX
  8
AM_0
  5
1D415
 10
516.897
 20
402.840
 30
0.000000
  70
    32
  0
VERTEX
  8
AM_0
  5
1D416
 10
516.715
 20
402.864
 30
0.000000
  70
    32
  0
VERTEX
  8
AM_0
  5
1D417
 10
516.532
 20
402.885
 30
0.000000
  70
    32
  0
VERTEX
  8
AM_0
  5
1D418
 10
516.349
 20
402.905
 30
0.000000
  70
    32
  0
VERTEX
  8
AM_0
  5
1D419
 10
516.166
 20
402.921
 30
0.000000
  70
    32
  0
VERTEX
  8
AM_0
  5
1D41A
 10
515.982
 20
402.936
 30
0.000000
  70
    32
  0
VERTEX
  8
AM_0
  5
1D41B
 10
515.799
 20
402.949
 30
0.000000
  70
    32
  0
VERTEX
  8
AM_0
  5
1D41C
 10
515.615
 20
402.959
 30
0.000000
  70
    32
  0
VERTEX
  8
AM_0
  5
1D41D
 10
515.431
 20
402.967
 30
0.000000
  70
    32
  0
VERTEX
  8
AM_0
  5
1D41E
 10
515.247
 20
402.972
 30
0.000000
  70
    32
  0
VERTEX
  8
AM_0
  5
1D41F
 10
515.063
 20
402.976
 30
0.000000
  70
    32
  0
VERTEX
  8
AM_0
  5
1D420
 10
514.879
 20
402.977
 30
0.000000
  70
    32
  0
SEQEND
  8
AM_0
  5
1D421
  0
LINE
  5
1B9F5
  8
ﾁｭｳｼﾝｾﾝ1
 10
502.87874298176962
 20
387.97649442821222
 30
0.0
 11
526.87874369750534
 21
387.97649442821222
 31
0.0
  0
ARC
  5
1B9F6
  8
AM_0
 10
515.62874354839357
 20
365.488997909327
 30
0.0
 40
6.25
 50
0.0
 51
91.910213703606075
1001
GENIUS_GENOBJ-N-FIL_13
1002
{
1000
OWNER
1000
GEN
1002
}
1001
GENIUS_GENODEF_13
1002
{
1000
HIER
1070
     0
1002
}
1002
{
1000
MANEDIT
1070
     0
1002
}
1002
{
1000
NOSEL
1070
     0
1002
}
1002
{
1000
BEHIND
1070
     0
1002
}
1002
{
1000
OTHER
1070
     0
1002
}
1002
{
1000
REACTOR
1002
}
  0
ARC
  5
1B9F7
  8
AM_0
 10
492.39125149045151
 20
388.72663463697251
 30
0.0
 40
6.25
 50
358.08942959105622
 51
90.0
1001
GENIUS_GENOBJ-N-FIL_13
1002
{
1000
OWNER
1000
GEN
1002
}
1001
GENIUS_GENODEF_13
1002
{
1000
HIER
1070
     0
1002
}
1002
{
1000
MANEDIT
1070
     0
1002
}
1002
{
1000
NOSEL
1070
     0
1002
}
1002
{
1000
BEHIND
1070
     0
1002
}
1002
{
1000
OTHER
1070
     0
1002
}
1002
{
1000
REACTOR
1002
}
  0
LINE
  5
1B9FB
  8
AM_0
 10
870.03737622563187
 20
243.28777486362401
 30
0.0
 11
870.03737622563187
 21
402.66257959762999
 31
0.0
  0
LINE
  5
1B9FC
  8
AM_0
 10
845.03737548007359
 20
242.97519248812199
 30
0.0
 11
845.03737548007405
 21
402.97519249132199
 31
0.0
  0
LINE
  5
1B9FD
  8
ﾁｭｳｼﾝｾﾝ1
 10
811.03737446611467
 20
235.97555302453441
 30
0.0
 11
811.03737446611467
 21
409.96760449494258
 31
0.0
  0
LINE
  5
1B9FE
  8
AM_0
 10
752.03737270659792
 20
244.71913898223849
 30
0.0
 11
752.03737270659792
 21
401.23124599720518
 31
0.0
  0
LINE
  5
1BA01
  8
AM_0
 10
747.03737255748615
 20
272.97439129660489
 30
0.0
 11
747.03737255748615
 21
372.97599368283858
 31
0.0
  0
LINE
  5
1BA03
  8
AM_0
 10
875.0373763747433
 20
272.97439129660489
 30
0.0
 11
875.0373763747433
 21
372.97599368283858
 31
0.0
  0
LINE
  5
1BA08
  8
AM_0
 10
845.03737548007359
 20
242.97359010388851
 30
0.0
 11
870.03737622563187
 21
243.28777486362401
 31
0.0
  0
LINE
  5
1BA09
  8
ﾁｭｳｼﾝｾﾝ1
 10
885.03737652385519
 20
322.97519248972191
 30
0.0
 11
647.39222116419046
 21
322.97519248972191
 31
0.0
  0
LINE
  5
1BA0A
  8
ﾁｭｳｼﾝｾﾝ1
 10
749.03737270659803
 20
257.97389055123273
 30
0.0
 11
873.03737622563199
 21
257.97389055123273
 31
0.0
  0
LINE
  5
1BA0B
  8
ｶｸﾚｾﾝ2
 10
752.03737270659792
 20
264.9740307599929
 30
0.0
 11
870.03737622563187
 21
264.9740307599929
 31
0.0
  0
LINE
  5
1BA0C
  8
ｶｸﾚｾﾝ2
 10
752.03737270659792
 20
250.97375034247219
 30
0.0
 11
870.03737622563187
 21
250.97375034247219
 31
0.0
  0
LINE
  5
1BA0D
  8
AM_0
 10
788.03737446565503
 20
243.97555302459429
 30
0.0
 11
793.22737446575854
 21
240.97555302453429
 31
0.0
  0
LINE
  5
1BA0E
  8
AM_0
 10
752.03737270659792
 20
244.71913898223849
 30
0.0
 11
845.03737548007359
 21
242.97359010388851
 31
0.0
  0
LINE
  5
1BA0F
  8
AM_0
 10
828.83736446647094
 20
240.97555302453429
 30
0.0
 11
793.22737446575854
 21
240.97555302453429
 31
0.0
  0
LINE
  5
1BA10
  8
AM_0
 10
832.67795264683809
 20
243.1912874852116
 30
0.0
 11
828.83736446647094
 21
240.97555302453429
 31
0.0
  0
LINE
  5
1BA14
  8
AM_0
 10
747.03737255748615
 20
272.97439129660489
 30
0.0
 11
752.03737270659792
 21
272.97439129660489
 31
0.0
  0
LINE
  5
1BA27
  8
AM_0
 10
747.03737255748615
 20
356.98537753743159
 30
0.0
 11
746.75737446611492
 21
356.97555302653433
 31
0.0
  0
LINE
  5
1BA2C
  8
AM_0
 10
747.03737255748615
 20
354.96588342277818
 30
0.0
 11
746.75737446611492
 21
354.97555302653433
 31
0.0
  0
ARC
  5
1BA2E
  8
AM_0
 10
746.79881946611465
 20
355.97512402653479
 30
0.0
 40
1.000429999999999
 50
90.08275800000014
 51
267.62571600000382
  0
LINE
  5
1BA4E
  8
ﾁｭｳｼﾝｾﾝ1
 10
879.5412107207809
 20
340.97555302653433
 30
0.0
 11
742.53353821144879
 21
340.97555302653433
 31
0.0
  0
POLYLINE
  5
1BA50
  8
AM_0
 10
867.03737622358733
 20
271.47416095384136
 30
0.0
 66
     1
 70
     8
  0
VERTEX
  8
AM_0
  5
1D422
 10
867.037
 20
271.474
 30
0.000000
  70
    32
  0
VERTEX
  8
AM_0
  5
1D423
 10
867.062
 20
271.474
 30
0.000000
  70
    32
  0
VERTEX
  8
AM_0
  5
1D424
 10
867.086
 20
271.475
 30
0.000000
  70
    32
  0
VERTEX
  8
AM_0
  5
1D425
 10
867.111
 20
271.476
 30
0.000000
  70
    32
  0
VERTEX
  8
AM_0
  5
1D426
 10
867.136
 20
271.477
 30
0.000000
  70
    32
  0
VERTEX
  8
AM_0
  5
1D427
 10
867.160
 20
271.478
 30
0.000000
  70
    32
  0
VERTEX
  8
AM_0
  5
1D428
 10
867.185
 20
271.480
 30
0.000000
  70
    32
  0
VERTEX
  8
AM_0
  5
1D429
 10
867.209
 20
271.482
 30
0.000000
  70
    32
  0
VERTEX
  8
AM_0
  5
1D42A
 10
867.233
 20
271.484
 30
0.000000
  70
    32
  0
VERTEX
  8
AM_0
  5
1D42B
 10
867.258
 20
271.486
 30
0.000000
  70
    32
  0
VERTEX
  8
AM_0
  5
1D42C
 10
867.282
 20
271.489
 30
0.000000
  70
    32
  0
VERTEX
  8
AM_0
  5
1D42D
 10
867.307
 20
271.492
 30
0.000000
  70
    32
  0
VERTEX
  8
AM_0
  5
1D42E
 10
867.331
 20
271.496
 30
0.000000
  70
    32
  0
VERTEX
  8
AM_0
  5
1D42F
 10
867.355
 20
271.500
 30
0.000000
  70
    32
  0
VERTEX
  8
AM_0
  5
1D430
 10
867.379
 20
271.504
 30
0.000000
  70
    32
  0
VERTEX
  8
AM_0
  5
1D431
 10
867.403
 20
271.508
 30
0.000000
  70
    32
  0
VERTEX
  8
AM_0
  5
1D432
 10
867.428
 20
271.513
 30
0.000000
  70
    32
  0
VERTEX
  8
AM_0
  5
1D433
 10
867.452
 20
271.518
 30
0.000000
  70
    32
  0
VERTEX
  8
AM_0
  5
1D434
 10
867.476
 20
271.523
 30
0.000000
  70
    32
  0
VERTEX
  8
AM_0
  5
1D435
 10
867.499
 20
271.528
 30
0.000000
  70
    32
  0
VERTEX
  8
AM_0
  5
1D436
 10
867.523
 20
271.534
 30
0.000000
  70
    32
  0
VERTEX
  8
AM_0
  5
1D437
 10
867.547
 20
271.540
 30
0.000000
  70
    32
  0
VERTEX
  8
AM_0
  5
1D438
 10
867.571
 20
271.547
 30
0.000000
  70
    32
  0
VERTEX
  8
AM_0
  5
1D439
 10
867.594
 20
271.553
 30
0.000000
  70
    32
  0
VERTEX
  8
AM_0
  5
1D43A
 10
867.618
 20
271.560
 30
0.000000
  70
    32
  0
VERTEX
  8
AM_0
  5
1D43B
 10
867.641
 20
271.568
 30
0.000000
  70
    32
  0
VERTEX
  8
AM_0
  5
1D43C
 10
867.665
 20
271.575
 30
0.000000
  70
    32
  0
VERTEX
  8
AM_0
  5
1D43D
 10
867.688
 20
271.583
 30
0.000000
  70
    32
  0
VERTEX
  8
AM_0
  5
1D43E
 10
867.711
 20
271.591
 30
0.000000
  70
    32
  0
VERTEX
  8
AM_0
  5
1D43F
 10
867.734
 20
271.599
 30
0.000000
  70
    32
  0
VERTEX
  8
AM_0
  5
1D440
 10
867.757
 20
271.608
 30
0.000000
  70
    32
  0
VERTEX
  8
AM_0
  5
1D441
 10
867.780
 20
271.617
 30
0.000000
  70
    32
  0
VERTEX
  8
AM_0
  5
1D442
 10
867.803
 20
271.626
 30
0.000000
  70
    32
  0
VERTEX
  8
AM_0
  5
1D443
 10
867.825
 20
271.636
 30
0.000000
  70
    32
  0
VERTEX
  8
AM_0
  5
1D444
 10
867.848
 20
271.646
 30
0.000000
  70
    32
  0
VERTEX
  8
AM_0
  5
1D445
 10
867.870
 20
271.656
 30
0.000000
  70
    32
  0
VERTEX
  8
AM_0
  5
1D446
 10
867.892
 20
271.666
 30
0.000000
  70
    32
  0
VERTEX
  8
AM_0
  5
1D447
 10
867.915
 20
271.677
 30
0.000000
  70
    32
  0
VERTEX
  8
AM_0
  5
1D448
 10
867.937
 20
271.688
 30
0.000000
  70
    32
  0
VERTEX
  8
AM_0
  5
1D449
 10
867.958
 20
271.699
 30
0.000000
  70
    32
  0
VERTEX
  8
AM_0
  5
1D44A
 10
867.980
 20
271.710
 30
0.000000
  70
    32
  0
VERTEX
  8
AM_0
  5
1D44B
 10
868.002
 20
271.722
 30
0.000000
  70
    32
  0
VERTEX
  8
AM_0
  5
1D44C
 10
868.023
 20
271.734
 30
0.000000
  70
    32
  0
VERTEX
  8
AM_0
  5
1D44D
 10
868.044
 20
271.746
 30
0.000000
  70
    32
  0
VERTEX
  8
AM_0
  5
1D44E
 10
868.066
 20
271.759
 30
0.000000
  70
    32
  0
VERTEX
  8
AM_0
  5
1D44F
 10
868.087
 20
271.771
 30
0.000000
  70
    32
  0
VERTEX
  8
AM_0
  5
1D450
 10
868.107
 20
271.784
 30
0.000000
  70
    32
  0
VERTEX
  8
AM_0
  5
1D451
 10
868.128
 20
271.798
 30
0.000000
  70
    32
  0
VERTEX
  8
AM_0
  5
1D452
 10
868.149
 20
271.811
 30
0.000000
  70
    32
  0
VERTEX
  8
AM_0
  5
1D453
 10
868.169
 20
271.825
 30
0.000000
  70
    32
  0
VERTEX
  8
AM_0
  5
1D454
 10
868.189
 20
271.839
 30
0.000000
  70
    32
  0
VERTEX
  8
AM_0
  5
1D455
 10
868.209
 20
271.853
 30
0.000000
  70
    32
  0
VERTEX
  8
AM_0
  5
1D456
 10
868.229
 20
271.868
 30
0.000000
  70
    32
  0
VERTEX
  8
AM_0
  5
1D457
 10
868.248
 20
271.882
 30
0.000000
  70
    32
  0
VERTEX
  8
AM_0
  5
1D458
 10
868.268
 20
271.897
 30
0.000000
  70
    32
  0
VERTEX
  8
AM_0
  5
1D459
 10
868.287
 20
271.913
 30
0.000000
  70
    32
  0
VERTEX
  8
AM_0
  5
1D45A
 10
868.306
 20
271.928
 30
0.000000
  70
    32
  0
VERTEX
  8
AM_0
  5
1D45B
 10
868.325
 20
271.944
 30
0.000000
  70
    32
  0
VERTEX
  8
AM_0
  5
1D45C
 10
868.344
 20
271.960
 30
0.000000
  70
    32
  0
VERTEX
  8
AM_0
  5
1D45D
 10
868.362
 20
271.976
 30
0.000000
  70
    32
  0
VERTEX
  8
AM_0
  5
1D45E
 10
868.380
 20
271.992
 30
0.000000
  70
    32
  0
VERTEX
  8
AM_0
  5
1D45F
 10
868.399
 20
272.009
 30
0.000000
  70
    32
  0
VERTEX
  8
AM_0
  5
1D460
 10
868.416
 20
272.026
 30
0.000000
  70
    32
  0
VERTEX
  8
AM_0
  5
1D461
 10
868.434
 20
272.043
 30
0.000000
  70
    32
  0
VERTEX
  8
AM_0
  5
1D462
 10
868.452
 20
272.060
 30
0.000000
  70
    32
  0
VERTEX
  8
AM_0
  5
1D463
 10
868.469
 20
272.077
 30
0.000000
  70
    32
  0
VERTEX
  8
AM_0
  5
1D464
 10
868.486
 20
272.095
 30
0.000000
  70
    32
  0
VERTEX
  8
AM_0
  5
1D465
 10
868.503
 20
272.113
 30
0.000000
  70
    32
  0
VERTEX
  8
AM_0
  5
1D466
 10
868.519
 20
272.131
 30
0.000000
  70
    32
  0
VERTEX
  8
AM_0
  5
1D467
 10
868.536
 20
272.149
 30
0.000000
  70
    32
  0
VERTEX
  8
AM_0
  5
1D468
 10
868.552
 20
272.168
 30
0.000000
  70
    32
  0
VERTEX
  8
AM_0
  5
1D469
 10
868.568
 20
272.187
 30
0.000000
  70
    32
  0
VERTEX
  8
AM_0
  5
1D46A
 10
868.583
 20
272.205
 30
0.000000
  70
    32
  0
VERTEX
  8
AM_0
  5
1D46B
 10
868.599
 20
272.224
 30
0.000000
  70
    32
  0
VERTEX
  8
AM_0
  5
1D46C
 10
868.614
 20
272.244
 30
0.000000
  70
    32
  0
VERTEX
  8
AM_0
  5
1D46D
 10
868.629
 20
272.263
 30
0.000000
  70
    32
  0
VERTEX
  8
AM_0
  5
1D46E
 10
868.644
 20
272.283
 30
0.000000
  70
    32
  0
VERTEX
  8
AM_0
  5
1D46F
 10
868.658
 20
272.303
 30
0.000000
  70
    32
  0
VERTEX
  8
AM_0
  5
1D470
 10
868.673
 20
272.323
 30
0.000000
  70
    32
  0
VERTEX
  8
AM_0
  5
1D471
 10
868.687
 20
272.343
 30
0.000000
  70
    32
  0
VERTEX
  8
AM_0
  5
1D472
 10
868.700
 20
272.363
 30
0.000000
  70
    32
  0
VERTEX
  8
AM_0
  5
1D473
 10
868.714
 20
272.384
 30
0.000000
  70
    32
  0
VERTEX
  8
AM_0
  5
1D474
 10
868.727
 20
272.404
 30
0.000000
  70
    32
  0
VERTEX
  8
AM_0
  5
1D475
 10
868.740
 20
272.425
 30
0.000000
  70
    32
  0
VERTEX
  8
AM_0
  5
1D476
 10
868.753
 20
272.446
 30
0.000000
  70
    32
  0
VERTEX
  8
AM_0
  5
1D477
 10
868.765
 20
272.467
 30
0.000000
  70
    32
  0
VERTEX
  8
AM_0
  5
1D478
 10
868.778
 20
272.488
 30
0.000000
  70
    32
  0
VERTEX
  8
AM_0
  5
1D479
 10
868.790
 20
272.510
 30
0.000000
  70
    32
  0
VERTEX
  8
AM_0
  5
1D47A
 10
868.801
 20
272.531
 30
0.000000
  70
    32
  0
VERTEX
  8
AM_0
  5
1D47B
 10
868.813
 20
272.553
 30
0.000000
  70
    32
  0
VERTEX
  8
AM_0
  5
1D47C
 10
868.824
 20
272.575
 30
0.000000
  70
    32
  0
VERTEX
  8
AM_0
  5
1D47D
 10
868.835
 20
272.597
 30
0.000000
  70
    32
  0
VERTEX
  8
AM_0
  5
1D47E
 10
868.845
 20
272.619
 30
0.000000
  70
    32
  0
VERTEX
  8
AM_0
  5
1D47F
 10
868.856
 20
272.641
 30
0.000000
  70
    32
  0
VERTEX
  8
AM_0
  5
1D480
 10
868.866
 20
272.664
 30
0.000000
  70
    32
  0
VERTEX
  8
AM_0
  5
1D481
 10
868.876
 20
272.686
 30
0.000000
  70
    32
  0
VERTEX
  8
AM_0
  5
1D482
 10
868.885
 20
272.709
 30
0.000000
  70
    32
  0
VERTEX
  8
AM_0
  5
1D483
 10
868.894
 20
272.732
 30
0.000000
  70
    32
  0
VERTEX
  8
AM_0
  5
1D484
 10
868.903
 20
272.754
 30
0.000000
  70
    32
  0
VERTEX
  8
AM_0
  5
1D485
 10
868.912
 20
272.777
 30
0.000000
  70
    32
  0
VERTEX
  8
AM_0
  5
1D486
 10
868.920
 20
272.800
 30
0.000000
  70
    32
  0
VERTEX
  8
AM_0
  5
1D487
 10
868.929
 20
272.824
 30
0.000000
  70
    32
  0
VERTEX
  8
AM_0
  5
1D488
 10
868.936
 20
272.847
 30
0.000000
  70
    32
  0
VERTEX
  8
AM_0
  5
1D489
 10
868.944
 20
272.870
 30
0.000000
  70
    32
  0
VERTEX
  8
AM_0
  5
1D48A
 10
868.951
 20
272.894
 30
0.000000
  70
    32
  0
VERTEX
  8
AM_0
  5
1D48B
 10
868.958
 20
272.917
 30
0.000000
  70
    32
  0
VERTEX
  8
AM_0
  5
1D48C
 10
868.965
 20
272.941
 30
0.000000
  70
    32
  0
VERTEX
  8
AM_0
  5
1D48D
 10
868.971
 20
272.964
 30
0.000000
  70
    32
  0
VERTEX
  8
AM_0
  5
1D48E
 10
868.977
 20
272.988
 30
0.000000
  70
    32
  0
VERTEX
  8
AM_0
  5
1D48F
 10
868.983
 20
273.012
 30
0.000000
  70
    32
  0
VERTEX
  8
AM_0
  5
1D490
 10
868.989
 20
273.036
 30
0.000000
  70
    32
  0
VERTEX
  8
AM_0
  5
1D491
 10
868.994
 20
273.060
 30
0.000000
  70
    32
  0
VERTEX
  8
AM_0
  5
1D492
 10
868.999
 20
273.084
 30
0.000000
  70
    32
  0
VERTEX
  8
AM_0
  5
1D493
 10
869.004
 20
273.108
 30
0.000000
  70
    32
  0
VERTEX
  8
AM_0
  5
1D494
 10
869.008
 20
273.132
 30
0.000000
  70
    32
  0
VERTEX
  8
AM_0
  5
1D495
 10
869.012
 20
273.156
 30
0.000000
  70
    32
  0
VERTEX
  8
AM_0
  5
1D496
 10
869.016
 20
273.181
 30
0.000000
  70
    32
  0
VERTEX
  8
AM_0
  5
1D497
 10
869.019
 20
273.205
 30
0.000000
  70
    32
  0
VERTEX
  8
AM_0
  5
1D498
 10
869.022
 20
273.229
 30
0.000000
  70
    32
  0
VERTEX
  8
AM_0
  5
1D499
 10
869.025
 20
273.254
 30
0.000000
  70
    32
  0
VERTEX
  8
AM_0
  5
1D49A
 10
869.028
 20
273.278
 30
0.000000
  70
    32
  0
VERTEX
  8
AM_0
  5
1D49B
 10
869.030
 20
273.303
 30
0.000000
  70
    32
  0
VERTEX
  8
AM_0
  5
1D49C
 10
869.032
 20
273.327
 30
0.000000
  70
    32
  0
VERTEX
  8
AM_0
  5
1D49D
 10
869.034
 20
273.352
 30
0.000000
  70
    32
  0
VERTEX
  8
AM_0
  5
1D49E
 10
869.035
 20
273.376
 30
0.000000
  70
    32
  0
VERTEX
  8
AM_0
  5
1D49F
 10
869.036
 20
273.401
 30
0.000000
  70
    32
  0
VERTEX
  8
AM_0
  5
1D4A0
 10
869.037
 20
273.425
 30
0.000000
  70
    32
  0
VERTEX
  8
AM_0
  5
1D4A1
 10
869.037
 20
273.450
 30
0.000000
  70
    32
  0
VERTEX
  8
AM_0
  5
1D4A2
 10
869.037
 20
273.474
 30
0.000000
  70
    32
  0
SEQEND
  8
AM_0
  5
1D4A3
  0
LINE
  5
1BA51
  8
AM_0
 10
861.03737595723112
 20
270.47414092401851
 30
0.0
 11
861.03737595723112
 21
285.47444137136222
 31
0.0
  0
LINE
  5
1BA52
  8
AM_0
 10
867.03737613616465
 20
271.47416095384142
 30
0.0
 11
861.03737595723112
 21
271.47416095384142
 31
0.0
  0
LINE
  5
1BA53
  8
AM_0
 10
870.03737622563187
 20
270.47414092401851
 30
0.0
 11
861.03737595723112
 21
270.47414092401851
 31
0.0
  0
LINE
  5
1BA55
  8
AM_0
 10
867.03737613616465
 20
284.47442134153948
 30
0.0
 11
861.03737595723112
 21
284.47442134153948
 31
0.0
  0
LINE
  5
1BA56
  8
AM_0
 10
870.03737622563187
 20
285.47444137136222
 30
0.0
 11
861.03737595723112
 21
285.47444137136222
 31
0.0
  0
POLYLINE
  5
1BA57
  8
AM_0
 10
869.03737619580932
 20
282.47438145674266
 30
0.0
 66
     1
 70
     8
  0
VERTEX
  8
AM_0
  5
1D4A4
 10
869.037
 20
282.474
 30
0.000000
  70
    32
  0
VERTEX
  8
AM_0
  5
1D4A5
 10
869.037
 20
282.499
 30
0.000000
  70
    32
  0
VERTEX
  8
AM_0
  5
1D4A6
 10
869.037
 20
282.523
 30
0.000000
  70
    32
  0
VERTEX
  8
AM_0
  5
1D4A7
 10
869.036
 20
282.548
 30
0.000000
  70
    32
  0
VERTEX
  8
AM_0
  5
1D4A8
 10
869.035
 20
282.573
 30
0.000000
  70
    32
  0
VERTEX
  8
AM_0
  5
1D4A9
 10
869.034
 20
282.597
 30
0.000000
  70
    32
  0
VERTEX
  8
AM_0
  5
1D4AA
 10
869.032
 20
282.622
 30
0.000000
  70
    32
  0
VERTEX
  8
AM_0
  5
1D4AB
 10
869.030
 20
282.646
 30
0.000000
  70
    32
  0
VERTEX
  8
AM_0
  5
1D4AC
 10
869.028
 20
282.670
 30
0.000000
  70
    32
  0
VERTEX
  8
AM_0
  5
1D4AD
 10
869.025
 20
282.695
 30
0.000000
  70
    32
  0
VERTEX
  8
AM_0
  5
1D4AE
 10
869.022
 20
282.719
 30
0.000000
  70
    32
  0
VERTEX
  8
AM_0
  5
1D4AF
 10
869.019
 20
282.744
 30
0.000000
  70
    32
  0
VERTEX
  8
AM_0
  5
1D4B0
 10
869.016
 20
282.768
 30
0.000000
  70
    32
  0
VERTEX
  8
AM_0
  5
1D4B1
 10
869.012
 20
282.792
 30
0.000000
  70
    32
  0
VERTEX
  8
AM_0
  5
1D4B2
 10
869.008
 20
282.816
 30
0.000000
  70
    32
  0
VERTEX
  8
AM_0
  5
1D4B3
 10
869.004
 20
282.840
 30
0.000000
  70
    32
  0
VERTEX
  8
AM_0
  5
1D4B4
 10
868.999
 20
282.865
 30
0.000000
  70
    32
  0
VERTEX
  8
AM_0
  5
1D4B5
 10
868.994
 20
282.889
 30
0.000000
  70
    32
  0
VERTEX
  8
AM_0
  5
1D4B6
 10
868.989
 20
282.913
 30
0.000000
  70
    32
  0
VERTEX
  8
AM_0
  5
1D4B7
 10
868.983
 20
282.937
 30
0.000000
  70
    32
  0
VERTEX
  8
AM_0
  5
1D4B8
 10
868.977
 20
282.960
 30
0.000000
  70
    32
  0
VERTEX
  8
AM_0
  5
1D4B9
 10
868.971
 20
282.984
 30
0.000000
  70
    32
  0
VERTEX
  8
AM_0
  5
1D4BA
 10
868.965
 20
283.008
 30
0.000000
  70
    32
  0
VERTEX
  8
AM_0
  5
1D4BB
 10
868.958
 20
283.031
 30
0.000000
  70
    32
  0
VERTEX
  8
AM_0
  5
1D4BC
 10
868.951
 20
283.055
 30
0.000000
  70
    32
  0
VERTEX
  8
AM_0
  5
1D4BD
 10
868.944
 20
283.078
 30
0.000000
  70
    32
  0
VERTEX
  8
AM_0
  5
1D4BE
 10
868.936
 20
283.102
 30
0.000000
  70
    32
  0
VERTEX
  8
AM_0
  5
1D4BF
 10
868.929
 20
283.125
 30
0.000000
  70
    32
  0
VERTEX
  8
AM_0
  5
1D4C0
 10
868.920
 20
283.148
 30
0.000000
  70
    32
  0
VERTEX
  8
AM_0
  5
1D4C1
 10
868.912
 20
283.171
 30
0.000000
  70
    32
  0
VERTEX
  8
AM_0
  5
1D4C2
 10
868.903
 20
283.194
 30
0.000000
  70
    32
  0
VERTEX
  8
AM_0
  5
1D4C3
 10
868.894
 20
283.217
 30
0.000000
  70
    32
  0
VERTEX
  8
AM_0
  5
1D4C4
 10
868.885
 20
283.240
 30
0.000000
  70
    32
  0
VERTEX
  8
AM_0
  5
1D4C5
 10
868.876
 20
283.262
 30
0.000000
  70
    32
  0
VERTEX
  8
AM_0
  5
1D4C6
 10
868.866
 20
283.285
 30
0.000000
  70
    32
  0
VERTEX
  8
AM_0
  5
1D4C7
 10
868.856
 20
283.307
 30
0.000000
  70
    32
  0
VERTEX
  8
AM_0
  5
1D4C8
 10
868.845
 20
283.330
 30
0.000000
  70
    32
  0
VERTEX
  8
AM_0
  5
1D4C9
 10
868.835
 20
283.352
 30
0.000000
  70
    32
  0
VERTEX
  8
AM_0
  5
1D4CA
 10
868.824
 20
283.374
 30
0.000000
  70
    32
  0
VERTEX
  8
AM_0
  5
1D4CB
 10
868.813
 20
283.395
 30
0.000000
  70
    32
  0
VERTEX
  8
AM_0
  5
1D4CC
 10
868.801
 20
283.417
 30
0.000000
  70
    32
  0
VERTEX
  8
AM_0
  5
1D4CD
 10
868.790
 20
283.439
 30
0.000000
  70
    32
  0
VERTEX
  8
AM_0
  5
1D4CE
 10
868.778
 20
283.460
 30
0.000000
  70
    32
  0
VERTEX
  8
AM_0
  5
1D4CF
 10
868.765
 20
283.481
 30
0.000000
  70
    32
  0
VERTEX
  8
AM_0
  5
1D4D0
 10
868.753
 20
283.503
 30
0.000000
  70
    32
  0
VERTEX
  8
AM_0
  5
1D4D1
 10
868.740
 20
283.524
 30
0.000000
  70
    32
  0
VERTEX
  8
AM_0
  5
1D4D2
 10
868.727
 20
283.544
 30
0.000000
  70
    32
  0
VERTEX
  8
AM_0
  5
1D4D3
 10
868.714
 20
283.565
 30
0.000000
  70
    32
  0
VERTEX
  8
AM_0
  5
1D4D4
 10
868.700
 20
283.586
 30
0.000000
  70
    32
  0
VERTEX
  8
AM_0
  5
1D4D5
 10
868.687
 20
283.606
 30
0.000000
  70
    32
  0
VERTEX
  8
AM_0
  5
1D4D6
 10
868.673
 20
283.626
 30
0.000000
  70
    32
  0
VERTEX
  8
AM_0
  5
1D4D7
 10
868.658
 20
283.646
 30
0.000000
  70
    32
  0
VERTEX
  8
AM_0
  5
1D4D8
 10
868.644
 20
283.666
 30
0.000000
  70
    32
  0
VERTEX
  8
AM_0
  5
1D4D9
 10
868.629
 20
283.685
 30
0.000000
  70
    32
  0
VERTEX
  8
AM_0
  5
1D4DA
 10
868.614
 20
283.705
 30
0.000000
  70
    32
  0
VERTEX
  8
AM_0
  5
1D4DB
 10
868.599
 20
283.724
 30
0.000000
  70
    32
  0
VERTEX
  8
AM_0
  5
1D4DC
 10
868.583
 20
283.743
 30
0.000000
  70
    32
  0
VERTEX
  8
AM_0
  5
1D4DD
 10
868.568
 20
283.762
 30
0.000000
  70
    32
  0
VERTEX
  8
AM_0
  5
1D4DE
 10
868.552
 20
283.781
 30
0.000000
  70
    32
  0
VERTEX
  8
AM_0
  5
1D4DF
 10
868.536
 20
283.799
 30
0.000000
  70
    32
  0
VERTEX
  8
AM_0
  5
1D4E0
 10
868.519
 20
283.818
 30
0.000000
  70
    32
  0
VERTEX
  8
AM_0
  5
1D4E1
 10
868.503
 20
283.836
 30
0.000000
  70
    32
  0
VERTEX
  8
AM_0
  5
1D4E2
 10
868.486
 20
283.853
 30
0.000000
  70
    32
  0
VERTEX
  8
AM_0
  5
1D4E3
 10
868.469
 20
283.871
 30
0.000000
  70
    32
  0
VERTEX
  8
AM_0
  5
1D4E4
 10
868.452
 20
283.889
 30
0.000000
  70
    32
  0
VERTEX
  8
AM_0
  5
1D4E5
 10
868.434
 20
283.906
 30
0.000000
  70
    32
  0
VERTEX
  8
AM_0
  5
1D4E6
 10
868.416
 20
283.923
 30
0.000000
  70
    32
  0
VERTEX
  8
AM_0
  5
1D4E7
 10
868.399
 20
283.940
 30
0.000000
  70
    32
  0
VERTEX
  8
AM_0
  5
1D4E8
 10
868.380
 20
283.956
 30
0.000000
  70
    32
  0
VERTEX
  8
AM_0
  5
1D4E9
 10
868.362
 20
283.973
 30
0.000000
  70
    32
  0
VERTEX
  8
AM_0
  5
1D4EA
 10
868.344
 20
283.989
 30
0.000000
  70
    32
  0
VERTEX
  8
AM_0
  5
1D4EB
 10
868.325
 20
284.005
 30
0.000000
  70
    32
  0
VERTEX
  8
AM_0
  5
1D4EC
 10
868.306
 20
284.020
 30
0.000000
  70
    32
  0
VERTEX
  8
AM_0
  5
1D4ED
 10
868.287
 20
284.036
 30
0.000000
  70
    32
  0
VERTEX
  8
AM_0
  5
1D4EE
 10
868.268
 20
284.051
 30
0.000000
  70
    32
  0
VERTEX
  8
AM_0
  5
1D4EF
 10
868.248
 20
284.066
 30
0.000000
  70
    32
  0
VERTEX
  8
AM_0
  5
1D4F0
 10
868.229
 20
284.081
 30
0.000000
  70
    32
  0
VERTEX
  8
AM_0
  5
1D4F1
 10
868.209
 20
284.095
 30
0.000000
  70
    32
  0
VERTEX
  8
AM_0
  5
1D4F2
 10
868.189
 20
284.110
 30
0.000000
  70
    32
  0
VERTEX
  8
AM_0
  5
1D4F3
 10
868.169
 20
284.124
 30
0.000000
  70
    32
  0
VERTEX
  8
AM_0
  5
1D4F4
 10
868.149
 20
284.137
 30
0.000000
  70
    32
  0
VERTEX
  8
AM_0
  5
1D4F5
 10
868.128
 20
284.151
 30
0.000000
  70
    32
  0
VERTEX
  8
AM_0
  5
1D4F6
 10
868.107
 20
284.164
 30
0.000000
  70
    32
  0
VERTEX
  8
AM_0
  5
1D4F7
 10
868.087
 20
284.177
 30
0.000000
  70
    32
  0
VERTEX
  8
AM_0
  5
1D4F8
 10
868.066
 20
284.190
 30
0.000000
  70
    32
  0
VERTEX
  8
AM_0
  5
1D4F9
 10
868.044
 20
284.202
 30
0.000000
  70
    32
  0
VERTEX
  8
AM_0
  5
1D4FA
 10
868.023
 20
284.215
 30
0.000000
  70
    32
  0
VERTEX
  8
AM_0
  5
1D4FB
 10
868.002
 20
284.227
 30
0.000000
  70
    32
  0
VERTEX
  8
AM_0
  5
1D4FC
 10
867.980
 20
284.238
 30
0.000000
  70
    32
  0
VERTEX
  8
AM_0
  5
1D4FD
 10
867.958
 20
284.250
 30
0.000000
  70
    32
  0
VERTEX
  8
AM_0
  5
1D4FE
 10
867.937
 20
284.261
 30
0.000000
  70
    32
  0
VERTEX
  8
AM_0
  5
1D4FF
 10
867.915
 20
284.272
 30
0.000000
  70
    32
  0
VERTEX
  8
AM_0
  5
1D500
 10
867.892
 20
284.282
 30
0.000000
  70
    32
  0
VERTEX
  8
AM_0
  5
1D501
 10
867.870
 20
284.293
 30
0.000000
  70
    32
  0
VERTEX
  8
AM_0
  5
1D502
 10
867.848
 20
284.303
 30
0.000000
  70
    32
  0
VERTEX
  8
AM_0
  5
1D503
 10
867.825
 20
284.313
 30
0.000000
  70
    32
  0
VERTEX
  8
AM_0
  5
1D504
 10
867.803
 20
284.322
 30
0.000000
  70
    32
  0
VERTEX
  8
AM_0
  5
1D505
 10
867.780
 20
284.331
 30
0.000000
  70
    32
  0
VERTEX
  8
AM_0
  5
1D506
 10
867.757
 20
284.340
 30
0.000000
  70
    32
  0
VERTEX
  8
AM_0
  5
1D507
 10
867.734
 20
284.349
 30
0.000000
  70
    32
  0
VERTEX
  8
AM_0
  5
1D508
 10
867.711
 20
284.358
 30
0.000000
  70
    32
  0
VERTEX
  8
AM_0
  5
1D509
 10
867.688
 20
284.366
 30
0.000000
  70
    32
  0
VERTEX
  8
AM_0
  5
1D50A
 10
867.665
 20
284.373
 30
0.000000
  70
    32
  0
VERTEX
  8
AM_0
  5
1D50B
 10
867.641
 20
284.381
 30
0.000000
  70
    32
  0
VERTEX
  8
AM_0
  5
1D50C
 10
867.618
 20
284.388
 30
0.000000
  70
    32
  0
VERTEX
  8
AM_0
  5
1D50D
 10
867.594
 20
284.395
 30
0.000000
  70
    32
  0
VERTEX
  8
AM_0
  5
1D50E
 10
867.571
 20
284.402
 30
0.000000
  70
    32
  0
VERTEX
  8
AM_0
  5
1D50F
 10
867.547
 20
284.408
 30
0.000000
  70
    32
  0
VERTEX
  8
AM_0
  5
1D510
 10
867.523
 20
284.414
 30
0.000000
  70
    32
  0
VERTEX
  8
AM_0
  5
1D511
 10
867.499
 20
284.420
 30
0.000000
  70
    32
  0
VERTEX
  8
AM_0
  5
1D512
 10
867.476
 20
284.426
 30
0.000000
  70
    32
  0
VERTEX
  8
AM_0
  5
1D513
 10
867.452
 20
284.431
 30
0.000000
  70
    32
  0
VERTEX
  8
AM_0
  5
1D514
 10
867.428
 20
284.436
 30
0.000000
  70
    32
  0
VERTEX
  8
AM_0
  5
1D515
 10
867.403
 20
284.441
 30
0.000000
  70
    32
  0
VERTEX
  8
AM_0
  5
1D516
 10
867.379
 20
284.445
 30
0.000000
  70
    32
  0
VERTEX
  8
AM_0
  5
1D517
 10
867.355
 20
284.449
 30
0.000000
  70
    32
  0
VERTEX
  8
AM_0
  5
1D518
 10
867.331
 20
284.453
 30
0.000000
  70
    32
  0
VERTEX
  8
AM_0
  5
1D519
 10
867.307
 20
284.456
 30
0.000000
  70
    32
  0
VERTEX
  8
AM_0
  5
1D51A
 10
867.282
 20
284.459
 30
0.000000
  70
    32
  0
VERTEX
  8
AM_0
  5
1D51B
 10
867.258
 20
284.462
 30
0.000000
  70
    32
  0
VERTEX
  8
AM_0
  5
1D51C
 10
867.233
 20
284.465
 30
0.000000
  70
    32
  0
VERTEX
  8
AM_0
  5
1D51D
 10
867.209
 20
284.467
 30
0.000000
  70
    32
  0
VERTEX
  8
AM_0
  5
1D51E
 10
867.185
 20
284.469
 30
0.000000
  70
    32
  0
VERTEX
  8
AM_0
  5
1D51F
 10
867.160
 20
284.471
 30
0.000000
  70
    32
  0
VERTEX
  8
AM_0
  5
1D520
 10
867.136
 20
284.472
 30
0.000000
  70
    32
  0
VERTEX
  8
AM_0
  5
1D521
 10
867.111
 20
284.473
 30
0.000000
  70
    32
  0
VERTEX
  8
AM_0
  5
1D522
 10
867.086
 20
284.474
 30
0.000000
  70
    32
  0
VERTEX
  8
AM_0
  5
1D523
 10
867.062
 20
284.474
 30
0.000000
  70
    32
  0
VERTEX
  8
AM_0
  5
1D524
 10
867.037
 20
284.474
 30
0.000000
  70
    32
  0
SEQEND
  8
AM_0
  5
1D525
  0
LINE
  5
1BA58
  8
AM_0
 10
875.0373763747433
 20
272.97439129660489
 30
0.0
 11
870.03737622563187
 21
272.97439129660489
 31
0.0
  0
LINE
  5
1BA59
  8
AM_0
 10
869.03737619580966
 20
273.47420101348717
 30
0.0
 11
869.03737619580966
 21
282.47438128189361
 31
0.0
  0
LINE
  5
1BA6D
  8
AM_0
 10
875.0373763747433
 20
356.98537753743159
 30
0.0
 11
875.31737446611498
 21
356.97555302653433
 31
0.0
  0
LINE
  5
1BA72
  8
AM_0
 10
875.0373763747433
 20
354.96588342277818
 30
0.0
 11
875.31737446611498
 21
354.97555302653433
 31
0.0
  0
ARC
  5
1BA73
  8
AM_0
 10
875.27592946611514
 20
355.97512402653479
 30
0.0
 40
1.000429999999999
 50
272.37428399999629
 51
89.917241999999845
  0
LINE
  5
1BA75
  8
AM_0
 10
845.03737548007405
 20
402.97519249132199
 30
0.0
 11
870.03737622563187
 21
402.66257959762999
 31
0.0
  0
LINE
  5
1BA78
  8
ﾁｭｳｼﾝｾﾝ1
 10
749.03737270659769
 20
387.97649442821222
 30
0.0
 11
873.03737622563199
 21
387.97649442821222
 31
0.0
  0
LINE
  5
1BA79
  8
ｶｸﾚｾﾝ2
 10
752.03737270659792
 20
380.97635421945159
 30
0.0
 11
870.03737622563187
 21
380.97635421945159
 31
0.0
  0
LINE
  5
1BA7A
  8
ｶｸﾚｾﾝ2
 10
752.03737270659792
 20
394.97663463697251
 30
0.0
 11
870.03737622563187
 21
394.97663463697251
 31
0.0
  0
LINE
  5
1BA7F
  8
AM_0
 10
752.03737270659792
 20
401.23124599720518
 30
0.0
 11
845.03737548007405
 21
402.97519249132199
 31
0.0
  0
LINE
  5
1BA84
  8
AM_0
 10
747.03737255748615
 20
372.97599368283858
 30
0.0
 11
752.03737270659792
 21
372.97599368283858
 31
0.0
  0
LINE
  5
1BA87
  8
AM_0
 10
752.03737270659769
 20
374.90948242488992
 30
0.0
 11
750.16737446611478
 21
374.97555302653433
 31
0.0
  0
LINE
  5
1BA88
  8
AM_0
 10
752.03737270659792
 20
377.03917379781831
 30
0.0
 11
750.16737446611478
 21
376.97555302653433
 31
0.0
  0
ARC
  5
1BA89
  8
AM_0
 10
750.21086746611479
 20
375.97508302653472
 30
0.0
 40
1.000475999999999
 50
90.200047999992421
 51
267.50842600000431
  0
ARC
  5
1BA8A
  8
AM_0
 10
811.03737446611467
 20
340.97555302653433
 30
0.0
 40
63.503836254666012
 50
76.113685254996739
 51
106.0348967062143
  0
LINE
  5
1BA8C
  8
AM_0
 10
784.96467576417422
 20
401.8487024812427
 30
0.0
 11
785.03734446559474
 21
403.89555802779262
 31
0.0
  0
LINE
  5
1BA8D
  8
AM_0
 10
787.10659686318638
 20
401.88886802618788
 30
0.0
 11
787.03737446563468
 21
403.89555002779281
 31
0.0
  0
ARC
  5
1BA8E
  8
AM_0
 10
776.03755546611467
 20
401.80847902653443
 30
0.0
 40
1.0001850000000001
 50
1.551130999995167
 51
180.16761299999791
  0
LINE
  5
1BA8F
  8
AM_0
 10
775.02971808696043
 20
401.66240103937508
 30
0.0
 11
775.0373747458824
 21
401.80555309079
 31
0.0
  0
LINE
  5
1BA93
  8
AM_0
 10
777.04216566615025
 20
401.70013868233912
 30
0.0
 11
777.03737446611501
 21
401.83555302653428
 31
0.0
  0
ARC
  5
1BA96
  8
AM_0
 10
786.03761446561475
 20
403.85934102779191
 30
0.0
 40
1.000393500020007
 50
2.0744399999949339
 51
179.0714379999965
  0
LINE
  5
1BA97
  8
AM_0
 10
794.93697497161156
 20
402.40449046791309
 30
0.0
 11
795.03737446579464
 21
405.25555902782008
 31
0.0
  0
ARC
  5
1BA98
  8
AM_0
 10
796.037774465815
 20
405.21486302781932
 30
0.0
 40
1.000414000020007
 50
2.331049999997969
 51
179.96048300000029
  0
LINE
  5
1BA99
  8
AM_0
 10
797.11738402376545
 20
402.93498398861078
 30
0.0
 11
797.03734446583485
 21
405.25555502781998
 31
0.0
  0
LINE
  5
1BA9A
  8
AM_0
 10
804.97716803327637
 20
404.1895634755702
 30
0.0
 11
805.03737446599496
 21
405.93555102783358
 31
0.0
  0
LINE
  5
1BA9B
  8
AM_0
 10
807.07734827555407
 20
404.35579767444881
 30
0.0
 11
807.03737446603475
 21
405.93555502783357
 31
0.0
  0
ARC
  5
1BA9C
  8
AM_0
 10
806.03792446601494
 20
405.88781002783259
 30
0.0
 40
1.0005848000200099
 50
2.735039999997932
 51
179.5564910000007
  0
LINE
  5
1BA9E
  8
AM_0
 10
827.129502445296
 20
402.63938204546469
 30
0.0
 11
827.03737446643493
 21
405.25555502781998
 31
0.0
  0
LINE
  5
1BA9F
  8
AM_0
 10
814.97743101818082
 20
404.35704222824
 30
0.0
 11
815.03737446619482
 21
405.93555102783358
 31
0.0
  0
LINE
  5
1BAA0
  8
AM_0
 10
817.0975810031016
 20
404.18956346558559
 30
0.0
 11
817.03737446623495
 21
405.93555102783358
 31
0.0
  0
ARC
  5
1BAA1
  8
AM_0
 10
816.03679446621459
 20
405.88713102783242
 30
0.0
 40
1.0006038000200119
 50
0.4821899999981778
 51
177.2262829999969
  0
LINE
  5
1BAA2
  8
AM_0
 10
824.95736491573973
 20
402.93498398697619
 30
0.0
 11
825.03737446639479
 21
405.25555502781998
 31
0.0
  0
ARC
  5
1BAA3
  8
AM_0
 10
826.03694446641464
 20
405.2141880278192
 30
0.0
 40
1.0004282000200071
 50
0.0782200000044964
 51
177.6302479999965
  0
LINE
  5
1BAAA
  8
AM_0
 10
837.07123278881465
 20
402.82581048913107
 30
0.0
 11
837.03737446663501
 21
403.89555402779263
 31
0.0
  0
LINE
  5
1BAAB
  8
AM_0
 10
834.99373765261214
 20
402.7868530670745
 30
0.0
 11
835.03734446659473
 21
403.89555802779262
 31
0.0
  0
ARC
  5
1BAAC
  8
AM_0
 10
836.03710446661501
 20
403.85900202779209
 30
0.0
 40
1.000402500020007
 50
0.9479099999999
 51
177.90620799999991
  0
POLYLINE
  5
1BAAE
  8
AM_0
 10
869.03737619580932
 20
372.47618414080551
 30
0.0
 66
     1
 70
     8
  0
VERTEX
  8
AM_0
  5
1D526
 10
869.037
 20
372.476
 30
0.000000
  70
    32
  0
VERTEX
  8
AM_0
  5
1D527
 10
869.037
 20
372.501
 30
0.000000
  70
    32
  0
VERTEX
  8
AM_0
  5
1D528
 10
869.037
 20
372.525
 30
0.000000
  70
    32
  0
VERTEX
  8
AM_0
  5
1D529
 10
869.036
 20
372.550
 30
0.000000
  70
    32
  0
VERTEX
  8
AM_0
  5
1D52A
 10
869.035
 20
372.574
 30
0.000000
  70
    32
  0
VERTEX
  8
AM_0
  5
1D52B
 10
869.034
 20
372.599
 30
0.000000
  70
    32
  0
VERTEX
  8
AM_0
  5
1D52C
 10
869.032
 20
372.623
 30
0.000000
  70
    32
  0
VERTEX
  8
AM_0
  5
1D52D
 10
869.030
 20
372.648
 30
0.000000
  70
    32
  0
VERTEX
  8
AM_0
  5
1D52E
 10
869.028
 20
372.672
 30
0.000000
  70
    32
  0
VERTEX
  8
AM_0
  5
1D52F
 10
869.025
 20
372.697
 30
0.000000
  70
    32
  0
VERTEX
  8
AM_0
  5
1D530
 10
869.022
 20
372.721
 30
0.000000
  70
    32
  0
VERTEX
  8
AM_0
  5
1D531
 10
869.019
 20
372.745
 30
0.000000
  70
    32
  0
VERTEX
  8
AM_0
  5
1D532
 10
869.016
 20
372.770
 30
0.000000
  70
    32
  0
VERTEX
  8
AM_0
  5
1D533
 10
869.012
 20
372.794
 30
0.000000
  70
    32
  0
VERTEX
  8
AM_0
  5
1D534
 10
869.008
 20
372.818
 30
0.000000
  70
    32
  0
VERTEX
  8
AM_0
  5
1D535
 10
869.004
 20
372.842
 30
0.000000
  70
    32
  0
VERTEX
  8
AM_0
  5
1D536
 10
868.999
 20
372.866
 30
0.000000
  70
    32
  0
VERTEX
  8
AM_0
  5
1D537
 10
868.994
 20
372.890
 30
0.000000
  70
    32
  0
VERTEX
  8
AM_0
  5
1D538
 10
868.989
 20
372.914
 30
0.000000
  70
    32
  0
VERTEX
  8
AM_0
  5
1D539
 10
868.983
 20
372.938
 30
0.000000
  70
    32
  0
VERTEX
  8
AM_0
  5
1D53A
 10
868.977
 20
372.962
 30
0.000000
  70
    32
  0
VERTEX
  8
AM_0
  5
1D53B
 10
868.971
 20
372.986
 30
0.000000
  70
    32
  0
VERTEX
  8
AM_0
  5
1D53C
 10
868.965
 20
373.010
 30
0.000000
  70
    32
  0
VERTEX
  8
AM_0
  5
1D53D
 10
868.958
 20
373.033
 30
0.000000
  70
    32
  0
VERTEX
  8
AM_0
  5
1D53E
 10
868.951
 20
373.057
 30
0.000000
  70
    32
  0
VERTEX
  8
AM_0
  5
1D53F
 10
868.944
 20
373.080
 30
0.000000
  70
    32
  0
VERTEX
  8
AM_0
  5
1D540
 10
868.936
 20
373.104
 30
0.000000
  70
    32
  0
VERTEX
  8
AM_0
  5
1D541
 10
868.929
 20
373.127
 30
0.000000
  70
    32
  0
VERTEX
  8
AM_0
  5
1D542
 10
868.920
 20
373.150
 30
0.000000
  70
    32
  0
VERTEX
  8
AM_0
  5
1D543
 10
868.912
 20
373.173
 30
0.000000
  70
    32
  0
VERTEX
  8
AM_0
  5
1D544
 10
868.903
 20
373.196
 30
0.000000
  70
    32
  0
VERTEX
  8
AM_0
  5
1D545
 10
868.894
 20
373.219
 30
0.000000
  70
    32
  0
VERTEX
  8
AM_0
  5
1D546
 10
868.885
 20
373.242
 30
0.000000
  70
    32
  0
VERTEX
  8
AM_0
  5
1D547
 10
868.876
 20
373.264
 30
0.000000
  70
    32
  0
VERTEX
  8
AM_0
  5
1D548
 10
868.866
 20
373.287
 30
0.000000
  70
    32
  0
VERTEX
  8
AM_0
  5
1D549
 10
868.856
 20
373.309
 30
0.000000
  70
    32
  0
VERTEX
  8
AM_0
  5
1D54A
 10
868.845
 20
373.331
 30
0.000000
  70
    32
  0
VERTEX
  8
AM_0
  5
1D54B
 10
868.835
 20
373.353
 30
0.000000
  70
    32
  0
VERTEX
  8
AM_0
  5
1D54C
 10
868.824
 20
373.375
 30
0.000000
  70
    32
  0
VERTEX
  8
AM_0
  5
1D54D
 10
868.813
 20
373.397
 30
0.000000
  70
    32
  0
VERTEX
  8
AM_0
  5
1D54E
 10
868.801
 20
373.419
 30
0.000000
  70
    32
  0
VERTEX
  8
AM_0
  5
1D54F
 10
868.790
 20
373.441
 30
0.000000
  70
    32
  0
VERTEX
  8
AM_0
  5
1D550
 10
868.778
 20
373.462
 30
0.000000
  70
    32
  0
VERTEX
  8
AM_0
  5
1D551
 10
868.765
 20
373.483
 30
0.000000
  70
    32
  0
VERTEX
  8
AM_0
  5
1D552
 10
868.753
 20
373.504
 30
0.000000
  70
    32
  0
VERTEX
  8
AM_0
  5
1D553
 10
868.740
 20
373.525
 30
0.000000
  70
    32
  0
VERTEX
  8
AM_0
  5
1D554
 10
868.727
 20
373.546
 30
0.000000
  70
    32
  0
VERTEX
  8
AM_0
  5
1D555
 10
868.714
 20
373.567
 30
0.000000
  70
    32
  0
VERTEX
  8
AM_0
  5
1D556
 10
868.700
 20
373.587
 30
0.000000
  70
    32
  0
VERTEX
  8
AM_0
  5
1D557
 10
868.687
 20
373.608
 30
0.000000
  70
    32
  0
VERTEX
  8
AM_0
  5
1D558
 10
868.673
 20
373.628
 30
0.000000
  70
    32
  0
VERTEX
  8
AM_0
  5
1D559
 10
868.658
 20
373.648
 30
0.000000
  70
    32
  0
VERTEX
  8
AM_0
  5
1D55A
 10
868.644
 20
373.668
 30
0.000000
  70
    32
  0
VERTEX
  8
AM_0
  5
1D55B
 10
868.629
 20
373.687
 30
0.000000
  70
    32
  0
VERTEX
  8
AM_0
  5
1D55C
 10
868.614
 20
373.707
 30
0.000000
  70
    32
  0
VERTEX
  8
AM_0
  5
1D55D
 10
868.599
 20
373.726
 30
0.000000
  70
    32
  0
VERTEX
  8
AM_0
  5
1D55E
 10
868.583
 20
373.745
 30
0.000000
  70
    32
  0
VERTEX
  8
AM_0
  5
1D55F
 10
868.568
 20
373.764
 30
0.000000
  70
    32
  0
VERTEX
  8
AM_0
  5
1D560
 10
868.552
 20
373.783
 30
0.000000
  70
    32
  0
VERTEX
  8
AM_0
  5
1D561
 10
868.536
 20
373.801
 30
0.000000
  70
    32
  0
VERTEX
  8
AM_0
  5
1D562
 10
868.519
 20
373.819
 30
0.000000
  70
    32
  0
VERTEX
  8
AM_0
  5
1D563
 10
868.503
 20
373.837
 30
0.000000
  70
    32
  0
VERTEX
  8
AM_0
  5
1D564
 10
868.486
 20
373.855
 30
0.000000
  70
    32
  0
VERTEX
  8
AM_0
  5
1D565
 10
868.469
 20
373.873
 30
0.000000
  70
    32
  0
VERTEX
  8
AM_0
  5
1D566
 10
868.452
 20
373.890
 30
0.000000
  70
    32
  0
VERTEX
  8
AM_0
  5
1D567
 10
868.434
 20
373.908
 30
0.000000
  70
    32
  0
VERTEX
  8
AM_0
  5
1D568
 10
868.416
 20
373.925
 30
0.000000
  70
    32
  0
VERTEX
  8
AM_0
  5
1D569
 10
868.399
 20
373.942
 30
0.000000
  70
    32
  0
VERTEX
  8
AM_0
  5
1D56A
 10
868.380
 20
373.958
 30
0.000000
  70
    32
  0
VERTEX
  8
AM_0
  5
1D56B
 10
868.362
 20
373.974
 30
0.000000
  70
    32
  0
VERTEX
  8
AM_0
  5
1D56C
 10
868.344
 20
373.991
 30
0.000000
  70
    32
  0
VERTEX
  8
AM_0
  5
1D56D
 10
868.325
 20
374.007
 30
0.000000
  70
    32
  0
VERTEX
  8
AM_0
  5
1D56E
 10
868.306
 20
374.022
 30
0.000000
  70
    32
  0
VERTEX
  8
AM_0
  5
1D56F
 10
868.287
 20
374.038
 30
0.000000
  70
    32
  0
VERTEX
  8
AM_0
  5
1D570
 10
868.268
 20
374.053
 30
0.000000
  70
    32
  0
VERTEX
  8
AM_0
  5
1D571
 10
868.248
 20
374.068
 30
0.000000
  70
    32
  0
VERTEX
  8
AM_0
  5
1D572
 10
868.229
 20
374.083
 30
0.000000
  70
    32
  0
VERTEX
  8
AM_0
  5
1D573
 10
868.209
 20
374.097
 30
0.000000
  70
    32
  0
VERTEX
  8
AM_0
  5
1D574
 10
868.189
 20
374.111
 30
0.000000
  70
    32
  0
VERTEX
  8
AM_0
  5
1D575
 10
868.169
 20
374.125
 30
0.000000
  70
    32
  0
VERTEX
  8
AM_0
  5
1D576
 10
868.149
 20
374.139
 30
0.000000
  70
    32
  0
VERTEX
  8
AM_0
  5
1D577
 10
868.128
 20
374.153
 30
0.000000
  70
    32
  0
VERTEX
  8
AM_0
  5
1D578
 10
868.107
 20
374.166
 30
0.000000
  70
    32
  0
VERTEX
  8
AM_0
  5
1D579
 10
868.087
 20
374.179
 30
0.000000
  70
    32
  0
VERTEX
  8
AM_0
  5
1D57A
 10
868.066
 20
374.192
 30
0.000000
  70
    32
  0
VERTEX
  8
AM_0
  5
1D57B
 10
868.044
 20
374.204
 30
0.000000
  70
    32
  0
VERTEX
  8
AM_0
  5
1D57C
 10
868.023
 20
374.216
 30
0.000000
  70
    32
  0
VERTEX
  8
AM_0
  5
1D57D
 10
868.002
 20
374.228
 30
0.000000
  70
    32
  0
VERTEX
  8
AM_0
  5
1D57E
 10
867.980
 20
374.240
 30
0.000000
  70
    32
  0
VERTEX
  8
AM_0
  5
1D57F
 10
867.958
 20
374.251
 30
0.000000
  70
    32
  0
VERTEX
  8
AM_0
  5
1D580
 10
867.937
 20
374.263
 30
0.000000
  70
    32
  0
VERTEX
  8
AM_0
  5
1D581
 10
867.915
 20
374.274
 30
0.000000
  70
    32
  0
VERTEX
  8
AM_0
  5
1D582
 10
867.892
 20
374.284
 30
0.000000
  70
    32
  0
VERTEX
  8
AM_0
  5
1D583
 10
867.870
 20
374.295
 30
0.000000
  70
    32
  0
VERTEX
  8
AM_0
  5
1D584
 10
867.848
 20
374.305
 30
0.000000
  70
    32
  0
VERTEX
  8
AM_0
  5
1D585
 10
867.825
 20
374.314
 30
0.000000
  70
    32
  0
VERTEX
  8
AM_0
  5
1D586
 10
867.803
 20
374.324
 30
0.000000
  70
    32
  0
VERTEX
  8
AM_0
  5
1D587
 10
867.780
 20
374.333
 30
0.000000
  70
    32
  0
VERTEX
  8
AM_0
  5
1D588
 10
867.757
 20
374.342
 30
0.000000
  70
    32
  0
VERTEX
  8
AM_0
  5
1D589
 10
867.734
 20
374.351
 30
0.000000
  70
    32
  0
VERTEX
  8
AM_0
  5
1D58A
 10
867.711
 20
374.359
 30
0.000000
  70
    32
  0
VERTEX
  8
AM_0
  5
1D58B
 10
867.688
 20
374.367
 30
0.000000
  70
    32
  0
VERTEX
  8
AM_0
  5
1D58C
 10
867.665
 20
374.375
 30
0.000000
  70
    32
  0
VERTEX
  8
AM_0
  5
1D58D
 10
867.641
 20
374.383
 30
0.000000
  70
    32
  0
VERTEX
  8
AM_0
  5
1D58E
 10
867.618
 20
374.390
 30
0.000000
  70
    32
  0
VERTEX
  8
AM_0
  5
1D58F
 10
867.594
 20
374.397
 30
0.000000
  70
    32
  0
VERTEX
  8
AM_0
  5
1D590
 10
867.571
 20
374.404
 30
0.000000
  70
    32
  0
VERTEX
  8
AM_0
  5
1D591
 10
867.547
 20
374.410
 30
0.000000
  70
    32
  0
VERTEX
  8
AM_0
  5
1D592
 10
867.523
 20
374.416
 30
0.000000
  70
    32
  0
VERTEX
  8
AM_0
  5
1D593
 10
867.499
 20
374.422
 30
0.000000
  70
    32
  0
VERTEX
  8
AM_0
  5
1D594
 10
867.476
 20
374.428
 30
0.000000
  70
    32
  0
VERTEX
  8
AM_0
  5
1D595
 10
867.452
 20
374.433
 30
0.000000
  70
    32
  0
VERTEX
  8
AM_0
  5
1D596
 10
867.428
 20
374.438
 30
0.000000
  70
    32
  0
VERTEX
  8
AM_0
  5
1D597
 10
867.403
 20
374.442
 30
0.000000
  70
    32
  0
VERTEX
  8
AM_0
  5
1D598
 10
867.379
 20
374.447
 30
0.000000
  70
    32
  0
VERTEX
  8
AM_0
  5
1D599
 10
867.355
 20
374.451
 30
0.000000
  70
    32
  0
VERTEX
  8
AM_0
  5
1D59A
 10
867.331
 20
374.455
 30
0.000000
  70
    32
  0
VERTEX
  8
AM_0
  5
1D59B
 10
867.307
 20
374.458
 30
0.000000
  70
    32
  0
VERTEX
  8
AM_0
  5
1D59C
 10
867.282
 20
374.461
 30
0.000000
  70
    32
  0
VERTEX
  8
AM_0
  5
1D59D
 10
867.258
 20
374.464
 30
0.000000
  70
    32
  0
VERTEX
  8
AM_0
  5
1D59E
 10
867.233
 20
374.467
 30
0.000000
  70
    32
  0
VERTEX
  8
AM_0
  5
1D59F
 10
867.209
 20
374.469
 30
0.000000
  70
    32
  0
VERTEX
  8
AM_0
  5
1D5A0
 10
867.185
 20
374.471
 30
0.000000
  70
    32
  0
VERTEX
  8
AM_0
  5
1D5A1
 10
867.160
 20
374.472
 30
0.000000
  70
    32
  0
VERTEX
  8
AM_0
  5
1D5A2
 10
867.136
 20
374.474
 30
0.000000
  70
    32
  0
VERTEX
  8
AM_0
  5
1D5A3
 10
867.111
 20
374.475
 30
0.000000
  70
    32
  0
VERTEX
  8
AM_0
  5
1D5A4
 10
867.086
 20
374.476
 30
0.000000
  70
    32
  0
VERTEX
  8
AM_0
  5
1D5A5
 10
867.062
 20
374.476
 30
0.000000
  70
    32
  0
VERTEX
  8
AM_0
  5
1D5A6
 10
867.037
 20
374.476
 30
0.000000
  70
    32
  0
SEQEND
  8
AM_0
  5
1D5A7
  0
LINE
  5
1BAAF
  8
AM_0
 10
861.03737595723112
 20
360.47594360808131
 30
0.0
 11
861.03737595723112
 21
375.47624405542513
 31
0.0
  0
LINE
  5
1BAB0
  8
AM_0
 10
867.03737613616465
 20
361.47596363790427
 30
0.0
 11
861.03737595723112
 21
361.47596363790427
 31
0.0
  0
LINE
  5
1BAB1
  8
AM_0
 10
870.03737622563187
 20
360.47594360808131
 30
0.0
 11
861.03737595723112
 21
360.47594360808131
 31
0.0
  0
LINE
  5
1BAB5
  8
AM_0
 10
875.0373763747433
 20
372.97599368283858
 30
0.0
 11
870.03737622563187
 21
372.97599368283858
 31
0.0
  0
POLYLINE
  5
1BAB6
  8
AM_0
 10
867.03737622358733
 20
361.47596363790439
 30
0.0
 66
     1
 70
     8
  0
VERTEX
  8
AM_0
  5
1D5A8
 10
867.037
 20
361.476
 30
0.000000
  70
    32
  0
VERTEX
  8
AM_0
  5
1D5A9
 10
867.062
 20
361.476
 30
0.000000
  70
    32
  0
VERTEX
  8
AM_0
  5
1D5AA
 10
867.086
 20
361.477
 30
0.000000
  70
    32
  0
VERTEX
  8
AM_0
  5
1D5AB
 10
867.111
 20
361.477
 30
0.000000
  70
    32
  0
VERTEX
  8
AM_0
  5
1D5AC
 10
867.136
 20
361.478
 30
0.000000
  70
    32
  0
VERTEX
  8
AM_0
  5
1D5AD
 10
867.160
 20
361.480
 30
0.000000
  70
    32
  0
VERTEX
  8
AM_0
  5
1D5AE
 10
867.185
 20
361.481
 30
0.000000
  70
    32
  0
VERTEX
  8
AM_0
  5
1D5AF
 10
867.209
 20
361.483
 30
0.000000
  70
    32
  0
VERTEX
  8
AM_0
  5
1D5B0
 10
867.233
 20
361.486
 30
0.000000
  70
    32
  0
VERTEX
  8
AM_0
  5
1D5B1
 10
867.258
 20
361.488
 30
0.000000
  70
    32
  0
VERTEX
  8
AM_0
  5
1D5B2
 10
867.282
 20
361.491
 30
0.000000
  70
    32
  0
VERTEX
  8
AM_0
  5
1D5B3
 10
867.307
 20
361.494
 30
0.000000
  70
    32
  0
VERTEX
  8
AM_0
  5
1D5B4
 10
867.331
 20
361.498
 30
0.000000
  70
    32
  0
VERTEX
  8
AM_0
  5
1D5B5
 10
867.355
 20
361.501
 30
0.000000
  70
    32
  0
VERTEX
  8
AM_0
  5
1D5B6
 10
867.379
 20
361.505
 30
0.000000
  70
    32
  0
VERTEX
  8
AM_0
  5
1D5B7
 10
867.403
 20
361.510
 30
0.000000
  70
    32
  0
VERTEX
  8
AM_0
  5
1D5B8
 10
867.428
 20
361.514
 30
0.000000
  70
    32
  0
VERTEX
  8
AM_0
  5
1D5B9
 10
867.452
 20
361.519
 30
0.000000
  70
    32
  0
VERTEX
  8
AM_0
  5
1D5BA
 10
867.476
 20
361.525
 30
0.000000
  70
    32
  0
VERTEX
  8
AM_0
  5
1D5BB
 10
867.499
 20
361.530
 30
0.000000
  70
    32
  0
VERTEX
  8
AM_0
  5
1D5BC
 10
867.523
 20
361.536
 30
0.000000
  70
    32
  0
VERTEX
  8
AM_0
  5
1D5BD
 10
867.547
 20
361.542
 30
0.000000
  70
    32
  0
VERTEX
  8
AM_0
  5
1D5BE
 10
867.571
 20
361.548
 30
0.000000
  70
    32
  0
VERTEX
  8
AM_0
  5
1D5BF
 10
867.594
 20
361.555
 30
0.000000
  70
    32
  0
VERTEX
  8
AM_0
  5
1D5C0
 10
867.618
 20
361.562
 30
0.000000
  70
    32
  0
VERTEX
  8
AM_0
  5
1D5C1
 10
867.641
 20
361.569
 30
0.000000
  70
    32
  0
VERTEX
  8
AM_0
  5
1D5C2
 10
867.665
 20
361.577
 30
0.000000
  70
    32
  0
VERTEX
  8
AM_0
  5
1D5C3
 10
867.688
 20
361.585
 30
0.000000
  70
    32
  0
VERTEX
  8
AM_0
  5
1D5C4
 10
867.711
 20
361.593
 30
0.000000
  70
    32
  0
VERTEX
  8
AM_0
  5
1D5C5
 10
867.734
 20
361.601
 30
0.000000
  70
    32
  0
VERTEX
  8
AM_0
  5
1D5C6
 10
867.757
 20
361.610
 30
0.000000
  70
    32
  0
VERTEX
  8
AM_0
  5
1D5C7
 10
867.780
 20
361.619
 30
0.000000
  70
    32
  0
VERTEX
  8
AM_0
  5
1D5C8
 10
867.803
 20
361.628
 30
0.000000
  70
    32
  0
VERTEX
  8
AM_0
  5
1D5C9
 10
867.825
 20
361.638
 30
0.000000
  70
    32
  0
VERTEX
  8
AM_0
  5
1D5CA
 10
867.848
 20
361.648
 30
0.000000
  70
    32
  0
VERTEX
  8
AM_0
  5
1D5CB
 10
867.870
 20
361.658
 30
0.000000
  70
    32
  0
VERTEX
  8
AM_0
  5
1D5CC
 10
867.892
 20
361.668
 30
0.000000
  70
    32
  0
VERTEX
  8
AM_0
  5
1D5CD
 10
867.915
 20
361.679
 30
0.000000
  70
    32
  0
VERTEX
  8
AM_0
  5
1D5CE
 10
867.937
 20
361.690
 30
0.000000
  70
    32
  0
VERTEX
  8
AM_0
  5
1D5CF
 10
867.958
 20
361.701
 30
0.000000
  70
    32
  0
VERTEX
  8
AM_0
  5
1D5D0
 10
867.980
 20
361.712
 30
0.000000
  70
    32
  0
VERTEX
  8
AM_0
  5
1D5D1
 10
868.002
 20
361.724
 30
0.000000
  70
    32
  0
VERTEX
  8
AM_0
  5
1D5D2
 10
868.023
 20
361.736
 30
0.000000
  70
    32
  0
VERTEX
  8
AM_0
  5
1D5D3
 10
868.044
 20
361.748
 30
0.000000
  70
    32
  0
VERTEX
  8
AM_0
  5
1D5D4
 10
868.066
 20
361.761
 30
0.000000
  70
    32
  0
VERTEX
  8
AM_0
  5
1D5D5
 10
868.087
 20
361.773
 30
0.000000
  70
    32
  0
VERTEX
  8
AM_0
  5
1D5D6
 10
868.107
 20
361.786
 30
0.000000
  70
    32
  0
VERTEX
  8
AM_0
  5
1D5D7
 10
868.128
 20
361.800
 30
0.000000
  70
    32
  0
VERTEX
  8
AM_0
  5
1D5D8
 10
868.149
 20
361.813
 30
0.000000
  70
    32
  0
VERTEX
  8
AM_0
  5
1D5D9
 10
868.169
 20
361.827
 30
0.000000
  70
    32
  0
VERTEX
  8
AM_0
  5
1D5DA
 10
868.189
 20
361.841
 30
0.000000
  70
    32
  0
VERTEX
  8
AM_0
  5
1D5DB
 10
868.209
 20
361.855
 30
0.000000
  70
    32
  0
VERTEX
  8
AM_0
  5
1D5DC
 10
868.229
 20
361.870
 30
0.000000
  70
    32
  0
VERTEX
  8
AM_0
  5
1D5DD
 10
868.248
 20
361.884
 30
0.000000
  70
    32
  0
VERTEX
  8
AM_0
  5
1D5DE
 10
868.268
 20
361.899
 30
0.000000
  70
    32
  0
VERTEX
  8
AM_0
  5
1D5DF
 10
868.287
 20
361.914
 30
0.000000
  70
    32
  0
VERTEX
  8
AM_0
  5
1D5E0
 10
868.306
 20
361.930
 30
0.000000
  70
    32
  0
VERTEX
  8
AM_0
  5
1D5E1
 10
868.325
 20
361.946
 30
0.000000
  70
    32
  0
VERTEX
  8
AM_0
  5
1D5E2
 10
868.344
 20
361.962
 30
0.000000
  70
    32
  0
VERTEX
  8
AM_0
  5
1D5E3
 10
868.362
 20
361.978
 30
0.000000
  70
    32
  0
VERTEX
  8
AM_0
  5
1D5E4
 10
868.380
 20
361.994
 30
0.000000
  70
    32
  0
VERTEX
  8
AM_0
  5
1D5E5
 10
868.399
 20
362.011
 30
0.000000
  70
    32
  0
VERTEX
  8
AM_0
  5
1D5E6
 10
868.416
 20
362.027
 30
0.000000
  70
    32
  0
VERTEX
  8
AM_0
  5
1D5E7
 10
868.434
 20
362.045
 30
0.000000
  70
    32
  0
VERTEX
  8
AM_0
  5
1D5E8
 10
868.452
 20
362.062
 30
0.000000
  70
    32
  0
VERTEX
  8
AM_0
  5
1D5E9
 10
868.469
 20
362.079
 30
0.000000
  70
    32
  0
VERTEX
  8
AM_0
  5
1D5EA
 10
868.486
 20
362.097
 30
0.000000
  70
    32
  0
VERTEX
  8
AM_0
  5
1D5EB
 10
868.503
 20
362.115
 30
0.000000
  70
    32
  0
VERTEX
  8
AM_0
  5
1D5EC
 10
868.519
 20
362.133
 30
0.000000
  70
    32
  0
VERTEX
  8
AM_0
  5
1D5ED
 10
868.536
 20
362.151
 30
0.000000
  70
    32
  0
VERTEX
  8
AM_0
  5
1D5EE
 10
868.552
 20
362.170
 30
0.000000
  70
    32
  0
VERTEX
  8
AM_0
  5
1D5EF
 10
868.568
 20
362.188
 30
0.000000
  70
    32
  0
VERTEX
  8
AM_0
  5
1D5F0
 10
868.583
 20
362.207
 30
0.000000
  70
    32
  0
VERTEX
  8
AM_0
  5
1D5F1
 10
868.599
 20
362.226
 30
0.000000
  70
    32
  0
VERTEX
  8
AM_0
  5
1D5F2
 10
868.614
 20
362.246
 30
0.000000
  70
    32
  0
VERTEX
  8
AM_0
  5
1D5F3
 10
868.629
 20
362.265
 30
0.000000
  70
    32
  0
VERTEX
  8
AM_0
  5
1D5F4
 10
868.644
 20
362.285
 30
0.000000
  70
    32
  0
VERTEX
  8
AM_0
  5
1D5F5
 10
868.658
 20
362.304
 30
0.000000
  70
    32
  0
VERTEX
  8
AM_0
  5
1D5F6
 10
868.673
 20
362.324
 30
0.000000
  70
    32
  0
VERTEX
  8
AM_0
  5
1D5F7
 10
868.687
 20
362.345
 30
0.000000
  70
    32
  0
VERTEX
  8
AM_0
  5
1D5F8
 10
868.700
 20
362.365
 30
0.000000
  70
    32
  0
VERTEX
  8
AM_0
  5
1D5F9
 10
868.714
 20
362.385
 30
0.000000
  70
    32
  0
VERTEX
  8
AM_0
  5
1D5FA
 10
868.727
 20
362.406
 30
0.000000
  70
    32
  0
VERTEX
  8
AM_0
  5
1D5FB
 10
868.740
 20
362.427
 30
0.000000
  70
    32
  0
VERTEX
  8
AM_0
  5
1D5FC
 10
868.753
 20
362.448
 30
0.000000
  70
    32
  0
VERTEX
  8
AM_0
  5
1D5FD
 10
868.765
 20
362.469
 30
0.000000
  70
    32
  0
VERTEX
  8
AM_0
  5
1D5FE
 10
868.778
 20
362.490
 30
0.000000
  70
    32
  0
VERTEX
  8
AM_0
  5
1D5FF
 10
868.790
 20
362.512
 30
0.000000
  70
    32
  0
VERTEX
  8
AM_0
  5
1D600
 10
868.801
 20
362.533
 30
0.000000
  70
    32
  0
VERTEX
  8
AM_0
  5
1D601
 10
868.813
 20
362.555
 30
0.000000
  70
    32
  0
VERTEX
  8
AM_0
  5
1D602
 10
868.824
 20
362.577
 30
0.000000
  70
    32
  0
VERTEX
  8
AM_0
  5
1D603
 10
868.835
 20
362.599
 30
0.000000
  70
    32
  0
VERTEX
  8
AM_0
  5
1D604
 10
868.845
 20
362.621
 30
0.000000
  70
    32
  0
VERTEX
  8
AM_0
  5
1D605
 10
868.856
 20
362.643
 30
0.000000
  70
    32
  0
VERTEX
  8
AM_0
  5
1D606
 10
868.866
 20
362.666
 30
0.000000
  70
    32
  0
VERTEX
  8
AM_0
  5
1D607
 10
868.876
 20
362.688
 30
0.000000
  70
    32
  0
VERTEX
  8
AM_0
  5
1D608
 10
868.885
 20
362.711
 30
0.000000
  70
    32
  0
VERTEX
  8
AM_0
  5
1D609
 10
868.894
 20
362.733
 30
0.000000
  70
    32
  0
VERTEX
  8
AM_0
  5
1D60A
 10
868.903
 20
362.756
 30
0.000000
  70
    32
  0
VERTEX
  8
AM_0
  5
1D60B
 10
868.912
 20
362.779
 30
0.000000
  70
    32
  0
VERTEX
  8
AM_0
  5
1D60C
 10
868.920
 20
362.802
 30
0.000000
  70
    32
  0
VERTEX
  8
AM_0
  5
1D60D
 10
868.929
 20
362.825
 30
0.000000
  70
    32
  0
VERTEX
  8
AM_0
  5
1D60E
 10
868.936
 20
362.849
 30
0.000000
  70
    32
  0
VERTEX
  8
AM_0
  5
1D60F
 10
868.944
 20
362.872
 30
0.000000
  70
    32
  0
VERTEX
  8
AM_0
  5
1D610
 10
868.951
 20
362.895
 30
0.000000
  70
    32
  0
VERTEX
  8
AM_0
  5
1D611
 10
868.958
 20
362.919
 30
0.000000
  70
    32
  0
VERTEX
  8
AM_0
  5
1D612
 10
868.965
 20
362.943
 30
0.000000
  70
    32
  0
VERTEX
  8
AM_0
  5
1D613
 10
868.971
 20
362.966
 30
0.000000
  70
    32
  0
VERTEX
  8
AM_0
  5
1D614
 10
868.977
 20
362.990
 30
0.000000
  70
    32
  0
VERTEX
  8
AM_0
  5
1D615
 10
868.983
 20
363.014
 30
0.000000
  70
    32
  0
VERTEX
  8
AM_0
  5
1D616
 10
868.989
 20
363.038
 30
0.000000
  70
    32
  0
VERTEX
  8
AM_0
  5
1D617
 10
868.994
 20
363.062
 30
0.000000
  70
    32
  0
VERTEX
  8
AM_0
  5
1D618
 10
868.999
 20
363.086
 30
0.000000
  70
    32
  0
VERTEX
  8
AM_0
  5
1D619
 10
869.004
 20
363.110
 30
0.000000
  70
    32
  0
VERTEX
  8
AM_0
  5
1D61A
 10
869.008
 20
363.134
 30
0.000000
  70
    32
  0
VERTEX
  8
AM_0
  5
1D61B
 10
869.012
 20
363.158
 30
0.000000
  70
    32
  0
VERTEX
  8
AM_0
  5
1D61C
 10
869.016
 20
363.183
 30
0.000000
  70
    32
  0
VERTEX
  8
AM_0
  5
1D61D
 10
869.019
 20
363.207
 30
0.000000
  70
    32
  0
VERTEX
  8
AM_0
  5
1D61E
 10
869.022
 20
363.231
 30
0.000000
  70
    32
  0
VERTEX
  8
AM_0
  5
1D61F
 10
869.025
 20
363.256
 30
0.000000
  70
    32
  0
VERTEX
  8
AM_0
  5
1D620
 10
869.028
 20
363.280
 30
0.000000
  70
    32
  0
VERTEX
  8
AM_0
  5
1D621
 10
869.030
 20
363.304
 30
0.000000
  70
    32
  0
VERTEX
  8
AM_0
  5
1D622
 10
869.032
 20
363.329
 30
0.000000
  70
    32
  0
VERTEX
  8
AM_0
  5
1D623
 10
869.034
 20
363.353
 30
0.000000
  70
    32
  0
VERTEX
  8
AM_0
  5
1D624
 10
869.035
 20
363.378
 30
0.000000
  70
    32
  0
VERTEX
  8
AM_0
  5
1D625
 10
869.036
 20
363.402
 30
0.000000
  70
    32
  0
VERTEX
  8
AM_0
  5
1D626
 10
869.037
 20
363.427
 30
0.000000
  70
    32
  0
VERTEX
  8
AM_0
  5
1D627
 10
869.037
 20
363.451
 30
0.000000
  70
    32
  0
VERTEX
  8
AM_0
  5
1D628
 10
869.037
 20
363.476
 30
0.000000
  70
    32
  0
SEQEND
  8
AM_0
  5
1D629
  0
LINE
  5
1BAB7
  8
AM_0
 10
869.03737619580966
 20
372.47618396595641
 30
0.0
 11
869.03737619580966
 21
363.4760036975502
 31
0.0
  0
LINE
  5
1BABA
  8
AM_0
 10
867.03737613616465
 20
374.47622402560211
 30
0.0
 11
861.03737595723112
 21
374.47622402560211
 31
0.0
  0
LINE
  5
1BABB
  8
AM_0
 10
870.03737622563187
 20
375.47624405542513
 30
0.0
 11
861.03737595723112
 21
375.47624405542513
 31
0.0
  0
LINE
  5
1BABC
  8
AM_0
 10
870.03737622563222
 20
374.90948242488992
 30
0.0
 11
871.90737446611524
 21
374.97555302653433
 31
0.0
  0
LINE
  5
1BABD
  8
AM_0
 10
870.03737622563187
 20
377.03917379781848
 30
0.0
 11
871.90737446611524
 21
376.97555302653433
 31
0.0
  0
ARC
  5
1BABE
  8
AM_0
 10
871.86388146611534
 20
375.97508302653472
 30
0.0
 40
1.000475999999999
 50
272.49157399999569
 51
89.799952000007565
  0
LINE
  5
1C23C
  8
AM_0
 10
742.03737238905512
 20
347.97519324228051
 30
0.0
 11
742.03737238905512
 21
297.97519173716449
 31
0.0
  0
LINE
  5
1C23D
  8
0
 10
714.03737446611478
 20
342.97519248972179
 30
0.0
 11
742.03737238905558
 21
347.97519324228051
 31
0.0
  0
LINE
  5
1C23E
  8
AM_0
 10
747.03737253956683
 20
347.97519324228051
 30
0.0
 11
742.03737238905512
 21
347.97519324228051
 31
0.0
  0
LINE
  5
1C23F
  8
0
 10
714.03737446611478
 20
302.97519248972179
 30
0.0
 11
742.03737238905558
 21
297.97519173716449
 31
0.0
  0
LINE
  5
1C240
  8
AM_0
 10
747.03737253956683
 20
297.97519173716449
 30
0.0
 11
742.03737238905512
 21
297.97519173716449
 31
0.0
  0
LINE
  5
1C242
  8
0
 10
656.03737446611478
 20
341.97519248972179
 30
0.0
 11
701.03737446611501
 21
341.97519248972179
 31
0.0
  0
LINE
  5
1C243
  8
0
 10
656.03737446611478
 20
338.97519248972219
 30
0.0
 11
714.03737446611478
 21
338.97519248972219
 31
0.0
  0
LINE
  5
1C244
  8
0
 10
656.03737446611478
 20
306.97519248972179
 30
0.0
 11
714.03737446611478
 21
306.97519248972179
 31
0.0
  0
LINE
  5
1C245
  8
AM_0
 10
656.03737446611478
 20
306.97519248972179
 30
0.0
 11
656.03737446611478
 21
341.97519248972179
 31
0.0
  0
LINE
  5
1C246
  8
0
 10
714.03737446611478
 20
342.97519248972179
 30
0.0
 11
714.03737446611478
 21
302.97519248972179
 31
0.0
  0
LINE
  5
1C247
  8
0
 10
701.03737446611501
 20
341.97519248972179
 30
0.0
 11
701.03737446611501
 21
338.97519248972219
 31
0.0
  0
LINE
  5
1C2CC
  8
0
 10
449.87874155029812
 20
341.97519248972122
 30
0.0
 11
459.87874155029812
 21
341.97519248972122
 31
0.0
  0
LINE
  5
1C2CD
  8
0
 10
449.87874155029812
 20
333.97519248972122
 30
0.0
 11
459.87874155029812
 21
333.97519248972122
 31
0.0
  0
CIRCLE
  5
1C2CE
  8
ｽﾝﾎﾟｳｾﾝ
 10
454.87874155029817
 20
322.97519248972191
 30
0.0
 40
4.0
  0
ARC
  5
1C2CF
  8
0
 10
454.87874155029817
 20
322.97519248972208
 30
0.0
 40
16.000000000000512
 50
108.2099568642824
 51
71.79004313571761
  0
LINE
  5
1C2D0
  8
AM_0
 10
449.87874155029812
 20
333.97519248972122
 30
0.0
 11
449.87874155029812
 21
341.97519248972122
 31
0.0
  0
LINE
  5
1C2D1
  8
AM_0
 10
459.87874155029812
 20
333.97519248972122
 30
0.0
 11
459.87874155029812
 21
341.97519248972122
 31
0.0
  0
LINE
  5
1C78B
  8
AM_0
 10
326.62070333934213
 20
597.57173975853561
 30
0.0
 11
528.13118356287191
 21
597.57173975853561
 31
0.0
  0
LINE
  5
1C78C
  8
AM_0
 10
404.8779403571811
 20
592.57173960942384
 30
0.0
 11
504.87954274341462
 21
592.57173960942384
 31
0.0
  0
LINE
  5
1C78D
  8
AM_0
 10
404.8779403571811
 20
720.57174342668122
 30
0.0
 11
504.87954274341462
 21
720.57174342668122
 31
0.0
  0
POLYLINE
  5
1C78E
  8
AM_0
 10
424.37883185935038
 20
714.57174324774712
 30
0.0
 66
     1
 70
     8
  0
VERTEX
  8
AM_0
  5
1D62A
 10
424.379
 20
714.572
 30
0.000000
  70
    32
  0
VERTEX
  8
AM_0
  5
1D62B
 10
424.403
 20
714.572
 30
0.000000
  70
    32
  0
VERTEX
  8
AM_0
  5
1D62C
 10
424.428
 20
714.571
 30
0.000000
  70
    32
  0
VERTEX
  8
AM_0
  5
1D62D
 10
424.452
 20
714.570
 30
0.000000
  70
    32
  0
VERTEX
  8
AM_0
  5
1D62E
 10
424.477
 20
714.569
 30
0.000000
  70
    32
  0
VERTEX
  8
AM_0
  5
1D62F
 10
424.501
 20
714.568
 30
0.000000
  70
    32
  0
VERTEX
  8
AM_0
  5
1D630
 10
424.526
 20
714.566
 30
0.000000
  70
    32
  0
VERTEX
  8
AM_0
  5
1D631
 10
424.550
 20
714.564
 30
0.000000
  70
    32
  0
VERTEX
  8
AM_0
  5
1D632
 10
424.575
 20
714.562
 30
0.000000
  70
    32
  0
VERTEX
  8
AM_0
  5
1D633
 10
424.599
 20
714.560
 30
0.000000
  70
    32
  0
VERTEX
  8
AM_0
  5
1D634
 10
424.624
 20
714.557
 30
0.000000
  70
    32
  0
VERTEX
  8
AM_0
  5
1D635
 10
424.648
 20
714.554
 30
0.000000
  70
    32
  0
VERTEX
  8
AM_0
  5
1D636
 10
424.672
 20
714.550
 30
0.000000
  70
    32
  0
VERTEX
  8
AM_0
  5
1D637
 10
424.697
 20
714.546
 30
0.000000
  70
    32
  0
VERTEX
  8
AM_0
  5
1D638
 10
424.721
 20
714.542
 30
0.000000
  70
    32
  0
VERTEX
  8
AM_0
  5
1D639
 10
424.745
 20
714.538
 30
0.000000
  70
    32
  0
VERTEX
  8
AM_0
  5
1D63A
 10
424.769
 20
714.533
 30
0.000000
  70
    32
  0
VERTEX
  8
AM_0
  5
1D63B
 10
424.793
 20
714.528
 30
0.000000
  70
    32
  0
VERTEX
  8
AM_0
  5
1D63C
 10
424.817
 20
714.523
 30
0.000000
  70
    32
  0
VERTEX
  8
AM_0
  5
1D63D
 10
424.841
 20
714.518
 30
0.000000
  70
    32
  0
VERTEX
  8
AM_0
  5
1D63E
 10
424.865
 20
714.512
 30
0.000000
  70
    32
  0
VERTEX
  8
AM_0
  5
1D63F
 10
424.889
 20
714.506
 30
0.000000
  70
    32
  0
VERTEX
  8
AM_0
  5
1D640
 10
424.912
 20
714.499
 30
0.000000
  70
    32
  0
VERTEX
  8
AM_0
  5
1D641
 10
424.936
 20
714.493
 30
0.000000
  70
    32
  0
VERTEX
  8
AM_0
  5
1D642
 10
424.959
 20
714.486
 30
0.000000
  70
    32
  0
VERTEX
  8
AM_0
  5
1D643
 10
424.983
 20
714.478
 30
0.000000
  70
    32
  0
VERTEX
  8
AM_0
  5
1D644
 10
425.006
 20
714.471
 30
0.000000
  70
    32
  0
VERTEX
  8
AM_0
  5
1D645
 10
425.029
 20
714.463
 30
0.000000
  70
    32
  0
VERTEX
  8
AM_0
  5
1D646
 10
425.053
 20
714.455
 30
0.000000
  70
    32
  0
VERTEX
  8
AM_0
  5
1D647
 10
425.076
 20
714.446
 30
0.000000
  70
    32
  0
VERTEX
  8
AM_0
  5
1D648
 10
425.099
 20
714.438
 30
0.000000
  70
    32
  0
VERTEX
  8
AM_0
  5
1D649
 10
425.121
 20
714.429
 30
0.000000
  70
    32
  0
VERTEX
  8
AM_0
  5
1D64A
 10
425.144
 20
714.420
 30
0.000000
  70
    32
  0
VERTEX
  8
AM_0
  5
1D64B
 10
425.167
 20
714.410
 30
0.000000
  70
    32
  0
VERTEX
  8
AM_0
  5
1D64C
 10
425.189
 20
714.400
 30
0.000000
  70
    32
  0
VERTEX
  8
AM_0
  5
1D64D
 10
425.212
 20
714.390
 30
0.000000
  70
    32
  0
VERTEX
  8
AM_0
  5
1D64E
 10
425.234
 20
714.380
 30
0.000000
  70
    32
  0
VERTEX
  8
AM_0
  5
1D64F
 10
425.256
 20
714.369
 30
0.000000
  70
    32
  0
VERTEX
  8
AM_0
  5
1D650
 10
425.278
 20
714.358
 30
0.000000
  70
    32
  0
VERTEX
  8
AM_0
  5
1D651
 10
425.300
 20
714.347
 30
0.000000
  70
    32
  0
VERTEX
  8
AM_0
  5
1D652
 10
425.322
 20
714.336
 30
0.000000
  70
    32
  0
VERTEX
  8
AM_0
  5
1D653
 10
425.343
 20
714.324
 30
0.000000
  70
    32
  0
VERTEX
  8
AM_0
  5
1D654
 10
425.365
 20
714.312
 30
0.000000
  70
    32
  0
VERTEX
  8
AM_0
  5
1D655
 10
425.386
 20
714.300
 30
0.000000
  70
    32
  0
VERTEX
  8
AM_0
  5
1D656
 10
425.407
 20
714.287
 30
0.000000
  70
    32
  0
VERTEX
  8
AM_0
  5
1D657
 10
425.428
 20
714.274
 30
0.000000
  70
    32
  0
VERTEX
  8
AM_0
  5
1D658
 10
425.449
 20
714.261
 30
0.000000
  70
    32
  0
VERTEX
  8
AM_0
  5
1D659
 10
425.470
 20
714.248
 30
0.000000
  70
    32
  0
VERTEX
  8
AM_0
  5
1D65A
 10
425.490
 20
714.235
 30
0.000000
  70
    32
  0
VERTEX
  8
AM_0
  5
1D65B
 10
425.510
 20
714.221
 30
0.000000
  70
    32
  0
VERTEX
  8
AM_0
  5
1D65C
 10
425.530
 20
714.207
 30
0.000000
  70
    32
  0
VERTEX
  8
AM_0
  5
1D65D
 10
425.550
 20
714.193
 30
0.000000
  70
    32
  0
VERTEX
  8
AM_0
  5
1D65E
 10
425.570
 20
714.178
 30
0.000000
  70
    32
  0
VERTEX
  8
AM_0
  5
1D65F
 10
425.590
 20
714.163
 30
0.000000
  70
    32
  0
VERTEX
  8
AM_0
  5
1D660
 10
425.609
 20
714.148
 30
0.000000
  70
    32
  0
VERTEX
  8
AM_0
  5
1D661
 10
425.629
 20
714.133
 30
0.000000
  70
    32
  0
VERTEX
  8
AM_0
  5
1D662
 10
425.648
 20
714.118
 30
0.000000
  70
    32
  0
VERTEX
  8
AM_0
  5
1D663
 10
425.667
 20
714.102
 30
0.000000
  70
    32
  0
VERTEX
  8
AM_0
  5
1D664
 10
425.685
 20
714.086
 30
0.000000
  70
    32
  0
VERTEX
  8
AM_0
  5
1D665
 10
425.704
 20
714.070
 30
0.000000
  70
    32
  0
VERTEX
  8
AM_0
  5
1D666
 10
425.722
 20
714.054
 30
0.000000
  70
    32
  0
VERTEX
  8
AM_0
  5
1D667
 10
425.740
 20
714.037
 30
0.000000
  70
    32
  0
VERTEX
  8
AM_0
  5
1D668
 10
425.758
 20
714.020
 30
0.000000
  70
    32
  0
VERTEX
  8
AM_0
  5
1D669
 10
425.776
 20
714.003
 30
0.000000
  70
    32
  0
VERTEX
  8
AM_0
  5
1D66A
 10
425.793
 20
713.986
 30
0.000000
  70
    32
  0
VERTEX
  8
AM_0
  5
1D66B
 10
425.810
 20
713.968
 30
0.000000
  70
    32
  0
VERTEX
  8
AM_0
  5
1D66C
 10
425.827
 20
713.951
 30
0.000000
  70
    32
  0
VERTEX
  8
AM_0
  5
1D66D
 10
425.844
 20
713.933
 30
0.000000
  70
    32
  0
VERTEX
  8
AM_0
  5
1D66E
 10
425.861
 20
713.915
 30
0.000000
  70
    32
  0
VERTEX
  8
AM_0
  5
1D66F
 10
425.877
 20
713.897
 30
0.000000
  70
    32
  0
VERTEX
  8
AM_0
  5
1D670
 10
425.893
 20
713.878
 30
0.000000
  70
    32
  0
VERTEX
  8
AM_0
  5
1D671
 10
425.909
 20
713.859
 30
0.000000
  70
    32
  0
VERTEX
  8
AM_0
  5
1D672
 10
425.925
 20
713.841
 30
0.000000
  70
    32
  0
VERTEX
  8
AM_0
  5
1D673
 10
425.940
 20
713.821
 30
0.000000
  70
    32
  0
VERTEX
  8
AM_0
  5
1D674
 10
425.956
 20
713.802
 30
0.000000
  70
    32
  0
VERTEX
  8
AM_0
  5
1D675
 10
425.971
 20
713.783
 30
0.000000
  70
    32
  0
VERTEX
  8
AM_0
  5
1D676
 10
425.985
 20
713.763
 30
0.000000
  70
    32
  0
VERTEX
  8
AM_0
  5
1D677
 10
426.000
 20
713.743
 30
0.000000
  70
    32
  0
VERTEX
  8
AM_0
  5
1D678
 10
426.014
 20
713.723
 30
0.000000
  70
    32
  0
VERTEX
  8
AM_0
  5
1D679
 10
426.028
 20
713.703
 30
0.000000
  70
    32
  0
VERTEX
  8
AM_0
  5
1D67A
 10
426.042
 20
713.683
 30
0.000000
  70
    32
  0
VERTEX
  8
AM_0
  5
1D67B
 10
426.055
 20
713.662
 30
0.000000
  70
    32
  0
VERTEX
  8
AM_0
  5
1D67C
 10
426.069
 20
713.642
 30
0.000000
  70
    32
  0
VERTEX
  8
AM_0
  5
1D67D
 10
426.082
 20
713.621
 30
0.000000
  70
    32
  0
VERTEX
  8
AM_0
  5
1D67E
 10
426.094
 20
713.600
 30
0.000000
  70
    32
  0
VERTEX
  8
AM_0
  5
1D67F
 10
426.107
 20
713.579
 30
0.000000
  70
    32
  0
VERTEX
  8
AM_0
  5
1D680
 10
426.119
 20
713.558
 30
0.000000
  70
    32
  0
VERTEX
  8
AM_0
  5
1D681
 10
426.131
 20
713.536
 30
0.000000
  70
    32
  0
VERTEX
  8
AM_0
  5
1D682
 10
426.143
 20
713.515
 30
0.000000
  70
    32
  0
VERTEX
  8
AM_0
  5
1D683
 10
426.154
 20
713.493
 30
0.000000
  70
    32
  0
VERTEX
  8
AM_0
  5
1D684
 10
426.165
 20
713.471
 30
0.000000
  70
    32
  0
VERTEX
  8
AM_0
  5
1D685
 10
426.176
 20
713.449
 30
0.000000
  70
    32
  0
VERTEX
  8
AM_0
  5
1D686
 10
426.187
 20
713.427
 30
0.000000
  70
    32
  0
VERTEX
  8
AM_0
  5
1D687
 10
426.197
 20
713.405
 30
0.000000
  70
    32
  0
VERTEX
  8
AM_0
  5
1D688
 10
426.207
 20
713.382
 30
0.000000
  70
    32
  0
VERTEX
  8
AM_0
  5
1D689
 10
426.217
 20
713.360
 30
0.000000
  70
    32
  0
VERTEX
  8
AM_0
  5
1D68A
 10
426.227
 20
713.337
 30
0.000000
  70
    32
  0
VERTEX
  8
AM_0
  5
1D68B
 10
426.236
 20
713.314
 30
0.000000
  70
    32
  0
VERTEX
  8
AM_0
  5
1D68C
 10
426.245
 20
713.292
 30
0.000000
  70
    32
  0
VERTEX
  8
AM_0
  5
1D68D
 10
426.254
 20
713.269
 30
0.000000
  70
    32
  0
VERTEX
  8
AM_0
  5
1D68E
 10
426.262
 20
713.246
 30
0.000000
  70
    32
  0
VERTEX
  8
AM_0
  5
1D68F
 10
426.270
 20
713.222
 30
0.000000
  70
    32
  0
VERTEX
  8
AM_0
  5
1D690
 10
426.278
 20
713.199
 30
0.000000
  70
    32
  0
VERTEX
  8
AM_0
  5
1D691
 10
426.285
 20
713.176
 30
0.000000
  70
    32
  0
VERTEX
  8
AM_0
  5
1D692
 10
426.293
 20
713.152
 30
0.000000
  70
    32
  0
VERTEX
  8
AM_0
  5
1D693
 10
426.300
 20
713.129
 30
0.000000
  70
    32
  0
VERTEX
  8
AM_0
  5
1D694
 10
426.306
 20
713.105
 30
0.000000
  70
    32
  0
VERTEX
  8
AM_0
  5
1D695
 10
426.313
 20
713.081
 30
0.000000
  70
    32
  0
VERTEX
  8
AM_0
  5
1D696
 10
426.319
 20
713.058
 30
0.000000
  70
    32
  0
VERTEX
  8
AM_0
  5
1D697
 10
426.325
 20
713.034
 30
0.000000
  70
    32
  0
VERTEX
  8
AM_0
  5
1D698
 10
426.330
 20
713.010
 30
0.000000
  70
    32
  0
VERTEX
  8
AM_0
  5
1D699
 10
426.336
 20
712.986
 30
0.000000
  70
    32
  0
VERTEX
  8
AM_0
  5
1D69A
 10
426.340
 20
712.962
 30
0.000000
  70
    32
  0
VERTEX
  8
AM_0
  5
1D69B
 10
426.345
 20
712.938
 30
0.000000
  70
    32
  0
VERTEX
  8
AM_0
  5
1D69C
 10
426.349
 20
712.914
 30
0.000000
  70
    32
  0
VERTEX
  8
AM_0
  5
1D69D
 10
426.353
 20
712.889
 30
0.000000
  70
    32
  0
VERTEX
  8
AM_0
  5
1D69E
 10
426.357
 20
712.865
 30
0.000000
  70
    32
  0
VERTEX
  8
AM_0
  5
1D69F
 10
426.361
 20
712.841
 30
0.000000
  70
    32
  0
VERTEX
  8
AM_0
  5
1D6A0
 10
426.364
 20
712.817
 30
0.000000
  70
    32
  0
VERTEX
  8
AM_0
  5
1D6A1
 10
426.367
 20
712.792
 30
0.000000
  70
    32
  0
VERTEX
  8
AM_0
  5
1D6A2
 10
426.369
 20
712.768
 30
0.000000
  70
    32
  0
VERTEX
  8
AM_0
  5
1D6A3
 10
426.371
 20
712.743
 30
0.000000
  70
    32
  0
VERTEX
  8
AM_0
  5
1D6A4
 10
426.373
 20
712.719
 30
0.000000
  70
    32
  0
VERTEX
  8
AM_0
  5
1D6A5
 10
426.375
 20
712.694
 30
0.000000
  70
    32
  0
VERTEX
  8
AM_0
  5
1D6A6
 10
426.376
 20
712.670
 30
0.000000
  70
    32
  0
VERTEX
  8
AM_0
  5
1D6A7
 10
426.378
 20
712.645
 30
0.000000
  70
    32
  0
VERTEX
  8
AM_0
  5
1D6A8
 10
426.378
 20
712.621
 30
0.000000
  70
    32
  0
VERTEX
  8
AM_0
  5
1D6A9
 10
426.379
 20
712.596
 30
0.000000
  70
    32
  0
VERTEX
  8
AM_0
  5
1D6AA
 10
426.379
 20
712.572
 30
0.000000
  70
    32
  0
SEQEND
  8
AM_0
  5
1D6AB
  0
LINE
  5
1C78F
  8
AM_0
 10
412.37859132662612
 20
706.57174300916859
 30
0.0
 11
427.37889177396988
 21
706.57174300916859
 31
0.0
  0
LINE
  5
1C790
  8
AM_0
 10
325.18933922072767
 20
715.57174327756968
 30
0.0
 11
529.56251716329655
 21
715.57174327756945
 31
0.0
  0
LINE
  5
1C791
  8
AM_0
 10
324.87515446099212
 20
690.57174253201151
 30
0.0
 11
529.87513005698884
 21
690.57174253201174
 31
0.0
  0
LINE
  5
1C792
  8
ﾁｭｳｼﾝｾﾝ1
 10
128.13125446045231
 20
656.5717415180527
 30
0.0
 11
534.87513005698884
 21
656.5717415180527
 31
0.0
1001
GENIUS_GENODEF_13
1002
{
1000
HIER
1070
     0
1002
}
1002
{
1000
MANEDIT
1070
     0
1002
}
1002
{
1000
NOSEL
1070
     0
1002
}
1002
{
1000
BEHIND
1070
     0
1002
}
1002
{
1000
REACTOR
1002
}
1001
GENIUS_GENOBJ-N-CEN_13
1002
{
1000
OWNER
1000
GEN
1002
}
  0
LINE
  5
1C793
  8
AM_0
 10
326.62070333934213
 20
597.57173975853561
 30
0.0
 11
324.87515446084001
 21
690.57174253201151
 31
0.0
  0
LINE
  5
1C794
  8
ﾁｭｳｼﾝｾﾝ1
 10
339.87515490832681
 20
594.57173975853573
 30
0.0
 11
339.87515490832681
 21
718.57174327756945
 31
0.0
  0
LINE
  5
1C795
  8
ｶｸﾚｾﾝ2
 10
332.87501469956629
 20
597.57173975853561
 30
0.0
 11
332.87501469956629
 21
715.57174327756968
 31
0.0
  0
LINE
  5
1C796
  8
ｶｸﾚｾﾝ2
 10
346.87529511708709
 20
597.57173975853561
 30
0.0
 11
346.87529511708709
 21
715.57174327756968
 31
0.0
  0
LINE
  5
1C797
  8
AM_0
 10
308.87515446045222
 20
595.07174651805224
 30
0.0
 11
308.87515446045222
 21
718.07172651805251
 31
0.0
  0
LINE
  5
1C798
  8
AM_0
 10
297.87515446045239
 20
592.57171151805221
 30
0.0
 11
297.87515446045239
 21
720.57172651805263
 31
0.0
  0
ARC
  5
1C799
  8
AM_0
 10
311.87515446045222
 20
721.07172651805251
 30
0.0
 40
2.9999999999999978
 50
215.68533471265459
 51
270.0
1001
GENIUS_GENOBJ-N-FIL_13
1002
{
1000
OWNER
1000
GEN
1002
}
1001
GENIUS_GENODEF_13
1002
{
1000
HIER
1070
     0
1002
}
1002
{
1000
MANEDIT
1070
     0
1002
}
1002
{
1000
NOSEL
1070
     0
1002
}
1002
{
1000
BEHIND
1070
     0
1002
}
1002
{
1000
OTHER
1070
     0
1002
}
1002
{
1000
REACTOR
1002
}
  0
LINE
  5
1C79A
  8
AM_0
 10
297.87515446045239
 20
720.57172651805263
 30
0.0
 11
307.00175728804783
 21
720.57172651805263
 31
0.0
  0
ARC
  5
1C79B
  8
AM_0
 10
307.00175728804783
 20
717.57172651805263
 30
0.0
 40
2.9999999999999978
 50
35.68533471265463
 51
90.0
1001
GENIUS_GENOBJ-N-FIL_13
1002
{
1000
OWNER
1000
GEN
1002
}
1001
GENIUS_GENODEF_13
1002
{
1000
HIER
1070
     0
1002
}
1002
{
1000
MANEDIT
1070
     0
1002
}
1002
{
1000
NOSEL
1070
     0
1002
}
1002
{
1000
BEHIND
1070
     0
1002
}
1002
{
1000
OTHER
1070
     0
1002
}
1002
{
1000
REACTOR
1002
}
  0
LINE
  5
1C79C
  8
AM_0
 10
297.87515446045239
 20
708.61172651805248
 30
0.0
 11
307.87515446045228
 21
708.61172651805248
 31
0.0
  0
LINE
  5
1C79D
  8
AM_0
 10
297.87509663823499
 20
708.61173651802073
 30
0.0
 11
307.8750966382288
 21
708.61174762913186
 31
0.0
  0
LINE
  5
1C79E
  8
AM_0
 10
297.87515446045239
 20
693.71171651805241
 30
0.0
 11
307.87515446045228
 21
693.71171651805241
 31
0.0
  0
LINE
  5
1C79F
  8
AM_0
 10
297.87511319380178
 20
693.71172651802988
 30
0.0
 11
307.8751131937957
 21
693.71173762914123
 31
0.0
  0
ARC
  5
1C7A0
  8
AM_0
 10
314.46157793944258
 20
716.07172651805251
 30
0.0
 40
2.0
 50
4.9999999999997433
 51
90.0
1001
GENIUS_GENODEF_13
1002
{
1000
HIER
1070
     0
1002
}
1002
{
1000
MANEDIT
1070
     0
1002
}
1002
{
1000
NOSEL
1070
     0
1002
}
1002
{
1000
BEHIND
1070
     0
1002
}
1002
{
1000
OTHER
1070
     0
1002
}
1002
{
1000
REACTOR
1002
}
1001
GENIUS_GENOBJ-N-FIL_13
1002
{
1000
OWNER
1000
GEN
1002
}
  0
LINE
  5
1C7A1
  8
AM_0
 10
404.8779403571811
 20
720.57174342668122
 30
0.0
 11
404.8779403571811
 21
715.57174327756968
 31
0.0
  0
LINE
  5
1C7A2
  8
AM_0
 10
311.87515446045222
 20
718.07172651805251
 30
0.0
 11
314.46157793944258
 21
718.07172651805251
 31
0.0
  0
LINE
  5
1C7A3
  8
AM_0
 10
318.7154274123036
 20
690.39743104651598
 30
0.0
 11
316.45396733562598
 21
716.24603800354782
 31
0.0
  0
LINE
  5
1C7A4
  8
AM_0
 10
324.87515446099212
 20
690.57174253201151
 30
0.0
 11
325.18933922072767
 21
715.57174327756945
 31
0.0
  0
ARC
  5
1C7A5
  8
AM_0
 10
323.89374767446691
 20
689.57174253201151
 30
0.0
 40
1.0
 50
270.0
 51
1.0752778360612301
1001
GENIUS_GENODEF_13
1002
{
1000
HIER
1070
     0
1002
}
1002
{
1000
MANEDIT
1070
     0
1002
}
1002
{
1000
NOSEL
1070
     0
1002
}
1002
{
1000
BEHIND
1070
     0
1002
}
1002
{
1000
OTHER
1070
     0
1002
}
1002
{
1000
REACTOR
1002
}
1001
GENIUS_GENOBJ-N-FIL_13
1002
{
1000
OWNER
1000
GEN
1002
}
  0
ARC
  5
1C7A6
  8
AM_0
 10
320.70781680848711
 20
690.57174253201151
 30
0.0
 40
2.0
 50
184.99999999999969
 51
270.0
1001
GENIUS_GENOBJ-N-FIL_13
1002
{
1000
OWNER
1000
GEN
1002
}
1001
GENIUS_GENODEF_13
1002
{
1000
HIER
1070
     0
1002
}
1002
{
1000
MANEDIT
1070
     0
1002
}
1002
{
1000
NOSEL
1070
     0
1002
}
1002
{
1000
BEHIND
1070
     0
1002
}
1002
{
1000
OTHER
1070
     0
1002
}
1002
{
1000
REACTOR
1002
}
  0
LINE
  5
1C7A7
  8
AM_0
 10
320.70781680848711
 20
688.57174253201151
 30
0.0
 11
323.89374767446691
 21
688.57174253201151
 31
0.0
  0
LINE
  5
1C7A8
  8
AM_0
 10
413.37861135644908
 20
712.57174318810246
 30
0.0
 11
413.37861135644908
 21
706.57174300916859
 31
0.0
  0
LINE
  5
1C7A9
  8
AM_0
 10
412.37859132662612
 20
715.57174327756945
 30
0.0
 11
412.37859132662612
 21
706.57174300916859
 31
0.0
  0
LINE
  5
1C7AA
  8
AM_0
 10
424.37883168450128
 20
714.57174324774735
 30
0.0
 11
415.37865141609512
 21
714.57174324774735
 31
0.0
  0
POLYLINE
  5
1C7AB
  8
AM_0
 10
413.37861135644931
 20
712.57174327552514
 30
0.0
 66
     1
 70
     8
  0
VERTEX
  8
AM_0
  5
1D6AC
 10
413.379
 20
712.572
 30
0.000000
  70
    32
  0
VERTEX
  8
AM_0
  5
1D6AD
 10
413.379
 20
712.596
 30
0.000000
  70
    32
  0
VERTEX
  8
AM_0
  5
1D6AE
 10
413.379
 20
712.621
 30
0.000000
  70
    32
  0
VERTEX
  8
AM_0
  5
1D6AF
 10
413.380
 20
712.645
 30
0.000000
  70
    32
  0
VERTEX
  8
AM_0
  5
1D6B0
 10
413.381
 20
712.670
 30
0.000000
  70
    32
  0
VERTEX
  8
AM_0
  5
1D6B1
 10
413.382
 20
712.694
 30
0.000000
  70
    32
  0
VERTEX
  8
AM_0
  5
1D6B2
 10
413.384
 20
712.719
 30
0.000000
  70
    32
  0
VERTEX
  8
AM_0
  5
1D6B3
 10
413.386
 20
712.743
 30
0.000000
  70
    32
  0
VERTEX
  8
AM_0
  5
1D6B4
 10
413.388
 20
712.768
 30
0.000000
  70
    32
  0
VERTEX
  8
AM_0
  5
1D6B5
 10
413.391
 20
712.792
 30
0.000000
  70
    32
  0
VERTEX
  8
AM_0
  5
1D6B6
 10
413.394
 20
712.817
 30
0.000000
  70
    32
  0
VERTEX
  8
AM_0
  5
1D6B7
 10
413.397
 20
712.841
 30
0.000000
  70
    32
  0
VERTEX
  8
AM_0
  5
1D6B8
 10
413.400
 20
712.865
 30
0.000000
  70
    32
  0
VERTEX
  8
AM_0
  5
1D6B9
 10
413.404
 20
712.889
 30
0.000000
  70
    32
  0
VERTEX
  8
AM_0
  5
1D6BA
 10
413.408
 20
712.914
 30
0.000000
  70
    32
  0
VERTEX
  8
AM_0
  5
1D6BB
 10
413.412
 20
712.938
 30
0.000000
  70
    32
  0
VERTEX
  8
AM_0
  5
1D6BC
 10
413.417
 20
712.962
 30
0.000000
  70
    32
  0
VERTEX
  8
AM_0
  5
1D6BD
 10
413.422
 20
712.986
 30
0.000000
  70
    32
  0
VERTEX
  8
AM_0
  5
1D6BE
 10
413.427
 20
713.010
 30
0.000000
  70
    32
  0
VERTEX
  8
AM_0
  5
1D6BF
 10
413.433
 20
713.034
 30
0.000000
  70
    32
  0
VERTEX
  8
AM_0
  5
1D6C0
 10
413.439
 20
713.058
 30
0.000000
  70
    32
  0
VERTEX
  8
AM_0
  5
1D6C1
 10
413.445
 20
713.081
 30
0.000000
  70
    32
  0
VERTEX
  8
AM_0
  5
1D6C2
 10
413.451
 20
713.105
 30
0.000000
  70
    32
  0
VERTEX
  8
AM_0
  5
1D6C3
 10
413.458
 20
713.129
 30
0.000000
  70
    32
  0
VERTEX
  8
AM_0
  5
1D6C4
 10
413.465
 20
713.152
 30
0.000000
  70
    32
  0
VERTEX
  8
AM_0
  5
1D6C5
 10
413.472
 20
713.176
 30
0.000000
  70
    32
  0
VERTEX
  8
AM_0
  5
1D6C6
 10
413.480
 20
713.199
 30
0.000000
  70
    32
  0
VERTEX
  8
AM_0
  5
1D6C7
 10
413.487
 20
713.222
 30
0.000000
  70
    32
  0
VERTEX
  8
AM_0
  5
1D6C8
 10
413.496
 20
713.246
 30
0.000000
  70
    32
  0
VERTEX
  8
AM_0
  5
1D6C9
 10
413.504
 20
713.269
 30
0.000000
  70
    32
  0
VERTEX
  8
AM_0
  5
1D6CA
 10
413.513
 20
713.292
 30
0.000000
  70
    32
  0
VERTEX
  8
AM_0
  5
1D6CB
 10
413.522
 20
713.314
 30
0.000000
  70
    32
  0
VERTEX
  8
AM_0
  5
1D6CC
 10
413.531
 20
713.337
 30
0.000000
  70
    32
  0
VERTEX
  8
AM_0
  5
1D6CD
 10
413.540
 20
713.360
 30
0.000000
  70
    32
  0
VERTEX
  8
AM_0
  5
1D6CE
 10
413.550
 20
713.382
 30
0.000000
  70
    32
  0
VERTEX
  8
AM_0
  5
1D6CF
 10
413.560
 20
713.405
 30
0.000000
  70
    32
  0
VERTEX
  8
AM_0
  5
1D6D0
 10
413.571
 20
713.427
 30
0.000000
  70
    32
  0
VERTEX
  8
AM_0
  5
1D6D1
 10
413.581
 20
713.449
 30
0.000000
  70
    32
  0
VERTEX
  8
AM_0
  5
1D6D2
 10
413.592
 20
713.471
 30
0.000000
  70
    32
  0
VERTEX
  8
AM_0
  5
1D6D3
 10
413.603
 20
713.493
 30
0.000000
  70
    32
  0
VERTEX
  8
AM_0
  5
1D6D4
 10
413.615
 20
713.515
 30
0.000000
  70
    32
  0
VERTEX
  8
AM_0
  5
1D6D5
 10
413.626
 20
713.536
 30
0.000000
  70
    32
  0
VERTEX
  8
AM_0
  5
1D6D6
 10
413.638
 20
713.558
 30
0.000000
  70
    32
  0
VERTEX
  8
AM_0
  5
1D6D7
 10
413.651
 20
713.579
 30
0.000000
  70
    32
  0
VERTEX
  8
AM_0
  5
1D6D8
 10
413.663
 20
713.600
 30
0.000000
  70
    32
  0
VERTEX
  8
AM_0
  5
1D6D9
 10
413.676
 20
713.621
 30
0.000000
  70
    32
  0
VERTEX
  8
AM_0
  5
1D6DA
 10
413.689
 20
713.642
 30
0.000000
  70
    32
  0
VERTEX
  8
AM_0
  5
1D6DB
 10
413.702
 20
713.662
 30
0.000000
  70
    32
  0
VERTEX
  8
AM_0
  5
1D6DC
 10
413.716
 20
713.683
 30
0.000000
  70
    32
  0
VERTEX
  8
AM_0
  5
1D6DD
 10
413.729
 20
713.703
 30
0.000000
  70
    32
  0
VERTEX
  8
AM_0
  5
1D6DE
 10
413.743
 20
713.723
 30
0.000000
  70
    32
  0
VERTEX
  8
AM_0
  5
1D6DF
 10
413.758
 20
713.743
 30
0.000000
  70
    32
  0
VERTEX
  8
AM_0
  5
1D6E0
 10
413.772
 20
713.763
 30
0.000000
  70
    32
  0
VERTEX
  8
AM_0
  5
1D6E1
 10
413.787
 20
713.783
 30
0.000000
  70
    32
  0
VERTEX
  8
AM_0
  5
1D6E2
 10
413.802
 20
713.802
 30
0.000000
  70
    32
  0
VERTEX
  8
AM_0
  5
1D6E3
 10
413.817
 20
713.821
 30
0.000000
  70
    32
  0
VERTEX
  8
AM_0
  5
1D6E4
 10
413.833
 20
713.841
 30
0.000000
  70
    32
  0
VERTEX
  8
AM_0
  5
1D6E5
 10
413.848
 20
713.859
 30
0.000000
  70
    32
  0
VERTEX
  8
AM_0
  5
1D6E6
 10
413.864
 20
713.878
 30
0.000000
  70
    32
  0
VERTEX
  8
AM_0
  5
1D6E7
 10
413.880
 20
713.897
 30
0.000000
  70
    32
  0
VERTEX
  8
AM_0
  5
1D6E8
 10
413.897
 20
713.915
 30
0.000000
  70
    32
  0
VERTEX
  8
AM_0
  5
1D6E9
 10
413.913
 20
713.933
 30
0.000000
  70
    32
  0
VERTEX
  8
AM_0
  5
1D6EA
 10
413.930
 20
713.951
 30
0.000000
  70
    32
  0
VERTEX
  8
AM_0
  5
1D6EB
 10
413.947
 20
713.968
 30
0.000000
  70
    32
  0
VERTEX
  8
AM_0
  5
1D6EC
 10
413.964
 20
713.986
 30
0.000000
  70
    32
  0
VERTEX
  8
AM_0
  5
1D6ED
 10
413.982
 20
714.003
 30
0.000000
  70
    32
  0
VERTEX
  8
AM_0
  5
1D6EE
 10
414.000
 20
714.020
 30
0.000000
  70
    32
  0
VERTEX
  8
AM_0
  5
1D6EF
 10
414.017
 20
714.037
 30
0.000000
  70
    32
  0
VERTEX
  8
AM_0
  5
1D6F0
 10
414.036
 20
714.054
 30
0.000000
  70
    32
  0
VERTEX
  8
AM_0
  5
1D6F1
 10
414.054
 20
714.070
 30
0.000000
  70
    32
  0
VERTEX
  8
AM_0
  5
1D6F2
 10
414.072
 20
714.086
 30
0.000000
  70
    32
  0
VERTEX
  8
AM_0
  5
1D6F3
 10
414.091
 20
714.102
 30
0.000000
  70
    32
  0
VERTEX
  8
AM_0
  5
1D6F4
 10
414.110
 20
714.118
 30
0.000000
  70
    32
  0
VERTEX
  8
AM_0
  5
1D6F5
 10
414.129
 20
714.133
 30
0.000000
  70
    32
  0
VERTEX
  8
AM_0
  5
1D6F6
 10
414.148
 20
714.148
 30
0.000000
  70
    32
  0
VERTEX
  8
AM_0
  5
1D6F7
 10
414.168
 20
714.163
 30
0.000000
  70
    32
  0
VERTEX
  8
AM_0
  5
1D6F8
 10
414.187
 20
714.178
 30
0.000000
  70
    32
  0
VERTEX
  8
AM_0
  5
1D6F9
 10
414.207
 20
714.193
 30
0.000000
  70
    32
  0
VERTEX
  8
AM_0
  5
1D6FA
 10
414.227
 20
714.207
 30
0.000000
  70
    32
  0
VERTEX
  8
AM_0
  5
1D6FB
 10
414.247
 20
714.221
 30
0.000000
  70
    32
  0
VERTEX
  8
AM_0
  5
1D6FC
 10
414.267
 20
714.235
 30
0.000000
  70
    32
  0
VERTEX
  8
AM_0
  5
1D6FD
 10
414.288
 20
714.248
 30
0.000000
  70
    32
  0
VERTEX
  8
AM_0
  5
1D6FE
 10
414.309
 20
714.261
 30
0.000000
  70
    32
  0
VERTEX
  8
AM_0
  5
1D6FF
 10
414.329
 20
714.274
 30
0.000000
  70
    32
  0
VERTEX
  8
AM_0
  5
1D700
 10
414.350
 20
714.287
 30
0.000000
  70
    32
  0
VERTEX
  8
AM_0
  5
1D701
 10
414.372
 20
714.300
 30
0.000000
  70
    32
  0
VERTEX
  8
AM_0
  5
1D702
 10
414.393
 20
714.312
 30
0.000000
  70
    32
  0
VERTEX
  8
AM_0
  5
1D703
 10
414.414
 20
714.324
 30
0.000000
  70
    32
  0
VERTEX
  8
AM_0
  5
1D704
 10
414.436
 20
714.336
 30
0.000000
  70
    32
  0
VERTEX
  8
AM_0
  5
1D705
 10
414.458
 20
714.347
 30
0.000000
  70
    32
  0
VERTEX
  8
AM_0
  5
1D706
 10
414.479
 20
714.358
 30
0.000000
  70
    32
  0
VERTEX
  8
AM_0
  5
1D707
 10
414.501
 20
714.369
 30
0.000000
  70
    32
  0
VERTEX
  8
AM_0
  5
1D708
 10
414.524
 20
714.380
 30
0.000000
  70
    32
  0
VERTEX
  8
AM_0
  5
1D709
 10
414.546
 20
714.390
 30
0.000000
  70
    32
  0
VERTEX
  8
AM_0
  5
1D70A
 10
414.568
 20
714.400
 30
0.000000
  70
    32
  0
VERTEX
  8
AM_0
  5
1D70B
 10
414.591
 20
714.410
 30
0.000000
  70
    32
  0
VERTEX
  8
AM_0
  5
1D70C
 10
414.613
 20
714.420
 30
0.000000
  70
    32
  0
VERTEX
  8
AM_0
  5
1D70D
 10
414.636
 20
714.429
 30
0.000000
  70
    32
  0
VERTEX
  8
AM_0
  5
1D70E
 10
414.659
 20
714.438
 30
0.000000
  70
    32
  0
VERTEX
  8
AM_0
  5
1D70F
 10
414.682
 20
714.446
 30
0.000000
  70
    32
  0
VERTEX
  8
AM_0
  5
1D710
 10
414.705
 20
714.455
 30
0.000000
  70
    32
  0
VERTEX
  8
AM_0
  5
1D711
 10
414.728
 20
714.463
 30
0.000000
  70
    32
  0
VERTEX
  8
AM_0
  5
1D712
 10
414.751
 20
714.471
 30
0.000000
  70
    32
  0
VERTEX
  8
AM_0
  5
1D713
 10
414.775
 20
714.478
 30
0.000000
  70
    32
  0
VERTEX
  8
AM_0
  5
1D714
 10
414.798
 20
714.486
 30
0.000000
  70
    32
  0
VERTEX
  8
AM_0
  5
1D715
 10
414.822
 20
714.493
 30
0.000000
  70
    32
  0
VERTEX
  8
AM_0
  5
1D716
 10
414.845
 20
714.499
 30
0.000000
  70
    32
  0
VERTEX
  8
AM_0
  5
1D717
 10
414.869
 20
714.506
 30
0.000000
  70
    32
  0
VERTEX
  8
AM_0
  5
1D718
 10
414.893
 20
714.512
 30
0.000000
  70
    32
  0
VERTEX
  8
AM_0
  5
1D719
 10
414.917
 20
714.518
 30
0.000000
  70
    32
  0
VERTEX
  8
AM_0
  5
1D71A
 10
414.940
 20
714.523
 30
0.000000
  70
    32
  0
VERTEX
  8
AM_0
  5
1D71B
 10
414.964
 20
714.528
 30
0.000000
  70
    32
  0
VERTEX
  8
AM_0
  5
1D71C
 10
414.988
 20
714.533
 30
0.000000
  70
    32
  0
VERTEX
  8
AM_0
  5
1D71D
 10
415.013
 20
714.538
 30
0.000000
  70
    32
  0
VERTEX
  8
AM_0
  5
1D71E
 10
415.037
 20
714.542
 30
0.000000
  70
    32
  0
VERTEX
  8
AM_0
  5
1D71F
 10
415.061
 20
714.546
 30
0.000000
  70
    32
  0
VERTEX
  8
AM_0
  5
1D720
 10
415.085
 20
714.550
 30
0.000000
  70
    32
  0
VERTEX
  8
AM_0
  5
1D721
 10
415.109
 20
714.554
 30
0.000000
  70
    32
  0
VERTEX
  8
AM_0
  5
1D722
 10
415.134
 20
714.557
 30
0.000000
  70
    32
  0
VERTEX
  8
AM_0
  5
1D723
 10
415.158
 20
714.560
 30
0.000000
  70
    32
  0
VERTEX
  8
AM_0
  5
1D724
 10
415.183
 20
714.562
 30
0.000000
  70
    32
  0
VERTEX
  8
AM_0
  5
1D725
 10
415.207
 20
714.564
 30
0.000000
  70
    32
  0
VERTEX
  8
AM_0
  5
1D726
 10
415.232
 20
714.566
 30
0.000000
  70
    32
  0
VERTEX
  8
AM_0
  5
1D727
 10
415.256
 20
714.568
 30
0.000000
  70
    32
  0
VERTEX
  8
AM_0
  5
1D728
 10
415.281
 20
714.569
 30
0.000000
  70
    32
  0
VERTEX
  8
AM_0
  5
1D729
 10
415.305
 20
714.570
 30
0.000000
  70
    32
  0
VERTEX
  8
AM_0
  5
1D72A
 10
415.330
 20
714.571
 30
0.000000
  70
    32
  0
VERTEX
  8
AM_0
  5
1D72B
 10
415.354
 20
714.572
 30
0.000000
  70
    32
  0
VERTEX
  8
AM_0
  5
1D72C
 10
415.379
 20
714.572
 30
0.000000
  70
    32
  0
SEQEND
  8
AM_0
  5
1D72D
  0
ARC
  5
1C7AC
  8
AM_0
 10
311.87515446045222
 20
592.07174651805235
 30
0.0
 40
2.9999999999999978
 50
90.0
 51
144.31466528734541
1001
GENIUS_GENOBJ-N-FIL_13
1002
{
1000
OWNER
1000
GEN
1002
}
1001
GENIUS_GENODEF_13
1002
{
1000
HIER
1070
     0
1002
}
1002
{
1000
MANEDIT
1070
     0
1002
}
1002
{
1000
NOSEL
1070
     0
1002
}
1002
{
1000
BEHIND
1070
     0
1002
}
1002
{
1000
OTHER
1070
     0
1002
}
1002
{
1000
REACTOR
1002
}
  0
LINE
  5
1C7AD
  8
AM_0
 10
297.87515446045239
 20
619.43175651805279
 30
0.0
 11
307.87515446045228
 21
619.43175651805279
 31
0.0
  0
LINE
  5
1C7AE
  8
AM_0
 10
297.87515446045239
 20
604.5317465180525
 30
0.0
 11
307.87515446045228
 21
604.5317465180525
 31
0.0
  0
LINE
  5
1C7AF
  8
AM_0
 10
297.87515446045239
 20
592.57174651805235
 30
0.0
 11
307.00175728804783
 21
592.57174651805235
 31
0.0
  0
ARC
  5
1C7B0
  8
AM_0
 10
307.00175728804783
 20
595.57174651805224
 30
0.0
 40
2.9999999999999978
 50
270.0
 51
324.31466528734541
1001
GENIUS_GENOBJ-N-FIL_13
1002
{
1000
OWNER
1000
GEN
1002
}
1001
GENIUS_GENODEF_13
1002
{
1000
HIER
1070
     0
1002
}
1002
{
1000
MANEDIT
1070
     0
1002
}
1002
{
1000
NOSEL
1070
     0
1002
}
1002
{
1000
BEHIND
1070
     0
1002
}
1002
{
1000
OTHER
1070
     0
1002
}
1002
{
1000
REACTOR
1002
}
  0
ARC
  5
1C7B1
  8
AM_0
 10
324.62035108215622
 20
597.57173975853561
 30
0.0
 40
2.0
 50
1.0752778359700541
 51
90.0
1001
GENIUS_GENODEF_13
1002
{
1000
HIER
1070
     0
1002
}
1002
{
1000
MANEDIT
1070
     0
1002
}
1002
{
1000
NOSEL
1070
     0
1002
}
1002
{
1000
BEHIND
1070
     0
1002
}
1002
{
1000
OTHER
1070
     0
1002
}
1002
{
1000
REACTOR
1002
}
1001
GENIUS_GENOBJ-N-FIL_13
1002
{
1000
OWNER
1000
GEN
1002
}
  0
LINE
  5
1C7B2
  8
AM_0
 10
318.64118311411528
 20
596.89743503255715
 30
0.0
 11
318.7154274123036
 21
597.74605124403081
 31
0.0
  0
ARC
  5
1C7B3
  8
AM_0
 10
320.70781680848711
 20
597.57173975853561
 30
0.0
 40
2.0
 50
90.0
 51
175.0000000000002
1001
GENIUS_GENODEF_13
1002
{
1000
HIER
1070
     0
1002
}
1002
{
1000
MANEDIT
1070
     0
1002
}
1002
{
1000
NOSEL
1070
     0
1002
}
1002
{
1000
BEHIND
1070
     0
1002
}
1002
{
1000
OTHER
1070
     0
1002
}
1002
{
1000
REACTOR
1002
}
1001
GENIUS_GENOBJ-N-FIL_13
1002
{
1000
OWNER
1000
GEN
1002
}
  0
LINE
  5
1C7B4
  8
AM_0
 10
320.70781680848711
 20
599.57173975853561
 30
0.0
 11
324.62035108215622
 21
599.57173975853561
 31
0.0
  0
ARC
  5
1C7B5
  8
AM_0
 10
316.64879371793188
 20
597.07174651805235
 30
0.0
 40
2.0
 50
270.0
 51
355.00000000000028
1001
GENIUS_GENOBJ-N-FIL_13
1002
{
1000
OWNER
1000
GEN
1002
}
1001
GENIUS_GENODEF_13
1002
{
1000
HIER
1070
     0
1002
}
1002
{
1000
MANEDIT
1070
     0
1002
}
1002
{
1000
NOSEL
1070
     0
1002
}
1002
{
1000
BEHIND
1070
     0
1002
}
1002
{
1000
OTHER
1070
     0
1002
}
1002
{
1000
REACTOR
1002
}
  0
LINE
  5
1C7B6
  8
AM_0
 10
311.87515446045222
 20
595.07174651805224
 30
0.0
 11
316.64879371793188
 21
595.07174651805235
 31
0.0
  0
LINE
  5
1C7B7
  8
AM_0
 10
404.8779403571811
 20
592.57173960942384
 30
0.0
 11
404.8779403571811
 21
597.57173975853561
 31
0.0
  0
LINE
  5
1C7B8
  8
ﾁｭｳｼﾝｾﾝ1
 10
454.87874155029817
 20
730.57174357579277
 30
0.0
 11
454.87874155029829
 21
496.57174151805248
 31
0.0
  0
LINE
  5
1C7B9
  8
ﾁｭｳｼﾝｾﾝ1
 10
514.8764319938789
 20
594.5717397585355
 30
0.0
 11
514.87643199387901
 21
718.57174327756945
 31
0.0
  0
LINE
  5
1C7BA
  8
ｶｸﾚｾﾝ2
 10
521.87657220263907
 20
597.57173975853561
 30
0.0
 11
521.87657220263907
 21
715.57174327756945
 31
0.0
  0
LINE
  5
1C7BB
  8
ｶｸﾚｾﾝ2
 10
507.8762917851181
 20
597.57173975853561
 30
0.0
 11
507.8762917851181
 21
715.57174327756945
 31
0.0
  0
LINE
  5
1C7BC
  8
AM_0
 10
528.13118356287191
 20
597.57173975853561
 30
0.0
 11
529.87513005698884
 21
690.57174253201174
 31
0.0
  0
LINE
  5
1C7BD
  8
AM_0
 10
504.87954274341462
 20
720.57174342668122
 30
0.0
 11
504.87954274341462
 21
715.57174327756968
 31
0.0
  0
LINE
  5
1C7C1
  8
AM_0
 10
426.37887174414698
 20
712.57174318810246
 30
0.0
 11
426.37887174414698
 21
706.57174300916859
 31
0.0
  0
LINE
  5
1C7C2
  8
AM_0
 10
427.37889177396988
 20
715.57174327756945
 30
0.0
 11
427.37889177396988
 21
706.57174300916859
 31
0.0
  0
LINE
  5
1C7C3
  8
AM_0
 10
529.87513005698884
 20
690.57174253201174
 30
0.0
 11
529.56251716329655
 21
715.57174327756945
 31
0.0
  0
LINE
  5
1C7C6
  8
AM_0
 10
504.87954274341462
 20
592.57173960942384
 30
0.0
 11
504.87954274341462
 21
597.57173975853561
 31
0.0
  0
LINE
  5
1C7C8
  8
ｶｸﾚｾﾝ2
 10
266.37509446045232
 20
688.0717415180527
 30
0.0
 11
192.37509446045229
 21
688.0717415180527
 31
0.0
  0
LINE
  5
1C7C9
  8
ｶｸﾚｾﾝ2
 10
266.37509446045232
 20
625.0717415180527
 30
0.0
 11
192.37509446045229
 21
625.0717415180527
 31
0.0
  0
LINE
  5
1C7CA
  8
AM_0
 10
164.8751244604523
 20
720.46175251805278
 30
0.0
 11
217.8751244604523
 21
720.46175251805278
 31
0.0
  0
LINE
  5
1C7CB
  8
AM_0
 10
164.8751244604523
 20
721.81176651805276
 30
0.0
 11
217.8751244604523
 21
721.81176651805276
 31
0.0
  0
LINE
  5
1C7CC
  8
AM_0
 10
164.8751244604523
 20
722.48174851805288
 30
0.0
 11
217.8751244604523
 21
722.48174851805288
 31
0.0
  0
LINE
  5
1C7CD
  8
AM_0
 10
186.8751244604523
 20
702.92176151805268
 30
0.0
 11
285.27514459400697
 21
702.92176151805268
 31
0.0
  0
LINE
  5
1C7CE
  8
AM_0
 10
186.8751244604523
 20
610.22175151805277
 30
0.0
 11
285.27514459400697
 21
610.22175151805277
 31
0.0
  0
LINE
  5
1C7CF
  8
AM_0
 10
282.22515446045219
 20
692.57174151805282
 30
0.0
 11
147.4251744604523
 21
692.57174151805282
 31
0.0
  0
LINE
  5
1C7D0
  8
AM_0
 10
164.8751244604523
 20
718.4317535180528
 30
0.0
 11
281.68511446045233
 21
718.4317535180528
 31
0.0
  0
LINE
  5
1C7D1
  8
AM_0
 10
155.55511446045219
 20
619.85176151805274
 30
0.0
 11
285.69512446045218
 21
619.85176151805274
 31
0.0
  0
LINE
  5
1C7D2
  8
AM_0
 10
282.22515446045219
 20
620.57174151805293
 30
0.0
 11
156.4251744604523
 21
620.57174151805293
 31
0.0
  0
LINE
  5
1C7D3
  8
AM_0
 10
282.22515446045219
 20
690.57175151805268
 30
0.0
 11
147.4251744604523
 21
690.57175151805268
 31
0.0
  0
LINE
  5
1C7D4
  8
AM_0
 10
285.69512446045218
 20
689.9417515180528
 30
0.0
 11
146.5551144604523
 21
689.9417515180528
 31
0.0
  0
LINE
  5
1C7D5
  8
AM_0
 10
146.5551144604523
 20
693.29176151805279
 30
0.0
 11
285.69512446045218
 21
693.29176151805279
 31
0.0
  0
LINE
  5
1C7D6
  8
AM_0
 10
285.69512446045218
 20
623.20176151805265
 30
0.0
 11
155.55511446045219
 21
623.20176151805265
 31
0.0
  0
LINE
  5
1C7D7
  8
AM_0
 10
284.8200944604522
 20
682.57175561805298
 30
0.0
 11
147.4251744604523
 21
682.57176151805265
 31
0.0
  0
LINE
  5
1C7D8
  8
AM_0
 10
284.82009451281232
 20
680.57174741805272
 30
0.0
 11
147.4251744604523
 21
680.57174151805293
 31
0.0
  0
LINE
  5
1C7D9
  8
AM_0
 10
146.33514446045231
 20
683.05175151805292
 30
0.0
 11
285.91012446045232
 21
683.0517615180529
 31
0.0
  0
LINE
  5
1C7DA
  8
AM_0
 10
146.33514446045231
 20
680.13174151805288
 30
0.0
 11
285.91012453689768
 21
680.13176151805271
 31
0.0
  0
LINE
  5
1C7DB
  8
AM_0
 10
146.20513446045231
 20
672.9117615180528
 30
0.0
 11
286.04013446045218
 21
672.91174151805274
 31
0.0
  0
LINE
  5
1C7DC
  8
AM_0
 10
284.81010000261119
 20
672.57173954781115
 30
0.0
 11
147.43511446045221
 21
672.57174151805293
 31
0.0
  0
LINE
  5
1C7DD
  8
AM_0
 10
284.8101001073307
 20
670.57174348738192
 30
0.0
 11
147.43511446045221
 21
670.57176151805265
 31
0.0
  0
LINE
  5
1C7DE
  8
AM_0
 10
146.20513446045231
 20
670.25175151805286
 30
0.0
 11
286.04013453009088
 21
670.251741518053
 31
0.0
  0
LINE
  5
1C7DF
  8
AM_0
 10
146.14514446045229
 20
662.84175151805289
 30
0.0
 11
286.10012446045221
 21
662.84176551805274
 31
0.0
  0
LINE
  5
1C7E0
  8
AM_0
 10
284.81010000261119
 20
662.5717595478111
 30
0.0
 11
147.43511446045221
 21
662.57174151805293
 31
0.0
  0
LINE
  5
1C7E1
  8
AM_0
 10
284.8101001073307
 20
660.57176348738176
 30
0.0
 11
147.43511446045221
 21
660.57174151805293
 31
0.0
  0
LINE
  5
1C7E2
  8
AM_0
 10
146.14514446045229
 20
660.30175151805292
 30
0.0
 11
286.10012452694951
 21
660.30175751805291
 31
0.0
  0
LINE
  5
1C7E3
  8
AM_0
 10
146.14514446045229
 20
652.83175151805267
 30
0.0
 11
286.10012446045221
 21
652.83177551805272
 31
0.0
  0
LINE
  5
1C7E4
  8
AM_0
 10
284.81010000261119
 20
652.5717595478111
 30
0.0
 11
147.43511446045221
 21
652.57176151805277
 31
0.0
  0
LINE
  5
1C7E5
  8
AM_0
 10
284.8101001073307
 20
650.57176348738187
 30
0.0
 11
147.43511446045221
 21
650.57174151805293
 31
0.0
  0
LINE
  5
1C7E6
  8
AM_0
 10
146.14514446045229
 20
650.30175151805292
 30
0.0
 11
286.10012452668758
 21
650.30176751805288
 31
0.0
  0
LINE
  5
1C7E7
  8
AM_0
 10
146.20513446045231
 20
642.89175151805273
 30
0.0
 11
286.04013446045218
 21
642.89175151805273
 31
0.0
  0
LINE
  5
1C7E8
  8
AM_0
 10
284.81010000261119
 20
642.57173954781115
 30
0.0
 11
147.43511446045221
 21
642.57176151805288
 31
0.0
  0
LINE
  5
1C7E9
  8
AM_0
 10
284.8101001073307
 20
640.57174348738192
 30
0.0
 11
147.43511446045221
 21
640.57176151805265
 31
0.0
  0
LINE
  5
1C7EA
  8
AM_0
 10
146.20513446045231
 20
640.23176151805285
 30
0.0
 11
286.04013453009088
 21
640.23175151805299
 31
0.0
  0
LINE
  5
1C7EB
  8
AM_0
 10
155.33514446045231
 20
633.01175151805285
 30
0.0
 11
285.9051344604523
 21
633.01175151805285
 31
0.0
  0
LINE
  5
1C7EC
  8
AM_0
 10
284.81510446045218
 20
632.57176561805295
 30
0.0
 11
156.4251744604523
 21
632.57174151805293
 31
0.0
  0
LINE
  5
1C7ED
  8
AM_0
 10
284.8151045128123
 20
630.57175741805258
 30
0.0
 11
156.4251744604523
 21
630.57176151805288
 31
0.0
  0
LINE
  5
1C7EE
  8
AM_0
 10
155.33514446045231
 20
630.08177151805273
 30
0.0
 11
285.90513453715931
 21
630.08175151805267
 31
0.0
  0
LINE
  5
1C7EF
  8
AM_0
 10
282.22513546033002
 20
622.57175987232074
 30
0.0
 11
156.4251744604523
 21
622.57176151805288
 31
0.0
  0
LINE
  5
1C7F0
  8
AM_0
 10
164.8751244604523
 20
592.68176151805267
 30
0.0
 11
217.8751244604523
 21
592.68176151805267
 31
0.0
  0
LINE
  5
1C7F1
  8
AM_0
 10
164.8751244604523
 20
591.3317515180529
 30
0.0
 11
217.8751244604523
 21
591.3317515180529
 31
0.0
  0
LINE
  5
1C7F2
  8
AM_0
 10
164.8751244604523
 20
590.65176151805258
 30
0.0
 11
217.8751244604523
 21
590.65176151805258
 31
0.0
  0
LINE
  5
1C7F3
  8
AM_0
 10
164.8751244604523
 20
594.71176151805275
 30
0.0
 11
281.68511446045233
 21
594.71176151805275
 31
0.0
  0
LINE
  5
1C7F4
  8
ｶｸﾚｾﾝ2
 10
189.37509446045229
 20
628.0717415180527
 30
0.0
 11
189.37509446045229
 21
685.07174151805259
 31
0.0
  0
LINE
  5
1C7F5
  8
AM_0
 10
136.87515446045219
 20
705.16175151805282
 30
0.0
 11
136.87515446045219
 21
661.57173151805273
 31
0.0
  0
LINE
  5
1C7F6
  8
AM_0
 10
141.8750944604522
 20
714.00174051805266
 30
0.0
 11
141.8750944604522
 21
656.5717415180527
 31
0.0
  0
LINE
  5
1C7F7
  8
AM_0
 10
135.37515446045219
 20
636.57175151805291
 30
0.0
 11
135.37515446045219
 21
676.57173151805273
 31
0.0
  0
LINE
  5
1C7F8
  8
AM_0
 10
134.38125446045231
 20
671.79363151805285
 30
0.0
 11
134.38125446045231
 21
641.35000151805275
 31
0.0
  0
LINE
  5
1C7F9
  8
AM_0
 10
145.59515446045231
 20
608.22175151805266
 30
0.0
 11
146.13519446045231
 21
605.23175151805265
 31
0.0
  0
LINE
  5
1C7FA
  8
AM_0
 10
138.8750944604522
 20
607.0717415180527
 30
0.0
 11
138.8750944604522
 21
607.6017415180529
 31
0.0
  0
LINE
  5
1C7FB
  8
AM_0
 10
138.64511446045219
 20
606.9517415180527
 30
0.0
 11
137.3750944604522
 21
607.6917515180528
 31
0.0
  0
LINE
  5
1C7FC
  8
AM_0
 10
141.8750944604522
 20
599.14175151805273
 30
0.0
 11
141.8750944604522
 21
656.5717415180527
 31
0.0
  0
ARC
  5
1C7FD
  8
AM_0
 10
164.86968446045219
 20
593.32632151805285
 30
0.0
 40
1.9945760999999991
 50
179.84400999999721
 51
270.15599200000003
  0
ARC
  5
1C7FE
  8
AM_0
 10
164.8776244604523
 20
592.64660151805288
 30
0.0
 40
1.994844099999999
 50
194.3627999999992
 51
269.92834200000209
  0
LINE
  5
1C7FF
  8
AM_0
 10
148.1051044604522
 20
603.59176151805286
 30
0.0
 11
161.3751244604523
 21
603.59176151805286
 31
0.0
  0
LINE
  5
1C800
  8
AM_0
 10
147.98510446045231
 20
593.2717615180527
 30
0.0
 11
161.48510446045231
 21
593.2717615180527
 31
0.0
  0
LINE
  5
1C801
  8
AM_0
 10
148.0151344604522
 20
594.90176151805269
 30
0.0
 11
161.3751244604523
 21
594.90176151805269
 31
0.0
  0
LINE
  5
1C802
  8
AM_0
 10
148.0451644604523
 20
598.30175151805292
 30
0.0
 11
161.3751244604523
 21
598.30175151805292
 31
0.0
  0
ARC
  5
1C803
  8
AM_0
 10
148.04681446045231
 20
600.29715151805294
 30
0.0
 40
1.9953879999999991
 50
192.01538000000019
 51
269.9519330000021
  0
LINE
  5
1C804
  8
AM_0
 10
146.0651244604523
 20
596.44175151805268
 30
0.0
 11
145.1450844604521
 21
600.32174151805293
 31
0.0
  0
ARC
  5
1C805
  8
AM_0
 10
143.70342446045231
 20
597.94465151805275
 30
0.0
 40
1.5070961
 50
14.09782000000339
 51
89.935179999998283
  0
LINE
  5
1C806
  8
AM_0
 10
143.70513446045231
 20
599.45175151805267
 30
0.0
 11
145.3551644604523
 21
599.45175151805267
 31
0.0
  0
LINE
  5
1C807
  8
AM_0
 10
141.87506446045231
 20
599.14175151805273
 30
0.0
 11
144.69512446045229
 21
599.07176151805265
 31
0.0
  0
LINE
  5
1C808
  8
AM_0
 10
146.04510446045231
 20
594.78174151805285
 30
0.0
 11
145.16509446045231
 21
598.31173151805285
 31
0.0
  0
ARC
  5
1C809
  8
AM_0
 10
148.0079344604523
 20
596.89721151805293
 30
0.0
 40
1.9954841000000001
 50
193.19407999999811
 51
270.20654200000092
  0
ARC
  5
1C80A
  8
AM_0
 10
147.98242446045231
 20
595.26953151805287
 30
0.0
 40
1.9977800999999991
 50
194.13223000000309
 51
270.07691900000231
  0
LINE
  5
1C80B
  8
AM_0
 10
143.66509446045231
 20
605.53177151805266
 30
0.0
 11
146.08514446045231
 21
605.53177151805266
 31
0.0
  0
ARC
  5
1C80C
  8
AM_0
 10
143.6663244604523
 20
604.0276215180528
 30
0.0
 40
1.50414
 50
12.44475000000339
 51
90.045750000001433
  0
LINE
  5
1C80D
  8
AM_0
 10
143.68511446045221
 20
601.47177151805295
 30
0.0
 11
145.7451144604523
 21
601.47177151805295
 31
0.0
  0
ARC
  5
1C80E
  8
AM_0
 10
143.6843244604523
 20
599.96895151805268
 30
0.0
 40
1.5028081
 50
13.577820000002809
 51
89.969209999998441
  0
ARC
  5
1C80F
  8
AM_0
 10
139.13712446045221
 20
607.81762151805265
 30
0.0
 40
0.9959119600000002
 50
240.3930099999983
 51
270.45855599999942
  0
ARC
  5
1C810
  8
AM_0
 10
141.3705144604522
 20
606.31712151805277
 30
0.0
 40
0.5046359900000002
 50
0.5237599999994802
 51
89.476240000000516
  0
LINE
  5
1C811
  8
AM_0
 10
139.14511446045219
 20
606.8217415180527
 30
0.0
 11
141.37515446045219
 21
606.8217415180527
 31
0.0
  0
ARC
  5
1C812
  8
AM_0
 10
148.09698446045229
 20
605.58519151805274
 30
0.0
 40
1.993431999999999
 50
190.21196999999981
 51
270.23411600000071
  0
LINE
  5
1C813
  8
AM_0
 10
146.09515446045231
 20
599.88176151805271
 30
0.0
 11
145.13513446045221
 21
604.35176151805274
 31
0.0
  0
LINE
  5
1C814
  8
AM_0
 10
162.8751244604523
 20
594.68176151805278
 30
0.0
 11
162.8751244604523
 21
602.09176151805275
 31
0.0
  0
ARC
  5
1C815
  8
AM_0
 10
161.3733544604523
 20
596.79997151805264
 30
0.0
 40
1.5017959999999979
 50
0.0685499999989591
 51
89.931450000001036
  0
ARC
  5
1C816
  8
AM_0
 10
161.4887644604523
 20
591.76486151805273
 30
0.0
 40
1.506888
 50
14.87693000000551
 51
90.137770000000501
  0
ARC
  5
1C817
  8
AM_0
 10
164.87237446045231
 20
594.67897151805278
 30
0.0
 40
1.9972080000000001
 50
179.91986000000111
 51
270.08014299999962
  0
ARC
  5
1C818
  8
AM_0
 10
164.87152446045229
 20
596.7081415180528
 30
0.0
 40
1.996383999999999
 50
179.89615999999739
 51
270.103837
  0
ARC
  5
1C819
  8
AM_0
 10
161.3712744604523
 20
593.39792151805295
 30
0.0
 40
1.503848099999999
 50
0.1464000000030106
 51
89.853599999996987
  0
ARC
  5
1C81A
  8
AM_0
 10
161.36944446045231
 20
602.08609151805274
 30
0.0
 40
1.505676
 50
0.2155299999989793
 51
89.784480000001125
  0
LINE
  5
1C81B
  8
AM_0
 10
135.37515446045219
 20
641.42173151805275
 30
0.0
 11
139.6551244604521
 21
641.42173151805275
 31
0.0
  0
LINE
  5
1C81C
  8
AM_0
 10
140.8750944604522
 20
640.5717415180527
 30
0.0
 11
137.8750944604522
 21
640.5717415180527
 31
0.0
  0
LINE
  5
1C81D
  8
AM_0
 10
140.8750944604522
 20
642.57175151805291
 30
0.0
 11
137.8750944604522
 21
642.57175151805291
 31
0.0
  0
LINE
  5
1C81E
  8
AM_0
 10
140.8750944604522
 20
630.57175151805279
 30
0.0
 11
137.8750944604522
 21
630.57175151805279
 31
0.0
  0
LINE
  5
1C81F
  8
AM_0
 10
140.8750944604522
 20
632.5717415180527
 30
0.0
 11
137.8750944604522
 21
632.5717415180527
 31
0.0
  0
LINE
  5
1C820
  8
AM_0
 10
138.68509446045221
 20
620.96172151805285
 30
0.0
 11
137.4850844604523
 21
621.47172151805273
 31
0.0
  0
LINE
  5
1C821
  8
AM_0
 10
138.7351444604522
 20
622.87174151805266
 30
0.0
 11
137.58511446045219
 21
623.22175151805266
 31
0.0
  0
LINE
  5
1C822
  8
AM_0
 10
138.6351044604522
 20
609.0717415180527
 30
0.0
 11
137.35507446045219
 21
609.84173151805271
 31
0.0
  0
LINE
  5
1C823
  8
AM_0
 10
138.6250944604522
 20
613.61178151805279
 30
0.0
 11
137.32510446045211
 21
614.46177151805273
 31
0.0
  0
LINE
  5
1C824
  8
AM_0
 10
138.64511446045219
 20
614.72176151805286
 30
0.0
 11
137.36508446045229
 21
615.47176151805274
 31
0.0
  0
LINE
  5
1C825
  8
AM_0
 10
138.66513446045221
 20
608.07171151805289
 30
0.0
 11
137.4251444604522
 21
608.70171151805289
 31
0.0
  0
LINE
  5
1C826
  8
AM_0
 10
138.6551244604521
 20
610.18172151805277
 30
0.0
 11
137.40506446045219
 21
610.85172151805273
 31
0.0
  0
LINE
  5
1C827
  8
AM_0
 10
140.8750944604522
 20
662.5717415180527
 30
0.0
 11
137.8750944604522
 21
662.5717415180527
 31
0.0
  0
LINE
  5
1C828
  8
AM_0
 10
140.8750944604522
 20
660.57175151805291
 30
0.0
 11
137.8750944604522
 21
660.57175151805291
 31
0.0
  0
LINE
  5
1C829
  8
AM_0
 10
140.8750944604522
 20
650.5717415180527
 30
0.0
 11
137.8750944604522
 21
650.5717415180527
 31
0.0
  0
LINE
  5
1C82A
  8
AM_0
 10
140.8750944604522
 20
652.5717415180527
 30
0.0
 11
137.8750944604522
 21
652.5717415180527
 31
0.0
  0
LINE
  5
1C82B
  8
AM_0
 10
136.87515446045219
 20
608.55173151805286
 30
0.0
 11
136.87515446045219
 21
651.57175151805268
 31
0.0
  0
ARC
  5
1C82C
  8
AM_0
 10
137.86990446045209
 20
615.2941415180527
 30
0.0
 40
0.9948279899999999
 50
179.56186999999991
 51
236.79531000000051
  0
ARC
  5
1C82D
  8
AM_0
 10
137.86832446045219
 20
611.73031151805264
 30
0.0
 40
0.9932120399999999
 50
179.91816999999921
 51
242.20065999999841
  0
ARC
  5
1C82E
  8
AM_0
 10
137.86832446045219
 20
608.5538215180527
 30
0.0
 40
0.99319202
 50
180.1204399999996
 51
240.2266000000005
  0
ARC
  5
1C82F
  8
AM_0
 10
137.8707044604522
 20
609.5920515180527
 30
0.0
 40
0.99558806
 50
180.0177499999989
 51
243.41250999999849
  0
ARC
  5
1C830
  8
AM_0
 10
137.8695444604522
 20
610.69277151805272
 30
0.0
 40
0.9944360299999999
 50
180.0595100000007
 51
238.8478299999995
  0
ARC
  5
1C831
  8
AM_0
 10
137.8714944604522
 20
622.39016151805288
 30
0.0
 40
0.99640006
 50
179.90960000000121
 51
247.18261000000129
  0
ARC
  5
1C832
  8
AM_0
 10
137.8691744604522
 20
616.3285415180527
 30
0.0
 40
0.99407601
 50
179.8153599999992
 51
239.5307999999998
  0
ARC
  5
1C833
  8
AM_0
 10
137.87137446045219
 20
624.17599151805268
 30
0.0
 40
0.9962600499999998
 50
179.6695099999998
 51
253.30251000000089
  0
LINE
  5
1C834
  8
AM_0
 10
135.3750944604522
 20
636.57172151805275
 30
0.0
 11
136.8750944604522
 21
636.44172151805276
 31
0.0
  0
ARC
  5
1C835
  8
AM_0
 10
137.8701544604522
 20
631.56681151805265
 30
0.0
 40
0.9950800499999999
 50
179.71593000000081
 51
270.28407899999871
  0
ARC
  5
1C836
  8
AM_0
 10
137.87527446045209
 20
631.5715215180528
 30
0.0
 40
1.0002040000000001
 50
90.011679999999231
 51
179.98832999999539
  0
ARC
  5
1C837
  8
AM_0
 10
137.8701544604522
 20
641.56683151805271
 30
0.0
 40
0.99508399
 50
179.71613000000201
 51
270.2838669999993
  0
ARC
  5
1C838
  8
AM_0
 10
137.87527446045209
 20
641.57154151805275
 30
0.0
 40
1.000199999999998
 50
90.011469999999875
 51
179.98853000000011
  0
LINE
  5
1C839
  8
AM_0
 10
135.37515446045219
 20
639.29174151805273
 30
0.0
 11
136.87515446045219
 21
639.29174151805273
 31
0.0
  0
LINE
  5
1C83A
  8
AM_0
 10
134.8812544604524
 20
638.57998151805293
 30
0.0
 11
135.38125446045231
 21
638.61999151805287
 31
0.0
  0
LINE
  5
1C83B
  8
AM_0
 10
134.38125446045231
 20
641.35000151805275
 30
0.0
 11
134.8812544604524
 21
638.57998151805293
 31
0.0
  0
ARC
  5
1C83C
  8
AM_0
 10
137.8701544604522
 20
651.56681151805276
 30
0.0
 40
0.9950879799999999
 50
179.71634999999941
 51
270.28365500000041
  0
ARC
  5
1C83D
  8
AM_0
 10
137.87527446045209
 20
651.57154151805287
 30
0.0
 40
1.0001959999999981
 50
90.011260000000647
 51
179.98875000000049
  0
ARC
  5
1C83E
  8
AM_0
 10
137.8701544604522
 20
661.56681151805265
 30
0.0
 40
0.9950800499999999
 50
179.7159000000002
 51
270.28410600000052
  0
POINT
  5
1C83F
  8
AM_0
 10
134.3812544604524
 20
656.57177151805308
 30
0.0
  0
ARC
  5
1C840
  8
AM_0
 10
137.87527446045209
 20
661.5715215180528
 30
0.0
 40
1.0002040000000001
 50
90.011699999998413
 51
179.9882999999983
  0
LINE
  5
1C841
  8
AM_0
 10
186.8751244604523
 20
610.22177151805295
 30
0.0
 11
151.8751244604523
 21
612.25177151805292
 31
0.0
  0
ARC
  5
1C842
  8
AM_0
 10
163.8751244604523
 20
621.57176151805288
 30
0.0
 40
1.0000040999999991
 50
90.0
 51
269.99999700000228
  0
ARC
  5
1C843
  8
AM_0
 10
156.4251744604523
 20
621.57176151805288
 30
0.0
 40
1.0000040999999991
 50
90.0
 51
269.99999700000228
  0
ARC
  5
1C844
  8
AM_0
 10
155.55511446045219
 20
621.52676151805258
 30
0.0
 40
1.6750081000000001
 50
90.0
 51
269.99999700000228
  0
LINE
  5
1C845
  8
AM_0
 10
141.8751244604523
 20
622.26176151805294
 30
0.0
 11
151.8751244604523
 21
622.26176151805294
 31
0.0
  0
LINE
  5
1C846
  8
AM_0
 10
141.8751244604523
 20
608.22177151805295
 30
0.0
 11
151.8751244604523
 21
608.22177151805295
 31
0.0
  0
LINE
  5
1C847
  8
AM_0
 10
141.8751244604523
 20
613.88176151805271
 30
0.0
 11
151.8751244604523
 21
613.88176151805271
 31
0.0
  0
ARC
  5
1C848
  8
AM_0
 10
140.87271446045219
 20
615.58411151805274
 30
0.0
 40
1.002375999999999
 50
270.1355900000006
 51
359.86440800999611
  0
ARC
  5
1C849
  8
AM_0
 10
139.1102044604522
 20
611.06710151805271
 30
0.0
 40
0.99546796
 50
242.79633999999999
 51
270.85855199999838
  0
ARC
  5
1C84A
  8
AM_0
 10
140.87613446045219
 20
611.0707515180527
 30
0.0
 40
0.9990080599999998
 50
269.94315700000072
 51
0.0568500000028607
  0
LINE
  5
1C84B
  8
AM_0
 10
139.12515446045219
 20
610.07174151805259
 30
0.0
 11
140.8750944604522
 21
610.07174151805259
 31
0.0
  0
ARC
  5
1C84C
  8
AM_0
 10
139.1817344604523
 20
614.43793151805289
 30
0.0
 40
0.9962120099999999
 50
236.03009999999909
 51
269.61809399999811
  0
ARC
  5
1C84D
  8
AM_0
 10
139.15451446045219
 20
615.57822151805271
 30
0.0
 40
0.9965200400000001
 50
239.2567200000006
 51
269.45878700000048
  0
LINE
  5
1C84E
  8
AM_0
 10
139.1751444604522
 20
613.44173151805273
 30
0.0
 11
141.8750944604522
 21
613.44173151805273
 31
0.0
  0
LINE
  5
1C84F
  8
AM_0
 10
139.14511446045219
 20
614.5817515180529
 30
0.0
 11
140.8750944604522
 21
614.5817515180529
 31
0.0
  0
LINE
  5
1C850
  8
AM_0
 10
138.8750944604522
 20
613.74175151805275
 30
0.0
 11
138.8750944604522
 21
614.2117415180528
 31
0.0
  0
ARC
  5
1C851
  8
AM_0
 10
139.09988446045219
 20
608.96577151805275
 30
0.0
 40
0.9941280500000002
 50
244.06518999999921
 51
270.8771919999981
  0
ARC
  5
1C852
  8
AM_0
 10
139.14395446045211
 20
609.9259415180527
 30
0.0
 40
0.9942600099999999
 50
239.21890999999769
 51
270.64411800000079
  0
ARC
  5
1C853
  8
AM_0
 10
141.37674446045219
 20
608.47010151805273
 30
0.0
 40
0.4983640000000002
 50
269.81140200000237
 51
0.1885899999984164
  0
LINE
  5
1C854
  8
AM_0
 10
139.1551244604521
 20
608.93175151805269
 30
0.0
 11
141.8750944604522
 21
608.93175151805269
 31
0.0
  0
LINE
  5
1C855
  8
AM_0
 10
139.11508446045229
 20
607.97175151805277
 30
0.0
 11
141.37515446045219
 21
607.97175151805277
 31
0.0
  0
LINE
  5
1C856
  8
AM_0
 10
138.8750944604522
 20
609.17173151805275
 30
0.0
 11
138.8750944604522
 21
609.72173151805271
 31
0.0
  0
ARC
  5
1C857
  8
AM_0
 10
139.07608446045219
 20
621.87722151805281
 30
0.0
 40
0.99548006
 50
246.87297000000149
 51
269.94267899999801
  0
ARC
  5
1C858
  8
AM_0
 10
141.17056446045231
 20
620.17719151805272
 30
0.0
 40
0.7045519900000002
 50
0.3691099999995231
 51
89.630890000000463
  0
LINE
  5
1C859
  8
AM_0
 10
139.07510446045211
 20
620.88174151805265
 30
0.0
 11
141.17508446045221
 21
620.88174151805265
 31
0.0
  0
LINE
  5
1C85A
  8
AM_0
 10
138.8750944604522
 20
621.18174151805272
 30
0.0
 11
138.8750944604522
 21
622.24174151805278
 31
0.0
  0
ARC
  5
1C85B
  8
AM_0
 10
155.0250244604523
 20
615.36160151805279
 30
0.0
 40
1.004135999999999
 50
314.20256400000051
 51
5.1511600000042383
  0
LINE
  5
1C85C
  8
AM_0
 10
151.8751244604523
 20
608.22177151805295
 30
0.0
 11
151.8751244604523
 21
622.26176151805294
 31
0.0
  0
ARC
  5
1C85D
  8
AM_0
 10
151.49633446045229
 20
618.90370151805291
 30
0.0
 40
6.0039081999999979
 50
273.61728599999782
 51
314.7763070000006
  0
ARC
  5
1C85E
  8
AM_0
 10
151.0400344604522
 20
614.9739815180526
 30
0.0
 40
5.0078917000000001
 50
5.4746799999994851
 51
80.401279999998295
  0
ARC
  5
1C85F
  8
AM_0
 10
140.87021446045219
 20
629.56683151805271
 30
0.0
 40
1.0049318999999981
 50
0.2804200000034381
 51
89.719579999999837
  0
ARC
  5
1C860
  8
AM_0
 10
139.01425446045221
 20
623.82445151805291
 30
0.0
 40
0.99277198
 50
253.6681800000014
 51
270.62519199999991
  0
ARC
  5
1C861
  8
AM_0
 10
140.87680446045209
 20
623.83004151805267
 30
0.0
 40
0.99829602
 50
269.90203899999779
 51
0.097959999996099
  0
LINE
  5
1C862
  8
AM_0
 10
139.0251244604521
 20
622.8317515180529
 30
0.0
 11
140.8750944604522
 21
622.8317515180529
 31
0.0
  0
LINE
  5
1C863
  8
AM_0
 10
138.8750944604522
 20
630.94173151805273
 30
0.0
 11
138.8750944604522
 21
632.31173151805274
 31
0.0
  0
ARC
  5
1C864
  8
AM_0
 10
140.87527446045209
 20
633.57159151805286
 30
0.0
 40
0.99985206
 50
269.99145300000112
 51
0.0085499999998415
  0
ARC
  5
1C865
  8
AM_0
 10
155.33514446045231
 20
631.5467515180527
 30
0.0
 40
1.4650000000000001
 50
90.0
 51
269.99999700000228
  0
ARC
  5
1C866
  8
AM_0
 10
156.4251744604523
 20
631.57176151805277
 30
0.0
 40
1.0000040999999991
 50
90.0
 51
269.99999700000228
  0
ARC
  5
1C867
  8
AM_0
 10
163.8751244604523
 20
631.57176151805277
 30
0.0
 40
1.0000040999999991
 50
90.0
 51
269.99999700000228
  0
ARC
  5
1C868
  8
ｶｸﾚｾﾝ2
 10
192.3750944604522
 20
628.0717415180527
 30
0.0
 40
3.0
 50
180.0
 51
270.0
  0
ARC
  5
1C869
  8
AM_0
 10
140.87527446045209
 20
653.57159151805274
 30
0.0
 40
0.99984801
 50
269.99122099999857
 51
0.0087799999995646
  0
ARC
  5
1C86A
  8
AM_0
 10
146.20513446045231
 20
641.56175151805292
 30
0.0
 40
1.3300000000000001
 50
90.0
 51
269.99999700000228
  0
ARC
  5
1C86B
  8
AM_0
 10
140.87527446045209
 20
643.57160151805272
 30
0.0
 40
0.9998440099999999
 50
269.99100899999809
 51
0.0089900000036835
  0
LINE
  5
1C86C
  8
AM_0
 10
138.8750944604522
 20
640.96175151805278
 30
0.0
 11
138.8750944604522
 21
642.17173151805275
 31
0.0
  0
ARC
  5
1C86D
  8
AM_0
 10
140.87021446045219
 20
639.56683151805271
 30
0.0
 40
1.004928
 50
0.2802199999997394
 51
89.719780000000256
  0
ARC
  5
1C86E
  8
AM_0
 10
147.42645446045231
 20
641.57174151805293
 30
0.0
 40
1.000035999999999
 50
89.500709999998364
 51
270.49928399999988
  0
ARC
  5
1C86F
  8
AM_0
 10
146.14514446045229
 20
651.56677151805275
 30
0.0
 40
1.265004
 50
90.0
 51
269.99999700000228
  0
LINE
  5
1C870
  8
AM_0
 10
138.8750944604522
 20
650.9617415180528
 30
0.0
 11
138.8750944604522
 21
652.12176151805272
 31
0.0
  0
ARC
  5
1C871
  8
AM_0
 10
140.87021446045219
 20
649.5668415180528
 30
0.0
 40
1.0049238999999981
 50
0.2800100000028081
 51
89.719990000000479
  0
ARC
  5
1C872
  8
AM_0
 10
147.42645446045231
 20
651.57176151805288
 30
0.0
 40
1.000035999999999
 50
89.500709999998364
 51
270.49928399999988
  0
ARC
  5
1C873
  8
AM_0
 10
163.8751244604523
 20
641.57174151805293
 30
0.0
 40
1.0000040999999991
 50
90.0
 51
269.99999700000228
  0
ARC
  5
1C874
  8
AM_0
 10
163.8751244604523
 20
651.57176151805288
 30
0.0
 40
1.0000040999999991
 50
90.0
 51
269.99999700000228
  0
ARC
  5
1C875
  8
AM_0
 10
147.42645446045231
 20
661.57176151805265
 30
0.0
 40
1.000035999999999
 50
89.500709999998364
 51
270.49928399999988
  0
ARC
  5
1C876
  8
AM_0
 10
140.8701544604522
 20
659.56682151805273
 30
0.0
 40
1.0049318999999981
 50
0.2804500000010229
 51
89.719550000002215
  0
ARC
  5
1C877
  8
AM_0
 10
146.14514446045229
 20
661.57176151805265
 30
0.0
 40
1.270003999999999
 50
90.0
 51
269.99999700000228
  0
LINE
  5
1C878
  8
AM_0
 10
138.8750944604522
 20
662.18175151805281
 30
0.0
 11
138.8750944604522
 21
661.02173151805289
 31
0.0
  0
ARC
  5
1C879
  8
AM_0
 10
140.87527446045209
 20
663.57159151805274
 30
0.0
 40
0.99985206
 50
269.9914259999988
 51
0.0085700000020774
  0
ARC
  5
1C87A
  8
AM_0
 10
163.8751244604523
 20
661.57176151805265
 30
0.0
 40
1.0000040999999991
 50
90.0
 51
269.99999700000228
  0
LINE
  5
1C87B
  8
AM_0
 10
138.64511446045219
 20
706.18171051805268
 30
0.0
 11
137.3750944604522
 21
705.45171451805277
 31
0.0
  0
LINE
  5
1C87C
  8
AM_0
 10
138.6650744604521
 20
705.06171551805267
 30
0.0
 11
137.42508446045221
 21
704.43171751805278
 31
0.0
  0
LINE
  5
1C87D
  8
AM_0
 10
138.6250944604522
 20
699.53173151805277
 30
0.0
 11
137.32510446045211
 21
698.68172551805276
 31
0.0
  0
LINE
  5
1C87E
  8
AM_0
 10
138.6351044604522
 20
704.07170951805278
 30
0.0
 11
137.35507446045219
 21
703.30169751805283
 31
0.0
  0
LINE
  5
1C87F
  8
AM_0
 10
138.64511446045219
 20
698.42172351805266
 30
0.0
 11
137.3651444604522
 21
697.67173851805285
 31
0.0
  0
LINE
  5
1C880
  8
AM_0
 10
138.6551244604521
 20
702.95174451805281
 30
0.0
 11
137.4051244604521
 21
702.29175651805269
 31
0.0
  0
LINE
  5
1C881
  8
AM_0
 10
138.68509446045221
 20
692.18171751805266
 30
0.0
 11
137.4851444604522
 21
691.66175151805282
 31
0.0
  0
LINE
  5
1C882
  8
AM_0
 10
138.7351444604522
 20
690.2717215180528
 30
0.0
 11
137.58511446045219
 21
689.91172151805279
 31
0.0
  0
LINE
  5
1C883
  8
AM_0
 10
135.37515446045219
 20
671.72175151805288
 30
0.0
 11
139.95511446045219
 21
671.72175151805288
 31
0.0
  0
LINE
  5
1C884
  8
AM_0
 10
140.8750944604522
 20
682.57173151805273
 30
0.0
 11
137.8750944604522
 21
682.57173151805273
 31
0.0
  0
LINE
  5
1C885
  8
AM_0
 10
140.8750944604522
 20
680.57174151805259
 30
0.0
 11
137.8750944604522
 21
680.57174151805259
 31
0.0
  0
LINE
  5
1C886
  8
AM_0
 10
140.8750944604522
 20
672.57175151805268
 30
0.0
 11
137.8750944604522
 21
672.57175151805268
 31
0.0
  0
LINE
  5
1C887
  8
AM_0
 10
140.8750944604522
 20
670.57173151805273
 30
0.0
 11
137.8750944604522
 21
670.57173151805273
 31
0.0
  0
LINE
  5
1C888
  8
AM_0
 10
135.37515446045219
 20
673.85174151805279
 30
0.0
 11
136.87515446045219
 21
673.85174151805279
 31
0.0
  0
LINE
  5
1C889
  8
AM_0
 10
134.8812544604524
 20
674.56359151805304
 30
0.0
 11
135.38128446045221
 21
674.52358151805299
 31
0.0
  0
ARC
  5
1C88A
  8
AM_0
 10
137.87527446045209
 20
671.57153151805289
 30
0.0
 40
1.000199999999998
 50
90.011489999999029
 51
179.98849999999649
  0
LINE
  5
1C88B
  8
AM_0
 10
134.38125446045231
 20
671.79360151805292
 30
0.0
 11
134.8812544604524
 21
674.56359151805304
 31
0.0
  0
ARC
  5
1C88C
  8
AM_0
 10
137.8701544604522
 20
671.56682151805273
 30
0.0
 40
0.99508399
 50
179.7161099999955
 51
270.2838940000006
  0
ARC
  5
1C88D
  8
AM_0
 10
137.87527446045209
 20
681.57154151805287
 30
0.0
 40
1.0001959999999981
 50
90.011279999999786
 51
179.9887199999969
  0
ARC
  5
1C88E
  8
AM_0
 10
137.8701544604522
 20
681.5668015180529
 30
0.0
 40
0.99508399
 50
179.71632000000011
 51
270.2836760000007
  0
LINE
  5
1C88F
  8
AM_0
 10
135.37515446045219
 20
676.57174151805259
 30
0.0
 11
136.8750944604522
 21
676.7017415180527
 31
0.0
  0
ARC
  5
1C890
  8
AM_0
 10
137.87161446045229
 20
690.74327151805278
 30
0.0
 40
0.9964760499999998
 50
112.8203400000012
 51
180.08741999999921
  0
ARC
  5
1C891
  8
AM_0
 10
137.8714944604522
 20
688.95739851805286
 30
0.0
 40
0.9963800299999999
 50
106.7029300000017
 51
179.75050999999979
  0
ARC
  5
1C892
  8
AM_0
 10
137.8741844604522
 20
697.8470545180528
 30
0.0
 40
0.9991000299999999
 50
123.3382299999985
 51
180.30457999999891
  0
ARC
  5
1C893
  8
AM_0
 10
137.8735744604522
 20
696.81243951805266
 30
0.0
 40
0.9984599899999999
 50
120.613450000001
 51
180.04038000000051
  0
ARC
  5
1C894
  8
AM_0
 10
137.87283446045231
 20
701.41044751805282
 30
0.0
 40
0.99770796
 50
117.9552399999974
 51
179.92595000000051
  0
ARC
  5
1C895
  8
AM_0
 10
137.87076446045219
 20
703.54138251805284
 30
0.0
 40
0.99566799
 50
116.59017000000139
 51
179.9795699999992
  0
ARC
  5
1C896
  8
AM_0
 10
137.87271446045219
 20
704.58707551805276
 30
0.0
 40
0.9976240400000001
 50
119.9204600000002
 51
179.73248999999609
  0
ARC
  5
1C897
  8
AM_0
 10
137.8738744604521
 20
702.44824351805266
 30
0.0
 40
0.9987800700000001
 50
121.2914499999994
 51
180.37332999999981
  0
ARC
  5
1C898
  8
AM_0
 10
151.50537446045229
 20
694.2252515180528
 30
0.0
 40
6.007896399999999
 50
45.382730000008017
 51
86.471550000001656
  0
LINE
  5
1C899
  8
AM_0
 10
151.8751244604523
 20
704.92175151805282
 30
0.0
 11
151.8751244604523
 21
693.23175113018419
 31
0.0
  0
ARC
  5
1C89A
  8
AM_0
 10
140.87527446045209
 20
683.57158151805265
 30
0.0
 40
0.99984801
 50
269.99119299999802
 51
0.0088100000029374
  0
ARC
  5
1C89B
  8
AM_0
 10
146.20513446045231
 20
671.58174151805292
 30
0.0
 40
1.3300000000000001
 50
90.0
 51
269.99999700000228
  0
LINE
  5
1C89C
  8
AM_0
 10
138.8750944604522
 20
672.18173151805274
 30
0.0
 11
138.8750944604522
 21
670.96175151805289
 31
0.0
  0
ARC
  5
1C89D
  8
AM_0
 10
140.87527446045209
 20
673.57159151805274
 30
0.0
 40
0.9998440099999999
 50
269.99098199999912
 51
0.0090200000005597
  0
ARC
  5
1C89E
  8
AM_0
 10
140.87021446045219
 20
669.56683151805271
 30
0.0
 40
1.004928
 50
0.2802399999999659
 51
89.719760000000036
  0
ARC
  5
1C89F
  8
AM_0
 10
147.42645446045231
 20
671.57174151805293
 30
0.0
 40
1.000035999999999
 50
89.500709999998364
 51
270.49928399999988
  0
ARC
  5
1C8A0
  8
AM_0
 10
146.33514446045231
 20
681.59176151805275
 30
0.0
 40
1.4599999999999991
 50
90.0
 51
269.99999700000228
  0
LINE
  5
1C8A1
  8
AM_0
 10
138.8750944604522
 20
682.2017415180527
 30
0.0
 11
138.8750944604522
 21
680.8317515180529
 31
0.0
  0
ARC
  5
1C8A2
  8
AM_0
 10
140.87021446045219
 20
679.56683151805271
 30
0.0
 40
1.0049238999999981
 50
0.2800300000026683
 51
89.719960000000654
  0
ARC
  5
1C8A3
  8
AM_0
 10
147.4251744604523
 20
681.57175151805291
 30
0.0
 40
1.0000040999999991
 50
90.0
 51
269.99999700000228
  0
ARC
  5
1C8A4
  8
AM_0
 10
163.8751244604523
 20
671.57174151805293
 30
0.0
 40
1.0000040999999991
 50
90.0
 51
269.99999700000228
  0
ARC
  5
1C8A5
  8
AM_0
 10
163.8751244604523
 20
681.57175151805291
 30
0.0
 40
1.0000040999999991
 50
90.0
 51
269.99999700000228
  0
ARC
  5
1C8A6
  8
AM_0
 10
147.42517709037389
 20
691.5717585680527
 30
0.0
 40
1.000007050003423
 50
90.000150682346145
 51
269.99984931765061
  0
LINE
  5
1C8A7
  8
AM_0
 10
138.8750944604522
 20
691.96174751805279
 30
0.0
 11
138.8750944604522
 21
690.90174951805284
 31
0.0
  0
ARC
  5
1C8A8
  8
AM_0
 10
146.5551144604523
 20
691.61676151805284
 30
0.0
 40
1.6750081000000001
 50
90.0
 51
269.99999700000228
  0
LINE
  5
1C8A9
  8
AM_0
 10
141.8751244604523
 20
690.87175151805275
 30
0.0
 11
145.04516446045221
 21
690.87175151805275
 31
0.0
  0
ARC
  5
1C8AA
  8
AM_0
 10
140.8718044604521
 20
689.30838851805277
 30
0.0
 40
1.003363999999999
 50
0.1917199999970875
 51
89.808290000001264
  0
ARC
  5
1C8AB
  8
AM_0
 10
139.01566446045231
 20
689.30905251805279
 30
0.0
 40
1.0027280000000001
 50
89.459600000000535
 51
106.24703000000051
  0
LINE
  5
1C8AC
  8
AM_0
 10
139.0251244604521
 20
690.31173751805284
 30
0.0
 11
140.8750944604522
 21
690.31173751805284
 31
0.0
  0
ARC
  5
1C8AD
  8
AM_0
 10
139.1384644604523
 20
697.55074351805285
 30
0.0
 40
1.001012
 50
89.619799999999586
 51
119.5286399999998
  0
ARC
  5
1C8AE
  8
AM_0
 10
140.87265446045211
 20
697.5492795180528
 30
0.0
 40
1.0024599999999999
 50
0.1403799999989609
 51
89.859619999997776
  0
LINE
  5
1C8AF
  8
AM_0
 10
139.14511446045219
 20
698.55173551805285
 30
0.0
 11
140.8750944604522
 21
698.55173551805285
 31
0.0
  0
ARC
  5
1C8B0
  8
AM_0
 10
141.17569446045209
 20
692.96118251805285
 30
0.0
 40
0.69944
 50
269.95415999999977
 51
0.045840000000191
  0
ARC
  5
1C8B1
  8
AM_0
 10
139.07809446045221
 20
691.25651651805276
 30
0.0
 40
1.005223999999999
 50
90.170639999999636
 51
113.01371000000159
  0
LINE
  5
1C8B2
  8
AM_0
 10
139.07510446045211
 20
692.26174251805276
 30
0.0
 11
141.17508446045221
 21
692.26174251805276
 31
0.0
  0
ARC
  5
1C8B3
  8
AM_0
 10
163.8751244604523
 20
691.57176151805277
 30
0.0
 40
1.0000040999999991
 50
90.0
 51
269.99999700000228
  0
ARC
  5
1C8B4
  8
AM_0
 10
155.0216644604522
 20
697.78066151805285
 30
0.0
 40
1.007376
 50
354.93659510000271
 51
45.709679999995217
  0
ARC
  5
1C8B5
  8
AM_0
 10
151.0453444604523
 20
698.16463151805283
 30
0.0
 40
5.0021839000000003
 50
279.54857499999889
 51
354.57547400000232
  0
ARC
  5
1C8B6
  8
ｶｸﾚｾﾝ2
 10
192.3750944604522
 20
685.07174151805259
 30
0.0
 40
3.0
 50
90.0
 51
180.0
  0
LINE
  5
1C8B7
  8
AM_0
 10
186.8751844604522
 20
702.92175151805282
 30
0.0
 11
151.8751844604522
 21
700.89175151805284
 31
0.0
  0
LINE
  5
1C8B8
  8
AM_0
 10
162.8751244604523
 20
718.46175951805287
 30
0.0
 11
162.8751244604523
 21
711.05175651805268
 31
0.0
  0
ARC
  5
1C8B9
  8
AM_0
 10
148.04705446045219
 20
712.83605051805284
 30
0.0
 40
1.995695899999999
 50
90.05521999999722
 51
167.97747000000001
  0
LINE
  5
1C8BA
  8
AM_0
 10
141.8751244604523
 20
714.00176051805283
 30
0.0
 11
144.69512446045229
 21
714.07176051805266
 31
0.0
  0
ARC
  5
1C8BB
  8
AM_0
 10
143.71008446045229
 20
715.19353351805285
 30
0.0
 40
1.501779999999999
 50
269.81061700000078
 51
345.66716400000013
  0
LINE
  5
1C8BC
  8
AM_0
 10
146.0651244604523
 20
716.70176551805275
 30
0.0
 11
145.1450844604521
 21
712.82176851805298
 31
0.0
  0
LINE
  5
1C8BD
  8
AM_0
 10
148.1051044604522
 20
709.5517565180528
 30
0.0
 11
161.3751244604523
 21
709.5517565180528
 31
0.0
  0
LINE
  5
1C8BE
  8
AM_0
 10
141.8751244604523
 20
704.92175151805282
 30
0.0
 11
151.8751244604523
 21
704.92175151805282
 31
0.0
  0
LINE
  5
1C8BF
  8
AM_0
 10
141.8751244604523
 20
699.26175151805285
 30
0.0
 11
151.8751244604523
 21
699.26175151805285
 31
0.0
  0
LINE
  5
1C8C0
  8
AM_0
 10
145.59515446045231
 20
704.92175151805282
 30
0.0
 11
146.13519446045231
 21
707.91177251805277
 31
0.0
  0
ARC
  5
1C8C1
  8
AM_0
 10
141.3755244604522
 20
706.82130551805267
 30
0.0
 40
0.49955601
 50
269.94910599999918
 51
0.0508899999968759
  0
ARC
  5
1C8C2
  8
AM_0
 10
139.15579446045211
 20
705.32066451805269
 30
0.0
 40
1.001135899999998
 50
90.612490000000719
 51
120.6719999999964
  0
ARC
  5
1C8C3
  8
AM_0
 10
139.12094446045219
 20
704.1724785180528
 30
0.0
 40
0.99928796
 50
90.333809999998678
 51
117.13873000000299
  0
ARC
  5
1C8C4
  8
AM_0
 10
141.3716744604522
 20
704.66835151805287
 30
0.0
 40
0.50340396
 50
0.3861299999981976
 51
89.613870000001796
  0
LINE
  5
1C8C5
  8
AM_0
 10
139.14511446045219
 20
706.3217475180528
 30
0.0
 11
141.37515446045219
 21
706.3217475180528
 31
0.0
  0
LINE
  5
1C8C6
  8
AM_0
 10
139.11508446045229
 20
705.17173051805275
 30
0.0
 11
141.37515446045219
 21
705.17173051805275
 31
0.0
  0
LINE
  5
1C8C7
  8
AM_0
 10
138.8750944604522
 20
706.07174051805282
 30
0.0
 11
138.8750944604522
 21
705.54174151805285
 31
0.0
  0
ARC
  5
1C8C8
  8
AM_0
 10
139.14645446045219
 20
703.20808451805283
 30
0.0
 40
1.003687999999999
 50
89.507249999999203
 51
120.62973000000081
  0
LINE
  5
1C8C9
  8
AM_0
 10
139.1551244604521
 20
704.21173151805283
 30
0.0
 11
141.8750944604522
 21
704.21173151805283
 31
0.0
  0
LINE
  5
1C8CA
  8
AM_0
 10
139.12515446045219
 20
703.07174051805282
 30
0.0
 11
140.8750944604522
 21
703.07174051805282
 31
0.0
  0
LINE
  5
1C8CB
  8
AM_0
 10
138.8750944604522
 20
703.97174951805277
 30
0.0
 11
138.8750944604522
 21
703.42174651805283
 31
0.0
  0
ARC
  5
1C8CC
  8
AM_0
 10
139.1302844604522
 20
702.07111451805281
 30
0.0
 40
1.0006280000000001
 50
90.295290000000691
 51
118.3501399999993
  0
ARC
  5
1C8CD
  8
AM_0
 10
140.8710644604522
 20
702.06765851805267
 30
0.0
 40
1.004083999999998
 50
0.2326300000036288
 51
89.767369999999616
  0
ARC
  5
1C8CE
  8
AM_0
 10
139.1678844604522
 20
698.69123951805284
 30
0.0
 40
1.0005360000000001
 50
89.586780000001141
 51
122.8536000000007
  0
LINE
  5
1C8CF
  8
AM_0
 10
139.1751444604522
 20
699.6917505180528
 30
0.0
 11
141.8750944604522
 21
699.6917505180528
 31
0.0
  0
LINE
  5
1C8D0
  8
AM_0
 10
138.8750944604522
 20
699.40173451805276
 30
0.0
 11
138.8750944604522
 21
698.93174851805281
 31
0.0
  0
LINE
  5
1C8D1
  8
AM_0
 10
143.70513446045231
 20
713.6917485180528
 30
0.0
 11
145.3551644604523
 21
713.6917485180528
 31
0.0
  0
LINE
  5
1C8D2
  8
AM_0
 10
143.68511446045221
 20
711.6717515180527
 30
0.0
 11
145.7451144604523
 21
711.6717515180527
 31
0.0
  0
ARC
  5
1C8D3
  8
AM_0
 10
143.68945446045231
 20
713.16808951805285
 30
0.0
 40
1.4963319999999991
 50
269.83540999999917
 51
346.617561999999
  0
LINE
  5
1C8D4
  8
AM_0
 10
143.66509446045231
 20
707.60175151805277
 30
0.0
 11
146.08514446045231
 21
707.60175151805277
 31
0.0
  0
ARC
  5
1C8D5
  8
AM_0
 10
143.66528446045231
 20
709.10454451805288
 30
0.0
 40
1.5027881000000001
 50
269.9953320000032
 51
347.98665799999787
  0
ARC
  5
1C8D6
  8
AM_0
 10
148.1021144604523
 20
707.55213051805288
 30
0.0
 40
1.9996280999999989
 50
89.914670000000115
 51
169.63923999999781
  0
LINE
  5
1C8D7
  8
AM_0
 10
146.09515446045231
 20
713.25176051805283
 30
0.0
 11
145.13513446045221
 21
708.79174651805283
 31
0.0
  0
ARC
  5
1C8D8
  8
AM_0
 10
161.37475446045229
 20
711.05212251805267
 30
0.0
 40
1.5003600999999991
 50
270.01381500000002
 51
359.98618399999862
  0
LINE
  5
1C8D9
  8
AM_0
 10
148.0151344604522
 20
718.24175851805285
 30
0.0
 11
161.3751244604523
 21
718.24175851805285
 31
0.0
  0
LINE
  5
1C8DA
  8
AM_0
 10
147.98510446045231
 20
719.87176351805283
 30
0.0
 11
161.48510446045231
 21
719.87176351805283
 31
0.0
  0
LINE
  5
1C8DB
  8
AM_0
 10
148.0451644604523
 20
714.83176251805287
 30
0.0
 11
161.3751244604523
 21
714.83176251805287
 31
0.0
  0
ARC
  5
1C8DC
  8
AM_0
 10
148.0130644604522
 20
716.23982051805285
 30
0.0
 40
2.001947899999998
 50
89.940519999998955
 51
166.65886000000151
  0
ARC
  5
1C8DD
  8
AM_0
 10
147.98754446045231
 20
717.8674455180527
 30
0.0
 40
2.0043239999999991
 50
90.068910000001068
 51
165.72194999999999
  0
LINE
  5
1C8DE
  8
AM_0
 10
146.0451644604523
 20
718.36174651805277
 30
0.0
 11
145.16516446045219
 21
714.82174551805281
 31
0.0
  0
ARC
  5
1C8DF
  8
AM_0
 10
164.87622446045231
 20
720.48532751805283
 30
0.0
 40
1.996427999999999
 50
90.032390000001968
 51
165.30536999999919
  0
ARC
  5
1C8E0
  8
AM_0
 10
164.87493446045229
 20
719.81193351805268
 30
0.0
 40
1.999824
 50
89.994939999998735
 51
180.00506000000121
  0
ARC
  5
1C8E1
  8
AM_0
 10
161.37652446045229
 20
719.74031651805285
 30
0.0
 40
1.498559999999999
 50
269.94488499999687
 51
0.055119999999415
  0
ARC
  5
1C8E2
  8
AM_0
 10
164.8776244604523
 20
718.45924251805275
 30
0.0
 40
2.0025157999999981
 50
90.071899999999786
 51
179.9281000000002
  0
ARC
  5
1C8E3
  8
AM_0
 10
161.49383446045221
 20
721.37203851805282
 30
0.0
 40
1.5003120000000001
 50
269.66833699999898
 51
345.31696600000072
  0
ARC
  5
1C8E4
  8
AM_0
 10
161.3735944604523
 20
716.33327351805281
 30
0.0
 40
1.5015080999999979
 50
270.05754899999692
 51
359.94245300200021
  0
ARC
  5
1C8E5
  8
AM_0
 10
164.87676446045219
 20
716.43011351805285
 30
0.0
 40
2.001640099999999
 50
90.046959999998165
 51
179.9530399999953
  0
LINE
  5
1C8E6
  8
ｶｸﾚｾﾝ2
 10
269.37509446045232
 20
685.07174151805259
 30
0.0
 11
269.37509446045232
 21
628.0717415180527
 31
0.0
  0
LINE
  5
1C8E7
  8
ﾁｭｳｼﾝｾﾝ1
 10
237.87509446045229
 20
622.07174151805259
 30
0.0
 11
237.87509446045229
 21
691.07174151805282
 31
0.0
1001
GENIUS_GENODEF_13
1002
{
1000
HIER
1070
     0
1002
}
1002
{
1000
MANEDIT
1070
     0
1002
}
1002
{
1000
NOSEL
1070
     0
1002
}
1002
{
1000
BEHIND
1070
     0
1002
}
1002
{
1000
REACTOR
1002
}
1001
GENIUS_GENOBJ-N-CEN_13
1002
{
1000
OWNER
1000
GEN
1002
}
  0
LINE
  5
1C8E8
  8
AM_0
 10
288.8751244604523
 20
593.57174651805235
 30
0.0
 11
288.87512447664511
 21
719.5717154938875
 31
0.0
  0
LINE
  5
1C8E9
  8
AM_0
 10
283.61514446045231
 20
596.1917515180528
 30
0.0
 11
286.38080014079043
 21
606.51904341863064
 31
0.0
  0
ARC
  5
1C8EA
  8
AM_0
 10
217.87451446045239
 20
592.65237151805275
 30
0.0
 40
2.000623899999999
 50
270.01782400000212
 51
359.9821759990013
  0
ARC
  5
1C8EB
  8
AM_0
 10
217.87805446045229
 20
593.32884151805297
 30
0.0
 40
1.9970881
 50
269.91637499999922
 51
0.0836200000014677
  0
ARC
  5
1C8EC
  8
AM_0
 10
217.87536446045229
 20
594.68149151805267
 30
0.0
 40
1.9997199999999991
 50
269.99193799999972
 51
0.0080600000040013
  0
LINE
  5
1C8ED
  8
AM_0
 10
219.8751244604523
 20
592.65176151805269
 30
0.0
 11
219.8751244604523
 21
594.71176151805275
 31
0.0
  0
LINE
  5
1C8EE
  8
AM_0
 10
288.58514446045228
 20
605.53177151805266
 30
0.0
 11
286.17514446045232
 21
605.53177151805266
 31
0.0
  0
ARC
  5
1C8EF
  8
AM_0
 10
288.58096446045232
 20
604.03128151805265
 30
0.0
 40
1.500475999999999
 50
89.841720000000251
 51
167.6677700000013
  0
LINE
  5
1C8F0
  8
AM_0
 10
283.58511446045219
 20
596.07176151805265
 30
0.0
 11
288.8751244604523
 21
596.07176151805265
 31
0.0
  0
LINE
  5
1C8F1
  8
AM_0
 10
285.68511446045233
 20
597.65172151805268
 30
0.0
 11
287.1251244604523
 21
604.35171151805275
 31
0.0
  0
ARC
  5
1C8F2
  8
AM_0
 10
283.72958446045232
 20
598.07193151805291
 30
0.0
 40
2.0001799999999981
 50
269.87248500000197
 51
347.87364800000222
  0
ARC
  5
1C8F3
  8
AM_0
 10
281.68557446045219
 20
596.70956151805274
 30
0.0
 40
1.997795899999999
 50
269.9864190000028
 51
344.9784029999978
  0
LINE
  5
1C8F4
  8
AM_0
 10
289.8751244604523
 20
592.57174651805235
 30
0.0
 11
297.87515446045239
 21
592.57174651805235
 31
0.0
  0
ARC
  5
1C8F5
  8
AM_0
 10
289.87017446045229
 20
593.56678651805248
 30
0.0
 40
0.9950640200000001
 50
179.714940000002
 51
270.28506199999953
  0
LINE
  5
1C8F6
  8
AM_0
 10
289.8751244604523
 20
604.53175151805294
 30
0.0
 11
297.87515446045239
 21
604.53175151805294
 31
0.0
  0
ARC
  5
1C8F7
  8
AM_0
 10
289.86953446045231
 20
605.52614151805267
 30
0.0
 40
0.9944000200000001
 50
179.6764900000021
 51
270.323509
  0
ARC
  5
1C8F8
  8
ｶｸﾚｾﾝ2
 10
266.3750944604522
 20
628.0717415180527
 30
0.0
 40
3.0
 50
270.0
 51
0.0
  0
ARC
  5
1C8F9
  8
AM_0
 10
282.21694446045228
 20
621.57176151805288
 30
0.0
 40
1.000031899999998
 50
270.46929999999787
 51
89.530700000002156
  0
ARC
  5
1C8FA
  8
AM_0
 10
285.69512446045218
 20
621.52676151805258
 30
0.0
 40
1.675
 50
269.99999700000228
 51
90.0
  0
LINE
  5
1C8FC
  8
AM_0
 10
288.8751244604523
 20
619.42175151805259
 30
0.0
 11
297.87515446045239
 21
619.42175151805259
 31
0.0
  0
ARC
  5
1C8FD
  8
AM_0
 10
285.9051344604523
 20
631.5467515180527
 30
0.0
 40
1.4650000000000001
 50
270.00000299999761
 51
90.0
  0
ARC
  5
1C8FE
  8
AM_0
 10
284.81510446045218
 20
631.57176151805277
 30
0.0
 40
1.0000040999999991
 50
270.00000299999761
 51
90.0
  0
ARC
  5
1C8FF
  8
AM_0
 10
284.81881446045219
 20
641.57174151805293
 30
0.0
 40
1.000035999999999
 50
269.50071600000012
 51
90.499290000001622
  0
ARC
  5
1C900
  8
AM_0
 10
286.04013446045218
 20
641.56175151805292
 30
0.0
 40
1.3300000000000001
 50
270.00000299999761
 51
90.0
  0
ARC
  5
1C901
  8
AM_0
 10
284.81881446045219
 20
651.57176151805288
 30
0.0
 40
1.000035999999999
 50
269.50071600000012
 51
90.499290000001622
  0
ARC
  5
1C902
  8
AM_0
 10
286.10012446045221
 20
651.56677151805275
 30
0.0
 40
1.265004
 50
270.00000299999761
 51
90.0
  0
ARC
  5
1C903
  8
AM_0
 10
286.10012446045221
 20
661.57176151805265
 30
0.0
 40
1.270003999999999
 50
270.00000299999761
 51
90.0
  0
ARC
  5
1C904
  8
AM_0
 10
284.81881446045219
 20
661.57176151805265
 30
0.0
 40
1.000035999999999
 50
269.50071600000012
 51
90.499290000001622
  0
ARC
  5
1C905
  8
AM_0
 10
217.87426446045231
 20
720.48088651805267
 30
0.0
 40
2.0008759
 50
0.0251100000023943
 51
89.9748899999976
  0
ARC
  5
1C906
  8
AM_0
 10
217.87280446045239
 20
719.80941651805279
 30
0.0
 40
2.002332
 50
0.0667400000013121
 51
89.933259999998697
  0
ARC
  5
1C907
  8
AM_0
 10
217.8701144604523
 20
718.45674751805279
 30
0.0
 40
2.0050240000000001
 50
0.1434100000013002
 51
89.856589999998704
  0
LINE
  5
1C908
  8
AM_0
 10
219.8751244604523
 20
720.48175651805275
 30
0.0
 11
219.8751244604523
 21
718.4317535180528
 31
0.0
  0
ARC
  5
1C909
  8
ｶｸﾚｾﾝ2
 10
266.3750944604522
 20
685.07174151805248
 30
0.0
 40
3.0
 50
0.0
 51
90.0
  0
ARC
  5
1C90A
  8
AM_0
 10
286.04013446045218
 20
671.58174151805292
 30
0.0
 40
1.3300000000000001
 50
270.00000299999761
 51
90.0
  0
ARC
  5
1C90B
  8
AM_0
 10
284.81881446045219
 20
671.57174151805293
 30
0.0
 40
1.000035999999999
 50
269.50071600000012
 51
90.499290000001622
  0
ARC
  5
1C90C
  8
AM_0
 10
284.8200944604522
 20
681.57175151805291
 30
0.0
 40
1.0000040999999991
 50
270.00000299999761
 51
90.0
  0
ARC
  5
1C90D
  8
AM_0
 10
285.91012446045232
 20
681.59176151805275
 30
0.0
 40
1.4599999999999991
 50
270.00000299999761
 51
90.0
  0
ARC
  5
1C90E
  8
AM_0
 10
282.21694446045228
 20
691.57176151805277
 30
0.0
 40
1.000031899999998
 50
270.46929999999787
 51
89.530700000002156
  0
ARC
  5
1C90F
  8
AM_0
 10
285.69512446045218
 20
691.61676151805284
 30
0.0
 40
1.675
 50
269.99999700000228
 51
90.0
  0
LINE
  5
1C910
  8
AM_0
 10
288.8751244604523
 20
693.72176151805297
 30
0.0
 11
297.87515446045239
 21
693.72176151805297
 31
0.0
  0
LINE
  5
1C911
  8
AM_0
 10
285.68514446045231
 20
715.49176651805283
 30
0.0
 11
287.12515446045222
 21
708.79176951805277
 31
0.0
  0
LINE
  5
1C912
  8
AM_0
 10
283.61514446045231
 20
716.95176551805275
 30
0.0
 11
286.38081626217479
 21
706.6244246088927
 31
0.0
  0
LINE
  5
1C913
  8
AM_0
 10
288.58514446045228
 20
707.60175151805277
 30
0.0
 11
286.17514446045232
 21
707.60175151805277
 31
0.0
  0
ARC
  5
1C915
  8
AM_0
 10
288.58221446045229
 20
709.10108751805285
 30
0.0
 40
1.499328
 50
191.90615999999929
 51
270.11184899999989
  0
LINE
  5
1C916
  8
AM_0
 10
289.8751244604523
 20
708.61176151805284
 30
0.0
 11
297.87515446045239
 21
708.61176151805284
 31
0.0
  0
ARC
  5
1C917
  8
AM_0
 10
289.87460446045219
 20
707.61228051805278
 30
0.0
 40
0.9994760199999999
 50
89.970079999999669
 51
180.0299099999979
  0
LINE
  5
1C918
  8
AM_0
 10
283.58511446045219
 20
717.07176051805266
 30
0.0
 11
288.8751244604523
 21
717.07176051805266
 31
0.0
  0
ARC
  5
1C919
  8
AM_0
 10
281.68054446045232
 20
716.42734351805268
 30
0.0
 40
2.0044159999999991
 50
15.16665999999886
 51
89.868520000001183
  0
ARC
  5
1C91A
  8
AM_0
 10
283.72445446045231
 20
715.06522251805279
 30
0.0
 40
2.0065319999999991
 50
12.27313000000388
 51
89.980730000003206
  0
LINE
  5
1C91B
  8
AM_0
 10
289.8751244604523
 20
720.57172651805263
 30
0.0
 11
297.87515446045239
 21
720.57172651805263
 31
0.0
  0
ARC
  5
1C91C
  8
AM_0
 10
289.8753044604523
 20
719.57153551805266
 30
0.0
 40
1.000179999999999
 50
90.010320000000135
 51
179.98968999999451
  0
CIRCLE
  5
1C91E
  8
AM_0
 10
454.87874155029817
 20
322.97519248972191
 30
0.0
 40
3.399999999999999
  0
LINE
  5
1C91F
  8
AM_0
 10
429.8787407977394
 20
587.57173944099259
 30
0.0
 11
479.87874230285553
 21
587.57173944099259
 31
0.0
  0
LINE
  5
1C920
  8
0
 10
434.87874155029812
 20
559.57174151805248
 30
0.0
 11
429.8787407977394
 21
587.57173944099293
 31
0.0
  0
LINE
  5
1C921
  8
AM_0
 10
429.8787407977394
 20
592.57173959150407
 30
0.0
 11
429.8787407977394
 21
587.57173944099259
 31
0.0
  0
LINE
  5
1C922
  8
0
 10
474.87874155029812
 20
559.57174151805248
 30
0.0
 11
479.87874230285553
 21
587.57173944099293
 31
0.0
  0
LINE
  5
1C923
  8
AM_0
 10
479.87874230285553
 20
592.57173959150407
 30
0.0
 11
479.87874230285553
 21
587.57173944099259
 31
0.0
  0
LINE
  5
1C925
  8
0
 10
438.87874155029772
 20
501.57174151805248
 30
0.0
 11
438.87874155029772
 21
559.57174151805248
 31
0.0
  0
LINE
  5
1C926
  8
0
 10
470.87874155029812
 20
501.57174151805248
 30
0.0
 11
470.87874155029812
 21
559.57174151805248
 31
0.0
  0
LINE
  5
1C927
  8
AM_0
 10
470.87874155029812
 20
501.57174151805248
 30
0.0
 11
438.87874155029772
 21
501.57174151805248
 31
0.0
  0
LINE
  5
1C928
  8
0
 10
434.87874155029812
 20
559.57174151805248
 30
0.0
 11
474.87874155029812
 21
559.57174151805248
 31
0.0
  0
LINE
  5
1C929
  8
0
 10
449.87874155029829
 20
546.57174151805248
 30
0.0
 11
459.87874155029812
 21
546.57174151805248
 31
0.0
  0
LINE
  5
1C95C
  8
AM_0
 10
449.87874155029829
 20
501.57174151805248
 30
0.0
 11
449.87874155029812
 21
546.57174151805248
 31
0.0
  0
LINE
  5
1C96A
  8
AM_0
 10
459.87874155029812
 20
501.57174151805248
 30
0.0
 11
459.87874155029812
 21
546.57174151805248
 31
0.0
  0
ARC
  5
1C96C
  8
AM_0
 10
454.87874155029829
 20
546.57174151805248
 30
0.0
 40
4.9999999999999432
 50
0.0
 51
180.0
  0
LINE
  5
1C99F
  8
AM_0
 10
288.87512459407878
 20
613.71177100511284
 30
0.0
 11
288.87512459407878
 21
606.1117710049607
 31
0.0
  0
LINE
  5
1C9A0
  8
AM_0
 10
287.87512459405889
 20
613.71177100511284
 30
0.0
 11
287.87512459405889
 21
606.1117710049607
 31
0.0
  0
LINE
  5
1C9A1
  8
AM_0
 10
288.87512459407878
 20
610.68913100505233
 30
0.0
 11
287.87512459405889
 21
610.11180100504077
 31
0.0
  0
LINE
  5
1C9A2
  8
AM_0
 10
288.87512459407878
 20
609.68913100503232
 30
0.0
 11
287.87512459405889
 21
609.11177100502073
 31
0.0
  0
LINE
  5
1C9A4
  8
AM_0
 10
287.87512459405889
 20
606.1117710049607
 30
0.0
 11
288.87512459407878
 21
606.1117710049607
 31
0.0
  0
LINE
  5
1C9A5
  8
AM_0
 10
287.87512459405889
 20
606.41177100496691
 30
0.0
 11
286.97512459404101
 21
606.41177100496691
 31
0.0
  0
LINE
  5
1C9A6
  8
AM_0
 10
287.87512459405889
 20
613.71177100511284
 30
0.0
 11
288.87512459407878
 21
613.71177100511284
 31
0.0
  0
LINE
  5
1C9A7
  8
AM_0
 10
287.87512459405889
 20
613.41176100510688
 30
0.0
 11
286.97512459404101
 21
613.41176100510688
 31
0.0
  0
LINE
  5
1C9A8
  8
AM_0
 10
285.27514459400697
 20
611.71177100507271
 30
0.0
 11
285.27514459400697
 21
608.11177100500095
 31
0.0
  0
ARC
  5
1C9A9
  8
AM_0
 10
286.97512459404101
 20
611.71177100507271
 30
0.0
 40
1.6999969000339989
 50
90.00000299999769
 51
179.99997999999789
  0
ARC
  5
1C9AA
  8
AM_0
 10
286.97512459404101
 20
608.11177100500095
 30
0.0
 40
1.700000800033999
 50
180.00001000000091
 51
269.999979999998
  0
LINE
  5
1C9AC
  8
AM_0
 10
288.87512459407878
 20
703.45433100690775
 30
0.0
 11
287.87512459405889
 21
704.03169100691935
 31
0.0
  0
LINE
  5
1C9AD
  8
AM_0
 10
285.27514459400697
 20
701.43169100686725
 30
0.0
 11
285.27514459400697
 21
705.03169100693935
 31
0.0
  0
LINE
  5
1C9AE
  8
AM_0
 10
287.87512459405889
 20
699.43169100682735
 30
0.0
 11
287.87512459405889
 21
707.03169100697914
 31
0.0
  0
LINE
  5
1C9AF
  8
AM_0
 10
288.87512459407878
 20
699.43169100682735
 30
0.0
 11
288.87512459407878
 21
707.03169100697914
 31
0.0
  0
LINE
  5
1C9B0
  8
AM_0
 10
287.87512459405889
 20
699.73170100683353
 30
0.0
 11
286.97512459404101
 21
699.73170100683353
 31
0.0
  0
LINE
  5
1C9B1
  8
AM_0
 10
287.87512459405889
 20
699.43169100682735
 30
0.0
 11
288.87512459407878
 21
699.43169100682735
 31
0.0
  0
ARC
  5
1C9B2
  8
AM_0
 10
286.97512459404101
 20
701.43169100686725
 30
0.0
 40
1.6999969000339989
 50
180.00001999999549
 51
269.99999700000228
  0
LINE
  5
1C9B3
  8
AM_0
 10
288.87512459407878
 20
702.45433100688786
 30
0.0
 11
287.87512459405889
 21
703.03166100689941
 31
0.0
  0
LINE
  5
1C9B4
  8
AM_0
 10
287.87512459405889
 20
706.73169100697339
 30
0.0
 11
286.97512459404101
 21
706.73169100697339
 31
0.0
  0
LINE
  5
1C9B5
  8
AM_0
 10
287.87512459405889
 20
707.03169100697914
 30
0.0
 11
288.87512459407878
 21
707.03169100697914
 31
0.0
  0
ARC
  5
1C9B6
  8
AM_0
 10
286.97512459404101
 20
705.03169100693935
 30
0.0
 40
1.700000800033999
 50
90.000020000002024
 51
179.999989999999
  0
LINE
  5
1CE14
  8
AM_0
 10
875.0373763747433
 20
324.96572851563712
 30
0.0
 11
875.31737446611498
 21
324.97555302653433
 31
0.0
  0
LINE
  5
1CE15
  8
AM_0
 10
875.0373763747433
 20
326.98522263029042
 30
0.0
 11
875.31737446611498
 21
326.97555302653433
 31
0.0
  0
ARC
  5
1CE16
  8
AM_0
 10
875.27592946611514
 20
325.97598202653393
 30
0.0
 40
1.000429999999999
 50
270.08275800000013
 51
87.625716000003749
  0
TEXT
  5
1CF35
  8
AM_0
 10
649.36600570860742
 20
670.4668483308742
 30
0.0
 40
15.0
  1
VC04-080ML~VC04-240ML
1001
ACAD
1000
MTEXTBEGIN
1070
    73
1070
     1
1070
    44
1040
1.0
1070
    74
1070
     0
1000
MTEXTEND
  0
VIEWPORT
  5
89
 67
     1
  8
0
 10
210.0
 20
148.5
 30
0.0
 40
420.0
 41
297.0
 68
     1
 69
     1
1001
ACAD
1000
MVIEW
1002
{
1070
    16
1010
0.0
1020
0.0
1030
0.0
1010
0.0
1020
0.0
1030
1.0
1040
0.0
1040
297.0
1040
221.70154043645701
1040
148.5
1040
50.0
1040
0.0
1040
0.0
1070
     0
1070
   100
1070
     1
1070
     1
1070
     0
1070
     0
1070
     0
1070
     0
1040
0.0
1040
0.0
1040
0.0
1040
10.0
1040
10.0
1040
10.0
1040
10.0
1070
     0
1002
{
1002
}
1002
}
1001
GENIUS_GENOREF_13
1005
1B94
1001
GENIUS_GENSCREG_15
1000
PF
1040
1.0
1000
DF
1040
1.0
1000
MIN
1011
0.0
1021
0.0
1031
0.0
1021
0.0
1031
0.0
1000
MAX
1011
420.0
1021
0.0
1031
0.0
1021
297.0
1031
0.0
1000
FLAGS
1070
     4
  0
ENDSEC
  0
EOF
