  0
SECTION
  2
HEADER
  9
$ACADVER
  1
AC1009
  9
$INSBASE
 10
0.0
 20
0.0
 30
0.0
  9
$EXTMIN
 10
102.6632787790886
 20
168.70032215362289
 30
-0.0000000349181948
  9
$EXTMAX
 10
741.91571230652698
 20
629.16301315497003
 30
0.0000000814935747
  9
$LIMMIN
 10
0.0
 20
0.0
  9
$LIMMAX
 10
853.5
 20
555.00000000000011
  9
$ORTHOMODE
 70
     0
  9
$REGENMODE
 70
     1
  9
$FILLMODE
 70
     1
  9
$QTEXTMODE
 70
     0
  9
$MIRRTEXT
 70
     1
  9
$DRAGMODE
 70
     2
  9
$LTSCALE
 40
3.0
  9
$OSMODE
 70
   551
  9
$ATTMODE
 70
     1
  9
$TEXTSIZE
 40
2.5
  9
$TRACEWID
 40
1.0
  9
$TEXTSTYLE
  7
STANDARD
  9
$CLAYER
  8
AM_0
  9
$CELTYPE
  6
BYLAYER
  9
$CECOLOR
 62
   256
  9
$DIMSCALE
 40
3.0
  9
$DIMASZ
 40
2.5
  9
$DIMEXO
 40
1.0
  9
$DIMDLI
 40
7.0
  9
$DIMRND
 40
0.0
  9
$DIMDLE
 40
0.0
  9
$DIMEXE
 40
1.0
  9
$DIMTP
 40
0.1
  9
$DIMTM
 40
0.1000000001
  9
$DIMTXT
 40
2.5
  9
$DIMCEN
 40
0.0
  9
$DIMTSZ
 40
0.0
  9
$DIMTOL
 70
     0
  9
$DIMLIM
 70
     0
  9
$DIMTIH
 70
     0
  9
$DIMTOH
 70
     0
  9
$DIMSE1
 70
     0
  9
$DIMSE2
 70
     0
  9
$DIMTAD
 70
     3
  9
$DIMZIN
 70
     8
  9
$DIMBLK
  1

  9
$DIMASO
 70
     1
  9
$DIMSHO
 70
     1
  9
$DIMPOST
  1

  9
$DIMAPOST
  1
"
  9
$DIMALT
 70
     0
  9
$DIMALTD
 70
     2
  9
$DIMALTF
 40
0.0393701
  9
$DIMLFAC
 40
1.0
  9
$DIMTOFL
 70
     1
  9
$DIMTVP
 40
0.0
  9
$DIMTIX
 70
     0
  9
$DIMSOXD
 70
     0
  9
$DIMSAH
 70
     0
  9
$DIMBLK1
  1

  9
$DIMBLK2
  1

  9
$DIMSTYLE
  2
AM_JIS
  9
$DIMCLRD
 70
   256
  9
$DIMCLRE
 70
   256
  9
$DIMCLRT
 70
     4
  9
$DIMTFAC
 40
0.71
  9
$DIMGAP
 40
1.0
  9
$LUNITS
 70
     2
  9
$LUPREC
 70
     2
  9
$SKETCHINC
 40
1.0
  9
$FILLETRAD
 40
1.0
  9
$AUNITS
 70
     0
  9
$AUPREC
 70
     3
  9
$MENU
  1
.
  9
$ELEVATION
 40
0.0
  9
$PELEVATION
 40
0.0
  9
$THICKNESS
 40
0.0
  9
$LIMCHECK
 70
     0
  9
$BLIPMODE
 70
     0
  9
$CHAMFERA
 40
7.5
  9
$CHAMFERB
 40
7.5
  9
$SKPOLY
 70
     0
  9
$TDCREATE
 40
2452753.643349607
  9
$TDUPDATE
 40
2458543.4287840039
  9
$TDINDWG
 40
0.3582090162
  9
$TDUSRTIMER
 40
0.3582088079
  9
$USRTIMER
 70
     1
  9
$ANGBASE
 50
0.0
  9
$ANGDIR
 70
     0
  9
$PDMODE
 70
     0
  9
$PDSIZE
 40
0.0
  9
$PLINEWID
 40
0.0
  9
$COORDS
 70
     1
  9
$SPLFRAME
 70
     0
  9
$SPLINETYPE
 70
     6
  9
$SPLINESEGS
 70
     8
  9
$ATTDIA
 70
     1
  9
$ATTREQ
 70
     1
  9
$HANDLING
 70
     1
  9
$HANDSEED
  5
19446
  9
$SURFTAB1
 70
     6
  9
$SURFTAB2
 70
     6
  9
$SURFTYPE
 70
     6
  9
$SURFU
 70
     6
  9
$SURFV
 70
     6
  9
$UCSNAME
  2

  9
$UCSORG
 10
0.0
 20
0.0
 30
0.0
  9
$UCSXDIR
 10
1.0
 20
0.0
 30
0.0
  9
$UCSYDIR
 10
0.0
 20
1.0
 30
0.0
  9
$PUCSNAME
  2

  9
$PUCSORG
 10
0.0
 20
0.0
 30
0.0
  9
$PUCSXDIR
 10
1.0
 20
0.0
 30
0.0
  9
$PUCSYDIR
 10
0.0
 20
1.0
 30
0.0
  9
$USERI1
 70
     0
  9
$USERI2
 70
     0
  9
$USERI3
 70
     0
  9
$USERI4
 70
     0
  9
$USERI5
 70
     0
  9
$USERR1
 40
0.0
  9
$USERR2
 40
0.0
  9
$USERR3
 40
0.0
  9
$USERR4
 40
0.0
  9
$USERR5
 40
0.0
  9
$WORLDVIEW
 70
     1
  9
$SHADEDGE
 70
     3
  9
$SHADEDIF
 70
    70
  9
$TILEMODE
 70
     1
  9
$MAXACTVP
 70
    48
  9
$PLIMCHECK
 70
     0
  9
$PEXTMIN
 10
1.0000000000000000E+020
 20
1.0000000000000000E+020
 30
1.0000000000000000E+020
  9
$PEXTMAX
 10
-1.0000000000000000E+020
 20
-1.0000000000000000E+020
 30
-1.0000000000000000E+020
  9
$PLIMMIN
 10
0.0
 20
0.0
  9
$PLIMMAX
 10
420.0
 20
297.0
  9
$UNITMODE
 70
     0
  9
$VISRETAIN
 70
     1
  9
$PLINEGEN
 70
     0
  9
$PSLTSCALE
 70
     1
  0
ENDSEC
  0
SECTION
  2
TABLES
  0
TABLE
  2
VPORT
 70
     1
  0
VPORT
  2
*ACTIVE
 70
     0
 10
0.0
 20
0.0
 11
1.0
 21
1.0
 12
422.2894955428078
 22
398.93166765429652
 13
0.0
 23
0.0
 14
7.5
 24
7.5
 15
30.0
 25
30.0
 16
0.0
 26
0.0
 36
1.0
 17
0.0
 27
0.0
 37
0.0
 40
463.62376210661949
 41
1.7571592210767459
 42
50.0
 43
0.0
 44
0.0
 50
0.0
 51
0.0
 71
    16
 72
   100
 73
     1
 74
     1
 75
     0
 76
     0
 77
     0
 78
     0
  0
ENDTAB
  0
TABLE
  2
LTYPE
 70
    26
  0
LTYPE
  2
CONTINUOUS
 70
     0
  3
Solid line
 72
    65
 73
     0
 40
0.0
  0
LTYPE
  2
PHANTOM2
 70
     0
  3
Phantom (.5x) ___ _ _ ___ _ _ ___ _ _ ___ _ _
 72
    65
 73
     6
 40
31.75
 49
15.875
 49
-3.174999999999998
 49
3.174999999999998
 49
-3.174999999999998
 49
3.174999999999998
 49
-3.174999999999998
  0
LTYPE
  2
CENTER
 70
     0
  3
Center ____ _ ____ _ ____ _ ____ _ ____ _ ____
 72
    65
 73
     4
 40
50.799999999999997
 49
31.75
 49
-6.349999999999997
 49
6.349999999999997
 49
-6.349999999999997
  0
LTYPE
  2
ACANSTGBM
 70
     0
  3
__ . . __ . .
 72
    65
 73
     6
 40
9.0
 49
4.0
 49
-1.0
 49
1.0
 49
-1.0
 49
1.0
 49
-1.0
  0
LTYPE
  2
ACANSTGLM
 70
     0
  3
_ _ _ _ _
 72
    65
 73
     2
 40
3.0
 49
2.0
 49
-1.0
  0
LTYPE
  2
GEN3B
 70
     0
  3
 - - - - -
 72
    65
 73
     2
 40
1.0
 49
0.5
 49
-0.5
  0
LTYPE
  2
GEN7A
 70
     0
  3
__ . __ . __
 72
    65
 73
     4
 40
7.375
 49
4.75
 49
-0.875
 49
0.875
 49
-0.875
  0
LTYPE
  2
AM_ISO02W050
 70
     0
  3
__ __ __ __ __ __ __ __ __ __ __ __ __ __ __
 72
    65
 73
     2
 40
7.5
 49
6.0
 49
-1.5
  0
LTYPE
  2
AM_ISO08W050
 70
     0
  3
____ . ____ . ____ . ____ . ____ . ____ . ____
 72
    65
 73
     4
 40
18.0
 49
12.0
 49
-1.5
 49
3.0
 49
-1.5
  0
LTYPE
  2
AM_ISO09W050
 70
     0
  3
_____ . . _____ . . _____ . . ____ .. ____
 72
    65
 73
     6
 40
22.5
 49
12.0
 49
-1.5
 49
3.0
 49
-1.5
 49
3.0
 49
-1.5
  0
LTYPE
  2
AMCONSTR
 70
     0
  3
_______________________
 72
    65
 73
     2
 40
9999.0
 49
9999.0
 49
0.0
  0
LTYPE
  2
AM_ISO02W050X2
 70
     0
  3
 _ _ _ _ _ _ _ _ _ _ _ _
 72
    65
 73
     2
 40
3.75
 49
3.0
 49
-0.75
  0
LTYPE
  2
AM_ISO08W050X2
 70
     0
  3
__ . __ . __ . __ . __ . __
 72
    65
 73
     4
 40
9.0
 49
6.0
 49
-0.75
 49
1.5
 49
-0.75
  0
LTYPE
  2
AMZIGZAG
 70
     0
  3
/\/-/\/-/\/-/\/-/\/-/\/
 72
    65
 73
     2
 40
11.0001
 49
0.0001
 49
-11.0
  0
LTYPE
  2
ACJISTGB
 70
     0
  3
__ . . __ . .
 72
    65
 73
     6
 40
9.0
 49
4.0
 49
-1.0
 49
1.0
 49
-1.0
 49
1.0
 49
-1.0
  0
LTYPE
  2
ACJISTGL
 70
     0
  3
_ _ _ _ _
 72
    65
 73
     2
 40
3.0
 49
2.0
 49
-1.0
  0
LTYPE
  2
ACISOWELD
 70
     0
  3
_ _ _ _ _
 72
    65
 73
     2
 40
2.0
 49
2.0
 49
-1.0
  0
LTYPE
  2
ACISOTGB
 70
     0
  3
__ . . __ . .
 72
    65
 73
     6
 40
9.0
 49
4.0
 49
-1.0
 49
1.0
 49
-1.0
 49
1.0
 49
-1.0
  0
LTYPE
  2
ACISOTGL
 70
     0
  3
_ _ _ _ _
 72
    65
 73
     2
 40
3.0
 49
2.0
 49
-1.0
  0
LTYPE
  2
HIDDEN
 70
     0
  3
Hidden __ __ __ __ __ __ __ __ __ __ __ __ __ _
 72
    65
 73
     2
 40
9.5249999999999968
 49
6.349999999999997
 49
-3.174999999999998
  0
LTYPE
  2
CENTER2
 70
     0
  3
Center (.5x) ___ _ ___ _ ___ _ ___ _ ___ _ ___
 72
    65
 73
     4
 40
1.125
 49
0.75
 49
-0.125
 49
0.125
 49
-0.125
  0
LTYPE
  2
HIDDEN2
 70
     0
  3
Hidden (.5x) _ _ _ _ _ _ _ _ _ _ _ _ _ _ _ _ _
 72
    65
 73
     2
 40
0.1875
 49
0.125
 49
-0.0625
  0
LTYPE
  2
AMZIGZAG2
 70
     0
  3
/\/-/\/-/\/-/\/-/\/-/\/
 72
    65
 73
     2
 40
0.4401
 49
0.0001
 49
-0.4400000000000001
  0
LTYPE
  2
ACANSTGB
 70
     0
  3
__ . . __ . .
 72
    65
 73
     6
 40
0.35433070866
 49
0.15748031496
 49
-0.03937007874
 49
0.03937007874
 49
-0.03937007874
 49
0.03937007874
 49
-0.03937007874
  0
LTYPE
  2
ACANSTGL
 70
     0
  3
_ _ _ _ _
 72
    65
 73
     2
 40
0.11811023622
 49
0.07874015748
 49
-0.03937007874
  0
ENDTAB
  0
TABLE
  2
LAYER
 70
     8
  0
LAYER
  2
0
 70
     0
 62
     7
  6
CONTINUOUS
  0
LAYER
  2
AM_0
 70
     0
 62
     7
  6
CONTINUOUS
  0
LAYER
  2
ｽﾝﾎﾟｳｾﾝ
 70
     0
 62
     2
  6
CONTINUOUS
  0
LAYER
  2
DEFPOINTS
 70
     0
 62
     7
  6
CONTINUOUS
  0
LAYER
  2
ｶｸﾚｾﾝ2
 70
     0
 62
     3
  6
GEN3B
  0
LAYER
  2
ﾁｭｳｼﾝｾﾝ1
 70
     0
 62
     1
  6
GEN7A
  0
LAYER
  2
AM_0N
 70
     0
 62
     7
  6
CONTINUOUS
  0
LAYER
  2
AM_5
 70
     0
 62
     2
  6
CONTINUOUS
  0
ENDTAB
  0
TABLE
  2
STYLE
 70
    10
  0
STYLE
  2
STANDARD
 70
     0
 40
0.0
 41
0.8299999999999999
 50
0.0
 71
     0
 42
2.5
  3
txt.shx
  4
bigfont.shx
  0
STYLE
  2
ANNOTATIVE
 70
     0
 40
0.0
 41
1.0
 50
0.0
 71
     0
 42
0.2
  3
txt
  4

  0
STYLE
  2
ACANSTS
 70
     0
 40
1.0
 41
1.0
 50
0.0
 71
     0
 42
2.5
  3
romans.shx
  4
bigfont.shx
  0
STYLE
  2
ACANSGDT
 70
     0
 40
0.0
 41
1.0
 50
0.0
 71
     0
 42
2.5
  3
amgdt.shx
  4

  0
STYLE
  2

 70
     1
 40
0.0
 41
1.0
 50
0.0
 71
     0
 42
2.5
  3
ltypeshp.shx
  4

  0
STYLE
  2
ACJISTS
 70
     0
 40
1.0
 41
1.0
 50
0.0
 71
     0
 42
2.5
  3
isocp.shx
  4
bigfont.shx
  0
STYLE
  2
ACJISGDT
 70
     0
 40
0.0
 41
1.0
 50
0.0
 71
     0
 42
2.5
  3
amgdt.shx
  4

  0
STYLE
  2
ACISOTS
 70
     0
 40
3.0
 41
1.0
 50
0.0
 71
     0
 42
2.5
  3
isocp.shx
  4
extfont.shx
  0
STYLE
  2
ACISOGDT
 70
     0
 40
0.0
 41
1.0
 50
0.0
 71
     0
 42
2.5
  3
amgdt.shx
  4

  0
STYLE
  2

 70
     1
 40
0.0
 41
1.0
 50
0.0
 71
     0
 42
2.5
  3
genltshp.shx
  4

  0
ENDTAB
  0
TABLE
  2
VIEW
 70
    12
  0
VIEW
  2
GEN1
 70
     0
 40
95.824742268041234
 10
71.5
 20
137.08762886597941
 41
143.0
 11
0.0
 21
0.0
 31
1.0
 12
0.0
 22
0.0
 32
0.0
 42
50.0
 43
0.0
 44
0.0
 50
0.0
 71
     0
  0
VIEW
  2
GEN2
 70
     0
 40
95.824742268041234
 10
214.5
 20
137.08762886597941
 41
143.0
 11
0.0
 21
0.0
 31
1.0
 12
0.0
 22
0.0
 32
0.0
 42
50.0
 43
0.0
 44
0.0
 50
0.0
 71
     0
  0
VIEW
  2
GEN3
 70
     0
 40
95.824742268041234
 10
71.5
 20
47.912371134020603
 41
143.0
 11
0.0
 21
0.0
 31
1.0
 12
0.0
 22
0.0
 32
0.0
 42
50.0
 43
0.0
 44
0.0
 50
0.0
 71
     0
  0
VIEW
  2
GEN4
 70
     0
 40
95.824742268041234
 10
214.5
 20
47.912371134020603
 41
143.0
 11
0.0
 21
0.0
 31
1.0
 12
0.0
 22
0.0
 32
0.0
 42
50.0
 43
0.0
 44
0.0
 50
0.0
 71
     0
  0
VIEW
  2
GEN5
 70
     0
 40
95.824742268041234
 10
143.0
 20
92.500000000000057
 41
143.0
 11
0.0
 21
0.0
 31
1.0
 12
0.0
 22
0.0
 32
0.0
 42
50.0
 43
0.0
 44
0.0
 50
0.0
 71
     0
  0
VIEW
  2
GEN6
 70
     0
 40
191.64756804123709
 10
143.0
 20
92.5
 41
285.99714
 11
0.0
 21
0.0
 31
1.0
 12
0.0
 22
0.0
 32
0.0
 42
50.0
 43
0.0
 44
0.0
 50
0.0
 71
     0
  0
VIEW
  2
AM_VIEW1
 70
     0
 40
277.50000000000011
 10
249.64779005524869
 20
416.25
 41
499.2955801104971
 11
0.0
 21
0.0
 31
1.0
 12
0.0
 22
0.0
 32
0.0
 42
50.0
 43
0.0
 44
0.0
 50
0.0
 71
    16
  0
VIEW
  2
AM_VIEW2
 70
     0
 40
277.50000000000011
 10
603.85220994475117
 20
416.25
 41
499.2955801104971
 11
0.0
 21
0.0
 31
1.0
 12
0.0
 22
0.0
 32
0.0
 42
50.0
 43
0.0
 44
0.0
 50
0.0
 71
    16
  0
VIEW
  2
AM_VIEW3
 70
     0
 40
277.50000000000011
 10
249.64779005524869
 20
138.75
 41
499.2955801104971
 11
0.0
 21
0.0
 31
1.0
 12
0.0
 22
0.0
 32
0.0
 42
50.0
 43
0.0
 44
0.0
 50
0.0
 71
    16
  0
VIEW
  2
AM_VIEW4
 70
     0
 40
277.50000000000011
 10
603.85220994475117
 20
138.75
 41
499.2955801104971
 11
0.0
 21
0.0
 31
1.0
 12
0.0
 22
0.0
 32
0.0
 42
50.0
 43
0.0
 44
0.0
 50
0.0
 71
    16
  0
VIEW
  2
AM_VIEW5
 70
     0
 40
277.50000000000011
 10
426.75
 20
277.50000000000011
 41
499.2955801104971
 11
0.0
 21
0.0
 31
1.0
 12
0.0
 22
0.0
 32
0.0
 42
50.0
 43
0.0
 44
0.0
 50
0.0
 71
    16
  0
VIEW
  2
AM_VIEW6
 70
     0
 40
554.99445000000014
 10
426.75
 20
277.5
 41
998.5811743093924
 11
0.0
 21
0.0
 31
1.0
 12
0.0
 22
0.0
 32
0.0
 42
50.0
 43
0.0
 44
0.0
 50
0.0
 71
    16
  0
ENDTAB
  0
TABLE
  2
UCS
 70
     0
  0
ENDTAB
  0
TABLE
  2
APPID
 70
    97
  0
APPID
  2
ACAD
 70
     0
  0
APPID
  2
ACADANNOTATIVE
 70
     0
  0
APPID
  2
MCAD_NO_VIS
 70
     0
  0
APPID
  2
ACAD_TEMP_GRAPHIC
 70
     0
  0
APPID
  2
AD_DRAW
 70
     0
  0
APPID
  2
DESIGNERASSEMBLIES
 70
     0
  0
APPID
  2
ASURF_PCURVE_APPNAME
 70
     0
  0
APPID
  2
GENIUS_GE3SECT_13
 70
     0
  0
APPID
  2
GENIUS_GENCFG_13
 70
     0
  0
APPID
  2
GENIUS_GE3CFG0_13
 70
     0
  0
APPID
  2
GENIUS_GENCFG0_13
 70
     0
  0
APPID
  2
GENIUS_GENCFG1_13
 70
     0
  0
APPID
  2
GENIUS_GENCFG2_13
 70
     0
  0
APPID
  2
GENIUS_GENCFG3_13
 70
     0
  0
APPID
  2
GENIUS_GENCFG4_13
 70
     0
  0
APPID
  2
GENIUS_GEVCFG0_13
 70
     0
  0
APPID
  2
GENIUS_GENOENT_13
 70
     0
  0
APPID
  2
GENIUS_GENREC_14
 70
     0
  0
APPID
  2
GENIUS_GENODEF_13
 70
     0
  0
APPID
  2
GENIUS_GENOBJ-N-REC_13
 70
     0
  0
APPID
  2
GENIUS_GENHINW_13
 70
     0
  0
APPID
  2
GENIUS_FIRSTVISTXT_14
 70
     0
  0
APPID
  2
GENIUS_GENOBJ-N-LEADER_13
 70
     0
  0
APPID
  2
GENIUS_GENOREF_13
 70
     0
  0
APPID
  2
GENIUS_GENOLIS_13
 70
     0
  0
APPID
  2
GEV_VCCNULL_SWITCH_OFF
 70
     0
  0
APPID
  2
GENIUS_GENDTOL_13
 70
     0
  0
APPID
  2
GENIUS_GEFCFG0_13
 70
     0
  0
APPID
  2
GENIUS_GENOBJ-N-TIT_13
 70
     0
  0
APPID
  2
GENIUS_GENTITLE_13
 70
     0
  0
APPID
  2
GENIUS_GENZVEED_13
 70
     0
  0
APPID
  2
GENIUS_GENOBJ-N-SDF_13
 70
     0
  0
APPID
  2
GENIUS_GENSCREG_13
 70
     0
  0
APPID
  2
GENIUS_DUMCFG0_13
 70
     0
  0
APPID
  2
GEVID936201362
 70
     0
  0
APPID
  2
GEVDC
 70
     0
  0
APPID
  2
GEVCON
 70
     0
  0
APPID
  2
VCC
 70
     0
  0
APPID
  2
GEVPT
 70
     0
  0
APPID
  2
GEVIT
 70
     0
  0
APPID
  2
GENBH
 70
     0
  0
APPID
  2
GEVMK
 70
     0
  0
APPID
  2
GENIUS_GENBH_13
 70
     0
  0
APPID
  2
GENIUS_GENOBJ-NBEHI-BHF_13
 70
     0
  0
APPID
  2
GENIUS_GENOBJ-NBEHI-BHB_13
 70
     0
  0
APPID
  2
GENIUS_GENOBJ-F-DESC_13
 70
     0
  0
APPID
  2
GENIUS_GEFDESC_14
 70
     0
  0
APPID
  2
GENIUS_GENOBJ-F-PART_13
 70
     0
  0
APPID
  2
GENIUS_GEFSTDP_13
 70
     0
  0
APPID
  2
GENIUS_GEFPARTINS_13
 70
     0
  0
APPID
  2
GENIUS_GENTRA_14
 70
     0
  0
APPID
  2
GENIUS_GENINF13_13
 70
     0
  0
APPID
  2
GENIUS_GENOBJ-N-INFOPT_13
 70
     0
  0
APPID
  2
GENIUS_GENOBJ-N-RSSYM_13
 70
     0
  0
APPID
  2
GENIUS_GENSYMENT_13
 70
     0
  0
APPID
  2
GENIUS_GENSCSYM_13
 70
     0
  0
APPID
  2
GENIUS_GEFINFNAM_13
 70
     0
  0
APPID
  2
GENIUS_GENSCREG_15
 70
     0
  0
APPID
  2
GENIUS_GENOBJ-N-CEN_13
 70
     0
  0
APPID
  2
GENIUS_GENOBJ-N-CRS_13
 70
     0
  0
APPID
  2
GENIUS_GENOBJ-N-CRC_13
 70
     0
  0
APPID
  2
GENIUS_GENCRC_14
 70
     0
  0
APPID
  2
GEVID942827039
 70
     0
  0
APPID
  2
GEVID942827040
 70
     0
  0
APPID
  2
GEVID942827041
 70
     0
  0
APPID
  2
GENIUS_GENOBJ-F-SCPASSM_13
 70
     0
  0
APPID
  2
GENIUS_GENDIMSH_14
 70
     0
  0
APPID
  2
GENIUS_GENFIL_13
 70
     0
  0
APPID
  2
GENIUS_GENOBJ-N-CHA_13
 70
     0
  0
APPID
  2
GENIUS_GENOBJ-N-FIL_13
 70
     0
  0
APPID
  2
GEVID942827042
 70
     0
  0
APPID
  2
GEVID946020473
 70
     0
  0
APPID
  2
GEVID946020474
 70
     0
  0
APPID
  2
GEVID946020475
 70
     0
  0
APPID
  2
GENIUS_GENOBJ-N-HTC_13
 70
     0
  0
APPID
  2
GENIUS_GENHATCH_13
 70
     0
  0
APPID
  2
GEVID948854295
 70
     0
  0
APPID
  2
GEVID939402019
 70
     0
  0
APPID
  2
GEVID952919491
 70
     0
  0
APPID
  2
GEVID952919492
 70
     0
  0
APPID
  2
GENIUS_GEFWELD_13
 70
     0
  0
APPID
  2
GENIUS_GENOBJ-F-WELS_13
 70
     0
  0
APPID
  2
GEVID952919493
 70
     0
  0
APPID
  2
GENIUS_GENOBJ-N-RSBK_13
 70
     0
  0
APPID
  2
GENIUS_GENOBJ-N-LIB_13
 70
     0
  0
APPID
  2
GENIUS_GENSCALE_13
 70
     0
  0
APPID
  2
GEVID986376691
 70
     0
  0
APPID
  2
ACATTRIBSERVICES
 70
     0
  0
APPID
  2
DCO15
 70
     0
  0
APPID
  2
ACADM_DIM_EDIT
 70
     0
  0
APPID
  2
AMDT_DM_ADJ
 70
     0
  0
APPID
  2
ACAD_MLEADERVER
 70
     0
  0
APPID
  2
ACAD_DSTYLE_DIMBREAK
 70
     0
  0
APPID
  2
ACAD_DSTYLE_DIMJAG
 70
     0
  0
APPID
  2
ACAD_NAV_VCDISPLAY
 70
     0
  0
APPID
  2
ACADANNOPO
 70
     0
  0
APPID
  2
ACAD_EXEMPT_FROM_CAD_STANDARDS
 70
     0
  0
ENDTAB
  0
TABLE
  2
DIMSTYLE
 70
    23
  0
DIMSTYLE
  2
STANDARD
 70
     0
  3

  4

  5

  6

  7

 40
1.0
 41
0.18
 42
0.0625
 43
0.38
 44
0.18
 45
0.0
 46
0.0
 47
0.0
 48
0.0
140
0.18
141
0.09
142
0.0
143
25.399999999999999
144
1.0
145
0.0
146
1.0
147
0.09
 71
     0
 72
     0
 73
     1
 74
     1
 75
     0
 76
     0
 77
     0
 78
     0
170
     0
171
     2
172
     0
173
     0
174
     0
175
     0
176
     0
177
     0
178
     0
  0
DIMSTYLE
  2
ANNOTATIVE
 70
     0
  3

  4

  5

  6

  7

 40
1.0
 41
0.18
 42
0.0625
 43
0.38
 44
0.18
 45
0.0
 46
0.0
 47
0.0
 48
0.0
140
0.18
141
0.09
142
0.0
143
25.399999999999999
144
1.0
145
0.0
146
1.0
147
0.09
 71
     0
 72
     0
 73
     1
 74
     1
 75
     0
 76
     0
 77
     0
 78
     0
170
     0
171
     2
172
     0
173
     0
174
     0
175
     0
176
     0
177
     0
178
     0
  0
DIMSTYLE
  2
AM_JIS
 70
     0
  3

  4
"
  5

  6

  7

 40
1.0
 41
2.5
 42
1.0
 43
7.0
 44
1.0
 45
0.0
 46
0.0
 47
0.1
 48
0.1000000001
140
2.5
141
0.0
142
0.0
143
0.0393701
144
1.0
145
0.0
146
0.71
147
1.0
 71
     0
 72
     0
 73
     0
 74
     0
 75
     0
 76
     0
 77
     3
 78
     8
170
     0
171
     2
172
     1
173
     0
174
     0
175
     0
176
   256
177
   256
178
     4
  0
DIMSTYLE
  2
AM_JIS$3
 70
     0
  3

  4
"
  5

  6

  7

 40
1.0
 41
2.5
 42
1.0
 43
7.0
 44
1.0
 45
0.0
 46
0.0
 47
0.1
 48
0.1000000001
140
2.5
141
0.0
142
0.0
143
0.0393701
144
1.0
145
0.0
146
0.71
147
1.0
 71
     0
 72
     0
 73
     0
 74
     1
 75
     0
 76
     0
 77
     3
 78
     8
170
     0
171
     2
172
     0
173
     0
174
     0
175
     0
176
   256
177
   256
178
     4
  0
DIMSTYLE
  2
AM_JIS$4
 70
     0
  3

  4
"
  5

  6

  7

 40
1.0
 41
2.5
 42
1.0
 43
7.0
 44
1.0
 45
0.0
 46
0.0
 47
0.1
 48
0.1000000001
140
2.5
141
0.0
142
0.0
143
0.0393701
144
1.0
145
0.0
146
0.71
147
1.0
 71
     0
 72
     0
 73
     0
 74
     0
 75
     0
 76
     0
 77
     3
 78
     8
170
     0
171
     2
172
     0
173
     0
174
     0
175
     0
176
   256
177
   256
178
     4
  0
DIMSTYLE
  2
AM_JIS$6
 70
     0
  3

  4
"
  5

  6

  7

 40
1.0
 41
2.5
 42
1.0
 43
7.0
 44
1.0
 45
0.0
 46
0.0
 47
0.1
 48
0.1000000001
140
2.5
141
0.0
142
0.0
143
0.0393701
144
1.0
145
0.0
146
0.71
147
1.0
 71
     0
 72
     0
 73
     0
 74
     0
 75
     0
 76
     0
 77
     0
 78
     8
170
     0
171
     2
172
     1
173
     0
174
     0
175
     0
176
   256
177
   256
178
     4
  0
DIMSTYLE
  2
AM_JIS$7
 70
     0
  3

  4
"
  5

  6

  7

 40
1.0
 41
2.5
 42
1.0
 43
7.0
 44
1.0
 45
0.0
 46
0.0
 47
0.1
 48
0.1000000001
140
2.5
141
0.0
142
0.0
143
0.0393701
144
1.0
145
0.0
146
0.71
147
1.0
 71
     0
 72
     0
 73
     0
 74
     0
 75
     0
 76
     0
 77
     3
 78
     8
170
     0
171
     2
172
     1
173
     0
174
     0
175
     0
176
   256
177
   256
178
     4
  0
DIMSTYLE
  2
AM_JIS$SF
 70
     0
  3

  4
"
  5

  6

  7

 40
1.0
 41
2.5
 42
1.0
 43
10.0
 44
1.0
 45
0.0
 46
0.0
 47
0.1
 48
0.1
140
3.5
141
0.0
142
0.0
143
0.0393701
144
1.0
145
0.0
146
0.71
147
1.5
 71
     0
 72
     0
 73
     0
 74
     0
 75
     1
 76
     1
 77
     3
 78
     8
170
     0
171
     2
172
     1
173
     0
174
     0
175
     0
176
   256
177
   256
178
     4
  0
DIMSTYLE
  2
AM_JIS$SH
 70
     0
  3

  4
"
  5

  6

  7

 40
1.0
 41
2.5
 42
1.0
 43
10.0
 44
1.0
 45
0.0
 46
0.0
 47
0.1
 48
0.1
140
3.5
141
0.0
142
0.0
143
0.0393701
144
1.0
145
0.0
146
0.71
147
1.5
 71
     0
 72
     0
 73
     0
 74
     0
 75
     1
 76
     0
 77
     3
 78
     8
170
     0
171
     2
172
     1
173
     1
174
     0
175
     0
176
   256
177
   256
178
     4
  0
DIMSTYLE
  2
AM_ISO
 70
     0
  3

  4
"
  5

  6

  7

 40
1.0
 41
2.5
 42
1.0
 43
10.0
 44
1.0
 45
0.0
 46
0.0
 47
0.0
 48
0.000000001
140
3.0
141
0.0
142
0.0
143
0.0393701
144
1.0
145
0.0
146
0.71
147
1.299999999999998
 71
     1
 72
     0
 73
     0
 74
     0
 75
     0
 76
     0
 77
     1
 78
     8
170
     0
171
     2
172
     1
173
     0
174
     0
175
     0
176
   256
177
   256
178
     4
  0
DIMSTYLE
  2
AM_ISO$3
 70
     0
  3

  4
"
  5

  6

  7

 40
1.0
 41
2.5
 42
1.0
 43
10.0
 44
1.0
 45
0.0
 46
0.0
 47
0.0
 48
0.000000001
140
2.5
141
0.0
142
0.0
143
0.0393701
144
1.0
145
0.0
146
0.71
147
1.299999999999998
 71
     1
 72
     0
 73
     0
 74
     1
 75
     0
 76
     0
 77
     1
 78
     8
170
     0
171
     2
172
     0
173
     0
174
     0
175
     0
176
   256
177
   256
178
     4
  0
DIMSTYLE
  2
AM_ISO$4
 70
     0
  3

  4
"
  5

  6

  7

 40
1.0
 41
2.5
 42
1.0
 43
10.0
 44
1.0
 45
0.0
 46
0.0
 47
0.0
 48
0.000000001
140
2.5
141
0.0
142
0.0
143
0.0393701
144
1.0
145
0.0
146
0.71
147
1.299999999999998
 71
     1
 72
     0
 73
     0
 74
     1
 75
     0
 76
     0
 77
     1
 78
     8
170
     0
171
     2
172
     0
173
     0
174
     0
175
     0
176
   256
177
   256
178
     4
  0
DIMSTYLE
  2
AM_ISO$6
 70
     0
  3

  4
"
  5

  6

  7

 40
1.0
 41
2.5
 42
1.0
 43
10.0
 44
1.0
 45
0.0
 46
0.0
 47
0.0
 48
0.000000001
140
2.5
141
0.0
142
0.0
143
0.0393701
144
1.0
145
0.0
146
0.71
147
1.299999999999998
 71
     1
 72
     0
 73
     0
 74
     0
 75
     0
 76
     0
 77
     0
 78
     8
170
     0
171
     2
172
     1
173
     0
174
     0
175
     0
176
   256
177
   256
178
     4
  0
DIMSTYLE
  2
AM_ISO$7
 70
     0
  3

  4
"
  5

  6

  7

 40
1.0
 41
2.5
 42
1.0
 43
10.0
 44
1.0
 45
0.0
 46
0.0
 47
0.0
 48
0.000000001
140
2.5
141
0.0
142
0.0
143
0.0393701
144
1.0
145
0.0
146
0.71
147
1.299999999999998
 71
     1
 72
     0
 73
     0
 74
     0
 75
     0
 76
     0
 77
     1
 78
     8
170
     0
171
     2
172
     1
173
     0
174
     0
175
     0
176
   256
177
   256
178
     4
  0
DIMSTYLE
  2
AM_ISO$SF
 70
     0
  3

  4
"
  5

  6

  7

 40
1.0
 41
2.5
 42
1.0
 43
10.0
 44
1.0
 45
0.0
 46
0.0
 47
0.1
 48
0.1
140
3.5
141
0.0
142
0.0
143
0.0393701
144
1.0
145
0.0
146
0.71
147
1.5
 71
     0
 72
     0
 73
     0
 74
     0
 75
     1
 76
     1
 77
     1
 78
     8
170
     0
171
     2
172
     1
173
     0
174
     0
175
     0
176
   256
177
   256
178
     4
  0
DIMSTYLE
  2
AM_ISO$SH
 70
     0
  3

  4
"
  5

  6

  7

 40
1.0
 41
2.5
 42
1.0
 43
10.0
 44
1.0
 45
0.0
 46
0.0
 47
0.1
 48
0.1
140
3.5
141
0.0
142
0.0
143
0.0393701
144
2.0
145
0.0
146
0.71
147
1.5
 71
     0
 72
     0
 73
     0
 74
     0
 75
     1
 76
     1
 77
     1
 78
     8
170
     0
171
     2
172
     1
173
     1
174
     0
175
     0
176
   256
177
   256
178
     4
  0
DIMSTYLE
  2
AM_JIS$0
 70
     0
  3

  4
"
  5

  6

  7

 40
1.0
 41
2.5
 42
1.0
 43
7.0
 44
1.0
 45
0.0
 46
0.0
 47
0.1
 48
0.1000000001
140
2.5
141
0.0
142
0.0
143
0.0393701
144
1.0
145
0.0
146
0.71
147
1.0
 71
     0
 72
     0
 73
     0
 74
     0
 75
     0
 76
     0
 77
     3
 78
     8
170
     0
171
     2
172
     1
173
     0
174
     0
175
     0
176
   256
177
   256
178
     4
  0
DIMSTYLE
  2
AM_ANSI
 70
     0
  3

  4
mm
  5

  6

  7

 40
1.0
 41
0.12
 42
0.05
 43
0.5
 44
0.1
 45
0.0
 46
0.0
 47
0.1
 48
0.1
140
0.12
141
0.0
142
0.0
143
25.399999999999999
144
1.0
145
0.0
146
0.71
147
0.06
 71
     0
 72
     0
 73
     1
 74
     1
 75
     0
 76
     0
 77
     0
 78
     7
170
     0
171
     2
172
     0
173
     0
174
     0
175
     0
176
   256
177
   256
178
     2
  0
DIMSTYLE
  2
AM_ANSI$3
 70
     0
  3

  4
mm
  5

  6

  7

 40
1.0
 41
0.12
 42
0.05
 43
0.5
 44
0.1
 45
0.0
 46
0.0
 47
0.1
 48
0.1
140
0.12
141
0.0
142
0.0
143
25.399999999999999
144
1.0
145
0.0
146
0.71
147
0.06
 71
     0
 72
     0
 73
     1
 74
     1
 75
     0
 76
     0
 77
     0
 78
     7
170
     0
171
     2
172
     0
173
     0
174
     0
175
     0
176
   256
177
   256
178
     2
  0
DIMSTYLE
  2
AM_ANSI$4
 70
     0
  3

  4
mm
  5

  6

  7

 40
1.0
 41
0.12
 42
0.05
 43
0.5
 44
0.1
 45
0.0
 46
0.0
 47
0.1
 48
0.1
140
0.12
141
0.0
142
0.0
143
25.399999999999999
144
1.0
145
0.0
146
0.71
147
0.06
 71
     0
 72
     0
 73
     1
 74
     1
 75
     0
 76
     0
 77
     0
 78
     7
170
     0
171
     2
172
     0
173
     0
174
     0
175
     0
176
   256
177
   256
178
     2
  0
DIMSTYLE
  2
AM_ANSI$7
 70
     0
  3

  4
mm
  5

  6

  7

 40
1.0
 41
0.12
 42
0.05
 43
0.5
 44
0.1
 45
0.0
 46
0.0
 47
0.1
 48
0.1
140
0.12
141
0.0
142
0.0
143
25.399999999999999
144
1.0
145
0.0
146
0.71
147
0.06
 71
     0
 72
     0
 73
     1
 74
     1
 75
     0
 76
     0
 77
     0
 78
     7
170
     0
171
     2
172
     0
173
     0
174
     0
175
     0
176
   256
177
   256
178
     2
  0
DIMSTYLE
  2
AM_ANSI$SF
 70
     0
  3

  4
mm
  5

  6

  7

 40
1.0
 41
0.12
 42
0.05
 43
0.5
 44
0.1
 45
0.0
 46
0.0
 47
0.1
 48
0.1
140
0.12
141
0.0
142
0.0
143
25.399999999999999
144
1.0
145
0.0
146
0.71
147
0.06
 71
     0
 72
     0
 73
     1
 74
     1
 75
     1
 76
     1
 77
     0
 78
     7
170
     0
171
     2
172
     0
173
     0
174
     0
175
     0
176
   256
177
   256
178
     2
  0
DIMSTYLE
  2
AM_ANSI$SH
 70
     0
  3

  4
mm
  5

  6
GENAXEH
  7

 40
1.0
 41
0.12
 42
0.05
 43
0.5
 44
0.1
 45
0.0
 46
0.0
 47
0.1
 48
0.1
140
0.12
141
0.0
142
0.0
143
25.399999999999999
144
1.0
145
0.0
146
0.71
147
0.06
 71
     0
 72
     0
 73
     1
 74
     1
 75
     1
 76
     1
 77
     0
 78
     7
170
     0
171
     2
172
     0
173
     1
174
     0
175
     0
176
   256
177
   256
178
     2
  0
ENDTAB
  0
ENDSEC
  0
SECTION
  2
BLOCKS
  0
BLOCK
  8
0
  2
$MODEL_SPACE
 70
     0
 10
0.0
 20
0.0
 30
0.0
  3
$MODEL_SPACE
  1

  0
ENDBLK
  5
192C0
  8
0
  0
BLOCK
 67
     1
  8
0
  2
$PAPER_SPACE
 70
     0
 10
0.0
 20
0.0
 30
0.0
  3
$PAPER_SPACE
  1

  0
ENDBLK
  5
192BC
 67
     1
  8
0
  0
BLOCK
  8
0
  2
_OPEN30
 70
     0
 10
0.0
 20
0.0
 30
0.0
  3
_OPEN30
  1

  0
LINE
  5
21C5
  8
0
 62
     0
 10
-1.0
 20
0.26794919
 30
0.0
 11
0.0
 21
0.0
 31
0.0
  0
LINE
  5
21C6
  8
0
 62
     0
 10
0.0
 20
0.0
 30
0.0
 11
-1.0
 21
-0.26794919
 31
0.0
  0
LINE
  5
21C7
  8
0
 62
     0
 10
0.0
 20
0.0
 30
0.0
 11
-1.0
 21
0.0
 31
0.0
  0
ENDBLK
  5
21C9
  8
0
  0
BLOCK
  8
0
  2
GENAXEH
 70
     0
 10
0.0
 20
0.0
 30
0.0
  3
GENAXEH
  1

  0
LINE
  5
21D0
  8
0
 10
-1.0
 20
0.0
 30
0.0
 11
1.0
 21
0.0
 31
0.0
  0
ENDBLK
  5
21D2
  8
0
  0
BLOCK
  8
0
  2
_NONE
 70
     0
 10
0.0
 20
0.0
 30
0.0
  3
_NONE
  1

  0
ENDBLK
  5
8193
  8
0
  0
BLOCK
  8
0
  2
_ACMFILLEDHALF
 70
     0
 10
0.0
 20
0.0
 30
0.0
  3
_ACMFILLEDHALF
  1

  0
TRACE
  5
193C9
  8
AM_0
 62
     0
 10
-0.8
 20
0.0
 30
0.0
 11
-1.0
 21
0.166666666
 31
0.0
 12
0.0
 22
0.0
 32
0.0
 13
0.0
 23
0.0
 33
0.0
  0
LINE
  5
193CA
  8
AM_0
 62
     0
 10
-1.0
 20
0.0
 30
0.0
 11
-0.8
 21
0.0
 31
0.0
  0
ENDBLK
  5
193C8
  8
0
  0
ENDSEC
  0
SECTION
  2
ENTITIES
  0
POINT
  5
1B94
  8
0
 10
0.0
 20
0.0
 30
0.0
1001
GENIUS_GENODEF_13
1002
{
1000
HIER
1070
     1
1002
}
1002
{
1000
MANEDIT
1070
     0
1002
}
1002
{
1000
NOSEL
1070
     0
1002
}
1002
{
1000
BEHIND
1070
     0
1002
}
1002
{
1000
REACTOR
1002
}
1001
GENIUS_GENOBJ-N-SDF_13
1002
{
1000
OWNER
1000
GEN
1002
}
1001
GENIUS_GENOENT_13
1002
{
1000
MYREF
1005
1B94
1002
}
1002
{
1000
GRP
1005
0
1002
}
1001
GENIUS_GENOLIS_13
1002
{
1000
ENT
1005
89
1002
}
  0
LINE
  5
17C1A
  8
ﾁｭｳｼﾝｾﾝ1
 10
244.5017112425694
 20
249.71074284236281
 30
0.0
 11
416.7011496984324
 21
249.71074284236281
 31
0.0
  0
LINE
  5
17C1F
  8
AM_0
 10
411.70114969843218
 20
299.7107443324789
 30
0.0
 11
411.70114969843218
 21
199.71074135224671
 31
0.0
  0
LINE
  5
17C20
  8
AM_0
 10
405.70114951961818
 20
283.21855872166532
 30
0.0
 11
405.70114951961818
 21
216.20292696306041
 31
0.0
  0
LINE
  5
17C22
  8
ﾁｭｳｼﾝｾﾝ1
 10
354.20114798479858
 20
314.71074398230172
 30
0.0
 11
354.20114798479881
 21
184.710741702424
 31
0.0
  0
LINE
  5
17C23
  8
AM_0
 10
257.70114510887481
 20
299.7107443324789
 30
0.0
 11
257.70114510887481
 21
199.71074135224671
 31
0.0
  0
LINE
  5
17C24
  8
AM_0
 10
263.70114528768858
 20
283.21855872166532
 30
0.0
 11
263.70114528768858
 21
216.20292696306041
 31
0.0
  0
POLYLINE
  5
17C25
  8
AM_0
 66
     1
 10
0.0
 20
0.0
 30
0.0
  0
VERTEX
  5
17C26
  8
AM_0
 10
126.56113510887459
 20
266.21074333410121
 30
0.0
 42
-0.00039106653
  0
VERTEX
  5
17C27
  8
AM_0
 10
126.5587751088746
 20
266.52187333410109
 30
0.0
 42
-0.00040574511
  0
VERTEX
  5
17C28
  8
AM_0
 10
126.5569051088746
 20
266.83298333410119
 30
0.0
 42
-0.00035346331
  0
VERTEX
  5
17C29
  8
AM_0
 10
126.5555151088747
 20
267.14409333410129
 30
0.0
 42
-0.00034406545
  0
VERTEX
  5
17C2A
  8
AM_0
 10
126.5545351088747
 20
267.45523333410119
 30
0.0
 42
-0.00045699059
  0
VERTEX
  5
17C2B
  8
AM_0
 10
126.5540751088747
 20
267.76633333410109
 30
0.0
 42
-0.00035573431
  0
VERTEX
  5
17C2C
  8
AM_0
 10
126.5541151088745
 20
268.0774333341011
 30
0.0
 42
-0.00038545888
  0
VERTEX
  5
17C2D
  8
AM_0
 10
126.5546051088745
 20
268.38857333410112
 30
0.0
 42
-0.00035501203
  0
VERTEX
  5
17C2E
  8
AM_0
 10
126.5555651088748
 20
268.69968333410122
 30
0.0
 42
-0.00040120778
  0
VERTEX
  5
17C2F
  8
AM_0
 10
126.5569851088746
 20
269.01091333410108
 30
0.0
 42
-0.00038317821
  0
VERTEX
  5
17C30
  8
AM_0
 10
126.55889510887479
 20
269.32204333410118
 30
0.0
 42
-0.00040741862
  0
VERTEX
  5
17C31
  8
AM_0
 10
126.5612951088747
 20
269.63327333410109
 30
0.0
 42
-0.00035783324
  0
VERTEX
  5
17C32
  8
AM_0
 10
126.5641851088746
 20
269.94438333410119
 30
0.0
  0
SEQEND
  5
17C33
  8
AM_0
  0
LINE
  5
17C34
  8
AM_0
 10
124.2011451088747
 20
319.2107433341011
 30
0.0
 11
124.2011451088747
 21
213.2107433341011
 31
0.0
  0
LINE
  5
17C35
  8
AM_0
 10
232.2011451088747
 20
322.21074333410121
 30
0.0
 11
232.2011451088747
 21
210.21074333410121
 31
0.0
  0
LINE
  5
17C36
  8
AM_0
 10
240.2011451088747
 20
322.21074333410121
 30
0.0
 11
240.2011451088747
 21
210.21074333410121
 31
0.0
  0
LINE
  5
17C37
  8
AM_0
 10
251.7072486244997
 20
320.21074333410093
 30
0.0
 11
251.70724862449981
 21
212.21074333410121
 31
0.0
  0
ARC
  5
17C38
  8
AM_0
 10
483.70723336571052
 20
266.21074333410121
 30
0.0
 40
236.0
 50
169.4360282697333
 51
179.999994991043
  0
LINE
  5
17C39
  8
AM_0
 10
107.7072486244997
 20
250.9889110587105
 30
0.0
 11
107.7072486244997
 21
281.4325450919136
 31
0.0
  0
LINE
  5
17C3A
  8
AM_0
 10
108.7011451088747
 20
286.2107433341011
 30
0.0
 11
108.7011451088747
 21
246.21074333410121
 31
0.0
  0
LINE
  5
17C3B
  8
AM_0
 10
116.2011451088747
 20
319.2107433341011
 30
0.0
 11
116.2011451088747
 21
213.2107433341011
 31
0.0
  0
LINE
  5
17C3C
  8
AM_0
 10
115.2011451088747
 20
316.21074333410121
 30
0.0
 11
115.2011451088747
 21
216.21074333410121
 31
0.0
  0
CIRCLE
  5
17C3D
  8
AM_0
 10
354.20114798479881
 20
249.71074284236281
 30
0.0
 40
37.500001117587097
  0
LINE
  5
17C42
  8
AM_0
 10
160.6398651088748
 20
260.21074333410121
 30
0.0
 11
126.56113510887459
 21
260.21074333410121
 31
0.0
  0
LINE
  5
17C43
  8
AM_0
 10
125.4711651088746
 20
259.94072333410122
 30
0.0
 11
161.91983510887479
 21
259.94072333410122
 31
0.0
  0
LINE
  5
17C44
  8
AM_0
 10
125.5311651088746
 20
252.5306833341011
 30
0.0
 11
161.85983510887459
 21
252.5306833341011
 31
0.0
  0
LINE
  5
17C45
  8
AM_0
 10
160.6398651088748
 20
252.21074333410121
 30
0.0
 11
126.56113510887459
 21
252.21074333410121
 31
0.0
  0
LINE
  5
17C46
  8
AM_0
 10
160.6398651088748
 20
250.21074333410121
 30
0.0
 11
126.56113510887459
 21
250.21074333410121
 31
0.0
  0
LINE
  5
17C47
  8
AM_0
 10
125.5311651088746
 20
249.8707733341011
 30
0.0
 11
161.87241510887441
 21
249.8707733341011
 31
0.0
  0
LINE
  5
17C48
  8
AM_0
 10
125.4711651088746
 20
262.48076333410108
 30
0.0
 11
161.91983510887479
 21
262.48076333410108
 31
0.0
  0
LINE
  5
17C49
  8
AM_0
 10
160.6398651088748
 20
262.21074333410121
 30
0.0
 11
126.56113510887459
 21
262.21074333410121
 31
0.0
  0
LINE
  5
17C4A
  8
AM_0
 10
193.2011451088747
 20
240.2107433341011
 30
0.0
 11
126.56113510887459
 21
240.2107433341011
 31
0.0
  0
ARC
  5
17C4B
  8
AM_0
 10
146.70114510887441
 20
188.2107433341011
 30
0.0
 40
7.4999999999999947
 50
270.0
 51
0.0
  0
ARC
  5
17C4C
  8
AM_0
 10
145.70114510887441
 20
189.2107433341011
 30
0.0
 40
7.5000000000000027
 50
180.0
 51
0.0
  0
LINE
  5
17C4D
  8
AM_0
 10
127.1073951088747
 20
207.08073333410121
 30
0.0
 11
149.5338579302263
 21
207.08073333410121
 31
0.0
  0
ARC
  5
17C4E
  8
AM_0
 10
145.70114510887441
 20
189.2107433341011
 30
0.0
 40
3.999999999999996
 50
180.0
 51
0.0
  0
LINE
  5
17C4F
  8
AM_0
 10
132.70114510887441
 20
196.7107433341011
 30
0.0
 11
212.7011451088745
 21
196.7107433341011
 31
0.0
  0
LINE
  5
17C50
  8
AM_0
 10
212.7011451088745
 20
200.21074333410101
 30
0.0
 11
132.70114510887441
 21
200.21074333410101
 31
0.0
  0
LINE
  5
17C51
  8
AM_0
 10
210.2011451088745
 20
176.7107433341011
 30
0.0
 11
135.20114510887441
 21
176.7107433341011
 31
0.0
  0
LINE
  5
17C52
  8
AM_0
 10
125.6611651088747
 20
239.72075333410109
 30
0.0
 11
193.2011451088747
 21
239.72075333410109
 31
0.0
  0
LINE
  5
17C53
  8
AM_0
 10
125.8811351088748
 20
229.49077333410119
 30
0.0
 11
181.2011451088747
 21
229.49077333410119
 31
0.0
  0
LINE
  5
17C54
  8
AM_0
 10
181.2011451088747
 20
232.2107433341011
 30
0.0
 11
126.56113510887459
 21
232.2107433341011
 31
0.0
  0
LINE
  5
17C55
  8
AM_0
 10
181.2011451088747
 20
230.2107433341011
 30
0.0
 11
126.56113510887459
 21
230.2107433341011
 31
0.0
  0
LINE
  5
17C56
  8
AM_0
 10
125.8811351088748
 20
232.84074333410109
 30
0.0
 11
193.2211651088746
 21
232.84074333410109
 31
0.0
  0
LINE
  5
17C57
  8
AM_0
 10
225.5339751088745
 20
242.2107433341011
 30
0.0
 11
126.56113510887459
 21
242.2107433341011
 31
0.0
  0
LINE
  5
17C58
  8
AM_0
 10
125.6611651088747
 20
242.65068333410119
 30
0.0
 11
229.2353851088746
 21
242.65068333410119
 31
0.0
  0
LINE
  5
17C59
  8
AM_0
 10
127.4111651088747
 20
209.9307133341012
 30
0.0
 11
224.33115510887461
 21
209.9307133341012
 31
0.0
  0
LINE
  5
17C5A
  8
ﾁｭｳｼﾝｾﾝ1
 10
275.33210225341247
 20
266.21074333410121
 30
0.0
 11
102.7072486244997
 21
266.21074333410121
 31
0.0
  0
ARC
  5
17C5B
  8
AM_0
 10
144.70114510887441
 20
188.2107433341011
 30
0.0
 40
7.499999999999992
 50
180.0
 51
270.0
  0
LINE
  5
17C5C
  8
AM_0
 10
134.20114510887441
 20
193.2107433341011
 30
0.0
 11
134.20114510887441
 21
177.7107433341011
 31
0.0
  0
ARC
  5
17C62
  8
AM_0
 10
135.20114510887441
 20
177.7107433341011
 30
0.0
 40
1.0
 50
180.0
 51
270.0
  0
LINE
  5
17C63
  8
AM_0
 10
129.56113510887459
 20
229.56071333410111
 30
0.0
 11
124.2012051088745
 21
218.12080333410111
 31
0.0
  0
ARC
  5
17C64
  8
AM_0
 10
112.4939351088745
 20
224.0912333341011
 30
0.0
 40
1.000521999999999
 50
237.1461799999997
 51
270.41344000000032
  0
LINE
  5
17C65
  8
AM_0
 10
110.2011451088747
 20
218.19072333410111
 30
0.0
 11
110.2011451088747
 21
261.2107433341011
 31
0.0
  0
LINE
  5
17C66
  8
AM_0
 10
115.2011451088747
 20
216.21074333410121
 30
0.0
 11
116.2011451088747
 21
216.21074333410121
 31
0.0
  0
ARC
  5
17C67
  8
AM_0
 10
114.6977851088745
 20
218.11418333410111
 30
0.0
 40
0.5033929900000002
 50
270.38491000000062
 51
359.61509999999811
  0
ARC
  5
17C68
  8
AM_0
 10
114.7016351088746
 20
215.96122333410111
 30
0.0
 40
0.49952301
 50
359.9452300000014
 51
90.054773999999597
  0
LINE
  5
17C69
  8
AM_0
 10
112.4511451088747
 20
219.7107433341011
 30
0.0
 11
114.2011451088747
 21
219.7107433341011
 31
0.0
  0
LINE
  5
17C6A
  8
AM_0
 10
112.2011451088747
 20
218.81071333410119
 30
0.0
 11
112.2011451088747
 21
219.36076333410111
 31
0.0
  0
ARC
  5
17C6B
  8
AM_0
 10
112.4469951088745
 20
218.6100333341011
 30
0.0
 40
0.9993420200000001
 50
242.8619999999994
 51
269.66546000000159
  0
ARC
  5
17C6C
  8
AM_0
 10
112.4725651088747
 20
219.57438333410121
 30
0.0
 40
1.0037439999999971
 50
239.37112999999741
 51
270.49190000000061
  0
ARC
  5
17C6D
  8
AM_0
 10
112.4563351088745
 20
220.7113533341012
 30
0.0
 40
1.0006820000000001
 50
241.65062000000191
 51
269.70392999999888
  0
ARC
  5
17C6E
  8
AM_0
 10
111.1987651088748
 20
218.1953533341011
 30
0.0
 40
0.9976310099999999
 50
180.2678099999986
 51
240.07924000000099
  0
ARC
  5
17C6F
  8
AM_0
 10
111.19687510887481
 20
219.24113333410119
 30
0.0
 40
0.9956849800000001
 50
180.02113
 51
243.4091400000006
  0
ARC
  5
17C70
  8
AM_0
 10
111.19888510887471
 20
221.37199333410109
 30
0.0
 40
0.9977070099999998
 50
180.074020000004
 51
242.04481000000081
  0
ARC
  5
17C71
  8
AM_0
 10
111.1999251088746
 20
220.3342733341012
 30
0.0
 40
0.9987969999999998
 50
179.62728000000101
 51
238.70795000000021
  0
LINE
  5
17C72
  8
AM_0
 10
111.9612151088745
 20
218.71074333410121
 30
0.0
 11
110.6811851088746
 21
219.4807633341012
 31
0.0
  0
LINE
  5
17C73
  8
AM_0
 10
111.9911251088747
 20
217.72072333410111
 30
0.0
 11
110.75113510887471
 21
218.3507233341011
 31
0.0
  0
LINE
  5
17C74
  8
AM_0
 10
111.9811751088746
 20
219.83073333410121
 30
0.0
 11
110.7311751088746
 21
220.49073333410121
 31
0.0
  0
ARC
  5
17C75
  8
AM_0
 10
112.4818451088745
 20
217.4618333341011
 30
0.0
 40
1.001123999999999
 50
239.32782000000071
 51
269.38767999999868
  0
LINE
  5
17C76
  8
AM_0
 10
111.9711651088746
 20
216.60075333410111
 30
0.0
 11
110.7012051088745
 21
217.33073333410121
 31
0.0
  0
LINE
  5
17C77
  8
AM_0
 10
112.2011451088747
 20
216.71074333410121
 30
0.0
 11
112.2011451088747
 21
217.24077333410119
 31
0.0
  0
ARC
  5
17C78
  8
AM_0
 10
114.19705510887449
 20
220.71489333410111
 30
0.0
 40
1.004119999999999
 50
270.23460999999998
 51
359.76539000000002
  0
LINE
  5
17C79
  8
AM_0
 10
112.4811751088746
 20
218.5707233341011
 30
0.0
 11
115.2011451088747
 21
218.5707233341011
 31
0.0
  0
LINE
  5
17C7A
  8
AM_0
 10
112.5011951088745
 20
223.09074333410121
 30
0.0
 11
115.2011451088747
 21
223.09074333410121
 31
0.0
  0
LINE
  5
17C7B
  8
AM_0
 10
112.4411351088747
 20
217.61076333410111
 30
0.0
 11
114.7011451088747
 21
217.61076333410111
 31
0.0
  0
LINE
  5
17C7C
  8
AM_0
 10
112.4711651088746
 20
216.46074333410121
 30
0.0
 11
114.7011451088747
 21
216.46074333410121
 31
0.0
  0
LINE
  5
17C7D
  8
AM_0
 10
138.20114510887441
 20
196.7107433341011
 30
0.0
 11
138.20114510887441
 21
189.2107433341011
 31
0.0
  0
LINE
  5
17C7E
  8
AM_0
 10
132.70114510887441
 20
200.21074333410101
 30
0.0
 11
132.70114510887441
 21
180.7107433341011
 31
0.0
  0
LINE
  5
17C7F
  8
AM_0
 10
137.20114510887441
 20
192.2107433341011
 30
0.0
 11
137.20114510887441
 21
188.2107433341011
 31
0.0
  0
LINE
  5
17C80
  8
AM_0
 10
141.7011451088745
 20
196.7107433341011
 30
0.0
 11
141.7011451088745
 21
189.2107433341011
 31
0.0
  0
LINE
  5
17C81
  8
AM_0
 10
132.70114510887441
 20
180.7107433341011
 30
0.0
 11
134.20114510887441
 21
180.7107433341011
 31
0.0
  0
LINE
  5
17C82
  8
AM_0
 10
146.70114510887441
 20
180.7107433341011
 30
0.0
 11
144.70114510887441
 21
180.7107433341011
 31
0.0
  0
ARC
  5
17C83
  8
AM_0
 10
136.2011451088743
 20
192.2107433341011
 30
0.0
 40
1.0
 50
0.0
 51
90.0
  0
LINE
  5
17C84
  8
AM_0
 10
132.70114510887441
 20
193.2107433341011
 30
0.0
 11
136.2011451088743
 21
193.2107433341011
 31
0.0
  0
LINE
  5
17C85
  8
AM_0
 10
124.2011451088747
 20
215.4308033341012
 30
0.0
 11
125.2104251088747
 21
208.78062333410119
 31
0.0
  0
LINE
  5
17C86
  8
AM_0
 10
124.2012051088745
 20
215.4307733341011
 30
0.0
 11
125.12662510887461
 21
208.80418333410111
 31
0.0
  0
LINE
  5
17C87
  8
AM_0
 10
124.2011451088747
 20
218.12071333410111
 30
0.0
 11
125.4411951088746
 21
211.56071333410111
 31
0.0
  0
LINE
  5
17C88
  8
AM_0
 10
124.2011451088747
 20
216.7707033341012
 30
0.0
 11
125.4811751088746
 21
208.7707933341012
 31
0.0
  0
ARC
  5
17C89
  8
AM_0
 10
127.40604510887459
 20
211.92997333410111
 30
0.0
 40
1.9992490000000001
 50
190.64310000000111
 51
270.14743000000129
  0
ARC
  5
17C8A
  8
AM_0
 10
127.4573751088746
 20
209.08110333410119
 30
0.0
 40
2.000420099999999
 50
188.92682000000141
 51
269.82270999999929
  0
ARC
  5
17C8B
  8
AM_0
 10
127.1877751088746
 20
209.08073333410121
 30
0.0
 40
2.0
 50
188.62961999999769
 51
269.999989999999
  0
ARC
  5
17C8C
  8
AM_0
 10
127.1073951088747
 20
209.08073333410121
 30
0.0
 40
2.0
 50
187.9504400000034
 51
269.999989999999
  0
LINE
  5
17C8D
  8
AM_0
 10
116.2011451088747
 20
213.2107433341011
 30
0.0
 11
124.2011451088747
 21
213.2107433341011
 31
0.0
  0
LINE
  5
17C8E
  8
AM_0
 10
116.9011551088747
 20
223.0207933341012
 30
0.0
 11
123.1311351088748
 21
223.0207933341012
 31
0.0
  0
LINE
  5
17C8F
  8
AM_0
 10
112.3511751088745
 20
232.47075333410109
 30
0.0
 11
114.2011451088747
 21
232.47075333410109
 31
0.0
  0
ARC
  5
17C90
  8
AM_0
 10
112.3417151088746
 20
233.4734333341012
 30
0.0
 40
1.002699
 50
253.752720000002
 51
270.54064000000108
  0
ARC
  5
17C91
  8
AM_0
 10
111.19754510887471
 20
233.82512333410111
 30
0.0
 40
0.99638802
 50
180.24990999999889
 51
253.29664000000031
  0
LINE
  5
17C92
  8
AM_0
 10
112.06113510887459
 20
232.5107233341011
 30
0.0
 11
110.9111651088747
 21
232.87074333410109
 31
0.0
  0
ARC
  5
17C93
  8
AM_0
 10
114.1977851088745
 20
233.4740433341012
 30
0.0
 40
1.003352
 50
270.19111000000021
 51
359.80890000000107
  0
ARC
  5
17C94
  8
AM_0
 10
114.1979151088746
 20
225.2374733341012
 30
0.0
 40
1.0032760000000001
 50
334.19810000000518
 51
359.61811000000478
  0
ARC
  5
17C95
  8
AM_0
 10
114.5016851088746
 20
229.82133333410121
 30
0.0
 40
0.6994530000000001
 50
359.95517000000092
 51
90.044829000000746
  0
LINE
  5
17C96
  8
AM_0
 10
112.4711651088746
 20
224.23076333410111
 30
0.0
 11
114.2011451088747
 21
224.23076333410111
 31
0.0
  0
ARC
  5
17C97
  8
AM_0
 10
112.46451510887481
 20
225.23173333410111
 30
0.0
 40
1.0010449999999971
 50
240.4718700000011
 51
270.37970999999948
  0
ARC
  5
17C98
  8
AM_0
 10
111.1996251088746
 20
225.9700133341012
 30
0.0
 40
0.9984580299999999
 50
179.95957999999851
 51
239.38656999999941
  0
ARC
  5
17C99
  8
AM_0
 10
111.1996251088746
 20
225.9700133341012
 30
0.0
 40
0.9984580299999999
 50
179.95957999999851
 51
239.38656999999941
  0
LINE
  5
17C9A
  8
AM_0
 10
110.6911351088747
 20
225.1107333341011
 30
0.0
 11
110.6711151088748
 21
225.12071333410111
 31
0.0
  0
ARC
  5
17C9B
  8
AM_0
 10
111.20023510887469
 20
224.9354733341012
 30
0.0
 40
0.9990889999999998
 50
179.6950899999965
 51
236.66209000000211
  0
LINE
  5
17C9C
  8
AM_0
 10
111.9711651088746
 20
224.36079333410109
 30
0.0
 11
110.6911951088745
 21
225.11076333410111
 31
0.0
  0
ARC
  5
17C9D
  8
AM_0
 10
112.4041451088746
 20
231.52592333410109
 30
0.0
 40
1.005233
 50
246.98639000000031
 51
269.82924999999938
  0
LINE
  5
17C9E
  8
AM_0
 10
112.2011451088747
 20
230.8207233341011
 30
0.0
 11
112.2011451088747
 21
231.8807833341011
 31
0.0
  0
LINE
  5
17C9F
  8
AM_0
 10
112.01120510887451
 20
230.6007833341011
 30
0.0
 11
110.8111951088747
 21
231.1208033341012
 31
0.0
  0
ARC
  5
17CA0
  8
AM_0
 10
114.19870510887451
 20
225.2332033341012
 30
0.0
 40
1.002470999999999
 50
270.14107000000013
 51
359.85892999999987
  0
LINE
  5
17CA1
  8
AM_0
 10
112.4011551088747
 20
230.5207933341012
 30
0.0
 11
114.50113510887461
 21
230.5207933341012
 31
0.0
  0
ARC
  5
17CA2
  8
AM_0
 10
111.1976651088748
 20
232.03923333410111
 30
0.0
 40
0.9965090199999998
 50
179.9137499999965
 51
247.1784500000004
  0
LINE
  5
17CA3
  8
AM_0
 10
112.2011451088747
 20
223.3807833341011
 30
0.0
 11
112.2011451088747
 21
223.8507533341012
 31
0.0
  0
LINE
  5
17CA4
  8
AM_0
 10
111.95108510887481
 20
223.25071333410119
 30
0.0
 11
110.6510951088746
 21
224.1007233341011
 31
0.0
  0
LINE
  5
17CA5
  8
AM_0
 10
112.2011451088747
 20
240.58073333410121
 30
0.0
 11
112.2011451088747
 21
241.95073333410119
 31
0.0
  0
LINE
  5
17CA6
  8
AM_0
 10
114.2011451088747
 20
240.2107433341011
 30
0.0
 11
111.2011451088747
 21
240.2107433341011
 31
0.0
  0
LINE
  5
17CA7
  8
AM_0
 10
114.2011451088747
 20
242.2107433341011
 30
0.0
 11
111.2011451088747
 21
242.2107433341011
 31
0.0
  0
ARC
  5
17CA8
  8
AM_0
 10
111.1962651088747
 20
241.21562333410111
 30
0.0
 40
0.9950849999999999
 50
89.716282999999393
 51
180.28371999999919
  0
ARC
  5
17CA9
  8
AM_0
 10
114.19620510887459
 20
243.21562333410111
 30
0.0
 40
1.0049469
 50
270.2813699999993
 51
359.7186300000007
  0
ARC
  5
17CAA
  8
AM_0
 10
114.2013251088747
 20
239.21086333410111
 30
0.0
 40
0.9998239899999999
 50
359.98991999999532
 51
90.01007700000045
  0
ARC
  5
17CAB
  8
AM_0
 10
111.20139510887471
 20
241.21098333410109
 30
0.0
 40
1.0001959999999981
 50
180.01124999999939
 51
269.98875000000061
  0
LINE
  5
17CAC
  8
AM_0
 10
112.2011451088747
 20
250.6007533341012
 30
0.0
 11
112.2011451088747
 21
251.8207233341011
 31
0.0
  0
LINE
  5
17CAD
  8
AM_0
 10
114.2011451088747
 20
252.21074333410121
 30
0.0
 11
111.2011451088747
 21
252.21074333410121
 31
0.0
  0
LINE
  5
17CAE
  8
AM_0
 10
114.2011451088747
 20
250.21074333410121
 30
0.0
 11
111.2011451088747
 21
250.21074333410121
 31
0.0
  0
LINE
  5
17CAF
  8
AM_0
 10
108.7011451088747
 20
251.06071333410111
 30
0.0
 11
110.2011451088747
 21
251.06071333410111
 31
0.0
  0
ARC
  5
17CB0
  8
AM_0
 10
111.20139510887471
 20
251.21098333410109
 30
0.0
 40
1.0001999999999971
 50
180.01145999999861
 51
269.98854000000142
  0
ARC
  5
17CB1
  8
AM_0
 10
111.1962651088747
 20
251.21562333410111
 30
0.0
 40
0.9950810099999999
 50
89.716072000000096
 51
180.2839200000044
  0
LINE
  5
17CB2
  8
AM_0
 10
108.7011451088747
 20
248.93071333410111
 30
0.0
 11
110.2011451088747
 21
248.93071333410111
 31
0.0
  0
ARC
  5
17CB3
  8
AM_0
 10
114.19620510887459
 20
253.21562333410111
 30
0.0
 40
1.004939
 50
270.2809399999997
 51
359.71907000000078
  0
ARC
  5
17CB4
  8
AM_0
 10
114.2013251088747
 20
249.21086333410111
 30
0.0
 40
0.9998210099999999
 50
359.98971999999799
 51
90.010281999998284
  0
LINE
  5
17CB5
  8
AM_0
 10
108.7011451088747
 20
246.21071333410109
 30
0.0
 11
110.2011451088747
 21
246.0807033341012
 31
0.0
  0
LINE
  5
17CB6
  8
AM_0
 10
107.70727914207779
 20
250.9889110587105
 30
0.0
 11
108.20727914207779
 21
248.2189220450386
 31
0.0
  0
LINE
  5
17CB7
  8
AM_0
 10
108.2072486244997
 20
248.2189220450386
 30
0.0
 11
108.70727914207779
 21
248.2589305899605
 31
0.0
  0
LINE
  5
17CB8
  8
AM_0
 10
112.2011451088747
 20
260.60075333410123
 30
0.0
 11
112.2011451088747
 21
261.76078333410112
 31
0.0
  0
ARC
  5
17CB9
  8
AM_0
 10
111.20139510887471
 20
261.21098333410112
 30
0.0
 40
1.0002040000000001
 50
180.01165999999679
 51
269.98832000000078
  0
LINE
  5
17CBA
  8
AM_0
 10
114.2011451088747
 20
260.21074333410121
 30
0.0
 11
111.2011451088747
 21
260.21074333410121
 31
0.0
  0
LINE
  5
17CBB
  8
AM_0
 10
114.2011451088747
 20
262.21074333410121
 30
0.0
 11
111.2011451088747
 21
262.21074333410121
 31
0.0
  0
ARC
  5
17CBC
  8
AM_0
 10
111.1962651088747
 20
261.21562333410111
 30
0.0
 40
0.9950770099999999
 50
89.715859999999481
 51
180.28414000000049
  0
ARC
  5
17CBD
  8
AM_0
 10
114.2013251088747
 20
259.21086333410108
 30
0.0
 40
0.9998279799999998
 50
359.9901599999971
 51
90.009838000000187
  0
ARC
  5
17CBE
  8
AM_0
 10
114.19620510887459
 20
263.21562333410122
 30
0.0
 40
1.004942999999999
 50
270.28113999999943
 51
359.71886999999822
  0
POLYLINE
  5
17CBF
  8
AM_0
 66
     1
 10
0.0
 20
0.0
 30
0.0
  0
VERTEX
  5
17CC0
  8
AM_0
 10
127.0793851088747
 20
249.87016333410111
 30
0.0
 42
0.00073721992
  0
VERTEX
  5
17CC1
  8
AM_0
 10
127.12353510887461
 20
249.26775333410109
 30
0.0
 42
0.00074398496
  0
VERTEX
  5
17CC2
  8
AM_0
 10
127.1694651088746
 20
248.6654833341012
 30
0.0
 42
0.00073322625
  0
VERTEX
  5
17CC3
  8
AM_0
 10
127.21719510887461
 20
248.06315333410109
 30
0.0
 42
0.00073594289
  0
VERTEX
  5
17CC4
  8
AM_0
 10
127.26667510887449
 20
247.46116333410109
 30
0.0
 42
0.00074742568
  0
VERTEX
  5
17CC5
  8
AM_0
 10
127.3179451088747
 20
246.8593033341011
 30
0.0
 42
0.00073216749
  0
VERTEX
  5
17CC6
  8
AM_0
 10
127.3710051088746
 20
246.2574933341011
 30
0.0
 42
0.00074184065
  0
VERTEX
  5
17CC7
  8
AM_0
 10
127.42582510887451
 20
245.6559633341011
 30
0.0
 42
0.00072077528
  0
VERTEX
  5
17CC8
  8
AM_0
 10
127.4824051088746
 20
245.05473333410109
 30
0.0
 42
0.00074978179
  0
VERTEX
  5
17CC9
  8
AM_0
 10
127.5407451088745
 20
244.45353333410119
 30
0.0
 42
0.00074288888
  0
VERTEX
  5
17CCA
  8
AM_0
 10
127.6008951088747
 20
243.8525133341011
 30
0.0
 42
0.00072503679
  0
VERTEX
  5
17CCB
  8
AM_0
 10
127.66280510887459
 20
243.2517733341011
 30
0.0
 42
0.00074640584
  0
VERTEX
  5
17CCC
  8
AM_0
 10
127.7264751088746
 20
242.6511733341012
 30
0.0
  0
SEQEND
  5
17CCD
  8
AM_0
  0
POLYLINE
  5
17CCE
  8
AM_0
 66
     1
 10
0.0
 20
0.0
 30
0.0
  0
VERTEX
  5
17CCF
  8
AM_0
 10
128.0620451088748
 20
239.72770333410119
 30
0.0
 42
0.0006890001
  0
VERTEX
  5
17CD0
  8
AM_0
 10
128.13292510887459
 20
239.1529533341012
 30
0.0
 42
0.00070644651
  0
VERTEX
  5
17CD1
  8
AM_0
 10
128.20542510887481
 20
238.57827333410111
 30
0.0
 42
0.0006924559
  0
VERTEX
  5
17CD2
  8
AM_0
 10
128.27951510887459
 20
238.0039533341012
 30
0.0
 42
0.00069587797
  0
VERTEX
  5
17CD3
  8
AM_0
 10
128.3551951088748
 20
237.4298133341012
 30
0.0
 42
0.00071687041
  0
VERTEX
  5
17CD4
  8
AM_0
 10
128.43250510887441
 20
236.8558133341011
 30
0.0
 42
0.00069759113
  0
VERTEX
  5
17CD5
  8
AM_0
 10
128.5114451088748
 20
236.2820233341011
 30
0.0
 42
0.00071003142
  0
VERTEX
  5
17CD6
  8
AM_0
 10
128.5919851088747
 20
235.70855333410111
 30
0.0
 42
0.00069954544
  0
VERTEX
  5
17CD7
  8
AM_0
 10
128.6741251088747
 20
235.1354533341011
 30
0.0
 42
0.0007188852
  0
VERTEX
  5
17CD8
  8
AM_0
 10
128.75790510887461
 20
234.56242333410111
 30
0.0
 42
0.00071266165
  0
VERTEX
  5
17CD9
  8
AM_0
 10
128.8433351088747
 20
233.9896633341011
 30
0.0
 42
0.00071614577
  0
VERTEX
  5
17CDA
  8
AM_0
 10
128.93036510887461
 20
233.4173133341011
 30
0.0
 42
0.00072290806
  0
VERTEX
  5
17CDB
  8
AM_0
 10
129.0190751088746
 20
232.8450133341012
 30
0.0
  0
SEQEND
  5
17CDC
  8
AM_0
  0
ARC
  5
17CDD
  8
AM_0
 10
125.87430510887449
 20
231.16569333410109
 30
0.0
 40
1.675014
 50
89.766499000000024
 51
270.2335099999994
  0
ARC
  5
17CDE
  8
AM_0
 10
126.74576510887481
 20
231.21074333410121
 30
0.0
 40
1.000013899999999
 50
89.691659999999231
 51
270.30834000000078
  0
ARC
  5
17CDF
  8
AM_0
 10
125.6611651088747
 20
241.18571333410111
 30
0.0
 40
1.465004
 50
90.000003000000945
 51
270.0
  0
ARC
  5
17CE0
  8
AM_0
 10
126.74576510887481
 20
241.21074333410121
 30
0.0
 40
1.000013899999999
 50
89.691659999999231
 51
270.30834000000078
  0
POLYLINE
  5
17CE1
  8
AM_0
 66
     1
 10
0.0
 20
0.0
 30
0.0
  0
VERTEX
  5
17CE2
  8
AM_0
 10
126.6051951088748
 20
259.94035333410108
 30
0.0
 42
0.00076695232
  0
VERTEX
  5
17CE3
  8
AM_0
 10
126.6199951088747
 20
259.3225933341011
 30
0.0
 42
0.00073263044
  0
VERTEX
  5
17CE4
  8
AM_0
 10
126.6366351088745
 20
258.70499333410112
 30
0.0
 42
0.0007652599
  0
VERTEX
  5
17CE5
  8
AM_0
 10
126.6551251088744
 20
258.08732333410109
 30
0.0
 42
0.00075144485
  0
VERTEX
  5
17CE6
  8
AM_0
 10
126.6754951088746
 20
257.4697233341011
 30
0.0
 42
0.00078594403
  0
VERTEX
  5
17CE7
  8
AM_0
 10
126.6977451088746
 20
256.8522933341012
 30
0.0
 42
0.00073349202
  0
VERTEX
  5
17CE8
  8
AM_0
 10
126.72189510887461
 20
256.23491333410112
 30
0.0
 42
0.0007358075
  0
VERTEX
  5
17CE9
  8
AM_0
 10
126.7478351088748
 20
255.61751333410109
 30
0.0
 42
0.00078592699
  0
VERTEX
  5
17CEA
  8
AM_0
 10
126.7756651088748
 20
255.00012333410109
 30
0.0
 42
0.00074823144
  0
VERTEX
  5
17CEB
  8
AM_0
 10
126.80539510887451
 20
254.38273333410109
 30
0.0
 42
0.00074896603
  0
VERTEX
  5
17CEC
  8
AM_0
 10
126.83695510887441
 20
253.76560333410109
 30
0.0
 42
0.00076039765
  0
VERTEX
  5
17CED
  8
AM_0
 10
126.8703751088746
 20
253.14857333410109
 30
0.0
 42
0.00075616128
  0
VERTEX
  5
17CEE
  8
AM_0
 10
126.9056751088746
 20
252.53154333410109
 30
0.0
  0
SEQEND
  5
17CEF
  8
AM_0
  0
ARC
  5
17CF0
  8
AM_0
 10
125.5311651088746
 20
251.20073333410119
 30
0.0
 40
1.3300049999999981
 50
90.000003000000945
 51
270.0
  0
ARC
  5
17CF1
  8
AM_0
 10
126.74576510887481
 20
251.2107433341011
 30
0.0
 40
1.000013899999999
 50
89.691659999999231
 51
270.30834000000078
  0
ARC
  5
17CF2
  8
AM_0
 10
125.4653051088746
 20
261.2107433341011
 30
0.0
 40
1.2700129999999981
 50
89.736616999998347
 51
270.2633699999991
  0
ARC
  5
17CF3
  8
AM_0
 10
126.74576510887481
 20
261.2107433341011
 30
0.0
 40
1.000013899999999
 50
89.691659999999231
 51
270.30834000000078
  0
POLYLINE
  5
17CF4
  8
AM_0
 66
     1
 10
0.0
 20
0.0
 30
0.0
  0
VERTEX
  5
17CF5
  8
AM_0
 10
126.56113510887459
 20
266.21074333410121
 30
0.0
 42
0.00039106593
  0
VERTEX
  5
17CF6
  8
AM_0
 10
126.5587751088746
 20
265.89960333410107
 30
0.0
 42
0.00040574899
  0
VERTEX
  5
17CF7
  8
AM_0
 10
126.5569051088746
 20
265.58849333410109
 30
0.0
 42
0.0003534546
  0
VERTEX
  5
17CF8
  8
AM_0
 10
126.5555151088747
 20
265.27739333410108
 30
0.0
 42
0.00034407327
  0
VERTEX
  5
17CF9
  8
AM_0
 10
126.5545351088747
 20
264.96625333410111
 30
0.0
 42
0.00045699408
  0
VERTEX
  5
17CFA
  8
AM_0
 10
126.5540751088747
 20
264.65514333410113
 30
0.0
 42
0.00035571853
  0
VERTEX
  5
17CFB
  8
AM_0
 10
126.5541151088745
 20
264.34404333410112
 30
0.0
 42
0.00038547362
  0
VERTEX
  5
17CFC
  8
AM_0
 10
126.5546051088745
 20
264.03290333410121
 30
0.0
 42
0.00035501498
  0
VERTEX
  5
17CFD
  8
AM_0
 10
126.5555651088748
 20
263.7218033341012
 30
0.0
 42
0.00040118614
  0
VERTEX
  5
17CFE
  8
AM_0
 10
126.5569851088746
 20
263.41056333410108
 30
0.0
 42
0.00038319871
  0
VERTEX
  5
17CFF
  8
AM_0
 10
126.55889510887479
 20
263.09943333410109
 30
0.0
 42
0.00040742136
  0
VERTEX
  5
17D00
  8
AM_0
 10
126.5612951088747
 20
262.78820333410113
 30
0.0
 42
0.0003578071
  0
VERTEX
  5
17D01
  8
AM_0
 10
126.5641851088746
 20
262.47709333410108
 30
0.0
  0
SEQEND
  5
17D02
  8
AM_0
  0
ARC
  5
17D03
  8
AM_0
 10
284.19333101771173
 20
200.7107412330374
 30
0.0
 40
5.0
 50
181.79078417884651
 51
270.0
1001
GENIUS_GENOBJ-N-FIL_13
1002
{
1000
OWNER
1000
GEN
1002
}
1001
GENIUS_GENODEF_13
1002
{
1000
HIER
1070
     0
1002
}
1002
{
1000
MANEDIT
1070
     0
1002
}
1002
{
1000
NOSEL
1070
     0
1002
}
1002
{
1000
BEHIND
1070
     0
1002
}
1002
{
1000
OTHER
1070
     0
1002
}
1002
{
1000
REACTOR
1002
}
  0
LINE
  5
17D04
  8
AM_0
 10
267.70114540689798
 20
189.7107410542236
 30
0.0
 11
401.70114940040912
 21
189.7107410542236
 31
0.0
  0
LINE
  5
17D05
  8
AM_0
 10
267.70114540689798
 20
189.71074105422349
 30
0.0
 11
401.70114940040912
 21
189.71074105422349
 31
0.0
  0
LINE
  5
17D06
  8
AM_0
 10
211.2011451088745
 20
193.2107433341011
 30
0.0
 11
211.2011451088745
 21
177.7107433341011
 31
0.0
  0
LINE
  5
17D07
  8
AM_0
 10
199.0051451088745
 20
173.7107433341011
 30
0.0
 11
163.3971451088745
 21
173.7107433341011
 31
0.0
  0
LINE
  5
17D08
  8
AM_0
 10
163.3971451088745
 20
173.7107433341011
 30
0.0
 11
158.20836959867151
 21
176.7107433341011
 31
0.0
  0
LINE
  5
17D09
  8
AM_0
 10
204.2011451088745
 20
176.7107433341011
 30
0.0
 11
199.0051451088745
 21
173.7107433341011
 31
0.0
  0
ARC
  5
17D0A
  8
AM_0
 10
210.2011451088745
 20
177.71074333410101
 30
0.0
 40
1.0
 50
270.0
 51
0.0
  0
LINE
  5
17D0B
  8
AM_0
 10
229.02115510887461
 20
232.84074333410109
 30
0.0
 11
211.18118510887459
 21
232.84074333410109
 31
0.0
  0
LINE
  5
17D0C
  8
AM_0
 10
211.2011451088747
 20
239.73076333410111
 30
0.0
 11
229.2353851088746
 21
239.73076333410111
 31
0.0
  0
LINE
  5
17D0D
  8
AM_0
 10
225.5339751088745
 20
240.2107433341011
 30
0.0
 11
211.2011451088747
 21
240.2107433341011
 31
0.0
  0
LINE
  5
17D0E
  8
AM_0
 10
225.54117510887451
 20
232.2107433341011
 30
0.0
 11
181.2011451088747
 21
232.2107433341011
 31
0.0
  0
LINE
  5
17D0F
  8
AM_0
 10
225.54117510887451
 20
230.2107433341011
 30
0.0
 11
181.2011451088747
 21
230.2107433341011
 31
0.0
  0
LINE
  5
17D10
  8
AM_0
 10
181.2011451088747
 20
229.49077333410119
 30
0.0
 11
229.02115510887461
 21
229.49077333410119
 31
0.0
  0
LINE
  5
17D11
  8
AM_0
 10
212.7802439168108
 20
203.71074333410121
 30
0.0
 11
224.21738510887451
 21
203.71074333410121
 31
0.0
  0
LINE
  5
17D12
  8
AM_0
 10
212.7011451088745
 20
193.2107433341011
 30
0.0
 11
155.2011451088745
 21
193.2107433341011
 31
0.0
  0
LINE
  5
17D13
  8
AM_0
 10
151.17496403477071
 20
200.21074333410121
 30
0.0
 11
150.92048477991119
 21
209.930713334101
 31
0.0
  0
LINE
  5
17D14
  8
AM_0
 10
149.7011451088743
 20
196.7107433341011
 30
0.0
 11
149.7011451088743
 21
189.2107433341011
 31
0.0
  0
LINE
  5
17D15
  8
AM_0
 10
153.20114510887441
 20
189.2107433341011
 30
0.0
 11
153.20114510887441
 21
196.7107433341011
 31
0.0
  0
LINE
  5
17D16
  8
AM_0
 10
154.2011451088745
 20
188.2107433341011
 30
0.0
 11
154.2011451088745
 21
192.2107433341011
 31
0.0
  0
ARC
  5
17D17
  8
AM_0
 10
155.2011451088745
 20
192.2107433341011
 30
0.0
 40
1.0
 50
90.0
 51
180.0
  0
ARC
  5
17D18
  8
AM_0
 10
149.5338579302263
 20
205.58073333410121
 30
0.0
 40
1.5
 50
1.499722450987774
 51
90.0
1001
GENIUS_GENODEF_13
1002
{
1000
HIER
1070
     0
1002
}
1002
{
1000
MANEDIT
1070
     0
1002
}
1002
{
1000
NOSEL
1070
     0
1002
}
1002
{
1000
BEHIND
1070
     0
1002
}
1002
{
1000
REACTOR
1002
}
1001
GENIUS_GENOBJ-N-FIL_13
1002
{
1000
OWNER
1000
GEN
1002
}
  0
LINE
  5
17D19
  8
AM_0
 10
211.22736052256229
 20
200.21074333410101
 30
0.0
 11
211.48187432263009
 21
209.9307133341012
 31
0.0
  0
LINE
  5
17D1A
  8
AM_0
 10
212.7011451088745
 20
200.21074333410101
 30
0.0
 11
212.7011451088745
 21
193.2107433341011
 31
0.0
  0
ARC
  5
17D1B
  8
AM_0
 10
212.7802439168108
 20
202.21074333410121
 30
0.0
 40
1.5
 50
90.0
 51
178.5000740567499
1001
GENIUS_GENODEF_13
1002
{
1000
HIER
1070
     0
1002
}
1002
{
1000
MANEDIT
1070
     0
1002
}
1002
{
1000
NOSEL
1070
     0
1002
}
1002
{
1000
BEHIND
1070
     0
1002
}
1002
{
1000
REACTOR
1002
}
1001
GENIUS_GENOBJ-N-FIL_13
1002
{
1000
OWNER
1000
GEN
1002
}
  0
ARC
  5
17D1C
  8
AM_0
 10
161.86612510887471
 20
251.20073333410119
 30
0.0
 40
1.3300148000000001
 50
269.7294199999987
 51
90.270567000000995
  0
ARC
  5
17D1D
  8
AM_0
 10
160.6398651088748
 20
251.2107433341011
 30
0.0
 40
1.0000056999999971
 50
269.999989999999
 51
90.000003000000945
  0
ARC
  5
17D1E
  8
AM_0
 10
160.6398651088748
 20
261.2107433341011
 30
0.0
 40
1.0000056999999971
 50
269.999989999999
 51
90.000003000000945
  0
ARC
  5
17D1F
  8
AM_0
 10
161.9280751088744
 20
261.2107433341011
 30
0.0
 40
1.2700266
 50
269.62931999999989
 51
90.370669999998213
  0
CIRCLE
  5
17D20
  8
AM_0
 10
199.7011451088747
 20
237.71074333410121
 30
0.0
 40
1.149999999999999
  0
CIRCLE
  5
17D21
  8
AM_0
 10
199.7011451088747
 20
237.71074333410121
 30
0.0
 40
1.1000000000000001
  0
LINE
  5
17D22
  8
AM_0
 10
194.7011451088747
 20
238.7107433341011
 30
0.0
 11
194.7011451088747
 21
233.71074333410121
 31
0.0
  0
LINE
  5
17D23
  8
AM_0
 10
194.2211651088746
 20
238.7107433341011
 30
0.0
 11
194.2211651088746
 21
233.8507533341012
 31
0.0
  0
ARC
  5
17D24
  8
AM_0
 10
193.2211651088746
 20
233.8507533341012
 30
0.0
 40
1.0
 50
269.999989999999
 51
0.0000006832495047
  0
ARC
  5
17D25
  8
AM_0
 10
193.2011451088747
 20
233.71074333410121
 30
0.0
 40
1.5
 50
269.999989999999
 51
0.0000006832495047
  0
ARC
  5
17D26
  8
AM_0
 10
193.2011451088747
 20
238.7107433341011
 30
0.0
 40
1.02
 50
0.0
 51
90.000003000000945
  0
ARC
  5
17D27
  8
AM_0
 10
193.2011451088747
 20
238.7107433341011
 30
0.0
 40
1.5
 50
0.0
 51
90.000003000000945
  0
LINE
  5
17D28
  8
AM_0
 10
210.18118510887459
 20
238.7107433341011
 30
0.0
 11
210.18118510887459
 21
233.8507533341012
 31
0.0
  0
LINE
  5
17D29
  8
AM_0
 10
209.7011451088747
 20
238.7107433341011
 30
0.0
 11
209.7011451088747
 21
233.71074333410121
 31
0.0
  0
ARC
  5
17D2A
  8
AM_0
 10
211.18118510887459
 20
233.8507533341012
 30
0.0
 40
1.0
 50
179.999989999999
 51
270.0
  0
ARC
  5
17D2B
  8
AM_0
 10
211.2011451088747
 20
233.71074333410121
 30
0.0
 40
1.5
 50
179.999989999999
 51
270.0
  0
CIRCLE
  5
17D2C
  8
AM_0
 10
204.7011451088747
 20
237.71074333410121
 30
0.0
 40
1.0
  0
ARC
  5
17D2D
  8
AM_0
 10
211.2011451088747
 20
238.7107433341011
 30
0.0
 40
1.02
 50
90.000003000000945
 51
180.00001000000091
  0
ARC
  5
17D2E
  8
AM_0
 10
211.2011451088747
 20
238.7107433341011
 30
0.0
 40
1.5
 50
90.000003000000945
 51
180.00001000000091
  0
LINE
  5
17D2F
  8
AM_0
 10
228.60119510887461
 20
475.985862652511
 30
0.0
 11
228.60119510887461
 21
472.38585265251078
 31
0.0
  0
LINE
  5
17D30
  8
AM_0
 10
231.20117510887451
 20
477.98586265251089
 30
0.0
 11
231.20117510887451
 21
470.38585265251101
 31
0.0
  0
LINE
  5
17D31
  8
AM_0
 10
232.20117510887471
 20
477.98586265251089
 30
0.0
 11
232.20117510887471
 21
470.38585265251101
 31
0.0
  0
ARC
  5
17D32
  8
AM_0
 10
483.70723336571052
 20
266.21074333410121
 30
0.0
 40
236.0
 50
179.999994991043
 51
190.56396171235869
  0
LINE
  5
17D33
  8
AM_0
 10
240.2011451088747
 20
220.21074333410101
 30
0.0
 11
251.70724862449981
 21
220.21074333410121
 31
0.0
  0
LINE
  5
17D34
  8
AM_0
 10
240.2011451088747
 20
210.21074333410121
 30
0.0
 11
249.70724862449981
 21
210.21074333410121
 31
0.0
  0
LINE
  5
17D35
  8
AM_0
 10
232.2011451088747
 20
220.21074333410121
 30
0.0
 11
240.2011451088747
 21
220.21074333410121
 31
0.0
  0
LINE
  5
17D36
  8
AM_0
 10
232.2011451088747
 20
210.21074333410121
 30
0.0
 11
240.2011451088747
 21
210.21074333410121
 31
0.0
  0
LINE
  5
17D37
  8
AM_0
 10
229.03651278842369
 20
221.77466010990199
 30
0.0
 11
226.26114510887459
 21
211.4107533341012
 31
0.0
  0
LINE
  5
17D38
  8
AM_0
 10
231.2011451088747
 20
213.2107433341011
 30
0.0
 11
225.47540510887461
 21
204.39384333410109
 31
0.0
  0
ARC
  5
17D39
  8
AM_0
 10
224.21738510887451
 20
205.2107433341011
 30
0.0
 40
1.5
 50
269.999989999999
 51
326.99999999999852
  0
ARC
  5
17D3A
  8
AM_0
 10
224.3263251088747
 20
211.9354733341012
 30
0.0
 40
2.0047290000000002
 50
270.13832000000087
 51
344.82650000000189
  0
ARC
  5
17D3B
  8
AM_0
 10
230.3011751088749
 20
472.38585265251078
 30
0.0
 40
1.7000007999999991
 50
180.00001000000091
 51
269.99998000000119
  0
LINE
  5
17D3C
  8
AM_0
 10
231.20117510887451
 20
470.6858426525111
 30
0.0
 11
230.3011751088749
 21
470.6858426525111
 31
0.0
  0
LINE
  5
17D3D
  8
AM_0
 10
226.74319510887469
 20
213.2107433341011
 30
0.0
 11
232.2011451088747
 21
213.2107433341011
 31
0.0
  0
LINE
  5
17D3E
  8
AM_0
 10
231.20117510887451
 20
470.38585265251101
 30
0.0
 11
232.20117510887471
 21
470.38585265251101
 31
0.0
  0
LINE
  5
17D3F
  8
ﾁｭｳｼﾝｾﾝ1
 10
268.2011454217992
 20
192.7107411436304
 30
0.0
 11
268.2011454217992
 21
207.71074159066529
 31
0.0
  0
ARC
  5
17D40
  8
AM_0
 10
268.2011454217992
 20
200.2107413671479
 30
0.0
 40
11.0
 50
1.7907841788466039
 51
88.209215821153435
  0
CIRCLE
  5
17D41
  8
AM_0
 10
268.2011454217992
 20
200.2107413671479
 30
0.0
 40
4.5000001341104499
  0
ARC
  5
17D42
  8
AM_0
 10
267.70114540689798
 20
199.71074135224671
 30
0.0
 40
10.000000298023259
 50
179.999994991043
 51
269.99999749551807
  0
LINE
  5
17D43
  8
ﾁｭｳｼﾝｾﾝ1
 10
275.70114564531661
 20
200.2107413671479
 30
0.0
 11
260.70114519828172
 21
200.2107413671479
 31
0.0
  0
ARC
  5
17D44
  8
AM_0
 10
268.70114528768858
 20
216.20292696306041
 30
0.0
 40
5.0
 50
180.0
 51
268.20921582115352
1001
GENIUS_GENOBJ-N-FIL_13
1002
{
1000
OWNER
1000
GEN
1002
}
1001
GENIUS_GENODEF_13
1002
{
1000
HIER
1070
     0
1002
}
1002
{
1000
MANEDIT
1070
     0
1002
}
1002
{
1000
NOSEL
1070
     0
1002
}
1002
{
1000
BEHIND
1070
     0
1002
}
1002
{
1000
OTHER
1070
     0
1002
}
1002
{
1000
REACTOR
1002
}
  0
ARC
  5
17D45
  8
AM_0
 10
253.17135023963749
 20
210.21074333410121
 30
0.0
 40
2.0
 50
90.0
 51
149.9999999999998
1001
GENIUS_GENOBJ-N-FIL_13
1002
{
1000
OWNER
1000
GEN
1002
}
1001
GENIUS_GENODEF_13
1002
{
1000
HIER
1070
     0
1002
}
1002
{
1000
MANEDIT
1070
     0
1002
}
1002
{
1000
NOSEL
1070
     0
1002
}
1002
{
1000
BEHIND
1070
     0
1002
}
1002
{
1000
OTHER
1070
     0
1002
}
1002
{
1000
REACTOR
1002
}
  0
ARC
  5
17D46
  8
AM_0
 10
255.70114510887481
 20
210.21074333410121
 30
0.0
 40
2.0
 50
0.0
 51
90.0
1001
GENIUS_GENODEF_13
1002
{
1000
HIER
1070
     0
1002
}
1002
{
1000
MANEDIT
1070
     0
1002
}
1002
{
1000
NOSEL
1070
     0
1002
}
1002
{
1000
BEHIND
1070
     0
1002
}
1002
{
1000
OTHER
1070
     0
1002
}
1002
{
1000
REACTOR
1002
}
1001
GENIUS_GENOBJ-N-FIL_13
1002
{
1000
OWNER
1000
GEN
1002
}
  0
LINE
  5
17D47
  8
AM_0
 10
255.70114510887481
 20
212.21074333410121
 30
0.0
 11
253.17135023963749
 21
212.21074333410121
 31
0.0
  0
ARC
  5
17D48
  8
AM_0
 10
249.70724862449981
 20
212.21074333410121
 30
0.0
 40
2.0
 50
270.0
 51
329.99999999999989
1001
GENIUS_GENOBJ-N-FIL_13
1002
{
1000
OWNER
1000
GEN
1002
}
1001
GENIUS_GENODEF_13
1002
{
1000
HIER
1070
     0
1002
}
1002
{
1000
MANEDIT
1070
     0
1002
}
1002
{
1000
NOSEL
1070
     0
1002
}
1002
{
1000
BEHIND
1070
     0
1002
}
1002
{
1000
OTHER
1070
     0
1002
}
1002
{
1000
REACTOR
1002
}
  0
LINE
  5
17D49
  8
AM_0
 10
252.20724862449981
 20
222.94412651281209
 30
0.0
 11
257.70114510887481
 21
222.94412651281209
 31
0.0
  0
LINE
  5
17D4A
  8
AM_0
 10
240.2011451088747
 20
234.2707933341012
 30
0.0
 11
249.80716124483749
 21
234.2707933341012
 31
0.0
  0
LINE
  5
17D4B
  8
AM_0
 10
232.2011451088747
 20
234.2708033341012
 30
0.0
 11
240.2011451088747
 21
234.2708033341012
 31
0.0
  0
ARC
  5
17D4C
  8
AM_0
 10
230.3011751088749
 20
475.985862652511
 30
0.0
 40
1.699996899999999
 50
90.000003000000945
 51
179.99998000000451
  0
LINE
  5
17D4D
  8
AM_0
 10
231.20117510887451
 20
477.6858426525111
 30
0.0
 11
230.3011751088749
 21
477.6858426525111
 31
0.0
  0
ARC
  5
17D4E
  8
AM_0
 10
229.02115510887461
 20
231.16569333410109
 30
0.0
 40
1.6750020000000001
 50
269.999989999999
 51
90.000003000000945
  0
ARC
  5
17D4F
  8
AM_0
 10
225.54117510887451
 20
231.21074333410121
 30
0.0
 40
1.0
 50
269.999989999999
 51
90.000003000000945
  0
LINE
  5
17D50
  8
AM_0
 10
232.20117510887471
 20
474.96321265251117
 30
0.0
 11
231.20117510887451
 21
474.38585265251101
 31
0.0
  0
LINE
  5
17D51
  8
AM_0
 10
232.20117510887471
 20
473.96321265251112
 30
0.0
 11
231.20117510887451
 21
473.38585265251101
 31
0.0
  0
LINE
  5
17D52
  8
AM_0
 10
231.20117510887451
 20
477.98586265251089
 30
0.0
 11
232.20117510887471
 21
477.98586265251089
 31
0.0
  0
ARC
  5
17D53
  8
AM_0
 10
225.54111510887469
 20
241.21074333410121
 30
0.0
 40
1.0000255999999981
 50
269.58947000000001
 51
90.410531000001029
  0
ARC
  5
17D54
  8
AM_0
 10
229.24112510887471
 20
241.1807133341012
 30
0.0
 40
1.460011199999999
 50
269.77524999999991
 51
90.224750000000085
  0
LINE
  5
17D56
  8
AM_0
 10
284.19333101771173
 20
195.7107412330374
 30
0.0
 11
385.20896378959583
 21
195.7107412330374
 31
0.0
  0
CIRCLE
  5
17D58
  8
AM_0
 10
401.20114938550819
 20
200.2107413671479
 30
0.0
 40
4.5000001341104499
  0
ARC
  5
17D59
  8
AM_0
 10
401.20114938550819
 20
200.2107413671479
 30
0.0
 40
11.0
 50
91.790784178846565
 51
178.20921582115341
  0
LINE
  5
17D5A
  8
ﾁｭｳｼﾝｾﾝ1
 10
401.20114938550819
 20
192.7107411436304
 30
0.0
 11
401.20114938550819
 21
207.71074159066529
 31
0.0
  0
LINE
  5
17D5B
  8
ﾁｭｳｼﾝｾﾝ1
 10
393.70114916199049
 20
200.2107413671479
 30
0.0
 11
408.70114960902561
 21
200.2107413671479
 31
0.0
  0
ARC
  5
17D5C
  8
AM_0
 10
385.20896378959583
 20
200.7107412330374
 30
0.0
 40
5.0
 50
270.0
 51
358.20921582115341
1001
GENIUS_GENODEF_13
1002
{
1000
HIER
1070
     0
1002
}
1002
{
1000
MANEDIT
1070
     0
1002
}
1002
{
1000
NOSEL
1070
     0
1002
}
1002
{
1000
BEHIND
1070
     0
1002
}
1002
{
1000
OTHER
1070
     0
1002
}
1002
{
1000
REACTOR
1002
}
1001
GENIUS_GENOBJ-N-FIL_13
1002
{
1000
OWNER
1000
GEN
1002
}
  0
ARC
  5
17D5D
  8
AM_0
 10
401.70114940040912
 20
199.71074135224671
 30
0.0
 40
10.00000029802322
 50
269.99999749551807
 51
0.0
  0
ARC
  5
17D5E
  8
AM_0
 10
400.7011495196183
 20
216.20292696306041
 30
0.0
 40
5.0
 50
271.79078417884648
 51
0.0
1001
GENIUS_GENOBJ-N-FIL_13
1002
{
1000
OWNER
1000
GEN
1002
}
1001
GENIUS_GENODEF_13
1002
{
1000
HIER
1070
     0
1002
}
1002
{
1000
MANEDIT
1070
     0
1002
}
1002
{
1000
NOSEL
1070
     0
1002
}
1002
{
1000
BEHIND
1070
     0
1002
}
1002
{
1000
OTHER
1070
     0
1002
}
1002
{
1000
REACTOR
1002
}
  0
LINE
  5
17D64
  8
AM_0
 10
127.4511451088747
 20
325.34074333410121
 30
0.0
 11
224.33115510887461
 21
325.34074333410121
 31
0.0
  0
LINE
  5
17D65
  8
AM_0
 10
127.4111651088747
 20
322.49077333410122
 30
0.0
 11
224.33115510887461
 21
322.49077333410122
 31
0.0
  0
LINE
  5
17D66
  8
AM_0
 10
127.4711651088746
 20
327.19072333410111
 30
0.0
 11
224.33115510887461
 21
327.19072333410111
 31
0.0
  0
LINE
  5
17D67
  8
AM_0
 10
127.4911851088745
 20
328.10075333410128
 30
0.0
 11
224.3312151088746
 21
328.10075333410128
 31
0.0
  0
LINE
  5
17D68
  8
AM_0
 10
160.6398651088748
 20
282.2107433341011
 30
0.0
 11
126.56113510887459
 21
282.2107433341011
 31
0.0
  0
LINE
  5
17D69
  8
AM_0
 10
125.5311651088746
 20
282.55070333410117
 30
0.0
 11
161.85983510887459
 21
282.55070333410117
 31
0.0
  0
LINE
  5
17D6A
  8
AM_0
 10
160.6398651088748
 20
280.2107433341011
 30
0.0
 11
126.56113510887459
 21
280.2107433341011
 31
0.0
  0
LINE
  5
17D6B
  8
AM_0
 10
125.5311651088746
 20
279.8907933341012
 30
0.0
 11
161.85983510887459
 21
279.8907933341012
 31
0.0
  0
LINE
  5
17D6C
  8
AM_0
 10
160.6398651088748
 20
272.21074333410121
 30
0.0
 11
126.56113510887459
 21
272.21074333410121
 31
0.0
  0
LINE
  5
17D6D
  8
AM_0
 10
160.6398651088748
 20
270.21074333410121
 30
0.0
 11
126.56113510887459
 21
270.21074333410121
 31
0.0
  0
LINE
  5
17D6E
  8
AM_0
 10
125.4711651088746
 20
272.48076333410108
 30
0.0
 11
161.91983510887479
 21
272.48076333410108
 31
0.0
  0
LINE
  5
17D6F
  8
AM_0
 10
125.4711651088746
 20
269.95073333410119
 30
0.0
 11
161.91983510887479
 21
269.95073333410119
 31
0.0
  0
LINE
  5
17D70
  8
AM_0
 10
193.2011451088747
 20
292.2107433341011
 30
0.0
 11
126.56113510887459
 21
292.2107433341011
 31
0.0
  0
LINE
  5
17D71
  8
AM_0
 10
125.8811351088748
 20
299.58073333410118
 30
0.0
 11
193.2211651088746
 21
299.58073333410118
 31
0.0
  0
LINE
  5
17D72
  8
AM_0
 10
125.6611651088747
 20
292.70073333410119
 30
0.0
 11
193.2011451088747
 21
292.70073333410119
 31
0.0
  0
LINE
  5
17D73
  8
AM_0
 10
225.54117510887451
 20
302.21074333410121
 30
0.0
 11
126.56113510887459
 21
302.21074333410121
 31
0.0
  0
LINE
  5
17D74
  8
AM_0
 10
225.54117510887451
 20
300.21074333410121
 30
0.0
 11
126.56113510887459
 21
300.21074333410121
 31
0.0
  0
LINE
  5
17D75
  8
AM_0
 10
225.5339751088745
 20
290.2107433341011
 30
0.0
 11
126.56113510887459
 21
290.2107433341011
 31
0.0
  0
LINE
  5
17D76
  8
AM_0
 10
125.8811351088748
 20
302.93071333410109
 30
0.0
 11
229.02115510887461
 21
302.93071333410109
 31
0.0
  0
LINE
  5
17D77
  8
AM_0
 10
125.6611651088747
 20
289.7707933341012
 30
0.0
 11
229.2353851088746
 21
289.7707933341012
 31
0.0
  0
LINE
  5
17D78
  8
AM_0
 10
129.5611951088747
 20
302.86076333410108
 30
0.0
 11
124.2012051088745
 21
314.31074333410112
 31
0.0
  0
LINE
  5
17D79
  8
AM_0
 10
110.2011451088747
 20
314.23076333410108
 30
0.0
 11
110.2011451088747
 21
271.21074333410121
 31
0.0
  0
LINE
  5
17D7A
  8
AM_0
 10
114.2011451088747
 20
270.21074333410121
 30
0.0
 11
111.2011451088747
 21
270.21074333410121
 31
0.0
  0
LINE
  5
17D7B
  8
AM_0
 10
114.2011451088747
 20
272.21074333410121
 30
0.0
 11
111.2011451088747
 21
272.21074333410121
 31
0.0
  0
LINE
  5
17D7C
  8
AM_0
 10
112.2011451088747
 20
271.8207233341011
 30
0.0
 11
112.2011451088747
 21
270.6606933341011
 31
0.0
  0
ARC
  5
17D7D
  8
AM_0
 10
111.20139510887471
 20
271.21098333410112
 30
0.0
 40
1.0001959999999981
 50
180.0112199999958
 51
269.98878000000087
  0
ARC
  5
17D7E
  8
AM_0
 10
111.1962651088747
 20
271.21562333410122
 30
0.0
 40
0.9950849999999999
 50
89.716311000000914
 51
180.28368999999961
  0
ARC
  5
17D7F
  8
AM_0
 10
114.2013251088747
 20
269.21086333410108
 30
0.0
 40
0.9998249999999999
 50
359.98994999999883
 51
90.010050000001243
  0
ARC
  5
17D80
  8
AM_0
 10
114.19620510887459
 20
273.21562333410122
 30
0.0
 40
1.0049469
 50
270.28135000000037
 51
359.71866000000068
  0
LINE
  5
17D81
  8
AM_0
 10
114.2011451088747
 20
282.2107433341011
 30
0.0
 11
111.2011451088747
 21
282.2107433341011
 31
0.0
  0
LINE
  5
17D82
  8
AM_0
 10
108.7011451088747
 20
286.21071333410111
 30
0.0
 11
110.2011451088747
 21
286.34071333410111
 31
0.0
  0
LINE
  5
17D83
  8
AM_0
 10
108.7011451088747
 20
283.49077333410122
 30
0.0
 11
110.2011451088747
 21
283.49077333410122
 31
0.0
  0
LINE
  5
17D84
  8
AM_0
 10
108.7011451088747
 20
281.36076333410108
 30
0.0
 11
110.2011451088747
 21
281.36076333410108
 31
0.0
  0
ARC
  5
17D85
  8
AM_0
 10
111.1962651088747
 20
281.21562333410122
 30
0.0
 40
0.99508202
 50
89.716098999998152
 51
180.2839099999978
  0
ARC
  5
17D86
  8
AM_0
 10
114.19620510887459
 20
283.21562333410122
 30
0.0
 40
1.004939
 50
270.2809100000008
 51
359.71909999999991
  0
LINE
  5
17D87
  8
AM_0
 10
114.2011451088747
 20
280.2107433341011
 30
0.0
 11
111.2011451088747
 21
280.2107433341011
 31
0.0
  0
ARC
  5
17D88
  8
AM_0
 10
114.2013251088747
 20
279.21086333410108
 30
0.0
 40
0.9998210099999999
 50
359.98975000000149
 51
90.010254999998992
  0
LINE
  5
17D89
  8
AM_0
 10
112.2011451088747
 20
281.8207233341011
 30
0.0
 11
112.2011451088747
 21
280.61076333410108
 31
0.0
  0
ARC
  5
17D8A
  8
AM_0
 10
111.20139510887471
 20
281.21098333410112
 30
0.0
 40
1.0001999999999971
 50
180.01143000000161
 51
269.98856999999839
  0
LINE
  5
17D8B
  8
AM_0
 10
107.7072486244997
 20
281.43257560949178
 30
0.0
 11
108.2072486244997
 21
284.20256462316371
 31
0.0
  0
LINE
  5
17D8C
  8
AM_0
 10
108.20727914207779
 20
284.20256462316371
 30
0.0
 11
108.7072486244997
 21
284.16255607824178
 31
0.0
  0
ARC
  5
17D8D
  8
AM_0
 10
111.1974251088745
 20
298.60649333410117
 30
0.0
 40
0.9962710099999999
 50
106.6979199999999
 51
180.33004999999989
  0
ARC
  5
17D8E
  8
AM_0
 10
114.2028551088747
 20
298.9524333341011
 30
0.0
 40
0.9982839799999999
 50
359.90142000000009
 51
90.098576000001358
  0
LINE
  5
17D8F
  8
AM_0
 10
112.2011451088747
 20
291.84074333410121
 30
0.0
 11
112.2011451088747
 21
290.47075333410112
 31
0.0
  0
LINE
  5
17D90
  8
AM_0
 10
114.2011451088747
 20
292.2107433341011
 30
0.0
 11
111.2011451088747
 21
292.2107433341011
 31
0.0
  0
LINE
  5
17D91
  8
AM_0
 10
114.2011451088747
 20
290.2107433341011
 30
0.0
 11
111.2011451088747
 21
290.2107433341011
 31
0.0
  0
ARC
  5
17D92
  8
AM_0
 10
111.1962651088747
 20
291.21562333410122
 30
0.0
 40
0.99507803
 50
89.715887000001331
 51
180.28410999999991
  0
ARC
  5
17D93
  8
AM_0
 10
111.20139510887471
 20
291.21098333410112
 30
0.0
 40
1.000203
 50
180.01164999999551
 51
269.98835000000122
  0
ARC
  5
17D94
  8
AM_0
 10
114.19620510887459
 20
293.21562333410122
 30
0.0
 40
1.004942999999999
 50
270.28111000000013
 51
359.71888999999987
  0
ARC
  5
17D95
  8
AM_0
 10
114.2013251088747
 20
289.21086333410108
 30
0.0
 40
0.9998289899999999
 50
359.99019000000038
 51
90.009811000000937
  0
LINE
  5
17D96
  8
AM_0
 10
112.4711651088746
 20
308.20073333410119
 30
0.0
 11
114.2011451088747
 21
308.20073333410119
 31
0.0
  0
LINE
  5
17D97
  8
AM_0
 10
112.2011451088747
 20
309.04069333410109
 30
0.0
 11
112.2011451088747
 21
308.57072333410122
 31
0.0
  0
ARC
  5
17D98
  8
AM_0
 10
112.5077851088747
 20
308.34452333410121
 30
0.0
 40
0.99617702
 50
90.381317999999226
 51
123.9704899999973
  0
ARC
  5
17D99
  8
AM_0
 10
112.4805651088745
 20
307.20427333410117
 30
0.0
 40
0.99648702
 50
90.540720999998626
 51
120.7437699999978
  0
ARC
  5
17D9A
  8
AM_0
 10
111.1959551088746
 20
307.48832333410121
 30
0.0
 40
0.9948369899999999
 50
123.2049600000028
 51
180.4378599999981
  0
ARC
  5
17D9B
  8
AM_0
 10
111.1952251088746
 20
306.4539033341012
 30
0.0
 40
0.99404597
 50
120.46820000000049
 51
180.18564000000021
  0
LINE
  5
17D9C
  8
AM_0
 10
111.95108510887481
 20
309.1707633341012
 30
0.0
 11
110.6510951088746
 21
308.32078333410118
 31
0.0
  0
LINE
  5
17D9D
  8
AM_0
 10
111.9711051088748
 20
308.06077333410121
 30
0.0
 11
110.6911351088747
 21
307.31077333410121
 31
0.0
  0
ARC
  5
17D9E
  8
AM_0
 10
114.1988251088746
 20
307.19841333410119
 30
0.0
 40
1.002353
 50
0.1343268199984517
 51
89.865672999999347
  0
LINE
  5
17D9F
  8
AM_0
 10
112.5011951088745
 20
309.34074333410109
 30
0.0
 11
115.2011451088747
 21
309.34074333410109
 31
0.0
  0
ARC
  5
17DA0
  8
AM_0
 10
114.49661510887471
 20
302.60527333410118
 30
0.0
 40
0.704566
 50
270.37010000000009
 51
359.62990999999778
  0
LINE
  5
17DA1
  8
AM_0
 10
112.3511751088745
 20
299.95073333410119
 30
0.0
 11
114.2011451088747
 21
299.95073333410119
 31
0.0
  0
LINE
  5
17DA2
  8
AM_0
 10
112.2011451088747
 20
301.60075333410128
 30
0.0
 11
112.2011451088747
 21
300.54069333410109
 31
0.0
  0
ARC
  5
17DA3
  8
AM_0
 10
112.4021351088747
 20
300.90532333410118
 30
0.0
 40
0.9954450099999999
 50
90.056904999999645
 51
113.12745000000071
  0
ARC
  5
17DA4
  8
AM_0
 10
112.3403051088746
 20
298.95805333410118
 30
0.0
 40
0.9927430199999999
 50
89.374554999998736
 51
106.3320700000024
  0
ARC
  5
17DA5
  8
AM_0
 10
111.19754510887471
 20
300.39225333410121
 30
0.0
 40
0.9963999999999998
 50
112.8173600000008
 51
180.0904199999996
  0
LINE
  5
17DA6
  8
AM_0
 10
112.0111451088746
 20
301.8207533341012
 30
0.0
 11
110.8111951088747
 21
301.31074333410118
 31
0.0
  0
LINE
  5
17DA7
  8
AM_0
 10
112.06113510887459
 20
299.91078333410121
 30
0.0
 11
110.9111651088747
 21
299.56077333410121
 31
0.0
  0
LINE
  5
17DA8
  8
AM_0
 10
112.4011551088747
 20
301.90068333410107
 30
0.0
 11
114.50113510887461
 21
301.90068333410107
 31
0.0
  0
POLYLINE
  5
17DA9
  8
AM_0
 66
     1
 10
0.0
 20
0.0
 30
0.0
  0
VERTEX
  5
17DAA
  8
AM_0
 10
127.0793851088747
 20
282.55131333410111
 30
0.0
 42
-0.0007337051
  0
VERTEX
  5
17DAB
  8
AM_0
 10
127.1235251088747
 20
283.15372333410107
 30
0.0
 42
-0.00075211323
  0
VERTEX
  5
17DAC
  8
AM_0
 10
127.1694651088746
 20
283.75612333410118
 30
0.0
 42
-0.0007297491
  0
VERTEX
  5
17DAD
  8
AM_0
 10
127.21719510887461
 20
284.35832333410121
 30
0.0
 42
-0.00073593041
  0
VERTEX
  5
17DAE
  8
AM_0
 10
127.26667510887449
 20
284.96031333410122
 30
0.0
 42
-0.00074742739
  0
VERTEX
  5
17DAF
  8
AM_0
 10
127.3179451088747
 20
285.5621733341012
 30
0.0
 42
-0.00073217363
  0
VERTEX
  5
17DB0
  8
AM_0
 10
127.3710051088746
 20
286.1639833341012
 30
0.0
 42
-0.00073754168
  0
VERTEX
  5
17DB1
  8
AM_0
 10
127.42582510887451
 20
286.76552333410109
 30
0.0
 42
-0.00073075073
  0
VERTEX
  5
17DB2
  8
AM_0
 10
127.4824051088746
 20
287.36687333410111
 30
0.0
 42
-0.00074550816
  0
VERTEX
  5
17DB3
  8
AM_0
 10
127.5407451088745
 20
287.96794333410122
 30
0.0
 42
-0.00074288416
  0
VERTEX
  5
17DB4
  8
AM_0
 10
127.6008951088747
 20
288.56896333410128
 30
0.0
 42
-0.00072504001
  0
VERTEX
  5
17DB5
  8
AM_0
 10
127.66280510887459
 20
289.1697033341012
 30
0.0
 42
-0.00074640667
  0
VERTEX
  5
17DB6
  8
AM_0
 10
127.7264751088746
 20
289.7703133341011
 30
0.0
  0
SEQEND
  5
17DB7
  8
AM_0
  0
POLYLINE
  5
17DB8
  8
AM_0
 66
     1
 10
0.0
 20
0.0
 30
0.0
  0
VERTEX
  5
17DB9
  8
AM_0
 10
126.6051951088748
 20
272.48112333410108
 30
0.0
 42
-0.00076691987
  0
VERTEX
  5
17DBA
  8
AM_0
 10
126.6199951088747
 20
273.09888333410117
 30
0.0
 42
-0.00073262795
  0
VERTEX
  5
17DBB
  8
AM_0
 10
126.6366351088745
 20
273.7164833341011
 30
0.0
 42
-0.0007652954
  0
VERTEX
  5
17DBC
  8
AM_0
 10
126.6551251088744
 20
274.33415333410119
 30
0.0
 42
-0.00077334627
  0
VERTEX
  5
17DBD
  8
AM_0
 10
126.6755351088745
 20
274.95175333410123
 30
0.0
 42
-0.00073282897
  0
VERTEX
  5
17DBE
  8
AM_0
 10
126.6977951088747
 20
275.56917333410121
 30
0.0
 42
-0.0007571179
  0
VERTEX
  5
17DBF
  8
AM_0
 10
126.72189510887461
 20
276.18669333410111
 30
0.0
 42
-0.00073783152
  0
VERTEX
  5
17DC0
  8
AM_0
 10
126.7478351088748
 20
276.80408333410122
 30
0.0
 42
-0.0007835518
  0
VERTEX
  5
17DC1
  8
AM_0
 10
126.7756651088748
 20
277.42135333410113
 30
0.0
 42
-0.00074826133
  0
VERTEX
  5
17DC2
  8
AM_0
 10
126.80539510887451
 20
278.03874333410113
 30
0.0
 42
-0.00074893555
  0
VERTEX
  5
17DC3
  8
AM_0
 10
126.83695510887441
 20
278.6558733341011
 30
0.0
 42
-0.00076039841
  0
VERTEX
  5
17DC4
  8
AM_0
 10
126.8703751088746
 20
279.2729033341011
 30
0.0
 42
-0.00075618789
  0
VERTEX
  5
17DC5
  8
AM_0
 10
126.9056751088746
 20
279.8899333341011
 30
0.0
  0
SEQEND
  5
17DC6
  8
AM_0
  0
ARC
  5
17DC7
  8
AM_0
 10
125.4653051088746
 20
271.21574333410109
 30
0.0
 40
1.2650129999999991
 50
89.735579000001778
 51
270.2644099999992
  0
ARC
  5
17DC8
  8
AM_0
 10
126.74576510887481
 20
271.21074333410121
 30
0.0
 40
1.000013899999999
 50
89.691659999999231
 51
270.30834000000078
  0
ARC
  5
17DC9
  8
AM_0
 10
125.5311651088746
 20
281.22075333410112
 30
0.0
 40
1.3300049999999981
 50
90.000003000000945
 51
270.0
  0
ARC
  5
17DCA
  8
AM_0
 10
126.74576510887481
 20
281.21074333410121
 30
0.0
 40
1.000013899999999
 50
89.691659999999231
 51
270.30834000000078
  0
POLYLINE
  5
17DCB
  8
AM_0
 66
     1
 10
0.0
 20
0.0
 30
0.0
  0
VERTEX
  5
17DCC
  8
AM_0
 10
128.0620451088748
 20
292.69377333410108
 30
0.0
 42
-0.00068898283
  0
VERTEX
  5
17DCD
  8
AM_0
 10
128.13292510887459
 20
293.26852333410108
 30
0.0
 42
-0.00070644357
  0
VERTEX
  5
17DCE
  8
AM_0
 10
128.20542510887481
 20
293.84321333410122
 30
0.0
 42
-0.00069248074
  0
VERTEX
  5
17DCF
  8
AM_0
 10
128.27951510887459
 20
294.41752333410108
 30
0.0
 42
-0.0006958566
  0
VERTEX
  5
17DD0
  8
AM_0
 10
128.3551951088748
 20
294.99166333410108
 30
0.0
 42
-0.00071687219
  0
VERTEX
  5
17DD1
  8
AM_0
 10
128.43250510887441
 20
295.56566333410109
 30
0.0
 42
-0.00069760022
  0
VERTEX
  5
17DD2
  8
AM_0
 10
128.5114451088748
 20
296.13945333410118
 30
0.0
 42
-0.00071002302
  0
VERTEX
  5
17DD3
  8
AM_0
 10
128.5919851088747
 20
296.71292333410122
 30
0.0
 42
-0.00069954889
  0
VERTEX
  5
17DD4
  8
AM_0
 10
128.6741251088747
 20
297.28602333410117
 30
0.0
 42
-0.00071887947
  0
VERTEX
  5
17DD5
  8
AM_0
 10
128.75790510887461
 20
297.85905333410119
 30
0.0
 42
-0.00071266929
  0
VERTEX
  5
17DD6
  8
AM_0
 10
128.8433351088747
 20
298.43182333410118
 30
0.0
 42
-0.00071614429
  0
VERTEX
  5
17DD7
  8
AM_0
 10
128.93036510887461
 20
299.00416333410112
 30
0.0
 42
-0.00072288978
  0
VERTEX
  5
17DD8
  8
AM_0
 10
129.0190751088746
 20
299.57646333410111
 30
0.0
  0
SEQEND
  5
17DD9
  8
AM_0
  0
ARC
  5
17DDA
  8
AM_0
 10
125.6611651088747
 20
291.23576333410108
 30
0.0
 40
1.465004
 50
90.000003000000945
 51
270.0
  0
ARC
  5
17DDB
  8
AM_0
 10
126.74576510887481
 20
291.21074333410121
 30
0.0
 40
1.000013899999999
 50
89.691659999999231
 51
270.30834000000078
  0
ARC
  5
17DDC
  8
AM_0
 10
125.8737551088747
 20
301.25578333410112
 30
0.0
 40
1.6750160000000001
 50
89.746145000001221
 51
270.25387000000092
  0
LINE
  5
17DDD
  8
AM_0
 10
116.9011551088747
 20
309.40068333410119
 30
0.0
 11
123.1311351088748
 21
309.40068333410119
 31
0.0
  0
ARC
  5
17DDE
  8
AM_0
 10
126.74576510887481
 20
301.2107433341011
 30
0.0
 40
1.000013899999999
 50
89.691659999999231
 51
270.30834000000078
  0
LINE
  5
17DDF
  8
AM_0
 10
115.2011451088747
 20
316.21074333410121
 30
0.0
 11
116.2011451088747
 21
316.21074333410121
 31
0.0
  0
ARC
  5
17DE0
  8
AM_0
 10
114.69656510887459
 20
316.46537333410117
 30
0.0
 40
0.50463498
 50
270.52383000000037
 51
359.47616999999963
  0
ARC
  5
17DE1
  8
AM_0
 10
114.7028551088747
 20
314.3124233341012
 30
0.0
 40
0.4983060100000002
 50
359.80488999999778
 51
90.195107000000036
  0
LINE
  5
17DE2
  8
AM_0
 10
112.2011451088747
 20
315.7107433341011
 30
0.0
 11
112.2011451088747
 21
315.18071333410109
 31
0.0
  0
ARC
  5
17DE3
  8
AM_0
 10
112.46317510887449
 20
314.96489333410119
 30
0.0
 40
0.9959030199999999
 50
89.541266999999124
 51
119.6071699999986
  0
LINE
  5
17DE4
  8
AM_0
 10
111.9711651088746
 20
315.83070333410109
 30
0.0
 11
110.7012051088745
 21
315.09071333410122
 31
0.0
  0
ARC
  5
17DE5
  8
AM_0
 10
112.4700051088746
 20
312.85649333410112
 30
0.0
 40
0.99427301
 50
89.356066000000013
 51
120.7809100000017
  0
ARC
  5
17DE6
  8
AM_0
 10
112.4259351088747
 20
313.81669333410122
 30
0.0
 40
0.99411702
 50
89.122643999998516
 51
115.93498000000019
  0
LINE
  5
17DE7
  8
AM_0
 10
111.9911251088747
 20
314.71074333410121
 30
0.0
 11
110.75113510887471
 21
314.08073333410118
 31
0.0
  0
ARC
  5
17DE8
  8
AM_0
 10
111.1943751088747
 20
314.22868333410122
 30
0.0
 40
0.99319202
 50
119.77338
 51
179.87958999999799
  0
LINE
  5
17DE9
  8
AM_0
 10
112.4811751088746
 20
313.85075333410128
 30
0.0
 11
115.2011451088747
 21
313.85075333410128
 31
0.0
  0
LINE
  5
17DEA
  8
AM_0
 10
112.4711651088746
 20
315.96074333410121
 30
0.0
 11
114.7011451088747
 21
315.96074333410121
 31
0.0
  0
LINE
  5
17DEB
  8
AM_0
 10
112.4411351088747
 20
314.81071333410108
 30
0.0
 11
114.7011451088747
 21
314.81071333410108
 31
0.0
  0
LINE
  5
17DEC
  8
AM_0
 10
112.4511451088747
 20
312.71074333410121
 30
0.0
 11
114.2011451088747
 21
312.71074333410121
 31
0.0
  0
ARC
  5
17DED
  8
AM_0
 10
112.4362551088748
 20
311.71537333410117
 30
0.0
 40
0.99545902
 50
89.141290999999967
 51
117.2038199999988
  0
ARC
  5
17DEE
  8
AM_0
 10
111.1943751088747
 20
311.05217333410121
 30
0.0
 40
0.9932109699999999
 50
117.7993199999991
 51
180.08187000000001
  0
ARC
  5
17DEF
  8
AM_0
 10
111.1955951088746
 20
312.08976333410112
 30
0.0
 40
0.9944329899999999
 50
121.1521299999998
 51
179.94050999999911
  0
LINE
  5
17DF0
  8
AM_0
 10
111.9811751088746
 20
312.60078333410121
 30
0.0
 11
110.7311751088746
 21
311.9307733341011
 31
0.0
  0
ARC
  5
17DF1
  8
AM_0
 10
114.2021251088745
 20
311.71171333410109
 30
0.0
 40
0.9990100299999999
 50
359.94319000000121
 51
90.056809000000058
  0
LINE
  5
17DF2
  8
AM_0
 10
112.2011451088747
 20
313.61076333410119
 30
0.0
 11
112.2011451088747
 21
313.06071333410108
 31
0.0
  0
ARC
  5
17DF3
  8
AM_0
 10
111.1967551088746
 20
313.19047333410128
 30
0.0
 40
0.995579
 50
116.5870899999978
 51
179.98263999999989
  0
LINE
  5
17DF4
  8
AM_0
 10
111.9610951088748
 20
313.71080333410112
 30
0.0
 11
110.6811251088748
 21
312.94078333410118
 31
0.0
  0
LINE
  5
17DF5
  8
AM_0
 10
124.2011451088747
 20
314.31080333410108
 30
0.0
 11
125.4411351088747
 21
320.8708033341012
 31
0.0
  0
LINE
  5
17DF6
  8
AM_0
 10
124.2012051088745
 20
317.00071333410119
 30
0.0
 11
125.4911851088745
 21
325.4908033341012
 31
0.0
  0
LINE
  5
17DF7
  8
AM_0
 10
124.2012051088745
 20
315.65077333410107
 30
0.0
 11
125.4811751088746
 21
323.66072333410119
 31
0.0
  0
LINE
  5
17DF8
  8
AM_0
 10
124.2011451088747
 20
317.00074333410112
 30
0.0
 11
125.5111451088746
 21
326.38078333410112
 31
0.0
  0
LINE
  5
17DF9
  8
AM_0
 10
116.2011451088747
 20
319.2107433341011
 30
0.0
 11
124.2011451088747
 21
319.2107433341011
 31
0.0
  0
ARC
  5
17DFA
  8
AM_0
 10
127.4876451088746
 20
326.10514333410111
 30
0.0
 40
1.995633
 50
89.899707999999066
 51
172.06112999999951
  0
ARC
  5
17DFB
  8
AM_0
 10
127.4657351088747
 20
325.19401333410121
 30
0.0
 40
1.9967330000000001
 50
89.843966999998912
 51
171.45388000000381
  0
ARC
  5
17DFC
  8
AM_0
 10
127.45139510887471
 20
323.34550333410118
 30
0.0
 40
1.995282999999999
 50
90.00620400000011
 51
170.90835000000069
  0
ARC
  5
17DFD
  8
AM_0
 10
127.3998751088747
 20
320.49662333410117
 30
0.0
 40
1.994108999999999
 50
89.67554799999948
 51
169.18776999999881
  0
ARC
  5
17E02
  8
AM_0
 10
284.19333101771173
 20
298.71074445168819
 30
0.0
 40
5.0
 50
90.0
 51
178.20921582115341
1001
GENIUS_GENOBJ-N-FIL_13
1002
{
1000
OWNER
1000
GEN
1002
}
1001
GENIUS_GENODEF_13
1002
{
1000
HIER
1070
     0
1002
}
1002
{
1000
MANEDIT
1070
     0
1002
}
1002
{
1000
NOSEL
1070
     0
1002
}
1002
{
1000
BEHIND
1070
     0
1002
}
1002
{
1000
OTHER
1070
     0
1002
}
1002
{
1000
REACTOR
1002
}
  0
LINE
  5
17E03
  8
AM_0
 10
253.7072486244997
 20
309.71074333410121
 30
0.0
 11
401.70114510887458
 21
309.71074333410121
 31
0.0
  0
LINE
  5
17E04
  8
AM_0
 10
211.2011451088747
 20
292.70073333410119
 30
0.0
 11
229.2468651088748
 21
292.70073333410119
 31
0.0
  0
LINE
  5
17E05
  8
AM_0
 10
225.5483151088747
 20
292.2107433341011
 30
0.0
 11
211.2011451088747
 21
292.2107433341011
 31
0.0
  0
LINE
  5
17E06
  8
AM_0
 10
211.18118510887459
 20
299.57072333410122
 30
0.0
 11
229.02115510887461
 21
299.57072333410122
 31
0.0
  0
ARC
  5
17E07
  8
AM_0
 10
160.6398651088748
 20
271.21074333410121
 30
0.0
 40
1.0000056999999971
 50
269.999989999999
 51
90.000003000000945
  0
ARC
  5
17E08
  8
AM_0
 10
161.9280751088744
 20
271.22075333410112
 30
0.0
 40
1.2700266
 50
269.62931999999989
 51
90.370669999998213
  0
ARC
  5
17E09
  8
AM_0
 10
160.6398651088748
 20
281.21074333410121
 30
0.0
 40
1.0000056999999971
 50
269.999989999999
 51
90.000003000000945
  0
ARC
  5
17E0A
  8
AM_0
 10
161.86612510887471
 20
281.22575333410123
 30
0.0
 40
1.3350147999999991
 50
269.7304299999999
 51
90.269556000001415
  0
CIRCLE
  5
17E0B
  8
AM_0
 10
199.7011451088747
 20
294.7107433341011
 30
0.0
 40
1.1000000000000001
  0
CIRCLE
  5
17E0C
  8
AM_0
 10
199.7011451088747
 20
294.7107433341011
 30
0.0
 40
1.149999999999999
  0
ARC
  5
17E0D
  8
AM_0
 10
193.2211651088746
 20
298.5707233341011
 30
0.0
 40
1.0
 50
0.0
 51
90.000003000000945
  0
ARC
  5
17E0E
  8
AM_0
 10
193.2011451088747
 20
298.7107433341011
 30
0.0
 40
1.5
 50
0.0
 51
90.000003000000945
  0
LINE
  5
17E0F
  8
AM_0
 10
194.7011451088747
 20
293.71074333410121
 30
0.0
 11
194.7011451088747
 21
298.7107433341011
 31
0.0
  0
ARC
  5
17E10
  8
AM_0
 10
193.2011451088747
 20
293.71074333410121
 30
0.0
 40
1.02
 50
269.999989999999
 51
0.0000006832429909
  0
LINE
  5
17E11
  8
AM_0
 10
194.2211651088746
 20
293.71074333410121
 30
0.0
 11
194.2211651088746
 21
298.5707233341011
 31
0.0
  0
ARC
  5
17E12
  8
AM_0
 10
193.2011451088747
 20
293.71074333410121
 30
0.0
 40
1.5
 50
269.999989999999
 51
0.0000006832495047
  0
ARC
  5
17E13
  8
AM_0
 10
211.18118510887459
 20
298.5707233341011
 30
0.0
 40
1.0
 50
90.000003000000945
 51
180.00001000000091
  0
ARC
  5
17E14
  8
AM_0
 10
211.2011451088747
 20
298.7107433341011
 30
0.0
 40
1.5
 50
90.000003000000945
 51
180.00001000000091
  0
CIRCLE
  5
17E15
  8
AM_0
 10
204.7011451088747
 20
294.7107433341011
 30
0.0
 40
1.0
  0
ARC
  5
17E16
  8
AM_0
 10
211.2011451088747
 20
293.71074333410121
 30
0.0
 40
1.02
 50
179.999989999999
 51
270.0
  0
ARC
  5
17E17
  8
AM_0
 10
211.2011451088747
 20
293.71074333410121
 30
0.0
 40
1.5
 50
179.999989999999
 51
270.0
  0
LINE
  5
17E18
  8
AM_0
 10
210.18118510887459
 20
293.71074333410121
 30
0.0
 11
210.18118510887459
 21
298.5707233341011
 31
0.0
  0
LINE
  5
17E19
  8
AM_0
 10
209.7011451088747
 20
293.71074333410121
 30
0.0
 11
209.7011451088747
 21
298.7107433341011
 31
0.0
  0
ARC
  5
17E1A
  8
AM_0
 10
253.7072486244997
 20
311.71074333410121
 30
0.0
 40
2.0
 50
180.0
 51
270.0
1001
GENIUS_GENOBJ-N-FIL_13
1002
{
1000
OWNER
1000
GEN
1002
}
1001
GENIUS_GENODEF_13
1002
{
1000
HIER
1070
     0
1002
}
1002
{
1000
MANEDIT
1070
     0
1002
}
1002
{
1000
NOSEL
1070
     0
1002
}
1002
{
1000
BEHIND
1070
     0
1002
}
1002
{
1000
OTHER
1070
     0
1002
}
1002
{
1000
REACTOR
1002
}
  0
ARC
  5
17E1B
  8
AM_0
 10
230.3011751088747
 20
558.98583265251125
 30
0.0
 40
1.7000007999999991
 50
90.000020000002039
 51
179.999989999999
  0
LINE
  5
17E1C
  8
AM_0
 10
231.20117510887451
 20
553.38582265251125
 30
0.0
 11
231.20117510887451
 21
560.98583265251125
 31
0.0
  0
LINE
  5
17E1D
  8
AM_0
 10
232.20117510887471
 20
553.38582265251125
 30
0.0
 11
232.20117510887471
 21
560.98583265251125
 31
0.0
  0
ARC
  5
17E1E
  8
AM_0
 10
267.70114540689798
 20
299.7107443324789
 30
0.0
 40
10.00000029802322
 50
90.000002504475205
 51
180.00000500895041
  0
LINE
  5
17E1F
  8
AM_0
 10
240.2011451088747
 20
298.15068333410107
 30
0.0
 11
249.8818954698684
 21
298.15068333410107
 31
0.0
  0
LINE
  5
17E20
  8
AM_0
 10
232.2011451088747
 20
298.15069333410122
 30
0.0
 11
240.2011451088747
 21
298.15069333410122
 31
0.0
  0
ARC
  5
17E21
  8
AM_0
 10
229.24112510887471
 20
291.24077333410122
 30
0.0
 40
1.460011199999999
 50
269.77524999999991
 51
90.224750000000085
  0
ARC
  5
17E22
  8
AM_0
 10
225.54111510887469
 20
291.21074333410121
 30
0.0
 40
1.0000255999999981
 50
269.58947000000001
 51
90.410531000001029
  0
LINE
  5
17E23
  8
AM_0
 10
228.60119510887461
 20
555.38582265251125
 30
0.0
 11
228.60119510887461
 21
558.98583265251125
 31
0.0
  0
LINE
  5
17E24
  8
AM_0
 10
232.20117510887471
 20
556.40847265251125
 30
0.0
 11
231.20117510887451
 21
556.98583265251125
 31
0.0
  0
LINE
  5
17E25
  8
AM_0
 10
232.20117510887471
 20
557.40847265251125
 30
0.0
 11
231.20117510887451
 21
557.98583265251125
 31
0.0
  0
ARC
  5
17E26
  8
AM_0
 10
229.02115510887461
 20
301.25578333410112
 30
0.0
 40
1.6750020000000001
 50
269.999989999999
 51
90.000003000000945
  0
LINE
  5
17E27
  8
AM_0
 10
231.20117510887451
 20
553.68584265251104
 30
0.0
 11
230.3011751088747
 21
553.68584265251104
 31
0.0
  0
ARC
  5
17E28
  8
AM_0
 10
225.54117510887451
 20
301.2107433341011
 30
0.0
 40
1.0
 50
269.999989999999
 51
90.000003000000945
  0
LINE
  5
17E29
  8
AM_0
 10
231.20117510887451
 20
553.38582265251125
 30
0.0
 11
232.20117510887471
 21
553.38582265251125
 31
0.0
  0
ARC
  5
17E2A
  8
AM_0
 10
230.3011751088747
 20
555.38582265251125
 30
0.0
 40
1.699996899999999
 50
180.0000199999954
 51
269.9999969999991
  0
ARC
  5
17E2B
  8
AM_0
 10
268.70114528768858
 20
283.21855872166532
 30
0.0
 40
5.0
 50
91.790784178846565
 51
180.0
1001
GENIUS_GENOBJ-N-FIL_13
1002
{
1000
OWNER
1000
GEN
1002
}
1001
GENIUS_GENODEF_13
1002
{
1000
HIER
1070
     0
1002
}
1002
{
1000
MANEDIT
1070
     0
1002
}
1002
{
1000
NOSEL
1070
     0
1002
}
1002
{
1000
BEHIND
1070
     0
1002
}
1002
{
1000
OTHER
1070
     0
1002
}
1002
{
1000
REACTOR
1002
}
  0
ARC
  5
17E2C
  8
AM_0
 10
268.2011454217992
 20
299.21074431757768
 30
0.0
 40
11.0
 50
271.79078417884648
 51
358.20921582115341
  0
LINE
  5
17E2D
  8
ﾁｭｳｼﾝｾﾝ1
 10
275.70114564531661
 20
299.21074431757768
 30
0.0
 11
260.70114519828172
 21
299.21074431757768
 31
0.0
  0
CIRCLE
  5
17E2E
  8
AM_0
 10
268.2011454217992
 20
299.21074431757768
 30
0.0
 40
4.5000001341104499
  0
LINE
  5
17E2F
  8
ﾁｭｳｼﾝｾﾝ1
 10
268.2011454217992
 20
306.71074454109521
 30
0.0
 11
268.2011454217992
 21
291.71074409406037
 31
0.0
  0
LINE
  5
17E30
  8
AM_0
 10
240.2011451088747
 20
312.21074333410121
 30
0.0
 11
251.7072486244997
 21
312.21074333410121
 31
0.0
  0
LINE
  5
17E31
  8
AM_0
 10
240.2011451088747
 20
322.21074333410121
 30
0.0
 11
249.7072486244997
 21
322.21074333410093
 31
0.0
  0
LINE
  5
17E32
  8
AM_0
 10
232.2011451088747
 20
322.21074333410121
 30
0.0
 11
240.2011451088747
 21
322.21074333410121
 31
0.0
  0
LINE
  5
17E33
  8
AM_0
 10
232.2011451088747
 20
312.21074333410121
 30
0.0
 11
240.2011451088747
 21
312.21074333410121
 31
0.0
  0
LINE
  5
17E34
  8
AM_0
 10
229.0365289361624
 20
310.64684453275868
 30
0.0
 11
226.26120510887449
 21
321.01072333410121
 31
0.0
  0
LINE
  5
17E35
  8
AM_0
 10
230.14603296477151
 20
311.20364294266039
 30
0.0
 11
226.26114510887459
 21
325.7107433341011
 31
0.0
  0
LINE
  5
17E36
  8
AM_0
 10
229.6801824322639
 20
311.09326550573519
 30
0.0
 11
226.26114510887459
 21
323.86079333410112
 31
0.0
  0
LINE
  5
17E37
  8
AM_0
 10
230.40689510887481
 20
311.13963333410118
 30
0.0
 11
226.2611751088746
 21
326.62074333410112
 31
0.0
  0
LINE
  5
17E38
  8
AM_0
 10
231.20117510887451
 20
560.68584265251116
 30
0.0
 11
230.3011751088747
 21
560.68584265251116
 31
0.0
  0
LINE
  5
17E39
  8
AM_0
 10
228.24551506899371
 20
319.2107433341011
 30
0.0
 11
232.2011451088747
 21
319.2107433341011
 31
0.0
  0
LINE
  5
17E3A
  8
AM_0
 10
231.20117510887451
 20
560.98583265251125
 30
0.0
 11
232.20117510887471
 21
560.98583265251125
 31
0.0
  0
ARC
  5
17E3B
  8
AM_0
 10
224.3263251088747
 20
325.18596333410107
 30
0.0
 40
2.0047290000000002
 50
15.173495999996531
 51
89.861678000000197
  0
ARC
  5
17E3C
  8
AM_0
 10
224.3263251088747
 20
323.33598333410112
 30
0.0
 40
2.0047290000000002
 50
15.173495999996531
 51
89.861678000000197
  0
ARC
  5
17E3D
  8
AM_0
 10
224.3263251088747
 20
326.09599333410108
 30
0.0
 40
2.0047290000000002
 50
15.173495999996531
 51
89.861678000000197
  0
ARC
  5
17E3E
  8
AM_0
 10
224.33127510887471
 20
320.49247333410119
 30
0.0
 40
1.9982919999999991
 50
15.03254799999611
 51
90.002632000001341
  0
ARC
  5
17E3F
  8
AM_0
 10
249.7072486244997
 20
320.21074333410093
 30
0.0
 40
2.0
 50
0.0
 51
90.0
1001
GENIUS_GENOBJ-N-FIL_13
1002
{
1000
OWNER
1000
GEN
1002
}
1001
GENIUS_GENODEF_13
1002
{
1000
HIER
1070
     0
1002
}
1002
{
1000
MANEDIT
1070
     0
1002
}
1002
{
1000
NOSEL
1070
     0
1002
}
1002
{
1000
BEHIND
1070
     0
1002
}
1002
{
1000
OTHER
1070
     0
1002
}
1002
{
1000
REACTOR
1002
}
  0
LINE
  5
17E41
  8
AM_0
 10
284.19333101771173
 20
303.7107444516883
 30
0.0
 11
385.20896378959583
 21
303.7107444516883
 31
0.0
  0
ARC
  5
17E43
  8
AM_0
 10
401.70114940040912
 20
299.7107443324789
 30
0.0
 40
10.00000029802322
 50
0.0
 51
90.000002504475205
  0
ARC
  5
17E44
  8
AM_0
 10
400.7011495196183
 20
283.21855872166532
 30
0.0
 40
5.0
 50
0.0
 51
88.209215821153435
1001
GENIUS_GENOBJ-N-FIL_13
1002
{
1000
OWNER
1000
GEN
1002
}
1001
GENIUS_GENODEF_13
1002
{
1000
HIER
1070
     0
1002
}
1002
{
1000
MANEDIT
1070
     0
1002
}
1002
{
1000
NOSEL
1070
     0
1002
}
1002
{
1000
BEHIND
1070
     0
1002
}
1002
{
1000
OTHER
1070
     0
1002
}
1002
{
1000
REACTOR
1002
}
  0
ARC
  5
17E45
  8
AM_0
 10
401.20114938550819
 20
299.21074431757768
 30
0.0
 40
11.0
 50
181.79078417884651
 51
268.20921582115352
  0
CIRCLE
  5
17E46
  8
AM_0
 10
401.20114938550819
 20
299.21074431757768
 30
0.0
 40
4.5000001341104499
  0
LINE
  5
17E47
  8
ﾁｭｳｼﾝｾﾝ1
 10
393.70114916199049
 20
299.21074431757768
 30
0.0
 11
408.70114960902561
 21
299.21074431757768
 31
0.0
  0
ARC
  5
17E48
  8
AM_0
 10
385.20896378959583
 20
298.71074445168807
 30
0.0
 40
5.0
 50
1.7907841788466039
 51
90.0
1001
GENIUS_GENOBJ-N-FIL_13
1002
{
1000
OWNER
1000
GEN
1002
}
1001
GENIUS_GENODEF_13
1002
{
1000
HIER
1070
     0
1002
}
1002
{
1000
MANEDIT
1070
     0
1002
}
1002
{
1000
NOSEL
1070
     0
1002
}
1002
{
1000
BEHIND
1070
     0
1002
}
1002
{
1000
OTHER
1070
     0
1002
}
1002
{
1000
REACTOR
1002
}
  0
LINE
  5
17E49
  8
ﾁｭｳｼﾝｾﾝ1
 10
401.20114938550819
 20
306.71074454109521
 30
0.0
 11
401.20114938550819
 21
291.71074409406037
 31
0.0
  0
LINE
  5
17E4C
  8
AM_0
 10
678.36786124660273
 20
287.2107439599497
 30
0.0
 11
678.36786124660273
 21
212.21074172477569
 31
0.0
  0
LINE
  5
17E4E
  8
AM_0
 10
580.36785832597513
 20
287.2107439599497
 30
0.0
 11
580.36785832597513
 21
212.21074172477569
 31
0.0
  0
ARC
  5
17E4F
  8
AM_0
 10
629.36785978628893
 20
266.21074284236278
 30
0.0
 40
56.5
 50
2.3832490322986239
 51
35.018628262081577
  0
LINE
  5
17E50
  8
AM_0
 10
654.36786073996325
 20
309.71074463050172
 30
0.0
 11
654.36786073996325
 21
189.71074105422349
 31
0.0
  0
LINE
  5
17E51
  8
AM_0
 10
674.3678611273931
 20
190.05986215473609
 30
0.0
 11
674.36786112739344
 21
309.36162352998952
 31
0.0
  0
LINE
  5
17E52
  8
AM_0
 10
584.3678584451842
 20
308.48887624882701
 30
0.0
 11
584.36785844518431
 21
190.9325816926449
 31
0.0
  0
ARC
  5
17E54
  8
AM_0
 10
629.36785978628893
 20
266.21074284236278
 30
0.0
 40
56.5
 50
144.98137173791841
 51
177.61675096770151
  0
LINE
  5
17E55
  8
ﾁｭｳｼﾝｾﾝ1
 10
629.36785978628893
 20
168.71074284236261
 30
0.0
 11
629.36785978628893
 21
332.71074284236278
 31
0.0
  0
LINE
  5
17E57
  8
AM_0
 10
600.86785978628848
 20
176.71074284236281
 30
0.0
 11
657.8678597862887
 21
176.71074284236261
 31
0.0
  0
LINE
  5
17E58
  8
AM_0
 10
654.36786073996325
 20
189.71074105422349
 30
0.0
 11
584.3678584451842
 21
190.9325816926449
 31
0.0
  0
LINE
  5
17E59
  8
ｶｸﾚｾﾝ2
 10
584.3678584451842
 20
204.7107415012583
 30
0.0
 11
674.3678611273931
 21
204.7107415012583
 31
0.0
  0
LINE
  5
17E5A
  8
ｶｸﾚｾﾝ2
 10
584.3678584451842
 20
195.7107412330374
 30
0.0
 11
674.3678611273931
 21
195.7107412330374
 31
0.0
  0
LINE
  5
17E5B
  8
ﾁｭｳｼﾝｾﾝ1
 10
581.36785844518408
 20
200.2107413671479
 30
0.0
 11
677.36786112739321
 21
200.2107413671479
 31
0.0
  0
LINE
  5
17E5C
  8
ﾁｭｳｼﾝｾﾝ1
 10
516.87132792434886
 20
249.71074284236289
 30
0.0
 11
741.86439164822855
 21
249.71074284236289
 31
0.0
  0
LINE
  5
17E5D
  8
ﾁｭｳｼﾝｾﾝ1
 10
565.79836509165034
 20
266.21074333410121
 30
0.0
 11
692.93735448092741
 21
266.21074333410121
 31
0.0
  0
LINE
  5
17E5E
  8
AM_0
 10
646.67165978628873
 20
173.71074284236261
 30
0.0
 11
612.06395978628848
 21
173.71074284236261
 31
0.0
  0
LINE
  5
17E5F
  8
AM_0
 10
599.3678597862887
 20
190.6707586838719
 30
0.0
 11
599.3678597862887
 21
178.21074284236281
 31
0.0
  0
LINE
  5
17E60
  8
AM_0
 10
612.06395978628848
 20
173.71074284236261
 30
0.0
 11
606.8678597862887
 21
176.71074284236261
 31
0.0
  0
ARC
  5
17E61
  8
AM_0
 10
600.86785978628893
 20
178.21074284236281
 30
0.0
 40
1.5
 50
180.0
 51
270.0
  0
LINE
  5
17E78
  8
AM_0
 10
596.3678597862887
 20
181.71074284236281
 30
0.0
 11
596.3678597862887
 21
190.7231232809448
 31
0.0
  0
LINE
  5
17E79
  8
AM_0
 10
597.8678597862887
 20
180.71074284236281
 30
0.0
 11
597.8678597862887
 21
190.69694098240839
 31
0.0
  0
LINE
  5
17E7A
  8
AM_0
 10
599.3678597862887
 20
180.71074284236281
 30
0.0
 11
597.8678597862887
 21
180.71074284236281
 31
0.0
  0
LINE
  5
17E7B
  8
AM_0
 10
597.8678597862887
 20
181.71074284236281
 30
0.0
 11
596.3678597862887
 21
181.71074284236281
 31
0.0
  0
LINE
  5
17E7C
  8
AM_0
 10
584.3678584451842
 20
212.21074172477569
 30
0.0
 11
580.36785832597513
 21
212.21074172477569
 31
0.0
  0
LINE
  5
17E7D
  8
AM_0
 10
659.36785978628848
 20
189.79801930110281
 30
0.0
 11
659.36785978628848
 21
178.21074284236261
 31
0.0
  0
LINE
  5
17E7E
  8
AM_0
 10
651.87072520684785
 20
176.71074284236261
 30
0.0
 11
646.67165978628873
 21
173.71074284236261
 31
0.0
  0
ARC
  5
17E7F
  8
AM_0
 10
657.86785978628893
 20
178.21074284236261
 30
0.0
 40
1.5
 50
270.0
 51
0.0
  0
LINE
  5
17E80
  8
AM_0
 10
660.86785978628893
 20
181.71074284236261
 30
0.0
 11
662.36785978628893
 21
181.71074284236261
 31
0.0
  0
LINE
  5
17E81
  8
AM_0
 10
674.3678611273931
 20
190.05986215473609
 30
0.0
 11
654.36786073996325
 21
189.71074105422349
 31
0.0
  0
LINE
  5
17E82
  8
AM_0
 10
660.8678597862887
 20
180.71074284236261
 30
0.0
 11
659.36785978628848
 21
180.71074284236261
 31
0.0
  0
LINE
  5
17E83
  8
AM_0
 10
660.8678597862887
 20
189.82420223872481
 30
0.0
 11
660.8678597862887
 21
180.71074284236261
 31
0.0
  0
LINE
  5
17E84
  8
AM_0
 10
662.36785978628893
 20
181.71074284236261
 30
0.0
 11
662.36785978628893
 21
189.85038517634709
 31
0.0
  0
LINE
  5
17E85
  8
AM_0
 10
674.3678611273931
 20
212.21074172477569
 30
0.0
 11
678.36786124660273
 21
212.21074172477569
 31
0.0
  0
ARC
  5
17E9F
  8
AM_0
 10
644.3977163153362
 20
326.17910252863248
 30
0.0
 40
1.0
 50
1.999999999997129
 51
82.146821911194223
1001
GENIUS_GENODEF_13
1002
{
1000
HIER
1070
     0
1002
}
1002
{
1000
MANEDIT
1070
     0
1002
}
1002
{
1000
NOSEL
1070
     0
1002
}
1002
{
1000
BEHIND
1070
     0
1002
}
1002
{
1000
REACTOR
1002
}
1001
GENIUS_GENOBJ-N-FIL_13
1002
{
1000
OWNER
1000
GEN
1002
}
  0
ARC
  5
17EA0
  8
AM_0
 10
629.36785978628893
 20
266.21074284236278
 30
0.0
 40
56.5
 50
55.136162045695542
 51
124.8638379543044
  0
LINE
  5
17EA1
  8
AM_0
 10
654.36786073996325
 20
309.71074463050218
 30
0.0
 11
584.3678584451842
 21
308.48887624882678
 31
0.0
  0
LINE
  5
17EA2
  8
ｶｸﾚｾﾝ2
 10
584.3678584451842
 20
303.7107444516883
 30
0.0
 11
674.3678611273931
 21
303.7107444516883
 31
0.0
  0
LINE
  5
17EA3
  8
ｶｸﾚｾﾝ2
 10
584.3678584451842
 20
294.7107441834674
 30
0.0
 11
674.3678611273931
 21
294.7107441834674
 31
0.0
  0
LINE
  5
17EA4
  8
ﾁｭｳｼﾝｾﾝ1
 10
581.36785844518408
 20
299.21074431757768
 30
0.0
 11
677.36786112739321
 21
299.21074431757768
 31
0.0
  0
LINE
  5
17EA8
  8
AM_0
 10
571.2178900887501
 20
292.23735356832208
 30
0.0
 11
579.36816518885576
 21
292.52196744638718
 31
0.0
  0
LINE
  5
17EA9
  8
AM_0
 10
574.03390450911854
 20
300.164276975966
 30
0.0
 11
583.36785978628893
 21
299.83832807528552
 31
0.0
  0
LINE
  5
17EAA
  8
AM_0
 10
574.05798841345882
 20
302.23484266507171
 30
0.0
 11
583.36785978628893
 21
302.5599505372802
 31
0.0
  0
LINE
  5
17EAC
  8
AM_0
 10
568.44814666017226
 20
272.24280032126131
 30
0.0
 11
573.20888006517805
 21
272.40904879510907
 31
0.0
  0
LINE
  5
17EAD
  8
AM_0
 10
568.44503648171155
 20
270.17564463310691
 30
0.0
 11
572.99619510948583
 21
270.01671467174629
 31
0.0
  0
ARC
  5
17EAE
  8
AM_0
 10
568.47993597841446
 20
271.1750354601258
 30
0.0
 40
1.0
 50
177.41336677122669
 51
267.99999999999631
1001
GENIUS_GENODEF_13
1002
{
1000
HIER
1070
     0
1002
}
1002
{
1000
MANEDIT
1070
     0
1002
}
1002
{
1000
NOSEL
1070
     0
1002
}
1002
{
1000
BEHIND
1070
     0
1002
}
1002
{
1000
REACTOR
1002
}
1001
GENIUS_GENOBJ-N-FIL_13
1002
{
1000
OWNER
1000
GEN
1002
}
  0
ARC
  5
17EAF
  8
AM_0
 10
678.36785978628893
 20
266.21074284236278
 30
0.0
 40
111.0
 50
177.37771591204699
 51
177.41336677122021
  0
ARC
  5
17EB0
  8
AM_0
 10
568.48304615687482
 20
271.24340949424209
 30
0.0
 40
1.0
 50
92.000000000003666
 51
177.37771591204699
1001
GENIUS_GENODEF_13
1002
{
1000
HIER
1070
     0
1002
}
1002
{
1000
MANEDIT
1070
     0
1002
}
1002
{
1000
NOSEL
1070
     0
1002
}
1002
{
1000
BEHIND
1070
     0
1002
}
1002
{
1000
REACTOR
1002
}
1001
GENIUS_GENOBJ-N-FIL_13
1002
{
1000
OWNER
1000
GEN
1002
}
  0
LINE
  5
17EB1
  8
AM_0
 10
569.36460060331672
 20
282.23999019842893
 30
0.0
 11
575.25056494026569
 21
282.44553260227627
 31
0.0
  0
LINE
  5
17EB2
  8
AM_0
 10
569.35511845094311
 20
280.17230078845608
 30
0.0
 11
574.57387761686903
 21
279.99005770259009
 31
0.0
  0
ARC
  5
17EB3
  8
AM_0
 10
569.39950010001917
 20
281.24059937140959
 30
0.0
 40
1.0
 50
91.999999999997186
 51
172.14682191119391
1001
GENIUS_GENODEF_13
1002
{
1000
HIER
1070
     0
1002
}
1002
{
1000
MANEDIT
1070
     0
1002
}
1002
{
1000
NOSEL
1070
     0
1002
}
1002
{
1000
BEHIND
1070
     0
1002
}
1002
{
1000
REACTOR
1002
}
1001
GENIUS_GENOBJ-N-FIL_13
1002
{
1000
OWNER
1000
GEN
1002
}
  0
ARC
  5
17EB4
  8
AM_0
 10
678.36785978628893
 20
266.21074284236278
 30
0.0
 40
111.0
 50
172.14682191118729
 51
172.18305216830541
  0
ARC
  5
17EB5
  8
AM_0
 10
569.39001794764556
 20
281.17169161547508
 30
0.0
 40
1.0
 50
172.18305216830541
 51
267.99999999999631
1001
GENIUS_GENODEF_13
1002
{
1000
HIER
1070
     0
1002
}
1002
{
1000
MANEDIT
1070
     0
1002
}
1002
{
1000
NOSEL
1070
     0
1002
}
1002
{
1000
BEHIND
1070
     0
1002
}
1002
{
1000
REACTOR
1002
}
1001
GENIUS_GENOBJ-N-FIL_13
1002
{
1000
OWNER
1000
GEN
1002
}
  0
LINE
  5
17EB6
  8
AM_0
 10
575.36785978628893
 20
300.1176942312199
 30
0.0
 11
575.36785978628893
 21
292.38227370352752
 31
0.0
  0
ARC
  5
17EB7
  8
AM_0
 10
571.25278958545277
 20
291.23796274130268
 30
0.0
 40
1.0
 50
91.999999999997186
 51
166.84888173935161
1001
GENIUS_GENODEF_13
1002
{
1000
HIER
1070
     0
1002
}
1002
{
1000
MANEDIT
1070
     0
1002
}
1002
{
1000
NOSEL
1070
     0
1002
}
1002
{
1000
BEHIND
1070
     0
1002
}
1002
{
1000
REACTOR
1002
}
1001
GENIUS_GENOBJ-N-FIL_13
1002
{
1000
OWNER
1000
GEN
1002
}
  0
ARC
  5
17EB8
  8
AM_0
 10
571.23645485112945
 20
291.1679477463374
 30
0.0
 40
1.0
 50
166.88632985670111
 51
267.99999999999631
1001
GENIUS_GENODEF_13
1002
{
1000
HIER
1070
     0
1002
}
1002
{
1000
MANEDIT
1070
     0
1002
}
1002
{
1000
NOSEL
1070
     0
1002
}
1002
{
1000
BEHIND
1070
     0
1002
}
1002
{
1000
REACTOR
1002
}
1001
GENIUS_GENOBJ-N-FIL_13
1002
{
1000
OWNER
1000
GEN
1002
}
  0
ARC
  5
17EB9
  8
AM_0
 10
678.36785978628893
 20
266.21074284236278
 30
0.0
 40
111.0
 50
166.84888173935161
 51
166.88632985670111
  0
LINE
  5
17EBA
  8
AM_0
 10
571.20155535442723
 20
290.16855691931852
 30
0.0
 11
578.08690572816874
 21
289.92811518604708
 31
0.0
  0
ARC
  5
17EBB
  8
AM_0
 10
574.06880400582122
 20
301.16366780298472
 30
0.0
 40
1.0
 50
161.47285768553141
 51
267.99999999999631
1001
GENIUS_GENODEF_13
1002
{
1000
HIER
1070
     0
1002
}
1002
{
1000
MANEDIT
1070
     0
1002
}
1002
{
1000
NOSEL
1070
     0
1002
}
1002
{
1000
BEHIND
1070
     0
1002
}
1002
{
1000
REACTOR
1002
}
1001
GENIUS_GENOBJ-N-FIL_13
1002
{
1000
OWNER
1000
GEN
1002
}
  0
ARC
  5
17EBC
  8
AM_0
 10
678.36785978628893
 20
266.21074284236278
 30
0.0
 40
111.0
 50
161.43341919810359
 51
161.47285768553141
  0
ARC
  5
17EBD
  8
AM_0
 10
574.09288791016127
 20
301.23545183805231
 30
0.0
 40
1.0
 50
92.000000000003666
 51
161.43341919809691
1001
GENIUS_GENODEF_13
1002
{
1000
HIER
1070
     0
1002
}
1002
{
1000
MANEDIT
1070
     0
1002
}
1002
{
1000
NOSEL
1070
     0
1002
}
1002
{
1000
BEHIND
1070
     0
1002
}
1002
{
1000
REACTOR
1002
}
1001
GENIUS_GENOBJ-N-FIL_13
1002
{
1000
OWNER
1000
GEN
1002
}
  0
ARC
  5
17EBE
  8
AM_0
 10
588.36785978628893
 20
307.21074284236278
 30
0.0
 40
5.0
 50
90.0
 51
180.0
1001
GENIUS_GENOBJ-N-CEN_13
1002
{
1000
OWNER
1000
GEN
1002
}
1001
GENIUS_GENODEF_13
1002
{
1000
HIER
1070
     0
1002
}
1002
{
1000
MANEDIT
1070
     0
1002
}
1002
{
1000
NOSEL
1070
     0
1002
}
1002
{
1000
BEHIND
1070
     0
1002
}
1002
{
1000
REACTOR
1002
}
1001
GENIUS_GENOBJ-N-FIL_13
1002
{
1000
OWNER
1000
GEN
1002
}
  0
LINE
  5
17EBF
  8
AM_0
 10
584.3678584451842
 20
287.2107439599497
 30
0.0
 11
580.36785832597513
 21
287.2107439599497
 31
0.0
  0
ARC
  5
17EC0
  8
AM_0
 10
581.86785978628893
 20
299.49362132364757
 30
0.0
 40
1.5
 50
324.98137173791167
 51
0.0
1001
GENIUS_GENODEF_13
1002
{
1000
HIER
1070
     0
1002
}
1002
{
1000
MANEDIT
1070
     0
1002
}
1002
{
1000
NOSEL
1070
     0
1002
}
1002
{
1000
BEHIND
1070
     0
1002
}
1002
{
1000
REACTOR
1002
}
1001
GENIUS_GENOBJ-N-FIL_13
1002
{
1000
OWNER
1000
GEN
1002
}
  0
LINE
  5
17EC1
  8
AM_0
 10
583.36785978628893
 20
299.49362132364791
 30
0.0
 11
583.36785978628893
 21
307.21074284236278
 31
0.0
1001
GENIUS_GENODEF_13
1002
{
1000
HIER
1070
     0
1002
}
1002
{
1000
MANEDIT
1070
     0
1002
}
1002
{
1000
NOSEL
1070
     0
1002
}
1002
{
1000
BEHIND
1070
     0
1002
}
1002
{
1000
REACTOR
1002
}
1001
GENIUS_GENOBJ-N-CEN_13
1002
{
1000
OWNER
1000
GEN
1002
}
  0
LINE
  5
17EC2
  8
AM_0
 10
588.36785978628893
 20
312.21074284236278
 30
0.0
 11
595.92761457187703
 21
312.21074284236278
 31
0.0
  0
ARC
  5
17EC3
  8
AM_0
 10
594.41493482566625
 20
321.5097986228302
 30
0.0
 40
1.0
 50
1.999999999997129
 51
108.5271423144744
1001
GENIUS_GENODEF_13
1002
{
1000
HIER
1070
     0
1002
}
1002
{
1000
MANEDIT
1070
     0
1002
}
1002
{
1000
NOSEL
1070
     0
1002
}
1002
{
1000
BEHIND
1070
     0
1002
}
1002
{
1000
REACTOR
1002
}
1001
GENIUS_GENOBJ-N-FIL_13
1002
{
1000
OWNER
1000
GEN
1002
}
  0
LINE
  5
17EC4
  8
AM_0
 10
593.34375996357949
 20
321.52061421519278
 30
0.0
 11
593.01865209137145
 21
312.21074284236278
 31
0.0
  0
ARC
  5
17EC5
  8
AM_0
 10
629.36785978628893
 20
217.21074284236289
 30
0.0
 40
111.0
 50
108.5271423144744
 51
108.566580801896
  0
ARC
  5
17EC6
  8
AM_0
 10
594.34315079059922
 20
321.48571471849039
 30
0.0
 40
1.0
 50
108.5665808019029
 51
177.99999999999631
1001
GENIUS_GENODEF_13
1002
{
1000
HIER
1070
     0
1002
}
1002
{
1000
MANEDIT
1070
     0
1002
}
1002
{
1000
NOSEL
1070
     0
1002
}
1002
{
1000
BEHIND
1070
     0
1002
}
1002
{
1000
REACTOR
1002
}
1001
GENIUS_GENOBJ-N-FIL_13
1002
{
1000
OWNER
1000
GEN
1002
}
  0
LINE
  5
17EC7
  8
AM_0
 10
603.34124906032946
 20
324.36071253990173
 30
0.0
 11
603.05663518226413
 21
316.21043743979578
 31
0.0
  0
LINE
  5
17EC8
  8
AM_0
 10
605.41004570933285
 20
324.37704727422442
 30
0.0
 11
605.65048744260434
 21
317.49169690048308
 31
0.0
  0
LINE
  5
17EC9
  8
AM_0
 10
595.41432565268565
 20
321.544698119533
 30
0.0
 11
595.73996646796866
 21
312.21956525382387
 31
0.0
  0
ARC
  5
17ECA
  8
AM_0
 10
595.92761457187703
 20
314.21074284236278
 30
0.0
 40
2.0
 50
270.0
 51
304.86383795430407
1001
GENIUS_GENOBJ-N-FIL_13
1002
{
1000
OWNER
1000
GEN
1002
}
1001
GENIUS_GENODEF_13
1002
{
1000
HIER
1070
     0
1002
}
1002
{
1000
MANEDIT
1070
     0
1002
}
1002
{
1000
NOSEL
1070
     0
1002
}
1002
{
1000
BEHIND
1070
     0
1002
}
1002
{
1000
OTHER
1070
     0
1002
}
1002
{
1000
REACTOR
1002
}
  0
ARC
  5
17ECB
  8
AM_0
 10
604.34063988734863
 20
324.3258130431991
 30
0.0
 40
1.0
 50
103.15111826065571
 51
178.00000000000281
1001
GENIUS_GENODEF_13
1002
{
1000
HIER
1070
     0
1002
}
1002
{
1000
MANEDIT
1070
     0
1002
}
1002
{
1000
NOSEL
1070
     0
1002
}
1002
{
1000
BEHIND
1070
     0
1002
}
1002
{
1000
REACTOR
1002
}
1001
GENIUS_GENOBJ-N-FIL_13
1002
{
1000
OWNER
1000
GEN
1002
}
  0
ARC
  5
17ECC
  8
AM_0
 10
604.41065488231413
 20
324.34214777752157
 30
0.0
 40
1.0
 50
2.0000000000036522
 51
103.11367014329829
1001
GENIUS_GENODEF_13
1002
{
1000
HIER
1070
     0
1002
}
1002
{
1000
MANEDIT
1070
     0
1002
}
1002
{
1000
NOSEL
1070
     0
1002
}
1002
{
1000
BEHIND
1070
     0
1002
}
1002
{
1000
REACTOR
1002
}
1001
GENIUS_GENOBJ-N-FIL_13
1002
{
1000
OWNER
1000
GEN
1002
}
  0
ARC
  5
17ECD
  8
AM_0
 10
629.36785978628893
 20
217.21074284236289
 30
0.0
 40
111.0
 50
103.11367014329829
 51
103.15111826065571
  0
LINE
  5
17ECE
  8
AM_0
 10
613.3386124302225
 20
326.21400202533511
 30
0.0
 11
613.13307002637521
 21
320.3280376883859
 31
0.0
  0
ARC
  5
17ECF
  8
AM_0
 10
629.36785978628893
 20
217.21074284236289
 30
0.0
 40
111.0
 50
97.816947831694975
 51
97.853178088805777
  0
ARC
  5
17ED0
  8
AM_0
 10
614.33800325724155
 20
326.17910252863248
 30
0.0
 40
1.0
 50
97.853178088805777
 51
178.00000000000281
1001
GENIUS_GENODEF_13
1002
{
1000
HIER
1070
     0
1002
}
1002
{
1000
MANEDIT
1070
     0
1002
}
1002
{
1000
NOSEL
1070
     0
1002
}
1002
{
1000
BEHIND
1070
     0
1002
}
1002
{
1000
REACTOR
1002
}
1001
GENIUS_GENOBJ-N-FIL_13
1002
{
1000
OWNER
1000
GEN
1002
}
  0
ARC
  5
17ED1
  8
AM_0
 10
614.40691101317611
 20
326.18858468100569
 30
0.0
 40
1.0
 50
1.999999999997129
 51
97.816947831694975
1001
GENIUS_GENODEF_13
1002
{
1000
HIER
1070
     0
1002
}
1002
{
1000
MANEDIT
1070
     0
1002
}
1002
{
1000
NOSEL
1070
     0
1002
}
1002
{
1000
BEHIND
1070
     0
1002
}
1002
{
1000
REACTOR
1002
}
1001
GENIUS_GENOBJ-N-FIL_13
1002
{
1000
OWNER
1000
GEN
1002
}
  0
LINE
  5
17ED2
  8
AM_0
 10
615.4063018401954
 20
326.2234841777086
 30
0.0
 11
615.58854492606156
 21
321.0047250117828
 31
0.0
  0
ARC
  5
17ED3
  8
AM_0
 10
624.33519313440945
 20
327.09555647177672
 30
0.0
 40
1.0
 50
92.622284087953005
 51
178.00000000000281
1001
GENIUS_GENODEF_13
1002
{
1000
HIER
1070
     0
1002
}
1002
{
1000
MANEDIT
1070
     0
1002
}
1002
{
1000
NOSEL
1070
     0
1002
}
1002
{
1000
BEHIND
1070
     0
1002
}
1002
{
1000
REACTOR
1002
}
1001
GENIUS_GENOBJ-N-FIL_13
1002
{
1000
OWNER
1000
GEN
1002
}
  0
ARC
  5
17ED4
  8
AM_0
 10
624.40356716852523
 20
327.09866665023719
 30
0.0
 40
1.0
 50
2.0000000000036522
 51
92.586633228773294
1001
GENIUS_GENODEF_13
1002
{
1000
HIER
1070
     0
1002
}
1002
{
1000
MANEDIT
1070
     0
1002
}
1002
{
1000
NOSEL
1070
     0
1002
}
1002
{
1000
BEHIND
1070
     0
1002
}
1002
{
1000
REACTOR
1002
}
1001
GENIUS_GENOBJ-N-FIL_13
1002
{
1000
OWNER
1000
GEN
1002
}
  0
LINE
  5
17ED5
  8
AM_0
 10
623.33580230739051
 20
327.13045596847923
 30
0.0
 11
623.16955383354241
 21
322.36972256347372
 31
0.0
  0
LINE
  5
17ED6
  8
AM_0
 10
625.40295799554463
 20
327.13356614693981
 30
0.0
 11
625.56188795690548
 21
322.58240751916583
 31
0.0
  0
ARC
  5
17ED7
  8
AM_0
 10
634.40052643816841
 20
327.09555647177672
 30
0.0
 40
1.0
 50
1.999999999997129
 51
87.37771591204698
1001
GENIUS_GENODEF_13
1002
{
1000
HIER
1070
     0
1002
}
1002
{
1000
MANEDIT
1070
     0
1002
}
1002
{
1000
NOSEL
1070
     0
1002
}
1002
{
1000
BEHIND
1070
     0
1002
}
1002
{
1000
REACTOR
1002
}
1001
GENIUS_GENOBJ-N-FIL_13
1002
{
1000
OWNER
1000
GEN
1002
}
  0
ARC
  5
17ED8
  8
AM_0
 10
634.33215240405241
 20
327.09866665023719
 30
0.0
 40
1.0
 50
87.413366771226706
 51
177.99999999999631
1001
GENIUS_GENODEF_13
1002
{
1000
HIER
1070
     0
1002
}
1002
{
1000
MANEDIT
1070
     0
1002
}
1002
{
1000
NOSEL
1070
     0
1002
}
1002
{
1000
BEHIND
1070
     0
1002
}
1002
{
1000
REACTOR
1002
}
1001
GENIUS_GENOBJ-N-FIL_13
1002
{
1000
OWNER
1000
GEN
1002
}
  0
LINE
  5
17ED9
  8
AM_0
 10
635.39991726518736
 20
327.13045596847923
 30
0.0
 11
635.56616573903545
 21
322.36972256347372
 31
0.0
  0
LINE
  5
17EDA
  8
AM_0
 10
633.33276157703324
 20
327.13356614693981
 30
0.0
 11
633.17383161567216
 21
322.58240751916583
 31
0.0
  0
ARC
  5
17EDB
  8
AM_0
 10
629.36785978628893
 20
217.21074284236289
 30
0.0
 40
111.0
 50
82.146821911194223
 51
82.183052168305053
  0
ARC
  5
17EDC
  8
AM_0
 10
644.32880855940164
 20
326.18858468100569
 30
0.0
 40
1.0
 50
82.183052168305053
 51
178.00000000000281
1001
GENIUS_GENODEF_13
1002
{
1000
HIER
1070
     0
1002
}
1002
{
1000
MANEDIT
1070
     0
1002
}
1002
{
1000
NOSEL
1070
     0
1002
}
1002
{
1000
BEHIND
1070
     0
1002
}
1002
{
1000
REACTOR
1002
}
1001
GENIUS_GENOBJ-N-FIL_13
1002
{
1000
OWNER
1000
GEN
1002
}
  0
LINE
  5
17EDD
  8
AM_0
 10
643.32941773238247
 20
326.2234841777086
 30
0.0
 11
643.14717464651596
 21
321.0047250117828
 31
0.0
  0
ARC
  5
17EE0
  8
AM_0
 10
670.36785978628893
 20
307.21074284236278
 30
0.0
 40
5.0
 50
0.0
 51
90.0
1001
GENIUS_GENODEF_13
1002
{
1000
HIER
1070
     0
1002
}
1002
{
1000
MANEDIT
1070
     0
1002
}
1002
{
1000
NOSEL
1070
     0
1002
}
1002
{
1000
BEHIND
1070
     0
1002
}
1002
{
1000
REACTOR
1002
}
1001
GENIUS_GENOBJ-N-FIL_13
1002
{
1000
OWNER
1000
GEN
1002
}
  0
LINE
  5
17EE2
  8
AM_0
 10
684.70181506345921
 20
300.164276975966
 30
0.0
 11
675.36785978628893
 21
299.83832807528552
 31
0.0
  0
LINE
  5
17EE3
  8
AM_0
 10
684.67773115911893
 20
302.23484266507171
 30
0.0
 11
675.36785978628893
 21
302.5599505372802
 31
0.0
  0
LINE
  5
17EE4
  8
AM_0
 10
674.3678611273931
 20
287.2107439599497
 30
0.0
 11
678.36786124660273
 21
287.2107439599497
 31
0.0
  0
LINE
  5
17EE5
  8
AM_0
 10
674.3678611273931
 20
309.36162352998952
 30
0.0
 11
654.36786073996325
 21
309.71074463050172
 31
0.0
  0
ARC
  5
17EE6
  8
AM_0
 10
676.86785978628893
 20
299.49362132364791
 30
0.0
 40
1.5
 50
180.0
 51
215.01862826208159
1001
GENIUS_GENODEF_13
1002
{
1000
HIER
1070
     0
1002
}
1002
{
1000
MANEDIT
1070
     0
1002
}
1002
{
1000
NOSEL
1070
     0
1002
}
1002
{
1000
BEHIND
1070
     0
1002
}
1002
{
1000
REACTOR
1002
}
1001
GENIUS_GENOBJ-N-FIL_13
1002
{
1000
OWNER
1000
GEN
1002
}
  0
LINE
  5
17EE7
  8
AM_0
 10
675.36785978628893
 20
299.49362132364791
 30
0.0
 11
675.36785978628893
 21
307.21074284236278
 31
0.0
1001
GENIUS_GENODEF_13
1002
{
1000
HIER
1070
     0
1002
}
1002
{
1000
MANEDIT
1070
     0
1002
}
1002
{
1000
NOSEL
1070
     0
1002
}
1002
{
1000
BEHIND
1070
     0
1002
}
1002
{
1000
REACTOR
1002
}
1001
GENIUS_GENOBJ-N-CEN_13
1002
{
1000
OWNER
1000
GEN
1002
}
  0
LINE
  5
17EE8
  8
AM_0
 10
690.29068309086585
 20
270.17564463310691
 30
0.0
 11
685.73952446309215
 21
270.01671467174629
 31
0.0
  0
LINE
  5
17EE9
  8
AM_0
 10
690.28757291240572
 20
272.24280032126131
 30
0.0
 11
685.5268395073997
 21
272.40904879510907
 31
0.0
  0
ARC
  5
17EEA
  8
AM_0
 10
690.25578359416318
 20
271.17503546012608
 30
0.0
 40
1.0
 50
272.00000000000369
 51
2.5866332287798319
1001
GENIUS_GENODEF_13
1002
{
1000
HIER
1070
     0
1002
}
1002
{
1000
MANEDIT
1070
     0
1002
}
1002
{
1000
NOSEL
1070
     0
1002
}
1002
{
1000
BEHIND
1070
     0
1002
}
1002
{
1000
REACTOR
1002
}
1001
GENIUS_GENOBJ-N-FIL_13
1002
{
1000
OWNER
1000
GEN
1002
}
  0
ARC
  5
17EEB
  8
AM_0
 10
690.25267341570282
 20
271.24340949424231
 30
0.0
 40
1.0
 50
2.6222840879529081
 51
88.000000000002785
1001
GENIUS_GENODEF_13
1002
{
1000
HIER
1070
     0
1002
}
1002
{
1000
MANEDIT
1070
     0
1002
}
1002
{
1000
NOSEL
1070
     0
1002
}
1002
{
1000
BEHIND
1070
     0
1002
}
1002
{
1000
REACTOR
1002
}
1001
GENIUS_GENOBJ-N-FIL_13
1002
{
1000
OWNER
1000
GEN
1002
}
  0
ARC
  5
17EEC
  8
AM_0
 10
580.36785978628893
 20
266.21074284236261
 30
0.0
 40
111.0
 50
2.5866332287798319
 51
2.6222840879529081
  0
LINE
  5
17EED
  8
AM_0
 10
689.38060112163453
 20
280.17230078845608
 30
0.0
 11
684.16184195570872
 21
279.99005770259009
 31
0.0
  0
LINE
  5
17EEE
  8
AM_0
 10
689.37111896926137
 20
282.23999019842893
 30
0.0
 11
683.48515463231229
 21
282.44553260227627
 31
0.0
  0
ARC
  5
17EEF
  8
AM_0
 10
689.33621947255835
 20
281.24059937140993
 30
0.0
 40
1.0
 50
7.8531780888061054
 51
88.000000000002785
1001
GENIUS_GENODEF_13
1002
{
1000
HIER
1070
     0
1002
}
1002
{
1000
MANEDIT
1070
     0
1002
}
1002
{
1000
NOSEL
1070
     0
1002
}
1002
{
1000
BEHIND
1070
     0
1002
}
1002
{
1000
REACTOR
1002
}
1001
GENIUS_GENOBJ-N-FIL_13
1002
{
1000
OWNER
1000
GEN
1002
}
  0
ARC
  5
17EF0
  8
AM_0
 10
580.36785978628893
 20
266.21074284236261
 30
0.0
 40
111.0
 50
7.8169478316945114
 51
7.8531780888126708
  0
ARC
  5
17EF1
  8
AM_0
 10
689.34570162493185
 20
281.1716916154752
 30
0.0
 40
1.0
 50
271.99999999999721
 51
7.8169478316944527
1001
GENIUS_GENODEF_13
1002
{
1000
HIER
1070
     0
1002
}
1002
{
1000
MANEDIT
1070
     0
1002
}
1002
{
1000
NOSEL
1070
     0
1002
}
1002
{
1000
BEHIND
1070
     0
1002
}
1002
{
1000
REACTOR
1002
}
1001
GENIUS_GENOBJ-N-FIL_13
1002
{
1000
OWNER
1000
GEN
1002
}
  0
LINE
  5
17EF2
  8
AM_0
 10
683.3678597862887
 20
300.1176942312199
 30
0.0
 11
683.36785978628893
 21
292.38227370352752
 31
0.0
  0
LINE
  5
17EF3
  8
AM_0
 10
687.51782948382777
 20
292.23735356832208
 30
0.0
 11
679.36755438372199
 21
292.52196744638718
 31
0.0
  0
LINE
  5
17EF4
  8
AM_0
 10
687.53416421815052
 20
290.16855691931852
 30
0.0
 11
680.64881384440912
 21
289.92811518604708
 31
0.0
  0
ARC
  5
17EF5
  8
AM_0
 10
580.36785978628893
 20
266.21074284236261
 30
0.0
 40
111.0
 50
13.11367014329905
 51
13.151118260648429
  0
ARC
  5
17EF6
  8
AM_0
 10
687.49926472144796
 20
291.16794774633757
 30
0.0
 40
1.0
 50
272.00000000000369
 51
13.11367014329887
1001
GENIUS_GENODEF_13
1002
{
1000
HIER
1070
     0
1002
}
1002
{
1000
MANEDIT
1070
     0
1002
}
1002
{
1000
NOSEL
1070
     0
1002
}
1002
{
1000
BEHIND
1070
     0
1002
}
1002
{
1000
REACTOR
1002
}
1001
GENIUS_GENOBJ-N-FIL_13
1002
{
1000
OWNER
1000
GEN
1002
}
  0
ARC
  5
17EF7
  8
AM_0
 10
687.4829299871252
 20
291.23796274130291
 30
0.0
 40
1.0
 50
13.151118260648429
 51
88.000000000002785
1001
GENIUS_GENODEF_13
1002
{
1000
HIER
1070
     0
1002
}
1002
{
1000
MANEDIT
1070
     0
1002
}
1002
{
1000
NOSEL
1070
     0
1002
}
1002
{
1000
BEHIND
1070
     0
1002
}
1002
{
1000
REACTOR
1002
}
1001
GENIUS_GENOBJ-N-FIL_13
1002
{
1000
OWNER
1000
GEN
1002
}
  0
ARC
  5
17EF8
  8
AM_0
 10
684.66691556675653
 20
301.16366780298489
 30
0.0
 40
1.0
 50
271.99999999999721
 51
18.527142314468641
1001
GENIUS_GENODEF_13
1002
{
1000
HIER
1070
     0
1002
}
1002
{
1000
MANEDIT
1070
     0
1002
}
1002
{
1000
NOSEL
1070
     0
1002
}
1002
{
1000
BEHIND
1070
     0
1002
}
1002
{
1000
REACTOR
1002
}
1001
GENIUS_GENOBJ-N-FIL_13
1002
{
1000
OWNER
1000
GEN
1002
}
  0
ARC
  5
17EF9
  8
AM_0
 10
580.36785978628893
 20
266.21074284236261
 30
0.0
 40
111.0
 50
18.527142314468641
 51
18.566580801896361
  0
ARC
  5
17EFA
  8
AM_0
 10
684.6428316624166
 20
301.23545183805248
 30
0.0
 40
1.0
 50
18.566580801903051
 51
87.999999999996248
1001
GENIUS_GENODEF_13
1002
{
1000
HIER
1070
     0
1002
}
1002
{
1000
MANEDIT
1070
     0
1002
}
1002
{
1000
NOSEL
1070
     0
1002
}
1002
{
1000
BEHIND
1070
     0
1002
}
1002
{
1000
REACTOR
1002
}
1001
GENIUS_GENOBJ-N-FIL_13
1002
{
1000
OWNER
1000
GEN
1002
}
  0
ARC
  5
17EFB
  8
AM_0
 10
662.80810500070072
 20
314.21074284236278
 30
0.0
 40
2.0
 50
235.1361620456955
 51
270.0
1001
GENIUS_GENODEF_13
1002
{
1000
HIER
1070
     0
1002
}
1002
{
1000
MANEDIT
1070
     0
1002
}
1002
{
1000
NOSEL
1070
     0
1002
}
1002
{
1000
BEHIND
1070
     0
1002
}
1002
{
1000
OTHER
1070
     0
1002
}
1002
{
1000
REACTOR
1002
}
1001
GENIUS_GENOBJ-N-FIL_13
1002
{
1000
OWNER
1000
GEN
1002
}
  0
LINE
  5
17EFC
  8
AM_0
 10
653.32567386324479
 20
324.37704727422442
 30
0.0
 11
653.08523212997318
 21
317.49169690048308
 31
0.0
  0
LINE
  5
17EFD
  8
AM_0
 10
655.39447051224806
 20
324.36071253990173
 30
0.0
 11
655.67908439031362
 21
316.21043743979578
 31
0.0
  0
LINE
  5
17EFE
  8
AM_0
 10
645.39710714235525
 20
326.21400202533511
 30
0.0
 11
645.60264954620243
 21
320.3280376883859
 31
0.0
  0
ARC
  5
17EFF
  8
AM_0
 10
654.3250646902635
 20
324.34214777752157
 30
0.0
 40
1.0
 50
76.886329856701579
 51
177.99999999999631
1001
GENIUS_GENODEF_13
1002
{
1000
HIER
1070
     0
1002
}
1002
{
1000
MANEDIT
1070
     0
1002
}
1002
{
1000
NOSEL
1070
     0
1002
}
1002
{
1000
BEHIND
1070
     0
1002
}
1002
{
1000
REACTOR
1002
}
1001
GENIUS_GENOBJ-N-FIL_13
1002
{
1000
OWNER
1000
GEN
1002
}
  0
ARC
  5
17F00
  8
AM_0
 10
654.39507968522923
 20
324.3258130431991
 30
0.0
 40
1.0
 50
1.999999999997129
 51
76.848881739344307
1001
GENIUS_GENODEF_13
1002
{
1000
HIER
1070
     0
1002
}
1002
{
1000
MANEDIT
1070
     0
1002
}
1002
{
1000
NOSEL
1070
     0
1002
}
1002
{
1000
BEHIND
1070
     0
1002
}
1002
{
1000
REACTOR
1002
}
1001
GENIUS_GENOBJ-N-FIL_13
1002
{
1000
OWNER
1000
GEN
1002
}
  0
ARC
  5
17F01
  8
AM_0
 10
629.36785978628893
 20
217.21074284236289
 30
0.0
 40
111.0
 50
76.848881739344307
 51
76.886329856701579
  0
LINE
  5
17F02
  8
AM_0
 10
665.39195960899815
 20
321.52061421519278
 30
0.0
 11
665.71706748120641
 21
312.21074284236278
 31
0.0
  0
LINE
  5
17F03
  8
AM_0
 10
663.32139391989188
 20
321.544698119533
 30
0.0
 11
662.99575310460875
 21
312.21956525382382
 31
0.0
  0
LINE
  5
17F04
  8
AM_0
 10
662.80810500070072
 20
312.21074284236278
 30
0.0
 11
670.36785978628893
 21
312.21074284236278
 31
0.0
  0
ARC
  5
17F05
  8
AM_0
 10
629.36785978628893
 20
217.21074284236289
 30
0.0
 40
111.0
 50
71.433419198104019
 51
71.472857685525582
  0
ARC
  5
17F06
  8
AM_0
 10
664.39256878197853
 20
321.48571471849039
 30
0.0
 40
1.0
 50
2.0000000000036522
 51
71.43341919809707
1001
GENIUS_GENODEF_13
1002
{
1000
HIER
1070
     0
1002
}
1002
{
1000
MANEDIT
1070
     0
1002
}
1002
{
1000
NOSEL
1070
     0
1002
}
1002
{
1000
BEHIND
1070
     0
1002
}
1002
{
1000
REACTOR
1002
}
1001
GENIUS_GENOBJ-N-FIL_13
1002
{
1000
OWNER
1000
GEN
1002
}
  0
ARC
  5
17F07
  8
AM_0
 10
664.32078474691116
 20
321.5097986228302
 30
0.0
 40
1.0
 50
71.472857685525582
 51
178.00000000000281
1001
GENIUS_GENODEF_13
1002
{
1000
HIER
1070
     0
1002
}
1002
{
1000
MANEDIT
1070
     0
1002
}
1002
{
1000
NOSEL
1070
     0
1002
}
1002
{
1000
BEHIND
1070
     0
1002
}
1002
{
1000
REACTOR
1002
}
1001
GENIUS_GENOBJ-N-FIL_13
1002
{
1000
OWNER
1000
GEN
1002
}
  0
LINE
  5
181C9
  8
AM_0
 10
576.36785809284402
 20
269.71054345462551
 30
0.0
 11
580.36785821205376
 21
269.71054345462551
 31
0.0
  0
LINE
  5
181CA
  8
AM_0
 10
576.36785809284402
 20
269.71054345462551
 30
0.0
 11
576.36785809284402
 21
229.71094226254471
 31
0.0
  0
LINE
  5
181CB
  8
AM_0
 10
576.36785809284402
 20
269.71054345462551
 30
0.0
 11
561.36785986247844
 21
264.7107428254119
 31
0.0
  0
LINE
  5
181CC
  8
AM_0
 10
561.36785986247844
 20
234.7107428254119
 30
0.0
 11
561.36785986247844
 21
264.7107428254119
 31
0.0
  0
LINE
  5
181CD
  8
AM_0
 10
576.36785809284402
 20
229.71094226254471
 30
0.0
 11
561.36785986247844
 21
234.7107428254119
 31
0.0
  0
LINE
  5
181CE
  8
AM_0
 10
576.36785809284402
 20
229.71094226254471
 30
0.0
 11
580.36785821205376
 21
229.71094226254471
 31
0.0
  0
LINE
  5
181CF
  8
0
 10
521.36785989675184
 20
237.7107428101433
 30
0.0
 11
521.36785981963658
 21
264.7107428101433
 31
0.0
  0
LINE
  5
181D0
  8
0
 10
521.36785986247844
 20
237.7107428101435
 30
0.0
 11
561.36785986247844
 21
237.7107428101435
 31
0.0
  0
LINE
  5
181D1
  8
0
 10
521.36785986247844
 20
264.71074281014347
 30
0.0
 11
553.36785981963681
 21
264.71074281014347
 31
0.0
  0
LINE
  5
181D2
  8
0
 10
521.36785986247844
 20
261.71074281014347
 30
0.0
 11
561.36785986247844
 21
261.71074280413058
 31
0.0
  0
LINE
  5
181D3
  8
0
 10
553.36785981963681
 20
264.71074281014347
 30
0.0
 11
553.36785981918592
 21
261.71074280533321
 31
0.0
  0
ARC
  5
182BB
  8
0
 10
354.20114798479881
 20
249.71074302725191
 30
0.0
 40
12.00000005996232
 50
109.47122053326621
 51
70.528779466733724
  0
CIRCLE
  5
182BC
  8
0
 10
354.20114798479881
 20
249.71074284236281
 30
0.0
 40
19.99980059118241
  0
CIRCLE
  5
182BD
  8
ｽﾝﾎﾟｳｾﾝ
 10
354.20114798479858
 20
249.71074284236281
 30
0.0
 40
4.0
  0
LINE
  5
182BE
  8
0
 10
350.20114798479869
 20
264.7107429672896
 30
0.0
 11
358.20114798479858
 21
264.7107429672896
 31
0.0
  0
LINE
  5
182BF
  8
0
 10
358.20114798479858
 20
257.7107429672896
 30
0.0
 11
350.20114798479869
 21
257.7107429672896
 31
0.0
  0
LINE
  5
182C0
  8
0
 10
350.20114798479869
 20
257.7107429672896
 30
0.0
 11
350.20114798479869
 21
264.7107429672896
 31
0.0
  0
LINE
  5
182C1
  8
0
 10
358.20114798479858
 20
264.7107429672896
 30
0.0
 11
358.20114798479858
 21
257.7107429672896
 31
0.0
  0
LINE
  5
189BC
  8
AM_0
 10
391.70114910238573
 20
466.6857893231608
 30
0.0
 11
316.70114686721172
 21
466.6857893231608
 31
0.0
  0
LINE
  5
189BD
  8
AM_0
 10
410.47928131675712
 20
470.68578944237038
 30
0.0
 11
258.9229857472962
 21
470.68578944237038
 31
0.0
  0
LINE
  5
189BE
  8
AM_0
 10
391.70114910238573
 20
564.68579224378846
 30
0.0
 11
316.70114686721172
 21
564.68579224378846
 31
0.0
  0
LINE
  5
189BF
  8
AM_0
 10
258.05026620938747
 20
560.68579212457939
 30
0.0
 11
411.35202859791968
 21
560.68579212457939
 31
0.0
  0
LINE
  5
189C0
  8
AM_0
 10
411.70114969843212
 20
540.6857917371492
 30
0.0
 11
257.70114510887481
 21
540.6857917371492
 31
0.0
  0
LINE
  5
189C1
  8
ﾁｭｳｼﾝｾﾝ1
 10
103.7011451088747
 20
515.68582670393448
 30
0.0
 11
416.7011496984324
 21
515.68578325435954
 31
0.0
1001
GENIUS_GENODEF_13
1002
{
1000
HIER
1070
     0
1002
}
1002
{
1000
MANEDIT
1070
     0
1002
}
1002
{
1000
NOSEL
1070
     0
1002
}
1002
{
1000
BEHIND
1070
     0
1002
}
1002
{
1000
REACTOR
1002
}
1001
GENIUS_GENOBJ-N-CEN_13
1002
{
1000
OWNER
1000
GEN
1002
}
  0
LINE
  5
189C2
  8
AM_0
 10
257.70114510887481
 20
540.6857917371492
 30
0.0
 11
258.9229857472962
 21
470.68578944237038
 31
0.0
  0
LINE
  5
189C3
  8
ｶｸﾚｾﾝ2
 10
272.70114555590948
 20
470.68578944237038
 30
0.0
 11
272.70114555590948
 21
560.68579212457939
 31
0.0
  0
LINE
  5
189C4
  8
ｶｸﾚｾﾝ2
 10
263.70114528768858
 20
470.68578944237038
 30
0.0
 11
263.70114528768858
 21
560.68579212457939
 31
0.0
  0
LINE
  5
189C5
  8
ﾁｭｳｼﾝｾﾝ1
 10
268.20114542179908
 20
467.68578944237032
 30
0.0
 11
268.20114542179908
 21
563.68579212457939
 31
0.0
  0
LINE
  5
189C6
  8
AM_0
 10
248.83872228438941
 20
460.15371822552368
 30
0.0
 11
248.83873754250379
 21
571.2178959979999
 31
0.0
  0
LINE
  5
189C7
  8
AM_0
 10
240.2011451088747
 20
459.68579670393427
 30
0.0
 11
240.2011451088747
 21
571.68581770393439
 31
0.0
  0
LINE
  5
189C8
  8
AM_0
 10
249.52277821735291
 20
570.0331007347138
 30
0.0
 11
254.90444190686739
 21
539.51214370069874
 31
0.0
1001
GENIUS_GENODEF_13
1002
{
1000
HIER
1070
     0
1002
}
1002
{
1000
MANEDIT
1070
     0
1002
}
1002
{
1000
NOSEL
1070
     0
1002
}
1002
{
1000
BEHIND
1070
     0
1002
}
1002
{
1000
REACTOR
1002
}
1001
GENIUS_GENOBJ-N-CEN_13
1002
{
1000
OWNER
1000
GEN
1002
}
  0
LINE
  5
189C9
  8
AM_0
 10
240.2011451088747
 20
571.68580720393425
 30
0.0
 11
247.55316221328371
 21
571.68580720393425
 31
0.0
  0
ARC
  5
189CA
  8
AM_0
 10
247.55316221328371
 20
569.68580720393436
 30
0.0
 40
2.0
 50
9.9999917840707582
 51
90.0
1001
GENIUS_GENOBJ-N-CEN_13
1002
{
1000
OWNER
1000
GEN
1002
}
1001
GENIUS_GENODEF_13
1002
{
1000
HIER
1070
     0
1002
}
1002
{
1000
MANEDIT
1070
     0
1002
}
1002
{
1000
NOSEL
1070
     0
1002
}
1002
{
1000
BEHIND
1070
     0
1002
}
1002
{
1000
OTHER
1070
     0
1002
}
1002
{
1000
REACTOR
1002
}
1001
GENIUS_GENOBJ-N-FIL_13
1002
{
1000
OWNER
1000
GEN
1002
}
  0
LINE
  5
189CB
  8
AM_0
 10
240.2011451088747
 20
547.62326470393441
 30
0.0
 11
248.8387343013527
 21
547.6254796990919
 31
0.0
  0
LINE
  5
189CC
  8
AM_0
 10
240.2011451088747
 20
561.68583270393435
 30
0.0
 11
248.8387362329762
 21
561.68581356117488
 31
0.0
  0
LINE
  5
189CD
  8
AM_0
 10
258.05026620938747
 20
560.68579212457928
 30
0.0
 11
257.70114510887481
 21
540.6857917371492
 31
0.0
  0
LINE
  5
189CE
  8
AM_0
 10
256.71844764999889
 20
538.6857917371492
 30
0.0
 11
255.88924968477991
 21
538.6857917371492
 31
0.0
  0
ARC
  5
189D0
  8
AM_0
 10
256.71844764999889
 20
539.6857917371492
 30
0.0
 40
1.0
 50
270.0
 51
0.9999885880236628
1001
GENIUS_GENOBJ-N-FIL_13
1002
{
1000
OWNER
1000
GEN
1002
}
1001
GENIUS_GENODEF_13
1002
{
1000
HIER
1070
     0
1002
}
1002
{
1000
MANEDIT
1070
     0
1002
}
1002
{
1000
NOSEL
1070
     0
1002
}
1002
{
1000
BEHIND
1070
     0
1002
}
1002
{
1000
OTHER
1070
     0
1002
}
1002
{
1000
REACTOR
1002
}
  0
LINE
  5
189D1
  8
AM_0
 10
316.70114686721172
 20
560.68579212457939
 30
0.0
 11
316.70114686721172
 21
564.68579224378846
 31
0.0
  0
LINE
  5
189D2
  8
AM_0
 10
249.52276263108709
 20
461.33851056616737
 30
0.0
 11
251.2321792940914
 21
471.03308608013742
 31
0.0
1001
GENIUS_GENODEF_13
1002
{
1000
HIER
1070
     0
1002
}
1002
{
1000
MANEDIT
1070
     0
1002
}
1002
{
1000
NOSEL
1070
     0
1002
}
1002
{
1000
BEHIND
1070
     0
1002
}
1002
{
1000
REACTOR
1002
}
1001
GENIUS_GENOBJ-N-CEN_13
1002
{
1000
OWNER
1000
GEN
1002
}
  0
LINE
  5
189D3
  8
AM_0
 10
240.2011451088747
 20
483.74585720393441
 30
0.0
 11
248.8387255255025
 21
483.74585720393441
 31
0.0
  0
LINE
  5
189D4
  8
AM_0
 10
240.2011451088747
 20
469.68580720393442
 30
0.0
 11
248.8387235939179
 21
469.68580720393442
 31
0.0
  0
LINE
  5
189D5
  8
AM_0
 10
256.9226810981628
 20
472.68578944237021
 30
0.0
 11
253.2017947503152
 21
472.68578944237021
 31
0.0
  0
ARC
  5
189D6
  8
AM_0
 10
253.2017947503152
 20
470.68578944237038
 30
0.0
 40
2.0
 50
90.0
 51
169.99999178406969
1001
GENIUS_GENOBJ-N-CEN_13
1002
{
1000
OWNER
1000
GEN
1002
}
1001
GENIUS_GENODEF_13
1002
{
1000
HIER
1070
     0
1002
}
1002
{
1000
MANEDIT
1070
     0
1002
}
1002
{
1000
NOSEL
1070
     0
1002
}
1002
{
1000
BEHIND
1070
     0
1002
}
1002
{
1000
OTHER
1070
     0
1002
}
1002
{
1000
REACTOR
1002
}
1001
GENIUS_GENOBJ-N-FIL_13
1002
{
1000
OWNER
1000
GEN
1002
}
  0
LINE
  5
189D8
  8
AM_0
 10
240.2011451088747
 20
459.68580720393447
 30
0.0
 11
247.55314717486331
 21
459.68580720393447
 31
0.0
  0
ARC
  5
189D9
  8
AM_0
 10
247.55314717486331
 20
461.6858072039343
 30
0.0
 40
2.0
 50
270.0
 51
349.99999178406972
1001
GENIUS_GENOBJ-N-CEN_13
1002
{
1000
OWNER
1000
GEN
1002
}
1001
GENIUS_GENOBJ-N-FIL_13
1002
{
1000
OWNER
1000
GEN
1002
}
1001
GENIUS_GENODEF_13
1002
{
1000
HIER
1070
     0
1002
}
1002
{
1000
MANEDIT
1070
     0
1002
}
1002
{
1000
NOSEL
1070
     0
1002
}
1002
{
1000
BEHIND
1070
     0
1002
}
1002
{
1000
OTHER
1070
     0
1002
}
1002
{
1000
REACTOR
1002
}
  0
LINE
  5
189DA
  8
AM_0
 10
316.70114686721172
 20
470.68578944237038
 30
0.0
 11
316.70114686721172
 21
466.6857893231608
 31
0.0
  0
LINE
  5
189DB
  8
ﾁｭｳｼﾝｾﾝ1
 10
354.20114798479881
 20
402.24697294038521
 30
0.0
 11
354.20114798479881
 21
629.12461092040041
 31
0.0
  0
LINE
  5
189DC
  8
AM_0
 10
411.70114969843212
 20
540.6857917371492
 30
0.0
 11
410.47928131675712
 21
470.68578944237038
 31
0.0
  0
LINE
  5
189DD
  8
ｶｸﾚｾﾝ2
 10
396.70114925139762
 20
470.68578944237038
 30
0.0
 11
396.70114925139762
 21
560.68579212457939
 31
0.0
  0
LINE
  5
189DE
  8
ｶｸﾚｾﾝ2
 10
405.70114951961818
 20
470.68578944237038
 30
0.0
 11
405.70114951961818
 21
560.68579212457939
 31
0.0
  0
LINE
  5
189DF
  8
ﾁｭｳｼﾝｾﾝ1
 10
401.20114938550779
 20
467.68578944237032
 30
0.0
 11
401.20114938550802
 21
563.68579212457939
 31
0.0
  0
LINE
  5
189E3
  8
AM_0
 10
391.70114910238573
 20
560.68579212457939
 30
0.0
 11
391.70114910238573
 21
564.68579224378846
 31
0.0
  0
LINE
  5
189E4
  8
AM_0
 10
411.35202859791968
 20
560.68579212457928
 30
0.0
 11
411.70114969843212
 21
540.6857917371492
 31
0.0
  0
LINE
  5
189E7
  8
AM_0
 10
391.70114910238573
 20
470.68578944237038
 30
0.0
 11
391.70114910238573
 21
466.6857893231608
 31
0.0
  0
LINE
  5
189E9
  8
AM_0
 10
163.20117510887471
 20
455.80085065251109
 30
0.0
 11
163.20117510887471
 21
459.40084065251108
 31
0.0
  0
ARC
  5
189EA
  8
AM_0
 10
161.2007451088746
 20
458.56126065251118
 30
0.0
 40
2.000407899999999
 50
270.01164999999889
 51
359.98835099999923
  0
LINE
  5
189EB
  8
AM_0
 10
124.2012351088746
 20
464.90082065251107
 30
0.0
 11
125.4912151088747
 21
456.41083065251121
 31
0.0
  0
LINE
  5
189EC
  8
AM_0
 10
124.20117510887459
 20
464.90086065251108
 30
0.0
 11
125.5111751088746
 21
455.52085065251111
 31
0.0
  0
ARC
  5
189ED
  8
AM_0
 10
127.4495851088746
 20
458.5539806525112
 30
0.0
 40
1.9931281000000001
 50
189.0388199999997
 51
270.04662699999949
  0
LINE
  5
189EE
  8
AM_0
 10
127.45117510887469
 20
456.5608406525111
 30
0.0
 11
161.20117510887471
 21
456.5608406525111
 31
0.0
  0
LINE
  5
189EF
  8
AM_0
 10
127.4711951088746
 20
454.71084065251108
 30
0.0
 11
161.20117510887471
 21
454.71084065251108
 31
0.0
  0
LINE
  5
189F0
  8
AM_0
 10
127.49115510887459
 20
453.80083065251119
 30
0.0
 11
161.20117510887471
 21
453.80083065251119
 31
0.0
  0
ARC
  5
189F1
  8
AM_0
 10
127.4858451088747
 20
455.7943206525112
 30
0.0
 40
1.9934921000000001
 50
187.88526000000061
 51
270.15390899999858
  0
ARC
  5
189F2
  8
AM_0
 10
127.4638751088747
 20
456.7054106525112
 30
0.0
 40
1.994588
 50
188.49291000000221
 51
270.20924700000091
  0
ARC
  5
189F3
  8
AM_0
 10
161.19989510887461
 20
455.80213065251121
 30
0.0
 40
2.001287899999999
 50
270.03687399999882
 51
359.96312800100111
  0
ARC
  5
189F4
  8
AM_0
 10
161.1995851088746
 20
456.7123906525112
 30
0.0
 40
2.0015439999999991
 50
270.04421600000092
 51
359.95578600099918
  0
LINE
  5
189F5
  8
AM_0
 10
116.20117510887469
 20
462.6858406525111
 30
0.0
 11
124.20117510887459
 21
462.6858406525111
 31
0.0
  0
LINE
  5
189F6
  8
AM_0
 10
116.20117510887469
 20
462.69083065251118
 30
0.0
 11
124.20117510887459
 21
462.69083065251118
 31
0.0
  0
LINE
  5
189F7
  8
AM_0
 10
116.89117510887461
 20
472.50085065251119
 30
0.0
 11
123.1211551088746
 21
472.50085065251119
 31
0.0
  0
LINE
  5
189F8
  8
AM_0
 10
116.20117510887469
 20
568.68584465251115
 30
0.0
 11
124.20117510887459
 21
568.68584465251115
 31
0.0
  0
LINE
  5
189F9
  8
AM_0
 10
116.20117510887469
 20
568.69083365251106
 30
0.0
 11
124.20117510887459
 21
568.69083365251106
 31
0.0
  0
LINE
  5
189FA
  8
AM_0
 10
116.89117510887461
 20
558.8808446525112
 30
0.0
 11
123.1211551088746
 21
558.8808446525112
 31
0.0
  0
LINE
  5
189FB
  8
AM_0
 10
112.2011451088747
 20
521.29910732890164
 30
0.0
 11
112.2011451088747
 21
520.13821732890165
 31
0.0
  0
ARC
  5
189FC
  8
AM_0
 10
111.2011451088747
 20
520.68581732890163
 30
0.0
 40
1.0
 50
179.99999000000221
 51
269.9999969999991
  0
LINE
  5
189FD
  8
AM_0
 10
116.2011451088747
 20
462.68583732890158
 30
0.0
 11
116.2011451088747
 21
568.68581832890175
 31
0.0
  0
LINE
  5
189FE
  8
AM_0
 10
108.7011451088747
 20
495.6858373289017
 30
0.0
 11
108.7011451088747
 21
535.68581732890163
 31
0.0
  0
LINE
  5
189FF
  8
AM_0
 10
115.2011451088747
 20
465.68583732890181
 30
0.0
 11
115.2011451088747
 21
566.80905632890165
 31
0.0
  0
LINE
  5
18A00
  8
AM_0
 10
107.7072486244997
 20
530.90765960429235
 30
0.0
 11
107.7072486244997
 21
500.464025571089
 31
0.0
  0
ARC
  5
18A01
  8
AM_0
 10
114.2011451088747
 20
488.68582732890172
 30
0.0
 40
1.0
 50
0.0
 51
90.0
  0
LINE
  5
18A02
  8
AM_0
 10
110.2011451088747
 20
467.6694673289017
 30
0.0
 11
110.2011451088747
 21
510.6858373289017
 31
0.0
  0
LINE
  5
18A03
  8
AM_0
 10
112.2011451088747
 20
472.85537732890151
 30
0.0
 11
112.2011451088747
 21
473.32756732890169
 31
0.0
  0
LINE
  5
18A04
  8
AM_0
 10
111.95139510887461
 20
472.72467732890152
 30
0.0
 11
110.6528051088746
 21
473.57623732890153
 31
0.0
  0
LINE
  5
18A05
  8
AM_0
 10
111.9689651088747
 20
466.07071732890182
 30
0.0
 11
110.7007851088747
 21
466.80366732890172
 31
0.0
  0
LINE
  5
18A06
  8
AM_0
 10
111.9635951088746
 20
468.1867273289015
 30
0.0
 11
110.6865551088746
 21
468.9530273289015
 31
0.0
  0
LINE
  5
18A07
  8
AM_0
 10
111.9878251088746
 20
467.19101732890169
 30
0.0
 11
110.7485751088746
 21
467.82003732890161
 31
0.0
  0
LINE
  5
18A08
  8
AM_0
 10
111.98148510887469
 20
469.30066732890162
 30
0.0
 11
110.73282510887459
 21
469.96252732890167
 31
0.0
  0
ARC
  5
18A09
  8
AM_0
 10
111.2011451088747
 20
467.6694673289017
 30
0.0
 40
1.0
 50
179.99999000000221
 51
239.9736000000006
  0
ARC
  5
18A0A
  8
AM_0
 10
111.2011451088747
 20
468.71176732890177
 30
0.0
 40
1.0
 50
179.99999000000221
 51
243.08874000000111
  0
ARC
  5
18A0B
  8
AM_0
 10
111.2011451088747
 20
469.8105173289016
 30
0.0
 40
1.0
 50
179.99999000000221
 51
239.03339999999869
  0
ARC
  5
18A0C
  8
AM_0
 10
111.2011451088747
 20
470.8461173289017
 30
0.0
 40
1.0
 50
179.99999000000221
 51
242.0733999999992
  0
ARC
  5
18A0D
  8
AM_0
 10
112.4693351088747
 20
466.93644732890169
 30
0.0
 40
1.0
 50
239.9736000000006
 51
269.9999969999991
  0
ARC
  5
18A0E
  8
AM_0
 10
112.4404051088746
 20
468.08273732890183
 30
0.0
 40
1.0
 50
243.08874000000111
 51
269.9999969999991
  0
ARC
  5
18A0F
  8
AM_0
 10
112.4781851088746
 20
469.04422732890168
 30
0.0
 40
1.0
 50
239.03339999999869
 51
269.9999969999991
  0
ARC
  5
18A10
  8
AM_0
 10
112.4498051088747
 20
470.1841973289018
 30
0.0
 40
1.0
 50
242.0733999999992
 51
269.9999969999991
  0
LINE
  5
18A11
  8
AM_0
 10
112.2011451088747
 20
468.28927732890162
 30
0.0
 11
112.2011451088747
 21
468.83535732890169
 31
0.0
  0
LINE
  5
18A12
  8
AM_0
 10
112.2011451088747
 20
466.18966732890169
 30
0.0
 11
112.2011451088747
 21
466.71544732890158
 31
0.0
  0
ARC
  5
18A13
  8
AM_0
 10
114.7011451088747
 20
467.5827373289016
 30
0.0
 40
0.5
 50
269.9999969999991
 51
0.0
  0
ARC
  5
18A14
  8
AM_0
 10
114.7011451088747
 20
465.43644732890169
 30
0.0
 40
0.5
 50
0.0
 51
90.0
  0
LINE
  5
18A15
  8
AM_0
 10
112.4693351088747
 20
465.93643732890149
 30
0.0
 11
114.7011451088747
 21
465.93643732890149
 31
0.0
  0
LINE
  5
18A16
  8
AM_0
 10
112.4781851088746
 20
468.04423732890149
 30
0.0
 11
115.2011451088747
 21
468.04423732890149
 31
0.0
  0
LINE
  5
18A17
  8
AM_0
 10
112.4498051088747
 20
469.18417732890163
 30
0.0
 11
114.2011451088747
 21
469.18417732890163
 31
0.0
  0
LINE
  5
18A18
  8
AM_0
 10
112.4404051088746
 20
467.08275732890172
 30
0.0
 11
114.7011451088747
 21
467.08275732890172
 31
0.0
  0
LINE
  5
18A19
  8
AM_0
 10
115.2011451088747
 20
465.68583732890181
 30
0.0
 11
116.2011451088747
 21
465.68583732890181
 31
0.0
  0
ARC
  5
18A1A
  8
AM_0
 10
112.49979510887459
 20
473.56094732890159
 30
0.0
 40
1.0
 50
236.74526999999921
 51
269.9999969999991
  0
LINE
  5
18A1B
  8
AM_0
 10
112.49979510887459
 20
472.56094732890182
 30
0.0
 11
115.2011451088747
 21
472.56094732890182
 31
0.0
  0
ARC
  5
18A1C
  8
AM_0
 10
114.2011451088747
 20
470.1841973289018
 30
0.0
 40
1.0
 50
269.9999969999991
 51
0.0
  0
LINE
  5
18A1D
  8
AM_0
 10
112.2011451088747
 20
480.29294732890168
 30
0.0
 11
112.2011451088747
 21
481.3528973289018
 31
0.0
  0
ARC
  5
18A1E
  8
AM_0
 10
111.2011451088747
 20
481.51109732890183
 30
0.0
 40
1.0
 50
179.99999000000221
 51
246.87297000000149
  0
LINE
  5
18A1F
  8
AM_0
 10
111.96701510887461
 20
473.83804732890172
 30
0.0
 11
110.69571510887459
 21
474.58271732890182
 31
0.0
  0
LINE
  5
18A20
  8
AM_0
 10
112.0129751088747
 20
480.07693732890169
 30
0.0
 11
110.8083851088747
 21
480.5914073289016
 31
0.0
  0
ARC
  5
18A21
  8
AM_0
 10
111.2011451088747
 20
475.44558732890169
 30
0.0
 40
1.0
 50
179.99999000000221
 51
239.64049999999861
  0
ARC
  5
18A22
  8
AM_0
 10
111.2011451088747
 20
474.41250732890171
 30
0.0
 40
1.0
 50
179.99999000000221
 51
236.74526999999921
  0
ARC
  5
18A23
  8
AM_0
 10
112.47244510887469
 20
474.7008973289017
 30
0.0
 40
1.0
 50
239.64049999999861
 51
269.9999969999991
  0
ARC
  5
18A24
  8
AM_0
 10
114.2011451088747
 20
474.7008973289017
 30
0.0
 40
1.0
 50
269.9999969999991
 51
0.0
  0
LINE
  5
18A25
  8
AM_0
 10
112.47244510887469
 20
473.7009173289016
 30
0.0
 11
114.2011451088747
 21
473.7009173289016
 31
0.0
  0
ARC
  5
18A26
  8
AM_0
 10
112.4057951088747
 20
480.99661732890172
 30
0.0
 40
1.0
 50
246.87297000000149
 51
269.9999969999991
  0
ARC
  5
18A27
  8
AM_0
 10
114.50113510887461
 20
479.2966173289015
 30
0.0
 40
0.6999999900000004
 50
0.0
 51
90.0
  0
LINE
  5
18A28
  8
AM_0
 10
112.4057951088747
 20
479.99662732890152
 30
0.0
 11
114.50113510887461
 21
479.99662732890152
 31
0.0
  0
LINE
  5
18A29
  8
AM_0
 10
112.05746510887469
 20
481.98689732890159
 30
0.0
 11
110.9071451088747
 21
482.3407373289017
 31
0.0
  0
ARC
  5
18A2A
  8
AM_0
 10
111.2011451088747
 20
483.29655732890149
 30
0.0
 40
1.0
 50
179.99999000000221
 51
252.90236999999951
  0
ARC
  5
18A2B
  8
AM_0
 10
112.3514751088745
 20
482.9427273289017
 30
0.0
 40
1.0
 50
252.90236999999951
 51
269.9999969999991
  0
ARC
  5
18A2C
  8
AM_0
 10
114.2011451088747
 20
482.9427273289017
 30
0.0
 40
1.0
 50
269.9999969999991
 51
0.0
  0
LINE
  5
18A2D
  8
AM_0
 10
112.3514751088745
 20
481.9427273289017
 30
0.0
 11
114.2011451088747
 21
481.9427273289017
 31
0.0
  0
LINE
  5
18A2E
  8
AM_0
 10
114.2011451088747
 20
489.6858373289017
 30
0.0
 11
111.2011451088747
 21
489.6858373289017
 31
0.0
  0
LINE
  5
18A2F
  8
AM_0
 10
114.2011451088747
 20
491.6858273289015
 30
0.0
 11
111.2011451088747
 21
491.6858273289015
 31
0.0
  0
ARC
  5
18A30
  8
AM_0
 10
111.2011451088747
 20
490.68582732890161
 30
0.0
 40
1.0
 50
179.99999000000221
 51
269.9999969999991
  0
ARC
  5
18A31
  8
AM_0
 10
111.2011451088747
 20
490.68582732890161
 30
0.0
 40
1.0
 50
90.0
 51
180.00001000000091
  0
LINE
  5
18A32
  8
AM_0
 10
108.7011451088747
 20
495.6858373289017
 30
0.0
 11
110.2011451088747
 21
495.5546173289016
 31
0.0
  0
LINE
  5
18A33
  8
AM_0
 10
112.2011451088747
 20
490.05966732890153
 30
0.0
 11
112.2011451088747
 21
491.42245732890171
 31
0.0
  0
ARC
  5
18A34
  8
AM_0
 10
114.2011451088747
 20
492.68583732890153
 30
0.0
 40
1.0
 50
269.9999969999991
 51
0.0
  0
LINE
  5
18A35
  8
AM_0
 10
114.2011451088747
 20
499.6858273289015
 30
0.0
 11
111.2011451088747
 21
499.6858273289015
 31
0.0
  0
LINE
  5
18A36
  8
AM_0
 10
114.2011451088747
 20
501.6858373289017
 30
0.0
 11
111.2011451088747
 21
501.6858373289017
 31
0.0
  0
LINE
  5
18A37
  8
AM_0
 10
108.7011451088747
 20
500.53579732890148
 30
0.0
 11
113.3786351088747
 21
500.53579732890148
 31
0.0
  0
ARC
  5
18A38
  8
AM_0
 10
111.2011451088747
 20
500.68582732890172
 30
0.0
 40
1.0
 50
179.99999000000221
 51
269.9999969999991
  0
LINE
  5
18A39
  8
AM_0
 10
108.7011451088747
 20
498.40385732890172
 30
0.0
 11
110.2011451088747
 21
498.40385732890172
 31
0.0
  0
LINE
  5
18A3A
  8
AM_0
 10
107.7072486244997
 20
500.46399505351121
 30
0.0
 11
108.2072486244997
 21
497.69400603983911
 31
0.0
  0
LINE
  5
18A3B
  8
AM_0
 10
108.20727914207779
 20
497.69400603983911
 30
0.0
 11
108.7072486244997
 21
497.73401458476121
 31
0.0
  0
ARC
  5
18A3C
  8
AM_0
 10
111.2011451088747
 20
500.68582732890172
 30
0.0
 40
1.0
 50
90.0
 51
180.00001000000091
  0
LINE
  5
18A3D
  8
AM_0
 10
112.2011451088747
 20
500.07872732890172
 30
0.0
 11
112.2011451088747
 21
501.29014732890181
 31
0.0
  0
ARC
  5
18A3E
  8
AM_0
 10
114.2011451088747
 20
498.6858373289017
 30
0.0
 40
1.0
 50
0.0
 51
90.0
  0
ARC
  5
18A3F
  8
AM_0
 10
114.2011451088747
 20
502.68582732890172
 30
0.0
 40
1.0
 50
269.9999969999991
 51
0.0
  0
ARC
  5
18A40
  8
AM_0
 10
114.2011451088747
 20
512.68582732890172
 30
0.0
 40
1.0
 50
269.9999969999991
 51
0.0
  0
LINE
  5
18A41
  8
AM_0
 10
114.2011451088747
 20
509.68582732890172
 30
0.0
 11
111.2011451088747
 21
509.68582732890172
 31
0.0
  0
LINE
  5
18A42
  8
AM_0
 10
114.2011451088747
 20
511.6858273289015
 30
0.0
 11
111.2011451088747
 21
511.6858273289015
 31
0.0
  0
ARC
  5
18A43
  8
AM_0
 10
111.2011451088747
 20
510.6858373289017
 30
0.0
 40
1.0
 50
90.0
 51
180.00001000000091
  0
ARC
  5
18A44
  8
AM_0
 10
111.2011451088747
 20
510.6858373289017
 30
0.0
 40
1.0
 50
179.99999000000221
 51
269.9999969999991
  0
LINE
  5
18A45
  8
AM_0
 10
112.2011451088747
 20
510.07261732890152
 30
0.0
 11
112.2011451088747
 21
511.23350732890168
 31
0.0
  0
ARC
  5
18A46
  8
AM_0
 10
114.2011451088747
 20
508.68582732890161
 30
0.0
 40
1.0
 50
0.0
 51
90.0
  0
LINE
  5
18A47
  8
AM_0
 10
114.2011451088747
 20
519.6858373289017
 30
0.0
 11
111.2011451088747
 21
519.6858373289017
 31
0.0
  0
ARC
  5
18A48
  8
AM_0
 10
114.2011451088747
 20
518.68582732890172
 30
0.0
 40
1.0
 50
0.0
 51
90.0
  0
LINE
  5
18A49
  8
AM_0
 10
110.2011451088747
 20
563.70223632890179
 30
0.0
 11
110.2011451088747
 21
520.68581732890163
 31
0.0
  0
LINE
  5
18A4A
  8
AM_0
 10
114.2011451088747
 20
521.68582732890172
 30
0.0
 11
111.2011451088747
 21
521.68582732890172
 31
0.0
  0
ARC
  5
18A4B
  8
AM_0
 10
111.2011451088747
 20
520.68581732890163
 30
0.0
 40
1.0
 50
90.0
 51
180.00001000000091
  0
ARC
  5
18A4C
  8
AM_0
 10
114.2011451088747
 20
522.6858373289017
 30
0.0
 40
1.0
 50
269.9999969999991
 51
0.0
  0
LINE
  5
18A4D
  8
AM_0
 10
114.2011451088747
 20
531.6858373289017
 30
0.0
 11
111.2011451088747
 21
531.6858373289017
 31
0.0
  0
LINE
  5
18A4E
  8
AM_0
 10
114.2011451088747
 20
529.68581732890163
 30
0.0
 11
111.2011451088747
 21
529.68581732890163
 31
0.0
  0
LINE
  5
18A4F
  8
AM_0
 10
108.7011451088747
 20
530.83585732890162
 30
0.0
 11
111.9948451088746
 21
530.83585732890162
 31
0.0
  0
ARC
  5
18A50
  8
AM_0
 10
111.2011451088747
 20
530.68582732890172
 30
0.0
 40
1.0
 50
90.0
 51
180.00001000000091
  0
LINE
  5
18A51
  8
AM_0
 10
108.7011451088747
 20
532.96786732890155
 30
0.0
 11
110.2011451088747
 21
532.96786732890155
 31
0.0
  0
ARC
  5
18A52
  8
AM_0
 10
111.2011451088747
 20
530.68582732890172
 30
0.0
 40
1.0
 50
179.99999000000221
 51
269.9999969999991
  0
LINE
  5
18A53
  8
AM_0
 10
108.7012051088746
 20
535.68581732890163
 30
0.0
 11
110.2011451088747
 21
535.81704732890171
 31
0.0
  0
LINE
  5
18A54
  8
AM_0
 10
108.2072486244997
 20
533.67764861796422
 30
0.0
 11
108.70727914207779
 21
533.63764007304235
 31
0.0
  0
LINE
  5
18A55
  8
AM_0
 10
107.70727914207779
 20
530.90765960429235
 30
0.0
 11
108.20727914207779
 21
533.67764861796422
 31
0.0
  0
LINE
  5
18A56
  8
AM_0
 10
112.2011451088747
 20
531.29293732890164
 30
0.0
 11
112.2011451088747
 21
530.08157732890174
 31
0.0
  0
ARC
  5
18A57
  8
AM_0
 10
114.2011451088747
 20
532.68581732890163
 30
0.0
 40
1.0
 50
269.9999969999991
 51
0.0
  0
ARC
  5
18A58
  8
AM_0
 10
114.2011451088747
 20
528.6858373289017
 30
0.0
 40
1.0
 50
0.0
 51
90.0
  0
LINE
  5
18A59
  8
AM_0
 10
114.2011451088747
 20
539.68582732890172
 30
0.0
 11
111.2011451088747
 21
539.68582732890172
 31
0.0
  0
LINE
  5
18A5A
  8
AM_0
 10
114.2011451088747
 20
541.68581732890163
 30
0.0
 11
111.2011451088747
 21
541.68581732890163
 31
0.0
  0
ARC
  5
18A5B
  8
AM_0
 10
111.2011451088747
 20
540.6858373289017
 30
0.0
 40
1.0
 50
179.99999000000221
 51
269.9999969999991
  0
ARC
  5
18A5C
  8
AM_0
 10
111.2011451088747
 20
540.6858373289017
 30
0.0
 40
1.0
 50
90.0
 51
180.00001000000091
  0
ARC
  5
18A5D
  8
AM_0
 10
114.2011451088747
 20
538.68581732890163
 30
0.0
 40
1.0
 50
0.0
 51
90.0
  0
LINE
  5
18A5E
  8
AM_0
 10
112.2011451088747
 20
541.3120573289018
 30
0.0
 11
112.2011451088747
 21
539.94919732890185
 31
0.0
  0
ARC
  5
18A5F
  8
AM_0
 10
114.2011451088747
 20
542.68582732890172
 30
0.0
 40
1.0
 50
269.9999969999991
 51
0.0
  0
LINE
  5
18A60
  8
AM_0
 10
112.05746510887469
 20
549.38476232890173
 30
0.0
 11
110.90707510887459
 21
549.03091132890177
 31
0.0
  0
LINE
  5
18A61
  8
AM_0
 10
112.0130351088746
 20
551.29472832890156
 30
0.0
 11
110.8083251088746
 21
550.78021632890159
 31
0.0
  0
ARC
  5
18A62
  8
AM_0
 10
111.2011451088747
 20
548.07510032890173
 30
0.0
 40
1.0
 50
107.09763000000039
 51
180.00001000000091
  0
ARC
  5
18A63
  8
AM_0
 10
111.2011451088747
 20
549.86056232890178
 30
0.0
 40
1.0
 50
113.1270199999981
 51
180.00001000000091
  0
ARC
  5
18A64
  8
AM_0
 10
112.4057951088747
 20
550.37508832890171
 30
0.0
 40
1.0
 50
90.0
 51
113.1270299999985
  0
LINE
  5
18A65
  8
AM_0
 10
112.2011451088747
 20
551.0787173289018
 30
0.0
 11
112.2011451088747
 21
550.01876532890162
 31
0.0
  0
ARC
  5
18A66
  8
AM_0
 10
114.50113510887461
 20
552.07503932890165
 30
0.0
 40
0.6999999900000004
 50
269.9999969999991
 51
0.0
  0
LINE
  5
18A67
  8
AM_0
 10
112.4057951088747
 20
551.37509632890169
 30
0.0
 11
114.50113510887461
 21
551.37509632890169
 31
0.0
  0
LINE
  5
18A68
  8
AM_0
 10
112.3514751088745
 20
549.42898232890172
 30
0.0
 11
114.2011451088747
 21
549.42898232890172
 31
0.0
  0
ARC
  5
18A69
  8
AM_0
 10
112.3514751088745
 20
548.42899732890157
 30
0.0
 40
1.0
 50
90.0
 51
107.09763000000039
  0
ARC
  5
18A6A
  8
AM_0
 10
114.2011451088747
 20
548.42899732890157
 30
0.0
 40
1.0
 50
0.0
 51
90.0
  0
LINE
  5
18A6B
  8
AM_0
 10
111.95139510887461
 20
558.64699232890155
 30
0.0
 11
110.6527451088747
 21
557.79542932890172
 31
0.0
  0
LINE
  5
18A6C
  8
AM_0
 10
111.9670751088746
 20
557.53365732890177
 30
0.0
 11
110.69571510887459
 21
556.78897532890176
 31
0.0
  0
ARC
  5
18A6D
  8
AM_0
 10
111.2011451088747
 20
555.92606832890169
 30
0.0
 40
1.0
 50
120.35951000000171
 51
180.00001000000091
  0
ARC
  5
18A6E
  8
AM_0
 10
111.2011451088747
 20
555.92606832890169
 30
0.0
 40
1.0
 50
120.35951000000171
 51
180.00001000000091
  0
LINE
  5
18A6F
  8
AM_0
 10
110.69571510887459
 20
556.78893732890162
 30
0.0
 11
110.67215510887461
 21
556.77511232890163
 31
0.0
  0
ARC
  5
18A70
  8
AM_0
 10
111.2011451088747
 20
556.95919432890162
 30
0.0
 40
1.0
 50
123.2547200000013
 51
180.00001000000091
  0
ARC
  5
18A71
  8
AM_0
 10
114.2011451088747
 20
556.6707583289018
 30
0.0
 40
1.0
 50
0.0
 51
25.363240000000559
  0
ARC
  5
18A72
  8
AM_0
 10
112.49979510887459
 20
557.81077232890163
 30
0.0
 40
1.0
 50
90.0
 51
123.25473000000071
  0
ARC
  5
18A73
  8
AM_0
 10
112.47244510887469
 20
556.6707583289018
 30
0.0
 40
1.0
 50
90.0
 51
120.3595000000014
  0
LINE
  5
18A74
  8
AM_0
 10
112.2011451088747
 20
558.51627832890176
 30
0.0
 11
112.2011451088747
 21
558.04416332890162
 31
0.0
  0
LINE
  5
18A75
  8
AM_0
 10
112.49979510887459
 20
558.81075732890167
 30
0.0
 11
115.2011451088747
 21
558.81075732890167
 31
0.0
  0
LINE
  5
18A76
  8
AM_0
 10
112.47244510887469
 20
557.67074232890172
 30
0.0
 11
114.2011451088747
 21
557.67074232890172
 31
0.0
  0
ARC
  5
18A77
  8
AM_0
 10
114.2011451088747
 20
556.6707583289018
 30
0.0
 40
1.0
 50
0.0
 51
90.0
  0
LINE
  5
18A78
  8
AM_0
 10
111.9635951088746
 20
563.18491832890174
 30
0.0
 11
110.6866851088747
 21
562.4186753289016
 31
0.0
  0
LINE
  5
18A79
  8
AM_0
 10
111.9877651088746
 20
564.18056132890149
 30
0.0
 11
110.7485051088746
 21
563.55153332890154
 31
0.0
  0
LINE
  5
18A7A
  8
AM_0
 10
111.98148510887469
 20
562.07102632890178
 30
0.0
 11
110.7328851088747
 21
561.40916132890163
 31
0.0
  0
LINE
  5
18A7B
  8
AM_0
 10
111.96890510887459
 20
565.30098432890179
 30
0.0
 11
110.7007151088746
 21
564.56800532890179
 31
0.0
  0
ARC
  5
18A7C
  8
AM_0
 10
111.2011451088747
 20
563.70223632890179
 30
0.0
 40
1.0
 50
120.0263900000018
 51
180.00001000000091
  0
ARC
  5
18A7D
  8
AM_0
 10
111.2011451088747
 20
562.65988632890185
 30
0.0
 40
1.0
 50
116.91125000000009
 51
180.00001000000091
  0
ARC
  5
18A7E
  8
AM_0
 10
111.2011451088747
 20
560.52560832890185
 30
0.0
 40
1.0
 50
117.926589999999
 51
180.00001000000091
  0
ARC
  5
18A7F
  8
AM_0
 10
111.2011451088747
 20
561.56118432890185
 30
0.0
 40
1.0
 50
120.96660000000119
 51
180.00001000000091
  0
LINE
  5
18A80
  8
AM_0
 10
112.2011451088747
 20
565.18198032890177
 30
0.0
 11
112.2011451088747
 21
564.65621632890179
 31
0.0
  0
ARC
  5
18A81
  8
AM_0
 10
112.4404051088746
 20
563.28892232890155
 30
0.0
 40
1.0
 50
90.0
 51
116.9112599999988
  0
ARC
  5
18A82
  8
AM_0
 10
112.4781851088746
 20
562.32748132890163
 30
0.0
 40
1.0
 50
90.0
 51
120.96660000000119
  0
ARC
  5
18A83
  8
AM_0
 10
112.4498051088747
 20
561.18746632890145
 30
0.0
 40
1.0
 50
90.0
 51
117.9266000000007
  0
LINE
  5
18A84
  8
AM_0
 10
112.2011451088747
 20
563.08237932890165
 30
0.0
 11
112.2011451088747
 21
562.53635832890177
 31
0.0
  0
ARC
  5
18A85
  8
AM_0
 10
114.2011451088747
 20
561.18746632890145
 30
0.0
 40
1.0
 50
0.0
 51
90.0
  0
ARC
  5
18A86
  8
AM_0
 10
114.7011451088747
 20
563.7889143289018
 30
0.0
 40
0.5
 50
0.0
 51
90.0
  0
LINE
  5
18A87
  8
AM_0
 10
112.4781851088746
 20
563.32748832890161
 30
0.0
 11
115.2011451088747
 21
563.32748832890161
 31
0.0
  0
LINE
  5
18A88
  8
AM_0
 10
112.4498051088747
 20
562.18747432890166
 30
0.0
 11
114.2011451088747
 21
562.18747432890166
 31
0.0
  0
LINE
  5
18A89
  8
AM_0
 10
112.4404051088746
 20
564.28890632890159
 30
0.0
 11
114.7011451088747
 21
564.28890632890159
 31
0.0
  0
ARC
  5
18A8A
  8
AM_0
 10
112.4693351088747
 20
564.43520832890158
 30
0.0
 40
1.0
 50
90.0
 51
120.0263999999994
  0
ARC
  5
18A8B
  8
AM_0
 10
114.7011451088747
 20
565.93520832890147
 30
0.0
 40
0.5
 50
269.9999969999991
 51
0.0
  0
LINE
  5
18A8C
  8
AM_0
 10
112.4693351088747
 20
565.43521532890179
 30
0.0
 11
114.7011451088747
 21
565.43521532890179
 31
0.0
  0
LINE
  5
18A8D
  8
AM_0
 10
115.2011451088747
 20
565.68581832890175
 30
0.0
 11
116.2011451088747
 21
565.68581832890175
 31
0.0
  0
LINE
  5
18A8E
  8
AM_0
 10
127.4011851088746
 20
571.97084765251111
 30
0.0
 11
224.3211451088747
 21
571.97084765251111
 31
0.0
  0
LINE
  5
18A8F
  8
AM_0
 10
149.70117510887471
 20
553.9108356525112
 30
0.0
 11
229.45595158232061
 21
553.9108356525112
 31
0.0
  0
LINE
  5
18A90
  8
AM_0
 10
149.70117510887471
 20
477.46085065251123
 30
0.0
 11
229.45595332740871
 21
477.46085065251123
 31
0.0
  0
LINE
  5
18A91
  8
AM_0
 10
225.54117510887471
 20
551.68580874295105
 30
0.0
 11
126.56113510887479
 21
551.68580874295105
 31
0.0
  0
LINE
  5
18A92
  8
AM_0
 10
225.54117510887471
 20
549.68580874295117
 30
0.0
 11
126.56113510887479
 21
549.68580874295117
 31
0.0
  0
LINE
  5
18A93
  8
AM_0
 10
225.5339751088747
 20
539.68580874295128
 30
0.0
 11
126.56113510887479
 21
539.68580874295128
 31
0.0
  0
LINE
  5
18A94
  8
AM_0
 10
125.8811351088747
 20
552.40577874295116
 30
0.0
 11
229.02115510887469
 21
552.40577874295116
 31
0.0
  0
LINE
  5
18A95
  8
AM_0
 10
125.6611651088747
 20
539.24586874295107
 30
0.0
 11
229.23538510887479
 21
539.24586874295107
 31
0.0
  0
LINE
  5
18A96
  8
AM_0
 10
125.6611651088747
 20
542.17579874295132
 30
0.0
 11
229.2468051088747
 21
542.17579874295132
 31
0.0
  0
LINE
  5
18A97
  8
AM_0
 10
225.54831510887479
 20
541.68580874295117
 30
0.0
 11
126.56113510887479
 21
541.68580874295117
 31
0.0
  0
LINE
  5
18A98
  8
AM_0
 10
125.8811351088747
 20
549.0557987429512
 30
0.0
 11
229.02115510887469
 21
549.05579874295086
 31
0.0
  0
LINE
  5
18A99
  8
AM_0
 10
125.5311651088747
 20
532.0257687429513
 30
0.0
 11
229.52974306527511
 21
532.0257687429513
 31
0.0
  0
LINE
  5
18A9A
  8
AM_0
 10
125.5311651088747
 20
529.3658587429511
 30
0.0
 11
229.3782175668681
 21
529.3658587429511
 31
0.0
  0
LINE
  5
18A9B
  8
AM_0
 10
125.4711651088747
 20
521.95582874295121
 30
0.0
 11
229.5872643623816
 21
521.95582874295121
 31
0.0
  0
LINE
  5
18A9C
  8
AM_0
 10
125.4711651088747
 20
519.42579874295132
 30
0.0
 11
229.42397708488409
 21
519.42579874295132
 31
0.0
  0
LINE
  5
18A9D
  8
AM_0
 10
225.54451140228599
 20
519.68580874295128
 30
0.0
 11
126.56113510887479
 21
519.68580874295128
 31
0.0
  0
LINE
  5
18A9E
  8
AM_0
 10
225.54451140228599
 20
521.68580874295105
 30
0.0
 11
126.56113510887479
 21
521.68580874295105
 31
0.0
  0
LINE
  5
18A9F
  8
AM_0
 10
225.54451140228241
 20
529.68580874295105
 30
0.0
 11
126.56113510887479
 21
529.68580874295105
 31
0.0
  0
LINE
  5
18AA0
  8
AM_0
 10
225.54451140230719
 20
531.68580874295105
 30
0.0
 11
126.56113510887479
 21
531.68580874295128
 31
0.0
  0
LINE
  5
18AA1
  8
AM_0
 10
225.54450745241431
 20
499.68581038626382
 30
0.0
 11
126.56113115898491
 21
499.6858348221233
 31
0.0
  0
LINE
  5
18AA2
  8
AM_0
 10
225.54450794612609
 20
501.6858103862636
 30
0.0
 11
126.5611316527216
 21
501.6858348221233
 31
0.0
  0
LINE
  5
18AA3
  8
AM_0
 10
225.5445099210763
 20
509.68581038626343
 30
0.0
 11
126.5611336276681
 21
509.68583482212301
 31
0.0
  0
LINE
  5
18AA4
  8
AM_0
 10
225.54451041481289
 20
511.68581038626309
 30
0.0
 11
126.56113412140471
 21
511.6858348221229
 31
0.0
  0
LINE
  5
18AA5
  8
AM_0
 10
125.4711641855929
 20
511.9458450912017
 30
0.0
 11
229.4239761615992
 21
511.94581942854609
 31
0.0
  0
LINE
  5
18AA6
  8
AM_0
 10
125.47116356100859
 20
509.41581509120198
 30
0.0
 11
229.5872628145124
 21
509.41578938823579
 31
0.0
  0
LINE
  5
18AA7
  8
AM_0
 10
125.5311617317071
 20
502.00578507639028
 30
0.0
 11
229.3782141896973
 21
502.00575943984308
 31
0.0
  0
LINE
  5
18AA8
  8
AM_0
 10
125.5311610750595
 20
499.34587507639009
 30
0.0
 11
229.52973903145681
 21
499.34584940243622
 31
0.0
  0
LINE
  5
18AA9
  8
AM_0
 10
125.8811268708846
 20
482.31584498999422
 30
0.0
 11
229.02114687088149
 21
482.31581952799098
 31
0.0
  0
LINE
  5
18AAA
  8
AM_0
 10
225.54830869029871
 20
489.685810385325
 30
0.0
 11
126.5611286903017
 21
489.68583482212358
 31
0.0
  0
LINE
  5
18AAB
  8
AM_0
 10
125.6611585693387
 20
489.19584504429758
 30
0.0
 11
229.24679856933551
 21
489.195819472285
 31
0.0
  0
LINE
  5
18AAC
  8
AM_0
 10
125.66115929264561
 20
492.1257750442976
 30
0.0
 11
229.23537929264251
 21
492.12574947510421
 31
0.0
  0
LINE
  5
18AAD
  8
AM_0
 10
125.8811260438807
 20
478.9658649899942
 30
0.0
 11
229.02114604387751
 21
478.96583952799108
 31
0.0
  0
LINE
  5
18AAE
  8
AM_0
 10
225.5339691840353
 20
491.68581038886498
 30
0.0
 11
126.56112918403841
 21
491.68583482212358
 31
0.0
  0
LINE
  5
18AAF
  8
AM_0
 10
225.54116671535209
 20
481.68581038708771
 30
0.0
 11
126.5611267153552
 21
481.68583482212381
 31
0.0
  0
LINE
  5
18AB0
  8
AM_0
 10
225.5411662216155
 20
479.685810387088
 30
0.0
 11
126.56112622161849
 21
479.6858348221237
 31
0.0
  0
LINE
  5
18AB1
  8
AM_0
 10
127.4011851088746
 20
459.40084065251108
 30
0.0
 11
224.3211451088747
 21
459.40084065251108
 31
0.0
  0
LINE
  5
18AB2
  8
ｶｸﾚｾﾝ2
 10
212.70117510887451
 20
544.1858051026652
 30
0.0
 11
212.70117510887451
 21
487.1858051026652
 31
0.0
  0
LINE
  5
18AB3
  8
ｶｸﾚｾﾝ2
 10
132.70117510887451
 20
487.1858051026652
 30
0.0
 11
132.70117510887459
 21
544.1858051026652
 31
0.0
  0
LINE
  5
18AB4
  8
AM_0
 10
124.20117510887459
 20
462.69083065251118
 30
0.0
 11
124.20117510887459
 21
565.13082865251113
 31
0.0
  0
LINE
  5
18AB5
  8
ﾁｭｳｼﾝｾﾝ1
 10
181.20117510887451
 20
475.06081383781452
 30
0.0
 11
181.20117510887451
 21
556.3108168378144
 31
0.0
  0
ARC
  5
18AB6
  8
AM_0
 10
125.4653051088747
 20
520.69080874295105
 30
0.0
 40
1.2650129999999991
 50
89.735578999998495
 51
270.2644099999992
  0
ARC
  5
18AB7
  8
AM_0
 10
126.74576510887471
 20
520.68580874295117
 30
0.0
 40
1.000013899999999
 50
89.691659999999231
 51
270.30834000000078
  0
LINE
  5
18AB8
  8
ｶｸﾚｾﾝ2
 10
209.70117510887451
 20
484.1858051026652
 30
0.0
 11
135.70117510887439
 21
484.1858051026652
 31
0.0
  0
POLYLINE
  5
18AB9
  8
AM_0
 66
     1
 10
0.0
 20
0.0
 30
0.0
  0
VERTEX
  5
18ABA
  8
AM_0
 10
128.0620385710568
 20
489.20280445159648
 30
0.0
 42
0.00068898288
  0
VERTEX
  5
18ABB
  8
AM_0
 10
128.13291842916919
 20
488.62805443409837
 30
0.0
 42
0.00070644354
  0
VERTEX
  5
18ABC
  8
AM_0
 10
128.20541828729651
 20
488.05336441620062
 30
0.0
 42
0.00069248071
  0
VERTEX
  5
18ABD
  8
AM_0
 10
128.2795081455175
 20
487.47905439790998
 30
0.0
 42
0.00069585665
  0
VERTEX
  5
18ABE
  8
AM_0
 10
128.3551880037806
 20
486.90491437922708
 30
0.0
 42
0.00068980191
  0
VERTEX
  5
18ABF
  8
AM_0
 10
128.43248786207801
 20
486.33091436014399
 30
0.0
 42
0.00072080104
  0
VERTEX
  5
18AC0
  8
AM_0
 10
128.51137772042759
 20
485.75712434066872
 30
0.0
 42
0.00071002307
  0
VERTEX
  5
18AC1
  8
AM_0
 10
128.591917578856
 20
485.1836543207861
 30
0.0
 42
0.00072659056
  0
VERTEX
  5
18AC2
  8
AM_0
 10
128.67407743737579
 20
484.6105543005034
 30
0.0
 42
0.00069570481
  0
VERTEX
  5
18AC3
  8
AM_0
 10
128.75789729591281
 20
484.03752427981073
 30
0.0
 42
0.00071266935
  0
VERTEX
  5
18AC4
  8
AM_0
 10
128.8433271545141
 20
483.4647542587208
 30
0.0
 42
0.00071614426
  0
VERTEX
  5
18AC5
  8
AM_0
 10
128.9303570132214
 20
482.89241423723598
 30
0.0
 42
0.00072288975
  0
VERTEX
  5
18AC6
  8
AM_0
 10
129.01906687193861
 20
482.32011421533622
 30
0.0
  0
SEQEND
  5
18AC7
  8
AM_0
  0
LINE
  5
18AC8
  8
AM_0
 10
149.70111510887469
 20
477.46084065251108
 30
0.0
 11
129.5236851088747
 21
478.96084065251108
 31
0.0
  0
LINE
  5
18AC9
  8
AM_0
 10
129.5260623251867
 20
478.9658640901751
 30
0.0
 11
124.20117510887459
 21
467.59084065251108
 31
0.0
  0
LINE
  5
18ACA
  8
AM_0
 10
124.20117510887459
 20
467.5908306525111
 30
0.0
 11
125.4411651088747
 21
461.0308306525111
 31
0.0
  0
LINE
  5
18ACB
  8
AM_0
 10
124.20117510887459
 20
466.25083065251101
 30
0.0
 11
125.4811451088746
 21
458.24084065251122
 31
0.0
  0
ARC
  5
18ACC
  8
AM_0
 10
127.4040551088746
 20
461.39774065251112
 30
0.0
 40
1.996903999999998
 50
190.5874399999984
 51
269.91652600000037
  0
ARC
  5
18ACD
  8
AM_0
 10
126.7457564684868
 20
480.6858347765446
 30
0.0
 40
1.000013899999999
 50
89.691645855484865
 51
270.30832585548637
  0
ARC
  5
18ACE
  8
AM_0
 10
125.8737464573679
 20
480.64079499181622
 30
0.0
 40
1.6750160000000001
 50
89.746115855485471
 51
270.25384085548518
  0
ARC
  5
18ACF
  8
ｶｸﾚｾﾝ2
 10
135.70117510887439
 20
487.1858051026652
 30
0.0
 40
3.0
 50
180.0
 51
270.0
  0
POLYLINE
  5
18AD0
  8
AM_0
 66
     1
 10
0.0
 20
0.0
 30
0.0
  0
VERTEX
  5
18AD1
  8
AM_0
 10
126.6051935609198
 20
509.41545481124598
 30
0.0
 42
0.00076691992
  0
VERTEX
  5
18AD2
  8
AM_0
 10
126.6199934084118
 20
508.79768480759242
 30
0.0
 42
0.00073262792
  0
VERTEX
  5
18AD3
  8
AM_0
 10
126.6366332559485
 20
508.18009480348422
 30
0.0
 42
0.00076529537
  0
VERTEX
  5
18AD4
  8
AM_0
 10
126.6551231034653
 20
507.56242479892001
 30
0.0
 42
0.00075141097
  0
VERTEX
  5
18AD5
  8
AM_0
 10
126.6754929509995
 20
506.9448247938912
 30
0.0
 42
0.00075841687
  0
VERTEX
  5
18AD6
  8
AM_0
 10
126.6977227985756
 20
506.32739478840341
 30
0.0
 42
0.00075711788
  0
VERTEX
  5
18AD7
  8
AM_0
 10
126.7218326461319
 20
505.70988478245113
 30
0.0
 42
0.00075976003
  0
VERTEX
  5
18AD8
  8
AM_0
 10
126.74782249371781
 20
505.09249477603521
 30
0.0
 42
0.00075797311
  0
VERTEX
  5
18AD9
  8
AM_0
 10
126.775662341331
 20
504.47521476916239
 30
0.0
 42
0.0007482613
  0
VERTEX
  5
18ADA
  8
AM_0
 10
126.8053921889195
 20
503.85783476182309
 30
0.0
 42
0.00074893561
  0
VERTEX
  5
18ADB
  8
AM_0
 10
126.8369520365695
 20
503.24070475403198
 30
0.0
 42
0.00076039839
  0
VERTEX
  5
18ADC
  8
AM_0
 10
126.87037188424441
 20
502.62367474578173
 30
0.0
 42
0.00075618786
  0
VERTEX
  5
18ADD
  8
AM_0
 10
126.9056717319168
 20
502.00663473706692
 30
0.0
  0
SEQEND
  5
18ADE
  8
AM_0
  0
POLYLINE
  5
18ADF
  8
AM_0
 66
     1
 10
0.0
 20
0.0
 30
0.0
  0
VERTEX
  5
18AE0
  8
AM_0
 10
127.0793810749088
 20
499.34526469418358
 30
0.0
 42
0.0007337051
  0
VERTEX
  5
18AE1
  8
AM_0
 10
127.12352092619049
 20
498.74284468328682
 30
0.0
 42
0.00075211323
  0
VERTEX
  5
18AE2
  8
AM_0
 10
127.1694607774794
 20
498.1404546719458
 30
0.0
 42
0.0007297491
  0
VERTEX
  5
18AE3
  8
AM_0
 10
127.2171906288153
 20
497.53825466016281
 30
0.0
 42
0.00073593041
  0
VERTEX
  5
18AE4
  8
AM_0
 10
127.2666704802031
 20
496.93626464794801
 30
0.0
 42
0.00074742739
  0
VERTEX
  5
18AE5
  8
AM_0
 10
127.31794033162051
 20
496.33439463529112
 30
0.0
 42
0.00073217363
  0
VERTEX
  5
18AE6
  8
AM_0
 10
127.3710001830551
 20
495.73259462219232
 30
0.0
 42
0.00073754168
  0
VERTEX
  5
18AE7
  8
AM_0
 10
127.42582003455379
 20
495.13105460865893
 30
0.0
 42
0.00073075073
  0
VERTEX
  5
18AE8
  8
AM_0
 10
127.4823998860972
 20
494.52969459469108
 30
0.0
 42
0.00074550816
  0
VERTEX
  5
18AE9
  8
AM_0
 10
127.5407397377145
 20
493.92863458028881
 30
0.0
 42
0.00074288416
  0
VERTEX
  5
18AEA
  8
AM_0
 10
127.6008895893417
 20
493.3276145654396
 30
0.0
 42
0.00072504001
  0
VERTEX
  5
18AEB
  8
AM_0
 10
127.6627994410356
 20
492.72686455015611
 30
0.0
 42
0.00074640667
  0
VERTEX
  5
18AEC
  8
AM_0
 10
127.7264692927664
 20
492.12626453443812
 30
0.0
  0
SEQEND
  5
18AED
  8
AM_0
  0
ARC
  5
18AEE
  8
AM_0
 10
126.74575893717
 20
490.68583477654431
 30
0.0
 40
1.000013899999999
 50
89.691645855484865
 51
270.30832585548637
  0
ARC
  5
18AEF
  8
AM_0
 10
125.66115893099339
 20
490.66081504429758
 30
0.0
 40
1.465004
 50
89.999985855485264
 51
269.99998285548429
  0
ARC
  5
18AF0
  8
AM_0
 10
126.7457614058532
 20
500.68583477654403
 30
0.0
 40
1.000013899999999
 50
89.691645855484865
 51
270.30832585548637
  0
ARC
  5
18AF1
  8
AM_0
 10
125.531161403382
 20
500.67582507639031
 30
0.0
 40
1.3300049999999981
 50
89.999985855485264
 51
269.99998285548429
  0
POLYLINE
  5
18AF2
  8
AM_0
 66
     1
 10
0.0
 20
0.0
 30
0.0
  0
VERTEX
  5
18AF3
  8
AM_0
 10
126.56113510887801
 20
515.68583482212284
 30
0.0
 42
0.00039106649
  0
VERTEX
  5
18AF4
  8
AM_0
 10
126.5587750320698
 20
515.37470482270521
 30
0.0
 42
0.00035488198
  0
VERTEX
  5
18AF5
  8
AM_0
 10
126.5568849552666
 20
515.06359482317214
 30
0.0
 42
0.00039706113
  0
VERTEX
  5
18AF6
  8
AM_0
 10
126.55545487846329
 20
514.75248482352481
 30
0.0
 42
0.00038765718
  0
VERTEX
  5
18AF7
  8
AM_0
 10
126.5545248016527
 20
514.44134482375455
 30
0.0
 42
0.00040613432
  0
VERTEX
  5
18AF8
  8
AM_0
 10
126.554074724852
 20
514.13024482386572
 30
0.0
 42
0.00035573434
  0
VERTEX
  5
18AF9
  8
AM_0
 10
126.55411464804889
 20
513.81913482385585
 30
0.0
 42
0.00038545884
  0
VERTEX
  5
18AFA
  8
AM_0
 10
126.5546045712407
 20
513.50800482373495
 30
0.0
 42
0.00035501205
  0
VERTEX
  5
18AFB
  8
AM_0
 10
126.5555644944375
 20
513.19689482349804
 30
0.0
 42
0.00040120779
  0
VERTEX
  5
18AFC
  8
AM_0
 10
126.5569844176047
 20
512.88566482314741
 30
0.0
 42
0.00038317817
  0
VERTEX
  5
18AFD
  8
AM_0
 10
126.5588943407966
 20
512.57453482267556
 30
0.0
 42
0.00035656084
  0
VERTEX
  5
18AFE
  8
AM_0
 10
126.5612742639612
 20
512.26329482208826
 30
0.0
 42
0.00040143615
  0
VERTEX
  5
18AFF
  8
AM_0
 10
126.5641241871605
 20
511.95219482138481
 30
0.0
  0
SEQEND
  5
18B00
  8
AM_0
  0
ARC
  5
18B01
  8
AM_0
 10
126.74576387453629
 20
510.68583477654357
 30
0.0
 40
1.000013899999999
 50
89.691645855484865
 51
270.30832585548637
  0
ARC
  5
18B02
  8
AM_0
 10
125.46530387330201
 20
510.68083509264852
 30
0.0
 40
1.2650129999999991
 50
89.735575855488491
 51
270.26440685548931
  0
POLYLINE
  5
18B03
  8
AM_0
 66
     1
 10
0.0
 20
0.0
 30
0.0
  0
VERTEX
  5
18B04
  8
AM_0
 10
126.56113510887479
 20
515.68580874295128
 30
0.0
 42
-0.00039106649
  0
VERTEX
  5
18B05
  8
AM_0
 10
126.5587751088747
 20
515.99693874295133
 30
0.0
 42
-0.00035488198
  0
VERTEX
  5
18B06
  8
AM_0
 10
126.5568851088747
 20
516.30804874295086
 30
0.0
 42
-0.00039706113
  0
VERTEX
  5
18B07
  8
AM_0
 10
126.5554551088747
 20
516.6191587429513
 30
0.0
 42
-0.00038765718
  0
VERTEX
  5
18B08
  8
AM_0
 10
126.5545251088746
 20
516.93029874295132
 30
0.0
 42
-0.00040613432
  0
VERTEX
  5
18B09
  8
AM_0
 10
126.5540751088746
 20
517.24139874295122
 30
0.0
 42
-0.00035573434
  0
VERTEX
  5
18B0A
  8
AM_0
 10
126.5541151088747
 20
517.5525087429512
 30
0.0
 42
-0.00038545884
  0
VERTEX
  5
18B0B
  8
AM_0
 10
126.5546051088747
 20
517.86363874295125
 30
0.0
 42
-0.00035501205
  0
VERTEX
  5
18B0C
  8
AM_0
 10
126.5555651088747
 20
518.17474874295124
 30
0.0
 42
-0.00040120779
  0
VERTEX
  5
18B0D
  8
AM_0
 10
126.5569851088747
 20
518.48597874295126
 30
0.0
 42
-0.00038317817
  0
VERTEX
  5
18B0E
  8
AM_0
 10
126.55889510887469
 20
518.79710874295131
 30
0.0
 42
-0.00035656084
  0
VERTEX
  5
18B0F
  8
AM_0
 10
126.5612751088746
 20
519.10834874295131
 30
0.0
 42
-0.00040143615
  0
VERTEX
  5
18B10
  8
AM_0
 10
126.56412510887471
 20
519.4194487429512
 30
0.0
  0
SEQEND
  5
18B11
  8
AM_0
  0
ARC
  5
18B12
  8
ｶｸﾚｾﾝ2
 10
209.70117510887459
 20
487.1858051026652
 30
0.0
 40
3.0
 50
270.0
 51
0.0
  0
LINE
  5
18B13
  8
ｶｸﾚｾﾝ2
 10
209.70117510887459
 20
547.1858051026652
 30
0.0
 11
135.70117510887459
 21
547.1858051026652
 31
0.0
  0
ARC
  5
18B14
  8
AM_0
 10
125.8737551088747
 20
550.73084874295125
 30
0.0
 40
1.6750160000000001
 50
89.746145000001235
 51
270.25387000000092
  0
POLYLINE
  5
18B15
  8
AM_0
 66
     1
 10
0.0
 20
0.0
 30
0.0
  0
VERTEX
  5
18B16
  8
AM_0
 10
127.0793851088747
 20
532.02637874295124
 30
0.0
 42
-0.0007337051
  0
VERTEX
  5
18B17
  8
AM_0
 10
127.1235251088747
 20
532.62879874295129
 30
0.0
 42
-0.00075211323
  0
VERTEX
  5
18B18
  8
AM_0
 10
127.1694651088747
 20
533.23118874295108
 30
0.0
 42
-0.0007297491
  0
VERTEX
  5
18B19
  8
AM_0
 10
127.21719510887471
 20
533.83338874295123
 30
0.0
 42
-0.00073593041
  0
VERTEX
  5
18B1A
  8
AM_0
 10
127.26667510887469
 20
534.43537874295123
 30
0.0
 42
-0.00074742739
  0
VERTEX
  5
18B1B
  8
AM_0
 10
127.3179451088747
 20
535.03724874295108
 30
0.0
 42
-0.00073217363
  0
VERTEX
  5
18B1C
  8
AM_0
 10
127.3710051088747
 20
535.63904874295122
 30
0.0
 42
-0.00073754168
  0
VERTEX
  5
18B1D
  8
AM_0
 10
127.4258251088747
 20
536.2405887429511
 30
0.0
 42
-0.00073075073
  0
VERTEX
  5
18B1E
  8
AM_0
 10
127.4824051088747
 20
536.84194874295122
 30
0.0
 42
-0.00074550816
  0
VERTEX
  5
18B1F
  8
AM_0
 10
127.5407451088746
 20
537.44300874295106
 30
0.0
 42
-0.00074288416
  0
VERTEX
  5
18B20
  8
AM_0
 10
127.6008951088747
 20
538.04402874295135
 30
0.0
 42
-0.00072504001
  0
VERTEX
  5
18B21
  8
AM_0
 10
127.66280510887469
 20
538.6447787429513
 30
0.0
 42
-0.00074640667
  0
VERTEX
  5
18B22
  8
AM_0
 10
127.72647510887469
 20
539.24537874295129
 30
0.0
  0
SEQEND
  5
18B23
  8
AM_0
  0
POLYLINE
  5
18B24
  8
AM_0
 66
     1
 10
0.0
 20
0.0
 30
0.0
  0
VERTEX
  5
18B25
  8
AM_0
 10
126.6051951088747
 20
521.95618874295121
 30
0.0
 42
-0.00076691992
  0
VERTEX
  5
18B26
  8
AM_0
 10
126.6199951088746
 20
522.57395874295116
 30
0.0
 42
-0.00073262792
  0
VERTEX
  5
18B27
  8
AM_0
 10
126.6366351088747
 20
523.19154874295123
 30
0.0
 42
-0.00076529537
  0
VERTEX
  5
18B28
  8
AM_0
 10
126.6551251088745
 20
523.80921874295097
 30
0.0
 42
-0.00075141097
  0
VERTEX
  5
18B29
  8
AM_0
 10
126.6754951088747
 20
524.42681874295124
 30
0.0
 42
-0.00075841687
  0
VERTEX
  5
18B2A
  8
AM_0
 10
126.69772510887471
 20
525.04424874295125
 30
0.0
 42
-0.00075711788
  0
VERTEX
  5
18B2B
  8
AM_0
 10
126.7218351088747
 20
525.66175874295129
 30
0.0
 42
-0.00075976003
  0
VERTEX
  5
18B2C
  8
AM_0
 10
126.74782510887469
 20
526.27914874295107
 30
0.0
 42
-0.00075797311
  0
VERTEX
  5
18B2D
  8
AM_0
 10
126.7756651088747
 20
526.89642874295123
 30
0.0
 42
-0.0007482613
  0
VERTEX
  5
18B2E
  8
AM_0
 10
126.80539510887471
 20
527.51380874295126
 30
0.0
 42
-0.00074893561
  0
VERTEX
  5
18B2F
  8
AM_0
 10
126.83695510887461
 20
528.13093874295123
 30
0.0
 42
-0.00076039839
  0
VERTEX
  5
18B30
  8
AM_0
 10
126.8703751088747
 20
528.74796874295123
 30
0.0
 42
-0.00075618786
  0
VERTEX
  5
18B31
  8
AM_0
 10
126.9056751088747
 20
529.3650087429512
 30
0.0
  0
SEQEND
  5
18B32
  8
AM_0
  0
ARC
  5
18B33
  8
AM_0
 10
125.5311651088747
 20
530.69581874295125
 30
0.0
 40
1.3300049999999981
 50
90.000003000000945
 51
270.0
  0
ARC
  5
18B34
  8
AM_0
 10
126.74576510887471
 20
530.68580874295105
 30
0.0
 40
1.000013899999999
 50
89.691659999999231
 51
270.30834000000078
  0
POLYLINE
  5
18B35
  8
AM_0
 66
     1
 10
0.0
 20
0.0
 30
0.0
  0
VERTEX
  5
18B36
  8
AM_0
 10
128.0620451088748
 20
542.16883874295115
 30
0.0
 42
-0.00068898288
  0
VERTEX
  5
18B37
  8
AM_0
 10
128.13292510887459
 20
542.74358874295115
 30
0.0
 42
-0.00070644354
  0
VERTEX
  5
18B38
  8
AM_0
 10
128.20542510887469
 20
543.31827874295129
 30
0.0
 42
-0.00069248071
  0
VERTEX
  5
18B39
  8
AM_0
 10
128.2795151088747
 20
543.89258874295115
 30
0.0
 42
-0.00069585665
  0
VERTEX
  5
18B3A
  8
AM_0
 10
128.35519510887471
 20
544.46672874295132
 30
0.0
 42
-0.00068980191
  0
VERTEX
  5
18B3B
  8
AM_0
 10
128.4324951088746
 20
545.04072874295105
 30
0.0
 42
-0.00072080104
  0
VERTEX
  5
18B3C
  8
AM_0
 10
128.5113851088748
 20
545.61451874295119
 30
0.0
 42
-0.00071002307
  0
VERTEX
  5
18B3D
  8
AM_0
 10
128.5919251088747
 20
546.18798874295123
 30
0.0
 42
-0.00072659056
  0
VERTEX
  5
18B3E
  8
AM_0
 10
128.67408510887469
 20
546.7610887429513
 30
0.0
 42
-0.00069570481
  0
VERTEX
  5
18B3F
  8
AM_0
 10
128.7579051088747
 20
547.33411874295132
 30
0.0
 42
-0.00071266935
  0
VERTEX
  5
18B40
  8
AM_0
 10
128.84333510887481
 20
547.90688874295108
 30
0.0
 42
-0.00071614426
  0
VERTEX
  5
18B41
  8
AM_0
 10
128.9303651088747
 20
548.47922874295125
 30
0.0
 42
-0.00072288975
  0
VERTEX
  5
18B42
  8
AM_0
 10
129.01907510887469
 20
549.05152874295129
 30
0.0
  0
SEQEND
  5
18B43
  8
AM_0
  0
ARC
  5
18B44
  8
AM_0
 10
126.74576510887471
 20
540.68580874295128
 30
0.0
 40
1.000013899999999
 50
89.691659999999231
 51
270.30834000000078
  0
ARC
  5
18B45
  8
AM_0
 10
125.6611651088747
 20
540.71082874295132
 30
0.0
 40
1.465004
 50
90.000003000000945
 51
270.0
  0
ARC
  5
18B46
  8
AM_0
 10
126.74576510887471
 20
550.68580874295105
 30
0.0
 40
1.000013899999999
 50
89.691659999999231
 51
270.30834000000078
  0
ARC
  5
18B47
  8
ｶｸﾚｾﾝ2
 10
135.70117510887439
 20
544.1858051026652
 30
0.0
 40
3.0
 50
90.0
 51
180.0
  0
LINE
  5
18B48
  8
AM_0
 10
127.45117510887469
 20
574.82083865251127
 30
0.0
 11
161.20117510887471
 21
574.82083865251127
 31
0.0
  0
LINE
  5
18B49
  8
AM_0
 10
127.4711951088746
 20
576.66084265251106
 30
0.0
 11
161.20117510887471
 21
576.66084265251106
 31
0.0
  0
LINE
  5
18B4A
  8
AM_0
 10
127.49115510887459
 20
577.58083365251105
 30
0.0
 11
161.20117510887471
 21
577.58083365251105
 31
0.0
  0
LINE
  5
18B4B
  8
AM_0
 10
149.70117510887471
 20
553.9108356525112
 30
0.0
 11
129.5283251088745
 21
552.41083565251085
 31
0.0
  0
LINE
  5
18B4C
  8
AM_0
 10
124.20117510887459
 20
563.78085365251115
 30
0.0
 11
125.4411651088747
 21
570.34085065251111
 31
0.0
  0
LINE
  5
18B4D
  8
AM_0
 10
124.20117510887459
 20
565.1308446525112
 30
0.0
 11
125.4811451088746
 21
573.13083665251099
 31
0.0
  0
LINE
  5
18B4E
  8
AM_0
 10
124.2012351088746
 20
566.47084065251124
 30
0.0
 11
125.4912151088747
 21
574.97083265251115
 31
0.0
  0
LINE
  5
18B4F
  8
AM_0
 10
124.20117510887459
 20
566.47081765251107
 30
0.0
 11
125.5111751088746
 21
575.85082265251106
 31
0.0
  0
LINE
  5
18B50
  8
AM_0
 10
129.5307224481584
 20
552.4057787429515
 30
0.0
 11
124.2011151088747
 21
563.78081565251125
 31
0.0
  0
ARC
  5
18B51
  8
AM_0
 10
127.49329510887461
 20
575.58036065251122
 30
0.0
 40
2.0004758999999992
 50
90.060310000000726
 51
172.22953999999919
  0
ARC
  5
18B52
  8
AM_0
 10
127.4647251088747
 20
574.66350565251116
 30
0.0
 40
1.9973480999999991
 50
89.815319999999133
 51
171.14853000000031
  0
ARC
  5
18B53
  8
AM_0
 10
127.4571551088746
 20
572.82066365251114
 30
0.0
 40
2.0001840999999989
 50
90.171470000000767
 51
171.07900000000049
  0
ARC
  5
18B54
  8
AM_0
 10
127.40582510887469
 20
569.97183965251111
 30
0.0
 40
1.9990078999999981
 50
90.133450000000252
 51
169.36258999999981
  0
ARC
  5
18B55
  8
AM_0
 10
161.19318510887459
 20
575.57283065251113
 30
0.0
 40
2.0080360999999991
 50
0.2287899999994382
 51
89.771210000000551
  0
ARC
  5
18B56
  8
AM_0
 10
161.1978851088746
 20
574.65755465251118
 30
0.0
 40
2.003279899999999
 50
0.093790000000395
 51
89.906209999999604
  0
ARC
  5
18B57
  8
AM_0
 10
161.1939751088747
 20
572.81365965251121
 30
0.0
 40
2.0071799999999991
 50
0.2046200000009718
 51
89.795379999999028
  0
LINE
  5
18B58
  8
AM_0
 10
163.20117510887471
 20
575.58084065251126
 30
0.0
 11
163.20117510887471
 21
571.97084765251111
 31
0.0
  0
ARC
  5
18B59
  8
ｶｸﾚｾﾝ2
 10
209.70117510887459
 20
544.1858051026652
 30
0.0
 40
3.0
 50
0.0
 51
90.0
  0
LINE
  5
18B5A
  8
AM_0
 10
232.20117510887471
 20
459.6858406525111
 30
0.0
 11
232.20117510887471
 21
571.68584465251126
 31
0.0
  0
ARC
  5
18B5B
  8
AM_0
 10
229.42807150887469
 20
520.69581874295125
 30
0.0
 40
1.2700266
 50
269.62932000000001
 51
90.370670000001425
  0
ARC
  5
18B5C
  8
AM_0
 10
225.5411350088747
 20
520.68580874295117
 30
0.0
 40
1.0000056999999971
 50
269.999989999999
 51
90.000003000000945
  0
LINE
  5
18B5D
  8
AM_0
 10
232.20117510887471
 20
459.6858406525111
 30
0.0
 11
240.2011451088747
 21
459.6858406525111
 31
0.0
  0
LINE
  5
18B5E
  8
AM_0
 10
232.20117510887471
 20
483.74583065251107
 30
0.0
 11
240.2011451088747
 21
483.74583065251107
 31
0.0
  0
LINE
  5
18B5F
  8
AM_0
 10
232.20117510887471
 20
469.6858406525111
 30
0.0
 11
240.2011451088747
 21
469.6858406525111
 31
0.0
  0
LINE
  5
18B60
  8
AM_0
 10
229.03295984549919
 20
471.25376044524978
 30
0.0
 11
226.2511951088747
 21
460.89083065251111
 31
0.0
  0
ARC
  5
18B61
  8
AM_0
 10
224.3183651088747
 20
461.3994406525112
 30
0.0
 40
1.9986041000000001
 50
270.08048399999888
 51
345.25728400000048
  0
LINE
  5
18B62
  8
AM_0
 10
226.74115510887469
 20
462.69083065251118
 30
0.0
 11
232.20117510887471
 21
462.69083065251118
 31
0.0
  0
ARC
  5
18B63
  8
AM_0
 10
225.54116646848371
 20
480.68581038708788
 30
0.0
 40
1.0
 50
269.99998285548429
 51
89.999995855486276
  0
ARC
  5
18B64
  8
AM_0
 10
229.02112628960501
 20
480.64079352799678
 30
0.0
 40
1.675026000120903
 50
270.0006727121953
 51
89.999295998819804
  0
ARC
  5
18B66
  8
AM_0
 10
225.5411313058502
 20
500.68581038709698
 30
0.0
 40
1.0000056999999971
 50
269.99998285548429
 51
89.999995855486276
  0
ARC
  5
18B67
  8
AM_0
 10
225.541108937167
 20
490.68581038710249
 30
0.0
 40
1.0000255999999981
 50
269.58945485548588
 51
90.410515855486963
  0
ARC
  5
18B68
  8
AM_0
 10
229.24111892975341
 20
490.65577947368729
 30
0.0
 40
1.460011199999999
 50
269.7752358554871
 51
90.224735855487296
  0
ARC
  5
18B69
  8
AM_0
 10
229.3661178021446
 20
500.67079944282932
 30
0.0
 40
1.3350147999999991
 50
269.73042985548369
 51
90.269555855485152
  0
ARC
  5
18B6A
  8
AM_0
 10
225.54113377453331
 20
510.68581038709681
 30
0.0
 40
1.0000056999999971
 50
269.99998285548429
 51
89.999995855486276
  0
ARC
  5
18B6B
  8
AM_0
 10
229.42807027206209
 20
510.67579942753542
 30
0.0
 40
1.2700266
 50
269.62931585548409
 51
90.370665855485697
  0
ARC
  5
18B6C
  8
AM_0
 10
229.02113494110901
 20
550.73082474295063
 30
0.0
 40
1.675026000120903
 50
270.00068985666542
 51
89.999313143289925
  0
LINE
  5
18B6D
  8
AM_0
 10
232.20117510887471
 20
547.62583165251112
 30
0.0
 11
240.2011451088747
 21
547.62583165251112
 31
0.0
  0
ARC
  5
18B6E
  8
AM_0
 10
225.5411350088747
 20
530.68580874295105
 30
0.0
 40
1.0000056999999971
 50
269.999989999999
 51
90.000003000000945
  0
ARC
  5
18B6F
  8
AM_0
 10
229.3661215088747
 20
530.70081874295124
 30
0.0
 40
1.3350147999999991
 50
269.7304299999999
 51
90.269556000001415
  0
ARC
  5
18B70
  8
AM_0
 10
225.54111510887469
 20
540.68580874295128
 30
0.0
 40
1.0000255999999981
 50
269.58947000000001
 51
90.410531000001029
  0
ARC
  5
18B71
  8
AM_0
 10
225.54117510887471
 20
550.68580874295105
 30
0.0
 40
1.0
 50
269.999989999999
 51
90.000003000000945
  0
ARC
  5
18B72
  8
AM_0
 10
229.24112510887471
 20
540.71583874295106
 30
0.0
 40
1.460011199999999
 50
269.77524999999991
 51
90.224750000000114
  0
LINE
  5
18B73
  8
AM_0
 10
232.20117510887471
 20
571.68584465251126
 30
0.0
 11
240.2011451088747
 21
571.68584465251126
 31
0.0
  0
LINE
  5
18B74
  8
AM_0
 10
232.20117510887471
 20
561.68583665251117
 30
0.0
 11
240.2011451088747
 21
561.68583665251117
 31
0.0
  0
LINE
  5
18B75
  8
AM_0
 10
229.03469325197881
 20
560.11986370418219
 30
0.0
 11
226.25116510887469
 21
570.49082965251125
 31
0.0
  0
ARC
  5
18B76
  8
AM_0
 10
224.3183051088746
 20
569.96870465251106
 30
0.0
 40
2.0021281000000002
 50
15.11669999999812
 51
89.918480000000116
  0
LINE
  5
18B77
  8
AM_0
 10
226.74115510887469
 20
568.69083365251106
 30
0.0
 11
232.20117510887471
 21
568.69083365251106
 31
0.0
  0
LINE
  5
18B78
  8
AM_0
 10
334.20134737253591
 20
462.68578909003048
 30
0.0
 11
334.20134737253591
 21
466.68578920923972
 31
0.0
  0
LINE
  5
18B79
  8
AM_0
 10
334.20134737253591
 20
462.68578909003048
 30
0.0
 11
374.20094856461679
 21
462.68578909003031
 31
0.0
  0
LINE
  5
18B7A
  8
AM_0
 10
334.20134737253591
 20
462.68578909003048
 30
0.0
 11
339.20114800174957
 21
447.68579085966439
 31
0.0
  0
LINE
  5
18B7B
  8
AM_0
 10
369.20114800174957
 20
447.68579085966439
 30
0.0
 11
339.20114800174957
 21
447.68579085966439
 31
0.0
  0
LINE
  5
18B7C
  8
AM_0
 10
374.20094856461679
 20
462.68578909003031
 30
0.0
 11
369.20114800174957
 21
447.68579085966439
 31
0.0
  0
LINE
  5
18B7D
  8
AM_0
 10
374.20094856461679
 20
462.68578909003031
 30
0.0
 11
374.20094856461679
 21
466.6857892092396
 31
0.0
  0
LINE
  5
18B7E
  8
0
 10
366.20114801701828
 20
407.68579089393768
 30
0.0
 11
342.201148017018
 21
407.68579082539111
 31
0.0
  0
LINE
  5
18B7F
  8
0
 10
366.201148017018
 20
407.68579085966451
 30
0.0
 11
366.201148017018
 21
447.68579085966439
 31
0.0
  0
LINE
  5
18B81
  8
0
 10
342.201148017018
 20
407.68579085966462
 30
0.0
 11
342.2011480230309
 21
447.68579085966439
 31
0.0
  0
LINE
  5
18B82
  8
0
 10
350.20114798479869
 20
439.68579081637199
 30
0.0
 11
358.20114798479858
 21
439.68579081637199
 31
0.0
  0
LINE
  5
18BF4
  8
AM_0
 10
350.20114798479869
 20
407.68579084823989
 30
0.0
 11
350.20114798479869
 21
439.68579081637199
 31
0.0
  0
LINE
  5
18BF5
  8
AM_0
 10
358.20114798479858
 20
407.68579087108901
 30
0.0
 11
358.20114798479858
 21
439.68579081637199
 31
0.0
  0
ARC
  5
18BF6
  8
AM_0
 10
354.20114798479858
 20
439.68579081637199
 30
0.0
 40
3.9999999999999432
 50
0.0000000000008142
 51
179.99999999999841
  0
CIRCLE
  5
18BF9
  8
AM_0
 10
354.20114798479858
 20
249.71074284236281
 30
0.0
 40
3.399999999999999
  0
ARC
  5
18F28
  8
AM_0
 10
256.9226810981628
 20
470.68578944237038
 30
0.0
 40
2.0
 50
0.9999885880223155
 51
90.0
1001
GENIUS_GENOBJ-N-FIL_13
1002
{
1000
OWNER
1000
GEN
1002
}
1001
GENIUS_GENODEF_13
1002
{
1000
HIER
1070
     0
1002
}
1002
{
1000
MANEDIT
1070
     0
1002
}
1002
{
1000
NOSEL
1070
     0
1002
}
1002
{
1000
BEHIND
1070
     0
1002
}
1002
{
1000
OTHER
1070
     0
1002
}
1002
{
1000
REACTOR
1002
}
  0
ARC
  5
18F2C
  8
AM_0
 10
255.88924968477991
 20
539.6857917371492
 30
0.0
 40
1.0
 50
189.9999917840691
 51
270.0
1001
GENIUS_GENOBJ-N-CEN_13
1002
{
1000
OWNER
1000
GEN
1002
}
1001
GENIUS_GENODEF_13
1002
{
1000
HIER
1070
     0
1002
}
1002
{
1000
MANEDIT
1070
     0
1002
}
1002
{
1000
NOSEL
1070
     0
1002
}
1002
{
1000
BEHIND
1070
     0
1002
}
1002
{
1000
OTHER
1070
     0
1002
}
1002
{
1000
REACTOR
1002
}
1001
GENIUS_GENOBJ-N-FIL_13
1002
{
1000
OWNER
1000
GEN
1002
}
  0
LINE
  5
190BF
  8
AM_0
 10
682.36786147973362
 20
269.71054345462551
 30
0.0
 11
678.36786136052433
 21
269.71054345462551
 31
0.0
  0
LINE
  5
190C0
  8
AM_0
 10
682.36786147973362
 20
269.71054345462551
 30
0.0
 11
682.36786147973362
 21
229.71094226254471
 31
0.0
  0
LINE
  5
190C1
  8
AM_0
 10
682.36786147973362
 20
269.71054345462551
 30
0.0
 11
697.36785971009965
 21
264.7107428254119
 31
0.0
  0
LINE
  5
190C2
  8
AM_0
 10
697.36785971009965
 20
234.7107428254119
 30
0.0
 11
697.36785971009965
 21
264.7107428254119
 31
0.0
  0
LINE
  5
190C3
  8
AM_0
 10
682.36786147973362
 20
229.71094226254471
 30
0.0
 11
697.36785971009965
 21
234.7107428254119
 31
0.0
  0
LINE
  5
190C4
  8
AM_0
 10
682.36786147973362
 20
229.71094226254471
 30
0.0
 11
678.36786136052433
 21
229.71094226254471
 31
0.0
  0
LINE
  5
190C5
  8
0
 10
737.36785967582625
 20
237.7107428101433
 30
0.0
 11
737.3678597529414
 21
264.7107428101433
 31
0.0
  0
LINE
  5
190C6
  8
0
 10
737.36785971009954
 20
237.7107428101435
 30
0.0
 11
697.36785971009965
 21
237.7107428101435
 31
0.0
  0
LINE
  5
190C7
  8
0
 10
737.36785971009954
 20
264.71074281014347
 30
0.0
 11
705.36785975294129
 21
264.71074281014347
 31
0.0
  0
LINE
  5
190C8
  8
0
 10
737.36785971009954
 20
261.71074281014347
 30
0.0
 11
697.36785971009965
 21
261.71074280413058
 31
0.0
  0
LINE
  5
190C9
  8
0
 10
705.36785975294129
 20
264.71074281014347
 30
0.0
 11
705.36785975339205
 21
261.71074280533321
 31
0.0
  0
LINE
  5
190CA
  8
AM_0
 10
334.20134737253591
 20
568.68577741868853
 30
0.0
 11
334.20134737253591
 21
564.68577729947924
 31
0.0
  0
LINE
  5
190CB
  8
AM_0
 10
334.20134737253591
 20
568.68577741868853
 30
0.0
 11
374.20094856461679
 21
568.68577741868853
 31
0.0
  0
LINE
  5
190CC
  8
AM_0
 10
334.20134737253591
 20
568.68577741868853
 30
0.0
 11
339.20114800174957
 21
583.68577564905445
 31
0.0
  0
LINE
  5
190CD
  8
AM_0
 10
369.20114800174957
 20
583.68577564905445
 30
0.0
 11
339.20114800174957
 21
583.68577564905445
 31
0.0
  0
LINE
  5
190CE
  8
AM_0
 10
374.20094856461679
 20
568.68577741868853
 30
0.0
 11
369.20114800174957
 21
583.68577564905445
 31
0.0
  0
LINE
  5
190CF
  8
AM_0
 10
374.20094856461679
 20
568.68577741868853
 30
0.0
 11
374.20094856461679
 21
564.68577729947924
 31
0.0
  0
LINE
  5
190D0
  8
0
 10
366.20114801701828
 20
623.68577561478128
 30
0.0
 11
342.201148017018
 21
623.68577568332762
 31
0.0
  0
LINE
  5
190D1
  8
0
 10
366.201148017018
 20
623.68577564905445
 30
0.0
 11
366.201148017018
 21
583.68577564905445
 31
0.0
  0
LINE
  5
190D2
  8
0
 10
342.201148017018
 20
623.68577564905445
 30
0.0
 11
342.2011480230309
 21
583.68577564905445
 31
0.0
  0
LINE
  5
190D3
  8
0
 10
350.20114798479869
 20
591.68577569234697
 30
0.0
 11
358.20114798479858
 21
591.68577569234697
 31
0.0
  0
LINE
  5
190D4
  8
AM_0
 10
350.20114798479869
 20
623.68577566047895
 30
0.0
 11
350.20114798479869
 21
591.68577569234697
 31
0.0
  0
LINE
  5
190D5
  8
AM_0
 10
358.20114798479858
 20
623.68577563762983
 30
0.0
 11
358.20114798479858
 21
591.68577569234685
 31
0.0
  0
ARC
  5
190D6
  8
AM_0
 10
354.20114798479858
 20
591.68577569234697
 30
0.0
 40
3.9999999999999432
 50
180.00000000000159
 51
359.9999999999992
  0
TEXT
  5
191F5
  8
AM_0
 10
518.86175535530049
 20
546.92091910413183
 30
0.0
 40
10.0
  1
VC01-080MT~VC01-240MT
1001
ACAD
1000
MTEXTBEGIN
1070
    73
1070
     1
1070
    44
1040
1.0
1070
    74
1070
     0
1000
MTEXTEND
  0
VIEWPORT
  5
89
 67
     1
  8
0
 10
210.0
 20
148.5
 30
0.0
 40
420.0
 41
297.0
 68
     1
 69
     1
1001
ACAD
1000
MVIEW
1002
{
1070
    16
1010
0.0
1020
0.0
1030
0.0
1010
0.0
1020
0.0
1030
1.0
1040
0.0
1040
297.0
1040
221.70154043645701
1040
148.5
1040
50.0
1040
0.0
1040
0.0
1070
     0
1070
   100
1070
     1
1070
     1
1070
     0
1070
     0
1070
     0
1070
     0
1040
0.0
1040
0.0
1040
0.0
1040
10.0
1040
10.0
1040
10.0
1040
10.0
1070
     0
1002
{
1002
}
1002
}
1001
GENIUS_GENOREF_13
1005
1B94
1001
GENIUS_GENSCREG_15
1000
PF
1040
1.0
1000
DF
1040
1.0
1000
MIN
1011
0.0
1021
0.0
1031
0.0
1021
0.0
1031
0.0
1000
MAX
1011
420.0
1021
0.0
1031
0.0
1021
297.0
1031
0.0
1000
FLAGS
1070
     4
  0
ENDSEC
  0
EOF
