  0
SECTION
  2
HEADER
  9
$ACADVER
  1
AC1009
  9
$INSBASE
 10
0.0
 20
0.0
 30
0.0
  9
$EXTMIN
 10
250.0879005327447
 20
203.3457469898276
 30
-0.0000000000112498
  9
$EXTMAX
 10
644.69620688328985
 20
581.56634665227944
 30
0.0000000000002956
  9
$LIMMIN
 10
0.0
 20
0.0
  9
$LIMMAX
 10
853.5
 20
555.00000000000011
  9
$ORTHOMODE
 70
     0
  9
$REGENMODE
 70
     1
  9
$FILLMODE
 70
     1
  9
$QTEXTMODE
 70
     0
  9
$MIRRTEXT
 70
     1
  9
$DRAGMODE
 70
     2
  9
$LTSCALE
 40
3.0
  9
$OSMODE
 70
   551
  9
$ATTMODE
 70
     1
  9
$TEXTSIZE
 40
2.5
  9
$TRACEWID
 40
1.0
  9
$TEXTSTYLE
  7
STANDARD
  9
$CLAYER
  8
AM_0
  9
$CELTYPE
  6
BYLAYER
  9
$CECOLOR
 62
   256
  9
$DIMSCALE
 40
1.0
  9
$DIMASZ
 40
0.1
  9
$DIMEXO
 40
0.05
  9
$DIMDLI
 40
0.5
  9
$DIMRND
 40
0.0
  9
$DIMDLE
 40
0.0
  9
$DIMEXE
 40
0.1
  9
$DIMTP
 40
0.1
  9
$DIMTM
 40
0.1
  9
$DIMTXT
 40
0.12
  9
$DIMCEN
 40
0.0
  9
$DIMTSZ
 40
0.0
  9
$DIMTOL
 70
     0
  9
$DIMLIM
 70
     0
  9
$DIMTIH
 70
     1
  9
$DIMTOH
 70
     1
  9
$DIMSE1
 70
     0
  9
$DIMSE2
 70
     0
  9
$DIMTAD
 70
     0
  9
$DIMZIN
 70
     8
  9
$DIMBLK
  1

  9
$DIMASO
 70
     1
  9
$DIMSHO
 70
     1
  9
$DIMPOST
  1

  9
$DIMAPOST
  1
mm
  9
$DIMALT
 70
     0
  9
$DIMALTD
 70
     2
  9
$DIMALTF
 40
25.399999999999999
  9
$DIMLFAC
 40
1.0
  9
$DIMTOFL
 70
     0
  9
$DIMTVP
 40
0.0
  9
$DIMTIX
 70
     0
  9
$DIMSOXD
 70
     0
  9
$DIMSAH
 70
     0
  9
$DIMBLK1
  1

  9
$DIMBLK2
  1

  9
$DIMSTYLE
  2
AM_ANSI
  9
$DIMCLRD
 70
   256
  9
$DIMCLRE
 70
   256
  9
$DIMCLRT
 70
     2
  9
$DIMTFAC
 40
0.71
  9
$DIMGAP
 40
0.06
  9
$LUNITS
 70
     2
  9
$LUPREC
 70
     2
  9
$SKETCHINC
 40
1.0
  9
$FILLETRAD
 40
15.0
  9
$AUNITS
 70
     0
  9
$AUPREC
 70
     0
  9
$MENU
  1
.
  9
$ELEVATION
 40
0.0
  9
$PELEVATION
 40
0.0
  9
$THICKNESS
 40
0.0
  9
$LIMCHECK
 70
     0
  9
$BLIPMODE
 70
     0
  9
$CHAMFERA
 40
6.0
  9
$CHAMFERB
 40
3.0
  9
$SKPOLY
 70
     0
  9
$TDCREATE
 40
2452065.6056192131
  9
$TDUPDATE
 40
2458541.4639077778
  9
$TDINDWG
 40
0.1066187847
  9
$TDUSRTIMER
 40
0.1066184144
  9
$USRTIMER
 70
     1
  9
$ANGBASE
 50
0.0
  9
$ANGDIR
 70
     0
  9
$PDMODE
 70
     0
  9
$PDSIZE
 40
0.0
  9
$PLINEWID
 40
0.0
  9
$COORDS
 70
     1
  9
$SPLFRAME
 70
     0
  9
$SPLINETYPE
 70
     6
  9
$SPLINESEGS
 70
     8
  9
$ATTDIA
 70
     1
  9
$ATTREQ
 70
     1
  9
$HANDLING
 70
     1
  9
$HANDSEED
  5
3B41
  9
$SURFTAB1
 70
     6
  9
$SURFTAB2
 70
     6
  9
$SURFTYPE
 70
     6
  9
$SURFU
 70
     6
  9
$SURFV
 70
     6
  9
$UCSNAME
  2

  9
$UCSORG
 10
0.0
 20
0.0
 30
0.0
  9
$UCSXDIR
 10
1.0
 20
0.0
 30
0.0
  9
$UCSYDIR
 10
0.0
 20
1.0
 30
0.0
  9
$PUCSNAME
  2

  9
$PUCSORG
 10
0.0
 20
0.0
 30
0.0
  9
$PUCSXDIR
 10
1.0
 20
0.0
 30
0.0
  9
$PUCSYDIR
 10
0.0
 20
1.0
 30
0.0
  9
$USERI1
 70
     0
  9
$USERI2
 70
     0
  9
$USERI3
 70
     0
  9
$USERI4
 70
     0
  9
$USERI5
 70
     0
  9
$USERR1
 40
0.0
  9
$USERR2
 40
0.0
  9
$USERR3
 40
0.0
  9
$USERR4
 40
0.0
  9
$USERR5
 40
0.0
  9
$WORLDVIEW
 70
     1
  9
$SHADEDGE
 70
     3
  9
$SHADEDIF
 70
    70
  9
$TILEMODE
 70
     1
  9
$MAXACTVP
 70
    64
  9
$PLIMCHECK
 70
     0
  9
$PEXTMIN
 10
1.0000000000000000E+020
 20
1.0000000000000000E+020
 30
1.0000000000000000E+020
  9
$PEXTMAX
 10
-1.0000000000000000E+020
 20
-1.0000000000000000E+020
 30
-1.0000000000000000E+020
  9
$PLIMMIN
 10
0.0
 20
0.0
  9
$PLIMMAX
 10
420.0
 20
297.0
  9
$UNITMODE
 70
     0
  9
$VISRETAIN
 70
     1
  9
$PLINEGEN
 70
     0
  9
$PSLTSCALE
 70
     1
  0
ENDSEC
  0
SECTION
  2
TABLES
  0
TABLE
  2
VPORT
 70
     1
  0
VPORT
  2
*ACTIVE
 70
     0
 10
0.0
 20
0.0
 11
1.0
 21
1.0
 12
447.39205370801727
 22
392.45604682105352
 13
0.0
 23
0.0
 14
7.5
 24
7.5
 15
30.0
 25
30.0
 16
0.0
 26
0.0
 36
1.0
 17
0.0
 27
0.0
 37
0.0
 40
380.81707975166768
 41
1.7571592210767459
 42
50.0
 43
0.0
 44
0.0
 50
0.0
 51
0.0
 71
     0
 72
   100
 73
     1
 74
     3
 75
     0
 76
     0
 77
     0
 78
     0
  0
ENDTAB
  0
TABLE
  2
LTYPE
 70
    26
  0
LTYPE
  2
CONTINUOUS
 70
     0
  3
Solid line
 72
    65
 73
     0
 40
0.0
  0
LTYPE
  2
AM_ISO02W050
 70
     0
  3
__ __ __ __ __ __ __ __ __ __ __ __ __ __ __
 72
    65
 73
     2
 40
7.5
 49
6.0
 49
-1.5
  0
LTYPE
  2
AM_ISO08W050
 70
     0
  3
____ . ____ . ____ . ____ . ____ . ____ . ____
 72
    65
 73
     4
 40
18.0
 49
12.0
 49
-1.5
 49
3.0
 49
-1.5
  0
LTYPE
  2
AM_ISO09W050
 70
     0
  3
_____ . . _____ . . _____ . . ____ .. ____
 72
    65
 73
     6
 40
22.5
 49
12.0
 49
-1.5
 49
3.0
 49
-1.5
 49
3.0
 49
-1.5
  0
LTYPE
  2
AMCONSTR
 70
     0
  3
_______________________
 72
    65
 73
     2
 40
9999.0
 49
9999.0
 49
0.0
  0
LTYPE
  2
AM_ISO08W050X2
 70
     0
  3
__ . __ . __ . __ . __ . __
 72
    65
 73
     4
 40
9.0
 49
6.0
 49
-0.75
 49
1.5
 49
-0.75
  0
LTYPE
  2
AM_ISO02W050X2
 70
     0
  3
 _ _ _ _ _ _ _ _ _ _ _ _
 72
    65
 73
     2
 40
3.75
 49
3.0
 49
-0.75
  0
LTYPE
  2
AMZIGZAG
 70
     0
  3
/\/-/\/-/\/-/\/-/\/-/\/
 72
    65
 73
     2
 40
11.000099999999991
 49
0.0001
 49
-11.0
  0
LTYPE
  2
ACISOWELD
 70
     0
  3
_ _ _ _ _
 72
    65
 73
     2
 40
2.0
 49
2.0
 49
-1.0
  0
LTYPE
  2
ACISOTGB
 70
     0
  3
__ . . __ . .
 72
    65
 73
     6
 40
9.0
 49
4.0
 49
-1.0
 49
1.0
 49
-1.0
 49
1.0
 49
-1.0
  0
LTYPE
  2
ACISOTGL
 70
     0
  3
_ _ _ _ _
 72
    65
 73
     2
 40
3.0
 49
2.0
 49
-1.0
  0
LTYPE
  2
CENTER
 70
     0
  3
__ . __
 72
    65
 73
     4
 40
7.0
 49
4.0
 49
-1.0
 49
1.0
 49
-1.0
  0
LTYPE
  2
PHANTOM2
 70
     0
  3
Phantom (.5x) ___ _ _ ___ _ _ ___ _ _ ___ _ _
 72
    65
 73
     6
 40
31.75
 49
15.875
 49
-3.174999999999998
 49
3.174999999999998
 49
-3.174999999999998
 49
3.174999999999998
 49
-3.174999999999998
  0
LTYPE
  2
ACANSTGBM
 70
     0
  3
__ . . __ . .
 72
    65
 73
     6
 40
9.0
 49
4.0
 49
-1.0
 49
1.0
 49
-1.0
 49
1.0
 49
-1.0
  0
LTYPE
  2
ACANSTGLM
 70
     0
  3
_ _ _ _ _
 72
    65
 73
     2
 40
3.0
 49
2.0
 49
-1.0
  0
LTYPE
  2
GEN3B
 70
     0
  3
 - - - - -
 72
    65
 73
     2
 40
1.0
 49
0.5
 49
-0.5
  0
LTYPE
  2
GEN7A
 70
     0
  3
__ . __ . __
 72
    65
 73
     4
 40
7.375
 49
4.75
 49
-0.875
 49
0.875
 49
-0.875
  0
LTYPE
  2
ACJISTGB
 70
     0
  3
__ . . __ . .
 72
    65
 73
     6
 40
9.0
 49
4.0
 49
-1.0
 49
1.0
 49
-1.0
 49
1.0
 49
-1.0
  0
LTYPE
  2
ACJISTGL
 70
     0
  3
_ _ _ _ _
 72
    65
 73
     2
 40
3.0
 49
2.0
 49
-1.0
  0
LTYPE
  2
HIDDEN
 70
     0
  3
Hidden __ __ __ __ __ __ __ __ __ __ __ __ __ _
 72
    65
 73
     2
 40
0.375
 49
0.25
 49
-0.125
  0
LTYPE
  2
CENTER2
 70
     0
  3
Center (.5x) ___ _ ___ _ ___ _ ___ _ ___ _ ___
 72
    65
 73
     4
 40
1.125
 49
0.75
 49
-0.125
 49
0.125
 49
-0.125
  0
LTYPE
  2
HIDDEN2
 70
     0
  3
Hidden (.5x) _ _ _ _ _ _ _ _ _ _ _ _ _ _ _ _ _
 72
    65
 73
     2
 40
0.1875
 49
0.125
 49
-0.0625
  0
LTYPE
  2
AMZIGZAG2
 70
     0
  3
/\/-/\/-/\/-/\/-/\/-/\/
 72
    65
 73
     2
 40
0.4401
 49
0.0001
 49
-0.4400000000000003
  0
LTYPE
  2
ACANSTGB
 70
     0
  3
__ . . __ . .
 72
    65
 73
     6
 40
0.35433070866
 49
0.15748031496
 49
-0.03937007874
 49
0.03937007874
 49
-0.03937007874
 49
0.03937007874
 49
-0.03937007874
  0
LTYPE
  2
ACANSTGL
 70
     0
  3
_ _ _ _ _
 72
    65
 73
     2
 40
0.11811023622
 49
0.07874015748
 49
-0.03937007874
  0
ENDTAB
  0
TABLE
  2
LAYER
 70
     7
  0
LAYER
  2
0
 70
     0
 62
     7
  6
CONTINUOUS
  0
LAYER
  2
AM_0
 70
     0
 62
     7
  6
CONTINUOUS
  0
LAYER
  2
DEFPOINTS
 70
     0
 62
     7
  6
CONTINUOUS
  0
LAYER
  2
ｶｸﾚｾﾝ2
 70
     0
 62
     3
  6
GEN3B
  0
LAYER
  2
ﾁｭｳｼﾝｾﾝ1
 70
     0
 62
     1
  6
GEN7A
  0
LAYER
  2
AM_4
 70
     0
 62
     2
  6
CONTINUOUS
  0
LAYER
  2
AM_5
 70
     0
 62
     3
  6
CONTINUOUS
  0
ENDTAB
  0
TABLE
  2
STYLE
 70
     9
  0
STYLE
  2
STANDARD
 70
     0
 40
0.0
 41
0.8299999999999999
 50
0.0
 71
     0
 42
2.5
  3
txt.shx
  4
bigfont.shx
  0
STYLE
  2
ANNOTATIVE
 70
     0
 40
0.0
 41
1.0
 50
0.0
 71
     0
 42
0.2
  3
txt
  4

  0
STYLE
  2

 70
     1
 40
0.0
 41
1.0
 50
0.0
 71
     0
 42
2.5
  3
ltypeshp.shx
  4

  0
STYLE
  2
ACISOTS
 70
     0
 40
1.0
 41
1.0
 50
0.0
 71
     0
 42
2.5
  3
isocp.shx
  4
extfont.shx
  0
STYLE
  2
ACISOGDT
 70
     0
 40
0.0
 41
1.0
 50
0.0
 71
     0
 42
2.5
  3
amgdt.shx
  4

  0
STYLE
  2
ACANSTS
 70
     0
 40
1.0
 41
1.0
 50
0.0
 71
     0
 42
2.5
  3
romans.shx
  4
bigfont.shx
  0
STYLE
  2
ACANSGDT
 70
     0
 40
0.0
 41
1.0
 50
0.0
 71
     0
 42
2.5
  3
amgdt.shx
  4

  0
STYLE
  2
ACJISTS
 70
     0
 40
1.0
 41
1.0
 50
0.0
 71
     0
 42
2.5
  3
isocp.shx
  4
bigfont.shx
  0
STYLE
  2
ACJISGDT
 70
     0
 40
0.0
 41
1.0
 50
0.0
 71
     0
 42
2.5
  3
amgdt.shx
  4

  0
ENDTAB
  0
TABLE
  2
VIEW
 70
     6
  0
VIEW
  2
AM_VIEW1
 70
     0
 40
277.49999999999989
 10
249.64779005524841
 20
416.24999999999989
 41
499.2955801104971
 11
0.0
 21
0.0
 31
1.0
 12
0.0
 22
0.0
 32
0.0
 42
50.0
 43
0.0
 44
0.0
 50
0.0
 71
     0
  0
VIEW
  2
AM_VIEW2
 70
     0
 40
277.49999999999989
 10
603.85220994475117
 20
416.24999999999989
 41
499.2955801104971
 11
0.0
 21
0.0
 31
1.0
 12
0.0
 22
0.0
 32
0.0
 42
50.0
 43
0.0
 44
0.0
 50
0.0
 71
     0
  0
VIEW
  2
AM_VIEW3
 70
     0
 40
277.49999999999989
 10
249.64779005524841
 20
138.7499999999998
 41
499.2955801104971
 11
0.0
 21
0.0
 31
1.0
 12
0.0
 22
0.0
 32
0.0
 42
50.0
 43
0.0
 44
0.0
 50
0.0
 71
     0
  0
VIEW
  2
AM_VIEW4
 70
     0
 40
277.49999999999989
 10
603.85220994475117
 20
138.7499999999998
 41
499.2955801104971
 11
0.0
 21
0.0
 31
1.0
 12
0.0
 22
0.0
 32
0.0
 42
50.0
 43
0.0
 44
0.0
 50
0.0
 71
     0
  0
VIEW
  2
AM_VIEW5
 70
     0
 40
277.49999999999989
 10
426.75
 20
277.49999999999989
 41
499.2955801104971
 11
0.0
 21
0.0
 31
1.0
 12
0.0
 22
0.0
 32
0.0
 42
50.0
 43
0.0
 44
0.0
 50
0.0
 71
     0
  0
VIEW
  2
AM_VIEW6
 70
     0
 40
554.99445000000014
 10
426.75
 20
277.49999999999989
 41
998.5811743093924
 11
0.0
 21
0.0
 31
1.0
 12
0.0
 22
0.0
 32
0.0
 42
50.0
 43
0.0
 44
0.0
 50
0.0
 71
     0
  0
ENDTAB
  0
TABLE
  2
UCS
 70
     0
  0
ENDTAB
  0
TABLE
  2
APPID
 70
    98
  0
APPID
  2
ACAD
 70
     0
  0
APPID
  2
ACADANNOTATIVE
 70
     0
  0
APPID
  2
MCAD_NO_VIS
 70
     0
  0
APPID
  2
ACAD_TEMP_GRAPHIC
 70
     0
  0
APPID
  2
ACATTRIBSERVICES
 70
     0
  0
APPID
  2
GENIUS_GENREC_14
 70
     0
  0
APPID
  2
GENIUS_GENOBJ-N-REC_13
 70
     0
  0
APPID
  2
GENIUS_GENODEF_13
 70
     0
  0
APPID
  2
GENIUS_GENOLIS_13
 70
     0
  0
APPID
  2
GENIUS_GENOBJ-N-TIT_13
 70
     0
  0
APPID
  2
GENIUS_GENOENT_13
 70
     0
  0
APPID
  2
GENIUS_GENTITLE_13
 70
     0
  0
APPID
  2
GENIUS_GENOREF_13
 70
     0
  0
APPID
  2
GENIUS_GENSCREG_15
 70
     0
  0
APPID
  2
GENIUS_GENOBJ-N-SDF_13
 70
     0
  0
APPID
  2
GENIUS_GENFIL_13
 70
     0
  0
APPID
  2
GENIUS_GENOBJ-N-CHA_13
 70
     0
  0
APPID
  2
GENIUS_GENDTOL_13
 70
     0
  0
APPID
  2
GENIUS_GENOBJ-N-FIL_13
 70
     0
  0
APPID
  2
AD_DRAW
 70
     0
  0
APPID
  2
DESIGNERASSEMBLIES
 70
     0
  0
APPID
  2
ASURF_PCURVE_APPNAME
 70
     0
  0
APPID
  2
GENIUS_GE3SECT_13
 70
     0
  0
APPID
  2
GENIUS_GENCFG_13
 70
     0
  0
APPID
  2
GENIUS_GE3CFG0_13
 70
     0
  0
APPID
  2
GENIUS_GENCFG0_13
 70
     0
  0
APPID
  2
GENIUS_GENCFG1_13
 70
     0
  0
APPID
  2
GENIUS_GENCFG2_13
 70
     0
  0
APPID
  2
GENIUS_GENCFG3_13
 70
     0
  0
APPID
  2
GENIUS_GENCFG4_13
 70
     0
  0
APPID
  2
GENIUS_GEVCFG0_13
 70
     0
  0
APPID
  2
GENIUS_GENHINW_13
 70
     0
  0
APPID
  2
GENIUS_FIRSTVISTXT_14
 70
     0
  0
APPID
  2
GENIUS_GENOBJ-N-LEADER_13
 70
     0
  0
APPID
  2
GEV_VCCNULL_SWITCH_OFF
 70
     0
  0
APPID
  2
GENIUS_GEFCFG0_13
 70
     0
  0
APPID
  2
GENIUS_GENZVEED_13
 70
     0
  0
APPID
  2
GENIUS_GENSCREG_13
 70
     0
  0
APPID
  2
GENIUS_DUMCFG0_13
 70
     0
  0
APPID
  2
GEVID936201362
 70
     0
  0
APPID
  2
GEVDC
 70
     0
  0
APPID
  2
GEVCON
 70
     0
  0
APPID
  2
VCC
 70
     0
  0
APPID
  2
GEVPT
 70
     0
  0
APPID
  2
GEVIT
 70
     0
  0
APPID
  2
GENBH
 70
     0
  0
APPID
  2
GEVMK
 70
     0
  0
APPID
  2
GENIUS_GENBH_13
 70
     0
  0
APPID
  2
GENIUS_GENOBJ-NBEHI-BHF_13
 70
     0
  0
APPID
  2
GENIUS_GENOBJ-NBEHI-BHB_13
 70
     0
  0
APPID
  2
GENIUS_GENOBJ-F-DESC_13
 70
     0
  0
APPID
  2
GENIUS_GEFDESC_14
 70
     0
  0
APPID
  2
GENIUS_GENOBJ-F-PART_13
 70
     0
  0
APPID
  2
GENIUS_GEFSTDP_13
 70
     0
  0
APPID
  2
GENIUS_GEFPARTINS_13
 70
     0
  0
APPID
  2
GENIUS_GENTRA_14
 70
     0
  0
APPID
  2
GENIUS_GENINF13_13
 70
     0
  0
APPID
  2
GENIUS_GENOBJ-N-INFOPT_13
 70
     0
  0
APPID
  2
GENIUS_GENOBJ-N-RSSYM_13
 70
     0
  0
APPID
  2
GENIUS_GENSYMENT_13
 70
     0
  0
APPID
  2
GENIUS_GENSCSYM_13
 70
     0
  0
APPID
  2
GENIUS_GEFINFNAM_13
 70
     0
  0
APPID
  2
GENIUS_GENOBJ-N-CEN_13
 70
     0
  0
APPID
  2
GENIUS_GENOBJ-N-CRS_13
 70
     0
  0
APPID
  2
GENIUS_GENOBJ-N-CRC_13
 70
     0
  0
APPID
  2
GENIUS_GENCRC_14
 70
     0
  0
APPID
  2
GEVID942827039
 70
     0
  0
APPID
  2
GEVID942827040
 70
     0
  0
APPID
  2
GEVID942827041
 70
     0
  0
APPID
  2
GENIUS_GENOBJ-F-SCPASSM_13
 70
     0
  0
APPID
  2
GENIUS_GENDIMSH_14
 70
     0
  0
APPID
  2
GEVID942827042
 70
     0
  0
APPID
  2
GEVID946020473
 70
     0
  0
APPID
  2
GEVID946020474
 70
     0
  0
APPID
  2
GEVID946020475
 70
     0
  0
APPID
  2
GENIUS_GENOBJ-N-HTC_13
 70
     0
  0
APPID
  2
GENIUS_GENHATCH_13
 70
     0
  0
APPID
  2
GEVID948854295
 70
     0
  0
APPID
  2
GEVID939402019
 70
     0
  0
APPID
  2
GEVID952919491
 70
     0
  0
APPID
  2
GEVID952919492
 70
     0
  0
APPID
  2
GENIUS_GEFWELD_13
 70
     0
  0
APPID
  2
GENIUS_GENOBJ-F-WELS_13
 70
     0
  0
APPID
  2
GEVID952919493
 70
     0
  0
APPID
  2
GENIUS_GENOBJ-N-RSBK_13
 70
     0
  0
APPID
  2
GENIUS_GENOBJ-N-LIB_13
 70
     0
  0
APPID
  2
GENIUS_GENSCALE_13
 70
     0
  0
APPID
  2
GEVID986376691
 70
     0
  0
APPID
  2
DCO15
 70
     0
  0
APPID
  2
GEVID988070561
 70
     0
  0
APPID
  2
GEVID988070562
 70
     0
  0
APPID
  2
GEVID988070563
 70
     0
  0
APPID
  2
ACAD_DSTYLE_DIMBREAK
 70
     0
  0
APPID
  2
ACAD_DSTYLE_DIMJAG
 70
     0
  0
APPID
  2
ACAD_NAV_VCDISPLAY
 70
     0
  0
APPID
  2
ACADANNOPO
 70
     0
  0
APPID
  2
ACAD_EXEMPT_FROM_CAD_STANDARDS
 70
     0
  0
APPID
  2
ACAD_MLEADERVER
 70
     0
  0
ENDTAB
  0
TABLE
  2
DIMSTYLE
 70
    22
  0
DIMSTYLE
  2
STANDARD
 70
     0
  3

  4

  5

  6

  7

 40
1.0
 41
0.18
 42
0.0625
 43
0.38
 44
0.18
 45
0.0
 46
0.0
 47
0.0
 48
0.0
140
0.18
141
0.09
142
0.0
143
25.399999999999999
144
1.0
145
0.0
146
1.0
147
0.09
 71
     0
 72
     0
 73
     1
 74
     1
 75
     0
 76
     0
 77
     0
 78
     0
170
     0
171
     2
172
     0
173
     0
174
     0
175
     0
176
     0
177
     0
178
     0
  0
DIMSTYLE
  2
ANNOTATIVE
 70
     0
  3

  4

  5

  6

  7

 40
1.0
 41
0.18
 42
0.0625
 43
0.38
 44
0.18
 45
0.0
 46
0.0
 47
0.0
 48
0.0
140
0.18
141
0.09
142
0.0
143
25.399999999999999
144
1.0
145
0.0
146
1.0
147
0.09
 71
     0
 72
     0
 73
     1
 74
     1
 75
     0
 76
     0
 77
     0
 78
     0
170
     0
171
     2
172
     0
173
     0
174
     0
175
     0
176
     0
177
     0
178
     0
  0
DIMSTYLE
  2
AM_ISO
 70
     0
  3

  4
"
  5

  6

  7

 40
1.0
 41
2.5
 42
1.0
 43
8.0
 44
0.6
 45
0.0
 46
0.0
 47
0.1
 48
0.1
140
2.5
141
0.0
142
0.0
143
0.0393701
144
1.0
145
0.0
146
0.71
147
0.8
 71
     0
 72
     0
 73
     0
 74
     0
 75
     0
 76
     0
 77
     1
 78
     8
170
     0
171
     2
172
     1
173
     0
174
     0
175
     0
176
   256
177
   256
178
     4
  0
DIMSTYLE
  2
AM_ISO$3
 70
     0
  3

  4
"
  5

  6

  7

 40
1.0
 41
2.5
 42
1.0
 43
8.0
 44
0.6
 45
0.0
 46
0.0
 47
0.1
 48
0.1
140
2.5
141
0.0
142
0.0
143
0.0393701
144
1.0
145
0.0
146
0.71
147
0.8
 71
     0
 72
     0
 73
     0
 74
     1
 75
     0
 76
     0
 77
     1
 78
     8
170
     0
171
     2
172
     0
173
     0
174
     0
175
     0
176
   256
177
   256
178
     4
  0
DIMSTYLE
  2
AM_ISO$4
 70
     0
  3

  4
"
  5

  6

  7

 40
1.0
 41
2.5
 42
1.0
 43
8.0
 44
0.6
 45
0.0
 46
0.0
 47
0.1
 48
0.1
140
2.5
141
0.0
142
0.0
143
0.0393701
144
1.0
145
0.0
146
0.71
147
0.8
 71
     0
 72
     0
 73
     0
 74
     1
 75
     0
 76
     0
 77
     1
 78
     8
170
     0
171
     2
172
     0
173
     0
174
     0
175
     0
176
   256
177
   256
178
     4
  0
DIMSTYLE
  2
AM_ISO$6
 70
     0
  3

  4
"
  5

  6

  7

 40
1.0
 41
2.5
 42
1.0
 43
8.0
 44
0.6
 45
0.0
 46
0.0
 47
0.1
 48
0.1
140
2.5
141
0.0
142
0.0
143
0.0393701
144
1.0
145
0.0
146
0.71
147
0.8
 71
     0
 72
     0
 73
     0
 74
     0
 75
     0
 76
     0
 77
     0
 78
     8
170
     0
171
     2
172
     1
173
     0
174
     0
175
     0
176
   256
177
   256
178
     4
  0
DIMSTYLE
  2
AM_ISO$7
 70
     0
  3

  4
"
  5

  6

  7

 40
1.0
 41
2.5
 42
1.0
 43
8.0
 44
0.6
 45
0.0
 46
0.0
 47
0.1
 48
0.1
140
2.5
141
0.0
142
0.0
143
0.0393701
144
1.0
145
0.0
146
0.71
147
0.8
 71
     0
 72
     0
 73
     0
 74
     0
 75
     0
 76
     0
 77
     1
 78
     8
170
     0
171
     2
172
     1
173
     0
174
     0
175
     0
176
   256
177
   256
178
     4
  0
DIMSTYLE
  2
AM_ISO$SF
 70
     0
  3

  4
"
  5

  6

  7

 40
1.0
 41
2.5
 42
1.0
 43
10.0
 44
1.0
 45
0.0
 46
0.0
 47
0.1
 48
0.1
140
3.5
141
0.0
142
0.0
143
0.0393701
144
1.0
145
0.0
146
0.71
147
1.5
 71
     0
 72
     0
 73
     0
 74
     0
 75
     1
 76
     1
 77
     1
 78
     8
170
     0
171
     2
172
     1
173
     0
174
     0
175
     0
176
   256
177
   256
178
     2
  0
DIMSTYLE
  2
AM_ISO$SH
 70
     0
  3

  4
"
  5

  6

  7

 40
1.0
 41
2.5
 42
1.0
 43
10.0
 44
1.0
 45
0.0
 46
0.0
 47
0.1
 48
0.1
140
3.5
141
0.0
142
0.0
143
0.0393701
144
2.0
145
0.0
146
0.71
147
1.5
 71
     0
 72
     0
 73
     0
 74
     0
 75
     1
 76
     1
 77
     1
 78
     8
170
     0
171
     2
172
     1
173
     1
174
     0
175
     0
176
   256
177
   256
178
     2
  0
DIMSTYLE
  2
AM_JIS
 70
     0
  3

  4
"
  5

  6

  7

 40
1.0
 41
2.5
 42
1.0
 43
7.0
 44
1.0
 45
0.0
 46
0.0
 47
0.1
 48
0.1000000001
140
2.5
141
0.0
142
0.0
143
0.0393701
144
1.0
145
0.0
146
0.71
147
1.0
 71
     0
 72
     0
 73
     0
 74
     0
 75
     0
 76
     0
 77
     3
 78
     8
170
     0
171
     2
172
     1
173
     0
174
     0
175
     0
176
   256
177
   256
178
     4
  0
DIMSTYLE
  2
AM_JIS$3
 70
     0
  3

  4
"
  5

  6

  7

 40
1.0
 41
2.5
 42
1.0
 43
7.0
 44
1.0
 45
0.0
 46
0.0
 47
0.1
 48
0.1000000001
140
2.5
141
0.0
142
0.0
143
0.0393701
144
1.0
145
0.0
146
0.71
147
1.0
 71
     0
 72
     0
 73
     0
 74
     1
 75
     0
 76
     0
 77
     3
 78
     8
170
     0
171
     2
172
     0
173
     0
174
     0
175
     0
176
   256
177
   256
178
     4
  0
DIMSTYLE
  2
AM_JIS$4
 70
     0
  3

  4
"
  5

  6

  7

 40
1.0
 41
2.5
 42
1.0
 43
7.0
 44
1.0
 45
0.0
 46
0.0
 47
0.1
 48
0.1000000001
140
2.5
141
0.0
142
0.0
143
0.0393701
144
1.0
145
0.0
146
0.71
147
1.0
 71
     0
 72
     0
 73
     0
 74
     0
 75
     0
 76
     0
 77
     3
 78
     8
170
     0
171
     2
172
     0
173
     0
174
     0
175
     0
176
   256
177
   256
178
     4
  0
DIMSTYLE
  2
AM_JIS$6
 70
     0
  3

  4
"
  5

  6

  7

 40
1.0
 41
2.5
 42
1.0
 43
7.0
 44
1.0
 45
0.0
 46
0.0
 47
0.1
 48
0.1000000001
140
2.5
141
0.0
142
0.0
143
0.0393701
144
1.0
145
0.0
146
0.71
147
1.0
 71
     0
 72
     0
 73
     0
 74
     0
 75
     0
 76
     0
 77
     0
 78
     8
170
     0
171
     2
172
     1
173
     0
174
     0
175
     0
176
   256
177
   256
178
     4
  0
DIMSTYLE
  2
AM_JIS$7
 70
     0
  3

  4
"
  5

  6

  7

 40
1.0
 41
2.5
 42
1.0
 43
7.0
 44
1.0
 45
0.0
 46
0.0
 47
0.1
 48
0.1000000001
140
2.5
141
0.0
142
0.0
143
0.0393701
144
1.0
145
0.0
146
0.71
147
1.0
 71
     0
 72
     0
 73
     0
 74
     0
 75
     0
 76
     0
 77
     3
 78
     8
170
     0
171
     2
172
     1
173
     0
174
     0
175
     0
176
   256
177
   256
178
     4
  0
DIMSTYLE
  2
AM_JIS$SF
 70
     0
  3

  4
"
  5

  6

  7

 40
1.0
 41
2.5
 42
1.0
 43
10.0
 44
1.0
 45
0.0
 46
0.0
 47
0.1
 48
0.1
140
3.5
141
0.0
142
0.0
143
0.0393701
144
1.0
145
0.0
146
0.71
147
1.5
 71
     0
 72
     0
 73
     0
 74
     0
 75
     1
 76
     1
 77
     3
 78
     8
170
     0
171
     2
172
     1
173
     0
174
     0
175
     0
176
   256
177
   256
178
     4
  0
DIMSTYLE
  2
AM_JIS$SH
 70
     0
  3

  4
"
  5

  6

  7

 40
1.0
 41
2.5
 42
1.0
 43
10.0
 44
1.0
 45
0.0
 46
0.0
 47
0.1
 48
0.1
140
3.5
141
0.0
142
0.0
143
0.0393701
144
1.0
145
0.0
146
0.71
147
1.5
 71
     0
 72
     0
 73
     0
 74
     0
 75
     1
 76
     0
 77
     3
 78
     8
170
     0
171
     2
172
     1
173
     1
174
     0
175
     0
176
   256
177
   256
178
     4
  0
DIMSTYLE
  2
AM_ANSI
 70
     0
  3

  4
mm
  5

  6

  7

 40
1.0
 41
0.1
 42
0.05
 43
0.5
 44
0.1
 45
0.0
 46
0.0
 47
0.1
 48
0.1
140
0.12
141
0.0
142
0.0
143
25.399999999999999
144
1.0
145
0.0
146
0.71
147
0.06
 71
     0
 72
     0
 73
     1
 74
     1
 75
     0
 76
     0
 77
     0
 78
     7
170
     0
171
     2
172
     0
173
     0
174
     0
175
     0
176
   256
177
   256
178
     2
  0
DIMSTYLE
  2
AM_ANSI$3
 70
     0
  3

  4
mm
  5

  6

  7

 40
1.0
 41
0.1
 42
0.05
 43
0.5
 44
0.1
 45
0.0
 46
0.0
 47
0.1
 48
0.1
140
0.12
141
0.0
142
0.0
143
25.399999999999999
144
1.0
145
0.0
146
0.71
147
0.06
 71
     0
 72
     0
 73
     1
 74
     1
 75
     0
 76
     0
 77
     0
 78
     7
170
     0
171
     2
172
     0
173
     0
174
     0
175
     0
176
   256
177
   256
178
     2
  0
DIMSTYLE
  2
AM_ANSI$4
 70
     0
  3

  4
mm
  5

  6

  7

 40
1.0
 41
0.1
 42
0.05
 43
0.5
 44
0.1
 45
0.0
 46
0.0
 47
0.1
 48
0.1
140
0.12
141
0.0
142
0.0
143
25.399999999999999
144
1.0
145
0.0
146
0.71
147
0.06
 71
     0
 72
     0
 73
     1
 74
     1
 75
     0
 76
     0
 77
     0
 78
     7
170
     0
171
     2
172
     0
173
     0
174
     0
175
     0
176
   256
177
   256
178
     2
  0
DIMSTYLE
  2
AM_ANSI$7
 70
     0
  3

  4
mm
  5

  6

  7

 40
1.0
 41
0.1
 42
0.05
 43
0.5
 44
0.1
 45
0.0
 46
0.0
 47
0.1
 48
0.1
140
0.24
141
0.0
142
0.0
143
25.399999999999999
144
1.0
145
0.0
146
0.71
147
0.06
 71
     0
 72
     0
 73
     1
 74
     1
 75
     0
 76
     0
 77
     0
 78
     7
170
     0
171
     2
172
     0
173
     0
174
     0
175
     0
176
   256
177
   256
178
     2
  0
DIMSTYLE
  2
AM_ANSI$SF
 70
     0
  3

  4
mm
  5

  6

  7

 40
1.0
 41
0.1
 42
0.05
 43
0.5
 44
0.1
 45
0.0
 46
0.0
 47
0.1
 48
0.1
140
0.12
141
0.0
142
0.0
143
25.399999999999999
144
1.0
145
0.0
146
0.71
147
0.06
 71
     0
 72
     0
 73
     1
 74
     1
 75
     1
 76
     1
 77
     0
 78
     7
170
     0
171
     2
172
     0
173
     0
174
     0
175
     0
176
   256
177
   256
178
     2
  0
DIMSTYLE
  2
AM_ANSI$SH
 70
     0
  3

  4
mm
  5

  6

  7

 40
1.0
 41
0.1
 42
0.05
 43
0.5
 44
0.1
 45
0.0
 46
0.0
 47
0.1
 48
0.1
140
0.12
141
0.0
142
0.0
143
25.399999999999999
144
1.0
145
0.0
146
0.71
147
0.06
 71
     0
 72
     0
 73
     1
 74
     1
 75
     1
 76
     1
 77
     0
 78
     7
170
     0
171
     2
172
     0
173
     1
174
     0
175
     0
176
   256
177
   256
178
     2
  0
ENDTAB
  0
ENDSEC
  0
SECTION
  2
BLOCKS
  0
BLOCK
  8
0
  2
$MODEL_SPACE
 70
     0
 10
0.0
 20
0.0
 30
0.0
  3
$MODEL_SPACE
  1

  0
ENDBLK
  5
39AF
  8
0
  0
BLOCK
 67
     1
  8
0
  2
$PAPER_SPACE
 70
     0
 10
0.0
 20
0.0
 30
0.0
  3
$PAPER_SPACE
  1

  0
ENDBLK
  5
39AB
 67
     1
  8
0
  0
BLOCK
  8
0
  2
GENAXEH
 70
     0
 10
0.0
 20
0.0
 30
0.0
  3
GENAXEH
  1

  0
LINE
  5
370D
  8
0
 10
-1.0
 20
0.0
 30
0.0
 11
1.0
 21
0.0
 31
0.0
  0
ENDBLK
  5
370E
  8
0
  0
BLOCK
  8
0
  2
_OPEN30
 70
     0
 10
0.0
 20
0.0
 30
0.0
  3
_OPEN30
  1

  0
LINE
  5
3711
  8
0
 62
     0
 10
-1.0
 20
0.26794919
 30
0.0
 11
0.0
 21
0.0
 31
0.0
  0
LINE
  5
3712
  8
0
 62
     0
 10
0.0
 20
0.0
 30
0.0
 11
-1.0
 21
-0.26794919
 31
0.0
  0
LINE
  5
3713
  8
0
 62
     0
 10
0.0
 20
0.0
 30
0.0
 11
-1.0
 21
0.0
 31
0.0
  0
ENDBLK
  5
3714
  8
0
  0
BLOCK
  8
0
  2
_NONE
 70
     0
 10
0.0
 20
0.0
 30
0.0
  3
_NONE
  1

  0
ENDBLK
  5
3717
  8
0
  0
BLOCK
  8
0
  2
_ACMFILLEDHALF
 70
     0
 10
0.0
 20
0.0
 30
0.0
  3
_ACMFILLEDHALF
  1

  0
TRACE
  5
3AA9
  8
AM_0
 62
     0
 10
-0.8
 20
0.0
 30
0.0
 11
-1.0
 21
0.166666666
 31
0.0
 12
0.0
 22
0.0
 32
0.0
 13
0.0
 23
0.0
 33
0.0
  0
LINE
  5
3AAA
  8
AM_0
 62
     0
 10
-1.0
 20
0.0
 30
0.0
 11
-0.8
 21
0.0
 31
0.0
  0
ENDBLK
  5
3AA8
  8
0
  0
ENDSEC
  0
SECTION
  2
ENTITIES
  0
LINE
  5
3718
  8
ﾁｭｳｼﾝｾﾝ1
 10
250.12506785464751
 20
501.54285775981361
 30
0.0
 11
405.23803860130818
 21
501.54285775981361
 31
0.0
  0
ARC
  5
3719
  8
AM_0
 10
402.87423860130832
 20
501.54285775981361
 30
0.0
 40
80.0
 50
148.90067999999891
 51
211.0993000000004
  0
LINE
  5
371A
  8
AM_0
 10
285.87423860130832
 20
445.04285775981361
 30
0.0
 11
285.87423860130832
 21
558.04288775981365
 31
0.0
  0
LINE
  5
371B
  8
AM_0
 10
303.87423860130832
 20
443.64831775981372
 30
0.0
 11
303.87423860130832
 21
559.43744775981361
 31
0.0
  0
LINE
  5
371C
  8
AM_0
 10
322.87423860130832
 20
458.80923775981358
 30
0.0
 11
322.87423860130832
 21
544.27652775981358
 31
0.0
  0
LINE
  5
371D
  8
AM_0
 10
309.87423860130832
 20
441.5428577598135
 30
0.0
 11
309.87423860130832
 21
561.54288775981365
 31
0.0
  0
LINE
  5
371E
  8
AM_0
 10
367.87423860130821
 20
540.77997775981351
 30
0.0
 11
367.87423860130821
 21
459.10095775981358
 31
0.0
  0
LINE
  5
371F
  8
AM_0
 10
354.87423860130838
 20
452.7272077598135
 30
0.0
 11
354.87423860130838
 21
550.35852775981346
 31
0.0
  0
LINE
  5
3720
  8
AM_0
 10
369.87423860130821
 20
520.56872775981356
 30
0.0
 11
369.87423860130821
 21
482.51703775981349
 31
0.0
  0
LINE
  5
3721
  8
AM_0
 10
354.87423860130838
 20
460.93695775981359
 30
0.0
 11
334.37234860130849
 21
460.22101775981361
 31
0.0
  0
LINE
  5
3722
  8
AM_0
 10
365.00515860130849
 20
432.98651775981358
 30
0.0
 11
309.87426860130819
 21
431.54285775981361
 31
0.0
  0
LINE
  5
3723
  8
AM_0
 10
349.7433486013083
 20
449.67035775981361
 30
0.0
 11
351.95278860130838
 21
449.72821775981362
 31
0.0
  0
ARC
  5
3724
  8
AM_0
 10
305.87423860130832
 20
443.64831775981372
 30
0.0
 40
2.0
 50
180.00001000000091
 51
268.5000000000004
  0
LINE
  5
3725
  8
AM_0
 10
309.87423860130832
 20
431.5428877598136
 30
0.0
 11
291.74337860130851
 21
432.01764775981371
 31
0.0
  0
LINE
  5
3726
  8
AM_0
 10
294.87423860130832
 20
453.35858775981347
 30
0.0
 11
294.87423860130832
 21
446.50992775981348
 31
0.0
  0
ARC
  5
3727
  8
AM_0
 10
291.87423860130832
 20
437.01593775981348
 30
0.0
 40
5.0
 50
180.00001000000091
 51
268.5000000000004
  0
ARC
  5
3728
  8
AM_0
 10
296.87423860130832
 20
444.04285775981361
 30
0.0
 40
5.0
 50
170.31658999999851
 51
3.8501329999991381
  0
ARC
  5
3729
  8
ｶｸﾚｾﾝ2
 10
296.87423860130832
 20
444.04285775981361
 30
0.0
 40
5.0
 50
3.8501272999993961
 51
170.31658999999851
  0
LINE
  5
372A
  8
AM_0
 10
285.8742686013083
 20
445.04288775981348
 30
0.0
 11
295.86859860130801
 21
444.78116775981363
 31
0.0
  0
LINE
  5
372B
  8
AM_0
 10
286.87423860130832
 20
437.01593775981348
 30
0.0
 11
286.87423860130832
 21
445.01666775981357
 31
0.0
  0
LINE
  5
372C
  8
AM_0
 10
296.82189860130819
 20
444.51062775981347
 30
0.0
 11
302.50289860130812
 21
444.36185775981357
 31
0.0
  0
ARC
  5
372D
  8
AM_0
 10
296.87423860130832
 20
446.50992775981348
 30
0.0
 40
2.0
 50
180.00001000000091
 51
268.5000000000004
  0
ARC
  5
372E
  8
AM_0
 10
302.46365860130823
 20
442.86236775981348
 30
0.0
 40
1.5
 50
12.976653000001519
 51
88.499997000000747
  0
ARC
  5
372F
  8
AM_0
 10
301.87423860130832
 20
467.6029077598136
 30
0.0
 40
2.0
 50
0.0
 51
90.000003000000945
  0
ARC
  5
3730
  8
AM_0
 10
292.87423860130832
 20
453.35858775981347
 30
0.0
 40
2.0
 50
0.0
 51
88.499997000000747
  0
LINE
  5
3731
  8
AM_0
 10
285.8742686013083
 20
455.54257775981353
 30
0.0
 11
301.92660860130849
 21
455.12222775981348
 31
0.0
  0
ARC
  5
3732
  8
AM_0
 10
301.87423860130832
 20
453.12292775981359
 30
0.0
 40
2.0
 50
0.0
 51
88.499997000000747
  0
LINE
  5
3733
  8
AM_0
 10
285.87423860130832
 20
469.60290775981372
 30
0.0
 11
301.87423860130832
 21
469.60290775981372
 31
0.0
  0
LINE
  5
3734
  8
AM_0
 10
321.87423860130832
 20
457.8351177598135
 30
0.0
 11
321.87423860130832
 21
445.28812775981362
 31
0.0
  0
LINE
  5
3735
  8
AM_0
 10
325.87423860130832
 20
446.78812775981362
 30
0.0
 11
325.87423860130832
 21
456.33514775981359
 31
0.0
  0
LINE
  5
3736
  8
AM_0
 10
320.87423860130832
 20
458.80923775981358
 30
0.0
 11
320.87423860130832
 21
442.1611977598136
 31
0.0
  0
LINE
  5
3737
  8
AM_0
 10
329.8372786013083
 20
447.00571775981348
 30
0.0
 11
323.07369860130831
 21
443.10077775981358
 31
0.0
  0
LINE
  5
3738
  8
AM_0
 10
308.87423860130838
 20
432.54321775981367
 30
0.0
 11
308.87423860130838
 21
434.54388775981357
 31
0.0
  0
LINE
  5
3739
  8
AM_0
 10
312.87423860130832
 20
433.5697677598136
 30
0.0
 11
312.87423860130832
 21
439.5683677598135
 31
0.0
  0
ARC
  5
373A
  8
AM_0
 10
309.87423860130832
 20
432.54321775981367
 30
0.0
 40
1.0
 50
180.00001000000091
 51
268.5000000000004
  0
ARC
  5
373B
  8
AM_0
 10
310.87423860130838
 20
433.5697677598136
 30
0.0
 40
2.0
 50
271.4999999999992
 51
0.0
  0
LINE
  5
373C
  8
AM_0
 10
309.87423860130832
 20
446.01654775981359
 30
0.0
 11
320.87423860130832
 21
446.01654775981359
 31
0.0
  0
LINE
  5
373D
  8
AM_0
 10
309.87423860130832
 20
441.54288775981348
 30
0.0
 11
318.33544860130843
 21
441.76443775981352
 31
0.0
  0
LINE
  5
373E
  8
AM_0
 10
311.84808860130818
 20
435.49255775981362
 30
0.0
 11
309.90042860130831
 21
435.54358775981359
 31
0.0
  0
ARC
  5
373F
  8
AM_0
 10
309.87423860130832
 20
434.54388775981357
 30
0.0
 40
1.0
 50
88.499997000000747
 51
180.00001000000091
  0
LINE
  5
3740
  8
AM_0
 10
309.87426860130819
 20
441.5428577598135
 30
0.0
 11
305.82192860130851
 21
441.6489977598136
 31
0.0
  0
ARC
  5
3741
  8
AM_0
 10
311.87423860130832
 20
436.4922277598136
 30
0.0
 40
1.0
 50
268.5000000000004
 51
0.0000006832462478
  0
ARC
  5
3742
  8
AM_0
 10
310.87423860130838
 20
439.5683677598135
 30
0.0
 40
2.0
 50
0.0
 51
91.500001000001546
  0
ARC
  5
3743
  8
AM_0
 10
318.07369860130831
 20
451.76099775981351
 30
0.0
 40
10.0
 50
271.4999999999992
 51
300.00001000000083
  0
LINE
  5
3744
  8
AM_0
 10
321.87423860130832
 20
448.67486775981359
 30
0.0
 11
324.87423860130832
 21
448.67486775981359
 31
0.0
  0
LINE
  5
3745
  8
AM_0
 10
321.87423860130832
 20
445.78809775981358
 30
0.0
 11
324.87423860130832
 21
445.78809775981358
 31
0.0
  0
LINE
  5
3746
  8
AM_0
 10
320.87423860130832
 20
445.28812775981362
 30
0.0
 11
321.87423860130832
 21
445.28812775981362
 31
0.0
  0
ARC
  5
3747
  8
AM_0
 10
324.87423860130832
 20
447.67486775981359
 30
0.0
 40
1.0
 50
0.0
 51
90.000003000000945
  0
ARC
  5
3748
  8
AM_0
 10
324.87423860130832
 20
446.78812775981362
 30
0.0
 40
1.0
 50
269.999989999999
 51
0.0000006832462478
  0
ARC
  5
3749
  8
AM_0
 10
324.87423860130832
 20
449.67486775981359
 30
0.0
 40
1.0
 50
269.999989999999
 51
0.0000006832462478
  0
ARC
  5
374A
  8
AM_0
 10
347.87423860130821
 20
435.53894775981348
 30
0.0
 40
3.0
 50
180.00001000000091
 51
271.4999999999992
  0
LINE
  5
374B
  8
AM_0
 10
346.86321860130818
 20
448.66382775981361
 30
0.0
 11
334.57549860130831
 21
448.34204775981362
 31
0.0
  0
ARC
  5
374C
  8
AM_0
 10
334.83724860130832
 20
438.34546775981357
 30
0.0
 40
10.0
 50
91.500001000001546
 51
120.0000000000005
  0
LINE
  5
374D
  8
AM_0
 10
344.87423860130821
 20
435.53894775981348
 30
0.0
 11
344.87423860130821
 21
444.67209775981348
 31
0.0
  0
ARC
  5
374E
  8
AM_0
 10
349.87423860130821
 20
444.67209775981348
 30
0.0
 40
5.0
 50
91.500001000001546
 51
180.00001000000091
  0
LINE
  5
374F
  8
AM_0
 10
334.37234860130849
 20
460.22104775981347
 30
0.0
 11
322.87423860130832
 21
458.80923775981358
 31
0.0
  0
LINE
  5
3750
  8
AM_0
 10
321.87423860130832
 20
454.44836775981361
 30
0.0
 11
324.87423860130832
 21
454.44836775981361
 31
0.0
  0
LINE
  5
3751
  8
AM_0
 10
321.87423860130832
 20
457.33514775981348
 30
0.0
 11
324.87423860130832
 21
457.33514775981348
 31
0.0
  0
LINE
  5
3752
  8
AM_0
 10
320.87423860130832
 20
458.80923775981358
 30
0.0
 11
322.87423860130832
 21
458.80923775981358
 31
0.0
  0
LINE
  5
3753
  8
AM_0
 10
320.87423860130832
 20
457.8351177598135
 30
0.0
 11
321.87423860130832
 21
457.8351177598135
 31
0.0
  0
ARC
  5
3754
  8
AM_0
 10
324.87423860130832
 20
456.33514775981359
 30
0.0
 40
1.0
 50
0.0
 51
90.000003000000945
  0
ARC
  5
3755
  8
AM_0
 10
324.87423860130832
 20
453.44836775981361
 30
0.0
 40
1.0
 50
0.0
 51
90.000003000000945
  0
ARC
  5
3756
  8
AM_0
 10
324.87423860130832
 20
455.44836775981361
 30
0.0
 40
1.0
 50
269.999989999999
 51
0.0000006832462478
  0
ARC
  5
3757
  8
AM_0
 10
351.87423860130821
 20
452.7272077598135
 30
0.0
 40
3.0
 50
271.4999999999992
 51
0.0
  0
LINE
  5
3758
  8
AM_0
 10
369.87423860130821
 20
437.98480775981358
 30
0.0
 11
369.87423860130821
 21
455.10095775981358
 31
0.0
  0
ARC
  5
3759
  8
AM_0
 10
364.87423860130821
 20
437.98480775981358
 30
0.0
 40
5.0
 50
271.4999999999992
 51
0.0
  0
CIRCLE
  5
375A
  8
AM_0
 10
359.87423860130821
 20
444.04285775981361
 30
0.0
 40
5.0
  0
LINE
  5
375B
  8
AM_0
 10
359.74337860130839
 20
459.17038775981359
 30
0.0
 11
364.95278860130821
 21
459.30679775981361
 31
0.0
  0
ARC
  5
375C
  8
AM_0
 10
359.87423860130821
 20
454.1720977598136
 30
0.0
 40
5.0
 50
91.500001000001546
 51
180.00001000000091
  0
ARC
  5
375D
  8
AM_0
 10
364.87423860130821
 20
462.30575775981362
 30
0.0
 40
3.0
 50
271.4999999999992
 51
0.0
  0
ARC
  5
375E
  8
AM_0
 10
364.87423860130821
 20
455.10095775981358
 30
0.0
 40
5.0
 50
0.0
 51
70.485339000000806
  0
ARC
  5
375F
  8
AM_0
 10
368.87423860130821
 20
482.51703775981349
 30
0.0
 40
1.0
 50
271.4999999999992
 51
0.0
  0
ARC
  5
3760
  8
AM_0
 10
368.87423860130821
 20
480.5163677598137
 30
0.0
 40
1.0
 50
91.500001000001546
 51
180.00001000000091
  0
LINE
  5
3761
  8
AM_0
 10
368.84808860130818
 20
481.51599775981362
 30
0.0
 11
368.90042860130831
 21
481.51736775981362
 31
0.0
  0
LINE
  5
3762
  8
AM_0
 10
354.87423860130838
 20
542.14877775981358
 30
0.0
 11
334.37237860130818
 21
542.86471775981352
 31
0.0
  0
LINE
  5
3763
  8
AM_0
 10
365.00512860130817
 20
570.09924775981347
 30
0.0
 11
309.87426860130819
 21
571.54288775981365
 31
0.0
  0
LINE
  5
3764
  8
AM_0
 10
349.74337860130822
 20
553.41537775981351
 30
0.0
 11
351.95278860130838
 21
553.35751775981362
 31
0.0
  0
ARC
  5
3765
  8
AM_0
 10
296.87423860130832
 20
559.04288775981365
 30
0.0
 40
5.0
 50
356.1498700000015
 51
189.68341000000129
  0
ARC
  5
3766
  8
ｶｸﾚｾﾝ2
 10
296.87423860130832
 20
559.04288775981365
 30
0.0
 40
5.0
 50
189.68341000000129
 51
356.14988000000108
  0
ARC
  5
3767
  8
AM_0
 10
296.87423860130832
 20
556.57580775981364
 30
0.0
 40
2.0
 50
91.500001000001546
 51
180.00001000000091
  0
ARC
  5
3768
  8
AM_0
 10
349.87423860130821
 20
558.41363775981347
 30
0.0
 40
5.0
 50
180.00001000000091
 51
268.5000000000004
  0
LINE
  5
3769
  8
AM_0
 10
329.8372786013083
 20
556.08002775981345
 30
0.0
 11
323.07366860130838
 21
559.98498775981375
 31
0.0
  0
LINE
  5
376A
  8
AM_0
 10
320.87423860130832
 20
544.27652775981358
 30
0.0
 11
320.87423860130832
 21
560.92456775981373
 31
0.0
  0
LINE
  5
376B
  8
AM_0
 10
285.87423860130832
 20
533.48279775981359
 30
0.0
 11
301.87423860130832
 21
533.48279775981359
 31
0.0
  0
ARC
  5
376C
  8
AM_0
 10
301.87423860130832
 20
535.48279775981359
 30
0.0
 40
2.0
 50
270.0
 51
0.0
  0
ARC
  5
376D
  8
AM_0
 10
292.87423860130832
 20
549.72717775981346
 30
0.0
 40
2.0
 50
271.4999999999992
 51
0.0
  0
LINE
  5
376E
  8
AM_0
 10
285.87423860130832
 20
547.54318775981346
 30
0.0
 11
301.92660860130849
 21
547.96350775981364
 31
0.0
  0
ARC
  5
376F
  8
AM_0
 10
301.87423860130832
 20
549.96283775981374
 30
0.0
 40
2.0
 50
271.4999999999992
 51
0.0
  0
LINE
  5
3770
  8
AM_0
 10
294.87423860130832
 20
549.72717775981346
 30
0.0
 11
294.87423860130832
 21
556.57580775981364
 31
0.0
  0
LINE
  5
3771
  8
AM_0
 10
334.37234860130849
 20
542.86471775981352
 30
0.0
 11
322.87423860130832
 21
544.27652775981358
 31
0.0
  0
LINE
  5
3772
  8
AM_0
 10
309.87423860130832
 20
557.06921775981368
 30
0.0
 11
320.87423860130832
 21
557.06921775981368
 31
0.0
  0
ARC
  5
3773
  8
AM_0
 10
324.87423860130832
 20
549.63739775981355
 30
0.0
 40
1.0
 50
269.999989999999
 51
0.0000006832462478
  0
LINE
  5
3774
  8
AM_0
 10
325.87423860130832
 20
556.29764775981357
 30
0.0
 11
325.87423860130832
 21
546.75061775981362
 31
0.0
  0
LINE
  5
3775
  8
AM_0
 10
321.87423860130832
 20
545.25061775981362
 30
0.0
 11
321.87423860130832
 21
557.79764775981346
 31
0.0
  0
LINE
  5
3776
  8
AM_0
 10
321.87423860130832
 20
545.75061775981362
 30
0.0
 11
324.87423860130832
 21
545.75061775981362
 31
0.0
  0
LINE
  5
3777
  8
AM_0
 10
321.87423860130832
 20
548.63736775981363
 30
0.0
 11
324.87423860130832
 21
548.63736775981363
 31
0.0
  0
LINE
  5
3778
  8
AM_0
 10
320.87423860130832
 20
544.27652775981358
 30
0.0
 11
322.87423860130832
 21
544.27652775981358
 31
0.0
  0
LINE
  5
3779
  8
AM_0
 10
320.87423860130832
 20
545.25061775981362
 30
0.0
 11
321.87423860130832
 21
545.25061775981362
 31
0.0
  0
ARC
  5
377A
  8
AM_0
 10
324.87423860130832
 20
547.63739775981355
 30
0.0
 40
1.0
 50
0.0
 51
90.000003000000945
  0
ARC
  5
377B
  8
AM_0
 10
324.87423860130832
 20
546.75061775981362
 30
0.0
 40
1.0
 50
269.999989999999
 51
0.0000006832462478
  0
LINE
  5
377C
  8
AM_0
 10
321.87423860130832
 20
557.29764775981346
 30
0.0
 11
324.87423860130832
 21
557.29764775981346
 31
0.0
  0
LINE
  5
377D
  8
AM_0
 10
321.87423860130832
 20
554.41089775981368
 30
0.0
 11
324.87423860130832
 21
554.41089775981368
 31
0.0
  0
LINE
  5
377E
  8
AM_0
 10
320.87423860130832
 20
557.79764775981346
 30
0.0
 11
321.87423860130832
 21
557.79764775981346
 31
0.0
  0
ARC
  5
377F
  8
AM_0
 10
324.87423860130832
 20
553.41089775981345
 30
0.0
 40
1.0
 50
0.0
 51
90.000003000000945
  0
ARC
  5
3780
  8
AM_0
 10
324.87423860130832
 20
556.29764775981357
 30
0.0
 40
1.0
 50
0.0
 51
90.000003000000945
  0
ARC
  5
3781
  8
AM_0
 10
324.87423860130832
 20
555.41089775981357
 30
0.0
 40
1.0
 50
269.999989999999
 51
0.0000006832462478
  0
LINE
  5
3782
  8
AM_0
 10
346.86321860130818
 20
554.42194775981363
 30
0.0
 11
334.57549860130831
 21
554.74371775981365
 31
0.0
  0
ARC
  5
3783
  8
AM_0
 10
334.83724860130832
 20
564.74029775981364
 30
0.0
 40
10.0
 50
239.99999999999949
 51
268.5000000000004
  0
ARC
  5
3784
  8
AM_0
 10
305.87423860130832
 20
559.43744775981361
 30
0.0
 40
2.0
 50
91.500001000001546
 51
180.00001000000091
  0
LINE
  5
3785
  8
AM_0
 10
309.87426860130819
 20
571.54285775981361
 30
0.0
 11
291.74337860130851
 21
571.06808775981347
 31
0.0
  0
LINE
  5
3786
  8
AM_0
 10
285.8742686013083
 20
558.04288775981365
 30
0.0
 11
295.86859860130801
 21
558.30456775981361
 31
0.0
  0
ARC
  5
3787
  8
AM_0
 10
291.87423860130832
 20
566.06982775981362
 30
0.0
 40
5.0
 50
91.500001000001546
 51
180.00001000000091
  0
LINE
  5
3788
  8
AM_0
 10
286.87423860130832
 20
566.06982775981362
 30
0.0
 11
286.87423860130832
 21
558.06906775981361
 31
0.0
  0
LINE
  5
3789
  8
AM_0
 10
296.82189860130819
 20
558.57513775981374
 30
0.0
 11
302.5029286013085
 21
558.72391775981373
 31
0.0
  0
ARC
  5
378A
  8
AM_0
 10
302.46365860130823
 20
560.22339775981345
 30
0.0
 40
1.5
 50
271.4999999999992
 51
347.02334999999908
  0
LINE
  5
378B
  8
AM_0
 10
309.87426860130819
 20
561.54288775981365
 30
0.0
 11
318.3354786013083
 21
561.32132775981347
 31
0.0
  0
ARC
  5
378C
  8
AM_0
 10
311.87423860130832
 20
566.59354775981365
 30
0.0
 40
1.0
 50
0.0
 51
91.500001000001546
  0
LINE
  5
378D
  8
AM_0
 10
312.87423860130832
 20
569.51599775981356
 30
0.0
 11
312.87423860130832
 21
563.51736775981362
 31
0.0
  0
LINE
  5
378E
  8
AM_0
 10
305.82189860130831
 20
561.43677775981325
 30
0.0
 11
309.87423860130832
 21
561.54288775981365
 31
0.0
  0
ARC
  5
378F
  8
AM_0
 10
310.87423860130838
 20
563.51736775981362
 30
0.0
 40
2.0
 50
268.5000000000004
 51
0.0000006832462478
  0
LINE
  5
3790
  8
AM_0
 10
311.84808860130818
 20
567.59317775981356
 30
0.0
 11
309.90045860130817
 21
567.54217775981363
 31
0.0
  0
ARC
  5
3791
  8
AM_0
 10
309.87423860130832
 20
568.54184775981355
 30
0.0
 40
1.0
 50
180.00001000000091
 51
271.4999999999992
  0
ARC
  5
3792
  8
AM_0
 10
309.87423860130832
 20
570.5425477598136
 30
0.0
 40
1.0
 50
91.500001000001546
 51
180.00001000000091
  0
LINE
  5
3793
  8
AM_0
 10
308.87423860130838
 20
570.5425477598136
 30
0.0
 11
308.87423860130838
 21
568.54184775981355
 31
0.0
  0
ARC
  5
3794
  8
AM_0
 10
310.87423860130838
 20
569.51599775981356
 30
0.0
 40
2.0
 50
0.0
 51
88.499997000000747
  0
ARC
  5
3795
  8
AM_0
 10
318.07369860130831
 20
551.32474775981348
 30
0.0
 40
10.0
 50
60.000002000001302
 51
88.499997000000747
  0
LINE
  5
3796
  8
AM_0
 10
344.87423860130821
 20
567.54678775981347
 30
0.0
 11
344.87423860130821
 21
558.41363775981347
 31
0.0
  0
ARC
  5
3797
  8
AM_0
 10
347.87423860130821
 20
567.54678775981347
 30
0.0
 40
3.0
 50
88.499997000000747
 51
180.00001000000091
  0
CIRCLE
  5
3798
  8
AM_0
 10
359.87423860130821
 20
559.04288775981365
 30
0.0
 40
5.0
  0
LINE
  5
3799
  8
AM_0
 10
369.87423860130821
 20
565.10092775981354
 30
0.0
 11
369.87423860130821
 21
547.98480775981352
 31
0.0
  0
LINE
  5
379A
  8
ﾁｭｳｼﾝｾﾝ1
 10
359.87423860130821
 20
570.04288775981365
 30
0.0
 11
359.87423860130821
 21
548.04288775981365
 31
0.0
  0
LINE
  5
379B
  8
AM_0
 10
377.87423860130821
 20
504.54285775981361
 30
0.0
 11
399.87423860130821
 21
504.54285775981361
 31
0.0
  0
LINE
  5
379C
  8
AM_0
 10
377.87423860130821
 20
498.54285775981361
 30
0.0
 11
399.87423860130821
 21
498.54285775981361
 31
0.0
  0
LINE
  5
379D
  8
AM_0
 10
371.87423860130821
 20
511.0428877598136
 30
0.0
 11
399.87423860130821
 21
511.0428877598136
 31
0.0
  0
LINE
  5
379E
  8
AM_0
 10
371.87423860130821
 20
492.04288775981348
 30
0.0
 11
399.87423860130821
 21
492.04288775981348
 31
0.0
  0
ARC
  5
379F
  8
AM_0
 10
368.87423860130821
 20
522.56940775981354
 30
0.0
 40
1.0
 50
179.9999899999988
 51
268.50000999999872
  0
ARC
  5
37A0
  8
AM_0
 10
377.87423860130821
 20
501.54285775981361
 30
0.0
 40
3.0
 50
89.986013999999244
 51
270.01398999999992
  0
LINE
  5
37A1
  8
AM_0
 10
371.87423860130821
 20
491.54288775981348
 30
0.0
 11
371.87423860130821
 21
511.5428877598136
 31
0.0
  0
LINE
  5
37A2
  8
AM_0
 10
369.87423860130821
 20
491.54288775981348
 30
0.0
 11
371.87423860130821
 21
491.54288775981348
 31
0.0
  0
LINE
  5
37A3
  8
AM_0
 10
369.87423860130821
 20
511.5428877598136
 30
0.0
 11
371.87423860130821
 21
511.5428877598136
 31
0.0
  0
ARC
  5
37A4
  8
AM_0
 10
368.87423860130821
 20
520.56872775981356
 30
0.0
 40
1.0
 50
0.0
 51
88.499997000000747
  0
LINE
  5
37A5
  8
AM_0
 10
368.84808860130818
 20
521.56973775981362
 30
0.0
 11
368.90042860130831
 21
521.56836775981367
 31
0.0
  0
LINE
  5
37A6
  8
AM_0
 10
377.87423860130821
 20
498.54285775981361
 30
0.0
 11
377.87423860130821
 21
504.54285775981361
 31
0.0
  0
LINE
  5
37A7
  8
AM_0
 10
359.74337860130839
 20
543.91537775981362
 30
0.0
 11
364.95278860130821
 21
543.77896775981367
 31
0.0
  0
ARC
  5
37A8
  8
AM_0
 10
359.87423860130821
 20
548.91363775981358
 30
0.0
 40
5.0
 50
180.00001000000091
 51
268.5000000000004
  0
ARC
  5
37A9
  8
AM_0
 10
351.87423860130821
 20
550.35852775981346
 30
0.0
 40
3.0
 50
0.0
 51
88.499997000000747
  0
ARC
  5
37AA
  8
AM_0
 10
364.87423860130821
 20
547.98480775981352
 30
0.0
 40
5.0
 50
289.51466999999951
 51
0.0
  0
ARC
  5
37AB
  8
AM_0
 10
364.87423860130821
 20
540.77997775981351
 30
0.0
 40
3.0
 50
0.0
 51
88.499997000000747
  0
LINE
  5
37AC
  8
AM_0
 10
399.87423860130821
 20
492.04288775981348
 30
0.0
 11
399.87423860130821
 21
511.0428877598136
 31
0.0
  0
LINE
  5
37AD
  8
ﾁｭｳｼﾝｾﾝ1
 10
348.87423860130821
 20
559.04288775981365
 30
0.0
 11
370.87423860130821
 21
559.04288775981365
 31
0.0
  0
ARC
  5
37AE
  8
AM_0
 10
364.87423860130821
 20
565.10092775981354
 30
0.0
 40
5.0
 50
0.0
 51
88.499997000000747
  0
LINE
  5
37AF
  8
ﾁｭｳｼﾝｾﾝ1
 10
359.87423860130821
 20
455.04285775981361
 30
0.0
 11
359.87423860130821
 21
433.0428577598135
 31
0.0
  0
LINE
  5
37B0
  8
ﾁｭｳｼﾝｾﾝ1
 10
348.87423860130821
 20
444.04285775981361
 30
0.0
 11
370.87423860130821
 21
444.04285775981361
 31
0.0
  0
LINE
  5
37B1
  8
ﾁｭｳｼﾝｾﾝ1
 10
296.87423860130832
 20
455.04285775981361
 30
0.0
 11
296.87423860130832
 21
433.0428577598135
 31
0.0
  0
LINE
  5
37B2
  8
ﾁｭｳｼﾝｾﾝ1
 10
285.87423860130832
 20
444.04285775981361
 30
0.0
 11
307.87423860130832
 21
444.04285775981361
 31
0.0
  0
LINE
  5
37B3
  8
ﾁｭｳｼﾝｾﾝ1
 10
296.87423860130832
 20
570.04288775981365
 30
0.0
 11
296.87423860130832
 21
548.04288775981365
 31
0.0
  0
LINE
  5
37B4
  8
ﾁｭｳｼﾝｾﾝ1
 10
285.87423860130832
 20
559.04288775981365
 30
0.0
 11
307.87423860130832
 21
559.04288775981365
 31
0.0
  0
LINE
  5
37B6
  8
ﾁｭｳｼﾝｾﾝ1
 10
298.52481860130843
 20
305.37402181692772
 30
0.0
 11
401.60772860130851
 21
305.37402181692772
 31
0.0
  0
LINE
  5
37B7
  8
AM_0
 10
371.8742186013086
 20
314.87402281692789
 30
0.0
 11
399.87423860130821
 21
314.87402281692789
 31
0.0
  0
LINE
  5
37B8
  8
AM_0
 10
377.8742186013086
 20
317.37402081692778
 30
0.0
 11
399.87423860130821
 21
317.37402081692778
 31
0.0
  0
LINE
  5
37B9
  8
AM_0
 10
371.8742186013086
 20
295.87402081692778
 30
0.0
 11
399.87423860130821
 21
295.87402081692778
 31
0.0
  0
LINE
  5
37BA
  8
AM_0
 10
369.87423860130821
 20
324.3998658169279
 30
0.0
 11
369.87423860130821
 21
286.34817181692767
 31
0.0
  0
LINE
  5
37BB
  8
AM_0
 10
367.87419860130848
 20
333.37403581692797
 30
0.0
 11
367.87419860130848
 21
233.56441681692769
 31
0.0
  0
LINE
  5
37BC
  8
AM_0
 10
303.87423860130832
 20
328.24763581692793
 30
0.0
 11
303.87423860130832
 21
288.3740208169279
 31
0.0
  0
LINE
  5
37BD
  8
AM_0
 10
357.87423860130821
 20
342.24632581692782
 30
0.0
 11
357.87423860130821
 21
257.14144381692762
 31
0.0
  0
LINE
  5
37BE
  8
AM_0
 10
285.87423860130832
 20
344.8740208169279
 30
0.0
 11
285.87423860130832
 21
231.8740208169279
 31
0.0
  0
LINE
  5
37BF
  8
AM_0
 10
309.87423860130832
 20
348.37403581692797
 30
0.0
 11
309.87423860130832
 21
238.3740348169278
 31
0.0
  0
LINE
  5
37C0
  8
AM_0
 10
334.65993860130823
 20
312.71334781692792
 30
0.0
 11
322.87422860130852
 21
230.37398881692781
 31
0.0
  0
LINE
  5
37C1
  8
AM_0
 10
322.87419860130848
 20
317.00488081692788
 30
0.0
 11
322.87419860130848
 21
230.3740188169279
 31
0.0
  0
LINE
  5
37C2
  8
AM_0
 10
344.87424860130852
 20
235.37400481692771
 30
0.0
 11
344.87424860130852
 21
313.2914418169276
 31
0.0
  0
LINE
  5
37C3
  8
AM_0
 10
371.8742186013086
 20
295.3740198169279
 30
0.0
 11
371.8742186013086
 21
305.37402181692772
 31
0.0
  0
LINE
  5
37C4
  8
0
 10
264.87423860130832
 20
366.37402081692773
 30
0.0
 11
264.87423860130832
 21
210.3740208169277
 31
0.0
1001
GENIUS_GENOREF_13
1005
318B
  0
LINE
  5
37C5
  8
0
 10
254.87423860130841
 20
208.3740208169277
 30
0.0
 11
254.87423860130841
 21
368.37402081692773
 31
0.0
1001
GENIUS_GENOREF_13
1005
318B
  0
ARC
  5
37C6
  8
0
 10
262.87423860130832
 20
210.3740208169277
 30
0.0
 40
2.0
 50
270.0
 51
0.0
1001
GENIUS_GENOBJ-N-FIL_13
1002
{
1000
OWNER
1000
GEN
1002
}
1001
GENIUS_GENODEF_13
1002
{
1000
HIER
1070
     0
1002
}
1002
{
1000
MANEDIT
1070
     0
1002
}
1002
{
1000
NOSEL
1070
     0
1002
}
1002
{
1000
BEHIND
1070
     0
1002
}
1002
{
1000
OTHER
1070
     0
1002
}
1002
{
1000
REACTOR
1002
}
  0
LINE
  5
37C7
  8
0
 10
254.87423860130841
 20
208.3740208169277
 30
0.0
 11
262.87423860130832
 21
208.3740208169277
 31
0.0
  0
LINE
  5
37C8
  8
AM_0
 10
307.87422860130852
 20
221.3740188169277
 30
0.0
 11
348.87423860130821
 21
221.3740188169277
 31
0.0
  0
LINE
  5
37C9
  8
AM_0
 10
303.87423860130832
 20
230.3740188169279
 30
0.0
 11
303.87423860130832
 21
288.3740208169279
 31
0.0
  0
LINE
  5
37CA
  8
AM_0
 10
312.85371860130817
 20
264.199336816928
 30
0.0
 11
309.18600860130852
 21
233.0234628169278
 31
0.0
  0
LINE
  5
37CB
  8
AM_0
 10
285.87423860130832
 20
242.374003816928
 30
0.0
 11
264.87423860130832
 21
242.374003816928
 31
0.0
  0
LINE
  5
37CC
  8
0
 10
266.80443960790342
 20
231.208088762025
 30
0.0
 11
285.87423860130832
 21
231.8740208169279
 31
0.0
  0
ARC
  5
37CD
  8
0
 10
266.87423860130832
 20
229.2093071079868
 30
0.0
 40
2.0
 50
92.000000000000341
 51
180.0
1001
GENIUS_GENOBJ-N-FIL_13
1002
{
1000
OWNER
1000
GEN
1002
}
1001
GENIUS_GENODEF_13
1002
{
1000
HIER
1070
     0
1002
}
1002
{
1000
MANEDIT
1070
     0
1002
}
1002
{
1000
NOSEL
1070
     0
1002
}
1002
{
1000
BEHIND
1070
     0
1002
}
1002
{
1000
OTHER
1070
     0
1002
}
1002
{
1000
REACTOR
1002
}
  0
ARC
  5
37CE
  8
AM_0
 10
306.20649860130823
 20
233.37401881692759
 30
0.0
 40
3.0
 50
270.0
 51
353.29016000000053
  0
LINE
  5
37CF
  8
ﾁｭｳｼﾝｾﾝ1
 10
296.87424860130858
 20
217.76546881692781
 30
0.0
 11
296.87424860130858
 21
233.18775481692791
 31
0.0
  0
LINE
  5
37D0
  8
AM_0
 10
285.87423860130832
 20
232.37400481692791
 30
0.0
 11
302.41353860130818
 21
231.94091281692781
 31
0.0
  0
LINE
  5
37D1
  8
AM_0
 10
306.20649860130823
 20
230.3740188169279
 30
0.0
 11
288.37422860130852
 21
230.3740188169279
 31
0.0
  0
LINE
  5
37D2
  8
AM_0
 10
286.87422860130852
 20
220.37400481692791
 30
0.0
 11
306.87423860130838
 21
220.37400481692791
 31
0.0
  0
LINE
  5
37D3
  8
ｶｸﾚｾﾝ2
 10
291.87423860130832
 20
220.37400481692791
 30
0.0
 11
291.87423860130832
 21
230.3740188169279
 31
0.0
  0
LINE
  5
37D4
  8
AM_0
 10
286.87422860130852
 20
220.37400481692791
 30
0.0
 11
286.87422860130852
 21
228.8740188169279
 31
0.0
  0
ARC
  5
37D5
  8
AM_0
 10
288.37422860130852
 20
228.8740188169279
 30
0.0
 40
1.5000000299999969
 50
90.000003000000945
 51
180.00001000000091
  0
LINE
  5
37D6
  8
ｶｸﾚｾﾝ2
 10
301.87422860130852
 20
220.37400481692791
 30
0.0
 11
301.87422860130852
 21
230.3740188169279
 31
0.0
  0
LINE
  5
37D7
  8
AM_0
 10
306.87423860130838
 20
220.37400481692791
 30
0.0
 11
306.87423860130838
 21
220.37400481692791
 31
0.0
  0
ARC
  5
37D8
  8
AM_0
 10
307.87422860130852
 20
220.37400481692791
 30
0.0
 40
1.0000000199999981
 50
90.000003000000945
 51
180.00001000000091
  0
ARC
  5
37D9
  8
AM_0
 10
302.37423860130832
 20
230.44144681692791
 30
0.0
 40
1.5000000299999969
 50
0.0
 51
88.499997000000747
  0
LINE
  5
37DA
  8
AM_0
 10
285.87423860130832
 20
242.3740188169279
 30
0.0
 11
303.87423860130832
 21
242.3740188169279
 31
0.0
  0
LINE
  5
37DB
  8
AM_0
 10
285.87423860130832
 20
256.43657881692792
 30
0.0
 11
264.87423860130832
 21
256.43657881692792
 31
0.0
  0
LINE
  5
37DC
  8
ﾁｭｳｼﾝｾﾝ1
 10
250.12506785464751
 20
288.3740208169279
 30
0.0
 11
307.83780860130838
 21
288.3740208169279
 31
0.0
  0
LINE
  5
37DD
  8
AM_0
 10
312.87423860130832
 20
293.12484481692798
 30
0.0
 11
312.87423860130832
 21
264.5498778169279
 31
0.0
  0
LINE
  5
37DE
  8
AM_0
 10
285.87423860130832
 20
256.4365818169278
 30
0.0
 11
303.87423860130832
 21
256.4365818169278
 31
0.0
  0
ARC
  5
37DF
  8
AM_0
 10
309.87423860130832
 20
264.5498778169279
 30
0.0
 40
3.0
 50
353.29016000000053
 51
0.0
  0
ARC
  5
37E0
  8
AM_0
 10
352.87419860130848
 20
257.14144381692762
 30
0.0
 40
5.0000001000000003
 50
270.0
 51
0.0
  0
ARC
  5
37E1
  8
AM_0
 10
349.87419860130859
 20
235.37400481692771
 30
0.0
 40
5.0000001000000003
 50
180.00001000000091
 51
270.0
  0
LINE
  5
37E2
  8
AM_0
 10
352.87419860130848
 20
252.14143081692791
 30
0.0
 11
344.87424860130852
 21
252.14143081692791
 31
0.0
  0
ARC
  5
37E3
  8
AM_0
 10
372.87423860130821
 20
233.56441681692769
 30
0.0
 40
5.0000001000000003
 50
179.9999899999988
 51
226.18692999999939
  0
LINE
  5
37E4
  8
ﾁｭｳｼﾝｾﾝ1
 10
359.87421860130848
 20
217.76546881692781
 30
0.0
 11
359.87421860130848
 21
232.9485288169279
 31
0.0
  0
LINE
  5
37E5
  8
AM_0
 10
349.87419860130859
 20
220.37400481692791
 30
0.0
 11
369.87423860130821
 21
220.37400481692791
 31
0.0
  0
LINE
  5
37E6
  8
AM_0
 10
368.37423860130821
 20
230.3740188169279
 30
0.0
 11
349.87419860130859
 21
230.3740188169279
 31
0.0
  0
LINE
  5
37E7
  8
ｶｸﾚｾﾝ2
 10
354.87423860130838
 20
220.37400481692791
 30
0.0
 11
354.87423860130838
 21
230.3740188169279
 31
0.0
  0
ARC
  5
37E8
  8
AM_0
 10
348.87423860130821
 20
220.37400481692791
 30
0.0
 40
1.0000000199999981
 50
0.0
 51
90.000003000000945
  0
LINE
  5
37E9
  8
AM_0
 10
349.87419860130859
 20
220.37400481692791
 30
0.0
 11
349.87419860130859
 21
220.37400481692791
 31
0.0
  0
LINE
  5
37EA
  8
AM_0
 10
369.87423860130821
 20
220.37400481692791
 30
0.0
 11
369.87423860130821
 21
228.8740188169279
 31
0.0
  0
LINE
  5
37EB
  8
ｶｸﾚｾﾝ2
 10
364.87419860130859
 20
220.37400481692791
 30
0.0
 11
364.87419860130859
 21
230.3740188169279
 31
0.0
  0
ARC
  5
37EC
  8
AM_0
 10
368.37423860130821
 20
228.8740188169279
 30
0.0
 40
1.5000000299999969
 50
0.0
 51
90.000003000000945
  0
LINE
  5
37ED
  8
AM_0
 10
368.84805860130848
 20
285.34713481692791
 30
0.0
 11
368.9003786013082
 21
285.34850881692768
 31
0.0
  0
ARC
  5
37EE
  8
AM_0
 10
368.87424860130852
 20
284.34746881692797
 30
0.0
 40
1.0000000199999981
 50
91.500001000001546
 51
180.00001000000091
  0
ARC
  5
37EF
  8
AM_0
 10
368.87424860130852
 20
286.34817181692767
 30
0.0
 40
1.0000000199999981
 50
271.4999999999992
 51
0.0
  0
LINE
  5
37F0
  8
AM_0
 10
369.87423860130821
 20
295.3740198169279
 30
0.0
 11
371.8742186013086
 21
295.3740198169279
 31
0.0
  0
LINE
  5
37F1
  8
AM_0
 10
309.87423860130832
 20
348.37400581692782
 30
0.0
 11
353.0051186013086
 21
347.24456581692789
 31
0.0
  0
LINE
  5
37F2
  8
AM_0
 10
294.87423860130832
 20
330.98087581692761
 30
0.0
 11
320.87424860130852
 21
330.98087581692761
 31
0.0
  0
LINE
  5
37F3
  8
AM_0
 10
303.87423860130832
 20
346.75568581692772
 30
0.0
 11
303.87423860130832
 21
332.37401581692802
 31
0.0
  0
LINE
  5
37F4
  8
AM_0
 10
285.87423860130832
 20
334.37401981692801
 30
0.0
 11
264.87423860130832
 21
334.37401981692801
 31
0.0
  0
LINE
  5
37F5
  8
AM_0
 10
285.87423860130832
 20
320.31145981692799
 30
0.0
 11
264.87423860130832
 21
320.31145981692799
 31
0.0
  0
LINE
  5
37F6
  8
AM_0
 10
294.87423860130832
 20
332.37401581692802
 30
0.0
 11
294.87423860130832
 21
314.15673481692778
 31
0.0
  0
LINE
  5
37F7
  8
AM_0
 10
294.87423860130832
 20
314.15673481692778
 30
0.0
 11
303.87423860130832
 21
314.15673481692778
 31
0.0
  0
LINE
  5
37F8
  8
AM_0
 10
285.87423860130832
 20
334.37402581692771
 30
0.0
 11
303.87423860130832
 21
334.37402581692771
 31
0.0
  0
LINE
  5
37F9
  8
AM_0
 10
294.87423860130832
 20
332.37401581692802
 30
0.0
 11
303.87423860130832
 21
332.37401581692802
 31
0.0
  0
LINE
  5
37FA
  8
AM_0
 10
285.87423860130832
 20
320.31145981692782
 30
0.0
 11
294.87423860130832
 21
320.31145981692782
 31
0.0
  0
LINE
  5
37FB
  8
0
 10
266.80443960790342
 20
345.53995287183062
 30
0.0
 11
285.87423860130832
 21
344.8740208169279
 31
0.0
  0
ARC
  5
37FC
  8
0
 10
266.87423860130832
 20
347.5387345258689
 30
0.0
 40
2.0
 50
180.0
 51
267.9999999999996
1001
GENIUS_GENOBJ-N-FIL_13
1002
{
1000
OWNER
1000
GEN
1002
}
1001
GENIUS_GENODEF_13
1002
{
1000
HIER
1070
     0
1002
}
1002
{
1000
MANEDIT
1070
     0
1002
}
1002
{
1000
NOSEL
1070
     0
1002
}
1002
{
1000
BEHIND
1070
     0
1002
}
1002
{
1000
OTHER
1070
     0
1002
}
1002
{
1000
REACTOR
1002
}
  0
ARC
  5
37FD
  8
0
 10
262.87423860130832
 20
366.37402081692773
 30
0.0
 40
2.0
 50
0.0
 51
90.0
1001
GENIUS_GENOBJ-N-FIL_13
1002
{
1000
OWNER
1000
GEN
1002
}
1001
GENIUS_GENODEF_13
1002
{
1000
HIER
1070
     0
1002
}
1002
{
1000
MANEDIT
1070
     0
1002
}
1002
{
1000
NOSEL
1070
     0
1002
}
1002
{
1000
BEHIND
1070
     0
1002
}
1002
{
1000
OTHER
1070
     0
1002
}
1002
{
1000
REACTOR
1002
}
  0
LINE
  5
37FE
  8
0
 10
254.87423860130841
 20
368.37402081692773
 30
0.0
 11
262.87423860130832
 21
368.37402081692773
 31
0.0
  0
LINE
  5
37FF
  8
AM_0
 10
285.87423860130832
 20
344.37401581692802
 30
0.0
 11
302.41347860130861
 21
344.80712581692779
 31
0.0
  0
ARC
  5
3800
  8
AM_0
 10
305.37423860130832
 20
346.75568581692772
 30
0.0
 40
1.5000000299999969
 50
91.500001000001546
 51
180.00001000000091
  0
ARC
  5
3801
  8
AM_0
 10
302.37423860130832
 20
346.30661581692772
 30
0.0
 40
1.5000000299999969
 50
271.4999999999992
 51
0.0
  0
LINE
  5
3802
  8
AM_0
 10
305.33499860130871
 20
348.25517581692782
 30
0.0
 11
309.87423860130832
 21
348.3740658169279
 31
0.0
  0
LINE
  5
3803
  8
AM_0
 10
335.27424860130839
 20
331.89542581692803
 30
0.0
 11
322.87428860130831
 21
348.03359581692803
 31
0.0
  0
LINE
  5
3804
  8
AM_0
 10
322.87419860130848
 20
347.9288658169279
 30
0.0
 11
322.87419860130848
 21
332.4994758169276
 31
0.0
  0
ARC
  5
3805
  8
AM_0
 10
349.87419860130859
 20
313.2914418169276
 30
0.0
 40
5.0000001000000003
 50
90.000003000000945
 51
180.00001000000091
  0
LINE
  5
3806
  8
AM_0
 10
325.87419860130848
 20
331.89542581692803
 30
0.0
 11
352.87419860130848
 21
331.89542581692803
 31
0.0
  0
LINE
  5
3807
  8
AM_0
 10
320.87424860130852
 20
336.59597581692782
 30
0.0
 11
320.87424860130852
 21
317.21224681692797
 31
0.0
  0
LINE
  5
3808
  8
AM_0
 10
322.87419860130848
 20
317.00488081692788
 30
0.0
 11
346.52601860130818
 21
317.00488081692788
 31
0.0
  0
ARC
  5
3809
  8
AM_0
 10
321.87423860130832
 20
317.21224681692797
 30
0.0
 40
1.0000000199999981
 50
179.9999899999988
 51
270.0
  0
ARC
  5
380A
  8
AM_0
 10
321.87423860130832
 20
315.21224881692791
 30
0.0
 40
1.0000000199999981
 50
0.0
 51
90.000003000000945
  0
ARC
  5
380B
  8
AM_0
 10
339.60948860130839
 20
312.00487981692771
 30
0.0
 40
5.0000001000000003
 50
90.000003000000945
 51
171.8542400000002
  0
LINE
  5
380C
  8
AM_0
 10
325.87419860130848
 20
321.9524838169279
 30
0.0
 11
325.87419860130848
 21
331.4995158169279
 31
0.0
  0
LINE
  5
380D
  8
AM_0
 10
321.87423860130832
 20
332.99948581692797
 30
0.0
 11
321.87423860130832
 21
320.45248081692768
 31
0.0
  0
ARC
  5
380E
  8
AM_0
 10
324.87423860130832
 20
330.61271581692768
 30
0.0
 40
1.0000000199999981
 50
270.0
 51
0.0
  0
LINE
  5
380F
  8
AM_0
 10
320.87424860130852
 20
320.45248081692768
 30
0.0
 11
321.87423860130832
 21
320.45248081692768
 31
0.0
  0
ARC
  5
3810
  8
AM_0
 10
324.87423860130832
 20
322.83923281692768
 30
0.0
 40
1.0000000199999981
 50
0.0
 51
90.000003000000945
  0
ARC
  5
3811
  8
AM_0
 10
324.87423860130832
 20
321.9524838169279
 30
0.0
 40
1.0000000199999981
 50
270.0
 51
0.0
  0
LINE
  5
3812
  8
AM_0
 10
321.87423860130832
 20
320.95245181692798
 30
0.0
 11
324.87423860130832
 21
320.95245181692798
 31
0.0
  0
ARC
  5
3813
  8
AM_0
 10
324.87423860130832
 20
328.61273581692802
 30
0.0
 40
1.0000000199999981
 50
0.0
 51
90.000003000000945
  0
ARC
  5
3814
  8
AM_0
 10
324.87423860130832
 20
324.83924581692781
 30
0.0
 40
1.0000000199999981
 50
270.0
 51
0.0
  0
LINE
  5
3815
  8
AM_0
 10
321.87423860130832
 20
329.61272581692782
 30
0.0
 11
324.87423860130832
 21
329.61272581692782
 31
0.0
  0
LINE
  5
3816
  8
AM_0
 10
321.87423860130832
 20
323.83920181692798
 30
0.0
 11
324.87423860130832
 21
323.83920181692798
 31
0.0
  0
ARC
  5
3817
  8
AM_0
 10
321.87423860130832
 20
336.59597581692782
 30
0.0
 40
1.0000000199999981
 50
90.000003000000945
 51
180.00001000000091
  0
LINE
  5
3818
  8
AM_0
 10
320.87424860130852
 20
332.99948581692797
 30
0.0
 11
321.87423860130832
 21
332.99948581692797
 31
0.0
  0
ARC
  5
3819
  8
AM_0
 10
321.87423860130832
 20
338.59601581692772
 30
0.0
 40
1.0000000199999981
 50
270.0
 51
0.0
  0
ARC
  5
381A
  8
AM_0
 10
324.87423860130832
 20
331.4995158169279
 30
0.0
 40
1.0000000199999981
 50
0.0
 51
90.000003000000945
  0
LINE
  5
381B
  8
AM_0
 10
321.87423860130832
 20
332.4994758169276
 30
0.0
 11
324.87423860130832
 21
332.4994758169276
 31
0.0
  0
LINE
  5
381C
  8
AM_0
 10
357.87423860130821
 20
318.29143981692789
 30
0.0
 11
349.87419860130859
 21
318.29143981692789
 31
0.0
  0
LINE
  5
381D
  8
AM_0
 10
371.8742186013086
 20
315.3740208169279
 30
0.0
 11
371.8742186013086
 21
305.37402181692772
 31
0.0
  0
LINE
  5
381E
  8
AM_0
 10
369.87423860130821
 20
315.3740208169279
 30
0.0
 11
371.8742186013086
 21
315.3740208169279
 31
0.0
  0
LINE
  5
381F
  8
AM_0
 10
377.8742186013086
 20
314.87402281692789
 30
0.0
 11
377.8742186013086
 21
317.37402081692778
 31
0.0
  0
LINE
  5
3820
  8
AM_0
 10
362.87424860130852
 20
335.37401581692802
 30
0.0
 11
365.87424860130852
 21
335.37401581692802
 31
0.0
  0
ARC
  5
3821
  8
AM_0
 10
352.87419860130848
 20
326.89541581692782
 30
0.0
 40
5.0000001000000003
 50
0.0
 51
90.000003000000945
  0
ARC
  5
3822
  8
AM_0
 10
362.87424860130852
 20
340.37399581692762
 30
0.0
 40
5.0000001000000003
 50
180.00001000000091
 51
270.0
  0
LINE
  5
3823
  8
AM_0
 10
368.84805860130848
 20
325.40087581692802
 30
0.0
 11
368.9004086013083
 21
325.39949581692792
 31
0.0
  0
ARC
  5
3824
  8
AM_0
 10
368.87424860130852
 20
326.40053581692803
 30
0.0
 40
1.0000000199999981
 50
179.9999899999988
 51
268.50000999999872
  0
ARC
  5
3825
  8
AM_0
 10
368.87424860130852
 20
324.3998658169279
 30
0.0
 40
1.0000000199999981
 50
0.0
 51
88.499997000000747
  0
ARC
  5
3826
  8
AM_0
 10
365.87424860130852
 20
333.37403581692797
 30
0.0
 40
2.00000007
 50
0.0
 51
90.000003000000945
  0
ARC
  5
3827
  8
AM_0
 10
352.87419860130848
 20
342.24632581692782
 30
0.0
 40
5.0000001000000003
 50
0.0
 51
88.499997000000747
  0
LINE
  5
3828
  8
AM_0
 10
399.87423860130821
 20
295.87402081692778
 30
0.0
 11
399.87423860130809
 21
317.37402081692778
 31
0.0
  0
ARC
  5
3829
  8
AM_0
 10
556.04368313702025
 20
305.37402181692772
 30
0.0
 40
20.000000700000001
 50
90.000003000000945
 51
270.0
  0
ARC
  5
382A
  8
AM_0
 10
556.04368313702025
 20
305.37402181692772
 30
0.0
 40
20.000000700000001
 50
270.0
 51
90.000003000000945
  0
ARC
  5
382B
  8
AM_0
 10
556.04368313702025
 20
292.87402081692778
 30
0.0
 40
42.500000999999997
 50
0.0
 51
180.00001000000091
  0
LINE
  5
382C
  8
ﾁｭｳｼﾝｾﾝ1
 10
556.04368313702025
 20
203.3740208169279
 30
0.0
 11
556.04368313702025
 21
373.3740208169279
 31
0.0
  0
LINE
  5
382D
  8
AM_0
 10
486.04368413702031
 20
230.37400381692791
 30
0.0
 11
496.16841413702048
 21
320.6041848169279
 31
0.0
  0
LINE
  5
382E
  8
AM_0
 10
486.04371413702012
 20
230.37398881692781
 30
0.0
 11
496.79136413702031
 21
297.81646381692792
 31
0.0
  0
LINE
  5
382F
  8
AM_0
 10
504.04368113701997
 20
312.60943381692772
 30
0.0
 11
504.04368113701997
 21
270.37402081692778
 31
0.0
  0
ARC
  5
3830
  8
AM_0
 10
556.04368313702025
 20
305.37402181692772
 30
0.0
 40
9.5000003999999993
 50
108.4084799999998
 51
71.591512000000776
  0
LINE
  5
3831
  8
AM_0
 10
626.04367013702029
 20
230.37400381692791
 30
0.0
 11
615.91894313702039
 21
320.60421481692782
 31
0.0
  0
LINE
  5
3832
  8
AM_0
 10
626.04368513702036
 20
230.37398881692781
 30
0.0
 11
615.29601713702004
 21
297.81646381692792
 31
0.0
  0
LINE
  5
3833
  8
AM_0
 10
608.04368213702026
 20
312.60943381692772
 30
0.0
 11
608.04368213702026
 21
270.37402081692778
 31
0.0
  0
ARC
  5
3834
  8
AM_0
 10
556.04368313702025
 20
288.3740208169279
 30
0.0
 40
80.0
 50
328.46636542331993
 51
211.5336220043074
  0
LINE
  5
3835
  8
ﾁｭｳｼﾝｾﾝ1
 10
641.04368313702048
 20
288.3740208169279
 30
0.0
 11
471.04368313702048
 21
288.3740208169279
 31
0.0
  0
LINE
  5
3836
  8
AM_0
 10
487.54368413702048
 20
230.3740188169279
 30
0.0
 11
498.54369413702028
 21
230.3740188169279
 31
0.0
  0
LINE
  5
3837
  8
AM_0
 10
486.04368413702031
 20
220.37400481692791
 30
0.0
 11
516.04368113702014
 21
220.37400481692791
 31
0.0
  0
LINE
  5
3838
  8
ｶｸﾚｾﾝ2
 10
493.54368413702031
 20
230.3740188169279
 30
0.0
 11
493.54368413702031
 21
220.37400481692791
 31
0.0
  0
LINE
  5
3839
  8
AM_0
 10
486.04368413702031
 20
230.3740188169279
 30
0.0
 11
486.04368413702031
 21
220.37400481692791
 31
0.0
  0
ARC
  5
383A
  8
AM_0
 10
487.54368413702048
 20
228.8740188169279
 30
0.0
 40
1.5000000299999969
 50
90.000003000000945
 51
180.00001000000091
  0
ARC
  5
383B
  8
AM_0
 10
556.04368313702025
 20
288.3740208169279
 30
0.0
 40
80.0
 50
238.21169113605279
 51
301.7883088639469
  0
ARC
  5
383C
  8
AM_0
 10
556.04368313702025
 20
236.3740188169279
 30
0.0
 40
6.0000002999999991
 50
176.81527000000071
 51
3.18473600000162
  0
LINE
  5
383D
  8
AM_0
 10
586.04368313702025
 20
239.87400481692791
 30
0.0
 11
526.04368013702015
 21
239.87400481692791
 31
0.0
  0
LINE
  5
383E
  8
AM_0
 10
595.04368313702025
 20
221.3740188169277
 30
0.0
 11
556.04368313702025
 21
221.3740188169277
 31
0.0
  0
LINE
  5
383F
  8
AM_0
 10
513.54368213702037
 20
292.87402081692778
 30
0.0
 11
513.54368213702037
 21
233.37401881692759
 31
0.0
  0
ARC
  5
3840
  8
AM_0
 10
536.04368213702026
 20
270.37402081692778
 30
0.0
 40
32.000000999999997
 50
179.9999899999988
 51
225.32174000000111
  0
LINE
  5
3841
  8
AM_0
 10
531.93464213702032
 20
235.94309581692781
 30
0.0
 11
526.93464113702055
 21
233.0563458169278
 31
0.0
  0
LINE
  5
3842
  8
AM_0
 10
526.93461113702028
 20
227.2828488169279
 30
0.0
 11
531.93461213702039
 21
224.39609881692769
 31
0.0
  0
LINE
  5
3843
  8
AM_0
 10
517.04368013702015
 20
221.3740188169277
 30
0.0
 11
556.04368313702025
 21
221.3740188169277
 31
0.0
  0
CIRCLE
  5
3844
  8
AM_0
 10
531.93461213702039
 20
230.16962881692791
 30
0.0
 40
4.9999998000000003
  0
ARC
  5
3845
  8
AM_0
 10
510.54367913702032
 20
233.37401881692759
 30
0.0
 40
3.0
 50
270.0
 51
0.0
  0
LINE
  5
3846
  8
AM_0
 10
521.04368213702026
 20
234.8740188169279
 30
0.0
 11
521.04368213702026
 21
225.8740188169279
 31
0.0
  0
LINE
  5
3847
  8
AM_0
 10
526.93464113702055
 20
233.0563758169279
 30
0.0
 11
526.93464113702055
 21
227.2828488169279
 31
0.0
  0
LINE
  5
3848
  8
ﾁｭｳｼﾝｾﾝ1
 10
498.54369413702028
 20
233.27628781692769
 30
0.0
 11
498.54369413702028
 21
217.76546881692769
 31
0.0
  0
LINE
  5
3849
  8
AM_0
 10
498.54369413702028
 20
230.3740188169279
 30
0.0
 11
514.04368013702015
 21
230.3740188169279
 31
0.0
  0
LINE
  5
384A
  8
ｶｸﾚｾﾝ2
 10
503.54368013701998
 20
230.3740188169279
 30
0.0
 11
503.54368013701998
 21
220.37400481692791
 31
0.0
  0
LINE
  5
384B
  8
AM_0
 10
516.04368113702014
 20
228.3740178169279
 30
0.0
 11
516.04368113702014
 21
220.37400481692791
 31
0.0
  0
ARC
  5
384C
  8
AM_0
 10
517.04368013702015
 20
220.37400481692791
 30
0.0
 40
1.0000000199999981
 50
90.000003000000945
 51
180.00001000000091
  0
ARC
  5
384D
  8
AM_0
 10
518.04368213702037
 20
225.8740188169279
 30
0.0
 40
3.0
 50
270.0
 51
0.0
  0
ARC
  5
384E
  8
AM_0
 10
517.04368013702015
 20
221.87400481692791
 30
0.0
 40
1.0000000199999981
 50
90.000003000000945
 51
180.00001000000091
  0
LINE
  5
384F
  8
AM_0
 10
517.04368013702015
 20
222.8740188169277
 30
0.0
 11
518.04368213702037
 21
222.8740188169277
 31
0.0
  0
ARC
  5
3850
  8
AM_0
 10
514.04368013702015
 20
228.3740178169279
 30
0.0
 40
2.00000007
 50
0.0
 51
90.000003000000945
  0
ARC
  5
3851
  8
AM_0
 10
526.04368013702015
 20
234.8740188169279
 30
0.0
 40
5.0000001000000003
 50
90.000003000000945
 51
180.00001000000091
  0
LINE
  5
3852
  8
AM_0
 10
536.93461013702029
 20
227.2828488169279
 30
0.0
 11
536.93461013702029
 21
233.0563758169279
 31
0.0
  0
LINE
  5
3853
  8
AM_0
 10
531.93464213702032
 20
224.39609881692769
 30
0.0
 11
536.93464313702009
 21
227.2828488169279
 31
0.0
  0
LINE
  5
3854
  8
AM_0
 10
536.93461013702029
 20
233.0563458169278
 30
0.0
 11
531.93461213702039
 21
235.94309581692781
 31
0.0
  0
ARC
  5
3855
  8
AM_0
 10
547.05756713702033
 20
236.87400481692791
 30
0.0
 40
3.0
 50
356.81526000000002
 51
90.000003000000945
  0
ARC
  5
3856
  8
AM_0
 10
556.04368313702025
 20
288.3740208169279
 30
0.0
 40
60.000002999999992
 50
171.12478999999911
 51
172.44925999999899
  0
LINE
  5
3857
  8
AM_0
 10
598.54366913702006
 20
292.87402081692778
 30
0.0
 11
598.54366913702006
 21
233.37401881692759
 31
0.0
  0
ARC
  5
3858
  8
AM_0
 10
576.0436661370203
 20
270.37402081692778
 30
0.0
 40
32.000000999999997
 50
314.67825999999877
 51
0.0
  0
LINE
  5
3859
  8
AM_0
 10
595.04368313702025
 20
222.8740188169277
 30
0.0
 11
594.04366913702006
 21
222.8740188169277
 31
0.0
  0
LINE
  5
385A
  8
AM_0
 10
585.15273713702015
 20
227.2828488169279
 30
0.0
 11
585.15273713702015
 21
233.0563758169279
 31
0.0
  0
LINE
  5
385B
  8
AM_0
 10
575.1527231370203
 20
233.0563758169279
 30
0.0
 11
575.1527231370203
 21
227.2828488169279
 31
0.0
  0
CIRCLE
  5
385C
  8
AM_0
 10
580.15273613702038
 20
230.16962881692791
 30
0.0
 40
4.9999998000000003
  0
LINE
  5
385D
  8
AM_0
 10
591.04366913701995
 20
234.8740188169279
 30
0.0
 11
591.04366913701995
 21
225.8740188169279
 31
0.0
  0
LINE
  5
385E
  8
AM_0
 10
575.15273813702038
 20
227.2828488169279
 30
0.0
 11
580.15273613702038
 21
224.39609881692769
 31
0.0
  0
LINE
  5
385F
  8
AM_0
 10
580.15273613702038
 20
224.39609881692769
 30
0.0
 11
585.15275213702034
 21
227.2828488169279
 31
0.0
  0
ARC
  5
3860
  8
AM_0
 10
594.04366913702006
 20
225.8740188169279
 30
0.0
 40
3.0
 50
179.9999899999988
 51
270.0
  0
LINE
  5
3861
  8
AM_0
 10
580.15275113702035
 20
235.94311081692791
 30
0.0
 11
575.15273813702038
 21
233.05636081692791
 31
0.0
  0
ARC
  5
3862
  8
AM_0
 10
565.02978113702034
 20
236.87400481692791
 30
0.0
 40
3.0
 50
90.000003000000945
 51
183.18473999999989
  0
ARC
  5
3863
  8
AM_0
 10
586.04368313702025
 20
234.8740188169279
 30
0.0
 40
5.0000001000000003
 50
0.0
 51
90.000003000000945
  0
LINE
  5
3864
  8
AM_0
 10
585.15273713702015
 20
233.0563458169278
 30
0.0
 11
580.15273613702038
 21
235.94309581692781
 31
0.0
  0
LINE
  5
3865
  8
ﾁｭｳｼﾝｾﾝ1
 10
613.54366913702029
 20
233.30585881692781
 30
0.0
 11
613.54366913702029
 21
217.36267981692791
 31
0.0
  0
ARC
  5
3866
  8
AM_0
 10
601.54366913702029
 20
233.37401881692759
 30
0.0
 40
3.0
 50
179.9999899999988
 51
270.0
  0
LINE
  5
3867
  8
AM_0
 10
613.54366913702029
 20
230.3740188169279
 30
0.0
 11
598.04368313702025
 21
230.3740188169279
 31
0.0
  0
LINE
  5
3868
  8
AM_0
 10
626.04368513702036
 20
220.37400481692791
 30
0.0
 11
596.04368213702026
 21
220.37400481692791
 31
0.0
  0
LINE
  5
3869
  8
ｶｸﾚｾﾝ2
 10
608.54368313702025
 20
230.3740188169279
 30
0.0
 11
608.54368313702025
 21
220.37400481692791
 31
0.0
  0
LINE
  5
386A
  8
AM_0
 10
596.04368213702026
 20
220.37400481692791
 30
0.0
 11
596.04368213702026
 21
228.3740178169279
 31
0.0
  0
ARC
  5
386B
  8
AM_0
 10
595.04368313702025
 20
220.37400481692791
 30
0.0
 40
1.0000000199999981
 50
0.0
 51
90.000003000000945
  0
ARC
  5
386C
  8
AM_0
 10
598.04368313702025
 20
228.3740178169279
 30
0.0
 40
2.00000007
 50
90.000003000000945
 51
180.00001000000091
  0
ARC
  5
386D
  8
AM_0
 10
595.04368313702025
 20
221.87400481692791
 30
0.0
 40
1.0000000199999981
 50
0.0
 51
90.000003000000945
  0
LINE
  5
386E
  8
AM_0
 10
626.04368513702036
 20
230.3740188169279
 30
0.0
 11
626.04368513702036
 21
220.37400481692791
 31
0.0
  0
LINE
  5
386F
  8
ｶｸﾚｾﾝ2
 10
618.54368513702025
 20
230.3740188169279
 30
0.0
 11
618.54368513702025
 21
220.37400481692791
 31
0.0
  0
LINE
  5
3870
  8
AM_0
 10
624.54368513702025
 20
230.3740188169279
 30
0.0
 11
613.54366913702029
 21
230.3740188169279
 31
0.0
  0
ARC
  5
3871
  8
AM_0
 10
624.54368513702025
 20
228.8740188169279
 30
0.0
 40
1.5000000299999969
 50
0.0
 51
90.000003000000945
  0
ARC
  5
3872
  8
AM_0
 10
500.29050713702031
 20
312.50057881692771
 30
0.0
 40
5.0000001000000003
 50
74.836354000000071
 51
173.59761999999901
  0
ARC
  5
3873
  8
AM_0
 10
516.04368113702014
 20
318.37402081692778
 30
0.0
 40
20.000000700000001
 50
118.07248000000079
 51
173.59761999999901
  0
LINE
  5
3874
  8
ﾁｭｳｼﾝｾﾝ1
 10
530.29441313702034
 20
305.37402181692772
 30
0.0
 11
580.70409713702031
 21
305.37402181692772
 31
0.0
  0
ARC
  5
3875
  8
AM_0
 10
556.04368313702025
 20
243.3740178169279
 30
0.0
 40
105.00000299999969
 50
61.927515000000632
 51
118.07248000000079
  0
ARC
  5
3876
  8
AM_0
 10
556.04368313702025
 20
288.3740208169279
 30
0.0
 40
60.000002999999992
 50
48.330845000001858
 51
131.66915000000051
  0
ARC
  5
3877
  8
AM_0
 10
518.31003713702034
 20
335.98166581692772
 30
0.0
 40
5.0000001000000003
 50
112.16879999999991
 51
210.1577899999985
  0
ARC
  5
3878
  8
AM_0
 10
504.4757171370203
 20
327.94349581692802
 30
0.0
 40
11.000000399999999
 50
254.8363599999997
 51
30.15779499999946
  0
ARC
  5
3879
  8
AM_0
 10
556.04368313702025
 20
288.3740208169279
 30
0.0
 40
60.000002999999992
 50
153.33084999999789
 51
170.94545999999971
  0
ARC
  5
387A
  8
AM_0
 10
505.10773613702031
 20
313.95776281692793
 30
0.0
 40
3.0
 50
92.587449000000944
 51
153.33084999999789
  0
ARC
  5
387B
  8
AM_0
 10
509.04367913702032
 20
312.60943381692772
 30
0.0
 40
5.0000001000000003
 50
106.5886099999996
 51
180.00001000000091
  0
LINE
  5
387C
  8
AM_0
 10
511.06238813702021
 20
329.61272581692782
 30
0.0
 11
506.06241713702042
 21
332.4994758169276
 31
0.0
  0
CIRCLE
  5
387D
  8
AM_0
 10
506.06241713702042
 20
326.72597581692793
 30
0.0
 40
4.9999998000000003
  0
LINE
  5
387E
  8
AM_0
 10
506.06241713702042
 20
332.49950581692792
 30
0.0
 11
501.06241913702041
 21
329.61275581692797
 31
0.0
  0
LINE
  5
387F
  8
AM_0
 10
501.06241913702041
 20
323.83923181692791
 30
0.0
 11
506.06241713702042
 21
320.95248181692767
 31
0.0
  0
LINE
  5
3880
  8
AM_0
 10
501.06241913702041
 20
329.61272581692782
 30
0.0
 11
501.06241913702041
 21
323.83923181692791
 31
0.0
  0
LINE
  5
3881
  8
AM_0
 10
511.0624181370203
 20
323.83923181692791
 30
0.0
 11
511.0624181370203
 21
329.61272581692782
 31
0.0
  0
LINE
  5
3882
  8
AM_0
 10
506.06241713702042
 20
320.95251181692771
 30
0.0
 11
511.0624181370203
 21
323.83926181692789
 31
0.0
  0
ARC
  5
3883
  8
AM_0
 10
518.14847813702045
 20
330.95279581692768
 30
0.0
 40
3.0
 50
131.66915000000051
 51
192.41255000000001
  0
CIRCLE
  5
3884
  8
AM_0
 10
556.04368313702025
 20
305.37402181692772
 30
0.0
 40
2.4999998400000001
  0
CIRCLE
  5
3885
  8
AM_4
 10
556.04368313702025
 20
305.37402181692772
 30
0.0
 40
3.0
  0
LINE
  5
3886
  8
AM_0
 10
559.04368313702048
 20
311.37402181692789
 30
0.0
 11
559.04368313702048
 21
317.37402181692789
 31
0.0
  0
LINE
  5
3887
  8
AM_0
 10
553.04368313702025
 20
317.37402181692789
 30
0.0
 11
553.04368313702025
 21
311.37402181692789
 31
0.0
  0
LINE
  5
3888
  8
AM_0
 10
553.04368313702025
 20
311.37402181692789
 30
0.0
 11
559.04368313702048
 21
311.37402181692789
 31
0.0
  0
LINE
  5
3889
  8
AM_0
 10
559.04368313702048
 20
317.37402181692789
 30
0.0
 11
553.04368313702025
 21
317.37402181692789
 31
0.0
  0
ARC
  5
388A
  8
AM_0
 10
593.77732613702005
 20
335.98166581692772
 30
0.0
 40
5.0000001000000003
 50
329.84219999999971
 51
67.83120300000104
  0
ARC
  5
388B
  8
AM_0
 10
607.61164613702044
 20
327.94349581692802
 30
0.0
 40
11.000000399999999
 50
149.8422100000013
 51
285.1636500000007
  0
ARC
  5
388C
  8
AM_0
 10
611.7968741370205
 20
312.50057881692771
 30
0.0
 40
5.0000001000000003
 50
6.4023797999986547
 51
105.1636400000002
  0
ARC
  5
388D
  8
AM_0
 10
556.04368313702025
 20
288.3740208169279
 30
0.0
 40
60.000002999999992
 50
9.0545419000017677
 51
26.669156999999409
  0
ARC
  5
388E
  8
AM_0
 10
603.04366913701995
 20
312.60943381692772
 30
0.0
 40
5.0000001000000003
 50
0.0
 51
73.411384999998205
  0
ARC
  5
388F
  8
AM_0
 10
606.97964213702016
 20
313.95776281692793
 30
0.0
 40
3.0
 50
26.669156999999409
 51
87.412548999999331
  0
ARC
  5
3890
  8
AM_0
 10
596.04368213702026
 20
318.37402081692778
 30
0.0
 40
20.000000700000001
 50
6.4023797999986547
 51
61.927515000000632
  0
LINE
  5
3891
  8
AM_0
 10
611.02492913702031
 20
329.61272581692782
 30
0.0
 11
606.0249311370203
 21
332.4994758169276
 31
0.0
  0
CIRCLE
  5
3892
  8
AM_0
 10
606.0249311370203
 20
326.72597581692793
 30
0.0
 40
4.9999998000000003
  0
LINE
  5
3893
  8
AM_0
 10
606.02494613702038
 20
332.4994758169276
 30
0.0
 11
601.02494513702015
 21
329.61272581692782
 31
0.0
  0
LINE
  5
3894
  8
AM_0
 10
601.02493013702031
 20
323.83923181692791
 30
0.0
 11
606.0249311370203
 21
320.95248181692767
 31
0.0
  0
LINE
  5
3895
  8
AM_0
 10
601.02493013702031
 20
329.61272581692782
 30
0.0
 11
601.02493013702031
 21
323.83923181692791
 31
0.0
  0
LINE
  5
3896
  8
AM_0
 10
606.02494613702038
 20
320.95248181692767
 30
0.0
 11
611.02494713702015
 21
323.83923181692791
 31
0.0
  0
LINE
  5
3897
  8
AM_0
 10
611.02494713702015
 20
323.83923181692791
 30
0.0
 11
611.02494713702015
 21
329.61272581692782
 31
0.0
  0
ARC
  5
3898
  8
AM_0
 10
593.93888513702007
 20
330.95279581692768
 30
0.0
 40
3.0
 50
347.58744999999982
 51
48.330845000001858
  0
LINE
  5
3899
  8
0
 10
254.87423860130841
 20
421.54287275981358
 30
0.0
 11
254.87423860130841
 21
581.54287275981358
 31
0.0
1001
GENIUS_GENOREF_13
1005
3329
  0
LINE
  5
389A
  8
0
 10
264.87423860130832
 20
579.54287275981346
 30
0.0
 11
264.87423860130832
 21
423.54287275981358
 31
0.0
1001
GENIUS_GENOREF_13
1005
3329
  0
LINE
  5
389B
  8
0
 10
254.87423860130841
 20
421.54287275981358
 30
0.0
 11
262.87423860130832
 21
421.54287275981358
 31
0.0
  0
ARC
  5
389C
  8
0
 10
262.87423860130832
 20
423.54287275981358
 30
0.0
 40
2.0
 50
270.0
 51
0.0
1001
GENIUS_GENOBJ-N-FIL_13
1002
{
1000
OWNER
1000
GEN
1002
}
1001
GENIUS_GENODEF_13
1002
{
1000
HIER
1070
     0
1002
}
1002
{
1000
MANEDIT
1070
     0
1002
}
1002
{
1000
NOSEL
1070
     0
1002
}
1002
{
1000
BEHIND
1070
     0
1002
}
1002
{
1000
OTHER
1070
     0
1002
}
1002
{
1000
REACTOR
1002
}
  0
LINE
  5
389D
  8
0
 10
266.80443960790342
 20
444.37694070491091
 30
0.0
 11
285.87423860130832
 21
445.04287275981358
 31
0.0
  0
ARC
  5
389E
  8
0
 10
266.87423860130832
 20
442.37815905087268
 30
0.0
 40
2.0
 50
92.000000000000341
 51
180.0
1001
GENIUS_GENOBJ-N-FIL_13
1002
{
1000
OWNER
1000
GEN
1002
}
1001
GENIUS_GENODEF_13
1002
{
1000
HIER
1070
     0
1002
}
1002
{
1000
MANEDIT
1070
     0
1002
}
1002
{
1000
NOSEL
1070
     0
1002
}
1002
{
1000
BEHIND
1070
     0
1002
}
1002
{
1000
OTHER
1070
     0
1002
}
1002
{
1000
REACTOR
1002
}
  0
LINE
  5
389F
  8
AM_0
 10
285.87423860130832
 20
455.54285575981362
 30
0.0
 11
264.87423860130832
 21
455.54285575981362
 31
0.0
  0
LINE
  5
38A0
  8
AM_0
 10
285.87423860130832
 20
469.60543075981371
 30
0.0
 11
264.87423860130832
 21
469.60543075981371
 31
0.0
  0
LINE
  5
38A1
  8
AM_0
 10
285.87423860130832
 20
533.48031175981373
 30
0.0
 11
264.87423860130832
 21
533.48031175981373
 31
0.0
  0
LINE
  5
38A2
  8
AM_0
 10
285.87423860130832
 20
547.54287175981369
 30
0.0
 11
264.87423860130832
 21
547.54287175981369
 31
0.0
  0
LINE
  5
38A3
  8
0
 10
266.80443960790342
 20
558.70880481471636
 30
0.0
 11
285.87423860130832
 21
558.04287275981346
 31
0.0
  0
ARC
  5
38A4
  8
0
 10
266.87423860130832
 20
560.70758646875424
 30
0.0
 40
2.0
 50
180.0
 51
267.9999999999996
1001
GENIUS_GENOBJ-N-FIL_13
1002
{
1000
OWNER
1000
GEN
1002
}
1001
GENIUS_GENODEF_13
1002
{
1000
HIER
1070
     0
1002
}
1002
{
1000
MANEDIT
1070
     0
1002
}
1002
{
1000
NOSEL
1070
     0
1002
}
1002
{
1000
BEHIND
1070
     0
1002
}
1002
{
1000
OTHER
1070
     0
1002
}
1002
{
1000
REACTOR
1002
}
  0
LINE
  5
38A5
  8
0
 10
254.87423860130841
 20
581.54287275981358
 30
0.0
 11
262.87423860130832
 21
581.54287275981358
 31
0.0
  0
ARC
  5
38A6
  8
0
 10
262.87423860130832
 20
579.54287275981346
 30
0.0
 40
2.0
 50
0.0
 51
90.0
1001
GENIUS_GENOBJ-N-FIL_13
1002
{
1000
OWNER
1000
GEN
1002
}
1001
GENIUS_GENODEF_13
1002
{
1000
HIER
1070
     0
1002
}
1002
{
1000
MANEDIT
1070
     0
1002
}
1002
{
1000
NOSEL
1070
     0
1002
}
1002
{
1000
BEHIND
1070
     0
1002
}
1002
{
1000
OTHER
1070
     0
1002
}
1002
{
1000
REACTOR
1002
}
  0
TEXT
  5
3AD0
  8
AM_0
 10
468.02558726410888
 20
504.64306190243758
 30
0.0
 40
10.0
  1
VX01-003A~VX01-050A
  0
ENDSEC
  0
EOF
