  0
SECTION
  2
HEADER
  9
$ACADVER
  1
AC1009
  9
$INSBASE
 10
0.0
 20
0.0
 30
0.0
  9
$EXTMIN
 10
220.58995280553339
 20
194.52150002742741
 30
-0.0000000349181948
  9
$EXTMAX
 10
645.28225882489039
 20
579.485234964043
 30
0.0000000814935747
  9
$LIMMIN
 10
0.0
 20
0.0
  9
$LIMMAX
 10
853.5
 20
555.00000000000011
  9
$ORTHOMODE
 70
     0
  9
$REGENMODE
 70
     1
  9
$FILLMODE
 70
     1
  9
$QTEXTMODE
 70
     0
  9
$MIRRTEXT
 70
     1
  9
$DRAGMODE
 70
     2
  9
$LTSCALE
 40
3.0
  9
$OSMODE
 70
   551
  9
$ATTMODE
 70
     1
  9
$TEXTSIZE
 40
2.5
  9
$TRACEWID
 40
1.0
  9
$TEXTSTYLE
  7
STANDARD
  9
$CLAYER
  8
AM_0
  9
$CELTYPE
  6
BYLAYER
  9
$CECOLOR
 62
   256
  9
$DIMSCALE
 40
1.0
  9
$DIMASZ
 40
2.5
  9
$DIMEXO
 40
1.0
  9
$DIMDLI
 40
8.0
  9
$DIMRND
 40
0.0
  9
$DIMDLE
 40
0.0
  9
$DIMEXE
 40
0.6
  9
$DIMTP
 40
0.1
  9
$DIMTM
 40
0.1
  9
$DIMTXT
 40
2.5
  9
$DIMCEN
 40
0.0
  9
$DIMTSZ
 40
0.0
  9
$DIMTOL
 70
     0
  9
$DIMLIM
 70
     0
  9
$DIMTIH
 70
     0
  9
$DIMTOH
 70
     0
  9
$DIMSE1
 70
     0
  9
$DIMSE2
 70
     0
  9
$DIMTAD
 70
     1
  9
$DIMZIN
 70
     8
  9
$DIMBLK
  1

  9
$DIMASO
 70
     1
  9
$DIMSHO
 70
     1
  9
$DIMPOST
  1

  9
$DIMAPOST
  1
"
  9
$DIMALT
 70
     0
  9
$DIMALTD
 70
     2
  9
$DIMALTF
 40
0.0393701
  9
$DIMLFAC
 40
1.0
  9
$DIMTOFL
 70
     1
  9
$DIMTVP
 40
0.0
  9
$DIMTIX
 70
     0
  9
$DIMSOXD
 70
     0
  9
$DIMSAH
 70
     0
  9
$DIMBLK1
  1

  9
$DIMBLK2
  1

  9
$DIMSTYLE
  2
AM_ISO
  9
$DIMCLRD
 70
   256
  9
$DIMCLRE
 70
   256
  9
$DIMCLRT
 70
     4
  9
$DIMTFAC
 40
0.71
  9
$DIMGAP
 40
0.8
  9
$LUNITS
 70
     2
  9
$LUPREC
 70
     2
  9
$SKETCHINC
 40
1.0
  9
$FILLETRAD
 40
15.0
  9
$AUNITS
 70
     0
  9
$AUPREC
 70
     0
  9
$MENU
  1
.
  9
$ELEVATION
 40
0.0
  9
$PELEVATION
 40
0.0
  9
$THICKNESS
 40
0.0
  9
$LIMCHECK
 70
     0
  9
$BLIPMODE
 70
     0
  9
$CHAMFERA
 40
6.0
  9
$CHAMFERB
 40
3.0
  9
$SKPOLY
 70
     0
  9
$TDCREATE
 40
2452065.6147138998
  9
$TDUPDATE
 40
2458541.4643523959
  9
$TDINDWG
 40
0.0799230556
  9
$TDUSRTIMER
 40
0.0799230324
  9
$USRTIMER
 70
     1
  9
$ANGBASE
 50
0.0
  9
$ANGDIR
 70
     0
  9
$PDMODE
 70
     0
  9
$PDSIZE
 40
0.0
  9
$PLINEWID
 40
0.0
  9
$COORDS
 70
     1
  9
$SPLFRAME
 70
     0
  9
$SPLINETYPE
 70
     6
  9
$SPLINESEGS
 70
     8
  9
$ATTDIA
 70
     1
  9
$ATTREQ
 70
     1
  9
$HANDLING
 70
     1
  9
$HANDSEED
  5
347D
  9
$SURFTAB1
 70
     6
  9
$SURFTAB2
 70
     6
  9
$SURFTYPE
 70
     6
  9
$SURFU
 70
     6
  9
$SURFV
 70
     6
  9
$UCSNAME
  2

  9
$UCSORG
 10
0.0
 20
0.0
 30
0.0
  9
$UCSXDIR
 10
1.0
 20
0.0
 30
0.0
  9
$UCSYDIR
 10
0.0
 20
1.0
 30
0.0
  9
$PUCSNAME
  2

  9
$PUCSORG
 10
0.0
 20
0.0
 30
0.0
  9
$PUCSXDIR
 10
1.0
 20
0.0
 30
0.0
  9
$PUCSYDIR
 10
0.0
 20
1.0
 30
0.0
  9
$USERI1
 70
     0
  9
$USERI2
 70
     0
  9
$USERI3
 70
     0
  9
$USERI4
 70
     0
  9
$USERI5
 70
     0
  9
$USERR1
 40
0.0
  9
$USERR2
 40
0.0
  9
$USERR3
 40
0.0
  9
$USERR4
 40
0.0
  9
$USERR5
 40
0.0
  9
$WORLDVIEW
 70
     1
  9
$SHADEDGE
 70
     3
  9
$SHADEDIF
 70
    70
  9
$TILEMODE
 70
     1
  9
$MAXACTVP
 70
    64
  9
$PLIMCHECK
 70
     0
  9
$PEXTMIN
 10
1.0000000000000000E+020
 20
1.0000000000000000E+020
 30
1.0000000000000000E+020
  9
$PEXTMAX
 10
-1.0000000000000000E+020
 20
-1.0000000000000000E+020
 30
-1.0000000000000000E+020
  9
$PLIMMIN
 10
0.0
 20
0.0
  9
$PLIMMAX
 10
420.0
 20
297.0
  9
$UNITMODE
 70
     0
  9
$VISRETAIN
 70
     1
  9
$PLINEGEN
 70
     0
  9
$PSLTSCALE
 70
     1
  0
ENDSEC
  0
SECTION
  2
TABLES
  0
TABLE
  2
VPORT
 70
     1
  0
VPORT
  2
*ACTIVE
 70
     0
 10
0.0
 20
0.0
 11
1.0
 21
1.0
 12
432.93610581521187
 22
387.00336749573529
 13
0.0
 23
0.0
 14
7.5
 24
7.5
 15
30.0
 25
30.0
 16
0.0
 26
0.0
 36
1.0
 17
0.0
 27
0.0
 37
0.0
 40
387.606506572336
 41
1.7571592210767459
 42
50.0
 43
0.0
 44
0.0
 50
0.0
 51
0.0
 71
     0
 72
   100
 73
     1
 74
     3
 75
     0
 76
     0
 77
     0
 78
     0
  0
ENDTAB
  0
TABLE
  2
LTYPE
 70
    26
  0
LTYPE
  2
CONTINUOUS
 70
     0
  3
Solid line
 72
    65
 73
     0
 40
0.0
  0
LTYPE
  2
AM_ISO02W050
 70
     0
  3
__ __ __ __ __ __ __ __ __ __ __ __ __ __ __
 72
    65
 73
     2
 40
7.5
 49
6.0
 49
-1.5
  0
LTYPE
  2
AM_ISO08W050
 70
     0
  3
____ . ____ . ____ . ____ . ____ . ____ . ____
 72
    65
 73
     4
 40
18.0
 49
12.0
 49
-1.5
 49
3.0
 49
-1.5
  0
LTYPE
  2
AM_ISO09W050
 70
     0
  3
_____ . . _____ . . _____ . . ____ .. ____
 72
    65
 73
     6
 40
22.5
 49
12.0
 49
-1.5
 49
3.0
 49
-1.5
 49
3.0
 49
-1.5
  0
LTYPE
  2
AMCONSTR
 70
     0
  3
_______________________
 72
    65
 73
     2
 40
9999.0
 49
9999.0
 49
0.0
  0
LTYPE
  2
AM_ISO08W050X2
 70
     0
  3
__ . __ . __ . __ . __ . __
 72
    65
 73
     4
 40
9.0
 49
6.0
 49
-0.75
 49
1.5
 49
-0.75
  0
LTYPE
  2
AM_ISO02W050X2
 70
     0
  3
 _ _ _ _ _ _ _ _ _ _ _ _
 72
    65
 73
     2
 40
3.75
 49
3.0
 49
-0.75
  0
LTYPE
  2
AMZIGZAG
 70
     0
  3
/\/-/\/-/\/-/\/-/\/-/\/
 72
    65
 73
     2
 40
11.000099999999991
 49
0.0001
 49
-11.0
  0
LTYPE
  2
ACISOWELD
 70
     0
  3
_ _ _ _ _
 72
    65
 73
     2
 40
2.0
 49
2.0
 49
-1.0
  0
LTYPE
  2
ACISOTGB
 70
     0
  3
__ . . __ . .
 72
    65
 73
     6
 40
9.0
 49
4.0
 49
-1.0
 49
1.0
 49
-1.0
 49
1.0
 49
-1.0
  0
LTYPE
  2
ACISOTGL
 70
     0
  3
_ _ _ _ _
 72
    65
 73
     2
 40
3.0
 49
2.0
 49
-1.0
  0
LTYPE
  2
CENTER
 70
     0
  3
__ . __
 72
    65
 73
     4
 40
7.0
 49
4.0
 49
-1.0
 49
1.0
 49
-1.0
  0
LTYPE
  2
PHANTOM2
 70
     0
  3
Phantom (.5x) ___ _ _ ___ _ _ ___ _ _ ___ _ _
 72
    65
 73
     6
 40
31.75
 49
15.875
 49
-3.174999999999998
 49
3.174999999999998
 49
-3.174999999999998
 49
3.174999999999998
 49
-3.174999999999998
  0
LTYPE
  2
ACANSTGBM
 70
     0
  3
__ . . __ . .
 72
    65
 73
     6
 40
9.0
 49
4.0
 49
-1.0
 49
1.0
 49
-1.0
 49
1.0
 49
-1.0
  0
LTYPE
  2
ACANSTGLM
 70
     0
  3
_ _ _ _ _
 72
    65
 73
     2
 40
3.0
 49
2.0
 49
-1.0
  0
LTYPE
  2
GEN3B
 70
     0
  3
 - - - - -
 72
    65
 73
     2
 40
1.0
 49
0.5
 49
-0.5
  0
LTYPE
  2
GEN7A
 70
     0
  3
__ . __ . __
 72
    65
 73
     4
 40
7.375
 49
4.75
 49
-0.875
 49
0.875
 49
-0.875
  0
LTYPE
  2
ACJISTGB
 70
     0
  3
__ . . __ . .
 72
    65
 73
     6
 40
9.0
 49
4.0
 49
-1.0
 49
1.0
 49
-1.0
 49
1.0
 49
-1.0
  0
LTYPE
  2
ACJISTGL
 70
     0
  3
_ _ _ _ _
 72
    65
 73
     2
 40
3.0
 49
2.0
 49
-1.0
  0
LTYPE
  2
HIDDEN
 70
     0
  3
Hidden __ __ __ __ __ __ __ __ __ __ __ __ __ _
 72
    65
 73
     2
 40
0.375
 49
0.25
 49
-0.125
  0
LTYPE
  2
CENTER2
 70
     0
  3
Center (.5x) ___ _ ___ _ ___ _ ___ _ ___ _ ___
 72
    65
 73
     4
 40
1.125
 49
0.75
 49
-0.125
 49
0.125
 49
-0.125
  0
LTYPE
  2
HIDDEN2
 70
     0
  3
Hidden (.5x) _ _ _ _ _ _ _ _ _ _ _ _ _ _ _ _ _
 72
    65
 73
     2
 40
0.1875
 49
0.125
 49
-0.0625
  0
LTYPE
  2
AMZIGZAG2
 70
     0
  3
/\/-/\/-/\/-/\/-/\/-/\/
 72
    65
 73
     2
 40
0.4401
 49
0.0001
 49
-0.4400000000000002
  0
LTYPE
  2
ACANSTGB
 70
     0
  3
__ . . __ . .
 72
    65
 73
     6
 40
0.35433070866
 49
0.15748031496
 49
-0.03937007874
 49
0.03937007874
 49
-0.03937007874
 49
0.03937007874
 49
-0.03937007874
  0
LTYPE
  2
ACANSTGL
 70
     0
  3
_ _ _ _ _
 72
    65
 73
     2
 40
0.11811023622
 49
0.07874015748
 49
-0.03937007874
  0
ENDTAB
  0
TABLE
  2
LAYER
 70
     5
  0
LAYER
  2
0
 70
     0
 62
     7
  6
CONTINUOUS
  0
LAYER
  2
AM_0
 70
     0
 62
     7
  6
CONTINUOUS
  0
LAYER
  2
DEFPOINTS
 70
     0
 62
     7
  6
CONTINUOUS
  0
LAYER
  2
ｶｸﾚｾﾝ2
 70
     0
 62
     3
  6
GEN3B
  0
LAYER
  2
ﾁｭｳｼﾝｾﾝ1
 70
     0
 62
     1
  6
GEN7A
  0
ENDTAB
  0
TABLE
  2
STYLE
 70
     9
  0
STYLE
  2
STANDARD
 70
     0
 40
0.0
 41
0.8299999999999999
 50
0.0
 71
     0
 42
2.5
  3
txt.shx
  4
bigfont.shx
  0
STYLE
  2
ANNOTATIVE
 70
     0
 40
0.0
 41
1.0
 50
0.0
 71
     0
 42
0.2
  3
txt
  4

  0
STYLE
  2

 70
     1
 40
0.0
 41
1.0
 50
0.0
 71
     0
 42
2.5
  3
ltypeshp.shx
  4

  0
STYLE
  2
ACISOTS
 70
     0
 40
1.0
 41
1.0
 50
0.0
 71
     0
 42
2.5
  3
isocp.shx
  4
extfont.shx
  0
STYLE
  2
ACISOGDT
 70
     0
 40
0.0
 41
1.0
 50
0.0
 71
     0
 42
2.5
  3
amgdt.shx
  4

  0
STYLE
  2
ACANSTS
 70
     0
 40
1.0
 41
1.0
 50
0.0
 71
     0
 42
2.5
  3
romans.shx
  4
bigfont.shx
  0
STYLE
  2
ACANSGDT
 70
     0
 40
0.0
 41
1.0
 50
0.0
 71
     0
 42
2.5
  3
amgdt.shx
  4

  0
STYLE
  2
ACJISTS
 70
     0
 40
1.0
 41
1.0
 50
0.0
 71
     0
 42
2.5
  3
isocp.shx
  4
bigfont.shx
  0
STYLE
  2
ACJISGDT
 70
     0
 40
0.0
 41
1.0
 50
0.0
 71
     0
 42
2.5
  3
amgdt.shx
  4

  0
ENDTAB
  0
TABLE
  2
VIEW
 70
     6
  0
VIEW
  2
AM_VIEW1
 70
     0
 40
277.49999999999989
 10
249.64779005524849
 20
416.24999999999989
 41
499.2955801104971
 11
0.0
 21
0.0
 31
1.0
 12
0.0
 22
0.0
 32
0.0
 42
50.0
 43
0.0
 44
0.0
 50
0.0
 71
     0
  0
VIEW
  2
AM_VIEW2
 70
     0
 40
277.49999999999989
 10
603.85220994475117
 20
416.24999999999989
 41
499.2955801104971
 11
0.0
 21
0.0
 31
1.0
 12
0.0
 22
0.0
 32
0.0
 42
50.0
 43
0.0
 44
0.0
 50
0.0
 71
     0
  0
VIEW
  2
AM_VIEW3
 70
     0
 40
277.49999999999989
 10
249.64779005524849
 20
138.7499999999998
 41
499.2955801104971
 11
0.0
 21
0.0
 31
1.0
 12
0.0
 22
0.0
 32
0.0
 42
50.0
 43
0.0
 44
0.0
 50
0.0
 71
     0
  0
VIEW
  2
AM_VIEW4
 70
     0
 40
277.49999999999989
 10
603.85220994475117
 20
138.7499999999998
 41
499.2955801104971
 11
0.0
 21
0.0
 31
1.0
 12
0.0
 22
0.0
 32
0.0
 42
50.0
 43
0.0
 44
0.0
 50
0.0
 71
     0
  0
VIEW
  2
AM_VIEW5
 70
     0
 40
277.5
 10
426.75
 20
277.49999999999989
 41
499.2955801104971
 11
0.0
 21
0.0
 31
1.0
 12
0.0
 22
0.0
 32
0.0
 42
50.0
 43
0.0
 44
0.0
 50
0.0
 71
     0
  0
VIEW
  2
AM_VIEW6
 70
     0
 40
554.99445000000014
 10
426.75
 20
277.49999999999989
 41
998.5811743093924
 11
0.0
 21
0.0
 31
1.0
 12
0.0
 22
0.0
 32
0.0
 42
50.0
 43
0.0
 44
0.0
 50
0.0
 71
     0
  0
ENDTAB
  0
TABLE
  2
UCS
 70
     0
  0
ENDTAB
  0
TABLE
  2
APPID
 70
    95
  0
APPID
  2
ACAD
 70
     0
  0
APPID
  2
ACADANNOTATIVE
 70
     0
  0
APPID
  2
MCAD_NO_VIS
 70
     0
  0
APPID
  2
ACAD_TEMP_GRAPHIC
 70
     0
  0
APPID
  2
ACATTRIBSERVICES
 70
     0
  0
APPID
  2
GENIUS_GENREC_14
 70
     0
  0
APPID
  2
GENIUS_GENOBJ-N-REC_13
 70
     0
  0
APPID
  2
GENIUS_GENODEF_13
 70
     0
  0
APPID
  2
GENIUS_GENOLIS_13
 70
     0
  0
APPID
  2
GENIUS_GENOBJ-N-TIT_13
 70
     0
  0
APPID
  2
GENIUS_GENOENT_13
 70
     0
  0
APPID
  2
GENIUS_GENTITLE_13
 70
     0
  0
APPID
  2
GENIUS_GENOREF_13
 70
     0
  0
APPID
  2
GENIUS_GENSCREG_15
 70
     0
  0
APPID
  2
GENIUS_GENOBJ-N-SDF_13
 70
     0
  0
APPID
  2
GENIUS_GENFIL_13
 70
     0
  0
APPID
  2
GENIUS_GENOBJ-N-CHA_13
 70
     0
  0
APPID
  2
GENIUS_GENDTOL_13
 70
     0
  0
APPID
  2
GENIUS_GENOBJ-N-FIL_13
 70
     0
  0
APPID
  2
AD_DRAW
 70
     0
  0
APPID
  2
DESIGNERASSEMBLIES
 70
     0
  0
APPID
  2
ASURF_PCURVE_APPNAME
 70
     0
  0
APPID
  2
GENIUS_GE3SECT_13
 70
     0
  0
APPID
  2
GENIUS_GENCFG_13
 70
     0
  0
APPID
  2
GENIUS_GE3CFG0_13
 70
     0
  0
APPID
  2
GENIUS_GENCFG0_13
 70
     0
  0
APPID
  2
GENIUS_GENCFG1_13
 70
     0
  0
APPID
  2
GENIUS_GENCFG2_13
 70
     0
  0
APPID
  2
GENIUS_GENCFG3_13
 70
     0
  0
APPID
  2
GENIUS_GENCFG4_13
 70
     0
  0
APPID
  2
GENIUS_GEVCFG0_13
 70
     0
  0
APPID
  2
GENIUS_GENHINW_13
 70
     0
  0
APPID
  2
GENIUS_FIRSTVISTXT_14
 70
     0
  0
APPID
  2
GENIUS_GENOBJ-N-LEADER_13
 70
     0
  0
APPID
  2
GEV_VCCNULL_SWITCH_OFF
 70
     0
  0
APPID
  2
GENIUS_GEFCFG0_13
 70
     0
  0
APPID
  2
GENIUS_GENZVEED_13
 70
     0
  0
APPID
  2
GENIUS_GENSCREG_13
 70
     0
  0
APPID
  2
GENIUS_DUMCFG0_13
 70
     0
  0
APPID
  2
GEVID936201362
 70
     0
  0
APPID
  2
GEVDC
 70
     0
  0
APPID
  2
GEVCON
 70
     0
  0
APPID
  2
VCC
 70
     0
  0
APPID
  2
GEVPT
 70
     0
  0
APPID
  2
GEVIT
 70
     0
  0
APPID
  2
GENBH
 70
     0
  0
APPID
  2
GEVMK
 70
     0
  0
APPID
  2
GENIUS_GENBH_13
 70
     0
  0
APPID
  2
GENIUS_GENOBJ-NBEHI-BHF_13
 70
     0
  0
APPID
  2
GENIUS_GENOBJ-NBEHI-BHB_13
 70
     0
  0
APPID
  2
GENIUS_GENOBJ-F-DESC_13
 70
     0
  0
APPID
  2
GENIUS_GEFDESC_14
 70
     0
  0
APPID
  2
GENIUS_GENOBJ-F-PART_13
 70
     0
  0
APPID
  2
GENIUS_GEFSTDP_13
 70
     0
  0
APPID
  2
GENIUS_GEFPARTINS_13
 70
     0
  0
APPID
  2
GENIUS_GENTRA_14
 70
     0
  0
APPID
  2
GENIUS_GENINF13_13
 70
     0
  0
APPID
  2
GENIUS_GENOBJ-N-INFOPT_13
 70
     0
  0
APPID
  2
GENIUS_GENOBJ-N-RSSYM_13
 70
     0
  0
APPID
  2
GENIUS_GENSYMENT_13
 70
     0
  0
APPID
  2
GENIUS_GENSCSYM_13
 70
     0
  0
APPID
  2
GENIUS_GEFINFNAM_13
 70
     0
  0
APPID
  2
GENIUS_GENOBJ-N-CEN_13
 70
     0
  0
APPID
  2
GENIUS_GENOBJ-N-CRS_13
 70
     0
  0
APPID
  2
GENIUS_GENOBJ-N-CRC_13
 70
     0
  0
APPID
  2
GENIUS_GENCRC_14
 70
     0
  0
APPID
  2
GEVID942827039
 70
     0
  0
APPID
  2
GEVID942827040
 70
     0
  0
APPID
  2
GEVID942827041
 70
     0
  0
APPID
  2
GENIUS_GENOBJ-F-SCPASSM_13
 70
     0
  0
APPID
  2
GENIUS_GENDIMSH_14
 70
     0
  0
APPID
  2
GEVID942827042
 70
     0
  0
APPID
  2
GEVID946020473
 70
     0
  0
APPID
  2
GEVID946020474
 70
     0
  0
APPID
  2
GEVID946020475
 70
     0
  0
APPID
  2
GENIUS_GENOBJ-N-HTC_13
 70
     0
  0
APPID
  2
GENIUS_GENHATCH_13
 70
     0
  0
APPID
  2
GEVID948854295
 70
     0
  0
APPID
  2
GEVID939402019
 70
     0
  0
APPID
  2
GEVID952919491
 70
     0
  0
APPID
  2
GEVID952919492
 70
     0
  0
APPID
  2
GENIUS_GEFWELD_13
 70
     0
  0
APPID
  2
GENIUS_GENOBJ-F-WELS_13
 70
     0
  0
APPID
  2
GEVID952919493
 70
     0
  0
APPID
  2
GENIUS_GENOBJ-N-RSBK_13
 70
     0
  0
APPID
  2
GENIUS_GENOBJ-N-LIB_13
 70
     0
  0
APPID
  2
GENIUS_GENSCALE_13
 70
     0
  0
APPID
  2
GEVID986376691
 70
     0
  0
APPID
  2
DCO15
 70
     0
  0
APPID
  2
ACAD_DSTYLE_DIMBREAK
 70
     0
  0
APPID
  2
ACAD_DSTYLE_DIMJAG
 70
     0
  0
APPID
  2
ACAD_NAV_VCDISPLAY
 70
     0
  0
APPID
  2
ACADANNOPO
 70
     0
  0
APPID
  2
ACAD_EXEMPT_FROM_CAD_STANDARDS
 70
     0
  0
APPID
  2
ACAD_MLEADERVER
 70
     0
  0
ENDTAB
  0
TABLE
  2
DIMSTYLE
 70
    22
  0
DIMSTYLE
  2
STANDARD
 70
     0
  3

  4

  5

  6

  7

 40
1.0
 41
0.18
 42
0.0625
 43
0.38
 44
0.18
 45
0.0
 46
0.0
 47
0.0
 48
0.0
140
0.18
141
0.09
142
0.0
143
25.399999999999999
144
1.0
145
0.0
146
1.0
147
0.09
 71
     0
 72
     0
 73
     1
 74
     1
 75
     0
 76
     0
 77
     0
 78
     0
170
     0
171
     2
172
     0
173
     0
174
     0
175
     0
176
     0
177
     0
178
     0
  0
DIMSTYLE
  2
ANNOTATIVE
 70
     0
  3

  4

  5

  6

  7

 40
1.0
 41
0.18
 42
0.0625
 43
0.38
 44
0.18
 45
0.0
 46
0.0
 47
0.0
 48
0.0
140
0.18
141
0.09
142
0.0
143
25.399999999999999
144
1.0
145
0.0
146
1.0
147
0.09
 71
     0
 72
     0
 73
     1
 74
     1
 75
     0
 76
     0
 77
     0
 78
     0
170
     0
171
     2
172
     0
173
     0
174
     0
175
     0
176
     0
177
     0
178
     0
  0
DIMSTYLE
  2
AM_ISO
 70
     0
  3

  4
"
  5

  6

  7

 40
1.0
 41
2.5
 42
1.0
 43
8.0
 44
0.6
 45
0.0
 46
0.0
 47
0.1
 48
0.1
140
2.5
141
0.0
142
0.0
143
0.0393701
144
1.0
145
0.0
146
0.71
147
0.8
 71
     0
 72
     0
 73
     0
 74
     0
 75
     0
 76
     0
 77
     1
 78
     8
170
     0
171
     2
172
     1
173
     0
174
     0
175
     0
176
   256
177
   256
178
     4
  0
DIMSTYLE
  2
AM_ISO$3
 70
     0
  3

  4
"
  5

  6

  7

 40
1.0
 41
2.5
 42
1.0
 43
8.0
 44
0.6
 45
0.0
 46
0.0
 47
0.1
 48
0.1
140
2.5
141
0.0
142
0.0
143
0.0393701
144
1.0
145
0.0
146
0.71
147
0.8
 71
     0
 72
     0
 73
     0
 74
     1
 75
     0
 76
     0
 77
     1
 78
     8
170
     0
171
     2
172
     0
173
     0
174
     0
175
     0
176
   256
177
   256
178
     4
  0
DIMSTYLE
  2
AM_ISO$4
 70
     0
  3

  4
"
  5

  6

  7

 40
1.0
 41
2.5
 42
1.0
 43
8.0
 44
0.6
 45
0.0
 46
0.0
 47
0.1
 48
0.1
140
2.5
141
0.0
142
0.0
143
0.0393701
144
1.0
145
0.0
146
0.71
147
0.8
 71
     0
 72
     0
 73
     0
 74
     1
 75
     0
 76
     0
 77
     1
 78
     8
170
     0
171
     2
172
     0
173
     0
174
     0
175
     0
176
   256
177
   256
178
     4
  0
DIMSTYLE
  2
AM_ISO$6
 70
     0
  3

  4
"
  5

  6

  7

 40
1.0
 41
2.5
 42
1.0
 43
8.0
 44
0.6
 45
0.0
 46
0.0
 47
0.1
 48
0.1
140
2.5
141
0.0
142
0.0
143
0.0393701
144
1.0
145
0.0
146
0.71
147
0.8
 71
     0
 72
     0
 73
     0
 74
     0
 75
     0
 76
     0
 77
     0
 78
     8
170
     0
171
     2
172
     1
173
     0
174
     0
175
     0
176
   256
177
   256
178
     4
  0
DIMSTYLE
  2
AM_ISO$7
 70
     0
  3

  4
"
  5

  6

  7

 40
1.0
 41
2.5
 42
1.0
 43
8.0
 44
0.6
 45
0.0
 46
0.0
 47
0.1
 48
0.1
140
2.5
141
0.0
142
0.0
143
0.0393701
144
1.0
145
0.0
146
0.71
147
0.8
 71
     0
 72
     0
 73
     0
 74
     0
 75
     0
 76
     0
 77
     1
 78
     8
170
     0
171
     2
172
     1
173
     0
174
     0
175
     0
176
   256
177
   256
178
     4
  0
DIMSTYLE
  2
AM_ISO$SF
 70
     0
  3

  4
"
  5

  6

  7

 40
1.0
 41
2.5
 42
1.0
 43
10.0
 44
1.0
 45
0.0
 46
0.0
 47
0.1
 48
0.1
140
3.5
141
0.0
142
0.0
143
0.0393701
144
1.0
145
0.0
146
0.71
147
1.5
 71
     0
 72
     0
 73
     0
 74
     0
 75
     1
 76
     1
 77
     1
 78
     8
170
     0
171
     2
172
     1
173
     0
174
     0
175
     0
176
   256
177
   256
178
     2
  0
DIMSTYLE
  2
AM_ISO$SH
 70
     0
  3

  4
"
  5

  6

  7

 40
1.0
 41
2.5
 42
1.0
 43
10.0
 44
1.0
 45
0.0
 46
0.0
 47
0.1
 48
0.1
140
3.5
141
0.0
142
0.0
143
0.0393701
144
2.0
145
0.0
146
0.71
147
1.5
 71
     0
 72
     0
 73
     0
 74
     0
 75
     1
 76
     1
 77
     1
 78
     8
170
     0
171
     2
172
     1
173
     1
174
     0
175
     0
176
   256
177
   256
178
     2
  0
DIMSTYLE
  2
AM_JIS
 70
     0
  3

  4
"
  5

  6

  7

 40
1.0
 41
2.5
 42
1.0
 43
7.0
 44
1.0
 45
0.0
 46
0.0
 47
0.1
 48
0.1000000001
140
2.5
141
0.0
142
0.0
143
0.0393701
144
1.0
145
0.0
146
0.71
147
1.0
 71
     0
 72
     0
 73
     0
 74
     0
 75
     0
 76
     0
 77
     3
 78
     8
170
     0
171
     2
172
     1
173
     0
174
     0
175
     0
176
   256
177
   256
178
     4
  0
DIMSTYLE
  2
AM_JIS$3
 70
     0
  3

  4
"
  5

  6

  7

 40
1.0
 41
2.5
 42
1.0
 43
7.0
 44
1.0
 45
0.0
 46
0.0
 47
0.1
 48
0.1000000001
140
2.5
141
0.0
142
0.0
143
0.0393701
144
1.0
145
0.0
146
0.71
147
1.0
 71
     0
 72
     0
 73
     0
 74
     1
 75
     0
 76
     0
 77
     3
 78
     8
170
     0
171
     2
172
     0
173
     0
174
     0
175
     0
176
   256
177
   256
178
     4
  0
DIMSTYLE
  2
AM_JIS$4
 70
     0
  3

  4
"
  5

  6

  7

 40
1.0
 41
2.5
 42
1.0
 43
7.0
 44
1.0
 45
0.0
 46
0.0
 47
0.1
 48
0.1000000001
140
2.5
141
0.0
142
0.0
143
0.0393701
144
1.0
145
0.0
146
0.71
147
1.0
 71
     0
 72
     0
 73
     0
 74
     0
 75
     0
 76
     0
 77
     3
 78
     8
170
     0
171
     2
172
     0
173
     0
174
     0
175
     0
176
   256
177
   256
178
     4
  0
DIMSTYLE
  2
AM_JIS$6
 70
     0
  3

  4
"
  5

  6

  7

 40
1.0
 41
2.5
 42
1.0
 43
7.0
 44
1.0
 45
0.0
 46
0.0
 47
0.1
 48
0.1000000001
140
2.5
141
0.0
142
0.0
143
0.0393701
144
1.0
145
0.0
146
0.71
147
1.0
 71
     0
 72
     0
 73
     0
 74
     0
 75
     0
 76
     0
 77
     0
 78
     8
170
     0
171
     2
172
     1
173
     0
174
     0
175
     0
176
   256
177
   256
178
     4
  0
DIMSTYLE
  2
AM_JIS$7
 70
     0
  3

  4
"
  5

  6

  7

 40
1.0
 41
2.5
 42
1.0
 43
7.0
 44
1.0
 45
0.0
 46
0.0
 47
0.1
 48
0.1000000001
140
2.5
141
0.0
142
0.0
143
0.0393701
144
1.0
145
0.0
146
0.71
147
1.0
 71
     0
 72
     0
 73
     0
 74
     0
 75
     0
 76
     0
 77
     3
 78
     8
170
     0
171
     2
172
     1
173
     0
174
     0
175
     0
176
   256
177
   256
178
     4
  0
DIMSTYLE
  2
AM_JIS$SF
 70
     0
  3

  4
"
  5

  6

  7

 40
1.0
 41
2.5
 42
1.0
 43
10.0
 44
1.0
 45
0.0
 46
0.0
 47
0.1
 48
0.1
140
3.5
141
0.0
142
0.0
143
0.0393701
144
1.0
145
0.0
146
0.71
147
1.5
 71
     0
 72
     0
 73
     0
 74
     0
 75
     1
 76
     1
 77
     3
 78
     8
170
     0
171
     2
172
     1
173
     0
174
     0
175
     0
176
   256
177
   256
178
     4
  0
DIMSTYLE
  2
AM_JIS$SH
 70
     0
  3

  4
"
  5

  6

  7

 40
1.0
 41
2.5
 42
1.0
 43
10.0
 44
1.0
 45
0.0
 46
0.0
 47
0.1
 48
0.1
140
3.5
141
0.0
142
0.0
143
0.0393701
144
1.0
145
0.0
146
0.71
147
1.5
 71
     0
 72
     0
 73
     0
 74
     0
 75
     1
 76
     0
 77
     3
 78
     8
170
     0
171
     2
172
     1
173
     1
174
     0
175
     0
176
   256
177
   256
178
     4
  0
DIMSTYLE
  2
AM_ANSI
 70
     0
  3

  4
mm
  5

  6

  7

 40
1.0
 41
0.1
 42
0.05
 43
0.5
 44
0.1
 45
0.0
 46
0.0
 47
0.1
 48
0.1
140
0.12
141
0.0
142
0.0
143
25.399999999999999
144
1.0
145
0.0
146
0.71
147
0.06
 71
     0
 72
     0
 73
     1
 74
     1
 75
     0
 76
     0
 77
     0
 78
     7
170
     0
171
     2
172
     0
173
     0
174
     0
175
     0
176
   256
177
   256
178
     2
  0
DIMSTYLE
  2
AM_ANSI$3
 70
     0
  3

  4
mm
  5

  6

  7

 40
1.0
 41
0.1
 42
0.05
 43
0.5
 44
0.1
 45
0.0
 46
0.0
 47
0.1
 48
0.1
140
0.12
141
0.0
142
0.0
143
25.399999999999999
144
1.0
145
0.0
146
0.71
147
0.06
 71
     0
 72
     0
 73
     1
 74
     1
 75
     0
 76
     0
 77
     0
 78
     7
170
     0
171
     2
172
     0
173
     0
174
     0
175
     0
176
   256
177
   256
178
     2
  0
DIMSTYLE
  2
AM_ANSI$4
 70
     0
  3

  4
mm
  5

  6

  7

 40
1.0
 41
0.1
 42
0.05
 43
0.5
 44
0.1
 45
0.0
 46
0.0
 47
0.1
 48
0.1
140
0.12
141
0.0
142
0.0
143
25.399999999999999
144
1.0
145
0.0
146
0.71
147
0.06
 71
     0
 72
     0
 73
     1
 74
     1
 75
     0
 76
     0
 77
     0
 78
     7
170
     0
171
     2
172
     0
173
     0
174
     0
175
     0
176
   256
177
   256
178
     2
  0
DIMSTYLE
  2
AM_ANSI$7
 70
     0
  3

  4
mm
  5

  6

  7

 40
1.0
 41
0.1
 42
0.05
 43
0.5
 44
0.1
 45
0.0
 46
0.0
 47
0.1
 48
0.1
140
0.24
141
0.0
142
0.0
143
25.399999999999999
144
1.0
145
0.0
146
0.71
147
0.06
 71
     0
 72
     0
 73
     1
 74
     1
 75
     0
 76
     0
 77
     0
 78
     7
170
     0
171
     2
172
     0
173
     0
174
     0
175
     0
176
   256
177
   256
178
     2
  0
DIMSTYLE
  2
AM_ANSI$SF
 70
     0
  3

  4
mm
  5

  6

  7

 40
1.0
 41
0.1
 42
0.05
 43
0.5
 44
0.1
 45
0.0
 46
0.0
 47
0.1
 48
0.1
140
0.12
141
0.0
142
0.0
143
25.399999999999999
144
1.0
145
0.0
146
0.71
147
0.06
 71
     0
 72
     0
 73
     1
 74
     1
 75
     1
 76
     1
 77
     0
 78
     7
170
     0
171
     2
172
     0
173
     0
174
     0
175
     0
176
   256
177
   256
178
     2
  0
DIMSTYLE
  2
AM_ANSI$SH
 70
     0
  3

  4
mm
  5

  6

  7

 40
1.0
 41
0.1
 42
0.05
 43
0.5
 44
0.1
 45
0.0
 46
0.0
 47
0.1
 48
0.1
140
0.12
141
0.0
142
0.0
143
25.399999999999999
144
1.0
145
0.0
146
0.71
147
0.06
 71
     0
 72
     0
 73
     1
 74
     1
 75
     1
 76
     1
 77
     0
 78
     7
170
     0
171
     2
172
     0
173
     1
174
     0
175
     0
176
   256
177
   256
178
     2
  0
ENDTAB
  0
ENDSEC
  0
SECTION
  2
BLOCKS
  0
BLOCK
  8
0
  2
$MODEL_SPACE
 70
     0
 10
0.0
 20
0.0
 30
0.0
  3
$MODEL_SPACE
  1

  0
ENDBLK
  5
32F6
  8
0
  0
BLOCK
 67
     1
  8
0
  2
$PAPER_SPACE
 70
     0
 10
0.0
 20
0.0
 30
0.0
  3
$PAPER_SPACE
  1

  0
ENDBLK
  5
32F2
 67
     1
  8
0
  0
BLOCK
  8
0
  2
GENAXEH
 70
     0
 10
0.0
 20
0.0
 30
0.0
  3
GENAXEH
  1

  0
LINE
  5
30A2
  8
0
 10
-1.0
 20
0.0
 30
0.0
 11
1.0
 21
0.0
 31
0.0
  0
ENDBLK
  5
30A3
  8
0
  0
BLOCK
  8
0
  2
_OPEN30
 70
     0
 10
0.0
 20
0.0
 30
0.0
  3
_OPEN30
  1

  0
LINE
  5
30A6
  8
0
 62
     0
 10
-1.0
 20
0.26794919
 30
0.0
 11
0.0
 21
0.0
 31
0.0
  0
LINE
  5
30A7
  8
0
 62
     0
 10
0.0
 20
0.0
 30
0.0
 11
-1.0
 21
-0.26794919
 31
0.0
  0
LINE
  5
30A8
  8
0
 62
     0
 10
0.0
 20
0.0
 30
0.0
 11
-1.0
 21
0.0
 31
0.0
  0
ENDBLK
  5
30A9
  8
0
  0
BLOCK
  8
0
  2
_NONE
 70
     0
 10
0.0
 20
0.0
 30
0.0
  3
_NONE
  1

  0
ENDBLK
  5
30AC
  8
0
  0
BLOCK
  8
0
  2
_ACMFILLEDHALF
 70
     0
 10
0.0
 20
0.0
 30
0.0
  3
_ACMFILLEDHALF
  1

  0
TRACE
  5
33EB
  8
AM_0
 62
     0
 10
-0.8
 20
0.0
 30
0.0
 11
-1.0
 21
0.166666666
 31
0.0
 12
0.0
 22
0.0
 32
0.0
 13
0.0
 23
0.0
 33
0.0
  0
LINE
  5
33EC
  8
AM_0
 62
     0
 10
-1.0
 20
0.0
 30
0.0
 11
-0.8
 21
0.0
 31
0.0
  0
ENDBLK
  5
33EA
  8
0
  0
ENDSEC
  0
SECTION
  2
ENTITIES
  0
LINE
  5
30AD
  8
ﾁｭｳｼﾝｾﾝ1
 10
220.6348142515003
 20
499.47806054327958
 30
0.0
 11
403.57507499816109
 21
499.47806054327958
 31
0.0
  0
ARC
  5
30AE
  8
AM_0
 10
409.87271499816109
 20
499.47806054327958
 30
0.0
 40
101.4887199999999
 50
151.89333000000019
 51
208.10666999999961
  0
LINE
  5
30AF
  8
AM_0
 10
256.38398499816122
 20
442.9780605432797
 30
0.0
 11
256.38398499816122
 21
555.97806054327975
 31
0.0
  0
LINE
  5
30B0
  8
AM_0
 10
287.38400499816112
 20
430.60968054327969
 30
0.0
 11
287.38400499816112
 21
568.34643054327967
 31
0.0
  0
LINE
  5
30B1
  8
AM_0
 10
308.38400499816112
 20
449.4108305432797
 30
0.0
 11
308.38400499816112
 21
549.54529054327963
 31
0.0
  0
LINE
  5
30B2
  8
AM_0
 10
343.38400499816112
 20
449.22705054327969
 30
0.0
 11
343.38400499816112
 21
549.72906054327973
 31
0.0
  0
LINE
  5
30B3
  8
AM_0
 10
359.38397499816108
 20
473.94372054327971
 30
0.0
 11
359.38397499816108
 21
525.01236054327956
 31
0.0
  0
LINE
  5
30B4
  8
AM_0
 10
356.38397499816108
 20
549.02301054327972
 30
0.0
 11
356.38397499816108
 21
449.93310054327969
 31
0.0
  0
LINE
  5
30B5
  8
AM_0
 10
294.38397499816102
 20
570.47806054327975
 30
0.0
 11
294.38397499816102
 21
428.47806054327958
 31
0.0
  0
LINE
  5
30B6
  8
AM_0
 10
361.3839449981611
 20
511.9780305432796
 30
0.0
 11
361.3839449981611
 21
486.97809054327968
 31
0.0
  0
LINE
  5
30B7
  8
AM_0
 10
401.38397499816091
 20
511.47806054327958
 30
0.0
 11
401.38397499816091
 21
487.47806054327958
 31
0.0
  0
ARC
  5
30B8
  8
AM_0
 10
335.38397499816119
 20
427.47485054327967
 30
0.0
 40
5.0
 50
180.00001000000091
 51
271.49999999999932
  0
ARC
  5
30B9
  8
AM_0
 10
335.38397499816119
 20
440.75903054327972
 30
0.0
 40
5.0
 50
95.00000199999856
 51
180.00001000000091
  0
LINE
  5
30BA
  8
AM_0
 10
340.46255499816118
 20
452.45352054327969
 30
0.0
 11
321.96597499816107
 21
451.96918054327972
 31
0.0
  0
LINE
  5
30BB
  8
AM_0
 10
297.38400499816112
 20
421.4780605432797
 30
0.0
 11
357.4363349981611
 21
423.05057054327972
 31
0.0
  0
LINE
  5
30BC
  8
AM_0
 10
297.38397499816102
 20
428.55661054327959
 30
0.0
 11
297.38397499816102
 21
425.33404054327968
 31
0.0
  0
LINE
  5
30BD
  8
AM_0
 10
294.78698499816119
 20
428.48862054327969
 30
0.0
 11
290.38397499816119
 21
426.17850054327971
 31
0.0
  0
LINE
  5
30BE
  8
AM_0
 10
265.38397499816102
 20
424.26434054327967
 30
0.0
 11
265.38397499816102
 21
443.24237054327972
 31
0.0
  0
LINE
  5
30BF
  8
AM_0
 10
267.33163499816112
 20
422.26501054327969
 30
0.0
 11
297.38397499816102
 21
421.4780605432797
 31
0.0
  0
ARC
  5
30C0
  8
AM_0
 10
267.38397499816119
 20
424.26434054327967
 30
0.0
 40
2.0
 50
180.00001000000091
 51
268.5000000000004
  0
LINE
  5
30C1
  8
AM_0
 10
297.38397499816102
 20
425.33404054327968
 30
0.0
 11
290.38397499816119
 21
421.66138054327962
 31
0.0
  0
LINE
  5
30C2
  8
AM_0
 10
290.38397499816119
 20
421.66138054327962
 30
0.0
 11
290.38397499816119
 21
426.17847054327967
 31
0.0
  0
LINE
  5
30C3
  8
AM_0
 10
256.38400499816112
 20
467.53812054327972
 30
0.0
 11
287.38400499816112
 21
467.53812054327972
 31
0.0
  0
LINE
  5
30C4
  8
AM_0
 10
284.38397499816102
 20
434.26678054327971
 30
0.0
 11
285.38400499816112
 21
434.26678054327971
 31
0.0
  0
LINE
  5
30C5
  8
AM_0
 10
256.38400499816112
 20
453.47775054327968
 30
0.0
 11
287.38400499816112
 21
453.47775054327968
 31
0.0
  0
LINE
  5
30C6
  8
AM_0
 10
282.38397499816119
 20
442.79724054327971
 30
0.0
 11
256.38403499816121
 21
443.47806054327981
 31
0.0
  0
LINE
  5
30C7
  8
AM_0
 10
282.38397499816119
 20
436.26678054327959
 30
0.0
 11
282.38397499816119
 21
451.47775054327968
 31
0.0
  0
ARC
  5
30C8
  8
AM_0
 10
277.38397499816119
 20
434.4780605432797
 30
0.0
 40
6.0
 50
33.5572999999982
 51
0.5425182800010755
  0
ARC
  5
30C9
  8
AM_0
 10
284.38397499816102
 20
436.26678054327959
 30
0.0
 40
2.0
 50
180.00001000000091
 51
270.0
  0
ARC
  5
30CA
  8
AM_0
 10
280.38397499816108
 20
451.47775054327968
 30
0.0
 40
2.0
 50
0.0
 51
90.000003000000945
  0
ARC
  5
30CB
  8
AM_0
 10
306.9889549981612
 20
433.80984054327968
 30
0.0
 40
5.0
 50
271.49999999999932
 51
299.88701999999893
  0
LINE
  5
30CC
  8
AM_0
 10
308.38400499816112
 20
449.41080054327972
 30
0.0
 11
321.96597499816107
 21
451.96918054327972
 31
0.0
  0
LINE
  5
30CD
  8
AM_0
 10
306.38397499816119
 20
446.9401205432797
 30
0.0
 11
309.38397499816102
 21
446.9401205432797
 31
0.0
  0
LINE
  5
30CE
  8
AM_0
 10
306.38397499816119
 20
435.39307054327969
 30
0.0
 11
309.38397499816102
 21
435.39307054327969
 31
0.0
  0
LINE
  5
30CF
  8
AM_0
 10
306.38397499816119
 20
438.27984054327959
 30
0.0
 11
309.38397499816102
 21
438.27984054327959
 31
0.0
  0
LINE
  5
30D0
  8
AM_0
 10
306.38397499816119
 20
444.0533405432796
 30
0.0
 11
309.38397499816102
 21
444.0533405432796
 31
0.0
  0
LINE
  5
30D1
  8
AM_0
 10
306.38397499816119
 20
447.94012054327982
 30
0.0
 11
306.38397499816119
 21
434.39307054327969
 31
0.0
  0
LINE
  5
30D2
  8
AM_0
 10
305.38397499816102
 20
449.4108305432797
 30
0.0
 11
305.38397499816102
 21
428.76611054327969
 31
0.0
  0
LINE
  5
30D3
  8
AM_0
 10
307.11984499816111
 20
428.81155054327968
 30
0.0
 11
294.38400499816112
 21
428.47806054327958
 31
0.0
  0
LINE
  5
30D4
  8
AM_0
 10
294.38400499816112
 20
428.47806054327958
 30
0.0
 11
289.33163499816112
 21
428.61035054327971
 31
0.0
  0
ARC
  5
30D5
  8
AM_0
 10
285.38400499816112
 20
432.26678054327959
 30
0.0
 40
2.0
 50
0.0
 51
90.000003000000945
  0
ARC
  5
30D6
  8
AM_0
 10
289.38400499816112
 20
430.60968054327969
 30
0.0
 40
2.0
 50
180.00001000000091
 51
268.5000000000004
  0
LINE
  5
30D7
  8
AM_0
 10
305.38397499816102
 20
434.39307054327969
 30
0.0
 11
306.38397499816119
 21
434.39307054327969
 31
0.0
  0
LINE
  5
30D8
  8
AM_0
 10
305.38397499816102
 20
449.4108305432797
 30
0.0
 11
308.38397499816119
 21
449.4108305432797
 31
0.0
  0
LINE
  5
30D9
  8
AM_0
 10
305.38397499816102
 20
447.94012054327982
 30
0.0
 11
306.38397499816119
 21
447.94012054327982
 31
0.0
  0
ARC
  5
30DA
  8
AM_0
 10
309.38397499816102
 20
445.05334054327972
 30
0.0
 40
1.0
 50
269.999989999999
 51
0.0000006832462478
  0
ARC
  5
30DB
  8
AM_0
 10
309.38397499816102
 20
443.05334054327972
 30
0.0
 40
1.0
 50
0.0
 51
90.000003000000945
  0
LINE
  5
30DC
  8
AM_0
 10
310.38394499816093
 20
436.39307054327969
 30
0.0
 11
310.38394499816093
 21
445.94009054327972
 31
0.0
  0
ARC
  5
30DD
  8
AM_0
 10
322.60864499816103
 20
431.25296054327958
 30
0.0
 40
5.0
 50
91.500001000001546
 51
119.887019999999
  0
ARC
  5
30DE
  8
AM_0
 10
309.38397499816102
 20
436.39307054327969
 30
0.0
 40
1.0
 50
269.999989999999
 51
0.0000006832462478
  0
LINE
  5
30DF
  8
AM_0
 10
309.48040499816119
 20
429.47479054327971
 30
0.0
 11
320.11718499816112
 21
435.58801054327972
 31
0.0
  0
ARC
  5
30E0
  8
AM_0
 10
309.38397499816102
 20
439.27981054327972
 30
0.0
 40
1.0
 50
269.999989999999
 51
0.0000006832462478
  0
ARC
  5
30E1
  8
AM_0
 10
309.38397499816102
 20
437.2798405432797
 30
0.0
 40
1.0
 50
0.0
 51
90.000003000000945
  0
LINE
  5
30E2
  8
AM_0
 10
330.38397499816102
 20
427.47485054327967
 30
0.0
 11
330.38397499816102
 21
440.75903054327972
 31
0.0
  0
LINE
  5
30E3
  8
AM_0
 10
327.4625249981612
 20
436.38177054327969
 30
0.0
 11
322.47778499816121
 21
436.25122054327971
 31
0.0
  0
ARC
  5
30E4
  8
AM_0
 10
327.38397499816119
 20
439.38074054327973
 30
0.0
 40
3.0
 50
271.49999999999932
 51
0.0
  0
ARC
  5
30E5
  8
AM_0
 10
309.38397499816102
 20
445.94009054327972
 30
0.0
 40
1.0
 50
0.0
 51
90.000003000000945
  0
LINE
  5
30E6
  8
ﾁｭｳｼﾝｾﾝ1
 10
347.38397499816108
 20
425.4780605432797
 30
0.0
 11
347.38397499816108
 21
443.47806054327981
 31
0.0
  0
LINE
  5
30E7
  8
AM_0
 10
359.38397499816108
 20
425.04989054327967
 30
0.0
 11
359.38397499816108
 21
447.90622054327969
 31
0.0
  0
ARC
  5
30E8
  8
AM_0
 10
357.38397499816108
 20
425.04989054327967
 30
0.0
 40
2.0
 50
271.49999999999932
 51
0.0
  0
LINE
  5
30E9
  8
AM_0
 10
361.3839449981611
 20
487.47806054327958
 30
0.0
 11
401.38397499816091
 21
487.47806054327958
 31
0.0
  0
LINE
  5
30EA
  8
AM_0
 10
357.43630499816101
 20
449.90552054327969
 30
0.0
 11
356.38397499816108
 21
449.93307054327971
 31
0.0
  0
CIRCLE
  5
30EB
  8
AM_0
 10
347.38397499816108
 20
434.4780605432797
 30
0.0
 40
6.0
  0
LINE
  5
30EC
  8
ﾁｭｳｼﾝｾﾝ1
 10
338.38397499816102
 20
434.4780605432797
 30
0.0
 11
356.38397499816108
 21
434.4780605432797
 31
0.0
  0
ARC
  5
30ED
  8
AM_0
 10
347.55801499816118
 20
445.68677054327969
 30
0.0
 40
5.0
 50
95.00000199999856
 51
153.73432999999969
  0
ARC
  5
30EE
  8
AM_0
 10
340.38400499816112
 20
455.45251054327969
 30
0.0
 40
3.0
 50
271.49999999999932
 51
0.0
  0
LINE
  5
30EF
  8
AM_0
 10
340.64547499816121
 20
446.2384605432797
 30
0.0
 11
334.9481849981612
 21
445.74002054327968
 31
0.0
  0
ARC
  5
30F0
  8
AM_0
 10
340.38400499816112
 20
449.22705054327969
 30
0.0
 40
3.0
 50
274.99999999999972
 51
0.0
  0
ARC
  5
30F1
  8
AM_0
 10
351.38397499816108
 20
456.05969054327971
 30
0.0
 40
5.0
 50
274.99999999999972
 51
0.0
  0
LINE
  5
30F2
  8
AM_0
 10
351.81976499816108
 20
451.0787605432796
 30
0.0
 11
347.12225499816111
 21
450.66778054327972
 31
0.0
  0
ARC
  5
30F3
  8
AM_0
 10
357.38397499816108
 20
447.90622054327969
 30
0.0
 40
2.0
 50
0.0
 51
88.499997000000747
  0
LINE
  5
30F4
  8
AM_0
 10
357.34909499816109
 20
472.90698054327959
 30
0.0
 11
358.4188849981611
 21
472.9443305432797
 31
0.0
  0
ARC
  5
30F5
  8
AM_0
 10
357.38397499816108
 20
471.9075905432797
 30
0.0
 40
1.0
 50
91.999998000000545
 51
180.00001000000091
  0
ARC
  5
30F6
  8
AM_0
 10
358.38397499816108
 20
473.94372054327971
 30
0.0
 40
1.0
 50
272.0000000000004
 51
0.0
  0
LINE
  5
30F7
  8
AM_0
 10
359.38397499816108
 20
486.97809054327968
 30
0.0
 11
361.3839449981611
 21
486.97809054327968
 31
0.0
  0
ARC
  5
30F8
  8
AM_0
 10
335.38397499816119
 20
571.48126054327963
 30
0.0
 40
5.0
 50
88.499997000000747
 51
180.00001000000091
  0
ARC
  5
30F9
  8
AM_0
 10
335.38397499816119
 20
558.19705054327972
 30
0.0
 40
5.0
 50
180.00001000000091
 51
265.00001000000071
  0
LINE
  5
30FA
  8
AM_0
 10
340.46255499816118
 20
546.50256054327974
 30
0.0
 11
321.96594499816121
 21
546.98694054327973
 31
0.0
  0
LINE
  5
30FB
  8
AM_0
 10
297.38400499816112
 20
577.47806054327975
 30
0.0
 11
357.4363349981611
 21
575.90552054327975
 31
0.0
  0
ARC
  5
30FC
  8
AM_0
 10
284.38397499816102
 20
562.68936054327969
 30
0.0
 40
2.0
 50
90.000003000000945
 51
180.00001000000091
  0
ARC
  5
30FD
  8
AM_0
 10
277.38397499816119
 20
564.47806054327975
 30
0.0
 40
6.0
 50
359.45747999999838
 51
326.4427199999991
  0
LINE
  5
30FE
  8
AM_0
 10
305.38397499816102
 20
549.54529054327963
 30
0.0
 11
305.38397499816102
 21
570.19000054327955
 31
0.0
  0
LINE
  5
30FF
  8
AM_0
 10
306.38397499816119
 20
551.0159905432796
 30
0.0
 11
306.38397499816119
 21
564.5630505432797
 31
0.0
  0
LINE
  5
3100
  8
AM_0
 10
309.48040499816119
 20
569.48129054327956
 30
0.0
 11
320.1171549981612
 21
563.36810054327975
 31
0.0
  0
LINE
  5
3101
  8
AM_0
 10
330.38397499816102
 20
558.19705054327972
 30
0.0
 11
330.38397499816102
 21
571.48126054327963
 31
0.0
  0
LINE
  5
3102
  8
AM_0
 10
265.38397499816102
 20
574.69180054327956
 30
0.0
 11
265.38397499816102
 21
555.71374054327976
 31
0.0
  0
LINE
  5
3103
  8
AM_0
 10
256.38400499816112
 20
531.41800054327973
 30
0.0
 11
287.38400499816112
 21
531.41800054327973
 31
0.0
  0
LINE
  5
3104
  8
AM_0
 10
256.38400499816112
 20
545.47836054327968
 30
0.0
 11
287.38400499816112
 21
545.47836054327968
 31
0.0
  0
LINE
  5
3105
  8
AM_0
 10
282.38400499816112
 20
556.15890054327974
 30
0.0
 11
256.38403499816121
 21
555.47806054327975
 31
0.0
  0
ARC
  5
3106
  8
AM_0
 10
280.38397499816108
 20
547.47836054327956
 30
0.0
 40
2.0
 50
270.0
 51
0.0
  0
LINE
  5
3107
  8
AM_0
 10
282.38397499816119
 20
562.68936054327969
 30
0.0
 11
282.38397499816119
 21
547.47836054327956
 31
0.0
  0
LINE
  5
3108
  8
AM_0
 10
306.38397499816119
 20
554.90277054327976
 30
0.0
 11
309.38397499816102
 21
554.90277054327976
 31
0.0
  0
LINE
  5
3109
  8
AM_0
 10
306.38397499816119
 20
560.67627054327977
 30
0.0
 11
309.38397499816102
 21
560.67627054327977
 31
0.0
  0
LINE
  5
310A
  8
AM_0
 10
306.38397499816119
 20
563.56302054327955
 30
0.0
 11
309.38397499816102
 21
563.56302054327955
 31
0.0
  0
LINE
  5
310B
  8
AM_0
 10
306.38397499816119
 20
552.01602054327975
 30
0.0
 11
309.38397499816102
 21
552.01602054327975
 31
0.0
  0
LINE
  5
310C
  8
AM_0
 10
308.38400499816112
 20
549.54529054327963
 30
0.0
 11
321.96597499816107
 21
546.98691054327958
 31
0.0
  0
LINE
  5
310D
  8
AM_0
 10
305.38397499816102
 20
549.54529054327963
 30
0.0
 11
308.38397499816119
 21
549.54529054327963
 31
0.0
  0
LINE
  5
310E
  8
AM_0
 10
305.38397499816102
 20
551.0159905432796
 30
0.0
 11
306.38397499816119
 21
551.0159905432796
 31
0.0
  0
ARC
  5
310F
  8
AM_0
 10
322.60864499816103
 20
567.70315054327955
 30
0.0
 40
5.0
 50
240.11298000000079
 51
268.5000000000004
  0
ARC
  5
3110
  8
AM_0
 10
309.38397499816102
 20
555.90277054327964
 30
0.0
 40
1.0
 50
269.999989999999
 51
0.0000006832462478
  0
LINE
  5
3111
  8
AM_0
 10
310.38394499816093
 20
562.5630505432797
 30
0.0
 11
310.38394499816093
 21
553.01602054327975
 31
0.0
  0
ARC
  5
3112
  8
AM_0
 10
309.38397499816102
 20
553.01602054327975
 30
0.0
 40
1.0
 50
269.999989999999
 51
0.0000006832462478
  0
ARC
  5
3113
  8
AM_0
 10
309.38397499816102
 20
553.90277054327964
 30
0.0
 40
1.0
 50
0.0
 51
90.000003000000945
  0
ARC
  5
3114
  8
AM_0
 10
309.38397499816102
 20
561.67627054327966
 30
0.0
 40
1.0
 50
269.999989999999
 51
0.0000006832462478
  0
ARC
  5
3115
  8
AM_0
 10
309.38397499816102
 20
562.5630505432797
 30
0.0
 40
1.0
 50
0.0
 51
90.000003000000945
  0
ARC
  5
3116
  8
AM_0
 10
309.38397499816102
 20
559.67630054327969
 30
0.0
 40
1.0
 50
0.0
 51
90.000003000000945
  0
LINE
  5
3117
  8
AM_0
 10
327.46249499816099
 20
562.57434054327973
 30
0.0
 11
322.47775499816112
 21
562.70486054327955
 31
0.0
  0
ARC
  5
3118
  8
AM_0
 10
327.38397499816119
 20
559.57538054327972
 30
0.0
 40
3.0
 50
0.0
 51
88.499997000000747
  0
LINE
  5
3119
  8
AM_0
 10
284.38397499816102
 20
564.68936054327958
 30
0.0
 11
285.38400499816112
 21
564.68936054327958
 31
0.0
  0
LINE
  5
311A
  8
AM_0
 10
267.33163499816112
 20
576.69113054327966
 30
0.0
 11
297.38397499816102
 21
577.47809054327956
 31
0.0
  0
ARC
  5
311B
  8
AM_0
 10
267.38397499816119
 20
574.69180054327956
 30
0.0
 40
2.0
 50
91.500001000001546
 51
180.00001000000091
  0
ARC
  5
311C
  8
AM_0
 10
306.9889549981612
 20
565.14627054327968
 30
0.0
 40
5.0
 50
60.112980000000888
 51
88.499997000000747
  0
LINE
  5
311D
  8
AM_0
 10
307.11981499816108
 20
570.14456054327957
 30
0.0
 11
294.38400499816112
 21
570.47806054327975
 31
0.0
  0
LINE
  5
311E
  8
AM_0
 10
297.38397499816102
 20
573.62210054327954
 30
0.0
 11
290.38397499816119
 21
577.29477054327958
 31
0.0
  0
LINE
  5
311F
  8
AM_0
 10
294.78698499816119
 20
570.46753054327962
 30
0.0
 11
290.38400499816117
 21
572.77762054327957
 31
0.0
  0
LINE
  5
3120
  8
AM_0
 10
294.38397499816102
 20
570.47806054327975
 30
0.0
 11
289.33166499816122
 21
570.34573054327961
 31
0.0
  0
ARC
  5
3121
  8
AM_0
 10
285.38400499816112
 20
566.68936054327969
 30
0.0
 40
2.0
 50
270.0
 51
0.0
  0
ARC
  5
3122
  8
AM_0
 10
289.38400499816112
 20
568.34643054327967
 30
0.0
 40
2.0
 50
91.500001000001546
 51
180.00001000000091
  0
LINE
  5
3123
  8
AM_0
 10
290.38397499816119
 20
577.29474054327954
 30
0.0
 11
290.38397499816119
 21
572.77765054327961
 31
0.0
  0
LINE
  5
3124
  8
AM_0
 10
297.38397499816102
 20
570.3995005432796
 30
0.0
 11
297.38397499816102
 21
573.62207054327962
 31
0.0
  0
LINE
  5
3125
  8
AM_0
 10
305.38397499816102
 20
564.5630505432797
 30
0.0
 11
306.38397499816119
 21
564.5630505432797
 31
0.0
  0
CIRCLE
  5
3126
  8
AM_0
 10
347.38397499816108
 20
564.47806054327975
 30
0.0
 40
6.0
  0
LINE
  5
3127
  8
AM_0
 10
359.38397499816108
 20
573.90622054327957
 30
0.0
 11
359.38397499816108
 21
551.04989054327973
 31
0.0
  0
LINE
  5
3128
  8
AM_0
 10
369.38397499816108
 20
503.4780305432796
 30
0.0
 11
401.38397499816091
 21
503.4780305432796
 31
0.0
  0
LINE
  5
3129
  8
AM_0
 10
369.38397499816108
 20
495.47806054327958
 30
0.0
 11
401.38397499816091
 21
495.47806054327958
 31
0.0
  0
LINE
  5
312A
  8
AM_0
 10
361.3839449981611
 20
511.47806054327958
 30
0.0
 11
401.38397499816091
 21
511.47806054327958
 31
0.0
  0
LINE
  5
312B
  8
AM_0
 10
357.34905499816108
 20
526.04913054327972
 30
0.0
 11
358.4188849981611
 21
526.01178054327966
 31
0.0
  0
ARC
  5
312C
  8
AM_0
 10
357.38397499816108
 20
527.04852054327955
 30
0.0
 40
1.0
 50
180.00001000000091
 51
267.9999999999996
  0
ARC
  5
312D
  8
AM_0
 10
369.38397499816108
 20
499.4780305432796
 30
0.0
 40
3.9999962
 50
90.000003000000945
 51
270.0
  0
LINE
  5
312E
  8
AM_0
 10
369.38397499816108
 20
503.4780305432796
 30
0.0
 11
369.38397499816108
 21
495.47806054327958
 31
0.0
  0
LINE
  5
312F
  8
AM_0
 10
359.38397499816108
 20
511.9780305432796
 30
0.0
 11
361.3839449981611
 21
511.9780305432796
 31
0.0
  0
ARC
  5
3130
  8
AM_0
 10
358.38397499816108
 20
525.01236054327956
 30
0.0
 40
1.0
 50
0.0
 51
87.999999999999659
  0
LINE
  5
3131
  8
AM_0
 10
356.384004998161
 20
549.02301054327972
 30
0.0
 11
357.4363349981611
 21
549.05057054327972
 31
0.0
  0
ARC
  5
3132
  8
AM_0
 10
340.38400499816112
 20
543.50360054327973
 30
0.0
 40
3.0
 50
0.0
 51
88.499997000000747
  0
ARC
  5
3133
  8
AM_0
 10
351.38397499816108
 20
542.89639054327972
 30
0.0
 40
5.0
 50
0.0
 51
85.000004000001198
  0
ARC
  5
3134
  8
AM_0
 10
347.55801499816118
 20
553.26932054327972
 30
0.0
 40
5.0
 50
206.2656700000002
 51
265.00001000000071
  0
LINE
  5
3135
  8
AM_0
 10
340.64547499816121
 20
552.71762054327974
 30
0.0
 11
334.94821499816112
 21
553.21609054327973
 31
0.0
  0
ARC
  5
3136
  8
AM_0
 10
340.38400499816112
 20
549.72906054327973
 30
0.0
 40
3.0
 50
0.0
 51
85.000004000001198
  0
LINE
  5
3137
  8
AM_0
 10
351.81976499816108
 20
547.87738054327974
 30
0.0
 11
347.12225499816111
 21
548.28836054327974
 31
0.0
  0
ARC
  5
3138
  8
AM_0
 10
357.38397499816108
 20
551.04989054327973
 30
0.0
 40
2.0
 50
271.49999999999932
 51
0.0
  0
ARC
  5
3139
  8
AM_0
 10
357.38397499816108
 20
573.90622054327957
 30
0.0
 40
2.0
 50
0.0
 51
88.499997000000747
  0
LINE
  5
313A
  8
ﾁｭｳｼﾝｾﾝ1
 10
347.38397499816108
 20
555.47806054327975
 30
0.0
 11
347.38397499816108
 21
573.47806054327975
 31
0.0
  0
LINE
  5
313B
  8
ﾁｭｳｼﾝｾﾝ1
 10
338.38397499816102
 20
564.47806054327975
 30
0.0
 11
356.38397499816108
 21
564.47806054327975
 31
0.0
  0
LINE
  5
313C
  8
ﾁｭｳｼﾝｾﾝ1
 10
277.38397499816119
 20
555.47806054327975
 30
0.0
 11
277.38397499816119
 21
573.47806054327975
 31
0.0
  0
LINE
  5
313D
  8
ﾁｭｳｼﾝｾﾝ1
 10
268.38397499816102
 20
564.47806054327975
 30
0.0
 11
286.38397499816102
 21
564.47806054327975
 31
0.0
  0
LINE
  5
313E
  8
ﾁｭｳｼﾝｾﾝ1
 10
277.38397499816119
 20
425.4780605432797
 30
0.0
 11
277.38397499816119
 21
443.47806054327981
 31
0.0
  0
LINE
  5
313F
  8
ﾁｭｳｼﾝｾﾝ1
 10
268.38397499816102
 20
434.4780605432797
 30
0.0
 11
286.38397499816102
 21
434.4780605432797
 31
0.0
  0
LINE
  5
3141
  8
AM_0
 10
361.38392499816092
 20
311.55662870398919
 30
0.0
 11
401.38397499816091
 21
311.55662870398919
 31
0.0
  0
LINE
  5
3142
  8
AM_0
 10
361.38392499816092
 20
287.55664370398921
 30
0.0
 11
401.38397499816091
 21
287.55664370398921
 31
0.0
  0
LINE
  5
3143
  8
AM_0
 10
369.38393499816112
 20
314.55662870398908
 30
0.0
 11
401.38397499816091
 21
314.55662870398908
 31
0.0
  0
LINE
  5
3144
  8
ﾁｭｳｼﾝｾﾝ1
 10
405.09644499816079
 20
299.55664370398921
 30
0.0
 11
277.48324896862988
 21
299.55664370398921
 31
0.0
  0
LINE
  5
3145
  8
AM_0
 10
256.38398499816122
 20
223.0566427039891
 30
0.0
 11
256.38398499816122
 21
336.05664270398921
 31
0.0
  0
LINE
  5
3146
  8
0
 10
225.3839849981612
 20
199.5566427039891
 30
0.0
 11
225.3839849981612
 21
359.5566427039891
 31
0.0
1001
GENIUS_GENOREF_13
1005
2DEF
  0
LINE
  5
3147
  8
0
 10
235.3839849981612
 20
357.5566427039891
 30
0.0
 11
235.3839849981612
 21
201.55664270398921
 31
0.0
1001
GENIUS_GENOREF_13
1005
2DEF
  0
LINE
  5
3148
  8
AM_0
 10
359.38397499816108
 20
274.21133570398922
 30
0.0
 11
359.38397499816108
 21
324.90194870398921
 31
0.0
  0
LINE
  5
3149
  8
AM_0
 10
294.38393499816112
 20
350.55665870398929
 30
0.0
 11
294.38393499816112
 21
235.41380270398909
 31
0.0
  0
LINE
  5
314A
  8
AM_0
 10
356.38397499816108
 20
329.8076387039892
 30
0.0
 11
356.38397499816108
 21
220.30120970398909
 31
0.0
  0
LINE
  5
314B
  8
AM_0
 10
297.38393499816112
 20
286.77292070398897
 30
0.0
 11
297.38393499816112
 21
250.08111770398909
 31
0.0
  0
LINE
  5
314C
  8
AM_0
 10
330.38393499816112
 20
309.34745870398922
 30
0.0
 11
330.38393499816112
 21
221.55665570398909
 31
0.0
  0
LINE
  5
314D
  8
AM_0
 10
343.38395499816141
 20
344.40275870398898
 30
0.0
 11
343.38395499816141
 21
235.5974597039891
 31
0.0
  0
LINE
  5
314E
  8
AM_0
 10
287.38400499816089
 20
321.05099870398919
 30
0.0
 11
287.38400499816089
 21
216.68656970398919
 31
0.0
  0
LINE
  5
314F
  8
AM_0
 10
256.38398499816122
 20
247.61920070398921
 30
0.0
 11
235.3839849981612
 21
247.61920070398921
 31
0.0
  0
LINE
  5
3150
  8
AM_0
 10
256.38398499816122
 20
233.5566257039892
 30
0.0
 11
235.3839849981612
 21
233.5566257039892
 31
0.0
  0
ARC
  5
3151
  8
0
 10
237.3839849981612
 20
220.39192899504829
 30
0.0
 40
2.0
 50
92.000000000000341
 51
180.0
1001
GENIUS_GENOBJ-N-FIL_13
1002
{
1000
OWNER
1000
GEN
1002
}
1001
GENIUS_GENODEF_13
1002
{
1000
HIER
1070
     0
1002
}
1002
{
1000
MANEDIT
1070
     0
1002
}
1002
{
1000
NOSEL
1070
     0
1002
}
1002
{
1000
BEHIND
1070
     0
1002
}
1002
{
1000
OTHER
1070
     0
1002
}
1002
{
1000
REACTOR
1002
}
  0
LINE
  5
3152
  8
0
 10
225.3839849981612
 20
199.5566427039891
 30
0.0
 11
233.3839849981612
 21
199.5566427039891
 31
0.0
  0
ARC
  5
3153
  8
0
 10
233.3839849981612
 20
201.55664270398921
 30
0.0
 40
2.0
 50
270.0
 51
0.0
1001
GENIUS_GENOBJ-N-FIL_13
1002
{
1000
OWNER
1000
GEN
1002
}
1001
GENIUS_GENODEF_13
1002
{
1000
HIER
1070
     0
1002
}
1002
{
1000
MANEDIT
1070
     0
1002
}
1002
{
1000
NOSEL
1070
     0
1002
}
1002
{
1000
BEHIND
1070
     0
1002
}
1002
{
1000
OTHER
1070
     0
1002
}
1002
{
1000
REACTOR
1002
}
  0
LINE
  5
3154
  8
AM_0
 10
291.38393499816112
 20
205.5566417039889
 30
0.0
 11
333.38393499816112
 21
205.5566417039889
 31
0.0
  0
LINE
  5
3155
  8
AM_0
 10
297.38393499816112
 20
219.5566547039891
 30
0.0
 11
297.38393499816112
 21
249.55665770398909
 31
0.0
  0
LINE
  5
3156
  8
AM_0
 10
291.224514998161
 20
220.51913570398909
 30
0.0
 11
297.27509499816119
 21
249.04359470398921
 31
0.0
  0
LINE
  5
3157
  8
AM_0
 10
267.38393499816112
 20
216.5566547039891
 30
0.0
 11
286.33334499816141
 21
216.5566547039891
 31
0.0
  0
LINE
  5
3158
  8
AM_0
 10
265.38398499816122
 20
204.55665470398921
 30
0.0
 11
290.384004998161
 21
204.55665470398921
 31
0.0
  0
LINE
  5
3159
  8
AM_0
 10
256.38398499816122
 20
223.55665670398909
 30
0.0
 11
279.46247499816121
 21
222.95231570398909
 31
0.0
  0
LINE
  5
315A
  8
AM_0
 10
256.38398499816122
 20
233.55665570398921
 30
0.0
 11
287.38400499816089
 21
233.55665570398921
 31
0.0
  0
LINE
  5
315B
  8
AM_0
 10
265.38398499816122
 20
214.55664170398919
 30
0.0
 11
265.38398499816122
 21
204.55665470398921
 31
0.0
  0
LINE
  5
315C
  8
0
 10
237.31418600475621
 20
222.3907106490864
 30
0.0
 11
256.38398499816122
 21
223.0566427039891
 31
0.0
  0
ARC
  5
315D
  8
AM_0
 10
267.38393499816112
 20
214.55664170398919
 30
0.0
 40
2.00000007
 50
90.000003000000945
 51
180.00001000000091
  0
LINE
  5
315E
  8
ﾁｭｳｼﾝｾﾝ1
 10
277.38398499816122
 20
221.10211070398901
 30
0.0
 11
277.38398499816122
 21
200.01119870398921
 31
0.0
  0
LINE
  5
315F
  8
ｶｸﾚｾﾝ2
 10
283.38398499816122
 20
216.5566547039891
 30
0.0
 11
283.38398499816122
 21
204.55665470398921
 31
0.0
  0
LINE
  5
3160
  8
ｶｸﾚｾﾝ2
 10
271.38398499816122
 20
216.5566547039891
 30
0.0
 11
271.38398499816122
 21
204.55665470398921
 31
0.0
  0
LINE
  5
3161
  8
AM_0
 10
290.384004998161
 20
204.55665470398921
 30
0.0
 11
290.384004998161
 21
204.55665470398921
 31
0.0
  0
ARC
  5
3162
  8
AM_0
 10
291.38393499816112
 20
204.55665470398921
 30
0.0
 40
1.0000000199999981
 50
90.000003000000945
 51
180.00001000000091
  0
LINE
  5
3163
  8
AM_0
 10
282.38393499816112
 20
230.34091370398929
 30
0.0
 11
287.38400499816089
 21
230.34091370398929
 31
0.0
  0
LINE
  5
3164
  8
AM_0
 10
286.33334499816141
 20
216.5566547039891
 30
0.0
 11
294.38393499816112
 21
216.5566547039891
 31
0.0
  0
ARC
  5
3165
  8
AM_0
 10
286.33334499816141
 20
221.55665570398909
 30
0.0
 40
5.0000001000000003
 50
270.0
 51
348.0238700000009
  0
LINE
  5
3166
  8
AM_0
 10
282.38393499816112
 20
228.3408977039891
 30
0.0
 11
282.38393499816112
 21
216.5566547039891
 31
0.0
  0
ARC
  5
3167
  8
AM_0
 10
279.38393499816112
 20
219.95333870398909
 30
0.0
 40
3.0
 50
0.0
 51
88.499997000000747
  0
ARC
  5
3168
  8
AM_0
 10
280.38398499816128
 20
228.3408977039891
 30
0.0
 40
2.00000007
 50
0.0
 51
90.000003000000945
  0
ARC
  5
3169
  8
AM_0
 10
294.38393499816112
 20
219.5566547039891
 30
0.0
 40
3.0
 50
270.0
 51
0.0
  0
LINE
  5
316A
  8
AM_0
 10
256.38398499816122
 20
247.61962970398909
 30
0.0
 11
287.38400499816089
 21
247.61962970398909
 31
0.0
  0
ARC
  5
316B
  8
AM_0
 10
292.38398499816122
 20
250.08111770398909
 30
0.0
 40
5.0000001000000003
 50
348.0238700000009
 51
0.0
  0
LINE
  5
316C
  8
AM_0
 10
330.38393499816112
 20
231.5974727039891
 30
0.0
 11
339.38393499816112
 21
231.5974727039891
 31
0.0
  0
LINE
  5
316D
  8
AM_0
 10
334.38395499816141
 20
204.55665470398921
 30
0.0
 11
359.38397499816108
 21
204.55665470398921
 31
0.0
  0
LINE
  5
316E
  8
AM_0
 10
335.38397499816102
 20
216.5566547039891
 30
0.0
 11
357.38393499816112
 21
216.5566547039891
 31
0.0
  0
LINE
  5
316F
  8
AM_0
 10
334.38395499816141
 20
204.55665470398921
 30
0.0
 11
334.38395499816141
 21
204.55665470398921
 31
0.0
  0
ARC
  5
3170
  8
AM_0
 10
333.38393499816112
 20
204.55665470398921
 30
0.0
 40
1.0000000199999981
 50
0.0
 51
90.000003000000945
  0
ARC
  5
3171
  8
AM_0
 10
335.38397499816102
 20
221.55665570398909
 30
0.0
 40
5.0000001000000003
 50
180.00001000000091
 51
270.0
  0
LINE
  5
3172
  8
AM_0
 10
359.38397499816108
 20
214.55664170398919
 30
0.0
 11
359.38397499816108
 21
204.55665470398921
 31
0.0
  0
LINE
  5
3173
  8
ﾁｭｳｼﾝｾﾝ1
 10
347.38397499816108
 20
221.1021107039891
 30
0.0
 11
347.38397499816108
 21
200.01119870398921
 31
0.0
  0
LINE
  5
3174
  8
ｶｸﾚｾﾝ2
 10
341.38397499816102
 20
216.5566547039891
 30
0.0
 11
341.38397499816102
 21
204.55665470398921
 31
0.0
  0
LINE
  5
3175
  8
ｶｸﾚｾﾝ2
 10
353.38397499816108
 20
216.5566547039891
 30
0.0
 11
353.38397499816108
 21
204.55665470398921
 31
0.0
  0
ARC
  5
3176
  8
AM_0
 10
339.38393499816112
 20
235.5974597039891
 30
0.0
 40
4.000000199999997
 50
270.0
 51
0.0
  0
ARC
  5
3177
  8
AM_0
 10
361.38395499816153
 20
220.30120970398909
 30
0.0
 40
5.0000001000000003
 50
179.9999899999988
 51
235.15011000000041
  0
ARC
  5
3178
  8
AM_0
 10
357.38393499816112
 20
214.55664170398919
 30
0.0
 40
2.00000007
 50
0.0
 51
90.000003000000945
  0
ARC
  5
3179
  8
AM_0
 10
357.38393499816112
 20
274.21133570398922
 30
0.0
 40
2.00000007
 50
300.00000000000051
 51
0.0
  0
ARC
  5
317A
  8
AM_0
 10
358.38395499816141
 20
270.16989170398909
 30
0.0
 40
2.00000007
 50
120.0000000000005
 51
180.00001000000091
  0
LINE
  5
317B
  8
AM_0
 10
357.38396499816122
 20
271.90194770398921
 30
0.0
 11
358.38395499816141
 21
272.47927970398922
 31
0.0
  0
LINE
  5
317C
  8
AM_0
 10
256.38398499816122
 20
325.5566417039891
 30
0.0
 11
235.3839849981612
 21
325.5566417039891
 31
0.0
  0
LINE
  5
317D
  8
AM_0
 10
256.38398499816122
 20
311.4940817039892
 30
0.0
 11
235.3839849981612
 21
311.4940817039892
 31
0.0
  0
ARC
  5
317E
  8
0
 10
237.3839849981612
 20
338.72135641292999
 30
0.0
 40
2.0
 50
180.0
 51
267.9999999999996
1001
GENIUS_GENOBJ-N-FIL_13
1002
{
1000
OWNER
1000
GEN
1002
}
1001
GENIUS_GENODEF_13
1002
{
1000
HIER
1070
     0
1002
}
1002
{
1000
MANEDIT
1070
     0
1002
}
1002
{
1000
NOSEL
1070
     0
1002
}
1002
{
1000
BEHIND
1070
     0
1002
}
1002
{
1000
OTHER
1070
     0
1002
}
1002
{
1000
REACTOR
1002
}
  0
LINE
  5
317F
  8
ﾁｭｳｼﾝｾﾝ1
 10
220.6348142515003
 20
279.55664270398893
 30
0.0
 11
290.28884283938112
 21
279.5566427039891
 31
0.0
  0
LINE
  5
3180
  8
0
 10
225.3839849981612
 20
359.5566427039891
 30
0.0
 11
233.3839849981612
 21
359.5566427039891
 31
0.0
  0
ARC
  5
3181
  8
0
 10
233.3839849981612
 20
357.5566427039891
 30
0.0
 40
2.0
 50
0.0
 51
90.0
1001
GENIUS_GENOBJ-N-FIL_13
1002
{
1000
OWNER
1000
GEN
1002
}
1001
GENIUS_GENODEF_13
1002
{
1000
HIER
1070
     0
1002
}
1002
{
1000
MANEDIT
1070
     0
1002
}
1002
{
1000
NOSEL
1070
     0
1002
}
1002
{
1000
BEHIND
1070
     0
1002
}
1002
{
1000
OTHER
1070
     0
1002
}
1002
{
1000
REACTOR
1002
}
  0
LINE
  5
3182
  8
AM_0
 10
297.38393499816112
 20
286.77292070398897
 30
0.0
 11
308.384004998161
 21
286.77292070398897
 31
0.0
  0
LINE
  5
3183
  8
AM_0
 10
294.3839949981608
 20
350.55665870398929
 30
0.0
 11
338.51486499816087
 21
349.40102870398903
 31
0.0
  0
LINE
  5
3184
  8
AM_0
 10
282.38393499816112
 20
329.22380870398911
 30
0.0
 11
282.38393499816112
 21
309.58469870398909
 31
0.0
  0
ARC
  5
3185
  8
AM_0
 10
285.38393499816118
 20
321.05099870398919
 30
0.0
 40
2.00000007
 50
0.0
 51
90.000003000000945
  0
LINE
  5
3186
  8
AM_0
 10
256.38398499816122
 20
311.49365870398918
 30
0.0
 11
282.38393499816112
 21
311.49365870398918
 31
0.0
  0
LINE
  5
3187
  8
AM_0
 10
282.38393499816112
 20
307.58468870398912
 30
0.0
 11
287.38400499816089
 21
307.58468870398912
 31
0.0
  0
ARC
  5
3188
  8
AM_0
 10
280.38398499816128
 20
309.58469870398909
 30
0.0
 40
2.00000007
 50
270.0
 51
0.0
  0
LINE
  5
3189
  8
AM_0
 10
256.38392499816081
 20
335.55665870398929
 30
0.0
 11
282.5148549981613
 21
336.24089870398922
 31
0.0
  0
LINE
  5
318A
  8
AM_0
 10
256.38398499816122
 20
325.55663870398922
 30
0.0
 11
282.38393499816112
 21
325.55663870398922
 31
0.0
  0
LINE
  5
318B
  8
0
 10
237.31418600475621
 20
336.72257475889182
 30
0.0
 11
256.38398499816122
 21
336.05664270398921
 31
0.0
  0
LINE
  5
318C
  8
AM_0
 10
287.38400499816089
 20
348.55664870398903
 30
0.0
 11
287.38400499816089
 21
333.22379870398919
 31
0.0
  0
ARC
  5
318D
  8
AM_0
 10
282.38393499816112
 20
341.23919870398908
 30
0.0
 40
5.0000001000000003
 50
271.49999999999932
 51
0.0
  0
ARC
  5
318E
  8
AM_0
 10
285.38393499816118
 20
333.22379870398919
 30
0.0
 40
2.00000007
 50
270.0
 51
0.0
  0
LINE
  5
318F
  8
AM_0
 10
284.384004998161
 20
331.22378870398921
 30
0.0
 11
285.38393499816118
 21
331.22378870398921
 31
0.0
  0
LINE
  5
3190
  8
AM_0
 10
284.384004998161
 20
323.05100870398928
 30
0.0
 11
285.38393499816118
 21
323.05100870398928
 31
0.0
  0
ARC
  5
3191
  8
AM_0
 10
284.384004998161
 20
329.22380870398911
 30
0.0
 40
2.00000007
 50
90.000003000000945
 51
180.00001000000091
  0
ARC
  5
3192
  8
AM_0
 10
284.384004998161
 20
325.05098870398922
 30
0.0
 40
2.00000007
 50
179.9999899999988
 51
270.0
  0
ARC
  5
3193
  8
AM_0
 10
289.38398499816122
 20
348.55664870398903
 30
0.0
 40
2.00000007
 50
90.000003000000945
 51
180.00001000000091
  0
LINE
  5
3194
  8
AM_0
 10
289.38398499816122
 20
350.55665870398929
 30
0.0
 11
294.38393499816112
 21
350.55665870398929
 31
0.0
  0
LINE
  5
3195
  8
AM_0
 10
310.38392499816081
 20
319.52708870398919
 30
0.0
 11
310.38392499816081
 21
329.07413870398921
 31
0.0
  0
LINE
  5
3196
  8
AM_0
 10
306.38393499816112
 20
331.07414870398918
 30
0.0
 11
306.38393499816112
 21
317.52713870398918
 31
0.0
  0
LINE
  5
3197
  8
AM_0
 10
305.384004998161
 20
336.08342870398928
 30
0.0
 11
305.384004998161
 21
313.1813987039892
 31
0.0
  0
ARC
  5
3198
  8
AM_0
 10
338.38397499816102
 20
309.34745870398922
 30
0.0
 40
8.0000000999999976
 50
90.000003000000945
 51
180.00001000000091
  0
LINE
  5
3199
  8
AM_0
 10
308.384004998161
 20
312.9053687039891
 30
0.0
 11
308.384004998161
 21
286.77292070398897
 31
0.0
  0
LINE
  5
319A
  8
AM_0
 10
321.21359499816123
 20
312.9053687039891
 30
0.0
 11
308.38394499816121
 21
286.77292070398897
 31
0.0
  0
LINE
  5
319B
  8
AM_0
 10
308.384004998161
 20
312.9053687039891
 30
0.0
 11
331.21868499816122
 21
312.9053687039891
 31
0.0
  0
ARC
  5
319C
  8
AM_0
 10
306.38393499816112
 20
310.1813987039892
 30
0.0
 40
2.00000007
 50
0.0
 51
90.000003000000945
  0
ARC
  5
319D
  8
AM_0
 10
309.38393499816112
 20
322.4138387039892
 30
0.0
 40
1.0000000199999981
 50
270.0
 51
0.0
  0
ARC
  5
319E
  8
AM_0
 10
309.38393499816112
 20
320.41388870398919
 30
0.0
 40
1.0000000199999981
 50
0.0
 51
90.000003000000945
  0
ARC
  5
319F
  8
AM_0
 10
309.38393499816112
 20
319.52708870398919
 30
0.0
 40
1.0000000199999981
 50
270.0
 51
0.0
  0
LINE
  5
31A0
  8
AM_0
 10
305.384004998161
 20
317.52713870398918
 30
0.0
 11
306.38393499816112
 21
317.52713870398918
 31
0.0
  0
ARC
  5
31A1
  8
AM_0
 10
306.38393499816112
 20
313.1813987039892
 30
0.0
 40
1.0000000199999981
 50
179.9999899999988
 51
270.0
  0
LINE
  5
31A2
  8
AM_0
 10
306.38393499816112
 20
318.52712870398921
 30
0.0
 11
309.38393499816112
 21
318.52712870398921
 31
0.0
  0
LINE
  5
31A3
  8
AM_0
 10
306.38393499816112
 20
321.41387870398921
 30
0.0
 11
309.38393499816112
 21
321.41387870398921
 31
0.0
  0
LINE
  5
31A4
  8
AM_0
 10
361.38392499816092
 20
312.05663870398922
 30
0.0
 11
361.38392499816092
 21
287.05664270398933
 31
0.0
  0
LINE
  5
31A5
  8
AM_0
 10
359.38397499816108
 20
287.05664270398933
 30
0.0
 11
361.38392499816092
 21
287.05664270398933
 31
0.0
  0
LINE
  5
31A6
  8
AM_0
 10
338.38397499816102
 20
317.34743870398921
 30
0.0
 11
343.38395499816141
 21
317.34743870398921
 31
0.0
  0
LINE
  5
31A7
  8
AM_0
 10
369.38393499816112
 20
314.55662870398908
 30
0.0
 11
369.38393499816112
 21
311.55662870398919
 31
0.0
  0
LINE
  5
31A8
  8
AM_0
 10
359.38397499816108
 20
312.05663870398922
 30
0.0
 11
361.38392499816092
 21
312.05663870398922
 31
0.0
  0
LINE
  5
31A9
  8
AM_0
 10
308.384004998161
 20
331.08410870398922
 30
0.0
 11
343.38395499816141
 21
331.08410870398922
 31
0.0
  0
LINE
  5
31AA
  8
AM_0
 10
308.384004998161
 20
350.11148870398921
 30
0.0
 11
308.384004998161
 21
331.08410870398922
 31
0.0
  0
LINE
  5
31AB
  8
AM_0
 10
308.38394499816121
 20
350.11148870398921
 30
0.0
 11
321.96590499816142
 21
331.08410870398922
 31
0.0
  0
ARC
  5
31AC
  8
AM_0
 10
309.38393499816112
 20
326.1873887039892
 30
0.0
 40
1.0000000199999981
 50
0.0
 51
90.000003000000945
  0
ARC
  5
31AD
  8
AM_0
 10
309.38393499816112
 20
328.18736870398919
 30
0.0
 40
1.0000000199999981
 50
270.0
 51
0.0
  0
ARC
  5
31AE
  8
AM_0
 10
309.38393499816112
 20
329.07413870398921
 30
0.0
 40
1.0000000199999981
 50
0.0
 51
90.000003000000945
  0
LINE
  5
31AF
  8
AM_0
 10
305.384004998161
 20
331.07414870398918
 30
0.0
 11
306.38393499816112
 21
331.07414870398918
 31
0.0
  0
LINE
  5
31B0
  8
AM_0
 10
306.38393499816112
 20
330.07415870398921
 30
0.0
 11
309.38393499816112
 21
330.07415870398921
 31
0.0
  0
LINE
  5
31B1
  8
AM_0
 10
306.38393499816112
 20
327.18737870398922
 30
0.0
 11
309.38393499816112
 21
327.18737870398922
 31
0.0
  0
ARC
  5
31B2
  8
AM_0
 10
306.38393499816112
 20
336.08342870398928
 30
0.0
 40
1.0000000199999981
 50
90.000003000000945
 51
180.00001000000091
  0
ARC
  5
31B3
  8
AM_0
 10
306.38393499816112
 20
339.08342870398928
 30
0.0
 40
2.00000007
 50
270.0
 51
0.0
  0
ARC
  5
31B4
  8
AM_0
 10
353.38397499816108
 20
329.8076387039892
 30
0.0
 40
3.0
 50
0.0
 51
84.999996999998572
  0
ARC
  5
31B5
  8
AM_0
 10
348.38393499816112
 20
338.27564870398919
 30
0.0
 40
5.0000001000000003
 50
179.9999899999988
 51
265.00000000000028
  0
LINE
  5
31B6
  8
AM_0
 10
347.94818499816108
 20
333.29468870398921
 30
0.0
 11
353.64545499816109
 21
332.79623870398922
 31
0.0
  0
ARC
  5
31B7
  8
AM_0
 10
357.38393499816112
 20
324.90194870398921
 30
0.0
 40
2.00000007
 50
0.0
 51
60.000002000001302
  0
ARC
  5
31B8
  8
AM_0
 10
358.38395499816141
 20
328.94339870398898
 30
0.0
 40
2.00000007
 50
179.9999899999988
 51
240.00000999999969
  0
LINE
  5
31B9
  8
AM_0
 10
357.38396499816122
 20
327.21134870398919
 30
0.0
 11
358.38398499816111
 21
326.63399870398922
 31
0.0
  0
ARC
  5
31BA
  8
AM_0
 10
338.38397499816102
 20
344.40275870398898
 30
0.0
 40
5.0000001000000003
 50
0.0
 51
88.499997000000747
  0
ARC
  5
31BB
  8
AM_0
 10
560.26942435688261
 20
279.5566427039891
 30
0.0
 40
80.0
 50
144.9466346353031
 51
201.44941814463871
  0
ARC
  5
31BC
  8
AM_0
 10
560.26942435688261
 20
279.5566427039891
 30
0.0
 40
80.0
 50
338.55058014174352
 51
35.053310348173703
  0
LINE
  5
31BD
  8
AM_0
 10
638.2694243568825
 20
216.5566547039891
 30
0.0
 11
627.50100835688283
 21
319.18682870398908
 31
0.0
  0
LINE
  5
31BE
  8
AM_0
 10
482.26941535688252
 20
216.5566547039891
 30
0.0
 11
493.03785535688229
 21
319.18682870398908
 31
0.0
  0
LINE
  5
31BF
  8
AM_0
 10
613.26942535688295
 20
314.80919870398918
 30
0.0
 11
613.26942535688295
 21
253.5566417039891
 31
0.0
  0
LINE
  5
31C0
  8
AM_0
 10
507.26946535688239
 20
314.80919870398918
 30
0.0
 11
507.26946535688239
 21
253.5566417039891
 31
0.0
  0
LINE
  5
31C1
  8
AM_0
 10
512.26941535688275
 20
284.55664370398921
 30
0.0
 11
512.26941535688275
 21
221.55665570398909
 31
0.0
  0
LINE
  5
31C2
  8
AM_0
 10
608.26942435688227
 20
284.55664370398921
 30
0.0
 11
608.26942435688227
 21
221.55665570398909
 31
0.0
  0
ARC
  5
31C3
  8
AM_0
 10
560.26942435688261
 20
299.55664370398921
 30
0.0
 40
26.500002599999998
 50
90.000003000000945
 51
270.0
  0
ARC
  5
31C4
  8
AM_0
 10
560.26942435688261
 20
284.55664370398921
 30
0.0
 40
48.0
 50
0.0
 51
180.00001000000091
  0
ARC
  5
31C5
  8
AM_0
 10
560.26942435688261
 20
299.55664370398921
 30
0.0
 40
26.500002599999998
 50
270.0
 51
90.000003000000945
  0
LINE
  5
31C6
  8
ﾁｭｳｼﾝｾﾝ1
 10
560.26942435688261
 20
364.5566427039891
 30
0.0
 11
560.26942435688261
 21
194.5566427039891
 31
0.0
  0
ARC
  5
31C7
  8
AM_0
 10
579.2694383568828
 20
253.5566417039891
 30
0.0
 40
34.000001999999988
 50
328.53301999999962
 51
0.0
  0
LINE
  5
31C8
  8
AM_0
 10
638.2694243568825
 20
204.55665470398921
 30
0.0
 11
608.26942435688227
 21
204.55665470398921
 31
0.0
  0
LINE
  5
31C9
  8
AM_0
 10
610.26942535688295
 20
216.5566547039891
 30
0.0
 11
636.26944135688245
 21
216.5566547039891
 31
0.0
  0
ARC
  5
31CA
  8
AM_0
 10
560.26942435688261
 20
279.5566427039891
 30
0.0
 40
80.0
 50
247.6683003289524
 51
292.3316996710476
  0
LINE
  5
31CB
  8
AM_0
 10
607.26942535688306
 20
205.55667170398931
 30
0.0
 11
513.26946535688251
 21
205.55667170398931
 31
0.0
  0
LINE
  5
31CC
  8
AM_0
 10
526.26942235688284
 20
221.55665570398909
 30
0.0
 11
594.26943835688246
 21
221.55665570398909
 31
0.0
  0
ARC
  5
31CD
  8
AM_0
 10
541.26942235688284
 20
253.5566417039891
 30
0.0
 40
34.000001999999988
 50
179.9999899999988
 51
211.46696999999941
  0
ARC
  5
31CE
  8
AM_0
 10
507.26946535688239
 20
221.55665570398909
 30
0.0
 40
5.0000001000000003
 50
270.0
 51
0.0
  0
ARC
  5
31CF
  8
AM_0
 10
513.26946535688251
 20
204.55665470398921
 30
0.0
 40
1.0000000199999981
 50
90.000003000000945
 51
180.00001000000091
  0
ARC
  5
31D0
  8
AM_0
 10
514.26942235688284
 20
205.55667170398931
 30
0.0
 40
2.00000007
 50
90.000003000000945
 51
180.00001000000091
  0
LINE
  5
31D1
  8
AM_0
 10
482.26941535688252
 20
204.55665470398921
 30
0.0
 11
482.26941535688252
 21
216.5566547039891
 31
0.0
  0
LINE
  5
31D2
  8
AM_0
 10
512.26941535688275
 20
204.55665470398921
 30
0.0
 11
512.26941535688275
 21
214.55667170398911
 31
0.0
  0
LINE
  5
31D3
  8
ﾁｭｳｼﾝｾﾝ1
 10
495.26943535688252
 20
221.1021107039891
 30
0.0
 11
495.26943535688252
 21
200.01119870398921
 31
0.0
  0
LINE
  5
31D4
  8
ｶｸﾚｾﾝ2
 10
489.26946535688239
 20
216.5566547039891
 30
0.0
 11
489.26946535688239
 21
204.55665470398921
 31
0.0
  0
LINE
  5
31D5
  8
ｶｸﾚｾﾝ2
 10
501.26946535688239
 20
216.5566547039891
 30
0.0
 11
501.26946535688239
 21
204.55665470398921
 31
0.0
  0
LINE
  5
31D6
  8
AM_0
 10
482.26941535688252
 20
204.55665470398921
 30
0.0
 11
512.26941535688275
 21
204.55665470398921
 31
0.0
  0
LINE
  5
31D7
  8
AM_0
 10
510.26946535688239
 20
216.5566547039891
 30
0.0
 11
484.26942535688232
 21
216.5566547039891
 31
0.0
  0
ARC
  5
31D8
  8
AM_0
 10
484.26942535688232
 20
214.55667170398911
 30
0.0
 40
2.00000007
 50
90.000003000000945
 51
180.00001000000091
  0
ARC
  5
31D9
  8
AM_0
 10
510.26946535688239
 20
214.55667170398911
 30
0.0
 40
2.00000007
 50
0.0
 51
90.000003000000945
  0
LINE
  5
31DA
  8
AM_0
 10
537.47618035688265
 20
209.44210670398911
 30
0.0
 11
536.72257735688277
 21
215.16621470398911
 31
0.0
  0
LINE
  5
31DB
  8
AM_0
 10
531.3885623568824
 20
217.37562470398919
 30
0.0
 11
526.8081473568825
 21
213.86093270398911
 31
0.0
  0
LINE
  5
31DC
  8
AM_0
 10
521.26942135688228
 20
216.5566547039891
 30
0.0
 11
521.26942135688228
 21
210.5566547039891
 31
0.0
  0
CIRCLE
  5
31DD
  8
AM_0
 10
532.14213235688248
 20
211.65151970398909
 30
0.0
 40
4.9999998000000003
  0
LINE
  5
31DE
  8
AM_0
 10
527.5617503568825
 20
208.13680970398909
 30
0.0
 11
532.89576535688275
 21
205.92738170398911
 31
0.0
  0
ARC
  5
31DF
  8
AM_0
 10
518.2694213568825
 20
210.5566547039891
 30
0.0
 40
3.0
 50
270.0
 51
0.0
  0
LINE
  5
31E0
  8
AM_0
 10
518.2694213568825
 20
207.5566547039891
 30
0.0
 11
514.26942235688284
 21
207.5566547039891
 31
0.0
  0
LINE
  5
31E1
  8
AM_0
 10
526.80811735688235
 20
213.86094770398901
 30
0.0
 11
527.56172035688257
 21
208.1368397039891
 31
0.0
  0
LINE
  5
31E2
  8
AM_0
 10
532.89573535688226
 20
205.92741470398909
 30
0.0
 11
537.47618035688265
 21
209.44209170398909
 31
0.0
  0
ARC
  5
31E3
  8
AM_0
 10
526.26942235688284
 20
216.5566547039891
 30
0.0
 40
5.0000001000000003
 50
90.000003000000945
 51
180.00001000000091
  0
LINE
  5
31E4
  8
AM_0
 10
536.72260735688258
 20
215.1661847039891
 30
0.0
 11
531.38859235688255
 21
217.37560970398911
 31
0.0
  0
LINE
  5
31E5
  8
AM_0
 10
608.26942435688227
 20
204.55665470398921
 30
0.0
 11
608.26942435688227
 21
214.55667170398911
 31
0.0
  0
LINE
  5
31E6
  8
AM_0
 10
583.81625335688295
 20
215.16619970398909
 30
0.0
 11
583.06266835688245
 21
209.44209170398909
 31
0.0
  0
LINE
  5
31E7
  8
AM_0
 10
593.73072835688242
 20
213.86091470398921
 30
0.0
 11
589.15029835688279
 21
217.37560970398911
 31
0.0
  0
LINE
  5
31E8
  8
AM_0
 10
599.26942435688227
 20
216.5566547039891
 30
0.0
 11
599.26942435688227
 21
210.5566547039891
 31
0.0
  0
CIRCLE
  5
31E9
  8
AM_0
 10
588.39666535688275
 20
211.65151970398909
 30
0.0
 40
4.9999998000000003
  0
LINE
  5
31EA
  8
AM_0
 10
587.64311035688252
 20
205.92741470398909
 30
0.0
 11
592.9771403568825
 21
208.1368397039891
 31
0.0
  0
LINE
  5
31EB
  8
AM_0
 10
583.06268335688253
 20
209.4420767039891
 30
0.0
 11
587.64311035688252
 21
205.9273997039891
 31
0.0
  0
LINE
  5
31EC
  8
AM_0
 10
592.97711035688235
 20
208.13682470398911
 30
0.0
 11
593.73071335688246
 21
213.86093270398911
 31
0.0
  0
LINE
  5
31ED
  8
AM_0
 10
606.26943835688246
 20
207.5566547039891
 30
0.0
 11
602.2694243568825
 21
207.5566547039891
 31
0.0
  0
ARC
  5
31EE
  8
AM_0
 10
602.2694243568825
 20
210.5566547039891
 30
0.0
 40
3.0
 50
179.9999899999988
 51
270.0
  0
ARC
  5
31EF
  8
AM_0
 10
607.26942535688306
 20
204.55665470398921
 30
0.0
 40
1.0000000199999981
 50
0.0
 51
90.000003000000945
  0
ARC
  5
31F0
  8
AM_0
 10
606.26943835688246
 20
205.55667170398931
 30
0.0
 40
2.00000007
 50
0.0
 51
90.000003000000945
  0
ARC
  5
31F1
  8
AM_0
 10
594.26943835688246
 20
216.5566547039891
 30
0.0
 40
5.0000001000000003
 50
0.0
 51
90.000003000000945
  0
LINE
  5
31F2
  8
AM_0
 10
589.15031335688252
 20
217.37562470398919
 30
0.0
 11
583.81628335688265
 21
215.16619970398909
 31
0.0
  0
ARC
  5
31F3
  8
AM_0
 10
610.26942535688295
 20
214.55667170398911
 30
0.0
 40
2.00000007
 50
90.000003000000945
 51
180.00001000000091
  0
ARC
  5
31F4
  8
AM_0
 10
613.26942535688295
 20
221.55665570398909
 30
0.0
 40
5.0000001000000003
 50
179.9999899999988
 51
270.0
  0
LINE
  5
31F5
  8
AM_0
 10
638.2694243568825
 20
204.55665470398921
 30
0.0
 11
638.2694243568825
 21
216.5566547039891
 31
0.0
  0
LINE
  5
31F6
  8
ﾁｭｳｼﾝｾﾝ1
 10
625.2694403568828
 20
221.1021107039891
 30
0.0
 11
625.2694403568828
 21
200.01119870398921
 31
0.0
  0
LINE
  5
31F7
  8
ｶｸﾚｾﾝ2
 10
619.26942535688306
 20
216.5566547039891
 30
0.0
 11
619.26942535688306
 21
204.55665470398921
 31
0.0
  0
LINE
  5
31F8
  8
ｶｸﾚｾﾝ2
 10
631.26944035688246
 20
216.5566547039891
 30
0.0
 11
631.26944035688246
 21
204.55665470398921
 31
0.0
  0
ARC
  5
31F9
  8
AM_0
 10
636.26944135688245
 20
214.55667170398911
 30
0.0
 40
2.00000007
 50
0.0
 51
90.000003000000945
  0
ARC
  5
31FA
  8
AM_0
 10
560.26942435688261
 20
279.5566427039891
 30
0.0
 40
80.0
 50
41.778364608222901
 51
138.22167273140781
  0
ARC
  5
31FB
  8
AM_0
 10
560.26942435688261
 20
240.55665770398909
 30
0.0
 40
110.000004
 50
58.263836000000381
 51
121.7361699999997
  0
ARC
  5
31FC
  8
AM_0
 10
622.5476993568825
 20
327.3443987039891
 30
0.0
 40
13.9999986
 50
154.93703999999951
 51
273.19937000000061
  0
LINE
  5
31FD
  8
AM_0
 10
614.00047435688225
 20
327.81524870398908
 30
0.0
 11
613.24687135688282
 21
322.09112870398923
 31
0.0
  0
ARC
  5
31FE
  8
AM_0
 10
608.26942435688227
 20
314.80919870398918
 30
0.0
 40
5.0000001000000003
 50
0.0
 51
41.280591000000527
  0
LINE
  5
31FF
  8
AM_0
 10
613.24690135688274
 20
322.09112870398923
 30
0.0
 11
617.8273313568825
 21
318.57644870398912
 31
0.0
  0
LINE
  5
3200
  8
ﾁｭｳｼﾝｾﾝ1
 10
645.26942435688227
 20
279.5566427039891
 30
0.0
 11
475.26942435688233
 21
279.5566427039891
 31
0.0
  0
LINE
  5
3201
  8
AM_0
 10
401.38397499816091
 20
314.55662870398908
 30
0.0
 11
401.38397499816091
 21
287.55664370398921
 31
0.0
  0
ARC
  5
3202
  8
AM_0
 10
560.26942435688261
 20
279.5566427039891
 30
0.0
 40
71.000000999999983
 50
47.99935899999911
 51
132.00064999999921
  0
LINE
  5
3203
  8
ﾁｭｳｼﾝｾﾝ1
 10
523.10084335688282
 20
299.55664370398921
 30
0.0
 11
595.9667513568827
 21
299.55664370398921
 31
0.0
  0
LINE
  5
3204
  8
AM_0
 10
507.29199535688258
 20
322.09121870398923
 30
0.0
 11
506.5383953568824
 21
327.8153387039892
 31
0.0
  0
LINE
  5
3205
  8
AM_0
 10
496.62396535688271
 20
326.51006870398908
 30
0.0
 11
497.37753535688279
 21
320.78594870398911
 31
0.0
  0
CIRCLE
  5
3206
  8
AM_0
 10
501.95796535688248
 20
324.30062870398928
 30
0.0
 40
4.9999998000000003
  0
ARC
  5
3207
  8
AM_0
 10
497.99115535688242
 20
327.3443987039891
 30
0.0
 40
13.9999986
 50
266.80063999999902
 51
25.06296900000175
  0
ARC
  5
3208
  8
AM_0
 10
512.92866535688245
 20
317.09978870398919
 30
0.0
 40
20.000000700000001
 50
121.7361699999997
 51
174.01019000000011
  0
ARC
  5
3209
  8
AM_0
 10
560.26942435688261
 20
279.5566427039891
 30
0.0
 40
71.000000999999983
 50
152.9994200000007
 51
174.01019000000011
  0
ARC
  5
320A
  8
AM_0
 10
496.93077535688229
 20
308.3739887039892
 30
0.0
 40
5.0000001000000003
 50
86.800638999999066
 51
174.01019000000011
  0
LINE
  5
320B
  8
AM_0
 10
502.71159535688253
 20
318.57653870398912
 30
0.0
 11
507.29199535688258
 21
322.09124870398921
 31
0.0
  0
LINE
  5
320C
  8
AM_0
 10
497.37753535688279
 20
320.78594870398911
 30
0.0
 11
502.71156535688272
 21
318.57650870398919
 31
0.0
  0
ARC
  5
320D
  8
AM_0
 10
499.68129535688257
 20
310.42862870398909
 30
0.0
 40
3.0
 50
95.70573799999886
 51
152.9994200000007
  0
ARC
  5
320E
  8
AM_0
 10
512.26941535688275
 20
314.80919870398918
 30
0.0
 40
5.0000001000000003
 50
138.71941000000001
 51
180.00001000000091
  0
ARC
  5
320F
  8
AM_0
 10
515.20219135688285
 20
335.39306870398912
 30
0.0
 40
5.0000001000000003
 50
115.4175600000008
 51
205.0629700000004
  0
LINE
  5
3210
  8
AM_0
 10
506.5383953568824
 20
327.81530870398888
 30
0.0
 11
501.20439535688251
 21
330.02474870398919
 31
0.0
  0
LINE
  5
3211
  8
AM_0
 10
501.20442535688272
 20
330.02474870398919
 30
0.0
 11
496.62396535688271
 21
326.51006870398908
 31
0.0
  0
ARC
  5
3212
  8
AM_0
 10
514.7679863568826
 20
330.08999870398912
 30
0.0
 40
3.0
 50
132.00064999999921
 51
189.2943400000016
  0
CIRCLE
  5
3213
  8
AM_0
 62
     2
 10
560.26942435688261
 20
299.55664370398921
 30
0.0
 40
4.000000199999997
  0
CIRCLE
  5
3214
  8
AM_0
 10
560.26942435688261
 20
299.55664370398921
 30
0.0
 40
3.0
  0
ARC
  5
3215
  8
AM_0
 10
560.26942435688261
 20
299.55664370398921
 30
0.0
 40
12.00000029999998
 50
109.47121999999951
 51
70.528788999999293
  0
LINE
  5
3216
  8
AM_0
 10
556.26942235688284
 20
314.55662870398908
 30
0.0
 11
564.26940835688265
 21
314.55662870398908
 31
0.0
  0
LINE
  5
3217
  8
AM_0
 10
556.26942235688284
 20
307.55663870398922
 30
0.0
 11
564.26940835688265
 21
307.55663870398922
 31
0.0
  0
LINE
  5
3218
  8
AM_0
 10
556.26942235688284
 20
314.55662870398908
 30
0.0
 11
556.26942235688284
 21
307.55663870398922
 31
0.0
  0
LINE
  5
3219
  8
AM_0
 10
564.26940835688265
 20
314.55662870398908
 30
0.0
 11
564.26940835688265
 21
307.55663870398922
 31
0.0
  0
ARC
  5
321A
  8
AM_0
 10
605.33666935688245
 20
335.39306870398912
 30
0.0
 40
5.0000001000000003
 50
334.93702999999948
 51
64.582444000001303
  0
ARC
  5
321B
  8
AM_0
 10
605.77088935688244
 20
330.08999870398912
 30
0.0
 40
3.0
 50
350.70567000000091
 51
47.99935899999911
  0
LINE
  5
321C
  8
AM_0
 10
623.91488635688245
 20
326.51003870398921
 30
0.0
 11
623.16130135688252
 21
320.78594870398911
 31
0.0
  0
CIRCLE
  5
321D
  8
AM_0
 10
618.5809013568828
 20
324.3005687039892
 30
0.0
 40
4.9999998000000003
  0
ARC
  5
321E
  8
AM_0
 10
607.61019835688251
 20
317.09978870398919
 30
0.0
 40
20.000000700000001
 50
5.9898155000000548
 51
58.263836000000381
  0
ARC
  5
321F
  8
AM_0
 10
560.26942435688261
 20
279.5566427039891
 30
0.0
 40
71.000000999999983
 50
5.989814199999338
 51
27.0005730000006
  0
ARC
  5
3220
  8
AM_0
 10
623.60809435688248
 20
308.3739887039892
 30
0.0
 40
5.0000001000000003
 50
5.9898155000000548
 51
93.199359000001024
  0
LINE
  5
3221
  8
AM_0
 10
617.8273313568825
 20
318.57647870398893
 30
0.0
 11
623.16136135688248
 21
320.7858887039892
 31
0.0
  0
ARC
  5
3222
  8
AM_0
 10
620.85755935688235
 20
310.42862870398909
 30
0.0
 40
3.0
 50
27.0005730000006
 51
84.294260999999054
  0
LINE
  5
3223
  8
AM_0
 10
623.91494935688274
 20
326.5099787039893
 30
0.0
 11
619.33451935688231
 21
330.0246587039893
 31
0.0
  0
LINE
  5
3224
  8
AM_0
 10
619.33451935688231
 20
330.02468870398928
 30
0.0
 11
614.00048935688244
 21
327.81527870398912
 31
0.0
  0
LINE
  5
3226
  8
0
 10
235.3839849981612
 20
577.47806054327975
 30
0.0
 11
235.3839849981612
 21
421.4780605432797
 31
0.0
1001
GENIUS_GENOREF_13
1005
2F83
  0
LINE
  5
3227
  8
0
 10
225.3839849981612
 20
419.47806054327958
 30
0.0
 11
225.3839849981612
 21
579.47806054327975
 31
0.0
1001
GENIUS_GENOREF_13
1005
2F83
  0
LINE
  5
3228
  8
0
 10
225.3839849981612
 20
419.47806054327958
 30
0.0
 11
233.3839849981612
 21
419.47806054327958
 31
0.0
  0
ARC
  5
3229
  8
0
 10
237.3839849981612
 20
440.3133468343388
 30
0.0
 40
2.0
 50
92.000000000000341
 51
180.0
1001
GENIUS_GENOBJ-N-FIL_13
1002
{
1000
OWNER
1000
GEN
1002
}
1001
GENIUS_GENODEF_13
1002
{
1000
HIER
1070
     0
1002
}
1002
{
1000
MANEDIT
1070
     0
1002
}
1002
{
1000
NOSEL
1070
     0
1002
}
1002
{
1000
BEHIND
1070
     0
1002
}
1002
{
1000
OTHER
1070
     0
1002
}
1002
{
1000
REACTOR
1002
}
  0
ARC
  5
322A
  8
0
 10
233.3839849981612
 20
421.4780605432797
 30
0.0
 40
2.0
 50
270.0
 51
0.0
1001
GENIUS_GENOBJ-N-FIL_13
1002
{
1000
OWNER
1000
GEN
1002
}
1001
GENIUS_GENODEF_13
1002
{
1000
HIER
1070
     0
1002
}
1002
{
1000
MANEDIT
1070
     0
1002
}
1002
{
1000
NOSEL
1070
     0
1002
}
1002
{
1000
BEHIND
1070
     0
1002
}
1002
{
1000
OTHER
1070
     0
1002
}
1002
{
1000
REACTOR
1002
}
  0
LINE
  5
322B
  8
AM_0
 10
256.38398499816122
 20
453.47804354327968
 30
0.0
 11
235.3839849981612
 21
453.47804354327968
 31
0.0
  0
LINE
  5
322C
  8
0
 10
237.31418600475621
 20
442.31212848837691
 30
0.0
 11
256.38398499816122
 21
442.9780605432797
 31
0.0
  0
LINE
  5
322D
  8
AM_0
 10
256.38398499816122
 20
467.54061854327972
 30
0.0
 11
235.3839849981612
 21
467.54061854327972
 31
0.0
  0
LINE
  5
322E
  8
0
 10
225.3839849981612
 20
579.47806054327975
 30
0.0
 11
233.3839849981612
 21
579.47806054327975
 31
0.0
  0
LINE
  5
322F
  8
AM_0
 10
256.38398499816122
 20
545.47805954327976
 30
0.0
 11
235.3839849981612
 21
545.47805954327976
 31
0.0
  0
LINE
  5
3230
  8
AM_0
 10
256.38398499816122
 20
531.41549954327957
 30
0.0
 11
235.3839849981612
 21
531.41549954327957
 31
0.0
  0
LINE
  5
3231
  8
0
 10
237.31418600475621
 20
556.64399259818242
 30
0.0
 11
256.38398499816122
 21
555.97806054327975
 31
0.0
  0
ARC
  5
3232
  8
0
 10
237.3839849981612
 20
558.64277425222065
 30
0.0
 40
2.0
 50
180.0
 51
267.9999999999996
1001
GENIUS_GENOBJ-N-FIL_13
1002
{
1000
OWNER
1000
GEN
1002
}
1001
GENIUS_GENODEF_13
1002
{
1000
HIER
1070
     0
1002
}
1002
{
1000
MANEDIT
1070
     0
1002
}
1002
{
1000
NOSEL
1070
     0
1002
}
1002
{
1000
BEHIND
1070
     0
1002
}
1002
{
1000
OTHER
1070
     0
1002
}
1002
{
1000
REACTOR
1002
}
  0
ARC
  5
3233
  8
0
 10
233.3839849981612
 20
577.47806054327975
 30
0.0
 40
2.0
 50
0.0
 51
90.0
1001
GENIUS_GENOBJ-N-FIL_13
1002
{
1000
OWNER
1000
GEN
1002
}
1001
GENIUS_GENODEF_13
1002
{
1000
HIER
1070
     0
1002
}
1002
{
1000
MANEDIT
1070
     0
1002
}
1002
{
1000
NOSEL
1070
     0
1002
}
1002
{
1000
BEHIND
1070
     0
1002
}
1002
{
1000
OTHER
1070
     0
1002
}
1002
{
1000
REACTOR
1002
}
  0
TEXT
  5
3410
  8
AM_0
 10
462.92613555679179
 20
524.62227711770288
 30
0.0
 40
10.0
  1
VX01-060A~VX01-200A
  0
ENDSEC
  0
EOF
