  0
SECTION
  2
HEADER
  9
$ACADVER
  1
AC1009
  9
$INSBASE
 10
0.0
 20
0.0
 30
0.0
  9
$EXTMIN
 10
190.05013495992191
 20
179.24940884999859
 30
-0.0000000349181948
  9
$EXTMAX
 10
706.49212828091368
 20
626.89128047935515
 30
0.0000000814935747
  9
$LIMMIN
 10
0.0
 20
0.0
  9
$LIMMAX
 10
853.5
 20
555.00000000000011
  9
$ORTHOMODE
 70
     0
  9
$REGENMODE
 70
     1
  9
$FILLMODE
 70
     1
  9
$QTEXTMODE
 70
     0
  9
$MIRRTEXT
 70
     1
  9
$DRAGMODE
 70
     2
  9
$LTSCALE
 40
3.0
  9
$OSMODE
 70
   551
  9
$ATTMODE
 70
     1
  9
$TEXTSIZE
 40
2.5
  9
$TRACEWID
 40
1.0
  9
$TEXTSTYLE
  7
STANDARD
  9
$CLAYER
  8
AM_0
  9
$CELTYPE
  6
BYLAYER
  9
$CECOLOR
 62
   256
  9
$DIMSCALE
 40
1.0
  9
$DIMASZ
 40
2.5
  9
$DIMEXO
 40
1.0
  9
$DIMDLI
 40
8.0
  9
$DIMRND
 40
0.0
  9
$DIMDLE
 40
0.0
  9
$DIMEXE
 40
0.6
  9
$DIMTP
 40
0.1
  9
$DIMTM
 40
0.1
  9
$DIMTXT
 40
2.5
  9
$DIMCEN
 40
0.0
  9
$DIMTSZ
 40
0.0
  9
$DIMTOL
 70
     0
  9
$DIMLIM
 70
     0
  9
$DIMTIH
 70
     0
  9
$DIMTOH
 70
     0
  9
$DIMSE1
 70
     0
  9
$DIMSE2
 70
     0
  9
$DIMTAD
 70
     1
  9
$DIMZIN
 70
     8
  9
$DIMBLK
  1

  9
$DIMASO
 70
     1
  9
$DIMSHO
 70
     1
  9
$DIMPOST
  1

  9
$DIMAPOST
  1
"
  9
$DIMALT
 70
     0
  9
$DIMALTD
 70
     2
  9
$DIMALTF
 40
0.0393701
  9
$DIMLFAC
 40
1.0
  9
$DIMTOFL
 70
     1
  9
$DIMTVP
 40
0.0
  9
$DIMTIX
 70
     0
  9
$DIMSOXD
 70
     0
  9
$DIMSAH
 70
     0
  9
$DIMBLK1
  1

  9
$DIMBLK2
  1

  9
$DIMSTYLE
  2
AM_ISO
  9
$DIMCLRD
 70
   256
  9
$DIMCLRE
 70
   256
  9
$DIMCLRT
 70
     4
  9
$DIMTFAC
 40
0.71
  9
$DIMGAP
 40
0.8
  9
$LUNITS
 70
     2
  9
$LUPREC
 70
     2
  9
$SKETCHINC
 40
1.0
  9
$FILLETRAD
 40
15.0
  9
$AUNITS
 70
     0
  9
$AUPREC
 70
     0
  9
$MENU
  1
.
  9
$ELEVATION
 40
0.0
  9
$PELEVATION
 40
0.0
  9
$THICKNESS
 40
0.0
  9
$LIMCHECK
 70
     0
  9
$BLIPMODE
 70
     0
  9
$CHAMFERA
 40
6.0
  9
$CHAMFERB
 40
3.0
  9
$SKPOLY
 70
     0
  9
$TDCREATE
 40
2452065.6260002428
  9
$TDUPDATE
 40
2458541.46470206
  9
$TDINDWG
 40
0.1042772454
  9
$TDUSRTIMER
 40
0.1042772338
  9
$USRTIMER
 70
     1
  9
$ANGBASE
 50
0.0
  9
$ANGDIR
 70
     0
  9
$PDMODE
 70
     0
  9
$PDSIZE
 40
0.0
  9
$PLINEWID
 40
0.0
  9
$COORDS
 70
     1
  9
$SPLFRAME
 70
     0
  9
$SPLINETYPE
 70
     6
  9
$SPLINESEGS
 70
     8
  9
$ATTDIA
 70
     1
  9
$ATTREQ
 70
     1
  9
$HANDLING
 70
     1
  9
$HANDSEED
  5
34B8
  9
$SURFTAB1
 70
     6
  9
$SURFTAB2
 70
     6
  9
$SURFTYPE
 70
     6
  9
$SURFU
 70
     6
  9
$SURFV
 70
     6
  9
$UCSNAME
  2

  9
$UCSORG
 10
0.0
 20
0.0
 30
0.0
  9
$UCSXDIR
 10
1.0
 20
0.0
 30
0.0
  9
$UCSYDIR
 10
0.0
 20
1.0
 30
0.0
  9
$PUCSNAME
  2

  9
$PUCSORG
 10
0.0
 20
0.0
 30
0.0
  9
$PUCSXDIR
 10
1.0
 20
0.0
 30
0.0
  9
$PUCSYDIR
 10
0.0
 20
1.0
 30
0.0
  9
$USERI1
 70
     0
  9
$USERI2
 70
     0
  9
$USERI3
 70
     0
  9
$USERI4
 70
     0
  9
$USERI5
 70
     0
  9
$USERR1
 40
0.0
  9
$USERR2
 40
0.0
  9
$USERR3
 40
0.0
  9
$USERR4
 40
0.0
  9
$USERR5
 40
0.0
  9
$WORLDVIEW
 70
     1
  9
$SHADEDGE
 70
     3
  9
$SHADEDIF
 70
    70
  9
$TILEMODE
 70
     1
  9
$MAXACTVP
 70
    64
  9
$PLIMCHECK
 70
     0
  9
$PEXTMIN
 10
1.0000000000000000E+020
 20
1.0000000000000000E+020
 30
1.0000000000000000E+020
  9
$PEXTMAX
 10
-1.0000000000000000E+020
 20
-1.0000000000000000E+020
 30
-1.0000000000000000E+020
  9
$PLIMMIN
 10
0.0
 20
0.0
  9
$PLIMMAX
 10
420.0
 20
297.0
  9
$UNITMODE
 70
     0
  9
$VISRETAIN
 70
     1
  9
$PLINEGEN
 70
     0
  9
$PSLTSCALE
 70
     1
  0
ENDSEC
  0
SECTION
  2
TABLES
  0
TABLE
  2
VPORT
 70
     1
  0
VPORT
  2
*ACTIVE
 70
     0
 10
0.0
 20
0.0
 11
1.0
 21
1.0
 12
448.27113162041758
 22
403.0703446646769
 13
0.0
 23
0.0
 14
7.5
 24
7.5
 15
30.0
 25
30.0
 16
0.0
 26
0.0
 36
1.0
 17
0.0
 27
0.0
 37
0.0
 40
450.71492795633139
 41
1.7571592210767459
 42
50.0
 43
0.0
 44
0.0
 50
0.0
 51
0.0
 71
     0
 72
   100
 73
     1
 74
     3
 75
     0
 76
     0
 77
     0
 78
     0
  0
ENDTAB
  0
TABLE
  2
LTYPE
 70
    26
  0
LTYPE
  2
CONTINUOUS
 70
     0
  3
Solid line
 72
    65
 73
     0
 40
0.0
  0
LTYPE
  2
AM_ISO02W050
 70
     0
  3
__ __ __ __ __ __ __ __ __ __ __ __ __ __ __
 72
    65
 73
     2
 40
7.5
 49
6.0
 49
-1.5
  0
LTYPE
  2
AM_ISO08W050
 70
     0
  3
____ . ____ . ____ . ____ . ____ . ____ . ____
 72
    65
 73
     4
 40
18.0
 49
12.0
 49
-1.5
 49
3.0
 49
-1.5
  0
LTYPE
  2
AM_ISO09W050
 70
     0
  3
_____ . . _____ . . _____ . . ____ .. ____
 72
    65
 73
     6
 40
22.5
 49
12.0
 49
-1.5
 49
3.0
 49
-1.5
 49
3.0
 49
-1.5
  0
LTYPE
  2
AMCONSTR
 70
     0
  3
_______________________
 72
    65
 73
     2
 40
9999.0
 49
9999.0
 49
0.0
  0
LTYPE
  2
AM_ISO08W050X2
 70
     0
  3
__ . __ . __ . __ . __ . __
 72
    65
 73
     4
 40
9.0
 49
6.0
 49
-0.75
 49
1.5
 49
-0.75
  0
LTYPE
  2
AM_ISO02W050X2
 70
     0
  3
 _ _ _ _ _ _ _ _ _ _ _ _
 72
    65
 73
     2
 40
3.75
 49
3.0
 49
-0.75
  0
LTYPE
  2
AMZIGZAG
 70
     0
  3
/\/-/\/-/\/-/\/-/\/-/\/
 72
    65
 73
     2
 40
11.000099999999991
 49
0.0001
 49
-11.0
  0
LTYPE
  2
ACISOWELD
 70
     0
  3
_ _ _ _ _
 72
    65
 73
     2
 40
2.0
 49
2.0
 49
-1.0
  0
LTYPE
  2
ACISOTGB
 70
     0
  3
__ . . __ . .
 72
    65
 73
     6
 40
9.0
 49
4.0
 49
-1.0
 49
1.0
 49
-1.0
 49
1.0
 49
-1.0
  0
LTYPE
  2
ACISOTGL
 70
     0
  3
_ _ _ _ _
 72
    65
 73
     2
 40
3.0
 49
2.0
 49
-1.0
  0
LTYPE
  2
CENTER
 70
     0
  3
__ . __
 72
    65
 73
     4
 40
7.0
 49
4.0
 49
-1.0
 49
1.0
 49
-1.0
  0
LTYPE
  2
PHANTOM2
 70
     0
  3
Phantom (.5x) ___ _ _ ___ _ _ ___ _ _ ___ _ _
 72
    65
 73
     6
 40
31.75
 49
15.875
 49
-3.174999999999998
 49
3.174999999999998
 49
-3.174999999999998
 49
3.174999999999998
 49
-3.174999999999998
  0
LTYPE
  2
ACANSTGBM
 70
     0
  3
__ . . __ . .
 72
    65
 73
     6
 40
9.0
 49
4.0
 49
-1.0
 49
1.0
 49
-1.0
 49
1.0
 49
-1.0
  0
LTYPE
  2
ACANSTGLM
 70
     0
  3
_ _ _ _ _
 72
    65
 73
     2
 40
3.0
 49
2.0
 49
-1.0
  0
LTYPE
  2
GEN3B
 70
     0
  3
 - - - - -
 72
    65
 73
     2
 40
1.0
 49
0.5
 49
-0.5
  0
LTYPE
  2
GEN7A
 70
     0
  3
__ . __ . __
 72
    65
 73
     4
 40
7.375
 49
4.75
 49
-0.875
 49
0.875
 49
-0.875
  0
LTYPE
  2
ACJISTGB
 70
     0
  3
__ . . __ . .
 72
    65
 73
     6
 40
9.0
 49
4.0
 49
-1.0
 49
1.0
 49
-1.0
 49
1.0
 49
-1.0
  0
LTYPE
  2
ACJISTGL
 70
     0
  3
_ _ _ _ _
 72
    65
 73
     2
 40
3.0
 49
2.0
 49
-1.0
  0
LTYPE
  2
HIDDEN
 70
     0
  3
Hidden __ __ __ __ __ __ __ __ __ __ __ __ __ _
 72
    65
 73
     2
 40
0.375
 49
0.25
 49
-0.125
  0
LTYPE
  2
CENTER2
 70
     0
  3
Center (.5x) ___ _ ___ _ ___ _ ___ _ ___ _ ___
 72
    65
 73
     4
 40
1.125
 49
0.75
 49
-0.125
 49
0.125
 49
-0.125
  0
LTYPE
  2
HIDDEN2
 70
     0
  3
Hidden (.5x) _ _ _ _ _ _ _ _ _ _ _ _ _ _ _ _ _
 72
    65
 73
     2
 40
0.1875
 49
0.125
 49
-0.0625
  0
LTYPE
  2
AMZIGZAG2
 70
     0
  3
/\/-/\/-/\/-/\/-/\/-/\/
 72
    65
 73
     2
 40
0.4401
 49
0.0001
 49
-0.4400000000000002
  0
LTYPE
  2
ACANSTGB
 70
     0
  3
__ . . __ . .
 72
    65
 73
     6
 40
0.35433070866
 49
0.15748031496
 49
-0.03937007874
 49
0.03937007874
 49
-0.03937007874
 49
0.03937007874
 49
-0.03937007874
  0
LTYPE
  2
ACANSTGL
 70
     0
  3
_ _ _ _ _
 72
    65
 73
     2
 40
0.11811023622
 49
0.07874015748
 49
-0.03937007874
  0
ENDTAB
  0
TABLE
  2
LAYER
 70
     5
  0
LAYER
  2
0
 70
     0
 62
     7
  6
CONTINUOUS
  0
LAYER
  2
AM_0
 70
     0
 62
     7
  6
CONTINUOUS
  0
LAYER
  2
DEFPOINTS
 70
     0
 62
     7
  6
CONTINUOUS
  0
LAYER
  2
ｶｸﾚｾﾝ2
 70
     0
 62
     3
  6
GEN3B
  0
LAYER
  2
ﾁｭｳｼﾝｾﾝ1
 70
     0
 62
     1
  6
GEN7A
  0
ENDTAB
  0
TABLE
  2
STYLE
 70
     9
  0
STYLE
  2
STANDARD
 70
     0
 40
0.0
 41
0.8299999999999999
 50
0.0
 71
     0
 42
2.5
  3
txt.shx
  4
bigfont.shx
  0
STYLE
  2
ANNOTATIVE
 70
     0
 40
0.0
 41
1.0
 50
0.0
 71
     0
 42
0.2
  3
txt
  4

  0
STYLE
  2

 70
     1
 40
0.0
 41
1.0
 50
0.0
 71
     0
 42
2.5
  3
ltypeshp.shx
  4

  0
STYLE
  2
ACISOTS
 70
     0
 40
1.0
 41
1.0
 50
0.0
 71
     0
 42
2.5
  3
isocp.shx
  4
extfont.shx
  0
STYLE
  2
ACISOGDT
 70
     0
 40
0.0
 41
1.0
 50
0.0
 71
     0
 42
2.5
  3
amgdt.shx
  4

  0
STYLE
  2
ACANSTS
 70
     0
 40
1.0
 41
1.0
 50
0.0
 71
     0
 42
2.5
  3
romans.shx
  4
bigfont.shx
  0
STYLE
  2
ACANSGDT
 70
     0
 40
0.0
 41
1.0
 50
0.0
 71
     0
 42
2.5
  3
amgdt.shx
  4

  0
STYLE
  2
ACJISTS
 70
     0
 40
1.0
 41
1.0
 50
0.0
 71
     0
 42
2.5
  3
isocp.shx
  4
bigfont.shx
  0
STYLE
  2
ACJISGDT
 70
     0
 40
0.0
 41
1.0
 50
0.0
 71
     0
 42
2.5
  3
amgdt.shx
  4

  0
ENDTAB
  0
TABLE
  2
VIEW
 70
     6
  0
VIEW
  2
AM_VIEW1
 70
     0
 40
277.49999999999989
 10
249.64779005524849
 20
416.24999999999989
 41
499.2955801104971
 11
0.0
 21
0.0
 31
1.0
 12
0.0
 22
0.0
 32
0.0
 42
50.0
 43
0.0
 44
0.0
 50
0.0
 71
     0
  0
VIEW
  2
AM_VIEW2
 70
     0
 40
277.49999999999989
 10
603.85220994475117
 20
416.24999999999989
 41
499.2955801104971
 11
0.0
 21
0.0
 31
1.0
 12
0.0
 22
0.0
 32
0.0
 42
50.0
 43
0.0
 44
0.0
 50
0.0
 71
     0
  0
VIEW
  2
AM_VIEW3
 70
     0
 40
277.49999999999989
 10
249.64779005524849
 20
138.7499999999998
 41
499.2955801104971
 11
0.0
 21
0.0
 31
1.0
 12
0.0
 22
0.0
 32
0.0
 42
50.0
 43
0.0
 44
0.0
 50
0.0
 71
     0
  0
VIEW
  2
AM_VIEW4
 70
     0
 40
277.49999999999989
 10
603.85220994475117
 20
138.7499999999998
 41
499.2955801104971
 11
0.0
 21
0.0
 31
1.0
 12
0.0
 22
0.0
 32
0.0
 42
50.0
 43
0.0
 44
0.0
 50
0.0
 71
     0
  0
VIEW
  2
AM_VIEW5
 70
     0
 40
277.5
 10
426.75
 20
277.49999999999989
 41
499.2955801104971
 11
0.0
 21
0.0
 31
1.0
 12
0.0
 22
0.0
 32
0.0
 42
50.0
 43
0.0
 44
0.0
 50
0.0
 71
     0
  0
VIEW
  2
AM_VIEW6
 70
     0
 40
554.99445000000014
 10
426.75
 20
277.49999999999989
 41
998.5811743093924
 11
0.0
 21
0.0
 31
1.0
 12
0.0
 22
0.0
 32
0.0
 42
50.0
 43
0.0
 44
0.0
 50
0.0
 71
     0
  0
ENDTAB
  0
TABLE
  2
UCS
 70
     0
  0
ENDTAB
  0
TABLE
  2
APPID
 70
    95
  0
APPID
  2
ACAD
 70
     0
  0
APPID
  2
ACADANNOTATIVE
 70
     0
  0
APPID
  2
MCAD_NO_VIS
 70
     0
  0
APPID
  2
ACAD_TEMP_GRAPHIC
 70
     0
  0
APPID
  2
ACATTRIBSERVICES
 70
     0
  0
APPID
  2
GENIUS_GENREC_14
 70
     0
  0
APPID
  2
GENIUS_GENOBJ-N-REC_13
 70
     0
  0
APPID
  2
GENIUS_GENODEF_13
 70
     0
  0
APPID
  2
GENIUS_GENOLIS_13
 70
     0
  0
APPID
  2
GENIUS_GENOBJ-N-TIT_13
 70
     0
  0
APPID
  2
GENIUS_GENOENT_13
 70
     0
  0
APPID
  2
GENIUS_GENTITLE_13
 70
     0
  0
APPID
  2
GENIUS_GENOREF_13
 70
     0
  0
APPID
  2
GENIUS_GENSCREG_15
 70
     0
  0
APPID
  2
GENIUS_GENOBJ-N-SDF_13
 70
     0
  0
APPID
  2
GENIUS_GENFIL_13
 70
     0
  0
APPID
  2
GENIUS_GENOBJ-N-CHA_13
 70
     0
  0
APPID
  2
GENIUS_GENDTOL_13
 70
     0
  0
APPID
  2
GENIUS_GENOBJ-N-FIL_13
 70
     0
  0
APPID
  2
AD_DRAW
 70
     0
  0
APPID
  2
DESIGNERASSEMBLIES
 70
     0
  0
APPID
  2
ASURF_PCURVE_APPNAME
 70
     0
  0
APPID
  2
GENIUS_GE3SECT_13
 70
     0
  0
APPID
  2
GENIUS_GENCFG_13
 70
     0
  0
APPID
  2
GENIUS_GE3CFG0_13
 70
     0
  0
APPID
  2
GENIUS_GENCFG0_13
 70
     0
  0
APPID
  2
GENIUS_GENCFG1_13
 70
     0
  0
APPID
  2
GENIUS_GENCFG2_13
 70
     0
  0
APPID
  2
GENIUS_GENCFG3_13
 70
     0
  0
APPID
  2
GENIUS_GENCFG4_13
 70
     0
  0
APPID
  2
GENIUS_GEVCFG0_13
 70
     0
  0
APPID
  2
GENIUS_GENHINW_13
 70
     0
  0
APPID
  2
GENIUS_FIRSTVISTXT_14
 70
     0
  0
APPID
  2
GENIUS_GENOBJ-N-LEADER_13
 70
     0
  0
APPID
  2
GEV_VCCNULL_SWITCH_OFF
 70
     0
  0
APPID
  2
GENIUS_GEFCFG0_13
 70
     0
  0
APPID
  2
GENIUS_GENZVEED_13
 70
     0
  0
APPID
  2
GENIUS_GENSCREG_13
 70
     0
  0
APPID
  2
GENIUS_DUMCFG0_13
 70
     0
  0
APPID
  2
GEVID936201362
 70
     0
  0
APPID
  2
GEVDC
 70
     0
  0
APPID
  2
GEVCON
 70
     0
  0
APPID
  2
VCC
 70
     0
  0
APPID
  2
GEVPT
 70
     0
  0
APPID
  2
GEVIT
 70
     0
  0
APPID
  2
GENBH
 70
     0
  0
APPID
  2
GEVMK
 70
     0
  0
APPID
  2
GENIUS_GENBH_13
 70
     0
  0
APPID
  2
GENIUS_GENOBJ-NBEHI-BHF_13
 70
     0
  0
APPID
  2
GENIUS_GENOBJ-NBEHI-BHB_13
 70
     0
  0
APPID
  2
GENIUS_GENOBJ-F-DESC_13
 70
     0
  0
APPID
  2
GENIUS_GEFDESC_14
 70
     0
  0
APPID
  2
GENIUS_GENOBJ-F-PART_13
 70
     0
  0
APPID
  2
GENIUS_GEFSTDP_13
 70
     0
  0
APPID
  2
GENIUS_GEFPARTINS_13
 70
     0
  0
APPID
  2
GENIUS_GENTRA_14
 70
     0
  0
APPID
  2
GENIUS_GENINF13_13
 70
     0
  0
APPID
  2
GENIUS_GENOBJ-N-INFOPT_13
 70
     0
  0
APPID
  2
GENIUS_GENOBJ-N-RSSYM_13
 70
     0
  0
APPID
  2
GENIUS_GENSYMENT_13
 70
     0
  0
APPID
  2
GENIUS_GENSCSYM_13
 70
     0
  0
APPID
  2
GENIUS_GEFINFNAM_13
 70
     0
  0
APPID
  2
GENIUS_GENOBJ-N-CEN_13
 70
     0
  0
APPID
  2
GENIUS_GENOBJ-N-CRS_13
 70
     0
  0
APPID
  2
GENIUS_GENOBJ-N-CRC_13
 70
     0
  0
APPID
  2
GENIUS_GENCRC_14
 70
     0
  0
APPID
  2
GEVID942827039
 70
     0
  0
APPID
  2
GEVID942827040
 70
     0
  0
APPID
  2
GEVID942827041
 70
     0
  0
APPID
  2
GENIUS_GENOBJ-F-SCPASSM_13
 70
     0
  0
APPID
  2
GENIUS_GENDIMSH_14
 70
     0
  0
APPID
  2
GEVID942827042
 70
     0
  0
APPID
  2
GEVID946020473
 70
     0
  0
APPID
  2
GEVID946020474
 70
     0
  0
APPID
  2
GEVID946020475
 70
     0
  0
APPID
  2
GENIUS_GENOBJ-N-HTC_13
 70
     0
  0
APPID
  2
GENIUS_GENHATCH_13
 70
     0
  0
APPID
  2
GEVID948854295
 70
     0
  0
APPID
  2
GEVID939402019
 70
     0
  0
APPID
  2
GEVID952919491
 70
     0
  0
APPID
  2
GEVID952919492
 70
     0
  0
APPID
  2
GENIUS_GEFWELD_13
 70
     0
  0
APPID
  2
GENIUS_GENOBJ-F-WELS_13
 70
     0
  0
APPID
  2
GEVID952919493
 70
     0
  0
APPID
  2
GENIUS_GENOBJ-N-RSBK_13
 70
     0
  0
APPID
  2
GENIUS_GENOBJ-N-LIB_13
 70
     0
  0
APPID
  2
GENIUS_GENSCALE_13
 70
     0
  0
APPID
  2
GEVID986376691
 70
     0
  0
APPID
  2
DCO15
 70
     0
  0
APPID
  2
ACAD_DSTYLE_DIMBREAK
 70
     0
  0
APPID
  2
ACAD_DSTYLE_DIMJAG
 70
     0
  0
APPID
  2
ACAD_NAV_VCDISPLAY
 70
     0
  0
APPID
  2
ACADANNOPO
 70
     0
  0
APPID
  2
ACAD_EXEMPT_FROM_CAD_STANDARDS
 70
     0
  0
APPID
  2
ACAD_MLEADERVER
 70
     0
  0
ENDTAB
  0
TABLE
  2
DIMSTYLE
 70
    22
  0
DIMSTYLE
  2
STANDARD
 70
     0
  3

  4

  5

  6

  7

 40
1.0
 41
0.18
 42
0.0625
 43
0.38
 44
0.18
 45
0.0
 46
0.0
 47
0.0
 48
0.0
140
0.18
141
0.09
142
0.0
143
25.399999999999999
144
1.0
145
0.0
146
1.0
147
0.09
 71
     0
 72
     0
 73
     1
 74
     1
 75
     0
 76
     0
 77
     0
 78
     0
170
     0
171
     2
172
     0
173
     0
174
     0
175
     0
176
     0
177
     0
178
     0
  0
DIMSTYLE
  2
ANNOTATIVE
 70
     0
  3

  4

  5

  6

  7

 40
1.0
 41
0.18
 42
0.0625
 43
0.38
 44
0.18
 45
0.0
 46
0.0
 47
0.0
 48
0.0
140
0.18
141
0.09
142
0.0
143
25.399999999999999
144
1.0
145
0.0
146
1.0
147
0.09
 71
     0
 72
     0
 73
     1
 74
     1
 75
     0
 76
     0
 77
     0
 78
     0
170
     0
171
     2
172
     0
173
     0
174
     0
175
     0
176
     0
177
     0
178
     0
  0
DIMSTYLE
  2
AM_ISO
 70
     0
  3

  4
"
  5

  6

  7

 40
1.0
 41
2.5
 42
1.0
 43
8.0
 44
0.6
 45
0.0
 46
0.0
 47
0.1
 48
0.1
140
2.5
141
0.0
142
0.0
143
0.0393701
144
1.0
145
0.0
146
0.71
147
0.8
 71
     0
 72
     0
 73
     0
 74
     0
 75
     0
 76
     0
 77
     1
 78
     8
170
     0
171
     2
172
     1
173
     0
174
     0
175
     0
176
   256
177
   256
178
     4
  0
DIMSTYLE
  2
AM_ISO$3
 70
     0
  3

  4
"
  5

  6

  7

 40
1.0
 41
2.5
 42
1.0
 43
8.0
 44
0.6
 45
0.0
 46
0.0
 47
0.1
 48
0.1
140
2.5
141
0.0
142
0.0
143
0.0393701
144
1.0
145
0.0
146
0.71
147
0.8
 71
     0
 72
     0
 73
     0
 74
     1
 75
     0
 76
     0
 77
     1
 78
     8
170
     0
171
     2
172
     0
173
     0
174
     0
175
     0
176
   256
177
   256
178
     4
  0
DIMSTYLE
  2
AM_ISO$4
 70
     0
  3

  4
"
  5

  6

  7

 40
1.0
 41
2.5
 42
1.0
 43
8.0
 44
0.6
 45
0.0
 46
0.0
 47
0.1
 48
0.1
140
2.5
141
0.0
142
0.0
143
0.0393701
144
1.0
145
0.0
146
0.71
147
0.8
 71
     0
 72
     0
 73
     0
 74
     1
 75
     0
 76
     0
 77
     1
 78
     8
170
     0
171
     2
172
     0
173
     0
174
     0
175
     0
176
   256
177
   256
178
     4
  0
DIMSTYLE
  2
AM_ISO$6
 70
     0
  3

  4
"
  5

  6

  7

 40
1.0
 41
2.5
 42
1.0
 43
8.0
 44
0.6
 45
0.0
 46
0.0
 47
0.1
 48
0.1
140
2.5
141
0.0
142
0.0
143
0.0393701
144
1.0
145
0.0
146
0.71
147
0.8
 71
     0
 72
     0
 73
     0
 74
     0
 75
     0
 76
     0
 77
     0
 78
     8
170
     0
171
     2
172
     1
173
     0
174
     0
175
     0
176
   256
177
   256
178
     4
  0
DIMSTYLE
  2
AM_ISO$7
 70
     0
  3

  4
"
  5

  6

  7

 40
1.0
 41
2.5
 42
1.0
 43
8.0
 44
0.6
 45
0.0
 46
0.0
 47
0.1
 48
0.1
140
2.5
141
0.0
142
0.0
143
0.0393701
144
1.0
145
0.0
146
0.71
147
0.8
 71
     0
 72
     0
 73
     0
 74
     0
 75
     0
 76
     0
 77
     1
 78
     8
170
     0
171
     2
172
     1
173
     0
174
     0
175
     0
176
   256
177
   256
178
     4
  0
DIMSTYLE
  2
AM_ISO$SF
 70
     0
  3

  4
"
  5

  6

  7

 40
1.0
 41
2.5
 42
1.0
 43
10.0
 44
1.0
 45
0.0
 46
0.0
 47
0.1
 48
0.1
140
3.5
141
0.0
142
0.0
143
0.0393701
144
1.0
145
0.0
146
0.71
147
1.5
 71
     0
 72
     0
 73
     0
 74
     0
 75
     1
 76
     1
 77
     1
 78
     8
170
     0
171
     2
172
     1
173
     0
174
     0
175
     0
176
   256
177
   256
178
     2
  0
DIMSTYLE
  2
AM_ISO$SH
 70
     0
  3

  4
"
  5

  6

  7

 40
1.0
 41
2.5
 42
1.0
 43
10.0
 44
1.0
 45
0.0
 46
0.0
 47
0.1
 48
0.1
140
3.5
141
0.0
142
0.0
143
0.0393701
144
2.0
145
0.0
146
0.71
147
1.5
 71
     0
 72
     0
 73
     0
 74
     0
 75
     1
 76
     1
 77
     1
 78
     8
170
     0
171
     2
172
     1
173
     1
174
     0
175
     0
176
   256
177
   256
178
     2
  0
DIMSTYLE
  2
AM_JIS
 70
     0
  3

  4
"
  5

  6

  7

 40
1.0
 41
2.5
 42
1.0
 43
7.0
 44
1.0
 45
0.0
 46
0.0
 47
0.1
 48
0.1000000001
140
2.5
141
0.0
142
0.0
143
0.0393701
144
1.0
145
0.0
146
0.71
147
1.0
 71
     0
 72
     0
 73
     0
 74
     0
 75
     0
 76
     0
 77
     3
 78
     8
170
     0
171
     2
172
     1
173
     0
174
     0
175
     0
176
   256
177
   256
178
     4
  0
DIMSTYLE
  2
AM_JIS$3
 70
     0
  3

  4
"
  5

  6

  7

 40
1.0
 41
2.5
 42
1.0
 43
7.0
 44
1.0
 45
0.0
 46
0.0
 47
0.1
 48
0.1000000001
140
2.5
141
0.0
142
0.0
143
0.0393701
144
1.0
145
0.0
146
0.71
147
1.0
 71
     0
 72
     0
 73
     0
 74
     1
 75
     0
 76
     0
 77
     3
 78
     8
170
     0
171
     2
172
     0
173
     0
174
     0
175
     0
176
   256
177
   256
178
     4
  0
DIMSTYLE
  2
AM_JIS$4
 70
     0
  3

  4
"
  5

  6

  7

 40
1.0
 41
2.5
 42
1.0
 43
7.0
 44
1.0
 45
0.0
 46
0.0
 47
0.1
 48
0.1000000001
140
2.5
141
0.0
142
0.0
143
0.0393701
144
1.0
145
0.0
146
0.71
147
1.0
 71
     0
 72
     0
 73
     0
 74
     0
 75
     0
 76
     0
 77
     3
 78
     8
170
     0
171
     2
172
     0
173
     0
174
     0
175
     0
176
   256
177
   256
178
     4
  0
DIMSTYLE
  2
AM_JIS$6
 70
     0
  3

  4
"
  5

  6

  7

 40
1.0
 41
2.5
 42
1.0
 43
7.0
 44
1.0
 45
0.0
 46
0.0
 47
0.1
 48
0.1000000001
140
2.5
141
0.0
142
0.0
143
0.0393701
144
1.0
145
0.0
146
0.71
147
1.0
 71
     0
 72
     0
 73
     0
 74
     0
 75
     0
 76
     0
 77
     0
 78
     8
170
     0
171
     2
172
     1
173
     0
174
     0
175
     0
176
   256
177
   256
178
     4
  0
DIMSTYLE
  2
AM_JIS$7
 70
     0
  3

  4
"
  5

  6

  7

 40
1.0
 41
2.5
 42
1.0
 43
7.0
 44
1.0
 45
0.0
 46
0.0
 47
0.1
 48
0.1000000001
140
2.5
141
0.0
142
0.0
143
0.0393701
144
1.0
145
0.0
146
0.71
147
1.0
 71
     0
 72
     0
 73
     0
 74
     0
 75
     0
 76
     0
 77
     3
 78
     8
170
     0
171
     2
172
     1
173
     0
174
     0
175
     0
176
   256
177
   256
178
     4
  0
DIMSTYLE
  2
AM_JIS$SF
 70
     0
  3

  4
"
  5

  6

  7

 40
1.0
 41
2.5
 42
1.0
 43
10.0
 44
1.0
 45
0.0
 46
0.0
 47
0.1
 48
0.1
140
3.5
141
0.0
142
0.0
143
0.0393701
144
1.0
145
0.0
146
0.71
147
1.5
 71
     0
 72
     0
 73
     0
 74
     0
 75
     1
 76
     1
 77
     3
 78
     8
170
     0
171
     2
172
     1
173
     0
174
     0
175
     0
176
   256
177
   256
178
     4
  0
DIMSTYLE
  2
AM_JIS$SH
 70
     0
  3

  4
"
  5

  6

  7

 40
1.0
 41
2.5
 42
1.0
 43
10.0
 44
1.0
 45
0.0
 46
0.0
 47
0.1
 48
0.1
140
3.5
141
0.0
142
0.0
143
0.0393701
144
1.0
145
0.0
146
0.71
147
1.5
 71
     0
 72
     0
 73
     0
 74
     0
 75
     1
 76
     0
 77
     3
 78
     8
170
     0
171
     2
172
     1
173
     1
174
     0
175
     0
176
   256
177
   256
178
     4
  0
DIMSTYLE
  2
AM_ANSI
 70
     0
  3

  4
mm
  5

  6

  7

 40
1.0
 41
0.1
 42
0.05
 43
0.5
 44
0.1
 45
0.0
 46
0.0
 47
0.1
 48
0.1
140
0.12
141
0.0
142
0.0
143
25.399999999999999
144
1.0
145
0.0
146
0.71
147
0.06
 71
     0
 72
     0
 73
     1
 74
     1
 75
     0
 76
     0
 77
     0
 78
     7
170
     0
171
     2
172
     0
173
     0
174
     0
175
     0
176
   256
177
   256
178
     2
  0
DIMSTYLE
  2
AM_ANSI$3
 70
     0
  3

  4
mm
  5

  6

  7

 40
1.0
 41
0.1
 42
0.05
 43
0.5
 44
0.1
 45
0.0
 46
0.0
 47
0.1
 48
0.1
140
0.12
141
0.0
142
0.0
143
25.399999999999999
144
1.0
145
0.0
146
0.71
147
0.06
 71
     0
 72
     0
 73
     1
 74
     1
 75
     0
 76
     0
 77
     0
 78
     7
170
     0
171
     2
172
     0
173
     0
174
     0
175
     0
176
   256
177
   256
178
     2
  0
DIMSTYLE
  2
AM_ANSI$4
 70
     0
  3

  4
mm
  5

  6

  7

 40
1.0
 41
0.1
 42
0.05
 43
0.5
 44
0.1
 45
0.0
 46
0.0
 47
0.1
 48
0.1
140
0.12
141
0.0
142
0.0
143
25.399999999999999
144
1.0
145
0.0
146
0.71
147
0.06
 71
     0
 72
     0
 73
     1
 74
     1
 75
     0
 76
     0
 77
     0
 78
     7
170
     0
171
     2
172
     0
173
     0
174
     0
175
     0
176
   256
177
   256
178
     2
  0
DIMSTYLE
  2
AM_ANSI$7
 70
     0
  3

  4
mm
  5

  6

  7

 40
1.0
 41
0.1
 42
0.05
 43
0.5
 44
0.1
 45
0.0
 46
0.0
 47
0.1
 48
0.1
140
0.24
141
0.0
142
0.0
143
25.399999999999999
144
1.0
145
0.0
146
0.71
147
0.06
 71
     0
 72
     0
 73
     1
 74
     1
 75
     0
 76
     0
 77
     0
 78
     7
170
     0
171
     2
172
     0
173
     0
174
     0
175
     0
176
   256
177
   256
178
     2
  0
DIMSTYLE
  2
AM_ANSI$SF
 70
     0
  3

  4
mm
  5

  6

  7

 40
1.0
 41
0.1
 42
0.05
 43
0.5
 44
0.1
 45
0.0
 46
0.0
 47
0.1
 48
0.1
140
0.12
141
0.0
142
0.0
143
25.399999999999999
144
1.0
145
0.0
146
0.71
147
0.06
 71
     0
 72
     0
 73
     1
 74
     1
 75
     1
 76
     1
 77
     0
 78
     7
170
     0
171
     2
172
     0
173
     0
174
     0
175
     0
176
   256
177
   256
178
     2
  0
DIMSTYLE
  2
AM_ANSI$SH
 70
     0
  3

  4
mm
  5

  6

  7

 40
1.0
 41
0.1
 42
0.05
 43
0.5
 44
0.1
 45
0.0
 46
0.0
 47
0.1
 48
0.1
140
0.12
141
0.0
142
0.0
143
25.399999999999999
144
1.0
145
0.0
146
0.71
147
0.06
 71
     0
 72
     0
 73
     1
 74
     1
 75
     1
 76
     1
 77
     0
 78
     7
170
     0
171
     2
172
     0
173
     1
174
     0
175
     0
176
   256
177
   256
178
     2
  0
ENDTAB
  0
ENDSEC
  0
SECTION
  2
BLOCKS
  0
BLOCK
  8
0
  2
$MODEL_SPACE
 70
     0
 10
0.0
 20
0.0
 30
0.0
  3
$MODEL_SPACE
  1

  0
ENDBLK
  5
3331
  8
0
  0
BLOCK
 67
     1
  8
0
  2
$PAPER_SPACE
 70
     0
 10
0.0
 20
0.0
 30
0.0
  3
$PAPER_SPACE
  1

  0
ENDBLK
  5
332D
 67
     1
  8
0
  0
BLOCK
  8
0
  2
GENAXEH
 70
     0
 10
0.0
 20
0.0
 30
0.0
  3
GENAXEH
  1

  0
LINE
  5
30B8
  8
0
 10
-1.0
 20
0.0
 30
0.0
 11
1.0
 21
0.0
 31
0.0
  0
ENDBLK
  5
30B9
  8
0
  0
BLOCK
  8
0
  2
_OPEN30
 70
     0
 10
0.0
 20
0.0
 30
0.0
  3
_OPEN30
  1

  0
LINE
  5
30BC
  8
0
 62
     0
 10
-1.0
 20
0.26794919
 30
0.0
 11
0.0
 21
0.0
 31
0.0
  0
LINE
  5
30BD
  8
0
 62
     0
 10
0.0
 20
0.0
 30
0.0
 11
-1.0
 21
-0.26794919
 31
0.0
  0
LINE
  5
30BE
  8
0
 62
     0
 10
0.0
 20
0.0
 30
0.0
 11
-1.0
 21
0.0
 31
0.0
  0
ENDBLK
  5
30BF
  8
0
  0
BLOCK
  8
0
  2
_NONE
 70
     0
 10
0.0
 20
0.0
 30
0.0
  3
_NONE
  1

  0
ENDBLK
  5
30C2
  8
0
  0
BLOCK
  8
0
  2
_ACMFILLEDHALF
 70
     0
 10
0.0
 20
0.0
 30
0.0
  3
_ACMFILLEDHALF
  1

  0
TRACE
  5
3426
  8
AM_0
 62
     0
 10
-0.8
 20
0.0
 30
0.0
 11
-1.0
 21
0.166666666
 31
0.0
 12
0.0
 22
0.0
 32
0.0
 13
0.0
 23
0.0
 33
0.0
  0
LINE
  5
3427
  8
AM_0
 62
     0
 10
-1.0
 20
0.0
 30
0.0
 11
-0.8
 21
0.0
 31
0.0
  0
ENDBLK
  5
3425
  8
0
  0
ENDSEC
  0
SECTION
  2
ENTITIES
  0
LINE
  5
30C3
  8
AM_0
 10
431.56827667901428
 20
540.88555879884314
 30
0.0
 11
463.56827667901462
 21
540.88555879884314
 31
0.0
  0
LINE
  5
30C4
  8
AM_0
 10
431.56827667901428
 20
532.88555879884314
 30
0.0
 11
463.56827667901462
 21
532.88555879884314
 31
0.0
  0
LINE
  5
30C5
  8
AM_0
 10
421.5683066790146
 20
522.88555879884314
 30
0.0
 11
463.56827667901462
 21
522.88555879884314
 31
0.0
  0
LINE
  5
30C6
  8
AM_0
 10
421.5683066790146
 20
550.88555879884314
 30
0.0
 11
463.56827667901462
 21
550.88555879884314
 31
0.0
  0
LINE
  5
30C7
  8
ﾁｭｳｼﾝｾﾝ1
 10
190.09344474439411
 20
536.88555879884314
 30
0.0
 11
468.27530667901448
 21
536.88555879884314
 31
0.0
  0
ARC
  5
30C8
  8
AM_0
 10
287.06824667901452
 20
530.88555879884314
 30
0.0
 40
3.0
 50
0.0
 51
90.000003000000945
  0
ARC
  5
30C9
  8
AM_0
 10
253.5682766790145
 20
530.88555879884314
 30
0.0
 40
3.0
 50
90.000003000000945
 51
180.00001000000091
  0
LINE
  5
30CA
  8
AM_0
 10
250.56827667901439
 20
484.32927879884278
 30
0.0
 11
250.56827667901439
 21
589.44185879884299
 31
0.0
  0
LINE
  5
30CB
  8
AM_0
 10
230.5682766790145
 20
480.88555879884302
 30
0.0
 11
230.5682766790145
 21
592.88555879884279
 31
0.0
  0
LINE
  5
30CC
  8
AM_0
 10
290.06824667901452
 20
476.38555879884291
 30
0.0
 11
290.06824667901452
 21
597.38555879884302
 31
0.0
  0
LINE
  5
30CD
  8
AM_0
 10
299.06830667901443
 20
473.38555879884302
 30
0.0
 11
299.06830667901443
 21
600.38555879884302
 31
0.0
  0
LINE
  5
30CE
  8
AM_0
 10
335.56827667901462
 20
465.79540879884303
 30
0.0
 11
335.56827667901462
 21
607.97570879884302
 31
0.0
  0
LINE
  5
30CF
  8
AM_0
 10
325.5683066790146
 20
460.056698798843
 30
0.0
 11
325.5683066790146
 21
613.71441879884298
 31
0.0
  0
LINE
  5
30D0
  8
AM_0
 10
403.5683066790146
 20
481.71398879884282
 30
0.0
 11
403.5683066790146
 21
592.057128798843
 31
0.0
  0
LINE
  5
30D1
  8
AM_0
 10
418.56830667901448
 20
564.91140879884279
 30
0.0
 11
418.56830667901448
 21
508.85970879884292
 31
0.0
  0
LINE
  5
30D2
  8
AM_0
 10
415.56830667901431
 20
482.75853879884278
 30
0.0
 11
415.56830667901431
 21
591.01256879884295
 31
0.0
  0
LINE
  5
30D3
  8
AM_0
 10
342.5683066790146
 20
454.63460879884281
 30
0.0
 11
342.5683066790146
 21
619.13646879884277
 31
0.0
  0
LINE
  5
30D4
  8
AM_0
 10
421.5683066790146
 20
551.88555879884314
 30
0.0
 11
421.5683066790146
 21
521.88555879884279
 31
0.0
  0
LINE
  5
30D5
  8
AM_0
 10
325.5683066790146
 20
477.57705879884293
 30
0.0
 11
335.56827667901462
 21
477.57705879884293
 31
0.0
  0
LINE
  5
30D6
  8
AM_0
 10
342.5683066790146
 20
454.63460879884281
 30
0.0
 11
330.39380667901452
 21
455.05974879884292
 31
0.0
  0
LINE
  5
30D7
  8
AM_0
 10
311.48975667901448
 20
447.777948798843
 30
0.0
 11
345.5682766790145
 21
446.88555879884279
 31
0.0
  0
ARC
  5
30D8
  8
AM_0
 10
311.5683066790146
 20
450.77691879884281
 30
0.0
 40
3.0
 50
180.00001000000091
 51
268.50000000000063
  0
LINE
  5
30D9
  8
AM_0
 10
230.5682766790145
 20
480.88555879884302
 30
0.0
 11
287.19181667901461
 21
478.90822879884303
 31
0.0
  0
ARC
  5
30DA
  8
AM_0
 10
246.56827667901439
 20
484.32927879884278
 30
0.0
 40
4.0
 50
267.99999999999932
 51
0.0000006832495047
  0
LINE
  5
30DB
  8
AM_0
 10
230.5682766790145
 20
490.88524879884301
 30
0.0
 11
250.56827667901439
 21
490.88524879884301
 31
0.0
  0
LINE
  5
30DC
  8
AM_0
 10
230.5682766790145
 20
504.94561879884282
 30
0.0
 11
250.56827667901439
 21
504.94561879884282
 31
0.0
  0
LINE
  5
30DD
  8
AM_0
 10
299.06830667901443
 20
484.84557879884301
 30
0.0
 11
325.56827667901462
 21
484.84557879884301
 31
0.0
  0
LINE
  5
30DE
  8
AM_0
 10
299.06833667901452
 20
473.38555879884302
 30
0.0
 11
322.67298667901451
 21
472.561248798843
 31
0.0
  0
ARC
  5
30DF
  8
AM_0
 10
293.06824667901452
 20
476.38555879884291
 30
0.0
 40
3.0
 50
180.00001000000091
 51
270.0
  0
LINE
  5
30E0
  8
AM_0
 10
299.06830667901443
 20
484.84557879884301
 30
0.0
 11
290.06824667901452
 21
484.84557879884301
 31
0.0
  0
ARC
  5
30E1
  8
AM_0
 10
287.08713667901452
 20
475.9100287988428
 30
0.0
 40
3.0
 50
4.545488300001014
 51
87.999999999999503
  0
LINE
  5
30E2
  8
AM_0
 10
299.06833667901452
 20
473.38555879884302
 30
0.0
 11
293.06824667901452
 21
473.38555879884302
 31
0.0
  0
ARC
  5
30E3
  8
AM_0
 10
322.56830667901448
 20
469.56307879884281
 30
0.0
 40
3.0
 50
0.0
 51
87.999999999999503
  0
ARC
  5
30E4
  8
AM_0
 10
311.5683066790146
 20
469.66945879884281
 30
0.0
 40
3.0
 50
105.0000000000007
 51
180.00001000000091
  0
ARC
  5
30E5
  8
AM_0
 10
323.5683066790146
 20
461.88555879884308
 30
0.0
 40
6.0
 50
70.528778999998195
 51
302.21188000000092
  0
LINE
  5
30E6
  8
AM_0
 10
308.5683066790146
 20
450.77691879884281
 30
0.0
 11
308.5683066790146
 21
469.66945879884281
 31
0.0
  0
ARC
  5
30E7
  8
ｶｸﾚｾﾝ2
 10
323.5683066790146
 20
461.88555879884308
 30
0.0
 40
6.0
 50
302.21188000000092
 51
70.528778999998195
  0
ARC
  5
30E8
  8
AM_0
 10
330.5683066790146
 20
460.056698798843
 30
0.0
 40
5.0
 50
180.00001000000091
 51
267.99999999999932
  0
LINE
  5
30E9
  8
AM_0
 10
310.79184667901461
 20
472.56722879884279
 30
0.0
 11
312.14200667901451
 21
472.92901879884278
 31
0.0
  0
LINE
  5
30EA
  8
AM_0
 10
299.06830667901443
 20
499.73760879884293
 30
0.0
 11
325.56827667901462
 21
499.73760879884293
 31
0.0
  0
LINE
  5
30EB
  8
AM_0
 10
299.06830667901443
 20
499.73760879884293
 30
0.0
 11
290.06824667901452
 21
499.73760879884293
 31
0.0
  0
POLYLINE
  5
30EC
  8
AM_0
 66
     1
 10
0.0
 20
0.0
 30
0.0
  0
VERTEX
  5
30ED
  8
AM_0
  6
CONTINUOUS
 10
342.5683066790146
 20
498.61046879884282
 30
0.0
 42
-0.05999131
  0
VERTEX
  5
30EE
  8
AM_0
  6
CONTINUOUS
 10
368.15711667901451
 20
482.67824879884301
 30
0.0
 42
-0.30883749
  0
VERTEX
  5
30EF
  8
AM_0
  6
CONTINUOUS
 10
377.5682766790145
 20
466.737488798843
 30
0.0
 42
-0.25905868
  0
VERTEX
  5
30F0
  8
AM_0
  6
CONTINUOUS
 10
343.11860667901448
 20
446.94945879884301
 30
0.0
  0
SEQEND
  5
30F1
  8
AM_0
  0
ARC
  5
30F2
  8
AM_0
 10
340.5683066790146
 20
452.0181887988428
 30
0.0
 40
5.0
 50
268.50000000000063
 51
0.0000006832495047
  0
ARC
  5
30F3
  8
AM_0
 10
390.5683066790146
 20
453.065638798843
 30
0.0
 40
5.0
 50
180.00001000000091
 51
271.4999999999992
  0
ARC
  5
30F4
  8
AM_0
 10
415.56830667901431
 20
451.71959879884281
 30
0.0
 40
3.0
 50
271.4999999999992
 51
0.0
  0
LINE
  5
30F5
  8
AM_0
 10
341.56830667901443
 20
448.0181887988428
 30
0.0
 11
341.56830667901443
 21
451.36132879884281
 31
0.0
  0
LINE
  5
30F6
  8
AM_0
 10
345.56830667901448
 20
446.88555879884279
 30
0.0
 11
415.6468266790144
 21
448.72060879884282
 31
0.0
  0
ARC
  5
30F7
  8
AM_0
 10
340.5683066790146
 20
448.0181887988428
 30
0.0
 40
1.0
 50
270.0
 51
0.0
  0
ARC
  5
30F8
  8
AM_0
 10
393.56830667901448
 20
468.53148879884282
 30
0.0
 40
8.0
 50
91.999998000000545
 51
180.00001000000091
  0
POLYLINE
  5
30F9
  8
AM_0
 66
     1
 10
0.0
 20
0.0
 30
0.0
  0
VERTEX
  5
30FA
  8
AM_0
  6
CONTINUOUS
 10
343.83184667901452
 20
456.95657879884283
 30
0.0
 42
0.021277527
  0
VERTEX
  5
30FB
  8
AM_0
  6
CONTINUOUS
 10
354.66197667901451
 20
459.01309879884292
 30
0.0
 42
0.020622977
  0
VERTEX
  5
30FC
  8
AM_0
  6
CONTINUOUS
 10
364.78675667901462
 20
461.830138798843
 30
0.0
 42
0.022707911
  0
VERTEX
  5
30FD
  8
AM_0
  6
CONTINUOUS
 10
375.59366667901452
 20
465.87566879884281
 30
0.0
  0
SEQEND
  5
30FE
  8
AM_0
  0
LINE
  5
30FF
  8
AM_0
 10
342.5683066790146
 20
454.63460879884281
 30
0.0
 11
345.56830667901448
 21
454.63460879884281
 31
0.0
  0
ARC
  5
3100
  8
AM_0
 10
342.5683066790146
 20
451.36132879884281
 30
0.0
 40
1.0
 50
109.47121999999951
 51
180.00001000000091
  0
ARC
  5
3101
  8
AM_0
 10
340.5683066790146
 20
457.01818879884308
 30
0.0
 40
5.0
 50
289.47123000000062
 51
331.5287600000031
  0
LINE
  5
3102
  8
AM_0
 10
345.56830667901448
 20
452.0181887988428
 30
0.0
 11
345.56830667901448
 21
454.63460879884281
 31
0.0
  0
LINE
  5
3103
  8
AM_0
 10
385.5683066790146
 20
453.065638798843
 30
0.0
 11
385.5683066790146
 21
468.53148879884282
 31
0.0
  0
ARC
  5
3104
  8
AM_0
 10
412.5683066790146
 20
485.63454879884313
 30
0.0
 40
3.0
 50
275.0
 51
0.0
  0
CIRCLE
  5
3105
  8
AM_0
 10
403.5683066790146
 20
461.88555879884308
 30
0.0
 40
6.0
  0
ARC
  5
3106
  8
AM_0
 10
398.5683066790146
 20
481.71398879884282
 30
0.0
 40
5.0
 50
272.0000000000004
 51
0.0
  0
LINE
  5
3107
  8
AM_0
 10
398.74280667901451
 20
476.71706879884277
 30
0.0
 11
393.28910667901459
 21
476.5266087988428
 31
0.0
  0
ARC
  5
3108
  8
AM_0
 10
407.4701366790145
 20
477.15795879884308
 30
0.0
 40
5.0
 50
95.00000199999856
 51
152.89619000000181
  0
LINE
  5
3109
  8
AM_0
 10
412.8297866790146
 20
482.645968798843
 30
0.0
 11
407.03433667901459
 21
482.13894879884288
 31
0.0
  0
LINE
  5
310A
  8
AM_0
 10
418.56830667901448
 20
451.71959879884281
 30
0.0
 11
418.56830667901448
 21
478.88555879884308
 31
0.0
  0
ARC
  5
310B
  8
AM_0
 10
415.56830667901431
 20
478.88555879884308
 30
0.0
 40
3.0
 50
0.0
 51
75.522487999999072
  0
ARC
  5
310C
  8
AM_0
 10
416.5683066790146
 20
482.75853879884278
 30
0.0
 40
1.0
 50
180.00001000000091
 51
255.5224900000002
  0
ARC
  5
310D
  8
AM_0
 10
417.5683066790146
 20
508.85970879884292
 30
0.0
 40
1.0
 50
271.4999999999992
 51
0.0
  0
ARC
  5
310E
  8
AM_0
 10
416.5683066790146
 20
506.83281879884282
 30
0.0
 40
1.0
 50
91.500001000001546
 51
180.00001000000091
  0
LINE
  5
310F
  8
AM_0
 10
416.54212667901447
 20
507.8324887988428
 30
0.0
 11
417.59448667901432
 21
507.86004879884302
 31
0.0
  0
LINE
  5
3110
  8
AM_0
 10
418.56830667901448
 20
521.88555879884279
 30
0.0
 11
421.5683066790146
 21
521.88555879884279
 31
0.0
  0
LINE
  5
3111
  8
AM_0
 10
325.5683066790146
 20
596.19405879884266
 30
0.0
 11
335.56827667901462
 21
596.19405879884266
 31
0.0
  0
LINE
  5
3112
  8
AM_0
 10
342.5683066790146
 20
619.13653879884305
 30
0.0
 11
330.39380667901452
 21
618.71135879884321
 31
0.0
  0
LINE
  5
3113
  8
AM_0
 10
311.48978667901451
 20
625.9932187988428
 30
0.0
 11
345.56830667901448
 21
626.88561879884276
 31
0.0
  0
ARC
  5
3114
  8
ｶｸﾚｾﾝ2
 10
323.5683066790146
 20
611.88555879884302
 30
0.0
 40
6.0
 50
289.47123000000062
 51
57.78807200000049
  0
ARC
  5
3115
  8
AM_0
 10
330.5683066790146
 20
613.71441879884298
 30
0.0
 40
5.0
 50
91.999998000000545
 51
180.00001000000091
  0
ARC
  5
3116
  8
AM_0
 10
323.5683066790146
 20
611.88555879884302
 30
0.0
 40
6.0
 50
57.78807200000049
 51
289.47123000000062
  0
LINE
  5
3117
  8
AM_0
 10
308.5683066790146
 20
622.99419879884272
 30
0.0
 11
308.5683066790146
 21
604.10164879884303
 31
0.0
  0
LINE
  5
3118
  8
AM_0
 10
253.5682766790145
 20
539.88555879884314
 30
0.0
 11
287.06824667901452
 21
539.88555879884314
 31
0.0
  0
LINE
  5
3119
  8
AM_0
 10
253.5682766790145
 20
533.88555879884314
 30
0.0
 11
287.06824667901452
 21
533.88555879884314
 31
0.0
  0
LINE
  5
311A
  8
AM_0
 10
287.19181667901461
 20
594.86290879884302
 30
0.0
 11
230.5682766790145
 21
592.88555879884279
 31
0.0
  0
LINE
  5
311B
  8
AM_0
 10
230.5682766790145
 20
568.825498798843
 30
0.0
 11
250.56827667901439
 21
568.825498798843
 31
0.0
  0
ARC
  5
311C
  8
AM_0
 10
253.5682766790145
 20
542.88555879884279
 30
0.0
 40
3.0
 50
180.00001000000091
 51
270.0
  0
ARC
  5
311D
  8
AM_0
 10
246.56827667901439
 20
589.44185879884299
 30
0.0
 40
4.0
 50
0.0
 51
91.999998000000545
  0
LINE
  5
311E
  8
AM_0
 10
230.5682766790145
 20
582.88585879884295
 30
0.0
 11
250.56827667901439
 21
582.88585879884295
 31
0.0
  0
ARC
  5
311F
  8
AM_0
 10
287.06824667901452
 20
542.88555879884279
 30
0.0
 40
3.0
 50
270.0
 51
0.0
  0
LINE
  5
3120
  8
AM_0
 10
299.06833667901452
 20
600.38555879884302
 30
0.0
 11
322.67301667901461
 21
601.20983879884295
 31
0.0
  0
LINE
  5
3121
  8
AM_0
 10
299.06830667901443
 20
574.03350879884272
 30
0.0
 11
325.56827667901462
 21
574.03350879884272
 31
0.0
  0
LINE
  5
3122
  8
AM_0
 10
299.06830667901443
 20
588.92553879884304
 30
0.0
 11
325.56827667901462
 21
588.92553879884304
 31
0.0
  0
LINE
  5
3123
  8
AM_0
 10
299.06830667901443
 20
588.92553879884304
 30
0.0
 11
290.06824667901452
 21
588.92553879884304
 31
0.0
  0
LINE
  5
3124
  8
AM_0
 10
299.06830667901443
 20
574.03350879884272
 30
0.0
 11
290.06824667901452
 21
574.03350879884272
 31
0.0
  0
ARC
  5
3125
  8
AM_0
 10
293.06824667901452
 20
597.38555879884302
 30
0.0
 40
3.0
 50
90.000003000000945
 51
180.00001000000091
  0
ARC
  5
3126
  8
AM_0
 10
287.08713667901452
 20
597.86107879884275
 30
0.0
 40
3.0
 50
272.0000000000004
 51
355.45443000000142
  0
LINE
  5
3127
  8
AM_0
 10
299.06830667901443
 20
600.38555879884302
 30
0.0
 11
293.06824667901452
 21
600.38555879884302
 31
0.0
  0
LINE
  5
3128
  8
AM_0
 10
310.79181667901452
 20
601.20388879884285
 30
0.0
 11
312.14200667901451
 21
600.84209879884304
 31
0.0
  0
ARC
  5
3129
  8
AM_0
 10
311.5683066790146
 20
604.10164879884303
 30
0.0
 40
3.0
 50
180.00001000000091
 51
254.99999000000159
  0
ARC
  5
312A
  8
AM_0
 10
322.56830667901448
 20
604.20800879884303
 30
0.0
 40
3.0
 50
272.0000000000004
 51
0.0
  0
ARC
  5
312B
  8
AM_0
 10
311.5683066790146
 20
622.99419879884272
 30
0.0
 40
3.0
 50
91.500001000001546
 51
180.00001000000091
  0
POLYLINE
  5
312C
  8
AM_0
 66
     1
 10
0.0
 20
0.0
 30
0.0
  0
VERTEX
  5
312D
  8
AM_0
  6
CONTINUOUS
 10
343.83184667901452
 20
616.81453879884282
 30
0.0
 42
-0.021277527
  0
VERTEX
  5
312E
  8
AM_0
  6
CONTINUOUS
 10
354.66197667901451
 20
614.75801879884295
 30
0.0
 42
-0.020622977
  0
VERTEX
  5
312F
  8
AM_0
  6
CONTINUOUS
 10
364.78675667901462
 20
611.94097879884305
 30
0.0
 42
-0.022707911
  0
VERTEX
  5
3130
  8
AM_0
  6
CONTINUOUS
 10
375.59366667901452
 20
607.89543879884297
 30
0.0
  0
SEQEND
  5
3131
  8
AM_0
  0
POLYLINE
  5
3132
  8
AM_0
 66
     1
 10
0.0
 20
0.0
 30
0.0
  0
VERTEX
  5
3133
  8
AM_0
  6
CONTINUOUS
 10
342.5683066790146
 20
575.16063879884257
 30
0.0
 42
0.059991292
  0
VERTEX
  5
3134
  8
AM_0
  6
CONTINUOUS
 10
368.15710667901448
 20
591.0928687988428
 30
0.0
 42
0.3088374
  0
VERTEX
  5
3135
  8
AM_0
  6
CONTINUOUS
 10
377.5682766790145
 20
607.03362879884276
 30
0.0
 42
0.25905875
  0
VERTEX
  5
3136
  8
AM_0
  6
CONTINUOUS
 10
343.11862667901443
 20
626.82164879884283
 30
0.0
  0
SEQEND
  5
3137
  8
AM_0
  0
CIRCLE
  5
3138
  8
AM_0
 10
403.5683066790146
 20
611.88555879884302
 30
0.0
 40
6.0
  0
LINE
  5
3139
  8
AM_0
 10
385.5683066790146
 20
605.2396187988428
 30
0.0
 11
385.5683066790146
 21
620.705498798843
 31
0.0
  0
LINE
  5
313A
  8
ﾁｭｳｼﾝｾﾝ1
 10
403.5683066790146
 20
622.88555879884302
 30
0.0
 11
403.5683066790146
 21
600.88555879884302
 31
0.0
  0
LINE
  5
313B
  8
AM_0
 10
418.56830667901448
 20
622.0515087988432
 30
0.0
 11
418.56830667901448
 21
594.88555879884302
 31
0.0
  0
ARC
  5
313C
  8
AM_0
 10
393.56830667901448
 20
605.2396187988428
 30
0.0
 40
8.0
 50
180.00001000000091
 51
267.99999999999932
  0
LINE
  5
313D
  8
AM_0
 10
418.56830667901448
 20
551.88555879884314
 30
0.0
 11
421.5683066790146
 21
551.88555879884314
 31
0.0
  0
ARC
  5
313E
  8
AM_0
 10
431.56827667901428
 20
536.88555879884314
 30
0.0
 40
3.9999962
 50
90.000003000000945
 51
270.0
  0
LINE
  5
313F
  8
AM_0
 10
431.56827667901428
 20
540.88555879884314
 30
0.0
 11
431.56827667901428
 21
532.88555879884314
 31
0.0
  0
ARC
  5
3140
  8
AM_0
 10
417.5683066790146
 20
564.91140879884279
 30
0.0
 40
1.0
 50
0.0
 51
88.499997000000647
  0
ARC
  5
3141
  8
AM_0
 10
416.5683066790146
 20
566.93828879884302
 30
0.0
 40
1.0
 50
180.00001000000091
 51
268.50000000000063
  0
LINE
  5
3142
  8
AM_0
 10
416.54212667901447
 20
565.93862879884296
 30
0.0
 11
417.59445667901429
 21
565.91106879884285
 31
0.0
  0
ARC
  5
3143
  8
AM_0
 10
412.5683066790146
 20
588.13656879884275
 30
0.0
 40
3.0
 50
0.0
 51
85.000004000000885
  0
ARC
  5
3144
  8
AM_0
 10
407.4701366790145
 20
596.61315879884285
 30
0.0
 40
5.0
 50
207.10380999999799
 51
265.00001000000032
  0
ARC
  5
3145
  8
AM_0
 10
398.5683066790146
 20
592.057128798843
 30
0.0
 40
5.0
 50
0.0
 51
87.999999999999503
  0
LINE
  5
3146
  8
AM_0
 10
412.82974667901448
 20
591.12514879884304
 30
0.0
 11
407.03430667901461
 21
591.63216879884271
 31
0.0
  0
LINE
  5
3147
  8
ﾁｭｳｼﾝｾﾝ1
 10
392.5683066790146
 20
611.88555879884302
 30
0.0
 11
414.56830667901443
 21
611.88555879884302
 31
0.0
  0
LINE
  5
3148
  8
AM_0
 10
398.74277667901453
 20
597.05407879884285
 30
0.0
 11
393.28910667901459
 21
597.24450879884319
 31
0.0
  0
ARC
  5
3149
  8
AM_0
 10
415.56830667901431
 20
594.88555879884302
 30
0.0
 40
3.0
 50
284.47750999999971
 51
0.0
  0
ARC
  5
314A
  8
AM_0
 10
416.5683066790146
 20
591.01256879884295
 30
0.0
 40
1.0
 50
104.4775099999998
 51
180.00001000000091
  0
ARC
  5
314B
  8
AM_0
 10
390.5683066790146
 20
620.705498798843
 30
0.0
 40
5.0
 50
88.499997000000647
 51
180.00001000000091
  0
LINE
  5
314C
  8
AM_0
 10
345.5682766790145
 20
626.88555879884302
 30
0.0
 11
415.64679667901441
 21
625.05047879884285
 31
0.0
  0
ARC
  5
314D
  8
AM_0
 10
340.5683066790146
 20
621.75292879884285
 30
0.0
 40
5.0
 50
0.0
 51
91.500001000001546
  0
LINE
  5
314E
  8
AM_0
 10
342.5683066790146
 20
619.13646879884277
 30
0.0
 11
345.56830667901448
 21
619.13646879884277
 31
0.0
  0
LINE
  5
314F
  8
AM_0
 10
341.56830667901443
 20
625.75292879884285
 30
0.0
 11
341.56830667901443
 21
622.4097887988429
 31
0.0
  0
ARC
  5
3150
  8
AM_0
 10
342.5683066790146
 20
622.4097887988429
 30
0.0
 40
1.0
 50
180.00001000000091
 51
250.52876999999941
  0
ARC
  5
3151
  8
AM_0
 10
340.5683066790146
 20
616.75292879884285
 30
0.0
 40
5.0
 50
28.471238999999571
 51
70.528778999998195
  0
ARC
  5
3152
  8
AM_0
 10
340.5683066790146
 20
625.75292879884285
 30
0.0
 40
1.0
 50
0.0
 51
90.000003000000945
  0
LINE
  5
3153
  8
AM_0
 10
345.56830667901448
 20
621.75292879884285
 30
0.0
 11
345.56830667901448
 21
619.13646879884277
 31
0.0
  0
ARC
  5
3154
  8
AM_0
 10
415.56830667901431
 20
622.0515087988432
 30
0.0
 40
3.0
 50
0.0
 51
88.499997000000647
  0
LINE
  5
3155
  8
AM_0
 10
463.56827667901462
 20
550.88555879884314
 30
0.0
 11
463.56827667901462
 21
522.88555879884314
 31
0.0
  0
LINE
  5
3156
  8
ﾁｭｳｼﾝｾﾝ1
 10
392.5683066790146
 20
461.88555879884308
 30
0.0
 11
414.56830667901443
 21
461.88555879884308
 31
0.0
  0
LINE
  5
3157
  8
ﾁｭｳｼﾝｾﾝ1
 10
403.5683066790146
 20
472.88555879884302
 30
0.0
 11
403.5683066790146
 21
450.88555879884302
 31
0.0
  0
LINE
  5
3158
  8
ﾁｭｳｼﾝｾﾝ1
 10
312.56830667901443
 20
461.88555879884308
 30
0.0
 11
334.5683066790146
 21
461.88555879884308
 31
0.0
  0
LINE
  5
3159
  8
ﾁｭｳｼﾝｾﾝ1
 10
323.5683066790146
 20
472.88555879884302
 30
0.0
 11
323.5683066790146
 21
450.88555879884302
 31
0.0
  0
LINE
  5
315A
  8
ﾁｭｳｼﾝｾﾝ1
 10
312.56830667901443
 20
611.88555879884302
 30
0.0
 11
334.5683066790146
 21
611.88555879884302
 31
0.0
  0
LINE
  5
315B
  8
ﾁｭｳｼﾝｾﾝ1
 10
323.5683066790146
 20
622.88555879884302
 30
0.0
 11
323.5683066790146
 21
600.88555879884302
 31
0.0
  0
LINE
  5
315D
  8
ﾁｭｳｼﾝｾﾝ1
 10
311.29523667901469
 20
290.28758112208862
 30
0.0
 11
468.51602667901471
 21
290.28758112208862
 31
0.0
  0
ARC
  5
315E
  8
AM_0
 10
395.5682366790146
 20
311.52089712208863
 30
0.0
 40
10.000000200000001
 50
90.000003000000945
 51
180.00001000000091
  0
LINE
  5
315F
  8
AM_0
 10
385.56827667901428
 20
211.90087512208851
 30
0.0
 11
398.56823667901449
 21
211.90087512208851
 31
0.0
  0
LINE
  5
3160
  8
AM_0
 10
342.56822667901491
 20
348.08756712208879
 30
0.0
 11
398.69915667901472
 21
346.61774712208842
 31
0.0
  0
LINE
  5
3161
  8
AM_0
 10
336.56822667901491
 20
185.2875781220886
 30
0.0
 11
390.56822667901491
 21
185.2875781220886
 31
0.0
  0
ARC
  5
3162
  8
AM_0
 10
390.56822667901491
 20
204.2875801220886
 30
0.0
 40
5.0000001000000003
 50
179.9999899999988
 51
270.0
  0
LINE
  5
3163
  8
AM_0
 10
385.56827667901428
 20
204.2875801220886
 30
0.0
 11
385.56827667901428
 21
311.52089712208863
 31
0.0
  0
LINE
  5
3164
  8
0
 10
209.5682366790144
 20
370.08756912208861
 30
0.0
 11
209.5682366790144
 21
214.0875691220885
 31
0.0
1001
GENIUS_GENOREF_13
1005
2E28
  0
LINE
  5
3165
  8
0
 10
199.5682366790144
 20
212.0875691220885
 30
0.0
 11
199.5682366790144
 21
372.08756912208861
 31
0.0
1001
GENIUS_GENOREF_13
1005
2E28
  0
LINE
  5
3166
  8
AM_0
 10
345.56822667901491
 20
236.75640612208861
 30
0.0
 11
345.56822667901491
 21
272.07624612208872
 31
0.0
  0
LINE
  5
3167
  8
AM_0
 10
342.56822667901491
 20
348.0875971220886
 30
0.0
 11
342.56822667901491
 21
220.43044812208871
 31
0.0
  0
LINE
  5
3168
  8
AM_0
 10
325.56830667901482
 20
337.90991712208847
 30
0.0
 11
325.56830667901482
 21
199.2875791220884
 31
0.0
  0
LINE
  5
3169
  8
AM_0
 10
335.5682366790146
 20
298.23680712208852
 30
0.0
 11
335.5682366790146
 21
207.54360612208851
 31
0.0
  0
LINE
  5
316A
  8
AM_0
 10
230.5682366790144
 20
235.5875521220886
 30
0.0
 11
230.5682366790144
 21
348.58757712208842
 31
0.0
  0
LINE
  5
316B
  8
AM_0
 10
290.06822667901491
 20
327.3174271220887
 30
0.0
 11
290.06822667901491
 21
205.87798812208851
 31
0.0
  0
LINE
  5
316C
  8
AM_0
 10
299.06822667901491
 20
203.08756512208851
 30
0.0
 11
299.06822667901491
 21
331.08755712208853
 31
0.0
  0
LINE
  5
316D
  8
AM_0
 10
280.30973667901458
 20
260.15058612208861
 30
0.0
 11
290.06822667901491
 21
279.58756812208861
 31
0.0
  0
POLYLINE
  5
316E
  8
AM_0
 66
     1
 10
0.0
 20
0.0
 30
0.0
  0
VERTEX
  5
316F
  8
AM_0
  6
CONTINUOUS
 10
345.56822667901491
 20
199.2875581220886
 30
0.0
 42
0.12791162
  0
VERTEX
  5
3170
  8
AM_0
  6
CONTINUOUS
 10
351.66233667901452
 20
200.95297212208851
 30
0.0
 42
0.075873193
  0
VERTEX
  5
3171
  8
AM_0
  6
CONTINUOUS
 10
356.64371667901469
 20
204.91187412208851
 30
0.0
 42
0.043913396
  0
VERTEX
  5
3172
  8
AM_0
  6
CONTINUOUS
 10
360.5844866790145
 20
209.92899312208851
 30
0.0
 42
0.028464652
  0
VERTEX
  5
3173
  8
AM_0
  6
CONTINUOUS
 10
363.77660667901472
 20
215.4556171220884
 30
0.0
 42
0.020370652
  0
VERTEX
  5
3174
  8
AM_0
  6
CONTINUOUS
 10
366.42335667901477
 20
221.26796712208861
 30
0.0
 42
0.01565624
  0
VERTEX
  5
3175
  8
AM_0
  6
CONTINUOUS
 10
368.64836667901471
 20
227.2545841220884
 30
0.0
 42
0.012688896
  0
VERTEX
  5
3176
  8
AM_0
  6
CONTINUOUS
 10
370.53275667901488
 20
233.35768512208861
 30
0.0
 42
0.010707682
  0
VERTEX
  5
3177
  8
AM_0
  6
CONTINUOUS
 10
372.13106667901491
 20
239.5431121220885
 30
0.0
 42
0.0093245348
  0
VERTEX
  5
3178
  8
AM_0
  6
CONTINUOUS
 10
373.48100667901502
 20
245.78702712208849
 30
0.0
 42
0.0083349327
  0
VERTEX
  5
3179
  8
AM_0
  6
CONTINUOUS
 10
374.61035667901473
 20
252.0760291220887
 30
0.0
 42
0.0076121909
  0
VERTEX
  5
317A
  8
AM_0
  6
CONTINUOUS
 10
375.53903667901483
 20
258.39820212208838
 30
0.0
 42
0.0070829483
  0
VERTEX
  5
317B
  8
AM_0
  6
CONTINUOUS
 10
376.28177667901463
 20
264.7449601220884
 30
0.0
 42
0.0067007639
  0
VERTEX
  5
317C
  8
AM_0
  6
CONTINUOUS
 10
376.8495266790145
 20
271.11000912208863
 30
0.0
 42
0.0064352899
  0
VERTEX
  5
317D
  8
AM_0
  6
CONTINUOUS
 10
377.25008667901483
 20
277.4879971220887
 30
0.0
 42
0.0062673447
  0
VERTEX
  5
317E
  8
AM_0
  6
CONTINUOUS
 10
377.48864667901478
 20
283.87414812208851
 30
0.0
 42
0.0061857091
  0
VERTEX
  5
317F
  8
AM_0
  6
CONTINUOUS
 10
377.56820667901491
 20
290.26413912208852
 30
0.0
  0
SEQEND
  5
3180
  8
AM_0
  0
LINE
  5
3181
  8
AM_0
 10
230.5682366790144
 20
246.08758212208849
 30
0.0
 11
282.30170667901473
 21
246.08758212208849
 31
0.0
  0
LINE
  5
3182
  8
AM_0
 10
230.5682366790144
 20
260.15058612208861
 30
0.0
 11
280.30973667901458
 21
260.15058612208861
 31
0.0
  0
LINE
  5
3183
  8
AM_0
 10
230.5682366790144
 20
235.58758212208869
 30
0.0
 11
257.67296667901462
 21
234.64106412208841
 31
0.0
  0
LINE
  5
3184
  8
0
 10
199.5682366790144
 20
212.0875691220885
 30
0.0
 11
207.5682366790144
 21
212.0875691220885
 31
0.0
  0
ARC
  5
3185
  8
0
 10
207.5682366790144
 20
214.0875691220885
 30
0.0
 40
2.0
 50
270.0
 51
0.0
1001
GENIUS_GENOBJ-N-FIL_13
1002
{
1000
OWNER
1000
GEN
1002
}
1001
GENIUS_GENODEF_13
1002
{
1000
HIER
1070
     0
1002
}
1002
{
1000
MANEDIT
1070
     0
1002
}
1002
{
1000
NOSEL
1070
     0
1002
}
1002
{
1000
BEHIND
1070
     0
1002
}
1002
{
1000
OTHER
1070
     0
1002
}
1002
{
1000
REACTOR
1002
}
  0
LINE
  5
3186
  8
AM_0
 10
230.5682366790144
 20
260.15012712208852
 30
0.0
 11
209.5682366790144
 21
260.15012712208852
 31
0.0
  0
LINE
  5
3187
  8
AM_0
 10
230.5682366790144
 20
246.08755212208871
 30
0.0
 11
209.5682366790144
 21
246.08755212208871
 31
0.0
  0
LINE
  5
3188
  8
0
 10
211.49843768560939
 20
234.9216370671858
 30
0.0
 11
230.5682366790144
 21
235.58756912208861
 31
0.0
  0
ARC
  5
3189
  8
0
 10
211.5682366790144
 20
232.9228554131476
 30
0.0
 40
2.0
 50
92.000000000000341
 51
180.0
1001
GENIUS_GENOBJ-N-FIL_13
1002
{
1000
OWNER
1000
GEN
1002
}
1001
GENIUS_GENODEF_13
1002
{
1000
HIER
1070
     0
1002
}
1002
{
1000
MANEDIT
1070
     0
1002
}
1002
{
1000
NOSEL
1070
     0
1002
}
1002
{
1000
BEHIND
1070
     0
1002
}
1002
{
1000
OTHER
1070
     0
1002
}
1002
{
1000
REACTOR
1002
}
  0
LINE
  5
318A
  8
ｶｸﾚｾﾝ2
 10
317.56823667901449
 20
199.2875791220884
 30
0.0
 11
317.56823667901449
 21
184.2875791220884
 31
0.0
  0
LINE
  5
318B
  8
ｶｸﾚｾﾝ2
 10
329.5682366790146
 20
199.2875791220884
 30
0.0
 11
329.5682366790146
 21
184.2875791220884
 31
0.0
  0
LINE
  5
318C
  8
ﾁｭｳｼﾝｾﾝ1
 10
323.56823667901449
 20
204.2875951220885
 30
0.0
 11
323.56823667901449
 21
179.28757812208849
 31
0.0
  0
LINE
  5
318D
  8
AM_0
 10
308.5682366790146
 20
197.28759312208871
 30
0.0
 11
308.5682366790146
 21
184.2875791220884
 31
0.0
  0
ARC
  5
318E
  8
AM_0
 10
336.56822667901491
 20
184.2875791220884
 30
0.0
 40
1.0000000199999981
 50
90.000003000000945
 51
180.00001000000091
  0
LINE
  5
318F
  8
AM_0
 10
308.5682366790146
 20
184.2875791220884
 30
0.0
 11
335.5682366790146
 21
184.2875791220884
 31
0.0
  0
LINE
  5
3190
  8
AM_0
 10
335.5682366790146
 20
184.2875791220884
 30
0.0
 11
335.5682366790146
 21
184.2875791220884
 31
0.0
  0
LINE
  5
3191
  8
AM_0
 10
310.56830667901482
 20
199.2875791220884
 30
0.0
 11
336.08258667901492
 21
199.2875791220884
 31
0.0
  0
LINE
  5
3192
  8
AM_0
 10
299.06822667901491
 20
203.5875961220888
 30
0.0
 11
321.29510667901468
 21
202.81141212208871
 31
0.0
  0
LINE
  5
3193
  8
AM_0
 10
299.06822667901491
 20
215.58758112208861
 30
0.0
 11
325.56830667901482
 21
215.58758112208861
 31
0.0
  0
LINE
  5
3194
  8
AM_0
 10
299.06822667901491
 20
229.9396651220884
 30
0.0
 11
325.56830667901482
 21
229.9396651220884
 31
0.0
  0
LINE
  5
3195
  8
AM_0
 10
260.5682366790146
 20
211.7163511220885
 30
0.0
 11
260.5682366790146
 21
231.64289712208861
 31
0.0
  0
LINE
  5
3196
  8
AM_0
 10
268.80956667901478
 20
232.90810812208841
 30
0.0
 11
289.18958667901501
 21
212.5281031220884
 31
0.0
  0
ARC
  5
3197
  8
AM_0
 10
287.23700667901483
 20
204.88614912208851
 30
0.0
 40
3.0
 50
13.61892500000102
 51
87.999999999999659
  0
LINE
  5
3198
  8
AM_0
 10
263.46356667901472
 20
208.7181511220885
 30
0.0
 11
287.34167667901482
 21
207.8843191220887
 31
0.0
  0
ARC
  5
3199
  8
AM_0
 10
263.56823667901449
 20
211.7163511220885
 30
0.0
 40
3.0
 50
179.9999899999988
 51
268.00000999999861
  0
LINE
  5
319A
  8
AM_0
 10
292.96355667901457
 20
203.3007631220884
 30
0.0
 11
299.06822667901491
 21
203.0875831220884
 31
0.0
  0
ARC
  5
319B
  8
AM_0
 10
293.06822667901491
 20
206.2989451220885
 30
0.0
 40
3.0
 50
193.6189299999983
 51
267.9999999999996
  0
ARC
  5
319C
  8
AM_0
 10
310.56830667901482
 20
197.28759312208871
 30
0.0
 40
2.00000007
 50
90.000003000000945
 51
180.00001000000091
  0
LINE
  5
319D
  8
AM_0
 10
290.06822667901491
 20
215.58758112208861
 30
0.0
 11
299.06822667901491
 21
215.58758112208861
 31
0.0
  0
ARC
  5
319E
  8
AM_0
 10
287.06822667901491
 20
210.40679712208851
 30
0.0
 40
3.0
 50
0.0
 51
45.000000999999187
  0
ARC
  5
319F
  8
AM_0
 10
282.30170667901473
 20
251.0875681220885
 30
0.0
 40
5.0000001000000003
 50
270.0
 51
45.000000999999187
  0
LINE
  5
31A0
  8
AM_0
 10
267.41687667901482
 20
234.47042712208841
 30
0.0
 11
273.2493266790147
 21
246.08758212208849
 31
0.0
  0
LINE
  5
31A1
  8
AM_0
 10
257.67296667901462
 20
234.64106412208841
 30
0.0
 11
265.44854667901461
 21
234.3695341220886
 31
0.0
  0
ARC
  5
31A2
  8
AM_0
 10
257.5682366790146
 20
231.64289712208861
 30
0.0
 40
3.0
 50
0.0
 51
87.999999999999659
  0
ARC
  5
31A3
  8
AM_0
 10
265.27403667901461
 20
229.3725871220887
 30
0.0
 40
5.0000001000000003
 50
45.000000999999187
 51
87.999999999999659
  0
LINE
  5
31A4
  8
AM_0
 10
280.30973667901458
 20
260.15058612208861
 30
0.0
 11
285.83720667901463
 21
254.62308912208849
 31
0.0
  0
LINE
  5
31A5
  8
AM_0
 10
290.06822667901491
 20
229.93923612208849
 30
0.0
 11
299.06822667901491
 21
229.93923612208849
 31
0.0
  0
LINE
  5
31A6
  8
AM_0
 10
345.48110667901472
 20
235.82693112208861
 30
0.0
 11
339.03032667901482
 21
201.72990012208871
 31
0.0
  0
ARC
  5
31A7
  8
AM_0
 10
333.56822667901491
 20
207.54360612208851
 30
0.0
 40
2.00000007
 50
270.0
 51
0.0
  0
ARC
  5
31A8
  8
AM_0
 10
336.08258667901492
 20
202.28757912208849
 30
0.0
 40
3.0
 50
270.0
 51
349.2868799999996
  0
LINE
  5
31A9
  8
AM_0
 10
327.56822667901491
 20
205.54360512208851
 30
0.0
 11
333.56822667901491
 21
205.54360512208851
 31
0.0
  0
ARC
  5
31AA
  8
AM_0
 10
322.56830667901482
 20
199.5702931220884
 30
0.0
 40
3.0
 50
0.0
 51
79.999998000001099
  0
ARC
  5
31AB
  8
AM_0
 10
327.56822667901491
 20
203.54362212208841
 30
0.0
 40
2.00000007
 50
90.000003000000945
 51
180.00001000000091
  0
ARC
  5
31AC
  8
AM_0
 10
321.19043667901491
 20
199.81326012208851
 30
0.0
 40
3.0
 50
79.999998000001099
 51
87.999999999999659
  0
LINE
  5
31AD
  8
AM_0
 10
321.71129667901488
 20
202.7676811220885
 30
0.0
 11
323.08922667901447
 21
202.52471412208851
 31
0.0
  0
ARC
  5
31AE
  8
AM_0
 10
340.5682766790145
 20
236.75640612208861
 30
0.0
 40
5.0000001000000003
 50
349.2868799999996
 51
0.0
  0
LINE
  5
31AF
  8
ﾁｭｳｼﾝｾﾝ1
 10
324.08141667901481
 20
292.0875691220885
 30
0.0
 11
190.09344474439411
 21
292.0875691220885
 31
0.0
  0
LINE
  5
31B0
  8
AM_0
 10
252.7513466790144
 20
343.16198712208848
 30
0.0
 11
289.92314667901491
 21
330.82145712208847
 31
0.0
  0
ARC
  5
31B1
  8
AM_0
 10
255.56822667901491
 20
289.14756612208862
 30
0.0
 40
5.0000001000000003
 50
179.9999899999988
 51
270.0
  0
ARC
  5
31B2
  8
AM_0
 10
254.56823667901449
 20
328.1488171220887
 30
0.0
 40
4.000000199999997
 50
179.9999899999988
 51
271.99999000000139
  0
LINE
  5
31B3
  8
AM_0
 10
250.56830667901471
 20
344.02640712208847
 30
0.0
 11
250.56830667901471
 21
289.14756612208862
 31
0.0
  0
LINE
  5
31B4
  8
AM_0
 10
230.5682366790144
 20
338.08756812208873
 30
0.0
 11
209.5682366790144
 21
338.08756812208873
 31
0.0
  0
LINE
  5
31B5
  8
AM_0
 10
230.5682366790144
 20
324.02500812208859
 30
0.0
 11
209.5682366790144
 21
324.02500812208859
 31
0.0
  0
LINE
  5
31B6
  8
0
 10
211.49843768560939
 20
349.25350117699128
 30
0.0
 11
230.5682366790144
 21
348.58756912208861
 31
0.0
  0
ARC
  5
31B7
  8
0
 10
211.5682366790144
 20
351.2522828310295
 30
0.0
 40
2.0
 50
180.0
 51
267.9999999999996
1001
GENIUS_GENOBJ-N-FIL_13
1002
{
1000
OWNER
1000
GEN
1002
}
1001
GENIUS_GENODEF_13
1002
{
1000
HIER
1070
     0
1002
}
1002
{
1000
MANEDIT
1070
     0
1002
}
1002
{
1000
NOSEL
1070
     0
1002
}
1002
{
1000
BEHIND
1070
     0
1002
}
1002
{
1000
OTHER
1070
     0
1002
}
1002
{
1000
REACTOR
1002
}
  0
LINE
  5
31B8
  8
AM_0
 10
230.5682366790144
 20
324.02456712208863
 30
0.0
 11
250.56830667901471
 21
324.02456712208863
 31
0.0
  0
LINE
  5
31B9
  8
AM_0
 10
230.5682366790144
 20
348.58760712208863
 30
0.0
 11
246.7078166790146
 21
348.02396712208861
 31
0.0
  0
LINE
  5
31BA
  8
AM_0
 10
230.5682366790144
 20
338.08760712208863
 30
0.0
 11
250.56830667901471
 21
338.08760712208863
 31
0.0
  0
ARC
  5
31BB
  8
AM_0
 10
246.5682266790148
 20
344.02640712208847
 30
0.0
 40
4.000000199999997
 50
0.0
 51
87.999999999999659
  0
ARC
  5
31BC
  8
AM_0
 10
254.01164667901489
 20
346.95824712208878
 30
0.0
 40
4.000000199999997
 50
201.498549999999
 51
251.63457999999881
  0
LINE
  5
31BD
  8
0
 10
199.5682366790144
 20
372.08756912208861
 30
0.0
 11
207.5682366790144
 21
372.08756912208861
 31
0.0
  0
ARC
  5
31BE
  8
0
 10
207.5682366790144
 20
370.08756912208861
 30
0.0
 40
2.0
 50
0.0
 51
90.0
1001
GENIUS_GENOBJ-N-FIL_13
1002
{
1000
OWNER
1000
GEN
1002
}
1001
GENIUS_GENODEF_13
1002
{
1000
HIER
1070
     0
1002
}
1002
{
1000
MANEDIT
1070
     0
1002
}
1002
{
1000
NOSEL
1070
     0
1002
}
1002
{
1000
BEHIND
1070
     0
1002
}
1002
{
1000
OTHER
1070
     0
1002
}
1002
{
1000
REACTOR
1002
}
  0
LINE
  5
31BF
  8
AM_0
 10
299.06822667901491
 20
304.23551712208882
 30
0.0
 11
325.56830667901482
 21
304.23551712208882
 31
0.0
  0
LINE
  5
31C0
  8
AM_0
 10
299.06822667901491
 20
330.58757712208848
 30
0.0
 11
321.15539667901493
 21
331.35887712208859
 31
0.0
  0
LINE
  5
31C1
  8
AM_0
 10
299.06822667901491
 20
318.58760712208863
 30
0.0
 11
325.56830667901482
 21
318.58760712208863
 31
0.0
  0
LINE
  5
31C2
  8
AM_0
 10
255.56822667901491
 20
284.14756512208851
 30
0.0
 11
290.06822667901491
 21
284.14756512208851
 31
0.0
  0
LINE
  5
31C3
  8
AM_0
 10
290.06822667901491
 20
304.23590712208852
 30
0.0
 11
299.06822667901491
 21
304.23590712208852
 31
0.0
  0
LINE
  5
31C4
  8
AM_0
 10
254.70788667901471
 20
324.15122712208853
 30
0.0
 11
288.13805667901482
 21
325.31864712208852
 31
0.0
  0
ARC
  5
31C5
  8
AM_0
 10
288.06830667901471
 20
327.3174271220887
 30
0.0
 40
2.00000007
 50
272.0000000000004
 51
0.0
  0
LINE
  5
31C6
  8
AM_0
 10
290.06822667901491
 20
318.58760712208863
 30
0.0
 11
299.06822667901491
 21
318.58760712208863
 31
0.0
  0
LINE
  5
31C7
  8
AM_0
 10
292.96355667901457
 20
330.87440712208848
 30
0.0
 11
299.06822667901491
 21
331.08755712208853
 31
0.0
  0
ARC
  5
31C8
  8
AM_0
 10
293.06822667901491
 20
327.87623712208853
 30
0.0
 40
3.0
 50
91.999998000000545
 51
180.00001000000091
  0
ARC
  5
31C9
  8
AM_0
 10
291.18347667901492
 20
334.61771712208861
 30
0.0
 40
4.000000199999997
 50
251.63457999999881
 51
285.61970000000002
  0
LINE
  5
31CA
  8
AM_0
 10
290.06822667901491
 20
327.87623712208853
 30
0.0
 11
290.06822667901491
 21
327.3174271220887
 31
0.0
  0
POLYLINE
  5
31CB
  8
AM_0
 66
     1
 10
0.0
 20
0.0
 30
0.0
  0
VERTEX
  5
31CC
  8
AM_0
  6
CONTINUOUS
 10
377.56820667901491
 20
307.58756712208873
 30
0.0
 42
0.029628627
  0
VERTEX
  5
31CD
  8
AM_0
  6
CONTINUOUS
 10
377.37656667901462
 20
310.81685712208861
 30
0.0
 42
0.029327445
  0
VERTEX
  5
31CE
  8
AM_0
  6
CONTINUOUS
 10
376.80686667901477
 20
313.99781712208852
 30
0.0
 42
0.028837102
  0
VERTEX
  5
31CF
  8
AM_0
  6
CONTINUOUS
 10
375.87101667901447
 20
317.09354712208852
 30
0.0
 42
0.028139415
  0
VERTEX
  5
31D0
  8
AM_0
  6
CONTINUOUS
 10
374.58863667901471
 20
320.06408712208849
 30
0.0
 42
0.027280574
  0
VERTEX
  5
31D1
  8
AM_0
  6
CONTINUOUS
 10
372.98615667901498
 20
322.87346712208853
 30
0.0
 42
0.026363447
  0
VERTEX
  5
31D2
  8
AM_0
  6
CONTINUOUS
 10
371.09153667901472
 20
325.49588712208862
 30
0.0
 42
0.025439162
  0
VERTEX
  5
31D3
  8
AM_0
  6
CONTINUOUS
 10
368.93399667901451
 20
327.91052712208869
 30
0.0
 42
0.024503445
  0
VERTEX
  5
31D4
  8
AM_0
  6
CONTINUOUS
 10
366.54758667901473
 20
330.09704712208861
 30
0.0
 42
0.023638826
  0
VERTEX
  5
31D5
  8
AM_0
  6
CONTINUOUS
 10
363.96203667901477
 20
332.04416712208871
 30
0.0
 42
0.022857729
  0
VERTEX
  5
31D6
  8
AM_0
  6
CONTINUOUS
 10
361.20677667901452
 20
333.74297712208852
 30
0.0
 42
0.02217551
  0
VERTEX
  5
31D7
  8
AM_0
  6
CONTINUOUS
 10
358.30970667901448
 20
335.18729712208869
 30
0.0
 42
0.021601182
  0
VERTEX
  5
31D8
  8
AM_0
  6
CONTINUOUS
 10
355.29728667901492
 20
336.3729871220886
 30
0.0
 42
0.02113939
  0
VERTEX
  5
31D9
  8
AM_0
  6
CONTINUOUS
 10
352.19444667901507
 20
337.29734712208869
 30
0.0
 42
0.020792027
  0
VERTEX
  5
31DA
  8
AM_0
  6
CONTINUOUS
 10
349.02503667901448
 20
337.95869712208861
 30
0.0
 42
0.02055944
  0
VERTEX
  5
31DB
  8
AM_0
  6
CONTINUOUS
 10
345.81191667901498
 20
338.35610712208847
 30
0.0
 42
0.020441781
  0
VERTEX
  5
31DC
  8
AM_0
  6
CONTINUOUS
 10
342.57728667901472
 20
338.48909712208848
 30
0.0
  0
SEQEND
  5
31DD
  8
AM_0
  0
POLYLINE
  5
31DE
  8
AM_0
 66
     1
 10
0.0
 20
0.0
 30
0.0
  0
VERTEX
  5
31DF
  8
AM_0
  6
CONTINUOUS
 10
375.64724667901498
 20
309.46631712208853
 30
0.0
 42
0.032705835
  0
VERTEX
  5
31E0
  8
AM_0
  6
CONTINUOUS
 10
373.70111667901472
 20
310.21481712208862
 30
0.0
 42
0.01681415
  0
VERTEX
  5
31E1
  8
AM_0
  6
CONTINUOUS
 10
371.69030667901512
 20
310.77701712208852
 30
0.0
 42
0.010836085
  0
VERTEX
  5
31E2
  8
AM_0
  6
CONTINUOUS
 10
369.65087667901491
 20
311.22986712208848
 30
0.0
 42
0.0078631803
  0
VERTEX
  5
31E3
  8
AM_0
  6
CONTINUOUS
 10
367.59650667901491
 20
311.60699712208873
 30
0.0
 42
0.0061455578
  0
VERTEX
  5
31E4
  8
AM_0
  6
CONTINUOUS
 10
365.53223667901489
 20
311.92685712208862
 30
0.0
 42
0.0050541122
  0
VERTEX
  5
31E5
  8
AM_0
  6
CONTINUOUS
 10
363.46061667901489
 20
312.20078712208863
 30
0.0
 42
0.0043145918
  0
VERTEX
  5
31E6
  8
AM_0
  6
CONTINUOUS
 10
361.38287667901471
 20
312.43610712208852
 30
0.0
 42
0.0037843028
  0
VERTEX
  5
31E7
  8
AM_0
  6
CONTINUOUS
 10
359.30369667901482
 20
312.63764712208882
 30
0.0
 42
0.0034034912
  0
VERTEX
  5
31E8
  8
AM_0
  6
CONTINUOUS
 10
357.21968667901479
 20
312.80951712208849
 30
0.0
 42
0.0031173967
  0
VERTEX
  5
31E9
  8
AM_0
  6
CONTINUOUS
 10
355.13318667901478
 20
312.95426712208882
 30
0.0
 42
0.0029018773
  0
VERTEX
  5
31EA
  8
AM_0
  6
CONTINUOUS
 10
353.04509667901448
 20
313.07390712208871
 30
0.0
 42
0.0027404573
  0
VERTEX
  5
31EB
  8
AM_0
  6
CONTINUOUS
 10
350.95577667901478
 20
313.1700271220887
 30
0.0
 42
0.0026217022
  0
VERTEX
  5
31EC
  8
AM_0
  6
CONTINUOUS
 10
348.86546667901467
 20
313.24373712208848
 30
0.0
 42
0.0025380412
  0
VERTEX
  5
31ED
  8
AM_0
  6
CONTINUOUS
 10
346.77449667901448
 20
313.29590712208869
 30
0.0
 42
0.0024845591
  0
VERTEX
  5
31EE
  8
AM_0
  6
CONTINUOUS
 10
344.68307667901479
 20
313.32704712208857
 30
0.0
 42
0.0024584448
  0
VERTEX
  5
31EF
  8
AM_0
  6
CONTINUOUS
 10
342.59138667901448
 20
313.33757712208848
 30
0.0
  0
SEQEND
  5
31F0
  8
AM_0
  0
ARC
  5
31F1
  8
AM_0
 10
333.56822667901491
 20
291.75968712208851
 30
0.0
 40
2.00000007
 50
0.0
 51
90.000003000000945
  0
LINE
  5
31F2
  8
AM_0
 10
327.56822667901491
 20
300.23678712208851
 30
0.0
 11
333.56822667901491
 21
300.23678712208851
 31
0.0
  0
LINE
  5
31F3
  8
AM_0
 10
326.48369667901483
 20
293.75968812208862
 30
0.0
 11
333.56822667901491
 21
293.75968812208862
 31
0.0
  0
ARC
  5
31F4
  8
AM_0
 10
327.56822667901491
 20
302.23679712208872
 30
0.0
 40
2.00000007
 50
179.9999899999988
 51
270.0
  0
ARC
  5
31F5
  8
AM_0
 10
333.56822667901491
 20
298.23680712208852
 30
0.0
 40
2.00000007
 50
0.0
 51
90.000003000000945
  0
LINE
  5
31F6
  8
AM_0
 10
377.56820667901491
 20
307.58756712208873
 30
0.0
 11
377.56820667901491
 21
290.28755112208847
 31
0.0
  0
LINE
  5
31F7
  8
AM_0
 10
335.5682366790146
 20
345.91178712208853
 30
0.0
 11
335.5682366790146
 21
323.4216871220886
 31
0.0
  0
LINE
  5
31F8
  8
AM_0
 10
327.56822667901491
 20
321.42167712208862
 30
0.0
 11
333.56822667901491
 21
321.42167712208862
 31
0.0
  0
ARC
  5
31F9
  8
AM_0
 10
327.56822667901491
 20
319.42166712208882
 30
0.0
 40
2.00000007
 50
90.000003000000945
 51
180.00001000000091
  0
ARC
  5
31FA
  8
AM_0
 10
333.56822667901491
 20
323.4216871220886
 30
0.0
 40
2.00000007
 50
270.0
 51
0.0
  0
ARC
  5
31FB
  8
AM_0
 10
322.56830667901482
 20
334.60490712208849
 30
0.0
 40
3.0
 50
279.99999999999852
 51
0.0
  0
ARC
  5
31FC
  8
AM_0
 10
320.98088667901482
 20
336.35585712208882
 30
0.0
 40
5.0000001000000003
 50
272.0000000000004
 51
279.99999999999852
  0
LINE
  5
31FD
  8
AM_0
 10
321.84911667901491
 20
331.43180712208868
 30
0.0
 11
323.08916667901451
 21
331.65047712208849
 31
0.0
  0
ARC
  5
31FE
  8
AM_0
 10
337.56830667901482
 20
345.91178712208853
 30
0.0
 40
2.00000007
 50
91.999998000000545
 51
163.27364999999941
  0
ARC
  5
31FF
  8
AM_0
 10
330.56822667901491
 20
337.90991712208847
 30
0.0
 40
5.0000001000000003
 50
91.999998000000545
 51
180.00001000000091
  0
ARC
  5
3200
  8
AM_0
 10
330.86444667901452
 20
347.92637712208852
 30
0.0
 40
5.0000001000000003
 50
272.0000000000004
 51
343.27365999999921
  0
LINE
  5
3201
  8
AM_0
 10
330.39380667901452
 20
342.90686712208873
 30
0.0
 11
331.03892667901471
 21
342.92942712208873
 31
0.0
  0
LINE
  5
3202
  8
AM_0
 10
342.56822667901491
 20
348.0875971220886
 30
0.0
 11
337.49840667901492
 21
347.91053712208839
 31
0.0
  0
LINE
  5
3203
  8
ﾁｭｳｼﾝｾﾝ1
 10
616.4313053136575
 20
180.7528501220884
 30
0.0
 11
616.4313053136575
 21
377.11284794910279
 31
0.0
  0
LINE
  5
3204
  8
AM_0
 10
706.43132331365723
 20
199.28759412208839
 30
0.0
 11
696.81915531365735
 21
277.0272061220885
 31
0.0
  0
LINE
  5
3205
  8
AM_0
 10
526.43134131365741
 20
199.2875791220884
 30
0.0
 11
536.04348531365758
 21
277.0272061220885
 31
0.0
  0
LINE
  5
3206
  8
AM_0
 10
670.43132331365723
 20
204.2875951220885
 30
0.0
 11
670.43132331365723
 21
275.28758112208862
 31
0.0
  0
LINE
  5
3207
  8
AM_0
 10
676.43132331365723
 20
238.08758412208849
 30
0.0
 11
676.43132331365723
 21
319.53755712208857
 31
0.0
  0
LINE
  5
3208
  8
AM_0
 10
562.4313053136575
 20
204.2875951220885
 30
0.0
 11
562.4313053136575
 21
275.28758112208862
 31
0.0
  0
LINE
  5
3209
  8
AM_0
 10
526.43131131365749
 20
199.2875791220884
 30
0.0
 11
534.22243131365758
 21
306.49730712208861
 31
0.0
  0
LINE
  5
320A
  8
AM_0
 10
706.43132331365723
 20
199.2875791220884
 30
0.0
 11
698.64017031365745
 21
306.49727712208869
 31
0.0
  0
LINE
  5
320B
  8
AM_0
 10
556.43133531365743
 20
319.53758712208872
 30
0.0
 11
556.4313053136575
 21
238.08758412208849
 31
0.0
  0
ARC
  5
320C
  8
AM_0
 10
616.4313053136575
 20
275.28758112208862
 30
0.0
 40
54.000003000000007
 50
0.0
 51
180.00001000000091
  0
CIRCLE
  5
320D
  8
AM_0
 10
616.4313053136575
 20
290.28758112208862
 30
0.0
 40
29.000001000000001
  0
LINE
  5
320E
  8
AM_0
 10
418.5682766790145
 20
262.26173112208852
 30
0.0
 11
418.5682766790145
 21
318.31343712208871
 31
0.0
  0
LINE
  5
320F
  8
AM_0
 10
415.56827667901428
 20
201.16056312208849
 30
0.0
 11
415.56827667901428
 21
326.53859712208867
 31
0.0
  0
LINE
  5
3210
  8
AM_0
 10
403.56827667901428
 20
216.9008911220885
 30
0.0
 11
403.56827667901428
 21
341.61944712208862
 31
0.0
  0
LINE
  5
3211
  8
AM_0
 10
669.43132431365723
 20
186.28757712208849
 30
0.0
 11
563.43133431365754
 21
186.28757712208849
 31
0.0
  0
ARC
  5
3212
  8
AM_0
 10
653.43132231365746
 20
192.2875951220885
 30
0.0
 40
5.0000001000000003
 50
0.0
 51
90.000003000000945
  0
ARC
  5
3213
  8
AM_0
 10
390.56822667901491
 20
184.2875791220884
 30
0.0
 40
1.0000000199999981
 50
0.0
 51
90.000003000000945
  0
LINE
  5
3214
  8
ｶｸﾚｾﾝ2
 10
409.56827667901462
 20
199.2875791220884
 30
0.0
 11
409.56827667901462
 21
184.2875791220884
 31
0.0
  0
LINE
  5
3215
  8
ｶｸﾚｾﾝ2
 10
397.5682766790145
 20
199.2875791220884
 30
0.0
 11
397.5682766790145
 21
184.2875791220884
 31
0.0
  0
LINE
  5
3216
  8
ﾁｭｳｼﾝｾﾝ1
 10
403.56821667901471
 20
204.2875951220885
 30
0.0
 11
403.56821667901471
 21
179.28757812208849
 31
0.0
  0
LINE
  5
3217
  8
AM_0
 10
418.5682766790145
 20
197.28759312208871
 30
0.0
 11
418.5682766790145
 21
184.2875791220884
 31
0.0
  0
LINE
  5
3218
  8
AM_0
 10
391.56827667901428
 20
184.2875791220884
 30
0.0
 11
418.5682766790145
 21
184.2875791220884
 31
0.0
  0
LINE
  5
3219
  8
AM_0
 10
391.56827667901428
 20
184.2875791220884
 30
0.0
 11
391.56827667901428
 21
184.2875791220884
 31
0.0
  0
LINE
  5
321A
  8
AM_0
 10
390.56822667901491
 20
199.2875791220884
 30
0.0
 11
416.56823667901472
 21
199.2875791220884
 31
0.0
  0
ARC
  5
321B
  8
AM_0
 10
417.56822667901491
 20
201.16056312208849
 30
0.0
 40
2.00000007
 50
179.9999899999988
 51
255.5224900000002
  0
ARC
  5
321C
  8
AM_0
 10
416.56823667901472
 20
197.28759312208871
 30
0.0
 40
2.00000007
 50
0.0
 51
90.000003000000945
  0
ARC
  5
321D
  8
AM_0
 10
398.56823667901449
 20
216.9008911220885
 30
0.0
 40
5.0000001000000003
 50
270.0
 51
0.0
  0
ARC
  5
321E
  8
AM_0
 10
416.56823667901472
 20
260.23484712208852
 30
0.0
 40
1.0000000199999981
 50
91.500001000001546
 51
180.00001000000091
  0
LINE
  5
321F
  8
AM_0
 10
416.5420466790145
 20
261.23451012208852
 30
0.0
 11
417.59441667901501
 21
261.26206812208852
 31
0.0
  0
ARC
  5
3220
  8
AM_0
 10
417.56822667901491
 20
262.26173112208852
 30
0.0
 40
1.0000000199999981
 50
271.49999999999932
 51
0.0
  0
LINE
  5
3221
  8
ｶｸﾚｾﾝ2
 10
535.43130231365717
 20
199.2875791220884
 30
0.0
 11
535.43130231365717
 21
184.28759412208839
 31
0.0
  0
LINE
  5
3222
  8
AM_0
 10
526.43131131365749
 20
184.28759412208839
 30
0.0
 11
526.43131131365749
 21
199.2875791220884
 31
0.0
  0
LINE
  5
3223
  8
ｶｸﾚｾﾝ2
 10
547.4313053136575
 20
199.2875791220884
 30
0.0
 11
547.4313053136575
 21
184.28759412208839
 31
0.0
  0
LINE
  5
3224
  8
ﾁｭｳｼﾝｾﾝ1
 10
541.4313023136574
 20
179.28757812208849
 30
0.0
 11
541.4313023136574
 21
204.2875951220885
 31
0.0
  0
LINE
  5
3225
  8
AM_0
 10
561.4313363136572
 20
184.28759412208839
 30
0.0
 11
561.4313363136572
 21
197.28759312208871
 31
0.0
  0
ARC
  5
3226
  8
AM_0
 10
563.43133431365754
 20
184.28759412208839
 30
0.0
 40
2.00000007
 50
90.000003000000945
 51
180.00001000000091
  0
LINE
  5
3227
  8
AM_0
 10
561.4313363136572
 20
184.28759412208839
 30
0.0
 11
526.43131131365749
 21
184.28759412208839
 31
0.0
  0
LINE
  5
3228
  8
AM_0
 10
579.43132131365735
 20
197.28759312208871
 30
0.0
 11
653.43132231365746
 21
197.28759312208871
 31
0.0
  0
ARC
  5
3229
  8
AM_0
 10
616.4313053136575
 20
238.08758412208849
 30
0.0
 40
60.000002999999992
 50
180.00001000000091
 51
205.8419300000003
  0
LINE
  5
322A
  8
AM_0
 10
559.43130531365728
 20
199.2875791220884
 30
0.0
 11
528.43132131365746
 21
199.2875791220884
 31
0.0
  0
ARC
  5
322B
  8
AM_0
 10
528.43132131365746
 20
197.28759312208871
 30
0.0
 40
2.00000007
 50
90.000003000000945
 51
180.00001000000091
  0
ARC
  5
322C
  8
AM_0
 10
569.43133431365766
 20
191.28759312208871
 30
0.0
 40
5.0000001000000003
 50
270.0
 51
0.0
  0
ARC
  5
322D
  8
AM_0
 10
557.43133431365766
 20
204.2875951220885
 30
0.0
 40
5.0000001000000003
 50
270.0
 51
0.0
  0
ARC
  5
322E
  8
AM_0
 10
559.43130531365728
 20
197.28759312208871
 30
0.0
 40
2.00000007
 50
0.0
 51
90.000003000000945
  0
ARC
  5
322F
  8
AM_0
 10
579.43132131365735
 20
192.2875951220885
 30
0.0
 40
5.0000001000000003
 50
90.000003000000945
 51
180.00001000000091
  0
LINE
  5
3230
  8
AM_0
 10
574.4313053136575
 20
191.28759312208871
 30
0.0
 11
574.4313053136575
 21
192.2875951220885
 31
0.0
  0
ARC
  5
3231
  8
AM_0
 10
616.4313053136575
 20
267.08756712208873
 30
0.0
 40
81.000003000000007
 50
265.97275000000059
 51
274.0272499999993
  0
ARC
  5
3232
  8
AM_0
 10
669.43132431365723
 20
184.28759412208839
 30
0.0
 40
2.00000007
 50
0.0
 51
90.000003000000945
  0
LINE
  5
3233
  8
AM_0
 10
671.43132231365746
 20
184.28759412208839
 30
0.0
 11
671.43132231365746
 21
197.28759312208871
 31
0.0
  0
LINE
  5
3234
  8
ｶｸﾚｾﾝ2
 10
685.43132331365723
 20
199.2875791220884
 30
0.0
 11
685.43132331365723
 21
184.28759412208839
 31
0.0
  0
LINE
  5
3235
  8
ｶｸﾚｾﾝ2
 10
697.43132331365723
 20
199.2875791220884
 30
0.0
 11
697.43132331365723
 21
184.28759412208839
 31
0.0
  0
LINE
  5
3236
  8
ﾁｭｳｼﾝｾﾝ1
 10
691.43130831365772
 20
179.28757812208849
 30
0.0
 11
691.43130831365772
 21
204.2875951220885
 31
0.0
  0
LINE
  5
3237
  8
AM_0
 10
706.43132331365723
 20
184.28759412208839
 30
0.0
 11
706.43132331365723
 21
199.2875791220884
 31
0.0
  0
LINE
  5
3238
  8
AM_0
 10
671.43132231365746
 20
184.28759412208839
 30
0.0
 11
706.43132331365723
 21
184.28759412208839
 31
0.0
  0
ARC
  5
3239
  8
AM_0
 10
616.4313053136575
 20
238.08758412208849
 30
0.0
 40
60.000002999999992
 50
334.15806999999961
 51
0.0
  0
LINE
  5
323A
  8
AM_0
 10
673.43132331365757
 20
199.2875791220884
 30
0.0
 11
704.43132531365745
 21
199.2875791220884
 31
0.0
  0
ARC
  5
323B
  8
AM_0
 10
675.43132431365711
 20
204.2875951220885
 30
0.0
 40
5.0000001000000003
 50
179.9999899999988
 51
270.0
  0
ARC
  5
323C
  8
AM_0
 10
663.43132131365735
 20
191.28759312208871
 30
0.0
 40
5.0000001000000003
 50
179.9999899999988
 51
270.0
  0
LINE
  5
323D
  8
AM_0
 10
658.43132331365723
 20
191.28759312208871
 30
0.0
 11
658.43132331365723
 21
192.2875951220885
 31
0.0
  0
ARC
  5
323E
  8
AM_0
 10
673.43132331365757
 20
197.28759312208871
 30
0.0
 40
2.00000007
 50
90.000003000000945
 51
180.00001000000091
  0
ARC
  5
323F
  8
AM_0
 10
704.43132531365745
 20
197.28759312208871
 30
0.0
 40
2.00000007
 50
0.0
 51
90.000003000000945
  0
ARC
  5
3240
  8
AM_0
 10
616.4313053136575
 20
292.08758112208852
 30
0.0
 40
80.0
 50
19.16048605263148
 51
160.8395378091131
  0
ARC
  5
3241
  8
AM_0
 10
616.4313053136575
 20
267.08760012208847
 30
0.0
 40
81.000003000000007
 50
7.0485986000007923
 51
172.9514000000008
  0
LINE
  5
3242
  8
AM_0
 10
421.5682766790145
 20
304.28762712208862
 30
0.0
 11
463.56827667901462
 21
304.28762712208862
 31
0.0
  0
LINE
  5
3243
  8
AM_0
 10
421.5682766790145
 20
276.28758012208863
 30
0.0
 11
463.56827667901462
 21
276.28758012208863
 31
0.0
  0
LINE
  5
3244
  8
AM_0
 10
431.5682366790146
 20
307.28762712208868
 30
0.0
 11
463.56827667901462
 21
307.28762712208868
 31
0.0
  0
LINE
  5
3245
  8
AM_0
 10
418.5682766790145
 20
275.28758112208862
 30
0.0
 11
421.5682766790145
 21
275.28758112208862
 31
0.0
  0
LINE
  5
3246
  8
AM_0
 10
418.5682766790145
 20
305.28758712208872
 30
0.0
 11
421.5682766790145
 21
305.28758712208872
 31
0.0
  0
LINE
  5
3247
  8
AM_0
 10
421.5682766790145
 20
305.28758712208872
 30
0.0
 11
421.5682766790145
 21
275.28758112208862
 31
0.0
  0
LINE
  5
3248
  8
AM_0
 10
431.5682366790146
 20
307.28762712208868
 30
0.0
 11
431.5682366790146
 21
304.28762712208862
 31
0.0
  0
ARC
  5
3249
  8
AM_0
 10
408.56822667901491
 20
334.91912712208853
 30
0.0
 40
5.0000001000000003
 50
179.9999899999988
 51
265.00000000000028
  0
LINE
  5
324A
  8
AM_0
 10
395.5682366790146
 20
321.52085712208873
 30
0.0
 11
403.56827667901428
 21
321.52085712208873
 31
0.0
  0
ARC
  5
324B
  8
AM_0
 10
416.56823667901472
 20
320.3402971220886
 30
0.0
 40
1.0000000199999981
 50
179.9999899999988
 51
268.50000999999872
  0
LINE
  5
324C
  8
AM_0
 10
416.5420466790145
 20
319.34060712208861
 30
0.0
 11
417.59441667901501
 21
319.31306712208863
 31
0.0
  0
ARC
  5
324D
  8
AM_0
 10
417.56822667901491
 20
318.31343712208871
 30
0.0
 40
1.0000000199999981
 50
0.0
 51
88.499997000000747
  0
LINE
  5
324E
  8
AM_0
 10
408.13247667901481
 20
329.93813712208862
 30
0.0
 11
412.82972667901458
 21
329.52716712208871
 31
0.0
  0
ARC
  5
324F
  8
AM_0
 10
412.5682766790145
 20
326.53859712208867
 30
0.0
 40
3.0
 50
0.0
 51
84.999996999998572
  0
ARC
  5
3250
  8
AM_0
 10
398.56823667901449
 20
341.61944712208862
 30
0.0
 40
5.0000001000000003
 50
0.0
 51
88.499997000000747
  0
LINE
  5
3251
  8
AM_0
 10
463.56827667901462
 20
307.28762712208868
 30
0.0
 11
463.56827667901462
 21
276.28758012208863
 31
0.0
  0
LINE
  5
3252
  8
ﾁｭｳｼﾝｾﾝ1
 10
580.35320931365754
 20
290.28758112208862
 30
0.0
 11
652.68959331365727
 21
290.28758112208862
 31
0.0
  0
ARC
  5
3253
  8
AM_0
 10
550.1803883136572
 20
305.33756712208873
 30
0.0
 40
16.000000499999999
 50
118.17613999999919
 51
175.8435100000012
  0
LINE
  5
3254
  8
AM_0
 10
542.62545531365765
 20
319.44158712208861
 30
0.0
 11
578.18444931365718
 21
338.4890671220885
 31
0.0
  0
ARC
  5
3255
  8
AM_0
 10
561.4313363136572
 20
319.53755712208857
 30
0.0
 40
5.0000001000000003
 50
136.35948999999979
 51
180.00001000000091
  0
ARC
  5
3256
  8
AM_0
 10
616.4313053136575
 20
290.28758112208862
 30
0.0
 40
14.000001299999999
 50
106.6015399999982
 51
73.398452000001853
  0
CIRCLE
  5
3257
  8
AM_0
 62
     2
 10
616.4313053136575
 20
290.28758112208862
 30
0.0
 40
4.000000199999997
  0
CIRCLE
  5
3258
  8
AM_0
 10
616.4313053136575
 20
290.28758112208862
 30
0.0
 40
3.0
  0
LINE
  5
3259
  8
AM_0
 10
612.43130631365739
 20
300.28757712208869
 30
0.0
 11
612.43130631365739
 21
307.28762712208868
 31
0.0
  0
LINE
  5
325A
  8
AM_0
 10
620.4312923136572
 20
300.28757712208869
 30
0.0
 11
620.4312923136572
 21
307.28762712208868
 31
0.0
  0
LINE
  5
325B
  8
AM_0
 10
612.43130631365739
 20
300.28757712208869
 30
0.0
 11
620.4312923136572
 21
300.28757712208869
 31
0.0
  0
LINE
  5
325C
  8
AM_0
 10
612.43130631365739
 20
307.28762712208868
 30
0.0
 11
620.4312923136572
 21
307.28762712208868
 31
0.0
  0
ARC
  5
325D
  8
AM_0
 10
682.68225531365761
 20
305.33756712208873
 30
0.0
 40
16.000000499999999
 50
4.1564916000008019
 51
61.823860000000678
  0
LINE
  5
325E
  8
AM_0
 10
690.23720031365758
 20
319.4416171220887
 30
0.0
 11
654.67819431365751
 21
338.48909712208848
 31
0.0
  0
ARC
  5
325F
  8
AM_0
 10
671.43132231365746
 20
319.53755712208857
 30
0.0
 40
5.0000001000000003
 50
0.0
 51
43.64050000000065
  0
LINE
  5
3261
  8
0
 10
209.5682766790145
 20
614.88556329884295
 30
0.0
 11
209.5682766790145
 21
458.88556329884318
 31
0.0
1001
GENIUS_GENOREF_13
1005
2FB2
  0
LINE
  5
3262
  8
0
 10
199.5682766790145
 20
456.88556329884301
 30
0.0
 11
199.5682766790145
 21
616.88556329884318
 31
0.0
1001
GENIUS_GENOREF_13
1005
2FB2
  0
LINE
  5
3263
  8
0
 10
199.5682766790145
 20
456.88556329884301
 30
0.0
 11
207.5682766790145
 21
456.88556329884301
 31
0.0
  0
ARC
  5
3264
  8
0
 10
207.5682766790145
 20
458.88556329884318
 30
0.0
 40
2.0
 50
270.0
 51
0.0
1001
GENIUS_GENOBJ-N-FIL_13
1002
{
1000
OWNER
1000
GEN
1002
}
1001
GENIUS_GENODEF_13
1002
{
1000
HIER
1070
     0
1002
}
1002
{
1000
MANEDIT
1070
     0
1002
}
1002
{
1000
NOSEL
1070
     0
1002
}
1002
{
1000
BEHIND
1070
     0
1002
}
1002
{
1000
OTHER
1070
     0
1002
}
1002
{
1000
REACTOR
1002
}
  0
LINE
  5
3265
  8
AM_0
 10
230.5682766790145
 20
504.94812129884309
 30
0.0
 11
209.5682766790145
 21
504.94812129884309
 31
0.0
  0
LINE
  5
3266
  8
AM_0
 10
230.5682766790145
 20
490.88554629884311
 30
0.0
 11
209.5682766790145
 21
490.88554629884311
 31
0.0
  0
LINE
  5
3267
  8
0
 10
211.49847768560929
 20
479.71963124394023
 30
0.0
 11
230.5682766790145
 21
480.38556329884301
 31
0.0
  0
ARC
  5
3268
  8
0
 10
211.5682766790145
 20
477.72084958990217
 30
0.0
 40
2.0
 50
92.000000000000341
 51
180.0
1001
GENIUS_GENOBJ-N-FIL_13
1002
{
1000
OWNER
1000
GEN
1002
}
1001
GENIUS_GENODEF_13
1002
{
1000
HIER
1070
     0
1002
}
1002
{
1000
MANEDIT
1070
     0
1002
}
1002
{
1000
NOSEL
1070
     0
1002
}
1002
{
1000
BEHIND
1070
     0
1002
}
1002
{
1000
OTHER
1070
     0
1002
}
1002
{
1000
REACTOR
1002
}
  0
LINE
  5
3269
  8
AM_0
 10
230.5682766790145
 20
582.88556229884296
 30
0.0
 11
209.5682766790145
 21
582.88556229884296
 31
0.0
  0
LINE
  5
326A
  8
AM_0
 10
230.5682766790145
 20
568.82300229884311
 30
0.0
 11
209.5682766790145
 21
568.82300229884311
 31
0.0
  0
LINE
  5
326B
  8
0
 10
211.49847768560929
 20
594.05149535374585
 30
0.0
 11
230.5682766790145
 21
593.38556329884295
 31
0.0
  0
ARC
  5
326C
  8
0
 10
211.5682766790145
 20
596.05027700778385
 30
0.0
 40
2.0
 50
180.0
 51
267.9999999999996
1001
GENIUS_GENOBJ-N-FIL_13
1002
{
1000
OWNER
1000
GEN
1002
}
1001
GENIUS_GENODEF_13
1002
{
1000
HIER
1070
     0
1002
}
1002
{
1000
MANEDIT
1070
     0
1002
}
1002
{
1000
NOSEL
1070
     0
1002
}
1002
{
1000
BEHIND
1070
     0
1002
}
1002
{
1000
OTHER
1070
     0
1002
}
1002
{
1000
REACTOR
1002
}
  0
LINE
  5
326D
  8
0
 10
199.5682766790145
 20
616.88556329884318
 30
0.0
 11
207.5682766790145
 21
616.88556329884318
 31
0.0
  0
ARC
  5
326E
  8
0
 10
207.5682766790145
 20
614.88556329884295
 30
0.0
 40
2.0
 50
0.0
 51
90.0
1001
GENIUS_GENOBJ-N-FIL_13
1002
{
1000
OWNER
1000
GEN
1002
}
1001
GENIUS_GENODEF_13
1002
{
1000
HIER
1070
     0
1002
}
1002
{
1000
MANEDIT
1070
     0
1002
}
1002
{
1000
NOSEL
1070
     0
1002
}
1002
{
1000
BEHIND
1070
     0
1002
}
1002
{
1000
OTHER
1070
     0
1002
}
1002
{
1000
REACTOR
1002
}
  0
TEXT
  5
344B
  8
AM_0
 10
522.20191132429625
 20
579.60744736211188
 30
0.0
 40
10.0
  1
VX01-240A~VX01-600A
  0
ENDSEC
  0
EOF
