  0
SECTION
  2
HEADER
  9
$ACADVER
  1
AC1009
  9
$INSBASE
 10
0.0
 20
0.0
 30
0.0
  9
$EXTMIN
 10
90.356188005484
 20
170.80881864669911
 30
-0.0000000349181948
  9
$EXTMAX
 10
744.78085513212818
 20
731.20197522513695
 30
0.0000000814935747
  9
$LIMMIN
 10
0.0
 20
0.0
  9
$LIMMAX
 10
853.5
 20
555.00000000000011
  9
$ORTHOMODE
 70
     0
  9
$REGENMODE
 70
     1
  9
$FILLMODE
 70
     1
  9
$QTEXTMODE
 70
     0
  9
$MIRRTEXT
 70
     1
  9
$DRAGMODE
 70
     2
  9
$LTSCALE
 40
3.0
  9
$OSMODE
 70
   551
  9
$ATTMODE
 70
     1
  9
$TEXTSIZE
 40
2.5
  9
$TRACEWID
 40
1.0
  9
$TEXTSTYLE
  7
STANDARD
  9
$CLAYER
  8
AM_0
  9
$CELTYPE
  6
BYLAYER
  9
$CECOLOR
 62
   256
  9
$DIMSCALE
 40
1.0
  9
$DIMASZ
 40
2.5
  9
$DIMEXO
 40
1.0
  9
$DIMDLI
 40
8.0
  9
$DIMRND
 40
0.0
  9
$DIMDLE
 40
0.0
  9
$DIMEXE
 40
0.6
  9
$DIMTP
 40
0.1
  9
$DIMTM
 40
0.1
  9
$DIMTXT
 40
2.5
  9
$DIMCEN
 40
0.0
  9
$DIMTSZ
 40
0.0
  9
$DIMTOL
 70
     0
  9
$DIMLIM
 70
     0
  9
$DIMTIH
 70
     0
  9
$DIMTOH
 70
     0
  9
$DIMSE1
 70
     0
  9
$DIMSE2
 70
     0
  9
$DIMTAD
 70
     1
  9
$DIMZIN
 70
     8
  9
$DIMBLK
  1

  9
$DIMASO
 70
     1
  9
$DIMSHO
 70
     1
  9
$DIMPOST
  1

  9
$DIMAPOST
  1
"
  9
$DIMALT
 70
     0
  9
$DIMALTD
 70
     2
  9
$DIMALTF
 40
0.0393701
  9
$DIMLFAC
 40
1.0
  9
$DIMTOFL
 70
     1
  9
$DIMTVP
 40
0.0
  9
$DIMTIX
 70
     0
  9
$DIMSOXD
 70
     0
  9
$DIMSAH
 70
     0
  9
$DIMBLK1
  1

  9
$DIMBLK2
  1

  9
$DIMSTYLE
  2
AM_ISO
  9
$DIMCLRD
 70
   256
  9
$DIMCLRE
 70
   256
  9
$DIMCLRT
 70
     4
  9
$DIMTFAC
 40
0.71
  9
$DIMGAP
 40
0.8
  9
$LUNITS
 70
     2
  9
$LUPREC
 70
     2
  9
$SKETCHINC
 40
1.0
  9
$FILLETRAD
 40
15.0
  9
$AUNITS
 70
     0
  9
$AUPREC
 70
     0
  9
$MENU
  1
.
  9
$ELEVATION
 40
0.0
  9
$PELEVATION
 40
0.0
  9
$THICKNESS
 40
0.0
  9
$LIMCHECK
 70
     0
  9
$BLIPMODE
 70
     0
  9
$CHAMFERA
 40
6.0
  9
$CHAMFERB
 40
3.0
  9
$SKPOLY
 70
     0
  9
$TDCREATE
 40
2452065.666821829
  9
$TDUPDATE
 40
2458541.465066887
  9
$TDINDWG
 40
0.1159693866
  9
$TDUSRTIMER
 40
0.1159691898
  9
$USRTIMER
 70
     1
  9
$ANGBASE
 50
0.0
  9
$ANGDIR
 70
     0
  9
$PDMODE
 70
     0
  9
$PDSIZE
 40
0.0
  9
$PLINEWID
 40
0.0
  9
$COORDS
 70
     1
  9
$SPLFRAME
 70
     0
  9
$SPLINETYPE
 70
     6
  9
$SPLINESEGS
 70
     8
  9
$ATTDIA
 70
     1
  9
$ATTREQ
 70
     1
  9
$HANDLING
 70
     1
  9
$HANDSEED
  5
3662
  9
$SURFTAB1
 70
     6
  9
$SURFTAB2
 70
     6
  9
$SURFTYPE
 70
     6
  9
$SURFU
 70
     6
  9
$SURFV
 70
     6
  9
$UCSNAME
  2

  9
$UCSORG
 10
0.0
 20
0.0
 30
0.0
  9
$UCSXDIR
 10
1.0
 20
0.0
 30
0.0
  9
$UCSYDIR
 10
0.0
 20
1.0
 30
0.0
  9
$PUCSNAME
  2

  9
$PUCSORG
 10
0.0
 20
0.0
 30
0.0
  9
$PUCSXDIR
 10
1.0
 20
0.0
 30
0.0
  9
$PUCSYDIR
 10
0.0
 20
1.0
 30
0.0
  9
$USERI1
 70
     0
  9
$USERI2
 70
     0
  9
$USERI3
 70
     0
  9
$USERI4
 70
     0
  9
$USERI5
 70
     0
  9
$USERR1
 40
0.0
  9
$USERR2
 40
0.0
  9
$USERR3
 40
0.0
  9
$USERR4
 40
0.0
  9
$USERR5
 40
0.0
  9
$WORLDVIEW
 70
     1
  9
$SHADEDGE
 70
     3
  9
$SHADEDIF
 70
    70
  9
$TILEMODE
 70
     1
  9
$MAXACTVP
 70
    64
  9
$PLIMCHECK
 70
     0
  9
$PEXTMIN
 10
1.0000000000000000E+020
 20
1.0000000000000000E+020
 30
1.0000000000000000E+020
  9
$PEXTMAX
 10
-1.0000000000000000E+020
 20
-1.0000000000000000E+020
 30
-1.0000000000000000E+020
  9
$PLIMMIN
 10
0.0
 20
0.0
  9
$PLIMMAX
 10
420.0
 20
297.0
  9
$UNITMODE
 70
     0
  9
$VISRETAIN
 70
     1
  9
$PLINEGEN
 70
     0
  9
$PSLTSCALE
 70
     1
  0
ENDSEC
  0
SECTION
  2
TABLES
  0
TABLE
  2
VPORT
 70
     1
  0
VPORT
  2
*ACTIVE
 70
     0
 10
0.0
 20
0.0
 11
1.0
 21
1.0
 12
417.56852156880609
 22
451.00539693591799
 13
0.0
 23
0.0
 14
7.5
 24
7.5
 15
30.0
 25
30.0
 16
0.0
 26
0.0
 36
1.0
 17
0.0
 27
0.0
 37
0.0
 40
564.24024918652765
 41
1.7571592210767459
 42
50.0
 43
0.0
 44
0.0
 50
0.0
 51
0.0
 71
     0
 72
   100
 73
     1
 74
     3
 75
     0
 76
     0
 77
     0
 78
     0
  0
ENDTAB
  0
TABLE
  2
LTYPE
 70
    26
  0
LTYPE
  2
CONTINUOUS
 70
     0
  3
Solid line
 72
    65
 73
     0
 40
0.0
  0
LTYPE
  2
AM_ISO02W050
 70
     0
  3
__ __ __ __ __ __ __ __ __ __ __ __ __ __ __
 72
    65
 73
     2
 40
7.5
 49
6.0
 49
-1.5
  0
LTYPE
  2
AM_ISO08W050
 70
     0
  3
____ . ____ . ____ . ____ . ____ . ____ . ____
 72
    65
 73
     4
 40
18.0
 49
12.0
 49
-1.5
 49
3.0
 49
-1.5
  0
LTYPE
  2
AM_ISO09W050
 70
     0
  3
_____ . . _____ . . _____ . . ____ .. ____
 72
    65
 73
     6
 40
22.5
 49
12.0
 49
-1.5
 49
3.0
 49
-1.5
 49
3.0
 49
-1.5
  0
LTYPE
  2
AMCONSTR
 70
     0
  3
_______________________
 72
    65
 73
     2
 40
9999.0
 49
9999.0
 49
0.0
  0
LTYPE
  2
AM_ISO08W050X2
 70
     0
  3
__ . __ . __ . __ . __ . __
 72
    65
 73
     4
 40
9.0
 49
6.0
 49
-0.75
 49
1.5
 49
-0.75
  0
LTYPE
  2
AM_ISO02W050X2
 70
     0
  3
 _ _ _ _ _ _ _ _ _ _ _ _
 72
    65
 73
     2
 40
3.75
 49
3.0
 49
-0.75
  0
LTYPE
  2
AMZIGZAG
 70
     0
  3
/\/-/\/-/\/-/\/-/\/-/\/
 72
    65
 73
     2
 40
11.000099999999991
 49
0.0001
 49
-11.0
  0
LTYPE
  2
ACISOWELD
 70
     0
  3
_ _ _ _ _
 72
    65
 73
     2
 40
2.0
 49
2.0
 49
-1.0
  0
LTYPE
  2
ACISOTGB
 70
     0
  3
__ . . __ . .
 72
    65
 73
     6
 40
9.0
 49
4.0
 49
-1.0
 49
1.0
 49
-1.0
 49
1.0
 49
-1.0
  0
LTYPE
  2
ACISOTGL
 70
     0
  3
_ _ _ _ _
 72
    65
 73
     2
 40
3.0
 49
2.0
 49
-1.0
  0
LTYPE
  2
CENTER
 70
     0
  3
__ . __
 72
    65
 73
     4
 40
7.0
 49
4.0
 49
-1.0
 49
1.0
 49
-1.0
  0
LTYPE
  2
PHANTOM2
 70
     0
  3
Phantom (.5x) ___ _ _ ___ _ _ ___ _ _ ___ _ _
 72
    65
 73
     6
 40
31.75
 49
15.875
 49
-3.174999999999998
 49
3.174999999999998
 49
-3.174999999999998
 49
3.174999999999998
 49
-3.174999999999998
  0
LTYPE
  2
ACANSTGBM
 70
     0
  3
__ . . __ . .
 72
    65
 73
     6
 40
9.0
 49
4.0
 49
-1.0
 49
1.0
 49
-1.0
 49
1.0
 49
-1.0
  0
LTYPE
  2
ACANSTGLM
 70
     0
  3
_ _ _ _ _
 72
    65
 73
     2
 40
3.0
 49
2.0
 49
-1.0
  0
LTYPE
  2
GEN3B
 70
     0
  3
 - - - - -
 72
    65
 73
     2
 40
1.0
 49
0.5
 49
-0.5
  0
LTYPE
  2
GEN7A
 70
     0
  3
__ . __ . __
 72
    65
 73
     4
 40
7.375
 49
4.75
 49
-0.875
 49
0.875
 49
-0.875
  0
LTYPE
  2
ACJISTGB
 70
     0
  3
__ . . __ . .
 72
    65
 73
     6
 40
9.0
 49
4.0
 49
-1.0
 49
1.0
 49
-1.0
 49
1.0
 49
-1.0
  0
LTYPE
  2
ACJISTGL
 70
     0
  3
_ _ _ _ _
 72
    65
 73
     2
 40
3.0
 49
2.0
 49
-1.0
  0
LTYPE
  2
HIDDEN
 70
     0
  3
Hidden __ __ __ __ __ __ __ __ __ __ __ __ __ _
 72
    65
 73
     2
 40
0.375
 49
0.25
 49
-0.125
  0
LTYPE
  2
CENTER2
 70
     0
  3
Center (.5x) ___ _ ___ _ ___ _ ___ _ ___ _ ___
 72
    65
 73
     4
 40
1.125
 49
0.75
 49
-0.125
 49
0.125
 49
-0.125
  0
LTYPE
  2
HIDDEN2
 70
     0
  3
Hidden (.5x) _ _ _ _ _ _ _ _ _ _ _ _ _ _ _ _ _
 72
    65
 73
     2
 40
0.1875
 49
0.125
 49
-0.0625
  0
LTYPE
  2
AMZIGZAG2
 70
     0
  3
/\/-/\/-/\/-/\/-/\/-/\/
 72
    65
 73
     2
 40
0.4401
 49
0.0001
 49
-0.4400000000000002
  0
LTYPE
  2
ACANSTGB
 70
     0
  3
__ . . __ . .
 72
    65
 73
     6
 40
0.35433070866
 49
0.15748031496
 49
-0.03937007874
 49
0.03937007874
 49
-0.03937007874
 49
0.03937007874
 49
-0.03937007874
  0
LTYPE
  2
ACANSTGL
 70
     0
  3
_ _ _ _ _
 72
    65
 73
     2
 40
0.11811023622
 49
0.07874015748
 49
-0.03937007874
  0
ENDTAB
  0
TABLE
  2
LAYER
 70
     5
  0
LAYER
  2
0
 70
     0
 62
     7
  6
CONTINUOUS
  0
LAYER
  2
AM_0
 70
     0
 62
     7
  6
CONTINUOUS
  0
LAYER
  2
DEFPOINTS
 70
     0
 62
     7
  6
CONTINUOUS
  0
LAYER
  2
ｶｸﾚｾﾝ2
 70
     0
 62
     3
  6
GEN3B
  0
LAYER
  2
ﾁｭｳｼﾝｾﾝ1
 70
     0
 62
     1
  6
GEN7A
  0
ENDTAB
  0
TABLE
  2
STYLE
 70
     9
  0
STYLE
  2
STANDARD
 70
     0
 40
0.0
 41
0.8299999999999999
 50
0.0
 71
     0
 42
2.5
  3
txt.shx
  4
bigfont.shx
  0
STYLE
  2
ANNOTATIVE
 70
     0
 40
0.0
 41
1.0
 50
0.0
 71
     0
 42
0.2
  3
txt
  4

  0
STYLE
  2

 70
     1
 40
0.0
 41
1.0
 50
0.0
 71
     0
 42
2.5
  3
ltypeshp.shx
  4

  0
STYLE
  2
ACISOTS
 70
     0
 40
1.0
 41
1.0
 50
0.0
 71
     0
 42
2.5
  3
isocp.shx
  4
extfont.shx
  0
STYLE
  2
ACISOGDT
 70
     0
 40
0.0
 41
1.0
 50
0.0
 71
     0
 42
2.5
  3
amgdt.shx
  4

  0
STYLE
  2
ACANSTS
 70
     0
 40
1.0
 41
1.0
 50
0.0
 71
     0
 42
2.5
  3
romans.shx
  4
bigfont.shx
  0
STYLE
  2
ACANSGDT
 70
     0
 40
0.0
 41
1.0
 50
0.0
 71
     0
 42
2.5
  3
amgdt.shx
  4

  0
STYLE
  2
ACJISTS
 70
     0
 40
1.0
 41
1.0
 50
0.0
 71
     0
 42
2.5
  3
isocp.shx
  4
bigfont.shx
  0
STYLE
  2
ACJISGDT
 70
     0
 40
0.0
 41
1.0
 50
0.0
 71
     0
 42
2.5
  3
amgdt.shx
  4

  0
ENDTAB
  0
TABLE
  2
VIEW
 70
     6
  0
VIEW
  2
AM_VIEW1
 70
     0
 40
277.49999999999989
 10
249.64779005524849
 20
416.24999999999989
 41
499.2955801104971
 11
0.0
 21
0.0
 31
1.0
 12
0.0
 22
0.0
 32
0.0
 42
50.0
 43
0.0
 44
0.0
 50
0.0
 71
     0
  0
VIEW
  2
AM_VIEW2
 70
     0
 40
277.49999999999989
 10
603.85220994475117
 20
416.24999999999989
 41
499.2955801104971
 11
0.0
 21
0.0
 31
1.0
 12
0.0
 22
0.0
 32
0.0
 42
50.0
 43
0.0
 44
0.0
 50
0.0
 71
     0
  0
VIEW
  2
AM_VIEW3
 70
     0
 40
277.49999999999989
 10
249.64779005524849
 20
138.7499999999998
 41
499.2955801104971
 11
0.0
 21
0.0
 31
1.0
 12
0.0
 22
0.0
 32
0.0
 42
50.0
 43
0.0
 44
0.0
 50
0.0
 71
     0
  0
VIEW
  2
AM_VIEW4
 70
     0
 40
277.49999999999989
 10
603.85220994475117
 20
138.7499999999998
 41
499.2955801104971
 11
0.0
 21
0.0
 31
1.0
 12
0.0
 22
0.0
 32
0.0
 42
50.0
 43
0.0
 44
0.0
 50
0.0
 71
     0
  0
VIEW
  2
AM_VIEW5
 70
     0
 40
277.5
 10
426.75
 20
277.49999999999989
 41
499.2955801104971
 11
0.0
 21
0.0
 31
1.0
 12
0.0
 22
0.0
 32
0.0
 42
50.0
 43
0.0
 44
0.0
 50
0.0
 71
     0
  0
VIEW
  2
AM_VIEW6
 70
     0
 40
554.99445000000014
 10
426.75
 20
277.49999999999989
 41
998.5811743093924
 11
0.0
 21
0.0
 31
1.0
 12
0.0
 22
0.0
 32
0.0
 42
50.0
 43
0.0
 44
0.0
 50
0.0
 71
     0
  0
ENDTAB
  0
TABLE
  2
UCS
 70
     0
  0
ENDTAB
  0
TABLE
  2
APPID
 70
    95
  0
APPID
  2
ACAD
 70
     0
  0
APPID
  2
ACADANNOTATIVE
 70
     0
  0
APPID
  2
MCAD_NO_VIS
 70
     0
  0
APPID
  2
ACAD_TEMP_GRAPHIC
 70
     0
  0
APPID
  2
ACATTRIBSERVICES
 70
     0
  0
APPID
  2
GENIUS_GENREC_14
 70
     0
  0
APPID
  2
GENIUS_GENOBJ-N-REC_13
 70
     0
  0
APPID
  2
GENIUS_GENODEF_13
 70
     0
  0
APPID
  2
GENIUS_GENOLIS_13
 70
     0
  0
APPID
  2
GENIUS_GENOBJ-N-TIT_13
 70
     0
  0
APPID
  2
GENIUS_GENOENT_13
 70
     0
  0
APPID
  2
GENIUS_GENTITLE_13
 70
     0
  0
APPID
  2
GENIUS_GENOREF_13
 70
     0
  0
APPID
  2
GENIUS_GENSCREG_15
 70
     0
  0
APPID
  2
GENIUS_GENOBJ-N-SDF_13
 70
     0
  0
APPID
  2
GENIUS_GENFIL_13
 70
     0
  0
APPID
  2
GENIUS_GENOBJ-N-CHA_13
 70
     0
  0
APPID
  2
GENIUS_GENDTOL_13
 70
     0
  0
APPID
  2
GENIUS_GENOBJ-N-FIL_13
 70
     0
  0
APPID
  2
AD_DRAW
 70
     0
  0
APPID
  2
DESIGNERASSEMBLIES
 70
     0
  0
APPID
  2
ASURF_PCURVE_APPNAME
 70
     0
  0
APPID
  2
GENIUS_GE3SECT_13
 70
     0
  0
APPID
  2
GENIUS_GENCFG_13
 70
     0
  0
APPID
  2
GENIUS_GE3CFG0_13
 70
     0
  0
APPID
  2
GENIUS_GENCFG0_13
 70
     0
  0
APPID
  2
GENIUS_GENCFG1_13
 70
     0
  0
APPID
  2
GENIUS_GENCFG2_13
 70
     0
  0
APPID
  2
GENIUS_GENCFG3_13
 70
     0
  0
APPID
  2
GENIUS_GENCFG4_13
 70
     0
  0
APPID
  2
GENIUS_GEVCFG0_13
 70
     0
  0
APPID
  2
GENIUS_GENHINW_13
 70
     0
  0
APPID
  2
GENIUS_FIRSTVISTXT_14
 70
     0
  0
APPID
  2
GENIUS_GENOBJ-N-LEADER_13
 70
     0
  0
APPID
  2
GEV_VCCNULL_SWITCH_OFF
 70
     0
  0
APPID
  2
GENIUS_GEFCFG0_13
 70
     0
  0
APPID
  2
GENIUS_GENZVEED_13
 70
     0
  0
APPID
  2
GENIUS_GENSCREG_13
 70
     0
  0
APPID
  2
GENIUS_DUMCFG0_13
 70
     0
  0
APPID
  2
GEVID936201362
 70
     0
  0
APPID
  2
GEVDC
 70
     0
  0
APPID
  2
GEVCON
 70
     0
  0
APPID
  2
VCC
 70
     0
  0
APPID
  2
GEVPT
 70
     0
  0
APPID
  2
GEVIT
 70
     0
  0
APPID
  2
GENBH
 70
     0
  0
APPID
  2
GEVMK
 70
     0
  0
APPID
  2
GENIUS_GENBH_13
 70
     0
  0
APPID
  2
GENIUS_GENOBJ-NBEHI-BHF_13
 70
     0
  0
APPID
  2
GENIUS_GENOBJ-NBEHI-BHB_13
 70
     0
  0
APPID
  2
GENIUS_GENOBJ-F-DESC_13
 70
     0
  0
APPID
  2
GENIUS_GEFDESC_14
 70
     0
  0
APPID
  2
GENIUS_GENOBJ-F-PART_13
 70
     0
  0
APPID
  2
GENIUS_GEFSTDP_13
 70
     0
  0
APPID
  2
GENIUS_GEFPARTINS_13
 70
     0
  0
APPID
  2
GENIUS_GENTRA_14
 70
     0
  0
APPID
  2
GENIUS_GENINF13_13
 70
     0
  0
APPID
  2
GENIUS_GENOBJ-N-INFOPT_13
 70
     0
  0
APPID
  2
GENIUS_GENOBJ-N-RSSYM_13
 70
     0
  0
APPID
  2
GENIUS_GENSYMENT_13
 70
     0
  0
APPID
  2
GENIUS_GENSCSYM_13
 70
     0
  0
APPID
  2
GENIUS_GEFINFNAM_13
 70
     0
  0
APPID
  2
GENIUS_GENOBJ-N-CEN_13
 70
     0
  0
APPID
  2
GENIUS_GENOBJ-N-CRS_13
 70
     0
  0
APPID
  2
GENIUS_GENOBJ-N-CRC_13
 70
     0
  0
APPID
  2
GENIUS_GENCRC_14
 70
     0
  0
APPID
  2
GEVID942827039
 70
     0
  0
APPID
  2
GEVID942827040
 70
     0
  0
APPID
  2
GEVID942827041
 70
     0
  0
APPID
  2
GENIUS_GENOBJ-F-SCPASSM_13
 70
     0
  0
APPID
  2
GENIUS_GENDIMSH_14
 70
     0
  0
APPID
  2
GEVID942827042
 70
     0
  0
APPID
  2
GEVID946020473
 70
     0
  0
APPID
  2
GEVID946020474
 70
     0
  0
APPID
  2
GEVID946020475
 70
     0
  0
APPID
  2
GENIUS_GENOBJ-N-HTC_13
 70
     0
  0
APPID
  2
GENIUS_GENHATCH_13
 70
     0
  0
APPID
  2
GEVID948854295
 70
     0
  0
APPID
  2
GEVID939402019
 70
     0
  0
APPID
  2
GEVID952919491
 70
     0
  0
APPID
  2
GEVID952919492
 70
     0
  0
APPID
  2
GENIUS_GEFWELD_13
 70
     0
  0
APPID
  2
GENIUS_GENOBJ-F-WELS_13
 70
     0
  0
APPID
  2
GEVID952919493
 70
     0
  0
APPID
  2
GENIUS_GENOBJ-N-RSBK_13
 70
     0
  0
APPID
  2
GENIUS_GENOBJ-N-LIB_13
 70
     0
  0
APPID
  2
GENIUS_GENSCALE_13
 70
     0
  0
APPID
  2
GEVID986376691
 70
     0
  0
APPID
  2
DCO15
 70
     0
  0
APPID
  2
ACAD_DSTYLE_DIMBREAK
 70
     0
  0
APPID
  2
ACAD_DSTYLE_DIMJAG
 70
     0
  0
APPID
  2
ACAD_NAV_VCDISPLAY
 70
     0
  0
APPID
  2
ACADANNOPO
 70
     0
  0
APPID
  2
ACAD_EXEMPT_FROM_CAD_STANDARDS
 70
     0
  0
APPID
  2
ACAD_MLEADERVER
 70
     0
  0
ENDTAB
  0
TABLE
  2
DIMSTYLE
 70
    22
  0
DIMSTYLE
  2
STANDARD
 70
     0
  3

  4

  5

  6

  7

 40
1.0
 41
0.18
 42
0.0625
 43
0.38
 44
0.18
 45
0.0
 46
0.0
 47
0.0
 48
0.0
140
0.18
141
0.09
142
0.0
143
25.399999999999999
144
1.0
145
0.0
146
1.0
147
0.09
 71
     0
 72
     0
 73
     1
 74
     1
 75
     0
 76
     0
 77
     0
 78
     0
170
     0
171
     2
172
     0
173
     0
174
     0
175
     0
176
     0
177
     0
178
     0
  0
DIMSTYLE
  2
ANNOTATIVE
 70
     0
  3

  4

  5

  6

  7

 40
1.0
 41
0.18
 42
0.0625
 43
0.38
 44
0.18
 45
0.0
 46
0.0
 47
0.0
 48
0.0
140
0.18
141
0.09
142
0.0
143
25.399999999999999
144
1.0
145
0.0
146
1.0
147
0.09
 71
     0
 72
     0
 73
     1
 74
     1
 75
     0
 76
     0
 77
     0
 78
     0
170
     0
171
     2
172
     0
173
     0
174
     0
175
     0
176
     0
177
     0
178
     0
  0
DIMSTYLE
  2
AM_ISO
 70
     0
  3

  4
"
  5

  6

  7

 40
1.0
 41
2.5
 42
1.0
 43
8.0
 44
0.6
 45
0.0
 46
0.0
 47
0.1
 48
0.1
140
2.5
141
0.0
142
0.0
143
0.0393701
144
1.0
145
0.0
146
0.71
147
0.8
 71
     0
 72
     0
 73
     0
 74
     0
 75
     0
 76
     0
 77
     1
 78
     8
170
     0
171
     2
172
     1
173
     0
174
     0
175
     0
176
   256
177
   256
178
     4
  0
DIMSTYLE
  2
AM_ISO$3
 70
     0
  3

  4
"
  5

  6

  7

 40
1.0
 41
2.5
 42
1.0
 43
8.0
 44
0.6
 45
0.0
 46
0.0
 47
0.1
 48
0.1
140
2.5
141
0.0
142
0.0
143
0.0393701
144
1.0
145
0.0
146
0.71
147
0.8
 71
     0
 72
     0
 73
     0
 74
     1
 75
     0
 76
     0
 77
     1
 78
     8
170
     0
171
     2
172
     0
173
     0
174
     0
175
     0
176
   256
177
   256
178
     4
  0
DIMSTYLE
  2
AM_ISO$4
 70
     0
  3

  4
"
  5

  6

  7

 40
1.0
 41
2.5
 42
1.0
 43
8.0
 44
0.6
 45
0.0
 46
0.0
 47
0.1
 48
0.1
140
2.5
141
0.0
142
0.0
143
0.0393701
144
1.0
145
0.0
146
0.71
147
0.8
 71
     0
 72
     0
 73
     0
 74
     1
 75
     0
 76
     0
 77
     1
 78
     8
170
     0
171
     2
172
     0
173
     0
174
     0
175
     0
176
   256
177
   256
178
     4
  0
DIMSTYLE
  2
AM_ISO$6
 70
     0
  3

  4
"
  5

  6

  7

 40
1.0
 41
2.5
 42
1.0
 43
8.0
 44
0.6
 45
0.0
 46
0.0
 47
0.1
 48
0.1
140
2.5
141
0.0
142
0.0
143
0.0393701
144
1.0
145
0.0
146
0.71
147
0.8
 71
     0
 72
     0
 73
     0
 74
     0
 75
     0
 76
     0
 77
     0
 78
     8
170
     0
171
     2
172
     1
173
     0
174
     0
175
     0
176
   256
177
   256
178
     4
  0
DIMSTYLE
  2
AM_ISO$7
 70
     0
  3

  4
"
  5

  6

  7

 40
1.0
 41
2.5
 42
1.0
 43
8.0
 44
0.6
 45
0.0
 46
0.0
 47
0.1
 48
0.1
140
2.5
141
0.0
142
0.0
143
0.0393701
144
1.0
145
0.0
146
0.71
147
0.8
 71
     0
 72
     0
 73
     0
 74
     0
 75
     0
 76
     0
 77
     1
 78
     8
170
     0
171
     2
172
     1
173
     0
174
     0
175
     0
176
   256
177
   256
178
     4
  0
DIMSTYLE
  2
AM_ISO$SF
 70
     0
  3

  4
"
  5

  6

  7

 40
1.0
 41
2.5
 42
1.0
 43
10.0
 44
1.0
 45
0.0
 46
0.0
 47
0.1
 48
0.1
140
3.5
141
0.0
142
0.0
143
0.0393701
144
1.0
145
0.0
146
0.71
147
1.5
 71
     0
 72
     0
 73
     0
 74
     0
 75
     1
 76
     1
 77
     1
 78
     8
170
     0
171
     2
172
     1
173
     0
174
     0
175
     0
176
   256
177
   256
178
     2
  0
DIMSTYLE
  2
AM_ISO$SH
 70
     0
  3

  4
"
  5

  6

  7

 40
1.0
 41
2.5
 42
1.0
 43
10.0
 44
1.0
 45
0.0
 46
0.0
 47
0.1
 48
0.1
140
3.5
141
0.0
142
0.0
143
0.0393701
144
2.0
145
0.0
146
0.71
147
1.5
 71
     0
 72
     0
 73
     0
 74
     0
 75
     1
 76
     1
 77
     1
 78
     8
170
     0
171
     2
172
     1
173
     1
174
     0
175
     0
176
   256
177
   256
178
     2
  0
DIMSTYLE
  2
AM_JIS
 70
     0
  3

  4
"
  5

  6

  7

 40
1.0
 41
2.5
 42
1.0
 43
7.0
 44
1.0
 45
0.0
 46
0.0
 47
0.1
 48
0.1000000001
140
2.5
141
0.0
142
0.0
143
0.0393701
144
1.0
145
0.0
146
0.71
147
1.0
 71
     0
 72
     0
 73
     0
 74
     0
 75
     0
 76
     0
 77
     3
 78
     8
170
     0
171
     2
172
     1
173
     0
174
     0
175
     0
176
   256
177
   256
178
     4
  0
DIMSTYLE
  2
AM_JIS$3
 70
     0
  3

  4
"
  5

  6

  7

 40
1.0
 41
2.5
 42
1.0
 43
7.0
 44
1.0
 45
0.0
 46
0.0
 47
0.1
 48
0.1000000001
140
2.5
141
0.0
142
0.0
143
0.0393701
144
1.0
145
0.0
146
0.71
147
1.0
 71
     0
 72
     0
 73
     0
 74
     1
 75
     0
 76
     0
 77
     3
 78
     8
170
     0
171
     2
172
     0
173
     0
174
     0
175
     0
176
   256
177
   256
178
     4
  0
DIMSTYLE
  2
AM_JIS$4
 70
     0
  3

  4
"
  5

  6

  7

 40
1.0
 41
2.5
 42
1.0
 43
7.0
 44
1.0
 45
0.0
 46
0.0
 47
0.1
 48
0.1000000001
140
2.5
141
0.0
142
0.0
143
0.0393701
144
1.0
145
0.0
146
0.71
147
1.0
 71
     0
 72
     0
 73
     0
 74
     0
 75
     0
 76
     0
 77
     3
 78
     8
170
     0
171
     2
172
     0
173
     0
174
     0
175
     0
176
   256
177
   256
178
     4
  0
DIMSTYLE
  2
AM_JIS$6
 70
     0
  3

  4
"
  5

  6

  7

 40
1.0
 41
2.5
 42
1.0
 43
7.0
 44
1.0
 45
0.0
 46
0.0
 47
0.1
 48
0.1000000001
140
2.5
141
0.0
142
0.0
143
0.0393701
144
1.0
145
0.0
146
0.71
147
1.0
 71
     0
 72
     0
 73
     0
 74
     0
 75
     0
 76
     0
 77
     0
 78
     8
170
     0
171
     2
172
     1
173
     0
174
     0
175
     0
176
   256
177
   256
178
     4
  0
DIMSTYLE
  2
AM_JIS$7
 70
     0
  3

  4
"
  5

  6

  7

 40
1.0
 41
2.5
 42
1.0
 43
7.0
 44
1.0
 45
0.0
 46
0.0
 47
0.1
 48
0.1000000001
140
2.5
141
0.0
142
0.0
143
0.0393701
144
1.0
145
0.0
146
0.71
147
1.0
 71
     0
 72
     0
 73
     0
 74
     0
 75
     0
 76
     0
 77
     3
 78
     8
170
     0
171
     2
172
     1
173
     0
174
     0
175
     0
176
   256
177
   256
178
     4
  0
DIMSTYLE
  2
AM_JIS$SF
 70
     0
  3

  4
"
  5

  6

  7

 40
1.0
 41
2.5
 42
1.0
 43
10.0
 44
1.0
 45
0.0
 46
0.0
 47
0.1
 48
0.1
140
3.5
141
0.0
142
0.0
143
0.0393701
144
1.0
145
0.0
146
0.71
147
1.5
 71
     0
 72
     0
 73
     0
 74
     0
 75
     1
 76
     1
 77
     3
 78
     8
170
     0
171
     2
172
     1
173
     0
174
     0
175
     0
176
   256
177
   256
178
     4
  0
DIMSTYLE
  2
AM_JIS$SH
 70
     0
  3

  4
"
  5

  6

  7

 40
1.0
 41
2.5
 42
1.0
 43
10.0
 44
1.0
 45
0.0
 46
0.0
 47
0.1
 48
0.1
140
3.5
141
0.0
142
0.0
143
0.0393701
144
1.0
145
0.0
146
0.71
147
1.5
 71
     0
 72
     0
 73
     0
 74
     0
 75
     1
 76
     0
 77
     3
 78
     8
170
     0
171
     2
172
     1
173
     1
174
     0
175
     0
176
   256
177
   256
178
     4
  0
DIMSTYLE
  2
AM_ANSI
 70
     0
  3

  4
mm
  5

  6

  7

 40
1.0
 41
0.1
 42
0.05
 43
0.5
 44
0.1
 45
0.0
 46
0.0
 47
0.1
 48
0.1
140
0.12
141
0.0
142
0.0
143
25.399999999999999
144
1.0
145
0.0
146
0.71
147
0.06
 71
     0
 72
     0
 73
     1
 74
     1
 75
     0
 76
     0
 77
     0
 78
     7
170
     0
171
     2
172
     0
173
     0
174
     0
175
     0
176
   256
177
   256
178
     2
  0
DIMSTYLE
  2
AM_ANSI$3
 70
     0
  3

  4
mm
  5

  6

  7

 40
1.0
 41
0.1
 42
0.05
 43
0.5
 44
0.1
 45
0.0
 46
0.0
 47
0.1
 48
0.1
140
0.12
141
0.0
142
0.0
143
25.399999999999999
144
1.0
145
0.0
146
0.71
147
0.06
 71
     0
 72
     0
 73
     1
 74
     1
 75
     0
 76
     0
 77
     0
 78
     7
170
     0
171
     2
172
     0
173
     0
174
     0
175
     0
176
   256
177
   256
178
     2
  0
DIMSTYLE
  2
AM_ANSI$4
 70
     0
  3

  4
mm
  5

  6

  7

 40
1.0
 41
0.1
 42
0.05
 43
0.5
 44
0.1
 45
0.0
 46
0.0
 47
0.1
 48
0.1
140
0.12
141
0.0
142
0.0
143
25.399999999999999
144
1.0
145
0.0
146
0.71
147
0.06
 71
     0
 72
     0
 73
     1
 74
     1
 75
     0
 76
     0
 77
     0
 78
     7
170
     0
171
     2
172
     0
173
     0
174
     0
175
     0
176
   256
177
   256
178
     2
  0
DIMSTYLE
  2
AM_ANSI$7
 70
     0
  3

  4
mm
  5

  6

  7

 40
1.0
 41
0.1
 42
0.05
 43
0.5
 44
0.1
 45
0.0
 46
0.0
 47
0.1
 48
0.1
140
0.24
141
0.0
142
0.0
143
25.399999999999999
144
1.0
145
0.0
146
0.71
147
0.06
 71
     0
 72
     0
 73
     1
 74
     1
 75
     0
 76
     0
 77
     0
 78
     7
170
     0
171
     2
172
     0
173
     0
174
     0
175
     0
176
   256
177
   256
178
     2
  0
DIMSTYLE
  2
AM_ANSI$SF
 70
     0
  3

  4
mm
  5

  6

  7

 40
1.0
 41
0.1
 42
0.05
 43
0.5
 44
0.1
 45
0.0
 46
0.0
 47
0.1
 48
0.1
140
0.12
141
0.0
142
0.0
143
25.399999999999999
144
1.0
145
0.0
146
0.71
147
0.06
 71
     0
 72
     0
 73
     1
 74
     1
 75
     1
 76
     1
 77
     0
 78
     7
170
     0
171
     2
172
     0
173
     0
174
     0
175
     0
176
   256
177
   256
178
     2
  0
DIMSTYLE
  2
AM_ANSI$SH
 70
     0
  3

  4
mm
  5

  6

  7

 40
1.0
 41
0.1
 42
0.05
 43
0.5
 44
0.1
 45
0.0
 46
0.0
 47
0.1
 48
0.1
140
0.12
141
0.0
142
0.0
143
25.399999999999999
144
1.0
145
0.0
146
0.71
147
0.06
 71
     0
 72
     0
 73
     1
 74
     1
 75
     1
 76
     1
 77
     0
 78
     7
170
     0
171
     2
172
     0
173
     1
174
     0
175
     0
176
   256
177
   256
178
     2
  0
ENDTAB
  0
ENDSEC
  0
SECTION
  2
BLOCKS
  0
BLOCK
  8
0
  2
$MODEL_SPACE
 70
     0
 10
0.0
 20
0.0
 30
0.0
  3
$MODEL_SPACE
  1

  0
ENDBLK
  5
34DB
  8
0
  0
BLOCK
 67
     1
  8
0
  2
$PAPER_SPACE
 70
     0
 10
0.0
 20
0.0
 30
0.0
  3
$PAPER_SPACE
  1

  0
ENDBLK
  5
34D7
 67
     1
  8
0
  0
BLOCK
  8
0
  2
GENAXEH
 70
     0
 10
0.0
 20
0.0
 30
0.0
  3
GENAXEH
  1

  0
LINE
  5
3256
  8
0
 10
-1.0
 20
0.0
 30
0.0
 11
1.0
 21
0.0
 31
0.0
  0
ENDBLK
  5
3257
  8
0
  0
BLOCK
  8
0
  2
_OPEN30
 70
     0
 10
0.0
 20
0.0
 30
0.0
  3
_OPEN30
  1

  0
LINE
  5
325A
  8
0
 62
     0
 10
-1.0
 20
0.26794919
 30
0.0
 11
0.0
 21
0.0
 31
0.0
  0
LINE
  5
325B
  8
0
 62
     0
 10
0.0
 20
0.0
 30
0.0
 11
-1.0
 21
-0.26794919
 31
0.0
  0
LINE
  5
325C
  8
0
 62
     0
 10
0.0
 20
0.0
 30
0.0
 11
-1.0
 21
0.0
 31
0.0
  0
ENDBLK
  5
325D
  8
0
  0
BLOCK
  8
0
  2
_NONE
 70
     0
 10
0.0
 20
0.0
 30
0.0
  3
_NONE
  1

  0
ENDBLK
  5
3260
  8
0
  0
BLOCK
  8
0
  2
_ACMFILLEDHALF
 70
     0
 10
0.0
 20
0.0
 30
0.0
  3
_ACMFILLEDHALF
  1

  0
TRACE
  5
35D0
  8
AM_0
 62
     0
 10
-0.8
 20
0.0
 30
0.0
 11
-1.0
 21
0.166666666
 31
0.0
 12
0.0
 22
0.0
 32
0.0
 13
0.0
 23
0.0
 33
0.0
  0
LINE
  5
35D1
  8
AM_0
 62
     0
 10
-1.0
 20
0.0
 30
0.0
 11
-0.8
 21
0.0
 31
0.0
  0
ENDBLK
  5
35CF
  8
0
  0
ENDSEC
  0
SECTION
  2
ENTITIES
  0
LINE
  5
3261
  8
0
 10
365.54889912194352
 20
621.17017900553947
 30
0.0
 11
410.54889912194352
 21
621.17017900553947
 31
0.0
  0
LINE
  5
3262
  8
0
 10
365.54889912194352
 20
611.17023900553943
 30
0.0
 11
410.54889912194352
 21
611.17023900553943
 31
0.0
  0
LINE
  5
3263
  8
0
 10
410.54889912194352
 20
600.17023900553943
 30
0.0
 11
352.5489291219435
 21
600.17023900553943
 31
0.0
  0
LINE
  5
3264
  8
0
 10
410.54889912194352
 20
632.17017900553935
 30
0.0
 11
352.5489291219435
 21
632.17017900553935
 31
0.0
  0
LINE
  5
3265
  8
ﾁｭｳｼﾝｾﾝ1
 10
90.376674121943495
 20
616.1702090055395
 30
0.0
 11
418.46173912194331
 21
616.1702090055395
 31
0.0
  0
LINE
  5
3266
  8
0
 10
129.54886912194351
 20
648.13184900553961
 30
0.0
 11
175.3678391219434
 21
648.13184900553961
 31
0.0
  0
LINE
  5
3267
  8
0
 10
129.54886912194351
 20
662.17053900553935
 30
0.0
 11
179.8379291219434
 21
662.17053900553935
 31
0.0
  0
LINE
  5
3268
  8
0
 10
186.17246912194341
 20
674.14758900553943
 30
0.0
 11
129.54886912194351
 21
672.17023900553943
 31
0.0
  0
LINE
  5
3269
  8
0
 10
129.54886912194351
 20
560.1702090055395
 30
0.0
 11
186.1724091219435
 21
558.19284900553953
 31
0.0
  0
LINE
  5
326A
  8
0
 10
129.54886912194351
 20
570.16989900553949
 30
0.0
 11
179.8379291219434
 21
570.16989900553949
 31
0.0
  0
LINE
  5
326B
  8
0
 10
129.54886912194351
 20
584.20853900553948
 30
0.0
 11
175.3678391219434
 21
584.20853900553948
 31
0.0
  0
LINE
  5
326C
  8
0
 10
129.54886912194351
 20
559.67020900553916
 30
0.0
 11
129.54886912194351
 21
672.67020900553916
 31
0.0
  0
ARC
  5
326D
  8
0
 10
365.54889912194352
 20
616.1702090055395
 30
0.0
 40
4.9999924
 50
90.000003000000945
 51
270.0
  0
LINE
  5
326E
  8
0
 10
159.54886912194351
 20
606.1702090055395
 30
0.0
 11
159.54886912194351
 21
626.17020900553928
 31
0.0
  0
LINE
  5
326F
  8
0
 10
189.0488691219436
 20
555.67020900553916
 30
0.0
 11
189.0488691219436
 21
676.67017900553935
 31
0.0
  0
LINE
  5
3270
  8
0
 10
198.04886912194351
 20
552.6702090055395
 30
0.0
 11
198.04886912194351
 21
679.67017900553935
 31
0.0
  0
LINE
  5
3271
  8
0
 10
320.5489291219435
 20
546.96344900553959
 30
0.0
 11
320.5489291219435
 21
685.37695900553945
 31
0.0
  0
LINE
  5
3272
  8
0
 10
365.54892912194327
 20
611.17023900553943
 30
0.0
 11
365.54892912194327
 21
621.17017900553947
 31
0.0
  0
LINE
  5
3273
  8
0
 10
352.5489291219435
 20
598.67023900553943
 30
0.0
 11
352.5489291219435
 21
633.67023900553943
 31
0.0
  0
LINE
  5
3274
  8
0
 10
348.54889912194358
 20
616.1702090055395
 30
0.0
 11
348.54889912194358
 21
643.4381790055395
 31
0.0
  0
LINE
  5
3275
  8
0
 10
198.04886912194351
 20
679.67017900553935
 30
0.0
 11
198.04886912194351
 21
552.67014900553943
 31
0.0
  0
LINE
  5
3276
  8
0
 10
225.5488691219436
 20
518.95081900553953
 30
0.0
 11
225.5488691219436
 21
713.38959900553948
 31
0.0
  0
LINE
  5
3277
  8
0
 10
210.5488691219436
 20
544.24127900553958
 30
0.0
 11
210.5488691219436
 21
688.09912900553945
 31
0.0
  0
LINE
  5
3278
  8
0
 10
341.5489291219435
 20
555.06683900553946
 30
0.0
 11
341.5489291219435
 21
677.27356900553934
 31
0.0
  0
LINE
  5
3279
  8
0
 10
235.5488691219436
 20
516.6702090055395
 30
0.0
 11
235.5488691219436
 21
715.67017900553935
 31
0.0
  0
POLYLINE
  5
327A
  8
0
 66
     1
 10
0.0
 20
0.0
 30
0.0
  0
VERTEX
  5
327B
  8
0
 10
235.5488691219436
 20
538.75342900553949
 30
0.0
 42
0.040442845
  0
VERTEX
  5
327C
  8
0
 10
247.07705912194351
 20
538.9767690055395
 30
0.0
 42
0.04246989
  0
VERTEX
  5
327D
  8
0
 10
258.41076912194342
 20
541.09024900553959
 30
0.0
 42
0.022672802
  0
VERTEX
  5
327E
  8
0
 10
263.89526912194361
 20
542.88119900553943
 30
0.0
  0
VERTEX
  5
327F
  8
0
 10
269.2008791219435
 20
545.15005900553945
 30
0.0
 42
-1.0
  0
SEQEND
  5
3280
  8
0
  0
POLYLINE
  5
3281
  8
0
 66
     1
 10
0.0
 20
0.0
 30
0.0
  0
VERTEX
  5
3282
  8
0
 10
235.5488691219436
 20
585.8937790055395
 30
0.0
 42
-0.070055462
  0
VERTEX
  5
3283
  8
0
 10
261.90953912194362
 20
565.69643900553945
 30
0.0
 42
-0.27110597
  0
VERTEX
  5
3284
  8
0
 10
270.54889912194358
 20
545.8130890055395
 30
0.0
 42
-0.2130317
  0
VERTEX
  5
3285
  8
0
 10
250.95843912194351
 20
527.67827900553948
 30
0.0
  0
VERTEX
  5
3286
  8
0
 10
235.5488691219436
 20
521.38001900553945
 30
0.0
 42
-1.0
  0
SEQEND
  5
3287
  8
0
  0
LINE
  5
3288
  8
0
 10
241.54892912194359
 20
501.17020900553962
 30
0.0
 11
344.68851912194361
 21
504.77191900553947
 31
0.0
  0
CIRCLE
  5
3289
  8
0
 10
205.54886912194351
 20
521.17020900553939
 30
0.0
 40
7.5
  0
LINE
  5
328A
  8
0
 10
187.54886912194351
 20
533.63165900553952
 30
0.0
 11
187.54886912194351
 21
509.55991900553931
 31
0.0
  0
LINE
  5
328B
  8
ﾁｭｳｼﾝｾﾝ1
 10
205.54886912194351
 20
534.67020900553962
 30
0.0
 11
205.54886912194351
 21
507.67020900553962
 31
0.0
  0
LINE
  5
328C
  8
0
 10
191.2002991219434
 20
505.5751490055394
 30
0.0
 11
241.54892912194359
 21
501.17020900553962
 31
0.0
  0
ARC
  5
328D
  8
0
 10
191.5488691219436
 20
509.55991900553931
 30
0.0
 40
4.0
 50
180.00001000000091
 51
265.00001000000032
  0
LINE
  5
328E
  8
0
 10
227.47904912194349
 20
516.95200900553959
 30
0.0
 11
235.5488691219436
 21
516.6702090055395
 31
0.0
  0
LINE
  5
328F
  8
0
 10
226.81040912194351
 20
508.48258900553952
 30
0.0
 11
235.20035912194351
 21
507.74857900553928
 31
0.0
  0
ARC
  5
3290
  8
0
 10
226.54886912194351
 20
505.49399900553948
 30
0.0
 40
3.0
 50
85.000004000000885
 51
265.0
  0
ARC
  5
3291
  8
0
 10
227.5488691219436
 20
518.95081900553953
 30
0.0
 40
2.0
 50
179.9999899999988
 51
268.00000999999861
  0
ARC
  5
3292
  8
0
 10
235.5488691219436
 20
511.73334900553931
 30
0.0
 40
4.0
 50
265.00001000000032
 51
0.0000006832495047
  0
LINE
  5
3293
  8
0
 10
239.5488691219436
 20
516.6702090055395
 30
0.0
 11
239.5488691219436
 21
506.80170900553958
 31
0.0
  0
ARC
  5
3294
  8
0
 10
234.54886912194351
 20
506.80170900553958
 30
0.0
 40
5.0
 50
265.00001000000032
 51
0.0000006832495047
  0
LINE
  5
3295
  8
0
 10
235.5488691219436
 20
516.6702090055395
 30
0.0
 11
239.5488691219436
 21
516.6702090055395
 31
0.0
  0
LINE
  5
3296
  8
0
 10
198.0489291219435
 20
552.67014900553943
 30
0.0
 11
205.72336912194359
 21
552.4021990055395
 31
0.0
  0
LINE
  5
3297
  8
0
 10
198.04886912194351
 20
564.13019900553945
 30
0.0
 11
210.5488691219436
 21
564.13019900553945
 31
0.0
  0
LINE
  5
3298
  8
0
 10
198.04886912194351
 20
579.02020900553941
 30
0.0
 11
210.5488691219436
 21
579.02020900553941
 31
0.0
  0
LINE
  5
3299
  8
ﾁｭｳｼﾝｾﾝ1
 10
192.0488691219436
 20
521.17020900553939
 30
0.0
 11
219.0488691219436
 21
521.17020900553939
 31
0.0
  0
LINE
  5
329A
  8
0
 10
190.5137191219435
 20
537.49530900553953
 30
0.0
 11
210.7288591219434
 21
542.9119690055395
 31
0.0
  0
POLYLINE
  5
329B
  8
0
 66
     1
 10
0.0
 20
0.0
 30
0.0
  0
VERTEX
  5
329C
  8
0
 10
186.98019912194351
 20
562.78957900553939
 30
0.0
  0
VERTEX
  5
329D
  8
0
 10
181.4367691219436
 20
570.63178900553953
 30
0.0
 42
-1.0
  0
SEQEND
  5
329E
  8
0
  0
ARC
  5
329F
  8
0
 10
191.5488691219436
 20
533.63165900553952
 30
0.0
 40
4.0
 50
105.0000000000007
 51
180.00001000000091
  0
ARC
  5
32A0
  8
0
 10
179.0488691219436
 20
556.69910900553941
 30
0.0
 40
10.0
 50
0.0
 51
37.523535999997527
  0
ARC
  5
32A1
  8
0
 10
186.06766912194351
 20
555.19470900553949
 30
0.0
 40
3.0
 50
4.545488300001014
 51
87.999999999999503
  0
LINE
  5
32A2
  8
0
 10
198.04886912194351
 20
552.6702090055395
 30
0.0
 11
192.0488691219436
 21
552.6702090055395
 31
0.0
  0
ARC
  5
32A3
  8
0
 10
192.0488691219436
 20
555.67020900553916
 30
0.0
 40
3.0
 50
180.00001000000091
 51
270.0
  0
LINE
  5
32A4
  8
0
 10
198.04886912194351
 20
564.13019900553945
 30
0.0
 11
189.0488691219436
 21
564.13019900553945
 31
0.0
  0
POLYLINE
  5
32A5
  8
0
 66
     1
 10
0.0
 20
0.0
 30
0.0
  0
VERTEX
  5
32A6
  8
0
 10
173.92577912194341
 20
584.20773900553945
 30
0.0
  0
VERTEX
  5
32A7
  8
0
 10
167.63822912194351
 20
603.16967900553925
 30
0.0
 42
-1.0
  0
SEQEND
  5
32A8
  8
0
  0
LINE
  5
32A9
  8
0
 10
162.54886912194351
 20
603.1702090055395
 30
0.0
 11
186.04886912194351
 21
603.1702090055395
 31
0.0
  0
ARC
  5
32AA
  8
0
 10
162.54886912194351
 20
606.1702090055395
 30
0.0
 40
3.0
 50
180.00001000000091
 51
270.0
  0
POLYLINE
  5
32AB
  8
0
 66
     1
 10
0.0
 20
0.0
 30
0.0
  0
VERTEX
  5
32AC
  8
0
 10
182.3969791219433
 20
574.73561900553966
 30
0.0
 42
-0.0050917014
  0
VERTEX
  5
32AD
  8
0
 10
181.2490591219435
 20
576.65526900553937
 30
0.0
 42
-0.0052112711
  0
VERTEX
  5
32AE
  8
0
 10
180.1409191219436
 20
578.59815900553951
 30
0.0
 42
-0.0053447966
  0
VERTEX
  5
32AF
  8
0
 10
179.07403912194351
 20
580.56400900553945
 30
0.0
 42
-0.0054924736
  0
VERTEX
  5
32B0
  8
0
 10
178.0499991219435
 20
582.55252900553955
 30
0.0
  0
SEQEND
  5
32B1
  8
0
  0
ARC
  5
32B2
  8
0
 10
179.8379291219434
 20
573.16989900553915
 30
0.0
 40
3.0
 50
270.0
 51
31.46020299999924
  0
ARC
  5
32B3
  8
0
 10
175.3678391219434
 20
581.20853900553925
 30
0.0
 40
3.0
 50
26.61499800000183
 51
90.000003000000945
  0
LINE
  5
32B4
  8
0
 10
198.04886912194351
 20
579.02228900553951
 30
0.0
 11
189.0488691219436
 21
579.02228900553951
 31
0.0
  0
ARC
  5
32B5
  8
0
 10
186.04886912194351
 20
600.1702090055395
 30
0.0
 40
3.0
 50
0.0
 51
90.000003000000945
  0
LINE
  5
32B6
  8
0
 10
235.5488691219436
 20
538.75342900553949
 30
0.0
 11
225.5488691219436
 21
538.75342900553949
 31
0.0
  0
LINE
  5
32B7
  8
0
 10
235.5488691219436
 20
521.38001900553945
 30
0.0
 11
225.5488691219436
 21
521.38001900553945
 31
0.0
  0
LINE
  5
32B8
  8
0
 10
212.01334912194341
 20
540.70575900553945
 30
0.0
 11
224.67020912194349
 21
528.04889900553951
 31
0.0
  0
ARC
  5
32B9
  8
0
 10
215.54886912194351
 20
544.24127900553958
 30
0.0
 40
5.0
 50
179.9999899999988
 51
225.0
  0
ARC
  5
32BA
  8
0
 10
222.54886912194351
 20
525.92755900553925
 30
0.0
 40
3.0
 50
0.0
 51
44.999998000001611
  0
ARC
  5
32BB
  8
0
 10
205.54886912194351
 20
547.40524900553953
 30
0.0
 40
5.0
 50
0.0
 51
87.999999999999503
  0
LINE
  5
32BC
  8
0
 10
235.5488691219436
 20
585.8937790055395
 30
0.0
 11
225.5488691219436
 21
585.8937790055395
 31
0.0
  0
CIRCLE
  5
32BD
  8
0
 10
330.54892912194339
 20
521.17020900553939
 30
0.0
 40
7.5
  0
LINE
  5
32BE
  8
0
 10
300.54889912194358
 20
511.51477900553942
 30
0.0
 11
300.54889912194358
 21
526.95661900553955
 31
0.0
  0
LINE
  5
32BF
  8
0
 10
348.5489291219435
 20
547.17020900553916
 30
0.0
 11
348.5489291219435
 21
508.76947900553949
 31
0.0
  0
LINE
  5
32C0
  8
ﾁｭｳｼﾝｾﾝ1
 10
330.54892912194339
 20
534.67020900553962
 30
0.0
 11
330.54892912194339
 21
507.67020900553962
 31
0.0
  0
ARC
  5
32C1
  8
0
 10
308.54889912194352
 20
511.51477900553942
 30
0.0
 40
8.0
 50
180.00001000000091
 51
271.99999000000139
  0
ARC
  5
32C2
  8
0
 10
344.5489291219435
 20
508.76947900553949
 30
0.0
 40
4.0
 50
272.0000000000004
 51
0.0
  0
ARC
  5
32C3
  8
0
 10
328.00113912194348
 20
542.8126890055396
 30
0.0
 40
8.0
 50
91.500001000001546
 51
164.96420000000299
  0
LINE
  5
32C4
  8
ﾁｭｳｼﾝｾﾝ1
 10
317.0489291219435
 20
521.17020900553939
 30
0.0
 11
344.0489291219435
 21
521.17020900553939
 31
0.0
  0
ARC
  5
32C5
  8
0
 10
312.5489291219435
 20
546.96344900553959
 30
0.0
 40
8.0
 50
271.4999999999992
 51
0.0
  0
ARC
  5
32C6
  8
0
 10
312.54889912194352
 20
526.95661900553955
 30
0.0
 40
12.0
 50
91.500001000001546
 51
180.00001000000091
  0
LINE
  5
32C7
  8
0
 10
312.75833912194349
 20
538.9662290055395
 30
0.0
 11
312.23477912194352
 21
538.95252900553942
 31
0.0
  0
ARC
  5
32C8
  8
0
 10
337.5489291219435
 20
555.06683900553946
 30
0.0
 40
4.0
 50
271.4999999999992
 51
0.0
  0
LINE
  5
32C9
  8
0
 10
337.65363912194363
 20
551.0682190055395
 30
0.0
 11
327.79175912194353
 21
550.80997900553939
 31
0.0
  0
ARC
  5
32CA
  8
0
 10
344.5489291219435
 20
547.17020900553916
 30
0.0
 40
4.0
 50
0.0
 51
82.819247000000175
  0
ARC
  5
32CB
  8
0
 10
345.5489291219435
 20
555.10745900553945
 30
0.0
 40
4.0
 50
180.00001000000091
 51
262.8192499999995
  0
LINE
  5
32CC
  8
0
 10
348.54889912194358
 20
588.90228900553961
 30
0.0
 11
348.54889912194358
 21
616.1702090055395
 31
0.0
  0
LINE
  5
32CD
  8
0
 10
343.04886912194348
 20
583.99484900553955
 30
0.0
 11
347.04886912194348
 21
586.30423900553956
 31
0.0
  0
ARC
  5
32CE
  8
0
 10
344.5489291219435
 20
581.39673900553942
 30
0.0
 40
3.0
 50
120.0000000000005
 51
180.00001000000091
  0
ARC
  5
32CF
  8
0
 10
345.54889912194352
 20
588.90228900553961
 30
0.0
 40
3.0
 50
300.00001000000083
 51
0.0
  0
LINE
  5
32D0
  8
0
 10
352.5489291219435
 20
598.67023900553943
 30
0.0
 11
348.54889912194358
 21
598.67023900553943
 31
0.0
  0
POLYLINE
  5
32D1
  8
0
 66
     1
 10
0.0
 20
0.0
 30
0.0
  0
VERTEX
  5
32D2
  8
0
 10
235.5488691219436
 20
646.44666900553943
 30
0.0
 42
0.070055443
  0
VERTEX
  5
32D3
  8
0
 10
261.90953912194362
 20
666.64400900553926
 30
0.0
 42
0.27110593
  0
VERTEX
  5
32D4
  8
0
 10
270.54889912194358
 20
686.52734900553935
 30
0.0
 42
0.21303199
  0
VERTEX
  5
32D5
  8
0
 10
250.95843912194351
 20
704.66213900553953
 30
0.0
  0
VERTEX
  5
32D6
  8
0
 10
235.5488691219436
 20
710.96039900553944
 30
0.0
 42
-1.0
  0
SEQEND
  5
32D7
  8
0
  0
POLYLINE
  5
32D8
  8
0
 66
     1
 10
0.0
 20
0.0
 30
0.0
  0
VERTEX
  5
32D9
  8
0
 10
235.5488691219436
 20
693.58698900553952
 30
0.0
 42
-0.040442832
  0
VERTEX
  5
32DA
  8
0
 10
247.0770491219435
 20
693.36363900553954
 30
0.0
 42
-0.042469875
  0
VERTEX
  5
32DB
  8
0
 10
258.41076912194342
 20
691.25015900553944
 30
0.0
 42
-0.022671837
  0
VERTEX
  5
32DC
  8
0
 10
263.89525912194352
 20
689.45921900553947
 30
0.0
  0
VERTEX
  5
32DD
  8
0
 10
269.2008791219435
 20
687.1903890055396
 30
0.0
 42
-1.0
  0
SEQEND
  5
32DE
  8
0
  0
LINE
  5
32DF
  8
0
 10
241.54892912194359
 20
731.17017900553935
 30
0.0
 11
344.68851912194361
 21
727.56848900553939
 31
0.0
  0
CIRCLE
  5
32E0
  8
0
 10
205.54886912194351
 20
711.17017900553935
 30
0.0
 40
7.5
  0
LINE
  5
32E1
  8
ﾁｭｳｼﾝｾﾝ1
 10
205.54886912194351
 20
697.67017900553935
 30
0.0
 11
205.54886912194351
 21
724.67017900553935
 31
0.0
  0
LINE
  5
32E2
  8
0
 10
187.54886912194351
 20
698.70874900553952
 30
0.0
 11
187.54886912194351
 21
722.78046900553954
 31
0.0
  0
LINE
  5
32E3
  8
0
 10
198.04886912194351
 20
679.67023900553943
 30
0.0
 11
205.72336912194359
 21
679.93817900553927
 31
0.0
  0
LINE
  5
32E4
  8
0
 10
198.04886912194351
 20
653.32019900553951
 30
0.0
 11
210.5488691219436
 21
653.32019900553951
 31
0.0
  0
LINE
  5
32E5
  8
0
 10
198.04886912194351
 20
668.21021900553956
 30
0.0
 11
210.5488691219436
 21
668.21021900553956
 31
0.0
  0
LINE
  5
32E6
  8
0
 10
190.5136491219435
 20
694.84503900553955
 30
0.0
 11
210.7287991219435
 21
689.42841900553958
 31
0.0
  0
LINE
  5
32E7
  8
ﾁｭｳｼﾝｾﾝ1
 10
192.0488691219436
 20
711.17017900553935
 30
0.0
 11
219.0488691219436
 21
711.17017900553935
 31
0.0
  0
POLYLINE
  5
32E8
  8
0
 66
     1
 10
0.0
 20
0.0
 30
0.0
  0
VERTEX
  5
32E9
  8
0
 10
186.98019912194351
 20
669.55080900553958
 30
0.0
  0
VERTEX
  5
32EA
  8
0
 10
181.4367691219436
 20
661.70858900553947
 30
0.0
 42
-1.0
  0
SEQEND
  5
32EB
  8
0
  0
POLYLINE
  5
32EC
  8
0
 66
     1
 10
0.0
 20
0.0
 30
0.0
  0
VERTEX
  5
32ED
  8
0
 10
173.92577912194341
 20
648.13264900553963
 30
0.0
  0
VERTEX
  5
32EE
  8
0
 10
167.63822912194351
 20
629.17072900553944
 30
0.0
 42
-1.0
  0
SEQEND
  5
32EF
  8
0
  0
LINE
  5
32F0
  8
0
 10
162.54886912194351
 20
629.1702090055395
 30
0.0
 11
186.04886912194351
 21
629.1702090055395
 31
0.0
  0
ARC
  5
32F1
  8
0
 10
162.54886912194351
 20
626.17020900553928
 30
0.0
 40
3.0
 50
90.000003000000945
 51
180.00001000000091
  0
ARC
  5
32F2
  8
0
 10
186.04886912194351
 20
632.17017900553935
 30
0.0
 40
3.0
 50
270.0
 51
0.0
  0
POLYLINE
  5
32F3
  8
0
 66
     1
 10
0.0
 20
0.0
 30
0.0
  0
VERTEX
  5
32F4
  8
0
 10
182.3969791219433
 20
657.60476900553942
 30
0.0
 42
0.0050916976
  0
VERTEX
  5
32F5
  8
0
 10
181.2490591219435
 20
655.68511900553949
 30
0.0
 42
0.005211269
  0
VERTEX
  5
32F6
  8
0
 10
180.1409191219436
 20
653.74222900553946
 30
0.0
 42
0.005344796
  0
VERTEX
  5
32F7
  8
0
 10
179.07403912194351
 20
651.7763790055393
 30
0.0
 42
0.0054924746
  0
VERTEX
  5
32F8
  8
0
 10
178.0499991219435
 20
649.78786900553951
 30
0.0
  0
SEQEND
  5
32F9
  8
0
  0
ARC
  5
32FA
  8
0
 10
175.3678391219434
 20
651.13184900553961
 30
0.0
 40
3.0
 50
270.0
 51
333.38500000000118
  0
ARC
  5
32FB
  8
0
 10
179.8379291219434
 20
659.17053900553947
 30
0.0
 40
3.0
 50
328.53980000000098
 51
90.000003000000945
  0
LINE
  5
32FC
  8
0
 10
198.04886912194351
 20
653.3181290055395
 30
0.0
 11
189.0488691219436
 21
653.3181290055395
 31
0.0
  0
ARC
  5
32FD
  8
0
 10
186.06766912194351
 20
677.14569900553943
 30
0.0
 40
3.0
 50
272.0000000000004
 51
355.45443000000142
  0
LINE
  5
32FE
  8
0
 10
198.04886912194351
 20
668.21021900553956
 30
0.0
 11
189.0488691219436
 21
668.21021900553956
 31
0.0
  0
ARC
  5
32FF
  8
0
 10
179.0488691219436
 20
675.6413090055396
 30
0.0
 40
10.0
 50
322.47645999999781
 51
0.0
  0
LINE
  5
3300
  8
0
 10
198.04886912194351
 20
679.67017900553935
 30
0.0
 11
192.0488691219436
 21
679.67017900553935
 31
0.0
  0
ARC
  5
3301
  8
0
 10
192.0488691219436
 20
676.67017900553935
 30
0.0
 40
3.0
 50
90.000003000000945
 51
180.00001000000091
  0
ARC
  5
3302
  8
0
 10
191.5488691219436
 20
698.70874900553952
 30
0.0
 40
4.0
 50
180.00001000000091
 51
254.99999000000159
  0
LINE
  5
3303
  8
0
 10
235.5488691219436
 20
646.44666900553943
 30
0.0
 11
225.5488691219436
 21
646.44666900553943
 31
0.0
  0
LINE
  5
3304
  8
0
 10
235.5488691219436
 20
710.96039900553944
 30
0.0
 11
225.5488691219436
 21
710.96039900553944
 31
0.0
  0
LINE
  5
3305
  8
0
 10
235.5488691219436
 20
693.58698900553952
 30
0.0
 11
225.5488691219436
 21
693.58698900553952
 31
0.0
  0
ARC
  5
3306
  8
0
 10
215.54886912194351
 20
688.09912900553945
 30
0.0
 40
5.0
 50
135.0
 51
180.00001000000091
  0
ARC
  5
3307
  8
0
 10
205.54886912194351
 20
684.93518900553943
 30
0.0
 40
5.0
 50
272.0000000000004
 51
0.0
  0
LINE
  5
3308
  8
0
 10
212.01334912194341
 20
691.63464900553959
 30
0.0
 11
224.67020912194349
 21
704.2915190055395
 31
0.0
  0
ARC
  5
3309
  8
0
 10
222.54886912194351
 20
706.41284900553956
 30
0.0
 40
3.0
 50
315.0
 51
0.0
  0
LINE
  5
330A
  8
0
 10
191.2002991219434
 20
726.76526900553949
 30
0.0
 11
241.54892912194359
 21
731.17023900553954
 31
0.0
  0
ARC
  5
330B
  8
0
 10
191.5488691219436
 20
722.78046900553954
 30
0.0
 40
4.0
 50
95.00000199999856
 51
180.00001000000091
  0
LINE
  5
330C
  8
0
 10
227.47910912194359
 20
715.38837900553926
 30
0.0
 11
235.5488691219436
 21
715.67017900553935
 31
0.0
  0
LINE
  5
330D
  8
0
 10
226.81040912194351
 20
723.85785900553935
 30
0.0
 11
235.20029912194349
 21
724.59186900553959
 31
0.0
  0
ARC
  5
330E
  8
0
 10
226.54886912194351
 20
726.84644900553951
 30
0.0
 40
3.0
 50
95.00000199999856
 51
275.0
  0
ARC
  5
330F
  8
0
 10
227.5488691219436
 20
713.38959900553948
 30
0.0
 40
2.0
 50
91.999998000000545
 51
180.00001000000091
  0
ARC
  5
3310
  8
0
 10
235.5488691219436
 20
720.60706900553953
 30
0.0
 40
4.0
 50
0.0
 51
95.00000199999856
  0
LINE
  5
3311
  8
0
 10
239.5488691219436
 20
715.67017900553935
 30
0.0
 11
239.5488691219436
 21
725.53870900553943
 31
0.0
  0
LINE
  5
3312
  8
0
 10
235.5488691219436
 20
715.67017900553935
 30
0.0
 11
239.5488691219436
 21
715.67017900553935
 31
0.0
  0
ARC
  5
3313
  8
0
 10
234.54886912194351
 20
725.53870900553943
 30
0.0
 40
5.0
 50
0.0
 51
95.00000199999856
  0
CIRCLE
  5
3314
  8
0
 10
330.54892912194339
 20
711.17017900553935
 30
0.0
 40
7.5
  0
LINE
  5
3315
  8
0
 10
300.54889912194358
 20
705.38379900553934
 30
0.0
 11
300.54889912194358
 21
720.82562900553944
 31
0.0
  0
LINE
  5
3316
  8
ﾁｭｳｼﾝｾﾝ1
 10
330.54892912194339
 20
697.67017900553935
 30
0.0
 11
330.54892912194339
 21
724.67017900553935
 31
0.0
  0
LINE
  5
3317
  8
0
 10
348.5489291219435
 20
685.17017900553935
 30
0.0
 11
348.5489291219435
 21
723.57092900553926
 31
0.0
  0
ARC
  5
3318
  8
0
 10
328.00113912194348
 20
689.52771900553944
 30
0.0
 40
8.0
 50
195.0357999999969
 51
268.50000000000063
  0
LINE
  5
3319
  8
ﾁｭｳｼﾝｾﾝ1
 10
317.0489291219435
 20
711.17017900553935
 30
0.0
 11
344.0489291219435
 21
711.17017900553935
 31
0.0
  0
ARC
  5
331A
  8
0
 10
312.5489291219435
 20
685.37695900553945
 30
0.0
 40
8.0
 50
0.0
 51
88.499997000000647
  0
ARC
  5
331B
  8
0
 10
312.54889912194352
 20
705.38379900553934
 30
0.0
 40
12.0
 50
180.00001000000091
 51
268.50000000000063
  0
LINE
  5
331C
  8
0
 10
312.75833912194349
 20
693.37421900553954
 30
0.0
 11
312.2348091219435
 21
693.38794900553944
 31
0.0
  0
LINE
  5
331D
  8
0
 10
352.5489291219435
 20
633.67023900553943
 30
0.0
 11
348.54889912194358
 21
633.67023900553943
 31
0.0
  0
LINE
  5
331E
  8
0
 10
343.04889912194352
 20
648.34564900553926
 30
0.0
 11
347.04889912194352
 21
646.03626900553945
 31
0.0
  0
ARC
  5
331F
  8
0
 10
344.5489291219435
 20
650.94373900553967
 30
0.0
 40
3.0
 50
179.9999899999988
 51
240.00000999999969
  0
ARC
  5
3320
  8
0
 10
345.54889912194352
 20
643.4381790055395
 30
0.0
 40
3.0
 50
0.0
 51
60.000002000001302
  0
ARC
  5
3321
  8
0
 10
337.5489291219435
 20
677.27356900553934
 30
0.0
 40
4.0
 50
0.0
 51
88.499997000000647
  0
LINE
  5
3322
  8
0
 10
337.65363912194363
 20
681.27222900553943
 30
0.0
 11
327.79172912194338
 21
681.53046900553943
 31
0.0
  0
ARC
  5
3323
  8
0
 10
344.5489291219435
 20
685.17017900553935
 30
0.0
 40
4.0
 50
277.18075000000027
 51
0.0
  0
ARC
  5
3324
  8
0
 10
345.5489291219435
 20
677.23291900553943
 30
0.0
 40
4.0
 50
97.180758000000822
 51
180.00001000000091
  0
ARC
  5
3325
  8
0
 10
308.54889912194352
 20
720.82562900553944
 30
0.0
 40
8.0
 50
87.999999999999503
 51
180.00001000000091
  0
ARC
  5
3326
  8
0
 10
344.5489291219435
 20
723.57092900553926
 30
0.0
 40
4.0
 50
0.0
 51
87.999999999999503
  0
LINE
  5
3327
  8
0
 10
410.54889912194352
 20
600.17023900553943
 30
0.0
 11
410.54889912194352
 21
632.17017900553935
 31
0.0
  0
LINE
  5
3329
  8
ﾁｭｳｼﾝｾﾝ1
 10
170.02320912194341
 20
317.47453883890961
 30
0.0
 11
413.32809912194352
 21
317.47453883890961
 31
0.0
  0
LINE
  5
332A
  8
0
 10
312.5489191219433
 20
177.4745528389096
 30
0.0
 11
348.5489191219433
 21
177.4745528389096
 31
0.0
  0
LINE
  5
332B
  8
0
 10
315.5489191219433
 20
195.47455583890951
 30
0.0
 11
346.54893912194348
 21
195.47455583890951
 31
0.0
  0
ARC
  5
332C
  8
0
 10
312.5489191219433
 20
217.93228883890961
 30
0.0
 40
8.0000000999999976
 50
270.0
 51
0.0
  0
ARC
  5
332D
  8
0
 10
328.54893912194359
 20
373.47457883890962
 30
0.0
 40
8.0000000999999976
 50
179.9999899999988
 51
270.0
  0
ARC
  5
332E
  8
0
 10
312.5489191219433
 20
378.95548883890962
 30
0.0
 40
8.0000000999999976
 50
0.0
 51
88.499997000000747
  0
LINE
  5
332F
  8
0
 10
179.2904191219435
 20
296.41158383890962
 30
0.0
 11
189.0489091219435
 21
276.9745418389096
 31
0.0
  0
LINE
  5
3330
  8
0
 10
129.5489191219433
 20
207.97455383890949
 30
0.0
 11
129.5489191219433
 21
320.97454883890958
 31
0.0
  0
LINE
  5
3331
  8
0
 10
189.0489691219434
 20
229.24469783890959
 30
0.0
 11
189.0489691219434
 21
350.68414883890949
 31
0.0
  0
LINE
  5
3332
  8
0
 10
198.0489691219434
 20
225.47455583890959
 30
0.0
 11
198.0489691219434
 21
353.47453883890961
 31
0.0
  0
LINE
  5
3333
  8
0
 10
210.54891912194341
 20
217.5456308389096
 30
0.0
 11
210.54891912194341
 21
361.4035088389096
 31
0.0
  0
LINE
  5
3334
  8
0
 10
225.5489191219433
 20
201.72456983890959
 30
0.0
 11
225.5489191219433
 21
386.69395883890962
 31
0.0
  0
LINE
  5
3335
  8
0
 10
239.54889912194341
 20
246.09896183890959
 30
0.0
 11
239.54889912194341
 21
304.12230983890959
 31
0.0
  0
LINE
  5
3336
  8
0
 10
300.5489191219433
 20
210.47455583890959
 30
0.0
 11
300.5489191219433
 21
348.91729883890957
 31
0.0
  0
LINE
  5
3337
  8
0
 10
235.5489691219434
 20
232.97455583890951
 30
0.0
 11
235.5489691219434
 21
388.97458883890971
 31
0.0
  0
LINE
  5
3338
  8
0
 10
108.5489191219433
 20
342.4745408389096
 30
0.0
 11
108.5489191219433
 21
186.47454083890941
 31
0.0
1001
GENIUS_GENOREF_13
1005
2FB0
  0
LINE
  5
3339
  8
0
 10
98.548919121943499
 20
184.4745408389096
 30
0.0
 11
98.548919121943499
 21
344.4745408389096
 31
0.0
1001
GENIUS_GENOREF_13
1005
2FB0
  0
LINE
  5
333A
  8
0
 10
154.5489691219434
 20
272.41454483890971
 30
0.0
 11
189.0489691219434
 21
272.41454483890971
 31
0.0
  0
LINE
  5
333B
  8
0
 10
153.68853912194359
 20
232.41086483890959
 30
0.0
 11
187.11873912194341
 21
231.24345983890959
 31
0.0
  0
LINE
  5
333C
  8
0
 10
151.7319991219436
 20
213.40013783890959
 30
0.0
 11
188.9038291219434
 21
225.74063783890961
 31
0.0
  0
LINE
  5
333D
  8
ﾁｭｳｼﾝｾﾝ1
 10
188.16939912194351
 20
264.4745408389096
 30
0.0
 11
90.376674121943495
 21
264.4745408389096
 31
0.0
  0
LINE
  5
333E
  8
0
 10
98.548919121943499
 20
184.4745408389096
 30
0.0
 11
106.5489191219433
 21
184.4745408389096
 31
0.0
  0
ARC
  5
333F
  8
0
 10
106.5489191219433
 20
186.47454083890941
 30
0.0
 40
2.0
 50
270.0
 51
0.0
1001
GENIUS_GENOBJ-N-FIL_13
1002
{
1000
OWNER
1000
GEN
1002
}
1001
GENIUS_GENODEF_13
1002
{
1000
HIER
1070
     0
1002
}
1002
{
1000
MANEDIT
1070
     0
1002
}
1002
{
1000
NOSEL
1070
     0
1002
}
1002
{
1000
BEHIND
1070
     0
1002
}
1002
{
1000
OTHER
1070
     0
1002
}
1002
{
1000
REACTOR
1002
}
  0
LINE
  5
3340
  8
AM_0
 10
129.5489191219433
 20
232.5370988389096
 30
0.0
 11
108.5489191219433
 21
232.5370988389096
 31
0.0
  0
LINE
  5
3341
  8
AM_0
 10
129.5489191219433
 20
218.47452383890959
 30
0.0
 11
108.5489191219433
 21
218.47452383890959
 31
0.0
  0
LINE
  5
3342
  8
0
 10
110.4791201285383
 20
207.30860878400679
 30
0.0
 11
129.5489191219433
 21
207.9745408389096
 31
0.0
  0
ARC
  5
3343
  8
0
 10
110.5489191219434
 20
205.30982712996871
 30
0.0
 40
2.0
 50
91.999999999997087
 51
180.0
1001
GENIUS_GENOBJ-N-FIL_13
1002
{
1000
OWNER
1000
GEN
1002
}
1001
GENIUS_GENODEF_13
1002
{
1000
HIER
1070
     0
1002
}
1002
{
1000
MANEDIT
1070
     0
1002
}
1002
{
1000
NOSEL
1070
     0
1002
}
1002
{
1000
BEHIND
1070
     0
1002
}
1002
{
1000
OTHER
1070
     0
1002
}
1002
{
1000
REACTOR
1002
}
  0
LINE
  5
3344
  8
0
 10
149.54889912194341
 20
212.53571183890961
 30
0.0
 11
149.54889912194341
 21
267.41454383890971
 31
0.0
  0
ARC
  5
3345
  8
0
 10
153.5489191219433
 20
228.4133378389096
 30
0.0
 40
4.000000199999997
 50
88.000000000002899
 51
180.00001000000091
  0
LINE
  5
3346
  8
0
 10
129.5489191219433
 20
207.97455383890949
 30
0.0
 11
145.68849912194341
 21
208.53815483890961
 31
0.0
  0
ARC
  5
3347
  8
0
 10
145.5489691219434
 20
212.53571183890961
 30
0.0
 40
4.000000199999997
 50
271.99999999999687
 51
0.0
  0
ARC
  5
3348
  8
0
 10
152.99232912194341
 20
209.60388983890959
 30
0.0
 40
4.000000199999997
 50
108.3654199999978
 51
158.501450000002
  0
LINE
  5
3349
  8
0
 10
129.5489191219433
 20
218.47455383890949
 30
0.0
 11
149.54889912194341
 21
218.47455383890949
 31
0.0
  0
LINE
  5
334A
  8
0
 10
129.5489191219433
 20
232.53752783890951
 30
0.0
 11
149.54889912194341
 21
232.53752783890951
 31
0.0
  0
ARC
  5
334B
  8
0
 10
154.5489691219434
 20
267.41454383890971
 30
0.0
 40
5.0000001000000003
 50
90.00000299999769
 51
180.00001000000091
  0
POINT
  5
334C
  8
0
 10
129.5489191219433
 20
264.4745408389096
 30
0.0
  0
ARC
  5
334D
  8
0
 10
315.5489191219433
 20
210.47455583890959
 30
0.0
 40
15.00000029999998
 50
179.9999899999988
 51
270.0
  0
ARC
  5
334E
  8
0
 10
220.6290991219434
 20
199.47456983890959
 30
0.0
 40
4.000000199999997
 50
270.0
 51
342.25533000000132
  0
ARC
  5
334F
  8
0
 10
189.5489191219433
 20
193.47456983890959
 30
0.0
 40
2.00000007
 50
90.00000299999769
 51
180.00001000000091
  0
LINE
  5
3350
  8
ﾁｭｳｼﾝｾﾝ1
 10
205.5489691219434
 20
174.10388446704721
 30
0.0
 11
205.5489691219434
 21
199.00298183890959
 31
0.0
  0
LINE
  5
3351
  8
ｶｸﾚｾﾝ2
 10
213.0489691219434
 20
195.47455583890951
 30
0.0
 11
213.0489691219434
 21
177.4745528389096
 31
0.0
  0
LINE
  5
3352
  8
ｶｸﾚｾﾝ2
 10
198.0489691219434
 20
195.47455583890951
 30
0.0
 11
198.0489691219434
 21
177.4745528389096
 31
0.0
  0
LINE
  5
3353
  8
0
 10
225.5489191219433
 20
179.4745538389094
 30
0.0
 11
310.54893912194359
 21
179.4745538389094
 31
0.0
  0
LINE
  5
3354
  8
0
 10
187.54896912194349
 20
177.4745528389096
 30
0.0
 11
223.5489691219434
 21
177.4745528389096
 31
0.0
  0
LINE
  5
3355
  8
0
 10
187.54896912194349
 20
177.4745528389096
 30
0.0
 11
187.54896912194349
 21
193.47456983890959
 31
0.0
  0
ARC
  5
3356
  8
0
 10
225.5489191219433
 20
177.4745528389096
 30
0.0
 40
2.00000007
 50
90.00000299999769
 51
180.00001000000091
  0
ARC
  5
3357
  8
0
 10
310.54893912194359
 20
177.4745528389096
 30
0.0
 40
2.00000007
 50
0.0
 51
90.00000299999769
  0
LINE
  5
3358
  8
0
 10
312.5489191219433
 20
177.4745528389096
 30
0.0
 11
312.5489191219433
 21
177.4745528389096
 31
0.0
  0
LINE
  5
3359
  8
0
 10
224.4387991219435
 20
198.25543883890961
 30
0.0
 11
239.35860912194349
 21
244.8798458389096
 31
0.0
  0
LINE
  5
335A
  8
0
 10
189.5489191219433
 20
195.47455583890951
 30
0.0
 11
220.6290991219434
 21
195.47455583890951
 31
0.0
  0
LINE
  5
335B
  8
0
 10
212.01339912194351
 20
214.01010683890959
 30
0.0
 11
224.6702491219435
 21
201.35323283890961
 31
0.0
  0
ARC
  5
335C
  8
0
 10
215.54889912194341
 20
217.5456308389096
 30
0.0
 40
5.0000001000000003
 50
179.9999899999988
 51
225.0
  0
LINE
  5
335D
  8
0
 10
198.0489691219434
 20
237.97455683890959
 30
0.0
 11
210.54891912194341
 21
237.97455683890959
 31
0.0
  0
LINE
  5
335E
  8
0
 10
198.0489091219435
 20
225.97453883890961
 30
0.0
 11
205.72341912194341
 21
225.70654883890961
 31
0.0
  0
ARC
  5
335F
  8
0
 10
192.04896912194349
 20
228.68590583890941
 30
0.0
 40
3.0
 50
179.9999899999988
 51
268.00000999999861
  0
LINE
  5
3360
  8
0
 10
191.9442391219435
 20
225.6877208389096
 30
0.0
 11
198.0489091219435
 21
225.4745408389096
 31
0.0
  0
ARC
  5
3361
  8
0
 10
190.1641291219434
 20
221.94440483890961
 30
0.0
 40
4.000000199999997
 50
74.380296000000413
 51
108.3654199999978
  0
LINE
  5
3362
  8
0
 10
189.0489691219434
 20
237.97455683890959
 30
0.0
 11
198.0489691219434
 21
237.97455683890959
 31
0.0
  0
LINE
  5
3363
  8
0
 10
189.0489691219434
 20
228.68590583890941
 30
0.0
 11
189.0489691219434
 21
229.24469783890959
 31
0.0
  0
ARC
  5
3364
  8
0
 10
187.04889912194341
 20
229.24469783890959
 30
0.0
 40
2.00000007
 50
0.0
 51
88.000000000002899
  0
ARC
  5
3365
  8
0
 10
205.5489691219434
 20
220.70960183890941
 30
0.0
 40
5.0000001000000003
 50
0.0
 51
88.000000000002899
  0
ARC
  5
3366
  8
0
 10
222.54891912194341
 20
199.23192383890961
 30
0.0
 40
3.0
 50
27.893113000001151
 51
45.00000100000149
  0
LINE
  5
3367
  8
0
 10
225.5489191219433
 20
209.0567708389095
 30
0.0
 11
227.8952191219436
 21
209.0567708389095
 31
0.0
  0
LINE
  5
3368
  8
0
 10
225.5489191219433
 20
226.40953883890961
 30
0.0
 11
233.44812912194351
 21
226.40953883890961
 31
0.0
  0
LINE
  5
3369
  8
0
 10
198.0489691219434
 20
252.32663783890959
 30
0.0
 11
210.54891912194341
 21
252.32663783890959
 31
0.0
  0
LINE
  5
336A
  8
0
 10
189.0489691219434
 20
252.3261938389096
 30
0.0
 11
198.0489691219434
 21
252.3261938389096
 31
0.0
  0
ARC
  5
336B
  8
0
 10
235.5489691219434
 20
246.09896183890959
 30
0.0
 40
4.000000199999997
 50
342.25533000000132
 51
0.0
  0
LINE
  5
336C
  8
0
 10
305.62389912194323
 20
209.93228783890959
 30
0.0
 11
312.5489191219433
 21
209.93228783890959
 31
0.0
  0
LINE
  5
336D
  8
0
 10
162.44421912194341
 20
347.84395883890949
 30
0.0
 11
186.32232912194331
 21
348.6778088389097
 31
0.0
  0
LINE
  5
336E
  8
0
 10
167.79024912194359
 20
323.65402883890948
 30
0.0
 11
188.1702391219435
 21
344.03401883890962
 31
0.0
  0
ARC
  5
336F
  8
0
 10
181.2823591219433
 20
305.47453883890961
 30
0.0
 40
5.0000001000000003
 50
315.0
 51
90.00000299999769
  0
LINE
  5
3370
  8
AM_0
 10
129.5489191219433
 20
310.47453983890961
 30
0.0
 11
108.5489191219433
 21
310.47453983890961
 31
0.0
  0
LINE
  5
3371
  8
AM_0
 10
129.5489191219433
 20
296.4119798389097
 30
0.0
 11
108.5489191219433
 21
296.4119798389097
 31
0.0
  0
LINE
  5
3372
  8
0
 10
110.4791201285383
 20
321.64047289381227
 30
0.0
 11
129.5489191219433
 21
320.9745408389096
 31
0.0
  0
ARC
  5
3373
  8
0
 10
110.5489191219434
 20
323.63925454785038
 30
0.0
 40
2.0
 50
180.0
 51
268.0000000000029
1001
GENIUS_GENOBJ-N-FIL_13
1002
{
1000
OWNER
1000
GEN
1002
}
1001
GENIUS_GENODEF_13
1002
{
1000
HIER
1070
     0
1002
}
1002
{
1000
MANEDIT
1070
     0
1002
}
1002
{
1000
NOSEL
1070
     0
1002
}
1002
{
1000
BEHIND
1070
     0
1002
}
1002
{
1000
OTHER
1070
     0
1002
}
1002
{
1000
REACTOR
1002
}
  0
LINE
  5
3374
  8
0
 10
98.548919121943499
 20
344.4745408389096
 30
0.0
 11
106.5489191219433
 21
344.4745408389096
 31
0.0
  0
ARC
  5
3375
  8
0
 10
106.5489191219433
 20
342.4745408389096
 30
0.0
 40
2.0
 50
0.0
 51
90.0
1001
GENIUS_GENOBJ-N-FIL_13
1002
{
1000
OWNER
1000
GEN
1002
}
1001
GENIUS_GENODEF_13
1002
{
1000
HIER
1070
     0
1002
}
1002
{
1000
MANEDIT
1070
     0
1002
}
1002
{
1000
NOSEL
1070
     0
1002
}
1002
{
1000
BEHIND
1070
     0
1002
}
1002
{
1000
OTHER
1070
     0
1002
}
1002
{
1000
REACTOR
1002
}
  0
LINE
  5
3376
  8
0
 10
159.5489191219433
 20
344.84578883890953
 30
0.0
 11
159.5489191219433
 21
324.91921883890979
 31
0.0
  0
LINE
  5
3377
  8
0
 10
129.5489191219433
 20
310.47454883890958
 30
0.0
 11
181.2823591219433
 21
310.47454883890958
 31
0.0
  0
LINE
  5
3378
  8
0
 10
129.5489191219433
 20
296.41155383890958
 30
0.0
 11
179.2904191219435
 21
296.41155383890958
 31
0.0
  0
LINE
  5
3379
  8
0
 10
129.5489191219433
 20
320.97457883890962
 30
0.0
 11
156.6536491219434
 21
321.92107883890952
 31
0.0
  0
LINE
  5
337A
  8
0
 10
179.2904191219435
 20
296.4115238389096
 30
0.0
 11
184.81788912194341
 21
301.9389908389096
 31
0.0
  0
LINE
  5
337B
  8
0
 10
166.39752912194331
 20
322.09171883890963
 30
0.0
 11
172.23000912194351
 21
310.47457883890962
 31
0.0
  0
LINE
  5
337C
  8
0
 10
156.6536491219434
 20
321.92107883890952
 30
0.0
 11
164.42922912194331
 21
322.19257883890958
 31
0.0
  0
ARC
  5
337D
  8
0
 10
156.5489191219433
 20
324.91921883890979
 30
0.0
 40
3.0
 50
271.99999999999687
 51
0.0
  0
ARC
  5
337E
  8
0
 10
164.2547191219434
 20
327.18952883890961
 30
0.0
 40
5.0000001000000003
 50
271.99999999999687
 51
315.0
  0
ARC
  5
337F
  8
0
 10
162.5489191219433
 20
344.84578883890953
 30
0.0
 40
3.0
 50
91.999998000000545
 51
180.00001000000091
  0
POLYLINE
  5
3380
  8
0
 66
     1
 10
0.0
 20
0.0
 30
0.0
  0
VERTEX
  5
3381
  8
0
  6
CONTINUOUS
 10
263.31810912194351
 20
344.94688883890962
 30
0.0
 42
0.038759451
  0
VERTEX
  5
3382
  8
0
  6
CONTINUOUS
 10
266.0659291219435
 20
347.85772883890968
 30
0.0
 42
0.045306413
  0
VERTEX
  5
3383
  8
0
  6
CONTINUOUS
 10
268.2881191219434
 20
351.18544883890962
 30
0.0
 42
0.052171431
  0
VERTEX
  5
3384
  8
0
  6
CONTINUOUS
 10
269.82480912194342
 20
354.88324883890948
 30
0.0
 42
0.057266618
  0
VERTEX
  5
3385
  8
0
  6
CONTINUOUS
 10
270.51906912194357
 20
358.82200883890971
 30
0.0
 42
0.058402263
  0
VERTEX
  5
3386
  8
0
  6
CONTINUOUS
 10
270.28830912194348
 20
362.8102088389096
 30
0.0
 42
0.055045302
  0
VERTEX
  5
3387
  8
0
  6
CONTINUOUS
 10
269.16279912194358
 20
366.64537883890949
 30
0.0
 42
0.048778173
  0
VERTEX
  5
3388
  8
0
  6
CONTINUOUS
 10
267.26994912194363
 20
370.16587883890952
 30
0.0
 42
0.041944207
  0
VERTEX
  5
3389
  8
0
  6
CONTINUOUS
 10
264.77241912194353
 20
373.28890883890961
 30
0.0
 42
0.035908261
  0
VERTEX
  5
338A
  8
0
  6
CONTINUOUS
 10
261.81984912194361
 20
375.98971883890948
 30
0.0
 42
0.031063208
  0
VERTEX
  5
338B
  8
0
  6
CONTINUOUS
 10
258.53316912194327
 20
378.27364883890948
 30
0.0
 42
0.027381869
  0
VERTEX
  5
338C
  8
0
  6
CONTINUOUS
 10
255.00123912194371
 20
380.16076883890969
 30
0.0
 42
0.024647405
  0
VERTEX
  5
338D
  8
0
  6
CONTINUOUS
 10
251.29224912194351
 20
381.67189883890961
 30
0.0
 42
0.022677562
  0
VERTEX
  5
338E
  8
0
  6
CONTINUOUS
 10
247.4568391219434
 20
382.82656883890962
 30
0.0
 42
0.021321502
  0
VERTEX
  5
338F
  8
0
  6
CONTINUOUS
 10
243.5344291219433
 20
383.64040883890971
 30
0.0
 42
0.020471074
  0
VERTEX
  5
3390
  8
0
  6
CONTINUOUS
 10
239.55753912194351
 20
384.12445883890962
 30
0.0
 42
0.020088488
  0
VERTEX
  5
3391
  8
0
  6
CONTINUOUS
 10
235.5489391219435
 20
384.28537883890959
 30
0.0
  0
SEQEND
  5
3392
  8
0
  0
LINE
  5
3393
  8
0
 10
212.01339912194351
 20
364.93900883890961
 30
0.0
 11
224.6702491219435
 21
377.59588883890962
 31
0.0
  0
POLYLINE
  5
3394
  8
0
 66
     1
 10
0.0
 20
0.0
 30
0.0
  0
VERTEX
  5
3395
  8
0
  6
CONTINUOUS
 10
269.00559912194342
 20
362.11594883890939
 30
0.0
 42
0.046334034
  0
VERTEX
  5
3396
  8
0
  6
CONTINUOUS
 10
267.15375912194361
 20
363.17359883890953
 30
0.0
 42
0.024113349
  0
VERTEX
  5
3397
  8
0
  6
CONTINUOUS
 10
265.17429912194348
 20
363.97345883890961
 30
0.0
 42
0.015482213
  0
VERTEX
  5
3398
  8
0
  6
CONTINUOUS
 10
263.13735912194358
 20
364.61812883890963
 30
0.0
 42
0.011170747
  0
VERTEX
  5
3399
  8
0
  6
CONTINUOUS
 10
261.0696091219437
 20
365.15461883890958
 30
0.0
 42
0.0086851837
  0
VERTEX
  5
339A
  8
0
  6
CONTINUOUS
 10
258.98205912194362
 20
365.60929883890958
 30
0.0
 42
0.0071112966
  0
VERTEX
  5
339B
  8
0
  6
CONTINUOUS
 10
256.8803491219436
 20
365.99830883890962
 30
0.0
 42
0.0060487861
  0
VERTEX
  5
339C
  8
0
  6
CONTINUOUS
 10
254.76765912194341
 20
366.33232883890969
 30
0.0
 42
0.0052886795
  0
VERTEX
  5
339D
  8
0
  6
CONTINUOUS
 10
252.65028912194339
 20
366.6181688389097
 30
0.0
 42
0.004745088
  0
VERTEX
  5
339E
  8
0
  6
CONTINUOUS
 10
250.52517912194349
 20
366.86182883890962
 30
0.0
 42
0.0043374779
  0
VERTEX
  5
339F
  8
0
  6
CONTINUOUS
 10
248.3954791219434
 20
367.06696883890959
 30
0.0
 42
0.0040309373
  0
VERTEX
  5
33A0
  8
0
  6
CONTINUOUS
 10
246.26268912194351
 20
367.23646883890962
 30
0.0
 42
0.0038017218
  0
VERTEX
  5
33A1
  8
0
  6
CONTINUOUS
 10
244.12746912194359
 20
367.3726088389098
 30
0.0
 42
0.0036333144
  0
VERTEX
  5
33A2
  8
0
  6
CONTINUOUS
 10
241.99038912194371
 20
367.47697883890947
 30
0.0
 42
0.0035147919
  0
VERTEX
  5
33A3
  8
0
  6
CONTINUOUS
 10
239.8519891219434
 20
367.55083883890961
 30
0.0
 42
0.003439074
  0
VERTEX
  5
33A4
  8
0
  6
CONTINUOUS
 10
237.7127791219435
 20
367.59496883890961
 30
0.0
 42
0.0034021156
  0
VERTEX
  5
33A5
  8
0
  6
CONTINUOUS
 10
235.5730891219435
 20
367.60984883890961
 30
0.0
  0
SEQEND
  5
33A6
  8
0
  0
LINE
  5
33A7
  8
0
 10
235.5489091219435
 20
319.65988883890941
 30
0.0
 11
263.31756912194328
 21
344.9463488389095
 31
0.0
  0
LINE
  5
33A8
  8
0
 10
235.5489091219435
 20
319.65988883890941
 30
0.0
 11
235.5504391219437
 21
319.65988883890941
 31
0.0
  0
LINE
  5
33A9
  8
0
 10
235.5489691219434
 20
304.12230983890959
 30
0.0
 11
239.54889912194341
 21
304.12230983890959
 31
0.0
  0
LINE
  5
33AA
  8
0
 10
198.0489691219434
 20
340.97452883890969
 30
0.0
 11
210.54891912194341
 21
340.97452883890969
 31
0.0
  0
LINE
  5
33AB
  8
0
 10
198.0489691219434
 20
326.62249883890962
 30
0.0
 11
210.54891912194341
 21
326.62249883890962
 31
0.0
  0
LINE
  5
33AC
  8
0
 10
189.0489691219434
 20
326.62291883890958
 30
0.0
 11
198.0489691219434
 21
326.62291883890958
 31
0.0
  0
LINE
  5
33AD
  8
0
 10
189.0489691219434
 20
340.97452883890969
 30
0.0
 11
198.0489691219434
 21
340.97452883890969
 31
0.0
  0
ARC
  5
33AE
  8
0
 10
186.0489691219434
 20
346.15531883890952
 30
0.0
 40
3.0
 50
315.0
 51
0.0
  0
LINE
  5
33AF
  8
0
 10
198.0489091219435
 20
352.97455883890979
 30
0.0
 11
205.72341912194341
 21
353.24254883890961
 31
0.0
  0
LINE
  5
33B0
  8
0
 10
191.9442391219435
 20
353.26138883890962
 30
0.0
 11
198.0489091219435
 21
353.47453883890961
 31
0.0
  0
ARC
  5
33B1
  8
0
 10
192.04896912194349
 20
350.26321883890961
 30
0.0
 40
3.0
 50
91.999998000000545
 51
166.3810700000015
  0
ARC
  5
33B2
  8
0
 10
186.21759912194341
 20
351.67594883890962
 30
0.0
 40
3.0
 50
271.99999999999687
 51
346.38107000000139
  0
ARC
  5
33B3
  8
0
 10
205.5489691219434
 20
358.23952883890968
 30
0.0
 40
5.0000001000000003
 50
271.99999999999687
 51
0.0
  0
ARC
  5
33B4
  8
0
 10
215.54889912194341
 20
361.4035088389096
 30
0.0
 40
5.0000001000000003
 50
135.0
 51
180.00001000000091
  0
LINE
  5
33B5
  8
0
 10
225.5489191219433
 20
367.60984883890961
 30
0.0
 11
235.5489691219434
 21
367.60984883890961
 31
0.0
  0
ARC
  5
33B6
  8
0
 10
308.54889912194352
 20
348.91729883890957
 30
0.0
 40
8.0000000999999976
 50
90.00000299999769
 51
180.00001000000091
  0
LINE
  5
33B7
  8
0
 10
308.54889912194352
 20
356.91724883890947
 30
0.0
 11
316.94841912194318
 21
356.91724883890947
 31
0.0
  0
LINE
  5
33B8
  8
0
 10
235.5489091219435
 20
388.97458883890971
 30
0.0
 11
312.7583191219436
 21
386.95279883890959
 31
0.0
  0
ARC
  5
33B9
  8
0
 10
222.54891912194341
 20
379.71721883890962
 30
0.0
 40
3.0
 50
315.0
 51
0.0
  0
ARC
  5
33BA
  8
0
 10
227.54889912194341
 20
386.69395883890962
 30
0.0
 40
2.00000007
 50
91.999998000000545
 51
180.00001000000091
  0
LINE
  5
33BB
  8
0
 10
227.4790891219435
 20
388.69276883890961
 30
0.0
 11
235.5489091219435
 21
388.97458883890971
 31
0.0
  0
LINE
  5
33BC
  8
0
 10
320.54889912194352
 20
217.93228883890961
 30
0.0
 11
320.54889912194352
 21
378.95548883890962
 31
0.0
  0
LINE
  5
33BD
  8
0
 10
341.54889912194352
 20
203.01395183890941
 30
0.0
 11
341.54889912194352
 21
361.47457883890962
 31
0.0
  0
LINE
  5
33BE
  8
ﾁｭｳｼﾝｾﾝ1
 10
629.76163922802914
 20
170.8472919323772
 30
0.0
 11
629.76163922802914
 21
394.42746466348052
 31
0.0
  0
LINE
  5
33BF
  8
0
 10
564.76163822802914
 20
300.47454383890948
 30
0.0
 11
564.76163822802914
 21
210.47455583890959
 31
0.0
  0
LINE
  5
33C0
  8
0
 10
694.76164022802891
 20
300.47454383890948
 30
0.0
 11
694.76164022802891
 21
210.47455583890959
 31
0.0
  0
LINE
  5
33C1
  8
0
 10
706.76164022802902
 20
349.56823883890962
 30
0.0
 11
706.76164022802902
 21
251.21181383890959
 31
0.0
  0
LINE
  5
33C2
  8
0
 10
552.76163822802914
 20
349.56823883890962
 30
0.0
 11
552.76163822802914
 21
251.21181383890959
 31
0.0
  0
LINE
  5
33C3
  8
0
 10
744.72895022802913
 20
192.91618883890959
 30
0.0
 11
728.17755122802896
 21
304.12233983890962
 31
0.0
  0
LINE
  5
33C4
  8
0
 10
514.79430722802886
 20
192.91618883890959
 30
0.0
 11
531.34574222802917
 21
304.12230983890959
 31
0.0
  0
ARC
  5
33C5
  8
0
 10
629.76163922802914
 20
300.47454383890948
 30
0.0
 40
65.000000999999997
 50
0.0
 51
180.00001000000091
  0
LINE
  5
33C6
  8
0
 10
566.76160622802922
 20
179.4745538389094
 30
0.0
 11
692.76164222802913
 21
179.4745538389094
 31
0.0
  0
LINE
  5
33C7
  8
ﾁｭｳｼﾝｾﾝ1
 10
533.68211286869769
 20
264.4745408389096
 30
0.0
 11
725.65460420076386
 21
264.4745408389096
 31
0.0
  0
LINE
  5
33C8
  8
0
 10
514.7616372280288
 20
177.4745528389096
 30
0.0
 11
564.76163822802914
 21
177.4745528389096
 31
0.0
  0
LINE
  5
33C9
  8
0
 10
560.76160622802922
 20
195.47455583890951
 30
0.0
 11
517.76163722802869
 21
195.47455583890951
 31
0.0
  0
ARC
  5
33CA
  8
0
 10
349.54893912194359
 20
203.01395183890941
 30
0.0
 40
8.0000000999999976
 50
179.9999899999988
 51
252.54238999999831
  0
ARC
  5
33CB
  8
0
 10
346.54893912194348
 20
193.47456983890959
 30
0.0
 40
2.00000007
 50
0.0
 51
90.00000299999769
  0
ARC
  5
33CC
  8
0
 10
517.76163722802869
 20
192.47455583890959
 30
0.0
 40
3.0
 50
90.00000299999769
 51
180.00001000000091
  0
LINE
  5
33CD
  8
ﾁｭｳｼﾝｾﾝ1
 10
330.5489191219433
 20
172.95859600756239
 30
0.0
 11
330.5489191219433
 21
199.00298183890959
 31
0.0
  0
LINE
  5
33CE
  8
ｶｸﾚｾﾝ2
 10
323.0489191219433
 20
195.47455583890951
 30
0.0
 11
323.0489191219433
 21
177.4745528389096
 31
0.0
  0
LINE
  5
33CF
  8
ｶｸﾚｾﾝ2
 10
338.0489191219433
 20
195.47455583890951
 30
0.0
 11
338.0489191219433
 21
177.4745528389096
 31
0.0
  0
LINE
  5
33D0
  8
0
 10
348.5489191219433
 20
177.4745528389096
 30
0.0
 11
348.5489191219433
 21
193.47456983890959
 31
0.0
  0
LINE
  5
33D1
  8
0
 10
514.7616372280288
 20
192.47455583890959
 30
0.0
 11
514.7616372280288
 21
177.4745528389096
 31
0.0
  0
ARC
  5
33D2
  8
0
 10
560.76160622802922
 20
191.4745538389096
 30
0.0
 40
4.000000199999997
 50
0.0
 51
90.00000299999769
  0
ARC
  5
33D3
  8
0
 10
549.76163822802914
 20
210.47455583890959
 30
0.0
 40
15.00000029999998
 50
270.0
 51
0.0
  0
LINE
  5
33D4
  8
ﾁｭｳｼﾝｾﾝ1
 10
534.76163522802869
 20
200.48645783890959
 30
0.0
 11
534.76163522802869
 21
174.1432538389096
 31
0.0
  0
LINE
  5
33D5
  8
ｶｸﾚｾﾝ2
 10
527.26164722802866
 20
195.47455583890951
 30
0.0
 11
527.26164722802866
 21
177.4745528389096
 31
0.0
  0
LINE
  5
33D6
  8
ｶｸﾚｾﾝ2
 10
542.26163522802881
 20
195.47455583890951
 30
0.0
 11
542.26163522802881
 21
177.4745528389096
 31
0.0
  0
LINE
  5
33D7
  8
0
 10
564.76163822802914
 20
191.4745538389096
 30
0.0
 11
564.76163822802914
 21
177.4745528389096
 31
0.0
  0
ARC
  5
33D8
  8
0
 10
566.76160622802922
 20
177.4745528389096
 30
0.0
 40
2.00000007
 50
90.00000299999769
 51
180.00001000000091
  0
ARC
  5
33D9
  8
0
 10
629.76163922802914
 20
251.21181383890959
 30
0.0
 40
77.000000999999983
 50
179.9999899999988
 51
212.41839000000161
  0
ARC
  5
33DA
  8
0
 10
698.76164222802913
 20
191.4745538389096
 30
0.0
 40
4.000000199999997
 50
90.00000299999769
 51
180.00001000000091
  0
ARC
  5
33DB
  8
0
 10
741.76163522802904
 20
192.47455583890959
 30
0.0
 40
3.0
 50
0.0
 51
90.00000299999769
  0
ARC
  5
33DC
  8
0
 10
709.76164022802902
 20
210.47455583890959
 30
0.0
 40
15.00000029999998
 50
179.9999899999988
 51
270.0
  0
LINE
  5
33DD
  8
ﾁｭｳｼﾝｾﾝ1
 10
724.76162822802905
 20
199.72388483890961
 30
0.0
 11
724.76162822802905
 21
174.1432538389096
 31
0.0
  0
LINE
  5
33DE
  8
ｶｸﾚｾﾝ2
 10
717.26164322802913
 20
195.47455583890951
 30
0.0
 11
717.26164322802913
 21
177.4745528389096
 31
0.0
  0
LINE
  5
33DF
  8
ｶｸﾚｾﾝ2
 10
732.26162822802905
 20
195.47455583890951
 30
0.0
 11
732.26162822802905
 21
177.4745528389096
 31
0.0
  0
LINE
  5
33E0
  8
0
 10
694.76164022802891
 20
177.4745528389096
 30
0.0
 11
744.76163522802904
 21
177.4745528389096
 31
0.0
  0
LINE
  5
33E1
  8
0
 10
694.76164022802891
 20
191.4745538389096
 30
0.0
 11
694.76164022802891
 21
177.4745528389096
 31
0.0
  0
ARC
  5
33E2
  8
0
 10
692.76164222802913
 20
177.4745528389096
 30
0.0
 40
2.00000007
 50
0.0
 51
90.00000299999769
  0
LINE
  5
33E3
  8
0
 10
744.76163522802904
 20
192.47455583890959
 30
0.0
 11
744.76163522802904
 21
177.4745528389096
 31
0.0
  0
LINE
  5
33E4
  8
0
 10
698.76164222802913
 20
195.47455583890951
 30
0.0
 11
741.76163522802904
 21
195.47455583890951
 31
0.0
  0
ARC
  5
33E5
  8
0
 10
629.76163922802914
 20
251.21181383890959
 30
0.0
 40
77.000000999999983
 50
327.5815999999997
 51
0.0
  0
LINE
  5
33E6
  8
ﾁｭｳｼﾝｾﾝ1
 10
571.88415428879239
 20
317.47453883890961
 30
0.0
 11
688.08758375546518
 21
317.47453883890961
 31
0.0
  0
ARC
  5
33E7
  8
0
 10
629.76163922802914
 20
289.47457283890958
 30
0.0
 40
99.500004000000004
 50
8.4654901000001566
 51
171.53449999999981
  0
LINE
  5
33E8
  8
0
 10
701.28236222802923
 20
371.5905188389097
 30
0.0
 11
658.984540228029
 21
384.58645883890961
 31
0.0
  0
LINE
  5
33E9
  8
0
 10
410.54889912194352
 20
336.47452883890969
 30
0.0
 11
365.54889912194352
 21
336.47452883890969
 31
0.0
  0
LINE
  5
33EA
  8
0
 10
410.54889912194352
 20
333.47452883890958
 30
0.0
 11
352.54893912194348
 21
333.47452883890958
 31
0.0
  0
LINE
  5
33EB
  8
0
 10
410.54889912194352
 20
301.47457283890969
 30
0.0
 11
352.54893912194348
 21
301.47457283890969
 31
0.0
  0
LINE
  5
33EC
  8
0
 10
348.5489191219433
 20
317.47453883890961
 30
0.0
 11
348.5489191219433
 21
344.74249883890968
 31
0.0
  0
LINE
  5
33ED
  8
0
 10
352.54893912194348
 20
299.97457283890969
 30
0.0
 11
352.54893912194348
 21
334.97452883890969
 31
0.0
  0
LINE
  5
33EE
  8
0
 10
352.54893912194348
 20
299.97457283890969
 30
0.0
 11
348.5489191219433
 21
299.97457283890969
 31
0.0
  0
LINE
  5
33EF
  8
0
 10
348.5489191219433
 20
290.20662983890969
 30
0.0
 11
348.5489191219433
 21
317.47453883890961
 31
0.0
  0
LINE
  5
33F0
  8
0
 10
343.04889912194352
 20
285.29912783890961
 30
0.0
 11
347.04894912194351
 21
287.60851283890958
 31
0.0
  0
ARC
  5
33F1
  8
0
 10
344.54889912194352
 20
282.70104383890958
 30
0.0
 40
3.0
 50
120.0000000000005
 51
180.00001000000091
  0
ARC
  5
33F2
  8
0
 10
345.5489191219433
 20
290.20662983890969
 30
0.0
 40
3.0
 50
300.00000000000051
 51
0.0
  0
LINE
  5
33F3
  8
0
 10
352.54893912194348
 20
334.97452883890969
 30
0.0
 11
348.5489191219433
 21
334.97452883890969
 31
0.0
  0
ARC
  5
33F4
  8
0
 10
345.5489191219433
 20
344.74249883890968
 30
0.0
 40
3.0
 50
0.0
 51
60.000002000001302
  0
LINE
  5
33F5
  8
0
 10
328.54893912194359
 20
365.47456883890959
 30
0.0
 11
337.54893912194359
 21
365.47456883890959
 31
0.0
  0
LINE
  5
33F6
  8
0
 10
343.04892912194322
 20
349.64998883890962
 30
0.0
 11
347.0489191219433
 21
347.34058883890953
 31
0.0
  0
ARC
  5
33F7
  8
0
 10
344.54889912194352
 20
352.24807883890958
 30
0.0
 40
3.0
 50
179.9999899999988
 51
240.00000999999969
  0
ARC
  5
33F8
  8
0
 10
337.54893912194359
 20
361.47457883890962
 30
0.0
 40
4.000000199999997
 50
0.0
 51
90.00000299999769
  0
LINE
  5
33F9
  8
0
 10
365.54889912194352
 20
333.47452883890958
 30
0.0
 11
365.54889912194352
 21
336.47452883890969
 31
0.0
  0
LINE
  5
33FA
  8
0
 10
410.54889912194352
 20
301.47457283890969
 30
0.0
 11
410.54889912194352
 21
336.47452883890969
 31
0.0
  0
ARC
  5
33FB
  8
0
 10
563.29358822802885
 20
355.9425788389097
 30
0.0
 40
16.000000499999999
 50
107.079459999999
 51
162.9205300000007
  0
LINE
  5
33FC
  8
0
 10
548.0476182280288
 20
360.79654883890947
 30
0.0
 11
534.95078522802885
 21
319.65991883890962
 31
0.0
  0
ARC
  5
33FD
  8
0
 10
560.76160622802922
 20
349.56823883890962
 30
0.0
 40
8.0000000999999976
 50
138.94664999999881
 51
180.00001000000091
  0
CIRCLE
  5
33FE
  8
0
 10
629.76163922802914
 20
317.47453883890961
 30
0.0
 40
29.000001000000001
  0
ARC
  5
33FF
  8
0
 10
629.76163922802914
 20
317.47453883890961
 30
0.0
 40
16.000000499999999
 50
108.2099599999986
 51
71.790051999998809
  0
CIRCLE
  5
3400
  8
0
 62
     2
 10
629.76163922802914
 20
317.47453883890961
 30
0.0
 40
4.000000199999997
  0
CIRCLE
  5
3401
  8
0
 10
629.76163922802914
 20
317.47453883890961
 30
0.0
 40
2.75000007
  0
LINE
  5
3402
  8
0
 10
624.76162322802895
 20
328.47457883890962
 30
0.0
 11
634.76162522802895
 21
328.47457883890962
 31
0.0
  0
LINE
  5
3403
  8
0
 10
624.76162322802895
 20
336.47452883890969
 30
0.0
 11
634.76162522802895
 21
336.47452883890969
 31
0.0
  0
LINE
  5
3404
  8
0
 10
624.76162322802895
 20
328.47457883890962
 30
0.0
 11
624.76162322802895
 21
336.47452883890969
 31
0.0
  0
LINE
  5
3405
  8
0
 10
634.76162522802895
 20
328.47457883890962
 30
0.0
 11
634.76162522802895
 21
336.47452883890969
 31
0.0
  0
LINE
  5
3406
  8
0
 10
558.43967522802882
 20
371.18857883890962
 30
0.0
 11
599.57630522802913
 21
384.28540883890958
 31
0.0
  0
ARC
  5
3407
  8
0
 10
696.58323422802903
 20
356.29615883890961
 30
0.0
 40
16.000000499999999
 50
17.07946300000124
 51
72.920533999997687
  0
LINE
  5
3408
  8
0
 10
711.87760022802911
 20
360.9953288389097
 30
0.0
 11
724.87351922802907
 21
318.69748883890969
 31
0.0
  0
ARC
  5
3409
  8
0
 10
698.76164222802913
 20
349.56823883890962
 30
0.0
 40
8.0000000999999976
 50
0.0
 51
41.05335099999968
  0
ARC
  5
340B
  8
0
 10
106.5488691219435
 20
694.17019850553925
 30
0.0
 40
2.0
 50
0.0
 51
90.0
1001
GENIUS_GENOBJ-N-FIL_13
1002
{
1000
OWNER
1000
GEN
1002
}
1001
GENIUS_GENODEF_13
1002
{
1000
HIER
1070
     0
1002
}
1002
{
1000
MANEDIT
1070
     0
1002
}
1002
{
1000
NOSEL
1070
     0
1002
}
1002
{
1000
BEHIND
1070
     0
1002
}
1002
{
1000
OTHER
1070
     0
1002
}
1002
{
1000
REACTOR
1002
}
  0
LINE
  5
340C
  8
0
 10
98.548869121943596
 20
536.17019850553925
 30
0.0
 11
98.548869121943596
 21
696.17019850553959
 31
0.0
1001
GENIUS_GENOREF_13
1005
3136
  0
LINE
  5
340D
  8
0
 10
108.5488691219435
 20
694.17019850553925
 30
0.0
 11
108.5488691219435
 21
538.17019850553947
 31
0.0
1001
GENIUS_GENOREF_13
1005
3136
  0
LINE
  5
340E
  8
0
 10
110.4790701285383
 20
559.00426645063681
 30
0.0
 11
129.54886912194351
 21
559.67019850553936
 31
0.0
  0
LINE
  5
340F
  8
AM_0
 10
129.54886912194351
 20
570.17018150553963
 30
0.0
 11
108.5488691219435
 21
570.17018150553963
 31
0.0
  0
ARC
  5
3410
  8
0
 10
106.5488691219435
 20
538.17019850553947
 30
0.0
 40
2.0
 50
270.0
 51
0.0
1001
GENIUS_GENOBJ-N-FIL_13
1002
{
1000
OWNER
1000
GEN
1002
}
1001
GENIUS_GENODEF_13
1002
{
1000
HIER
1070
     0
1002
}
1002
{
1000
MANEDIT
1070
     0
1002
}
1002
{
1000
NOSEL
1070
     0
1002
}
1002
{
1000
BEHIND
1070
     0
1002
}
1002
{
1000
OTHER
1070
     0
1002
}
1002
{
1000
REACTOR
1002
}
  0
LINE
  5
3411
  8
0
 10
98.548869121943596
 20
536.17019850553925
 30
0.0
 11
106.5488691219435
 21
536.17019850553925
 31
0.0
  0
ARC
  5
3412
  8
0
 10
110.5488691219435
 20
557.00548479659858
 30
0.0
 40
2.0
 50
91.999999999997087
 51
180.0
1001
GENIUS_GENOBJ-N-FIL_13
1002
{
1000
OWNER
1000
GEN
1002
}
1001
GENIUS_GENODEF_13
1002
{
1000
HIER
1070
     0
1002
}
1002
{
1000
MANEDIT
1070
     0
1002
}
1002
{
1000
NOSEL
1070
     0
1002
}
1002
{
1000
BEHIND
1070
     0
1002
}
1002
{
1000
OTHER
1070
     0
1002
}
1002
{
1000
REACTOR
1002
}
  0
LINE
  5
3413
  8
AM_0
 10
129.54886912194351
 20
584.23275650553967
 30
0.0
 11
108.5488691219435
 21
584.23275650553967
 31
0.0
  0
LINE
  5
3414
  8
0
 10
110.4790701285383
 20
673.33613056044226
 30
0.0
 11
129.54886912194351
 21
672.67019850553925
 31
0.0
  0
LINE
  5
3415
  8
AM_0
 10
129.54886912194351
 20
648.10763750553951
 30
0.0
 11
108.5488691219435
 21
648.10763750553951
 31
0.0
  0
LINE
  5
3416
  8
AM_0
 10
129.54886912194351
 20
662.17019750553959
 30
0.0
 11
108.5488691219435
 21
662.17019750553959
 31
0.0
  0
ARC
  5
3417
  8
0
 10
110.5488691219435
 20
675.33491221448025
 30
0.0
 40
2.0
 50
180.0
 51
268.0000000000029
1001
GENIUS_GENOBJ-N-FIL_13
1002
{
1000
OWNER
1000
GEN
1002
}
1001
GENIUS_GENODEF_13
1002
{
1000
HIER
1070
     0
1002
}
1002
{
1000
MANEDIT
1070
     0
1002
}
1002
{
1000
NOSEL
1070
     0
1002
}
1002
{
1000
BEHIND
1070
     0
1002
}
1002
{
1000
OTHER
1070
     0
1002
}
1002
{
1000
REACTOR
1002
}
  0
LINE
  5
3418
  8
0
 10
98.548869121943596
 20
696.17019850553959
 30
0.0
 11
106.5488691219435
 21
696.17019850553959
 31
0.0
  0
TEXT
  5
35F5
  8
AM_0
 10
513.62477847346497
 20
654.00881502197763
 30
0.0
 40
10.0
  1
VX01-800A~VX01-K20A
  0
ENDSEC
  0
EOF
