  0
SECTION
  2
HEADER
  9
$ACADVER
  1
AC1009
  9
$INSBASE
 10
0.0
 20
0.0
 30
0.0
  9
$EXTMIN
 10
250.0879005327447
 20
191.05353405636581
 30
-0.0000000000112498
  9
$EXTMAX
 10
653.35675224249314
 20
559.60791517443988
 30
0.0000000000002956
  9
$LIMMIN
 10
0.0
 20
0.0
  9
$LIMMAX
 10
853.5
 20
555.00000000000011
  9
$ORTHOMODE
 70
     0
  9
$REGENMODE
 70
     1
  9
$FILLMODE
 70
     1
  9
$QTEXTMODE
 70
     0
  9
$MIRRTEXT
 70
     1
  9
$DRAGMODE
 70
     2
  9
$LTSCALE
 40
3.0
  9
$OSMODE
 70
   551
  9
$ATTMODE
 70
     1
  9
$TEXTSIZE
 40
2.5
  9
$TRACEWID
 40
1.0
  9
$TEXTSTYLE
  7
STANDARD
  9
$CLAYER
  8
AM_0
  9
$CELTYPE
  6
BYLAYER
  9
$CECOLOR
 62
   256
  9
$DIMSCALE
 40
1.0
  9
$DIMASZ
 40
0.1
  9
$DIMEXO
 40
0.05
  9
$DIMDLI
 40
0.5
  9
$DIMRND
 40
0.0
  9
$DIMDLE
 40
0.0
  9
$DIMEXE
 40
0.1
  9
$DIMTP
 40
0.1
  9
$DIMTM
 40
0.1
  9
$DIMTXT
 40
0.12
  9
$DIMCEN
 40
0.0
  9
$DIMTSZ
 40
0.0
  9
$DIMTOL
 70
     0
  9
$DIMLIM
 70
     0
  9
$DIMTIH
 70
     1
  9
$DIMTOH
 70
     1
  9
$DIMSE1
 70
     0
  9
$DIMSE2
 70
     0
  9
$DIMTAD
 70
     0
  9
$DIMZIN
 70
     8
  9
$DIMBLK
  1

  9
$DIMASO
 70
     1
  9
$DIMSHO
 70
     1
  9
$DIMPOST
  1

  9
$DIMAPOST
  1
mm
  9
$DIMALT
 70
     0
  9
$DIMALTD
 70
     2
  9
$DIMALTF
 40
25.399999999999999
  9
$DIMLFAC
 40
1.0
  9
$DIMTOFL
 70
     0
  9
$DIMTVP
 40
0.0
  9
$DIMTIX
 70
     0
  9
$DIMSOXD
 70
     0
  9
$DIMSAH
 70
     0
  9
$DIMBLK1
  1

  9
$DIMBLK2
  1

  9
$DIMSTYLE
  2
AM_ANSI
  9
$DIMCLRD
 70
   256
  9
$DIMCLRE
 70
   256
  9
$DIMCLRT
 70
     2
  9
$DIMTFAC
 40
0.71
  9
$DIMGAP
 40
0.06
  9
$LUNITS
 70
     2
  9
$LUPREC
 70
     2
  9
$SKETCHINC
 40
1.0
  9
$FILLETRAD
 40
15.0
  9
$AUNITS
 70
     0
  9
$AUPREC
 70
     0
  9
$MENU
  1
.
  9
$ELEVATION
 40
0.0
  9
$PELEVATION
 40
0.0
  9
$THICKNESS
 40
0.0
  9
$LIMCHECK
 70
     0
  9
$BLIPMODE
 70
     0
  9
$CHAMFERA
 40
6.0
  9
$CHAMFERB
 40
3.0
  9
$SKPOLY
 70
     0
  9
$TDCREATE
 40
2452065.6056192131
  9
$TDUPDATE
 40
2458541.4653870249
  9
$TDINDWG
 40
0.1456996181
  9
$TDUSRTIMER
 40
0.1456992361
  9
$USRTIMER
 70
     1
  9
$ANGBASE
 50
0.0
  9
$ANGDIR
 70
     0
  9
$PDMODE
 70
     0
  9
$PDSIZE
 40
0.0
  9
$PLINEWID
 40
0.0
  9
$COORDS
 70
     1
  9
$SPLFRAME
 70
     0
  9
$SPLINETYPE
 70
     6
  9
$SPLINESEGS
 70
     8
  9
$ATTDIA
 70
     1
  9
$ATTREQ
 70
     1
  9
$HANDLING
 70
     1
  9
$HANDSEED
  5
458F
  9
$SURFTAB1
 70
     6
  9
$SURFTAB2
 70
     6
  9
$SURFTYPE
 70
     6
  9
$SURFU
 70
     6
  9
$SURFV
 70
     6
  9
$UCSNAME
  2

  9
$UCSORG
 10
0.0
 20
0.0
 30
0.0
  9
$UCSXDIR
 10
1.0
 20
0.0
 30
0.0
  9
$UCSYDIR
 10
0.0
 20
1.0
 30
0.0
  9
$PUCSNAME
  2

  9
$PUCSORG
 10
0.0
 20
0.0
 30
0.0
  9
$PUCSXDIR
 10
1.0
 20
0.0
 30
0.0
  9
$PUCSYDIR
 10
0.0
 20
1.0
 30
0.0
  9
$USERI1
 70
     0
  9
$USERI2
 70
     0
  9
$USERI3
 70
     0
  9
$USERI4
 70
     0
  9
$USERI5
 70
     0
  9
$USERR1
 40
0.0
  9
$USERR2
 40
0.0
  9
$USERR3
 40
0.0
  9
$USERR4
 40
0.0
  9
$USERR5
 40
0.0
  9
$WORLDVIEW
 70
     1
  9
$SHADEDGE
 70
     3
  9
$SHADEDIF
 70
    70
  9
$TILEMODE
 70
     1
  9
$MAXACTVP
 70
    64
  9
$PLIMCHECK
 70
     0
  9
$PEXTMIN
 10
1.0000000000000000E+020
 20
1.0000000000000000E+020
 30
1.0000000000000000E+020
  9
$PEXTMAX
 10
-1.0000000000000000E+020
 20
-1.0000000000000000E+020
 30
-1.0000000000000000E+020
  9
$PLIMMIN
 10
0.0
 20
0.0
  9
$PLIMMAX
 10
420.0
 20
297.0
  9
$UNITMODE
 70
     0
  9
$VISRETAIN
 70
     1
  9
$PLINEGEN
 70
     0
  9
$PSLTSCALE
 70
     1
  0
ENDSEC
  0
SECTION
  2
TABLES
  0
TABLE
  2
VPORT
 70
     1
  0
VPORT
  2
*ACTIVE
 70
     0
 10
0.0
 20
0.0
 11
1.0
 21
1.0
 12
451.72232638761892
 22
375.33072461540291
 13
0.0
 23
0.0
 14
7.5
 24
7.5
 15
30.0
 25
30.0
 16
0.0
 26
0.0
 36
1.0
 17
0.0
 27
0.0
 37
0.0
 40
371.08450272758051
 41
1.7571592210767459
 42
50.0
 43
0.0
 44
0.0
 50
0.0
 51
0.0
 71
     0
 72
   100
 73
     1
 74
     3
 75
     0
 76
     0
 77
     0
 78
     0
  0
ENDTAB
  0
TABLE
  2
LTYPE
 70
    26
  0
LTYPE
  2
CONTINUOUS
 70
     0
  3
Solid line
 72
    65
 73
     0
 40
0.0
  0
LTYPE
  2
AM_ISO02W050
 70
     0
  3
__ __ __ __ __ __ __ __ __ __ __ __ __ __ __
 72
    65
 73
     2
 40
7.5
 49
6.0
 49
-1.5
  0
LTYPE
  2
AM_ISO08W050
 70
     0
  3
____ . ____ . ____ . ____ . ____ . ____ . ____
 72
    65
 73
     4
 40
18.0
 49
12.0
 49
-1.5
 49
3.0
 49
-1.5
  0
LTYPE
  2
AM_ISO09W050
 70
     0
  3
_____ . . _____ . . _____ . . ____ .. ____
 72
    65
 73
     6
 40
22.5
 49
12.0
 49
-1.5
 49
3.0
 49
-1.5
 49
3.0
 49
-1.5
  0
LTYPE
  2
AMCONSTR
 70
     0
  3
_______________________
 72
    65
 73
     2
 40
9999.0
 49
9999.0
 49
0.0
  0
LTYPE
  2
AM_ISO08W050X2
 70
     0
  3
__ . __ . __ . __ . __ . __
 72
    65
 73
     4
 40
9.0
 49
6.0
 49
-0.75
 49
1.5
 49
-0.75
  0
LTYPE
  2
AM_ISO02W050X2
 70
     0
  3
 _ _ _ _ _ _ _ _ _ _ _ _
 72
    65
 73
     2
 40
3.75
 49
3.0
 49
-0.75
  0
LTYPE
  2
AMZIGZAG
 70
     0
  3
/\/-/\/-/\/-/\/-/\/-/\/
 72
    65
 73
     2
 40
11.000099999999991
 49
0.0001
 49
-11.0
  0
LTYPE
  2
ACISOWELD
 70
     0
  3
_ _ _ _ _
 72
    65
 73
     2
 40
2.0
 49
2.0
 49
-1.0
  0
LTYPE
  2
ACISOTGB
 70
     0
  3
__ . . __ . .
 72
    65
 73
     6
 40
9.0
 49
4.0
 49
-1.0
 49
1.0
 49
-1.0
 49
1.0
 49
-1.0
  0
LTYPE
  2
ACISOTGL
 70
     0
  3
_ _ _ _ _
 72
    65
 73
     2
 40
3.0
 49
2.0
 49
-1.0
  0
LTYPE
  2
CENTER
 70
     0
  3
__ . __
 72
    65
 73
     4
 40
7.0
 49
4.0
 49
-1.0
 49
1.0
 49
-1.0
  0
LTYPE
  2
PHANTOM2
 70
     0
  3
Phantom (.5x) ___ _ _ ___ _ _ ___ _ _ ___ _ _
 72
    65
 73
     6
 40
31.75
 49
15.875
 49
-3.174999999999998
 49
3.174999999999998
 49
-3.174999999999998
 49
3.174999999999998
 49
-3.174999999999998
  0
LTYPE
  2
ACANSTGBM
 70
     0
  3
__ . . __ . .
 72
    65
 73
     6
 40
9.0
 49
4.0
 49
-1.0
 49
1.0
 49
-1.0
 49
1.0
 49
-1.0
  0
LTYPE
  2
ACANSTGLM
 70
     0
  3
_ _ _ _ _
 72
    65
 73
     2
 40
3.0
 49
2.0
 49
-1.0
  0
LTYPE
  2
GEN3B
 70
     0
  3
 - - - - -
 72
    65
 73
     2
 40
1.0
 49
0.5
 49
-0.5
  0
LTYPE
  2
GEN7A
 70
     0
  3
__ . __ . __
 72
    65
 73
     4
 40
7.375
 49
4.75
 49
-0.875
 49
0.875
 49
-0.875
  0
LTYPE
  2
ACJISTGB
 70
     0
  3
__ . . __ . .
 72
    65
 73
     6
 40
9.0
 49
4.0
 49
-1.0
 49
1.0
 49
-1.0
 49
1.0
 49
-1.0
  0
LTYPE
  2
ACJISTGL
 70
     0
  3
_ _ _ _ _
 72
    65
 73
     2
 40
3.0
 49
2.0
 49
-1.0
  0
LTYPE
  2
HIDDEN
 70
     0
  3
Hidden __ __ __ __ __ __ __ __ __ __ __ __ __ _
 72
    65
 73
     2
 40
0.375
 49
0.25
 49
-0.125
  0
LTYPE
  2
CENTER2
 70
     0
  3
Center (.5x) ___ _ ___ _ ___ _ ___ _ ___ _ ___
 72
    65
 73
     4
 40
1.125
 49
0.75
 49
-0.125
 49
0.125
 49
-0.125
  0
LTYPE
  2
HIDDEN2
 70
     0
  3
Hidden (.5x) _ _ _ _ _ _ _ _ _ _ _ _ _ _ _ _ _
 72
    65
 73
     2
 40
0.1875
 49
0.125
 49
-0.0625
  0
LTYPE
  2
AMZIGZAG2
 70
     0
  3
/\/-/\/-/\/-/\/-/\/-/\/
 72
    65
 73
     2
 40
0.4401
 49
0.0001
 49
-0.4400000000000003
  0
LTYPE
  2
ACANSTGB
 70
     0
  3
__ . . __ . .
 72
    65
 73
     6
 40
0.35433070866
 49
0.15748031496
 49
-0.03937007874
 49
0.03937007874
 49
-0.03937007874
 49
0.03937007874
 49
-0.03937007874
  0
LTYPE
  2
ACANSTGL
 70
     0
  3
_ _ _ _ _
 72
    65
 73
     2
 40
0.11811023622
 49
0.07874015748
 49
-0.03937007874
  0
ENDTAB
  0
TABLE
  2
LAYER
 70
     7
  0
LAYER
  2
0
 70
     0
 62
     7
  6
CONTINUOUS
  0
LAYER
  2
AM_0
 70
     0
 62
     7
  6
CONTINUOUS
  0
LAYER
  2
DEFPOINTS
 70
     0
 62
     7
  6
CONTINUOUS
  0
LAYER
  2
ｶｸﾚｾﾝ2
 70
     0
 62
     3
  6
GEN3B
  0
LAYER
  2
ﾁｭｳｼﾝｾﾝ1
 70
     0
 62
     1
  6
GEN7A
  0
LAYER
  2
AM_4
 70
     0
 62
     2
  6
CONTINUOUS
  0
LAYER
  2
AM_5
 70
     0
 62
     3
  6
CONTINUOUS
  0
ENDTAB
  0
TABLE
  2
STYLE
 70
     9
  0
STYLE
  2
STANDARD
 70
     0
 40
0.0
 41
0.8299999999999999
 50
0.0
 71
     0
 42
2.5
  3
txt.shx
  4
bigfont.shx
  0
STYLE
  2
ANNOTATIVE
 70
     0
 40
0.0
 41
1.0
 50
0.0
 71
     0
 42
0.2
  3
txt
  4

  0
STYLE
  2

 70
     1
 40
0.0
 41
1.0
 50
0.0
 71
     0
 42
2.5
  3
ltypeshp.shx
  4

  0
STYLE
  2
ACISOTS
 70
     0
 40
1.0
 41
1.0
 50
0.0
 71
     0
 42
2.5
  3
isocp.shx
  4
extfont.shx
  0
STYLE
  2
ACISOGDT
 70
     0
 40
0.0
 41
1.0
 50
0.0
 71
     0
 42
2.5
  3
amgdt.shx
  4

  0
STYLE
  2
ACANSTS
 70
     0
 40
1.0
 41
1.0
 50
0.0
 71
     0
 42
2.5
  3
romans.shx
  4
bigfont.shx
  0
STYLE
  2
ACANSGDT
 70
     0
 40
0.0
 41
1.0
 50
0.0
 71
     0
 42
2.5
  3
amgdt.shx
  4

  0
STYLE
  2
ACJISTS
 70
     0
 40
1.0
 41
1.0
 50
0.0
 71
     0
 42
2.5
  3
isocp.shx
  4
bigfont.shx
  0
STYLE
  2
ACJISGDT
 70
     0
 40
0.0
 41
1.0
 50
0.0
 71
     0
 42
2.5
  3
amgdt.shx
  4

  0
ENDTAB
  0
TABLE
  2
VIEW
 70
     6
  0
VIEW
  2
AM_VIEW1
 70
     0
 40
277.49999999999989
 10
249.64779005524841
 20
416.24999999999989
 41
499.2955801104971
 11
0.0
 21
0.0
 31
1.0
 12
0.0
 22
0.0
 32
0.0
 42
50.0
 43
0.0
 44
0.0
 50
0.0
 71
     0
  0
VIEW
  2
AM_VIEW2
 70
     0
 40
277.49999999999989
 10
603.85220994475117
 20
416.24999999999989
 41
499.2955801104971
 11
0.0
 21
0.0
 31
1.0
 12
0.0
 22
0.0
 32
0.0
 42
50.0
 43
0.0
 44
0.0
 50
0.0
 71
     0
  0
VIEW
  2
AM_VIEW3
 70
     0
 40
277.49999999999989
 10
249.64779005524841
 20
138.7499999999998
 41
499.2955801104971
 11
0.0
 21
0.0
 31
1.0
 12
0.0
 22
0.0
 32
0.0
 42
50.0
 43
0.0
 44
0.0
 50
0.0
 71
     0
  0
VIEW
  2
AM_VIEW4
 70
     0
 40
277.49999999999989
 10
603.85220994475117
 20
138.7499999999998
 41
499.2955801104971
 11
0.0
 21
0.0
 31
1.0
 12
0.0
 22
0.0
 32
0.0
 42
50.0
 43
0.0
 44
0.0
 50
0.0
 71
     0
  0
VIEW
  2
AM_VIEW5
 70
     0
 40
277.49999999999989
 10
426.75
 20
277.49999999999989
 41
499.2955801104971
 11
0.0
 21
0.0
 31
1.0
 12
0.0
 22
0.0
 32
0.0
 42
50.0
 43
0.0
 44
0.0
 50
0.0
 71
     0
  0
VIEW
  2
AM_VIEW6
 70
     0
 40
554.99445000000014
 10
426.75
 20
277.49999999999989
 41
998.5811743093924
 11
0.0
 21
0.0
 31
1.0
 12
0.0
 22
0.0
 32
0.0
 42
50.0
 43
0.0
 44
0.0
 50
0.0
 71
     0
  0
ENDTAB
  0
TABLE
  2
UCS
 70
     0
  0
ENDTAB
  0
TABLE
  2
APPID
 70
    98
  0
APPID
  2
ACAD
 70
     0
  0
APPID
  2
ACADANNOTATIVE
 70
     0
  0
APPID
  2
MCAD_NO_VIS
 70
     0
  0
APPID
  2
ACAD_TEMP_GRAPHIC
 70
     0
  0
APPID
  2
ACATTRIBSERVICES
 70
     0
  0
APPID
  2
GENIUS_GENREC_14
 70
     0
  0
APPID
  2
GENIUS_GENOBJ-N-REC_13
 70
     0
  0
APPID
  2
GENIUS_GENODEF_13
 70
     0
  0
APPID
  2
GENIUS_GENOLIS_13
 70
     0
  0
APPID
  2
GENIUS_GENOBJ-N-TIT_13
 70
     0
  0
APPID
  2
GENIUS_GENOENT_13
 70
     0
  0
APPID
  2
GENIUS_GENTITLE_13
 70
     0
  0
APPID
  2
GENIUS_GENOREF_13
 70
     0
  0
APPID
  2
GENIUS_GENSCREG_15
 70
     0
  0
APPID
  2
GENIUS_GENOBJ-N-SDF_13
 70
     0
  0
APPID
  2
GENIUS_GENFIL_13
 70
     0
  0
APPID
  2
GENIUS_GENOBJ-N-CHA_13
 70
     0
  0
APPID
  2
GENIUS_GENDTOL_13
 70
     0
  0
APPID
  2
GENIUS_GENOBJ-N-FIL_13
 70
     0
  0
APPID
  2
AD_DRAW
 70
     0
  0
APPID
  2
DESIGNERASSEMBLIES
 70
     0
  0
APPID
  2
ASURF_PCURVE_APPNAME
 70
     0
  0
APPID
  2
GENIUS_GE3SECT_13
 70
     0
  0
APPID
  2
GENIUS_GENCFG_13
 70
     0
  0
APPID
  2
GENIUS_GE3CFG0_13
 70
     0
  0
APPID
  2
GENIUS_GENCFG0_13
 70
     0
  0
APPID
  2
GENIUS_GENCFG1_13
 70
     0
  0
APPID
  2
GENIUS_GENCFG2_13
 70
     0
  0
APPID
  2
GENIUS_GENCFG3_13
 70
     0
  0
APPID
  2
GENIUS_GENCFG4_13
 70
     0
  0
APPID
  2
GENIUS_GEVCFG0_13
 70
     0
  0
APPID
  2
GENIUS_GENHINW_13
 70
     0
  0
APPID
  2
GENIUS_FIRSTVISTXT_14
 70
     0
  0
APPID
  2
GENIUS_GENOBJ-N-LEADER_13
 70
     0
  0
APPID
  2
GEV_VCCNULL_SWITCH_OFF
 70
     0
  0
APPID
  2
GENIUS_GEFCFG0_13
 70
     0
  0
APPID
  2
GENIUS_GENZVEED_13
 70
     0
  0
APPID
  2
GENIUS_GENSCREG_13
 70
     0
  0
APPID
  2
GENIUS_DUMCFG0_13
 70
     0
  0
APPID
  2
GEVID936201362
 70
     0
  0
APPID
  2
GEVDC
 70
     0
  0
APPID
  2
GEVCON
 70
     0
  0
APPID
  2
VCC
 70
     0
  0
APPID
  2
GEVPT
 70
     0
  0
APPID
  2
GEVIT
 70
     0
  0
APPID
  2
GENBH
 70
     0
  0
APPID
  2
GEVMK
 70
     0
  0
APPID
  2
GENIUS_GENBH_13
 70
     0
  0
APPID
  2
GENIUS_GENOBJ-NBEHI-BHF_13
 70
     0
  0
APPID
  2
GENIUS_GENOBJ-NBEHI-BHB_13
 70
     0
  0
APPID
  2
GENIUS_GENOBJ-F-DESC_13
 70
     0
  0
APPID
  2
GENIUS_GEFDESC_14
 70
     0
  0
APPID
  2
GENIUS_GENOBJ-F-PART_13
 70
     0
  0
APPID
  2
GENIUS_GEFSTDP_13
 70
     0
  0
APPID
  2
GENIUS_GEFPARTINS_13
 70
     0
  0
APPID
  2
GENIUS_GENTRA_14
 70
     0
  0
APPID
  2
GENIUS_GENINF13_13
 70
     0
  0
APPID
  2
GENIUS_GENOBJ-N-INFOPT_13
 70
     0
  0
APPID
  2
GENIUS_GENOBJ-N-RSSYM_13
 70
     0
  0
APPID
  2
GENIUS_GENSYMENT_13
 70
     0
  0
APPID
  2
GENIUS_GENSCSYM_13
 70
     0
  0
APPID
  2
GENIUS_GEFINFNAM_13
 70
     0
  0
APPID
  2
GENIUS_GENOBJ-N-CEN_13
 70
     0
  0
APPID
  2
GENIUS_GENOBJ-N-CRS_13
 70
     0
  0
APPID
  2
GENIUS_GENOBJ-N-CRC_13
 70
     0
  0
APPID
  2
GENIUS_GENCRC_14
 70
     0
  0
APPID
  2
GEVID942827039
 70
     0
  0
APPID
  2
GEVID942827040
 70
     0
  0
APPID
  2
GEVID942827041
 70
     0
  0
APPID
  2
GENIUS_GENOBJ-F-SCPASSM_13
 70
     0
  0
APPID
  2
GENIUS_GENDIMSH_14
 70
     0
  0
APPID
  2
GEVID942827042
 70
     0
  0
APPID
  2
GEVID946020473
 70
     0
  0
APPID
  2
GEVID946020474
 70
     0
  0
APPID
  2
GEVID946020475
 70
     0
  0
APPID
  2
GENIUS_GENOBJ-N-HTC_13
 70
     0
  0
APPID
  2
GENIUS_GENHATCH_13
 70
     0
  0
APPID
  2
GEVID948854295
 70
     0
  0
APPID
  2
GEVID939402019
 70
     0
  0
APPID
  2
GEVID952919491
 70
     0
  0
APPID
  2
GEVID952919492
 70
     0
  0
APPID
  2
GENIUS_GEFWELD_13
 70
     0
  0
APPID
  2
GENIUS_GENOBJ-F-WELS_13
 70
     0
  0
APPID
  2
GEVID952919493
 70
     0
  0
APPID
  2
GENIUS_GENOBJ-N-RSBK_13
 70
     0
  0
APPID
  2
GENIUS_GENOBJ-N-LIB_13
 70
     0
  0
APPID
  2
GENIUS_GENSCALE_13
 70
     0
  0
APPID
  2
GEVID986376691
 70
     0
  0
APPID
  2
DCO15
 70
     0
  0
APPID
  2
GEVID988070561
 70
     0
  0
APPID
  2
GEVID988070562
 70
     0
  0
APPID
  2
GEVID988070563
 70
     0
  0
APPID
  2
ACAD_DSTYLE_DIMBREAK
 70
     0
  0
APPID
  2
ACAD_DSTYLE_DIMJAG
 70
     0
  0
APPID
  2
ACAD_NAV_VCDISPLAY
 70
     0
  0
APPID
  2
ACADANNOPO
 70
     0
  0
APPID
  2
ACAD_EXEMPT_FROM_CAD_STANDARDS
 70
     0
  0
APPID
  2
ACAD_MLEADERVER
 70
     0
  0
ENDTAB
  0
TABLE
  2
DIMSTYLE
 70
    22
  0
DIMSTYLE
  2
STANDARD
 70
     0
  3

  4

  5

  6

  7

 40
1.0
 41
0.18
 42
0.0625
 43
0.38
 44
0.18
 45
0.0
 46
0.0
 47
0.0
 48
0.0
140
0.18
141
0.09
142
0.0
143
25.399999999999999
144
1.0
145
0.0
146
1.0
147
0.09
 71
     0
 72
     0
 73
     1
 74
     1
 75
     0
 76
     0
 77
     0
 78
     0
170
     0
171
     2
172
     0
173
     0
174
     0
175
     0
176
     0
177
     0
178
     0
  0
DIMSTYLE
  2
ANNOTATIVE
 70
     0
  3

  4

  5

  6

  7

 40
1.0
 41
0.18
 42
0.0625
 43
0.38
 44
0.18
 45
0.0
 46
0.0
 47
0.0
 48
0.0
140
0.18
141
0.09
142
0.0
143
25.399999999999999
144
1.0
145
0.0
146
1.0
147
0.09
 71
     0
 72
     0
 73
     1
 74
     1
 75
     0
 76
     0
 77
     0
 78
     0
170
     0
171
     2
172
     0
173
     0
174
     0
175
     0
176
     0
177
     0
178
     0
  0
DIMSTYLE
  2
AM_ISO
 70
     0
  3

  4
"
  5

  6

  7

 40
1.0
 41
2.5
 42
1.0
 43
8.0
 44
0.6
 45
0.0
 46
0.0
 47
0.1
 48
0.1
140
2.5
141
0.0
142
0.0
143
0.0393701
144
1.0
145
0.0
146
0.71
147
0.8
 71
     0
 72
     0
 73
     0
 74
     0
 75
     0
 76
     0
 77
     1
 78
     8
170
     0
171
     2
172
     1
173
     0
174
     0
175
     0
176
   256
177
   256
178
     4
  0
DIMSTYLE
  2
AM_ISO$3
 70
     0
  3

  4
"
  5

  6

  7

 40
1.0
 41
2.5
 42
1.0
 43
8.0
 44
0.6
 45
0.0
 46
0.0
 47
0.1
 48
0.1
140
2.5
141
0.0
142
0.0
143
0.0393701
144
1.0
145
0.0
146
0.71
147
0.8
 71
     0
 72
     0
 73
     0
 74
     1
 75
     0
 76
     0
 77
     1
 78
     8
170
     0
171
     2
172
     0
173
     0
174
     0
175
     0
176
   256
177
   256
178
     4
  0
DIMSTYLE
  2
AM_ISO$4
 70
     0
  3

  4
"
  5

  6

  7

 40
1.0
 41
2.5
 42
1.0
 43
8.0
 44
0.6
 45
0.0
 46
0.0
 47
0.1
 48
0.1
140
2.5
141
0.0
142
0.0
143
0.0393701
144
1.0
145
0.0
146
0.71
147
0.8
 71
     0
 72
     0
 73
     0
 74
     1
 75
     0
 76
     0
 77
     1
 78
     8
170
     0
171
     2
172
     0
173
     0
174
     0
175
     0
176
   256
177
   256
178
     4
  0
DIMSTYLE
  2
AM_ISO$6
 70
     0
  3

  4
"
  5

  6

  7

 40
1.0
 41
2.5
 42
1.0
 43
8.0
 44
0.6
 45
0.0
 46
0.0
 47
0.1
 48
0.1
140
2.5
141
0.0
142
0.0
143
0.0393701
144
1.0
145
0.0
146
0.71
147
0.8
 71
     0
 72
     0
 73
     0
 74
     0
 75
     0
 76
     0
 77
     0
 78
     8
170
     0
171
     2
172
     1
173
     0
174
     0
175
     0
176
   256
177
   256
178
     4
  0
DIMSTYLE
  2
AM_ISO$7
 70
     0
  3

  4
"
  5

  6

  7

 40
1.0
 41
2.5
 42
1.0
 43
8.0
 44
0.6
 45
0.0
 46
0.0
 47
0.1
 48
0.1
140
2.5
141
0.0
142
0.0
143
0.0393701
144
1.0
145
0.0
146
0.71
147
0.8
 71
     0
 72
     0
 73
     0
 74
     0
 75
     0
 76
     0
 77
     1
 78
     8
170
     0
171
     2
172
     1
173
     0
174
     0
175
     0
176
   256
177
   256
178
     4
  0
DIMSTYLE
  2
AM_ISO$SF
 70
     0
  3

  4
"
  5

  6

  7

 40
1.0
 41
2.5
 42
1.0
 43
10.0
 44
1.0
 45
0.0
 46
0.0
 47
0.1
 48
0.1
140
3.5
141
0.0
142
0.0
143
0.0393701
144
1.0
145
0.0
146
0.71
147
1.5
 71
     0
 72
     0
 73
     0
 74
     0
 75
     1
 76
     1
 77
     1
 78
     8
170
     0
171
     2
172
     1
173
     0
174
     0
175
     0
176
   256
177
   256
178
     2
  0
DIMSTYLE
  2
AM_ISO$SH
 70
     0
  3

  4
"
  5

  6

  7

 40
1.0
 41
2.5
 42
1.0
 43
10.0
 44
1.0
 45
0.0
 46
0.0
 47
0.1
 48
0.1
140
3.5
141
0.0
142
0.0
143
0.0393701
144
2.0
145
0.0
146
0.71
147
1.5
 71
     0
 72
     0
 73
     0
 74
     0
 75
     1
 76
     1
 77
     1
 78
     8
170
     0
171
     2
172
     1
173
     1
174
     0
175
     0
176
   256
177
   256
178
     2
  0
DIMSTYLE
  2
AM_JIS
 70
     0
  3

  4
"
  5

  6

  7

 40
1.0
 41
2.5
 42
1.0
 43
7.0
 44
1.0
 45
0.0
 46
0.0
 47
0.1
 48
0.1000000001
140
2.5
141
0.0
142
0.0
143
0.0393701
144
1.0
145
0.0
146
0.71
147
1.0
 71
     0
 72
     0
 73
     0
 74
     0
 75
     0
 76
     0
 77
     3
 78
     8
170
     0
171
     2
172
     1
173
     0
174
     0
175
     0
176
   256
177
   256
178
     4
  0
DIMSTYLE
  2
AM_JIS$3
 70
     0
  3

  4
"
  5

  6

  7

 40
1.0
 41
2.5
 42
1.0
 43
7.0
 44
1.0
 45
0.0
 46
0.0
 47
0.1
 48
0.1000000001
140
2.5
141
0.0
142
0.0
143
0.0393701
144
1.0
145
0.0
146
0.71
147
1.0
 71
     0
 72
     0
 73
     0
 74
     1
 75
     0
 76
     0
 77
     3
 78
     8
170
     0
171
     2
172
     0
173
     0
174
     0
175
     0
176
   256
177
   256
178
     4
  0
DIMSTYLE
  2
AM_JIS$4
 70
     0
  3

  4
"
  5

  6

  7

 40
1.0
 41
2.5
 42
1.0
 43
7.0
 44
1.0
 45
0.0
 46
0.0
 47
0.1
 48
0.1000000001
140
2.5
141
0.0
142
0.0
143
0.0393701
144
1.0
145
0.0
146
0.71
147
1.0
 71
     0
 72
     0
 73
     0
 74
     0
 75
     0
 76
     0
 77
     3
 78
     8
170
     0
171
     2
172
     0
173
     0
174
     0
175
     0
176
   256
177
   256
178
     4
  0
DIMSTYLE
  2
AM_JIS$6
 70
     0
  3

  4
"
  5

  6

  7

 40
1.0
 41
2.5
 42
1.0
 43
7.0
 44
1.0
 45
0.0
 46
0.0
 47
0.1
 48
0.1000000001
140
2.5
141
0.0
142
0.0
143
0.0393701
144
1.0
145
0.0
146
0.71
147
1.0
 71
     0
 72
     0
 73
     0
 74
     0
 75
     0
 76
     0
 77
     0
 78
     8
170
     0
171
     2
172
     1
173
     0
174
     0
175
     0
176
   256
177
   256
178
     4
  0
DIMSTYLE
  2
AM_JIS$7
 70
     0
  3

  4
"
  5

  6

  7

 40
1.0
 41
2.5
 42
1.0
 43
7.0
 44
1.0
 45
0.0
 46
0.0
 47
0.1
 48
0.1000000001
140
2.5
141
0.0
142
0.0
143
0.0393701
144
1.0
145
0.0
146
0.71
147
1.0
 71
     0
 72
     0
 73
     0
 74
     0
 75
     0
 76
     0
 77
     3
 78
     8
170
     0
171
     2
172
     1
173
     0
174
     0
175
     0
176
   256
177
   256
178
     4
  0
DIMSTYLE
  2
AM_JIS$SF
 70
     0
  3

  4
"
  5

  6

  7

 40
1.0
 41
2.5
 42
1.0
 43
10.0
 44
1.0
 45
0.0
 46
0.0
 47
0.1
 48
0.1
140
3.5
141
0.0
142
0.0
143
0.0393701
144
1.0
145
0.0
146
0.71
147
1.5
 71
     0
 72
     0
 73
     0
 74
     0
 75
     1
 76
     1
 77
     3
 78
     8
170
     0
171
     2
172
     1
173
     0
174
     0
175
     0
176
   256
177
   256
178
     4
  0
DIMSTYLE
  2
AM_JIS$SH
 70
     0
  3

  4
"
  5

  6

  7

 40
1.0
 41
2.5
 42
1.0
 43
10.0
 44
1.0
 45
0.0
 46
0.0
 47
0.1
 48
0.1
140
3.5
141
0.0
142
0.0
143
0.0393701
144
1.0
145
0.0
146
0.71
147
1.5
 71
     0
 72
     0
 73
     0
 74
     0
 75
     1
 76
     0
 77
     3
 78
     8
170
     0
171
     2
172
     1
173
     1
174
     0
175
     0
176
   256
177
   256
178
     4
  0
DIMSTYLE
  2
AM_ANSI
 70
     0
  3

  4
mm
  5

  6

  7

 40
1.0
 41
0.1
 42
0.05
 43
0.5
 44
0.1
 45
0.0
 46
0.0
 47
0.1
 48
0.1
140
0.12
141
0.0
142
0.0
143
25.399999999999999
144
1.0
145
0.0
146
0.71
147
0.06
 71
     0
 72
     0
 73
     1
 74
     1
 75
     0
 76
     0
 77
     0
 78
     7
170
     0
171
     2
172
     0
173
     0
174
     0
175
     0
176
   256
177
   256
178
     2
  0
DIMSTYLE
  2
AM_ANSI$3
 70
     0
  3

  4
mm
  5

  6

  7

 40
1.0
 41
0.1
 42
0.05
 43
0.5
 44
0.1
 45
0.0
 46
0.0
 47
0.1
 48
0.1
140
0.12
141
0.0
142
0.0
143
25.399999999999999
144
1.0
145
0.0
146
0.71
147
0.06
 71
     0
 72
     0
 73
     1
 74
     1
 75
     0
 76
     0
 77
     0
 78
     7
170
     0
171
     2
172
     0
173
     0
174
     0
175
     0
176
   256
177
   256
178
     2
  0
DIMSTYLE
  2
AM_ANSI$4
 70
     0
  3

  4
mm
  5

  6

  7

 40
1.0
 41
0.1
 42
0.05
 43
0.5
 44
0.1
 45
0.0
 46
0.0
 47
0.1
 48
0.1
140
0.12
141
0.0
142
0.0
143
25.399999999999999
144
1.0
145
0.0
146
0.71
147
0.06
 71
     0
 72
     0
 73
     1
 74
     1
 75
     0
 76
     0
 77
     0
 78
     7
170
     0
171
     2
172
     0
173
     0
174
     0
175
     0
176
   256
177
   256
178
     2
  0
DIMSTYLE
  2
AM_ANSI$7
 70
     0
  3

  4
mm
  5

  6

  7

 40
1.0
 41
0.1
 42
0.05
 43
0.5
 44
0.1
 45
0.0
 46
0.0
 47
0.1
 48
0.1
140
0.24
141
0.0
142
0.0
143
25.399999999999999
144
1.0
145
0.0
146
0.71
147
0.06
 71
     0
 72
     0
 73
     1
 74
     1
 75
     0
 76
     0
 77
     0
 78
     7
170
     0
171
     2
172
     0
173
     0
174
     0
175
     0
176
   256
177
   256
178
     2
  0
DIMSTYLE
  2
AM_ANSI$SF
 70
     0
  3

  4
mm
  5

  6

  7

 40
1.0
 41
0.1
 42
0.05
 43
0.5
 44
0.1
 45
0.0
 46
0.0
 47
0.1
 48
0.1
140
0.12
141
0.0
142
0.0
143
25.399999999999999
144
1.0
145
0.0
146
0.71
147
0.06
 71
     0
 72
     0
 73
     1
 74
     1
 75
     1
 76
     1
 77
     0
 78
     7
170
     0
171
     2
172
     0
173
     0
174
     0
175
     0
176
   256
177
   256
178
     2
  0
DIMSTYLE
  2
AM_ANSI$SH
 70
     0
  3

  4
mm
  5

  6

  7

 40
1.0
 41
0.1
 42
0.05
 43
0.5
 44
0.1
 45
0.0
 46
0.0
 47
0.1
 48
0.1
140
0.12
141
0.0
142
0.0
143
25.399999999999999
144
1.0
145
0.0
146
0.71
147
0.06
 71
     0
 72
     0
 73
     1
 74
     1
 75
     1
 76
     1
 77
     0
 78
     7
170
     0
171
     2
172
     0
173
     1
174
     0
175
     0
176
   256
177
   256
178
     2
  0
ENDTAB
  0
ENDSEC
  0
SECTION
  2
BLOCKS
  0
BLOCK
  8
0
  2
$MODEL_SPACE
 70
     0
 10
0.0
 20
0.0
 30
0.0
  3
$MODEL_SPACE
  1

  0
ENDBLK
  5
43FF
  8
0
  0
BLOCK
 67
     1
  8
0
  2
$PAPER_SPACE
 70
     0
 10
0.0
 20
0.0
 30
0.0
  3
$PAPER_SPACE
  1

  0
ENDBLK
  5
43FB
 67
     1
  8
0
  0
BLOCK
  8
0
  2
GENAXEH
 70
     0
 10
0.0
 20
0.0
 30
0.0
  3
GENAXEH
  1

  0
LINE
  5
40F8
  8
0
 10
-1.0
 20
0.0
 30
0.0
 11
1.0
 21
0.0
 31
0.0
  0
ENDBLK
  5
40F9
  8
0
  0
BLOCK
  8
0
  2
_OPEN30
 70
     0
 10
0.0
 20
0.0
 30
0.0
  3
_OPEN30
  1

  0
LINE
  5
40FC
  8
0
 62
     0
 10
-1.0
 20
0.26794919
 30
0.0
 11
0.0
 21
0.0
 31
0.0
  0
LINE
  5
40FD
  8
0
 62
     0
 10
0.0
 20
0.0
 30
0.0
 11
-1.0
 21
-0.26794919
 31
0.0
  0
LINE
  5
40FE
  8
0
 62
     0
 10
0.0
 20
0.0
 30
0.0
 11
-1.0
 21
0.0
 31
0.0
  0
ENDBLK
  5
40FF
  8
0
  0
BLOCK
  8
0
  2
_NONE
 70
     0
 10
0.0
 20
0.0
 30
0.0
  3
_NONE
  1

  0
ENDBLK
  5
4102
  8
0
  0
BLOCK
  8
0
  2
_ACMFILLEDHALF
 70
     0
 10
0.0
 20
0.0
 30
0.0
  3
_ACMFILLEDHALF
  1

  0
TRACE
  5
44F9
  8
AM_0
 62
     0
 10
-0.8
 20
0.0
 30
0.0
 11
-1.0
 21
0.166666666
 31
0.0
 12
0.0
 22
0.0
 32
0.0
 13
0.0
 23
0.0
 33
0.0
  0
LINE
  5
44FA
  8
AM_0
 62
     0
 10
-1.0
 20
0.0
 30
0.0
 11
-0.8
 21
0.0
 31
0.0
  0
ENDBLK
  5
44F8
  8
0
  0
ENDSEC
  0
SECTION
  2
ENTITIES
  0
LINE
  5
4103
  8
ﾁｭｳｼﾝｾﾝ1
 10
250.1250678546472
 20
479.56968796910257
 30
0.0
 11
405.23803860130818
 21
479.56968796910257
 31
0.0
  0
ARC
  5
4104
  8
AM_0
 10
402.87423860130832
 20
479.56968796910257
 30
0.0
 40
80.0
 50
148.90067999999891
 51
211.0993000000004
  0
LINE
  5
4105
  8
AM_0
 10
285.87423860130832
 20
423.0696879691028
 30
0.0
 11
285.87423860130832
 21
536.06971796910295
 31
0.0
  0
LINE
  5
4106
  8
AM_0
 10
303.87423860130832
 20
421.67514796910251
 30
0.0
 11
303.87423860130832
 21
537.46427796910257
 31
0.0
  0
LINE
  5
4107
  8
AM_0
 10
322.87423860130832
 20
436.83606796910271
 30
0.0
 11
322.87423860130832
 21
522.30335796910299
 31
0.0
  0
LINE
  5
4108
  8
AM_0
 10
309.87423860130832
 20
419.5696879691028
 30
0.0
 11
309.87423860130832
 21
539.56971796910295
 31
0.0
  0
LINE
  5
4109
  8
AM_0
 10
367.87423860130821
 20
518.80680796910281
 30
0.0
 11
367.87423860130821
 21
437.12778796910271
 31
0.0
  0
LINE
  5
410A
  8
AM_0
 10
354.87423860130838
 20
430.75403796910302
 30
0.0
 11
354.87423860130838
 21
528.38535796910287
 31
0.0
  0
LINE
  5
410B
  8
AM_0
 10
369.87423860130821
 20
498.59555796910291
 30
0.0
 11
369.87423860130821
 21
460.54386796910279
 31
0.0
  0
LINE
  5
410C
  8
AM_0
 10
354.87423860130838
 20
438.96378796910278
 30
0.0
 11
334.37234860130849
 21
438.24784796910279
 31
0.0
  0
LINE
  5
410D
  8
AM_0
 10
365.00515860130849
 20
411.01334796910271
 30
0.0
 11
309.87426860130819
 21
409.56968796910257
 31
0.0
  0
LINE
  5
410E
  8
AM_0
 10
349.7433486013083
 20
427.6971879691028
 30
0.0
 11
351.95278860130838
 21
427.75504796910258
 31
0.0
  0
ARC
  5
410F
  8
AM_0
 10
305.87423860130832
 20
421.67514796910251
 30
0.0
 40
2.0
 50
180.00001000000091
 51
268.5000000000004
  0
LINE
  5
4110
  8
AM_0
 10
309.87423860130832
 20
409.56971796910273
 30
0.0
 11
291.74337860130851
 21
410.0444779691025
 31
0.0
  0
LINE
  5
4111
  8
AM_0
 10
294.87423860130832
 20
431.38541796910272
 30
0.0
 11
294.87423860130832
 21
424.53675796910272
 31
0.0
  0
ARC
  5
4112
  8
AM_0
 10
291.87423860130832
 20
415.04276796910273
 30
0.0
 40
5.0
 50
180.00001000000091
 51
268.5000000000004
  0
ARC
  5
4113
  8
AM_0
 10
296.87423860130832
 20
422.06968796910257
 30
0.0
 40
5.0
 50
170.31658999999851
 51
3.8501329999991381
  0
ARC
  5
4114
  8
ｶｸﾚｾﾝ2
 10
296.87423860130832
 20
422.06968796910257
 30
0.0
 40
5.0
 50
3.8501272999993961
 51
170.31658999999851
  0
LINE
  5
4115
  8
AM_0
 10
285.8742686013083
 20
423.06971796910273
 30
0.0
 11
295.86859860130801
 21
422.80799796910281
 31
0.0
  0
LINE
  5
4116
  8
AM_0
 10
286.87423860130832
 20
415.04276796910273
 30
0.0
 11
286.87423860130832
 21
423.04349796910259
 31
0.0
  0
LINE
  5
4117
  8
AM_0
 10
296.82189860130819
 20
422.53745796910277
 30
0.0
 11
302.50289860130812
 21
422.38868796910259
 31
0.0
  0
ARC
  5
4118
  8
AM_0
 10
296.87423860130832
 20
424.53675796910272
 30
0.0
 40
2.0
 50
180.00001000000091
 51
268.5000000000004
  0
ARC
  5
4119
  8
AM_0
 10
302.46365860130823
 20
420.88919796910301
 30
0.0
 40
1.5
 50
12.976653000001519
 51
88.499997000000747
  0
ARC
  5
411A
  8
AM_0
 10
301.87423860130832
 20
445.62973796910291
 30
0.0
 40
2.0
 50
0.0
 51
90.000003000000945
  0
ARC
  5
411B
  8
AM_0
 10
292.87423860130832
 20
431.38541796910272
 30
0.0
 40
2.0
 50
0.0
 51
88.499997000000747
  0
LINE
  5
411C
  8
AM_0
 10
285.8742686013083
 20
433.56940796910288
 30
0.0
 11
301.92660860130849
 21
433.14905796910278
 31
0.0
  0
ARC
  5
411D
  8
AM_0
 10
301.87423860130832
 20
431.14975796910272
 30
0.0
 40
2.0
 50
0.0
 51
88.499997000000747
  0
LINE
  5
411E
  8
AM_0
 10
285.87423860130832
 20
447.62973796910251
 30
0.0
 11
301.87423860130832
 21
447.62973796910251
 31
0.0
  0
LINE
  5
411F
  8
AM_0
 10
321.87423860130832
 20
435.86194796910303
 30
0.0
 11
321.87423860130832
 21
423.31495796910281
 31
0.0
  0
LINE
  5
4120
  8
AM_0
 10
325.87423860130832
 20
424.81495796910292
 30
0.0
 11
325.87423860130832
 21
434.36197796910272
 31
0.0
  0
LINE
  5
4121
  8
AM_0
 10
320.87423860130832
 20
436.83606796910271
 30
0.0
 11
320.87423860130832
 21
420.18802796910251
 31
0.0
  0
LINE
  5
4122
  8
AM_0
 10
329.8372786013083
 20
425.03254796910272
 30
0.0
 11
323.07369860130831
 21
421.12760796910271
 31
0.0
  0
LINE
  5
4123
  8
AM_0
 10
308.87423860130838
 20
410.57004796910257
 30
0.0
 11
308.87423860130838
 21
412.57071796910259
 31
0.0
  0
LINE
  5
4124
  8
AM_0
 10
312.87423860130832
 20
411.59659796910262
 30
0.0
 11
312.87423860130832
 21
417.59519796910303
 31
0.0
  0
ARC
  5
4125
  8
AM_0
 10
309.87423860130832
 20
410.57004796910257
 30
0.0
 40
1.0
 50
180.00001000000091
 51
268.5000000000004
  0
ARC
  5
4126
  8
AM_0
 10
310.87423860130838
 20
411.59659796910262
 30
0.0
 40
2.0
 50
271.4999999999992
 51
0.0
  0
LINE
  5
4127
  8
AM_0
 10
309.87423860130832
 20
424.04337796910272
 30
0.0
 11
320.87423860130832
 21
424.04337796910272
 31
0.0
  0
LINE
  5
4128
  8
AM_0
 10
309.87423860130832
 20
419.56971796910278
 30
0.0
 11
318.33544860130843
 21
419.79126796910271
 31
0.0
  0
LINE
  5
4129
  8
AM_0
 10
311.84808860130818
 20
413.51938796910281
 30
0.0
 11
309.90042860130831
 21
413.57041796910272
 31
0.0
  0
ARC
  5
412A
  8
AM_0
 10
309.87423860130832
 20
412.57071796910259
 30
0.0
 40
1.0
 50
88.499997000000747
 51
180.00001000000091
  0
LINE
  5
412B
  8
AM_0
 10
309.87426860130819
 20
419.5696879691028
 30
0.0
 11
305.82192860130851
 21
419.67582796910273
 31
0.0
  0
ARC
  5
412C
  8
AM_0
 10
311.87423860130832
 20
414.51905796910251
 30
0.0
 40
1.0
 50
268.5000000000004
 51
0.0000006832462478
  0
ARC
  5
412D
  8
AM_0
 10
310.87423860130838
 20
417.59519796910303
 30
0.0
 40
2.0
 50
0.0
 51
91.500001000001546
  0
ARC
  5
412E
  8
AM_0
 10
318.07369860130831
 20
429.78782796910281
 30
0.0
 40
10.0
 50
271.4999999999992
 51
300.00001000000083
  0
LINE
  5
412F
  8
AM_0
 10
321.87423860130832
 20
426.70169796910272
 30
0.0
 11
324.87423860130832
 21
426.70169796910272
 31
0.0
  0
LINE
  5
4130
  8
AM_0
 10
321.87423860130832
 20
423.81492796910271
 30
0.0
 11
324.87423860130832
 21
423.81492796910271
 31
0.0
  0
LINE
  5
4131
  8
AM_0
 10
320.87423860130832
 20
423.31495796910281
 30
0.0
 11
321.87423860130832
 21
423.31495796910281
 31
0.0
  0
ARC
  5
4132
  8
AM_0
 10
324.87423860130832
 20
425.70169796910272
 30
0.0
 40
1.0
 50
0.0
 51
90.000003000000945
  0
ARC
  5
4133
  8
AM_0
 10
324.87423860130832
 20
424.81495796910292
 30
0.0
 40
1.0
 50
269.999989999999
 51
0.0000006832462478
  0
ARC
  5
4134
  8
AM_0
 10
324.87423860130832
 20
427.70169796910272
 30
0.0
 40
1.0
 50
269.999989999999
 51
0.0000006832462478
  0
ARC
  5
4135
  8
AM_0
 10
347.87423860130821
 20
413.56577796910278
 30
0.0
 40
3.0
 50
180.00001000000091
 51
271.4999999999992
  0
LINE
  5
4136
  8
AM_0
 10
346.86321860130818
 20
426.69065796910292
 30
0.0
 11
334.57549860130831
 21
426.3688779691027
 31
0.0
  0
ARC
  5
4137
  8
AM_0
 10
334.83724860130832
 20
416.37229796910259
 30
0.0
 40
10.0
 50
91.500001000001546
 51
120.0000000000005
  0
LINE
  5
4138
  8
AM_0
 10
344.87423860130821
 20
413.56577796910278
 30
0.0
 11
344.87423860130821
 21
422.69892796910278
 31
0.0
  0
ARC
  5
4139
  8
AM_0
 10
349.87423860130821
 20
422.69892796910278
 30
0.0
 40
5.0
 50
91.500001000001546
 51
180.00001000000091
  0
LINE
  5
413A
  8
AM_0
 10
334.37234860130849
 20
438.24787796910277
 30
0.0
 11
322.87423860130832
 21
436.83606796910271
 31
0.0
  0
LINE
  5
413B
  8
AM_0
 10
321.87423860130832
 20
432.47519796910262
 30
0.0
 11
324.87423860130832
 21
432.47519796910262
 31
0.0
  0
LINE
  5
413C
  8
AM_0
 10
321.87423860130832
 20
435.36197796910278
 30
0.0
 11
324.87423860130832
 21
435.36197796910278
 31
0.0
  0
LINE
  5
413D
  8
AM_0
 10
320.87423860130832
 20
436.83606796910271
 30
0.0
 11
322.87423860130832
 21
436.83606796910271
 31
0.0
  0
LINE
  5
413E
  8
AM_0
 10
320.87423860130832
 20
435.86194796910303
 30
0.0
 11
321.87423860130832
 21
435.86194796910303
 31
0.0
  0
ARC
  5
413F
  8
AM_0
 10
324.87423860130832
 20
434.36197796910272
 30
0.0
 40
1.0
 50
0.0
 51
90.000003000000945
  0
ARC
  5
4140
  8
AM_0
 10
324.87423860130832
 20
431.47519796910279
 30
0.0
 40
1.0
 50
0.0
 51
90.000003000000945
  0
ARC
  5
4141
  8
AM_0
 10
324.87423860130832
 20
433.47519796910262
 30
0.0
 40
1.0
 50
269.999989999999
 51
0.0000006832462478
  0
ARC
  5
4142
  8
AM_0
 10
351.87423860130821
 20
430.75403796910302
 30
0.0
 40
3.0
 50
271.4999999999992
 51
0.0
  0
LINE
  5
4143
  8
AM_0
 10
369.87423860130821
 20
416.01163796910288
 30
0.0
 11
369.87423860130821
 21
433.12778796910271
 31
0.0
  0
ARC
  5
4144
  8
AM_0
 10
364.87423860130821
 20
416.01163796910288
 30
0.0
 40
5.0
 50
271.4999999999992
 51
0.0
  0
CIRCLE
  5
4145
  8
AM_0
 10
359.87423860130821
 20
422.06968796910257
 30
0.0
 40
5.0
  0
LINE
  5
4146
  8
AM_0
 10
359.74337860130839
 20
437.19721796910272
 30
0.0
 11
364.95278860130821
 21
437.33362796910262
 31
0.0
  0
ARC
  5
4147
  8
AM_0
 10
359.87423860130821
 20
432.19892796910273
 30
0.0
 40
5.0
 50
91.500001000001546
 51
180.00001000000091
  0
ARC
  5
4148
  8
AM_0
 10
364.87423860130821
 20
440.33258796910292
 30
0.0
 40
3.0
 50
271.4999999999992
 51
0.0
  0
ARC
  5
4149
  8
AM_0
 10
364.87423860130821
 20
433.12778796910271
 30
0.0
 40
5.0
 50
0.0
 51
70.485339000000806
  0
ARC
  5
414A
  8
AM_0
 10
368.87423860130821
 20
460.54386796910279
 30
0.0
 40
1.0
 50
271.4999999999992
 51
0.0
  0
ARC
  5
414B
  8
AM_0
 10
368.87423860130821
 20
458.54319796910272
 30
0.0
 40
1.0
 50
91.500001000001546
 51
180.00001000000091
  0
LINE
  5
414C
  8
AM_0
 10
368.84808860130818
 20
459.54282796910258
 30
0.0
 11
368.90042860130831
 21
459.5441979691027
 31
0.0
  0
LINE
  5
414D
  8
AM_0
 10
354.87423860130838
 20
520.17560796910288
 30
0.0
 11
334.37237860130818
 21
520.89154796910282
 31
0.0
  0
LINE
  5
414E
  8
AM_0
 10
365.00512860130817
 20
548.12607796910265
 30
0.0
 11
309.87426860130819
 21
549.56971796910295
 31
0.0
  0
LINE
  5
414F
  8
AM_0
 10
349.74337860130822
 20
531.44220796910281
 30
0.0
 11
351.95278860130838
 21
531.38434796910281
 31
0.0
  0
ARC
  5
4150
  8
AM_0
 10
296.87423860130832
 20
537.06971796910295
 30
0.0
 40
5.0
 50
356.1498700000015
 51
189.68341000000129
  0
ARC
  5
4151
  8
ｶｸﾚｾﾝ2
 10
296.87423860130832
 20
537.06971796910295
 30
0.0
 40
5.0
 50
189.68341000000129
 51
356.14988000000108
  0
ARC
  5
4152
  8
AM_0
 10
296.87423860130832
 20
534.60263796910283
 30
0.0
 40
2.0
 50
91.500001000001546
 51
180.00001000000091
  0
ARC
  5
4153
  8
AM_0
 10
349.87423860130821
 20
536.44046796910288
 30
0.0
 40
5.0
 50
180.00001000000091
 51
268.5000000000004
  0
LINE
  5
4154
  8
AM_0
 10
329.8372786013083
 20
534.10685796910298
 30
0.0
 11
323.07366860130838
 21
538.01181796910305
 31
0.0
  0
LINE
  5
4155
  8
AM_0
 10
320.87423860130832
 20
522.30335796910299
 30
0.0
 11
320.87423860130832
 21
538.95139796910314
 31
0.0
  0
LINE
  5
4156
  8
AM_0
 10
285.87423860130832
 20
511.50962796910272
 30
0.0
 11
301.87423860130832
 21
511.50962796910272
 31
0.0
  0
ARC
  5
4157
  8
AM_0
 10
301.87423860130832
 20
513.50962796910289
 30
0.0
 40
2.0
 50
270.0
 51
0.0
  0
ARC
  5
4158
  8
AM_0
 10
292.87423860130832
 20
527.75400796910287
 30
0.0
 40
2.0
 50
271.4999999999992
 51
0.0
  0
LINE
  5
4159
  8
AM_0
 10
285.87423860130832
 20
525.57001796910299
 30
0.0
 11
301.92660860130849
 21
525.99033796910282
 31
0.0
  0
ARC
  5
415A
  8
AM_0
 10
301.87423860130832
 20
527.98966796910304
 30
0.0
 40
2.0
 50
271.4999999999992
 51
0.0
  0
LINE
  5
415B
  8
AM_0
 10
294.87423860130832
 20
527.75400796910287
 30
0.0
 11
294.87423860130832
 21
534.60263796910283
 31
0.0
  0
LINE
  5
415C
  8
AM_0
 10
334.37234860130849
 20
520.89154796910282
 30
0.0
 11
322.87423860130832
 21
522.30335796910299
 31
0.0
  0
LINE
  5
415D
  8
AM_0
 10
309.87423860130832
 20
535.09604796910276
 30
0.0
 11
320.87423860130832
 21
535.09604796910276
 31
0.0
  0
ARC
  5
415E
  8
AM_0
 10
324.87423860130832
 20
527.66422796910297
 30
0.0
 40
1.0
 50
269.999989999999
 51
0.0000006832462478
  0
LINE
  5
415F
  8
AM_0
 10
325.87423860130832
 20
534.32447796910265
 30
0.0
 11
325.87423860130832
 21
524.7774479691027
 31
0.0
  0
LINE
  5
4160
  8
AM_0
 10
321.87423860130832
 20
523.27744796910281
 30
0.0
 11
321.87423860130832
 21
535.82447796910287
 31
0.0
  0
LINE
  5
4161
  8
AM_0
 10
321.87423860130832
 20
523.77744796910281
 30
0.0
 11
324.87423860130832
 21
523.77744796910281
 31
0.0
  0
LINE
  5
4162
  8
AM_0
 10
321.87423860130832
 20
526.66419796910282
 30
0.0
 11
324.87423860130832
 21
526.66419796910282
 31
0.0
  0
LINE
  5
4163
  8
AM_0
 10
320.87423860130832
 20
522.30335796910299
 30
0.0
 11
322.87423860130832
 21
522.30335796910299
 31
0.0
  0
LINE
  5
4164
  8
AM_0
 10
320.87423860130832
 20
523.27744796910281
 30
0.0
 11
321.87423860130832
 21
523.27744796910281
 31
0.0
  0
ARC
  5
4165
  8
AM_0
 10
324.87423860130832
 20
525.66422796910285
 30
0.0
 40
1.0
 50
0.0
 51
90.000003000000945
  0
ARC
  5
4166
  8
AM_0
 10
324.87423860130832
 20
524.7774479691027
 30
0.0
 40
1.0
 50
269.999989999999
 51
0.0000006832462478
  0
LINE
  5
4167
  8
AM_0
 10
321.87423860130832
 20
535.32447796910287
 30
0.0
 11
324.87423860130832
 21
535.32447796910287
 31
0.0
  0
LINE
  5
4168
  8
AM_0
 10
321.87423860130832
 20
532.43772796910275
 30
0.0
 11
324.87423860130832
 21
532.43772796910275
 31
0.0
  0
LINE
  5
4169
  8
AM_0
 10
320.87423860130832
 20
535.82447796910287
 30
0.0
 11
321.87423860130832
 21
535.82447796910287
 31
0.0
  0
ARC
  5
416A
  8
AM_0
 10
324.87423860130832
 20
531.43772796910275
 30
0.0
 40
1.0
 50
0.0
 51
90.000003000000945
  0
ARC
  5
416B
  8
AM_0
 10
324.87423860130832
 20
534.32447796910265
 30
0.0
 40
1.0
 50
0.0
 51
90.000003000000945
  0
ARC
  5
416C
  8
AM_0
 10
324.87423860130832
 20
533.43772796910298
 30
0.0
 40
1.0
 50
269.999989999999
 51
0.0000006832462478
  0
LINE
  5
416D
  8
AM_0
 10
346.86321860130818
 20
532.44877796910282
 30
0.0
 11
334.57549860130831
 21
532.77054796910295
 31
0.0
  0
ARC
  5
416E
  8
AM_0
 10
334.83724860130832
 20
542.76712796910283
 30
0.0
 40
10.0
 50
239.99999999999949
 51
268.5000000000004
  0
ARC
  5
416F
  8
AM_0
 10
305.87423860130832
 20
537.46427796910257
 30
0.0
 40
2.0
 50
91.500001000001546
 51
180.00001000000091
  0
LINE
  5
4170
  8
AM_0
 10
309.87426860130819
 20
549.56968796910292
 30
0.0
 11
291.74337860130851
 21
549.09491796910265
 31
0.0
  0
LINE
  5
4171
  8
AM_0
 10
285.8742686013083
 20
536.06971796910295
 30
0.0
 11
295.86859860130801
 21
536.33139796910291
 31
0.0
  0
ARC
  5
4172
  8
AM_0
 10
291.87423860130832
 20
544.09665796910281
 30
0.0
 40
5.0
 50
91.500001000001546
 51
180.00001000000091
  0
LINE
  5
4173
  8
AM_0
 10
286.87423860130832
 20
544.09665796910281
 30
0.0
 11
286.87423860130832
 21
536.09589796910268
 31
0.0
  0
LINE
  5
4174
  8
AM_0
 10
296.82189860130819
 20
536.60196796910304
 30
0.0
 11
302.5029286013085
 21
536.75074796910314
 31
0.0
  0
ARC
  5
4175
  8
AM_0
 10
302.46365860130823
 20
538.25022796910298
 30
0.0
 40
1.5
 50
271.4999999999992
 51
347.02334999999908
  0
LINE
  5
4176
  8
AM_0
 10
309.87426860130819
 20
539.56971796910295
 30
0.0
 11
318.3354786013083
 21
539.34815796910277
 31
0.0
  0
ARC
  5
4177
  8
AM_0
 10
311.87423860130832
 20
544.62037796910295
 30
0.0
 40
1.0
 50
0.0
 51
91.500001000001546
  0
LINE
  5
4178
  8
AM_0
 10
312.87423860130832
 20
547.54282796910275
 30
0.0
 11
312.87423860130832
 21
541.54419796910281
 31
0.0
  0
LINE
  5
4179
  8
AM_0
 10
305.82189860130831
 20
539.4636079691029
 30
0.0
 11
309.87423860130832
 21
539.56971796910295
 31
0.0
  0
ARC
  5
417A
  8
AM_0
 10
310.87423860130838
 20
541.54419796910281
 30
0.0
 40
2.0
 50
268.5000000000004
 51
0.0000006832462478
  0
LINE
  5
417B
  8
AM_0
 10
311.84808860130818
 20
545.62000796910274
 30
0.0
 11
309.90045860130817
 21
545.56900796910281
 31
0.0
  0
ARC
  5
417C
  8
AM_0
 10
309.87423860130832
 20
546.56867796910285
 30
0.0
 40
1.0
 50
180.00001000000091
 51
271.4999999999992
  0
ARC
  5
417D
  8
AM_0
 10
309.87423860130832
 20
548.5693779691029
 30
0.0
 40
1.0
 50
91.500001000001546
 51
180.00001000000091
  0
LINE
  5
417E
  8
AM_0
 10
308.87423860130838
 20
548.5693779691029
 30
0.0
 11
308.87423860130838
 21
546.56867796910285
 31
0.0
  0
ARC
  5
417F
  8
AM_0
 10
310.87423860130838
 20
547.54282796910275
 30
0.0
 40
2.0
 50
0.0
 51
88.499997000000747
  0
ARC
  5
4180
  8
AM_0
 10
318.07369860130831
 20
529.35157796910289
 30
0.0
 40
10.0
 50
60.000002000001302
 51
88.499997000000747
  0
LINE
  5
4181
  8
AM_0
 10
344.87423860130821
 20
545.57361796910288
 30
0.0
 11
344.87423860130821
 21
536.44046796910288
 31
0.0
  0
ARC
  5
4182
  8
AM_0
 10
347.87423860130821
 20
545.57361796910288
 30
0.0
 40
3.0
 50
88.499997000000747
 51
180.00001000000091
  0
CIRCLE
  5
4183
  8
AM_0
 10
359.87423860130821
 20
537.06971796910295
 30
0.0
 40
5.0
  0
LINE
  5
4184
  8
AM_0
 10
369.87423860130821
 20
543.12775796910284
 30
0.0
 11
369.87423860130821
 21
526.01163796910271
 31
0.0
  0
LINE
  5
4185
  8
ﾁｭｳｼﾝｾﾝ1
 10
359.87423860130821
 20
548.06971796910295
 30
0.0
 11
359.87423860130821
 21
526.06971796910295
 31
0.0
  0
LINE
  5
4186
  8
AM_0
 10
377.87423860130821
 20
482.56968796910292
 30
0.0
 11
399.87423860130821
 21
482.56968796910292
 31
0.0
  0
LINE
  5
4187
  8
AM_0
 10
377.87423860130821
 20
476.56968796910257
 30
0.0
 11
399.87423860130821
 21
476.56968796910257
 31
0.0
  0
LINE
  5
4188
  8
AM_0
 10
371.87423860130821
 20
489.06971796910273
 30
0.0
 11
399.87423860130821
 21
489.06971796910273
 31
0.0
  0
LINE
  5
4189
  8
AM_0
 10
371.87423860130821
 20
470.06971796910278
 30
0.0
 11
399.87423860130821
 21
470.06971796910278
 31
0.0
  0
ARC
  5
418A
  8
AM_0
 10
368.87423860130821
 20
500.59623796910279
 30
0.0
 40
1.0
 50
179.9999899999988
 51
268.50000999999872
  0
ARC
  5
418B
  8
AM_0
 10
377.87423860130821
 20
479.56968796910257
 30
0.0
 40
3.0
 50
89.986013999999244
 51
270.01398999999992
  0
LINE
  5
418C
  8
AM_0
 10
371.87423860130821
 20
469.56971796910278
 30
0.0
 11
371.87423860130821
 21
489.56971796910273
 31
0.0
  0
LINE
  5
418D
  8
AM_0
 10
369.87423860130821
 20
469.56971796910278
 30
0.0
 11
371.87423860130821
 21
469.56971796910278
 31
0.0
  0
LINE
  5
418E
  8
AM_0
 10
369.87423860130821
 20
489.56971796910273
 30
0.0
 11
371.87423860130821
 21
489.56971796910273
 31
0.0
  0
ARC
  5
418F
  8
AM_0
 10
368.87423860130821
 20
498.59555796910291
 30
0.0
 40
1.0
 50
0.0
 51
88.499997000000747
  0
LINE
  5
4190
  8
AM_0
 10
368.84808860130818
 20
499.59656796910258
 30
0.0
 11
368.90042860130831
 21
499.59519796910263
 31
0.0
  0
LINE
  5
4191
  8
AM_0
 10
377.87423860130821
 20
476.56968796910257
 30
0.0
 11
377.87423860130821
 21
482.56968796910292
 31
0.0
  0
LINE
  5
4192
  8
AM_0
 10
359.74337860130839
 20
521.94220796910258
 30
0.0
 11
364.95278860130821
 21
521.80579796910285
 31
0.0
  0
ARC
  5
4193
  8
AM_0
 10
359.87423860130821
 20
526.94046796910266
 30
0.0
 40
5.0
 50
180.00001000000091
 51
268.5000000000004
  0
ARC
  5
4194
  8
AM_0
 10
351.87423860130821
 20
528.38535796910287
 30
0.0
 40
3.0
 50
0.0
 51
88.499997000000747
  0
ARC
  5
4195
  8
AM_0
 10
364.87423860130821
 20
526.01163796910271
 30
0.0
 40
5.0
 50
289.51466999999951
 51
0.0
  0
ARC
  5
4196
  8
AM_0
 10
364.87423860130821
 20
518.80680796910281
 30
0.0
 40
3.0
 50
0.0
 51
88.499997000000747
  0
LINE
  5
4197
  8
AM_0
 10
399.87423860130821
 20
470.06971796910278
 30
0.0
 11
399.87423860130821
 21
489.06971796910273
 31
0.0
  0
LINE
  5
4198
  8
ﾁｭｳｼﾝｾﾝ1
 10
348.87423860130821
 20
537.06971796910295
 30
0.0
 11
370.87423860130821
 21
537.06971796910295
 31
0.0
  0
ARC
  5
4199
  8
AM_0
 10
364.87423860130821
 20
543.12775796910284
 30
0.0
 40
5.0
 50
0.0
 51
88.499997000000747
  0
LINE
  5
419A
  8
ﾁｭｳｼﾝｾﾝ1
 10
359.87423860130821
 20
433.06968796910292
 30
0.0
 11
359.87423860130821
 21
411.0696879691028
 31
0.0
  0
LINE
  5
419B
  8
ﾁｭｳｼﾝｾﾝ1
 10
348.87423860130821
 20
422.06968796910257
 30
0.0
 11
370.87423860130821
 21
422.06968796910257
 31
0.0
  0
LINE
  5
419C
  8
ﾁｭｳｼﾝｾﾝ1
 10
296.87423860130832
 20
433.06968796910292
 30
0.0
 11
296.87423860130832
 21
411.0696879691028
 31
0.0
  0
LINE
  5
419D
  8
ﾁｭｳｼﾝｾﾝ1
 10
285.87423860130832
 20
422.06968796910257
 30
0.0
 11
307.87423860130832
 21
422.06968796910257
 31
0.0
  0
LINE
  5
419E
  8
ﾁｭｳｼﾝｾﾝ1
 10
296.87423860130832
 20
548.06971796910295
 30
0.0
 11
296.87423860130832
 21
526.06971796910295
 31
0.0
  0
LINE
  5
419F
  8
ﾁｭｳｼﾝｾﾝ1
 10
285.87423860130832
 20
537.06971796910295
 30
0.0
 11
307.87423860130832
 21
537.06971796910295
 31
0.0
  0
LINE
  5
41A1
  8
AM_0
 10
371.8742186013086
 20
283.55973181778762
 30
0.0
 11
399.87423860130809
 21
283.55973181778762
 31
0.0
  0
LINE
  5
41A2
  8
AM_0
 10
377.8742186013086
 20
305.05973181778779
 30
0.0
 11
399.87423860130809
 21
305.05973181778779
 31
0.0
  0
LINE
  5
41A3
  8
AM_0
 10
371.8742186013086
 20
302.55973381778779
 30
0.0
 11
399.87423860130809
 21
302.55973381778779
 31
0.0
  0
LINE
  5
41A4
  8
ﾁｭｳｼﾝｾﾝ1
 10
298.52481860130843
 20
293.05973281778768
 30
0.0
 11
401.60772860130851
 21
293.05973281778768
 31
0.0
  0
LINE
  5
41A5
  8
0
 10
254.87423860130841
 20
196.05973181778771
 30
0.0
 11
254.87423860130841
 21
356.05973181778791
 31
0.0
1001
GENIUS_GENOREF_13
1005
3B8D
  0
LINE
  5
41A6
  8
0
 10
264.87423860130832
 20
354.05973181778791
 30
0.0
 11
264.87423860130832
 21
198.05973181778791
 31
0.0
1001
GENIUS_GENOREF_13
1005
3B8D
  0
LINE
  5
41A7
  8
AM_0
 10
371.8742186013086
 20
283.05973081778791
 30
0.0
 11
371.8742186013086
 21
293.05973281778768
 31
0.0
  0
LINE
  5
41A8
  8
AM_0
 10
344.87424860130852
 20
223.0597158177878
 30
0.0
 11
344.87424860130852
 21
300.97715281778773
 31
0.0
  0
LINE
  5
41A9
  8
AM_0
 10
322.87419860130848
 20
304.69059181778772
 30
0.0
 11
322.87419860130848
 21
218.0597298177878
 31
0.0
  0
LINE
  5
41AA
  8
AM_0
 10
334.65993860130823
 20
300.39905881778782
 30
0.0
 11
322.87422860130852
 21
218.0596998177877
 31
0.0
  0
LINE
  5
41AB
  8
AM_0
 10
309.87423860130832
 20
336.05974681778781
 30
0.0
 11
309.87423860130832
 21
226.05974581778781
 31
0.0
  0
LINE
  5
41AC
  8
AM_0
 10
285.87423860130832
 20
332.55973181778791
 30
0.0
 11
285.87423860130832
 21
219.55973181778771
 31
0.0
  0
LINE
  5
41AD
  8
AM_0
 10
357.87423860130821
 20
329.93203681778772
 30
0.0
 11
357.87423860130821
 21
244.8271548177878
 31
0.0
  0
LINE
  5
41AE
  8
AM_0
 10
303.87423860130832
 20
315.93334681778782
 30
0.0
 11
303.87423860130832
 21
276.05973181778762
 31
0.0
  0
LINE
  5
41AF
  8
AM_0
 10
367.87419860130848
 20
321.05974681778781
 30
0.0
 11
367.87419860130848
 21
221.2501278177879
 31
0.0
  0
LINE
  5
41B0
  8
AM_0
 10
369.87423860130821
 20
312.08557681778791
 30
0.0
 11
369.87423860130821
 21
274.03388281778791
 31
0.0
  0
ARC
  5
41B1
  8
0
 10
262.87423860130832
 20
198.05973181778791
 30
0.0
 40
2.0
 50
270.0
 51
0.0
1001
GENIUS_GENOBJ-N-FIL_13
1002
{
1000
OWNER
1000
GEN
1002
}
1001
GENIUS_GENODEF_13
1002
{
1000
HIER
1070
     0
1002
}
1002
{
1000
MANEDIT
1070
     0
1002
}
1002
{
1000
NOSEL
1070
     0
1002
}
1002
{
1000
BEHIND
1070
     0
1002
}
1002
{
1000
OTHER
1070
     0
1002
}
1002
{
1000
REACTOR
1002
}
  0
LINE
  5
41B2
  8
0
 10
254.87423860130841
 20
196.05973181778771
 30
0.0
 11
262.87423860130832
 21
196.05973181778771
 31
0.0
  0
LINE
  5
41B3
  8
AM_0
 10
307.87422860130852
 20
209.0597298177878
 30
0.0
 11
348.87423860130821
 21
209.0597298177878
 31
0.0
  0
LINE
  5
41B4
  8
AM_0
 10
312.85371860130812
 20
251.88504781778781
 30
0.0
 11
309.18600860130852
 21
220.70917381778781
 31
0.0
  0
LINE
  5
41B5
  8
AM_0
 10
303.87423860130832
 20
218.0597298177878
 30
0.0
 11
303.87423860130832
 21
276.05973181778762
 31
0.0
  0
LINE
  5
41B6
  8
AM_0
 10
285.87423860130832
 20
230.05971481778781
 30
0.0
 11
264.87423860130832
 21
230.05971481778781
 31
0.0
  0
LINE
  5
41B7
  8
0
 10
266.8044396079033
 20
218.8937997628851
 30
0.0
 11
285.87423860130832
 21
219.55973181778771
 31
0.0
  0
ARC
  5
41B8
  8
0
 10
266.87423860130832
 20
216.89501810884701
 30
0.0
 40
2.0
 50
92.000000000000341
 51
180.0
1001
GENIUS_GENOBJ-N-FIL_13
1002
{
1000
OWNER
1000
GEN
1002
}
1001
GENIUS_GENODEF_13
1002
{
1000
HIER
1070
     0
1002
}
1002
{
1000
MANEDIT
1070
     0
1002
}
1002
{
1000
NOSEL
1070
     0
1002
}
1002
{
1000
BEHIND
1070
     0
1002
}
1002
{
1000
OTHER
1070
     0
1002
}
1002
{
1000
REACTOR
1002
}
  0
LINE
  5
41B9
  8
ﾁｭｳｼﾝｾﾝ1
 10
296.87424860130858
 20
205.4511798177879
 30
0.0
 11
296.87424860130858
 21
220.8734658177878
 31
0.0
  0
ARC
  5
41BA
  8
AM_0
 10
306.20649860130823
 20
221.0597298177878
 30
0.0
 40
3.0
 50
270.0
 51
353.29016000000053
  0
LINE
  5
41BB
  8
AM_0
 10
286.87422860130852
 20
208.0597158177878
 30
0.0
 11
306.87423860130838
 21
208.0597158177878
 31
0.0
  0
LINE
  5
41BC
  8
AM_0
 10
306.20649860130823
 20
218.0597298177878
 30
0.0
 11
288.37422860130852
 21
218.0597298177878
 31
0.0
  0
LINE
  5
41BD
  8
AM_0
 10
285.87423860130832
 20
220.0597158177878
 30
0.0
 11
302.41353860130812
 21
219.6266238177879
 31
0.0
  0
LINE
  5
41BE
  8
AM_0
 10
286.87422860130852
 20
208.0597158177878
 30
0.0
 11
286.87422860130852
 21
216.5597298177878
 31
0.0
  0
LINE
  5
41BF
  8
ｶｸﾚｾﾝ2
 10
291.87423860130832
 20
208.0597158177878
 30
0.0
 11
291.87423860130832
 21
218.0597298177878
 31
0.0
  0
ARC
  5
41C0
  8
AM_0
 10
288.37422860130852
 20
216.5597298177878
 30
0.0
 40
1.5000000299999969
 50
90.000003000000945
 51
180.00001000000091
  0
LINE
  5
41C1
  8
ｶｸﾚｾﾝ2
 10
301.87422860130852
 20
208.0597158177878
 30
0.0
 11
301.87422860130852
 21
218.0597298177878
 31
0.0
  0
ARC
  5
41C2
  8
AM_0
 10
307.87422860130852
 20
208.0597158177878
 30
0.0
 40
1.0000000199999981
 50
90.000003000000945
 51
180.00001000000091
  0
LINE
  5
41C3
  8
AM_0
 10
306.87423860130838
 20
208.0597158177878
 30
0.0
 11
306.87423860130838
 21
208.0597158177878
 31
0.0
  0
ARC
  5
41C4
  8
AM_0
 10
302.37423860130832
 20
218.1271578177878
 30
0.0
 40
1.5000000299999969
 50
0.0
 51
88.499997000000747
  0
LINE
  5
41C5
  8
AM_0
 10
285.87423860130832
 20
230.05972981778791
 30
0.0
 11
303.87423860130832
 21
230.05972981778791
 31
0.0
  0
LINE
  5
41C6
  8
AM_0
 10
285.87423860130832
 20
244.12228981778799
 30
0.0
 11
264.87423860130832
 21
244.12228981778799
 31
0.0
  0
LINE
  5
41C7
  8
ﾁｭｳｼﾝｾﾝ1
 10
250.12506785464751
 20
276.05973181778762
 30
0.0
 11
307.83780860130838
 21
276.05973181778762
 31
0.0
  0
LINE
  5
41C8
  8
AM_0
 10
312.87423860130832
 20
280.81055581778787
 30
0.0
 11
312.87423860130832
 21
252.2355888177878
 31
0.0
  0
LINE
  5
41C9
  8
AM_0
 10
285.87423860130832
 20
244.12229281778781
 30
0.0
 11
303.87423860130832
 21
244.12229281778781
 31
0.0
  0
ARC
  5
41CA
  8
AM_0
 10
309.87423860130832
 20
252.2355888177878
 30
0.0
 40
3.0
 50
353.29016000000053
 51
0.0
  0
ARC
  5
41CB
  8
AM_0
 10
352.87419860130848
 20
244.8271548177878
 30
0.0
 40
5.0000001000000003
 50
270.0
 51
0.0
  0
ARC
  5
41CC
  8
AM_0
 10
349.87419860130859
 20
223.0597158177878
 30
0.0
 40
5.0000001000000003
 50
180.00001000000091
 51
270.0
  0
LINE
  5
41CD
  8
AM_0
 10
352.87419860130848
 20
239.82714181778769
 30
0.0
 11
344.87424860130852
 21
239.82714181778769
 31
0.0
  0
LINE
  5
41CE
  8
ﾁｭｳｼﾝｾﾝ1
 10
359.87421860130848
 20
205.4511798177879
 30
0.0
 11
359.87421860130848
 21
220.6342398177878
 31
0.0
  0
ARC
  5
41CF
  8
AM_0
 10
372.87423860130809
 20
221.2501278177879
 30
0.0
 40
5.0000001000000003
 50
179.9999899999988
 51
226.18692999999939
  0
LINE
  5
41D0
  8
AM_0
 10
368.37423860130821
 20
218.0597298177878
 30
0.0
 11
349.87419860130859
 21
218.0597298177878
 31
0.0
  0
LINE
  5
41D1
  8
AM_0
 10
349.87419860130859
 20
208.0597158177878
 30
0.0
 11
369.87423860130821
 21
208.0597158177878
 31
0.0
  0
LINE
  5
41D2
  8
ｶｸﾚｾﾝ2
 10
354.87423860130838
 20
208.0597158177878
 30
0.0
 11
354.87423860130838
 21
218.0597298177878
 31
0.0
  0
LINE
  5
41D3
  8
AM_0
 10
349.87419860130859
 20
208.0597158177878
 30
0.0
 11
349.87419860130859
 21
208.0597158177878
 31
0.0
  0
ARC
  5
41D4
  8
AM_0
 10
348.87423860130821
 20
208.0597158177878
 30
0.0
 40
1.0000000199999981
 50
0.0
 51
90.000003000000945
  0
LINE
  5
41D5
  8
ｶｸﾚｾﾝ2
 10
364.87419860130859
 20
208.0597158177878
 30
0.0
 11
364.87419860130859
 21
218.0597298177878
 31
0.0
  0
LINE
  5
41D6
  8
AM_0
 10
369.87423860130821
 20
208.0597158177878
 30
0.0
 11
369.87423860130821
 21
216.5597298177878
 31
0.0
  0
ARC
  5
41D7
  8
AM_0
 10
368.37423860130821
 20
216.5597298177878
 30
0.0
 40
1.5000000299999969
 50
0.0
 51
90.000003000000945
  0
ARC
  5
41D8
  8
AM_0
 10
368.87424860130852
 20
272.03317981778781
 30
0.0
 40
1.0000000199999981
 50
91.500001000001546
 51
180.00001000000091
  0
LINE
  5
41D9
  8
AM_0
 10
368.84805860130848
 20
273.03284581778792
 30
0.0
 11
368.9003786013082
 21
273.03421981778791
 31
0.0
  0
ARC
  5
41DA
  8
AM_0
 10
368.87424860130852
 20
274.03388281778791
 30
0.0
 40
1.0000000199999981
 50
271.4999999999992
 51
0.0
  0
LINE
  5
41DB
  8
AM_0
 10
369.87423860130821
 20
283.05973081778791
 30
0.0
 11
371.8742186013086
 21
283.05973081778791
 31
0.0
  0
LINE
  5
41DC
  8
AM_0
 10
294.87423860130832
 20
318.66658681778767
 30
0.0
 11
320.87424860130852
 21
318.66658681778767
 31
0.0
  0
LINE
  5
41DD
  8
AM_0
 10
309.87423860130832
 20
336.05971681778772
 30
0.0
 11
353.0051186013086
 21
334.93027681778773
 31
0.0
  0
LINE
  5
41DE
  8
AM_0
 10
303.87423860130832
 20
334.44139681778768
 30
0.0
 11
303.87423860130832
 21
320.05972681778792
 31
0.0
  0
LINE
  5
41DF
  8
AM_0
 10
285.87423860130832
 20
322.05973081778802
 30
0.0
 11
264.87423860130832
 21
322.05973081778802
 31
0.0
  0
LINE
  5
41E0
  8
AM_0
 10
285.87423860130832
 20
307.99717081778772
 30
0.0
 11
264.87423860130832
 21
307.99717081778772
 31
0.0
  0
LINE
  5
41E1
  8
AM_0
 10
294.87423860130832
 20
320.05972681778792
 30
0.0
 11
294.87423860130832
 21
301.84244581778762
 31
0.0
  0
LINE
  5
41E2
  8
AM_0
 10
294.87423860130832
 20
301.84244581778762
 30
0.0
 11
303.87423860130832
 21
301.84244581778762
 31
0.0
  0
LINE
  5
41E3
  8
AM_0
 10
294.87423860130832
 20
320.05972681778792
 30
0.0
 11
303.87423860130832
 21
320.05972681778792
 31
0.0
  0
LINE
  5
41E4
  8
AM_0
 10
285.87423860130832
 20
322.05973681778772
 30
0.0
 11
303.87423860130832
 21
322.05973681778772
 31
0.0
  0
LINE
  5
41E5
  8
AM_0
 10
285.87423860130832
 20
307.99717081778772
 30
0.0
 11
294.87423860130832
 21
307.99717081778772
 31
0.0
  0
LINE
  5
41E6
  8
0
 10
266.8044396079033
 20
333.22566387269069
 30
0.0
 11
285.87423860130832
 21
332.55973181778791
 31
0.0
  0
ARC
  5
41E7
  8
0
 10
266.87423860130832
 20
335.2244455267288
 30
0.0
 40
2.0
 50
180.0
 51
267.9999999999996
1001
GENIUS_GENOBJ-N-FIL_13
1002
{
1000
OWNER
1000
GEN
1002
}
1001
GENIUS_GENODEF_13
1002
{
1000
HIER
1070
     0
1002
}
1002
{
1000
MANEDIT
1070
     0
1002
}
1002
{
1000
NOSEL
1070
     0
1002
}
1002
{
1000
BEHIND
1070
     0
1002
}
1002
{
1000
OTHER
1070
     0
1002
}
1002
{
1000
REACTOR
1002
}
  0
ARC
  5
41E8
  8
0
 10
262.87423860130832
 20
354.05973181778791
 30
0.0
 40
2.0
 50
0.0
 51
90.0
1001
GENIUS_GENOBJ-N-FIL_13
1002
{
1000
OWNER
1000
GEN
1002
}
1001
GENIUS_GENODEF_13
1002
{
1000
HIER
1070
     0
1002
}
1002
{
1000
MANEDIT
1070
     0
1002
}
1002
{
1000
NOSEL
1070
     0
1002
}
1002
{
1000
BEHIND
1070
     0
1002
}
1002
{
1000
OTHER
1070
     0
1002
}
1002
{
1000
REACTOR
1002
}
  0
LINE
  5
41E9
  8
0
 10
254.87423860130841
 20
356.05973181778791
 30
0.0
 11
262.87423860130832
 21
356.05973181778791
 31
0.0
  0
LINE
  5
41EA
  8
AM_0
 10
285.87423860130832
 20
332.05972681778792
 30
0.0
 11
302.41347860130838
 21
332.4928368177878
 31
0.0
  0
ARC
  5
41EB
  8
AM_0
 10
305.37423860130832
 20
334.44139681778768
 30
0.0
 40
1.5000000299999969
 50
91.500001000001546
 51
180.00001000000091
  0
ARC
  5
41EC
  8
AM_0
 10
302.37423860130832
 20
333.99232681778773
 30
0.0
 40
1.5000000299999969
 50
271.4999999999992
 51
0.0
  0
LINE
  5
41ED
  8
AM_0
 10
305.33499860130848
 20
335.94088681778788
 30
0.0
 11
309.87423860130832
 21
336.05977681778762
 31
0.0
  0
LINE
  5
41EE
  8
AM_0
 10
322.87419860130848
 20
335.61457681778791
 30
0.0
 11
322.87419860130848
 21
320.18518681778772
 31
0.0
  0
LINE
  5
41EF
  8
AM_0
 10
335.27424860130839
 20
319.58113681778781
 30
0.0
 11
322.87428860130831
 21
335.71930681778792
 31
0.0
  0
LINE
  5
41F0
  8
AM_0
 10
325.87419860130848
 20
319.58113681778781
 30
0.0
 11
352.87419860130848
 21
319.58113681778781
 31
0.0
  0
ARC
  5
41F1
  8
AM_0
 10
349.87419860130859
 20
300.97715281778773
 30
0.0
 40
5.0000001000000003
 50
90.000003000000945
 51
180.00001000000091
  0
LINE
  5
41F2
  8
AM_0
 10
320.87424860130852
 20
324.28168681778772
 30
0.0
 11
320.87424860130852
 21
304.89795781778781
 31
0.0
  0
LINE
  5
41F3
  8
AM_0
 10
322.87419860130848
 20
304.69059181778772
 30
0.0
 11
346.52601860130818
 21
304.69059181778772
 31
0.0
  0
ARC
  5
41F4
  8
AM_0
 10
321.87423860130832
 20
304.89795781778781
 30
0.0
 40
1.0000000199999981
 50
179.9999899999988
 51
270.0
  0
ARC
  5
41F5
  8
AM_0
 10
321.87423860130832
 20
302.89795981778769
 30
0.0
 40
1.0000000199999981
 50
0.0
 51
90.000003000000945
  0
ARC
  5
41F6
  8
AM_0
 10
339.60948860130839
 20
299.69059081778772
 30
0.0
 40
5.0000001000000003
 50
90.000003000000945
 51
171.8542400000002
  0
ARC
  5
41F7
  8
AM_0
 10
324.87423860130832
 20
318.29842681778791
 30
0.0
 40
1.0000000199999981
 50
270.0
 51
0.0
  0
LINE
  5
41F8
  8
AM_0
 10
321.87423860130832
 20
320.68519681778781
 30
0.0
 11
321.87423860130832
 21
308.1381918177878
 31
0.0
  0
LINE
  5
41F9
  8
AM_0
 10
325.87419860130848
 20
309.63819481778768
 30
0.0
 11
325.87419860130848
 21
319.18522681778762
 31
0.0
  0
LINE
  5
41FA
  8
AM_0
 10
320.87424860130852
 20
308.1381918177878
 30
0.0
 11
321.87423860130832
 21
308.1381918177878
 31
0.0
  0
LINE
  5
41FB
  8
AM_0
 10
321.87423860130832
 20
311.52491281778782
 30
0.0
 11
324.87423860130832
 21
311.52491281778782
 31
0.0
  0
LINE
  5
41FC
  8
AM_0
 10
321.87423860130832
 20
317.29843681778772
 30
0.0
 11
324.87423860130832
 21
317.29843681778772
 31
0.0
  0
ARC
  5
41FD
  8
AM_0
 10
324.87423860130832
 20
312.52495681778782
 30
0.0
 40
1.0000000199999981
 50
270.0
 51
0.0
  0
ARC
  5
41FE
  8
AM_0
 10
324.87423860130832
 20
316.29844681778781
 30
0.0
 40
1.0000000199999981
 50
0.0
 51
90.000003000000945
  0
LINE
  5
41FF
  8
AM_0
 10
321.87423860130832
 20
308.63816281778782
 30
0.0
 11
324.87423860130832
 21
308.63816281778782
 31
0.0
  0
ARC
  5
4200
  8
AM_0
 10
324.87423860130832
 20
309.63819481778768
 30
0.0
 40
1.0000000199999981
 50
270.0
 51
0.0
  0
ARC
  5
4201
  8
AM_0
 10
324.87423860130832
 20
310.5249438177878
 30
0.0
 40
1.0000000199999981
 50
0.0
 51
90.000003000000945
  0
LINE
  5
4202
  8
AM_0
 10
320.87424860130852
 20
320.68519681778781
 30
0.0
 11
321.87423860130832
 21
320.68519681778781
 31
0.0
  0
ARC
  5
4203
  8
AM_0
 10
321.87423860130832
 20
324.28168681778772
 30
0.0
 40
1.0000000199999981
 50
90.000003000000945
 51
180.00001000000091
  0
LINE
  5
4204
  8
AM_0
 10
321.87423860130832
 20
320.18518681778772
 30
0.0
 11
324.87423860130832
 21
320.18518681778772
 31
0.0
  0
ARC
  5
4205
  8
AM_0
 10
324.87423860130832
 20
319.18522681778762
 30
0.0
 40
1.0000000199999981
 50
0.0
 51
90.000003000000945
  0
ARC
  5
4206
  8
AM_0
 10
321.87423860130832
 20
326.28172681778773
 30
0.0
 40
1.0000000199999981
 50
270.0
 51
0.0
  0
LINE
  5
4207
  8
AM_0
 10
357.87423860130821
 20
305.97715081778779
 30
0.0
 11
349.87419860130859
 21
305.97715081778779
 31
0.0
  0
LINE
  5
4208
  8
AM_0
 10
371.8742186013086
 20
303.05973181778762
 30
0.0
 11
371.8742186013086
 21
293.05973281778768
 31
0.0
  0
LINE
  5
4209
  8
AM_0
 10
369.87423860130821
 20
303.05973181778762
 30
0.0
 11
371.8742186013086
 21
303.05973181778762
 31
0.0
  0
LINE
  5
420A
  8
AM_0
 10
377.8742186013086
 20
302.55973381778779
 30
0.0
 11
377.8742186013086
 21
305.05973181778779
 31
0.0
  0
LINE
  5
420B
  8
AM_0
 10
362.87424860130852
 20
323.05972681778792
 30
0.0
 11
365.87424860130852
 21
323.05972681778792
 31
0.0
  0
ARC
  5
420C
  8
AM_0
 10
352.87419860130848
 20
314.58112681778772
 30
0.0
 40
5.0000001000000003
 50
0.0
 51
90.000003000000945
  0
ARC
  5
420D
  8
AM_0
 10
362.87424860130852
 20
328.0597068177878
 30
0.0
 40
5.0000001000000003
 50
180.00001000000091
 51
270.0
  0
ARC
  5
420E
  8
AM_0
 10
368.87424860130852
 20
314.08624681778792
 30
0.0
 40
1.0000000199999981
 50
179.9999899999988
 51
268.50000999999872
  0
LINE
  5
420F
  8
AM_0
 10
368.84805860130848
 20
313.0865868177878
 30
0.0
 11
368.9004086013083
 21
313.08520681778782
 31
0.0
  0
ARC
  5
4210
  8
AM_0
 10
368.87424860130852
 20
312.08557681778791
 30
0.0
 40
1.0000000199999981
 50
0.0
 51
88.499997000000747
  0
ARC
  5
4211
  8
AM_0
 10
365.87424860130852
 20
321.05974681778781
 30
0.0
 40
2.00000007
 50
0.0
 51
90.000003000000945
  0
ARC
  5
4212
  8
AM_0
 10
352.87419860130848
 20
329.93203681778772
 30
0.0
 40
5.0000001000000003
 50
0.0
 51
88.499997000000747
  0
ARC
  5
4213
  8
AM_0
 10
544.22115732175143
 20
276.05973181778762
 30
0.0
 40
80.0
 50
328.46636542331993
 51
211.5336220043074
  0
LINE
  5
4214
  8
AM_0
 10
596.22115632175121
 20
300.29514481778767
 30
0.0
 11
596.22115632175121
 21
258.05973181778791
 31
0.0
  0
LINE
  5
4215
  8
AM_0
 10
614.22115932175143
 20
218.0596998177877
 30
0.0
 11
603.47349132175123
 21
285.50217481778787
 31
0.0
  0
LINE
  5
4216
  8
AM_0
 10
614.22114432175135
 20
218.05971481778781
 30
0.0
 11
604.09641732175135
 21
308.28992581778772
 31
0.0
  0
ARC
  5
4217
  8
AM_0
 10
544.22115732175143
 20
293.05973281778768
 30
0.0
 40
9.5000003999999993
 50
108.4084799999998
 51
71.591512000000776
  0
LINE
  5
4218
  8
AM_0
 10
492.22115532175093
 20
300.29514481778767
 30
0.0
 11
492.22115532175093
 21
258.05973181778791
 31
0.0
  0
LINE
  5
4219
  8
AM_0
 10
474.22118832175141
 20
218.0596998177877
 30
0.0
 11
484.96883832175092
 21
285.50217481778787
 31
0.0
  0
LINE
  5
421A
  8
AM_0
 10
474.22115832175137
 20
218.05971481778781
 30
0.0
 11
484.34588832175137
 21
308.28989581778762
 31
0.0
  0
ARC
  5
421B
  8
AM_0
 10
544.22115732175143
 20
280.55973181778791
 30
0.0
 40
42.500000999999997
 50
0.0
 51
180.00001000000091
  0
ARC
  5
421C
  8
AM_0
 10
544.22115732175143
 20
293.05973281778768
 30
0.0
 40
20.000000700000001
 50
270.0
 51
90.000003000000945
  0
ARC
  5
421D
  8
AM_0
 10
544.22115732175143
 20
293.05973281778768
 30
0.0
 40
20.000000700000001
 50
90.000003000000945
 51
270.0
  0
LINE
  5
421E
  8
AM_0
 10
399.87423860130809
 20
283.55973181778762
 30
0.0
 11
399.87423860130809
 21
305.05973181778779
 31
0.0
  0
LINE
  5
421F
  8
ﾁｭｳｼﾝｾﾝ1
 10
544.22115732175143
 20
191.05973181778771
 30
0.0
 11
544.22115732175143
 21
361.05973181778779
 31
0.0
  0
LINE
  5
4220
  8
ﾁｭｳｼﾝｾﾝ1
 10
629.22115732175143
 20
276.05973181778762
 30
0.0
 11
459.22115732175138
 21
276.05973181778762
 31
0.0
  0
LINE
  5
4221
  8
AM_0
 10
474.22115832175137
 20
208.0597158177878
 30
0.0
 11
504.22115532175093
 21
208.0597158177878
 31
0.0
  0
LINE
  5
4222
  8
AM_0
 10
475.72115832175137
 20
218.0597298177878
 30
0.0
 11
486.72116832175118
 21
218.0597298177878
 31
0.0
  0
LINE
  5
4223
  8
AM_0
 10
474.22115832175137
 20
218.0597298177878
 30
0.0
 11
474.22115832175137
 21
208.0597158177878
 31
0.0
  0
LINE
  5
4224
  8
ｶｸﾚｾﾝ2
 10
481.72115832175137
 20
218.0597298177878
 30
0.0
 11
481.72115832175137
 21
208.0597158177878
 31
0.0
  0
ARC
  5
4225
  8
AM_0
 10
475.72115832175137
 20
216.5597298177878
 30
0.0
 40
1.5000000299999969
 50
90.000003000000945
 51
180.00001000000091
  0
ARC
  5
4226
  8
AM_0
 10
544.22115732175143
 20
276.05973181778762
 30
0.0
 40
80.0
 50
238.21169113605279
 51
301.7883088639469
  0
ARC
  5
4227
  8
AM_0
 10
544.22115732175143
 20
224.05972981778791
 30
0.0
 40
6.0000002999999991
 50
176.81527000000071
 51
3.18473600000162
  0
LINE
  5
4228
  8
AM_0
 10
583.22115732175143
 20
209.0597298177878
 30
0.0
 11
544.22115732175143
 21
209.0597298177878
 31
0.0
  0
LINE
  5
4229
  8
AM_0
 10
574.22115732175143
 20
227.5597158177878
 30
0.0
 11
514.22115432175121
 21
227.5597158177878
 31
0.0
  0
ARC
  5
422A
  8
AM_0
 10
524.2211563217511
 20
258.05973181778791
 30
0.0
 40
32.000000999999997
 50
179.9999899999988
 51
225.32174000000111
  0
LINE
  5
422B
  8
AM_0
 10
501.72115632175132
 20
280.55973181778791
 30
0.0
 11
501.72115632175132
 21
221.0597298177878
 31
0.0
  0
CIRCLE
  5
422C
  8
AM_0
 10
520.11208632175135
 20
217.85533981778781
 30
0.0
 40
4.9999998000000003
  0
LINE
  5
422D
  8
AM_0
 10
515.11208532175112
 20
214.96855981778791
 30
0.0
 11
520.11208632175135
 21
212.0818098177879
 31
0.0
  0
LINE
  5
422E
  8
AM_0
 10
520.11211632175116
 20
223.62880681778771
 30
0.0
 11
515.11211532175139
 21
220.74205681778781
 31
0.0
  0
LINE
  5
422F
  8
AM_0
 10
505.22115432175099
 20
209.0597298177878
 30
0.0
 11
544.22115732175143
 21
209.0597298177878
 31
0.0
  0
LINE
  5
4230
  8
AM_0
 10
515.11211532175139
 20
220.74208681778791
 30
0.0
 11
515.11211532175139
 21
214.96855981778791
 31
0.0
  0
LINE
  5
4231
  8
AM_0
 10
509.22115632175098
 20
222.5597298177878
 30
0.0
 11
509.22115632175098
 21
213.55972981778791
 31
0.0
  0
LINE
  5
4232
  8
ﾁｭｳｼﾝｾﾝ1
 10
486.72116832175118
 20
220.9619988177879
 30
0.0
 11
486.72116832175118
 21
205.4511798177879
 31
0.0
  0
ARC
  5
4233
  8
AM_0
 10
498.72115332175127
 20
221.0597298177878
 30
0.0
 40
3.0
 50
270.0
 51
0.0
  0
LINE
  5
4234
  8
AM_0
 10
486.72116832175118
 20
218.0597298177878
 30
0.0
 11
502.22115432175133
 21
218.0597298177878
 31
0.0
  0
LINE
  5
4235
  8
ｶｸﾚｾﾝ2
 10
491.72115432175099
 20
218.0597298177878
 30
0.0
 11
491.72115432175099
 21
208.0597158177878
 31
0.0
  0
LINE
  5
4236
  8
AM_0
 10
504.22115532175093
 20
216.0597288177878
 30
0.0
 11
504.22115532175093
 21
208.0597158177878
 31
0.0
  0
ARC
  5
4237
  8
AM_0
 10
505.22115432175099
 20
208.0597158177878
 30
0.0
 40
1.0000000199999981
 50
90.000003000000945
 51
180.00001000000091
  0
ARC
  5
4238
  8
AM_0
 10
506.22115632175132
 20
213.55972981778791
 30
0.0
 40
3.0
 50
270.0
 51
0.0
  0
ARC
  5
4239
  8
AM_0
 10
502.22115432175133
 20
216.0597288177878
 30
0.0
 40
2.00000007
 50
0.0
 51
90.000003000000945
  0
LINE
  5
423A
  8
AM_0
 10
505.22115432175099
 20
210.5597298177878
 30
0.0
 11
506.22115632175132
 21
210.5597298177878
 31
0.0
  0
ARC
  5
423B
  8
AM_0
 10
505.22115432175099
 20
209.5597158177878
 30
0.0
 40
1.0000000199999981
 50
90.000003000000945
 51
180.00001000000091
  0
ARC
  5
423C
  8
AM_0
 10
514.22115432175121
 20
222.5597298177878
 30
0.0
 40
5.0000001000000003
 50
90.000003000000945
 51
180.00001000000091
  0
LINE
  5
423D
  8
AM_0
 10
525.11208432175135
 20
214.96855981778791
 30
0.0
 11
525.11208432175135
 21
220.74208681778791
 31
0.0
  0
LINE
  5
423E
  8
AM_0
 10
520.11211632175116
 20
212.0818098177879
 30
0.0
 11
525.11211732175104
 21
214.96855981778791
 31
0.0
  0
LINE
  5
423F
  8
AM_0
 10
525.11208432175135
 20
220.74205681778781
 30
0.0
 11
520.11208632175135
 21
223.62880681778771
 31
0.0
  0
ARC
  5
4240
  8
AM_0
 10
535.23504132175128
 20
224.5597158177878
 30
0.0
 40
3.0
 50
356.81526000000002
 51
90.000003000000945
  0
ARC
  5
4241
  8
AM_0
 10
544.22115732175143
 20
276.05973181778762
 30
0.0
 40
60.000002999999992
 50
171.12478999999911
 51
172.44925999999899
  0
ARC
  5
4242
  8
AM_0
 10
564.22114032175136
 20
258.05973181778791
 30
0.0
 40
32.000000999999997
 50
314.67825999999877
 51
0.0
  0
LINE
  5
4243
  8
AM_0
 10
586.72114332175124
 20
280.55973181778791
 30
0.0
 11
586.72114332175124
 21
221.0597298177878
 31
0.0
  0
LINE
  5
4244
  8
AM_0
 10
583.22115732175143
 20
210.5597298177878
 30
0.0
 11
582.22114332175124
 21
210.5597298177878
 31
0.0
  0
LINE
  5
4245
  8
AM_0
 10
579.22114332175124
 20
222.5597298177878
 30
0.0
 11
579.22114332175124
 21
213.55972981778791
 31
0.0
  0
CIRCLE
  5
4246
  8
AM_0
 10
568.33021032175145
 20
217.85533981778781
 30
0.0
 40
4.9999998000000003
  0
LINE
  5
4247
  8
AM_0
 10
563.33019732175126
 20
220.74208681778791
 30
0.0
 11
563.33019732175126
 21
214.96855981778791
 31
0.0
  0
LINE
  5
4248
  8
AM_0
 10
573.33021132175145
 20
214.96855981778791
 30
0.0
 11
573.33021132175145
 21
220.74208681778791
 31
0.0
  0
LINE
  5
4249
  8
AM_0
 10
563.33021232175122
 20
214.96855981778791
 30
0.0
 11
568.33021032175145
 21
212.0818098177879
 31
0.0
  0
LINE
  5
424A
  8
AM_0
 10
568.33021032175145
 20
212.0818098177879
 30
0.0
 11
573.33022632175118
 21
214.96855981778791
 31
0.0
  0
ARC
  5
424B
  8
AM_0
 10
582.22114332175124
 20
213.55972981778791
 30
0.0
 40
3.0
 50
179.9999899999988
 51
270.0
  0
LINE
  5
424C
  8
AM_0
 10
568.3302253217513
 20
223.62882181778781
 30
0.0
 11
563.33021232175122
 21
220.7420718177878
 31
0.0
  0
ARC
  5
424D
  8
AM_0
 10
553.20725532175129
 20
224.5597158177878
 30
0.0
 40
3.0
 50
90.000003000000945
 51
183.18473999999989
  0
ARC
  5
424E
  8
AM_0
 10
574.22115732175143
 20
222.5597298177878
 30
0.0
 40
5.0000001000000003
 50
0.0
 51
90.000003000000945
  0
LINE
  5
424F
  8
AM_0
 10
573.33021132175145
 20
220.74205681778781
 30
0.0
 11
568.33021032175145
 21
223.62880681778771
 31
0.0
  0
LINE
  5
4250
  8
ﾁｭｳｼﾝｾﾝ1
 10
601.72114332175124
 20
220.99156981778791
 30
0.0
 11
601.72114332175124
 21
205.0483908177878
 31
0.0
  0
ARC
  5
4251
  8
AM_0
 10
589.72114332175124
 20
221.0597298177878
 30
0.0
 40
3.0
 50
179.9999899999988
 51
270.0
  0
LINE
  5
4252
  8
AM_0
 10
614.22115932175143
 20
208.0597158177878
 30
0.0
 11
584.22115632175121
 21
208.0597158177878
 31
0.0
  0
LINE
  5
4253
  8
AM_0
 10
601.72114332175124
 20
218.0597298177878
 30
0.0
 11
586.22115732175143
 21
218.0597298177878
 31
0.0
  0
LINE
  5
4254
  8
ｶｸﾚｾﾝ2
 10
596.72115732175121
 20
218.0597298177878
 30
0.0
 11
596.72115732175121
 21
208.0597158177878
 31
0.0
  0
LINE
  5
4255
  8
AM_0
 10
584.22115632175121
 20
208.0597158177878
 30
0.0
 11
584.22115632175121
 21
216.0597288177878
 31
0.0
  0
ARC
  5
4256
  8
AM_0
 10
583.22115732175143
 20
208.0597158177878
 30
0.0
 40
1.0000000199999981
 50
0.0
 51
90.000003000000945
  0
ARC
  5
4257
  8
AM_0
 10
586.22115732175143
 20
216.0597288177878
 30
0.0
 40
2.00000007
 50
90.000003000000945
 51
180.00001000000091
  0
ARC
  5
4258
  8
AM_0
 10
583.22115732175143
 20
209.5597158177878
 30
0.0
 40
1.0000000199999981
 50
0.0
 51
90.000003000000945
  0
LINE
  5
4259
  8
ｶｸﾚｾﾝ2
 10
606.72115932175143
 20
218.0597298177878
 30
0.0
 11
606.72115932175143
 21
208.0597158177878
 31
0.0
  0
LINE
  5
425A
  8
AM_0
 10
614.22115932175143
 20
218.0597298177878
 30
0.0
 11
614.22115932175143
 21
208.0597158177878
 31
0.0
  0
LINE
  5
425B
  8
AM_0
 10
612.72115932175143
 20
218.0597298177878
 30
0.0
 11
601.72114332175124
 21
218.0597298177878
 31
0.0
  0
ARC
  5
425C
  8
AM_0
 10
612.72115932175143
 20
216.5597298177878
 30
0.0
 40
1.5000000299999969
 50
0.0
 51
90.000003000000945
  0
ARC
  5
425D
  8
AM_0
 10
488.46798132175132
 20
300.18628981778772
 30
0.0
 40
5.0000001000000003
 50
74.836354000000071
 51
173.59761999999901
  0
ARC
  5
425E
  8
AM_0
 10
504.22115532175093
 20
306.05973181778791
 30
0.0
 40
20.000000700000001
 50
118.07248000000079
 51
173.59761999999901
  0
ARC
  5
425F
  8
AM_0
 10
544.22115732175143
 20
276.05973181778762
 30
0.0
 40
60.000002999999992
 50
48.330845000001858
 51
131.66915000000051
  0
ARC
  5
4260
  8
AM_0
 10
544.22115732175143
 20
231.0597288177878
 30
0.0
 40
105.00000299999969
 50
61.927515000000632
 51
118.07248000000079
  0
LINE
  5
4261
  8
ﾁｭｳｼﾝｾﾝ1
 10
518.47188732175141
 20
293.05973281778768
 30
0.0
 11
568.88157132175138
 21
293.05973281778768
 31
0.0
  0
ARC
  5
4262
  8
AM_0
 10
506.48751132175153
 20
323.66737681778773
 30
0.0
 40
5.0000001000000003
 50
112.16879999999991
 51
210.1577899999985
  0
ARC
  5
4263
  8
AM_0
 10
492.65319132175119
 20
315.62920681778792
 30
0.0
 40
11.000000399999999
 50
254.8363599999997
 51
30.15779499999946
  0
ARC
  5
4264
  8
AM_0
 10
544.22115732175143
 20
276.05973181778762
 30
0.0
 40
60.000002999999992
 50
153.33084999999789
 51
170.94545999999971
  0
ARC
  5
4265
  8
AM_0
 10
493.28521032175109
 20
301.64347381778782
 30
0.0
 40
3.0
 50
92.587449000000944
 51
153.33084999999789
  0
ARC
  5
4266
  8
AM_0
 10
497.22115332175139
 20
300.29514481778767
 30
0.0
 40
5.0000001000000003
 50
106.5886099999996
 51
180.00001000000091
  0
LINE
  5
4267
  8
AM_0
 10
499.2398623217511
 20
317.29843681778772
 30
0.0
 11
494.23989132175137
 21
320.18518681778772
 31
0.0
  0
LINE
  5
4268
  8
AM_0
 10
494.23989132175137
 20
320.18521681778782
 30
0.0
 11
489.23989332175131
 21
317.29846681778793
 31
0.0
  0
CIRCLE
  5
4269
  8
AM_0
 10
494.23989132175137
 20
314.41168681778782
 30
0.0
 40
4.9999998000000003
  0
LINE
  5
426A
  8
AM_0
 10
489.23989332175131
 20
311.52494281778769
 30
0.0
 11
494.23989132175137
 21
308.63819281778768
 31
0.0
  0
LINE
  5
426B
  8
AM_0
 10
489.23989332175131
 20
317.29843681778772
 30
0.0
 11
489.23989332175131
 21
311.52494281778769
 31
0.0
  0
LINE
  5
426C
  8
AM_0
 10
499.23989232175097
 20
311.52494281778769
 30
0.0
 11
499.23989232175097
 21
317.29843681778772
 31
0.0
  0
LINE
  5
426D
  8
AM_0
 10
494.23989132175137
 20
308.63822281778772
 30
0.0
 11
499.23989232175097
 21
311.52497281778773
 31
0.0
  0
ARC
  5
426E
  8
AM_0
 10
506.3259523217514
 20
318.6385068177878
 30
0.0
 40
3.0
 50
131.66915000000051
 51
192.41255000000001
  0
CIRCLE
  5
426F
  8
AM_4
 10
544.22115732175143
 20
293.05973281778768
 30
0.0
 40
3.0
  0
CIRCLE
  5
4270
  8
AM_0
 10
544.22115732175143
 20
293.05973281778768
 30
0.0
 40
2.4999998400000001
  0
LINE
  5
4271
  8
AM_0
 10
547.22115732175143
 20
305.05973281778768
 30
0.0
 11
541.22115732175143
 21
305.05973281778768
 31
0.0
  0
LINE
  5
4272
  8
AM_0
 10
541.22115732175143
 20
299.05973281778768
 30
0.0
 11
547.22115732175143
 21
299.05973281778768
 31
0.0
  0
LINE
  5
4273
  8
AM_0
 10
541.22115732175143
 20
305.05973281778768
 30
0.0
 11
541.22115732175143
 21
299.05973281778768
 31
0.0
  0
LINE
  5
4274
  8
AM_0
 10
547.22115732175143
 20
299.05973281778768
 30
0.0
 11
547.22115732175143
 21
305.05973281778768
 31
0.0
  0
ARC
  5
4275
  8
AM_0
 10
581.95480032175135
 20
323.66737681778773
 30
0.0
 40
5.0000001000000003
 50
329.84219999999971
 51
67.83120300000104
  0
ARC
  5
4276
  8
AM_0
 10
595.78912032175128
 20
315.62920681778792
 30
0.0
 40
11.000000399999999
 50
149.8422100000013
 51
285.1636500000007
  0
ARC
  5
4277
  8
AM_0
 10
544.22115732175143
 20
276.05973181778762
 30
0.0
 40
60.000002999999992
 50
9.0545419000017677
 51
26.669156999999409
  0
ARC
  5
4278
  8
AM_0
 10
599.97434832175145
 20
300.18628981778772
 30
0.0
 40
5.0000001000000003
 50
6.4023797999986547
 51
105.1636400000002
  0
ARC
  5
4279
  8
AM_0
 10
595.15711632175135
 20
301.64347381778782
 30
0.0
 40
3.0
 50
26.669156999999409
 51
87.412548999999331
  0
ARC
  5
427A
  8
AM_0
 10
591.22114332175124
 20
300.29514481778767
 30
0.0
 40
5.0000001000000003
 50
0.0
 51
73.411384999998205
  0
ARC
  5
427B
  8
AM_0
 10
584.22115632175121
 20
306.05973181778791
 30
0.0
 40
20.000000700000001
 50
6.4023797999986547
 51
61.927515000000632
  0
LINE
  5
427C
  8
AM_0
 10
599.20240332175115
 20
317.29843681778772
 30
0.0
 11
594.20240532175126
 21
320.18518681778772
 31
0.0
  0
LINE
  5
427D
  8
AM_0
 10
594.20242032175122
 20
320.18518681778772
 30
0.0
 11
589.20241932175122
 21
317.29843681778772
 31
0.0
  0
CIRCLE
  5
427E
  8
AM_0
 10
594.20240532175126
 20
314.41168681778782
 30
0.0
 40
4.9999998000000003
  0
LINE
  5
427F
  8
AM_0
 10
589.20240432175137
 20
311.52494281778769
 30
0.0
 11
594.20240532175126
 21
308.63819281778768
 31
0.0
  0
LINE
  5
4280
  8
AM_0
 10
589.20240432175137
 20
317.29843681778772
 30
0.0
 11
589.20240432175137
 21
311.52494281778769
 31
0.0
  0
LINE
  5
4281
  8
AM_0
 10
599.20242132175099
 20
311.52494281778769
 30
0.0
 11
599.20242132175099
 21
317.29843681778772
 31
0.0
  0
LINE
  5
4282
  8
AM_0
 10
594.20242032175122
 20
308.63819281778768
 30
0.0
 11
599.20242132175099
 21
311.52494281778769
 31
0.0
  0
ARC
  5
4283
  8
AM_0
 10
582.11635932175125
 20
318.6385068177878
 30
0.0
 40
3.0
 50
347.58744999999982
 51
48.330845000001858
  0
LINE
  5
4284
  8
0
 10
254.87423860130841
 20
399.5696879691028
 30
0.0
 11
254.87423860130841
 21
559.56968796910292
 31
0.0
1001
GENIUS_GENOREF_13
1005
3D2C
  0
LINE
  5
4285
  8
0
 10
264.87423860130832
 20
557.56968796910292
 30
0.0
 11
264.87423860130832
 21
401.56968796910269
 31
0.0
1001
GENIUS_GENOREF_13
1005
3D2C
  0
LINE
  5
4286
  8
0
 10
254.87423860130841
 20
399.5696879691028
 30
0.0
 11
262.87423860130832
 21
399.5696879691028
 31
0.0
  0
ARC
  5
4287
  8
0
 10
262.87423860130832
 20
401.56968796910269
 30
0.0
 40
2.0
 50
270.0
 51
0.0
1001
GENIUS_GENOBJ-N-FIL_13
1002
{
1000
OWNER
1000
GEN
1002
}
1001
GENIUS_GENODEF_13
1002
{
1000
HIER
1070
     0
1002
}
1002
{
1000
MANEDIT
1070
     0
1002
}
1002
{
1000
NOSEL
1070
     0
1002
}
1002
{
1000
BEHIND
1070
     0
1002
}
1002
{
1000
OTHER
1070
     0
1002
}
1002
{
1000
REACTOR
1002
}
  0
LINE
  5
4288
  8
0
 10
266.80443960790342
 20
422.40375591420019
 30
0.0
 11
285.87423860130832
 21
423.0696879691028
 31
0.0
  0
ARC
  5
4289
  8
0
 10
266.87423860130832
 20
420.40497426016191
 30
0.0
 40
2.0
 50
92.000000000000341
 51
180.0
1001
GENIUS_GENOBJ-N-FIL_13
1002
{
1000
OWNER
1000
GEN
1002
}
1001
GENIUS_GENODEF_13
1002
{
1000
HIER
1070
     0
1002
}
1002
{
1000
MANEDIT
1070
     0
1002
}
1002
{
1000
NOSEL
1070
     0
1002
}
1002
{
1000
BEHIND
1070
     0
1002
}
1002
{
1000
OTHER
1070
     0
1002
}
1002
{
1000
REACTOR
1002
}
  0
LINE
  5
428A
  8
AM_0
 10
285.87423860130832
 20
447.63224596910311
 30
0.0
 11
264.87423860130832
 21
447.63224596910311
 31
0.0
  0
LINE
  5
428B
  8
AM_0
 10
285.87423860130832
 20
433.56967096910302
 30
0.0
 11
264.87423860130832
 21
433.56967096910302
 31
0.0
  0
LINE
  5
428C
  8
AM_0
 10
285.87423860130832
 20
511.50712696910279
 30
0.0
 11
264.87423860130832
 21
511.50712696910279
 31
0.0
  0
LINE
  5
428D
  8
0
 10
254.87423860130841
 20
559.56968796910292
 30
0.0
 11
262.87423860130832
 21
559.56968796910292
 31
0.0
  0
ARC
  5
428E
  8
0
 10
266.87423860130832
 20
538.73440167804381
 30
0.0
 40
2.0
 50
180.0
 51
267.9999999999996
1001
GENIUS_GENOBJ-N-FIL_13
1002
{
1000
OWNER
1000
GEN
1002
}
1001
GENIUS_GENODEF_13
1002
{
1000
HIER
1070
     0
1002
}
1002
{
1000
MANEDIT
1070
     0
1002
}
1002
{
1000
NOSEL
1070
     0
1002
}
1002
{
1000
BEHIND
1070
     0
1002
}
1002
{
1000
OTHER
1070
     0
1002
}
1002
{
1000
REACTOR
1002
}
  0
LINE
  5
428F
  8
0
 10
266.80443960790342
 20
536.7356200240057
 30
0.0
 11
285.87423860130832
 21
536.06968796910292
 31
0.0
  0
LINE
  5
4290
  8
AM_0
 10
285.87423860130832
 20
525.56968696910315
 30
0.0
 11
264.87423860130832
 21
525.56968696910315
 31
0.0
  0
ARC
  5
4291
  8
0
 10
262.87423860130832
 20
557.56968796910292
 30
0.0
 40
2.0
 50
0.0
 51
90.0
1001
GENIUS_GENOBJ-N-FIL_13
1002
{
1000
OWNER
1000
GEN
1002
}
1001
GENIUS_GENODEF_13
1002
{
1000
HIER
1070
     0
1002
}
1002
{
1000
MANEDIT
1070
     0
1002
}
1002
{
1000
NOSEL
1070
     0
1002
}
1002
{
1000
BEHIND
1070
     0
1002
}
1002
{
1000
OTHER
1070
     0
1002
}
1002
{
1000
REACTOR
1002
}
  0
TEXT
  5
451E
  8
AM_0
 10
469.9895381715109
 20
482.97179766941258
 30
0.0
 40
10.0
  1
VX02-003A~VX02-030A
  0
ENDSEC
  0
EOF
