  0
SECTION
  2
HEADER
  9
$ACADVER
  1
AC1009
  9
$INSBASE
 10
0.0
 20
0.0
 30
0.0
  9
$EXTMIN
 10
220.58995280553339
 20
198.34320934469059
 30
-0.0000000349181948
  9
$EXTMAX
 10
657.58934959849512
 20
584.48904376148766
 30
0.0000000814935747
  9
$LIMMIN
 10
0.0
 20
0.0
  9
$LIMMAX
 10
853.5
 20
555.00000000000011
  9
$ORTHOMODE
 70
     0
  9
$REGENMODE
 70
     1
  9
$FILLMODE
 70
     1
  9
$QTEXTMODE
 70
     0
  9
$MIRRTEXT
 70
     1
  9
$DRAGMODE
 70
     2
  9
$LTSCALE
 40
3.0
  9
$OSMODE
 70
   551
  9
$ATTMODE
 70
     1
  9
$TEXTSIZE
 40
2.5
  9
$TRACEWID
 40
1.0
  9
$TEXTSTYLE
  7
STANDARD
  9
$CLAYER
  8
AM_0
  9
$CELTYPE
  6
BYLAYER
  9
$CECOLOR
 62
   256
  9
$DIMSCALE
 40
1.0
  9
$DIMASZ
 40
2.5
  9
$DIMEXO
 40
1.0
  9
$DIMDLI
 40
8.0
  9
$DIMRND
 40
0.0
  9
$DIMDLE
 40
0.0
  9
$DIMEXE
 40
0.6
  9
$DIMTP
 40
0.1
  9
$DIMTM
 40
0.1
  9
$DIMTXT
 40
2.5
  9
$DIMCEN
 40
0.0
  9
$DIMTSZ
 40
0.0
  9
$DIMTOL
 70
     0
  9
$DIMLIM
 70
     0
  9
$DIMTIH
 70
     0
  9
$DIMTOH
 70
     0
  9
$DIMSE1
 70
     0
  9
$DIMSE2
 70
     0
  9
$DIMTAD
 70
     1
  9
$DIMZIN
 70
     8
  9
$DIMBLK
  1

  9
$DIMASO
 70
     1
  9
$DIMSHO
 70
     1
  9
$DIMPOST
  1

  9
$DIMAPOST
  1
"
  9
$DIMALT
 70
     0
  9
$DIMALTD
 70
     2
  9
$DIMALTF
 40
0.0393701
  9
$DIMLFAC
 40
1.0
  9
$DIMTOFL
 70
     1
  9
$DIMTVP
 40
0.0
  9
$DIMTIX
 70
     0
  9
$DIMSOXD
 70
     0
  9
$DIMSAH
 70
     0
  9
$DIMBLK1
  1

  9
$DIMBLK2
  1

  9
$DIMSTYLE
  2
AM_ISO
  9
$DIMCLRD
 70
   256
  9
$DIMCLRE
 70
   256
  9
$DIMCLRT
 70
     4
  9
$DIMTFAC
 40
0.71
  9
$DIMGAP
 40
0.8
  9
$LUNITS
 70
     2
  9
$LUPREC
 70
     2
  9
$SKETCHINC
 40
1.0
  9
$FILLETRAD
 40
15.0
  9
$AUNITS
 70
     0
  9
$AUPREC
 70
     0
  9
$MENU
  1
.
  9
$ELEVATION
 40
0.0
  9
$PELEVATION
 40
0.0
  9
$THICKNESS
 40
0.0
  9
$LIMCHECK
 70
     0
  9
$BLIPMODE
 70
     0
  9
$CHAMFERA
 40
6.0
  9
$CHAMFERB
 40
3.0
  9
$SKPOLY
 70
     0
  9
$TDCREATE
 40
2452065.7341532758
  9
$TDUPDATE
 40
2458541.4658097229
  9
$TDINDWG
 40
0.0628729861
  9
$TDUSRTIMER
 40
0.062872963
  9
$USRTIMER
 70
     1
  9
$ANGBASE
 50
0.0
  9
$ANGDIR
 70
     0
  9
$PDMODE
 70
     0
  9
$PDSIZE
 40
0.0
  9
$PLINEWID
 40
0.0
  9
$COORDS
 70
     1
  9
$SPLFRAME
 70
     0
  9
$SPLINETYPE
 70
     6
  9
$SPLINESEGS
 70
     8
  9
$ATTDIA
 70
     1
  9
$ATTREQ
 70
     1
  9
$HANDLING
 70
     1
  9
$HANDSEED
  5
33B6
  9
$SURFTAB1
 70
     6
  9
$SURFTAB2
 70
     6
  9
$SURFTYPE
 70
     6
  9
$SURFU
 70
     6
  9
$SURFV
 70
     6
  9
$UCSNAME
  2

  9
$UCSORG
 10
0.0
 20
0.0
 30
0.0
  9
$UCSXDIR
 10
1.0
 20
0.0
 30
0.0
  9
$UCSYDIR
 10
0.0
 20
1.0
 30
0.0
  9
$PUCSNAME
  2

  9
$PUCSORG
 10
0.0
 20
0.0
 30
0.0
  9
$PUCSXDIR
 10
1.0
 20
0.0
 30
0.0
  9
$PUCSYDIR
 10
0.0
 20
1.0
 30
0.0
  9
$USERI1
 70
     0
  9
$USERI2
 70
     0
  9
$USERI3
 70
     0
  9
$USERI4
 70
     0
  9
$USERI5
 70
     0
  9
$USERR1
 40
0.0
  9
$USERR2
 40
0.0
  9
$USERR3
 40
0.0
  9
$USERR4
 40
0.0
  9
$USERR5
 40
0.0
  9
$WORLDVIEW
 70
     1
  9
$SHADEDGE
 70
     3
  9
$SHADEDIF
 70
    70
  9
$TILEMODE
 70
     1
  9
$MAXACTVP
 70
    64
  9
$PLIMCHECK
 70
     0
  9
$PEXTMIN
 10
1.0000000000000000E+020
 20
1.0000000000000000E+020
 30
1.0000000000000000E+020
  9
$PEXTMAX
 10
-1.0000000000000000E+020
 20
-1.0000000000000000E+020
 30
-1.0000000000000000E+020
  9
$PLIMMIN
 10
0.0
 20
0.0
  9
$PLIMMAX
 10
420.0
 20
297.0
  9
$UNITMODE
 70
     0
  9
$VISRETAIN
 70
     1
  9
$PLINEGEN
 70
     0
  9
$PSLTSCALE
 70
     1
  0
ENDSEC
  0
SECTION
  2
TABLES
  0
TABLE
  2
VPORT
 70
     1
  0
VPORT
  2
*ACTIVE
 70
     0
 10
0.0
 20
0.0
 11
1.0
 21
1.0
 12
439.08965120201429
 22
391.4161265530891
 13
0.0
 23
0.0
 14
7.5
 24
7.5
 15
30.0
 25
30.0
 16
0.0
 26
0.0
 36
1.0
 17
0.0
 27
0.0
 37
0.0
 40
388.79672115192369
 41
1.7571592210767459
 42
50.0
 43
0.0
 44
0.0
 50
0.0
 51
0.0
 71
     0
 72
   100
 73
     1
 74
     3
 75
     0
 76
     0
 77
     0
 78
     0
  0
ENDTAB
  0
TABLE
  2
LTYPE
 70
    26
  0
LTYPE
  2
CONTINUOUS
 70
     0
  3
Solid line
 72
    65
 73
     0
 40
0.0
  0
LTYPE
  2
AM_ISO02W050
 70
     0
  3
__ __ __ __ __ __ __ __ __ __ __ __ __ __ __
 72
    65
 73
     2
 40
7.5
 49
6.0
 49
-1.5
  0
LTYPE
  2
AM_ISO08W050
 70
     0
  3
____ . ____ . ____ . ____ . ____ . ____ . ____
 72
    65
 73
     4
 40
18.0
 49
12.0
 49
-1.5
 49
3.0
 49
-1.5
  0
LTYPE
  2
AM_ISO09W050
 70
     0
  3
_____ . . _____ . . _____ . . ____ .. ____
 72
    65
 73
     6
 40
22.5
 49
12.0
 49
-1.5
 49
3.0
 49
-1.5
 49
3.0
 49
-1.5
  0
LTYPE
  2
AMCONSTR
 70
     0
  3
_______________________
 72
    65
 73
     2
 40
9999.0
 49
9999.0
 49
0.0
  0
LTYPE
  2
AM_ISO08W050X2
 70
     0
  3
__ . __ . __ . __ . __ . __
 72
    65
 73
     4
 40
9.0
 49
6.0
 49
-0.75
 49
1.5
 49
-0.75
  0
LTYPE
  2
AM_ISO02W050X2
 70
     0
  3
 _ _ _ _ _ _ _ _ _ _ _ _
 72
    65
 73
     2
 40
3.75
 49
3.0
 49
-0.75
  0
LTYPE
  2
AMZIGZAG
 70
     0
  3
/\/-/\/-/\/-/\/-/\/-/\/
 72
    65
 73
     2
 40
11.000099999999991
 49
0.0001
 49
-11.0
  0
LTYPE
  2
ACISOWELD
 70
     0
  3
_ _ _ _ _
 72
    65
 73
     2
 40
2.0
 49
2.0
 49
-1.0
  0
LTYPE
  2
ACISOTGB
 70
     0
  3
__ . . __ . .
 72
    65
 73
     6
 40
9.0
 49
4.0
 49
-1.0
 49
1.0
 49
-1.0
 49
1.0
 49
-1.0
  0
LTYPE
  2
ACISOTGL
 70
     0
  3
_ _ _ _ _
 72
    65
 73
     2
 40
3.0
 49
2.0
 49
-1.0
  0
LTYPE
  2
CENTER
 70
     0
  3
__ . __
 72
    65
 73
     4
 40
7.0
 49
4.0
 49
-1.0
 49
1.0
 49
-1.0
  0
LTYPE
  2
PHANTOM2
 70
     0
  3
Phantom (.5x) ___ _ _ ___ _ _ ___ _ _ ___ _ _
 72
    65
 73
     6
 40
31.75
 49
15.875
 49
-3.174999999999998
 49
3.174999999999998
 49
-3.174999999999998
 49
3.174999999999998
 49
-3.174999999999998
  0
LTYPE
  2
ACANSTGBM
 70
     0
  3
__ . . __ . .
 72
    65
 73
     6
 40
9.0
 49
4.0
 49
-1.0
 49
1.0
 49
-1.0
 49
1.0
 49
-1.0
  0
LTYPE
  2
ACANSTGLM
 70
     0
  3
_ _ _ _ _
 72
    65
 73
     2
 40
3.0
 49
2.0
 49
-1.0
  0
LTYPE
  2
GEN3B
 70
     0
  3
 - - - - -
 72
    65
 73
     2
 40
1.0
 49
0.5
 49
-0.5
  0
LTYPE
  2
GEN7A
 70
     0
  3
__ . __ . __
 72
    65
 73
     4
 40
7.375
 49
4.75
 49
-0.875
 49
0.875
 49
-0.875
  0
LTYPE
  2
ACJISTGB
 70
     0
  3
__ . . __ . .
 72
    65
 73
     6
 40
9.0
 49
4.0
 49
-1.0
 49
1.0
 49
-1.0
 49
1.0
 49
-1.0
  0
LTYPE
  2
ACJISTGL
 70
     0
  3
_ _ _ _ _
 72
    65
 73
     2
 40
3.0
 49
2.0
 49
-1.0
  0
LTYPE
  2
HIDDEN
 70
     0
  3
Hidden __ __ __ __ __ __ __ __ __ __ __ __ __ _
 72
    65
 73
     2
 40
0.375
 49
0.25
 49
-0.125
  0
LTYPE
  2
CENTER2
 70
     0
  3
Center (.5x) ___ _ ___ _ ___ _ ___ _ ___ _ ___
 72
    65
 73
     4
 40
1.125
 49
0.75
 49
-0.125
 49
0.125
 49
-0.125
  0
LTYPE
  2
HIDDEN2
 70
     0
  3
Hidden (.5x) _ _ _ _ _ _ _ _ _ _ _ _ _ _ _ _ _
 72
    65
 73
     2
 40
0.1875
 49
0.125
 49
-0.0625
  0
LTYPE
  2
AMZIGZAG2
 70
     0
  3
/\/-/\/-/\/-/\/-/\/-/\/
 72
    65
 73
     2
 40
0.4401
 49
0.0001
 49
-0.4400000000000002
  0
LTYPE
  2
ACANSTGB
 70
     0
  3
__ . . __ . .
 72
    65
 73
     6
 40
0.35433070866
 49
0.15748031496
 49
-0.03937007874
 49
0.03937007874
 49
-0.03937007874
 49
0.03937007874
 49
-0.03937007874
  0
LTYPE
  2
ACANSTGL
 70
     0
  3
_ _ _ _ _
 72
    65
 73
     2
 40
0.11811023622
 49
0.07874015748
 49
-0.03937007874
  0
ENDTAB
  0
TABLE
  2
LAYER
 70
     5
  0
LAYER
  2
0
 70
     0
 62
     7
  6
CONTINUOUS
  0
LAYER
  2
AM_0
 70
     0
 62
     7
  6
CONTINUOUS
  0
LAYER
  2
DEFPOINTS
 70
     0
 62
     7
  6
CONTINUOUS
  0
LAYER
  2
ｶｸﾚｾﾝ2
 70
     0
 62
     3
  6
GEN3B
  0
LAYER
  2
ﾁｭｳｼﾝｾﾝ1
 70
     0
 62
     1
  6
GEN7A
  0
ENDTAB
  0
TABLE
  2
STYLE
 70
     9
  0
STYLE
  2
STANDARD
 70
     0
 40
0.0
 41
0.8299999999999999
 50
0.0
 71
     0
 42
2.5
  3
txt.shx
  4
bigfont.shx
  0
STYLE
  2
ANNOTATIVE
 70
     0
 40
0.0
 41
1.0
 50
0.0
 71
     0
 42
0.2
  3
txt
  4

  0
STYLE
  2

 70
     1
 40
0.0
 41
1.0
 50
0.0
 71
     0
 42
2.5
  3
ltypeshp.shx
  4

  0
STYLE
  2
ACISOTS
 70
     0
 40
1.0
 41
1.0
 50
0.0
 71
     0
 42
2.5
  3
isocp.shx
  4
extfont.shx
  0
STYLE
  2
ACISOGDT
 70
     0
 40
0.0
 41
1.0
 50
0.0
 71
     0
 42
2.5
  3
amgdt.shx
  4

  0
STYLE
  2
ACANSTS
 70
     0
 40
1.0
 41
1.0
 50
0.0
 71
     0
 42
2.5
  3
romans.shx
  4
bigfont.shx
  0
STYLE
  2
ACANSGDT
 70
     0
 40
0.0
 41
1.0
 50
0.0
 71
     0
 42
2.5
  3
amgdt.shx
  4

  0
STYLE
  2
ACJISTS
 70
     0
 40
1.0
 41
1.0
 50
0.0
 71
     0
 42
2.5
  3
isocp.shx
  4
bigfont.shx
  0
STYLE
  2
ACJISGDT
 70
     0
 40
0.0
 41
1.0
 50
0.0
 71
     0
 42
2.5
  3
amgdt.shx
  4

  0
ENDTAB
  0
TABLE
  2
VIEW
 70
     6
  0
VIEW
  2
AM_VIEW1
 70
     0
 40
277.49999999999989
 10
249.64779005524849
 20
416.24999999999989
 41
499.2955801104971
 11
0.0
 21
0.0
 31
1.0
 12
0.0
 22
0.0
 32
0.0
 42
50.0
 43
0.0
 44
0.0
 50
0.0
 71
     0
  0
VIEW
  2
AM_VIEW2
 70
     0
 40
277.49999999999989
 10
603.85220994475117
 20
416.24999999999989
 41
499.2955801104971
 11
0.0
 21
0.0
 31
1.0
 12
0.0
 22
0.0
 32
0.0
 42
50.0
 43
0.0
 44
0.0
 50
0.0
 71
     0
  0
VIEW
  2
AM_VIEW3
 70
     0
 40
277.49999999999989
 10
249.64779005524849
 20
138.7499999999998
 41
499.2955801104971
 11
0.0
 21
0.0
 31
1.0
 12
0.0
 22
0.0
 32
0.0
 42
50.0
 43
0.0
 44
0.0
 50
0.0
 71
     0
  0
VIEW
  2
AM_VIEW4
 70
     0
 40
277.49999999999989
 10
603.85220994475117
 20
138.7499999999998
 41
499.2955801104971
 11
0.0
 21
0.0
 31
1.0
 12
0.0
 22
0.0
 32
0.0
 42
50.0
 43
0.0
 44
0.0
 50
0.0
 71
     0
  0
VIEW
  2
AM_VIEW5
 70
     0
 40
277.5
 10
426.75
 20
277.49999999999989
 41
499.2955801104971
 11
0.0
 21
0.0
 31
1.0
 12
0.0
 22
0.0
 32
0.0
 42
50.0
 43
0.0
 44
0.0
 50
0.0
 71
     0
  0
VIEW
  2
AM_VIEW6
 70
     0
 40
554.99445000000014
 10
426.75
 20
277.49999999999989
 41
998.5811743093924
 11
0.0
 21
0.0
 31
1.0
 12
0.0
 22
0.0
 32
0.0
 42
50.0
 43
0.0
 44
0.0
 50
0.0
 71
     0
  0
ENDTAB
  0
TABLE
  2
UCS
 70
     0
  0
ENDTAB
  0
TABLE
  2
APPID
 70
    95
  0
APPID
  2
ACAD
 70
     0
  0
APPID
  2
ACADANNOTATIVE
 70
     0
  0
APPID
  2
MCAD_NO_VIS
 70
     0
  0
APPID
  2
ACAD_TEMP_GRAPHIC
 70
     0
  0
APPID
  2
ACATTRIBSERVICES
 70
     0
  0
APPID
  2
GENIUS_GENREC_14
 70
     0
  0
APPID
  2
GENIUS_GENOBJ-N-REC_13
 70
     0
  0
APPID
  2
GENIUS_GENODEF_13
 70
     0
  0
APPID
  2
GENIUS_GENOLIS_13
 70
     0
  0
APPID
  2
GENIUS_GENOBJ-N-TIT_13
 70
     0
  0
APPID
  2
GENIUS_GENOENT_13
 70
     0
  0
APPID
  2
GENIUS_GENTITLE_13
 70
     0
  0
APPID
  2
GENIUS_GENOREF_13
 70
     0
  0
APPID
  2
GENIUS_GENSCREG_15
 70
     0
  0
APPID
  2
GENIUS_GENOBJ-N-SDF_13
 70
     0
  0
APPID
  2
GENIUS_GENFIL_13
 70
     0
  0
APPID
  2
GENIUS_GENOBJ-N-CHA_13
 70
     0
  0
APPID
  2
GENIUS_GENDTOL_13
 70
     0
  0
APPID
  2
GENIUS_GENOBJ-N-FIL_13
 70
     0
  0
APPID
  2
AD_DRAW
 70
     0
  0
APPID
  2
DESIGNERASSEMBLIES
 70
     0
  0
APPID
  2
ASURF_PCURVE_APPNAME
 70
     0
  0
APPID
  2
GENIUS_GE3SECT_13
 70
     0
  0
APPID
  2
GENIUS_GENCFG_13
 70
     0
  0
APPID
  2
GENIUS_GE3CFG0_13
 70
     0
  0
APPID
  2
GENIUS_GENCFG0_13
 70
     0
  0
APPID
  2
GENIUS_GENCFG1_13
 70
     0
  0
APPID
  2
GENIUS_GENCFG2_13
 70
     0
  0
APPID
  2
GENIUS_GENCFG3_13
 70
     0
  0
APPID
  2
GENIUS_GENCFG4_13
 70
     0
  0
APPID
  2
GENIUS_GEVCFG0_13
 70
     0
  0
APPID
  2
GENIUS_GENHINW_13
 70
     0
  0
APPID
  2
GENIUS_FIRSTVISTXT_14
 70
     0
  0
APPID
  2
GENIUS_GENOBJ-N-LEADER_13
 70
     0
  0
APPID
  2
GEV_VCCNULL_SWITCH_OFF
 70
     0
  0
APPID
  2
GENIUS_GEFCFG0_13
 70
     0
  0
APPID
  2
GENIUS_GENZVEED_13
 70
     0
  0
APPID
  2
GENIUS_GENSCREG_13
 70
     0
  0
APPID
  2
GENIUS_DUMCFG0_13
 70
     0
  0
APPID
  2
GEVID936201362
 70
     0
  0
APPID
  2
GEVDC
 70
     0
  0
APPID
  2
GEVCON
 70
     0
  0
APPID
  2
VCC
 70
     0
  0
APPID
  2
GEVPT
 70
     0
  0
APPID
  2
GEVIT
 70
     0
  0
APPID
  2
GENBH
 70
     0
  0
APPID
  2
GEVMK
 70
     0
  0
APPID
  2
GENIUS_GENBH_13
 70
     0
  0
APPID
  2
GENIUS_GENOBJ-NBEHI-BHF_13
 70
     0
  0
APPID
  2
GENIUS_GENOBJ-NBEHI-BHB_13
 70
     0
  0
APPID
  2
GENIUS_GENOBJ-F-DESC_13
 70
     0
  0
APPID
  2
GENIUS_GEFDESC_14
 70
     0
  0
APPID
  2
GENIUS_GENOBJ-F-PART_13
 70
     0
  0
APPID
  2
GENIUS_GEFSTDP_13
 70
     0
  0
APPID
  2
GENIUS_GEFPARTINS_13
 70
     0
  0
APPID
  2
GENIUS_GENTRA_14
 70
     0
  0
APPID
  2
GENIUS_GENINF13_13
 70
     0
  0
APPID
  2
GENIUS_GENOBJ-N-INFOPT_13
 70
     0
  0
APPID
  2
GENIUS_GENOBJ-N-RSSYM_13
 70
     0
  0
APPID
  2
GENIUS_GENSYMENT_13
 70
     0
  0
APPID
  2
GENIUS_GENSCSYM_13
 70
     0
  0
APPID
  2
GENIUS_GEFINFNAM_13
 70
     0
  0
APPID
  2
GENIUS_GENOBJ-N-CEN_13
 70
     0
  0
APPID
  2
GENIUS_GENOBJ-N-CRS_13
 70
     0
  0
APPID
  2
GENIUS_GENOBJ-N-CRC_13
 70
     0
  0
APPID
  2
GENIUS_GENCRC_14
 70
     0
  0
APPID
  2
GEVID942827039
 70
     0
  0
APPID
  2
GEVID942827040
 70
     0
  0
APPID
  2
GEVID942827041
 70
     0
  0
APPID
  2
GENIUS_GENOBJ-F-SCPASSM_13
 70
     0
  0
APPID
  2
GENIUS_GENDIMSH_14
 70
     0
  0
APPID
  2
GEVID942827042
 70
     0
  0
APPID
  2
GEVID946020473
 70
     0
  0
APPID
  2
GEVID946020474
 70
     0
  0
APPID
  2
GEVID946020475
 70
     0
  0
APPID
  2
GENIUS_GENOBJ-N-HTC_13
 70
     0
  0
APPID
  2
GENIUS_GENHATCH_13
 70
     0
  0
APPID
  2
GEVID948854295
 70
     0
  0
APPID
  2
GEVID939402019
 70
     0
  0
APPID
  2
GEVID952919491
 70
     0
  0
APPID
  2
GEVID952919492
 70
     0
  0
APPID
  2
GENIUS_GEFWELD_13
 70
     0
  0
APPID
  2
GENIUS_GENOBJ-F-WELS_13
 70
     0
  0
APPID
  2
GEVID952919493
 70
     0
  0
APPID
  2
GENIUS_GENOBJ-N-RSBK_13
 70
     0
  0
APPID
  2
GENIUS_GENOBJ-N-LIB_13
 70
     0
  0
APPID
  2
GENIUS_GENSCALE_13
 70
     0
  0
APPID
  2
GEVID986376691
 70
     0
  0
APPID
  2
DCO15
 70
     0
  0
APPID
  2
ACAD_DSTYLE_DIMBREAK
 70
     0
  0
APPID
  2
ACAD_DSTYLE_DIMJAG
 70
     0
  0
APPID
  2
ACAD_NAV_VCDISPLAY
 70
     0
  0
APPID
  2
ACADANNOPO
 70
     0
  0
APPID
  2
ACAD_EXEMPT_FROM_CAD_STANDARDS
 70
     0
  0
APPID
  2
ACAD_MLEADERVER
 70
     0
  0
ENDTAB
  0
TABLE
  2
DIMSTYLE
 70
    22
  0
DIMSTYLE
  2
STANDARD
 70
     0
  3

  4

  5

  6

  7

 40
1.0
 41
0.18
 42
0.0625
 43
0.38
 44
0.18
 45
0.0
 46
0.0
 47
0.0
 48
0.0
140
0.18
141
0.09
142
0.0
143
25.399999999999999
144
1.0
145
0.0
146
1.0
147
0.09
 71
     0
 72
     0
 73
     1
 74
     1
 75
     0
 76
     0
 77
     0
 78
     0
170
     0
171
     2
172
     0
173
     0
174
     0
175
     0
176
     0
177
     0
178
     0
  0
DIMSTYLE
  2
ANNOTATIVE
 70
     0
  3

  4

  5

  6

  7

 40
1.0
 41
0.18
 42
0.0625
 43
0.38
 44
0.18
 45
0.0
 46
0.0
 47
0.0
 48
0.0
140
0.18
141
0.09
142
0.0
143
25.399999999999999
144
1.0
145
0.0
146
1.0
147
0.09
 71
     0
 72
     0
 73
     1
 74
     1
 75
     0
 76
     0
 77
     0
 78
     0
170
     0
171
     2
172
     0
173
     0
174
     0
175
     0
176
     0
177
     0
178
     0
  0
DIMSTYLE
  2
AM_ISO
 70
     0
  3

  4
"
  5

  6

  7

 40
1.0
 41
2.5
 42
1.0
 43
8.0
 44
0.6
 45
0.0
 46
0.0
 47
0.1
 48
0.1
140
2.5
141
0.0
142
0.0
143
0.0393701
144
1.0
145
0.0
146
0.71
147
0.8
 71
     0
 72
     0
 73
     0
 74
     0
 75
     0
 76
     0
 77
     1
 78
     8
170
     0
171
     2
172
     1
173
     0
174
     0
175
     0
176
   256
177
   256
178
     4
  0
DIMSTYLE
  2
AM_ISO$3
 70
     0
  3

  4
"
  5

  6

  7

 40
1.0
 41
2.5
 42
1.0
 43
8.0
 44
0.6
 45
0.0
 46
0.0
 47
0.1
 48
0.1
140
2.5
141
0.0
142
0.0
143
0.0393701
144
1.0
145
0.0
146
0.71
147
0.8
 71
     0
 72
     0
 73
     0
 74
     1
 75
     0
 76
     0
 77
     1
 78
     8
170
     0
171
     2
172
     0
173
     0
174
     0
175
     0
176
   256
177
   256
178
     4
  0
DIMSTYLE
  2
AM_ISO$4
 70
     0
  3

  4
"
  5

  6

  7

 40
1.0
 41
2.5
 42
1.0
 43
8.0
 44
0.6
 45
0.0
 46
0.0
 47
0.1
 48
0.1
140
2.5
141
0.0
142
0.0
143
0.0393701
144
1.0
145
0.0
146
0.71
147
0.8
 71
     0
 72
     0
 73
     0
 74
     1
 75
     0
 76
     0
 77
     1
 78
     8
170
     0
171
     2
172
     0
173
     0
174
     0
175
     0
176
   256
177
   256
178
     4
  0
DIMSTYLE
  2
AM_ISO$6
 70
     0
  3

  4
"
  5

  6

  7

 40
1.0
 41
2.5
 42
1.0
 43
8.0
 44
0.6
 45
0.0
 46
0.0
 47
0.1
 48
0.1
140
2.5
141
0.0
142
0.0
143
0.0393701
144
1.0
145
0.0
146
0.71
147
0.8
 71
     0
 72
     0
 73
     0
 74
     0
 75
     0
 76
     0
 77
     0
 78
     8
170
     0
171
     2
172
     1
173
     0
174
     0
175
     0
176
   256
177
   256
178
     4
  0
DIMSTYLE
  2
AM_ISO$7
 70
     0
  3

  4
"
  5

  6

  7

 40
1.0
 41
2.5
 42
1.0
 43
8.0
 44
0.6
 45
0.0
 46
0.0
 47
0.1
 48
0.1
140
2.5
141
0.0
142
0.0
143
0.0393701
144
1.0
145
0.0
146
0.71
147
0.8
 71
     0
 72
     0
 73
     0
 74
     0
 75
     0
 76
     0
 77
     1
 78
     8
170
     0
171
     2
172
     1
173
     0
174
     0
175
     0
176
   256
177
   256
178
     4
  0
DIMSTYLE
  2
AM_ISO$SF
 70
     0
  3

  4
"
  5

  6

  7

 40
1.0
 41
2.5
 42
1.0
 43
10.0
 44
1.0
 45
0.0
 46
0.0
 47
0.1
 48
0.1
140
3.5
141
0.0
142
0.0
143
0.0393701
144
1.0
145
0.0
146
0.71
147
1.5
 71
     0
 72
     0
 73
     0
 74
     0
 75
     1
 76
     1
 77
     1
 78
     8
170
     0
171
     2
172
     1
173
     0
174
     0
175
     0
176
   256
177
   256
178
     2
  0
DIMSTYLE
  2
AM_ISO$SH
 70
     0
  3

  4
"
  5

  6

  7

 40
1.0
 41
2.5
 42
1.0
 43
10.0
 44
1.0
 45
0.0
 46
0.0
 47
0.1
 48
0.1
140
3.5
141
0.0
142
0.0
143
0.0393701
144
2.0
145
0.0
146
0.71
147
1.5
 71
     0
 72
     0
 73
     0
 74
     0
 75
     1
 76
     1
 77
     1
 78
     8
170
     0
171
     2
172
     1
173
     1
174
     0
175
     0
176
   256
177
   256
178
     2
  0
DIMSTYLE
  2
AM_JIS
 70
     0
  3

  4
"
  5

  6

  7

 40
1.0
 41
2.5
 42
1.0
 43
7.0
 44
1.0
 45
0.0
 46
0.0
 47
0.1
 48
0.1000000001
140
2.5
141
0.0
142
0.0
143
0.0393701
144
1.0
145
0.0
146
0.71
147
1.0
 71
     0
 72
     0
 73
     0
 74
     0
 75
     0
 76
     0
 77
     3
 78
     8
170
     0
171
     2
172
     1
173
     0
174
     0
175
     0
176
   256
177
   256
178
     4
  0
DIMSTYLE
  2
AM_JIS$3
 70
     0
  3

  4
"
  5

  6

  7

 40
1.0
 41
2.5
 42
1.0
 43
7.0
 44
1.0
 45
0.0
 46
0.0
 47
0.1
 48
0.1000000001
140
2.5
141
0.0
142
0.0
143
0.0393701
144
1.0
145
0.0
146
0.71
147
1.0
 71
     0
 72
     0
 73
     0
 74
     1
 75
     0
 76
     0
 77
     3
 78
     8
170
     0
171
     2
172
     0
173
     0
174
     0
175
     0
176
   256
177
   256
178
     4
  0
DIMSTYLE
  2
AM_JIS$4
 70
     0
  3

  4
"
  5

  6

  7

 40
1.0
 41
2.5
 42
1.0
 43
7.0
 44
1.0
 45
0.0
 46
0.0
 47
0.1
 48
0.1000000001
140
2.5
141
0.0
142
0.0
143
0.0393701
144
1.0
145
0.0
146
0.71
147
1.0
 71
     0
 72
     0
 73
     0
 74
     0
 75
     0
 76
     0
 77
     3
 78
     8
170
     0
171
     2
172
     0
173
     0
174
     0
175
     0
176
   256
177
   256
178
     4
  0
DIMSTYLE
  2
AM_JIS$6
 70
     0
  3

  4
"
  5

  6

  7

 40
1.0
 41
2.5
 42
1.0
 43
7.0
 44
1.0
 45
0.0
 46
0.0
 47
0.1
 48
0.1000000001
140
2.5
141
0.0
142
0.0
143
0.0393701
144
1.0
145
0.0
146
0.71
147
1.0
 71
     0
 72
     0
 73
     0
 74
     0
 75
     0
 76
     0
 77
     0
 78
     8
170
     0
171
     2
172
     1
173
     0
174
     0
175
     0
176
   256
177
   256
178
     4
  0
DIMSTYLE
  2
AM_JIS$7
 70
     0
  3

  4
"
  5

  6

  7

 40
1.0
 41
2.5
 42
1.0
 43
7.0
 44
1.0
 45
0.0
 46
0.0
 47
0.1
 48
0.1000000001
140
2.5
141
0.0
142
0.0
143
0.0393701
144
1.0
145
0.0
146
0.71
147
1.0
 71
     0
 72
     0
 73
     0
 74
     0
 75
     0
 76
     0
 77
     3
 78
     8
170
     0
171
     2
172
     1
173
     0
174
     0
175
     0
176
   256
177
   256
178
     4
  0
DIMSTYLE
  2
AM_JIS$SF
 70
     0
  3

  4
"
  5

  6

  7

 40
1.0
 41
2.5
 42
1.0
 43
10.0
 44
1.0
 45
0.0
 46
0.0
 47
0.1
 48
0.1
140
3.5
141
0.0
142
0.0
143
0.0393701
144
1.0
145
0.0
146
0.71
147
1.5
 71
     0
 72
     0
 73
     0
 74
     0
 75
     1
 76
     1
 77
     3
 78
     8
170
     0
171
     2
172
     1
173
     0
174
     0
175
     0
176
   256
177
   256
178
     4
  0
DIMSTYLE
  2
AM_JIS$SH
 70
     0
  3

  4
"
  5

  6

  7

 40
1.0
 41
2.5
 42
1.0
 43
10.0
 44
1.0
 45
0.0
 46
0.0
 47
0.1
 48
0.1
140
3.5
141
0.0
142
0.0
143
0.0393701
144
1.0
145
0.0
146
0.71
147
1.5
 71
     0
 72
     0
 73
     0
 74
     0
 75
     1
 76
     0
 77
     3
 78
     8
170
     0
171
     2
172
     1
173
     1
174
     0
175
     0
176
   256
177
   256
178
     4
  0
DIMSTYLE
  2
AM_ANSI
 70
     0
  3

  4
mm
  5

  6

  7

 40
1.0
 41
0.1
 42
0.05
 43
0.5
 44
0.1
 45
0.0
 46
0.0
 47
0.1
 48
0.1
140
0.12
141
0.0
142
0.0
143
25.399999999999999
144
1.0
145
0.0
146
0.71
147
0.06
 71
     0
 72
     0
 73
     1
 74
     1
 75
     0
 76
     0
 77
     0
 78
     7
170
     0
171
     2
172
     0
173
     0
174
     0
175
     0
176
   256
177
   256
178
     2
  0
DIMSTYLE
  2
AM_ANSI$3
 70
     0
  3

  4
mm
  5

  6

  7

 40
1.0
 41
0.1
 42
0.05
 43
0.5
 44
0.1
 45
0.0
 46
0.0
 47
0.1
 48
0.1
140
0.12
141
0.0
142
0.0
143
25.399999999999999
144
1.0
145
0.0
146
0.71
147
0.06
 71
     0
 72
     0
 73
     1
 74
     1
 75
     0
 76
     0
 77
     0
 78
     7
170
     0
171
     2
172
     0
173
     0
174
     0
175
     0
176
   256
177
   256
178
     2
  0
DIMSTYLE
  2
AM_ANSI$4
 70
     0
  3

  4
mm
  5

  6

  7

 40
1.0
 41
0.1
 42
0.05
 43
0.5
 44
0.1
 45
0.0
 46
0.0
 47
0.1
 48
0.1
140
0.12
141
0.0
142
0.0
143
25.399999999999999
144
1.0
145
0.0
146
0.71
147
0.06
 71
     0
 72
     0
 73
     1
 74
     1
 75
     0
 76
     0
 77
     0
 78
     7
170
     0
171
     2
172
     0
173
     0
174
     0
175
     0
176
   256
177
   256
178
     2
  0
DIMSTYLE
  2
AM_ANSI$7
 70
     0
  3

  4
mm
  5

  6

  7

 40
1.0
 41
0.1
 42
0.05
 43
0.5
 44
0.1
 45
0.0
 46
0.0
 47
0.1
 48
0.1
140
0.24
141
0.0
142
0.0
143
25.399999999999999
144
1.0
145
0.0
146
0.71
147
0.06
 71
     0
 72
     0
 73
     1
 74
     1
 75
     0
 76
     0
 77
     0
 78
     7
170
     0
171
     2
172
     0
173
     0
174
     0
175
     0
176
   256
177
   256
178
     2
  0
DIMSTYLE
  2
AM_ANSI$SF
 70
     0
  3

  4
mm
  5

  6

  7

 40
1.0
 41
0.1
 42
0.05
 43
0.5
 44
0.1
 45
0.0
 46
0.0
 47
0.1
 48
0.1
140
0.12
141
0.0
142
0.0
143
25.399999999999999
144
1.0
145
0.0
146
0.71
147
0.06
 71
     0
 72
     0
 73
     1
 74
     1
 75
     1
 76
     1
 77
     0
 78
     7
170
     0
171
     2
172
     0
173
     0
174
     0
175
     0
176
   256
177
   256
178
     2
  0
DIMSTYLE
  2
AM_ANSI$SH
 70
     0
  3

  4
mm
  5

  6

  7

 40
1.0
 41
0.1
 42
0.05
 43
0.5
 44
0.1
 45
0.0
 46
0.0
 47
0.1
 48
0.1
140
0.12
141
0.0
142
0.0
143
25.399999999999999
144
1.0
145
0.0
146
0.71
147
0.06
 71
     0
 72
     0
 73
     1
 74
     1
 75
     1
 76
     1
 77
     0
 78
     7
170
     0
171
     2
172
     0
173
     1
174
     0
175
     0
176
   256
177
   256
178
     2
  0
ENDTAB
  0
ENDSEC
  0
SECTION
  2
BLOCKS
  0
BLOCK
  8
0
  2
$MODEL_SPACE
 70
     0
 10
0.0
 20
0.0
 30
0.0
  3
$MODEL_SPACE
  1

  0
ENDBLK
  5
322F
  8
0
  0
BLOCK
 67
     1
  8
0
  2
$PAPER_SPACE
 70
     0
 10
0.0
 20
0.0
 30
0.0
  3
$PAPER_SPACE
  1

  0
ENDBLK
  5
322B
 67
     1
  8
0
  0
BLOCK
  8
0
  2
GENAXEH
 70
     0
 10
0.0
 20
0.0
 30
0.0
  3
GENAXEH
  1

  0
LINE
  5
2FDB
  8
0
 10
-1.0
 20
0.0
 30
0.0
 11
1.0
 21
0.0
 31
0.0
  0
ENDBLK
  5
2FDC
  8
0
  0
BLOCK
  8
0
  2
_OPEN30
 70
     0
 10
0.0
 20
0.0
 30
0.0
  3
_OPEN30
  1

  0
LINE
  5
2FDF
  8
0
 62
     0
 10
-1.0
 20
0.26794919
 30
0.0
 11
0.0
 21
0.0
 31
0.0
  0
LINE
  5
2FE0
  8
0
 62
     0
 10
0.0
 20
0.0
 30
0.0
 11
-1.0
 21
-0.26794919
 31
0.0
  0
LINE
  5
2FE1
  8
0
 62
     0
 10
0.0
 20
0.0
 30
0.0
 11
-1.0
 21
0.0
 31
0.0
  0
ENDBLK
  5
2FE2
  8
0
  0
BLOCK
  8
0
  2
_NONE
 70
     0
 10
0.0
 20
0.0
 30
0.0
  3
_NONE
  1

  0
ENDBLK
  5
2FE5
  8
0
  0
BLOCK
  8
0
  2
_ACMFILLEDHALF
 70
     0
 10
0.0
 20
0.0
 30
0.0
  3
_ACMFILLEDHALF
  1

  0
TRACE
  5
3324
  8
AM_0
 62
     0
 10
-0.8
 20
0.0
 30
0.0
 11
-1.0
 21
0.166666666
 31
0.0
 12
0.0
 22
0.0
 32
0.0
 13
0.0
 23
0.0
 33
0.0
  0
LINE
  5
3325
  8
AM_0
 62
     0
 10
-1.0
 20
0.0
 30
0.0
 11
-0.8
 21
0.0
 31
0.0
  0
ENDBLK
  5
3323
  8
0
  0
ENDSEC
  0
SECTION
  2
ENTITIES
  0
LINE
  5
2FE6
  8
ﾁｭｳｼﾝｾﾝ1
 10
220.6348142515003
 20
504.48538409125598
 30
0.0
 11
407.60366499816092
 21
504.48538409125598
 31
0.0
  0
ARC
  5
2FE7
  8
AM_0
 10
409.87271499816109
 20
504.48538409125598
 30
0.0
 40
101.4887199999999
 50
151.89333000000019
 51
208.10666999999961
  0
LINE
  5
2FE8
  8
AM_0
 10
256.38400499816112
 20
447.98538409125598
 30
0.0
 11
256.38400499816112
 21
560.98538409125604
 31
0.0
  0
LINE
  5
2FE9
  8
AM_0
 10
287.38400499816112
 20
435.61700409125598
 30
0.0
 11
287.38400499816112
 21
573.35375409125606
 31
0.0
  0
LINE
  5
2FEA
  8
AM_0
 10
308.38400499816112
 20
454.41815409125599
 30
0.0
 11
308.38400499816112
 21
554.55261409125592
 31
0.0
  0
LINE
  5
2FEB
  8
AM_0
 10
343.38400499816112
 20
454.23437409125597
 30
0.0
 11
343.38400499816112
 21
554.73638409125567
 31
0.0
  0
LINE
  5
2FEC
  8
AM_0
 10
359.38397499816108
 20
478.95104409125599
 30
0.0
 11
359.38397499816108
 21
530.01968409125595
 31
0.0
  0
LINE
  5
2FED
  8
AM_0
 10
356.38397499816108
 20
554.03033409125601
 30
0.0
 11
356.38397499816108
 21
454.94042409125598
 31
0.0
  0
LINE
  5
2FEE
  8
AM_0
 10
294.38397499816102
 20
575.48538409125604
 30
0.0
 11
294.38397499816102
 21
433.48538409125598
 31
0.0
  0
LINE
  5
2FEF
  8
AM_0
 10
361.3839449981611
 20
516.98535409125589
 30
0.0
 11
361.3839449981611
 21
491.98541409125602
 31
0.0
  0
LINE
  5
2FF0
  8
AM_0
 10
401.38397499816091
 20
516.48538409125604
 30
0.0
 11
401.38397499816091
 21
492.48538409125598
 31
0.0
  0
ARC
  5
2FF1
  8
AM_0
 10
335.38397499816119
 20
432.48217409125601
 30
0.0
 40
5.0
 50
180.00001000000091
 51
271.49999999999932
  0
ARC
  5
2FF2
  8
AM_0
 10
335.38397499816119
 20
445.76635409125601
 30
0.0
 40
5.0
 50
95.00000199999856
 51
180.00001000000091
  0
LINE
  5
2FF3
  8
AM_0
 10
340.46255499816118
 20
457.46087409125602
 30
0.0
 11
321.96594499816121
 21
456.97650409125589
 31
0.0
  0
LINE
  5
2FF4
  8
AM_0
 10
297.38400499816112
 20
426.48538409125598
 30
0.0
 11
357.4363349981611
 21
428.05792409125598
 31
0.0
  0
LINE
  5
2FF5
  8
AM_0
 10
297.38397499816102
 20
430.34133409125599
 30
0.0
 11
290.38397499816119
 21
426.66867409125598
 31
0.0
  0
LINE
  5
2FF6
  8
AM_0
 10
290.38397499816119
 20
426.66870409125602
 30
0.0
 11
290.38397499816119
 21
431.18579409125601
 31
0.0
  0
LINE
  5
2FF7
  8
AM_0
 10
265.38397499816102
 20
429.2716640912559
 30
0.0
 11
265.38397499816102
 21
448.249694091256
 31
0.0
  0
LINE
  5
2FF8
  8
AM_0
 10
267.33163499816112
 20
427.27233409125603
 30
0.0
 11
297.38397499816102
 21
426.48541409125602
 31
0.0
  0
ARC
  5
2FF9
  8
AM_0
 10
267.38397499816119
 20
429.2716640912559
 30
0.0
 40
2.0
 50
180.00001000000091
 51
268.5000000000004
  0
LINE
  5
2FFA
  8
AM_0
 10
256.38400499816112
 20
472.54544409125589
 30
0.0
 11
287.38400499816112
 21
472.54544409125589
 31
0.0
  0
LINE
  5
2FFB
  8
AM_0
 10
284.38397499816102
 20
439.27410409125599
 30
0.0
 11
285.38400499816112
 21
439.27410409125599
 31
0.0
  0
LINE
  5
2FFC
  8
AM_0
 10
256.38400499816112
 20
458.48507409125602
 30
0.0
 11
287.38400499816112
 21
458.48507409125602
 31
0.0
  0
LINE
  5
2FFD
  8
AM_0
 10
282.38400499816112
 20
447.80453409125602
 30
0.0
 11
256.38403499816121
 21
448.48538409125598
 31
0.0
  0
LINE
  5
2FFE
  8
AM_0
 10
282.38397499816119
 20
441.27410409125599
 30
0.0
 11
282.38397499816119
 21
456.48507409125602
 31
0.0
  0
ARC
  5
2FFF
  8
AM_0
 10
277.38397499816119
 20
439.48538409125598
 30
0.0
 40
6.0
 50
33.5572999999982
 51
0.5425182800010755
  0
ARC
  5
3000
  8
AM_0
 10
284.38397499816102
 20
441.27410409125599
 30
0.0
 40
2.0
 50
180.00001000000091
 51
270.0
  0
ARC
  5
3001
  8
AM_0
 10
280.38397499816108
 20
456.48507409125602
 30
0.0
 40
2.0
 50
0.0
 51
90.000003000000945
  0
ARC
  5
3002
  8
AM_0
 10
306.9889549981612
 20
438.81716409125602
 30
0.0
 40
5.0
 50
271.49999999999932
 51
299.88701999999893
  0
LINE
  5
3003
  8
AM_0
 10
308.38400499816112
 20
454.41815409125599
 30
0.0
 11
321.96597499816107
 21
456.97650409125589
 31
0.0
  0
LINE
  5
3004
  8
AM_0
 10
306.38397499816119
 20
451.9474440912561
 30
0.0
 11
309.38397499816102
 21
451.9474440912561
 31
0.0
  0
LINE
  5
3005
  8
AM_0
 10
306.38397499816119
 20
440.40039409125598
 30
0.0
 11
309.38397499816102
 21
440.40039409125598
 31
0.0
  0
LINE
  5
3006
  8
AM_0
 10
306.38397499816119
 20
443.28716409125599
 30
0.0
 11
309.38397499816102
 21
443.28716409125599
 31
0.0
  0
LINE
  5
3007
  8
AM_0
 10
306.38397499816119
 20
449.060664091256
 30
0.0
 11
309.38397499816102
 21
449.060664091256
 31
0.0
  0
LINE
  5
3008
  8
AM_0
 10
306.38397499816119
 20
452.9474440912561
 30
0.0
 11
306.38397499816119
 21
439.40039409125598
 31
0.0
  0
LINE
  5
3009
  8
AM_0
 10
305.38397499816102
 20
454.41815409125599
 30
0.0
 11
305.38397499816102
 21
433.77343409125598
 31
0.0
  0
LINE
  5
300A
  8
AM_0
 10
307.11984499816111
 20
433.81887409125602
 30
0.0
 11
294.38400499816112
 21
433.48538409125598
 31
0.0
  0
ARC
  5
300B
  8
AM_0
 10
285.38400499816112
 20
437.27410409125599
 30
0.0
 40
2.0
 50
0.0
 51
90.000003000000945
  0
LINE
  5
300C
  8
AM_0
 10
294.38400499816112
 20
433.48538409125598
 30
0.0
 11
289.33166499816122
 21
433.61770409125597
 31
0.0
  0
LINE
  5
300D
  8
AM_0
 10
294.78701499816123
 20
433.49594409125598
 30
0.0
 11
290.38397499816119
 21
431.18579409125601
 31
0.0
  0
ARC
  5
300E
  8
AM_0
 10
289.38400499816112
 20
435.61700409125598
 30
0.0
 40
2.0
 50
180.00001000000091
 51
268.5000000000004
  0
LINE
  5
300F
  8
AM_0
 10
297.38397499816102
 20
433.56393409125599
 30
0.0
 11
297.38397499816102
 21
430.34136409125603
 31
0.0
  0
LINE
  5
3010
  8
AM_0
 10
305.38397499816102
 20
439.40039409125598
 30
0.0
 11
306.38397499816119
 21
439.40039409125598
 31
0.0
  0
LINE
  5
3011
  8
AM_0
 10
305.38397499816102
 20
454.41815409125599
 30
0.0
 11
308.38397499816119
 21
454.41815409125599
 31
0.0
  0
LINE
  5
3012
  8
AM_0
 10
305.38397499816102
 20
452.9474440912561
 30
0.0
 11
306.38397499816119
 21
452.9474440912561
 31
0.0
  0
LINE
  5
3013
  8
AM_0
 10
310.38394499816093
 20
441.40039409125598
 30
0.0
 11
310.38394499816093
 21
450.94741409125589
 31
0.0
  0
ARC
  5
3014
  8
AM_0
 10
322.60864499816103
 20
436.26028409125598
 30
0.0
 40
5.0
 50
91.500001000001546
 51
119.887019999999
  0
LINE
  5
3015
  8
AM_0
 10
309.48040499816119
 20
434.48214409125598
 30
0.0
 11
320.1171549981612
 21
440.59533409125589
 31
0.0
  0
ARC
  5
3016
  8
AM_0
 10
309.38397499816102
 20
444.28713409125589
 30
0.0
 40
1.0
 50
269.999989999999
 51
0.0000006832462478
  0
ARC
  5
3017
  8
AM_0
 10
309.38397499816102
 20
441.40039409125598
 30
0.0
 40
1.0
 50
269.999989999999
 51
0.0000006832462478
  0
ARC
  5
3018
  8
AM_0
 10
309.38397499816102
 20
442.28716409125599
 30
0.0
 40
1.0
 50
0.0
 51
90.000003000000945
  0
LINE
  5
3019
  8
AM_0
 10
330.38397499816102
 20
432.48217409125601
 30
0.0
 11
330.38397499816102
 21
445.76635409125601
 31
0.0
  0
LINE
  5
301A
  8
AM_0
 10
327.46249499816099
 20
441.38909409125603
 30
0.0
 11
322.47775499816112
 21
441.25857409125598
 31
0.0
  0
ARC
  5
301B
  8
AM_0
 10
327.38397499816119
 20
444.38806409125601
 30
0.0
 40
3.0
 50
271.49999999999932
 51
0.0
  0
ARC
  5
301C
  8
AM_0
 10
309.38397499816102
 20
450.06066409125589
 30
0.0
 40
1.0
 50
269.999989999999
 51
0.0000006832462478
  0
ARC
  5
301D
  8
AM_0
 10
309.38397499816102
 20
448.060664091256
 30
0.0
 40
1.0
 50
0.0
 51
90.000003000000945
  0
ARC
  5
301E
  8
AM_0
 10
309.38397499816102
 20
450.94741409125589
 30
0.0
 40
1.0
 50
0.0
 51
90.000003000000945
  0
ARC
  5
301F
  8
AM_0
 10
357.38397499816108
 20
430.05721409125601
 30
0.0
 40
2.0
 50
271.49999999999932
 51
0.0
  0
LINE
  5
3020
  8
AM_0
 10
361.3839449981611
 20
492.48538409125598
 30
0.0
 11
401.38397499816091
 21
492.48538409125598
 31
0.0
  0
LINE
  5
3021
  8
AM_0
 10
357.4363349981611
 20
454.91287409125601
 30
0.0
 11
356.384004998161
 21
454.94042409125598
 31
0.0
  0
CIRCLE
  5
3022
  8
AM_0
 10
347.38397499816108
 20
439.48538409125598
 30
0.0
 40
6.0
  0
ARC
  5
3023
  8
AM_0
 10
347.55801499816118
 20
450.69409409125598
 30
0.0
 40
5.0
 50
95.00000199999856
 51
153.73432999999969
  0
LINE
  5
3024
  8
AM_0
 10
340.64547499816121
 20
451.24578409125598
 30
0.0
 11
334.9481849981612
 21
450.74734409125602
 31
0.0
  0
ARC
  5
3025
  8
AM_0
 10
340.38400499816112
 20
454.23437409125597
 30
0.0
 40
3.0
 50
274.99999999999972
 51
0.0
  0
ARC
  5
3026
  8
AM_0
 10
340.38400499816112
 20
460.45983409125603
 30
0.0
 40
3.0
 50
271.49999999999932
 51
0.0
  0
ARC
  5
3027
  8
AM_0
 10
351.38397499816108
 20
461.067014091256
 30
0.0
 40
5.0
 50
274.99999999999972
 51
0.0
  0
LINE
  5
3028
  8
AM_0
 10
351.81976499816108
 20
456.086084091256
 30
0.0
 11
347.12225499816111
 21
455.67510409125589
 31
0.0
  0
LINE
  5
3029
  8
AM_0
 10
359.38397499816108
 20
430.05721409125601
 30
0.0
 11
359.38397499816108
 21
452.91354409125597
 31
0.0
  0
ARC
  5
302A
  8
AM_0
 10
357.38397499816108
 20
452.91354409125597
 30
0.0
 40
2.0
 50
0.0
 51
88.499997000000747
  0
LINE
  5
302B
  8
AM_0
 10
357.34905499816108
 20
477.91433409125602
 30
0.0
 11
358.41885499816101
 21
477.951694091256
 31
0.0
  0
ARC
  5
302C
  8
AM_0
 10
357.38397499816108
 20
476.91491409125598
 30
0.0
 40
1.0
 50
91.999998000000545
 51
180.00001000000091
  0
ARC
  5
302D
  8
AM_0
 10
358.38397499816108
 20
478.95104409125599
 30
0.0
 40
1.0
 50
272.0000000000004
 51
0.0
  0
LINE
  5
302E
  8
AM_0
 10
359.38397499816108
 20
491.98541409125602
 30
0.0
 11
361.3839449981611
 21
491.98541409125602
 31
0.0
  0
ARC
  5
302F
  8
AM_0
 10
335.38397499816119
 20
576.48858409125592
 30
0.0
 40
5.0
 50
88.499997000000747
 51
180.00001000000091
  0
ARC
  5
3030
  8
AM_0
 10
335.38397499816119
 20
563.204374091256
 30
0.0
 40
5.0
 50
180.00001000000091
 51
265.00001000000071
  0
LINE
  5
3031
  8
AM_0
 10
340.46255499816118
 20
551.50991409125595
 30
0.0
 11
321.96597499816107
 21
551.99426409125579
 31
0.0
  0
LINE
  5
3032
  8
AM_0
 10
297.38400499816112
 20
582.48538409125604
 30
0.0
 11
357.4363349981611
 21
580.91287409125596
 31
0.0
  0
ARC
  5
3033
  8
AM_0
 10
284.38397499816102
 20
567.69668409125597
 30
0.0
 40
2.0
 50
90.000003000000945
 51
180.00001000000091
  0
ARC
  5
3034
  8
AM_0
 10
309.38397499816102
 20
567.5703740912561
 30
0.0
 40
1.0
 50
0.0
 51
90.000003000000945
  0
ARC
  5
3035
  8
AM_0
 10
277.38397499816119
 20
569.48538409125604
 30
0.0
 40
6.0
 50
359.45747999999838
 51
326.4427199999991
  0
LINE
  5
3036
  8
AM_0
 10
305.38397499816102
 20
554.55261409125592
 30
0.0
 11
305.38397499816102
 21
575.19732409125595
 31
0.0
  0
LINE
  5
3037
  8
AM_0
 10
306.38397499816119
 20
556.023314091256
 30
0.0
 11
306.38397499816119
 21
569.5703740912561
 31
0.0
  0
LINE
  5
3038
  8
AM_0
 10
309.48043499816117
 20
574.48864409125588
 30
0.0
 11
320.1171549981612
 21
568.37542409125604
 31
0.0
  0
LINE
  5
3039
  8
AM_0
 10
330.38397499816102
 20
563.204374091256
 30
0.0
 11
330.38397499816102
 21
576.48858409125592
 31
0.0
  0
LINE
  5
303A
  8
AM_0
 10
265.38397499816102
 20
579.69912409125595
 30
0.0
 11
265.38397499816102
 21
560.72106409125604
 31
0.0
  0
LINE
  5
303B
  8
AM_0
 10
256.38400499816112
 20
536.42532409125567
 30
0.0
 11
287.38400499816112
 21
536.42532409125567
 31
0.0
  0
LINE
  5
303C
  8
AM_0
 10
256.38400499816112
 20
550.48568409125585
 30
0.0
 11
287.38400499816112
 21
550.48568409125585
 31
0.0
  0
LINE
  5
303D
  8
AM_0
 10
282.38400499816112
 20
561.16619409125599
 30
0.0
 11
256.38403499816121
 21
560.48538409125604
 31
0.0
  0
ARC
  5
303E
  8
AM_0
 10
280.38397499816108
 20
552.48568409125585
 30
0.0
 40
2.0
 50
270.0
 51
0.0
  0
LINE
  5
303F
  8
AM_0
 10
282.38397499816119
 20
567.69668409125597
 30
0.0
 11
282.38397499816119
 21
552.48568409125585
 31
0.0
  0
LINE
  5
3040
  8
AM_0
 10
306.38397499816119
 20
559.91009409125604
 30
0.0
 11
309.38397499816102
 21
559.91009409125604
 31
0.0
  0
LINE
  5
3041
  8
AM_0
 10
306.38397499816119
 20
565.68359409125605
 30
0.0
 11
309.38397499816102
 21
565.68359409125605
 31
0.0
  0
LINE
  5
3042
  8
AM_0
 10
306.38397499816119
 20
568.57034409125595
 30
0.0
 11
309.38397499816102
 21
568.57034409125595
 31
0.0
  0
LINE
  5
3043
  8
AM_0
 10
306.38397499816119
 20
557.02334409125615
 30
0.0
 11
309.38397499816102
 21
557.02334409125615
 31
0.0
  0
LINE
  5
3044
  8
AM_0
 10
308.38397499816119
 20
554.55261409125592
 30
0.0
 11
321.96594499816121
 21
551.99426409125579
 31
0.0
  0
LINE
  5
3045
  8
AM_0
 10
305.38397499816102
 20
554.55261409125592
 30
0.0
 11
308.38397499816119
 21
554.55261409125592
 31
0.0
  0
LINE
  5
3046
  8
AM_0
 10
305.38397499816102
 20
556.023314091256
 30
0.0
 11
306.38397499816119
 21
556.023314091256
 31
0.0
  0
ARC
  5
3047
  8
AM_0
 10
322.60864499816103
 20
572.71047409125595
 30
0.0
 40
5.0
 50
240.11298000000079
 51
268.5000000000004
  0
ARC
  5
3048
  8
AM_0
 10
309.38397499816102
 20
560.91009409125604
 30
0.0
 40
1.0
 50
269.999989999999
 51
0.0000006832462478
  0
ARC
  5
3049
  8
AM_0
 10
309.38397499816102
 20
558.91009409125604
 30
0.0
 40
1.0
 50
0.0
 51
90.000003000000945
  0
LINE
  5
304A
  8
AM_0
 10
310.38394499816093
 20
567.5703740912561
 30
0.0
 11
310.38394499816093
 21
558.02334409125615
 31
0.0
  0
ARC
  5
304B
  8
AM_0
 10
309.38397499816102
 20
558.02334409125615
 30
0.0
 40
1.0
 50
269.999989999999
 51
0.0000006832462478
  0
ARC
  5
304C
  8
AM_0
 10
309.38397499816102
 20
566.68359409125605
 30
0.0
 40
1.0
 50
269.999989999999
 51
0.0000006832462478
  0
ARC
  5
304D
  8
AM_0
 10
309.38397499816102
 20
564.68362409125575
 30
0.0
 40
1.0
 50
0.0
 51
90.000003000000945
  0
LINE
  5
304E
  8
AM_0
 10
327.4625249981612
 20
567.58169409125605
 30
0.0
 11
322.47778499816121
 21
567.7122140912561
 31
0.0
  0
ARC
  5
304F
  8
AM_0
 10
327.38397499816119
 20
564.58270409125612
 30
0.0
 40
3.0
 50
0.0
 51
88.499997000000747
  0
LINE
  5
3050
  8
AM_0
 10
284.38397499816102
 20
569.69668409125575
 30
0.0
 11
285.38400499816112
 21
569.69668409125575
 31
0.0
  0
LINE
  5
3051
  8
AM_0
 10
267.33163499816112
 20
581.69842409125613
 30
0.0
 11
297.38397499816102
 21
582.48538409125604
 31
0.0
  0
ARC
  5
3052
  8
AM_0
 10
267.38397499816119
 20
579.69912409125595
 30
0.0
 40
2.0
 50
91.500001000001546
 51
180.00001000000091
  0
ARC
  5
3053
  8
AM_0
 10
306.9889549981612
 20
570.15359409125597
 30
0.0
 40
5.0
 50
60.112980000000888
 51
88.499997000000747
  0
LINE
  5
3054
  8
AM_0
 10
307.11984499816111
 20
575.15188409125597
 30
0.0
 11
294.38400499816112
 21
575.48538409125604
 31
0.0
  0
LINE
  5
3055
  8
AM_0
 10
297.38397499816102
 20
578.6293940912559
 30
0.0
 11
290.38397499816119
 21
582.30206409125606
 31
0.0
  0
LINE
  5
3056
  8
AM_0
 10
294.78701499816123
 20
575.4748240912561
 30
0.0
 11
290.38400499816117
 21
577.78494409125585
 31
0.0
  0
LINE
  5
3057
  8
AM_0
 10
294.38397499816102
 20
575.48538409125604
 30
0.0
 11
289.33166499816122
 21
575.35308409125605
 31
0.0
  0
ARC
  5
3058
  8
AM_0
 10
285.38400499816112
 20
571.69668409125597
 30
0.0
 40
2.0
 50
270.0
 51
0.0
  0
ARC
  5
3059
  8
AM_0
 10
289.38400499816112
 20
573.35375409125606
 30
0.0
 40
2.0
 50
91.500001000001546
 51
180.00001000000091
  0
LINE
  5
305A
  8
AM_0
 10
290.38397499816119
 20
582.30206409125606
 30
0.0
 11
290.38397499816119
 21
577.78497409125612
 31
0.0
  0
LINE
  5
305B
  8
AM_0
 10
297.38397499816102
 20
575.40682409125611
 30
0.0
 11
297.38397499816102
 21
578.6293940912559
 31
0.0
  0
LINE
  5
305C
  8
AM_0
 10
305.38397499816102
 20
569.5703740912561
 30
0.0
 11
306.38397499816119
 21
569.5703740912561
 31
0.0
  0
CIRCLE
  5
305D
  8
AM_0
 10
347.38397499816108
 20
569.48538409125604
 30
0.0
 40
6.0
  0
LINE
  5
305E
  8
ﾁｭｳｼﾝｾﾝ1
 10
347.38397499816108
 20
580.48538409125604
 30
0.0
 11
347.38397499816108
 21
558.48538409125604
 31
0.0
  0
LINE
  5
305F
  8
AM_0
 10
359.38397499816108
 20
578.91354409125563
 30
0.0
 11
359.38397499816108
 21
556.05721409125601
 31
0.0
  0
LINE
  5
3060
  8
AM_0
 10
369.38397499816108
 20
508.48535409125589
 30
0.0
 11
401.38397499816091
 21
508.48535409125589
 31
0.0
  0
LINE
  5
3061
  8
AM_0
 10
369.38397499816108
 20
500.48538409125598
 30
0.0
 11
401.38397499816091
 21
500.48538409125598
 31
0.0
  0
LINE
  5
3062
  8
AM_0
 10
361.3839449981611
 20
516.48538409125604
 30
0.0
 11
401.38397499816091
 21
516.48538409125604
 31
0.0
  0
LINE
  5
3063
  8
AM_0
 10
357.34909499816109
 20
531.05642409125608
 30
0.0
 11
358.41891499816091
 21
531.01907409125602
 31
0.0
  0
ARC
  5
3064
  8
AM_0
 10
357.38397499816108
 20
532.05584409125595
 30
0.0
 40
1.0
 50
180.00001000000091
 51
267.9999999999996
  0
ARC
  5
3065
  8
AM_0
 10
369.38397499816108
 20
504.48535409125589
 30
0.0
 40
3.9999962
 50
90.000003000000945
 51
270.0
  0
LINE
  5
3066
  8
AM_0
 10
369.38397499816108
 20
508.48535409125589
 30
0.0
 11
369.38397499816108
 21
500.48538409125598
 31
0.0
  0
LINE
  5
3067
  8
AM_0
 10
359.38397499816108
 20
516.98535409125589
 30
0.0
 11
361.3839449981611
 21
516.98535409125589
 31
0.0
  0
ARC
  5
3068
  8
AM_0
 10
358.38397499816108
 20
530.01968409125595
 30
0.0
 40
1.0
 50
0.0
 51
87.999999999999659
  0
LINE
  5
3069
  8
AM_0
 10
356.38397499816108
 20
554.03036409125593
 30
0.0
 11
357.4363349981611
 21
554.05792409125593
 31
0.0
  0
ARC
  5
306A
  8
AM_0
 10
340.38400499816112
 20
548.51092409125602
 30
0.0
 40
3.0
 50
0.0
 51
88.499997000000747
  0
ARC
  5
306B
  8
AM_0
 10
351.38397499816108
 20
547.90371409125589
 30
0.0
 40
5.0
 50
0.0
 51
85.000004000001198
  0
ARC
  5
306C
  8
AM_0
 10
347.55801499816118
 20
558.276644091256
 30
0.0
 40
5.0
 50
206.2656700000002
 51
265.00001000000071
  0
LINE
  5
306D
  8
AM_0
 10
340.64550499816107
 20
557.72494409125591
 30
0.0
 11
334.9482449981611
 21
558.22338409125587
 31
0.0
  0
ARC
  5
306E
  8
AM_0
 10
340.38400499816112
 20
554.73638409125567
 30
0.0
 40
3.0
 50
0.0
 51
85.000004000001198
  0
LINE
  5
306F
  8
AM_0
 10
351.81979499816111
 20
552.88470409125603
 30
0.0
 11
347.12228499816109
 21
553.29568409125602
 31
0.0
  0
ARC
  5
3070
  8
AM_0
 10
357.38397499816108
 20
556.05721409125601
 30
0.0
 40
2.0
 50
271.49999999999932
 51
0.0
  0
LINE
  5
3071
  8
ﾁｭｳｼﾝｾﾝ1
 10
336.38397499816102
 20
569.48538409125604
 30
0.0
 11
358.38397499816108
 21
569.48538409125604
 31
0.0
  0
ARC
  5
3072
  8
AM_0
 10
357.38397499816108
 20
578.91354409125563
 30
0.0
 40
2.0
 50
0.0
 51
88.499997000000747
  0
LINE
  5
3073
  8
ﾁｭｳｼﾝｾﾝ1
 10
347.38397499816108
 20
450.48538409125598
 30
0.0
 11
347.38397499816108
 21
428.48538409125598
 31
0.0
  0
LINE
  5
3074
  8
ﾁｭｳｼﾝｾﾝ1
 10
336.38397499816102
 20
439.48538409125598
 30
0.0
 11
358.38397499816108
 21
439.48538409125598
 31
0.0
  0
LINE
  5
3075
  8
ﾁｭｳｼﾝｾﾝ1
 10
277.38397499816119
 20
450.48538409125598
 30
0.0
 11
277.38397499816119
 21
428.48538409125598
 31
0.0
  0
LINE
  5
3076
  8
ﾁｭｳｼﾝｾﾝ1
 10
266.38397499816102
 20
439.48538409125598
 30
0.0
 11
288.38397499816102
 21
439.48538409125598
 31
0.0
  0
LINE
  5
3077
  8
ﾁｭｳｼﾝｾﾝ1
 10
277.38397499816119
 20
580.48538409125604
 30
0.0
 11
277.38397499816119
 21
558.48538409125604
 31
0.0
  0
LINE
  5
3078
  8
ﾁｭｳｼﾝｾﾝ1
 10
266.38397499816102
 20
569.48538409125604
 30
0.0
 11
288.38397499816102
 21
569.48538409125604
 31
0.0
  0
LINE
  5
307A
  8
AM_0
 10
369.38393499816112
 20
318.35829142694013
 30
0.0
 11
401.38397499816091
 21
318.35829142694013
 31
0.0
  0
LINE
  5
307B
  8
ﾁｭｳｼﾝｾﾝ1
 10
405.09644499816079
 20
303.35830642694032
 30
0.0
 11
277.48324896862988
 21
303.35830642694032
 31
0.0
  0
LINE
  5
307C
  8
AM_0
 10
361.38392499816092
 20
291.35830642694032
 30
0.0
 11
401.38397499816091
 21
291.35830642694032
 31
0.0
  0
LINE
  5
307D
  8
AM_0
 10
361.38392499816092
 20
315.35829142694018
 30
0.0
 11
401.38397499816091
 21
315.35829142694018
 31
0.0
  0
LINE
  5
307E
  8
AM_0
 10
287.38400499816089
 20
324.85266142694019
 30
0.0
 11
287.38400499816089
 21
220.4882324269401
 31
0.0
  0
LINE
  5
307F
  8
AM_0
 10
343.38395499816141
 20
348.20442142694009
 30
0.0
 11
343.38395499816141
 21
239.3991224269401
 31
0.0
  0
LINE
  5
3080
  8
AM_0
 10
330.38393499816112
 20
313.14912142694021
 30
0.0
 11
330.38393499816112
 21
225.35831842694009
 31
0.0
  0
LINE
  5
3081
  8
AM_0
 10
297.38393499816112
 20
290.57458342694002
 30
0.0
 11
297.38393499816112
 21
253.8827804269402
 31
0.0
  0
LINE
  5
3082
  8
AM_0
 10
356.38397499816108
 20
333.60930142694019
 30
0.0
 11
356.38397499816108
 21
224.10287242694011
 31
0.0
  0
LINE
  5
3083
  8
AM_0
 10
294.38393499816112
 20
354.35832142694022
 30
0.0
 11
294.38393499816112
 21
239.21546542694011
 31
0.0
  0
LINE
  5
3084
  8
AM_0
 10
359.38397499816108
 20
278.01299842694021
 30
0.0
 11
359.38397499816108
 21
328.7036114269402
 31
0.0
  0
LINE
  5
3085
  8
AM_0
 10
256.38398499816122
 20
226.85830542694021
 30
0.0
 11
256.38398499816122
 21
339.85830542694021
 31
0.0
  0
LINE
  5
3086
  8
0
 10
235.3839849981612
 20
361.35830542694009
 30
0.0
 11
235.3839849981612
 21
205.35830542694021
 31
0.0
1001
GENIUS_GENOREF_13
1005
2D40
  0
LINE
  5
3087
  8
0
 10
225.3839849981612
 20
203.35830542694021
 30
0.0
 11
225.3839849981612
 21
363.35830542694009
 31
0.0
1001
GENIUS_GENOREF_13
1005
2D40
  0
LINE
  5
3088
  8
AM_0
 10
256.38398499816122
 20
251.4208634269402
 30
0.0
 11
235.3839849981612
 21
251.4208634269402
 31
0.0
  0
LINE
  5
3089
  8
AM_0
 10
256.38398499816122
 20
237.35828842694019
 30
0.0
 11
235.3839849981612
 21
237.35828842694019
 31
0.0
  0
ARC
  5
308A
  8
0
 10
237.3839849981612
 20
224.1935917179992
 30
0.0
 40
2.0
 50
92.000000000000341
 51
180.0
1001
GENIUS_GENOBJ-N-FIL_13
1002
{
1000
OWNER
1000
GEN
1002
}
1001
GENIUS_GENODEF_13
1002
{
1000
HIER
1070
     0
1002
}
1002
{
1000
MANEDIT
1070
     0
1002
}
1002
{
1000
NOSEL
1070
     0
1002
}
1002
{
1000
BEHIND
1070
     0
1002
}
1002
{
1000
OTHER
1070
     0
1002
}
1002
{
1000
REACTOR
1002
}
  0
LINE
  5
308B
  8
0
 10
225.3839849981612
 20
203.35830542694021
 30
0.0
 11
233.3839849981612
 21
203.35830542694021
 31
0.0
  0
ARC
  5
308C
  8
0
 10
233.3839849981612
 20
205.35830542694021
 30
0.0
 40
2.0
 50
270.0
 51
0.0
1001
GENIUS_GENOBJ-N-FIL_13
1002
{
1000
OWNER
1000
GEN
1002
}
1001
GENIUS_GENODEF_13
1002
{
1000
HIER
1070
     0
1002
}
1002
{
1000
MANEDIT
1070
     0
1002
}
1002
{
1000
NOSEL
1070
     0
1002
}
1002
{
1000
BEHIND
1070
     0
1002
}
1002
{
1000
OTHER
1070
     0
1002
}
1002
{
1000
REACTOR
1002
}
  0
LINE
  5
308D
  8
AM_0
 10
291.38393499816112
 20
209.35830442694009
 30
0.0
 11
333.38393499816112
 21
209.35830442694009
 31
0.0
  0
LINE
  5
308E
  8
AM_0
 10
291.224514998161
 20
224.32079842694009
 30
0.0
 11
297.27509499816119
 21
252.84525742694009
 31
0.0
  0
LINE
  5
308F
  8
AM_0
 10
297.38393499816112
 20
223.35831742694009
 30
0.0
 11
297.38393499816112
 21
253.35832042694011
 31
0.0
  0
LINE
  5
3090
  8
AM_0
 10
256.38398499816122
 20
237.35831842694009
 30
0.0
 11
287.38400499816089
 21
237.35831842694009
 31
0.0
  0
LINE
  5
3091
  8
AM_0
 10
267.38393499816112
 20
220.3583174269402
 30
0.0
 11
286.33334499816141
 21
220.3583174269402
 31
0.0
  0
LINE
  5
3092
  8
AM_0
 10
265.38398499816122
 20
208.35831742694009
 30
0.0
 11
290.384004998161
 21
208.35831742694009
 31
0.0
  0
LINE
  5
3093
  8
AM_0
 10
256.38398499816122
 20
227.3583194269402
 30
0.0
 11
279.46247499816121
 21
226.75397842694011
 31
0.0
  0
LINE
  5
3094
  8
AM_0
 10
265.38398499816122
 20
218.35830442694001
 30
0.0
 11
265.38398499816122
 21
208.35831742694009
 31
0.0
  0
LINE
  5
3095
  8
0
 10
237.31418600475621
 20
226.19237337203751
 30
0.0
 11
256.38398499816122
 21
226.85830542694021
 31
0.0
  0
ARC
  5
3096
  8
AM_0
 10
267.38393499816112
 20
218.35830442694001
 30
0.0
 40
2.00000007
 50
90.000003000000945
 51
180.00001000000091
  0
LINE
  5
3097
  8
ｶｸﾚｾﾝ2
 10
271.38398499816122
 20
220.3583174269402
 30
0.0
 11
271.38398499816122
 21
208.35831742694009
 31
0.0
  0
LINE
  5
3098
  8
ｶｸﾚｾﾝ2
 10
283.38398499816122
 20
220.3583174269402
 30
0.0
 11
283.38398499816122
 21
208.35831742694009
 31
0.0
  0
LINE
  5
3099
  8
ﾁｭｳｼﾝｾﾝ1
 10
277.38398499816122
 20
224.90377342694021
 30
0.0
 11
277.38398499816122
 21
203.81286142694009
 31
0.0
  0
ARC
  5
309A
  8
AM_0
 10
291.38393499816112
 20
208.35831742694009
 30
0.0
 40
1.0000000199999981
 50
90.000003000000945
 51
180.00001000000091
  0
LINE
  5
309B
  8
AM_0
 10
290.384004998161
 20
208.35831742694009
 30
0.0
 11
290.384004998161
 21
208.35831742694009
 31
0.0
  0
ARC
  5
309C
  8
AM_0
 10
286.33334499816141
 20
225.35831842694009
 30
0.0
 40
5.0000001000000003
 50
270.0
 51
348.0238700000009
  0
LINE
  5
309D
  8
AM_0
 10
282.38393499816112
 20
234.1425764269402
 30
0.0
 11
287.38400499816089
 21
234.1425764269402
 31
0.0
  0
LINE
  5
309E
  8
AM_0
 10
286.33334499816141
 20
220.3583174269402
 30
0.0
 11
294.38393499816112
 21
220.3583174269402
 31
0.0
  0
LINE
  5
309F
  8
AM_0
 10
282.38393499816112
 20
232.14256042694021
 30
0.0
 11
282.38393499816112
 21
220.3583174269402
 31
0.0
  0
ARC
  5
30A0
  8
AM_0
 10
279.38393499816112
 20
223.75500142694011
 30
0.0
 40
3.0
 50
0.0
 51
88.499997000000747
  0
ARC
  5
30A1
  8
AM_0
 10
280.38398499816128
 20
232.14256042694021
 30
0.0
 40
2.00000007
 50
0.0
 51
90.000003000000945
  0
ARC
  5
30A2
  8
AM_0
 10
294.38393499816112
 20
223.35831742694009
 30
0.0
 40
3.0
 50
270.0
 51
0.0
  0
LINE
  5
30A3
  8
AM_0
 10
256.38398499816122
 20
251.4212924269402
 30
0.0
 11
287.38400499816089
 21
251.4212924269402
 31
0.0
  0
ARC
  5
30A4
  8
AM_0
 10
292.38398499816122
 20
253.8827804269402
 30
0.0
 40
5.0000001000000003
 50
348.0238700000009
 51
0.0
  0
LINE
  5
30A5
  8
AM_0
 10
330.38393499816112
 20
235.39913542694009
 30
0.0
 11
339.38393499816112
 21
235.39913542694009
 31
0.0
  0
LINE
  5
30A6
  8
AM_0
 10
335.38397499816102
 20
220.3583174269402
 30
0.0
 11
357.38393499816112
 21
220.3583174269402
 31
0.0
  0
LINE
  5
30A7
  8
AM_0
 10
334.38395499816141
 20
208.35831742694009
 30
0.0
 11
359.38397499816108
 21
208.35831742694009
 31
0.0
  0
ARC
  5
30A8
  8
AM_0
 10
333.38393499816112
 20
208.35831742694009
 30
0.0
 40
1.0000000199999981
 50
0.0
 51
90.000003000000945
  0
LINE
  5
30A9
  8
AM_0
 10
334.38395499816141
 20
208.35831742694009
 30
0.0
 11
334.38395499816141
 21
208.35831742694009
 31
0.0
  0
ARC
  5
30AA
  8
AM_0
 10
335.38397499816102
 20
225.35831842694009
 30
0.0
 40
5.0000001000000003
 50
180.00001000000091
 51
270.0
  0
LINE
  5
30AB
  8
ｶｸﾚｾﾝ2
 10
341.38397499816102
 20
220.3583174269402
 30
0.0
 11
341.38397499816102
 21
208.35831742694009
 31
0.0
  0
LINE
  5
30AC
  8
ｶｸﾚｾﾝ2
 10
353.38397499816108
 20
220.3583174269402
 30
0.0
 11
353.38397499816108
 21
208.35831742694009
 31
0.0
  0
LINE
  5
30AD
  8
AM_0
 10
359.38397499816108
 20
218.35830442694001
 30
0.0
 11
359.38397499816108
 21
208.35831742694009
 31
0.0
  0
LINE
  5
30AE
  8
ﾁｭｳｼﾝｾﾝ1
 10
347.38397499816108
 20
224.90377342694021
 30
0.0
 11
347.38397499816108
 21
203.81286142694009
 31
0.0
  0
ARC
  5
30AF
  8
AM_0
 10
339.38393499816112
 20
239.3991224269401
 30
0.0
 40
4.000000199999997
 50
270.0
 51
0.0
  0
ARC
  5
30B0
  8
AM_0
 10
357.38393499816112
 20
218.35830442694001
 30
0.0
 40
2.00000007
 50
0.0
 51
90.000003000000945
  0
ARC
  5
30B1
  8
AM_0
 10
361.38395499816153
 20
224.10287242694011
 30
0.0
 40
5.0000001000000003
 50
179.9999899999988
 51
235.15011000000041
  0
ARC
  5
30B2
  8
AM_0
 10
358.38395499816141
 20
273.97155442694009
 30
0.0
 40
2.00000007
 50
120.0000000000005
 51
180.00001000000091
  0
ARC
  5
30B3
  8
AM_0
 10
357.38393499816112
 20
278.01299842694021
 30
0.0
 40
2.00000007
 50
300.00000000000051
 51
0.0
  0
LINE
  5
30B4
  8
AM_0
 10
357.38396499816122
 20
275.7036104269402
 30
0.0
 11
358.38395499816141
 21
276.28094242694021
 31
0.0
  0
LINE
  5
30B5
  8
AM_0
 10
256.38398499816122
 20
329.35830442694032
 30
0.0
 11
235.3839849981612
 21
329.35830442694032
 31
0.0
  0
LINE
  5
30B6
  8
AM_0
 10
256.38398499816122
 20
315.2957444269403
 30
0.0
 11
235.3839849981612
 21
315.2957444269403
 31
0.0
  0
ARC
  5
30B7
  8
0
 10
237.3839849981612
 20
342.5230191358811
 30
0.0
 40
2.0
 50
180.0
 51
267.9999999999996
1001
GENIUS_GENOBJ-N-FIL_13
1002
{
1000
OWNER
1000
GEN
1002
}
1001
GENIUS_GENODEF_13
1002
{
1000
HIER
1070
     0
1002
}
1002
{
1000
MANEDIT
1070
     0
1002
}
1002
{
1000
NOSEL
1070
     0
1002
}
1002
{
1000
BEHIND
1070
     0
1002
}
1002
{
1000
OTHER
1070
     0
1002
}
1002
{
1000
REACTOR
1002
}
  0
LINE
  5
30B8
  8
ﾁｭｳｼﾝｾﾝ1
 10
220.6348142515003
 20
283.35830542694021
 30
0.0
 11
290.28884283938112
 21
283.35830542694021
 31
0.0
  0
LINE
  5
30B9
  8
0
 10
225.3839849981612
 20
363.35830542694009
 30
0.0
 11
233.3839849981612
 21
363.35830542694009
 31
0.0
  0
ARC
  5
30BA
  8
0
 10
233.3839849981612
 20
361.35830542694009
 30
0.0
 40
2.0
 50
0.0
 51
90.0
1001
GENIUS_GENOBJ-N-FIL_13
1002
{
1000
OWNER
1000
GEN
1002
}
1001
GENIUS_GENODEF_13
1002
{
1000
HIER
1070
     0
1002
}
1002
{
1000
MANEDIT
1070
     0
1002
}
1002
{
1000
NOSEL
1070
     0
1002
}
1002
{
1000
BEHIND
1070
     0
1002
}
1002
{
1000
OTHER
1070
     0
1002
}
1002
{
1000
REACTOR
1002
}
  0
LINE
  5
30BB
  8
AM_0
 10
297.38393499816112
 20
290.57458342694002
 30
0.0
 11
308.384004998161
 21
290.57458342694002
 31
0.0
  0
LINE
  5
30BC
  8
AM_0
 10
294.3839949981608
 20
354.35832142694022
 30
0.0
 11
338.51486499816087
 21
353.20269142694008
 31
0.0
  0
ARC
  5
30BD
  8
AM_0
 10
285.38393499816118
 20
324.85266142694019
 30
0.0
 40
2.00000007
 50
0.0
 51
90.000003000000945
  0
LINE
  5
30BE
  8
AM_0
 10
282.38393499816112
 20
333.02547142694021
 30
0.0
 11
282.38393499816112
 21
313.38636142694008
 31
0.0
  0
LINE
  5
30BF
  8
AM_0
 10
256.38398499816122
 20
315.29532142694012
 30
0.0
 11
282.38393499816112
 21
315.29532142694012
 31
0.0
  0
LINE
  5
30C0
  8
AM_0
 10
282.38393499816112
 20
311.38635142694022
 30
0.0
 11
287.38400499816089
 21
311.38635142694022
 31
0.0
  0
ARC
  5
30C1
  8
AM_0
 10
280.38398499816128
 20
313.38636142694008
 30
0.0
 40
2.00000007
 50
270.0
 51
0.0
  0
LINE
  5
30C2
  8
AM_0
 10
256.38398499816122
 20
329.35830142694022
 30
0.0
 11
282.38393499816112
 21
329.35830142694022
 31
0.0
  0
LINE
  5
30C3
  8
AM_0
 10
256.38392499816081
 20
339.35832142694022
 30
0.0
 11
282.5148549981613
 21
340.04256142694021
 31
0.0
  0
LINE
  5
30C4
  8
0
 10
237.31418600475621
 20
340.52423748184282
 30
0.0
 11
256.38398499816122
 21
339.85830542694021
 31
0.0
  0
LINE
  5
30C5
  8
AM_0
 10
287.38400499816089
 20
352.35831142694008
 30
0.0
 11
287.38400499816089
 21
337.02546142694018
 31
0.0
  0
ARC
  5
30C6
  8
AM_0
 10
285.38393499816118
 20
337.02546142694018
 30
0.0
 40
2.00000007
 50
270.0
 51
0.0
  0
ARC
  5
30C7
  8
AM_0
 10
282.38393499816112
 20
345.04086142694018
 30
0.0
 40
5.0000001000000003
 50
271.49999999999932
 51
0.0
  0
ARC
  5
30C8
  8
AM_0
 10
284.384004998161
 20
328.85265142694021
 30
0.0
 40
2.00000007
 50
179.9999899999988
 51
270.0
  0
ARC
  5
30C9
  8
AM_0
 10
284.384004998161
 20
333.02547142694021
 30
0.0
 40
2.00000007
 50
90.000003000000945
 51
180.00001000000091
  0
LINE
  5
30CA
  8
AM_0
 10
284.384004998161
 20
326.85267142694022
 30
0.0
 11
285.38393499816118
 21
326.85267142694022
 31
0.0
  0
LINE
  5
30CB
  8
AM_0
 10
284.384004998161
 20
335.02545142694021
 30
0.0
 11
285.38393499816118
 21
335.02545142694021
 31
0.0
  0
ARC
  5
30CC
  8
AM_0
 10
289.38398499816122
 20
352.35831142694008
 30
0.0
 40
2.00000007
 50
90.000003000000945
 51
180.00001000000091
  0
LINE
  5
30CD
  8
AM_0
 10
289.38398499816122
 20
354.35832142694022
 30
0.0
 11
294.38393499816112
 21
354.35832142694022
 31
0.0
  0
LINE
  5
30CE
  8
AM_0
 10
305.384004998161
 20
339.88509142694022
 30
0.0
 11
305.384004998161
 21
316.98306142694031
 31
0.0
  0
LINE
  5
30CF
  8
AM_0
 10
306.38393499816112
 20
334.87581142694012
 30
0.0
 11
306.38393499816112
 21
321.32880142694017
 31
0.0
  0
LINE
  5
30D0
  8
AM_0
 10
310.38392499816081
 20
323.32875142694007
 30
0.0
 11
310.38392499816081
 21
332.8758014269402
 31
0.0
  0
ARC
  5
30D1
  8
AM_0
 10
338.38397499816102
 20
313.14912142694021
 30
0.0
 40
8.0000000999999976
 50
90.000003000000945
 51
180.00001000000091
  0
LINE
  5
30D2
  8
AM_0
 10
321.21359499816123
 20
316.7070314269402
 30
0.0
 11
308.38394499816121
 21
290.57458342694002
 31
0.0
  0
LINE
  5
30D3
  8
AM_0
 10
308.384004998161
 20
316.7070314269402
 30
0.0
 11
308.384004998161
 21
290.57458342694002
 31
0.0
  0
LINE
  5
30D4
  8
AM_0
 10
308.384004998161
 20
316.7070314269402
 30
0.0
 11
331.21868499816122
 21
316.7070314269402
 31
0.0
  0
ARC
  5
30D5
  8
AM_0
 10
306.38393499816112
 20
313.98306142694031
 30
0.0
 40
2.00000007
 50
0.0
 51
90.000003000000945
  0
ARC
  5
30D6
  8
AM_0
 10
306.38393499816112
 20
316.98306142694031
 30
0.0
 40
1.0000000199999981
 50
179.9999899999988
 51
270.0
  0
ARC
  5
30D7
  8
AM_0
 10
309.38393499816112
 20
323.32875142694007
 30
0.0
 40
1.0000000199999981
 50
270.0
 51
0.0
  0
ARC
  5
30D8
  8
AM_0
 10
309.38393499816112
 20
324.21555142694018
 30
0.0
 40
1.0000000199999981
 50
0.0
 51
90.000003000000945
  0
ARC
  5
30D9
  8
AM_0
 10
309.38393499816112
 20
326.21550142694019
 30
0.0
 40
1.0000000199999981
 50
270.0
 51
0.0
  0
LINE
  5
30DA
  8
AM_0
 10
305.384004998161
 20
321.32880142694017
 30
0.0
 11
306.38393499816112
 21
321.32880142694017
 31
0.0
  0
LINE
  5
30DB
  8
AM_0
 10
306.38393499816112
 20
325.21554142694032
 30
0.0
 11
309.38393499816112
 21
325.21554142694032
 31
0.0
  0
LINE
  5
30DC
  8
AM_0
 10
306.38393499816112
 20
322.32879142694009
 30
0.0
 11
309.38393499816112
 21
322.32879142694009
 31
0.0
  0
LINE
  5
30DD
  8
AM_0
 10
361.38392499816092
 20
315.85830142694022
 30
0.0
 11
361.38392499816092
 21
290.85830542694009
 31
0.0
  0
LINE
  5
30DE
  8
AM_0
 10
359.38397499816108
 20
290.85830542694009
 30
0.0
 11
361.38392499816092
 21
290.85830542694009
 31
0.0
  0
LINE
  5
30DF
  8
AM_0
 10
338.38397499816102
 20
321.14910142694021
 30
0.0
 11
343.38395499816141
 21
321.14910142694021
 31
0.0
  0
LINE
  5
30E0
  8
AM_0
 10
369.38393499816112
 20
318.35829142694013
 30
0.0
 11
369.38393499816112
 21
315.35829142694018
 31
0.0
  0
LINE
  5
30E1
  8
AM_0
 10
359.38397499816108
 20
315.85830142694022
 30
0.0
 11
361.38392499816092
 21
315.85830142694022
 31
0.0
  0
LINE
  5
30E2
  8
AM_0
 10
308.384004998161
 20
334.88577142694021
 30
0.0
 11
343.38395499816141
 21
334.88577142694021
 31
0.0
  0
LINE
  5
30E3
  8
AM_0
 10
308.38394499816121
 20
353.91315142694009
 30
0.0
 11
321.96590499816142
 21
334.88577142694021
 31
0.0
  0
LINE
  5
30E4
  8
AM_0
 10
308.384004998161
 20
353.91315142694009
 30
0.0
 11
308.384004998161
 21
334.88577142694021
 31
0.0
  0
ARC
  5
30E5
  8
AM_0
 10
309.38393499816112
 20
332.8758014269402
 30
0.0
 40
1.0000000199999981
 50
0.0
 51
90.000003000000945
  0
ARC
  5
30E6
  8
AM_0
 10
309.38393499816112
 20
331.98903142694019
 30
0.0
 40
1.0000000199999981
 50
270.0
 51
0.0
  0
ARC
  5
30E7
  8
AM_0
 10
309.38393499816112
 20
329.98905142694031
 30
0.0
 40
1.0000000199999981
 50
0.0
 51
90.000003000000945
  0
LINE
  5
30E8
  8
AM_0
 10
305.384004998161
 20
334.87581142694012
 30
0.0
 11
306.38393499816112
 21
334.87581142694012
 31
0.0
  0
LINE
  5
30E9
  8
AM_0
 10
306.38393499816112
 20
330.98904142694022
 30
0.0
 11
309.38393499816112
 21
330.98904142694022
 31
0.0
  0
LINE
  5
30EA
  8
AM_0
 10
306.38393499816112
 20
333.87582142694032
 30
0.0
 11
309.38393499816112
 21
333.87582142694032
 31
0.0
  0
ARC
  5
30EB
  8
AM_0
 10
306.38393499816112
 20
342.88509142694022
 30
0.0
 40
2.00000007
 50
270.0
 51
0.0
  0
ARC
  5
30EC
  8
AM_0
 10
306.38393499816112
 20
339.88509142694022
 30
0.0
 40
1.0000000199999981
 50
90.000003000000945
 51
180.00001000000091
  0
ARC
  5
30ED
  8
AM_0
 10
353.38397499816108
 20
333.60930142694019
 30
0.0
 40
3.0
 50
0.0
 51
84.999996999998572
  0
ARC
  5
30EE
  8
AM_0
 10
348.38393499816112
 20
342.07731142694018
 30
0.0
 40
5.0000001000000003
 50
179.9999899999988
 51
265.00000000000028
  0
LINE
  5
30EF
  8
AM_0
 10
347.94818499816108
 20
337.09635142694032
 30
0.0
 11
353.64545499816109
 21
336.59790142694021
 31
0.0
  0
ARC
  5
30F0
  8
AM_0
 10
357.38393499816112
 20
328.7036114269402
 30
0.0
 40
2.00000007
 50
0.0
 51
60.000002000001302
  0
ARC
  5
30F1
  8
AM_0
 10
358.38395499816141
 20
332.7450614269402
 30
0.0
 40
2.00000007
 50
179.9999899999988
 51
240.00000999999969
  0
LINE
  5
30F2
  8
AM_0
 10
357.38396499816122
 20
331.01301142694012
 30
0.0
 11
358.38398499816111
 21
330.43566142694021
 31
0.0
  0
ARC
  5
30F3
  8
AM_0
 10
338.38397499816102
 20
348.20442142694009
 30
0.0
 40
5.0000001000000003
 50
0.0
 51
88.499997000000747
  0
ARC
  5
30F4
  8
AM_0
 10
554.51506583568744
 20
283.35830542694021
 30
0.0
 40
80.0
 50
144.9466346353031
 51
201.44941814463871
  0
ARC
  5
30F5
  8
AM_0
 10
554.51506583568744
 20
283.35830542694021
 30
0.0
 40
80.0
 50
338.55058014174352
 51
35.053310348173703
  0
ARC
  5
30F6
  8
AM_0
 10
554.51506583568744
 20
303.35830642694032
 30
0.0
 40
26.500002599999998
 50
270.0
 51
90.000003000000945
  0
ARC
  5
30F7
  8
AM_0
 10
554.51506583568744
 20
288.35830642694032
 30
0.0
 40
48.0
 50
0.0
 51
180.00001000000091
  0
ARC
  5
30F8
  8
AM_0
 10
554.51506583568744
 20
303.35830642694032
 30
0.0
 40
26.500002599999998
 50
90.000003000000945
 51
270.0
  0
LINE
  5
30F9
  8
AM_0
 10
602.51506583568744
 20
288.35830642694032
 30
0.0
 11
602.51506583568744
 21
225.35831842694009
 31
0.0
  0
LINE
  5
30FA
  8
AM_0
 10
506.51505683568757
 20
288.35830642694032
 30
0.0
 11
506.51505683568757
 21
225.35831842694009
 31
0.0
  0
LINE
  5
30FB
  8
AM_0
 10
501.51510683568739
 20
318.61086142694012
 30
0.0
 11
501.51510683568739
 21
257.35830442694021
 31
0.0
  0
LINE
  5
30FC
  8
AM_0
 10
607.51506683568755
 20
318.61086142694012
 30
0.0
 11
607.51506683568755
 21
257.35830442694021
 31
0.0
  0
LINE
  5
30FD
  8
AM_0
 10
476.51505683568729
 20
220.3583174269402
 30
0.0
 11
487.28349683568717
 21
322.98849142694007
 31
0.0
  0
LINE
  5
30FE
  8
AM_0
 10
632.51506583568744
 20
220.3583174269402
 30
0.0
 11
621.74664983568755
 21
322.98849142694007
 31
0.0
  0
LINE
  5
30FF
  8
ﾁｭｳｼﾝｾﾝ1
 10
554.51506583568744
 20
368.35830542694009
 30
0.0
 11
554.51506583568744
 21
198.35830542694021
 31
0.0
  0
ARC
  5
3100
  8
AM_0
 10
573.51507983568763
 20
257.35830442694021
 30
0.0
 40
34.000001999999988
 50
328.53301999999962
 51
0.0
  0
LINE
  5
3101
  8
AM_0
 10
604.51506683568755
 20
220.3583174269402
 30
0.0
 11
630.51508283568739
 21
220.3583174269402
 31
0.0
  0
LINE
  5
3102
  8
AM_0
 10
632.51506583568744
 20
208.35831742694009
 30
0.0
 11
602.51506583568744
 21
208.35831742694009
 31
0.0
  0
ARC
  5
3103
  8
AM_0
 10
554.51506583568744
 20
283.35830542694021
 30
0.0
 40
80.0
 50
247.6683003289524
 51
292.3316996710476
  0
LINE
  5
3104
  8
AM_0
 10
520.51506383568756
 20
225.35831842694009
 30
0.0
 11
588.51507983568763
 21
225.35831842694009
 31
0.0
  0
LINE
  5
3105
  8
AM_0
 10
601.51506683568755
 20
209.3583344269401
 30
0.0
 11
507.51510683568728
 21
209.3583344269401
 31
0.0
  0
ARC
  5
3106
  8
AM_0
 10
535.51506383568756
 20
257.35830442694021
 30
0.0
 40
34.000001999999988
 50
179.9999899999988
 51
211.46696999999941
  0
ARC
  5
3107
  8
AM_0
 10
507.51510683568728
 20
208.35831742694009
 30
0.0
 40
1.0000000199999981
 50
90.000003000000945
 51
180.00001000000091
  0
ARC
  5
3108
  8
AM_0
 10
508.51506383568773
 20
209.3583344269401
 30
0.0
 40
2.00000007
 50
90.000003000000945
 51
180.00001000000091
  0
ARC
  5
3109
  8
AM_0
 10
501.51510683568739
 20
225.35831842694009
 30
0.0
 40
5.0000001000000003
 50
270.0
 51
0.0
  0
LINE
  5
310A
  8
AM_0
 10
506.51505683568757
 20
208.35831742694009
 30
0.0
 11
506.51505683568757
 21
218.3583344269403
 31
0.0
  0
LINE
  5
310B
  8
AM_0
 10
476.51505683568729
 20
208.35831742694009
 30
0.0
 11
476.51505683568729
 21
220.3583174269402
 31
0.0
  0
LINE
  5
310C
  8
ｶｸﾚｾﾝ2
 10
483.51510683568722
 20
220.3583174269402
 30
0.0
 11
483.51510683568722
 21
208.35831742694009
 31
0.0
  0
LINE
  5
310D
  8
ｶｸﾚｾﾝ2
 10
495.51510683568722
 20
220.3583174269402
 30
0.0
 11
495.51510683568722
 21
208.35831742694009
 31
0.0
  0
LINE
  5
310E
  8
ﾁｭｳｼﾝｾﾝ1
 10
489.51507683568752
 20
224.90377342694021
 30
0.0
 11
489.51507683568752
 21
203.81286142694009
 31
0.0
  0
LINE
  5
310F
  8
AM_0
 10
476.51505683568729
 20
208.35831742694009
 30
0.0
 11
506.51505683568757
 21
208.35831742694009
 31
0.0
  0
LINE
  5
3110
  8
AM_0
 10
504.51510683568722
 20
220.3583174269402
 30
0.0
 11
478.51506683568698
 21
220.3583174269402
 31
0.0
  0
ARC
  5
3111
  8
AM_0
 10
478.51506683568698
 20
218.3583344269403
 30
0.0
 40
2.00000007
 50
90.000003000000945
 51
180.00001000000091
  0
ARC
  5
3112
  8
AM_0
 10
504.51510683568722
 20
218.3583344269403
 30
0.0
 40
2.00000007
 50
0.0
 51
90.000003000000945
  0
CIRCLE
  5
3113
  8
AM_0
 10
526.38777383568731
 20
215.4531824269402
 30
0.0
 40
4.9999998000000003
  0
LINE
  5
3114
  8
AM_0
 10
515.51506283568722
 20
220.3583174269402
 30
0.0
 11
515.51506283568722
 21
214.3583174269402
 31
0.0
  0
LINE
  5
3115
  8
AM_0
 10
525.63420383568746
 20
221.17728742694021
 30
0.0
 11
521.05378883568721
 21
217.6625954269401
 31
0.0
  0
LINE
  5
3116
  8
AM_0
 10
531.72182183568771
 20
213.2437694269401
 30
0.0
 11
530.96821883568759
 21
218.96787742694011
 31
0.0
  0
LINE
  5
3117
  8
AM_0
 10
521.80739183568744
 20
211.93847242694011
 30
0.0
 11
527.14140683568735
 21
209.72904442694011
 31
0.0
  0
ARC
  5
3118
  8
AM_0
 10
512.5150628356871
 20
214.3583174269402
 30
0.0
 40
3.0
 50
270.0
 51
0.0
  0
LINE
  5
3119
  8
AM_0
 10
512.5150628356871
 20
211.3583174269402
 30
0.0
 11
508.51506383568773
 21
211.3583174269402
 31
0.0
  0
LINE
  5
311A
  8
AM_0
 10
521.05375883568718
 20
217.6626104269402
 30
0.0
 11
521.80736183568752
 21
211.93850242694009
 31
0.0
  0
LINE
  5
311B
  8
AM_0
 10
527.14137683568742
 20
209.72907742694011
 30
0.0
 11
531.72182183568771
 21
213.24375442694031
 31
0.0
  0
ARC
  5
311C
  8
AM_0
 10
520.51506383568756
 20
220.3583174269402
 30
0.0
 40
5.0000001000000003
 50
90.000003000000945
 51
180.00001000000091
  0
LINE
  5
311D
  8
AM_0
 10
530.96824883568752
 20
218.9678474269403
 30
0.0
 11
525.6342338356875
 21
221.17727242694011
 31
0.0
  0
CIRCLE
  5
311E
  8
AM_0
 10
582.64230683568735
 20
215.4531824269402
 30
0.0
 40
4.9999998000000003
  0
LINE
  5
311F
  8
AM_0
 10
602.51506583568744
 20
208.35831742694009
 30
0.0
 11
602.51506583568744
 21
218.3583344269403
 31
0.0
  0
LINE
  5
3120
  8
AM_0
 10
593.51506583568744
 20
220.3583174269402
 30
0.0
 11
593.51506583568744
 21
214.3583174269402
 31
0.0
  0
LINE
  5
3121
  8
AM_0
 10
587.97636983568736
 20
217.66257742694009
 30
0.0
 11
583.39593983568761
 21
221.17727242694011
 31
0.0
  0
LINE
  5
3122
  8
AM_0
 10
578.06189483568767
 20
218.9678624269402
 30
0.0
 11
577.3083098356874
 21
213.24375442694031
 31
0.0
  0
LINE
  5
3123
  8
AM_0
 10
581.88875183568734
 20
209.72907742694011
 30
0.0
 11
587.22278183568721
 21
211.93850242694009
 31
0.0
  0
LINE
  5
3124
  8
AM_0
 10
577.30832483568747
 20
213.2437394269401
 30
0.0
 11
581.88875183568734
 21
209.7290624269402
 31
0.0
  0
LINE
  5
3125
  8
AM_0
 10
587.2227518356874
 20
211.9384874269401
 30
0.0
 11
587.97635483568752
 21
217.6625954269401
 31
0.0
  0
LINE
  5
3126
  8
AM_0
 10
600.51507983568763
 20
211.3583174269402
 30
0.0
 11
596.51506583568744
 21
211.3583174269402
 31
0.0
  0
ARC
  5
3127
  8
AM_0
 10
596.51506583568744
 20
214.3583174269402
 30
0.0
 40
3.0
 50
179.9999899999988
 51
270.0
  0
ARC
  5
3128
  8
AM_0
 10
600.51507983568763
 20
209.3583344269401
 30
0.0
 40
2.00000007
 50
0.0
 51
90.000003000000945
  0
ARC
  5
3129
  8
AM_0
 10
601.51506683568755
 20
208.35831742694009
 30
0.0
 40
1.0000000199999981
 50
0.0
 51
90.000003000000945
  0
ARC
  5
312A
  8
AM_0
 10
588.51507983568763
 20
220.3583174269402
 30
0.0
 40
5.0000001000000003
 50
0.0
 51
90.000003000000945
  0
LINE
  5
312B
  8
AM_0
 10
583.39595483568735
 20
221.17728742694021
 30
0.0
 11
578.06192483568748
 21
218.9678624269402
 31
0.0
  0
ARC
  5
312C
  8
AM_0
 10
604.51506683568755
 20
218.3583344269403
 30
0.0
 40
2.00000007
 50
90.000003000000945
 51
180.00001000000091
  0
ARC
  5
312D
  8
AM_0
 10
607.51506683568755
 20
225.35831842694009
 30
0.0
 40
5.0000001000000003
 50
179.9999899999988
 51
270.0
  0
LINE
  5
312E
  8
AM_0
 10
632.51506583568744
 20
208.35831742694009
 30
0.0
 11
632.51506583568744
 21
220.3583174269402
 31
0.0
  0
LINE
  5
312F
  8
ｶｸﾚｾﾝ2
 10
625.51508183568762
 20
220.3583174269402
 30
0.0
 11
625.51508183568762
 21
208.35831742694009
 31
0.0
  0
LINE
  5
3130
  8
ｶｸﾚｾﾝ2
 10
613.51506683568755
 20
220.3583174269402
 30
0.0
 11
613.51506683568755
 21
208.35831742694009
 31
0.0
  0
LINE
  5
3131
  8
ﾁｭｳｼﾝｾﾝ1
 10
619.51508183568762
 20
224.90377342694021
 30
0.0
 11
619.51508183568762
 21
203.81286142694009
 31
0.0
  0
ARC
  5
3132
  8
AM_0
 10
630.51508283568739
 20
218.3583344269403
 30
0.0
 40
2.00000007
 50
0.0
 51
90.000003000000945
  0
ARC
  5
3133
  8
AM_0
 10
554.51506583568744
 20
283.35830542694021
 30
0.0
 40
80.0
 50
41.778364608222901
 51
138.22167273140781
  0
ARC
  5
3134
  8
AM_0
 10
554.51506583568744
 20
244.3583204269402
 30
0.0
 40
110.000004
 50
58.263836000000381
 51
121.7361699999997
  0
ARC
  5
3135
  8
AM_0
 10
616.79334083568722
 20
331.14606142693998
 30
0.0
 40
13.9999986
 50
154.93703999999951
 51
273.19937000000061
  0
ARC
  5
3136
  8
AM_0
 10
602.51506583568744
 20
318.61086142694012
 30
0.0
 40
5.0000001000000003
 50
0.0
 51
41.280591000000527
  0
LINE
  5
3137
  8
ﾁｭｳｼﾝｾﾝ1
 10
639.51506583568744
 20
283.35830542694021
 30
0.0
 11
469.51506583568721
 21
283.35830542694021
 31
0.0
  0
LINE
  5
3138
  8
AM_0
 10
608.24611583568719
 20
331.61691142694031
 30
0.0
 11
607.49251283568765
 21
325.89279142694022
 31
0.0
  0
LINE
  5
3139
  8
AM_0
 10
607.49254283568735
 20
325.89279142694022
 30
0.0
 11
612.07297283568721
 21
322.37811142694022
 31
0.0
  0
LINE
  5
313A
  8
AM_0
 10
401.38397499816091
 20
318.35829142694013
 30
0.0
 11
401.38397499816091
 21
291.35830642694032
 31
0.0
  0
ARC
  5
313B
  8
AM_0
 10
554.51506583568744
 20
283.35830542694021
 30
0.0
 40
71.000000999999983
 50
47.99935899999911
 51
132.00064999999921
  0
LINE
  5
313C
  8
ﾁｭｳｼﾝｾﾝ1
 10
517.34648483568753
 20
303.35830642694032
 30
0.0
 11
590.21239283568775
 21
303.35830642694032
 31
0.0
  0
ARC
  5
313D
  8
AM_0
 10
507.17430683568699
 20
320.90145142694013
 30
0.0
 40
20.000000700000001
 50
121.7361699999997
 51
174.01019000000011
  0
ARC
  5
313E
  8
AM_0
 10
492.23679683568753
 20
331.14606142693998
 30
0.0
 40
13.9999986
 50
266.80063999999902
 51
25.06296900000175
  0
CIRCLE
  5
313F
  8
AM_0
 10
496.20360683568742
 20
328.10229142694038
 30
0.0
 40
4.9999998000000003
  0
LINE
  5
3140
  8
AM_0
 10
490.86960683568719
 20
330.31173142694013
 30
0.0
 11
491.62317683568762
 21
324.5876114269401
 31
0.0
  0
LINE
  5
3141
  8
AM_0
 10
501.53763683568741
 20
325.89288142693999
 30
0.0
 11
500.78403683568712
 21
331.61700142694019
 31
0.0
  0
ARC
  5
3142
  8
AM_0
 10
554.51506583568744
 20
283.35830542694021
 30
0.0
 40
71.000000999999983
 50
152.9994200000007
 51
174.01019000000011
  0
ARC
  5
3143
  8
AM_0
 10
491.17641683568741
 20
312.17565142694031
 30
0.0
 40
5.0000001000000003
 50
86.800638999999066
 51
174.01019000000011
  0
LINE
  5
3144
  8
AM_0
 10
496.95723683568752
 20
322.37820142694022
 30
0.0
 11
501.53763683568741
 21
325.8929114269402
 31
0.0
  0
ARC
  5
3145
  8
AM_0
 10
493.92693683568763
 20
314.23029142694008
 30
0.0
 40
3.0
 50
95.70573799999886
 51
152.9994200000007
  0
LINE
  5
3146
  8
AM_0
 10
491.62317683568762
 20
324.5876114269401
 30
0.0
 11
496.9572068356876
 21
322.37817142694018
 31
0.0
  0
ARC
  5
3147
  8
AM_0
 10
506.51505683568757
 20
318.61086142694012
 30
0.0
 40
5.0000001000000003
 50
138.71941000000001
 51
180.00001000000091
  0
ARC
  5
3148
  8
AM_0
 10
509.44783283568768
 20
339.19473142694022
 30
0.0
 40
5.0000001000000003
 50
115.4175600000008
 51
205.0629700000004
  0
LINE
  5
3149
  8
AM_0
 10
500.78403683568712
 20
331.61697142693998
 30
0.0
 11
495.45003683568711
 21
333.82641142694018
 31
0.0
  0
LINE
  5
314A
  8
AM_0
 10
495.45006683568772
 20
333.82641142694018
 30
0.0
 11
490.86960683568719
 21
330.31173142694013
 31
0.0
  0
ARC
  5
314B
  8
AM_0
 10
509.01362783568737
 20
333.89166142694012
 30
0.0
 40
3.0
 50
132.00064999999921
 51
189.2943400000016
  0
CIRCLE
  5
314C
  8
AM_0
 10
554.51506583568744
 20
303.35830642694032
 30
0.0
 40
3.0
  0
CIRCLE
  5
314D
  8
AM_0
 62
     2
 10
554.51506583568744
 20
303.35830642694032
 30
0.0
 40
4.000000199999997
  0
ARC
  5
314E
  8
AM_0
 10
554.51506583568744
 20
303.35830642694032
 30
0.0
 40
12.00000029999998
 50
109.47121999999951
 51
70.528788999999293
  0
LINE
  5
314F
  8
AM_0
 10
550.51506383568767
 20
311.35830142694022
 30
0.0
 11
558.51504983568725
 21
311.35830142694022
 31
0.0
  0
LINE
  5
3150
  8
AM_0
 10
550.51506383568767
 20
318.35829142694013
 30
0.0
 11
558.51504983568725
 21
318.35829142694013
 31
0.0
  0
LINE
  5
3151
  8
AM_0
 10
550.51506383568767
 20
318.35829142694013
 30
0.0
 11
550.51506383568767
 21
311.35830142694022
 31
0.0
  0
LINE
  5
3152
  8
AM_0
 10
558.51504983568725
 20
318.35829142694013
 30
0.0
 11
558.51504983568725
 21
311.35830142694022
 31
0.0
  0
ARC
  5
3153
  8
AM_0
 10
599.58231083568762
 20
339.19473142694022
 30
0.0
 40
5.0000001000000003
 50
334.93702999999948
 51
64.582444000001303
  0
ARC
  5
3154
  8
AM_0
 10
600.01653083568715
 20
333.89166142694012
 30
0.0
 40
3.0
 50
350.70567000000091
 51
47.99935899999911
  0
ARC
  5
3155
  8
AM_0
 10
601.85583983568745
 20
320.90145142694013
 30
0.0
 40
20.000000700000001
 50
5.9898155000000548
 51
58.263836000000381
  0
CIRCLE
  5
3156
  8
AM_0
 10
612.82654283568763
 20
328.10223142694031
 30
0.0
 40
4.9999998000000003
  0
LINE
  5
3157
  8
AM_0
 10
618.16052783568716
 20
330.31170142694032
 30
0.0
 11
617.40694283568735
 21
324.5876114269401
 31
0.0
  0
ARC
  5
3158
  8
AM_0
 10
554.51506583568744
 20
283.35830542694021
 30
0.0
 40
71.000000999999983
 50
5.989814199999338
 51
27.0005730000006
  0
ARC
  5
3159
  8
AM_0
 10
617.85373583568753
 20
312.17565142694031
 30
0.0
 40
5.0000001000000003
 50
5.9898155000000548
 51
93.199359000001024
  0
ARC
  5
315A
  8
AM_0
 10
615.1032008356874
 20
314.23029142694008
 30
0.0
 40
3.0
 50
27.0005730000006
 51
84.294260999999054
  0
LINE
  5
315B
  8
AM_0
 10
612.07297283568721
 20
322.37814142693998
 30
0.0
 11
617.40700283568719
 21
324.58755142694031
 31
0.0
  0
LINE
  5
315C
  8
AM_0
 10
618.16059083568769
 20
330.31164142694018
 30
0.0
 11
613.58016083568737
 21
333.8263214269403
 31
0.0
  0
LINE
  5
315D
  8
AM_0
 10
613.58016083568737
 20
333.82635142694022
 30
0.0
 11
608.24613083568715
 21
331.61694142694
 31
0.0
  0
LINE
  5
315F
  8
0
 10
225.3840049981612
 20
424.48538409125598
 30
0.0
 11
225.3840049981612
 21
584.48538409125604
 31
0.0
1001
GENIUS_GENOREF_13
1005
2ED4
  0
LINE
  5
3160
  8
0
 10
235.3840049981612
 20
582.48538409125604
 30
0.0
 11
235.3840049981612
 21
426.48538409125598
 31
0.0
1001
GENIUS_GENOREF_13
1005
2ED4
  0
LINE
  5
3161
  8
0
 10
225.3840049981612
 20
424.48538409125598
 30
0.0
 11
233.3840049981612
 21
424.48538409125598
 31
0.0
  0
ARC
  5
3162
  8
0
 10
233.3840049981612
 20
426.48538409125598
 30
0.0
 40
2.0
 50
270.0
 51
0.0
1001
GENIUS_GENOBJ-N-FIL_13
1002
{
1000
OWNER
1000
GEN
1002
}
1001
GENIUS_GENODEF_13
1002
{
1000
HIER
1070
     0
1002
}
1002
{
1000
MANEDIT
1070
     0
1002
}
1002
{
1000
NOSEL
1070
     0
1002
}
1002
{
1000
BEHIND
1070
     0
1002
}
1002
{
1000
OTHER
1070
     0
1002
}
1002
{
1000
REACTOR
1002
}
  0
LINE
  5
3163
  8
0
 10
237.3142060047561
 20
447.31945203635308
 30
0.0
 11
256.38400499816112
 21
447.98538409125598
 31
0.0
  0
LINE
  5
3164
  8
AM_0
 10
256.38400499816112
 20
458.48536709125602
 30
0.0
 11
235.3840049981612
 21
458.48536709125602
 31
0.0
  0
ARC
  5
3165
  8
0
 10
237.3840049981612
 20
445.3206703823152
 30
0.0
 40
2.0
 50
92.000000000000341
 51
180.0
1001
GENIUS_GENOBJ-N-FIL_13
1002
{
1000
OWNER
1000
GEN
1002
}
1001
GENIUS_GENODEF_13
1002
{
1000
HIER
1070
     0
1002
}
1002
{
1000
MANEDIT
1070
     0
1002
}
1002
{
1000
NOSEL
1070
     0
1002
}
1002
{
1000
BEHIND
1070
     0
1002
}
1002
{
1000
OTHER
1070
     0
1002
}
1002
{
1000
REACTOR
1002
}
  0
LINE
  5
3166
  8
AM_0
 10
256.38400499816112
 20
472.54794209125589
 30
0.0
 11
235.3840049981612
 21
472.54794209125589
 31
0.0
  0
LINE
  5
3167
  8
0
 10
225.3840049981612
 20
584.48538409125604
 30
0.0
 11
233.3840049981612
 21
584.48538409125604
 31
0.0
  0
LINE
  5
3168
  8
AM_0
 10
256.38400499816112
 20
536.42282309125596
 30
0.0
 11
235.3840049981612
 21
536.42282309125596
 31
0.0
  0
LINE
  5
3169
  8
AM_0
 10
256.38400499816112
 20
550.48538309125615
 30
0.0
 11
235.3840049981612
 21
550.48538309125615
 31
0.0
  0
LINE
  5
316A
  8
0
 10
237.3142060047561
 20
561.65131614615871
 30
0.0
 11
256.38400499816112
 21
560.98538409125604
 31
0.0
  0
ARC
  5
316B
  8
0
 10
237.3840049981612
 20
563.65009780019705
 30
0.0
 40
2.0
 50
180.0
 51
267.9999999999996
1001
GENIUS_GENOBJ-N-FIL_13
1002
{
1000
OWNER
1000
GEN
1002
}
1001
GENIUS_GENODEF_13
1002
{
1000
HIER
1070
     0
1002
}
1002
{
1000
MANEDIT
1070
     0
1002
}
1002
{
1000
NOSEL
1070
     0
1002
}
1002
{
1000
BEHIND
1070
     0
1002
}
1002
{
1000
OTHER
1070
     0
1002
}
1002
{
1000
REACTOR
1002
}
  0
ARC
  5
316C
  8
0
 10
233.3840049981612
 20
582.48538409125604
 30
0.0
 40
2.0
 50
0.0
 51
90.0
1001
GENIUS_GENOBJ-N-FIL_13
1002
{
1000
OWNER
1000
GEN
1002
}
1001
GENIUS_GENODEF_13
1002
{
1000
HIER
1070
     0
1002
}
1002
{
1000
MANEDIT
1070
     0
1002
}
1002
{
1000
NOSEL
1070
     0
1002
}
1002
{
1000
BEHIND
1070
     0
1002
}
1002
{
1000
OTHER
1070
     0
1002
}
1002
{
1000
REACTOR
1002
}
  0
TEXT
  5
3349
  8
AM_0
 10
474.24714125959002
 20
536.08233059473127
 30
0.0
 40
10.0
  1
VX02-040A~VX02-060A
  0
ENDSEC
  0
EOF
