  0
SECTION
  2
HEADER
  9
$ACADVER
  1
AC1009
  9
$INSBASE
 10
0.0
 20
0.0
 30
0.0
  9
$EXTMIN
 10
220.58995280553339
 20
187.43744605918749
 30
-0.0000000349181948
  9
$EXTMAX
 10
641.31012899848884
 20
588.78086108900561
 30
0.0000000814935747
  9
$LIMMIN
 10
0.0
 20
0.0
  9
$LIMMAX
 10
853.5
 20
555.00000000000011
  9
$ORTHOMODE
 70
     0
  9
$REGENMODE
 70
     1
  9
$FILLMODE
 70
     1
  9
$QTEXTMODE
 70
     0
  9
$MIRRTEXT
 70
     1
  9
$DRAGMODE
 70
     2
  9
$LTSCALE
 40
3.0
  9
$OSMODE
 70
   551
  9
$ATTMODE
 70
     1
  9
$TEXTSIZE
 40
2.5
  9
$TRACEWID
 40
1.0
  9
$TEXTSTYLE
  7
STANDARD
  9
$CLAYER
  8
AM_0
  9
$CELTYPE
  6
BYLAYER
  9
$CECOLOR
 62
   256
  9
$DIMSCALE
 40
1.0
  9
$DIMASZ
 40
2.5
  9
$DIMEXO
 40
1.0
  9
$DIMDLI
 40
8.0
  9
$DIMRND
 40
0.0
  9
$DIMDLE
 40
0.0
  9
$DIMEXE
 40
0.6
  9
$DIMTP
 40
0.1
  9
$DIMTM
 40
0.1
  9
$DIMTXT
 40
2.5
  9
$DIMCEN
 40
0.0
  9
$DIMTSZ
 40
0.0
  9
$DIMTOL
 70
     0
  9
$DIMLIM
 70
     0
  9
$DIMTIH
 70
     0
  9
$DIMTOH
 70
     0
  9
$DIMSE1
 70
     0
  9
$DIMSE2
 70
     0
  9
$DIMTAD
 70
     1
  9
$DIMZIN
 70
     8
  9
$DIMBLK
  1

  9
$DIMASO
 70
     1
  9
$DIMSHO
 70
     1
  9
$DIMPOST
  1

  9
$DIMAPOST
  1
"
  9
$DIMALT
 70
     0
  9
$DIMALTD
 70
     2
  9
$DIMALTF
 40
0.0393701
  9
$DIMLFAC
 40
1.0
  9
$DIMTOFL
 70
     1
  9
$DIMTVP
 40
0.0
  9
$DIMTIX
 70
     0
  9
$DIMSOXD
 70
     0
  9
$DIMSAH
 70
     0
  9
$DIMBLK1
  1

  9
$DIMBLK2
  1

  9
$DIMSTYLE
  2
AM_ISO
  9
$DIMCLRD
 70
   256
  9
$DIMCLRE
 70
   256
  9
$DIMCLRT
 70
     4
  9
$DIMTFAC
 40
0.71
  9
$DIMGAP
 40
0.8
  9
$LUNITS
 70
     2
  9
$LUPREC
 70
     2
  9
$SKETCHINC
 40
1.0
  9
$FILLETRAD
 40
15.0
  9
$AUNITS
 70
     0
  9
$AUPREC
 70
     0
  9
$MENU
  1
.
  9
$ELEVATION
 40
0.0
  9
$PELEVATION
 40
0.0
  9
$THICKNESS
 40
0.0
  9
$LIMCHECK
 70
     0
  9
$BLIPMODE
 70
     0
  9
$CHAMFERA
 40
6.0
  9
$CHAMFERB
 40
3.0
  9
$SKPOLY
 70
     0
  9
$TDCREATE
 40
2452065.742638519
  9
$TDUPDATE
 40
2458541.466163137
  9
$TDINDWG
 40
0.0585269792
  9
$TDUSRTIMER
 40
0.058526794
  9
$USRTIMER
 70
     1
  9
$ANGBASE
 50
0.0
  9
$ANGDIR
 70
     0
  9
$PDMODE
 70
     0
  9
$PDSIZE
 40
0.0
  9
$PLINEWID
 40
0.0
  9
$COORDS
 70
     1
  9
$SPLFRAME
 70
     0
  9
$SPLINETYPE
 70
     6
  9
$SPLINESEGS
 70
     8
  9
$ATTDIA
 70
     1
  9
$ATTREQ
 70
     1
  9
$HANDLING
 70
     1
  9
$HANDSEED
  5
395B
  9
$SURFTAB1
 70
     6
  9
$SURFTAB2
 70
     6
  9
$SURFTYPE
 70
     6
  9
$SURFU
 70
     6
  9
$SURFV
 70
     6
  9
$UCSNAME
  2

  9
$UCSORG
 10
0.0
 20
0.0
 30
0.0
  9
$UCSXDIR
 10
1.0
 20
0.0
 30
0.0
  9
$UCSYDIR
 10
0.0
 20
1.0
 30
0.0
  9
$PUCSNAME
  2

  9
$PUCSORG
 10
0.0
 20
0.0
 30
0.0
  9
$PUCSXDIR
 10
1.0
 20
0.0
 30
0.0
  9
$PUCSYDIR
 10
0.0
 20
1.0
 30
0.0
  9
$USERI1
 70
     0
  9
$USERI2
 70
     0
  9
$USERI3
 70
     0
  9
$USERI4
 70
     0
  9
$USERI5
 70
     0
  9
$USERR1
 40
0.0
  9
$USERR2
 40
0.0
  9
$USERR3
 40
0.0
  9
$USERR4
 40
0.0
  9
$USERR5
 40
0.0
  9
$WORLDVIEW
 70
     1
  9
$SHADEDGE
 70
     3
  9
$SHADEDIF
 70
    70
  9
$TILEMODE
 70
     1
  9
$MAXACTVP
 70
    64
  9
$PLIMCHECK
 70
     0
  9
$PEXTMIN
 10
1.0000000000000000E+020
 20
1.0000000000000000E+020
 30
1.0000000000000000E+020
  9
$PEXTMAX
 10
-1.0000000000000000E+020
 20
-1.0000000000000000E+020
 30
-1.0000000000000000E+020
  9
$PLIMMIN
 10
0.0
 20
0.0
  9
$PLIMMAX
 10
420.0
 20
297.0
  9
$UNITMODE
 70
     0
  9
$VISRETAIN
 70
     1
  9
$PLINEGEN
 70
     0
  9
$PSLTSCALE
 70
     1
  0
ENDSEC
  0
SECTION
  2
TABLES
  0
TABLE
  2
VPORT
 70
     1
  0
VPORT
  2
*ACTIVE
 70
     0
 10
0.0
 20
0.0
 11
1.0
 21
1.0
 12
430.9500409020111
 22
388.10915357409658
 13
0.0
 23
0.0
 14
7.5
 24
7.5
 15
30.0
 25
30.0
 16
0.0
 26
0.0
 36
1.0
 17
0.0
 27
0.0
 37
0.0
 40
404.0986329819678
 41
1.7571592210767459
 42
50.0
 43
0.0
 44
0.0
 50
0.0
 51
0.0
 71
     0
 72
   100
 73
     1
 74
     3
 75
     0
 76
     0
 77
     0
 78
     0
  0
ENDTAB
  0
TABLE
  2
LTYPE
 70
    26
  0
LTYPE
  2
CONTINUOUS
 70
     0
  3
Solid line
 72
    65
 73
     0
 40
0.0
  0
LTYPE
  2
AM_ISO02W050
 70
     0
  3
__ __ __ __ __ __ __ __ __ __ __ __ __ __ __
 72
    65
 73
     2
 40
7.5
 49
6.0
 49
-1.5
  0
LTYPE
  2
AM_ISO08W050
 70
     0
  3
____ . ____ . ____ . ____ . ____ . ____ . ____
 72
    65
 73
     4
 40
18.0
 49
12.0
 49
-1.5
 49
3.0
 49
-1.5
  0
LTYPE
  2
AM_ISO09W050
 70
     0
  3
_____ . . _____ . . _____ . . ____ .. ____
 72
    65
 73
     6
 40
22.5
 49
12.0
 49
-1.5
 49
3.0
 49
-1.5
 49
3.0
 49
-1.5
  0
LTYPE
  2
AMCONSTR
 70
     0
  3
_______________________
 72
    65
 73
     2
 40
9999.0
 49
9999.0
 49
0.0
  0
LTYPE
  2
AM_ISO08W050X2
 70
     0
  3
__ . __ . __ . __ . __ . __
 72
    65
 73
     4
 40
9.0
 49
6.0
 49
-0.75
 49
1.5
 49
-0.75
  0
LTYPE
  2
AM_ISO02W050X2
 70
     0
  3
 _ _ _ _ _ _ _ _ _ _ _ _
 72
    65
 73
     2
 40
3.75
 49
3.0
 49
-0.75
  0
LTYPE
  2
AMZIGZAG
 70
     0
  3
/\/-/\/-/\/-/\/-/\/-/\/
 72
    65
 73
     2
 40
11.000099999999991
 49
0.0001
 49
-11.0
  0
LTYPE
  2
ACISOWELD
 70
     0
  3
_ _ _ _ _
 72
    65
 73
     2
 40
2.0
 49
2.0
 49
-1.0
  0
LTYPE
  2
ACISOTGB
 70
     0
  3
__ . . __ . .
 72
    65
 73
     6
 40
9.0
 49
4.0
 49
-1.0
 49
1.0
 49
-1.0
 49
1.0
 49
-1.0
  0
LTYPE
  2
ACISOTGL
 70
     0
  3
_ _ _ _ _
 72
    65
 73
     2
 40
3.0
 49
2.0
 49
-1.0
  0
LTYPE
  2
CENTER
 70
     0
  3
__ . __
 72
    65
 73
     4
 40
7.0
 49
4.0
 49
-1.0
 49
1.0
 49
-1.0
  0
LTYPE
  2
PHANTOM2
 70
     0
  3
Phantom (.5x) ___ _ _ ___ _ _ ___ _ _ ___ _ _
 72
    65
 73
     6
 40
31.75
 49
15.875
 49
-3.174999999999998
 49
3.174999999999998
 49
-3.174999999999998
 49
3.174999999999998
 49
-3.174999999999998
  0
LTYPE
  2
ACANSTGBM
 70
     0
  3
__ . . __ . .
 72
    65
 73
     6
 40
9.0
 49
4.0
 49
-1.0
 49
1.0
 49
-1.0
 49
1.0
 49
-1.0
  0
LTYPE
  2
ACANSTGLM
 70
     0
  3
_ _ _ _ _
 72
    65
 73
     2
 40
3.0
 49
2.0
 49
-1.0
  0
LTYPE
  2
GEN3B
 70
     0
  3
 - - - - -
 72
    65
 73
     2
 40
1.0
 49
0.5
 49
-0.5
  0
LTYPE
  2
GEN7A
 70
     0
  3
__ . __ . __
 72
    65
 73
     4
 40
7.375
 49
4.75
 49
-0.875
 49
0.875
 49
-0.875
  0
LTYPE
  2
ACJISTGB
 70
     0
  3
__ . . __ . .
 72
    65
 73
     6
 40
9.0
 49
4.0
 49
-1.0
 49
1.0
 49
-1.0
 49
1.0
 49
-1.0
  0
LTYPE
  2
ACJISTGL
 70
     0
  3
_ _ _ _ _
 72
    65
 73
     2
 40
3.0
 49
2.0
 49
-1.0
  0
LTYPE
  2
HIDDEN
 70
     0
  3
Hidden __ __ __ __ __ __ __ __ __ __ __ __ __ _
 72
    65
 73
     2
 40
0.375
 49
0.25
 49
-0.125
  0
LTYPE
  2
CENTER2
 70
     0
  3
Center (.5x) ___ _ ___ _ ___ _ ___ _ ___ _ ___
 72
    65
 73
     4
 40
1.125
 49
0.75
 49
-0.125
 49
0.125
 49
-0.125
  0
LTYPE
  2
HIDDEN2
 70
     0
  3
Hidden (.5x) _ _ _ _ _ _ _ _ _ _ _ _ _ _ _ _ _
 72
    65
 73
     2
 40
0.1875
 49
0.125
 49
-0.0625
  0
LTYPE
  2
AMZIGZAG2
 70
     0
  3
/\/-/\/-/\/-/\/-/\/-/\/
 72
    65
 73
     2
 40
0.4401
 49
0.0001
 49
-0.4400000000000002
  0
LTYPE
  2
ACANSTGB
 70
     0
  3
__ . . __ . .
 72
    65
 73
     6
 40
0.35433070866
 49
0.15748031496
 49
-0.03937007874
 49
0.03937007874
 49
-0.03937007874
 49
0.03937007874
 49
-0.03937007874
  0
LTYPE
  2
ACANSTGL
 70
     0
  3
_ _ _ _ _
 72
    65
 73
     2
 40
0.11811023622
 49
0.07874015748
 49
-0.03937007874
  0
ENDTAB
  0
TABLE
  2
LAYER
 70
     6
  0
LAYER
  2
0
 70
     0
 62
     7
  6
CONTINUOUS
  0
LAYER
  2
AM_0
 70
     0
 62
     7
  6
CONTINUOUS
  0
LAYER
  2
AM_5
 70
     0
 62
     2
  6
CONTINUOUS
  0
LAYER
  2
DEFPOINTS
 70
     0
 62
     7
  6
CONTINUOUS
  0
LAYER
  2
ｶｸﾚｾﾝ2
 70
     0
 62
     3
  6
GEN3B
  0
LAYER
  2
ﾁｭｳｼﾝｾﾝ1
 70
     0
 62
     1
  6
GEN7A
  0
ENDTAB
  0
TABLE
  2
STYLE
 70
     9
  0
STYLE
  2
STANDARD
 70
     0
 40
0.0
 41
0.8299999999999999
 50
0.0
 71
     0
 42
2.5
  3
txt.shx
  4
bigfont.shx
  0
STYLE
  2
ANNOTATIVE
 70
     0
 40
0.0
 41
1.0
 50
0.0
 71
     0
 42
0.2
  3
txt
  4

  0
STYLE
  2

 70
     1
 40
0.0
 41
1.0
 50
0.0
 71
     0
 42
2.5
  3
ltypeshp.shx
  4

  0
STYLE
  2
ACISOTS
 70
     0
 40
1.0
 41
1.0
 50
0.0
 71
     0
 42
2.5
  3
isocp.shx
  4
extfont.shx
  0
STYLE
  2
ACISOGDT
 70
     0
 40
0.0
 41
1.0
 50
0.0
 71
     0
 42
2.5
  3
amgdt.shx
  4

  0
STYLE
  2
ACANSTS
 70
     0
 40
1.0
 41
1.0
 50
0.0
 71
     0
 42
2.5
  3
romans.shx
  4
bigfont.shx
  0
STYLE
  2
ACANSGDT
 70
     0
 40
0.0
 41
1.0
 50
0.0
 71
     0
 42
2.5
  3
amgdt.shx
  4

  0
STYLE
  2
ACJISTS
 70
     0
 40
1.0
 41
1.0
 50
0.0
 71
     0
 42
2.5
  3
isocp.shx
  4
bigfont.shx
  0
STYLE
  2
ACJISGDT
 70
     0
 40
0.0
 41
1.0
 50
0.0
 71
     0
 42
2.5
  3
amgdt.shx
  4

  0
ENDTAB
  0
TABLE
  2
VIEW
 70
     6
  0
VIEW
  2
AM_VIEW1
 70
     0
 40
277.49999999999989
 10
249.64779005524849
 20
416.24999999999989
 41
499.2955801104971
 11
0.0
 21
0.0
 31
1.0
 12
0.0
 22
0.0
 32
0.0
 42
50.0
 43
0.0
 44
0.0
 50
0.0
 71
     0
  0
VIEW
  2
AM_VIEW2
 70
     0
 40
277.49999999999989
 10
603.85220994475117
 20
416.24999999999989
 41
499.2955801104971
 11
0.0
 21
0.0
 31
1.0
 12
0.0
 22
0.0
 32
0.0
 42
50.0
 43
0.0
 44
0.0
 50
0.0
 71
     0
  0
VIEW
  2
AM_VIEW3
 70
     0
 40
277.49999999999989
 10
249.64779005524849
 20
138.7499999999998
 41
499.2955801104971
 11
0.0
 21
0.0
 31
1.0
 12
0.0
 22
0.0
 32
0.0
 42
50.0
 43
0.0
 44
0.0
 50
0.0
 71
     0
  0
VIEW
  2
AM_VIEW4
 70
     0
 40
277.49999999999989
 10
603.85220994475117
 20
138.7499999999998
 41
499.2955801104971
 11
0.0
 21
0.0
 31
1.0
 12
0.0
 22
0.0
 32
0.0
 42
50.0
 43
0.0
 44
0.0
 50
0.0
 71
     0
  0
VIEW
  2
AM_VIEW5
 70
     0
 40
277.5
 10
426.75
 20
277.49999999999989
 41
499.2955801104971
 11
0.0
 21
0.0
 31
1.0
 12
0.0
 22
0.0
 32
0.0
 42
50.0
 43
0.0
 44
0.0
 50
0.0
 71
     0
  0
VIEW
  2
AM_VIEW6
 70
     0
 40
554.99445000000014
 10
426.75
 20
277.49999999999989
 41
998.5811743093924
 11
0.0
 21
0.0
 31
1.0
 12
0.0
 22
0.0
 32
0.0
 42
50.0
 43
0.0
 44
0.0
 50
0.0
 71
     0
  0
ENDTAB
  0
TABLE
  2
UCS
 70
     0
  0
ENDTAB
  0
TABLE
  2
APPID
 70
    95
  0
APPID
  2
ACAD
 70
     0
  0
APPID
  2
ACADANNOTATIVE
 70
     0
  0
APPID
  2
MCAD_NO_VIS
 70
     0
  0
APPID
  2
ACAD_TEMP_GRAPHIC
 70
     0
  0
APPID
  2
ACATTRIBSERVICES
 70
     0
  0
APPID
  2
GENIUS_GENREC_14
 70
     0
  0
APPID
  2
GENIUS_GENOBJ-N-REC_13
 70
     0
  0
APPID
  2
GENIUS_GENODEF_13
 70
     0
  0
APPID
  2
GENIUS_GENOLIS_13
 70
     0
  0
APPID
  2
GENIUS_GENOBJ-N-TIT_13
 70
     0
  0
APPID
  2
GENIUS_GENOENT_13
 70
     0
  0
APPID
  2
GENIUS_GENTITLE_13
 70
     0
  0
APPID
  2
GENIUS_GENOREF_13
 70
     0
  0
APPID
  2
GENIUS_GENSCREG_15
 70
     0
  0
APPID
  2
GENIUS_GENOBJ-N-SDF_13
 70
     0
  0
APPID
  2
GENIUS_GENFIL_13
 70
     0
  0
APPID
  2
GENIUS_GENOBJ-N-CHA_13
 70
     0
  0
APPID
  2
GENIUS_GENDTOL_13
 70
     0
  0
APPID
  2
GENIUS_GENOBJ-N-FIL_13
 70
     0
  0
APPID
  2
AD_DRAW
 70
     0
  0
APPID
  2
DESIGNERASSEMBLIES
 70
     0
  0
APPID
  2
ASURF_PCURVE_APPNAME
 70
     0
  0
APPID
  2
GENIUS_GE3SECT_13
 70
     0
  0
APPID
  2
GENIUS_GENCFG_13
 70
     0
  0
APPID
  2
GENIUS_GE3CFG0_13
 70
     0
  0
APPID
  2
GENIUS_GENCFG0_13
 70
     0
  0
APPID
  2
GENIUS_GENCFG1_13
 70
     0
  0
APPID
  2
GENIUS_GENCFG2_13
 70
     0
  0
APPID
  2
GENIUS_GENCFG3_13
 70
     0
  0
APPID
  2
GENIUS_GENCFG4_13
 70
     0
  0
APPID
  2
GENIUS_GEVCFG0_13
 70
     0
  0
APPID
  2
GENIUS_GENHINW_13
 70
     0
  0
APPID
  2
GENIUS_FIRSTVISTXT_14
 70
     0
  0
APPID
  2
GENIUS_GENOBJ-N-LEADER_13
 70
     0
  0
APPID
  2
GEV_VCCNULL_SWITCH_OFF
 70
     0
  0
APPID
  2
GENIUS_GEFCFG0_13
 70
     0
  0
APPID
  2
GENIUS_GENZVEED_13
 70
     0
  0
APPID
  2
GENIUS_GENSCREG_13
 70
     0
  0
APPID
  2
GENIUS_DUMCFG0_13
 70
     0
  0
APPID
  2
GEVID936201362
 70
     0
  0
APPID
  2
GEVDC
 70
     0
  0
APPID
  2
GEVCON
 70
     0
  0
APPID
  2
VCC
 70
     0
  0
APPID
  2
GEVPT
 70
     0
  0
APPID
  2
GEVIT
 70
     0
  0
APPID
  2
GENBH
 70
     0
  0
APPID
  2
GEVMK
 70
     0
  0
APPID
  2
GENIUS_GENBH_13
 70
     0
  0
APPID
  2
GENIUS_GENOBJ-NBEHI-BHF_13
 70
     0
  0
APPID
  2
GENIUS_GENOBJ-NBEHI-BHB_13
 70
     0
  0
APPID
  2
GENIUS_GENOBJ-F-DESC_13
 70
     0
  0
APPID
  2
GENIUS_GEFDESC_14
 70
     0
  0
APPID
  2
GENIUS_GENOBJ-F-PART_13
 70
     0
  0
APPID
  2
GENIUS_GEFSTDP_13
 70
     0
  0
APPID
  2
GENIUS_GEFPARTINS_13
 70
     0
  0
APPID
  2
GENIUS_GENTRA_14
 70
     0
  0
APPID
  2
GENIUS_GENINF13_13
 70
     0
  0
APPID
  2
GENIUS_GENOBJ-N-INFOPT_13
 70
     0
  0
APPID
  2
GENIUS_GENOBJ-N-RSSYM_13
 70
     0
  0
APPID
  2
GENIUS_GENSYMENT_13
 70
     0
  0
APPID
  2
GENIUS_GENSCSYM_13
 70
     0
  0
APPID
  2
GENIUS_GEFINFNAM_13
 70
     0
  0
APPID
  2
GENIUS_GENOBJ-N-CEN_13
 70
     0
  0
APPID
  2
GENIUS_GENOBJ-N-CRS_13
 70
     0
  0
APPID
  2
GENIUS_GENOBJ-N-CRC_13
 70
     0
  0
APPID
  2
GENIUS_GENCRC_14
 70
     0
  0
APPID
  2
GEVID942827039
 70
     0
  0
APPID
  2
GEVID942827040
 70
     0
  0
APPID
  2
GEVID942827041
 70
     0
  0
APPID
  2
GENIUS_GENOBJ-F-SCPASSM_13
 70
     0
  0
APPID
  2
GENIUS_GENDIMSH_14
 70
     0
  0
APPID
  2
GEVID942827042
 70
     0
  0
APPID
  2
GEVID946020473
 70
     0
  0
APPID
  2
GEVID946020474
 70
     0
  0
APPID
  2
GEVID946020475
 70
     0
  0
APPID
  2
GENIUS_GENOBJ-N-HTC_13
 70
     0
  0
APPID
  2
GENIUS_GENHATCH_13
 70
     0
  0
APPID
  2
GEVID948854295
 70
     0
  0
APPID
  2
GEVID939402019
 70
     0
  0
APPID
  2
GEVID952919491
 70
     0
  0
APPID
  2
GEVID952919492
 70
     0
  0
APPID
  2
GENIUS_GEFWELD_13
 70
     0
  0
APPID
  2
GENIUS_GENOBJ-F-WELS_13
 70
     0
  0
APPID
  2
GEVID952919493
 70
     0
  0
APPID
  2
GENIUS_GENOBJ-N-RSBK_13
 70
     0
  0
APPID
  2
GENIUS_GENOBJ-N-LIB_13
 70
     0
  0
APPID
  2
GENIUS_GENSCALE_13
 70
     0
  0
APPID
  2
GEVID986376691
 70
     0
  0
APPID
  2
DCO15
 70
     0
  0
APPID
  2
ACAD_DSTYLE_DIMBREAK
 70
     0
  0
APPID
  2
ACAD_DSTYLE_DIMJAG
 70
     0
  0
APPID
  2
ACAD_NAV_VCDISPLAY
 70
     0
  0
APPID
  2
ACADANNOPO
 70
     0
  0
APPID
  2
ACAD_EXEMPT_FROM_CAD_STANDARDS
 70
     0
  0
APPID
  2
ACAD_MLEADERVER
 70
     0
  0
ENDTAB
  0
TABLE
  2
DIMSTYLE
 70
    22
  0
DIMSTYLE
  2
STANDARD
 70
     0
  3

  4

  5

  6

  7

 40
1.0
 41
0.18
 42
0.0625
 43
0.38
 44
0.18
 45
0.0
 46
0.0
 47
0.0
 48
0.0
140
0.18
141
0.09
142
0.0
143
25.399999999999999
144
1.0
145
0.0
146
1.0
147
0.09
 71
     0
 72
     0
 73
     1
 74
     1
 75
     0
 76
     0
 77
     0
 78
     0
170
     0
171
     2
172
     0
173
     0
174
     0
175
     0
176
     0
177
     0
178
     0
  0
DIMSTYLE
  2
ANNOTATIVE
 70
     0
  3

  4

  5

  6

  7

 40
1.0
 41
0.18
 42
0.0625
 43
0.38
 44
0.18
 45
0.0
 46
0.0
 47
0.0
 48
0.0
140
0.18
141
0.09
142
0.0
143
25.399999999999999
144
1.0
145
0.0
146
1.0
147
0.09
 71
     0
 72
     0
 73
     1
 74
     1
 75
     0
 76
     0
 77
     0
 78
     0
170
     0
171
     2
172
     0
173
     0
174
     0
175
     0
176
     0
177
     0
178
     0
  0
DIMSTYLE
  2
AM_ISO
 70
     0
  3

  4
"
  5

  6

  7

 40
1.0
 41
2.5
 42
1.0
 43
8.0
 44
0.6
 45
0.0
 46
0.0
 47
0.1
 48
0.1
140
2.5
141
0.0
142
0.0
143
0.0393701
144
1.0
145
0.0
146
0.71
147
0.8
 71
     0
 72
     0
 73
     0
 74
     0
 75
     0
 76
     0
 77
     1
 78
     8
170
     0
171
     2
172
     1
173
     0
174
     0
175
     0
176
   256
177
   256
178
     4
  0
DIMSTYLE
  2
AM_ISO$3
 70
     0
  3

  4
"
  5

  6

  7

 40
1.0
 41
2.5
 42
1.0
 43
8.0
 44
0.6
 45
0.0
 46
0.0
 47
0.1
 48
0.1
140
2.5
141
0.0
142
0.0
143
0.0393701
144
1.0
145
0.0
146
0.71
147
0.8
 71
     0
 72
     0
 73
     0
 74
     1
 75
     0
 76
     0
 77
     1
 78
     8
170
     0
171
     2
172
     0
173
     0
174
     0
175
     0
176
   256
177
   256
178
     4
  0
DIMSTYLE
  2
AM_ISO$4
 70
     0
  3

  4
"
  5

  6

  7

 40
1.0
 41
2.5
 42
1.0
 43
8.0
 44
0.6
 45
0.0
 46
0.0
 47
0.1
 48
0.1
140
2.5
141
0.0
142
0.0
143
0.0393701
144
1.0
145
0.0
146
0.71
147
0.8
 71
     0
 72
     0
 73
     0
 74
     1
 75
     0
 76
     0
 77
     1
 78
     8
170
     0
171
     2
172
     0
173
     0
174
     0
175
     0
176
   256
177
   256
178
     4
  0
DIMSTYLE
  2
AM_ISO$6
 70
     0
  3

  4
"
  5

  6

  7

 40
1.0
 41
2.5
 42
1.0
 43
8.0
 44
0.6
 45
0.0
 46
0.0
 47
0.1
 48
0.1
140
2.5
141
0.0
142
0.0
143
0.0393701
144
1.0
145
0.0
146
0.71
147
0.8
 71
     0
 72
     0
 73
     0
 74
     0
 75
     0
 76
     0
 77
     0
 78
     8
170
     0
171
     2
172
     1
173
     0
174
     0
175
     0
176
   256
177
   256
178
     4
  0
DIMSTYLE
  2
AM_ISO$7
 70
     0
  3

  4
"
  5

  6

  7

 40
1.0
 41
2.5
 42
1.0
 43
8.0
 44
0.6
 45
0.0
 46
0.0
 47
0.1
 48
0.1
140
2.5
141
0.0
142
0.0
143
0.0393701
144
1.0
145
0.0
146
0.71
147
0.8
 71
     0
 72
     0
 73
     0
 74
     0
 75
     0
 76
     0
 77
     1
 78
     8
170
     0
171
     2
172
     1
173
     0
174
     0
175
     0
176
   256
177
   256
178
     4
  0
DIMSTYLE
  2
AM_ISO$SF
 70
     0
  3

  4
"
  5

  6

  7

 40
1.0
 41
2.5
 42
1.0
 43
10.0
 44
1.0
 45
0.0
 46
0.0
 47
0.1
 48
0.1
140
3.5
141
0.0
142
0.0
143
0.0393701
144
1.0
145
0.0
146
0.71
147
1.5
 71
     0
 72
     0
 73
     0
 74
     0
 75
     1
 76
     1
 77
     1
 78
     8
170
     0
171
     2
172
     1
173
     0
174
     0
175
     0
176
   256
177
   256
178
     2
  0
DIMSTYLE
  2
AM_ISO$SH
 70
     0
  3

  4
"
  5

  6

  7

 40
1.0
 41
2.5
 42
1.0
 43
10.0
 44
1.0
 45
0.0
 46
0.0
 47
0.1
 48
0.1
140
3.5
141
0.0
142
0.0
143
0.0393701
144
2.0
145
0.0
146
0.71
147
1.5
 71
     0
 72
     0
 73
     0
 74
     0
 75
     1
 76
     1
 77
     1
 78
     8
170
     0
171
     2
172
     1
173
     1
174
     0
175
     0
176
   256
177
   256
178
     2
  0
DIMSTYLE
  2
AM_JIS
 70
     0
  3

  4
"
  5

  6

  7

 40
1.0
 41
2.5
 42
1.0
 43
7.0
 44
1.0
 45
0.0
 46
0.0
 47
0.1
 48
0.1000000001
140
2.5
141
0.0
142
0.0
143
0.0393701
144
1.0
145
0.0
146
0.71
147
1.0
 71
     0
 72
     0
 73
     0
 74
     0
 75
     0
 76
     0
 77
     3
 78
     8
170
     0
171
     2
172
     1
173
     0
174
     0
175
     0
176
   256
177
   256
178
     4
  0
DIMSTYLE
  2
AM_JIS$3
 70
     0
  3

  4
"
  5

  6

  7

 40
1.0
 41
2.5
 42
1.0
 43
7.0
 44
1.0
 45
0.0
 46
0.0
 47
0.1
 48
0.1000000001
140
2.5
141
0.0
142
0.0
143
0.0393701
144
1.0
145
0.0
146
0.71
147
1.0
 71
     0
 72
     0
 73
     0
 74
     1
 75
     0
 76
     0
 77
     3
 78
     8
170
     0
171
     2
172
     0
173
     0
174
     0
175
     0
176
   256
177
   256
178
     4
  0
DIMSTYLE
  2
AM_JIS$4
 70
     0
  3

  4
"
  5

  6

  7

 40
1.0
 41
2.5
 42
1.0
 43
7.0
 44
1.0
 45
0.0
 46
0.0
 47
0.1
 48
0.1000000001
140
2.5
141
0.0
142
0.0
143
0.0393701
144
1.0
145
0.0
146
0.71
147
1.0
 71
     0
 72
     0
 73
     0
 74
     0
 75
     0
 76
     0
 77
     3
 78
     8
170
     0
171
     2
172
     0
173
     0
174
     0
175
     0
176
   256
177
   256
178
     4
  0
DIMSTYLE
  2
AM_JIS$6
 70
     0
  3

  4
"
  5

  6

  7

 40
1.0
 41
2.5
 42
1.0
 43
7.0
 44
1.0
 45
0.0
 46
0.0
 47
0.1
 48
0.1000000001
140
2.5
141
0.0
142
0.0
143
0.0393701
144
1.0
145
0.0
146
0.71
147
1.0
 71
     0
 72
     0
 73
     0
 74
     0
 75
     0
 76
     0
 77
     0
 78
     8
170
     0
171
     2
172
     1
173
     0
174
     0
175
     0
176
   256
177
   256
178
     4
  0
DIMSTYLE
  2
AM_JIS$7
 70
     0
  3

  4
"
  5

  6

  7

 40
1.0
 41
2.5
 42
1.0
 43
7.0
 44
1.0
 45
0.0
 46
0.0
 47
0.1
 48
0.1000000001
140
2.5
141
0.0
142
0.0
143
0.0393701
144
1.0
145
0.0
146
0.71
147
1.0
 71
     0
 72
     0
 73
     0
 74
     0
 75
     0
 76
     0
 77
     3
 78
     8
170
     0
171
     2
172
     1
173
     0
174
     0
175
     0
176
   256
177
   256
178
     4
  0
DIMSTYLE
  2
AM_JIS$SF
 70
     0
  3

  4
"
  5

  6

  7

 40
1.0
 41
2.5
 42
1.0
 43
10.0
 44
1.0
 45
0.0
 46
0.0
 47
0.1
 48
0.1
140
3.5
141
0.0
142
0.0
143
0.0393701
144
1.0
145
0.0
146
0.71
147
1.5
 71
     0
 72
     0
 73
     0
 74
     0
 75
     1
 76
     1
 77
     3
 78
     8
170
     0
171
     2
172
     1
173
     0
174
     0
175
     0
176
   256
177
   256
178
     4
  0
DIMSTYLE
  2
AM_JIS$SH
 70
     0
  3

  4
"
  5

  6

  7

 40
1.0
 41
2.5
 42
1.0
 43
10.0
 44
1.0
 45
0.0
 46
0.0
 47
0.1
 48
0.1
140
3.5
141
0.0
142
0.0
143
0.0393701
144
1.0
145
0.0
146
0.71
147
1.5
 71
     0
 72
     0
 73
     0
 74
     0
 75
     1
 76
     0
 77
     3
 78
     8
170
     0
171
     2
172
     1
173
     1
174
     0
175
     0
176
   256
177
   256
178
     4
  0
DIMSTYLE
  2
AM_ANSI
 70
     0
  3

  4
mm
  5

  6

  7

 40
1.0
 41
0.1
 42
0.05
 43
0.5
 44
0.1
 45
0.0
 46
0.0
 47
0.1
 48
0.1
140
0.12
141
0.0
142
0.0
143
25.399999999999999
144
1.0
145
0.0
146
0.71
147
0.06
 71
     0
 72
     0
 73
     1
 74
     1
 75
     0
 76
     0
 77
     0
 78
     7
170
     0
171
     2
172
     0
173
     0
174
     0
175
     0
176
   256
177
   256
178
     2
  0
DIMSTYLE
  2
AM_ANSI$3
 70
     0
  3

  4
mm
  5

  6

  7

 40
1.0
 41
0.1
 42
0.05
 43
0.5
 44
0.1
 45
0.0
 46
0.0
 47
0.1
 48
0.1
140
0.12
141
0.0
142
0.0
143
25.399999999999999
144
1.0
145
0.0
146
0.71
147
0.06
 71
     0
 72
     0
 73
     1
 74
     1
 75
     0
 76
     0
 77
     0
 78
     7
170
     0
171
     2
172
     0
173
     0
174
     0
175
     0
176
   256
177
   256
178
     2
  0
DIMSTYLE
  2
AM_ANSI$4
 70
     0
  3

  4
mm
  5

  6

  7

 40
1.0
 41
0.1
 42
0.05
 43
0.5
 44
0.1
 45
0.0
 46
0.0
 47
0.1
 48
0.1
140
0.12
141
0.0
142
0.0
143
25.399999999999999
144
1.0
145
0.0
146
0.71
147
0.06
 71
     0
 72
     0
 73
     1
 74
     1
 75
     0
 76
     0
 77
     0
 78
     7
170
     0
171
     2
172
     0
173
     0
174
     0
175
     0
176
   256
177
   256
178
     2
  0
DIMSTYLE
  2
AM_ANSI$7
 70
     0
  3

  4
mm
  5

  6

  7

 40
1.0
 41
0.1
 42
0.05
 43
0.5
 44
0.1
 45
0.0
 46
0.0
 47
0.1
 48
0.1
140
0.24
141
0.0
142
0.0
143
25.399999999999999
144
1.0
145
0.0
146
0.71
147
0.06
 71
     0
 72
     0
 73
     1
 74
     1
 75
     0
 76
     0
 77
     0
 78
     7
170
     0
171
     2
172
     0
173
     0
174
     0
175
     0
176
   256
177
   256
178
     2
  0
DIMSTYLE
  2
AM_ANSI$SF
 70
     0
  3

  4
mm
  5

  6

  7

 40
1.0
 41
0.1
 42
0.05
 43
0.5
 44
0.1
 45
0.0
 46
0.0
 47
0.1
 48
0.1
140
0.12
141
0.0
142
0.0
143
25.399999999999999
144
1.0
145
0.0
146
0.71
147
0.06
 71
     0
 72
     0
 73
     1
 74
     1
 75
     1
 76
     1
 77
     0
 78
     7
170
     0
171
     2
172
     0
173
     0
174
     0
175
     0
176
   256
177
   256
178
     2
  0
DIMSTYLE
  2
AM_ANSI$SH
 70
     0
  3

  4
mm
  5

  6

  7

 40
1.0
 41
0.1
 42
0.05
 43
0.5
 44
0.1
 45
0.0
 46
0.0
 47
0.1
 48
0.1
140
0.12
141
0.0
142
0.0
143
25.399999999999999
144
1.0
145
0.0
146
0.71
147
0.06
 71
     0
 72
     0
 73
     1
 74
     1
 75
     1
 76
     1
 77
     0
 78
     7
170
     0
171
     2
172
     0
173
     1
174
     0
175
     0
176
   256
177
   256
178
     2
  0
ENDTAB
  0
ENDSEC
  0
SECTION
  2
BLOCKS
  0
BLOCK
  8
0
  2
$MODEL_SPACE
 70
     0
 10
0.0
 20
0.0
 30
0.0
  3
$MODEL_SPACE
  1

  0
ENDBLK
  5
37D1
  8
0
  0
BLOCK
 67
     1
  8
0
  2
$PAPER_SPACE
 70
     0
 10
0.0
 20
0.0
 30
0.0
  3
$PAPER_SPACE
  1

  0
ENDBLK
  5
37CD
 67
     1
  8
0
  0
BLOCK
  8
0
  2
GENAXEH
 70
     0
 10
0.0
 20
0.0
 30
0.0
  3
GENAXEH
  1

  0
LINE
  5
357C
  8
0
 10
-1.0
 20
0.0
 30
0.0
 11
1.0
 21
0.0
 31
0.0
  0
ENDBLK
  5
357D
  8
0
  0
BLOCK
  8
0
  2
_OPEN30
 70
     0
 10
0.0
 20
0.0
 30
0.0
  3
_OPEN30
  1

  0
LINE
  5
3580
  8
0
 62
     0
 10
-1.0
 20
0.26794919
 30
0.0
 11
0.0
 21
0.0
 31
0.0
  0
LINE
  5
3581
  8
0
 62
     0
 10
0.0
 20
0.0
 30
0.0
 11
-1.0
 21
-0.26794919
 31
0.0
  0
LINE
  5
3582
  8
0
 62
     0
 10
0.0
 20
0.0
 30
0.0
 11
-1.0
 21
0.0
 31
0.0
  0
ENDBLK
  5
3583
  8
0
  0
BLOCK
  8
0
  2
_NONE
 70
     0
 10
0.0
 20
0.0
 30
0.0
  3
_NONE
  1

  0
ENDBLK
  5
3586
  8
0
  0
BLOCK
  8
0
  2
_ACMFILLEDHALF
 70
     0
 10
0.0
 20
0.0
 30
0.0
  3
_ACMFILLEDHALF
  1

  0
TRACE
  5
38C7
  8
AM_0
 62
     0
 10
-0.8
 20
0.0
 30
0.0
 11
-1.0
 21
0.166666666
 31
0.0
 12
0.0
 22
0.0
 32
0.0
 13
0.0
 23
0.0
 33
0.0
  0
LINE
  5
38C8
  8
AM_0
 62
     0
 10
-1.0
 20
0.0
 30
0.0
 11
-0.8
 21
0.0
 31
0.0
  0
ENDBLK
  5
38C6
  8
0
  0
ENDSEC
  0
SECTION
  2
ENTITIES
  0
LINE
  5
3587
  8
ﾁｭｳｼﾝｾﾝ1
 10
220.6348142515003
 20
508.78021605579193
 30
0.0
 11
407.60366499816092
 21
508.78021605579193
 31
0.0
  0
ARC
  5
3588
  8
AM_0
 10
409.87271499816109
 20
508.78021605579193
 30
0.0
 40
101.4887199999999
 50
151.89333000000019
 51
208.10666999999961
  0
LINE
  5
3589
  8
AM_0
 10
401.38397499816091
 20
522.78024605579208
 30
0.0
 11
401.38397499816091
 21
494.78024605579202
 31
0.0
  0
LINE
  5
358A
  8
AM_0
 10
361.38397499816108
 20
523.78021605579204
 30
0.0
 11
361.38397499816108
 21
493.78021605579198
 31
0.0
  0
LINE
  5
358B
  8
AM_0
 10
256.38400499816112
 20
452.28021605579198
 30
0.0
 11
256.38400499816112
 21
565.28021605579215
 31
0.0
  0
LINE
  5
358C
  8
AM_0
 10
287.38400499816112
 20
439.91183605579198
 30
0.0
 11
287.38400499816112
 21
577.64858605579207
 31
0.0
  0
LINE
  5
358D
  8
AM_0
 10
308.38400499816112
 20
458.71298605579199
 30
0.0
 11
308.38400499816112
 21
558.84744605579203
 31
0.0
  0
LINE
  5
358E
  8
AM_0
 10
343.38400499816112
 20
458.52920605579197
 30
0.0
 11
343.38400499816112
 21
559.03121605579179
 31
0.0
  0
LINE
  5
358F
  8
AM_0
 10
359.38397499816108
 20
483.24587605579188
 30
0.0
 11
359.38397499816108
 21
534.31451605579196
 31
0.0
  0
LINE
  5
3590
  8
AM_0
 10
356.38397499816108
 20
558.3251660557919
 30
0.0
 11
356.38397499816108
 21
459.23525605579198
 31
0.0
  0
LINE
  5
3591
  8
AM_0
 10
294.38397499816102
 20
579.7802160557917
 30
0.0
 11
294.38397499816102
 21
437.78021605579181
 31
0.0
  0
ARC
  5
3592
  8
AM_0
 10
335.38397499816119
 20
436.77700605579201
 30
0.0
 40
5.0
 50
180.00001000000091
 51
271.49999999999932
  0
ARC
  5
3593
  8
AM_0
 10
335.38397499816119
 20
450.06118605579201
 30
0.0
 40
5.0
 50
95.00000199999856
 51
180.00001000000091
  0
LINE
  5
3594
  8
AM_0
 10
340.46255499816118
 20
461.75567605579198
 30
0.0
 11
321.96597499816107
 21
461.27133605579189
 31
0.0
  0
LINE
  5
3595
  8
AM_0
 10
297.38400499816112
 20
430.78021605579193
 30
0.0
 11
357.43637499816123
 21
432.35275605579187
 31
0.0
  0
LINE
  5
3596
  8
AM_0
 10
256.38400499816112
 20
476.84027605579189
 30
0.0
 11
287.38400499816112
 21
476.84027605579189
 31
0.0
  0
LINE
  5
3597
  8
AM_0
 10
284.38397499816102
 20
443.56893605579199
 30
0.0
 11
285.38400499816112
 21
443.56893605579199
 31
0.0
  0
LINE
  5
3598
  8
AM_0
 10
256.38400499816112
 20
462.77990605579203
 30
0.0
 11
287.38400499816112
 21
462.77990605579203
 31
0.0
  0
LINE
  5
3599
  8
AM_0
 10
267.33160499816108
 20
431.56716605579197
 30
0.0
 11
297.38397499816102
 21
430.78021605579193
 31
0.0
  0
LINE
  5
359A
  8
AM_0
 10
282.38397499816119
 20
452.09936605579202
 30
0.0
 11
256.38400499816112
 21
452.780186055792
 31
0.0
  0
ARC
  5
359B
  8
AM_0
 10
277.38397499816119
 20
443.78021605579198
 30
0.0
 40
6.0
 50
33.5572999999982
 51
0.5425182800010755
  0
LINE
  5
359C
  8
AM_0
 10
282.38397499816119
 20
445.56893605579188
 30
0.0
 11
282.38397499816119
 21
460.77990605579203
 31
0.0
  0
LINE
  5
359D
  8
AM_0
 10
265.38397499816102
 20
433.56649605579179
 30
0.0
 11
265.38397499816102
 21
452.54452605579201
 31
0.0
  0
ARC
  5
359E
  8
AM_0
 10
267.38397499816119
 20
433.56649605579179
 30
0.0
 40
2.0
 50
180.00001000000091
 51
268.5000000000004
  0
ARC
  5
359F
  8
AM_0
 10
284.38397499816102
 20
445.56893605579188
 30
0.0
 40
2.0
 50
180.00001000000091
 51
270.0
  0
ARC
  5
35A0
  8
AM_0
 10
280.38397499816108
 20
460.77990605579203
 30
0.0
 40
2.0
 50
0.0
 51
90.000003000000945
  0
ARC
  5
35A1
  8
AM_0
 10
306.9889549981612
 20
443.11199605579202
 30
0.0
 40
5.0
 50
271.49999999999932
 51
299.88701999999893
  0
LINE
  5
35A2
  8
AM_0
 10
308.38400499816112
 20
458.71298605579199
 30
0.0
 11
321.96597499816107
 21
461.27136605579187
 31
0.0
  0
LINE
  5
35A3
  8
AM_0
 10
306.38397499816119
 20
456.24227605579199
 30
0.0
 11
309.38397499816102
 21
456.24227605579199
 31
0.0
  0
LINE
  5
35A4
  8
AM_0
 10
306.38397499816119
 20
444.69522605579198
 30
0.0
 11
309.38397499816102
 21
444.69522605579198
 31
0.0
  0
LINE
  5
35A5
  8
AM_0
 10
306.38397499816119
 20
447.58199605579188
 30
0.0
 11
309.38397499816102
 21
447.58199605579188
 31
0.0
  0
LINE
  5
35A6
  8
AM_0
 10
306.38397499816119
 20
453.35549605579189
 30
0.0
 11
309.38397499816102
 21
453.35549605579189
 31
0.0
  0
LINE
  5
35A7
  8
AM_0
 10
306.38397499816119
 20
457.24227605579199
 30
0.0
 11
306.38397499816119
 21
443.69522605579198
 31
0.0
  0
LINE
  5
35A8
  8
AM_0
 10
305.38397499816102
 20
458.71298605579199
 30
0.0
 11
305.38397499816102
 21
438.06826605579192
 31
0.0
  0
LINE
  5
35A9
  8
AM_0
 10
307.11984499816111
 20
438.11370605579202
 30
0.0
 11
294.38400499816112
 21
437.78021605579181
 31
0.0
  0
LINE
  5
35AA
  8
AM_0
 10
297.38397499816102
 20
434.63619605579203
 30
0.0
 11
290.38397499816119
 21
430.96353605579168
 31
0.0
  0
ARC
  5
35AB
  8
AM_0
 10
289.38400499816112
 20
439.91183605579198
 30
0.0
 40
2.0
 50
180.00001000000091
 51
268.5000000000004
  0
LINE
  5
35AC
  8
AM_0
 10
294.38397499816102
 20
437.78021605579181
 30
0.0
 11
289.33163499816112
 21
437.91250605579188
 31
0.0
  0
LINE
  5
35AD
  8
AM_0
 10
294.78698499816119
 20
437.79077605579198
 30
0.0
 11
290.38397499816119
 21
435.480656055792
 31
0.0
  0
LINE
  5
35AE
  8
AM_0
 10
290.38397499816119
 20
430.96353605579168
 30
0.0
 11
290.38397499816119
 21
435.48062605579202
 31
0.0
  0
ARC
  5
35AF
  8
AM_0
 10
285.38400499816112
 20
441.56893605579188
 30
0.0
 40
2.0
 50
0.0
 51
90.000003000000945
  0
LINE
  5
35B0
  8
AM_0
 10
297.38397499816102
 20
437.85876605579188
 30
0.0
 11
297.38397499816102
 21
434.63619605579203
 31
0.0
  0
LINE
  5
35B1
  8
AM_0
 10
305.38397499816102
 20
443.69522605579198
 30
0.0
 11
306.38397499816119
 21
443.69522605579198
 31
0.0
  0
LINE
  5
35B2
  8
AM_0
 10
305.38397499816102
 20
458.71298605579199
 30
0.0
 11
308.38397499816119
 21
458.71298605579199
 31
0.0
  0
LINE
  5
35B3
  8
AM_0
 10
305.38397499816102
 20
457.24227605579199
 30
0.0
 11
306.38397499816119
 21
457.24227605579199
 31
0.0
  0
ARC
  5
35B4
  8
AM_0
 10
327.38397499816119
 20
448.68289605579201
 30
0.0
 40
3.0
 50
271.49999999999932
 51
0.0
  0
ARC
  5
35B5
  8
AM_0
 10
309.38397499816102
 20
448.58196605579201
 30
0.0
 40
1.0
 50
269.999989999999
 51
0.0000006832462478
  0
LINE
  5
35B6
  8
AM_0
 10
330.38397499816102
 20
436.77700605579201
 30
0.0
 11
330.38397499816102
 21
450.06118605579201
 31
0.0
  0
LINE
  5
35B7
  8
AM_0
 10
310.38394499816093
 20
445.69522605579198
 30
0.0
 11
310.38394499816093
 21
455.24224605579172
 31
0.0
  0
ARC
  5
35B8
  8
AM_0
 10
322.60864499816103
 20
440.55511605579181
 30
0.0
 40
5.0
 50
91.500001000001546
 51
119.887019999999
  0
LINE
  5
35B9
  8
AM_0
 10
309.48040499816119
 20
438.776946055792
 30
0.0
 11
320.11718499816112
 21
444.89016605579201
 31
0.0
  0
ARC
  5
35BA
  8
AM_0
 10
309.38397499816102
 20
445.69522605579198
 30
0.0
 40
1.0
 50
269.999989999999
 51
0.0000006832462478
  0
ARC
  5
35BB
  8
AM_0
 10
309.38397499816102
 20
446.58199605579199
 30
0.0
 40
1.0
 50
0.0
 51
90.000003000000945
  0
LINE
  5
35BC
  8
AM_0
 10
327.4625249981612
 20
445.68392605579203
 30
0.0
 11
322.47778499816121
 21
445.55337605579189
 31
0.0
  0
ARC
  5
35BD
  8
AM_0
 10
309.38397499816102
 20
454.35549605579189
 30
0.0
 40
1.0
 50
269.999989999999
 51
0.0000006832462478
  0
ARC
  5
35BE
  8
AM_0
 10
309.38397499816102
 20
452.355496055792
 30
0.0
 40
1.0
 50
0.0
 51
90.000003000000945
  0
ARC
  5
35BF
  8
AM_0
 10
309.38397499816102
 20
455.24224605579172
 30
0.0
 40
1.0
 50
0.0
 51
90.000003000000945
  0
LINE
  5
35C0
  8
AM_0
 10
361.38397499816108
 20
494.78024605579202
 30
0.0
 11
401.38397499816091
 21
494.78024605579202
 31
0.0
  0
LINE
  5
35C1
  8
AM_0
 10
357.43630499816101
 20
459.20767605579198
 30
0.0
 11
356.38397499816108
 21
459.235226055792
 31
0.0
  0
CIRCLE
  5
35C2
  8
AM_0
 10
347.38397499816108
 20
443.78021605579198
 30
0.0
 40
6.0
  0
ARC
  5
35C3
  8
AM_0
 10
347.55801499816118
 20
454.98892605579198
 30
0.0
 40
5.0
 50
95.00000199999856
 51
153.73432999999969
  0
ARC
  5
35C4
  8
AM_0
 10
340.38400499816112
 20
458.52920605579197
 30
0.0
 40
3.0
 50
274.99999999999972
 51
0.0
  0
LINE
  5
35C5
  8
AM_0
 10
340.64547499816121
 20
455.54064605579191
 30
0.0
 11
334.9481849981612
 21
455.04220605579189
 31
0.0
  0
ARC
  5
35C6
  8
AM_0
 10
340.38400499816112
 20
464.75466605579197
 30
0.0
 40
3.0
 50
271.49999999999932
 51
0.0
  0
LINE
  5
35C7
  8
AM_0
 10
351.81976499816108
 20
460.38088605579179
 30
0.0
 11
347.12225499816111
 21
459.96990605579202
 31
0.0
  0
ARC
  5
35C8
  8
AM_0
 10
351.38397499816108
 20
465.361846055792
 30
0.0
 40
5.0
 50
274.99999999999972
 51
0.0
  0
LINE
  5
35C9
  8
AM_0
 10
359.38397499816108
 20
434.35204605579202
 30
0.0
 11
359.38397499816108
 21
457.20837605579197
 31
0.0
  0
ARC
  5
35CA
  8
AM_0
 10
357.38397499816108
 20
434.35204605579202
 30
0.0
 40
2.0
 50
271.49999999999932
 51
0.0
  0
ARC
  5
35CB
  8
AM_0
 10
357.38397499816108
 20
457.20837605579197
 30
0.0
 40
2.0
 50
0.0
 51
88.499997000000747
  0
LINE
  5
35CC
  8
AM_0
 10
357.34909499816109
 20
482.20913605579182
 30
0.0
 11
358.41885499816101
 21
482.246526055792
 31
0.0
  0
ARC
  5
35CD
  8
AM_0
 10
357.38397499816108
 20
481.20974605579198
 30
0.0
 40
1.0
 50
91.999998000000545
 51
180.00001000000091
  0
ARC
  5
35CE
  8
AM_0
 10
358.38397499816108
 20
483.24587605579188
 30
0.0
 40
1.0
 50
272.0000000000004
 51
0.0
  0
LINE
  5
35CF
  8
AM_0
 10
359.38397499816108
 20
493.78021605579198
 30
0.0
 11
361.38397499816108
 21
493.78021605579198
 31
0.0
  0
ARC
  5
35D0
  8
AM_0
 10
335.38397499816119
 20
580.78341605579203
 30
0.0
 40
5.0
 50
88.499997000000747
 51
180.00001000000091
  0
ARC
  5
35D1
  8
AM_0
 10
335.38397499816119
 20
567.499206055792
 30
0.0
 40
5.0
 50
180.00001000000091
 51
265.00001000000071
  0
LINE
  5
35D2
  8
AM_0
 10
340.4625249981612
 20
555.80474605579195
 30
0.0
 11
321.96594499816121
 21
556.28909605579202
 31
0.0
  0
LINE
  5
35D3
  8
AM_0
 10
297.38397499816102
 20
586.78021605579181
 30
0.0
 11
357.4363349981611
 21
585.20767605579204
 31
0.0
  0
ARC
  5
35D4
  8
AM_0
 10
284.38397499816102
 20
571.99151605579209
 30
0.0
 40
2.0
 50
90.000003000000945
 51
180.00001000000091
  0
ARC
  5
35D5
  8
AM_0
 10
309.38397499816102
 20
571.86520605579199
 30
0.0
 40
1.0
 50
0.0
 51
90.000003000000945
  0
ARC
  5
35D6
  8
AM_0
 10
322.60864499816103
 20
577.00530605579195
 30
0.0
 40
5.0
 50
240.11298000000079
 51
268.5000000000004
  0
ARC
  5
35D7
  8
AM_0
 10
277.38397499816119
 20
573.78021605579181
 30
0.0
 40
6.0
 50
359.45747999999838
 51
326.4427199999991
  0
LINE
  5
35D8
  8
AM_0
 10
305.38397499816102
 20
558.84744605579203
 30
0.0
 11
305.38397499816102
 21
579.49215605579195
 31
0.0
  0
LINE
  5
35D9
  8
AM_0
 10
306.38397499816119
 20
560.31814605579189
 30
0.0
 11
306.38397499816119
 21
573.86520605579165
 31
0.0
  0
LINE
  5
35DA
  8
AM_0
 10
330.38397499816102
 20
567.499206055792
 30
0.0
 11
330.38397499816102
 21
580.78341605579203
 31
0.0
  0
LINE
  5
35DB
  8
AM_0
 10
265.38397499816102
 20
583.99395605579218
 30
0.0
 11
265.38397499816102
 21
565.01589605579215
 31
0.0
  0
LINE
  5
35DC
  8
AM_0
 10
256.38400499816112
 20
540.72015605579213
 30
0.0
 11
287.38400499816112
 21
540.72015605579213
 31
0.0
  0
LINE
  5
35DD
  8
AM_0
 10
256.38400499816112
 20
554.78051605579208
 30
0.0
 11
287.38400499816112
 21
554.78051605579208
 31
0.0
  0
LINE
  5
35DE
  8
AM_0
 10
282.38400499816112
 20
565.46105605579214
 30
0.0
 11
256.38403499816121
 21
564.78021605579181
 31
0.0
  0
ARC
  5
35DF
  8
AM_0
 10
280.38397499816108
 20
556.78051605579185
 30
0.0
 40
2.0
 50
270.0
 51
0.0
  0
LINE
  5
35E0
  8
AM_0
 10
282.38397499816119
 20
571.99151605579209
 30
0.0
 11
282.38397499816119
 21
556.78051605579185
 31
0.0
  0
LINE
  5
35E1
  8
AM_0
 10
306.38397499816119
 20
564.20492605579204
 30
0.0
 11
309.38397499816102
 21
564.20492605579204
 31
0.0
  0
LINE
  5
35E2
  8
AM_0
 10
306.38397499816119
 20
569.97842605579217
 30
0.0
 11
309.38397499816102
 21
569.97842605579217
 31
0.0
  0
LINE
  5
35E3
  8
AM_0
 10
306.38397499816119
 20
561.31817605579204
 30
0.0
 11
309.38397499816102
 21
561.31817605579204
 31
0.0
  0
LINE
  5
35E4
  8
AM_0
 10
308.38397499816119
 20
558.84747605579173
 30
0.0
 11
321.96594499816121
 21
556.28909605579202
 31
0.0
  0
LINE
  5
35E5
  8
AM_0
 10
305.38397499816102
 20
558.84744605579203
 30
0.0
 11
308.38397499816119
 21
558.84744605579203
 31
0.0
  0
LINE
  5
35E6
  8
AM_0
 10
305.38397499816102
 20
560.31814605579189
 30
0.0
 11
306.38397499816119
 21
560.31814605579189
 31
0.0
  0
ARC
  5
35E7
  8
AM_0
 10
309.38397499816102
 20
563.20492605579204
 30
0.0
 40
1.0
 50
0.0
 51
90.000003000000945
  0
LINE
  5
35E8
  8
AM_0
 10
310.38394499816093
 20
571.86520605579199
 30
0.0
 11
310.38394499816093
 21
562.31817605579204
 31
0.0
  0
ARC
  5
35E9
  8
AM_0
 10
309.38397499816102
 20
562.31817605579204
 30
0.0
 40
1.0
 50
269.999989999999
 51
0.0000006832462478
  0
ARC
  5
35EA
  8
AM_0
 10
309.38397499816102
 20
565.20492605579204
 30
0.0
 40
1.0
 50
269.999989999999
 51
0.0000006832462478
  0
ARC
  5
35EB
  8
AM_0
 10
309.38397499816102
 20
570.97842605579206
 30
0.0
 40
1.0
 50
269.999989999999
 51
0.0000006832462478
  0
ARC
  5
35EC
  8
AM_0
 10
309.38397499816102
 20
568.97845605579221
 30
0.0
 40
1.0
 50
0.0
 51
90.000003000000945
  0
LINE
  5
35ED
  8
AM_0
 10
327.46249499816099
 20
571.87649605579213
 30
0.0
 11
322.47775499816112
 21
572.00701605579195
 31
0.0
  0
ARC
  5
35EE
  8
AM_0
 10
327.38397499816119
 20
568.87753605579201
 30
0.0
 40
3.0
 50
0.0
 51
88.499997000000747
  0
LINE
  5
35EF
  8
AM_0
 10
284.38397499816102
 20
573.99151605579175
 30
0.0
 11
285.38400499816112
 21
573.99151605579175
 31
0.0
  0
LINE
  5
35F0
  8
AM_0
 10
267.33163499816112
 20
585.99325605579202
 30
0.0
 11
297.38400499816112
 21
586.78021605579181
 31
0.0
  0
ARC
  5
35F1
  8
AM_0
 10
267.38397499816119
 20
583.99395605579218
 30
0.0
 40
2.0
 50
91.500001000001546
 51
180.00001000000091
  0
ARC
  5
35F2
  8
AM_0
 10
306.9889549981612
 20
574.44842605579197
 30
0.0
 40
5.0
 50
60.112980000000888
 51
88.499997000000747
  0
LINE
  5
35F3
  8
AM_0
 10
306.38397499816119
 20
572.86517605579195
 30
0.0
 11
309.38397499816102
 21
572.86517605579195
 31
0.0
  0
LINE
  5
35F4
  8
AM_0
 10
307.11981499816108
 20
579.44671605579185
 30
0.0
 11
294.38397499816102
 21
579.7802160557917
 31
0.0
  0
LINE
  5
35F5
  8
AM_0
 10
297.38397499816102
 20
582.92422605579213
 30
0.0
 11
290.38397499816119
 21
586.59692605579187
 31
0.0
  0
LINE
  5
35F6
  8
AM_0
 10
294.78698499816119
 20
579.76965605579198
 30
0.0
 11
290.38400499816117
 21
582.07977605579219
 31
0.0
  0
LINE
  5
35F7
  8
AM_0
 10
294.38397499816102
 20
579.7802160557917
 30
0.0
 11
289.33166499816122
 21
579.64791605579205
 31
0.0
  0
ARC
  5
35F8
  8
AM_0
 10
285.38400499816112
 20
575.99151605579209
 30
0.0
 40
2.0
 50
270.0
 51
0.0
  0
ARC
  5
35F9
  8
AM_0
 10
289.38400499816112
 20
577.64858605579207
 30
0.0
 40
2.0
 50
91.500001000001546
 51
180.00001000000091
  0
LINE
  5
35FA
  8
AM_0
 10
290.38397499816119
 20
586.59689605579194
 30
0.0
 11
290.38397499816119
 21
582.07980605579201
 31
0.0
  0
LINE
  5
35FB
  8
AM_0
 10
297.38397499816102
 20
579.701656055792
 30
0.0
 11
297.38397499816102
 21
582.92422605579213
 31
0.0
  0
LINE
  5
35FC
  8
AM_0
 10
305.38397499816102
 20
573.86520605579165
 30
0.0
 11
306.38397499816119
 21
573.86520605579165
 31
0.0
  0
LINE
  5
35FD
  8
AM_0
 10
309.48043499816117
 20
578.78344605579196
 30
0.0
 11
320.1171549981612
 21
572.6702560557917
 31
0.0
  0
CIRCLE
  5
35FE
  8
AM_0
 10
347.38397499816108
 20
573.78021605579181
 30
0.0
 40
6.0
  0
LINE
  5
35FF
  8
ﾁｭｳｼﾝｾﾝ1
 10
347.38397499816108
 20
583.78021605579181
 30
0.0
 11
347.38397499816108
 21
563.7802160557917
 31
0.0
  0
LINE
  5
3600
  8
AM_0
 10
359.38397499816108
 20
583.20837605579175
 30
0.0
 11
359.38397499816108
 21
560.35204605579202
 31
0.0
  0
LINE
  5
3601
  8
AM_0
 10
369.38397499816108
 20
504.78021605579193
 30
0.0
 11
401.38397499816091
 21
504.78021605579193
 31
0.0
  0
LINE
  5
3602
  8
AM_0
 10
361.38397499816108
 20
522.78024605579208
 30
0.0
 11
401.38397499816091
 21
522.78024605579208
 31
0.0
  0
LINE
  5
3603
  8
AM_0
 10
369.38397499816108
 20
512.78018605579177
 30
0.0
 11
401.38397499816091
 21
512.78018605579177
 31
0.0
  0
LINE
  5
3604
  8
AM_0
 10
357.34905499816108
 20
535.35125605579185
 30
0.0
 11
358.4188849981611
 21
535.31390605579202
 31
0.0
  0
ARC
  5
3605
  8
AM_0
 10
357.38397499816108
 20
536.35067605579195
 30
0.0
 40
1.0
 50
180.00001000000091
 51
267.9999999999996
  0
ARC
  5
3606
  8
AM_0
 10
369.38397499816108
 20
508.78018605579189
 30
0.0
 40
3.9999962
 50
90.000003000000945
 51
270.0
  0
LINE
  5
3607
  8
AM_0
 10
369.38397499816108
 20
512.78018605579177
 30
0.0
 11
369.38397499816108
 21
504.78021605579193
 31
0.0
  0
LINE
  5
3608
  8
AM_0
 10
359.38397499816108
 20
523.78021605579204
 30
0.0
 11
361.38397499816108
 21
523.78021605579204
 31
0.0
  0
ARC
  5
3609
  8
AM_0
 10
358.38397499816108
 20
534.31451605579196
 30
0.0
 40
1.0
 50
0.0
 51
87.999999999999659
  0
LINE
  5
360A
  8
AM_0
 10
356.384004998161
 20
558.3251660557919
 30
0.0
 11
357.4363349981611
 21
558.35272605579212
 31
0.0
  0
ARC
  5
360B
  8
AM_0
 10
340.38400499816112
 20
552.80575605579202
 30
0.0
 40
3.0
 50
0.0
 51
88.499997000000747
  0
ARC
  5
360C
  8
AM_0
 10
351.38397499816108
 20
552.19854605579212
 30
0.0
 40
5.0
 50
0.0
 51
85.000004000001198
  0
ARC
  5
360D
  8
AM_0
 10
347.55801499816118
 20
562.571476055792
 30
0.0
 40
5.0
 50
206.2656700000002
 51
265.00001000000071
  0
LINE
  5
360E
  8
AM_0
 10
340.64547499816121
 20
562.01980605579195
 30
0.0
 11
334.94821499816112
 21
562.51824605579213
 31
0.0
  0
ARC
  5
360F
  8
AM_0
 10
340.38400499816112
 20
559.03121605579179
 30
0.0
 40
3.0
 50
0.0
 51
85.000004000001198
  0
LINE
  5
3610
  8
AM_0
 10
351.81976499816108
 20
557.17953605579191
 30
0.0
 11
347.12225499816111
 21
557.59051605579202
 31
0.0
  0
ARC
  5
3611
  8
AM_0
 10
357.38397499816108
 20
560.35204605579202
 30
0.0
 40
2.0
 50
271.49999999999932
 51
0.0
  0
LINE
  5
3612
  8
ﾁｭｳｼﾝｾﾝ1
 10
337.38397499816119
 20
573.78021605579181
 30
0.0
 11
357.38397499816108
 21
573.78021605579181
 31
0.0
  0
ARC
  5
3613
  8
AM_0
 10
357.38397499816108
 20
583.20837605579175
 30
0.0
 40
2.0
 50
0.0
 51
88.499997000000747
  0
LINE
  5
3614
  8
ﾁｭｳｼﾝｾﾝ1
 10
277.38397499816119
 20
583.78021605579181
 30
0.0
 11
277.38397499816119
 21
563.7802160557917
 31
0.0
  0
LINE
  5
3615
  8
ﾁｭｳｼﾝｾﾝ1
 10
267.38397499816119
 20
573.78021605579181
 30
0.0
 11
287.38397499816119
 21
573.78021605579181
 31
0.0
  0
LINE
  5
3616
  8
ﾁｭｳｼﾝｾﾝ1
 10
277.38397499816119
 20
453.78021605579193
 30
0.0
 11
277.38397499816119
 21
433.78021605579193
 31
0.0
  0
LINE
  5
3617
  8
ﾁｭｳｼﾝｾﾝ1
 10
267.38397499816119
 20
443.78021605579198
 30
0.0
 11
287.38397499816119
 21
443.78021605579198
 31
0.0
  0
LINE
  5
3618
  8
ﾁｭｳｼﾝｾﾝ1
 10
347.38397499816108
 20
453.78021605579193
 30
0.0
 11
347.38397499816108
 21
433.78021605579193
 31
0.0
  0
LINE
  5
3619
  8
ﾁｭｳｼﾝｾﾝ1
 10
337.38397499816119
 20
443.78021605579198
 30
0.0
 11
357.38397499816108
 21
443.78021605579198
 31
0.0
  0
LINE
  5
361B
  8
ﾁｭｳｼﾝｾﾝ1
 10
405.09644499816079
 20
292.46540173801162
 30
0.0
 11
277.48324896862988
 21
292.46540173801162
 31
0.0
  0
LINE
  5
361C
  8
AM_0
 10
361.38395499816102
 20
278.46543073801161
 30
0.0
 11
401.38397499816091
 21
278.46543073801161
 31
0.0
  0
LINE
  5
361D
  8
AM_0
 10
369.38393499816112
 20
309.46544773801168
 30
0.0
 11
401.38397499816091
 21
309.46544773801168
 31
0.0
  0
LINE
  5
361E
  8
AM_0
 10
361.38395499816102
 20
306.46544773801162
 30
0.0
 11
401.38397499816091
 21
306.46544773801162
 31
0.0
  0
LINE
  5
361F
  8
0
 10
224.4618285454408
 20
428.78021605579193
 30
0.0
 11
224.4618285454408
 21
588.7802160557917
 31
0.0
1001
GENIUS_GENOREF_13
1005
32D9
  0
LINE
  5
3620
  8
0
 10
234.4618285454408
 20
586.78021605579181
 30
0.0
 11
234.4618285454408
 21
430.78021605579193
 31
0.0
1001
GENIUS_GENOREF_13
1005
32D9
  0
LINE
  5
3621
  8
AM_0
 10
256.38398499816122
 20
215.96540073801151
 30
0.0
 11
256.38398499816122
 21
328.96540073801162
 31
0.0
  0
LINE
  5
3622
  8
AM_0
 10
359.38397499816108
 20
267.12009373801152
 30
0.0
 11
359.38397499816108
 21
317.8107067380115
 31
0.0
  0
LINE
  5
3623
  8
AM_0
 10
294.38393499816112
 20
343.46541673801158
 30
0.0
 11
294.38393499816112
 21
228.3225607380115
 31
0.0
  0
LINE
  5
3624
  8
AM_0
 10
356.38397499816108
 20
322.71639673801161
 30
0.0
 11
356.38397499816108
 21
213.2099677380115
 31
0.0
  0
LINE
  5
3625
  8
AM_0
 10
297.38393499816112
 20
279.6816787380115
 30
0.0
 11
297.38393499816112
 21
242.98987573801159
 31
0.0
  0
LINE
  5
3626
  8
AM_0
 10
330.38393499816112
 20
302.25621673801157
 30
0.0
 11
330.38393499816112
 21
214.46541373801151
 31
0.0
  0
LINE
  5
3627
  8
AM_0
 10
343.38395499816141
 20
337.31151673801139
 30
0.0
 11
343.38395499816141
 21
228.5062177380114
 31
0.0
  0
LINE
  5
3628
  8
AM_0
 10
287.38400499816089
 20
313.95975673801149
 30
0.0
 11
287.38400499816089
 21
209.59532773801141
 31
0.0
  0
ARC
  5
3629
  8
0
 10
236.4618285454408
 20
449.61550234685092
 30
0.0
 40
2.0
 50
92.000000000000341
 51
180.0
1001
GENIUS_GENOBJ-N-FIL_13
1002
{
1000
OWNER
1000
GEN
1002
}
1001
GENIUS_GENODEF_13
1002
{
1000
HIER
1070
     0
1002
}
1002
{
1000
MANEDIT
1070
     0
1002
}
1002
{
1000
NOSEL
1070
     0
1002
}
1002
{
1000
BEHIND
1070
     0
1002
}
1002
{
1000
OTHER
1070
     0
1002
}
1002
{
1000
REACTOR
1002
}
  0
LINE
  5
362A
  8
AM_0
 10
255.4618285454408
 20
462.78019905579191
 30
0.0
 11
234.4618285454408
 21
462.78019905579191
 31
0.0
  0
LINE
  5
362B
  8
AM_0
 10
255.4618285454408
 20
476.84277405579189
 30
0.0
 11
234.4618285454408
 21
476.84277405579189
 31
0.0
  0
LINE
  5
362C
  8
0
 10
224.4618285454408
 20
428.78021605579193
 30
0.0
 11
232.4618285454408
 21
428.78021605579193
 31
0.0
  0
ARC
  5
362D
  8
0
 10
232.4618285454408
 20
430.78021605579193
 30
0.0
 40
2.0
 50
270.0
 51
0.0
1001
GENIUS_GENOBJ-N-FIL_13
1002
{
1000
OWNER
1000
GEN
1002
}
1001
GENIUS_GENODEF_13
1002
{
1000
HIER
1070
     0
1002
}
1002
{
1000
MANEDIT
1070
     0
1002
}
1002
{
1000
NOSEL
1070
     0
1002
}
1002
{
1000
BEHIND
1070
     0
1002
}
1002
{
1000
OTHER
1070
     0
1002
}
1002
{
1000
REACTOR
1002
}
  0
LINE
  5
362E
  8
AM_0
 10
291.38393499816112
 20
198.46539973801151
 30
0.0
 11
333.38393499816112
 21
198.46539973801151
 31
0.0
  0
LINE
  5
362F
  8
AM_0
 10
297.38393499816112
 20
212.46541273801139
 30
0.0
 11
297.38393499816112
 21
242.4654157380115
 31
0.0
  0
LINE
  5
3630
  8
AM_0
 10
291.224514998161
 20
213.42789373801151
 30
0.0
 11
297.27509499816119
 21
241.95235273801151
 31
0.0
  0
LINE
  5
3631
  8
AM_0
 10
256.38398499816122
 20
216.4654147380115
 30
0.0
 11
279.46247499816121
 21
215.8610737380115
 31
0.0
  0
LINE
  5
3632
  8
AM_0
 10
265.38398499816122
 20
197.46541273801159
 30
0.0
 11
290.384004998161
 21
197.46541273801159
 31
0.0
  0
LINE
  5
3633
  8
AM_0
 10
267.38393499816112
 20
209.46541273801159
 30
0.0
 11
286.33334499816141
 21
209.46541273801159
 31
0.0
  0
LINE
  5
3634
  8
AM_0
 10
256.38398499816122
 20
226.46541373801151
 30
0.0
 11
287.38400499816089
 21
226.46541373801151
 31
0.0
  0
LINE
  5
3635
  8
AM_0
 10
265.38398499816122
 20
207.46539973801151
 30
0.0
 11
265.38398499816122
 21
197.46541273801159
 31
0.0
  0
LINE
  5
3636
  8
0
 10
236.3920295520355
 20
451.6142840008892
 30
0.0
 11
255.4618285454408
 21
452.28021605579198
 31
0.0
  0
ARC
  5
3637
  8
AM_0
 10
267.38393499816112
 20
207.46539973801151
 30
0.0
 40
2.00000007
 50
90.000003000000945
 51
180.00001000000091
  0
LINE
  5
3638
  8
ﾁｭｳｼﾝｾﾝ1
 10
277.38398499816122
 20
214.01086873801151
 30
0.0
 11
277.38398499816122
 21
192.91995673801151
 31
0.0
  0
LINE
  5
3639
  8
ｶｸﾚｾﾝ2
 10
283.38398499816122
 20
209.46541273801159
 30
0.0
 11
283.38398499816122
 21
197.46541273801159
 31
0.0
  0
LINE
  5
363A
  8
ｶｸﾚｾﾝ2
 10
271.38398499816122
 20
209.46541273801159
 30
0.0
 11
271.38398499816122
 21
197.46541273801159
 31
0.0
  0
LINE
  5
363B
  8
AM_0
 10
290.384004998161
 20
197.46541273801159
 30
0.0
 11
290.384004998161
 21
197.46541273801159
 31
0.0
  0
ARC
  5
363C
  8
AM_0
 10
291.38393499816112
 20
197.46541273801159
 30
0.0
 40
1.0000000199999981
 50
90.000003000000945
 51
180.00001000000091
  0
LINE
  5
363D
  8
AM_0
 10
286.33334499816141
 20
209.46541273801159
 30
0.0
 11
294.38393499816112
 21
209.46541273801159
 31
0.0
  0
LINE
  5
363E
  8
AM_0
 10
282.38393499816112
 20
223.24967173801161
 30
0.0
 11
287.38400499816089
 21
223.24967173801161
 31
0.0
  0
ARC
  5
363F
  8
AM_0
 10
286.33334499816141
 20
214.46541373801151
 30
0.0
 40
5.0000001000000003
 50
270.0
 51
348.0238700000009
  0
LINE
  5
3640
  8
AM_0
 10
282.38393499816112
 20
221.2496557380116
 30
0.0
 11
282.38393499816112
 21
209.46541273801159
 31
0.0
  0
ARC
  5
3641
  8
AM_0
 10
279.38393499816112
 20
212.8620967380113
 30
0.0
 40
3.0
 50
0.0
 51
88.499997000000747
  0
ARC
  5
3642
  8
AM_0
 10
280.38398499816128
 20
221.2496557380116
 30
0.0
 40
2.00000007
 50
0.0
 51
90.000003000000945
  0
ARC
  5
3643
  8
AM_0
 10
294.38393499816112
 20
212.46541273801139
 30
0.0
 40
3.0
 50
270.0
 51
0.0
  0
LINE
  5
3644
  8
AM_0
 10
256.38398499816122
 20
240.5283877380115
 30
0.0
 11
287.38400499816089
 21
240.5283877380115
 31
0.0
  0
ARC
  5
3645
  8
AM_0
 10
292.38398499816122
 20
242.98987573801159
 30
0.0
 40
5.0000001000000003
 50
348.0238700000009
 51
0.0
  0
LINE
  5
3646
  8
AM_0
 10
334.38395499816141
 20
197.46541273801159
 30
0.0
 11
359.38397499816108
 21
197.46541273801159
 31
0.0
  0
LINE
  5
3647
  8
AM_0
 10
335.38397499816102
 20
209.46541273801159
 30
0.0
 11
357.38393499816112
 21
209.46541273801159
 31
0.0
  0
LINE
  5
3648
  8
AM_0
 10
330.38393499816112
 20
224.50623073801151
 30
0.0
 11
339.38393499816112
 21
224.50623073801151
 31
0.0
  0
LINE
  5
3649
  8
AM_0
 10
334.38395499816141
 20
197.46541273801159
 30
0.0
 11
334.38395499816141
 21
197.46541273801159
 31
0.0
  0
ARC
  5
364A
  8
AM_0
 10
333.38393499816112
 20
197.46541273801159
 30
0.0
 40
1.0000000199999981
 50
0.0
 51
90.000003000000945
  0
ARC
  5
364B
  8
AM_0
 10
335.38397499816102
 20
214.46541373801151
 30
0.0
 40
5.0000001000000003
 50
180.00001000000091
 51
270.0
  0
LINE
  5
364C
  8
ﾁｭｳｼﾝｾﾝ1
 10
347.38397499816108
 20
214.0108687380116
 30
0.0
 11
347.38397499816108
 21
192.91995673801151
 31
0.0
  0
LINE
  5
364D
  8
AM_0
 10
359.38397499816108
 20
207.46539973801151
 30
0.0
 11
359.38397499816108
 21
197.46541273801159
 31
0.0
  0
LINE
  5
364E
  8
ｶｸﾚｾﾝ2
 10
353.38397499816108
 20
209.46541273801159
 30
0.0
 11
353.38397499816108
 21
197.46541273801159
 31
0.0
  0
LINE
  5
364F
  8
ｶｸﾚｾﾝ2
 10
341.38397499816102
 20
209.46541273801159
 30
0.0
 11
341.38397499816102
 21
197.46541273801159
 31
0.0
  0
ARC
  5
3650
  8
AM_0
 10
339.38393499816112
 20
228.5062177380114
 30
0.0
 40
4.000000199999997
 50
270.0
 51
0.0
  0
ARC
  5
3651
  8
AM_0
 10
361.38395499816153
 20
213.2099677380115
 30
0.0
 40
5.0000001000000003
 50
179.9999899999988
 51
235.15011000000041
  0
ARC
  5
3652
  8
AM_0
 10
357.38393499816112
 20
207.46539973801151
 30
0.0
 40
2.00000007
 50
0.0
 51
90.000003000000945
  0
LINE
  5
3653
  8
AM_0
 10
357.38396499816122
 20
264.81070573801151
 30
0.0
 11
358.38395499816141
 21
265.38803773801152
 31
0.0
  0
ARC
  5
3654
  8
AM_0
 10
357.38393499816112
 20
267.12009373801152
 30
0.0
 40
2.00000007
 50
300.00000000000051
 51
0.0
  0
ARC
  5
3655
  8
AM_0
 10
358.38395499816141
 20
263.07864973801151
 30
0.0
 40
2.00000007
 50
120.0000000000005
 51
180.00001000000091
  0
LINE
  5
3656
  8
ﾁｭｳｼﾝｾﾝ1
 10
220.6348142515003
 20
272.46540073801151
 30
0.0
 11
290.28884283938112
 21
272.46540073801151
 31
0.0
  0
ARC
  5
3657
  8
0
 10
236.4618285454408
 20
567.94492976473293
 30
0.0
 40
2.0
 50
180.0
 51
267.9999999999996
1001
GENIUS_GENOBJ-N-FIL_13
1002
{
1000
OWNER
1000
GEN
1002
}
1001
GENIUS_GENODEF_13
1002
{
1000
HIER
1070
     0
1002
}
1002
{
1000
MANEDIT
1070
     0
1002
}
1002
{
1000
NOSEL
1070
     0
1002
}
1002
{
1000
BEHIND
1070
     0
1002
}
1002
{
1000
OTHER
1070
     0
1002
}
1002
{
1000
REACTOR
1002
}
  0
LINE
  5
3658
  8
AM_0
 10
255.4618285454408
 20
540.71765505579185
 30
0.0
 11
234.4618285454408
 21
540.71765505579185
 31
0.0
  0
LINE
  5
3659
  8
AM_0
 10
255.4618285454408
 20
554.78021505579204
 30
0.0
 11
234.4618285454408
 21
554.78021505579204
 31
0.0
  0
LINE
  5
365A
  8
0
 10
224.4618285454408
 20
588.7802160557917
 30
0.0
 11
232.4618285454408
 21
588.7802160557917
 31
0.0
  0
ARC
  5
365B
  8
0
 10
232.4618285454408
 20
586.78021605579181
 30
0.0
 40
2.0
 50
0.0
 51
90.0
1001
GENIUS_GENOBJ-N-FIL_13
1002
{
1000
OWNER
1000
GEN
1002
}
1001
GENIUS_GENODEF_13
1002
{
1000
HIER
1070
     0
1002
}
1002
{
1000
MANEDIT
1070
     0
1002
}
1002
{
1000
NOSEL
1070
     0
1002
}
1002
{
1000
BEHIND
1070
     0
1002
}
1002
{
1000
OTHER
1070
     0
1002
}
1002
{
1000
REACTOR
1002
}
  0
LINE
  5
365C
  8
AM_0
 10
294.3839949981608
 20
343.46541673801158
 30
0.0
 11
338.51486499816087
 21
342.3097867380115
 31
0.0
  0
LINE
  5
365D
  8
AM_0
 10
297.38393499816112
 20
279.6816787380115
 30
0.0
 11
308.384004998161
 21
279.6816787380115
 31
0.0
  0
LINE
  5
365E
  8
AM_0
 10
282.38393499816112
 20
322.13256673801158
 30
0.0
 11
282.38393499816112
 21
302.49345673801139
 31
0.0
  0
ARC
  5
365F
  8
AM_0
 10
285.38393499816118
 20
313.95975673801149
 30
0.0
 40
2.00000007
 50
0.0
 51
90.000003000000945
  0
LINE
  5
3660
  8
AM_0
 10
256.38398499816122
 20
304.40241673801148
 30
0.0
 11
282.38393499816112
 21
304.40241673801148
 31
0.0
  0
LINE
  5
3661
  8
AM_0
 10
282.38393499816112
 20
300.4934467380117
 30
0.0
 11
287.38400499816089
 21
300.4934467380117
 31
0.0
  0
ARC
  5
3662
  8
AM_0
 10
280.38398499816128
 20
302.49345673801139
 30
0.0
 40
2.00000007
 50
270.0
 51
0.0
  0
LINE
  5
3663
  8
AM_0
 10
256.38392499816081
 20
328.4654167380117
 30
0.0
 11
282.5148549981613
 21
329.14965673801152
 31
0.0
  0
LINE
  5
3664
  8
AM_0
 10
256.38398499816122
 20
318.46539673801152
 30
0.0
 11
282.38393499816112
 21
318.46539673801152
 31
0.0
  0
LINE
  5
3665
  8
0
 10
236.3920295520355
 20
565.94614811069471
 30
0.0
 11
255.4618285454408
 21
565.28021605579181
 31
0.0
  0
LINE
  5
3666
  8
AM_0
 10
287.38400499816089
 20
341.46540673801161
 30
0.0
 11
287.38400499816089
 21
326.1325567380116
 31
0.0
  0
ARC
  5
3667
  8
AM_0
 10
282.38393499816112
 20
334.14795673801149
 30
0.0
 40
5.0000001000000003
 50
271.49999999999932
 51
0.0
  0
ARC
  5
3668
  8
AM_0
 10
285.38393499816118
 20
326.1325567380116
 30
0.0
 40
2.00000007
 50
270.0
 51
0.0
  0
LINE
  5
3669
  8
AM_0
 10
284.384004998161
 20
324.13254673801151
 30
0.0
 11
285.38393499816118
 21
324.13254673801151
 31
0.0
  0
LINE
  5
366A
  8
AM_0
 10
284.384004998161
 20
315.95976673801169
 30
0.0
 11
285.38393499816118
 21
315.95976673801169
 31
0.0
  0
ARC
  5
366B
  8
AM_0
 10
284.384004998161
 20
322.13256673801158
 30
0.0
 40
2.00000007
 50
90.000003000000945
 51
180.00001000000091
  0
ARC
  5
366C
  8
AM_0
 10
284.384004998161
 20
317.95974673801157
 30
0.0
 40
2.00000007
 50
179.9999899999988
 51
270.0
  0
ARC
  5
366D
  8
AM_0
 10
289.38398499816122
 20
341.46540673801161
 30
0.0
 40
2.00000007
 50
90.000003000000945
 51
180.00001000000091
  0
LINE
  5
366E
  8
AM_0
 10
289.38398499816122
 20
343.46541673801158
 30
0.0
 11
294.38393499816112
 21
343.46541673801158
 31
0.0
  0
LINE
  5
366F
  8
AM_0
 10
310.38392499816081
 20
312.43584673801149
 30
0.0
 11
310.38392499816081
 21
321.98289673801162
 31
0.0
  0
LINE
  5
3670
  8
AM_0
 10
306.38393499816112
 20
323.98290673801159
 30
0.0
 11
306.38393499816112
 21
310.43589673801159
 31
0.0
  0
LINE
  5
3671
  8
AM_0
 10
305.384004998161
 20
328.99218673801158
 30
0.0
 11
305.384004998161
 21
306.09015673801161
 31
0.0
  0
ARC
  5
3672
  8
AM_0
 10
338.38397499816102
 20
302.25621673801157
 30
0.0
 40
8.0000000999999976
 50
90.000003000000945
 51
180.00001000000091
  0
LINE
  5
3673
  8
AM_0
 10
308.384004998161
 20
305.81412673801162
 30
0.0
 11
308.384004998161
 21
279.6816787380115
 31
0.0
  0
LINE
  5
3674
  8
AM_0
 10
321.21359499816123
 20
305.81412673801162
 30
0.0
 11
308.38394499816121
 21
279.6816787380115
 31
0.0
  0
LINE
  5
3675
  8
AM_0
 10
308.384004998161
 20
305.81412673801162
 30
0.0
 11
331.21868499816122
 21
305.81412673801162
 31
0.0
  0
ARC
  5
3676
  8
AM_0
 10
306.38393499816112
 20
303.09015673801161
 30
0.0
 40
2.00000007
 50
0.0
 51
90.000003000000945
  0
LINE
  5
3677
  8
AM_0
 10
306.38393499816112
 20
311.43588673801162
 30
0.0
 11
309.38393499816112
 21
311.43588673801162
 31
0.0
  0
LINE
  5
3678
  8
AM_0
 10
306.38393499816112
 20
314.32263673801162
 30
0.0
 11
309.38393499816112
 21
314.32263673801162
 31
0.0
  0
LINE
  5
3679
  8
AM_0
 10
305.384004998161
 20
310.43589673801159
 30
0.0
 11
306.38393499816112
 21
310.43589673801159
 31
0.0
  0
ARC
  5
367A
  8
AM_0
 10
309.38393499816112
 20
315.32259673801161
 30
0.0
 40
1.0000000199999981
 50
270.0
 51
0.0
  0
ARC
  5
367B
  8
AM_0
 10
309.38393499816112
 20
313.3226467380116
 30
0.0
 40
1.0000000199999981
 50
0.0
 51
90.000003000000945
  0
ARC
  5
367C
  8
AM_0
 10
309.38393499816112
 20
312.43584673801149
 30
0.0
 40
1.0000000199999981
 50
270.0
 51
0.0
  0
ARC
  5
367D
  8
AM_0
 10
306.38393499816112
 20
306.09015673801161
 30
0.0
 40
1.0000000199999981
 50
179.9999899999988
 51
270.0
  0
LINE
  5
367E
  8
AM_0
 10
361.38395499816102
 20
307.46540773801161
 30
0.0
 11
361.38395499816102
 21
277.46540173801151
 31
0.0
  0
LINE
  5
367F
  8
AM_0
 10
359.38397499816108
 20
277.46540173801151
 30
0.0
 11
361.38395499816102
 21
277.46540173801151
 31
0.0
  0
LINE
  5
3680
  8
AM_0
 10
338.38397499816102
 20
310.25619673801151
 30
0.0
 11
343.38395499816141
 21
310.25619673801151
 31
0.0
  0
LINE
  5
3681
  8
AM_0
 10
359.38397499816108
 20
307.46540773801161
 30
0.0
 11
361.38395499816102
 21
307.46540773801161
 31
0.0
  0
LINE
  5
3682
  8
AM_0
 10
369.38393499816112
 20
309.46544773801168
 30
0.0
 11
369.38393499816112
 21
306.46544773801162
 31
0.0
  0
LINE
  5
3683
  8
AM_0
 10
308.384004998161
 20
323.99286673801151
 30
0.0
 11
343.38395499816141
 21
323.99286673801151
 31
0.0
  0
LINE
  5
3684
  8
AM_0
 10
308.384004998161
 20
343.02024673801162
 30
0.0
 11
308.384004998161
 21
323.99286673801151
 31
0.0
  0
LINE
  5
3685
  8
AM_0
 10
308.38394499816121
 20
343.02024673801162
 30
0.0
 11
321.96590499816142
 21
323.99286673801151
 31
0.0
  0
LINE
  5
3686
  8
AM_0
 10
306.38393499816112
 20
322.98291673801162
 30
0.0
 11
309.38393499816112
 21
322.98291673801162
 31
0.0
  0
LINE
  5
3687
  8
AM_0
 10
306.38393499816112
 20
320.09613673801158
 30
0.0
 11
309.38393499816112
 21
320.09613673801158
 31
0.0
  0
LINE
  5
3688
  8
AM_0
 10
305.384004998161
 20
323.98290673801159
 30
0.0
 11
306.38393499816112
 21
323.98290673801159
 31
0.0
  0
ARC
  5
3689
  8
AM_0
 10
309.38393499816112
 20
319.09614673801161
 30
0.0
 40
1.0000000199999981
 50
0.0
 51
90.000003000000945
  0
ARC
  5
368A
  8
AM_0
 10
309.38393499816112
 20
321.09612673801161
 30
0.0
 40
1.0000000199999981
 50
270.0
 51
0.0
  0
ARC
  5
368B
  8
AM_0
 10
309.38393499816112
 20
321.98289673801162
 30
0.0
 40
1.0000000199999981
 50
0.0
 51
90.000003000000945
  0
ARC
  5
368C
  8
AM_0
 10
306.38393499816112
 20
328.99218673801158
 30
0.0
 40
1.0000000199999981
 50
90.000003000000945
 51
180.00001000000091
  0
ARC
  5
368D
  8
AM_0
 10
306.38393499816112
 20
331.99218673801158
 30
0.0
 40
2.00000007
 50
270.0
 51
0.0
  0
ARC
  5
368E
  8
AM_0
 10
353.38397499816108
 20
322.71639673801161
 30
0.0
 40
3.0
 50
0.0
 51
84.999996999998572
  0
ARC
  5
368F
  8
AM_0
 10
348.38393499816112
 20
331.18440673801149
 30
0.0
 40
5.0000001000000003
 50
179.9999899999988
 51
265.00000000000028
  0
LINE
  5
3690
  8
AM_0
 10
347.94818499816108
 20
326.20344673801162
 30
0.0
 11
353.64545499816109
 21
325.70499673801157
 31
0.0
  0
LINE
  5
3691
  8
AM_0
 10
357.38396499816122
 20
320.12010673801149
 30
0.0
 11
358.38398499816111
 21
319.54275673801158
 31
0.0
  0
ARC
  5
3692
  8
AM_0
 10
358.38395499816141
 20
321.8521567380115
 30
0.0
 40
2.00000007
 50
179.9999899999988
 51
240.00000999999969
  0
ARC
  5
3693
  8
AM_0
 10
357.38393499816112
 20
317.8107067380115
 30
0.0
 40
2.00000007
 50
0.0
 51
60.000002000001302
  0
ARC
  5
3694
  8
AM_0
 10
338.38397499816102
 20
337.31151673801139
 30
0.0
 40
5.0000001000000003
 50
0.0
 51
88.499997000000747
  0
LINE
  5
3695
  8
ﾁｭｳｼﾝｾﾝ1
 10
556.26952298815615
 20
357.46540073801162
 30
0.0
 11
556.26952298815615
 21
187.46540073801151
 31
0.0
  0
LINE
  5
3696
  8
AM_0
 10
634.26952298815615
 20
209.46541273801159
 30
0.0
 11
623.50110698815615
 21
312.0955867380116
 31
0.0
  0
LINE
  5
3697
  8
AM_0
 10
478.26951398815612
 20
209.46541273801159
 30
0.0
 11
489.03795398815618
 21
312.0955867380116
 31
0.0
  0
LINE
  5
3698
  8
AM_0
 10
609.26952398815661
 20
307.71795673801171
 30
0.0
 11
609.26952398815661
 21
246.46539973801151
 31
0.0
  0
LINE
  5
3699
  8
AM_0
 10
503.26956398815628
 20
307.71795673801171
 30
0.0
 11
503.26956398815628
 21
246.46539973801151
 31
0.0
  0
LINE
  5
369A
  8
AM_0
 10
508.26951398815629
 20
277.46540173801151
 30
0.0
 11
508.26951398815629
 21
214.46541373801151
 31
0.0
  0
LINE
  5
369B
  8
AM_0
 10
604.26952298815615
 20
277.46540173801151
 30
0.0
 11
604.26952298815615
 21
214.46541373801151
 31
0.0
  0
ARC
  5
369C
  8
AM_0
 10
556.26952298815615
 20
292.46540173801162
 30
0.0
 40
26.500002599999998
 50
90.000003000000945
 51
270.0
  0
ARC
  5
369D
  8
AM_0
 10
556.26952298815615
 20
277.46540173801151
 30
0.0
 40
48.0
 50
0.0
 51
180.00001000000091
  0
ARC
  5
369E
  8
AM_0
 10
556.26952298815615
 20
292.46540173801162
 30
0.0
 40
26.500002599999998
 50
270.0
 51
90.000003000000945
  0
ARC
  5
369F
  8
AM_0
 10
556.26952298815615
 20
272.46540073801151
 30
0.0
 40
80.0
 50
338.55058014174352
 51
35.053310348173703
  0
ARC
  5
36A0
  8
AM_0
 10
556.26952298815615
 20
272.46540073801151
 30
0.0
 40
80.0
 50
144.9466346353031
 51
201.44941814463871
  0
LINE
  5
36A1
  8
AM_0
 10
634.26952298815615
 20
197.46541273801159
 30
0.0
 11
604.26952298815615
 21
197.46541273801159
 31
0.0
  0
LINE
  5
36A2
  8
AM_0
 10
606.26952398815649
 20
209.46541273801159
 30
0.0
 11
632.26953998815634
 21
209.46541273801159
 31
0.0
  0
ARC
  5
36A3
  8
AM_0
 10
575.26953698815635
 20
246.46539973801151
 30
0.0
 40
34.000001999999988
 50
328.53301999999962
 51
0.0
  0
LINE
  5
36A4
  8
AM_0
 10
603.26952398815661
 20
198.46542973801141
 30
0.0
 11
509.26956398815611
 21
198.46542973801141
 31
0.0
  0
LINE
  5
36A5
  8
AM_0
 10
522.2695209881565
 20
214.46541373801151
 30
0.0
 11
590.26953698815635
 21
214.46541373801151
 31
0.0
  0
ARC
  5
36A6
  8
AM_0
 10
556.26952298815615
 20
272.46540073801151
 30
0.0
 40
80.0
 50
247.6683003289524
 51
292.3316996710476
  0
ARC
  5
36A7
  8
AM_0
 10
537.26952098815627
 20
246.46539973801151
 30
0.0
 40
34.000001999999988
 50
179.9999899999988
 51
211.46696999999941
  0
ARC
  5
36A8
  8
AM_0
 10
509.26956398815611
 20
197.46541273801159
 30
0.0
 40
1.0000000199999981
 50
90.000003000000945
 51
180.00001000000091
  0
ARC
  5
36A9
  8
AM_0
 10
503.26956398815628
 20
214.46541373801151
 30
0.0
 40
5.0000001000000003
 50
270.0
 51
0.0
  0
ARC
  5
36AA
  8
AM_0
 10
510.2695209881565
 20
198.46542973801141
 30
0.0
 40
2.00000007
 50
90.000003000000945
 51
180.00001000000091
  0
LINE
  5
36AB
  8
ﾁｭｳｼﾝｾﾝ1
 10
491.26953398815641
 20
214.0108687380116
 30
0.0
 11
491.26953398815641
 21
192.91995673801151
 31
0.0
  0
LINE
  5
36AC
  8
ｶｸﾚｾﾝ2
 10
497.26956398815622
 20
209.46541273801159
 30
0.0
 11
497.26956398815622
 21
197.46541273801159
 31
0.0
  0
LINE
  5
36AD
  8
ｶｸﾚｾﾝ2
 10
485.26956398815622
 20
209.46541273801159
 30
0.0
 11
485.26956398815622
 21
197.46541273801159
 31
0.0
  0
LINE
  5
36AE
  8
AM_0
 10
478.26951398815612
 20
197.46541273801159
 30
0.0
 11
478.26951398815612
 21
209.46541273801159
 31
0.0
  0
LINE
  5
36AF
  8
AM_0
 10
508.26951398815629
 20
197.46541273801159
 30
0.0
 11
508.26951398815629
 21
207.46542973801141
 31
0.0
  0
LINE
  5
36B0
  8
AM_0
 10
478.26951398815612
 20
197.46541273801159
 30
0.0
 11
508.26951398815629
 21
197.46541273801159
 31
0.0
  0
LINE
  5
36B1
  8
AM_0
 10
506.26956398815622
 20
209.46541273801159
 30
0.0
 11
480.26952398815592
 21
209.46541273801159
 31
0.0
  0
ARC
  5
36B2
  8
AM_0
 10
480.26952398815592
 20
207.46542973801141
 30
0.0
 40
2.00000007
 50
90.000003000000945
 51
180.00001000000091
  0
ARC
  5
36B3
  8
AM_0
 10
506.26956398815622
 20
207.46542973801141
 30
0.0
 40
2.00000007
 50
0.0
 51
90.000003000000945
  0
LINE
  5
36B4
  8
AM_0
 10
533.47627898815654
 20
202.3508647380115
 30
0.0
 11
532.72267598815631
 21
208.0749727380115
 31
0.0
  0
LINE
  5
36B5
  8
AM_0
 10
527.38866098815629
 20
210.28438273801149
 30
0.0
 11
522.80824598815605
 21
206.76969073801149
 31
0.0
  0
LINE
  5
36B6
  8
AM_0
 10
517.26951998815616
 20
209.46541273801159
 30
0.0
 11
517.26951998815616
 21
203.46541273801151
 31
0.0
  0
CIRCLE
  5
36B7
  8
AM_0
 10
528.14223098815614
 20
204.56027773801151
 30
0.0
 40
4.9999998000000003
  0
LINE
  5
36B8
  8
AM_0
 10
523.56184898815582
 20
201.0455677380115
 30
0.0
 11
528.89586398815618
 21
198.8361397380115
 31
0.0
  0
ARC
  5
36B9
  8
AM_0
 10
514.26951998815605
 20
203.46541273801151
 30
0.0
 40
3.0
 50
270.0
 51
0.0
  0
LINE
  5
36BA
  8
AM_0
 10
514.26951998815605
 20
200.46541273801159
 30
0.0
 11
510.2695209881565
 21
200.46541273801159
 31
0.0
  0
LINE
  5
36BB
  8
AM_0
 10
522.80821598815623
 20
206.76970573801151
 30
0.0
 11
523.56181898815635
 21
201.04559773801151
 31
0.0
  0
LINE
  5
36BC
  8
AM_0
 10
528.89583398815626
 20
198.83617273801161
 30
0.0
 11
533.47627898815654
 21
202.3508497380115
 31
0.0
  0
ARC
  5
36BD
  8
AM_0
 10
522.2695209881565
 20
209.46541273801159
 30
0.0
 40
5.0000001000000003
 50
90.000003000000945
 51
180.00001000000091
  0
LINE
  5
36BE
  8
AM_0
 10
532.72270598815635
 20
208.0749427380116
 30
0.0
 11
527.38869098815655
 21
210.28436773801161
 31
0.0
  0
LINE
  5
36BF
  8
AM_0
 10
579.8163519881565
 20
208.07495773801159
 30
0.0
 11
579.06276698815611
 21
202.3508497380115
 31
0.0
  0
LINE
  5
36C0
  8
AM_0
 10
589.73082698815631
 20
206.76967273801151
 30
0.0
 11
585.15039698815644
 21
210.28436773801161
 31
0.0
  0
LINE
  5
36C1
  8
AM_0
 10
595.26952298815615
 20
209.46541273801159
 30
0.0
 11
595.26952298815615
 21
203.46541273801151
 31
0.0
  0
LINE
  5
36C2
  8
AM_0
 10
604.26952298815615
 20
197.46541273801159
 30
0.0
 11
604.26952298815615
 21
207.46542973801141
 31
0.0
  0
CIRCLE
  5
36C3
  8
AM_0
 10
584.39676398815618
 20
204.56027773801151
 30
0.0
 40
4.9999998000000003
  0
LINE
  5
36C4
  8
AM_0
 10
583.64320898815618
 20
198.83617273801161
 30
0.0
 11
588.97723898815605
 21
201.04559773801151
 31
0.0
  0
LINE
  5
36C5
  8
AM_0
 10
579.0627819881563
 20
202.35083473801151
 30
0.0
 11
583.64320898815618
 21
198.83615773801159
 31
0.0
  0
LINE
  5
36C6
  8
AM_0
 10
588.97720898815612
 20
201.0455827380114
 30
0.0
 11
589.73081198815635
 21
206.76969073801149
 31
0.0
  0
LINE
  5
36C7
  8
AM_0
 10
602.26953698815646
 20
200.46541273801159
 30
0.0
 11
598.26952298815627
 21
200.46541273801159
 31
0.0
  0
ARC
  5
36C8
  8
AM_0
 10
598.26952298815627
 20
203.46541273801151
 30
0.0
 40
3.0
 50
179.9999899999988
 51
270.0
  0
ARC
  5
36C9
  8
AM_0
 10
603.26952398815661
 20
197.46541273801159
 30
0.0
 40
1.0000000199999981
 50
0.0
 51
90.000003000000945
  0
ARC
  5
36CA
  8
AM_0
 10
602.26953698815646
 20
198.46542973801141
 30
0.0
 40
2.00000007
 50
0.0
 51
90.000003000000945
  0
ARC
  5
36CB
  8
AM_0
 10
590.26953698815635
 20
209.46541273801159
 30
0.0
 40
5.0000001000000003
 50
0.0
 51
90.000003000000945
  0
LINE
  5
36CC
  8
AM_0
 10
585.15041198815607
 20
210.28438273801149
 30
0.0
 11
579.81638198815631
 21
208.07495773801159
 31
0.0
  0
ARC
  5
36CD
  8
AM_0
 10
609.26952398815661
 20
214.46541373801151
 30
0.0
 40
5.0000001000000003
 50
179.9999899999988
 51
270.0
  0
ARC
  5
36CE
  8
AM_0
 10
606.26952398815649
 20
207.46542973801141
 30
0.0
 40
2.00000007
 50
90.000003000000945
 51
180.00001000000091
  0
LINE
  5
36CF
  8
ﾁｭｳｼﾝｾﾝ1
 10
621.26953898815646
 20
214.0108687380116
 30
0.0
 11
621.26953898815646
 21
192.91995673801151
 31
0.0
  0
LINE
  5
36D0
  8
ｶｸﾚｾﾝ2
 10
615.26952398815661
 20
209.46541273801159
 30
0.0
 11
615.26952398815661
 21
197.46541273801159
 31
0.0
  0
LINE
  5
36D1
  8
ｶｸﾚｾﾝ2
 10
627.26953898815646
 20
209.46541273801159
 30
0.0
 11
627.26953898815646
 21
197.46541273801159
 31
0.0
  0
LINE
  5
36D2
  8
AM_0
 10
634.26952298815615
 20
197.46541273801159
 30
0.0
 11
634.26952298815615
 21
209.46541273801159
 31
0.0
  0
ARC
  5
36D3
  8
AM_0
 10
632.26953998815634
 20
207.46542973801141
 30
0.0
 40
2.00000007
 50
0.0
 51
90.000003000000945
  0
LINE
  5
36D4
  8
AM_0
 10
609.2469999881564
 20
314.99988673801153
 30
0.0
 11
613.82742998815615
 21
311.48520673801158
 31
0.0
  0
LINE
  5
36D5
  8
AM_0
 10
610.00057298815614
 20
320.72400673801161
 30
0.0
 11
609.24696998815625
 21
314.99988673801153
 31
0.0
  0
LINE
  5
36D6
  8
ﾁｭｳｼﾝｾﾝ1
 10
641.26952298815615
 20
272.46540073801151
 30
0.0
 11
471.2695229881561
 21
272.46540073801151
 31
0.0
  0
ARC
  5
36D7
  8
AM_0
 10
604.26952298815615
 20
307.71795673801171
 30
0.0
 40
5.0000001000000003
 50
0.0
 51
41.280591000000527
  0
ARC
  5
36D8
  8
AM_0
 10
618.54779798815605
 20
320.25315673801151
 30
0.0
 40
13.9999986
 50
154.93703999999951
 51
273.19937000000061
  0
ARC
  5
36D9
  8
AM_0
 10
556.26952298815615
 20
233.46541573801159
 30
0.0
 40
110.000004
 50
58.263836000000381
 51
121.7361699999997
  0
ARC
  5
36DA
  8
AM_0
 10
556.26952298815615
 20
272.46540073801151
 30
0.0
 40
80.0
 50
41.778364608222901
 51
138.22167273140781
  0
LINE
  5
36DB
  8
AM_0
 10
401.38397499816091
 20
309.46544773801168
 30
0.0
 11
401.38397499816091
 21
278.46543073801161
 31
0.0
  0
LINE
  5
36DC
  8
ﾁｭｳｼﾝｾﾝ1
 10
519.10094198815625
 20
292.46540173801162
 30
0.0
 11
591.96684998815647
 21
292.46540173801162
 31
0.0
  0
ARC
  5
36DD
  8
AM_0
 10
556.26952298815615
 20
272.46540073801151
 30
0.0
 40
71.000000999999983
 50
47.99935899999911
 51
132.00064999999921
  0
ARC
  5
36DE
  8
AM_0
 10
556.26952298815615
 20
292.46540173801162
 30
0.0
 40
14.000001299999999
 50
106.6015399999982
 51
73.398452000001853
  0
LINE
  5
36DF
  8
AM_0
 10
503.29209398815601
 20
314.99997673801153
 30
0.0
 11
502.53849398815601
 21
320.72409673801161
 31
0.0
  0
LINE
  5
36E0
  8
AM_0
 10
492.62406398815619
 20
319.4188267380116
 30
0.0
 11
493.3776339881565
 21
313.69470673801152
 31
0.0
  0
CIRCLE
  5
36E1
  8
AM_0
 10
497.9580639881562
 20
317.20938673801157
 30
0.0
 40
4.9999998000000003
  0
ARC
  5
36E2
  8
AM_0
 10
493.9912539881563
 20
320.25315673801151
 30
0.0
 40
13.9999986
 50
266.80063999999902
 51
25.06296900000175
  0
ARC
  5
36E3
  8
AM_0
 10
508.92876398815588
 20
310.00854673801149
 30
0.0
 40
20.000000700000001
 50
121.7361699999997
 51
174.01019000000011
  0
ARC
  5
36E4
  8
AM_0
 10
556.26952298815615
 20
272.46540073801151
 30
0.0
 40
71.000000999999983
 50
152.9994200000007
 51
174.01019000000011
  0
ARC
  5
36E5
  8
AM_0
 10
492.93087398815618
 20
301.28274673801172
 30
0.0
 40
5.0000001000000003
 50
86.800638999999066
 51
174.01019000000011
  0
LINE
  5
36E6
  8
AM_0
 10
498.71169398815641
 20
311.48529673801158
 30
0.0
 11
503.29209398815601
 21
315.00000673801162
 31
0.0
  0
LINE
  5
36E7
  8
AM_0
 10
493.3776339881565
 20
313.69470673801152
 30
0.0
 11
498.71166398815637
 21
311.4852667380116
 31
0.0
  0
ARC
  5
36E8
  8
AM_0
 10
495.68139398815629
 20
303.33738673801162
 30
0.0
 40
3.0
 50
95.70573799999886
 51
152.9994200000007
  0
ARC
  5
36E9
  8
AM_0
 10
508.26951398815629
 20
307.71795673801171
 30
0.0
 40
5.0000001000000003
 50
138.71941000000001
 51
180.00001000000091
  0
ARC
  5
36EA
  8
AM_0
 10
511.20228998815651
 20
328.30182673801158
 30
0.0
 40
5.0000001000000003
 50
115.4175600000008
 51
205.0629700000004
  0
LINE
  5
36EB
  8
AM_0
 10
502.53849398815601
 20
320.72406673801152
 30
0.0
 11
497.20449398815617
 21
322.93350673801149
 31
0.0
  0
LINE
  5
36EC
  8
AM_0
 10
497.20452398815632
 20
322.93350673801149
 30
0.0
 11
492.62406398815619
 21
319.4188267380116
 31
0.0
  0
ARC
  5
36ED
  8
AM_0
 10
510.76808498815598
 20
322.99875673801171
 30
0.0
 40
3.0
 50
132.00064999999921
 51
189.2943400000016
  0
CIRCLE
  5
36EE
  8
AM_5
 10
556.26952298815615
 20
292.46540173801162
 30
0.0
 40
4.000000199999997
  0
CIRCLE
  5
36EF
  8
AM_0
 10
556.26952298815615
 20
292.46540173801162
 30
0.0
 40
3.0
  0
LINE
  5
36F0
  8
AM_0
 10
552.26952098815605
 20
309.46544773801168
 30
0.0
 11
560.26950698815631
 21
309.46544773801168
 31
0.0
  0
LINE
  5
36F1
  8
AM_0
 10
552.26952098815605
 20
302.46542773801161
 30
0.0
 11
560.26950698815631
 21
302.46542773801161
 31
0.0
  0
LINE
  5
36F2
  8
AM_0
 10
552.26952098815605
 20
302.46542773801161
 30
0.0
 11
552.26952098815605
 21
309.46544773801168
 31
0.0
  0
LINE
  5
36F3
  8
AM_0
 10
560.26950698815631
 20
302.46542773801161
 30
0.0
 11
560.26950698815631
 21
309.46544773801168
 31
0.0
  0
ARC
  5
36F4
  8
AM_0
 10
601.33676798815645
 20
328.30182673801158
 30
0.0
 40
5.0000001000000003
 50
334.93702999999948
 51
64.582444000001303
  0
ARC
  5
36F5
  8
AM_0
 10
601.77098798815609
 20
322.99875673801171
 30
0.0
 40
3.0
 50
350.70567000000091
 51
47.99935899999911
  0
LINE
  5
36F6
  8
AM_0
 10
619.91498498815599
 20
319.41879673801162
 30
0.0
 11
619.16139998815606
 21
313.69470673801152
 31
0.0
  0
CIRCLE
  5
36F7
  8
AM_0
 10
614.58099998815635
 20
317.20932673801161
 30
0.0
 40
4.9999998000000003
  0
ARC
  5
36F8
  8
AM_0
 10
603.61029698815628
 20
310.00854673801149
 30
0.0
 40
20.000000700000001
 50
5.9898155000000548
 51
58.263836000000381
  0
ARC
  5
36F9
  8
AM_0
 10
556.26952298815615
 20
272.46540073801151
 30
0.0
 40
71.000000999999983
 50
5.989814199999338
 51
27.0005730000006
  0
ARC
  5
36FA
  8
AM_0
 10
619.60819298815636
 20
301.28274673801172
 30
0.0
 40
5.0000001000000003
 50
5.9898155000000548
 51
93.199359000001024
  0
LINE
  5
36FB
  8
AM_0
 10
613.82742998815615
 20
311.48523673801151
 30
0.0
 11
619.16145998815614
 21
313.69464673801161
 31
0.0
  0
ARC
  5
36FC
  8
AM_0
 10
616.85765798815612
 20
303.33738673801162
 30
0.0
 40
3.0
 50
27.0005730000006
 51
84.294260999999054
  0
LINE
  5
36FD
  8
AM_0
 10
619.9150479881564
 20
319.41873673801149
 30
0.0
 11
615.3346179881562
 21
322.9334167380116
 31
0.0
  0
LINE
  5
36FE
  8
AM_0
 10
615.3346179881562
 20
322.93344673801158
 30
0.0
 11
610.00058798815587
 21
320.7240367380117
 31
0.0
  0
LINE
  5
3700
  8
0
 10
224.46180854544079
 20
192.46540073801131
 30
0.0
 11
224.46180854544079
 21
352.4654007380114
 31
0.0
1001
GENIUS_GENOREF_13
1005
3471
  0
LINE
  5
3701
  8
0
 10
234.46180854544079
 20
350.4654007380114
 30
0.0
 11
234.46180854544079
 21
194.46540073801151
 31
0.0
1001
GENIUS_GENOREF_13
1005
3471
  0
LINE
  5
3702
  8
0
 10
224.46180854544079
 20
192.46540073801131
 30
0.0
 11
232.46180854544079
 21
192.46540073801131
 31
0.0
  0
ARC
  5
3703
  8
0
 10
232.46180854544079
 20
194.46540073801151
 30
0.0
 40
2.0
 50
270.0
 51
0.0
1001
GENIUS_GENOBJ-N-FIL_13
1002
{
1000
OWNER
1000
GEN
1002
}
1001
GENIUS_GENODEF_13
1002
{
1000
HIER
1070
     0
1002
}
1002
{
1000
MANEDIT
1070
     0
1002
}
1002
{
1000
NOSEL
1070
     0
1002
}
1002
{
1000
BEHIND
1070
     0
1002
}
1002
{
1000
OTHER
1070
     0
1002
}
1002
{
1000
REACTOR
1002
}
  0
LINE
  5
3704
  8
0
 10
236.3920095520356
 20
215.29946868310881
 30
0.0
 11
255.46180854544079
 21
215.96540073801151
 31
0.0
  0
ARC
  5
3705
  8
0
 10
236.46180854544079
 20
213.3006870290705
 30
0.0
 40
2.0
 50
92.000000000000341
 51
180.0
1001
GENIUS_GENOBJ-N-FIL_13
1002
{
1000
OWNER
1000
GEN
1002
}
1001
GENIUS_GENODEF_13
1002
{
1000
HIER
1070
     0
1002
}
1002
{
1000
MANEDIT
1070
     0
1002
}
1002
{
1000
NOSEL
1070
     0
1002
}
1002
{
1000
BEHIND
1070
     0
1002
}
1002
{
1000
OTHER
1070
     0
1002
}
1002
{
1000
REACTOR
1002
}
  0
LINE
  5
3706
  8
AM_0
 10
255.46180854544079
 20
226.4653837380115
 30
0.0
 11
234.46180854544079
 21
226.4653837380115
 31
0.0
  0
LINE
  5
3707
  8
AM_0
 10
255.46180854544079
 20
240.52795873801139
 30
0.0
 11
234.46180854544079
 21
240.52795873801139
 31
0.0
  0
LINE
  5
3708
  8
AM_0
 10
255.46180854544079
 20
304.40283973801138
 30
0.0
 11
234.46180854544079
 21
304.40283973801138
 31
0.0
  0
LINE
  5
3709
  8
AM_0
 10
255.46180854544079
 20
318.46539973801151
 30
0.0
 11
234.46180854544079
 21
318.46539973801151
 31
0.0
  0
LINE
  5
370A
  8
0
 10
236.3920095520356
 20
329.63133279291418
 30
0.0
 11
255.46180854544079
 21
328.96540073801151
 31
0.0
  0
ARC
  5
370B
  8
0
 10
236.46180854544079
 20
331.63011444695218
 30
0.0
 40
2.0
 50
180.0
 51
267.9999999999996
1001
GENIUS_GENOBJ-N-FIL_13
1002
{
1000
OWNER
1000
GEN
1002
}
1001
GENIUS_GENODEF_13
1002
{
1000
HIER
1070
     0
1002
}
1002
{
1000
MANEDIT
1070
     0
1002
}
1002
{
1000
NOSEL
1070
     0
1002
}
1002
{
1000
BEHIND
1070
     0
1002
}
1002
{
1000
OTHER
1070
     0
1002
}
1002
{
1000
REACTOR
1002
}
  0
LINE
  5
370C
  8
0
 10
224.46180854544079
 20
352.4654007380114
 30
0.0
 11
232.46180854544079
 21
352.4654007380114
 31
0.0
  0
ARC
  5
370D
  8
0
 10
232.46180854544079
 20
350.4654007380114
 30
0.0
 40
2.0
 50
0.0
 51
90.0
1001
GENIUS_GENOBJ-N-FIL_13
1002
{
1000
OWNER
1000
GEN
1002
}
1001
GENIUS_GENODEF_13
1002
{
1000
HIER
1070
     0
1002
}
1002
{
1000
MANEDIT
1070
     0
1002
}
1002
{
1000
NOSEL
1070
     0
1002
}
1002
{
1000
BEHIND
1070
     0
1002
}
1002
{
1000
OTHER
1070
     0
1002
}
1002
{
1000
REACTOR
1002
}
  0
TEXT
  5
38EC
  8
AM_0
 10
454.90476579518639
 20
529.03873282946097
 30
0.0
 40
10.0
  1
VX02-080A~VX0-100A
  0
ENDSEC
  0
EOF
