  0
SECTION
  2
HEADER
  9
$ACADVER
  1
AC1009
  9
$INSBASE
 10
0.0
 20
0.0
 30
0.0
  9
$EXTMIN
 10
197.92927773032491
 20
176.34971057539559
 30
-0.0000000349181948
  9
$EXTMAX
 10
679.01280390810325
 20
607.99676195630389
 30
0.0000000814935747
  9
$LIMMIN
 10
0.0
 20
0.0
  9
$LIMMAX
 10
853.5
 20
555.00000000000011
  9
$ORTHOMODE
 70
     0
  9
$REGENMODE
 70
     1
  9
$FILLMODE
 70
     1
  9
$QTEXTMODE
 70
     0
  9
$MIRRTEXT
 70
     1
  9
$DRAGMODE
 70
     2
  9
$LTSCALE
 40
3.0
  9
$OSMODE
 70
   551
  9
$ATTMODE
 70
     1
  9
$TEXTSIZE
 40
2.5
  9
$TRACEWID
 40
1.0
  9
$TEXTSTYLE
  7
STANDARD
  9
$CLAYER
  8
AM_0
  9
$CELTYPE
  6
BYLAYER
  9
$CECOLOR
 62
   256
  9
$DIMSCALE
 40
1.0
  9
$DIMASZ
 40
2.5
  9
$DIMEXO
 40
1.0
  9
$DIMDLI
 40
8.0
  9
$DIMRND
 40
0.0
  9
$DIMDLE
 40
0.0
  9
$DIMEXE
 40
0.6
  9
$DIMTP
 40
0.1
  9
$DIMTM
 40
0.1
  9
$DIMTXT
 40
2.5
  9
$DIMCEN
 40
0.0
  9
$DIMTSZ
 40
0.0
  9
$DIMTOL
 70
     0
  9
$DIMLIM
 70
     0
  9
$DIMTIH
 70
     0
  9
$DIMTOH
 70
     0
  9
$DIMSE1
 70
     0
  9
$DIMSE2
 70
     0
  9
$DIMTAD
 70
     1
  9
$DIMZIN
 70
     8
  9
$DIMBLK
  1

  9
$DIMASO
 70
     1
  9
$DIMSHO
 70
     1
  9
$DIMPOST
  1

  9
$DIMAPOST
  1
"
  9
$DIMALT
 70
     0
  9
$DIMALTD
 70
     2
  9
$DIMALTF
 40
0.0393701
  9
$DIMLFAC
 40
1.0
  9
$DIMTOFL
 70
     1
  9
$DIMTVP
 40
0.0
  9
$DIMTIX
 70
     0
  9
$DIMSOXD
 70
     0
  9
$DIMSAH
 70
     0
  9
$DIMBLK1
  1

  9
$DIMBLK2
  1

  9
$DIMSTYLE
  2
AM_ISO
  9
$DIMCLRD
 70
   256
  9
$DIMCLRE
 70
   256
  9
$DIMCLRT
 70
     4
  9
$DIMTFAC
 40
0.71
  9
$DIMGAP
 40
0.8
  9
$LUNITS
 70
     2
  9
$LUPREC
 70
     2
  9
$SKETCHINC
 40
1.0
  9
$FILLETRAD
 40
15.0
  9
$AUNITS
 70
     0
  9
$AUPREC
 70
     0
  9
$MENU
  1
.
  9
$ELEVATION
 40
0.0
  9
$PELEVATION
 40
0.0
  9
$THICKNESS
 40
0.0
  9
$LIMCHECK
 70
     0
  9
$BLIPMODE
 70
     0
  9
$CHAMFERA
 40
6.0
  9
$CHAMFERB
 40
3.0
  9
$SKPOLY
 70
     0
  9
$TDCREATE
 40
2452065.752856805
  9
$TDUPDATE
 40
2458541.466499398
  9
$TDINDWG
 40
0.0604581597
  9
$TDUSRTIMER
 40
0.0604581481
  9
$USRTIMER
 70
     1
  9
$ANGBASE
 50
0.0
  9
$ANGDIR
 70
     0
  9
$PDMODE
 70
     0
  9
$PDSIZE
 40
0.0
  9
$PLINEWID
 40
0.0
  9
$COORDS
 70
     1
  9
$SPLFRAME
 70
     0
  9
$SPLINETYPE
 70
     6
  9
$SPLINESEGS
 70
     8
  9
$ATTDIA
 70
     1
  9
$ATTREQ
 70
     1
  9
$HANDLING
 70
     1
  9
$HANDSEED
  5
342C
  9
$SURFTAB1
 70
     6
  9
$SURFTAB2
 70
     6
  9
$SURFTYPE
 70
     6
  9
$SURFU
 70
     6
  9
$SURFV
 70
     6
  9
$UCSNAME
  2

  9
$UCSORG
 10
0.0
 20
0.0
 30
0.0
  9
$UCSXDIR
 10
1.0
 20
0.0
 30
0.0
  9
$UCSYDIR
 10
0.0
 20
1.0
 30
0.0
  9
$PUCSNAME
  2

  9
$PUCSORG
 10
0.0
 20
0.0
 30
0.0
  9
$PUCSXDIR
 10
1.0
 20
0.0
 30
0.0
  9
$PUCSYDIR
 10
0.0
 20
1.0
 30
0.0
  9
$USERI1
 70
     0
  9
$USERI2
 70
     0
  9
$USERI3
 70
     0
  9
$USERI4
 70
     0
  9
$USERI5
 70
     0
  9
$USERR1
 40
0.0
  9
$USERR2
 40
0.0
  9
$USERR3
 40
0.0
  9
$USERR4
 40
0.0
  9
$USERR5
 40
0.0
  9
$WORLDVIEW
 70
     1
  9
$SHADEDGE
 70
     3
  9
$SHADEDIF
 70
    70
  9
$TILEMODE
 70
     1
  9
$MAXACTVP
 70
    64
  9
$PLIMCHECK
 70
     0
  9
$PEXTMIN
 10
1.0000000000000000E+020
 20
1.0000000000000000E+020
 30
1.0000000000000000E+020
  9
$PEXTMAX
 10
-1.0000000000000000E+020
 20
-1.0000000000000000E+020
 30
-1.0000000000000000E+020
  9
$PLIMMIN
 10
0.0
 20
0.0
  9
$PLIMMAX
 10
420.0
 20
297.0
  9
$UNITMODE
 70
     0
  9
$VISRETAIN
 70
     1
  9
$PLINEGEN
 70
     0
  9
$PSLTSCALE
 70
     1
  0
ENDSEC
  0
SECTION
  2
TABLES
  0
TABLE
  2
VPORT
 70
     1
  0
VPORT
  2
*ACTIVE
 70
     0
 10
0.0
 20
0.0
 11
1.0
 21
1.0
 12
438.47104081921401
 22
392.17323626584982
 13
0.0
 23
0.0
 14
7.5
 24
7.5
 15
30.0
 25
30.0
 16
0.0
 26
0.0
 36
1.0
 17
0.0
 27
0.0
 37
0.0
 40
434.6103034498849
 41
1.7571592210767459
 42
50.0
 43
0.0
 44
0.0
 50
0.0
 51
0.0
 71
     0
 72
   100
 73
     1
 74
     3
 75
     0
 76
     0
 77
     0
 78
     0
  0
ENDTAB
  0
TABLE
  2
LTYPE
 70
    26
  0
LTYPE
  2
CONTINUOUS
 70
     0
  3
Solid line
 72
    65
 73
     0
 40
0.0
  0
LTYPE
  2
AM_ISO02W050
 70
     0
  3
__ __ __ __ __ __ __ __ __ __ __ __ __ __ __
 72
    65
 73
     2
 40
7.5
 49
6.0
 49
-1.5
  0
LTYPE
  2
AM_ISO08W050
 70
     0
  3
____ . ____ . ____ . ____ . ____ . ____ . ____
 72
    65
 73
     4
 40
18.0
 49
12.0
 49
-1.5
 49
3.0
 49
-1.5
  0
LTYPE
  2
AM_ISO09W050
 70
     0
  3
_____ . . _____ . . _____ . . ____ .. ____
 72
    65
 73
     6
 40
22.5
 49
12.0
 49
-1.5
 49
3.0
 49
-1.5
 49
3.0
 49
-1.5
  0
LTYPE
  2
AMCONSTR
 70
     0
  3
_______________________
 72
    65
 73
     2
 40
9999.0
 49
9999.0
 49
0.0
  0
LTYPE
  2
AM_ISO08W050X2
 70
     0
  3
__ . __ . __ . __ . __ . __
 72
    65
 73
     4
 40
9.0
 49
6.0
 49
-0.75
 49
1.5
 49
-0.75
  0
LTYPE
  2
AM_ISO02W050X2
 70
     0
  3
 _ _ _ _ _ _ _ _ _ _ _ _
 72
    65
 73
     2
 40
3.75
 49
3.0
 49
-0.75
  0
LTYPE
  2
AMZIGZAG
 70
     0
  3
/\/-/\/-/\/-/\/-/\/-/\/
 72
    65
 73
     2
 40
11.000099999999991
 49
0.0001
 49
-11.0
  0
LTYPE
  2
ACISOWELD
 70
     0
  3
_ _ _ _ _
 72
    65
 73
     2
 40
2.0
 49
2.0
 49
-1.0
  0
LTYPE
  2
ACISOTGB
 70
     0
  3
__ . . __ . .
 72
    65
 73
     6
 40
9.0
 49
4.0
 49
-1.0
 49
1.0
 49
-1.0
 49
1.0
 49
-1.0
  0
LTYPE
  2
ACISOTGL
 70
     0
  3
_ _ _ _ _
 72
    65
 73
     2
 40
3.0
 49
2.0
 49
-1.0
  0
LTYPE
  2
CENTER
 70
     0
  3
__ . __
 72
    65
 73
     4
 40
7.0
 49
4.0
 49
-1.0
 49
1.0
 49
-1.0
  0
LTYPE
  2
PHANTOM2
 70
     0
  3
Phantom (.5x) ___ _ _ ___ _ _ ___ _ _ ___ _ _
 72
    65
 73
     6
 40
31.75
 49
15.875
 49
-3.174999999999998
 49
3.174999999999998
 49
-3.174999999999998
 49
3.174999999999998
 49
-3.174999999999998
  0
LTYPE
  2
ACANSTGBM
 70
     0
  3
__ . . __ . .
 72
    65
 73
     6
 40
9.0
 49
4.0
 49
-1.0
 49
1.0
 49
-1.0
 49
1.0
 49
-1.0
  0
LTYPE
  2
ACANSTGLM
 70
     0
  3
_ _ _ _ _
 72
    65
 73
     2
 40
3.0
 49
2.0
 49
-1.0
  0
LTYPE
  2
GEN3B
 70
     0
  3
 - - - - -
 72
    65
 73
     2
 40
1.0
 49
0.5
 49
-0.5
  0
LTYPE
  2
GEN7A
 70
     0
  3
__ . __ . __
 72
    65
 73
     4
 40
7.375
 49
4.75
 49
-0.875
 49
0.875
 49
-0.875
  0
LTYPE
  2
ACJISTGB
 70
     0
  3
__ . . __ . .
 72
    65
 73
     6
 40
9.0
 49
4.0
 49
-1.0
 49
1.0
 49
-1.0
 49
1.0
 49
-1.0
  0
LTYPE
  2
ACJISTGL
 70
     0
  3
_ _ _ _ _
 72
    65
 73
     2
 40
3.0
 49
2.0
 49
-1.0
  0
LTYPE
  2
HIDDEN
 70
     0
  3
Hidden __ __ __ __ __ __ __ __ __ __ __ __ __ _
 72
    65
 73
     2
 40
0.375
 49
0.25
 49
-0.125
  0
LTYPE
  2
CENTER2
 70
     0
  3
Center (.5x) ___ _ ___ _ ___ _ ___ _ ___ _ ___
 72
    65
 73
     4
 40
1.125
 49
0.75
 49
-0.125
 49
0.125
 49
-0.125
  0
LTYPE
  2
HIDDEN2
 70
     0
  3
Hidden (.5x) _ _ _ _ _ _ _ _ _ _ _ _ _ _ _ _ _
 72
    65
 73
     2
 40
0.1875
 49
0.125
 49
-0.0625
  0
LTYPE
  2
AMZIGZAG2
 70
     0
  3
/\/-/\/-/\/-/\/-/\/-/\/
 72
    65
 73
     2
 40
0.4401
 49
0.0001
 49
-0.4400000000000002
  0
LTYPE
  2
ACANSTGB
 70
     0
  3
__ . . __ . .
 72
    65
 73
     6
 40
0.35433070866
 49
0.15748031496
 49
-0.03937007874
 49
0.03937007874
 49
-0.03937007874
 49
0.03937007874
 49
-0.03937007874
  0
LTYPE
  2
ACANSTGL
 70
     0
  3
_ _ _ _ _
 72
    65
 73
     2
 40
0.11811023622
 49
0.07874015748
 49
-0.03937007874
  0
ENDTAB
  0
TABLE
  2
LAYER
 70
     6
  0
LAYER
  2
0
 70
     0
 62
     7
  6
CONTINUOUS
  0
LAYER
  2
AM_0
 70
     0
 62
     7
  6
CONTINUOUS
  0
LAYER
  2
AM_5
 70
     0
 62
     2
  6
CONTINUOUS
  0
LAYER
  2
DEFPOINTS
 70
     0
 62
     7
  6
CONTINUOUS
  0
LAYER
  2
ｶｸﾚｾﾝ2
 70
     0
 62
     3
  6
GEN3B
  0
LAYER
  2
ﾁｭｳｼﾝｾﾝ1
 70
     0
 62
     1
  6
GEN7A
  0
ENDTAB
  0
TABLE
  2
STYLE
 70
     9
  0
STYLE
  2
STANDARD
 70
     0
 40
0.0
 41
0.8299999999999999
 50
0.0
 71
     0
 42
2.5
  3
txt.shx
  4
bigfont.shx
  0
STYLE
  2
ANNOTATIVE
 70
     0
 40
0.0
 41
1.0
 50
0.0
 71
     0
 42
0.2
  3
txt
  4

  0
STYLE
  2

 70
     1
 40
0.0
 41
1.0
 50
0.0
 71
     0
 42
2.5
  3
ltypeshp.shx
  4

  0
STYLE
  2
ACISOTS
 70
     0
 40
1.0
 41
1.0
 50
0.0
 71
     0
 42
2.5
  3
isocp.shx
  4
extfont.shx
  0
STYLE
  2
ACISOGDT
 70
     0
 40
0.0
 41
1.0
 50
0.0
 71
     0
 42
2.5
  3
amgdt.shx
  4

  0
STYLE
  2
ACANSTS
 70
     0
 40
1.0
 41
1.0
 50
0.0
 71
     0
 42
2.5
  3
romans.shx
  4
bigfont.shx
  0
STYLE
  2
ACANSGDT
 70
     0
 40
0.0
 41
1.0
 50
0.0
 71
     0
 42
2.5
  3
amgdt.shx
  4

  0
STYLE
  2
ACJISTS
 70
     0
 40
1.0
 41
1.0
 50
0.0
 71
     0
 42
2.5
  3
isocp.shx
  4
bigfont.shx
  0
STYLE
  2
ACJISGDT
 70
     0
 40
0.0
 41
1.0
 50
0.0
 71
     0
 42
2.5
  3
amgdt.shx
  4

  0
ENDTAB
  0
TABLE
  2
VIEW
 70
     6
  0
VIEW
  2
AM_VIEW1
 70
     0
 40
277.49999999999989
 10
249.64779005524849
 20
416.24999999999989
 41
499.2955801104971
 11
0.0
 21
0.0
 31
1.0
 12
0.0
 22
0.0
 32
0.0
 42
50.0
 43
0.0
 44
0.0
 50
0.0
 71
     0
  0
VIEW
  2
AM_VIEW2
 70
     0
 40
277.49999999999989
 10
603.85220994475117
 20
416.24999999999989
 41
499.2955801104971
 11
0.0
 21
0.0
 31
1.0
 12
0.0
 22
0.0
 32
0.0
 42
50.0
 43
0.0
 44
0.0
 50
0.0
 71
     0
  0
VIEW
  2
AM_VIEW3
 70
     0
 40
277.49999999999989
 10
249.64779005524849
 20
138.7499999999998
 41
499.2955801104971
 11
0.0
 21
0.0
 31
1.0
 12
0.0
 22
0.0
 32
0.0
 42
50.0
 43
0.0
 44
0.0
 50
0.0
 71
     0
  0
VIEW
  2
AM_VIEW4
 70
     0
 40
277.49999999999989
 10
603.85220994475117
 20
138.7499999999998
 41
499.2955801104971
 11
0.0
 21
0.0
 31
1.0
 12
0.0
 22
0.0
 32
0.0
 42
50.0
 43
0.0
 44
0.0
 50
0.0
 71
     0
  0
VIEW
  2
AM_VIEW5
 70
     0
 40
277.5
 10
426.75
 20
277.49999999999989
 41
499.2955801104971
 11
0.0
 21
0.0
 31
1.0
 12
0.0
 22
0.0
 32
0.0
 42
50.0
 43
0.0
 44
0.0
 50
0.0
 71
     0
  0
VIEW
  2
AM_VIEW6
 70
     0
 40
554.99445000000014
 10
426.75
 20
277.49999999999989
 41
998.5811743093924
 11
0.0
 21
0.0
 31
1.0
 12
0.0
 22
0.0
 32
0.0
 42
50.0
 43
0.0
 44
0.0
 50
0.0
 71
     0
  0
ENDTAB
  0
TABLE
  2
UCS
 70
     0
  0
ENDTAB
  0
TABLE
  2
APPID
 70
    95
  0
APPID
  2
ACAD
 70
     0
  0
APPID
  2
ACADANNOTATIVE
 70
     0
  0
APPID
  2
MCAD_NO_VIS
 70
     0
  0
APPID
  2
ACAD_TEMP_GRAPHIC
 70
     0
  0
APPID
  2
ACATTRIBSERVICES
 70
     0
  0
APPID
  2
GENIUS_GENREC_14
 70
     0
  0
APPID
  2
GENIUS_GENOBJ-N-REC_13
 70
     0
  0
APPID
  2
GENIUS_GENODEF_13
 70
     0
  0
APPID
  2
GENIUS_GENOLIS_13
 70
     0
  0
APPID
  2
GENIUS_GENOBJ-N-TIT_13
 70
     0
  0
APPID
  2
GENIUS_GENOENT_13
 70
     0
  0
APPID
  2
GENIUS_GENTITLE_13
 70
     0
  0
APPID
  2
GENIUS_GENOREF_13
 70
     0
  0
APPID
  2
GENIUS_GENSCREG_15
 70
     0
  0
APPID
  2
GENIUS_GENOBJ-N-SDF_13
 70
     0
  0
APPID
  2
GENIUS_GENFIL_13
 70
     0
  0
APPID
  2
GENIUS_GENOBJ-N-CHA_13
 70
     0
  0
APPID
  2
GENIUS_GENDTOL_13
 70
     0
  0
APPID
  2
GENIUS_GENOBJ-N-FIL_13
 70
     0
  0
APPID
  2
AD_DRAW
 70
     0
  0
APPID
  2
DESIGNERASSEMBLIES
 70
     0
  0
APPID
  2
ASURF_PCURVE_APPNAME
 70
     0
  0
APPID
  2
GENIUS_GE3SECT_13
 70
     0
  0
APPID
  2
GENIUS_GENCFG_13
 70
     0
  0
APPID
  2
GENIUS_GE3CFG0_13
 70
     0
  0
APPID
  2
GENIUS_GENCFG0_13
 70
     0
  0
APPID
  2
GENIUS_GENCFG1_13
 70
     0
  0
APPID
  2
GENIUS_GENCFG2_13
 70
     0
  0
APPID
  2
GENIUS_GENCFG3_13
 70
     0
  0
APPID
  2
GENIUS_GENCFG4_13
 70
     0
  0
APPID
  2
GENIUS_GEVCFG0_13
 70
     0
  0
APPID
  2
GENIUS_GENHINW_13
 70
     0
  0
APPID
  2
GENIUS_FIRSTVISTXT_14
 70
     0
  0
APPID
  2
GENIUS_GENOBJ-N-LEADER_13
 70
     0
  0
APPID
  2
GEV_VCCNULL_SWITCH_OFF
 70
     0
  0
APPID
  2
GENIUS_GEFCFG0_13
 70
     0
  0
APPID
  2
GENIUS_GENZVEED_13
 70
     0
  0
APPID
  2
GENIUS_GENSCREG_13
 70
     0
  0
APPID
  2
GENIUS_DUMCFG0_13
 70
     0
  0
APPID
  2
GEVID936201362
 70
     0
  0
APPID
  2
GEVDC
 70
     0
  0
APPID
  2
GEVCON
 70
     0
  0
APPID
  2
VCC
 70
     0
  0
APPID
  2
GEVPT
 70
     0
  0
APPID
  2
GEVIT
 70
     0
  0
APPID
  2
GENBH
 70
     0
  0
APPID
  2
GEVMK
 70
     0
  0
APPID
  2
GENIUS_GENBH_13
 70
     0
  0
APPID
  2
GENIUS_GENOBJ-NBEHI-BHF_13
 70
     0
  0
APPID
  2
GENIUS_GENOBJ-NBEHI-BHB_13
 70
     0
  0
APPID
  2
GENIUS_GENOBJ-F-DESC_13
 70
     0
  0
APPID
  2
GENIUS_GEFDESC_14
 70
     0
  0
APPID
  2
GENIUS_GENOBJ-F-PART_13
 70
     0
  0
APPID
  2
GENIUS_GEFSTDP_13
 70
     0
  0
APPID
  2
GENIUS_GEFPARTINS_13
 70
     0
  0
APPID
  2
GENIUS_GENTRA_14
 70
     0
  0
APPID
  2
GENIUS_GENINF13_13
 70
     0
  0
APPID
  2
GENIUS_GENOBJ-N-INFOPT_13
 70
     0
  0
APPID
  2
GENIUS_GENOBJ-N-RSSYM_13
 70
     0
  0
APPID
  2
GENIUS_GENSYMENT_13
 70
     0
  0
APPID
  2
GENIUS_GENSCSYM_13
 70
     0
  0
APPID
  2
GENIUS_GEFINFNAM_13
 70
     0
  0
APPID
  2
GENIUS_GENOBJ-N-CEN_13
 70
     0
  0
APPID
  2
GENIUS_GENOBJ-N-CRS_13
 70
     0
  0
APPID
  2
GENIUS_GENOBJ-N-CRC_13
 70
     0
  0
APPID
  2
GENIUS_GENCRC_14
 70
     0
  0
APPID
  2
GEVID942827039
 70
     0
  0
APPID
  2
GEVID942827040
 70
     0
  0
APPID
  2
GEVID942827041
 70
     0
  0
APPID
  2
GENIUS_GENOBJ-F-SCPASSM_13
 70
     0
  0
APPID
  2
GENIUS_GENDIMSH_14
 70
     0
  0
APPID
  2
GEVID942827042
 70
     0
  0
APPID
  2
GEVID946020473
 70
     0
  0
APPID
  2
GEVID946020474
 70
     0
  0
APPID
  2
GEVID946020475
 70
     0
  0
APPID
  2
GENIUS_GENOBJ-N-HTC_13
 70
     0
  0
APPID
  2
GENIUS_GENHATCH_13
 70
     0
  0
APPID
  2
GEVID948854295
 70
     0
  0
APPID
  2
GEVID939402019
 70
     0
  0
APPID
  2
GEVID952919491
 70
     0
  0
APPID
  2
GEVID952919492
 70
     0
  0
APPID
  2
GENIUS_GEFWELD_13
 70
     0
  0
APPID
  2
GENIUS_GENOBJ-F-WELS_13
 70
     0
  0
APPID
  2
GEVID952919493
 70
     0
  0
APPID
  2
GENIUS_GENOBJ-N-RSBK_13
 70
     0
  0
APPID
  2
GENIUS_GENOBJ-N-LIB_13
 70
     0
  0
APPID
  2
GENIUS_GENSCALE_13
 70
     0
  0
APPID
  2
GEVID986376691
 70
     0
  0
APPID
  2
DCO15
 70
     0
  0
APPID
  2
ACAD_DSTYLE_DIMBREAK
 70
     0
  0
APPID
  2
ACAD_DSTYLE_DIMJAG
 70
     0
  0
APPID
  2
ACAD_NAV_VCDISPLAY
 70
     0
  0
APPID
  2
ACADANNOPO
 70
     0
  0
APPID
  2
ACAD_EXEMPT_FROM_CAD_STANDARDS
 70
     0
  0
APPID
  2
ACAD_MLEADERVER
 70
     0
  0
ENDTAB
  0
TABLE
  2
DIMSTYLE
 70
    22
  0
DIMSTYLE
  2
STANDARD
 70
     0
  3

  4

  5

  6

  7

 40
1.0
 41
0.18
 42
0.0625
 43
0.38
 44
0.18
 45
0.0
 46
0.0
 47
0.0
 48
0.0
140
0.18
141
0.09
142
0.0
143
25.399999999999999
144
1.0
145
0.0
146
1.0
147
0.09
 71
     0
 72
     0
 73
     1
 74
     1
 75
     0
 76
     0
 77
     0
 78
     0
170
     0
171
     2
172
     0
173
     0
174
     0
175
     0
176
     0
177
     0
178
     0
  0
DIMSTYLE
  2
ANNOTATIVE
 70
     0
  3

  4

  5

  6

  7

 40
1.0
 41
0.18
 42
0.0625
 43
0.38
 44
0.18
 45
0.0
 46
0.0
 47
0.0
 48
0.0
140
0.18
141
0.09
142
0.0
143
25.399999999999999
144
1.0
145
0.0
146
1.0
147
0.09
 71
     0
 72
     0
 73
     1
 74
     1
 75
     0
 76
     0
 77
     0
 78
     0
170
     0
171
     2
172
     0
173
     0
174
     0
175
     0
176
     0
177
     0
178
     0
  0
DIMSTYLE
  2
AM_ISO
 70
     0
  3

  4
"
  5

  6

  7

 40
1.0
 41
2.5
 42
1.0
 43
8.0
 44
0.6
 45
0.0
 46
0.0
 47
0.1
 48
0.1
140
2.5
141
0.0
142
0.0
143
0.0393701
144
1.0
145
0.0
146
0.71
147
0.8
 71
     0
 72
     0
 73
     0
 74
     0
 75
     0
 76
     0
 77
     1
 78
     8
170
     0
171
     2
172
     1
173
     0
174
     0
175
     0
176
   256
177
   256
178
     4
  0
DIMSTYLE
  2
AM_ISO$3
 70
     0
  3

  4
"
  5

  6

  7

 40
1.0
 41
2.5
 42
1.0
 43
8.0
 44
0.6
 45
0.0
 46
0.0
 47
0.1
 48
0.1
140
2.5
141
0.0
142
0.0
143
0.0393701
144
1.0
145
0.0
146
0.71
147
0.8
 71
     0
 72
     0
 73
     0
 74
     1
 75
     0
 76
     0
 77
     1
 78
     8
170
     0
171
     2
172
     0
173
     0
174
     0
175
     0
176
   256
177
   256
178
     4
  0
DIMSTYLE
  2
AM_ISO$4
 70
     0
  3

  4
"
  5

  6

  7

 40
1.0
 41
2.5
 42
1.0
 43
8.0
 44
0.6
 45
0.0
 46
0.0
 47
0.1
 48
0.1
140
2.5
141
0.0
142
0.0
143
0.0393701
144
1.0
145
0.0
146
0.71
147
0.8
 71
     0
 72
     0
 73
     0
 74
     1
 75
     0
 76
     0
 77
     1
 78
     8
170
     0
171
     2
172
     0
173
     0
174
     0
175
     0
176
   256
177
   256
178
     4
  0
DIMSTYLE
  2
AM_ISO$6
 70
     0
  3

  4
"
  5

  6

  7

 40
1.0
 41
2.5
 42
1.0
 43
8.0
 44
0.6
 45
0.0
 46
0.0
 47
0.1
 48
0.1
140
2.5
141
0.0
142
0.0
143
0.0393701
144
1.0
145
0.0
146
0.71
147
0.8
 71
     0
 72
     0
 73
     0
 74
     0
 75
     0
 76
     0
 77
     0
 78
     8
170
     0
171
     2
172
     1
173
     0
174
     0
175
     0
176
   256
177
   256
178
     4
  0
DIMSTYLE
  2
AM_ISO$7
 70
     0
  3

  4
"
  5

  6

  7

 40
1.0
 41
2.5
 42
1.0
 43
8.0
 44
0.6
 45
0.0
 46
0.0
 47
0.1
 48
0.1
140
2.5
141
0.0
142
0.0
143
0.0393701
144
1.0
145
0.0
146
0.71
147
0.8
 71
     0
 72
     0
 73
     0
 74
     0
 75
     0
 76
     0
 77
     1
 78
     8
170
     0
171
     2
172
     1
173
     0
174
     0
175
     0
176
   256
177
   256
178
     4
  0
DIMSTYLE
  2
AM_ISO$SF
 70
     0
  3

  4
"
  5

  6

  7

 40
1.0
 41
2.5
 42
1.0
 43
10.0
 44
1.0
 45
0.0
 46
0.0
 47
0.1
 48
0.1
140
3.5
141
0.0
142
0.0
143
0.0393701
144
1.0
145
0.0
146
0.71
147
1.5
 71
     0
 72
     0
 73
     0
 74
     0
 75
     1
 76
     1
 77
     1
 78
     8
170
     0
171
     2
172
     1
173
     0
174
     0
175
     0
176
   256
177
   256
178
     2
  0
DIMSTYLE
  2
AM_ISO$SH
 70
     0
  3

  4
"
  5

  6

  7

 40
1.0
 41
2.5
 42
1.0
 43
10.0
 44
1.0
 45
0.0
 46
0.0
 47
0.1
 48
0.1
140
3.5
141
0.0
142
0.0
143
0.0393701
144
2.0
145
0.0
146
0.71
147
1.5
 71
     0
 72
     0
 73
     0
 74
     0
 75
     1
 76
     1
 77
     1
 78
     8
170
     0
171
     2
172
     1
173
     1
174
     0
175
     0
176
   256
177
   256
178
     2
  0
DIMSTYLE
  2
AM_JIS
 70
     0
  3

  4
"
  5

  6

  7

 40
1.0
 41
2.5
 42
1.0
 43
7.0
 44
1.0
 45
0.0
 46
0.0
 47
0.1
 48
0.1000000001
140
2.5
141
0.0
142
0.0
143
0.0393701
144
1.0
145
0.0
146
0.71
147
1.0
 71
     0
 72
     0
 73
     0
 74
     0
 75
     0
 76
     0
 77
     3
 78
     8
170
     0
171
     2
172
     1
173
     0
174
     0
175
     0
176
   256
177
   256
178
     4
  0
DIMSTYLE
  2
AM_JIS$3
 70
     0
  3

  4
"
  5

  6

  7

 40
1.0
 41
2.5
 42
1.0
 43
7.0
 44
1.0
 45
0.0
 46
0.0
 47
0.1
 48
0.1000000001
140
2.5
141
0.0
142
0.0
143
0.0393701
144
1.0
145
0.0
146
0.71
147
1.0
 71
     0
 72
     0
 73
     0
 74
     1
 75
     0
 76
     0
 77
     3
 78
     8
170
     0
171
     2
172
     0
173
     0
174
     0
175
     0
176
   256
177
   256
178
     4
  0
DIMSTYLE
  2
AM_JIS$4
 70
     0
  3

  4
"
  5

  6

  7

 40
1.0
 41
2.5
 42
1.0
 43
7.0
 44
1.0
 45
0.0
 46
0.0
 47
0.1
 48
0.1000000001
140
2.5
141
0.0
142
0.0
143
0.0393701
144
1.0
145
0.0
146
0.71
147
1.0
 71
     0
 72
     0
 73
     0
 74
     0
 75
     0
 76
     0
 77
     3
 78
     8
170
     0
171
     2
172
     0
173
     0
174
     0
175
     0
176
   256
177
   256
178
     4
  0
DIMSTYLE
  2
AM_JIS$6
 70
     0
  3

  4
"
  5

  6

  7

 40
1.0
 41
2.5
 42
1.0
 43
7.0
 44
1.0
 45
0.0
 46
0.0
 47
0.1
 48
0.1000000001
140
2.5
141
0.0
142
0.0
143
0.0393701
144
1.0
145
0.0
146
0.71
147
1.0
 71
     0
 72
     0
 73
     0
 74
     0
 75
     0
 76
     0
 77
     0
 78
     8
170
     0
171
     2
172
     1
173
     0
174
     0
175
     0
176
   256
177
   256
178
     4
  0
DIMSTYLE
  2
AM_JIS$7
 70
     0
  3

  4
"
  5

  6

  7

 40
1.0
 41
2.5
 42
1.0
 43
7.0
 44
1.0
 45
0.0
 46
0.0
 47
0.1
 48
0.1000000001
140
2.5
141
0.0
142
0.0
143
0.0393701
144
1.0
145
0.0
146
0.71
147
1.0
 71
     0
 72
     0
 73
     0
 74
     0
 75
     0
 76
     0
 77
     3
 78
     8
170
     0
171
     2
172
     1
173
     0
174
     0
175
     0
176
   256
177
   256
178
     4
  0
DIMSTYLE
  2
AM_JIS$SF
 70
     0
  3

  4
"
  5

  6

  7

 40
1.0
 41
2.5
 42
1.0
 43
10.0
 44
1.0
 45
0.0
 46
0.0
 47
0.1
 48
0.1
140
3.5
141
0.0
142
0.0
143
0.0393701
144
1.0
145
0.0
146
0.71
147
1.5
 71
     0
 72
     0
 73
     0
 74
     0
 75
     1
 76
     1
 77
     3
 78
     8
170
     0
171
     2
172
     1
173
     0
174
     0
175
     0
176
   256
177
   256
178
     4
  0
DIMSTYLE
  2
AM_JIS$SH
 70
     0
  3

  4
"
  5

  6

  7

 40
1.0
 41
2.5
 42
1.0
 43
10.0
 44
1.0
 45
0.0
 46
0.0
 47
0.1
 48
0.1
140
3.5
141
0.0
142
0.0
143
0.0393701
144
1.0
145
0.0
146
0.71
147
1.5
 71
     0
 72
     0
 73
     0
 74
     0
 75
     1
 76
     0
 77
     3
 78
     8
170
     0
171
     2
172
     1
173
     1
174
     0
175
     0
176
   256
177
   256
178
     4
  0
DIMSTYLE
  2
AM_ANSI
 70
     0
  3

  4
mm
  5

  6

  7

 40
1.0
 41
0.1
 42
0.05
 43
0.5
 44
0.1
 45
0.0
 46
0.0
 47
0.1
 48
0.1
140
0.12
141
0.0
142
0.0
143
25.399999999999999
144
1.0
145
0.0
146
0.71
147
0.06
 71
     0
 72
     0
 73
     1
 74
     1
 75
     0
 76
     0
 77
     0
 78
     7
170
     0
171
     2
172
     0
173
     0
174
     0
175
     0
176
   256
177
   256
178
     2
  0
DIMSTYLE
  2
AM_ANSI$3
 70
     0
  3

  4
mm
  5

  6

  7

 40
1.0
 41
0.1
 42
0.05
 43
0.5
 44
0.1
 45
0.0
 46
0.0
 47
0.1
 48
0.1
140
0.12
141
0.0
142
0.0
143
25.399999999999999
144
1.0
145
0.0
146
0.71
147
0.06
 71
     0
 72
     0
 73
     1
 74
     1
 75
     0
 76
     0
 77
     0
 78
     7
170
     0
171
     2
172
     0
173
     0
174
     0
175
     0
176
   256
177
   256
178
     2
  0
DIMSTYLE
  2
AM_ANSI$4
 70
     0
  3

  4
mm
  5

  6

  7

 40
1.0
 41
0.1
 42
0.05
 43
0.5
 44
0.1
 45
0.0
 46
0.0
 47
0.1
 48
0.1
140
0.12
141
0.0
142
0.0
143
25.399999999999999
144
1.0
145
0.0
146
0.71
147
0.06
 71
     0
 72
     0
 73
     1
 74
     1
 75
     0
 76
     0
 77
     0
 78
     7
170
     0
171
     2
172
     0
173
     0
174
     0
175
     0
176
   256
177
   256
178
     2
  0
DIMSTYLE
  2
AM_ANSI$7
 70
     0
  3

  4
mm
  5

  6

  7

 40
1.0
 41
0.1
 42
0.05
 43
0.5
 44
0.1
 45
0.0
 46
0.0
 47
0.1
 48
0.1
140
0.24
141
0.0
142
0.0
143
25.399999999999999
144
1.0
145
0.0
146
0.71
147
0.06
 71
     0
 72
     0
 73
     1
 74
     1
 75
     0
 76
     0
 77
     0
 78
     7
170
     0
171
     2
172
     0
173
     0
174
     0
175
     0
176
   256
177
   256
178
     2
  0
DIMSTYLE
  2
AM_ANSI$SF
 70
     0
  3

  4
mm
  5

  6

  7

 40
1.0
 41
0.1
 42
0.05
 43
0.5
 44
0.1
 45
0.0
 46
0.0
 47
0.1
 48
0.1
140
0.12
141
0.0
142
0.0
143
25.399999999999999
144
1.0
145
0.0
146
0.71
147
0.06
 71
     0
 72
     0
 73
     1
 74
     1
 75
     1
 76
     1
 77
     0
 78
     7
170
     0
171
     2
172
     0
173
     0
174
     0
175
     0
176
   256
177
   256
178
     2
  0
DIMSTYLE
  2
AM_ANSI$SH
 70
     0
  3

  4
mm
  5

  6

  7

 40
1.0
 41
0.1
 42
0.05
 43
0.5
 44
0.1
 45
0.0
 46
0.0
 47
0.1
 48
0.1
140
0.12
141
0.0
142
0.0
143
25.399999999999999
144
1.0
145
0.0
146
0.71
147
0.06
 71
     0
 72
     0
 73
     1
 74
     1
 75
     1
 76
     1
 77
     0
 78
     7
170
     0
171
     2
172
     0
173
     1
174
     0
175
     0
176
   256
177
   256
178
     2
  0
ENDTAB
  0
ENDSEC
  0
SECTION
  2
BLOCKS
  0
BLOCK
  8
0
  2
$MODEL_SPACE
 70
     0
 10
0.0
 20
0.0
 30
0.0
  3
$MODEL_SPACE
  1

  0
ENDBLK
  5
32A2
  8
0
  0
BLOCK
 67
     1
  8
0
  2
$PAPER_SPACE
 70
     0
 10
0.0
 20
0.0
 30
0.0
  3
$PAPER_SPACE
  1

  0
ENDBLK
  5
329E
 67
     1
  8
0
  0
BLOCK
  8
0
  2
GENAXEH
 70
     0
 10
0.0
 20
0.0
 30
0.0
  3
GENAXEH
  1

  0
LINE
  5
3056
  8
0
 10
-1.0
 20
0.0
 30
0.0
 11
1.0
 21
0.0
 31
0.0
  0
ENDBLK
  5
3057
  8
0
  0
BLOCK
  8
0
  2
_OPEN30
 70
     0
 10
0.0
 20
0.0
 30
0.0
  3
_OPEN30
  1

  0
LINE
  5
305A
  8
0
 62
     0
 10
-1.0
 20
0.26794919
 30
0.0
 11
0.0
 21
0.0
 31
0.0
  0
LINE
  5
305B
  8
0
 62
     0
 10
0.0
 20
0.0
 30
0.0
 11
-1.0
 21
-0.26794919
 31
0.0
  0
LINE
  5
305C
  8
0
 62
     0
 10
0.0
 20
0.0
 30
0.0
 11
-1.0
 21
0.0
 31
0.0
  0
ENDBLK
  5
305D
  8
0
  0
BLOCK
  8
0
  2
_NONE
 70
     0
 10
0.0
 20
0.0
 30
0.0
  3
_NONE
  1

  0
ENDBLK
  5
3060
  8
0
  0
BLOCK
  8
0
  2
_ACMFILLEDHALF
 70
     0
 10
0.0
 20
0.0
 30
0.0
  3
_ACMFILLEDHALF
  1

  0
TRACE
  5
3398
  8
AM_0
 62
     0
 10
-0.8
 20
0.0
 30
0.0
 11
-1.0
 21
0.166666666
 31
0.0
 12
0.0
 22
0.0
 32
0.0
 13
0.0
 23
0.0
 33
0.0
  0
LINE
  5
3399
  8
AM_0
 62
     0
 10
-1.0
 20
0.0
 30
0.0
 11
-0.8
 21
0.0
 31
0.0
  0
ENDBLK
  5
3397
  8
0
  0
ENDSEC
  0
SECTION
  2
ENTITIES
  0
LINE
  5
3061
  8
ﾁｭｳｼﾝｾﾝ1
 10
197.99357455421639
 20
517.95274632626786
 30
0.0
 11
408.58902228823598
 21
517.95274632626786
 31
0.0
  0
ARC
  5
3062
  8
AM_0
 10
371.88199228823612
 20
517.95271632626782
 30
0.0
 40
3.9999962
 50
90.000003000000945
 51
270.0
  0
LINE
  5
3063
  8
AM_0
 10
239.3820222882361
 20
461.45274632626757
 30
0.0
 11
239.3820222882361
 21
574.45274632626763
 31
0.0
  0
LINE
  5
3064
  8
AM_0
 10
275.88199228823612
 20
446.86256632626771
 30
0.0
 11
275.88199228823612
 21
589.04292632626789
 31
0.0
  0
LINE
  5
3065
  8
AM_0
 10
268.88202228823621
 20
439.08775632626771
 30
0.0
 11
268.88202228823621
 21
596.81773632626789
 31
0.0
  0
LINE
  5
3066
  8
AM_0
 10
343.88202228823621
 20
462.78120632626792
 30
0.0
 11
343.88202228823621
 21
573.12428632626791
 31
0.0
  0
LINE
  5
3067
  8
AM_0
 10
358.88202228823621
 20
545.97859632626785
 30
0.0
 11
358.88202228823621
 21
489.92689632626758
 31
0.0
  0
LINE
  5
3068
  8
AM_0
 10
355.88202228823621
 20
463.82572632626773
 30
0.0
 11
355.88202228823621
 21
572.0797563262679
 31
0.0
  0
LINE
  5
3069
  8
AM_0
 10
282.88202228823621
 20
435.70179632626758
 30
0.0
 11
282.88202228823621
 21
600.20369632626785
 31
0.0
  0
LINE
  5
306A
  8
AM_0
 10
371.88199228823612
 20
521.95271632626782
 30
0.0
 11
371.88199228823612
 21
513.95274632626786
 31
0.0
  0
LINE
  5
306B
  8
AM_0
 10
361.88202228823621
 20
532.95274632626786
 30
0.0
 11
361.88202228823621
 21
502.95274632626757
 31
0.0
  0
LINE
  5
306C
  8
AM_0
 10
403.88199228823601
 20
531.95277632626755
 30
0.0
 11
403.88199228823601
 21
503.95277632626789
 31
0.0
  0
LINE
  5
306D
  8
AM_0
 10
258.97147228823621
 20
486.01576632626762
 30
0.0
 11
258.97147228823621
 21
549.88975632626773
 31
0.0
  0
POLYLINE
  5
306E
  8
AM_0
 66
     1
 10
0.0
 20
0.0
 30
0.0
  0
VERTEX
  5
306F
  8
AM_0
 10
282.88202228823621
 20
479.67765632626759
 30
0.0
 42
-0.059991193
  0
VERTEX
  5
3070
  8
AM_0
 10
308.47083228823612
 20
463.74544632626771
 30
0.0
 42
-0.30883796
  0
VERTEX
  5
3071
  8
AM_0
 10
317.88199228823612
 20
447.80470632626759
 30
0.0
 42
-0.25905842
  0
VERTEX
  5
3072
  8
AM_0
 10
283.43232228823621
 20
428.01664632626779
 30
0.0
  0
SEQEND
  5
3073
  8
AM_0
  0
LINE
  5
3074
  8
AM_0
 10
285.88202228823621
 20
427.95274632626757
 30
0.0
 11
355.96054228823618
 21
429.78782632626792
 31
0.0
  0
ARC
  5
3075
  8
AM_0
 10
271.88202228823621
 20
439.08775632626771
 30
0.0
 40
3.0
 50
180.00001000000091
 51
267.9999999999996
  0
ARC
  5
3076
  8
AM_0
 10
263.88202228823621
 20
442.95274632626791
 30
0.0
 40
6.0
 50
33.557261999999668
 51
326.44274000000001
  0
LINE
  5
3077
  8
AM_0
 10
248.8820222882361
 20
431.84407632626773
 30
0.0
 11
248.8820222882361
 21
450.73664632626787
 31
0.0
  0
LINE
  5
3078
  8
AM_0
 10
251.8035022882361
 20
428.84510632626768
 30
0.0
 11
285.88202228823621
 21
427.95274632626757
 31
0.0
  0
ARC
  5
3079
  8
AM_0
 10
251.8820222882361
 20
431.84407632626773
 30
0.0
 40
3.0
 50
180.00001000000091
 51
268.5000000000004
  0
LINE
  5
307A
  8
AM_0
 10
282.88202228823621
 20
437.8453863262676
 30
0.0
 11
269.15137228823608
 21
437.8453863262676
 31
0.0
  0
LINE
  5
307B
  8
AM_0
 10
282.88202228823621
 20
435.70179632626758
 30
0.0
 11
271.7773122882362
 21
436.08958632626758
 31
0.0
  0
ARC
  5
307C
  8
AM_0
 10
280.88202228823621
 20
429.08540632626779
 30
0.0
 40
1.0
 50
270.0
 51
0.0
  0
ARC
  5
307D
  8
AM_0
 10
280.88202228823621
 20
433.08540632626779
 30
0.0
 40
5.0
 50
268.5000000000004
 51
0.0000006832462478
  0
LINE
  5
307E
  8
AM_0
 10
282.88202228823621
 20
435.70179632626758
 30
0.0
 11
285.88202228823621
 21
435.70179632626758
 31
0.0
  0
ARC
  5
307F
  8
AM_0
 10
282.88202228823621
 20
432.42854632626762
 30
0.0
 40
1.0
 50
109.47121999999951
 51
180.00001000000091
  0
ARC
  5
3080
  8
AM_0
 10
280.88202228823621
 20
438.08540632626779
 30
0.0
 40
5.0
 50
289.4712300000017
 51
331.5287600000002
  0
LINE
  5
3081
  8
AM_0
 10
281.88202228823621
 20
429.08540632626779
 30
0.0
 11
281.88202228823621
 21
432.42854632626762
 31
0.0
  0
LINE
  5
3082
  8
AM_0
 10
285.88202228823621
 20
433.08540632626779
 30
0.0
 11
285.88202228823621
 21
435.70179632626758
 31
0.0
  0
ARC
  5
3083
  8
AM_0
 10
263.88199228823612
 20
450.62120632626778
 30
0.0
 40
5.0
 50
0.0
 51
49.999999999999922
  0
ARC
  5
3084
  8
AM_0
 10
265.02582228823621
 20
473.95271632626759
 30
0.0
 40
2.0
 50
269.999989999999
 51
35.173260999998369
  0
LINE
  5
3085
  8
AM_0
 10
258.97147228823621
 20
486.0157063262676
 30
0.0
 11
266.66065228823601
 21
475.1047863262678
 31
0.0
  0
LINE
  5
3086
  8
AM_0
 10
257.25089228823612
 20
461.32875632626769
 30
0.0
 11
239.3820222882361
 21
461.95274632626757
 31
0.0
  0
LINE
  5
3087
  8
AM_0
 10
239.3820222882361
 20
471.9527463262678
 30
0.0
 11
265.02582228823621
 21
471.9527463262678
 31
0.0
  0
LINE
  5
3088
  8
AM_0
 10
260.29031228823618
 20
460.16203632626792
 30
0.0
 11
267.0959822882362
 21
454.45140632626789
 31
0.0
  0
LINE
  5
3089
  8
AM_0
 10
251.10556228823609
 20
453.63441632626763
 30
0.0
 11
263.96365228823601
 21
457.0797263262678
 31
0.0
  0
ARC
  5
308A
  8
AM_0
 10
251.8820222882361
 20
450.73664632626787
 30
0.0
 40
3.0
 50
105.00000000000161
 51
180.00001000000091
  0
LINE
  5
308B
  8
AM_0
 10
258.97147228823621
 20
460.95875632626758
 30
0.0
 11
258.97147228823621
 21
471.9527463262678
 31
0.0
  0
ARC
  5
308C
  8
AM_0
 10
257.07639228823609
 20
456.33180632626772
 30
0.0
 40
5.0
 50
49.99999699999762
 51
87.999999999999659
  0
LINE
  5
308D
  8
AM_0
 10
239.3820222882361
 20
486.01576632626762
 30
0.0
 11
258.97147228823621
 21
486.01576632626762
 31
0.0
  0
POLYLINE
  5
308E
  8
AM_0
 66
     1
 10
0.0
 20
0.0
 30
0.0
  0
VERTEX
  5
308F
  8
AM_0
 10
284.14556228823619
 20
438.02376632626761
 30
0.0
 42
0.021277534
  0
VERTEX
  5
3090
  8
AM_0
 10
294.97570228823599
 20
440.0802863262677
 30
0.0
 42
0.020622971
  0
VERTEX
  5
3091
  8
AM_0
 10
305.10046228823597
 20
442.89732632626789
 30
0.0
 42
0.022709
  0
VERTEX
  5
3092
  8
AM_0
 10
315.90738228823619
 20
446.94288632626768
 30
0.0
  0
SEQEND
  5
3093
  8
AM_0
  0
LINE
  5
3094
  8
AM_0
 10
268.88202228823621
 20
458.64424632626771
 30
0.0
 11
275.88199228823612
 21
458.64424632626771
 31
0.0
  0
LINE
  5
3095
  8
AM_0
 10
282.88202228823621
 20
479.67765632626759
 30
0.0
 11
275.88199228823612
 21
479.67765632626759
 31
0.0
  0
CIRCLE
  5
3096
  8
AM_0
 10
343.88202228823621
 20
442.95274632626791
 30
0.0
 40
6.0
  0
LINE
  5
3097
  8
AM_0
 10
325.88202228823621
 20
434.13282632626789
 30
0.0
 11
325.88202228823621
 21
449.59864632626778
 31
0.0
  0
LINE
  5
3098
  8
AM_0
 10
358.88202228823621
 20
432.78678632626759
 30
0.0
 11
358.88202228823621
 21
459.95274632626791
 31
0.0
  0
ARC
  5
3099
  8
AM_0
 10
330.88202228823621
 20
434.13282632626789
 30
0.0
 40
5.0
 50
180.00001000000091
 51
271.49999999999932
  0
ARC
  5
309A
  8
AM_0
 10
355.88202228823621
 20
432.78678632626759
 30
0.0
 40
3.0
 50
271.49999999999932
 51
0.0
  0
LINE
  5
309B
  8
AM_0
 10
361.88202228823621
 20
503.95277632626789
 30
0.0
 11
403.88199228823601
 21
503.95277632626789
 31
0.0
  0
ARC
  5
309C
  8
AM_0
 10
338.88202228823621
 20
462.78120632626792
 30
0.0
 40
5.0
 50
272.0000000000004
 51
0.0
  0
ARC
  5
309D
  8
AM_0
 10
333.88202228823621
 20
449.59864632626778
 30
0.0
 40
8.0
 50
91.999998000000545
 51
180.00001000000091
  0
LINE
  5
309E
  8
AM_0
 10
339.05652228823612
 20
457.78422632626763
 30
0.0
 11
333.60281228823601
 21
457.59379632626792
 31
0.0
  0
ARC
  5
309F
  8
AM_0
 10
352.8820222882361
 20
466.70173632626791
 30
0.0
 40
3.0
 50
274.99999999999972
 51
0.0
  0
ARC
  5
30A0
  8
AM_0
 10
347.78384228823609
 20
458.2251463262678
 30
0.0
 40
5.0
 50
95.00000199999856
 51
152.89618999999891
  0
LINE
  5
30A1
  8
AM_0
 10
353.14346228823609
 20
463.71315632626772
 30
0.0
 11
347.34805228823609
 21
463.20613632626771
 31
0.0
  0
ARC
  5
30A2
  8
AM_0
 10
356.88202228823621
 20
463.82572632626773
 30
0.0
 40
1.0
 50
180.00001000000091
 51
255.5224900000002
  0
ARC
  5
30A3
  8
AM_0
 10
355.88202228823621
 20
459.95274632626791
 30
0.0
 40
3.0
 50
0.0
 51
75.522487999998262
  0
ARC
  5
30A4
  8
AM_0
 10
357.88202228823621
 20
489.92689632626758
 30
0.0
 40
1.0
 50
271.49999999999932
 51
0.0
  0
ARC
  5
30A5
  8
AM_0
 10
356.88202228823621
 20
487.90004632626773
 30
0.0
 40
1.0
 50
91.500001000001546
 51
180.00001000000091
  0
LINE
  5
30A6
  8
AM_0
 10
356.85584228823609
 20
488.89970632626762
 30
0.0
 11
357.908202288236
 21
488.92726632626773
 31
0.0
  0
LINE
  5
30A7
  8
AM_0
 10
358.88202228823621
 20
502.95274632626757
 30
0.0
 11
361.88202228823621
 21
502.95274632626757
 31
0.0
  0
LINE
  5
30A8
  8
AM_0
 10
371.88199228823612
 20
513.95274632626786
 30
0.0
 11
403.88199228823601
 21
513.95274632626786
 31
0.0
  0
POLYLINE
  5
30A9
  8
AM_0
 66
     1
 10
0.0
 20
0.0
 30
0.0
  0
VERTEX
  5
30AA
  8
AM_0
 10
282.88202228823621
 20
556.22782632626775
 30
0.0
 42
0.059991175
  0
VERTEX
  5
30AB
  8
AM_0
 10
308.47083228823612
 20
572.1600363262678
 30
0.0
 42
0.30883786
  0
VERTEX
  5
30AC
  8
AM_0
 10
317.88199228823612
 20
588.10078632626789
 30
0.0
 42
0.25905849
  0
VERTEX
  5
30AD
  8
AM_0
 10
283.43234228823621
 20
607.88883632626755
 30
0.0
  0
SEQEND
  5
30AE
  8
AM_0
  0
LINE
  5
30AF
  8
AM_0
 10
285.88202228823621
 20
607.95274632626786
 30
0.0
 11
355.96054228823618
 21
606.11766632626791
 31
0.0
  0
POLYLINE
  5
30B0
  8
AM_0
 66
     1
 10
0.0
 20
0.0
 30
0.0
  0
VERTEX
  5
30B1
  8
AM_0
 10
284.14556228823619
 20
597.88172632626765
 30
0.0
 42
-0.021277534
  0
VERTEX
  5
30B2
  8
AM_0
 10
294.97570228823599
 20
595.8252063262679
 30
0.0
 42
-0.020622971
  0
VERTEX
  5
30B3
  8
AM_0
 10
305.10046228823597
 20
593.00816632626777
 30
0.0
 42
-0.022709
  0
VERTEX
  5
30B4
  8
AM_0
 10
315.90738228823619
 20
588.96260632626775
 30
0.0
  0
SEQEND
  5
30B5
  8
AM_0
  0
ARC
  5
30B6
  8
AM_0
 10
263.88202228823621
 20
592.95274632626786
 30
0.0
 40
6.0
 50
33.557261999999668
 51
326.44274000000001
  0
LINE
  5
30B7
  8
AM_0
 10
248.8820222882361
 20
604.06138632626755
 30
0.0
 11
248.8820222882361
 21
585.16883632626775
 31
0.0
  0
ARC
  5
30B8
  8
AM_0
 10
263.88199228823612
 20
585.28428632626776
 30
0.0
 40
5.0
 50
310.0
 51
0.0
  0
ARC
  5
30B9
  8
AM_0
 10
265.02582228823621
 20
561.95274632626786
 30
0.0
 40
2.0
 50
324.82673000000062
 51
90.000003000000945
  0
LINE
  5
30BA
  8
AM_0
 10
266.66065228823601
 20
560.80064632626772
 30
0.0
 11
258.97150228823608
 21
549.88975632626773
 31
0.0
  0
LINE
  5
30BB
  8
AM_0
 10
239.3820222882361
 20
549.88975632626773
 30
0.0
 11
258.97147228823621
 21
549.88975632626773
 31
0.0
  0
LINE
  5
30BC
  8
AM_0
 10
257.25086228823608
 20
574.57673632626791
 30
0.0
 11
239.3820222882361
 21
573.95274632626786
 31
0.0
  0
LINE
  5
30BD
  8
AM_0
 10
239.3820222882361
 20
563.95274632626786
 30
0.0
 11
265.02582228823621
 21
563.95274632626786
 31
0.0
  0
LINE
  5
30BE
  8
AM_0
 10
260.29035228823602
 20
575.74345632626785
 30
0.0
 11
267.09595228823622
 21
581.45402632626781
 31
0.0
  0
LINE
  5
30BF
  8
AM_0
 10
258.97147228823621
 20
563.95274632626786
 30
0.0
 11
258.97147228823621
 21
574.94673632626757
 31
0.0
  0
ARC
  5
30C0
  8
AM_0
 10
257.07636228823623
 20
579.57368632626776
 30
0.0
 40
5.0
 50
272.0000000000004
 51
310.0
  0
LINE
  5
30C1
  8
AM_0
 10
251.10559228823621
 20
582.27107632626758
 30
0.0
 11
263.96365228823601
 21
578.82576632626785
 31
0.0
  0
ARC
  5
30C2
  8
AM_0
 10
251.8820222882361
 20
585.16883632626775
 30
0.0
 40
3.0
 50
180.00001000000091
 51
254.99999000000091
  0
LINE
  5
30C3
  8
AM_0
 10
282.88202228823621
 20
556.22782632626775
 30
0.0
 11
275.88199228823612
 21
556.22782632626775
 31
0.0
  0
LINE
  5
30C4
  8
AM_0
 10
268.88202228823621
 20
577.26124632626784
 30
0.0
 11
275.88199228823612
 21
577.26124632626784
 31
0.0
  0
LINE
  5
30C5
  8
AM_0
 10
251.8035022882361
 20
607.06034632626779
 30
0.0
 11
285.88202228823621
 21
607.95271632626782
 31
0.0
  0
ARC
  5
30C6
  8
AM_0
 10
251.8820222882361
 20
604.06138632626755
 30
0.0
 40
3.0
 50
91.500001000001546
 51
180.00001000000091
  0
LINE
  5
30C7
  8
AM_0
 10
282.88202228823621
 20
598.06010632626817
 30
0.0
 11
269.15137228823608
 21
598.06010632626817
 31
0.0
  0
LINE
  5
30C8
  8
AM_0
 10
282.88199228823601
 20
600.20369632626785
 30
0.0
 11
271.7773122882362
 21
599.81590632626785
 31
0.0
  0
ARC
  5
30C9
  8
AM_0
 10
271.88202228823621
 20
596.81773632626789
 30
0.0
 40
3.0
 50
91.999998000000545
 51
180.00001000000091
  0
ARC
  5
30CA
  8
AM_0
 10
280.88202228823621
 20
602.82008632626787
 30
0.0
 40
5.0
 50
0.0
 51
91.500001000001546
  0
LINE
  5
30CB
  8
AM_0
 10
281.88202228823621
 20
606.82008632626787
 30
0.0
 11
281.88202228823621
 21
603.47694632626758
 31
0.0
  0
LINE
  5
30CC
  8
AM_0
 10
282.88202228823621
 20
600.20369632626785
 30
0.0
 11
285.88202228823621
 21
600.20369632626785
 31
0.0
  0
ARC
  5
30CD
  8
AM_0
 10
282.88202228823621
 20
603.47694632626758
 30
0.0
 40
1.0
 50
180.00001000000091
 51
250.52876999999819
  0
ARC
  5
30CE
  8
AM_0
 10
280.88202228823621
 20
597.82008632626776
 30
0.0
 40
5.0
 50
28.471238999999571
 51
70.528778999998195
  0
LINE
  5
30CF
  8
AM_0
 10
285.88202228823621
 20
602.82008632626787
 30
0.0
 11
285.88202228823621
 21
600.20369632626785
 31
0.0
  0
ARC
  5
30D0
  8
AM_0
 10
280.88202228823621
 20
606.82008632626787
 30
0.0
 40
1.0
 50
0.0
 51
90.000003000000945
  0
CIRCLE
  5
30D1
  8
AM_0
 10
343.88202228823621
 20
592.95274632626786
 30
0.0
 40
6.0
  0
LINE
  5
30D2
  8
AM_0
 10
325.88202228823621
 20
586.30683632626756
 30
0.0
 11
325.88202228823621
 21
601.77265632626768
 31
0.0
  0
LINE
  5
30D3
  8
ﾁｭｳｼﾝｾﾝ1
 10
343.88202228823621
 20
603.95274632626786
 30
0.0
 11
343.88202228823621
 21
581.95274632626786
 31
0.0
  0
LINE
  5
30D4
  8
AM_0
 10
358.88202228823621
 20
603.11869632626781
 30
0.0
 11
358.88202228823621
 21
575.95274632626786
 31
0.0
  0
LINE
  5
30D5
  8
AM_0
 10
361.88202228823621
 20
531.95277632626755
 30
0.0
 11
403.88199228823601
 21
531.95277632626755
 31
0.0
  0
LINE
  5
30D6
  8
AM_0
 10
358.88202228823621
 20
532.95274632626786
 30
0.0
 11
361.88202228823621
 21
532.95274632626786
 31
0.0
  0
ARC
  5
30D7
  8
AM_0
 10
357.88202228823621
 20
545.97859632626785
 30
0.0
 40
1.0
 50
0.0
 51
88.499997000000747
  0
ARC
  5
30D8
  8
AM_0
 10
356.88202228823621
 20
548.00544632626793
 30
0.0
 40
1.0
 50
180.00001000000091
 51
268.5000000000004
  0
LINE
  5
30D9
  8
AM_0
 10
356.85587228823618
 20
547.00581632626768
 30
0.0
 11
357.908202288236
 21
546.97825632626791
 31
0.0
  0
ARC
  5
30DA
  8
AM_0
 10
338.88202228823621
 20
573.12428632626791
 30
0.0
 40
5.0
 50
0.0
 51
87.999999999999659
  0
LINE
  5
30DB
  8
ﾁｭｳｼﾝｾﾝ1
 10
332.88202228823621
 20
592.95274632626786
 30
0.0
 11
354.8820222882361
 21
592.95274632626786
 31
0.0
  0
ARC
  5
30DC
  8
AM_0
 10
333.88202228823621
 20
586.30683632626756
 30
0.0
 40
8.0
 50
180.00001000000091
 51
267.9999999999996
  0
LINE
  5
30DD
  8
AM_0
 10
339.05649228823597
 20
578.12126632626746
 30
0.0
 11
333.60281228823601
 21
578.31169632626779
 31
0.0
  0
ARC
  5
30DE
  8
AM_0
 10
352.8820222882361
 20
569.20375632626781
 30
0.0
 40
3.0
 50
0.0
 51
85.000004000001198
  0
ARC
  5
30DF
  8
AM_0
 10
347.78384228823609
 20
577.68034632626791
 30
0.0
 40
5.0
 50
207.10381000000081
 51
265.00001000000071
  0
LINE
  5
30E0
  8
AM_0
 10
353.14349228823608
 20
572.19233632626776
 30
0.0
 11
347.34805228823609
 21
572.69938632626781
 31
0.0
  0
ARC
  5
30E1
  8
AM_0
 10
356.88202228823621
 20
572.0797563262679
 30
0.0
 40
1.0
 50
104.4775099999998
 51
180.00001000000091
  0
ARC
  5
30E2
  8
AM_0
 10
355.88202228823621
 20
575.95274632626786
 30
0.0
 40
3.0
 50
284.47750999999971
 51
0.0
  0
LINE
  5
30E3
  8
AM_0
 10
371.88199228823612
 20
521.95271632626782
 30
0.0
 11
403.88199228823601
 21
521.95271632626782
 31
0.0
  0
ARC
  5
30E4
  8
AM_0
 10
330.88202228823621
 20
601.77265632626768
 30
0.0
 40
5.0
 50
88.499997000000747
 51
180.00001000000091
  0
ARC
  5
30E5
  8
AM_0
 10
355.88202228823621
 20
603.11869632626781
 30
0.0
 40
3.0
 50
0.0
 51
88.499997000000747
  0
LINE
  5
30E7
  8
ﾁｭｳｼﾝｾﾝ1
 10
263.88202228823621
 20
603.95274632626786
 30
0.0
 11
263.88202228823621
 21
581.95274632626786
 31
0.0
  0
LINE
  5
30E8
  8
ﾁｭｳｼﾝｾﾝ1
 10
252.8820222882361
 20
592.95274632626786
 30
0.0
 11
274.88202228823621
 21
592.95274632626786
 31
0.0
  0
LINE
  5
30E9
  8
ﾁｭｳｼﾝｾﾝ1
 10
263.88202228823621
 20
453.9527463262678
 30
0.0
 11
263.88202228823621
 21
431.95274632626769
 31
0.0
  0
LINE
  5
30EA
  8
ﾁｭｳｼﾝｾﾝ1
 10
252.8820222882361
 20
442.95274632626791
 30
0.0
 11
274.88202228823621
 21
442.95274632626791
 31
0.0
  0
LINE
  5
30EB
  8
ﾁｭｳｼﾝｾﾝ1
 10
343.88202228823621
 20
453.9527463262678
 30
0.0
 11
343.88202228823621
 21
431.95274632626769
 31
0.0
  0
LINE
  5
30EC
  8
ﾁｭｳｼﾝｾﾝ1
 10
332.88202228823621
 20
442.95274632626791
 30
0.0
 11
354.8820222882361
 21
442.95274632626791
 31
0.0
  0
LINE
  5
30ED
  8
AM_0
 10
331.88199228823618
 20
181.3806503958107
 30
0.0
 11
358.88199228823601
 21
181.3806503958107
 31
0.0
  0
ARC
  5
30EE
  8
AM_0
 10
356.88198228823592
 20
194.38066439581061
 30
0.0
 40
2.00000007
 50
0.0
 51
90.000003000000945
  0
ARC
  5
30EF
  8
AM_0
 10
357.88203228823602
 20
259.3548173958107
 30
0.0
 40
1.0000000199999981
 50
271.49999999999932
 51
0.0
  0
ARC
  5
30F0
  8
AM_0
 10
357.88203228823602
 20
315.4065083958107
 30
0.0
 40
1.0000000199999981
 50
0.0
 51
88.499997000000747
  0
LINE
  5
30F1
  8
ﾁｭｳｼﾝｾﾝ1
 10
253.4658022882362
 20
287.38065239581073
 30
0.0
 11
408.82977228823597
 21
287.38065239581073
 31
0.0
  0
LINE
  5
30F2
  8
0
 10
218.3820622882362
 20
342.1806683958107
 30
0.0
 11
218.3820622882362
 21
186.1806683958107
 31
0.0
1001
GENIUS_GENOREF_13
1005
2DC1
  0
LINE
  5
30F3
  8
0
 10
208.38206228823611
 20
184.1806683958107
 30
0.0
 11
208.38206228823611
 21
344.1806683958107
 31
0.0
1001
GENIUS_GENOREF_13
1005
2DC1
  0
POLYLINE
  5
30F4
  8
AM_0
 66
     1
 10
0.0
 20
0.0
 30
0.0
  0
VERTEX
  5
30F5
  8
AM_0
  6
CONTINUOUS
 10
285.88197228823623
 20
196.3806503958107
 30
0.0
 42
0.12791153
  0
VERTEX
  5
30F6
  8
AM_0
  6
CONTINUOUS
 10
291.976082288236
 20
198.04606739581061
 30
0.0
 42
0.075873116
  0
VERTEX
  5
30F7
  8
AM_0
  6
CONTINUOUS
 10
296.95746228823572
 20
202.00496639581061
 30
0.0
 42
0.04391337
  0
VERTEX
  5
30F8
  8
AM_0
  6
CONTINUOUS
 10
300.89823228823599
 20
207.02208239581071
 30
0.0
 42
0.028464649
  0
VERTEX
  5
30F9
  8
AM_0
  6
CONTINUOUS
 10
304.0903822882359
 20
212.54870639581071
 30
0.0
 42
0.020370658
  0
VERTEX
  5
30FA
  8
AM_0
  6
CONTINUOUS
 10
306.73710228823597
 20
218.36105339581059
 30
0.0
 42
0.01565625
  0
VERTEX
  5
30FB
  8
AM_0
  6
CONTINUOUS
 10
308.9621422882359
 20
224.3476703958107
 30
0.0
 42
0.012688908
  0
VERTEX
  5
30FC
  8
AM_0
  6
CONTINUOUS
 10
310.84650228823591
 20
230.4507743958107
 30
0.0
 42
0.010707695
  0
VERTEX
  5
30FD
  8
AM_0
  6
CONTINUOUS
 10
312.44481228823588
 20
236.63619839581071
 30
0.0
 42
0.009324549
  0
VERTEX
  5
30FE
  8
AM_0
  6
CONTINUOUS
 10
313.794752288236
 20
242.88011639581069
 30
0.0
 42
0.0083349477
  0
VERTEX
  5
30FF
  8
AM_0
  6
CONTINUOUS
 10
314.92413228823591
 20
249.16911839581061
 30
0.0
 42
0.0076122067
  0
VERTEX
  5
3100
  8
AM_0
  6
CONTINUOUS
 10
315.85281228823618
 20
255.49129139581061
 30
0.0
 42
0.0070829649
  0
VERTEX
  5
3101
  8
AM_0
  6
CONTINUOUS
 10
316.59555228823598
 20
261.83805239581062
 30
0.0
 42
0.0067007814
  0
VERTEX
  5
3102
  8
AM_0
  6
CONTINUOUS
 10
317.16333228823601
 20
268.20310139581062
 30
0.0
 42
0.0064353086
  0
VERTEX
  5
3103
  8
AM_0
  6
CONTINUOUS
 10
317.56386228823601
 20
274.58108939581069
 30
0.0
 42
0.0062673647
  0
VERTEX
  5
3104
  8
AM_0
  6
CONTINUOUS
 10
317.80242228823602
 20
280.96724039581062
 30
0.0
 42
0.0061857305
  0
VERTEX
  5
3105
  8
AM_0
  6
CONTINUOUS
 10
317.88198228823592
 20
287.35723439581062
 30
0.0
  0
SEQEND
  5
3106
  8
AM_0
  0
LINE
  5
3107
  8
AM_0
 10
258.97146228823601
 20
232.2436733958105
 30
0.0
 11
258.97146228823601
 21
296.11768139581062
 31
0.0
  0
LINE
  5
3108
  8
AM_0
 10
275.88198228823592
 20
295.32987239581053
 30
0.0
 11
275.88198228823592
 21
204.63667739581061
 31
0.0
  0
LINE
  5
3109
  8
AM_0
 10
239.38206228823611
 20
208.18065239581071
 30
0.0
 11
239.38206228823611
 21
320.18067839581062
 31
0.0
  0
LINE
  5
310A
  8
AM_0
 10
268.88199228823601
 20
337.03914839581068
 30
0.0
 11
268.88199228823601
 21
196.3806503958107
 31
0.0
  0
LINE
  5
310B
  8
AM_0
 10
282.88206228823623
 20
345.18066839581053
 30
0.0
 11
282.88206228823623
 21
217.52351939581069
 31
0.0
  0
LINE
  5
310C
  8
AM_0
 10
343.88199228823601
 20
213.9939623958106
 30
0.0
 11
343.88199228823601
 21
338.71251839581072
 31
0.0
  0
LINE
  5
310D
  8
AM_0
 10
325.88199228823601
 20
201.38064839581079
 30
0.0
 11
325.88199228823601
 21
308.61396839581062
 31
0.0
  0
LINE
  5
310E
  8
AM_0
 10
355.88199228823601
 20
198.25363439581071
 30
0.0
 11
355.88199228823601
 21
323.63166839581072
 31
0.0
  0
LINE
  5
310F
  8
0
 10
220.3122632948311
 20
207.014736340908
 30
0.0
 11
239.38206228823611
 21
207.68066839581061
 31
0.0
  0
LINE
  5
3110
  8
AM_0
 10
239.38206228823611
 20
232.24322639581081
 30
0.0
 11
218.3820622882362
 21
232.24322639581081
 31
0.0
  0
LINE
  5
3111
  8
AM_0
 10
239.38206228823611
 20
218.1806513958108
 30
0.0
 11
218.3820622882362
 21
218.1806513958108
 31
0.0
  0
LINE
  5
3112
  8
ﾁｭｳｼﾝｾﾝ1
 10
197.99357455421639
 20
264.18066839581053
 30
0.0
 11
263.12977552452901
 21
264.18066839581053
 31
0.0
  0
ARC
  5
3113
  8
0
 10
216.38206228823611
 20
186.1806683958107
 30
0.0
 40
2.0
 50
270.0
 51
0.0
1001
GENIUS_GENOBJ-N-FIL_13
1002
{
1000
OWNER
1000
GEN
1002
}
1001
GENIUS_GENODEF_13
1002
{
1000
HIER
1070
     0
1002
}
1002
{
1000
MANEDIT
1070
     0
1002
}
1002
{
1000
NOSEL
1070
     0
1002
}
1002
{
1000
BEHIND
1070
     0
1002
}
1002
{
1000
OTHER
1070
     0
1002
}
1002
{
1000
REACTOR
1002
}
  0
LINE
  5
3114
  8
0
 10
208.38206228823611
 20
184.1806683958107
 30
0.0
 11
216.38206228823611
 21
184.1806683958107
 31
0.0
  0
ARC
  5
3115
  8
0
 10
220.3820622882362
 20
205.0159546868698
 30
0.0
 40
2.0
 50
92.000000000000341
 51
180.0
1001
GENIUS_GENOBJ-N-FIL_13
1002
{
1000
OWNER
1000
GEN
1002
}
1001
GENIUS_GENODEF_13
1002
{
1000
HIER
1070
     0
1002
}
1002
{
1000
MANEDIT
1070
     0
1002
}
1002
{
1000
NOSEL
1070
     0
1002
}
1002
{
1000
BEHIND
1070
     0
1002
}
1002
{
1000
OTHER
1070
     0
1002
}
1002
{
1000
REACTOR
1002
}
  0
LINE
  5
3116
  8
AM_0
 10
248.88198228823589
 20
194.38066439581061
 30
0.0
 11
248.88198228823589
 21
181.3806503958107
 31
0.0
  0
LINE
  5
3117
  8
ﾁｭｳｼﾝｾﾝ1
 10
343.88196228823602
 20
201.3806633958107
 30
0.0
 11
343.88196228823602
 21
176.38064939581071
 31
0.0
  0
LINE
  5
3118
  8
ﾁｭｳｼﾝｾﾝ1
 10
263.88198228823592
 20
201.3806633958107
 30
0.0
 11
263.88198228823592
 21
176.38064939581071
 31
0.0
  0
LINE
  5
3119
  8
ｶｸﾚｾﾝ2
 10
349.88199228823601
 20
196.3806503958107
 30
0.0
 11
349.88199228823601
 21
181.3806503958107
 31
0.0
  0
LINE
  5
311A
  8
ｶｸﾚｾﾝ2
 10
257.88198228823592
 20
196.3806503958107
 30
0.0
 11
257.88198228823592
 21
181.3806503958107
 31
0.0
  0
LINE
  5
311B
  8
ｶｸﾚｾﾝ2
 10
269.88198228823592
 20
196.3806503958107
 30
0.0
 11
269.88198228823592
 21
181.3806503958107
 31
0.0
  0
LINE
  5
311C
  8
ｶｸﾚｾﾝ2
 10
337.88199228823601
 20
196.3806503958107
 30
0.0
 11
337.88199228823601
 21
181.3806503958107
 31
0.0
  0
LINE
  5
311D
  8
AM_0
 10
276.88206228823623
 20
182.38064939581071
 30
0.0
 11
330.88203228823602
 21
182.38064939581071
 31
0.0
  0
LINE
  5
311E
  8
AM_0
 10
248.88198228823589
 20
181.3806503958107
 30
0.0
 11
275.88198228823592
 21
181.3806503958107
 31
0.0
  0
ARC
  5
311F
  8
AM_0
 10
276.88206228823623
 20
181.3806503958107
 30
0.0
 40
1.0000000199999981
 50
90.000003000000945
 51
180.00001000000091
  0
LINE
  5
3120
  8
AM_0
 10
275.88198228823592
 20
181.3806503958107
 30
0.0
 11
275.88198228823592
 21
181.3806503958107
 31
0.0
  0
ARC
  5
3121
  8
AM_0
 10
330.88203228823602
 20
181.3806503958107
 30
0.0
 40
1.0000000199999981
 50
0.0
 51
90.000003000000945
  0
LINE
  5
3122
  8
AM_0
 10
331.88199228823618
 20
181.3806503958107
 30
0.0
 11
331.88199228823618
 21
181.3806503958107
 31
0.0
  0
LINE
  5
3123
  8
AM_0
 10
285.88206228823623
 20
233.84947739581071
 30
0.0
 11
285.88206228823623
 21
269.16931739581082
 31
0.0
  0
LINE
  5
3124
  8
AM_0
 10
239.38206228823611
 20
232.2436733958105
 30
0.0
 11
258.97146228823601
 21
232.2436733958105
 31
0.0
  0
LINE
  5
3125
  8
AM_0
 10
239.38206228823611
 20
218.18066939581061
 30
0.0
 11
265.025792288236
 21
218.18066939581061
 31
0.0
  0
LINE
  5
3126
  8
AM_0
 10
250.88199228823609
 20
196.3806503958107
 30
0.0
 11
276.3963322882359
 21
196.3806503958107
 31
0.0
  0
ARC
  5
3127
  8
AM_0
 10
257.07639228823592
 20
202.55971139581061
 30
0.0
 40
5.0000001000000003
 50
49.999999999999922
 51
87.999999999999659
  0
LINE
  5
3128
  8
AM_0
 10
239.38206228823611
 20
208.18065239581071
 30
0.0
 11
257.25090228823609
 21
207.5566583958107
 31
0.0
  0
ARC
  5
3129
  8
AM_0
 10
250.88199228823609
 20
194.38066439581061
 30
0.0
 40
2.00000007
 50
90.000003000000945
 51
180.00001000000091
  0
LINE
  5
312A
  8
AM_0
 10
285.79482228823582
 20
232.9200023958108
 30
0.0
 11
279.344102288236
 21
198.8229713958107
 31
0.0
  0
LINE
  5
312B
  8
AM_0
 10
258.97146228823601
 20
207.49657139581069
 30
0.0
 11
258.97146228823601
 21
218.18066939581061
 31
0.0
  0
ARC
  5
312C
  8
AM_0
 10
273.88206228823623
 20
204.63667739581061
 30
0.0
 40
2.00000007
 50
270.0
 51
0.0
  0
LINE
  5
312D
  8
AM_0
 10
260.290382288236
 20
206.38992839581061
 30
0.0
 11
267.09597228823611
 21
200.67934139581061
 31
0.0
  0
ARC
  5
312E
  8
AM_0
 10
270.88206228823623
 20
200.63669339581079
 30
0.0
 40
2.00000007
 50
90.000003000000945
 51
180.00001000000091
  0
ARC
  5
312F
  8
AM_0
 10
263.88198228823592
 20
196.84912439581069
 30
0.0
 40
5.0000001000000003
 50
0.0
 51
49.999999999999922
  0
LINE
  5
3130
  8
AM_0
 10
270.88206228823623
 20
202.63667639581061
 30
0.0
 11
273.88206228823623
 21
202.63667639581061
 31
0.0
  0
ARC
  5
3131
  8
AM_0
 10
276.3963322882359
 20
199.38065039581051
 30
0.0
 40
3.0
 50
270.0
 51
349.2868799999996
  0
LINE
  5
3132
  8
AM_0
 10
258.97146228823601
 20
232.2436403958107
 30
0.0
 11
266.66061228823622
 21
221.33273639581071
 31
0.0
  0
ARC
  5
3133
  8
AM_0
 10
265.025792288236
 20
220.18065239581071
 30
0.0
 40
2.00000007
 50
270.0
 51
35.173270999998252
  0
ARC
  5
3134
  8
AM_0
 10
280.88199228823601
 20
233.84947739581071
 30
0.0
 40
5.0000001000000003
 50
349.2868799999996
 51
0.0
  0
ARC
  5
3135
  8
AM_0
 10
330.88203228823602
 20
201.38064839581079
 30
0.0
 40
5.0000001000000003
 50
179.9999899999988
 51
270.0
  0
LINE
  5
3136
  8
AM_0
 10
330.88203228823602
 20
196.3806503958107
 30
0.0
 11
356.88198228823592
 21
196.3806503958107
 31
0.0
  0
ARC
  5
3137
  8
AM_0
 10
338.88198228823592
 20
213.9939623958106
 30
0.0
 40
5.0000001000000003
 50
270.0
 51
0.0
  0
LINE
  5
3138
  8
AM_0
 10
325.88199228823601
 20
208.99394639581061
 30
0.0
 11
338.88198228823592
 21
208.99394639581061
 31
0.0
  0
ARC
  5
3139
  8
AM_0
 10
357.88203228823602
 20
198.25363439581071
 30
0.0
 40
2.00000007
 50
179.9999899999988
 51
255.5224900000002
  0
ARC
  5
313A
  8
AM_0
 10
356.88198228823592
 20
257.3279333958107
 30
0.0
 40
1.0000000199999981
 50
91.500001000001546
 51
180.00001000000091
  0
LINE
  5
313B
  8
AM_0
 10
356.85582228823608
 20
258.3275963958107
 30
0.0
 11
357.90819228823608
 21
258.35515439581047
 31
0.0
  0
LINE
  5
313C
  8
AM_0
 10
239.38206228823611
 20
296.11810739581068
 30
0.0
 11
218.3820622882362
 21
296.11810739581068
 31
0.0
  0
LINE
  5
313D
  8
0
 10
220.3122632948311
 20
321.34660045071348
 30
0.0
 11
239.38206228823611
 21
320.68066839581053
 31
0.0
  0
LINE
  5
313E
  8
AM_0
 10
239.38206228823611
 20
310.18066739581081
 30
0.0
 11
218.3820622882362
 21
310.18066739581081
 31
0.0
  0
ARC
  5
313F
  8
0
 10
220.3820622882362
 20
323.34538210475159
 30
0.0
 40
2.0
 50
180.0
 51
267.9999999999996
1001
GENIUS_GENOBJ-N-FIL_13
1002
{
1000
OWNER
1000
GEN
1002
}
1001
GENIUS_GENODEF_13
1002
{
1000
HIER
1070
     0
1002
}
1002
{
1000
MANEDIT
1070
     0
1002
}
1002
{
1000
NOSEL
1070
     0
1002
}
1002
{
1000
BEHIND
1070
     0
1002
}
1002
{
1000
OTHER
1070
     0
1002
}
1002
{
1000
REACTOR
1002
}
  0
ARC
  5
3140
  8
0
 10
216.38206228823611
 20
342.1806683958107
 30
0.0
 40
2.0
 50
0.0
 51
90.0
1001
GENIUS_GENOBJ-N-FIL_13
1002
{
1000
OWNER
1000
GEN
1002
}
1001
GENIUS_GENODEF_13
1002
{
1000
HIER
1070
     0
1002
}
1002
{
1000
MANEDIT
1070
     0
1002
}
1002
{
1000
NOSEL
1070
     0
1002
}
1002
{
1000
BEHIND
1070
     0
1002
}
1002
{
1000
OTHER
1070
     0
1002
}
1002
{
1000
REACTOR
1002
}
  0
LINE
  5
3141
  8
0
 10
208.38206228823611
 20
344.1806683958107
 30
0.0
 11
216.38206228823611
 21
344.1806683958107
 31
0.0
  0
POLYLINE
  5
3142
  8
AM_0
 66
     1
 10
0.0
 20
0.0
 30
0.0
  0
VERTEX
  5
3143
  8
AM_0
  6
CONTINUOUS
 10
317.88198228823592
 20
304.6806683958107
 30
0.0
 42
0.029628731
  0
VERTEX
  5
3144
  8
AM_0
  6
CONTINUOUS
 10
317.69034228823591
 20
307.90995839581069
 30
0.0
 42
0.029327543
  0
VERTEX
  5
3145
  8
AM_0
  6
CONTINUOUS
 10
317.12067228823599
 20
311.09088839581062
 30
0.0
 42
0.028837186
  0
VERTEX
  5
3146
  8
AM_0
  6
CONTINUOUS
 10
316.184792288236
 20
314.18661839581063
 30
0.0
 42
0.028139479
  0
VERTEX
  5
3147
  8
AM_0
  6
CONTINUOUS
 10
314.90241228823601
 20
317.15715839581071
 30
0.0
 42
0.027280614
  0
VERTEX
  5
3148
  8
AM_0
  6
CONTINUOUS
 10
313.29993228823582
 20
319.96656839581073
 30
0.0
 42
0.026363464
  0
VERTEX
  5
3149
  8
AM_0
  6
CONTINUOUS
 10
311.4053122882359
 20
322.5889883958107
 30
0.0
 42
0.025439158
  0
VERTEX
  5
314A
  8
AM_0
  6
CONTINUOUS
 10
309.247742288236
 20
325.00359839581063
 30
0.0
 42
0.024503424
  0
VERTEX
  5
314B
  8
AM_0
  6
CONTINUOUS
 10
306.86133228823587
 20
327.19011839581071
 30
0.0
 42
0.023638789
  0
VERTEX
  5
314C
  8
AM_0
  6
CONTINUOUS
 10
304.27578228823597
 20
329.1372383958107
 30
0.0
 42
0.022857682
  0
VERTEX
  5
314D
  8
AM_0
  6
CONTINUOUS
 10
301.52052228823601
 20
330.83604839581062
 30
0.0
 42
0.022175457
  0
VERTEX
  5
314E
  8
AM_0
  6
CONTINUOUS
 10
298.62345228823602
 20
332.28036839581063
 30
0.0
 42
0.021601125
  0
VERTEX
  5
314F
  8
AM_0
  6
CONTINUOUS
 10
295.611032288236
 20
333.46605839581082
 30
0.0
 42
0.021139333
  0
VERTEX
  5
3150
  8
AM_0
  6
CONTINUOUS
 10
292.5081922882361
 20
334.39041839581063
 30
0.0
 42
0.020791974
  0
VERTEX
  5
3151
  8
AM_0
  6
CONTINUOUS
 10
289.3387822882359
 20
335.05176839581071
 30
0.0
 42
0.020559394
  0
VERTEX
  5
3152
  8
AM_0
  6
CONTINUOUS
 10
286.12566228823601
 20
335.44917839581052
 30
0.0
 42
0.020441745
  0
VERTEX
  5
3153
  8
AM_0
  6
CONTINUOUS
 10
282.89103228823598
 20
335.5821683958107
 30
0.0
  0
SEQEND
  5
3154
  8
AM_0
  0
LINE
  5
3155
  8
AM_0
 10
282.88206228823623
 20
345.18066839581053
 30
0.0
 11
339.01290228823598
 21
343.71084839581061
 31
0.0
  0
POLYLINE
  5
3156
  8
AM_0
 66
     1
 10
0.0
 20
0.0
 30
0.0
  0
VERTEX
  5
3157
  8
AM_0
  6
CONTINUOUS
 10
315.96102228823588
 20
306.55940339581059
 30
0.0
 42
0.032705737
  0
VERTEX
  5
3158
  8
AM_0
  6
CONTINUOUS
 10
314.01489228823618
 20
307.3079183958107
 30
0.0
 42
0.016814103
  0
VERTEX
  5
3159
  8
AM_0
  6
CONTINUOUS
 10
312.00408228823602
 20
307.87011839581072
 30
0.0
 42
0.010836057
  0
VERTEX
  5
315A
  8
AM_0
  6
CONTINUOUS
 10
309.96465228823621
 20
308.32296839581062
 30
0.0
 42
0.007863161
  0
VERTEX
  5
315B
  8
AM_0
  6
CONTINUOUS
 10
307.91028228823598
 20
308.70006839581072
 30
0.0
 42
0.0061455438
  0
VERTEX
  5
315C
  8
AM_0
  6
CONTINUOUS
 10
305.84601228823601
 20
309.01995839581059
 30
0.0
 42
0.0050541015
  0
VERTEX
  5
315D
  8
AM_0
  6
CONTINUOUS
 10
303.77439228823602
 20
309.29385839581062
 30
0.0
 42
0.0043145835
  0
VERTEX
  5
315E
  8
AM_0
  6
CONTINUOUS
 10
301.69662228823597
 20
309.52920839581071
 30
0.0
 42
0.0037842963
  0
VERTEX
  5
315F
  8
AM_0
  6
CONTINUOUS
 10
299.617472288236
 20
309.73074839581062
 30
0.0
 42
0.003403486
  0
VERTEX
  5
3160
  8
AM_0
  6
CONTINUOUS
 10
297.53343228823599
 20
309.90261839581052
 30
0.0
 42
0.0031173927
  0
VERTEX
  5
3161
  8
AM_0
  6
CONTINUOUS
 10
295.44693228823598
 20
310.04736839581068
 30
0.0
 42
0.0029018743
  0
VERTEX
  5
3162
  8
AM_0
  6
CONTINUOUS
 10
293.35884228823602
 20
310.16700839581068
 30
0.0
 42
0.0027404553
  0
VERTEX
  5
3163
  8
AM_0
  6
CONTINUOUS
 10
291.26952228823598
 20
310.26309839581057
 30
0.0
 42
0.0026217012
  0
VERTEX
  5
3164
  8
AM_0
  6
CONTINUOUS
 10
289.17921228823587
 20
310.33683839581062
 30
0.0
 42
0.0025380412
  0
VERTEX
  5
3165
  8
AM_0
  6
CONTINUOUS
 10
287.08824228823602
 20
310.38897839581062
 30
0.0
 42
0.0024845601
  0
VERTEX
  5
3166
  8
AM_0
  6
CONTINUOUS
 10
284.9968222882361
 20
310.42014839581071
 30
0.0
 42
0.002458447
  0
VERTEX
  5
3167
  8
AM_0
  6
CONTINUOUS
 10
282.9051322882359
 20
310.43064839581069
 30
0.0
  0
SEQEND
  5
3168
  8
AM_0
  0
LINE
  5
3169
  8
AM_0
 10
260.29032228823598
 20
321.9714083958105
 30
0.0
 11
267.09591228823609
 21
327.68199839581069
 31
0.0
  0
LINE
  5
316A
  8
AM_0
 10
275.88198228823592
 20
343.00485839581052
 30
0.0
 11
275.88198228823592
 21
320.51475839581047
 31
0.0
  0
LINE
  5
316B
  8
AM_0
 10
239.38206228823611
 20
296.11768139581062
 30
0.0
 11
258.97146228823601
 21
296.11768139581062
 31
0.0
  0
LINE
  5
316C
  8
AM_0
 10
239.38206228823611
 20
310.18065839581072
 30
0.0
 11
265.025792288236
 21
310.18065839581072
 31
0.0
  0
ARC
  5
316D
  8
AM_0
 10
257.07639228823592
 20
325.80159839581052
 30
0.0
 40
5.0000001000000003
 50
272.0000000000004
 51
310.0
  0
LINE
  5
316E
  8
AM_0
 10
239.38200228823581
 20
320.18067839581062
 30
0.0
 11
257.25090228823609
 21
320.80467839581053
 31
0.0
  0
LINE
  5
316F
  8
AM_0
 10
266.66061228823622
 20
307.02855839581082
 30
0.0
 11
258.97146228823601
 21
296.11768139581062
 31
0.0
  0
ARC
  5
3170
  8
AM_0
 10
273.88206228823623
 20
288.85275839581078
 30
0.0
 40
2.00000007
 50
0.0
 51
90.000003000000945
  0
ARC
  5
3171
  8
AM_0
 10
273.88206228823623
 20
295.32987239581053
 30
0.0
 40
2.00000007
 50
0.0
 51
90.000003000000945
  0
LINE
  5
3172
  8
AM_0
 10
268.88199228823601
 20
290.85275939581072
 30
0.0
 11
273.88206228823623
 21
290.85275939581072
 31
0.0
  0
ARC
  5
3173
  8
AM_0
 10
270.88206228823623
 20
299.3298713958107
 30
0.0
 40
2.00000007
 50
179.9999899999988
 51
270.0
  0
LINE
  5
3174
  8
AM_0
 10
270.88206228823623
 20
297.3298703958107
 30
0.0
 11
273.88206228823623
 21
297.3298703958107
 31
0.0
  0
ARC
  5
3175
  8
AM_0
 10
273.88206228823623
 20
320.51475839581047
 30
0.0
 40
2.00000007
 50
270.0
 51
0.0
  0
LINE
  5
3176
  8
AM_0
 10
258.97146228823601
 20
310.18065839581072
 30
0.0
 11
258.97146228823601
 21
320.8647683958107
 31
0.0
  0
ARC
  5
3177
  8
AM_0
 10
265.025792288236
 20
308.18067839581062
 30
0.0
 40
2.00000007
 50
324.82673000000062
 51
90.000003000000945
  0
ARC
  5
3178
  8
AM_0
 10
270.88206228823623
 20
316.5147383958107
 30
0.0
 40
2.00000007
 50
90.000003000000945
 51
180.00001000000091
  0
LINE
  5
3179
  8
AM_0
 10
270.88206228823623
 20
318.51474839581073
 30
0.0
 11
273.88206228823623
 21
318.51474839581073
 31
0.0
  0
ARC
  5
317A
  8
AM_0
 10
272.88198228823592
 20
343.07772839581082
 30
0.0
 40
3.0
 50
272.0000000000004
 51
0.0
  0
ARC
  5
317B
  8
AM_0
 10
263.88198228823592
 20
331.51221839581069
 30
0.0
 40
5.0000001000000003
 50
310.0
 51
0.0
  0
LINE
  5
317C
  8
AM_0
 10
271.77726228823599
 20
340.0373183958107
 30
0.0
 11
272.98665228823597
 21
340.07952839581071
 31
0.0
  0
ARC
  5
317D
  8
AM_0
 10
271.88199228823601
 20
337.03914839581068
 30
0.0
 40
3.0
 50
91.999998000000545
 51
180.00001000000091
  0
ARC
  5
317E
  8
AM_0
 10
277.88199228823618
 20
343.00485839581052
 30
0.0
 40
2.00000007
 50
91.999998000000545
 51
180.00001000000091
  0
LINE
  5
317F
  8
AM_0
 10
275.88198228823592
 20
343.00485839581052
 30
0.0
 11
275.88198228823592
 21
343.07772839581082
 31
0.0
  0
LINE
  5
3180
  8
AM_0
 10
277.81224228823589
 20
345.00360839581077
 30
0.0
 11
282.88200228823592
 21
345.18066839581053
 31
0.0
  0
ARC
  5
3181
  8
AM_0
 10
352.88199228823618
 20
323.63166839581072
 30
0.0
 40
3.0
 50
0.0
 51
84.999996999998572
  0
ARC
  5
3182
  8
AM_0
 10
335.88198228823597
 20
308.61396839581062
 30
0.0
 40
10.000000200000001
 50
90.000003000000945
 51
180.00001000000091
  0
LINE
  5
3183
  8
AM_0
 10
317.88198228823592
 20
304.68067139581052
 30
0.0
 11
317.88198228823592
 21
287.38065239581073
 31
0.0
  0
LINE
  5
3184
  8
AM_0
 10
335.88198228823597
 20
318.61392839581072
 30
0.0
 11
343.88199228823601
 21
318.61392839581072
 31
0.0
  0
ARC
  5
3185
  8
AM_0
 10
356.88198228823592
 20
317.43336839581059
 30
0.0
 40
1.0000000199999981
 50
179.9999899999988
 51
268.50000999999872
  0
LINE
  5
3186
  8
AM_0
 10
356.85585228823612
 20
316.43370839581053
 30
0.0
 11
357.90819228823608
 21
316.40616839581071
 31
0.0
  0
ARC
  5
3187
  8
AM_0
 10
338.88198228823592
 20
338.71251839581072
 30
0.0
 40
5.0000001000000003
 50
0.0
 51
88.499997000000747
  0
LINE
  5
3188
  8
AM_0
 10
348.44619228823609
 20
327.03120839581061
 30
0.0
 11
353.14347228823601
 21
326.62023839581059
 31
0.0
  0
ARC
  5
3189
  8
AM_0
 10
348.88203228823602
 20
332.01219839581051
 30
0.0
 40
5.0000001000000003
 50
179.9999899999988
 51
265.00000000000028
  0
LINE
  5
318A
  8
AM_0
 10
358.88199228823601
 20
259.3548173958107
 30
0.0
 11
358.88199228823601
 21
315.4065083958107
 31
0.0
  0
LINE
  5
318B
  8
AM_0
 10
361.88199228823601
 20
302.38065239581078
 30
0.0
 11
361.88199228823601
 21
272.38065239581073
 31
0.0
  0
LINE
  5
318C
  8
AM_0
 10
403.88199228823601
 20
304.38068339581082
 30
0.0
 11
403.88199228823601
 21
273.38065139581062
 31
0.0
  0
CIRCLE
  5
318D
  8
AM_0
 10
588.95472844323444
 20
287.38065239581073
 30
0.0
 40
29.000001000000001
  0
ARC
  5
318E
  8
AM_0
 10
588.95472844323444
 20
272.38065239581073
 30
0.0
 40
54.000003000000007
 50
0.0
 51
180.00001000000091
  0
ARC
  5
318F
  8
AM_0
 10
588.95472844323444
 20
264.18066839581053
 30
0.0
 40
81.000003000000007
 50
7.0485986000007923
 51
172.9514000000008
  0
ARC
  5
3190
  8
AM_0
 10
588.95472844323444
 20
287.38065239581073
 30
0.0
 40
14.000001299999999
 50
106.6015399999982
 51
73.398452000001853
  0
LINE
  5
3191
  8
AM_0
 10
678.95473144323444
 20
196.38066539581061
 30
0.0
 11
671.16359344323473
 21
303.59036939581063
 31
0.0
  0
LINE
  5
3192
  8
AM_0
 10
498.95471044323477
 20
196.3806503958107
 30
0.0
 11
506.74589044323471
 21
303.59036939581063
 31
0.0
  0
LINE
  5
3193
  8
AM_0
 10
648.95473144323444
 20
235.18065239581071
 30
0.0
 11
648.95473144323444
 21
316.63062839581062
 31
0.0
  0
LINE
  5
3194
  8
AM_0
 10
528.95474344323475
 20
235.18065239581071
 30
0.0
 11
528.95474344323475
 21
316.63062839581062
 31
0.0
  0
LINE
  5
3195
  8
ﾁｭｳｼﾝｾﾝ1
 10
588.95472844323444
 20
177.84591839581071
 30
0.0
 11
588.95472844323444
 21
349.7411795201827
 31
0.0
  0
LINE
  5
3196
  8
AM_0
 10
641.95473244323489
 20
183.38064839581071
 30
0.0
 11
535.95474244323475
 21
183.38064839581071
 31
0.0
  0
LINE
  5
3197
  8
AM_0
 10
551.95471444323482
 20
194.38066439581061
 30
0.0
 11
625.95473044323489
 21
194.38066439581061
 31
0.0
  0
LINE
  5
3198
  8
ﾁｭｳｼﾝｾﾝ1
 10
502.59800044323481
 20
264.18066839581053
 30
0.0
 11
676.46478844323474
 21
264.18066839581053
 31
0.0
  0
LINE
  5
3199
  8
AM_0
 10
358.88199228823601
 20
194.38066439581061
 30
0.0
 11
358.88199228823601
 21
181.3806503958107
 31
0.0
  0
LINE
  5
319A
  8
AM_0
 10
361.88199228823601
 20
273.38065139581062
 30
0.0
 11
403.88199228823601
 21
273.38065139581062
 31
0.0
  0
LINE
  5
319B
  8
AM_0
 10
358.88199228823601
 20
272.38065239581073
 30
0.0
 11
361.88199228823601
 21
272.38065239581073
 31
0.0
  0
LINE
  5
319C
  8
AM_0
 10
498.95474044323481
 20
181.38066539581061
 30
0.0
 11
498.95474044323481
 21
196.3806503958107
 31
0.0
  0
LINE
  5
319D
  8
AM_0
 10
533.95471144323483
 20
181.38066539581061
 30
0.0
 11
533.95471144323483
 21
194.38066439581061
 31
0.0
  0
ARC
  5
319E
  8
AM_0
 10
551.95471444323482
 20
189.3806633958105
 30
0.0
 40
5.0000001000000003
 50
90.000003000000945
 51
180.00001000000091
  0
LINE
  5
319F
  8
ﾁｭｳｼﾝｾﾝ1
 10
513.95474044323475
 20
176.38064939581071
 30
0.0
 11
513.95474044323475
 21
201.3806633958107
 31
0.0
  0
LINE
  5
31A0
  8
ｶｸﾚｾﾝ2
 10
519.95474044323475
 20
196.3806503958107
 30
0.0
 11
519.95474044323475
 21
181.38066539581061
 31
0.0
  0
LINE
  5
31A1
  8
ｶｸﾚｾﾝ2
 10
507.95474044323458
 20
196.3806503958107
 30
0.0
 11
507.95474044323458
 21
181.38066539581061
 31
0.0
  0
LINE
  5
31A2
  8
AM_0
 10
533.95471144323483
 20
181.38066539581061
 30
0.0
 11
498.95474044323481
 21
181.38066539581061
 31
0.0
  0
ARC
  5
31A3
  8
AM_0
 10
535.95474244323475
 20
181.38066539581061
 30
0.0
 40
2.00000007
 50
90.000003000000945
 51
180.00001000000091
  0
ARC
  5
31A4
  8
AM_0
 10
541.95474244323475
 20
188.38066439581061
 30
0.0
 40
5.0000001000000003
 50
270.0
 51
0.0
  0
LINE
  5
31A5
  8
AM_0
 10
546.95474344323475
 20
188.38066439581061
 30
0.0
 11
546.95474344323475
 21
189.3806633958105
 31
0.0
  0
ARC
  5
31A6
  8
AM_0
 10
588.95472844323444
 20
264.18063839581072
 30
0.0
 40
81.000003000000007
 50
265.97275000000059
 51
274.0272499999993
  0
LINE
  5
31A7
  8
AM_0
 10
498.95471044323477
 20
196.38066539581061
 30
0.0
 11
508.56689044323468
 21
274.12027439581072
 31
0.0
  0
LINE
  5
31A8
  8
AM_0
 10
534.95474344323475
 20
201.3806633958107
 30
0.0
 11
534.95474344323475
 21
272.38065239581073
 31
0.0
  0
LINE
  5
31A9
  8
AM_0
 10
531.95474344323475
 20
196.3806503958107
 30
0.0
 11
500.95472044323458
 21
196.3806503958107
 31
0.0
  0
ARC
  5
31AA
  8
AM_0
 10
500.95472044323458
 20
194.38066439581061
 30
0.0
 40
2.00000007
 50
90.000003000000945
 51
180.00001000000091
  0
ARC
  5
31AB
  8
AM_0
 10
588.95472844323444
 20
235.18065239581071
 30
0.0
 40
60.000002999999992
 50
180.00001000000091
 51
205.8419300000003
  0
ARC
  5
31AC
  8
AM_0
 10
529.95474244323475
 20
201.3806633958107
 30
0.0
 40
5.0000001000000003
 50
270.0
 51
0.0
  0
ARC
  5
31AD
  8
AM_0
 10
531.95474344323475
 20
194.38066439581061
 30
0.0
 40
2.00000007
 50
0.0
 51
90.000003000000945
  0
ARC
  5
31AE
  8
AM_0
 10
625.95473044323489
 20
189.3806633958105
 30
0.0
 40
5.0000001000000003
 50
0.0
 51
90.000003000000945
  0
LINE
  5
31AF
  8
AM_0
 10
643.95473044323467
 20
181.38066539581061
 30
0.0
 11
643.95473044323467
 21
194.38066439581061
 31
0.0
  0
LINE
  5
31B0
  8
AM_0
 10
678.95473144323444
 20
181.38066539581061
 30
0.0
 11
678.95473144323444
 21
196.3806503958107
 31
0.0
  0
LINE
  5
31B1
  8
ﾁｭｳｼﾝｾﾝ1
 10
663.95471644323482
 20
176.38064939581071
 30
0.0
 11
663.95471644323482
 21
201.3806633958107
 31
0.0
  0
LINE
  5
31B2
  8
ｶｸﾚｾﾝ2
 10
657.95473144323444
 20
196.3806503958107
 30
0.0
 11
657.95473144323444
 21
181.38066539581061
 31
0.0
  0
LINE
  5
31B3
  8
ｶｸﾚｾﾝ2
 10
669.95473144323444
 20
196.3806503958107
 30
0.0
 11
669.95473144323444
 21
181.38066539581061
 31
0.0
  0
LINE
  5
31B4
  8
AM_0
 10
643.95473044323467
 20
181.38066539581061
 30
0.0
 11
678.95473144323444
 21
181.38066539581061
 31
0.0
  0
ARC
  5
31B5
  8
AM_0
 10
635.95473244323455
 20
188.38066439581061
 30
0.0
 40
5.0000001000000003
 50
179.9999899999988
 51
270.0
  0
LINE
  5
31B6
  8
AM_0
 10
630.95473144323466
 20
188.38066439581061
 30
0.0
 11
630.95473144323466
 21
189.3806633958105
 31
0.0
  0
ARC
  5
31B7
  8
AM_0
 10
641.95473244323489
 20
181.38066539581061
 30
0.0
 40
2.00000007
 50
0.0
 51
90.000003000000945
  0
LINE
  5
31B8
  8
AM_0
 10
642.95473144323478
 20
201.3806633958107
 30
0.0
 11
642.95473144323478
 21
272.38065239581073
 31
0.0
  0
LINE
  5
31B9
  8
AM_0
 10
678.95473144323444
 20
196.3806503958107
 30
0.0
 11
669.34256344323467
 21
274.12027439581072
 31
0.0
  0
LINE
  5
31BA
  8
AM_0
 10
645.95473144323478
 20
196.3806503958107
 30
0.0
 11
676.954733443235
 21
196.3806503958107
 31
0.0
  0
ARC
  5
31BB
  8
AM_0
 10
588.95472844323444
 20
235.18065239581071
 30
0.0
 40
60.000002999999992
 50
334.15806999999961
 51
0.0
  0
ARC
  5
31BC
  8
AM_0
 10
645.95473144323478
 20
194.38066439581061
 30
0.0
 40
2.00000007
 50
90.000003000000945
 51
180.00001000000091
  0
ARC
  5
31BD
  8
AM_0
 10
647.95473244323455
 20
201.3806633958107
 30
0.0
 40
5.0000001000000003
 50
179.9999899999988
 51
270.0
  0
ARC
  5
31BE
  8
AM_0
 10
676.954733443235
 20
194.38066439581061
 30
0.0
 40
2.00000007
 50
0.0
 51
90.000003000000945
  0
LINE
  5
31BF
  8
ﾁｭｳｼﾝｾﾝ1
 10
547.08190105773565
 20
287.38065239581073
 30
0.0
 11
630.82755582873335
 21
287.38065239581073
 31
0.0
  0
LINE
  5
31C0
  8
AM_0
 10
361.88199228823601
 20
301.38068339581082
 30
0.0
 11
403.88199228823601
 21
301.38068339581082
 31
0.0
  0
LINE
  5
31C1
  8
AM_0
 10
371.88198228823592
 20
304.38068339581082
 30
0.0
 11
403.88199228823601
 21
304.38068339581082
 31
0.0
  0
LINE
  5
31C2
  8
AM_0
 10
371.88198228823592
 20
304.38068339581082
 30
0.0
 11
371.88198228823592
 21
301.38068339581082
 31
0.0
  0
LINE
  5
31C3
  8
AM_0
 10
358.88199228823601
 20
302.38065239581078
 30
0.0
 11
361.88199228823601
 21
302.38065239581078
 31
0.0
  0
LINE
  5
31C4
  8
AM_0
 10
515.14883044323506
 20
316.53468839581069
 30
0.0
 11
550.70785744323484
 21
335.5821683958107
 31
0.0
  0
ARC
  5
31C5
  8
AM_0
 10
522.70379044323465
 20
302.43067139581069
 30
0.0
 40
16.000000499999999
 50
118.17613999999919
 51
175.8435100000012
  0
ARC
  5
31C6
  8
AM_0
 10
533.95471144323483
 20
316.63062839581062
 30
0.0
 40
5.0000001000000003
 50
136.35948999999979
 51
180.00001000000091
  0
CIRCLE
  5
31C7
  8
AM_0
 10
588.95472844323444
 20
287.38065239581073
 30
0.0
 40
3.0
  0
CIRCLE
  5
31C8
  8
AM_5
 10
588.95472844323444
 20
287.38065239581073
 30
0.0
 40
4.000000199999997
  0
LINE
  5
31C9
  8
AM_0
 10
584.95471444323482
 20
297.38065139581062
 30
0.0
 11
592.95471544323482
 21
297.38065139581062
 31
0.0
  0
LINE
  5
31CA
  8
AM_0
 10
584.95471444323482
 20
304.38068339581082
 30
0.0
 11
592.95471544323482
 21
304.38068339581082
 31
0.0
  0
LINE
  5
31CB
  8
AM_0
 10
584.95471444323482
 20
297.38065139581062
 30
0.0
 11
584.95471444323482
 21
304.38068339581082
 31
0.0
  0
LINE
  5
31CC
  8
AM_0
 10
592.95471544323482
 20
297.38065139581062
 30
0.0
 11
592.95471544323482
 21
304.38068339581082
 31
0.0
  0
LINE
  5
31CD
  8
AM_0
 10
662.76060844323501
 20
316.53468839581069
 30
0.0
 11
627.20160244323483
 21
335.58219839581062
 31
0.0
  0
ARC
  5
31CE
  8
AM_0
 10
643.95473044323467
 20
316.63062839581062
 30
0.0
 40
5.0000001000000003
 50
0.0
 51
43.64050000000065
  0
ARC
  5
31CF
  8
AM_0
 10
655.20567844323443
 20
302.43067139581069
 30
0.0
 40
16.000000499999999
 50
4.1564916000008019
 51
61.823860000000678
  0
LINE
  5
31D1
  8
0
 10
218.3820222882361
 20
595.95274932626785
 30
0.0
 11
218.3820222882361
 21
439.95274932626791
 31
0.0
1001
GENIUS_GENOREF_13
1005
2F35
  0
LINE
  5
31D2
  8
0
 10
208.3820222882361
 20
437.95274932626791
 30
0.0
 11
208.3820222882361
 21
597.95274932626785
 31
0.0
1001
GENIUS_GENOREF_13
1005
2F35
  0
LINE
  5
31D3
  8
0
 10
220.31222329483111
 20
460.78681727136518
 30
0.0
 11
239.3820222882361
 21
461.45274932626791
 31
0.0
  0
LINE
  5
31D4
  8
0
 10
208.3820222882361
 20
437.95274932626791
 30
0.0
 11
216.3820222882361
 21
437.95274932626791
 31
0.0
  0
ARC
  5
31D5
  8
0
 10
216.3820222882361
 20
439.95274932626791
 30
0.0
 40
2.0
 50
270.0
 51
0.0
1001
GENIUS_GENOBJ-N-FIL_13
1002
{
1000
OWNER
1000
GEN
1002
}
1001
GENIUS_GENODEF_13
1002
{
1000
HIER
1070
     0
1002
}
1002
{
1000
MANEDIT
1070
     0
1002
}
1002
{
1000
NOSEL
1070
     0
1002
}
1002
{
1000
BEHIND
1070
     0
1002
}
1002
{
1000
OTHER
1070
     0
1002
}
1002
{
1000
REACTOR
1002
}
  0
ARC
  5
31D6
  8
0
 10
220.3820222882361
 20
458.78803561732701
 30
0.0
 40
2.0
 50
92.000000000000341
 51
180.0
1001
GENIUS_GENOBJ-N-FIL_13
1002
{
1000
OWNER
1000
GEN
1002
}
1001
GENIUS_GENODEF_13
1002
{
1000
HIER
1070
     0
1002
}
1002
{
1000
MANEDIT
1070
     0
1002
}
1002
{
1000
NOSEL
1070
     0
1002
}
1002
{
1000
BEHIND
1070
     0
1002
}
1002
{
1000
OTHER
1070
     0
1002
}
1002
{
1000
REACTOR
1002
}
  0
LINE
  5
31D7
  8
AM_0
 10
239.3820222882361
 20
549.89018832626789
 30
0.0
 11
218.3820222882361
 21
549.89018832626789
 31
0.0
  0
LINE
  5
31D8
  8
AM_0
 10
239.3820222882361
 20
486.01530732626782
 30
0.0
 11
218.3820222882361
 21
486.01530732626782
 31
0.0
  0
LINE
  5
31D9
  8
AM_0
 10
239.3820222882361
 20
471.95273232626789
 30
0.0
 11
218.3820222882361
 21
471.95273232626789
 31
0.0
  0
LINE
  5
31DA
  8
0
 10
220.31222329483111
 20
575.11868138117052
 30
0.0
 11
239.3820222882361
 21
574.45274932626785
 31
0.0
  0
LINE
  5
31DB
  8
AM_0
 10
239.3820222882361
 20
563.95274832626785
 30
0.0
 11
218.3820222882361
 21
563.95274832626785
 31
0.0
  0
ARC
  5
31DC
  8
0
 10
220.3820222882361
 20
577.11746303520874
 30
0.0
 40
2.0
 50
180.0
 51
267.9999999999996
1001
GENIUS_GENOBJ-N-FIL_13
1002
{
1000
OWNER
1000
GEN
1002
}
1001
GENIUS_GENODEF_13
1002
{
1000
HIER
1070
     0
1002
}
1002
{
1000
MANEDIT
1070
     0
1002
}
1002
{
1000
NOSEL
1070
     0
1002
}
1002
{
1000
BEHIND
1070
     0
1002
}
1002
{
1000
OTHER
1070
     0
1002
}
1002
{
1000
REACTOR
1002
}
  0
LINE
  5
31DD
  8
0
 10
208.3820222882361
 20
597.95274932626785
 30
0.0
 11
216.3820222882361
 21
597.95274932626785
 31
0.0
  0
ARC
  5
31DE
  8
0
 10
216.3820222882361
 20
595.95274932626785
 30
0.0
 40
2.0
 50
0.0
 51
90.0
1001
GENIUS_GENOBJ-N-FIL_13
1002
{
1000
OWNER
1000
GEN
1002
}
1001
GENIUS_GENODEF_13
1002
{
1000
HIER
1070
     0
1002
}
1002
{
1000
MANEDIT
1070
     0
1002
}
1002
{
1000
NOSEL
1070
     0
1002
}
1002
{
1000
BEHIND
1070
     0
1002
}
1002
{
1000
OTHER
1070
     0
1002
}
1002
{
1000
REACTOR
1002
}
  0
TEXT
  5
33BD
  8
AM_0
 10
489.04721649350779
 20
546.34821887569012
 30
0.0
 40
10.0
  1
VX02-120A~VX02-200A
  0
ENDSEC
  0
EOF
