  0
SECTION
  2
HEADER
  9
$ACADVER
  1
AC1009
  9
$INSBASE
 10
0.0
 20
0.0
 30
0.0
  9
$EXTMIN
 10
112.9517461982925
 20
169.0360204415253
 30
-0.0000000349181948
  9
$EXTMAX
 10
808.72563364895268
 20
703.38231110963375
 30
0.0000000814935747
  9
$LIMMIN
 10
0.0
 20
0.0
  9
$LIMMAX
 10
853.5
 20
555.00000000000011
  9
$ORTHOMODE
 70
     0
  9
$REGENMODE
 70
     1
  9
$FILLMODE
 70
     1
  9
$QTEXTMODE
 70
     0
  9
$MIRRTEXT
 70
     1
  9
$DRAGMODE
 70
     2
  9
$LTSCALE
 40
3.0
  9
$OSMODE
 70
   551
  9
$ATTMODE
 70
     1
  9
$TEXTSIZE
 40
2.5
  9
$TRACEWID
 40
1.0
  9
$TEXTSTYLE
  7
STANDARD
  9
$CLAYER
  8
AM_0
  9
$CELTYPE
  6
BYLAYER
  9
$CECOLOR
 62
   256
  9
$DIMSCALE
 40
1.0
  9
$DIMASZ
 40
2.5
  9
$DIMEXO
 40
1.0
  9
$DIMDLI
 40
8.0
  9
$DIMRND
 40
0.0
  9
$DIMDLE
 40
0.0
  9
$DIMEXE
 40
0.6
  9
$DIMTP
 40
0.1
  9
$DIMTM
 40
0.1
  9
$DIMTXT
 40
2.5
  9
$DIMCEN
 40
0.0
  9
$DIMTSZ
 40
0.0
  9
$DIMTOL
 70
     0
  9
$DIMLIM
 70
     0
  9
$DIMTIH
 70
     0
  9
$DIMTOH
 70
     0
  9
$DIMSE1
 70
     0
  9
$DIMSE2
 70
     0
  9
$DIMTAD
 70
     1
  9
$DIMZIN
 70
     8
  9
$DIMBLK
  1

  9
$DIMASO
 70
     1
  9
$DIMSHO
 70
     1
  9
$DIMPOST
  1

  9
$DIMAPOST
  1
"
  9
$DIMALT
 70
     0
  9
$DIMALTD
 70
     2
  9
$DIMALTF
 40
0.0393701
  9
$DIMLFAC
 40
1.0
  9
$DIMTOFL
 70
     1
  9
$DIMTVP
 40
0.0
  9
$DIMTIX
 70
     0
  9
$DIMSOXD
 70
     0
  9
$DIMSAH
 70
     0
  9
$DIMBLK1
  1

  9
$DIMBLK2
  1

  9
$DIMSTYLE
  2
AM_ISO
  9
$DIMCLRD
 70
   256
  9
$DIMCLRE
 70
   256
  9
$DIMCLRT
 70
     4
  9
$DIMTFAC
 40
0.71
  9
$DIMGAP
 40
0.8
  9
$LUNITS
 70
     2
  9
$LUPREC
 70
     2
  9
$SKETCHINC
 40
1.0
  9
$FILLETRAD
 40
15.0
  9
$AUNITS
 70
     0
  9
$AUPREC
 70
     0
  9
$MENU
  1
.
  9
$ELEVATION
 40
0.0
  9
$PELEVATION
 40
0.0
  9
$THICKNESS
 40
0.0
  9
$LIMCHECK
 70
     0
  9
$BLIPMODE
 70
     0
  9
$CHAMFERA
 40
6.0
  9
$CHAMFERB
 40
3.0
  9
$SKPOLY
 70
     0
  9
$TDCREATE
 40
2452065.7635588432
  9
$TDUPDATE
 40
2458541.4670336228
  9
$TDINDWG
 40
0.0774133912
  9
$TDUSRTIMER
 40
0.0774131944
  9
$USRTIMER
 70
     1
  9
$ANGBASE
 50
0.0
  9
$ANGDIR
 70
     0
  9
$PDMODE
 70
     0
  9
$PDSIZE
 40
0.0
  9
$PLINEWID
 40
0.0
  9
$COORDS
 70
     1
  9
$SPLFRAME
 70
     0
  9
$SPLINETYPE
 70
     6
  9
$SPLINESEGS
 70
     8
  9
$ATTDIA
 70
     1
  9
$ATTREQ
 70
     1
  9
$HANDLING
 70
     1
  9
$HANDSEED
  5
34A3
  9
$SURFTAB1
 70
     6
  9
$SURFTAB2
 70
     6
  9
$SURFTYPE
 70
     6
  9
$SURFU
 70
     6
  9
$SURFV
 70
     6
  9
$UCSNAME
  2

  9
$UCSORG
 10
0.0
 20
0.0
 30
0.0
  9
$UCSXDIR
 10
1.0
 20
0.0
 30
0.0
  9
$UCSYDIR
 10
0.0
 20
1.0
 30
0.0
  9
$PUCSNAME
  2

  9
$PUCSORG
 10
0.0
 20
0.0
 30
0.0
  9
$PUCSXDIR
 10
1.0
 20
0.0
 30
0.0
  9
$PUCSYDIR
 10
0.0
 20
1.0
 30
0.0
  9
$USERI1
 70
     0
  9
$USERI2
 70
     0
  9
$USERI3
 70
     0
  9
$USERI4
 70
     0
  9
$USERI5
 70
     0
  9
$USERR1
 40
0.0
  9
$USERR2
 40
0.0
  9
$USERR3
 40
0.0
  9
$USERR4
 40
0.0
  9
$USERR5
 40
0.0
  9
$WORLDVIEW
 70
     1
  9
$SHADEDGE
 70
     3
  9
$SHADEDIF
 70
    70
  9
$TILEMODE
 70
     1
  9
$MAXACTVP
 70
    64
  9
$PLIMCHECK
 70
     0
  9
$PEXTMIN
 10
1.0000000000000000E+020
 20
1.0000000000000000E+020
 30
1.0000000000000000E+020
  9
$PEXTMAX
 10
-1.0000000000000000E+020
 20
-1.0000000000000000E+020
 30
-1.0000000000000000E+020
  9
$PLIMMIN
 10
0.0
 20
0.0
  9
$PLIMMAX
 10
420.0
 20
297.0
  9
$UNITMODE
 70
     0
  9
$VISRETAIN
 70
     1
  9
$PLINEGEN
 70
     0
  9
$PSLTSCALE
 70
     1
  0
ENDSEC
  0
SECTION
  2
TABLES
  0
TABLE
  2
VPORT
 70
     1
  0
VPORT
  2
*ACTIVE
 70
     0
 10
0.0
 20
0.0
 11
1.0
 21
1.0
 12
460.83868992362261
 22
436.20916577557949
 13
0.0
 23
0.0
 14
7.5
 24
7.5
 15
30.0
 25
30.0
 16
0.0
 26
0.0
 36
1.0
 17
0.0
 27
0.0
 37
0.0
 40
538.01457183974298
 41
1.7571592210767459
 42
50.0
 43
0.0
 44
0.0
 50
0.0
 51
0.0
 71
     0
 72
   100
 73
     1
 74
     3
 75
     0
 76
     0
 77
     0
 78
     0
  0
ENDTAB
  0
TABLE
  2
LTYPE
 70
    27
  0
LTYPE
  2
CONTINUOUS
 70
     0
  3
Solid line
 72
    65
 73
     0
 40
0.0
  0
LTYPE
  2
AM_ISO02W050
 70
     0
  3
__ __ __ __ __ __ __ __ __ __ __ __ __ __ __
 72
    65
 73
     2
 40
7.5
 49
6.0
 49
-1.5
  0
LTYPE
  2
AM_ISO08W050
 70
     0
  3
____ . ____ . ____ . ____ . ____ . ____ . ____
 72
    65
 73
     4
 40
18.0
 49
12.0
 49
-1.5
 49
3.0
 49
-1.5
  0
LTYPE
  2
AM_ISO09W050
 70
     0
  3
_____ . . _____ . . _____ . . ____ .. ____
 72
    65
 73
     6
 40
22.5
 49
12.0
 49
-1.5
 49
3.0
 49
-1.5
 49
3.0
 49
-1.5
  0
LTYPE
  2
AMCONSTR
 70
     0
  3
_______________________
 72
    65
 73
     2
 40
9999.0
 49
9999.0
 49
0.0
  0
LTYPE
  2
AM_ISO08W050X2
 70
     0
  3
__ . __ . __ . __ . __ . __
 72
    65
 73
     4
 40
9.0
 49
6.0
 49
-0.75
 49
1.5
 49
-0.75
  0
LTYPE
  2
AM_ISO02W050X2
 70
     0
  3
 _ _ _ _ _ _ _ _ _ _ _ _
 72
    65
 73
     2
 40
3.75
 49
3.0
 49
-0.75
  0
LTYPE
  2
AMZIGZAG
 70
     0
  3
/\/-/\/-/\/-/\/-/\/-/\/
 72
    65
 73
     2
 40
11.000099999999991
 49
0.0001
 49
-11.0
  0
LTYPE
  2
ACISOWELD
 70
     0
  3
_ _ _ _ _
 72
    65
 73
     2
 40
2.0
 49
2.0
 49
-1.0
  0
LTYPE
  2
ACISOTGB
 70
     0
  3
__ . . __ . .
 72
    65
 73
     6
 40
9.0
 49
4.0
 49
-1.0
 49
1.0
 49
-1.0
 49
1.0
 49
-1.0
  0
LTYPE
  2
ACISOTGL
 70
     0
  3
_ _ _ _ _
 72
    65
 73
     2
 40
3.0
 49
2.0
 49
-1.0
  0
LTYPE
  2
CENTER
 70
     0
  3
__ . __
 72
    65
 73
     4
 40
7.0
 49
4.0
 49
-1.0
 49
1.0
 49
-1.0
  0
LTYPE
  2
PHANTOM2
 70
     0
  3
Phantom (.5x) ___ _ _ ___ _ _ ___ _ _ ___ _ _
 72
    65
 73
     6
 40
31.75
 49
15.875
 49
-3.174999999999998
 49
3.174999999999998
 49
-3.174999999999998
 49
3.174999999999998
 49
-3.174999999999998
  0
LTYPE
  2
ACANSTGBM
 70
     0
  3
__ . . __ . .
 72
    65
 73
     6
 40
9.0
 49
4.0
 49
-1.0
 49
1.0
 49
-1.0
 49
1.0
 49
-1.0
  0
LTYPE
  2
ACANSTGLM
 70
     0
  3
_ _ _ _ _
 72
    65
 73
     2
 40
3.0
 49
2.0
 49
-1.0
  0
LTYPE
  2
GEN7
 70
     0
  3
____ . ____ . ____ . ____ . ____ . ____ . ____
 72
    65
 73
     4
 40
14.25
 49
9.75
 49
-1.5
 49
1.5
 49
-1.5
  0
LTYPE
  2
GEN3B
 70
     0
  3
 - - - - -
 72
    65
 73
     2
 40
1.0
 49
0.5
 49
-0.5
  0
LTYPE
  2
GEN7A
 70
     0
  3
__ . __ . __
 72
    65
 73
     4
 40
7.375
 49
4.75
 49
-0.875
 49
0.875
 49
-0.875
  0
LTYPE
  2
ACJISTGB
 70
     0
  3
__ . . __ . .
 72
    65
 73
     6
 40
9.0
 49
4.0
 49
-1.0
 49
1.0
 49
-1.0
 49
1.0
 49
-1.0
  0
LTYPE
  2
ACJISTGL
 70
     0
  3
_ _ _ _ _
 72
    65
 73
     2
 40
3.0
 49
2.0
 49
-1.0
  0
LTYPE
  2
HIDDEN
 70
     0
  3
Hidden __ __ __ __ __ __ __ __ __ __ __ __ __ _
 72
    65
 73
     2
 40
0.375
 49
0.25
 49
-0.125
  0
LTYPE
  2
CENTER2
 70
     0
  3
Center (.5x) ___ _ ___ _ ___ _ ___ _ ___ _ ___
 72
    65
 73
     4
 40
1.125
 49
0.75
 49
-0.125
 49
0.125
 49
-0.125
  0
LTYPE
  2
HIDDEN2
 70
     0
  3
Hidden (.5x) _ _ _ _ _ _ _ _ _ _ _ _ _ _ _ _ _
 72
    65
 73
     2
 40
0.1875
 49
0.125
 49
-0.0625
  0
LTYPE
  2
AMZIGZAG2
 70
     0
  3
/\/-/\/-/\/-/\/-/\/-/\/
 72
    65
 73
     2
 40
0.4401
 49
0.0001
 49
-0.4400000000000002
  0
LTYPE
  2
ACANSTGB
 70
     0
  3
__ . . __ . .
 72
    65
 73
     6
 40
0.35433070866
 49
0.15748031496
 49
-0.03937007874
 49
0.03937007874
 49
-0.03937007874
 49
0.03937007874
 49
-0.03937007874
  0
LTYPE
  2
ACANSTGL
 70
     0
  3
_ _ _ _ _
 72
    65
 73
     2
 40
0.11811023622
 49
0.07874015748
 49
-0.03937007874
  0
ENDTAB
  0
TABLE
  2
LAYER
 70
     7
  0
LAYER
  2
0
 70
     0
 62
     7
  6
CONTINUOUS
  0
LAYER
  2
AM_0
 70
     0
 62
     7
  6
CONTINUOUS
  0
LAYER
  2
AM_5
 70
     0
 62
     2
  6
CONTINUOUS
  0
LAYER
  2
DEFPOINTS
 70
     0
 62
     7
  6
CONTINUOUS
  0
LAYER
  2
ｶｸﾚｾﾝ2
 70
     0
 62
     3
  6
GEN3B
  0
LAYER
  2
ﾁｭｳｼﾝｾﾝ
 70
     0
 62
     1
  6
GEN7
  0
LAYER
  2
ﾁｭｳｼﾝｾﾝ1
 70
     0
 62
     1
  6
GEN7A
  0
ENDTAB
  0
TABLE
  2
STYLE
 70
     9
  0
STYLE
  2
STANDARD
 70
     0
 40
0.0
 41
0.8299999999999999
 50
0.0
 71
     0
 42
2.5
  3
txt.shx
  4
bigfont.shx
  0
STYLE
  2
ANNOTATIVE
 70
     0
 40
0.0
 41
1.0
 50
0.0
 71
     0
 42
0.2
  3
txt
  4

  0
STYLE
  2

 70
     1
 40
0.0
 41
1.0
 50
0.0
 71
     0
 42
2.5
  3
ltypeshp.shx
  4

  0
STYLE
  2
ACISOTS
 70
     0
 40
1.0
 41
1.0
 50
0.0
 71
     0
 42
2.5
  3
isocp.shx
  4
extfont.shx
  0
STYLE
  2
ACISOGDT
 70
     0
 40
0.0
 41
1.0
 50
0.0
 71
     0
 42
2.5
  3
amgdt.shx
  4

  0
STYLE
  2
ACANSTS
 70
     0
 40
1.0
 41
1.0
 50
0.0
 71
     0
 42
2.5
  3
romans.shx
  4
bigfont.shx
  0
STYLE
  2
ACANSGDT
 70
     0
 40
0.0
 41
1.0
 50
0.0
 71
     0
 42
2.5
  3
amgdt.shx
  4

  0
STYLE
  2
ACJISTS
 70
     0
 40
1.0
 41
1.0
 50
0.0
 71
     0
 42
2.5
  3
isocp.shx
  4
bigfont.shx
  0
STYLE
  2
ACJISGDT
 70
     0
 40
0.0
 41
1.0
 50
0.0
 71
     0
 42
2.5
  3
amgdt.shx
  4

  0
ENDTAB
  0
TABLE
  2
VIEW
 70
     6
  0
VIEW
  2
AM_VIEW1
 70
     0
 40
277.49999999999989
 10
249.64779005524849
 20
416.24999999999989
 41
499.2955801104971
 11
0.0
 21
0.0
 31
1.0
 12
0.0
 22
0.0
 32
0.0
 42
50.0
 43
0.0
 44
0.0
 50
0.0
 71
     0
  0
VIEW
  2
AM_VIEW2
 70
     0
 40
277.49999999999989
 10
603.85220994475117
 20
416.24999999999989
 41
499.2955801104971
 11
0.0
 21
0.0
 31
1.0
 12
0.0
 22
0.0
 32
0.0
 42
50.0
 43
0.0
 44
0.0
 50
0.0
 71
     0
  0
VIEW
  2
AM_VIEW3
 70
     0
 40
277.49999999999989
 10
249.64779005524849
 20
138.7499999999998
 41
499.2955801104971
 11
0.0
 21
0.0
 31
1.0
 12
0.0
 22
0.0
 32
0.0
 42
50.0
 43
0.0
 44
0.0
 50
0.0
 71
     0
  0
VIEW
  2
AM_VIEW4
 70
     0
 40
277.49999999999989
 10
603.85220994475117
 20
138.7499999999998
 41
499.2955801104971
 11
0.0
 21
0.0
 31
1.0
 12
0.0
 22
0.0
 32
0.0
 42
50.0
 43
0.0
 44
0.0
 50
0.0
 71
     0
  0
VIEW
  2
AM_VIEW5
 70
     0
 40
277.5
 10
426.75
 20
277.49999999999989
 41
499.2955801104971
 11
0.0
 21
0.0
 31
1.0
 12
0.0
 22
0.0
 32
0.0
 42
50.0
 43
0.0
 44
0.0
 50
0.0
 71
     0
  0
VIEW
  2
AM_VIEW6
 70
     0
 40
554.99445000000014
 10
426.75
 20
277.49999999999989
 41
998.5811743093924
 11
0.0
 21
0.0
 31
1.0
 12
0.0
 22
0.0
 32
0.0
 42
50.0
 43
0.0
 44
0.0
 50
0.0
 71
     0
  0
ENDTAB
  0
TABLE
  2
UCS
 70
     0
  0
ENDTAB
  0
TABLE
  2
APPID
 70
    95
  0
APPID
  2
ACAD
 70
     0
  0
APPID
  2
ACADANNOTATIVE
 70
     0
  0
APPID
  2
MCAD_NO_VIS
 70
     0
  0
APPID
  2
ACAD_TEMP_GRAPHIC
 70
     0
  0
APPID
  2
ACATTRIBSERVICES
 70
     0
  0
APPID
  2
GENIUS_GENREC_14
 70
     0
  0
APPID
  2
GENIUS_GENOBJ-N-REC_13
 70
     0
  0
APPID
  2
GENIUS_GENODEF_13
 70
     0
  0
APPID
  2
GENIUS_GENOLIS_13
 70
     0
  0
APPID
  2
GENIUS_GENOBJ-N-TIT_13
 70
     0
  0
APPID
  2
GENIUS_GENOENT_13
 70
     0
  0
APPID
  2
GENIUS_GENTITLE_13
 70
     0
  0
APPID
  2
GENIUS_GENOREF_13
 70
     0
  0
APPID
  2
GENIUS_GENSCREG_15
 70
     0
  0
APPID
  2
GENIUS_GENOBJ-N-SDF_13
 70
     0
  0
APPID
  2
GENIUS_GENFIL_13
 70
     0
  0
APPID
  2
GENIUS_GENOBJ-N-CHA_13
 70
     0
  0
APPID
  2
GENIUS_GENDTOL_13
 70
     0
  0
APPID
  2
GENIUS_GENOBJ-N-FIL_13
 70
     0
  0
APPID
  2
AD_DRAW
 70
     0
  0
APPID
  2
DESIGNERASSEMBLIES
 70
     0
  0
APPID
  2
ASURF_PCURVE_APPNAME
 70
     0
  0
APPID
  2
GENIUS_GE3SECT_13
 70
     0
  0
APPID
  2
GENIUS_GENCFG_13
 70
     0
  0
APPID
  2
GENIUS_GE3CFG0_13
 70
     0
  0
APPID
  2
GENIUS_GENCFG0_13
 70
     0
  0
APPID
  2
GENIUS_GENCFG1_13
 70
     0
  0
APPID
  2
GENIUS_GENCFG2_13
 70
     0
  0
APPID
  2
GENIUS_GENCFG3_13
 70
     0
  0
APPID
  2
GENIUS_GENCFG4_13
 70
     0
  0
APPID
  2
GENIUS_GEVCFG0_13
 70
     0
  0
APPID
  2
GENIUS_GENHINW_13
 70
     0
  0
APPID
  2
GENIUS_FIRSTVISTXT_14
 70
     0
  0
APPID
  2
GENIUS_GENOBJ-N-LEADER_13
 70
     0
  0
APPID
  2
GEV_VCCNULL_SWITCH_OFF
 70
     0
  0
APPID
  2
GENIUS_GEFCFG0_13
 70
     0
  0
APPID
  2
GENIUS_GENZVEED_13
 70
     0
  0
APPID
  2
GENIUS_GENSCREG_13
 70
     0
  0
APPID
  2
GENIUS_DUMCFG0_13
 70
     0
  0
APPID
  2
GEVID936201362
 70
     0
  0
APPID
  2
GEVDC
 70
     0
  0
APPID
  2
GEVCON
 70
     0
  0
APPID
  2
VCC
 70
     0
  0
APPID
  2
GEVPT
 70
     0
  0
APPID
  2
GEVIT
 70
     0
  0
APPID
  2
GENBH
 70
     0
  0
APPID
  2
GEVMK
 70
     0
  0
APPID
  2
GENIUS_GENBH_13
 70
     0
  0
APPID
  2
GENIUS_GENOBJ-NBEHI-BHF_13
 70
     0
  0
APPID
  2
GENIUS_GENOBJ-NBEHI-BHB_13
 70
     0
  0
APPID
  2
GENIUS_GENOBJ-F-DESC_13
 70
     0
  0
APPID
  2
GENIUS_GEFDESC_14
 70
     0
  0
APPID
  2
GENIUS_GENOBJ-F-PART_13
 70
     0
  0
APPID
  2
GENIUS_GEFSTDP_13
 70
     0
  0
APPID
  2
GENIUS_GEFPARTINS_13
 70
     0
  0
APPID
  2
GENIUS_GENTRA_14
 70
     0
  0
APPID
  2
GENIUS_GENINF13_13
 70
     0
  0
APPID
  2
GENIUS_GENOBJ-N-INFOPT_13
 70
     0
  0
APPID
  2
GENIUS_GENOBJ-N-RSSYM_13
 70
     0
  0
APPID
  2
GENIUS_GENSYMENT_13
 70
     0
  0
APPID
  2
GENIUS_GENSCSYM_13
 70
     0
  0
APPID
  2
GENIUS_GEFINFNAM_13
 70
     0
  0
APPID
  2
GENIUS_GENOBJ-N-CEN_13
 70
     0
  0
APPID
  2
GENIUS_GENOBJ-N-CRS_13
 70
     0
  0
APPID
  2
GENIUS_GENOBJ-N-CRC_13
 70
     0
  0
APPID
  2
GENIUS_GENCRC_14
 70
     0
  0
APPID
  2
GEVID942827039
 70
     0
  0
APPID
  2
GEVID942827040
 70
     0
  0
APPID
  2
GEVID942827041
 70
     0
  0
APPID
  2
GENIUS_GENOBJ-F-SCPASSM_13
 70
     0
  0
APPID
  2
GENIUS_GENDIMSH_14
 70
     0
  0
APPID
  2
GEVID942827042
 70
     0
  0
APPID
  2
GEVID946020473
 70
     0
  0
APPID
  2
GEVID946020474
 70
     0
  0
APPID
  2
GEVID946020475
 70
     0
  0
APPID
  2
GENIUS_GENOBJ-N-HTC_13
 70
     0
  0
APPID
  2
GENIUS_GENHATCH_13
 70
     0
  0
APPID
  2
GEVID948854295
 70
     0
  0
APPID
  2
GEVID939402019
 70
     0
  0
APPID
  2
GEVID952919491
 70
     0
  0
APPID
  2
GEVID952919492
 70
     0
  0
APPID
  2
GENIUS_GEFWELD_13
 70
     0
  0
APPID
  2
GENIUS_GENOBJ-F-WELS_13
 70
     0
  0
APPID
  2
GEVID952919493
 70
     0
  0
APPID
  2
GENIUS_GENOBJ-N-RSBK_13
 70
     0
  0
APPID
  2
GENIUS_GENOBJ-N-LIB_13
 70
     0
  0
APPID
  2
GENIUS_GENSCALE_13
 70
     0
  0
APPID
  2
GEVID986376691
 70
     0
  0
APPID
  2
DCO15
 70
     0
  0
APPID
  2
ACAD_DSTYLE_DIMBREAK
 70
     0
  0
APPID
  2
ACAD_DSTYLE_DIMJAG
 70
     0
  0
APPID
  2
ACAD_NAV_VCDISPLAY
 70
     0
  0
APPID
  2
ACADANNOPO
 70
     0
  0
APPID
  2
ACAD_EXEMPT_FROM_CAD_STANDARDS
 70
     0
  0
APPID
  2
ACAD_MLEADERVER
 70
     0
  0
ENDTAB
  0
TABLE
  2
DIMSTYLE
 70
    22
  0
DIMSTYLE
  2
STANDARD
 70
     0
  3

  4

  5

  6

  7

 40
1.0
 41
0.18
 42
0.0625
 43
0.38
 44
0.18
 45
0.0
 46
0.0
 47
0.0
 48
0.0
140
0.18
141
0.09
142
0.0
143
25.399999999999999
144
1.0
145
0.0
146
1.0
147
0.09
 71
     0
 72
     0
 73
     1
 74
     1
 75
     0
 76
     0
 77
     0
 78
     0
170
     0
171
     2
172
     0
173
     0
174
     0
175
     0
176
     0
177
     0
178
     0
  0
DIMSTYLE
  2
ANNOTATIVE
 70
     0
  3

  4

  5

  6

  7

 40
1.0
 41
0.18
 42
0.0625
 43
0.38
 44
0.18
 45
0.0
 46
0.0
 47
0.0
 48
0.0
140
0.18
141
0.09
142
0.0
143
25.399999999999999
144
1.0
145
0.0
146
1.0
147
0.09
 71
     0
 72
     0
 73
     1
 74
     1
 75
     0
 76
     0
 77
     0
 78
     0
170
     0
171
     2
172
     0
173
     0
174
     0
175
     0
176
     0
177
     0
178
     0
  0
DIMSTYLE
  2
AM_ISO
 70
     0
  3

  4
"
  5

  6

  7

 40
1.0
 41
2.5
 42
1.0
 43
8.0
 44
0.6
 45
0.0
 46
0.0
 47
0.1
 48
0.1
140
2.5
141
0.0
142
0.0
143
0.0393701
144
1.0
145
0.0
146
0.71
147
0.8
 71
     0
 72
     0
 73
     0
 74
     0
 75
     0
 76
     0
 77
     1
 78
     8
170
     0
171
     2
172
     1
173
     0
174
     0
175
     0
176
   256
177
   256
178
     4
  0
DIMSTYLE
  2
AM_ISO$3
 70
     0
  3

  4
"
  5

  6

  7

 40
1.0
 41
2.5
 42
1.0
 43
8.0
 44
0.6
 45
0.0
 46
0.0
 47
0.1
 48
0.1
140
2.5
141
0.0
142
0.0
143
0.0393701
144
1.0
145
0.0
146
0.71
147
0.8
 71
     0
 72
     0
 73
     0
 74
     1
 75
     0
 76
     0
 77
     1
 78
     8
170
     0
171
     2
172
     0
173
     0
174
     0
175
     0
176
   256
177
   256
178
     4
  0
DIMSTYLE
  2
AM_ISO$4
 70
     0
  3

  4
"
  5

  6

  7

 40
1.0
 41
2.5
 42
1.0
 43
8.0
 44
0.6
 45
0.0
 46
0.0
 47
0.1
 48
0.1
140
2.5
141
0.0
142
0.0
143
0.0393701
144
1.0
145
0.0
146
0.71
147
0.8
 71
     0
 72
     0
 73
     0
 74
     1
 75
     0
 76
     0
 77
     1
 78
     8
170
     0
171
     2
172
     0
173
     0
174
     0
175
     0
176
   256
177
   256
178
     4
  0
DIMSTYLE
  2
AM_ISO$6
 70
     0
  3

  4
"
  5

  6

  7

 40
1.0
 41
2.5
 42
1.0
 43
8.0
 44
0.6
 45
0.0
 46
0.0
 47
0.1
 48
0.1
140
2.5
141
0.0
142
0.0
143
0.0393701
144
1.0
145
0.0
146
0.71
147
0.8
 71
     0
 72
     0
 73
     0
 74
     0
 75
     0
 76
     0
 77
     0
 78
     8
170
     0
171
     2
172
     1
173
     0
174
     0
175
     0
176
   256
177
   256
178
     4
  0
DIMSTYLE
  2
AM_ISO$7
 70
     0
  3

  4
"
  5

  6

  7

 40
1.0
 41
2.5
 42
1.0
 43
8.0
 44
0.6
 45
0.0
 46
0.0
 47
0.1
 48
0.1
140
2.5
141
0.0
142
0.0
143
0.0393701
144
1.0
145
0.0
146
0.71
147
0.8
 71
     0
 72
     0
 73
     0
 74
     0
 75
     0
 76
     0
 77
     1
 78
     8
170
     0
171
     2
172
     1
173
     0
174
     0
175
     0
176
   256
177
   256
178
     4
  0
DIMSTYLE
  2
AM_ISO$SF
 70
     0
  3

  4
"
  5

  6

  7

 40
1.0
 41
2.5
 42
1.0
 43
10.0
 44
1.0
 45
0.0
 46
0.0
 47
0.1
 48
0.1
140
3.5
141
0.0
142
0.0
143
0.0393701
144
1.0
145
0.0
146
0.71
147
1.5
 71
     0
 72
     0
 73
     0
 74
     0
 75
     1
 76
     1
 77
     1
 78
     8
170
     0
171
     2
172
     1
173
     0
174
     0
175
     0
176
   256
177
   256
178
     2
  0
DIMSTYLE
  2
AM_ISO$SH
 70
     0
  3

  4
"
  5

  6

  7

 40
1.0
 41
2.5
 42
1.0
 43
10.0
 44
1.0
 45
0.0
 46
0.0
 47
0.1
 48
0.1
140
3.5
141
0.0
142
0.0
143
0.0393701
144
2.0
145
0.0
146
0.71
147
1.5
 71
     0
 72
     0
 73
     0
 74
     0
 75
     1
 76
     1
 77
     1
 78
     8
170
     0
171
     2
172
     1
173
     1
174
     0
175
     0
176
   256
177
   256
178
     2
  0
DIMSTYLE
  2
AM_JIS
 70
     0
  3

  4
"
  5

  6

  7

 40
1.0
 41
2.5
 42
1.0
 43
7.0
 44
1.0
 45
0.0
 46
0.0
 47
0.1
 48
0.1000000001
140
2.5
141
0.0
142
0.0
143
0.0393701
144
1.0
145
0.0
146
0.71
147
1.0
 71
     0
 72
     0
 73
     0
 74
     0
 75
     0
 76
     0
 77
     3
 78
     8
170
     0
171
     2
172
     1
173
     0
174
     0
175
     0
176
   256
177
   256
178
     4
  0
DIMSTYLE
  2
AM_JIS$3
 70
     0
  3

  4
"
  5

  6

  7

 40
1.0
 41
2.5
 42
1.0
 43
7.0
 44
1.0
 45
0.0
 46
0.0
 47
0.1
 48
0.1000000001
140
2.5
141
0.0
142
0.0
143
0.0393701
144
1.0
145
0.0
146
0.71
147
1.0
 71
     0
 72
     0
 73
     0
 74
     1
 75
     0
 76
     0
 77
     3
 78
     8
170
     0
171
     2
172
     0
173
     0
174
     0
175
     0
176
   256
177
   256
178
     4
  0
DIMSTYLE
  2
AM_JIS$4
 70
     0
  3

  4
"
  5

  6

  7

 40
1.0
 41
2.5
 42
1.0
 43
7.0
 44
1.0
 45
0.0
 46
0.0
 47
0.1
 48
0.1000000001
140
2.5
141
0.0
142
0.0
143
0.0393701
144
1.0
145
0.0
146
0.71
147
1.0
 71
     0
 72
     0
 73
     0
 74
     0
 75
     0
 76
     0
 77
     3
 78
     8
170
     0
171
     2
172
     0
173
     0
174
     0
175
     0
176
   256
177
   256
178
     4
  0
DIMSTYLE
  2
AM_JIS$6
 70
     0
  3

  4
"
  5

  6

  7

 40
1.0
 41
2.5
 42
1.0
 43
7.0
 44
1.0
 45
0.0
 46
0.0
 47
0.1
 48
0.1000000001
140
2.5
141
0.0
142
0.0
143
0.0393701
144
1.0
145
0.0
146
0.71
147
1.0
 71
     0
 72
     0
 73
     0
 74
     0
 75
     0
 76
     0
 77
     0
 78
     8
170
     0
171
     2
172
     1
173
     0
174
     0
175
     0
176
   256
177
   256
178
     4
  0
DIMSTYLE
  2
AM_JIS$7
 70
     0
  3

  4
"
  5

  6

  7

 40
1.0
 41
2.5
 42
1.0
 43
7.0
 44
1.0
 45
0.0
 46
0.0
 47
0.1
 48
0.1000000001
140
2.5
141
0.0
142
0.0
143
0.0393701
144
1.0
145
0.0
146
0.71
147
1.0
 71
     0
 72
     0
 73
     0
 74
     0
 75
     0
 76
     0
 77
     3
 78
     8
170
     0
171
     2
172
     1
173
     0
174
     0
175
     0
176
   256
177
   256
178
     4
  0
DIMSTYLE
  2
AM_JIS$SF
 70
     0
  3

  4
"
  5

  6

  7

 40
1.0
 41
2.5
 42
1.0
 43
10.0
 44
1.0
 45
0.0
 46
0.0
 47
0.1
 48
0.1
140
3.5
141
0.0
142
0.0
143
0.0393701
144
1.0
145
0.0
146
0.71
147
1.5
 71
     0
 72
     0
 73
     0
 74
     0
 75
     1
 76
     1
 77
     3
 78
     8
170
     0
171
     2
172
     1
173
     0
174
     0
175
     0
176
   256
177
   256
178
     4
  0
DIMSTYLE
  2
AM_JIS$SH
 70
     0
  3

  4
"
  5

  6

  7

 40
1.0
 41
2.5
 42
1.0
 43
10.0
 44
1.0
 45
0.0
 46
0.0
 47
0.1
 48
0.1
140
3.5
141
0.0
142
0.0
143
0.0393701
144
1.0
145
0.0
146
0.71
147
1.5
 71
     0
 72
     0
 73
     0
 74
     0
 75
     1
 76
     0
 77
     3
 78
     8
170
     0
171
     2
172
     1
173
     1
174
     0
175
     0
176
   256
177
   256
178
     4
  0
DIMSTYLE
  2
AM_ANSI
 70
     0
  3

  4
mm
  5

  6

  7

 40
1.0
 41
0.1
 42
0.05
 43
0.5
 44
0.1
 45
0.0
 46
0.0
 47
0.1
 48
0.1
140
0.12
141
0.0
142
0.0
143
25.399999999999999
144
1.0
145
0.0
146
0.71
147
0.06
 71
     0
 72
     0
 73
     1
 74
     1
 75
     0
 76
     0
 77
     0
 78
     7
170
     0
171
     2
172
     0
173
     0
174
     0
175
     0
176
   256
177
   256
178
     2
  0
DIMSTYLE
  2
AM_ANSI$3
 70
     0
  3

  4
mm
  5

  6

  7

 40
1.0
 41
0.1
 42
0.05
 43
0.5
 44
0.1
 45
0.0
 46
0.0
 47
0.1
 48
0.1
140
0.12
141
0.0
142
0.0
143
25.399999999999999
144
1.0
145
0.0
146
0.71
147
0.06
 71
     0
 72
     0
 73
     1
 74
     1
 75
     0
 76
     0
 77
     0
 78
     7
170
     0
171
     2
172
     0
173
     0
174
     0
175
     0
176
   256
177
   256
178
     2
  0
DIMSTYLE
  2
AM_ANSI$4
 70
     0
  3

  4
mm
  5

  6

  7

 40
1.0
 41
0.1
 42
0.05
 43
0.5
 44
0.1
 45
0.0
 46
0.0
 47
0.1
 48
0.1
140
0.12
141
0.0
142
0.0
143
25.399999999999999
144
1.0
145
0.0
146
0.71
147
0.06
 71
     0
 72
     0
 73
     1
 74
     1
 75
     0
 76
     0
 77
     0
 78
     7
170
     0
171
     2
172
     0
173
     0
174
     0
175
     0
176
   256
177
   256
178
     2
  0
DIMSTYLE
  2
AM_ANSI$7
 70
     0
  3

  4
mm
  5

  6

  7

 40
1.0
 41
0.1
 42
0.05
 43
0.5
 44
0.1
 45
0.0
 46
0.0
 47
0.1
 48
0.1
140
0.24
141
0.0
142
0.0
143
25.399999999999999
144
1.0
145
0.0
146
0.71
147
0.06
 71
     0
 72
     0
 73
     1
 74
     1
 75
     0
 76
     0
 77
     0
 78
     7
170
     0
171
     2
172
     0
173
     0
174
     0
175
     0
176
   256
177
   256
178
     2
  0
DIMSTYLE
  2
AM_ANSI$SF
 70
     0
  3

  4
mm
  5

  6

  7

 40
1.0
 41
0.1
 42
0.05
 43
0.5
 44
0.1
 45
0.0
 46
0.0
 47
0.1
 48
0.1
140
0.12
141
0.0
142
0.0
143
25.399999999999999
144
1.0
145
0.0
146
0.71
147
0.06
 71
     0
 72
     0
 73
     1
 74
     1
 75
     1
 76
     1
 77
     0
 78
     7
170
     0
171
     2
172
     0
173
     0
174
     0
175
     0
176
   256
177
   256
178
     2
  0
DIMSTYLE
  2
AM_ANSI$SH
 70
     0
  3

  4
mm
  5

  6

  7

 40
1.0
 41
0.1
 42
0.05
 43
0.5
 44
0.1
 45
0.0
 46
0.0
 47
0.1
 48
0.1
140
0.12
141
0.0
142
0.0
143
25.399999999999999
144
1.0
145
0.0
146
0.71
147
0.06
 71
     0
 72
     0
 73
     1
 74
     1
 75
     1
 76
     1
 77
     0
 78
     7
170
     0
171
     2
172
     0
173
     1
174
     0
175
     0
176
   256
177
   256
178
     2
  0
ENDTAB
  0
ENDSEC
  0
SECTION
  2
BLOCKS
  0
BLOCK
  8
0
  2
$MODEL_SPACE
 70
     0
 10
0.0
 20
0.0
 30
0.0
  3
$MODEL_SPACE
  1

  0
ENDBLK
  5
3315
  8
0
  0
BLOCK
 67
     1
  8
0
  2
$PAPER_SPACE
 70
     0
 10
0.0
 20
0.0
 30
0.0
  3
$PAPER_SPACE
  1

  0
ENDBLK
  5
3311
 67
     1
  8
0
  0
BLOCK
  8
0
  2
GENAXEH
 70
     0
 10
0.0
 20
0.0
 30
0.0
  3
GENAXEH
  1

  0
LINE
  5
3078
  8
0
 10
-1.0
 20
0.0
 30
0.0
 11
1.0
 21
0.0
 31
0.0
  0
ENDBLK
  5
3079
  8
0
  0
BLOCK
  8
0
  2
_OPEN30
 70
     0
 10
0.0
 20
0.0
 30
0.0
  3
_OPEN30
  1

  0
LINE
  5
307C
  8
0
 62
     0
 10
-1.0
 20
0.26794919
 30
0.0
 11
0.0
 21
0.0
 31
0.0
  0
LINE
  5
307D
  8
0
 62
     0
 10
0.0
 20
0.0
 30
0.0
 11
-1.0
 21
-0.26794919
 31
0.0
  0
LINE
  5
307E
  8
0
 62
     0
 10
0.0
 20
0.0
 30
0.0
 11
-1.0
 21
0.0
 31
0.0
  0
ENDBLK
  5
307F
  8
0
  0
BLOCK
  8
0
  2
_NONE
 70
     0
 10
0.0
 20
0.0
 30
0.0
  3
_NONE
  1

  0
ENDBLK
  5
3082
  8
0
  0
BLOCK
  8
0
  2
_ACMFILLEDHALF
 70
     0
 10
0.0
 20
0.0
 30
0.0
  3
_ACMFILLEDHALF
  1

  0
TRACE
  5
340D
  8
AM_0
 62
     0
 10
-0.8
 20
0.0
 30
0.0
 11
-1.0
 21
0.166666666
 31
0.0
 12
0.0
 22
0.0
 32
0.0
 13
0.0
 23
0.0
 33
0.0
  0
LINE
  5
340E
  8
AM_0
 62
     0
 10
-1.0
 20
0.0
 30
0.0
 11
-0.8
 21
0.0
 31
0.0
  0
ENDBLK
  5
340C
  8
0
  0
ENDSEC
  0
SECTION
  2
ENTITIES
  0
LINE
  5
3083
  8
AM_0
 10
413.70135161717519
 20
583.33103393969202
 30
0.0
 11
458.70135161717542
 21
583.33103393969202
 31
0.0
  0
LINE
  5
3084
  8
AM_0
 10
413.70135161717519
 20
593.33097393969194
 30
0.0
 11
458.70135161717542
 21
593.33097393969194
 31
0.0
  0
LINE
  5
3085
  8
AM_0
 10
458.70135161717542
 20
572.33103393969202
 30
0.0
 11
400.70138161717517
 21
572.33103393969202
 31
0.0
  0
LINE
  5
3086
  8
AM_0
 10
458.70135161717542
 20
604.33097393969194
 30
0.0
 11
400.70138161717517
 21
604.33097393969194
 31
0.0
  0
LINE
  5
3087
  8
ﾁｭｳｼﾝｾﾝ
 10
112.9598760966937
 20
588.33097393969194
 30
0.0
 11
466.61419161717538
 21
588.33097393969194
 31
0.0
  0
LINE
  5
3088
  8
AM_0
 10
153.20132161717561
 20
556.391063939692
 30
0.0
 11
189.29373161717541
 21
556.391063939692
 31
0.0
  0
LINE
  5
3089
  8
AM_0
 10
153.20132161717561
 20
620.27091393969181
 30
0.0
 11
189.29373161717541
 21
620.27091393969181
 31
0.0
  0
LINE
  5
308A
  8
AM_0
 10
153.20132161717561
 20
542.33100393969198
 30
0.0
 11
194.54409161717541
 21
542.33100393969198
 31
0.0
  0
LINE
  5
308B
  8
AM_0
 10
153.20138161717551
 20
644.83097393969194
 30
0.0
 11
205.63272161717541
 21
646.66196393969187
 31
0.0
  0
LINE
  5
308C
  8
AM_0
 10
205.63272161717541
 20
530.00007393969202
 30
0.0
 11
153.20138161717551
 21
531.83100393969175
 31
0.0
  0
LINE
  5
308D
  8
AM_0
 10
153.20132161717561
 20
634.33103393969202
 30
0.0
 11
194.54409161717541
 21
634.33103393969202
 31
0.0
  0
LINE
  5
308E
  8
AM_0
 10
153.20132161717561
 20
531.83100393969175
 30
0.0
 11
153.20132161717561
 21
644.83097393969194
 31
0.0
  0
ARC
  5
308F
  8
AM_0
 10
413.70135161717519
 20
588.33097393969194
 30
0.0
 40
4.9999924
 50
90.000003000000945
 51
270.0
  0
LINE
  5
3090
  8
AM_0
 10
213.50406161717541
 20
577.56253393969212
 30
0.0
 11
213.50406161717541
 21
599.56302393969202
 31
0.0
  0
LINE
  5
3091
  8
AM_0
 10
176.20132161717561
 20
578.33100393969175
 30
0.0
 11
176.20132161717561
 21
598.33097393969194
 31
0.0
  0
LINE
  5
3092
  8
AM_0
 10
217.20132161717561
 20
519.04294393969201
 30
0.0
 11
217.20132161717561
 21
657.61899393969156
 31
0.0
  0
LINE
  5
3093
  8
AM_0
 10
283.70132161717561
 20
488.83100393969198
 30
0.0
 11
283.70132161717561
 21
687.83097393969194
 31
0.0
  0
LINE
  5
3094
  8
AM_0
 10
389.70138161717551
 20
527.22763393969205
 30
0.0
 11
389.70138161717551
 21
649.43436393969182
 31
0.0
  0
LINE
  5
3095
  8
AM_0
 10
261.70132161717561
 20
497.40989393969193
 30
0.0
 11
261.70132161717561
 21
679.25211393969221
 31
0.0
  0
LINE
  5
3096
  8
AM_0
 10
227.20138161717551
 20
514.83100393969187
 30
0.0
 11
227.20138161717551
 21
661.83097393969194
 31
0.0
  0
LINE
  5
3097
  8
AM_0
 10
273.70132161717561
 20
523.25879393969205
 30
0.0
 11
273.70132161717561
 21
653.40323393969209
 31
0.0
  0
LINE
  5
3098
  8
AM_0
 10
396.70135161717542
 20
561.06308393969209
 30
0.0
 11
396.70135161717542
 21
588.33097393969194
 31
0.0
  0
LINE
  5
3099
  8
AM_0
 10
400.70138161717517
 20
570.83103393969202
 30
0.0
 11
400.70138161717517
 21
605.83103393969179
 31
0.0
  0
LINE
  5
309A
  8
AM_0
 10
413.70138161717551
 20
583.33103393969202
 30
0.0
 11
413.70138161717551
 21
593.33097393969194
 31
0.0
  0
LINE
  5
309B
  8
AM_0
 10
368.70138161717551
 20
519.12424393969195
 30
0.0
 11
368.70138161717551
 21
657.5377539396917
 31
0.0
  0
POLYLINE
  5
309C
  8
AM_0
 66
     1
 10
0.0
 20
0.0
 30
0.0
  0
VERTEX
  5
309D
  8
AM_0
 10
283.70132161717561
 20
558.05457393969186
 30
0.0
 42
-0.070055462
  0
VERTEX
  5
309E
  8
AM_0
 10
310.06199161717541
 20
537.85723393969204
 30
0.0
 42
-0.27110597
  0
VERTEX
  5
309F
  8
AM_0
 10
318.70135161717542
 20
517.97388393969186
 30
0.0
 42
-0.2130317
  0
VERTEX
  5
30A0
  8
AM_0
 10
299.11089161717558
 20
499.83907393969167
 30
0.0
  0
VERTEX
  5
30A1
  8
AM_0
 10
283.70132161717561
 20
493.54081393969187
 30
0.0
 42
-1.0
  0
SEQEND
  5
30A2
  8
AM_0
  0
POLYLINE
  5
30A3
  8
AM_0
 66
     1
 10
0.0
 20
0.0
 30
0.0
  0
VERTEX
  5
30A4
  8
AM_0
 10
283.70132161717561
 20
510.91422393969191
 30
0.0
 42
0.040442845
  0
VERTEX
  5
30A5
  8
AM_0
 10
295.22951161717521
 20
511.13756393969197
 30
0.0
 42
0.04246989
  0
VERTEX
  5
30A6
  8
AM_0
 10
306.56322161717549
 20
513.25104393969195
 30
0.0
 42
0.022672802
  0
VERTEX
  5
30A7
  8
AM_0
 10
312.04772161717551
 20
515.04199393969202
 30
0.0
  0
VERTEX
  5
30A8
  8
AM_0
 10
317.3533316171754
 20
517.31085393969204
 30
0.0
 42
-1.0
  0
SEQEND
  5
30A9
  8
AM_0
  0
LINE
  5
30AA
  8
AM_0
 10
239.3526916171754
 20
477.73594393969199
 30
0.0
 11
289.70135161717548
 21
473.33100393969181
 31
0.0
  0
CIRCLE
  5
30AB
  8
AM_0
 10
253.70132161717561
 20
493.33100393969198
 30
0.0
 40
7.5
  0
LINE
  5
30AC
  8
AM_0
 10
287.70132161717561
 20
488.83100393969198
 30
0.0
 11
287.70132161717561
 21
478.962503939692
 31
0.0
  0
LINE
  5
30AD
  8
AM_0
 10
235.70132161717561
 20
505.79245393969182
 30
0.0
 11
235.70132161717561
 21
481.72071393969202
 31
0.0
  0
ARC
  5
30AE
  8
AM_0
 10
239.70132161717561
 20
481.72071393969202
 30
0.0
 40
4.0
 50
180.00001000000091
 51
265.00001000000032
  0
ARC
  5
30AF
  8
AM_0
 10
274.70132161717549
 20
477.65479393969201
 30
0.0
 40
3.0
 50
85.000004000000885
 51
265.0
  0
ARC
  5
30B0
  8
AM_0
 10
282.70132161717561
 20
478.962503939692
 30
0.0
 40
5.0
 50
265.00001000000032
 51
0.0000006832495047
  0
LINE
  5
30B1
  8
AM_0
 10
274.9628016171755
 20
480.64338393969189
 30
0.0
 11
283.3527516171755
 21
479.90934393969189
 31
0.0
  0
ARC
  5
30B2
  8
AM_0
 10
283.70132161717561
 20
483.89414393969179
 30
0.0
 40
4.0
 50
265.00001000000032
 51
0.0000006832495047
  0
LINE
  5
30B3
  8
AM_0
 10
217.20132161717561
 20
526.75235393969194
 30
0.0
 11
261.70132161717561
 21
526.75235393969194
 31
0.0
  0
LINE
  5
30B4
  8
AM_0
 10
217.20132161717561
 20
548.85633393969204
 30
0.0
 11
261.70132161717561
 21
548.85633393969204
 31
0.0
  0
LINE
  5
30B5
  8
AM_0
 10
221.0617916171754
 20
515.04541393969203
 30
0.0
 11
259.27121161717548
 21
513.71109393969198
 31
0.0
  0
POLYLINE
  5
30B6
  8
AM_0
 66
     1
 10
0.0
 20
0.0
 30
0.0
  0
VERTEX
  5
30B7
  8
AM_0
 10
196.32112161717549
 20
542.91288393969205
 30
0.0
 42
0.011693535
  0
VERTEX
  5
30B8
  8
AM_0
 10
199.8840016171753
 20
538.41651393969198
 30
0.0
 42
0.011216789
  0
VERTEX
  5
30B9
  8
AM_0
 10
203.64888161717539
 20
534.08775393969188
 30
0.0
 42
0.011000239
  0
VERTEX
  5
30BA
  8
AM_0
 10
207.60098161717551
 20
529.93131393969202
 30
0.0
  0
SEQEND
  5
30BB
  8
AM_0
  0
LINE
  5
30BC
  8
AM_0
 10
215.77438161717549
 20
521.75797393969185
 30
0.0
 11
208.9937416171756
 21
528.53864393969195
 31
0.0
  0
ARC
  5
30BD
  8
AM_0
 10
205.45816161717551
 20
525.00309393969201
 30
0.0
 40
5.0
 50
44.999998000001611
 51
87.999999999999503
  0
ARC
  5
30BE
  8
AM_0
 10
221.20132161717561
 20
519.04294393969201
 30
0.0
 40
4.0
 50
180.00001000000091
 51
267.99999999999932
  0
ARC
  5
30BF
  8
AM_0
 10
212.2388016171754
 20
518.22245393969195
 30
0.0
 40
5.0
 50
5.2307202000000732
 51
44.999998000001611
  0
POLYLINE
  5
30C0
  8
AM_0
 66
     1
 10
0.0
 20
0.0
 30
0.0
  0
VERTEX
  5
30C1
  8
AM_0
 10
191.8794016171754
 20
554.91221393969204
 30
0.0
 42
0.0058779451
  0
VERTEX
  5
30C2
  8
AM_0
 10
193.0890216171756
 20
552.91063393969205
 30
0.0
 42
0.0056588807
  0
VERTEX
  5
30C3
  8
AM_0
 10
194.34449161717549
 20
550.93748393969202
 30
0.0
 42
0.0054619285
  0
VERTEX
  5
30C4
  8
AM_0
 10
195.64353161717551
 20
548.99273393969202
 30
0.0
 42
0.0052861386
  0
VERTEX
  5
30C5
  8
AM_0
 10
196.9840616171754
 20
547.07633393969206
 30
0.0
  0
SEQEND
  5
30C6
  8
AM_0
  0
ARC
  5
30C7
  8
AM_0
 10
194.54409161717541
 20
545.33100393969175
 30
0.0
 40
3.0
 50
270.0
 51
35.575756999999612
  0
LINE
  5
30C8
  8
AM_0
 10
179.20132161717561
 20
575.33100393969198
 30
0.0
 11
210.50406161717541
 21
575.33100393969198
 31
0.0
  0
POLYLINE
  5
30C9
  8
AM_0
 66
     1
 10
0.0
 20
0.0
 30
0.0
  0
VERTEX
  5
30CA
  8
AM_0
 10
180.1709316171754
 20
575.33124393969194
 30
0.0
  0
VERTEX
  5
30CB
  8
AM_0
 10
187.5981916171753
 20
556.39184393969185
 30
0.0
 42
-1.0
  0
SEQEND
  5
30CC
  8
AM_0
  0
ARC
  5
30CD
  8
AM_0
 10
189.29373161717541
 20
553.39106393969189
 30
0.0
 40
3.0
 50
30.468076999999081
 51
90.000003000000945
  0
ARC
  5
30CE
  8
AM_0
 10
179.20132161717561
 20
578.33100393969175
 30
0.0
 40
3.0
 50
180.00001000000091
 51
270.0
  0
ARC
  5
30CF
  8
AM_0
 10
210.50406161717541
 20
572.33100393969198
 30
0.0
 40
3.0
 50
0.0
 51
90.000003000000945
  0
LINE
  5
30D0
  8
AM_0
 10
238.66610161717551
 20
509.65613393969193
 30
0.0
 11
254.4302616171754
 21
513.88013393969186
 31
0.0
  0
ARC
  5
30D1
  8
AM_0
 10
239.70132161717561
 20
505.79245393969182
 30
0.0
 40
4.0
 50
105.0000000000007
 51
180.00001000000091
  0
ARC
  5
30D2
  8
AM_0
 10
258.70132161717561
 20
510.729163939692
 30
0.0
 40
3.0
 50
0.0
 51
87.999999999999503
  0
ARC
  5
30D3
  8
AM_0
 10
270.70132161717549
 20
502.44098393969199
 30
0.0
 40
3.0
 50
0.0
 51
90.000003000000945
  0
ARC
  5
30D4
  8
AM_0
 10
276.70132161717549
 20
492.07727393969202
 30
0.0
 40
3.0
 50
180.00001000000091
 51
267.99999999999932
  0
ARC
  5
30D5
  8
AM_0
 10
270.73855161717552
 20
491.40989393969198
 30
0.0
 40
3.0
 50
6.3862994000025628
 51
90.000003000000945
  0
LINE
  5
30D6
  8
AM_0
 10
283.70132161717561
 20
510.91422393969191
 30
0.0
 11
261.70132161717561
 21
510.91422393969191
 31
0.0
  0
LINE
  5
30D7
  8
AM_0
 10
264.70132161717561
 20
494.40989393969193
 30
0.0
 11
270.73855161717552
 21
494.40989393969193
 31
0.0
  0
ARC
  5
30D8
  8
AM_0
 10
264.70132161717561
 20
497.40989393969193
 30
0.0
 40
3.0
 50
180.00001000000091
 51
270.0
  0
LINE
  5
30D9
  8
AM_0
 10
264.70132161717561
 20
505.44098393969188
 30
0.0
 11
270.70132161717549
 21
505.44098393969188
 31
0.0
  0
ARC
  5
30DA
  8
AM_0
 10
264.70132161717561
 20
508.44098393969188
 30
0.0
 40
3.0
 50
180.00001000000091
 51
270.0
  0
LINE
  5
30DB
  8
AM_0
 10
273.70132161717561
 20
492.07727393969202
 30
0.0
 11
273.70132161717561
 21
502.44098393969199
 31
0.0
  0
LINE
  5
30DC
  8
AM_0
 10
276.59665161717538
 20
489.07911393969192
 30
0.0
 11
283.70132161717561
 21
488.83103393969202
 31
0.0
  0
LINE
  5
30DD
  8
AM_0
 10
283.70132161717561
 20
493.54081393969187
 30
0.0
 11
273.70132161717561
 21
493.54081393969187
 31
0.0
  0
LINE
  5
30DE
  8
AM_0
 10
283.70132161717561
 20
488.83100393969198
 30
0.0
 11
287.70132161717561
 21
488.83100393969198
 31
0.0
  0
ARC
  5
30DF
  8
AM_0
 10
270.70132161717549
 20
523.25879393969205
 30
0.0
 40
3.0
 50
269.999989999999
 51
0.0000006832495047
  0
LINE
  5
30E0
  8
AM_0
 10
261.70132161717561
 20
531.01343393969205
 30
0.0
 11
273.70132161717561
 21
531.01343393969205
 31
0.0
  0
LINE
  5
30E1
  8
AM_0
 10
261.70132161717561
 20
520.25879393969205
 30
0.0
 11
270.70132161717549
 21
520.25879393969205
 31
0.0
  0
LINE
  5
30E2
  8
AM_0
 10
283.70132161717561
 20
558.05457393969186
 30
0.0
 11
273.70132161717561
 21
558.05457393969186
 31
0.0
  0
CIRCLE
  5
30E3
  8
AM_0
 10
378.70138161717551
 20
493.33100393969198
 30
0.0
 40
7.5
  0
LINE
  5
30E4
  8
AM_0
 10
348.70135161717548
 20
483.67557393969179
 30
0.0
 11
348.70135161717548
 21
499.11741393969203
 31
0.0
  0
LINE
  5
30E5
  8
AM_0
 10
396.70138161717551
 20
519.33100393969175
 30
0.0
 11
396.70138161717551
 21
480.93027393969197
 31
0.0
  0
ARC
  5
30E6
  8
AM_0
 10
356.70135161717548
 20
483.67557393969179
 30
0.0
 40
8.0
 50
180.00001000000091
 51
271.99999000000139
  0
LINE
  5
30E7
  8
AM_0
 10
289.70135161717548
 20
473.33100393969181
 30
0.0
 11
392.84097161717551
 21
476.93271393969201
 31
0.0
  0
ARC
  5
30E8
  8
AM_0
 10
392.70138161717551
 20
480.93027393969197
 30
0.0
 40
4.0
 50
272.0000000000004
 51
0.0
  0
ARC
  5
30E9
  8
AM_0
 10
360.70135161717542
 20
499.11741393969203
 30
0.0
 40
12.0
 50
91.500001000001546
 51
180.00001000000091
  0
LINE
  5
30EA
  8
AM_0
 10
385.80609161717553
 20
523.22901393969187
 30
0.0
 11
375.9442116171752
 21
522.97077393969198
 31
0.0
  0
ARC
  5
30EB
  8
AM_0
 10
360.70138161717551
 20
519.12424393969195
 30
0.0
 40
8.0
 50
271.4999999999992
 51
0.0
  0
LINE
  5
30EC
  8
AM_0
 10
360.91079161717551
 20
511.12699393969189
 30
0.0
 11
360.38723161717542
 21
511.1132939396918
 31
0.0
  0
ARC
  5
30ED
  8
AM_0
 10
376.15359161717538
 20
514.97348393969185
 30
0.0
 40
8.0
 50
91.500001000001546
 51
164.96420000000299
  0
ARC
  5
30EE
  8
AM_0
 10
385.70138161717551
 20
527.22763393969205
 30
0.0
 40
4.0
 50
271.4999999999992
 51
0.0
  0
ARC
  5
30EF
  8
AM_0
 10
392.70138161717551
 20
519.33100393969175
 30
0.0
 40
4.0
 50
0.0
 51
82.819247000000175
  0
ARC
  5
30F0
  8
AM_0
 10
393.70138161717551
 20
527.26825393969204
 30
0.0
 40
4.0
 50
180.00001000000091
 51
262.8192499999995
  0
ARC
  5
30F1
  8
AM_0
 10
393.70135161717542
 20
561.06308393969209
 30
0.0
 40
3.0
 50
300.00001000000083
 51
0.0
  0
ARC
  5
30F2
  8
AM_0
 10
392.70138161717551
 20
553.55753393969201
 30
0.0
 40
3.0
 50
120.0000000000005
 51
180.00001000000091
  0
LINE
  5
30F3
  8
AM_0
 10
391.20132161717538
 20
556.15561393969199
 30
0.0
 11
395.20132161717538
 21
558.46503393969203
 31
0.0
  0
LINE
  5
30F4
  8
AM_0
 10
400.70138161717517
 20
570.83103393969202
 30
0.0
 11
396.70135161717542
 21
570.83103393969202
 31
0.0
  0
POLYLINE
  5
30F5
  8
AM_0
 66
     1
 10
0.0
 20
0.0
 30
0.0
  0
VERTEX
  5
30F6
  8
AM_0
 10
283.70132161717561
 20
618.6074639396918
 30
0.0
 42
0.070055443
  0
VERTEX
  5
30F7
  8
AM_0
 10
310.06199161717541
 20
638.80480393969185
 30
0.0
 42
0.27110593
  0
VERTEX
  5
30F8
  8
AM_0
 10
318.70135161717542
 20
658.68814393969205
 30
0.0
 42
0.21303199
  0
VERTEX
  5
30F9
  8
AM_0
 10
299.11089161717558
 20
676.82293393969201
 30
0.0
  0
VERTEX
  5
30FA
  8
AM_0
 10
283.70132161717561
 20
683.12119393969203
 30
0.0
 42
-1.0
  0
SEQEND
  5
30FB
  8
AM_0
  0
POLYLINE
  5
30FC
  8
AM_0
 66
     1
 10
0.0
 20
0.0
 30
0.0
  0
VERTEX
  5
30FD
  8
AM_0
 10
283.70132161717561
 20
665.747783939692
 30
0.0
 42
-0.040442832
  0
VERTEX
  5
30FE
  8
AM_0
 10
295.2295016171754
 20
665.52443393969213
 30
0.0
 42
-0.042469875
  0
VERTEX
  5
30FF
  8
AM_0
 10
306.56322161717549
 20
663.41095393969158
 30
0.0
 42
-0.022671837
  0
VERTEX
  5
3100
  8
AM_0
 10
312.04771161717548
 20
661.62001393969194
 30
0.0
  0
VERTEX
  5
3101
  8
AM_0
 10
317.3533316171754
 20
659.35118393969219
 30
0.0
 42
-1.0
  0
SEQEND
  5
3102
  8
AM_0
  0
LINE
  5
3103
  8
AM_0
 10
239.3527516171753
 20
698.92606393969197
 30
0.0
 11
289.70138161717529
 21
703.33097393969194
 31
0.0
  0
ARC
  5
3104
  8
AM_0
 10
270.73855161717552
 20
685.25211393969198
 30
0.0
 40
3.0
 50
269.999989999999
 51
353.61369000000428
  0
CIRCLE
  5
3105
  8
AM_0
 10
253.70132161717561
 20
683.33097393969194
 30
0.0
 40
7.5
  0
LINE
  5
3106
  8
AM_0
 10
273.70132161717561
 20
684.58475393969195
 30
0.0
 11
273.70132161717561
 21
674.22104393969175
 31
0.0
  0
LINE
  5
3107
  8
AM_0
 10
235.70132161717561
 20
670.86954393969211
 30
0.0
 11
235.70132161717561
 21
694.94126393969191
 31
0.0
  0
LINE
  5
3108
  8
AM_0
 10
217.20132161717561
 20
649.90964393969216
 30
0.0
 11
261.70132161717561
 21
649.90964393969216
 31
0.0
  0
LINE
  5
3109
  8
AM_0
 10
217.20132161717561
 20
627.80570393969185
 30
0.0
 11
261.70132161717561
 21
627.80570393969185
 31
0.0
  0
LINE
  5
310A
  8
AM_0
 10
221.0617916171754
 20
661.6165539396917
 30
0.0
 11
258.80606161717532
 21
662.93460393969201
 31
0.0
  0
POLYLINE
  5
310B
  8
AM_0
 66
     1
 10
0.0
 20
0.0
 30
0.0
  0
VERTEX
  5
310C
  8
AM_0
 10
196.32112161717549
 20
633.74911393969205
 30
0.0
 42
-0.011693563
  0
VERTEX
  5
310D
  8
AM_0
 10
199.8840016171753
 20
638.24548393969201
 30
0.0
 42
-0.011216838
  0
VERTEX
  5
310E
  8
AM_0
 10
203.64888161717539
 20
642.57424393969211
 30
0.0
 42
-0.011000316
  0
VERTEX
  5
310F
  8
AM_0
 10
207.60098161717551
 20
646.73069393969195
 30
0.0
  0
SEQEND
  5
3110
  8
AM_0
  0
ARC
  5
3111
  8
AM_0
 10
194.54409161717541
 20
631.33103393969202
 30
0.0
 40
3.0
 50
324.42424000000028
 51
90.000003000000945
  0
POLYLINE
  5
3112
  8
AM_0
 66
     1
 10
0.0
 20
0.0
 30
0.0
  0
VERTEX
  5
3113
  8
AM_0
 10
191.8794016171754
 20
621.74976393969212
 30
0.0
 42
-0.0058779419
  0
VERTEX
  5
3114
  8
AM_0
 10
193.0890216171756
 20
623.75134393969199
 30
0.0
 42
-0.0056588802
  0
VERTEX
  5
3115
  8
AM_0
 10
194.34449161717549
 20
625.724503939692
 30
0.0
 42
-0.0054619308
  0
VERTEX
  5
3116
  8
AM_0
 10
195.64353161717551
 20
627.66925393969166
 30
0.0
 42
-0.0052861438
  0
VERTEX
  5
3117
  8
AM_0
 10
196.9840616171754
 20
629.58565393969195
 30
0.0
  0
SEQEND
  5
3118
  8
AM_0
  0
LINE
  5
3119
  8
AM_0
 10
179.20132161717561
 20
601.33097393969206
 30
0.0
 11
210.50406161717541
 21
601.33097393969206
 31
0.0
  0
POLYLINE
  5
311A
  8
AM_0
 66
     1
 10
0.0
 20
0.0
 30
0.0
  0
VERTEX
  5
311B
  8
AM_0
 10
180.1709316171754
 20
601.33070393969194
 30
0.0
  0
VERTEX
  5
311C
  8
AM_0
 10
187.5981916171753
 20
620.27013393969185
 30
0.0
 42
-1.0
  0
SEQEND
  5
311D
  8
AM_0
  0
ARC
  5
311E
  8
AM_0
 10
179.20132161717561
 20
598.33097393969194
 30
0.0
 40
3.0
 50
90.000003000000945
 51
180.00001000000091
  0
ARC
  5
311F
  8
AM_0
 10
189.29373161717541
 20
623.2709139396917
 30
0.0
 40
3.0
 50
270.0
 51
329.53192000000121
  0
ARC
  5
3120
  8
AM_0
 10
210.50406161717541
 20
604.33097393969194
 30
0.0
 40
3.0
 50
270.0
 51
0.0
  0
ARC
  5
3121
  8
AM_0
 10
221.20132161717561
 20
657.61899393969156
 30
0.0
 40
4.0
 50
91.999998000000545
 51
180.00001000000091
  0
LINE
  5
3122
  8
AM_0
 10
208.99368161717541
 20
648.12339393969205
 30
0.0
 11
215.77438161717549
 21
654.904033939692
 31
0.0
  0
ARC
  5
3123
  8
AM_0
 10
205.45816161717551
 20
651.65891393969196
 30
0.0
 40
5.0
 50
272.0000000000004
 51
315.0
  0
ARC
  5
3124
  8
AM_0
 10
212.2388016171754
 20
658.43955393969202
 30
0.0
 40
5.0
 50
315.0
 51
354.76905999999741
  0
LINE
  5
3125
  8
AM_0
 10
283.70132161717561
 20
618.6074639396918
 30
0.0
 11
273.70132161717561
 21
618.6074639396918
 31
0.0
  0
LINE
  5
3126
  8
AM_0
 10
238.66610161717551
 20
667.00583393969202
 30
0.0
 11
254.43039161717539
 21
662.78183393969186
 31
0.0
  0
ARC
  5
3127
  8
AM_0
 10
239.70132161717561
 20
670.86954393969211
 30
0.0
 40
4.0
 50
180.00001000000091
 51
254.99999000000159
  0
ARC
  5
3128
  8
AM_0
 10
270.70132161717549
 20
653.40323393969209
 30
0.0
 40
3.0
 50
0.0
 51
90.000003000000945
  0
LINE
  5
3129
  8
AM_0
 10
261.70132161717561
 20
645.64859393969198
 30
0.0
 11
273.70132161717561
 21
645.64859393969198
 31
0.0
  0
LINE
  5
312A
  8
AM_0
 10
261.70132161717561
 20
656.4032339396922
 30
0.0
 11
270.70132161717549
 21
656.4032339396922
 31
0.0
  0
ARC
  5
312B
  8
AM_0
 10
270.70132161717549
 20
674.22104393969175
 30
0.0
 40
3.0
 50
269.999989999999
 51
0.0000006832495047
  0
LINE
  5
312C
  8
AM_0
 10
283.70132161717561
 20
665.747783939692
 30
0.0
 11
261.70132161717561
 21
665.747783939692
 31
0.0
  0
ARC
  5
312D
  8
AM_0
 10
264.70132161717561
 20
668.22104393969209
 30
0.0
 40
3.0
 50
90.000003000000945
 51
180.00001000000091
  0
LINE
  5
312E
  8
AM_0
 10
264.70132161717561
 20
671.22104393969221
 30
0.0
 11
270.70132161717549
 21
671.22104393969221
 31
0.0
  0
ARC
  5
312F
  8
AM_0
 10
258.70132161717561
 20
665.93283393969182
 30
0.0
 40
3.0
 50
272.0000000000004
 51
0.0
  0
LINE
  5
3130
  8
AM_0
 10
264.70132161717561
 20
682.25211393969175
 30
0.0
 11
270.73855161717552
 21
682.25211393969175
 31
0.0
  0
ARC
  5
3131
  8
AM_0
 10
264.70132161717561
 20
679.25211393969221
 30
0.0
 40
3.0
 50
90.000003000000945
 51
180.00001000000091
  0
LINE
  5
3132
  8
AM_0
 10
283.70132161717561
 20
683.12119393969203
 30
0.0
 11
273.70132161717561
 21
683.12119393969203
 31
0.0
  0
ARC
  5
3133
  8
AM_0
 10
239.70132161717561
 20
694.94126393969191
 30
0.0
 40
4.0
 50
95.00000199999856
 51
180.00001000000091
  0
ARC
  5
3134
  8
AM_0
 10
276.70132161717549
 20
684.58475393969195
 30
0.0
 40
3.0
 50
91.999998000000545
 51
180.00001000000091
  0
ARC
  5
3135
  8
AM_0
 10
274.70132161717549
 20
699.0072439396921
 30
0.0
 40
3.0
 50
95.00000199999856
 51
275.0
  0
ARC
  5
3136
  8
AM_0
 10
283.70132161717561
 20
692.76786393969212
 30
0.0
 40
4.0
 50
0.0
 51
95.00000199999856
  0
LINE
  5
3137
  8
AM_0
 10
287.70132161717561
 20
687.83097393969194
 30
0.0
 11
287.70132161717561
 21
697.69950393969191
 31
0.0
  0
LINE
  5
3138
  8
AM_0
 10
274.96286161717541
 20
696.0185939396921
 30
0.0
 11
283.3527516171755
 21
696.75260393969177
 31
0.0
  0
LINE
  5
3139
  8
AM_0
 10
276.59665161717538
 20
687.58292393969191
 30
0.0
 11
283.70132161717561
 21
687.83103393969191
 31
0.0
  0
LINE
  5
313A
  8
AM_0
 10
283.70132161717561
 20
687.83097393969194
 30
0.0
 11
287.70132161717561
 21
687.83097393969194
 31
0.0
  0
ARC
  5
313B
  8
AM_0
 10
282.70132161717561
 20
697.69950393969191
 30
0.0
 40
5.0
 50
0.0
 51
95.00000199999856
  0
CIRCLE
  5
313C
  8
AM_0
 10
378.70138161717551
 20
683.33097393969194
 30
0.0
 40
7.5
  0
LINE
  5
313D
  8
AM_0
 10
348.70135161717548
 20
677.54459393969205
 30
0.0
 11
348.70135161717548
 21
692.98642393969192
 31
0.0
  0
LINE
  5
313E
  8
AM_0
 10
396.70138161717551
 20
657.33097393969194
 30
0.0
 11
396.70138161717551
 21
695.73172393969185
 31
0.0
  0
LINE
  5
313F
  8
ﾁｭｳｼﾝｾﾝ1
 10
378.70138161717551
 20
669.83097393969194
 30
0.0
 11
378.70138161717551
 21
696.83097393969194
 31
0.0
  0
ARC
  5
3140
  8
AM_0
 10
360.70135161717542
 20
677.54459393969205
 30
0.0
 40
12.0
 50
180.00001000000091
 51
268.50000000000063
  0
LINE
  5
3141
  8
AM_0
 10
396.70135161717542
 20
588.33097393969194
 30
0.0
 11
396.70135161717542
 21
615.59897393969175
 31
0.0
  0
LINE
  5
3142
  8
AM_0
 10
400.70138161717517
 20
605.83103393969179
 30
0.0
 11
396.70135161717542
 21
605.83103393969179
 31
0.0
  0
ARC
  5
3143
  8
AM_0
 10
392.70138161717551
 20
623.10453393969203
 30
0.0
 40
3.0
 50
179.9999899999988
 51
240.00000999999969
  0
ARC
  5
3144
  8
AM_0
 10
393.70135161717542
 20
615.59897393969175
 30
0.0
 40
3.0
 50
0.0
 51
60.000002000001302
  0
LINE
  5
3145
  8
AM_0
 10
391.20138161717551
 20
620.50644393969185
 30
0.0
 11
395.20135161717542
 21
618.19706393969182
 31
0.0
  0
LINE
  5
3146
  8
ﾁｭｳｼﾝｾﾝ1
 10
365.20138161717551
 20
683.33097393969194
 30
0.0
 11
392.20138161717551
 21
683.33097393969194
 31
0.0
  0
LINE
  5
3147
  8
AM_0
 10
385.80606161717537
 20
653.43302393969179
 30
0.0
 11
375.94418161717522
 21
653.69126393969202
 31
0.0
  0
ARC
  5
3148
  8
AM_0
 10
360.70138161717551
 20
657.5377539396917
 30
0.0
 40
8.0
 50
0.0
 51
88.499997000000647
  0
ARC
  5
3149
  8
AM_0
 10
376.15359161717538
 20
661.68851393969157
 30
0.0
 40
8.0
 50
195.0357999999969
 51
268.50000000000063
  0
LINE
  5
314A
  8
AM_0
 10
360.91076161717552
 20
665.53501393969202
 30
0.0
 11
360.38723161717542
 21
665.54868393969195
 31
0.0
  0
ARC
  5
314B
  8
AM_0
 10
393.70138161717551
 20
649.39371393969202
 30
0.0
 40
4.0
 50
97.180758000000822
 51
180.00001000000091
  0
ARC
  5
314C
  8
AM_0
 10
385.70138161717551
 20
649.43436393969182
 30
0.0
 40
4.0
 50
0.0
 51
88.499997000000647
  0
ARC
  5
314D
  8
AM_0
 10
392.70138161717551
 20
657.33097393969194
 30
0.0
 40
4.0
 50
277.18075000000027
 51
0.0
  0
ARC
  5
314E
  8
AM_0
 10
356.70135161717548
 20
692.98642393969192
 30
0.0
 40
8.0
 50
87.999999999999503
 51
180.00001000000091
  0
LINE
  5
314F
  8
AM_0
 10
289.70138161717529
 20
703.33103393969191
 30
0.0
 11
392.84097161717551
 21
699.72928393969187
 31
0.0
  0
ARC
  5
3150
  8
AM_0
 10
392.70138161717551
 20
695.73172393969185
 30
0.0
 40
4.0
 50
0.0
 51
87.999999999999503
  0
LINE
  5
3151
  8
AM_0
 10
458.70135161717542
 20
572.33103393969202
 30
0.0
 11
458.70135161717542
 21
604.33097393969194
 31
0.0
  0
LINE
  5
3153
  8
ﾁｭｳｼﾝｾﾝ1
 10
253.70132161717561
 20
669.83097393969194
 30
0.0
 11
253.70132161717561
 21
696.83097393969194
 31
0.0
  0
LINE
  5
3154
  8
ﾁｭｳｼﾝｾﾝ1
 10
240.20132161717561
 20
683.33097393969194
 30
0.0
 11
267.20132161717561
 21
683.33097393969194
 31
0.0
  0
LINE
  5
3155
  8
ﾁｭｳｼﾝｾﾝ1
 10
253.70132161717561
 20
479.83100393969198
 30
0.0
 11
253.70132161717561
 21
506.83100393969181
 31
0.0
  0
LINE
  5
3156
  8
ﾁｭｳｼﾝｾﾝ1
 10
240.20132161717561
 20
493.33100393969198
 30
0.0
 11
267.20132161717561
 21
493.33100393969198
 31
0.0
  0
LINE
  5
3157
  8
ﾁｭｳｼﾝｾﾝ1
 10
378.70138161717551
 20
479.83100393969198
 30
0.0
 11
378.70138161717551
 21
506.83100393969181
 31
0.0
  0
LINE
  5
3158
  8
ﾁｭｳｼﾝｾﾝ1
 10
365.20138161717551
 20
493.33100393969198
 30
0.0
 11
392.20138161717551
 21
493.33100393969198
 31
0.0
  0
LINE
  5
3159
  8
ﾁｭｳｼﾝｾﾝ
 10
245.45197802472899
 20
312.41725039373159
 30
0.0
 11
461.48055161717519
 21
312.41725039373159
 31
0.0
  0
LINE
  5
315A
  8
AM_0
 10
283.70133161717558
 20
383.91730039373181
 30
0.0
 11
360.91077161717561
 21
381.89551039373191
 31
0.0
  0
LINE
  5
315B
  8
AM_0
 10
273.70134161717539
 20
174.4172743937317
 30
0.0
 11
358.70133161717558
 21
174.4172743937317
 31
0.0
  0
LINE
  5
315C
  8
AM_0
 10
192.3528916171754
 20
289.22308039373172
 30
0.0
 11
217.20135161717531
 21
244.8502903937316
 31
0.0
  0
LINE
  5
315D
  8
AM_0
 10
153.2013316171755
 20
199.91727739373169
 30
0.0
 11
153.2013316171755
 21
312.91729039373172
 31
0.0
  0
LINE
  5
315E
  8
AM_0
 10
227.20134161717539
 20
210.41727739373169
 30
0.0
 11
227.20134161717539
 21
358.41730039373192
 31
0.0
  0
LINE
  5
315F
  8
AM_0
 10
217.20135161717531
 20
213.30480439373181
 30
0.0
 11
217.20135161717531
 21
353.98321039373161
 31
0.0
  0
LINE
  5
3160
  8
AM_0
 10
273.70134161717539
 20
222.55790239373169
 30
0.0
 11
273.70134161717539
 21
348.74938039373183
 31
0.0
  0
LINE
  5
3161
  8
AM_0
 10
261.70134161717527
 20
375.44134039373182
 30
0.0
 11
261.70134161717527
 21
193.3938373937317
 31
0.0
  0
LINE
  5
3162
  8
AM_0
 10
287.70135161717542
 20
241.0416973937316
 30
0.0
 11
287.70135161717542
 21
299.06503039373172
 31
0.0
  0
LINE
  5
3163
  8
AM_0
 10
283.70133161717558
 20
383.91730039373181
 30
0.0
 11
283.70133161717558
 21
227.9172913937316
 31
0.0
  0
LINE
  5
3164
  8
0
 10
132.2013316171755
 20
334.41729439373171
 30
0.0
 11
132.2013316171755
 21
178.41729439373171
 31
0.0
1001
GENIUS_GENOREF_13
1005
2DE3
  0
LINE
  5
3165
  8
0
 10
122.2013316171755
 20
176.41729439373171
 30
0.0
 11
122.2013316171755
 21
336.41729439373171
 31
0.0
1001
GENIUS_GENOREF_13
1005
2DE3
  0
LINE
  5
3166
  8
ﾁｭｳｼﾝｾﾝ
 10
265.68550709013277
 20
256.41729439373171
 30
0.0
 11
112.95987609669361
 21
256.41729439373171
 31
0.0
  0
LINE
  5
3167
  8
AM_0
 10
178.20135161717539
 20
239.9217493937316
 30
0.0
 11
217.20135161717531
 21
239.9217493937316
 31
0.0
  0
LINE
  5
3168
  8
AM_0
 10
177.34092161717541
 20
215.79508339373169
 30
0.0
 11
214.48881161717529
 21
214.4978443937317
 31
0.0
  0
LINE
  5
3169
  8
0
 10
122.2013316171755
 20
176.41729439373171
 30
0.0
 11
130.2013316171755
 21
176.41729439373171
 31
0.0
  0
ARC
  5
316A
  8
0
 10
130.2013316171755
 20
178.41729439373171
 30
0.0
 40
2.0
 50
270.0
 51
0.0
1001
GENIUS_GENOBJ-N-FIL_13
1002
{
1000
OWNER
1000
GEN
1002
}
1001
GENIUS_GENODEF_13
1002
{
1000
HIER
1070
     0
1002
}
1002
{
1000
MANEDIT
1070
     0
1002
}
1002
{
1000
NOSEL
1070
     0
1002
}
1002
{
1000
BEHIND
1070
     0
1002
}
1002
{
1000
OTHER
1070
     0
1002
}
1002
{
1000
REACTOR
1002
}
  0
LINE
  5
316B
  8
0
 10
134.13153262377031
 20
199.2513623388289
 30
0.0
 11
153.2013316171755
 21
199.91729439373171
 31
0.0
  0
LINE
  5
316C
  8
AM_0
 10
153.2013316171755
 20
224.47985239373159
 30
0.0
 11
132.2013316171755
 21
224.47985239373159
 31
0.0
  0
LINE
  5
316D
  8
AM_0
 10
153.2013316171755
 20
210.41727739373169
 30
0.0
 11
132.2013316171755
 21
210.41727739373169
 31
0.0
  0
ARC
  5
316E
  8
0
 10
134.20133161717541
 20
197.25258068479079
 30
0.0
 40
2.0
 50
91.999999999997087
 51
180.0
1001
GENIUS_GENOBJ-N-FIL_13
1002
{
1000
OWNER
1000
GEN
1002
}
1001
GENIUS_GENODEF_13
1002
{
1000
HIER
1070
     0
1002
}
1002
{
1000
MANEDIT
1070
     0
1002
}
1002
{
1000
NOSEL
1070
     0
1002
}
1002
{
1000
BEHIND
1070
     0
1002
}
1002
{
1000
OTHER
1070
     0
1002
}
1002
{
1000
REACTOR
1002
}
  0
ARC
  5
316F
  8
AM_0
 10
178.20135161717539
 20
234.92176339373171
 30
0.0
 40
5.0000001000000003
 50
90.00000299999769
 51
180.00001000000091
  0
ARC
  5
3170
  8
AM_0
 10
177.20133161717541
 20
211.7975263937318
 30
0.0
 40
4.000000199999997
 50
88.000000000002899
 51
180.00001000000091
  0
LINE
  5
3171
  8
AM_0
 10
173.20134161717539
 20
234.92176339373171
 30
0.0
 11
173.20134161717539
 21
204.4784653937316
 31
0.0
  0
LINE
  5
3172
  8
AM_0
 10
153.2013316171755
 20
199.91727739373169
 30
0.0
 11
169.34091161717541
 21
200.48089039373181
 31
0.0
  0
LINE
  5
3173
  8
AM_0
 10
153.2013316171755
 20
210.41727739373169
 30
0.0
 11
173.20134161717539
 21
210.41727739373169
 31
0.0
  0
ARC
  5
3174
  8
AM_0
 10
169.20135161717539
 20
204.4784653937316
 30
0.0
 40
4.000000199999997
 50
271.99999999999687
 51
0.0
  0
LINE
  5
3175
  8
AM_0
 10
153.2013316171755
 20
223.6114453937316
 30
0.0
 11
173.20134161717539
 21
223.6114453937316
 31
0.0
  0
POINT
  5
3176
  8
AM_0
 10
153.2013316171755
 20
256.41729439373171
 30
0.0
  0
LINE
  5
3177
  8
ﾁｭｳｼﾝｾﾝ1
 10
253.70133161717561
 20
169.08596239373171
 30
0.0
 11
253.70133161717541
 21
195.4291633937317
 31
0.0
  0
LINE
  5
3178
  8
AM_0
 10
272.59122161717528
 20
193.19815939373149
 30
0.0
 11
287.51109161717562
 21
239.8225513937318
 31
0.0
  0
LINE
  5
3179
  8
AM_0
 10
235.70133161717541
 20
172.4172763937317
 30
0.0
 11
271.70133161717558
 21
172.4172763937317
 31
0.0
  0
LINE
  5
317A
  8
AM_0
 10
237.70134161717539
 20
190.41727639373161
 30
0.0
 11
268.78155161717558
 21
190.41727639373161
 31
0.0
  0
LINE
  5
317B
  8
AM_0
 10
235.70133161717541
 20
172.4172763937317
 30
0.0
 11
235.70133161717541
 21
188.4172753937317
 31
0.0
  0
ARC
  5
317C
  8
AM_0
 10
237.70134161717539
 20
188.4172753937317
 30
0.0
 40
2.00000007
 50
90.00000299999769
 51
180.00001000000091
  0
LINE
  5
317D
  8
ｶｸﾚｾﾝ2
 10
246.20133161717541
 20
190.41727639373161
 30
0.0
 11
246.20133161717541
 21
172.4172763937317
 31
0.0
  0
LINE
  5
317E
  8
ｶｸﾚｾﾝ2
 10
261.20133161717558
 20
190.41727639373161
 30
0.0
 11
261.20133161717558
 21
172.4172763937317
 31
0.0
  0
ARC
  5
317F
  8
AM_0
 10
273.70134161717539
 20
172.4172763937317
 30
0.0
 40
2.00000007
 50
90.00000299999769
 51
180.00001000000091
  0
ARC
  5
3180
  8
AM_0
 10
264.7013416171755
 20
193.3938373937317
 30
0.0
 40
3.0
 50
179.9999899999988
 51
268.00000999999861
  0
ARC
  5
3181
  8
AM_0
 10
268.78155161717558
 20
194.4172753937317
 30
0.0
 40
4.000000199999997
 50
270.0
 51
342.25533000000132
  0
LINE
  5
3182
  8
AM_0
 10
273.70134161717539
 20
220.5579163937316
 30
0.0
 11
281.34636161717549
 21
220.5579163937316
 31
0.0
  0
LINE
  5
3183
  8
AM_0
 10
217.20135161717531
 20
222.8386483937316
 30
0.0
 11
261.70134161717527
 21
222.8386483937316
 31
0.0
  0
LINE
  5
3184
  8
AM_0
 10
227.20134161717539
 20
210.91729039373169
 30
0.0
 11
259.27116161717538
 21
209.79738739373181
 31
0.0
  0
LINE
  5
3185
  8
AM_0
 10
221.06175161717539
 20
210.63167839373159
 30
0.0
 11
227.20134161717539
 21
210.41729239373171
 31
0.0
  0
ARC
  5
3186
  8
AM_0
 10
214.34922161717569
 20
210.50029939373181
 30
0.0
 40
4.000000199999997
 50
31.072341000000669
 51
88.000000000002899
  0
ARC
  5
3187
  8
AM_0
 10
221.20134161717539
 20
214.6292503937317
 30
0.0
 40
4.000000199999997
 50
211.0723399999998
 51
268.0000000000029
  0
ARC
  5
3188
  8
AM_0
 10
258.7013416171755
 20
206.81545339373159
 30
0.0
 40
3.0
 50
0.0
 51
88.000000000002899
  0
ARC
  5
3189
  8
AM_0
 10
263.70135161717542
 20
205.99948939373169
 30
0.0
 40
2.00000007
 50
179.9999899999988
 51
270.0
  0
LINE
  5
318A
  8
AM_0
 10
263.70135161717542
 20
203.99950639373159
 30
0.0
 11
271.70133161717558
 21
203.99950639373159
 31
0.0
  0
ARC
  5
318B
  8
AM_0
 10
271.70133161717558
 20
201.99950539373171
 30
0.0
 40
2.00000007
 50
0.0
 51
90.00000299999769
  0
LINE
  5
318C
  8
AM_0
 10
273.70134161717539
 20
196.6672903937318
 30
0.0
 11
273.70134161717539
 21
201.99950539373171
 31
0.0
  0
ARC
  5
318D
  8
AM_0
 10
263.70135161717542
 20
226.67461639373161
 30
0.0
 40
2.00000007
 50
179.9999899999988
 51
270.0
  0
ARC
  5
318E
  8
AM_0
 10
271.70133161717558
 20
226.67461639373161
 30
0.0
 40
2.00000007
 50
270.0
 51
0.0
  0
LINE
  5
318F
  8
AM_0
 10
263.70135161717542
 20
224.67460039373171
 30
0.0
 11
271.70133161717558
 21
224.67460039373171
 31
0.0
  0
ARC
  5
3190
  8
AM_0
 10
271.70133161717558
 20
222.55790239373169
 30
0.0
 40
2.00000007
 50
270.0
 51
0.0
  0
LINE
  5
3191
  8
AM_0
 10
217.20135161717531
 20
244.94262139373171
 30
0.0
 11
261.70134161717527
 21
244.94262139373171
 31
0.0
  0
ARC
  5
3192
  8
AM_0
 10
283.70133161717558
 20
241.0416973937316
 30
0.0
 40
4.000000199999997
 50
342.25533000000132
 51
0.0
  0
LINE
  5
3193
  8
AM_0
 10
179.09661161717571
 20
347.51839039373192
 30
0.0
 11
211.92930161717541
 21
348.66496039373192
 31
0.0
  0
LINE
  5
3194
  8
AM_0
 10
179.7020116171756
 20
314.91793039373181
 30
0.0
 11
214.61814161717561
 21
349.83403039373172
 31
0.0
  0
LINE
  5
3195
  8
0
 10
134.13153262377031
 20
313.58322644863432
 30
0.0
 11
153.2013316171755
 21
312.91729439373171
 31
0.0
  0
LINE
  5
3196
  8
AM_0
 10
153.2013316171755
 20
288.35473339373158
 30
0.0
 11
132.2013316171755
 21
288.35473339373158
 31
0.0
  0
LINE
  5
3197
  8
AM_0
 10
153.2013316171755
 20
302.41729339373171
 30
0.0
 11
132.2013316171755
 21
302.41729339373171
 31
0.0
  0
ARC
  5
3198
  8
0
 10
134.20133161717541
 20
315.5820081026726
 30
0.0
 40
2.0
 50
180.0
 51
268.0000000000029
1001
GENIUS_GENOBJ-N-FIL_13
1002
{
1000
OWNER
1000
GEN
1002
}
1001
GENIUS_GENODEF_13
1002
{
1000
HIER
1070
     0
1002
}
1002
{
1000
MANEDIT
1070
     0
1002
}
1002
{
1000
NOSEL
1070
     0
1002
}
1002
{
1000
BEHIND
1070
     0
1002
}
1002
{
1000
OTHER
1070
     0
1002
}
1002
{
1000
REACTOR
1002
}
  0
LINE
  5
3199
  8
0
 10
122.2013316171755
 20
336.41729439373171
 30
0.0
 11
130.2013316171755
 21
336.41729439373171
 31
0.0
  0
ARC
  5
319A
  8
0
 10
130.2013316171755
 20
334.41729439373171
 30
0.0
 40
2.0
 50
0.0
 51
90.0
1001
GENIUS_GENOBJ-N-FIL_13
1002
{
1000
OWNER
1000
GEN
1002
}
1001
GENIUS_GENODEF_13
1002
{
1000
HIER
1070
     0
1002
}
1002
{
1000
MANEDIT
1070
     0
1002
}
1002
{
1000
NOSEL
1070
     0
1002
}
1002
{
1000
BEHIND
1070
     0
1002
}
1002
{
1000
OTHER
1070
     0
1002
}
1002
{
1000
REACTOR
1002
}
  0
LINE
  5
319B
  8
AM_0
 10
176.20134161717539
 20
344.52022039373162
 30
0.0
 11
176.20134161717539
 21
317.8739503937316
 31
0.0
  0
LINE
  5
319C
  8
AM_0
 10
171.38157161717561
 20
313.55215039373161
 30
0.0
 11
177.0131716171754
 21
313.74880039373159
 31
0.0
  0
LINE
  5
319D
  8
AM_0
 10
153.2013316171755
 20
302.41729339373182
 30
0.0
 11
198.3044116171753
 21
302.41729339373182
 31
0.0
  0
LINE
  5
319E
  8
AM_0
 10
153.2013316171755
 20
289.2231103937317
 30
0.0
 11
192.3528916171754
 21
289.2231103937317
 31
0.0
  0
ARC
  5
319F
  8
AM_0
 10
173.20134161717539
 20
317.8739503937316
 30
0.0
 40
3.0
 50
309.6297900000003
 51
0.0
  0
LINE
  5
31A0
  8
AM_0
 10
153.2013316171755
 20
312.91729039373172
 30
0.0
 11
171.38157161717561
 21
313.55215039373161
 31
0.0
  0
ARC
  5
31A1
  8
AM_0
 10
171.24198161717541
 20
317.54971039373157
 30
0.0
 40
4.000000199999997
 50
271.99999999999687
 51
309.6297900000003
  0
LINE
  5
31A2
  8
AM_0
 10
175.1148016171756
 20
315.5633503937317
 30
0.0
 11
173.7933316171756
 21
314.46892039373171
 31
0.0
  0
LINE
  5
31A3
  8
AM_0
 10
178.58787161717549
 20
313.80376039373158
 30
0.0
 11
184.9642216171755
 21
302.41729339373182
 31
0.0
  0
ARC
  5
31A4
  8
AM_0
 10
198.3044116171753
 20
299.41729339373182
 30
0.0
 40
3.0
 50
315.0
 51
90.00000299999769
  0
LINE
  5
31A5
  8
AM_0
 10
192.3528916171754
 20
289.2231103937317
 30
0.0
 11
200.42571161717561
 21
297.29595739373178
 31
0.0
  0
ARC
  5
31A6
  8
AM_0
 10
176.8735816171756
 20
317.74636039373161
 30
0.0
 40
4.000000199999997
 50
271.99999999999687
 51
315.0
  0
ARC
  5
31A7
  8
AM_0
 10
179.20134161717539
 20
344.52022039373162
 30
0.0
 40
3.0
 50
91.999998000000545
 51
180.00001000000091
  0
POLYLINE
  5
31A8
  8
AM_0
 66
     1
 10
0.0
 20
0.0
 30
0.0
  0
VERTEX
  5
31A9
  8
AM_0
  6
CONTINUOUS
 10
311.47053161717571
 20
339.88960039373183
 30
0.0
 42
0.038759451
  0
VERTEX
  5
31AA
  8
AM_0
  6
CONTINUOUS
 10
314.2183516171753
 20
342.80047039373159
 30
0.0
 42
0.045306413
  0
VERTEX
  5
31AB
  8
AM_0
  6
CONTINUOUS
 10
316.44054161717543
 20
346.1281903937317
 30
0.0
 42
0.052171431
  0
VERTEX
  5
31AC
  8
AM_0
  6
CONTINUOUS
 10
317.97723161717562
 20
349.82599039373167
 30
0.0
 42
0.057266618
  0
VERTEX
  5
31AD
  8
AM_0
  6
CONTINUOUS
 10
318.6714916171756
 20
353.76475039373162
 30
0.0
 42
0.058402263
  0
VERTEX
  5
31AE
  8
AM_0
  6
CONTINUOUS
 10
318.44073161717517
 20
357.75295039373162
 30
0.0
 42
0.055045302
  0
VERTEX
  5
31AF
  8
AM_0
  6
CONTINUOUS
 10
317.31522161717561
 20
361.58809039373182
 30
0.0
 42
0.048778173
  0
VERTEX
  5
31B0
  8
AM_0
  6
CONTINUOUS
 10
315.42237161717571
 20
365.10862039373171
 30
0.0
 42
0.041944207
  0
VERTEX
  5
31B1
  8
AM_0
  6
CONTINUOUS
 10
312.9248416171755
 20
368.23165039373191
 30
0.0
 42
0.035908261
  0
VERTEX
  5
31B2
  8
AM_0
  6
CONTINUOUS
 10
309.97227161717558
 20
370.93243039373181
 30
0.0
 42
0.031063208
  0
VERTEX
  5
31B3
  8
AM_0
  6
CONTINUOUS
 10
306.68556161717538
 20
373.21639039373161
 30
0.0
 42
0.027381869
  0
VERTEX
  5
31B4
  8
AM_0
  6
CONTINUOUS
 10
303.15366161717571
 20
375.10351039373171
 30
0.0
 42
0.024647405
  0
VERTEX
  5
31B5
  8
AM_0
  6
CONTINUOUS
 10
299.44464161717559
 20
376.61464039373158
 30
0.0
 42
0.022677562
  0
VERTEX
  5
31B6
  8
AM_0
  6
CONTINUOUS
 10
295.60926161717572
 20
377.7693103937317
 30
0.0
 42
0.021321502
  0
VERTEX
  5
31B7
  8
AM_0
  6
CONTINUOUS
 10
291.68685161717559
 20
378.58312039373158
 30
0.0
 42
0.020471074
  0
VERTEX
  5
31B8
  8
AM_0
  6
CONTINUOUS
 10
287.70996161717551
 20
379.06720039373192
 30
0.0
 42
0.020088488
  0
VERTEX
  5
31B9
  8
AM_0
  6
CONTINUOUS
 10
283.70136161717562
 20
379.22812039373161
 30
0.0
  0
SEQEND
  5
31BA
  8
AM_0
  0
ARC
  5
31BB
  8
AM_0
 10
271.70133161717558
 20
369.71995039373161
 30
0.0
 40
2.00000007
 50
270.0
 51
0.0
  0
ARC
  5
31BC
  8
AM_0
 10
263.70135161717542
 20
365.71993039373172
 30
0.0
 40
2.00000007
 50
90.00000299999769
 51
180.00001000000091
  0
LINE
  5
31BD
  8
AM_0
 10
263.32254161717537
 20
362.55259039373169
 30
0.0
 11
283.70133161717558
 21
362.55259039373169
 31
0.0
  0
LINE
  5
31BE
  8
AM_0
 10
217.20135161717531
 20
323.89198039373179
 30
0.0
 11
261.70134161717527
 21
323.89198039373179
 31
0.0
  0
LINE
  5
31BF
  8
AM_0
 10
217.20135161717531
 20
345.99595039373162
 30
0.0
 11
261.70134161717527
 21
345.99595039373162
 31
0.0
  0
LINE
  5
31C0
  8
AM_0
 10
227.20134161717539
 20
357.91726039373168
 30
0.0
 11
258.80607161717569
 21
359.0209303937317
 31
0.0
  0
LINE
  5
31C1
  8
AM_0
 10
221.0616916171756
 20
358.20289039373171
 30
0.0
 11
227.20134161717539
 21
358.41727039373171
 31
0.0
  0
ARC
  5
31C2
  8
AM_0
 10
221.20134161717539
 20
354.2053303937318
 30
0.0
 40
4.000000199999997
 50
91.999998000000545
 51
180.9319799999997
  0
ARC
  5
31C3
  8
AM_0
 10
213.20244161717559
 20
354.0751903937317
 30
0.0
 40
4.000000199999997
 50
315.0
 51
0.9319899800013916
  0
ARC
  5
31C4
  8
AM_0
 10
211.7897116171755
 20
352.66249039373162
 30
0.0
 40
4.000000199999997
 50
271.99999999999687
 51
315.0
  0
LINE
  5
31C5
  8
AM_0
 10
214.61814161717561
 20
349.83403039373172
 30
0.0
 11
216.03087161717559
 21
351.2467303937317
 31
0.0
  0
LINE
  5
31C6
  8
AM_0
 10
263.17986161717562
 20
341.79997039373171
 30
0.0
 11
272.1304216171755
 21
341.79997039373171
 31
0.0
  0
ARC
  5
31C7
  8
AM_0
 10
258.7013416171755
 20
362.01913039373181
 30
0.0
 40
3.0
 50
271.99999999999687
 51
0.0
  0
LINE
  5
31C8
  8
AM_0
 10
263.70135161717542
 20
350.7493903937318
 30
0.0
 11
271.70133161717558
 21
350.7493903937318
 31
0.0
  0
ARC
  5
31C9
  8
AM_0
 10
263.70135161717542
 20
352.74937039373168
 30
0.0
 40
2.00000007
 50
179.9999899999988
 51
270.0
  0
ARC
  5
31CA
  8
AM_0
 10
271.70133161717558
 20
348.74938039373183
 30
0.0
 40
2.00000007
 50
0.0
 51
90.00000299999769
  0
LINE
  5
31CB
  8
AM_0
 10
283.70133161717558
 20
314.60260039373179
 30
0.0
 11
311.46999161717571
 21
339.88909039373169
 31
0.0
  0
LINE
  5
31CC
  8
AM_0
 10
283.70133161717558
 20
299.06503039373172
 30
0.0
 11
287.70135161717542
 21
299.06503039373172
 31
0.0
  0
LINE
  5
31CD
  8
AM_0
 10
283.70133161717558
 20
314.60260039373179
 30
0.0
 11
283.70292161717572
 21
314.60260039373179
 31
0.0
  0
POLYLINE
  5
31CE
  8
AM_0
 66
     1
 10
0.0
 20
0.0
 30
0.0
  0
VERTEX
  5
31CF
  8
AM_0
  6
CONTINUOUS
 10
317.15799161717558
 20
357.05869039373192
 30
0.0
 42
0.046334034
  0
VERTEX
  5
31D0
  8
AM_0
  6
CONTINUOUS
 10
315.30618161717558
 20
358.11631039373168
 30
0.0
 42
0.024113349
  0
VERTEX
  5
31D1
  8
AM_0
  6
CONTINUOUS
 10
313.32672161717562
 20
358.9161703937317
 30
0.0
 42
0.015482213
  0
VERTEX
  5
31D2
  8
AM_0
  6
CONTINUOUS
 10
311.28978161717572
 20
359.56084039373172
 30
0.0
 42
0.011170747
  0
VERTEX
  5
31D3
  8
AM_0
  6
CONTINUOUS
 10
309.2220316171755
 20
360.09733039373191
 30
0.0
 42
0.0086851837
  0
VERTEX
  5
31D4
  8
AM_0
  6
CONTINUOUS
 10
307.13445161717561
 20
360.55201039373162
 30
0.0
 42
0.0071112966
  0
VERTEX
  5
31D5
  8
AM_0
  6
CONTINUOUS
 10
305.03277161717517
 20
360.94102039373161
 30
0.0
 42
0.0060487861
  0
VERTEX
  5
31D6
  8
AM_0
  6
CONTINUOUS
 10
302.9200516171752
 20
361.27504039373162
 30
0.0
 42
0.0052886795
  0
VERTEX
  5
31D7
  8
AM_0
  6
CONTINUOUS
 10
300.80268161717532
 20
361.56088039373162
 30
0.0
 42
0.004745088
  0
VERTEX
  5
31D8
  8
AM_0
  6
CONTINUOUS
 10
298.67760161717558
 20
361.80457039373158
 30
0.0
 42
0.0043374779
  0
VERTEX
  5
31D9
  8
AM_0
  6
CONTINUOUS
 10
296.54790161717568
 20
362.00971039373161
 30
0.0
 42
0.0040309373
  0
VERTEX
  5
31DA
  8
AM_0
  6
CONTINUOUS
 10
294.41511161717563
 20
362.17921039373169
 30
0.0
 42
0.0038017218
  0
VERTEX
  5
31DB
  8
AM_0
  6
CONTINUOUS
 10
292.27989161717528
 20
362.31532039373161
 30
0.0
 42
0.0036333144
  0
VERTEX
  5
31DC
  8
AM_0
  6
CONTINUOUS
 10
290.14281161717548
 20
362.41972039373161
 30
0.0
 42
0.0035147919
  0
VERTEX
  5
31DD
  8
AM_0
  6
CONTINUOUS
 10
288.00441161717561
 20
362.49358039373192
 30
0.0
 42
0.003439074
  0
VERTEX
  5
31DE
  8
AM_0
  6
CONTINUOUS
 10
285.86520161717561
 20
362.53771039373191
 30
0.0
 42
0.0034021156
  0
VERTEX
  5
31DF
  8
AM_0
  6
CONTINUOUS
 10
283.72548161717572
 20
362.55259039373169
 30
0.0
  0
SEQEND
  5
31E0
  8
AM_0
  0
LINE
  5
31E1
  8
AM_0
 10
275.63151161717519
 20
383.63548039373171
 30
0.0
 11
283.70133161717558
 21
383.91727039373171
 31
0.0
  0
ARC
  5
31E2
  8
AM_0
 10
271.70133161717558
 20
380.68885039373168
 30
0.0
 40
2.00000007
 50
271.99999999999687
 51
0.0
  0
LINE
  5
31E3
  8
AM_0
 10
273.70134161717539
 20
369.71995039373161
 30
0.0
 11
273.70134161717539
 21
381.6367003937317
 31
0.0
  0
ARC
  5
31E4
  8
AM_0
 10
264.7013416171755
 20
375.44134039373182
 30
0.0
 40
3.0
 50
91.999998000000545
 51
180.00001000000091
  0
LINE
  5
31E5
  8
AM_0
 10
263.70135161717542
 20
367.71994039373192
 30
0.0
 11
271.70133161717558
 21
367.71994039373192
 31
0.0
  0
LINE
  5
31E6
  8
AM_0
 10
264.5966716171755
 20
378.43948039373191
 30
0.0
 11
271.77117161717558
 21
378.69004039373169
 31
0.0
  0
ARC
  5
31E7
  8
AM_0
 10
275.70135161717542
 20
381.6367003937317
 30
0.0
 40
2.00000007
 50
91.999998000000545
 51
180.00001000000091
  0
LINE
  5
31E8
  8
ﾁｭｳｼﾝｾﾝ
 10
658.01316307864249
 20
172.4172763937317
 30
0.0
 11
658.01316307864249
 21
386.08198039373161
 31
0.0
  0
LINE
  5
31E9
  8
AM_0
 10
543.04585207864227
 20
187.8589123937316
 30
0.0
 11
559.59723607864248
 21
299.06503039373172
 31
0.0
  0
ARC
  5
31EA
  8
AM_0
 10
658.01316307864249
 20
295.41729439373171
 30
0.0
 40
65.000000999999997
 50
0.0
 51
180.00001000000091
  0
LINE
  5
31EB
  8
AM_0
 10
772.98047707864225
 20
187.8589123937316
 30
0.0
 11
756.42907507864243
 21
299.06503039373172
 31
0.0
  0
LINE
  5
31EC
  8
AM_0
 10
581.01316207864238
 20
344.51098039373193
 30
0.0
 11
581.01316207864238
 21
246.15455239373159
 31
0.0
  0
LINE
  5
31ED
  8
AM_0
 10
735.01315807864239
 20
344.51098039373193
 30
0.0
 11
735.01315807864239
 21
246.15455239373159
 31
0.0
  0
LINE
  5
31EE
  8
AM_0
 10
723.01315807864239
 20
295.41729439373171
 30
0.0
 11
723.01315807864239
 21
205.4172913937316
 31
0.0
  0
LINE
  5
31EF
  8
AM_0
 10
593.01314707864253
 20
295.41729439373171
 30
0.0
 11
593.01314707864253
 21
205.4172913937316
 31
0.0
  0
LINE
  5
31F0
  8
AM_0
 10
368.70135161717519
 20
212.8750093937316
 30
0.0
 11
368.70135161717519
 21
373.89823039373192
 31
0.0
  0
LINE
  5
31F1
  8
AM_0
 10
348.70131161717552
 20
205.4172913937316
 30
0.0
 11
348.70131161717552
 21
343.86001039373178
 31
0.0
  0
LINE
  5
31F2
  8
AM_0
 10
389.70135161717519
 20
197.9566753937317
 30
0.0
 11
389.70135161717519
 21
356.41729039373178
 31
0.0
  0
LINE
  5
31F3
  8
AM_0
 10
391.20132161717538
 20
280.24184839373157
 30
0.0
 11
395.2013416171755
 21
282.55126639373168
 31
0.0
  0
LINE
  5
31F4
  8
ﾁｭｳｼﾝｾﾝ
 10
560.57952716487011
 20
256.41729439373171
 30
0.0
 11
756.32981213795938
 21
256.41729439373171
 31
0.0
  0
LINE
  5
31F5
  8
AM_0
 10
595.01314807864208
 20
174.4172743937317
 30
0.0
 11
721.01316007864216
 21
174.4172743937317
 31
0.0
  0
LINE
  5
31F6
  8
ﾁｭｳｼﾝｾﾝ1
 10
378.70131161717552
 20
169.08596239373171
 30
0.0
 11
378.70131161717552
 21
195.4291633937317
 31
0.0
  0
ARC
  5
31F7
  8
AM_0
 10
363.70131161717552
 20
205.4172913937316
 30
0.0
 40
15.00000029999998
 50
179.9999899999988
 51
270.0
  0
ARC
  5
31F8
  8
AM_0
 10
397.70133161717553
 20
197.9566753937317
 30
0.0
 40
8.0000000999999976
 50
179.9999899999988
 51
252.54238999999831
  0
LINE
  5
31F9
  8
AM_0
 10
360.70131161717558
 20
172.4172763937317
 30
0.0
 11
396.70131161717552
 21
172.4172763937317
 31
0.0
  0
LINE
  5
31FA
  8
AM_0
 10
363.70131161717552
 20
190.41727639373161
 30
0.0
 11
394.70133161717553
 21
190.41727639373161
 31
0.0
  0
LINE
  5
31FB
  8
ｶｸﾚｾﾝ2
 10
371.20131161717552
 20
190.41727639373161
 30
0.0
 11
371.20131161717552
 21
172.4172763937317
 31
0.0
  0
ARC
  5
31FC
  8
AM_0
 10
358.70133161717558
 20
172.4172763937317
 30
0.0
 40
2.00000007
 50
0.0
 51
90.00000299999769
  0
LINE
  5
31FD
  8
AM_0
 10
360.70131161717558
 20
172.4172763937317
 30
0.0
 11
360.70131161717558
 21
172.4172763937317
 31
0.0
  0
LINE
  5
31FE
  8
ｶｸﾚｾﾝ2
 10
386.20131161717552
 20
190.41727639373161
 30
0.0
 11
386.20131161717552
 21
172.4172763937317
 31
0.0
  0
LINE
  5
31FF
  8
AM_0
 10
396.70131161717552
 20
172.4172763937317
 30
0.0
 11
396.70131161717552
 21
188.4172753937317
 31
0.0
  0
ARC
  5
3200
  8
AM_0
 10
394.70133161717553
 20
188.4172753937317
 30
0.0
 40
2.00000007
 50
0.0
 51
90.00000299999769
  0
LINE
  5
3201
  8
AM_0
 10
353.7763216171756
 20
204.87502339373171
 30
0.0
 11
360.70131161717558
 21
204.87502339373171
 31
0.0
  0
ARC
  5
3202
  8
AM_0
 10
360.70131161717558
 20
212.8750093937316
 30
0.0
 40
8.0000000999999976
 50
270.0
 51
0.0
  0
ARC
  5
3203
  8
AM_0
 10
392.70135161717519
 20
277.64379439373181
 30
0.0
 40
3.0
 50
120.0000000000005
 51
180.00001000000091
  0
LINE
  5
3204
  8
ﾁｭｳｼﾝｾﾝ1
 10
563.01316207864227
 20
195.4291633937317
 30
0.0
 11
563.01316207864227
 21
169.08596239373171
 31
0.0
  0
ARC
  5
3205
  8
AM_0
 10
578.01316207864227
 20
205.4172913937316
 30
0.0
 40
15.00000029999998
 50
270.0
 51
0.0
  0
LINE
  5
3206
  8
AM_0
 10
543.01315207864229
 20
172.4172763937317
 30
0.0
 11
593.01314707864253
 21
172.4172763937317
 31
0.0
  0
LINE
  5
3207
  8
AM_0
 10
589.01316307864249
 20
190.41727639373161
 30
0.0
 11
546.01315207864229
 21
190.41727639373161
 31
0.0
  0
LINE
  5
3208
  8
ｶｸﾚｾﾝ2
 10
555.51316207864238
 20
190.41727639373161
 30
0.0
 11
555.51316207864238
 21
172.4172763937317
 31
0.0
  0
LINE
  5
3209
  8
ｶｸﾚｾﾝ2
 10
570.51316207864227
 20
190.41727639373161
 30
0.0
 11
570.51316207864227
 21
172.4172763937317
 31
0.0
  0
LINE
  5
320A
  8
AM_0
 10
543.01315207864229
 20
187.4172763937315
 30
0.0
 11
543.01315207864229
 21
172.4172763937317
 31
0.0
  0
ARC
  5
320B
  8
AM_0
 10
546.01315207864229
 20
187.4172763937315
 30
0.0
 40
3.0
 50
90.00000299999769
 51
180.00001000000091
  0
LINE
  5
320C
  8
AM_0
 10
593.01314707864253
 20
186.41725939373151
 30
0.0
 11
593.01314707864253
 21
172.4172763937317
 31
0.0
  0
ARC
  5
320D
  8
AM_0
 10
595.01314807864208
 20
172.4172763937317
 30
0.0
 40
2.00000007
 50
90.00000299999769
 51
180.00001000000091
  0
ARC
  5
320E
  8
AM_0
 10
589.01316307864249
 20
186.41725939373151
 30
0.0
 40
4.000000199999997
 50
0.0
 51
90.00000299999769
  0
ARC
  5
320F
  8
AM_0
 10
658.01316307864249
 20
246.15455239373159
 30
0.0
 40
77.000000999999983
 50
179.9999899999988
 51
212.41839000000161
  0
LINE
  5
3210
  8
ﾁｭｳｼﾝｾﾝ1
 10
753.01315807864239
 20
194.66660539373149
 30
0.0
 11
753.01315807864239
 21
169.08596239373171
 31
0.0
  0
ARC
  5
3211
  8
AM_0
 10
738.01315807864216
 20
205.4172913937316
 30
0.0
 40
15.00000029999998
 50
179.9999899999988
 51
270.0
  0
LINE
  5
3212
  8
AM_0
 10
723.01315807864239
 20
172.4172763937317
 30
0.0
 11
773.01315907864239
 21
172.4172763937317
 31
0.0
  0
LINE
  5
3213
  8
AM_0
 10
727.01316007864239
 20
190.41727639373161
 30
0.0
 11
770.01315907864239
 21
190.41727639373161
 31
0.0
  0
LINE
  5
3214
  8
AM_0
 10
723.01315807864239
 20
186.41725939373151
 30
0.0
 11
723.01315807864239
 21
172.4172763937317
 31
0.0
  0
ARC
  5
3215
  8
AM_0
 10
721.01316007864216
 20
172.4172763937317
 30
0.0
 40
2.00000007
 50
0.0
 51
90.00000299999769
  0
ARC
  5
3216
  8
AM_0
 10
727.01316007864239
 20
186.41725939373151
 30
0.0
 40
4.000000199999997
 50
90.00000299999769
 51
180.00001000000091
  0
LINE
  5
3217
  8
ｶｸﾚｾﾝ2
 10
760.51316107864216
 20
190.41727639373161
 30
0.0
 11
760.51316107864216
 21
172.4172763937317
 31
0.0
  0
LINE
  5
3218
  8
ｶｸﾚｾﾝ2
 10
745.51315807864239
 20
190.41727639373161
 30
0.0
 11
745.51315807864239
 21
172.4172763937317
 31
0.0
  0
LINE
  5
3219
  8
AM_0
 10
773.01315907864239
 20
187.4172763937315
 30
0.0
 11
773.01315907864239
 21
172.4172763937317
 31
0.0
  0
ARC
  5
321A
  8
AM_0
 10
770.01315907864239
 20
187.4172763937315
 30
0.0
 40
3.0
 50
0.0
 51
90.00000299999769
  0
ARC
  5
321B
  8
AM_0
 10
658.01316307864249
 20
246.15455239373159
 30
0.0
 40
77.000000999999983
 50
327.5815999999997
 51
0.0
  0
LINE
  5
321C
  8
ﾁｭｳｼﾝｾﾝ
 10
600.65438956378239
 20
312.41725039373159
 30
0.0
 11
714.71360896810165
 21
312.41725039373159
 31
0.0
  0
ARC
  5
321D
  8
AM_0
 10
658.01316307864249
 20
312.41725039373159
 30
0.0
 40
16.000000499999999
 50
108.2099599999986
 51
71.790051999998809
  0
CIRCLE
  5
321E
  8
AM_0
 10
658.01316307864249
 20
312.41725039373159
 30
0.0
 40
29.000001000000001
  0
ARC
  5
321F
  8
AM_0
 10
658.01316307864249
 20
284.41729339373182
 30
0.0
 40
99.500004000000004
 50
8.4654901000001566
 51
171.53449999999981
  0
ARC
  5
3220
  8
AM_0
 10
376.70133161717553
 20
368.41729039373172
 30
0.0
 40
8.0000000999999976
 50
179.9999899999988
 51
270.0
  0
LINE
  5
3221
  8
AM_0
 10
458.70135161717542
 20
328.41730039373181
 30
0.0
 11
400.70133161717553
 21
328.41730039373181
 31
0.0
  0
LINE
  5
3222
  8
AM_0
 10
458.70135161717542
 20
296.41729339373182
 30
0.0
 11
400.70133161717553
 21
296.41729339373182
 31
0.0
  0
LINE
  5
3223
  8
AM_0
 10
400.70133161717553
 20
294.91729339373188
 30
0.0
 11
400.70133161717553
 21
329.91730039373181
 31
0.0
  0
LINE
  5
3224
  8
AM_0
 10
396.70131161717552
 20
312.41725039373159
 30
0.0
 11
396.70131161717552
 21
339.68524039373159
 31
0.0
  0
LINE
  5
3225
  8
AM_0
 10
396.70131161717552
 20
285.14935039373171
 30
0.0
 11
396.70131161717552
 21
312.41725039373159
 31
0.0
  0
ARC
  5
3226
  8
AM_0
 10
393.70131161717552
 20
285.14935039373171
 30
0.0
 40
3.0
 50
300.00000000000051
 51
0.0
  0
LINE
  5
3227
  8
AM_0
 10
400.70133161717553
 20
294.91729339373188
 30
0.0
 11
396.70131161717552
 21
294.91729339373188
 31
0.0
  0
ARC
  5
3228
  8
AM_0
 10
356.70135161717542
 20
343.86001039373178
 30
0.0
 40
8.0000000999999976
 50
90.00000299999769
 51
180.00001000000091
  0
LINE
  5
3229
  8
AM_0
 10
356.70135161717542
 20
351.86002039373159
 30
0.0
 11
365.10084161717521
 21
351.86002039373159
 31
0.0
  0
ARC
  5
322A
  8
AM_0
 10
392.70135161717519
 20
347.19079039373162
 30
0.0
 40
3.0
 50
179.9999899999988
 51
240.00000999999969
  0
LINE
  5
322B
  8
AM_0
 10
391.20135161717519
 20
344.5927003937316
 30
0.0
 11
395.2013416171755
 21
342.28333039373172
 31
0.0
  0
LINE
  5
322C
  8
AM_0
 10
400.70133161717553
 20
329.91730039373181
 30
0.0
 11
396.70131161717552
 21
329.91730039373181
 31
0.0
  0
ARC
  5
322D
  8
AM_0
 10
393.70131161717552
 20
339.68524039373159
 30
0.0
 40
3.0
 50
0.0
 51
60.000002000001302
  0
ARC
  5
322E
  8
AM_0
 10
385.70133161717553
 20
356.41729039373178
 30
0.0
 40
4.000000199999997
 50
0.0
 51
90.00000299999769
  0
LINE
  5
322F
  8
AM_0
 10
376.70133161717553
 20
360.41731039373161
 30
0.0
 11
385.70133161717553
 21
360.41731039373161
 31
0.0
  0
LINE
  5
3230
  8
AM_0
 10
458.70135161717542
 20
296.41729339373182
 30
0.0
 11
458.70135161717542
 21
331.41730039373181
 31
0.0
  0
LINE
  5
3231
  8
AM_0
 10
458.70135161717542
 20
331.41730039373181
 30
0.0
 11
413.70135161717519
 21
331.41730039373181
 31
0.0
  0
LINE
  5
3232
  8
AM_0
 10
413.70135161717519
 20
328.41730039373181
 30
0.0
 11
413.70135161717519
 21
331.41730039373181
 31
0.0
  0
ARC
  5
3233
  8
AM_0
 10
360.70131161717558
 20
373.89823039373192
 30
0.0
 40
8.0000000999999976
 50
0.0
 51
88.499997000000747
  0
LINE
  5
3234
  8
AM_0
 10
586.69120207864239
 20
366.13129039373177
 30
0.0
 11
627.82782907864225
 21
379.22815039373171
 31
0.0
  0
LINE
  5
3235
  8
AM_0
 10
576.29917207864207
 20
355.7392303937317
 30
0.0
 11
563.20230907864232
 21
314.60260039373179
 31
0.0
  0
ARC
  5
3236
  8
AM_0
 10
589.01316307864249
 20
344.51098039373193
 30
0.0
 40
8.0000000999999976
 50
138.94664999999881
 51
180.00001000000091
  0
ARC
  5
3237
  8
AM_0
 10
591.54510007864246
 20
350.88535039373158
 30
0.0
 40
16.000000499999999
 50
107.079459999999
 51
162.9205300000007
  0
LINE
  5
3238
  8
AM_0
 10
653.01315007864207
 20
323.41729039373172
 30
0.0
 11
653.01315007864207
 21
331.41730039373181
 31
0.0
  0
LINE
  5
3239
  8
AM_0
 10
663.0131490786423
 20
323.41729039373172
 30
0.0
 11
663.0131490786423
 21
331.41730039373181
 31
0.0
  0
CIRCLE
  5
323A
  8
AM_5
 10
658.01316307864249
 20
312.41725039373159
 30
0.0
 40
4.000000199999997
  0
CIRCLE
  5
323B
  8
AM_0
 10
658.01316307864249
 20
312.41725039373159
 30
0.0
 40
2.75000007
  0
LINE
  5
323C
  8
AM_0
 10
653.01315007864207
 20
323.41729039373172
 30
0.0
 11
663.0131490786423
 21
323.41729039373172
 31
0.0
  0
LINE
  5
323D
  8
AM_0
 10
653.01315007864207
 20
331.41730039373181
 30
0.0
 11
663.0131490786423
 21
331.41730039373181
 31
0.0
  0
ARC
  5
323E
  8
AM_0
 10
724.8347520786424
 20
351.23890039373191
 30
0.0
 40
16.000000499999999
 50
17.07946300000124
 51
72.920533999997687
  0
LINE
  5
323F
  8
AM_0
 10
729.53389507864244
 20
366.53323039373191
 30
0.0
 11
687.23606707864246
 21
379.52914039373161
 31
0.0
  0
LINE
  5
3240
  8
AM_0
 10
740.12912707864245
 20
355.93804039373163
 30
0.0
 11
753.12505207864183
 21
313.64020039373162
 31
0.0
  0
ARC
  5
3241
  8
AM_0
 10
727.01316007864239
 20
344.51098039373193
 30
0.0
 40
8.0000000999999976
 50
0.0
 51
41.05335099999968
  0
LINE
  5
3243
  8
0
 10
122.20132161717559
 20
508.33097393969189
 30
0.0
 11
122.20132161717559
 21
668.33097393969194
 31
0.0
1001
GENIUS_GENOREF_13
1005
2F57
  0
LINE
  5
3244
  8
0
 10
132.20132161717561
 20
666.33097393969194
 30
0.0
 11
132.20132161717561
 21
510.33097393969189
 31
0.0
1001
GENIUS_GENOREF_13
1005
2F57
  0
LINE
  5
3245
  8
0
 10
122.20132161717559
 20
508.33097393969189
 30
0.0
 11
130.20132161717561
 21
508.33097393969189
 31
0.0
  0
ARC
  5
3246
  8
0
 10
130.20132161717561
 20
510.33097393969189
 30
0.0
 40
2.0
 50
270.0
 51
0.0
1001
GENIUS_GENOBJ-N-FIL_13
1002
{
1000
OWNER
1000
GEN
1002
}
1001
GENIUS_GENODEF_13
1002
{
1000
HIER
1070
     0
1002
}
1002
{
1000
MANEDIT
1070
     0
1002
}
1002
{
1000
NOSEL
1070
     0
1002
}
1002
{
1000
BEHIND
1070
     0
1002
}
1002
{
1000
OTHER
1070
     0
1002
}
1002
{
1000
REACTOR
1002
}
  0
LINE
  5
3247
  8
AM_0
 10
153.20132161717561
 20
542.33095693969165
 30
0.0
 11
132.20132161717561
 21
542.33095693969165
 31
0.0
  0
LINE
  5
3248
  8
0
 10
134.13152262377039
 20
531.16504188478905
 30
0.0
 11
153.20132161717561
 21
531.83097393969194
 31
0.0
  0
ARC
  5
3249
  8
0
 10
134.20132161717561
 20
529.16626023075105
 30
0.0
 40
2.0
 50
91.999999999997087
 51
180.0
1001
GENIUS_GENOBJ-N-FIL_13
1002
{
1000
OWNER
1000
GEN
1002
}
1001
GENIUS_GENODEF_13
1002
{
1000
HIER
1070
     0
1002
}
1002
{
1000
MANEDIT
1070
     0
1002
}
1002
{
1000
NOSEL
1070
     0
1002
}
1002
{
1000
BEHIND
1070
     0
1002
}
1002
{
1000
OTHER
1070
     0
1002
}
1002
{
1000
REACTOR
1002
}
  0
LINE
  5
324A
  8
AM_0
 10
153.20132161717561
 20
556.39353193969202
 30
0.0
 11
132.20132161717561
 21
556.39353193969202
 31
0.0
  0
LINE
  5
324B
  8
AM_0
 10
153.20132161717561
 20
634.33097293969217
 30
0.0
 11
132.20132161717561
 21
634.33097293969217
 31
0.0
  0
LINE
  5
324C
  8
AM_0
 10
153.20132161717561
 20
620.26841293969198
 30
0.0
 11
132.20132161717561
 21
620.26841293969198
 31
0.0
  0
LINE
  5
324D
  8
0
 10
122.20132161717559
 20
668.33097393969194
 30
0.0
 11
130.20132161717561
 21
668.33097393969194
 31
0.0
  0
LINE
  5
324E
  8
0
 10
134.13152262377039
 20
645.4969059945945
 30
0.0
 11
153.20132161717561
 21
644.83097393969194
 31
0.0
  0
ARC
  5
324F
  8
0
 10
134.20132161717561
 20
647.49568764863272
 30
0.0
 40
2.0
 50
180.0
 51
268.0000000000029
1001
GENIUS_GENOBJ-N-FIL_13
1002
{
1000
OWNER
1000
GEN
1002
}
1001
GENIUS_GENODEF_13
1002
{
1000
HIER
1070
     0
1002
}
1002
{
1000
MANEDIT
1070
     0
1002
}
1002
{
1000
NOSEL
1070
     0
1002
}
1002
{
1000
BEHIND
1070
     0
1002
}
1002
{
1000
OTHER
1070
     0
1002
}
1002
{
1000
REACTOR
1002
}
  0
ARC
  5
3250
  8
0
 10
130.20132161717561
 20
666.33097393969194
 30
0.0
 40
2.0
 50
0.0
 51
90.0
1001
GENIUS_GENOBJ-N-FIL_13
1002
{
1000
OWNER
1000
GEN
1002
}
1001
GENIUS_GENODEF_13
1002
{
1000
HIER
1070
     0
1002
}
1002
{
1000
MANEDIT
1070
     0
1002
}
1002
{
1000
NOSEL
1070
     0
1002
}
1002
{
1000
BEHIND
1070
     0
1002
}
1002
{
1000
OTHER
1070
     0
1002
}
1002
{
1000
REACTOR
1002
}
  0
TEXT
  5
3432
  8
AM_0
 10
531.16129433801552
 20
628.57976892055854
 30
0.0
 40
15.0
  1
VX02-240A~VX02-600A
  0
ENDSEC
  0
EOF
