  0
SECTION
  2
HEADER
  9
$ACADVER
  1
AC1009
  9
$INSBASE
 10
0.0
 20
0.0
 30
0.0
  9
$EXTMIN
 10
317.29286561986959
 20
314.40217271312849
 30
-0.0000000349181948
  9
$EXTMAX
 10
1107.160647476162
 20
1014.639032127161
 30
0.0000000814935747
  9
$LIMMIN
 10
0.0
 20
0.0
  9
$LIMMAX
 10
1422.5
 20
925.0
  9
$ORTHOMODE
 70
     0
  9
$REGENMODE
 70
     1
  9
$FILLMODE
 70
     1
  9
$QTEXTMODE
 70
     0
  9
$MIRRTEXT
 70
     1
  9
$DRAGMODE
 70
     2
  9
$LTSCALE
 40
5.0
  9
$OSMODE
 70
   551
  9
$ATTMODE
 70
     1
  9
$TEXTSIZE
 40
2.5
  9
$TRACEWID
 40
1.0
  9
$TEXTSTYLE
  7
STANDARD
  9
$CLAYER
  8
AM_0
  9
$CELTYPE
  6
BYLAYER
  9
$CECOLOR
 62
   256
  9
$DIMSCALE
 40
1.0
  9
$DIMASZ
 40
2.5
  9
$DIMEXO
 40
1.0
  9
$DIMDLI
 40
8.0
  9
$DIMRND
 40
0.0
  9
$DIMDLE
 40
0.0
  9
$DIMEXE
 40
0.6
  9
$DIMTP
 40
0.1
  9
$DIMTM
 40
0.1
  9
$DIMTXT
 40
2.5
  9
$DIMCEN
 40
0.0
  9
$DIMTSZ
 40
0.0
  9
$DIMTOL
 70
     0
  9
$DIMLIM
 70
     0
  9
$DIMTIH
 70
     0
  9
$DIMTOH
 70
     0
  9
$DIMSE1
 70
     0
  9
$DIMSE2
 70
     0
  9
$DIMTAD
 70
     1
  9
$DIMZIN
 70
     8
  9
$DIMBLK
  1

  9
$DIMASO
 70
     1
  9
$DIMSHO
 70
     1
  9
$DIMPOST
  1

  9
$DIMAPOST
  1
"
  9
$DIMALT
 70
     0
  9
$DIMALTD
 70
     2
  9
$DIMALTF
 40
0.0393701
  9
$DIMLFAC
 40
1.0
  9
$DIMTOFL
 70
     1
  9
$DIMTVP
 40
0.0
  9
$DIMTIX
 70
     0
  9
$DIMSOXD
 70
     0
  9
$DIMSAH
 70
     0
  9
$DIMBLK1
  1

  9
$DIMBLK2
  1

  9
$DIMSTYLE
  2
AM_ISO
  9
$DIMCLRD
 70
   256
  9
$DIMCLRE
 70
   256
  9
$DIMCLRT
 70
     4
  9
$DIMTFAC
 40
0.71
  9
$DIMGAP
 40
0.8
  9
$LUNITS
 70
     2
  9
$LUPREC
 70
     2
  9
$SKETCHINC
 40
1.0
  9
$FILLETRAD
 40
25.0
  9
$AUNITS
 70
     0
  9
$AUPREC
 70
     0
  9
$MENU
  1
.
  9
$ELEVATION
 40
0.0
  9
$PELEVATION
 40
0.0
  9
$THICKNESS
 40
0.0
  9
$LIMCHECK
 70
     0
  9
$BLIPMODE
 70
     0
  9
$CHAMFERA
 40
10.0
  9
$CHAMFERB
 40
5.0
  9
$SKPOLY
 70
     0
  9
$TDCREATE
 40
2452065.773328993
  9
$TDUPDATE
 40
2458541.4674368412
  9
$TDINDWG
 40
0.0832346528
  9
$TDUSRTIMER
 40
0.0832342708
  9
$USRTIMER
 70
     1
  9
$ANGBASE
 50
0.0
  9
$ANGDIR
 70
     0
  9
$PDMODE
 70
     0
  9
$PDSIZE
 40
0.0
  9
$PLINEWID
 40
0.0
  9
$COORDS
 70
     1
  9
$SPLFRAME
 70
     0
  9
$SPLINETYPE
 70
     6
  9
$SPLINESEGS
 70
     8
  9
$ATTDIA
 70
     1
  9
$ATTREQ
 70
     1
  9
$HANDLING
 70
     1
  9
$HANDSEED
  5
36FD
  9
$SURFTAB1
 70
     6
  9
$SURFTAB2
 70
     6
  9
$SURFTYPE
 70
     6
  9
$SURFU
 70
     6
  9
$SURFV
 70
     6
  9
$UCSNAME
  2

  9
$UCSORG
 10
0.0
 20
0.0
 30
0.0
  9
$UCSXDIR
 10
1.0
 20
0.0
 30
0.0
  9
$UCSYDIR
 10
0.0
 20
1.0
 30
0.0
  9
$PUCSNAME
  2

  9
$PUCSORG
 10
0.0
 20
0.0
 30
0.0
  9
$PUCSXDIR
 10
1.0
 20
0.0
 30
0.0
  9
$PUCSYDIR
 10
0.0
 20
1.0
 30
0.0
  9
$USERI1
 70
     0
  9
$USERI2
 70
     0
  9
$USERI3
 70
     0
  9
$USERI4
 70
     0
  9
$USERI5
 70
     0
  9
$USERR1
 40
0.0
  9
$USERR2
 40
0.0
  9
$USERR3
 40
0.0
  9
$USERR4
 40
0.0
  9
$USERR5
 40
0.0
  9
$WORLDVIEW
 70
     1
  9
$SHADEDGE
 70
     3
  9
$SHADEDIF
 70
    70
  9
$TILEMODE
 70
     1
  9
$MAXACTVP
 70
    64
  9
$PLIMCHECK
 70
     0
  9
$PEXTMIN
 10
1.0000000000000000E+020
 20
1.0000000000000000E+020
 30
1.0000000000000000E+020
  9
$PEXTMAX
 10
-1.0000000000000000E+020
 20
-1.0000000000000000E+020
 30
-1.0000000000000000E+020
  9
$PLIMMIN
 10
0.0
 20
0.0
  9
$PLIMMAX
 10
420.0
 20
297.0
  9
$UNITMODE
 70
     0
  9
$VISRETAIN
 70
     1
  9
$PLINEGEN
 70
     0
  9
$PSLTSCALE
 70
     1
  0
ENDSEC
  0
SECTION
  2
TABLES
  0
TABLE
  2
VPORT
 70
     1
  0
VPORT
  2
*ACTIVE
 70
     0
 10
0.0
 20
0.0
 11
1.0
 21
1.0
 12
712.22675654801583
 22
664.52060242014454
 13
0.0
 23
0.0
 14
12.5
 24
12.5
 15
50.0
 25
50.0
 16
0.0
 26
0.0
 36
1.0
 17
0.0
 27
0.0
 37
0.0
 40
705.04397744204596
 41
1.7571592210767459
 42
50.0
 43
0.0
 44
0.0
 50
0.0
 51
0.0
 71
     0
 72
   100
 73
     1
 74
     3
 75
     0
 76
     0
 77
     0
 78
     0
  0
ENDTAB
  0
TABLE
  2
LTYPE
 70
    27
  0
LTYPE
  2
CONTINUOUS
 70
     0
  3
Solid line
 72
    65
 73
     0
 40
0.0
  0
LTYPE
  2
AM_ISO02W050
 70
     0
  3
__ __ __ __ __ __ __ __ __ __ __ __ __ __ __
 72
    65
 73
     2
 40
7.5
 49
6.0
 49
-1.5
  0
LTYPE
  2
AM_ISO08W050
 70
     0
  3
____ . ____ . ____ . ____ . ____ . ____ . ____
 72
    65
 73
     4
 40
18.0
 49
12.0
 49
-1.5
 49
3.0
 49
-1.5
  0
LTYPE
  2
AM_ISO09W050
 70
     0
  3
_____ . . _____ . . _____ . . ____ .. ____
 72
    65
 73
     6
 40
22.5
 49
12.0
 49
-1.5
 49
3.0
 49
-1.5
 49
3.0
 49
-1.5
  0
LTYPE
  2
AMCONSTR
 70
     0
  3
_______________________
 72
    65
 73
     2
 40
9999.0
 49
9999.0
 49
0.0
  0
LTYPE
  2
AM_ISO08W050X2
 70
     0
  3
__ . __ . __ . __ . __ . __
 72
    65
 73
     4
 40
9.0
 49
6.0
 49
-0.75
 49
1.5
 49
-0.75
  0
LTYPE
  2
AM_ISO02W050X2
 70
     0
  3
 _ _ _ _ _ _ _ _ _ _ _ _
 72
    65
 73
     2
 40
3.75
 49
3.0
 49
-0.75
  0
LTYPE
  2
AMZIGZAG
 70
     0
  3
/\/-/\/-/\/-/\/-/\/-/\/
 72
    65
 73
     2
 40
11.000099999999991
 49
0.0001
 49
-11.0
  0
LTYPE
  2
ACISOWELD
 70
     0
  3
_ _ _ _ _
 72
    65
 73
     2
 40
2.0
 49
2.0
 49
-1.0
  0
LTYPE
  2
ACISOTGB
 70
     0
  3
__ . . __ . .
 72
    65
 73
     6
 40
9.0
 49
4.0
 49
-1.0
 49
1.0
 49
-1.0
 49
1.0
 49
-1.0
  0
LTYPE
  2
ACISOTGL
 70
     0
  3
_ _ _ _ _
 72
    65
 73
     2
 40
3.0
 49
2.0
 49
-1.0
  0
LTYPE
  2
CENTER
 70
     0
  3
__ . __
 72
    65
 73
     4
 40
7.0
 49
4.0
 49
-1.0
 49
1.0
 49
-1.0
  0
LTYPE
  2
PHANTOM2
 70
     0
  3
Phantom (.5x) ___ _ _ ___ _ _ ___ _ _ ___ _ _
 72
    65
 73
     6
 40
31.75
 49
15.875
 49
-3.174999999999998
 49
3.174999999999998
 49
-3.174999999999998
 49
3.174999999999998
 49
-3.174999999999998
  0
LTYPE
  2
ACANSTGBM
 70
     0
  3
__ . . __ . .
 72
    65
 73
     6
 40
9.0
 49
4.0
 49
-1.0
 49
1.0
 49
-1.0
 49
1.0
 49
-1.0
  0
LTYPE
  2
ACANSTGLM
 70
     0
  3
_ _ _ _ _
 72
    65
 73
     2
 40
3.0
 49
2.0
 49
-1.0
  0
LTYPE
  2
GEN7
 70
     0
  3
____ . ____ . ____ . ____ . ____ . ____ . ____
 72
    65
 73
     4
 40
14.25
 49
9.75
 49
-1.5
 49
1.5
 49
-1.5
  0
LTYPE
  2
GEN3B
 70
     0
  3
 - - - - -
 72
    65
 73
     2
 40
1.0
 49
0.5
 49
-0.5
  0
LTYPE
  2
GEN7A
 70
     0
  3
__ . __ . __
 72
    65
 73
     4
 40
7.375
 49
4.75
 49
-0.875
 49
0.875
 49
-0.875
  0
LTYPE
  2
ACJISTGB
 70
     0
  3
__ . . __ . .
 72
    65
 73
     6
 40
9.0
 49
4.0
 49
-1.0
 49
1.0
 49
-1.0
 49
1.0
 49
-1.0
  0
LTYPE
  2
ACJISTGL
 70
     0
  3
_ _ _ _ _
 72
    65
 73
     2
 40
3.0
 49
2.0
 49
-1.0
  0
LTYPE
  2
HIDDEN
 70
     0
  3
Hidden __ __ __ __ __ __ __ __ __ __ __ __ __ _
 72
    65
 73
     2
 40
0.375
 49
0.25
 49
-0.125
  0
LTYPE
  2
CENTER2
 70
     0
  3
Center (.5x) ___ _ ___ _ ___ _ ___ _ ___ _ ___
 72
    65
 73
     4
 40
1.125
 49
0.75
 49
-0.125
 49
0.125
 49
-0.125
  0
LTYPE
  2
HIDDEN2
 70
     0
  3
Hidden (.5x) _ _ _ _ _ _ _ _ _ _ _ _ _ _ _ _ _
 72
    65
 73
     2
 40
0.1875
 49
0.125
 49
-0.0625
  0
LTYPE
  2
AMZIGZAG2
 70
     0
  3
/\/-/\/-/\/-/\/-/\/-/\/
 72
    65
 73
     2
 40
0.4401
 49
0.0001
 49
-0.4400000000000002
  0
LTYPE
  2
ACANSTGB
 70
     0
  3
__ . . __ . .
 72
    65
 73
     6
 40
0.35433070866
 49
0.15748031496
 49
-0.03937007874
 49
0.03937007874
 49
-0.03937007874
 49
0.03937007874
 49
-0.03937007874
  0
LTYPE
  2
ACANSTGL
 70
     0
  3
_ _ _ _ _
 72
    65
 73
     2
 40
0.11811023622
 49
0.07874015748
 49
-0.03937007874
  0
ENDTAB
  0
TABLE
  2
LAYER
 70
     7
  0
LAYER
  2
0
 70
     0
 62
     7
  6
CONTINUOUS
  0
LAYER
  2
AM_0
 70
     0
 62
     7
  6
CONTINUOUS
  0
LAYER
  2
AM_5
 70
     0
 62
     2
  6
CONTINUOUS
  0
LAYER
  2
DEFPOINTS
 70
     0
 62
     7
  6
CONTINUOUS
  0
LAYER
  2
ｶｸﾚｾﾝ2
 70
     0
 62
     3
  6
GEN3B
  0
LAYER
  2
ﾁｭｳｼﾝｾﾝ
 70
     0
 62
     1
  6
GEN7
  0
LAYER
  2
ﾁｭｳｼﾝｾﾝ1
 70
     0
 62
     1
  6
GEN7A
  0
ENDTAB
  0
TABLE
  2
STYLE
 70
     9
  0
STYLE
  2
STANDARD
 70
     0
 40
0.0
 41
0.8299999999999999
 50
0.0
 71
     0
 42
2.5
  3
txt.shx
  4
bigfont.shx
  0
STYLE
  2
ANNOTATIVE
 70
     0
 40
0.0
 41
1.0
 50
0.0
 71
     0
 42
0.2
  3
txt
  4

  0
STYLE
  2

 70
     1
 40
0.0
 41
1.0
 50
0.0
 71
     0
 42
2.5
  3
ltypeshp.shx
  4

  0
STYLE
  2
ACISOTS
 70
     0
 40
1.0
 41
1.0
 50
0.0
 71
     0
 42
2.5
  3
isocp.shx
  4
extfont.shx
  0
STYLE
  2
ACISOGDT
 70
     0
 40
0.0
 41
1.0
 50
0.0
 71
     0
 42
2.5
  3
amgdt.shx
  4

  0
STYLE
  2
ACANSTS
 70
     0
 40
1.0
 41
1.0
 50
0.0
 71
     0
 42
2.5
  3
romans.shx
  4
bigfont.shx
  0
STYLE
  2
ACANSGDT
 70
     0
 40
0.0
 41
1.0
 50
0.0
 71
     0
 42
2.5
  3
amgdt.shx
  4

  0
STYLE
  2
ACJISTS
 70
     0
 40
1.0
 41
1.0
 50
0.0
 71
     0
 42
2.5
  3
isocp.shx
  4
bigfont.shx
  0
STYLE
  2
ACJISGDT
 70
     0
 40
0.0
 41
1.0
 50
0.0
 71
     0
 42
2.5
  3
amgdt.shx
  4

  0
ENDTAB
  0
TABLE
  2
VIEW
 70
     6
  0
VIEW
  2
AM_VIEW1
 70
     0
 40
462.5
 10
416.07965009208078
 20
693.75
 41
832.15930018416213
 11
0.0
 21
0.0
 31
1.0
 12
0.0
 22
0.0
 32
0.0
 42
50.0
 43
0.0
 44
0.0
 50
0.0
 71
     0
  0
VIEW
  2
AM_VIEW2
 70
     0
 40
462.5
 10
1006.420349907918
 20
693.75
 41
832.15930018416213
 11
0.0
 21
0.0
 31
1.0
 12
0.0
 22
0.0
 32
0.0
 42
50.0
 43
0.0
 44
0.0
 50
0.0
 71
     0
  0
VIEW
  2
AM_VIEW3
 70
     0
 40
462.5
 10
416.07965009208078
 20
231.25
 41
832.15930018416213
 11
0.0
 21
0.0
 31
1.0
 12
0.0
 22
0.0
 32
0.0
 42
50.0
 43
0.0
 44
0.0
 50
0.0
 71
     0
  0
VIEW
  2
AM_VIEW4
 70
     0
 40
462.5
 10
1006.420349907918
 20
231.25
 41
832.15930018416213
 11
0.0
 21
0.0
 31
1.0
 12
0.0
 22
0.0
 32
0.0
 42
50.0
 43
0.0
 44
0.0
 50
0.0
 71
     0
  0
VIEW
  2
AM_VIEW5
 70
     0
 40
462.5
 10
711.24999999999966
 20
462.5
 41
832.15930018416179
 11
0.0
 21
0.0
 31
1.0
 12
0.0
 22
0.0
 32
0.0
 42
50.0
 43
0.0
 44
0.0
 50
0.0
 71
     0
  0
VIEW
  2
AM_VIEW6
 70
     0
 40
924.99075000000005
 10
711.24999999999966
 20
462.5
 41
1664.3019571823199
 11
0.0
 21
0.0
 31
1.0
 12
0.0
 22
0.0
 32
0.0
 42
50.0
 43
0.0
 44
0.0
 50
0.0
 71
     0
  0
ENDTAB
  0
TABLE
  2
UCS
 70
     0
  0
ENDTAB
  0
TABLE
  2
APPID
 70
    95
  0
APPID
  2
ACAD
 70
     0
  0
APPID
  2
ACADANNOTATIVE
 70
     0
  0
APPID
  2
MCAD_NO_VIS
 70
     0
  0
APPID
  2
ACAD_TEMP_GRAPHIC
 70
     0
  0
APPID
  2
ACATTRIBSERVICES
 70
     0
  0
APPID
  2
GENIUS_GENREC_14
 70
     0
  0
APPID
  2
GENIUS_GENOBJ-N-REC_13
 70
     0
  0
APPID
  2
GENIUS_GENODEF_13
 70
     0
  0
APPID
  2
GENIUS_GENOLIS_13
 70
     0
  0
APPID
  2
GENIUS_GENOBJ-N-TIT_13
 70
     0
  0
APPID
  2
GENIUS_GENOENT_13
 70
     0
  0
APPID
  2
GENIUS_GENTITLE_13
 70
     0
  0
APPID
  2
GENIUS_GENOREF_13
 70
     0
  0
APPID
  2
GENIUS_GENSCREG_15
 70
     0
  0
APPID
  2
GENIUS_GENOBJ-N-SDF_13
 70
     0
  0
APPID
  2
GENIUS_GENFIL_13
 70
     0
  0
APPID
  2
GENIUS_GENOBJ-N-CHA_13
 70
     0
  0
APPID
  2
GENIUS_GENDTOL_13
 70
     0
  0
APPID
  2
GENIUS_GENOBJ-N-FIL_13
 70
     0
  0
APPID
  2
AD_DRAW
 70
     0
  0
APPID
  2
DESIGNERASSEMBLIES
 70
     0
  0
APPID
  2
ASURF_PCURVE_APPNAME
 70
     0
  0
APPID
  2
GENIUS_GE3SECT_13
 70
     0
  0
APPID
  2
GENIUS_GENCFG_13
 70
     0
  0
APPID
  2
GENIUS_GE3CFG0_13
 70
     0
  0
APPID
  2
GENIUS_GENCFG0_13
 70
     0
  0
APPID
  2
GENIUS_GENCFG1_13
 70
     0
  0
APPID
  2
GENIUS_GENCFG2_13
 70
     0
  0
APPID
  2
GENIUS_GENCFG3_13
 70
     0
  0
APPID
  2
GENIUS_GENCFG4_13
 70
     0
  0
APPID
  2
GENIUS_GEVCFG0_13
 70
     0
  0
APPID
  2
GENIUS_GENHINW_13
 70
     0
  0
APPID
  2
GENIUS_FIRSTVISTXT_14
 70
     0
  0
APPID
  2
GENIUS_GENOBJ-N-LEADER_13
 70
     0
  0
APPID
  2
GEV_VCCNULL_SWITCH_OFF
 70
     0
  0
APPID
  2
GENIUS_GEFCFG0_13
 70
     0
  0
APPID
  2
GENIUS_GENZVEED_13
 70
     0
  0
APPID
  2
GENIUS_GENSCREG_13
 70
     0
  0
APPID
  2
GENIUS_DUMCFG0_13
 70
     0
  0
APPID
  2
GEVID936201362
 70
     0
  0
APPID
  2
GEVDC
 70
     0
  0
APPID
  2
GEVCON
 70
     0
  0
APPID
  2
VCC
 70
     0
  0
APPID
  2
GEVPT
 70
     0
  0
APPID
  2
GEVIT
 70
     0
  0
APPID
  2
GENBH
 70
     0
  0
APPID
  2
GEVMK
 70
     0
  0
APPID
  2
GENIUS_GENBH_13
 70
     0
  0
APPID
  2
GENIUS_GENOBJ-NBEHI-BHF_13
 70
     0
  0
APPID
  2
GENIUS_GENOBJ-NBEHI-BHB_13
 70
     0
  0
APPID
  2
GENIUS_GENOBJ-F-DESC_13
 70
     0
  0
APPID
  2
GENIUS_GEFDESC_14
 70
     0
  0
APPID
  2
GENIUS_GENOBJ-F-PART_13
 70
     0
  0
APPID
  2
GENIUS_GEFSTDP_13
 70
     0
  0
APPID
  2
GENIUS_GEFPARTINS_13
 70
     0
  0
APPID
  2
GENIUS_GENTRA_14
 70
     0
  0
APPID
  2
GENIUS_GENINF13_13
 70
     0
  0
APPID
  2
GENIUS_GENOBJ-N-INFOPT_13
 70
     0
  0
APPID
  2
GENIUS_GENOBJ-N-RSSYM_13
 70
     0
  0
APPID
  2
GENIUS_GENSYMENT_13
 70
     0
  0
APPID
  2
GENIUS_GENSCSYM_13
 70
     0
  0
APPID
  2
GENIUS_GEFINFNAM_13
 70
     0
  0
APPID
  2
GENIUS_GENOBJ-N-CEN_13
 70
     0
  0
APPID
  2
GENIUS_GENOBJ-N-CRS_13
 70
     0
  0
APPID
  2
GENIUS_GENOBJ-N-CRC_13
 70
     0
  0
APPID
  2
GENIUS_GENCRC_14
 70
     0
  0
APPID
  2
GEVID942827039
 70
     0
  0
APPID
  2
GEVID942827040
 70
     0
  0
APPID
  2
GEVID942827041
 70
     0
  0
APPID
  2
GENIUS_GENOBJ-F-SCPASSM_13
 70
     0
  0
APPID
  2
GENIUS_GENDIMSH_14
 70
     0
  0
APPID
  2
GEVID942827042
 70
     0
  0
APPID
  2
GEVID946020473
 70
     0
  0
APPID
  2
GEVID946020474
 70
     0
  0
APPID
  2
GEVID946020475
 70
     0
  0
APPID
  2
GENIUS_GENOBJ-N-HTC_13
 70
     0
  0
APPID
  2
GENIUS_GENHATCH_13
 70
     0
  0
APPID
  2
GEVID948854295
 70
     0
  0
APPID
  2
GEVID939402019
 70
     0
  0
APPID
  2
GEVID952919491
 70
     0
  0
APPID
  2
GEVID952919492
 70
     0
  0
APPID
  2
GENIUS_GEFWELD_13
 70
     0
  0
APPID
  2
GENIUS_GENOBJ-F-WELS_13
 70
     0
  0
APPID
  2
GEVID952919493
 70
     0
  0
APPID
  2
GENIUS_GENOBJ-N-RSBK_13
 70
     0
  0
APPID
  2
GENIUS_GENOBJ-N-LIB_13
 70
     0
  0
APPID
  2
GENIUS_GENSCALE_13
 70
     0
  0
APPID
  2
GEVID986376691
 70
     0
  0
APPID
  2
DCO15
 70
     0
  0
APPID
  2
ACAD_DSTYLE_DIMBREAK
 70
     0
  0
APPID
  2
ACAD_DSTYLE_DIMJAG
 70
     0
  0
APPID
  2
ACAD_NAV_VCDISPLAY
 70
     0
  0
APPID
  2
ACADANNOPO
 70
     0
  0
APPID
  2
ACAD_EXEMPT_FROM_CAD_STANDARDS
 70
     0
  0
APPID
  2
ACAD_MLEADERVER
 70
     0
  0
ENDTAB
  0
TABLE
  2
DIMSTYLE
 70
    22
  0
DIMSTYLE
  2
STANDARD
 70
     0
  3

  4

  5

  6

  7

 40
1.0
 41
0.18
 42
0.0625
 43
0.38
 44
0.18
 45
0.0
 46
0.0
 47
0.0
 48
0.0
140
0.18
141
0.09
142
0.0
143
25.399999999999999
144
1.0
145
0.0
146
1.0
147
0.09
 71
     0
 72
     0
 73
     1
 74
     1
 75
     0
 76
     0
 77
     0
 78
     0
170
     0
171
     2
172
     0
173
     0
174
     0
175
     0
176
     0
177
     0
178
     0
  0
DIMSTYLE
  2
ANNOTATIVE
 70
     0
  3

  4

  5

  6

  7

 40
1.0
 41
0.18
 42
0.0625
 43
0.38
 44
0.18
 45
0.0
 46
0.0
 47
0.0
 48
0.0
140
0.18
141
0.09
142
0.0
143
25.399999999999999
144
1.0
145
0.0
146
1.0
147
0.09
 71
     0
 72
     0
 73
     1
 74
     1
 75
     0
 76
     0
 77
     0
 78
     0
170
     0
171
     2
172
     0
173
     0
174
     0
175
     0
176
     0
177
     0
178
     0
  0
DIMSTYLE
  2
AM_ISO
 70
     0
  3

  4
"
  5

  6

  7

 40
1.0
 41
2.5
 42
1.0
 43
8.0
 44
0.6
 45
0.0
 46
0.0
 47
0.1
 48
0.1
140
2.5
141
0.0
142
0.0
143
0.0393701
144
1.0
145
0.0
146
0.71
147
0.8
 71
     0
 72
     0
 73
     0
 74
     0
 75
     0
 76
     0
 77
     1
 78
     8
170
     0
171
     2
172
     1
173
     0
174
     0
175
     0
176
   256
177
   256
178
     4
  0
DIMSTYLE
  2
AM_ISO$3
 70
     0
  3

  4
"
  5

  6

  7

 40
1.0
 41
2.5
 42
1.0
 43
8.0
 44
0.6
 45
0.0
 46
0.0
 47
0.1
 48
0.1
140
2.5
141
0.0
142
0.0
143
0.0393701
144
1.0
145
0.0
146
0.71
147
0.8
 71
     0
 72
     0
 73
     0
 74
     1
 75
     0
 76
     0
 77
     1
 78
     8
170
     0
171
     2
172
     0
173
     0
174
     0
175
     0
176
   256
177
   256
178
     4
  0
DIMSTYLE
  2
AM_ISO$4
 70
     0
  3

  4
"
  5

  6

  7

 40
1.0
 41
2.5
 42
1.0
 43
8.0
 44
0.6
 45
0.0
 46
0.0
 47
0.1
 48
0.1
140
2.5
141
0.0
142
0.0
143
0.0393701
144
1.0
145
0.0
146
0.71
147
0.8
 71
     0
 72
     0
 73
     0
 74
     1
 75
     0
 76
     0
 77
     1
 78
     8
170
     0
171
     2
172
     0
173
     0
174
     0
175
     0
176
   256
177
   256
178
     4
  0
DIMSTYLE
  2
AM_ISO$6
 70
     0
  3

  4
"
  5

  6

  7

 40
1.0
 41
2.5
 42
1.0
 43
8.0
 44
0.6
 45
0.0
 46
0.0
 47
0.1
 48
0.1
140
2.5
141
0.0
142
0.0
143
0.0393701
144
1.0
145
0.0
146
0.71
147
0.8
 71
     0
 72
     0
 73
     0
 74
     0
 75
     0
 76
     0
 77
     0
 78
     8
170
     0
171
     2
172
     1
173
     0
174
     0
175
     0
176
   256
177
   256
178
     4
  0
DIMSTYLE
  2
AM_ISO$7
 70
     0
  3

  4
"
  5

  6

  7

 40
1.0
 41
2.5
 42
1.0
 43
8.0
 44
0.6
 45
0.0
 46
0.0
 47
0.1
 48
0.1
140
2.5
141
0.0
142
0.0
143
0.0393701
144
1.0
145
0.0
146
0.71
147
0.8
 71
     0
 72
     0
 73
     0
 74
     0
 75
     0
 76
     0
 77
     1
 78
     8
170
     0
171
     2
172
     1
173
     0
174
     0
175
     0
176
   256
177
   256
178
     4
  0
DIMSTYLE
  2
AM_ISO$SF
 70
     0
  3

  4
"
  5

  6

  7

 40
1.0
 41
2.5
 42
1.0
 43
10.0
 44
1.0
 45
0.0
 46
0.0
 47
0.1
 48
0.1
140
3.5
141
0.0
142
0.0
143
0.0393701
144
1.0
145
0.0
146
0.71
147
1.5
 71
     0
 72
     0
 73
     0
 74
     0
 75
     1
 76
     1
 77
     1
 78
     8
170
     0
171
     2
172
     1
173
     0
174
     0
175
     0
176
   256
177
   256
178
     2
  0
DIMSTYLE
  2
AM_ISO$SH
 70
     0
  3

  4
"
  5

  6

  7

 40
1.0
 41
2.5
 42
1.0
 43
10.0
 44
1.0
 45
0.0
 46
0.0
 47
0.1
 48
0.1
140
3.5
141
0.0
142
0.0
143
0.0393701
144
2.0
145
0.0
146
0.71
147
1.5
 71
     0
 72
     0
 73
     0
 74
     0
 75
     1
 76
     1
 77
     1
 78
     8
170
     0
171
     2
172
     1
173
     1
174
     0
175
     0
176
   256
177
   256
178
     2
  0
DIMSTYLE
  2
AM_JIS
 70
     0
  3

  4
"
  5

  6

  7

 40
1.0
 41
2.5
 42
1.0
 43
7.0
 44
1.0
 45
0.0
 46
0.0
 47
0.1
 48
0.1000000001
140
2.5
141
0.0
142
0.0
143
0.0393701
144
1.0
145
0.0
146
0.71
147
1.0
 71
     0
 72
     0
 73
     0
 74
     0
 75
     0
 76
     0
 77
     3
 78
     8
170
     0
171
     2
172
     1
173
     0
174
     0
175
     0
176
   256
177
   256
178
     4
  0
DIMSTYLE
  2
AM_JIS$3
 70
     0
  3

  4
"
  5

  6

  7

 40
1.0
 41
2.5
 42
1.0
 43
7.0
 44
1.0
 45
0.0
 46
0.0
 47
0.1
 48
0.1000000001
140
2.5
141
0.0
142
0.0
143
0.0393701
144
1.0
145
0.0
146
0.71
147
1.0
 71
     0
 72
     0
 73
     0
 74
     1
 75
     0
 76
     0
 77
     3
 78
     8
170
     0
171
     2
172
     0
173
     0
174
     0
175
     0
176
   256
177
   256
178
     4
  0
DIMSTYLE
  2
AM_JIS$4
 70
     0
  3

  4
"
  5

  6

  7

 40
1.0
 41
2.5
 42
1.0
 43
7.0
 44
1.0
 45
0.0
 46
0.0
 47
0.1
 48
0.1000000001
140
2.5
141
0.0
142
0.0
143
0.0393701
144
1.0
145
0.0
146
0.71
147
1.0
 71
     0
 72
     0
 73
     0
 74
     0
 75
     0
 76
     0
 77
     3
 78
     8
170
     0
171
     2
172
     0
173
     0
174
     0
175
     0
176
   256
177
   256
178
     4
  0
DIMSTYLE
  2
AM_JIS$6
 70
     0
  3

  4
"
  5

  6

  7

 40
1.0
 41
2.5
 42
1.0
 43
7.0
 44
1.0
 45
0.0
 46
0.0
 47
0.1
 48
0.1000000001
140
2.5
141
0.0
142
0.0
143
0.0393701
144
1.0
145
0.0
146
0.71
147
1.0
 71
     0
 72
     0
 73
     0
 74
     0
 75
     0
 76
     0
 77
     0
 78
     8
170
     0
171
     2
172
     1
173
     0
174
     0
175
     0
176
   256
177
   256
178
     4
  0
DIMSTYLE
  2
AM_JIS$7
 70
     0
  3

  4
"
  5

  6

  7

 40
1.0
 41
2.5
 42
1.0
 43
7.0
 44
1.0
 45
0.0
 46
0.0
 47
0.1
 48
0.1000000001
140
2.5
141
0.0
142
0.0
143
0.0393701
144
1.0
145
0.0
146
0.71
147
1.0
 71
     0
 72
     0
 73
     0
 74
     0
 75
     0
 76
     0
 77
     3
 78
     8
170
     0
171
     2
172
     1
173
     0
174
     0
175
     0
176
   256
177
   256
178
     4
  0
DIMSTYLE
  2
AM_JIS$SF
 70
     0
  3

  4
"
  5

  6

  7

 40
1.0
 41
2.5
 42
1.0
 43
10.0
 44
1.0
 45
0.0
 46
0.0
 47
0.1
 48
0.1
140
3.5
141
0.0
142
0.0
143
0.0393701
144
1.0
145
0.0
146
0.71
147
1.5
 71
     0
 72
     0
 73
     0
 74
     0
 75
     1
 76
     1
 77
     3
 78
     8
170
     0
171
     2
172
     1
173
     0
174
     0
175
     0
176
   256
177
   256
178
     4
  0
DIMSTYLE
  2
AM_JIS$SH
 70
     0
  3

  4
"
  5

  6

  7

 40
1.0
 41
2.5
 42
1.0
 43
10.0
 44
1.0
 45
0.0
 46
0.0
 47
0.1
 48
0.1
140
3.5
141
0.0
142
0.0
143
0.0393701
144
1.0
145
0.0
146
0.71
147
1.5
 71
     0
 72
     0
 73
     0
 74
     0
 75
     1
 76
     0
 77
     3
 78
     8
170
     0
171
     2
172
     1
173
     1
174
     0
175
     0
176
   256
177
   256
178
     4
  0
DIMSTYLE
  2
AM_ANSI
 70
     0
  3

  4
mm
  5

  6

  7

 40
1.0
 41
0.1
 42
0.05
 43
0.5
 44
0.1
 45
0.0
 46
0.0
 47
0.1
 48
0.1
140
0.12
141
0.0
142
0.0
143
25.399999999999999
144
1.0
145
0.0
146
0.71
147
0.06
 71
     0
 72
     0
 73
     1
 74
     1
 75
     0
 76
     0
 77
     0
 78
     7
170
     0
171
     2
172
     0
173
     0
174
     0
175
     0
176
   256
177
   256
178
     2
  0
DIMSTYLE
  2
AM_ANSI$3
 70
     0
  3

  4
mm
  5

  6

  7

 40
1.0
 41
0.1
 42
0.05
 43
0.5
 44
0.1
 45
0.0
 46
0.0
 47
0.1
 48
0.1
140
0.12
141
0.0
142
0.0
143
25.399999999999999
144
1.0
145
0.0
146
0.71
147
0.06
 71
     0
 72
     0
 73
     1
 74
     1
 75
     0
 76
     0
 77
     0
 78
     7
170
     0
171
     2
172
     0
173
     0
174
     0
175
     0
176
   256
177
   256
178
     2
  0
DIMSTYLE
  2
AM_ANSI$4
 70
     0
  3

  4
mm
  5

  6

  7

 40
1.0
 41
0.1
 42
0.05
 43
0.5
 44
0.1
 45
0.0
 46
0.0
 47
0.1
 48
0.1
140
0.12
141
0.0
142
0.0
143
25.399999999999999
144
1.0
145
0.0
146
0.71
147
0.06
 71
     0
 72
     0
 73
     1
 74
     1
 75
     0
 76
     0
 77
     0
 78
     7
170
     0
171
     2
172
     0
173
     0
174
     0
175
     0
176
   256
177
   256
178
     2
  0
DIMSTYLE
  2
AM_ANSI$7
 70
     0
  3

  4
mm
  5

  6

  7

 40
1.0
 41
0.1
 42
0.05
 43
0.5
 44
0.1
 45
0.0
 46
0.0
 47
0.1
 48
0.1
140
0.24
141
0.0
142
0.0
143
25.399999999999999
144
1.0
145
0.0
146
0.71
147
0.06
 71
     0
 72
     0
 73
     1
 74
     1
 75
     0
 76
     0
 77
     0
 78
     7
170
     0
171
     2
172
     0
173
     0
174
     0
175
     0
176
   256
177
   256
178
     2
  0
DIMSTYLE
  2
AM_ANSI$SF
 70
     0
  3

  4
mm
  5

  6

  7

 40
1.0
 41
0.1
 42
0.05
 43
0.5
 44
0.1
 45
0.0
 46
0.0
 47
0.1
 48
0.1
140
0.12
141
0.0
142
0.0
143
25.399999999999999
144
1.0
145
0.0
146
0.71
147
0.06
 71
     0
 72
     0
 73
     1
 74
     1
 75
     1
 76
     1
 77
     0
 78
     7
170
     0
171
     2
172
     0
173
     0
174
     0
175
     0
176
   256
177
   256
178
     2
  0
DIMSTYLE
  2
AM_ANSI$SH
 70
     0
  3

  4
mm
  5

  6

  7

 40
1.0
 41
0.1
 42
0.05
 43
0.5
 44
0.1
 45
0.0
 46
0.0
 47
0.1
 48
0.1
140
0.12
141
0.0
142
0.0
143
25.399999999999999
144
1.0
145
0.0
146
0.71
147
0.06
 71
     0
 72
     0
 73
     1
 74
     1
 75
     1
 76
     1
 77
     0
 78
     7
170
     0
171
     2
172
     0
173
     1
174
     0
175
     0
176
   256
177
   256
178
     2
  0
ENDTAB
  0
ENDSEC
  0
SECTION
  2
BLOCKS
  0
BLOCK
  8
0
  2
$MODEL_SPACE
 70
     0
 10
0.0
 20
0.0
 30
0.0
  3
$MODEL_SPACE
  1

  0
ENDBLK
  5
356F
  8
0
  0
BLOCK
 67
     1
  8
0
  2
$PAPER_SPACE
 70
     0
 10
0.0
 20
0.0
 30
0.0
  3
$PAPER_SPACE
  1

  0
ENDBLK
  5
356B
 67
     1
  8
0
  0
BLOCK
  8
0
  2
GENAXEH
 70
     0
 10
0.0
 20
0.0
 30
0.0
  3
GENAXEH
  1

  0
LINE
  5
32A1
  8
0
 10
-1.0
 20
0.0
 30
0.0
 11
1.0
 21
0.0
 31
0.0
  0
ENDBLK
  5
32A2
  8
0
  0
BLOCK
  8
0
  2
_OPEN30
 70
     0
 10
0.0
 20
0.0
 30
0.0
  3
_OPEN30
  1

  0
LINE
  5
32A5
  8
0
 62
     0
 10
-1.0
 20
0.26794919
 30
0.0
 11
0.0
 21
0.0
 31
0.0
  0
LINE
  5
32A6
  8
0
 62
     0
 10
0.0
 20
0.0
 30
0.0
 11
-1.0
 21
-0.26794919
 31
0.0
  0
LINE
  5
32A7
  8
0
 62
     0
 10
0.0
 20
0.0
 30
0.0
 11
-1.0
 21
0.0
 31
0.0
  0
ENDBLK
  5
32A8
  8
0
  0
BLOCK
  8
0
  2
_NONE
 70
     0
 10
0.0
 20
0.0
 30
0.0
  3
_NONE
  1

  0
ENDBLK
  5
32AB
  8
0
  0
BLOCK
  8
0
  2
_ACMFILLEDHALF
 70
     0
 10
0.0
 20
0.0
 30
0.0
  3
_ACMFILLEDHALF
  1

  0
TRACE
  5
3667
  8
AM_0
 62
     0
 10
-0.8
 20
0.0
 30
0.0
 11
-1.0
 21
0.166666666
 31
0.0
 12
0.0
 22
0.0
 32
0.0
 13
0.0
 23
0.0
 33
0.0
  0
LINE
  5
3668
  8
AM_0
 62
     0
 10
-1.0
 20
0.0
 30
0.0
 11
-0.8
 21
0.0
 31
0.0
  0
ENDBLK
  5
3666
  8
0
  0
ENDSEC
  0
SECTION
  2
ENTITIES
  0
POLYLINE
  5
32AD
  8
AM_0
 66
     1
 10
0.0
 20
0.0
 30
0.0
  0
VERTEX
  5
32AE
  8
AM_0
 10
402.73347596495421
 20
919.99524158563145
 30
0.0
 42
-0.011693505
  0
VERTEX
  5
32AF
  8
AM_0
 10
406.29636596495419
 20
924.4916115856314
 30
0.0
 42
-0.01121677
  0
VERTEX
  5
32B0
  8
AM_0
 10
410.0612459649542
 20
928.82038158563125
 30
0.0
 42
-0.011000238
  0
VERTEX
  5
32B1
  8
AM_0
 10
414.01334596495423
 20
932.97682158563146
 30
0.0
  0
SEQEND
  5
32B2
  8
AM_0
  0
POLYLINE
  5
32B3
  8
AM_0
 66
     1
 10
0.0
 20
0.0
 30
0.0
  0
VERTEX
  5
32B4
  8
AM_0
 10
402.73347596495421
 20
829.15901158563145
 30
0.0
 42
0.011693477
  0
VERTEX
  5
32B5
  8
AM_0
 10
406.29636596495419
 20
824.66265158563147
 30
0.0
 42
0.01121672
  0
VERTEX
  5
32B6
  8
AM_0
 10
410.0612459649542
 20
820.33388158563162
 30
0.0
 42
0.011000161
  0
VERTEX
  5
32B7
  8
AM_0
 10
414.01334596495423
 20
816.17744158563141
 30
0.0
  0
SEQEND
  5
32B8
  8
AM_0
  0
LINE
  5
32B9
  8
AM_0
 10
412.04502596495422
 20
816.2461715856316
 30
0.0
 11
359.61375596495401
 21
818.07710158563145
 31
0.0
  0
LINE
  5
32BA
  8
AM_0
 10
359.61368596495402
 20
931.07710158563145
 30
0.0
 11
412.04502596495422
 21
932.90803158563142
 31
0.0
  0
LINE
  5
32BB
  8
AM_0
 10
385.61368596495402
 20
861.57710158563145
 30
0.0
 11
416.9163659649542
 21
861.57710158563145
 31
0.0
  0
LINE
  5
32BC
  8
AM_0
 10
385.61368596495402
 20
887.57710158563134
 30
0.0
 11
416.9163659649542
 21
887.57710158563134
 31
0.0
  0
LINE
  5
32BD
  8
ﾁｭｳｼﾝｾﾝ
 10
317.33283594601471
 20
874.57708658563126
 30
0.0
 11
698.62772596495404
 21
874.57710158563145
 31
0.0
  0
POLYLINE
  5
32BE
  8
AM_0
 66
     1
 10
0.0
 20
0.0
 30
0.0
  0
VERTEX
  5
32BF
  8
AM_0
 10
386.58324596495419
 20
861.57738158563143
 30
0.0
  0
VERTEX
  5
32C0
  8
AM_0
 10
394.01052596495418
 20
842.63798158563145
 30
0.0
 42
-1.0
  0
SEQEND
  5
32C1
  8
AM_0
  0
LINE
  5
32C2
  8
AM_0
 10
359.61368596495402
 20
818.07710158563145
 30
0.0
 11
359.61368596495402
 21
931.07710158563145
 31
0.0
  0
LINE
  5
32C3
  8
AM_0
 10
359.61368596495402
 20
842.63716158563125
 30
0.0
 11
395.70603596495403
 21
842.63716158563125
 31
0.0
  0
LINE
  5
32C4
  8
AM_0
 10
359.61368596495402
 20
828.57710158563145
 30
0.0
 11
400.95640596495417
 21
828.57710158563145
 31
0.0
  0
ARC
  5
32C5
  8
AM_0
 10
395.70603596495403
 20
839.63716158563113
 30
0.0
 40
3.0
 50
30.468076999999081
 51
90.00000299999769
  0
POLYLINE
  5
32C6
  8
AM_0
 66
     1
 10
0.0
 20
0.0
 30
0.0
  0
VERTEX
  5
32C7
  8
AM_0
 10
398.2917459649542
 20
841.15835158563164
 30
0.0
 42
0.0058779346
  0
VERTEX
  5
32C8
  8
AM_0
 10
399.50136596495429
 20
839.15677158563142
 30
0.0
 42
0.0056588677
  0
VERTEX
  5
32C9
  8
AM_0
 10
400.75684596495421
 20
837.1836215856315
 30
0.0
 42
0.0054619133
  0
VERTEX
  5
32CA
  8
AM_0
 10
402.0558859649542
 20
835.2388715856315
 30
0.0
 42
0.0052861212
  0
VERTEX
  5
32CB
  8
AM_0
 10
403.39641596495397
 20
833.32247158563155
 30
0.0
  0
SEQEND
  5
32CC
  8
AM_0
  0
ARC
  5
32CD
  8
AM_0
 10
400.95640596495417
 20
831.57710158563145
 30
0.0
 40
3.0
 50
269.999989999999
 51
35.575751000001212
  0
LINE
  5
32CE
  8
AM_0
 10
359.61368596495402
 20
906.51704158563143
 30
0.0
 11
395.70603596495403
 21
906.51704158563143
 31
0.0
  0
LINE
  5
32CF
  8
AM_0
 10
359.61368596495402
 20
920.57710158563123
 30
0.0
 11
400.95640596495417
 21
920.57710158563123
 31
0.0
  0
POLYLINE
  5
32D0
  8
AM_0
 66
     1
 10
0.0
 20
0.0
 30
0.0
  0
VERTEX
  5
32D1
  8
AM_0
 10
386.58324596495419
 20
887.57683158563157
 30
0.0
  0
VERTEX
  5
32D2
  8
AM_0
 10
394.01052596495418
 20
906.51626158563124
 30
0.0
 42
-1.0
  0
SEQEND
  5
32D3
  8
AM_0
  0
LINE
  5
32D4
  8
AM_0
 10
382.61368596495402
 20
864.57710158563145
 30
0.0
 11
382.61368596495402
 21
884.57710158563145
 31
0.0
  0
ARC
  5
32D5
  8
AM_0
 10
385.61368596495402
 20
864.57710158563145
 30
0.0
 40
3.0
 50
180.00001000000091
 51
270.0
  0
ARC
  5
32D6
  8
AM_0
 10
385.61368596495402
 20
884.57710158563145
 30
0.0
 40
3.0
 50
90.00000299999769
 51
180.00001000000091
  0
ARC
  5
32D7
  8
AM_0
 10
395.70603596495403
 20
909.51704158563143
 30
0.0
 40
3.0
 50
269.999989999999
 51
329.53192000000121
  0
POLYLINE
  5
32D8
  8
AM_0
 66
     1
 10
0.0
 20
0.0
 30
0.0
  0
VERTEX
  5
32D9
  8
AM_0
 10
398.2917459649542
 20
907.9958915856314
 30
0.0
 42
-0.0058779314
  0
VERTEX
  5
32DA
  8
AM_0
 10
399.50136596495429
 20
909.99748158563114
 30
0.0
 42
-0.0056588672
  0
VERTEX
  5
32DB
  8
AM_0
 10
400.75684596495421
 20
911.97063158563162
 30
0.0
 42
-0.0054619156
  0
VERTEX
  5
32DC
  8
AM_0
 10
402.0558859649542
 20
913.91538158563162
 30
0.0
 42
-0.0052861264
  0
VERTEX
  5
32DD
  8
AM_0
 10
403.39641596495397
 20
915.83178158563123
 30
0.0
  0
SEQEND
  5
32DE
  8
AM_0
  0
ARC
  5
32DF
  8
AM_0
 10
400.95640596495417
 20
917.57710158563145
 30
0.0
 40
3.0
 50
324.42424000000028
 51
90.00000299999769
  0
ARC
  5
32E0
  8
AM_0
 10
416.9163659649542
 20
858.57710158563145
 30
0.0
 40
3.0
 50
0.0
 51
90.00000299999769
  0
LINE
  5
32E1
  8
AM_0
 10
423.61368596495407
 20
805.28908158563149
 30
0.0
 11
423.61368596495407
 21
943.86513158563173
 31
0.0
  0
LINE
  5
32E2
  8
AM_0
 10
433.61368596495402
 20
801.07710158563145
 30
0.0
 11
433.61368596495402
 21
948.07716158563142
 31
0.0
  0
LINE
  5
32E3
  8
AM_0
 10
510.11375596495418
 20
825.01259158563141
 30
0.0
 11
510.11375596495418
 21
924.14162158563136
 31
0.0
  0
LINE
  5
32E4
  8
AM_0
 10
585.11375596495418
 20
783.57710158563145
 30
0.0
 11
585.11375596495418
 21
965.57710158563145
 31
0.0
  0
LINE
  5
32E5
  8
AM_0
 10
613.11375596495407
 20
914.33449158563144
 30
0.0
 11
613.11375596495407
 21
840.81972158563156
 31
0.0
  0
LINE
  5
32E6
  8
AM_0
 10
495.11375596495412
 20
734.83913158563143
 30
0.0
 11
495.11375596495412
 21
870.57710158563134
 31
0.0
  0
LINE
  5
32E7
  8
AM_0
 10
607.11375596495418
 20
960.45772158563125
 30
0.0
 11
607.11375596495418
 21
788.69655158563137
 31
0.0
  0
LINE
  5
32E8
  8
AM_0
 10
687.11375596495407
 20
853.57710158563145
 30
0.0
 11
687.11375596495407
 21
895.57710158563134
 31
0.0
  0
LINE
  5
32E9
  8
AM_0
 10
617.11375596495407
 20
852.07710158563145
 30
0.0
 11
617.11375596495407
 21
897.07710158563145
 31
0.0
  0
LINE
  5
32EA
  8
AM_0
 10
482.11368596495402
 20
738.36732158563154
 30
0.0
 11
482.11368596495402
 21
865.03767158563164
 31
0.0
  0
LINE
  5
32EB
  8
AM_0
 10
468.11375596495401
 20
760.46913158563143
 30
0.0
 11
468.11375596495401
 21
870.57710158563134
 31
0.0
  0
ARC
  5
32EC
  8
AM_0
 10
557.11375596495418
 20
760.03328158563124
 30
0.0
 40
8.0
 50
272.00000000000369
 51
0.0
  0
LINE
  5
32ED
  8
AM_0
 10
500.11368596495402
 20
734.57710158563145
 30
0.0
 11
609.25327596495424
 21
738.38838158563135
 31
0.0
  0
ARC
  5
32EE
  8
AM_0
 10
485.11368596495407
 20
738.36732158563154
 30
0.0
 40
3.0
 50
180.00001000000091
 51
266.99999000000008
  0
ARC
  5
32EF
  8
AM_0
 10
479.11375596495401
 20
752.94936158563144
 30
0.0
 40
3.0
 50
0.0
 51
79.999998000001099
  0
ARC
  5
32F0
  8
AM_0
 10
484.1137559649539
 20
747.83217158563161
 30
0.0
 40
2.0
 50
179.9999899999988
 51
268.00000999999861
  0
LINE
  5
32F1
  8
AM_0
 10
482.11368596495402
 20
823.01259158563141
 30
0.0
 11
508.11375596495401
 21
823.01259158563141
 31
0.0
  0
LINE
  5
32F2
  8
AM_0
 10
482.11368596495402
 20
797.01131158563146
 30
0.0
 11
508.11375596495401
 21
797.01131158563146
 31
0.0
  0
LINE
  5
32F3
  8
AM_0
 10
424.90439596495418
 20
738.51869158563125
 30
0.0
 11
500.1137559649539
 21
734.57710158563145
 31
0.0
  0
CIRCLE
  5
32F4
  8
AM_0
 10
442.1137559649539
 20
759.57710158563145
 30
0.0
 40
9.5
  0
LINE
  5
32F5
  8
AM_0
 10
424.7651759649541
 20
782.98494158563142
 30
0.0
 11
468.1138159649542
 21
786.77748158563145
 31
0.0
  0
LINE
  5
32F6
  8
AM_0
 10
421.1137559649539
 20
742.51320158563135
 30
0.0
 11
421.1137559649539
 21
779.00014158563135
 31
0.0
  0
ARC
  5
32F7
  8
AM_0
 10
425.1137559649539
 20
742.51320158563135
 30
0.0
 40
4.0
 50
180.00001000000091
 51
266.99999000000008
  0
ARC
  5
32F8
  8
AM_0
 10
425.1137559649539
 20
779.00014158563135
 30
0.0
 40
4.0
 50
95.00000199999856
 51
180.00001000000091
  0
ARC
  5
32F9
  8
AM_0
 10
474.11375596495412
 20
748.86714158563143
 30
0.0
 40
5.0
 50
180.00001000000091
 51
277.13983000000007
  0
LINE
  5
32FA
  8
AM_0
 10
469.11375596495418
 20
737.18190158563152
 30
0.0
 11
469.11375596495418
 21
745.03065158563152
 31
0.0
  0
LINE
  5
32FB
  8
AM_0
 10
482.11375596495418
 20
744.83015158563126
 30
0.0
 11
474.73521596495419
 21
743.90590158563145
 31
0.0
  0
LINE
  5
32FC
  8
AM_0
 10
470.59275596495422
 20
757.49812158563145
 30
0.0
 11
479.6346859649542
 21
755.9037615856314
 31
0.0
  0
ARC
  5
32FD
  8
AM_0
 10
471.1137559649539
 20
760.4525315856315
 30
0.0
 40
3.0
 50
179.9999899999988
 51
260.00000000000119
  0
LINE
  5
32FE
  8
AM_0
 10
433.6137559649539
 20
801.07710158563145
 30
0.0
 11
463.28831596495422
 21
800.04085158563134
 31
0.0
  0
LINE
  5
32FF
  8
AM_0
 10
433.6137559649539
 20
835.10243158563151
 30
0.0
 11
468.11375596495401
 21
835.10243158563151
 31
0.0
  0
LINE
  5
3300
  8
AM_0
 10
433.6137559649539
 20
812.99843158563147
 30
0.0
 11
468.11375596495401
 21
812.99843158563147
 31
0.0
  0
ARC
  5
3301
  8
AM_0
 10
427.61368596495407
 20
805.28908158563149
 30
0.0
 40
4.0
 50
180.00001000000091
 51
267.99999999999631
  0
LINE
  5
3302
  8
AM_0
 10
423.61368596495407
 20
812.99843158563147
 30
0.0
 11
433.61368596495402
 21
812.99843158563147
 31
0.0
  0
LINE
  5
3303
  8
AM_0
 10
422.18674596495418
 20
808.00404158563128
 30
0.0
 11
415.4060459649541
 21
814.78468158563146
 31
0.0
  0
ARC
  5
3304
  8
AM_0
 10
418.6511659649542
 20
804.46852158563149
 30
0.0
 40
5.0
 50
5.2307202000000732
 51
44.999998000001611
  0
ARC
  5
3305
  8
AM_0
 10
411.87052596495431
 20
811.24922158563152
 30
0.0
 40
5.0
 50
44.999998000001611
 51
87.999999999996248
  0
LINE
  5
3306
  8
AM_0
 10
427.47410596495399
 20
801.29146158563128
 30
0.0
 11
433.6137559649539
 21
801.07710158563145
 31
0.0
  0
LINE
  5
3307
  8
AM_0
 10
423.61368596495407
 20
835.10243158563151
 30
0.0
 11
433.61368596495402
 21
835.10243158563151
 31
0.0
  0
ARC
  5
3308
  8
AM_0
 10
463.1137559649539
 20
795.0438415856313
 30
0.0
 40
5.0
 50
0.0
 51
87.999999999996248
  0
POLYLINE
  5
3309
  8
AM_0
 66
     1
 10
0.0
 20
0.0
 30
0.0
  0
VERTEX
  5
330A
  8
AM_0
 10
515.04344596495423
 20
794.84561158563145
 30
0.0
 42
0.110757
  0
VERTEX
  5
330B
  8
AM_0
 10
527.92439596495421
 20
804.75335158563132
 30
0.0
 42
0.2037583
  0
VERTEX
  5
330C
  8
AM_0
 10
530.18211596495416
 20
812.41882158563135
 30
0.0
  0
VERTEX
  5
330D
  8
AM_0
 10
515.41231596495425
 20
831.33394158563146
 30
0.0
 42
-1.0
  0
SEQEND
  5
330E
  8
AM_0
  0
LINE
  5
330F
  8
AM_0
 10
510.11375596495418
 20
747.90193158563125
 30
0.0
 11
510.11375596495418
 21
795.01131158563135
 31
0.0
  0
ARC
  5
3310
  8
AM_0
 10
515.67441596495428
 20
745.29506158563129
 30
0.0
 40
10.0
 50
272.00000000000369
 51
316.51703999999847
  0
LINE
  5
3311
  8
AM_0
 10
512.04398596495423
 20
752.01765158563126
 30
0.0
 11
536.64695596495426
 21
752.87685158563124
 31
0.0
  0
LINE
  5
3312
  8
AM_0
 10
495.1136859649539
 20
745.44673158563126
 30
0.0
 11
508.18357596495417
 21
745.90315158563135
 31
0.0
  0
LINE
  5
3313
  8
AM_0
 10
484.04398596495417
 20
745.83333158563141
 30
0.0
 11
495.11381596495397
 21
745.44673158563126
 31
0.0
  0
ARC
  5
3314
  8
AM_0
 10
508.11375596495401
 20
747.90193158563125
 30
0.0
 40
2.0
 50
272.00000000000369
 51
0.0
  0
LINE
  5
3315
  8
AM_0
 10
514.61375596495418
 20
738.33998158563145
 30
0.0
 11
514.61375596495418
 21
750.37233158563151
 31
0.0
  0
ARC
  5
3316
  8
AM_0
 10
512.11375596495395
 20
750.01887158563125
 30
0.0
 40
2.0
 50
91.999998000000545
 51
180.00001000000091
  0
ARC
  5
3317
  8
AM_0
 10
514.14182596495425
 20
796.63087158563155
 30
0.0
 40
2.0
 50
270.0
 51
296.80019999999712
  0
LINE
  5
3318
  8
AM_0
 10
539.20408596495395
 20
751.40297158563135
 30
0.0
 11
557.3929259649542
 21
752.03816158563143
 31
0.0
  0
LINE
  5
3319
  8
AM_0
 10
522.93015596495422
 20
738.41371158563129
 30
0.0
 11
532.29734596495416
 21
748.29048158563126
 31
0.0
  0
ARC
  5
331A
  8
AM_0
 10
539.55308596495422
 20
741.40907158563152
 30
0.0
 40
10.0
 50
91.999998000000545
 51
136.5170399999985
  0
LINE
  5
331B
  8
AM_0
 10
514.61375596495418
 20
797.01131158563146
 30
0.0
 11
514.61375596495418
 21
823.01259158563141
 31
0.0
  0
ARC
  5
331C
  8
AM_0
 10
508.11375596495401
 20
795.01131158563135
 30
0.0
 40
2.0
 50
0.0
 51
90.00000299999769
  0
ARC
  5
331D
  8
AM_0
 10
508.11375596495401
 20
825.01259158563141
 30
0.0
 40
2.0
 50
270.0
 51
0.0
  0
ARC
  5
331E
  8
AM_0
 10
513.66337596495418
 20
828.89650158563165
 30
0.0
 40
3.0
 50
54.348324000004709
 51
90.00000299999769
  0
LINE
  5
331F
  8
AM_0
 10
617.11375596495407
 20
853.57710158563145
 30
0.0
 11
687.11375596495407
 21
853.57710158563145
 31
0.0
  0
CIRCLE
  5
3320
  8
AM_0
 10
592.11375596495407
 20
759.57710158563145
 30
0.0
 40
9.5
  0
LINE
  5
3321
  8
AM_0
 10
592.43876596495443
 20
788.03541158563144
 30
0.0
 11
602.28818596495421
 21
788.37935158563153
 31
0.0
  0
LINE
  5
3322
  8
AM_0
 10
565.11375596495418
 20
765.57710158563145
 30
0.0
 11
565.11375596495418
 21
760.03328158563124
 31
0.0
  0
LINE
  5
3323
  8
AM_0
 10
565.11375596495418
 20
742.02461158563142
 30
0.0
 11
565.11375596495418
 21
760.03328158563124
 31
0.0
  0
ARC
  5
3324
  8
AM_0
 10
570.11375596495407
 20
742.02461158563142
 30
0.0
 40
5.0
 50
180.00001000000091
 51
271.99999000000139
  0
ARC
  5
3325
  8
AM_0
 10
577.11375596495418
 20
783.57710158563145
 30
0.0
 40
8.0
 50
270.0
 51
0.0
  0
ARC
  5
3326
  8
AM_0
 10
575.11375596495407
 20
765.57710158563145
 30
0.0
 40
10.0
 50
90.00000299999769
 51
180.00001000000091
  0
LINE
  5
3327
  8
AM_0
 10
575.11375596495407
 20
775.57710158563145
 30
0.0
 11
577.11375596495418
 21
775.57710158563145
 31
0.0
  0
ARC
  5
3328
  8
AM_0
 10
592.71793596495411
 20
780.04030158563125
 30
0.0
 40
8.0
 50
91.999998000000545
 51
167.22924999999881
  0
LINE
  5
3329
  8
AM_0
 10
613.11375596495407
 20
742.38588158563152
 30
0.0
 11
613.11375596495407
 21
781.76833158563136
 31
0.0
  0
ARC
  5
332A
  8
AM_0
 10
609.11375596495407
 20
742.38588158563152
 30
0.0
 40
4.0
 50
272.00000000000369
 51
0.0
  0
ARC
  5
332B
  8
AM_0
 10
610.11375596495418
 20
788.69655158563137
 30
0.0
 40
3.0
 50
180.00001000000091
 51
261.78677999999701
  0
ARC
  5
332C
  8
AM_0
 10
602.11375596495418
 20
793.37636158563146
 30
0.0
 40
5.0
 50
272.00000000000369
 51
0.0
  0
ARC
  5
332D
  8
AM_0
 10
609.11375596495407
 20
781.76833158563136
 30
0.0
 40
4.0
 50
0.0
 51
81.786789000000198
  0
LINE
  5
332E
  8
AM_0
 10
613.11381596495437
 20
852.07710158563145
 30
0.0
 11
617.11375596495407
 21
852.07710158563145
 31
0.0
  0
ARC
  5
332F
  8
AM_0
 10
610.11375596495418
 20
832.33449158563133
 30
0.0
 40
3.0
 50
135.0
 51
180.00001000000091
  0
ARC
  5
3330
  8
AM_0
 10
610.11375596495418
 20
832.33449158563133
 30
0.0
 40
3.0
 50
135.0
 51
180.00001000000091
  0
ARC
  5
3331
  8
AM_0
 10
610.11375596495418
 20
840.81972158563156
 30
0.0
 40
3.0
 50
315.0
 51
0.0
  0
ARC
  5
3332
  8
AM_0
 10
610.11375596495418
 20
840.81972158563156
 30
0.0
 40
3.0
 50
315.0
 51
0.0
  0
LINE
  5
3333
  8
AM_0
 10
607.99253596495419
 20
834.45576158563131
 30
0.0
 11
612.23521596495425
 21
838.69844158563137
 31
0.0
  0
ARC
  5
3334
  8
AM_0
 10
557.11375596495418
 20
989.12093158563152
 30
0.0
 40
8.0
 50
0.0
 51
87.999999999996248
  0
LINE
  5
3335
  8
AM_0
 10
500.11381596495397
 20
1014.577101585631
 30
0.0
 11
609.25339596495439
 21
1010.765881585631
 31
0.0
  0
CIRCLE
  5
3336
  8
AM_0
 10
442.1137559649539
 20
989.57710158563145
 30
0.0
 40
9.5
  0
ARC
  5
3337
  8
AM_0
 10
471.1137559649539
 20
988.70167158563152
 30
0.0
 40
3.0
 50
99.999999999998593
 51
180.00001000000091
  0
LINE
  5
3338
  8
AM_0
 10
482.11368596495402
 20
884.11653158563149
 30
0.0
 11
482.11368596495402
 21
1010.78688158563
 31
0.0
  0
LINE
  5
3339
  8
AM_0
 10
495.11375596495412
 20
878.57704158563138
 30
0.0
 11
495.11375596495412
 21
1014.315081585631
 31
0.0
  0
LINE
  5
333A
  8
AM_0
 10
510.11375596495418
 20
1001.252271585631
 30
0.0
 11
510.11375596495418
 21
954.14290158563165
 31
0.0
  0
LINE
  5
333B
  8
AM_0
 10
421.1137559649539
 20
1006.641011585631
 30
0.0
 11
421.1137559649539
 21
970.15401158563145
 31
0.0
  0
ARC
  5
333C
  8
AM_0
 10
479.11381596495397
 20
874.57710158563145
 30
0.0
 40
10.0
 50
203.5782699999985
 51
336.4217200000013
  0
ARC
  5
333D
  8
AM_0
 10
479.11381596495397
 20
874.57710158563145
 30
0.0
 40
10.0
 50
23.57803699999776
 51
156.42196000000081
  0
LINE
  5
333E
  8
AM_0
 10
462.61381596495397
 20
878.57704158563138
 30
0.0
 11
495.61381596495397
 21
878.57704158563138
 31
0.0
  0
LINE
  5
333F
  8
AM_0
 10
462.61381596495397
 20
870.57710158563134
 30
0.0
 11
495.61381596495397
 21
870.57710158563134
 31
0.0
  0
LINE
  5
3340
  8
AM_0
 10
482.11368596495402
 20
952.14290158563142
 30
0.0
 11
508.11375596495401
 21
952.14290158563142
 31
0.0
  0
LINE
  5
3341
  8
AM_0
 10
482.11368596495402
 20
926.14162158563124
 30
0.0
 11
508.11375596495401
 21
926.14162158563124
 31
0.0
  0
LINE
  5
3342
  8
AM_0
 10
468.11375596495401
 20
878.57704158563138
 30
0.0
 11
468.11375596495401
 21
988.71828158563153
 31
0.0
  0
LINE
  5
3343
  8
AM_0
 10
433.6137559649539
 20
914.05177158563151
 30
0.0
 11
468.11375596495401
 21
914.05177158563151
 31
0.0
  0
LINE
  5
3344
  8
AM_0
 10
419.91636596495403
 20
863.80861158563141
 30
0.0
 11
419.91636596495403
 21
885.80916158563161
 31
0.0
  0
ARC
  5
3345
  8
AM_0
 10
416.9163659649542
 20
890.57710158563145
 30
0.0
 40
3.0
 50
269.999989999999
 51
0.0000006832429909
  0
LINE
  5
3346
  8
AM_0
 10
423.61368596495407
 20
914.05177158563151
 30
0.0
 11
433.61368596495402
 21
914.05177158563151
 31
0.0
  0
ARC
  5
3347
  8
AM_0
 10
462.61381596495397
 20
874.57710158563145
 30
0.0
 40
3.9999962
 50
90.00000299999769
 51
270.0
  0
LINE
  5
3348
  8
AM_0
 10
424.76511596495419
 20
966.16927158563146
 30
0.0
 11
468.11375596495401
 21
962.37672158563146
 31
0.0
  0
LINE
  5
3349
  8
AM_0
 10
433.6137559649539
 20
948.07710158563145
 30
0.0
 11
463.28818596495421
 21
949.11336158563142
 31
0.0
  0
LINE
  5
334A
  8
AM_0
 10
433.6137559649539
 20
936.15572158563145
 30
0.0
 11
468.11375596495401
 21
936.15572158563145
 31
0.0
  0
ARC
  5
334B
  8
AM_0
 10
427.61368596495407
 20
943.86513158563173
 30
0.0
 40
4.0
 50
91.999998000000545
 51
180.00001000000091
  0
LINE
  5
334C
  8
AM_0
 10
423.61368596495407
 20
936.1557815856313
 30
0.0
 11
433.61368596495402
 21
936.1557815856313
 31
0.0
  0
LINE
  5
334D
  8
AM_0
 10
415.40610596495418
 20
934.36946158563126
 30
0.0
 11
422.18674596495418
 21
941.15010158563143
 31
0.0
  0
ARC
  5
334E
  8
AM_0
 10
411.87052596495431
 20
937.90498158563162
 30
0.0
 40
5.0
 50
272.00000000000369
 51
315.0
  0
ARC
  5
334F
  8
AM_0
 10
418.6511659649542
 20
944.68568158563141
 30
0.0
 40
5.0
 50
315.0
 51
354.76905999999741
  0
LINE
  5
3350
  8
AM_0
 10
427.47410596495399
 20
947.8626915856313
 30
0.0
 11
433.61368596495402
 21
948.07710158563145
 31
0.0
  0
ARC
  5
3351
  8
AM_0
 10
425.1137559649539
 20
970.15401158563145
 30
0.0
 40
4.0
 50
180.00001000000091
 51
265.00001000000032
  0
ARC
  5
3352
  8
AM_0
 10
463.1137559649539
 20
954.11037158563124
 30
0.0
 40
5.0
 50
272.00000000000369
 51
0.0
  0
POLYLINE
  5
3353
  8
AM_0
 66
     1
 10
0.0
 20
0.0
 30
0.0
  0
VERTEX
  5
3354
  8
AM_0
 10
515.04344596495423
 20
954.30859158563135
 30
0.0
 42
-0.110757
  0
VERTEX
  5
3355
  8
AM_0
 10
527.92439596495421
 20
944.40085158563124
 30
0.0
 42
-0.2037583
  0
VERTEX
  5
3356
  8
AM_0
 10
530.18211596495416
 20
936.73538158563144
 30
0.0
  0
VERTEX
  5
3357
  8
AM_0
 10
515.41231596495425
 20
917.82026158563144
 30
0.0
 42
-1.0
  0
SEQEND
  5
3358
  8
AM_0
  0
ARC
  5
3359
  8
AM_0
 10
495.61381596495397
 20
874.57710158563145
 30
0.0
 40
3.9999962
 50
270.0
 51
90.00000299999769
  0
ARC
  5
335A
  8
AM_0
 10
513.66337596495418
 20
920.25771158563145
 30
0.0
 40
3.0
 50
270.0
 51
305.65166999999718
  0
LINE
  5
335B
  8
AM_0
 10
514.61375596495418
 20
952.14290158563142
 30
0.0
 11
514.61375596495418
 21
926.14162158563124
 31
0.0
  0
ARC
  5
335C
  8
AM_0
 10
508.11375596495401
 20
924.14162158563136
 30
0.0
 40
2.0
 50
0.0
 51
90.00000299999769
  0
ARC
  5
335D
  8
AM_0
 10
508.11375596495401
 20
954.14290158563165
 30
0.0
 40
2.0
 50
270.0
 51
0.0
  0
ARC
  5
335E
  8
AM_0
 10
514.14182596495425
 20
952.52333158563113
 30
0.0
 40
2.0
 50
63.199809000002318
 51
90.00000299999769
  0
ARC
  5
335F
  8
AM_0
 10
485.11368596495407
 20
1010.78688158563
 30
0.0
 40
3.0
 50
92.999999000001679
 51
180.00001000000091
  0
ARC
  5
3360
  8
AM_0
 10
479.11375596495401
 20
996.20485158563145
 30
0.0
 40
3.0
 50
280.00001000000128
 51
0.0
  0
ARC
  5
3361
  8
AM_0
 10
484.1137559649539
 20
1001.322101585631
 30
0.0
 40
2.0
 50
91.999998000000545
 51
180.00001000000091
  0
LINE
  5
3362
  8
AM_0
 10
424.9043359649541
 20
1010.635511585631
 30
0.0
 11
500.11368596495402
 21
1014.577101585631
 31
0.0
  0
ARC
  5
3363
  8
AM_0
 10
425.1137559649539
 20
1006.641011585631
 30
0.0
 40
4.0
 50
92.999999000001679
 51
180.00001000000091
  0
ARC
  5
3364
  8
AM_0
 10
474.11375596495412
 20
1000.28706158563
 30
0.0
 40
5.0
 50
82.860167000000104
 51
180.00001000000091
  0
LINE
  5
3365
  8
AM_0
 10
469.11375596495418
 20
1011.972301585631
 30
0.0
 11
469.11375596495418
 21
1004.123551585631
 31
0.0
  0
LINE
  5
3366
  8
AM_0
 10
482.11368596495402
 20
1004.324051585631
 30
0.0
 11
474.73521596495419
 21
1005.2483115856299
 31
0.0
  0
LINE
  5
3367
  8
AM_0
 10
470.5928159649543
 20
991.65608158563145
 30
0.0
 11
479.6346859649542
 21
993.25044158563139
 31
0.0
  0
ARC
  5
3368
  8
AM_0
 10
515.67441596495428
 20
1003.85908158563
 30
0.0
 40
10.0
 50
43.482964999999631
 51
87.999999999996248
  0
LINE
  5
3369
  8
AM_0
 10
512.04398596495423
 20
997.13655158563165
 30
0.0
 11
536.64701596495422
 21
996.2773615856313
 31
0.0
  0
LINE
  5
336A
  8
AM_0
 10
495.11375596495412
 20
1003.707471585631
 30
0.0
 11
508.18363596495419
 21
1003.251051585631
 31
0.0
  0
LINE
  5
336B
  8
AM_0
 10
484.04398596495417
 20
1003.32088158563
 30
0.0
 11
495.11375596495412
 21
1003.707471585631
 31
0.0
  0
LINE
  5
336C
  8
AM_0
 10
514.61375596495418
 20
998.85695158563124
 30
0.0
 11
514.61375596495418
 21
1010.810441585631
 31
0.0
  0
ARC
  5
336D
  8
AM_0
 10
512.11375596495395
 20
999.13533158563109
 30
0.0
 40
2.0
 50
180.00001000000091
 51
267.99999999999631
  0
ARC
  5
336E
  8
AM_0
 10
508.11375596495401
 20
1001.252271585631
 30
0.0
 40
2.0
 50
0.0
 51
87.999999999996248
  0
LINE
  5
336F
  8
AM_0
 10
539.20414596495425
 20
997.75124158563131
 30
0.0
 11
557.39298596495405
 21
997.11604158563125
 31
0.0
  0
LINE
  5
3370
  8
AM_0
 10
522.9302159649543
 20
1010.74049158563
 30
0.0
 11
532.29728596495397
 21
1000.86378158563
 31
0.0
  0
ARC
  5
3371
  8
AM_0
 10
539.55308596495422
 20
1007.74513158563
 30
0.0
 40
10.0
 50
223.48296000000141
 51
267.99999999999631
  0
CIRCLE
  5
3372
  8
AM_0
 10
592.11375596495407
 20
989.57710158563145
 30
0.0
 40
9.5
  0
LINE
  5
3373
  8
AM_0
 10
565.11375596495418
 20
983.57710158563145
 30
0.0
 11
565.11375596495418
 21
989.12093158563152
 31
0.0
  0
LINE
  5
3374
  8
ﾁｭｳｼﾝｾﾝ
 10
592.11375596495407
 20
1007.077101585631
 30
0.0
 11
592.11375596495407
 21
972.07710158563145
 31
0.0
  0
LINE
  5
3375
  8
AM_0
 10
613.11375596495407
 20
1006.76833158563
 30
0.0
 11
613.11375596495407
 21
967.38588158563152
 31
0.0
  0
LINE
  5
3376
  8
AM_0
 10
631.11375596495418
 20
880.57710158563145
 30
0.0
 11
687.11375596495407
 21
880.57710158563145
 31
0.0
  0
LINE
  5
3377
  8
AM_0
 10
631.11375596495418
 20
868.57710158563145
 30
0.0
 11
687.11375596495407
 21
868.57710158563145
 31
0.0
  0
LINE
  5
3378
  8
AM_0
 10
617.11375596495407
 20
895.57710158563134
 30
0.0
 11
687.11375596495407
 21
895.57710158563134
 31
0.0
  0
ARC
  5
3379
  8
AM_0
 10
631.11375596495418
 20
874.57710158563145
 30
0.0
 40
6.0000037999999991
 50
90.00000299999769
 51
270.0
  0
LINE
  5
337A
  8
AM_0
 10
631.11375596495418
 20
880.57710158563145
 30
0.0
 11
631.11375596495418
 21
868.57710158563145
 31
0.0
  0
LINE
  5
337B
  8
AM_0
 10
613.11381596495437
 20
897.07710158563145
 30
0.0
 11
617.11375596495407
 21
897.07710158563145
 31
0.0
  0
ARC
  5
337C
  8
AM_0
 10
610.11375596495418
 20
922.81972158563156
 30
0.0
 40
3.0
 50
180.00001000000091
 51
225.0
  0
ARC
  5
337D
  8
AM_0
 10
610.11375596495418
 20
922.81972158563156
 30
0.0
 40
3.0
 50
179.9999899999988
 51
225.0
  0
ARC
  5
337E
  8
AM_0
 10
610.11375596495418
 20
914.33449158563144
 30
0.0
 40
3.0
 50
0.0
 51
44.999998000001611
  0
ARC
  5
337F
  8
AM_0
 10
610.11375596495418
 20
914.33449158563144
 30
0.0
 40
3.0
 50
0.0
 51
45.000001000003799
  0
LINE
  5
3380
  8
AM_0
 10
607.99253596495419
 20
920.69844158563126
 30
0.0
 11
612.23521596495425
 21
916.45576158563131
 31
0.0
  0
LINE
  5
3381
  8
AM_0
 10
592.43882596495439
 20
961.11879158563124
 30
0.0
 11
602.28831596495422
 21
960.77486158563124
 31
0.0
  0
ARC
  5
3382
  8
AM_0
 10
577.11375596495418
 20
965.57710158563145
 30
0.0
 40
8.0
 50
0.0
 51
90.00000299999769
  0
ARC
  5
3383
  8
AM_0
 10
575.11375596495407
 20
983.57710158563145
 30
0.0
 40
10.0
 50
180.00001000000091
 51
270.0
  0
LINE
  5
3384
  8
AM_0
 10
575.11375596495407
 20
973.57710158563145
 30
0.0
 11
577.11375596495418
 21
973.57710158563145
 31
0.0
  0
ARC
  5
3385
  8
AM_0
 10
592.71793596495411
 20
969.1139115856314
 30
0.0
 40
8.0
 50
192.7707500000011
 51
267.99999999999631
  0
ARC
  5
3386
  8
AM_0
 10
602.11375596495418
 20
955.77785158563142
 30
0.0
 40
5.0
 50
0.0
 51
87.999999999996248
  0
ARC
  5
3387
  8
AM_0
 10
610.11375596495418
 20
960.45772158563125
 30
0.0
 40
3.0
 50
98.213209000002095
 51
180.00001000000091
  0
ARC
  5
3388
  8
AM_0
 10
609.11375596495407
 20
967.38588158563152
 30
0.0
 40
4.0
 50
278.2132199999964
 51
0.0
  0
LINE
  5
3389
  8
ﾁｭｳｼﾝｾﾝ
 10
574.61375596495407
 20
989.57710158563145
 30
0.0
 11
609.61375596495407
 21
989.57710158563145
 31
0.0
  0
LINE
  5
338A
  8
AM_0
 10
565.11375596495418
 20
1007.12959158563
 30
0.0
 11
565.11375596495418
 21
989.12093158563152
 31
0.0
  0
ARC
  5
338B
  8
AM_0
 10
570.11375596495407
 20
1007.12959158563
 30
0.0
 40
5.0
 50
87.999999999996248
 51
180.00001000000091
  0
ARC
  5
338C
  8
AM_0
 10
609.11375596495407
 20
1006.76833158563
 30
0.0
 40
4.0
 50
0.0
 51
87.999999999996248
  0
LINE
  5
338D
  8
ﾁｭｳｼﾝｾﾝ
 10
424.61375596495401
 20
989.57710158563145
 30
0.0
 11
459.61375596495401
 21
989.57710158563145
 31
0.0
  0
LINE
  5
338E
  8
ﾁｭｳｼﾝｾﾝ
 10
442.1137559649539
 20
1007.077101585631
 30
0.0
 11
442.1137559649539
 21
972.07710158563145
 31
0.0
  0
LINE
  5
338F
  8
ﾁｭｳｼﾝｾﾝ
 10
424.61375596495401
 20
759.57710158563145
 30
0.0
 11
459.61375596495401
 21
759.57710158563145
 31
0.0
  0
LINE
  5
3390
  8
ﾁｭｳｼﾝｾﾝ
 10
442.1137559649539
 20
777.07710158563145
 30
0.0
 11
442.1137559649539
 21
742.07710158563145
 31
0.0
  0
LINE
  5
3391
  8
ﾁｭｳｼﾝｾﾝ
 10
574.61375596495407
 20
759.57710158563145
 30
0.0
 11
609.61375596495407
 21
759.57710158563145
 31
0.0
  0
LINE
  5
3392
  8
ﾁｭｳｼﾝｾﾝ
 10
592.11375596495407
 20
777.07710158563145
 30
0.0
 11
592.11375596495407
 21
742.07710158563145
 31
0.0
  0
LINE
  5
3393
  8
AM_0
 10
613.11380596495417
 20
518.89679321371602
 30
0.0
 11
617.11375596495395
 21
518.89679321371602
 31
0.0
  0
LINE
  5
3394
  8
AM_0
 10
613.11380596495417
 20
473.89679321371602
 30
0.0
 11
617.11375596495395
 21
473.89679321371602
 31
0.0
  0
LINE
  5
3395
  8
ﾁｭｳｼﾝｾﾝ1
 10
454.31789199807292
 20
496.39679321371568
 30
0.0
 11
691.58520596495441
 21
496.39679321371568
 31
0.0
  0
LINE
  5
3396
  8
0
 10
338.61375596495401
 20
508.3968182137159
 30
0.0
 11
338.61375596495401
 21
352.3968182137159
 31
0.0
1001
GENIUS_GENOREF_13
1005
2FDC
  0
LINE
  5
3397
  8
0
 10
328.61375596495401
 20
350.3968182137159
 30
0.0
 11
328.61375596495401
 21
510.39681821371562
 31
0.0
1001
GENIUS_GENOREF_13
1005
2FDC
  0
LINE
  5
3398
  8
AM_0
 10
359.61375596495401
 20
373.89678821371598
 30
0.0
 11
359.61375596495401
 21
486.89682321371589
 31
0.0
  0
LINE
  5
3399
  8
AM_0
 10
433.61375596495378
 20
384.39681821371579
 30
0.0
 11
433.61375596495378
 21
532.39682321371595
 31
0.0
  0
LINE
  5
339A
  8
AM_0
 10
423.61375596495401
 20
387.28433321371602
 30
0.0
 11
423.61375596495401
 21
527.96273821371585
 31
0.0
  0
LINE
  5
339B
  8
AM_0
 10
482.11375596495412
 20
363.17101821371602
 30
0.0
 11
482.11375596495412
 21
586.01145821371597
 31
0.0
  0
LINE
  5
339C
  8
AM_0
 10
468.113805964954
 20
346.94924821371598
 30
0.0
 11
468.113805964954
 21
586.39685821371575
 31
0.0
  0
LINE
  5
339D
  8
AM_0
 10
613.11380596495417
 20
496.39679321371568
 30
0.0
 11
613.11380596495417
 21
462.63943821371589
 31
0.0
  0
LINE
  5
339E
  8
AM_0
 10
585.11375596495441
 20
399.99465821371598
 30
0.0
 11
585.11375596495441
 21
572.24220821371603
 31
0.0
  0
LINE
  5
339F
  8
AM_0
 10
607.11375596495418
 20
496.39679321371568
 30
0.0
 11
607.11375596495418
 21
350.14279321371589
 31
0.0
  0
LINE
  5
33A0
  8
AM_0
 10
565.11375596495429
 20
530.56967321371587
 30
0.0
 11
565.11375596495429
 21
354.3968182137159
 31
0.0
  0
LINE
  5
33A1
  8
AM_0
 10
495.11375596495418
 20
379.94518821371599
 30
0.0
 11
495.11375596495418
 21
588.39680821371564
 31
0.0
  0
LINE
  5
33A2
  8
AM_0
 10
385.00025596495402
 20
487.783263213716
 30
0.0
 11
391.3766559649543
 21
476.39679321371591
 31
0.0
  0
LINE
  5
33A3
  8
AM_0
 10
510.11375596495429
 20
476.40860321371599
 30
0.0
 11
510.11375596495429
 21
559.72105821371599
 31
0.0
  0
LINE
  5
33A4
  8
AM_0
 10
359.61375596495401
 20
463.20263821371589
 30
0.0
 11
398.76530596495422
 21
463.20263821371589
 31
0.0
  0
LINE
  5
33A5
  8
AM_0
 10
383.75335596495393
 20
389.77459821371599
 30
0.0
 11
420.90130596495419
 21
388.47735821371589
 31
0.0
  0
LINE
  5
33A6
  8
AM_0
 10
384.61375596495401
 20
413.90127821371578
 30
0.0
 11
423.61375596495401
 21
413.90127821371578
 31
0.0
  0
LINE
  5
33A7
  8
AM_0
 10
359.61375596495401
 20
476.39679321371591
 30
0.0
 11
404.71685596495411
 21
476.39679321371591
 31
0.0
  0
LINE
  5
33A8
  8
ﾁｭｳｼﾝｾﾝ1
 10
464.31814506377373
 20
430.39681821371568
 30
0.0
 11
317.33283594601471
 21
430.39681821371568
 31
0.0
  0
LINE
  5
33A9
  8
AM_0
 10
379.61375596495401
 20
408.90127821371578
 30
0.0
 11
379.61375596495401
 21
378.45800821371603
 31
0.0
  0
ARC
  5
33AA
  8
0
 10
340.61375596495401
 20
371.23210450477512
 30
0.0
 40
2.0
 50
92.000000000003666
 51
180.0
1001
GENIUS_GENOBJ-N-FIL_13
1002
{
1000
OWNER
1000
GEN
1002
}
1001
GENIUS_GENODEF_13
1002
{
1000
HIER
1070
     0
1002
}
1002
{
1000
MANEDIT
1070
     0
1002
}
1002
{
1000
NOSEL
1070
     0
1002
}
1002
{
1000
BEHIND
1070
     0
1002
}
1002
{
1000
OTHER
1070
     0
1002
}
1002
{
1000
REACTOR
1002
}
  0
ARC
  5
33AB
  8
0
 10
336.61375596495401
 20
352.3968182137159
 30
0.0
 40
2.0
 50
270.0
 51
0.0
1001
GENIUS_GENOBJ-N-FIL_13
1002
{
1000
OWNER
1000
GEN
1002
}
1001
GENIUS_GENODEF_13
1002
{
1000
HIER
1070
     0
1002
}
1002
{
1000
MANEDIT
1070
     0
1002
}
1002
{
1000
NOSEL
1070
     0
1002
}
1002
{
1000
BEHIND
1070
     0
1002
}
1002
{
1000
OTHER
1070
     0
1002
}
1002
{
1000
REACTOR
1002
}
  0
LINE
  5
33AC
  8
0
 10
328.61375596495401
 20
350.3968182137159
 30
0.0
 11
336.61375596495401
 21
350.3968182137159
 31
0.0
  0
LINE
  5
33AD
  8
AM_0
 10
359.61375596495401
 20
397.59100321371602
 30
0.0
 11
379.61375596495401
 21
397.59100321371602
 31
0.0
  0
LINE
  5
33AE
  8
AM_0
 10
359.61375596495401
 20
384.39681821371579
 30
0.0
 11
379.61375596495401
 21
384.39681821371579
 31
0.0
  0
LINE
  5
33AF
  8
AM_0
 10
359.61375596495401
 20
373.89681821371568
 30
0.0
 11
375.75335596495421
 21
374.46041821371603
 31
0.0
  0
LINE
  5
33B0
  8
0
 10
340.54395697154882
 20
373.23088615881312
 30
0.0
 11
359.61375596495401
 21
373.89681821371568
 31
0.0
  0
LINE
  5
33B1
  8
AM_0
 10
359.61375596495401
 20
384.39680121371589
 30
0.0
 11
338.61375596495401
 21
384.39680121371589
 31
0.0
  0
LINE
  5
33B2
  8
AM_0
 10
359.61375596495401
 20
398.45937621371598
 30
0.0
 11
338.61375596495401
 21
398.45937621371598
 31
0.0
  0
ARC
  5
33B3
  8
AM_0
 10
375.613805964954
 20
378.45800821371603
 30
0.0
 40
4.000000049999997
 50
271.9999999999971
 51
0.0
  0
ARC
  5
33B4
  8
AM_0
 10
383.6137559649539
 20
385.77706821371589
 30
0.0
 40
4.000000049999997
 50
88.000000000002785
 51
180.00001000000091
  0
ARC
  5
33B5
  8
AM_0
 10
384.61375596495401
 20
408.90127821371578
 30
0.0
 40
5.0
 50
90.00000299999769
 51
180.00001000000091
  0
LINE
  5
33B6
  8
AM_0
 10
359.61375596495401
 20
462.33425721371589
 30
0.0
 11
338.61375596495401
 21
462.33425721371589
 31
0.0
  0
LINE
  5
33B7
  8
AM_0
 10
359.61375596495401
 20
476.39681721371591
 30
0.0
 11
338.61375596495401
 21
476.39681721371591
 31
0.0
  0
LINE
  5
33B8
  8
AM_0
 10
421.11375596495378
 20
342.39681821371568
 30
0.0
 11
421.11375596495378
 21
321.39678821371598
 31
0.0
  0
LINE
  5
33B9
  8
AM_0
 10
613.11380596495417
 20
342.39681821371568
 30
0.0
 11
613.11380596495417
 21
321.39678821371598
 31
0.0
  0
LINE
  5
33BA
  8
ﾁｭｳｼﾝｾﾝ1
 10
592.11375596495395
 20
348.35720821371598
 30
0.0
 11
592.11375596495395
 21
316.50518821371588
 31
0.0
  0
LINE
  5
33BB
  8
ﾁｭｳｼﾝｾﾝ1
 10
442.11375596495378
 20
348.35720821371598
 30
0.0
 11
442.11375596495378
 21
316.50518821371588
 31
0.0
  0
LINE
  5
33BC
  8
ｶｸﾚｾﾝ2
 10
451.61380596495411
 20
346.39678821371598
 30
0.0
 11
451.61380596495411
 21
321.39678821371598
 31
0.0
  0
LINE
  5
33BD
  8
ｶｸﾚｾﾝ2
 10
432.61375596495418
 20
346.39678821371598
 30
0.0
 11
432.61375596495418
 21
321.39678821371598
 31
0.0
  0
LINE
  5
33BE
  8
ｶｸﾚｾﾝ2
 10
582.61375596495407
 20
346.39678821371598
 30
0.0
 11
582.61375596495407
 21
321.39678821371598
 31
0.0
  0
LINE
  5
33BF
  8
ｶｸﾚｾﾝ2
 10
601.61380596495428
 20
346.39678821371598
 30
0.0
 11
601.61380596495428
 21
321.39678821371598
 31
0.0
  0
LINE
  5
33C0
  8
AM_0
 10
421.11375596495378
 20
321.39678821371598
 30
0.0
 11
613.11380596495417
 21
321.39678821371598
 31
0.0
  0
LINE
  5
33C1
  8
AM_0
 10
495.11375596495418
 20
441.78649821371567
 30
0.0
 11
507.11375596495412
 21
441.78649821371567
 31
0.0
  0
LINE
  5
33C2
  8
AM_0
 10
500.11375596495418
 20
432.20870821371591
 30
0.0
 11
510.11375596495429
 21
432.20870821371591
 31
0.0
  0
LINE
  5
33C3
  8
AM_0
 10
495.11375596495418
 20
473.40860321371599
 30
0.0
 11
507.11375596495412
 21
473.40860321371599
 31
0.0
  0
LINE
  5
33C4
  8
AM_0
 10
500.11375596495418
 20
432.20870821371591
 30
0.0
 11
500.11375596495418
 21
386.39678821371598
 31
0.0
  0
LINE
  5
33C5
  8
AM_0
 10
423.61375596495401
 20
396.8181782137159
 30
0.0
 11
468.113805964954
 21
396.8181782137159
 31
0.0
  0
LINE
  5
33C6
  8
AM_0
 10
441.35230596495433
 20
375.657228213716
 30
0.0
 11
465.37515596495439
 21
373.5554782137159
 31
0.0
  0
LINE
  5
33C7
  8
AM_0
 10
425.11375596495418
 20
346.39678821371598
 30
0.0
 11
465.19250596495402
 21
346.39678821371598
 31
0.0
  0
ARC
  5
33C8
  8
AM_0
 10
425.11375596495418
 20
342.39681821371568
 30
0.0
 40
4.000000049999997
 50
90.00000299999769
 51
180.00001000000091
  0
ARC
  5
33C9
  8
AM_0
 10
420.7616559649544
 20
384.47979821371598
 30
0.0
 40
4.000000049999997
 50
31.072340999996189
 51
88.000000000002785
  0
LINE
  5
33CA
  8
AM_0
 10
438.61375596495378
 20
378.6457832137159
 30
0.0
 11
438.61375596495378
 21
396.39678821371598
 31
0.0
  0
ARC
  5
33CB
  8
AM_0
 10
435.613805964954
 20
381.825163213716
 30
0.0
 40
3.0000000500000001
 50
0.0
 51
88.000000000002785
  0
LINE
  5
33CC
  8
AM_0
 10
433.61375596495378
 20
384.8968182137159
 30
0.0
 11
435.7184559649541
 21
384.8233332137159
 31
0.0
  0
ARC
  5
33CD
  8
AM_0
 10
427.61375596495429
 20
388.6087932137159
 30
0.0
 40
4.000000049999997
 50
211.07233999999681
 51
268.00000000000261
  0
LINE
  5
33CE
  8
AM_0
 10
427.4742559649543
 20
384.61123821371598
 30
0.0
 11
433.613805964954
 21
384.39681821371579
 31
0.0
  0
ARC
  5
33CF
  8
AM_0
 10
441.61380596495439
 20
378.6457832137159
 30
0.0
 40
3.0000000500000001
 50
179.9999899999988
 51
264.99999999999989
  0
LINE
  5
33D0
  8
AM_0
 10
499.06580596495422
 20
385.0446482137159
 30
0.0
 11
471.5158059649541
 21
349.4962432137159
 31
0.0
  0
ARC
  5
33D1
  8
AM_0
 10
465.11375596495429
 20
370.566923213716
 30
0.0
 40
3.0000000500000001
 50
0.0
 51
84.999996999998885
  0
ARC
  5
33D2
  8
AM_0
 10
465.19250596495402
 20
354.3968182137159
 30
0.0
 40
8.0
 50
270.0
 51
322.22431999999588
  0
ARC
  5
33D3
  8
AM_0
 10
495.11375596495418
 20
388.10751321371589
 30
0.0
 40
5.0
 50
322.22431999999588
 51
0.0
  0
LINE
  5
33D4
  8
AM_0
 10
423.61375596495401
 20
418.92211821371592
 30
0.0
 11
468.113805964954
 21
418.92211821371592
 31
0.0
  0
LINE
  5
33D5
  8
AM_0
 10
398.76525596495429
 20
463.20263821371589
 30
0.0
 11
423.61375596495401
 21
418.82980321371599
 31
0.0
  0
ARC
  5
33D6
  8
AM_0
 10
404.71685596495411
 20
473.39682321371612
 30
0.0
 40
3.0000000500000001
 50
315.0
 51
90.00000299999769
  0
LINE
  5
33D7
  8
AM_0
 10
398.76525596495429
 20
463.20266821371581
 30
0.0
 11
406.83805596495432
 21
471.2755132137159
 31
0.0
  0
LINE
  5
33D8
  8
AM_0
 10
482.11375596495412
 20
443.38500821371588
 30
0.0
 11
495.11375596495418
 21
443.38500821371588
 31
0.0
  0
LINE
  5
33D9
  8
AM_0
 10
482.11375596495412
 20
473.40860321371599
 30
0.0
 11
495.11375596495418
 21
473.40860321371599
 31
0.0
  0
LINE
  5
33DA
  8
AM_0
 10
573.11380596495405
 20
346.39678821371598
 30
0.0
 11
609.11380596495428
 21
346.39678821371598
 31
0.0
  0
ARC
  5
33DB
  8
AM_0
 10
573.11380596495405
 20
354.3968182137159
 30
0.0
 40
8.0
 50
180.00001000000091
 51
270.0
  0
ARC
  5
33DC
  8
AM_0
 10
611.11375596495418
 20
350.14279321371589
 30
0.0
 40
4.000000049999997
 50
179.9999899999988
 51
255.52248999999699
  0
ARC
  5
33DD
  8
AM_0
 10
609.11380596495428
 20
342.39681821371568
 30
0.0
 40
4.000000049999997
 50
0.0
 51
90.00000299999769
  0
ARC
  5
33DE
  8
AM_0
 10
577.11375596495395
 20
399.99465821371598
 30
0.0
 40
8.0
 50
270.0
 51
0.0
  0
LINE
  5
33DF
  8
AM_0
 10
577.11375596495395
 20
391.9946882137159
 30
0.0
 11
568.59705596495428
 21
391.9946882137159
 31
0.0
  0
LINE
  5
33E0
  8
AM_0
 10
514.61375596495395
 20
470.88464321371589
 30
0.0
 11
514.61375596495395
 21
443.77249321371568
 31
0.0
  0
LINE
  5
33E1
  8
AM_0
 10
512.87140596495385
 20
440.4819032137159
 30
0.0
 11
526.10725596495433
 21
450.39187821371598
 31
0.0
  0
LINE
  5
33E2
  8
AM_0
 10
510.11375596495429
 20
438.78646821371592
 30
0.0
 11
510.11375596495429
 21
432.20870821371591
 31
0.0
  0
ARC
  5
33E3
  8
AM_0
 10
507.11375596495412
 20
438.78646821371592
 30
0.0
 40
3.0000000500000001
 50
0.0
 51
90.00000299999769
  0
ARC
  5
33E4
  8
AM_0
 10
520.11375596495407
 20
458.39682321371589
 30
0.0
 40
10.0
 50
306.82303999999999
 51
41.102821999997772
  0
LINE
  5
33E5
  8
AM_0
 10
515.51050596495418
 20
478.88436821371602
 30
0.0
 11
527.64910596495417
 21
464.97094821371599
 31
0.0
  0
ARC
  5
33E6
  8
AM_0
 10
507.11375596495412
 20
476.40860321371599
 30
0.0
 40
3.0000000500000001
 50
270.0
 51
0.0
  0
ARC
  5
33E7
  8
AM_0
 10
513.24985596495424
 20
476.91207821371557
 30
0.0
 40
3.0000000500000001
 50
41.102821999997772
 51
90.00000299999769
  0
ARC
  5
33E8
  8
AM_0
 10
610.11375596495441
 20
454.15417321371598
 30
0.0
 40
3.0000000500000001
 50
135.0
 51
180.00001000000091
  0
ARC
  5
33E9
  8
AM_0
 10
610.11375596495441
 20
462.63943821371589
 30
0.0
 40
3.0000000500000001
 50
315.0
 51
0.0
  0
LINE
  5
33EA
  8
AM_0
 10
607.99250596495438
 20
456.27548321371597
 30
0.0
 11
612.23510596495419
 21
460.51812821371573
 31
0.0
  0
LINE
  5
33EB
  8
AM_0
 10
386.11435596495431
 20
488.89749321371568
 30
0.0
 11
421.03050596495427
 21
523.81359821371586
 31
0.0
  0
LINE
  5
33EC
  8
AM_0
 10
385.50910596495419
 20
521.49792821371602
 30
0.0
 11
418.34165596495421
 21
522.64447321371586
 31
0.0
  0
ARC
  5
33ED
  8
0
 10
340.61375596495401
 20
489.5615319226568
 30
0.0
 40
2.0
 50
180.0
 51
267.99999999999631
1001
GENIUS_GENOBJ-N-FIL_13
1002
{
1000
OWNER
1000
GEN
1002
}
1001
GENIUS_GENODEF_13
1002
{
1000
HIER
1070
     0
1002
}
1002
{
1000
MANEDIT
1070
     0
1002
}
1002
{
1000
NOSEL
1070
     0
1002
}
1002
{
1000
BEHIND
1070
     0
1002
}
1002
{
1000
OTHER
1070
     0
1002
}
1002
{
1000
REACTOR
1002
}
  0
ARC
  5
33EE
  8
0
 10
336.61375596495401
 20
508.3968182137159
 30
0.0
 40
2.0
 50
0.0
 51
90.0
1001
GENIUS_GENOBJ-N-FIL_13
1002
{
1000
OWNER
1000
GEN
1002
}
1001
GENIUS_GENODEF_13
1002
{
1000
HIER
1070
     0
1002
}
1002
{
1000
MANEDIT
1070
     0
1002
}
1002
{
1000
NOSEL
1070
     0
1002
}
1002
{
1000
BEHIND
1070
     0
1002
}
1002
{
1000
OTHER
1070
     0
1002
}
1002
{
1000
REACTOR
1002
}
  0
LINE
  5
33EF
  8
0
 10
328.61375596495401
 20
510.39681821371562
 30
0.0
 11
336.61375596495401
 21
510.39681821371562
 31
0.0
  0
LINE
  5
33F0
  8
AM_0
 10
382.61375596495418
 20
518.49972821371591
 30
0.0
 11
382.61375596495418
 21
491.85348821371588
 31
0.0
  0
LINE
  5
33F1
  8
AM_0
 10
359.61375596495401
 20
486.89682321371589
 30
0.0
 11
377.79400596495429
 21
487.53167821371602
 31
0.0
  0
LINE
  5
33F2
  8
0
 10
340.54395697154882
 20
487.5627502686184
 30
0.0
 11
359.61375596495401
 21
486.8968182137159
 31
0.0
  0
ARC
  5
33F3
  8
AM_0
 10
377.65445596495431
 20
491.5292382137161
 30
0.0
 40
4.000000049999997
 50
271.9999999999971
 51
309.6297900000003
  0
LINE
  5
33F4
  8
AM_0
 10
377.79400596495429
 20
487.53167821371602
 30
0.0
 11
383.425605964954
 21
487.72833321371593
 31
0.0
  0
LINE
  5
33F5
  8
AM_0
 10
381.52720596495431
 20
489.54290821371598
 30
0.0
 11
380.20575596495399
 21
488.4484882137159
 31
0.0
  0
ARC
  5
33F6
  8
AM_0
 10
379.61375596495401
 20
491.85348821371588
 30
0.0
 40
3.0000000500000001
 50
309.6297900000003
 51
0.0
  0
ARC
  5
33F7
  8
AM_0
 10
383.28600596495397
 20
491.72589321371589
 30
0.0
 40
4.000000049999997
 50
271.9999999999971
 51
315.0
  0
ARC
  5
33F8
  8
AM_0
 10
385.613805964954
 20
518.49972821371591
 30
0.0
 40
3.0000000500000001
 50
91.999998000000545
 51
180.00001000000091
  0
ARC
  5
33F9
  8
AM_0
 10
479.11380596495439
 20
608.89685821371597
 30
0.0
 40
20.500000499999992
 50
304.61364000000231
 51
235.3863500000021
  0
LINE
  5
33FA
  8
AM_0
 10
495.11380596495388
 20
588.39680821371564
 30
0.0
 11
508.18365596495403
 21
587.94035821371585
 31
0.0
  0
LINE
  5
33FB
  8
AM_0
 10
495.11375596495418
 20
580.98010821371554
 30
0.0
 11
513.80530596495453
 21
580.98010821371554
 31
0.0
  0
LINE
  5
33FC
  8
AM_0
 10
483.3698059649542
 20
579.64040821371589
 30
0.0
 11
510.11375596495429
 21
579.64040821371589
 31
0.0
  0
LINE
  5
33FD
  8
AM_0
 10
495.11375596495418
 20
562.72105821371588
 30
0.0
 11
507.11375596495412
 21
562.72105821371588
 31
0.0
  0
LINE
  5
33FE
  8
AM_0
 10
423.61375596495401
 20
519.97543321371586
 30
0.0
 11
468.113805964954
 21
519.97543321371586
 31
0.0
  0
LINE
  5
33FF
  8
AM_0
 10
433.61370596495419
 20
531.89682321371595
 30
0.0
 11
463.28825596495409
 21
532.93307821371593
 31
0.0
  0
LINE
  5
3400
  8
AM_0
 10
423.61375596495401
 20
497.87149321371589
 30
0.0
 11
468.113805964954
 21
497.87149321371589
 31
0.0
  0
LINE
  5
3401
  8
AM_0
 10
421.03050596495427
 20
523.81359821371586
 30
0.0
 11
422.44320596495419
 21
525.22631821371567
 31
0.0
  0
ARC
  5
3402
  8
AM_0
 10
418.2021559649541
 20
526.64199821371596
 30
0.0
 40
4.000000049999997
 50
271.9999999999971
 51
315.0
  0
ARC
  5
3403
  8
AM_0
 10
419.61480596495431
 20
528.05474821371581
 30
0.0
 40
4.000000049999997
 50
315.0
 51
0.9319899800013384
  0
ARC
  5
3404
  8
AM_0
 10
427.61375596495429
 20
528.18487821371593
 30
0.0
 40
4.000000049999997
 50
91.999998000000545
 51
180.9319799999995
  0
LINE
  5
3405
  8
AM_0
 10
427.47410596495399
 20
532.18240321371593
 30
0.0
 11
433.61375596495378
 21
532.39682321371595
 31
0.0
  0
ARC
  5
3406
  8
AM_0
 10
463.11380596495422
 20
537.93005821371605
 30
0.0
 40
5.0
 50
271.9999999999971
 51
0.0
  0
ARC
  5
3407
  8
AM_0
 10
465.19675596495398
 20
588.73325821371554
 30
0.0
 40
4.000000049999997
 50
347.9293300000017
 51
55.386359000001512
  0
LINE
  5
3408
  8
AM_0
 10
469.11370596495431
 20
587.89685821371597
 30
0.0
 11
470.8259059649543
 21
594.28700821371592
 31
0.0
  0
ARC
  5
3409
  8
AM_0
 10
493.0307559649541
 20
588.73325821371554
 30
0.0
 40
4.000000049999997
 50
124.6136499999977
 51
187.86824999999581
  0
LINE
  5
340A
  8
AM_0
 10
489.03665596495421
 20
588.18465821371592
 30
0.0
 11
487.40155596495401
 21
594.28685821371585
 31
0.0
  0
LINE
  5
340B
  8
AM_0
 10
470.59275596495422
 20
575.47580821371594
 30
0.0
 11
479.63465596495422
 21
577.070208213716
 31
0.0
  0
LINE
  5
340C
  8
AM_0
 10
468.79095596495432
 20
587.89685821371597
 30
0.0
 11
483.44645596495451
 21
587.89685821371597
 31
0.0
  0
ARC
  5
340D
  8
AM_0
 10
471.11375596495378
 20
572.52135821371587
 30
0.0
 40
3.0000000500000001
 50
99.999999999998593
 51
180.00001000000091
  0
ARC
  5
340E
  8
AM_0
 10
470.11375596495418
 20
586.39685821371575
 30
0.0
 40
2.0000000500000001
 50
131.40962000000121
 51
180.00001000000091
  0
LINE
  5
340F
  8
AM_0
 10
482.11375596495412
 20
562.72105821371588
 30
0.0
 11
495.11375596495418
 21
562.72105821371588
 31
0.0
  0
LINE
  5
3410
  8
AM_0
 10
484.04400596495441
 20
588.01025821371593
 30
0.0
 11
495.11370596495442
 21
588.39680821371564
 31
0.0
  0
LINE
  5
3411
  8
AM_0
 10
482.11375596495412
 20
580.98010821371554
 30
0.0
 11
495.11375596495418
 21
580.98010821371554
 31
0.0
  0
ARC
  5
3412
  8
AM_0
 10
479.11380596495439
 20
580.02455821371598
 30
0.0
 40
3.0000000500000001
 50
279.99999999999852
 51
0.0
  0
ARC
  5
3413
  8
AM_0
 10
484.11380596495428
 20
586.01145821371597
 30
0.0
 40
2.0000000500000001
 50
91.999998000000545
 51
180.00001000000091
  0
LINE
  5
3414
  8
AM_0
 10
493.113805964954
 20
588.32695821371601
 30
0.0
 11
493.113805964954
 21
588.39685821371575
 31
0.0
  0
LINE
  5
3415
  8
AM_0
 10
493.113805964954
 20
588.39685821371575
 30
0.0
 11
495.11375596495418
 21
588.39685821371575
 31
0.0
  0
CIRCLE
  5
3416
  8
AM_0
 10
479.11380596495439
 20
608.89685821371597
 30
0.0
 40
12.5
  0
LINE
  5
3417
  8
AM_0
 10
471.610405964954
 20
595.01155821371594
 30
0.0
 11
479.11380596495439
 21
596.39685821371597
 31
0.0
  0
LINE
  5
3418
  8
AM_0
 10
471.2966059649541
 20
594.89685821371575
 30
0.0
 11
486.93090596495438
 21
594.89685821371575
 31
0.0
  0
ARC
  5
3419
  8
AM_0
 10
471.7919059649542
 20
594.02805821371601
 30
0.0
 40
1.0
 50
100.4607200000025
 51
164.99999000000491
  0
ARC
  5
341A
  8
AM_0
 10
486.43565596495421
 20
594.02805821371601
 30
0.0
 40
1.0
 50
15.000000000000741
 51
79.539281000002006
  0
LINE
  5
341B
  8
AM_0
 10
479.11375596495401
 20
596.39685821371597
 30
0.0
 11
486.61720596495411
 21
595.01145821371585
 31
0.0
  0
LINE
  5
341C
  8
AM_0
 10
607.11375596495418
 20
496.39679321371568
 30
0.0
 11
607.11375596495418
 21
553.39680821371587
 31
0.0
  0
LINE
  5
341D
  8
AM_0
 10
511.48015596495418
 20
552.79065821371603
 30
0.0
 11
523.28155596495424
 21
556.73205821371585
 31
0.0
  0
LINE
  5
341E
  8
AM_0
 10
613.11380596495417
 20
496.39679321371568
 30
0.0
 11
613.11380596495417
 21
536.15415821371585
 31
0.0
  0
ARC
  5
341F
  8
AM_0
 10
575.11375596495407
 20
530.56967321371587
 30
0.0
 40
10.0
 50
90.00000299999769
 51
180.00001000000091
  0
LINE
  5
3420
  8
AM_0
 10
580.17205596495421
 20
540.56965821371602
 30
0.0
 11
575.11375596495407
 21
540.56965821371602
 31
0.0
  0
ARC
  5
3421
  8
AM_0
 10
610.11375596495441
 20
536.15415821371585
 30
0.0
 40
3.0000000500000001
 50
0.0
 51
45.000001000003799
  0
ARC
  5
3422
  8
AM_0
 10
610.11375596495441
 20
544.63945821371556
 30
0.0
 40
3.0000000500000001
 50
179.9999899999988
 51
225.0
  0
LINE
  5
3423
  8
AM_0
 10
607.99240596495417
 20
542.51815821371565
 30
0.0
 11
612.23510596495419
 21
538.27550821371585
 31
0.0
  0
LINE
  5
3424
  8
AM_0
 10
512.04405596495405
 20
582.51940821371591
 30
0.0
 11
577.39300596495411
 21
580.23735821371599
 31
0.0
  0
LINE
  5
3425
  8
AM_0
 10
514.61375596495395
 20
557.87250821371583
 30
0.0
 11
514.61375596495395
 21
579.04565821371591
 31
0.0
  0
ARC
  5
3426
  8
AM_0
 10
520.11375596495407
 20
566.21695821371588
 30
0.0
 40
10.0
 50
288.4682099999992
 51
59.833878000001903
  0
ARC
  5
3427
  8
AM_0
 10
507.11375596495412
 20
559.72105821371599
 30
0.0
 40
3.0000000500000001
 50
0.0
 51
90.00000299999769
  0
ARC
  5
3428
  8
AM_0
 10
514.12610596495426
 20
556.83710821371596
 30
0.0
 40
3.0000000500000001
 50
270.0
 51
288.46821999999821
  0
LINE
  5
3429
  8
AM_0
 10
515.31280596495424
 20
580.57380821371601
 30
0.0
 11
525.13885596495402
 21
574.86265821371592
 31
0.0
  0
ARC
  5
342A
  8
AM_0
 10
513.80530596495453
 20
577.98010821371588
 30
0.0
 40
3.0000000500000001
 50
59.833878000001903
 51
90.00000299999769
  0
ARC
  5
342B
  8
AM_0
 10
512.11375596495395
 20
584.51820821371575
 30
0.0
 40
2.0000000500000001
 50
179.9999899999988
 51
268.00000999999861
  0
ARC
  5
342C
  8
AM_0
 10
508.11380596495388
 20
585.94165821371575
 30
0.0
 40
2.0000000500000001
 50
0.0
 51
88.000000000002785
  0
LINE
  5
342D
  8
AM_0
 10
510.11375596495429
 20
580.98010821371554
 30
0.0
 11
510.11375596495429
 21
585.94165821371575
 31
0.0
  0
ARC
  5
342E
  8
AM_0
 10
593.11380596495405
 20
564.39685821371586
 30
0.0
 40
8.0
 50
180.00001000000091
 51
270.0
  0
ARC
  5
342F
  8
AM_0
 10
577.11375596495395
 20
572.24220821371603
 30
0.0
 40
8.0
 50
0.0
 51
88.000000000002785
  0
LINE
  5
3430
  8
AM_0
 10
593.11380596495405
 20
556.39680821371564
 30
0.0
 11
604.11380596495439
 21
556.39680821371564
 31
0.0
  0
ARC
  5
3431
  8
AM_0
 10
604.11380596495439
 20
553.39680821371587
 30
0.0
 40
3.0000000500000001
 50
0.0
 51
90.00000299999769
  0
ARC
  5
3432
  8
AM_0
 10
962.93119088538549
 20
468.39682321371589
 30
0.0
 40
88.0
 50
0.0
 51
186.52498000000369
  0
CIRCLE
  5
3433
  8
AM_0
 10
962.93119088538549
 20
496.39679321371568
 30
0.0
 40
41.000000499999992
  0
LINE
  5
3434
  8
AM_0
 10
1056.931190885384
 20
540.03165821371579
 30
0.0
 11
1056.931190885384
 21
420.78216821371598
 31
0.0
  0
LINE
  5
3435
  8
AM_0
 10
868.93116088538545
 20
540.03165821371579
 30
0.0
 11
868.93116088538545
 21
424.386963213716
 31
0.0
  0
ARC
  5
3436
  8
AM_0
 10
962.93119088538549
 20
458.39682321371589
 30
0.0
 40
124.5
 50
7.1014839000006411
 51
172.89851999999871
  0
ARC
  5
3437
  8
AM_0
 10
962.93119088538549
 20
458.39682321371589
 30
0.0
 40
130.0
 50
7.375507199997366
 51
52.624493999996417
  0
ARC
  5
3438
  8
AM_0
 10
962.93119088538549
 20
458.39682321371589
 30
0.0
 40
130.0
 50
127.3755000000037
 51
172.6244899999997
  0
LINE
  5
3439
  8
AM_0
 10
617.11375596495395
 20
473.89679321371602
 30
0.0
 11
617.11375596495395
 21
518.89679321371602
 31
0.0
  0
LINE
  5
343A
  8
AM_0
 10
687.11375596495395
 20
475.39682321371589
 30
0.0
 11
687.11375596495395
 21
520.39682321371595
 31
0.0
  0
ARC
  5
343B
  8
AM_0
 10
962.93119088538549
 20
496.39679321371568
 30
0.0
 40
20.9999985
 50
106.6015499999987
 51
73.398451999997818
  0
ARC
  5
343C
  8
AM_0
 10
835.66444588538548
 20
482.34329321371581
 30
0.0
 40
5.0
 50
315.0
 51
349.34382000000329
  0
ARC
  5
343D
  8
AM_0
 10
1090.197885885384
 20
482.34329321371581
 30
0.0
 40
5.0
 50
190.6561799999964
 51
225.0
  0
LINE
  5
343E
  8
ﾁｭｳｼﾝｾﾝ1
 10
962.93119088538549
 20
630.93950821371595
 30
0.0
 11
962.93119088538549
 21
320.42721321371567
 31
0.0
  0
LINE
  5
343F
  8
AM_0
 10
1047.931190885384
 20
321.39678821371598
 30
0.0
 11
1102.9311758853851
 21
321.39678821371598
 31
0.0
  0
LINE
  5
3440
  8
AM_0
 10
1058.931160885385
 20
346.39678821371598
 30
0.0
 11
1097.931190885384
 21
346.39678821371598
 31
0.0
  0
LINE
  5
3441
  8
ﾁｭｳｼﾝｾﾝ1
 10
842.17540671226038
 20
430.39681821371568
 30
0.0
 11
1082.7418406332861
 21
430.39681821371568
 31
0.0
  0
LINE
  5
3442
  8
AM_0
 10
839.3861958853854
 20
473.78839321371589
 30
0.0
 11
822.9694958853853
 21
342.01495321371573
 31
0.0
  0
LINE
  5
3443
  8
AM_0
 10
825.86014588538535
 20
465.46786821371592
 30
0.0
 11
839.19999588538553
 21
478.80777321371602
 31
0.0
  0
LINE
  5
3444
  8
AM_0
 10
822.93119588538525
 20
321.39678821371598
 30
0.0
 11
877.93119088538515
 21
321.39678821371598
 31
0.0
  0
LINE
  5
3445
  8
AM_0
 10
827.93119588538525
 20
346.39678821371598
 30
0.0
 11
870.23117588538526
 21
346.39678821371598
 31
0.0
  0
LINE
  5
3446
  8
AM_0
 10
822.93119588538525
 20
341.39678821371609
 30
0.0
 11
822.93119588538525
 21
321.39678821371598
 31
0.0
  0
LINE
  5
3447
  8
ｶｸﾚｾﾝ2
 10
838.43119588538548
 20
346.39678821371598
 30
0.0
 11
838.43119588538548
 21
321.39678821371598
 31
0.0
  0
LINE
  5
3448
  8
AM_0
 10
617.11375596495395
 20
475.39682321371589
 30
0.0
 11
687.11375596495395
 21
475.39682321371589
 31
0.0
  0
ARC
  5
3449
  8
AM_0
 10
827.93119588538525
 20
341.39678821371609
 30
0.0
 40
5.0
 50
90.00000299999769
 51
180.00001000000091
  0
LINE
  5
344A
  8
AM_0
 10
825.86014588538535
 20
451.3257432137159
 30
0.0
 11
833.67104588538541
 21
443.5147732137159
 31
0.0
  0
ARC
  5
344B
  8
AM_0
 10
830.13554588538545
 20
439.97921821371602
 30
0.0
 40
5.0
 50
352.89851999999883
 51
45.000001000003799
  0
ARC
  5
344C
  8
AM_0
 10
962.93119088538549
 20
458.39682321371589
 30
0.0
 40
130.0
 50
187.37550999999999
 51
189.6244599999979
  0
ARC
  5
344D
  8
AM_0
 10
829.04819588538544
 20
441.06665321371599
 30
0.0
 40
5.0
 50
7.375508100000534
 51
45.000001000003799
  0
ARC
  5
344E
  8
AM_0
 10
832.93119588538525
 20
458.39682321371589
 30
0.0
 40
10.0
 50
135.0
 51
225.0
  0
ARC
  5
344F
  8
AM_0
 10
829.04819588538544
 20
475.7269932137159
 30
0.0
 40
5.0
 50
315.0
 51
352.62448999999958
  0
LINE
  5
3450
  8
AM_0
 10
874.23117588538571
 20
342.39681821371568
 30
0.0
 11
874.23117588538571
 21
321.39678821371598
 31
0.0
  0
LINE
  5
3451
  8
AM_0
 10
1051.631175885384
 20
342.39681821371568
 30
0.0
 11
1051.631175885384
 21
321.39678821371598
 31
0.0
  0
ARC
  5
3452
  8
AM_0
 10
895.93116088538545
 20
333.39681821371568
 30
0.0
 40
8.0
 50
90.00000299999769
 51
177.00553999999889
  0
ARC
  5
3453
  8
AM_0
 10
892.57672588538503
 20
331.12747321371597
 30
0.0
 40
5.0
 50
90.00000299999769
 51
166.1807799999996
  0
ARC
  5
3454
  8
AM_0
 10
1029.931190885384
 20
333.39681821371568
 30
0.0
 40
8.0
 50
2.9944644000003162
 51
90.00000299999769
  0
ARC
  5
3455
  8
AM_0
 10
1033.285655885385
 20
331.12747321371597
 30
0.0
 40
5.0
 50
13.819217000001251
 51
90.00000299999769
  0
LINE
  5
3456
  8
ﾁｭｳｼﾝｾﾝ1
 10
847.93119588538525
 20
350.90469321371597
 30
0.0
 11
847.93119588538525
 21
316.50518821371583
 31
0.0
  0
LINE
  5
3457
  8
ｶｸﾚｾﾝ2
 10
857.43119588538525
 20
346.39678821371598
 30
0.0
 11
857.43119588538525
 21
321.39678821371598
 31
0.0
  0
LINE
  5
3458
  8
AM_0
 10
881.93116088538545
 20
326.39678821371598
 30
0.0
 11
1044.296945885385
 21
326.39678821371598
 31
0.0
  0
LINE
  5
3459
  8
AM_0
 10
892.57672588538503
 20
336.12747321371597
 30
0.0
 11
1033.285655885385
 21
336.12747321371597
 31
0.0
  0
ARC
  5
345A
  8
AM_0
 10
881.93116088538545
 20
322.39681821371568
 30
0.0
 40
4.000000049999997
 50
99.488295999996765
 51
180.00001000000091
  0
LINE
  5
345B
  8
AM_0
 10
877.93119088538515
 20
322.39681821371568
 30
0.0
 11
877.93119088538515
 21
321.39678821371598
 31
0.0
  0
ARC
  5
345C
  8
AM_0
 10
879.95301088538542
 20
334.23263321371581
 30
0.0
 40
8.0
 50
279.4882999999972
 51
357.00553999999892
  0
ARC
  5
345D
  8
AM_0
 10
1043.931160885385
 20
322.39681821371568
 30
0.0
 40
4.000000049999997
 50
0.0
 51
80.511702000002984
  0
ARC
  5
345E
  8
AM_0
 10
1045.9093408853851
 20
334.23263321371581
 30
0.0
 40
8.0
 50
182.9944600000008
 51
260.51170000000258
  0
LINE
  5
345F
  8
AM_0
 10
1047.931190885384
 20
322.39681821371568
 30
0.0
 11
1047.931190885384
 21
321.39678821371598
 31
0.0
  0
LINE
  5
3460
  8
AM_0
 10
895.93116088538545
 20
341.39678821371609
 30
0.0
 11
1029.931190885384
 21
341.39678821371609
 31
0.0
  0
ARC
  5
3461
  8
AM_0
 10
962.93119088538549
 20
424.386963213716
 30
0.0
 40
93.999994999999984
 50
179.9999899999988
 51
200.5819600000012
  0
LINE
  5
3462
  8
AM_0
 10
874.93119088538526
 20
458.39682321371589
 30
0.0
 11
874.93119088538526
 21
354.3968182137159
 31
0.0
  0
ARC
  5
3463
  8
AM_0
 10
866.93116088538545
 20
354.3968182137159
 30
0.0
 40
8.0
 50
270.0
 51
0.0
  0
ARC
  5
3464
  8
AM_0
 10
870.23117588538526
 20
342.39681821371568
 30
0.0
 40
4.000000049999997
 50
0.0
 51
90.00000299999769
  0
ARC
  5
3465
  8
AM_0
 10
962.93119088538549
 20
424.386963213716
 30
0.0
 40
93.999994999999984
 50
339.95001999999999
 51
20.049975999999841
  0
LINE
  5
3466
  8
AM_0
 10
1050.931160885385
 20
468.39682321371589
 30
0.0
 11
1050.931160885385
 21
354.3968182137159
 31
0.0
  0
ARC
  5
3467
  8
AM_0
 10
1055.631175885384
 20
342.39681821371568
 30
0.0
 40
4.000000049999997
 50
90.00000299999769
 51
180.00001000000091
  0
ARC
  5
3468
  8
AM_0
 10
1058.931160885385
 20
354.3968182137159
 30
0.0
 40
8.0
 50
180.00001000000091
 51
270.0
  0
ARC
  5
3469
  8
AM_0
 10
1055.9311608853841
 20
390.4458332137159
 30
0.0
 40
5.0
 50
159.95003000000011
 51
180.00001000000091
  0
ARC
  5
346A
  8
AM_0
 10
1055.9311608853841
 20
458.32806321371589
 30
0.0
 40
5.0
 50
179.9999899999988
 51
200.04996999999969
  0
LINE
  5
346B
  8
AM_0
 10
1102.9311758853851
 20
341.39678821371609
 30
0.0
 11
1102.9311758853851
 21
321.39678821371598
 31
0.0
  0
LINE
  5
346C
  8
ﾁｭｳｼﾝｾﾝ1
 10
1077.931190885384
 20
350.24697821371598
 30
0.0
 11
1077.931190885384
 21
314.42129321371601
 31
0.0
  0
LINE
  5
346D
  8
ｶｸﾚｾﾝ2
 10
1087.431160885385
 20
346.39678821371598
 30
0.0
 11
1087.431160885385
 21
321.39678821371598
 31
0.0
  0
LINE
  5
346E
  8
ｶｸﾚｾﾝ2
 10
1068.431160885385
 20
346.39678821371598
 30
0.0
 11
1068.431160885385
 21
321.39678821371598
 31
0.0
  0
LINE
  5
346F
  8
AM_0
 10
1086.4761158853851
 20
473.78839321371589
 30
0.0
 11
1102.892830885384
 21
342.01495321371573
 31
0.0
  0
ARC
  5
3470
  8
AM_0
 10
1097.931190885384
 20
341.39678821371609
 30
0.0
 40
5.0
 50
0.0
 51
90.00000299999769
  0
LINE
  5
3471
  8
AM_0
 10
1100.0022658853841
 20
451.3257432137159
 30
0.0
 11
1092.191295885385
 21
443.5147732137159
 31
0.0
  0
ARC
  5
3472
  8
AM_0
 10
1096.8141858853851
 20
441.06665321371599
 30
0.0
 40
5.0
 50
135.0
 51
172.6244899999997
  0
ARC
  5
3473
  8
AM_0
 10
1095.726815885384
 20
439.97921821371602
 30
0.0
 40
5.0
 50
135.0
 51
187.10148999999521
  0
ARC
  5
3474
  8
AM_0
 10
962.93119088538549
 20
458.39682321371589
 30
0.0
 40
130.0
 50
350.37554999999838
 51
352.62448999999958
  0
LINE
  5
3475
  8
AM_0
 10
1100.0022658853841
 20
465.46786821371592
 30
0.0
 11
1086.662395885385
 21
478.80773821371588
 31
0.0
  0
ARC
  5
3476
  8
AM_0
 10
1092.931190885384
 20
458.39682321371589
 30
0.0
 40
10.0
 50
315.0
 51
45.000001000003799
  0
ARC
  5
3477
  8
AM_0
 10
1096.8141858853851
 20
475.7269932137159
 30
0.0
 40
5.0
 50
187.37550999999999
 51
225.0
  0
LINE
  5
3478
  8
AM_0
 10
617.11375596495395
 20
517.39682321371595
 30
0.0
 11
687.11375596495395
 21
517.39682321371595
 31
0.0
  0
LINE
  5
3479
  8
AM_0
 10
631.11375596495395
 20
520.39682321371595
 30
0.0
 11
687.11375596495395
 21
520.39682321371595
 31
0.0
  0
LINE
  5
347A
  8
AM_0
 10
631.11375596495395
 20
520.39682321371595
 30
0.0
 11
631.11375596495395
 21
517.39682321371595
 31
0.0
  0
ARC
  5
347B
  8
AM_0
 10
962.93119088538549
 20
625.39680821371564
 30
0.0
 40
4.000000049999997
 50
359.999989999999
 51
179.9999899999988
  0
ARC
  5
347C
  8
AM_0
 10
962.93119088538549
 20
458.39682321371589
 30
0.0
 40
130.0
 50
67.375506000002574
 51
112.6244900000042
  0
LINE
  5
347D
  8
ﾁｭｳｼﾝｾﾝ1
 10
885.74132222301375
 20
496.39679321371568
 30
0.0
 11
1039.0249879503631
 21
496.39679321371568
 31
0.0
  0
ARC
  5
347E
  8
AM_0
 10
878.55954588538555
 20
556.63975821371594
 30
0.0
 40
5.0
 50
310.6561800000004
 51
344.99999999999909
  0
ARC
  5
347F
  8
AM_0
 10
897.93119088538572
 20
570.98010821371577
 30
0.0
 40
10.0
 50
74.999998999997473
 51
164.99999000000491
  0
LINE
  5
3480
  8
AM_0
 10
888.27195088538542
 20
573.56835821371556
 30
0.0
 11
883.38919588538545
 21
555.34570821371597
 31
0.0
  0
ARC
  5
3481
  8
AM_0
 10
880.98130088538539
 20
565.67785821371592
 30
0.0
 40
5.0
 50
307.37551000000462
 51
344.99999999999909
  0
LINE
  5
3482
  8
AM_0
 10
900.51941588538523
 20
580.63940821371591
 30
0.0
 11
918.74201088538564
 21
575.75665821371592
 31
0.0
  0
ARC
  5
3483
  8
AM_0
 10
920.03608088538556
 20
580.58625821371595
 30
0.0
 40
5.0
 50
254.9999999999992
 51
289.34382000000068
  0
ARC
  5
3484
  8
AM_0
 10
910.9980558853855
 20
583.00800821371593
 30
0.0
 40
5.0
 50
254.9999999999992
 51
292.6244900000043
  0
ARC
  5
3485
  8
AM_0
 10
1047.302805885384
 20
556.63975821371594
 30
0.0
 40
5.0
 50
195.00000999999489
 51
229.34381999999951
  0
LINE
  5
3486
  8
AM_0
 10
956.93116088538534
 20
520.39682321371595
 30
0.0
 11
956.93116088538534
 21
512.39682321371595
 31
0.0
  0
LINE
  5
3487
  8
AM_0
 10
968.93116088538545
 20
520.39682321371595
 30
0.0
 11
968.93116088538545
 21
512.39682321371595
 31
0.0
  0
CIRCLE
  5
3488
  8
AM_0
 10
962.93119088538549
 20
496.39679321371568
 30
0.0
 40
3.5000000500000001
  0
CIRCLE
  5
3489
  8
AM_5
 10
962.93119088538549
 20
496.39679321371568
 30
0.0
 40
5.0
  0
LINE
  5
348A
  8
AM_0
 10
956.93116088538534
 20
512.39682321371595
 30
0.0
 11
968.93116088538545
 21
512.39682321371595
 31
0.0
  0
LINE
  5
348B
  8
AM_0
 10
956.93116088538534
 20
520.39682321371595
 30
0.0
 11
968.93116088538545
 21
520.39682321371595
 31
0.0
  0
ARC
  5
348C
  8
AM_0
 10
1005.826270885384
 20
580.58625821371595
 30
0.0
 40
5.0
 50
250.65617999999921
 51
285.00000000000063
  0
LINE
  5
348D
  8
AM_0
 10
952.96262588538525
 20
588.01405821371554
 30
0.0
 11
954.64344088538564
 21
594.28690821371595
 31
0.0
  0
ARC
  5
348E
  8
AM_0
 10
956.93116088538534
 20
591.89685821371597
 30
0.0
 40
2.0000000500000001
 50
270.0
 51
0.0
  0
ARC
  5
348F
  8
AM_0
 10
968.93116088538545
 20
591.89685821371597
 30
0.0
 40
2.0000000500000001
 50
179.9999899999988
 51
270.0
  0
LINE
  5
3490
  8
AM_0
 10
972.89975588538528
 20
588.01405821371554
 30
0.0
 11
971.2189708853856
 21
594.28685821371585
 31
0.0
  0
LINE
  5
3491
  8
AM_0
 10
966.93116088538534
 20
625.39680821371564
 30
0.0
 11
966.93116088538534
 21
591.89685821371597
 31
0.0
  0
LINE
  5
3492
  8
AM_0
 10
958.93116088538534
 20
625.39680821371564
 30
0.0
 11
958.93116088538534
 21
591.89685821371597
 31
0.0
  0
ARC
  5
3493
  8
AM_0
 10
955.6093208853855
 20
594.02805821371601
 30
0.0
 40
1.0
 50
100.4607200000025
 51
164.99999000000491
  0
LINE
  5
3494
  8
AM_0
 10
958.93119088538515
 20
595.65825821371595
 30
0.0
 11
955.42774088538522
 21
595.01145821371585
 31
0.0
  0
ARC
  5
3495
  8
AM_0
 10
970.25303088538556
 20
594.02805821371601
 30
0.0
 40
1.0
 50
15.000000000000741
 51
79.539281000002006
  0
LINE
  5
3496
  8
AM_0
 10
966.93116088538534
 20
595.65830821371594
 30
0.0
 11
970.43457588538524
 21
595.01145821371585
 31
0.0
  0
ARC
  5
3497
  8
AM_0
 10
1027.931190885384
 20
570.98010821371577
 30
0.0
 40
10.0
 50
15.000000000000741
 51
105.0000000000007
  0
LINE
  5
3498
  8
AM_0
 10
1025.3429958853851
 20
580.6393582137157
 30
0.0
 11
1007.120370885385
 21
575.75660821371594
 31
0.0
  0
ARC
  5
3499
  8
AM_0
 10
1014.864325885385
 20
583.00800821371593
 30
0.0
 40
5.0
 50
247.37550999999559
 51
285.00000000000063
  0
LINE
  5
349A
  8
AM_0
 10
1037.590460885385
 20
573.56825821371592
 30
0.0
 11
1042.473185885385
 21
555.34565821371575
 31
0.0
  0
ARC
  5
349B
  8
AM_0
 10
1044.8810508853851
 20
565.67785821371592
 30
0.0
 40
5.0
 50
195.00000999999489
 51
232.62449999999609
  0
LINE
  5
349D
  8
0
 10
328.61368596495402
 20
794.57708974600575
 30
0.0
 11
328.61368596495402
 21
954.57708974600553
 31
0.0
1001
GENIUS_GENOREF_13
1005
319A
  0
LINE
  5
349E
  8
0
 10
338.61368596495402
 20
952.57708974600564
 30
0.0
 11
338.61368596495402
 21
796.57708974600575
 31
0.0
1001
GENIUS_GENOREF_13
1005
319A
  0
LINE
  5
349F
  8
AM_0
 10
359.61368596495402
 20
828.57707274600568
 30
0.0
 11
338.61368596495402
 21
828.57707274600568
 31
0.0
  0
LINE
  5
34A0
  8
0
 10
340.543886971549
 20
817.41115769110274
 30
0.0
 11
359.61368596495402
 21
818.07708974600575
 31
0.0
  0
LINE
  5
34A1
  8
0
 10
328.61368596495402
 20
794.57708974600575
 30
0.0
 11
336.61368596495402
 21
794.57708974600575
 31
0.0
  0
ARC
  5
34A2
  8
0
 10
336.61368596495402
 20
796.57708974600575
 30
0.0
 40
2.0
 50
270.0
 51
0.0
1001
GENIUS_GENOBJ-N-FIL_13
1002
{
1000
OWNER
1000
GEN
1002
}
1001
GENIUS_GENODEF_13
1002
{
1000
HIER
1070
     0
1002
}
1002
{
1000
MANEDIT
1070
     0
1002
}
1002
{
1000
NOSEL
1070
     0
1002
}
1002
{
1000
BEHIND
1070
     0
1002
}
1002
{
1000
OTHER
1070
     0
1002
}
1002
{
1000
REACTOR
1002
}
  0
ARC
  5
34A3
  8
0
 10
340.61368596495402
 20
815.41237603706463
 30
0.0
 40
2.0
 50
92.000000000003666
 51
180.0
1001
GENIUS_GENOBJ-N-FIL_13
1002
{
1000
OWNER
1000
GEN
1002
}
1001
GENIUS_GENODEF_13
1002
{
1000
HIER
1070
     0
1002
}
1002
{
1000
MANEDIT
1070
     0
1002
}
1002
{
1000
NOSEL
1070
     0
1002
}
1002
{
1000
BEHIND
1070
     0
1002
}
1002
{
1000
OTHER
1070
     0
1002
}
1002
{
1000
REACTOR
1002
}
  0
LINE
  5
34A4
  8
AM_0
 10
359.61368596495402
 20
842.63964774600572
 30
0.0
 11
338.61368596495402
 21
842.63964774600572
 31
0.0
  0
LINE
  5
34A5
  8
AM_0
 10
359.61368596495402
 20
906.51452874600545
 30
0.0
 11
338.61368596495402
 21
906.51452874600545
 31
0.0
  0
LINE
  5
34A6
  8
0
 10
340.543886971549
 20
931.74302180090865
 30
0.0
 11
359.61368596495402
 21
931.07708974600564
 31
0.0
  0
LINE
  5
34A7
  8
AM_0
 10
359.61368596495402
 20
920.57708874600553
 30
0.0
 11
338.61368596495402
 21
920.57708874600553
 31
0.0
  0
ARC
  5
34A8
  8
0
 10
340.61368596495402
 20
933.74180345494653
 30
0.0
 40
2.0
 50
180.0
 51
267.99999999999631
1001
GENIUS_GENOBJ-N-FIL_13
1002
{
1000
OWNER
1000
GEN
1002
}
1001
GENIUS_GENODEF_13
1002
{
1000
HIER
1070
     0
1002
}
1002
{
1000
MANEDIT
1070
     0
1002
}
1002
{
1000
NOSEL
1070
     0
1002
}
1002
{
1000
BEHIND
1070
     0
1002
}
1002
{
1000
OTHER
1070
     0
1002
}
1002
{
1000
REACTOR
1002
}
  0
LINE
  5
34A9
  8
0
 10
328.61368596495402
 20
954.57708974600553
 30
0.0
 11
336.61368596495402
 21
954.57708974600553
 31
0.0
  0
ARC
  5
34AA
  8
0
 10
336.61368596495402
 20
952.57708974600564
 30
0.0
 40
2.0
 50
0.0
 51
90.0
1001
GENIUS_GENOBJ-N-FIL_13
1002
{
1000
OWNER
1000
GEN
1002
}
1001
GENIUS_GENODEF_13
1002
{
1000
HIER
1070
     0
1002
}
1002
{
1000
MANEDIT
1070
     0
1002
}
1002
{
1000
NOSEL
1070
     0
1002
}
1002
{
1000
BEHIND
1070
     0
1002
}
1002
{
1000
OTHER
1070
     0
1002
}
1002
{
1000
REACTOR
1002
}
  0
TEXT
  5
368C
  8
AM_0
 10
829.58911811770895
 20
912.1494270689808
 30
0.0
 40
15.0
  1
VX02-800A~VX02-K20A
  0
ENDSEC
  0
EOF
