  0
SECTION
  2
HEADER
  9
$ACADVER
  1
AC1009
  9
$INSBASE
 10
0.0
 20
0.0
 30
0.0
  9
$EXTMIN
 10
233.48309552073829
 20
186.32708254273351
 30
-0.0000000000112498
  9
$EXTMAX
 10
660.06379112969569
 20
565.23012365790623
 30
0.0000000000002956
  9
$LIMMIN
 10
0.0
 20
0.0
  9
$LIMMAX
 10
853.5
 20
555.00000000000011
  9
$ORTHOMODE
 70
     0
  9
$REGENMODE
 70
     1
  9
$FILLMODE
 70
     1
  9
$QTEXTMODE
 70
     0
  9
$MIRRTEXT
 70
     1
  9
$DRAGMODE
 70
     2
  9
$LTSCALE
 40
3.0
  9
$OSMODE
 70
   551
  9
$ATTMODE
 70
     1
  9
$TEXTSIZE
 40
2.5
  9
$TRACEWID
 40
1.0
  9
$TEXTSTYLE
  7
STANDARD
  9
$CLAYER
  8
AM_0
  9
$CELTYPE
  6
BYLAYER
  9
$CECOLOR
 62
   256
  9
$DIMSCALE
 40
1.0
  9
$DIMASZ
 40
0.1
  9
$DIMEXO
 40
0.05
  9
$DIMDLI
 40
0.5
  9
$DIMRND
 40
0.0
  9
$DIMDLE
 40
0.0
  9
$DIMEXE
 40
0.1
  9
$DIMTP
 40
0.1
  9
$DIMTM
 40
0.1
  9
$DIMTXT
 40
0.12
  9
$DIMCEN
 40
0.0
  9
$DIMTSZ
 40
0.0
  9
$DIMTOL
 70
     0
  9
$DIMLIM
 70
     0
  9
$DIMTIH
 70
     1
  9
$DIMTOH
 70
     1
  9
$DIMSE1
 70
     0
  9
$DIMSE2
 70
     0
  9
$DIMTAD
 70
     0
  9
$DIMZIN
 70
     8
  9
$DIMBLK
  1

  9
$DIMASO
 70
     1
  9
$DIMSHO
 70
     1
  9
$DIMPOST
  1

  9
$DIMAPOST
  1
mm
  9
$DIMALT
 70
     0
  9
$DIMALTD
 70
     2
  9
$DIMALTF
 40
25.399999999999999
  9
$DIMLFAC
 40
1.0
  9
$DIMTOFL
 70
     0
  9
$DIMTVP
 40
0.0
  9
$DIMTIX
 70
     0
  9
$DIMSOXD
 70
     0
  9
$DIMSAH
 70
     0
  9
$DIMBLK1
  1

  9
$DIMBLK2
  1

  9
$DIMSTYLE
  2
AM_ANSI
  9
$DIMCLRD
 70
   256
  9
$DIMCLRE
 70
   256
  9
$DIMCLRT
 70
     2
  9
$DIMTFAC
 40
0.71
  9
$DIMGAP
 40
0.06
  9
$LUNITS
 70
     2
  9
$LUPREC
 70
     2
  9
$SKETCHINC
 40
1.0
  9
$FILLETRAD
 40
15.0
  9
$AUNITS
 70
     0
  9
$AUPREC
 70
     0
  9
$MENU
  1
.
  9
$ELEVATION
 40
0.0
  9
$PELEVATION
 40
0.0
  9
$THICKNESS
 40
0.0
  9
$LIMCHECK
 70
     0
  9
$BLIPMODE
 70
     0
  9
$CHAMFERA
 40
6.0
  9
$CHAMFERB
 40
3.0
  9
$SKPOLY
 70
     0
  9
$TDCREATE
 40
2452065.7887456599
  9
$TDUPDATE
 40
2458541.4678042941
  9
$TDINDWG
 40
0.0923496644
  9
$TDUSRTIMER
 40
0.0923492824
  9
$USRTIMER
 70
     1
  9
$ANGBASE
 50
0.0
  9
$ANGDIR
 70
     0
  9
$PDMODE
 70
     0
  9
$PDSIZE
 40
0.0
  9
$PLINEWID
 40
0.0
  9
$COORDS
 70
     1
  9
$SPLFRAME
 70
     0
  9
$SPLINETYPE
 70
     6
  9
$SPLINESEGS
 70
     8
  9
$ATTDIA
 70
     1
  9
$ATTREQ
 70
     1
  9
$HANDLING
 70
     1
  9
$HANDSEED
  5
3802
  9
$SURFTAB1
 70
     6
  9
$SURFTAB2
 70
     6
  9
$SURFTYPE
 70
     6
  9
$SURFU
 70
     6
  9
$SURFV
 70
     6
  9
$UCSNAME
  2

  9
$UCSORG
 10
0.0
 20
0.0
 30
0.0
  9
$UCSXDIR
 10
1.0
 20
0.0
 30
0.0
  9
$UCSYDIR
 10
0.0
 20
1.0
 30
0.0
  9
$PUCSNAME
  2

  9
$PUCSORG
 10
0.0
 20
0.0
 30
0.0
  9
$PUCSXDIR
 10
1.0
 20
0.0
 30
0.0
  9
$PUCSYDIR
 10
0.0
 20
1.0
 30
0.0
  9
$USERI1
 70
     0
  9
$USERI2
 70
     0
  9
$USERI3
 70
     0
  9
$USERI4
 70
     0
  9
$USERI5
 70
     0
  9
$USERR1
 40
0.0
  9
$USERR2
 40
0.0
  9
$USERR3
 40
0.0
  9
$USERR4
 40
0.0
  9
$USERR5
 40
0.0
  9
$WORLDVIEW
 70
     1
  9
$SHADEDGE
 70
     3
  9
$SHADEDIF
 70
    70
  9
$TILEMODE
 70
     1
  9
$MAXACTVP
 70
    48
  9
$PLIMCHECK
 70
     0
  9
$PEXTMIN
 10
1.0000000000000000E+020
 20
1.0000000000000000E+020
 30
1.0000000000000000E+020
  9
$PEXTMAX
 10
-1.0000000000000000E+020
 20
-1.0000000000000000E+020
 30
-1.0000000000000000E+020
  9
$PLIMMIN
 10
0.0
 20
0.0
  9
$PLIMMAX
 10
420.0
 20
297.0
  9
$UNITMODE
 70
     0
  9
$VISRETAIN
 70
     1
  9
$PLINEGEN
 70
     0
  9
$PSLTSCALE
 70
     1
  0
ENDSEC
  0
SECTION
  2
TABLES
  0
TABLE
  2
VPORT
 70
     1
  0
VPORT
  2
*ACTIVE
 70
     0
 10
0.0
 20
0.0
 11
1.0
 21
1.0
 12
446.7734433252171
 22
375.7786031003198
 13
0.0
 23
0.0
 14
7.5
 24
7.5
 15
30.0
 25
30.0
 16
0.0
 26
0.0
 36
1.0
 17
0.0
 27
0.0
 37
0.0
 40
381.50420615715331
 41
1.7571592210767459
 42
50.0
 43
0.0
 44
0.0
 50
0.0
 51
0.0
 71
     0
 72
   100
 73
     1
 74
     3
 75
     0
 76
     0
 77
     0
 78
     0
  0
ENDTAB
  0
TABLE
  2
LTYPE
 70
    23
  0
LTYPE
  2
CONTINUOUS
 70
     0
  3
Solid line
 72
    65
 73
     0
 40
0.0
  0
LTYPE
  2
AM_ISO02W050
 70
     0
  3
__ __ __ __ __ __ __ __ __ __ __ __ __ __ __
 72
    65
 73
     2
 40
7.5
 49
6.0
 49
-1.5
  0
LTYPE
  2
AM_ISO08W050
 70
     0
  3
____ . ____ . ____ . ____ . ____ . ____ . ____
 72
    65
 73
     4
 40
18.0
 49
12.0
 49
-1.5
 49
3.0
 49
-1.5
  0
LTYPE
  2
AM_ISO09W050
 70
     0
  3
_____ . . _____ . . _____ . . ____ .. ____
 72
    65
 73
     6
 40
22.5
 49
12.0
 49
-1.5
 49
3.0
 49
-1.5
 49
3.0
 49
-1.5
  0
LTYPE
  2
AMCONSTR
 70
     0
  3
_______________________
 72
    65
 73
     2
 40
9999.0
 49
9999.0
 49
0.0
  0
LTYPE
  2
AM_ISO08W050X2
 70
     0
  3
__ . __ . __ . __ . __ . __
 72
    65
 73
     4
 40
9.0
 49
6.0
 49
-0.75
 49
1.5
 49
-0.75
  0
LTYPE
  2
AM_ISO02W050X2
 70
     0
  3
 _ _ _ _ _ _ _ _ _ _ _ _
 72
    65
 73
     2
 40
3.75
 49
3.0
 49
-0.75
  0
LTYPE
  2
AMZIGZAG
 70
     0
  3
/\/-/\/-/\/-/\/-/\/-/\/
 72
    65
 73
     2
 40
11.000099999999991
 49
0.0001
 49
-11.0
  0
LTYPE
  2
ACISOWELD
 70
     0
  3
_ _ _ _ _
 72
    65
 73
     2
 40
2.0
 49
2.0
 49
-1.0
  0
LTYPE
  2
ACISOTGB
 70
     0
  3
__ . . __ . .
 72
    65
 73
     6
 40
9.0
 49
4.0
 49
-1.0
 49
1.0
 49
-1.0
 49
1.0
 49
-1.0
  0
LTYPE
  2
ACISOTGL
 70
     0
  3
_ _ _ _ _
 72
    65
 73
     2
 40
3.0
 49
2.0
 49
-1.0
  0
LTYPE
  2
CENTER
 70
     0
  3
__ . __
 72
    65
 73
     4
 40
7.0
 49
4.0
 49
-1.0
 49
1.0
 49
-1.0
  0
LTYPE
  2
PHANTOM2
 70
     0
  3
Phantom (.5x) ___ _ _ ___ _ _ ___ _ _ ___ _ _
 72
    65
 73
     6
 40
31.75
 49
15.875
 49
-3.174999999999998
 49
3.174999999999998
 49
-3.174999999999998
 49
3.174999999999998
 49
-3.174999999999998
  0
LTYPE
  2
GEN7
 70
     0
  3
____ . ____ . ____ . ____ . ____ . ____ . ____
 72
    65
 73
     4
 40
14.25
 49
9.75
 49
-1.5
 49
1.5
 49
-1.5
  0
LTYPE
  2
GEN3B
 70
     0
  3
 - - - - -
 72
    65
 73
     2
 40
1.0
 49
0.5
 49
-0.5
  0
LTYPE
  2
GEN7A
 70
     0
  3
__ . __ . __
 72
    65
 73
     4
 40
7.375
 49
4.75
 49
-0.875
 49
0.875
 49
-0.875
  0
LTYPE
  2
ACANSTGB
 70
     0
  3
__ . . __ . .
 72
    65
 73
     6
 40
0.35433070866
 49
0.15748031496
 49
-0.03937007874
 49
0.03937007874
 49
-0.03937007874
 49
0.03937007874
 49
-0.03937007874
  0
LTYPE
  2
ACANSTGL
 70
     0
  3
_ _ _ _ _
 72
    65
 73
     2
 40
0.11811023622
 49
0.07874015748
 49
-0.03937007874
  0
LTYPE
  2
HIDDEN
 70
     0
  3
Hidden __ __ __ __ __ __ __ __ __ __ __ __ __ _
 72
    65
 73
     2
 40
0.375
 49
0.25
 49
-0.125
  0
LTYPE
  2
CENTER2
 70
     0
  3
Center (.5x) ___ _ ___ _ ___ _ ___ _ ___ _ ___
 72
    65
 73
     4
 40
1.125
 49
0.75
 49
-0.125
 49
0.125
 49
-0.125
  0
LTYPE
  2
HIDDEN2
 70
     0
  3
Hidden (.5x) _ _ _ _ _ _ _ _ _ _ _ _ _ _ _ _ _
 72
    65
 73
     2
 40
0.1875
 49
0.125
 49
-0.0625
  0
LTYPE
  2
AMZIGZAG2
 70
     0
  3
/\/-/\/-/\/-/\/-/\/-/\/
 72
    65
 73
     2
 40
0.4401
 49
0.0001
 49
-0.4400000000000003
  0
ENDTAB
  0
TABLE
  2
LAYER
 70
     7
  0
LAYER
  2
0
 70
     0
 62
     7
  6
CONTINUOUS
  0
LAYER
  2
AM_0
 70
     0
 62
     7
  6
CONTINUOUS
  0
LAYER
  2
AM_5
 70
     0
 62
     2
  6
CONTINUOUS
  0
LAYER
  2
DEFPOINTS
 70
     0
 62
     7
  6
CONTINUOUS
  0
LAYER
  2
ｶｸﾚｾﾝ2
 70
     0
 62
     3
  6
GEN3B
  0
LAYER
  2
ﾁｭｳｼﾝｾﾝ
 70
     0
 62
     1
  6
GEN7
  0
LAYER
  2
ﾁｭｳｼﾝｾﾝ1
 70
     0
 62
     1
  6
GEN7A
  0
ENDTAB
  0
TABLE
  2
STYLE
 70
     7
  0
STYLE
  2
STANDARD
 70
     0
 40
0.0
 41
0.8299999999999999
 50
0.0
 71
     0
 42
2.5
  3
txt.shx
  4
bigfont.shx
  0
STYLE
  2
ANNOTATIVE
 70
     0
 40
0.0
 41
1.0
 50
0.0
 71
     0
 42
0.2
  3
txt
  4

  0
STYLE
  2

 70
     1
 40
0.0
 41
1.0
 50
0.0
 71
     0
 42
2.5
  3
ltypeshp.shx
  4

  0
STYLE
  2
ACISOTS
 70
     0
 40
1.0
 41
1.0
 50
0.0
 71
     0
 42
2.5
  3
isocp.shx
  4
extfont.shx
  0
STYLE
  2
ACISOGDT
 70
     0
 40
0.0
 41
1.0
 50
0.0
 71
     0
 42
2.5
  3
amgdt.shx
  4

  0
STYLE
  2
ACANSTS
 70
     0
 40
1.0
 41
1.0
 50
0.0
 71
     0
 42
2.5
  3
romans.shx
  4
bigfont.shx
  0
STYLE
  2
ACANSGDT
 70
     0
 40
0.0
 41
1.0
 50
0.0
 71
     0
 42
2.5
  3
amgdt.shx
  4

  0
ENDTAB
  0
TABLE
  2
VIEW
 70
     6
  0
VIEW
  2
AM_VIEW1
 70
     0
 40
277.49999999999989
 10
249.64779005524841
 20
416.24999999999989
 41
499.2955801104971
 11
0.0
 21
0.0
 31
1.0
 12
0.0
 22
0.0
 32
0.0
 42
50.0
 43
0.0
 44
0.0
 50
0.0
 71
     0
  0
VIEW
  2
AM_VIEW2
 70
     0
 40
277.49999999999989
 10
603.85220994475117
 20
416.24999999999989
 41
499.2955801104971
 11
0.0
 21
0.0
 31
1.0
 12
0.0
 22
0.0
 32
0.0
 42
50.0
 43
0.0
 44
0.0
 50
0.0
 71
     0
  0
VIEW
  2
AM_VIEW3
 70
     0
 40
277.49999999999989
 10
249.64779005524841
 20
138.7499999999998
 41
499.2955801104971
 11
0.0
 21
0.0
 31
1.0
 12
0.0
 22
0.0
 32
0.0
 42
50.0
 43
0.0
 44
0.0
 50
0.0
 71
     0
  0
VIEW
  2
AM_VIEW4
 70
     0
 40
277.49999999999989
 10
603.85220994475117
 20
138.7499999999998
 41
499.2955801104971
 11
0.0
 21
0.0
 31
1.0
 12
0.0
 22
0.0
 32
0.0
 42
50.0
 43
0.0
 44
0.0
 50
0.0
 71
     0
  0
VIEW
  2
AM_VIEW5
 70
     0
 40
277.49999999999989
 10
426.75
 20
277.49999999999989
 41
499.2955801104971
 11
0.0
 21
0.0
 31
1.0
 12
0.0
 22
0.0
 32
0.0
 42
50.0
 43
0.0
 44
0.0
 50
0.0
 71
     0
  0
VIEW
  2
AM_VIEW6
 70
     0
 40
554.99445000000014
 10
426.75
 20
277.49999999999989
 41
998.5811743093924
 11
0.0
 21
0.0
 31
1.0
 12
0.0
 22
0.0
 32
0.0
 42
50.0
 43
0.0
 44
0.0
 50
0.0
 71
     0
  0
ENDTAB
  0
TABLE
  2
UCS
 70
     0
  0
ENDTAB
  0
TABLE
  2
APPID
 70
    95
  0
APPID
  2
ACAD
 70
     0
  0
APPID
  2
ACADANNOTATIVE
 70
     0
  0
APPID
  2
MCAD_NO_VIS
 70
     0
  0
APPID
  2
ACAD_TEMP_GRAPHIC
 70
     0
  0
APPID
  2
ACATTRIBSERVICES
 70
     0
  0
APPID
  2
GENIUS_GENREC_14
 70
     0
  0
APPID
  2
GENIUS_GENOBJ-N-REC_13
 70
     0
  0
APPID
  2
GENIUS_GENODEF_13
 70
     0
  0
APPID
  2
GENIUS_GENOLIS_13
 70
     0
  0
APPID
  2
GENIUS_GENOBJ-N-TIT_13
 70
     0
  0
APPID
  2
GENIUS_GENOENT_13
 70
     0
  0
APPID
  2
GENIUS_GENTITLE_13
 70
     0
  0
APPID
  2
GENIUS_GENOREF_13
 70
     0
  0
APPID
  2
GENIUS_GENSCREG_15
 70
     0
  0
APPID
  2
GENIUS_GENOBJ-N-SDF_13
 70
     0
  0
APPID
  2
GENIUS_GENFIL_13
 70
     0
  0
APPID
  2
GENIUS_GENOBJ-N-CHA_13
 70
     0
  0
APPID
  2
GENIUS_GENDTOL_13
 70
     0
  0
APPID
  2
GENIUS_GENOBJ-N-FIL_13
 70
     0
  0
APPID
  2
AD_DRAW
 70
     0
  0
APPID
  2
DESIGNERASSEMBLIES
 70
     0
  0
APPID
  2
ASURF_PCURVE_APPNAME
 70
     0
  0
APPID
  2
GENIUS_GE3SECT_13
 70
     0
  0
APPID
  2
GENIUS_GENCFG_13
 70
     0
  0
APPID
  2
GENIUS_GE3CFG0_13
 70
     0
  0
APPID
  2
GENIUS_GENCFG0_13
 70
     0
  0
APPID
  2
GENIUS_GENCFG1_13
 70
     0
  0
APPID
  2
GENIUS_GENCFG2_13
 70
     0
  0
APPID
  2
GENIUS_GENCFG3_13
 70
     0
  0
APPID
  2
GENIUS_GENCFG4_13
 70
     0
  0
APPID
  2
GENIUS_GEVCFG0_13
 70
     0
  0
APPID
  2
GENIUS_GENHINW_13
 70
     0
  0
APPID
  2
GENIUS_FIRSTVISTXT_14
 70
     0
  0
APPID
  2
GENIUS_GENOBJ-N-LEADER_13
 70
     0
  0
APPID
  2
GEV_VCCNULL_SWITCH_OFF
 70
     0
  0
APPID
  2
GENIUS_GEFCFG0_13
 70
     0
  0
APPID
  2
GENIUS_GENZVEED_13
 70
     0
  0
APPID
  2
GENIUS_GENSCREG_13
 70
     0
  0
APPID
  2
GENIUS_DUMCFG0_13
 70
     0
  0
APPID
  2
GEVID936201362
 70
     0
  0
APPID
  2
GEVDC
 70
     0
  0
APPID
  2
GEVCON
 70
     0
  0
APPID
  2
VCC
 70
     0
  0
APPID
  2
GEVPT
 70
     0
  0
APPID
  2
GEVIT
 70
     0
  0
APPID
  2
GENBH
 70
     0
  0
APPID
  2
GEVMK
 70
     0
  0
APPID
  2
GENIUS_GENBH_13
 70
     0
  0
APPID
  2
GENIUS_GENOBJ-NBEHI-BHF_13
 70
     0
  0
APPID
  2
GENIUS_GENOBJ-NBEHI-BHB_13
 70
     0
  0
APPID
  2
GENIUS_GENOBJ-F-DESC_13
 70
     0
  0
APPID
  2
GENIUS_GEFDESC_14
 70
     0
  0
APPID
  2
GENIUS_GENOBJ-F-PART_13
 70
     0
  0
APPID
  2
GENIUS_GEFSTDP_13
 70
     0
  0
APPID
  2
GENIUS_GEFPARTINS_13
 70
     0
  0
APPID
  2
GENIUS_GENTRA_14
 70
     0
  0
APPID
  2
GENIUS_GENINF13_13
 70
     0
  0
APPID
  2
GENIUS_GENOBJ-N-INFOPT_13
 70
     0
  0
APPID
  2
GENIUS_GENOBJ-N-RSSYM_13
 70
     0
  0
APPID
  2
GENIUS_GENSYMENT_13
 70
     0
  0
APPID
  2
GENIUS_GENSCSYM_13
 70
     0
  0
APPID
  2
GENIUS_GEFINFNAM_13
 70
     0
  0
APPID
  2
GENIUS_GENOBJ-N-CEN_13
 70
     0
  0
APPID
  2
GENIUS_GENOBJ-N-CRS_13
 70
     0
  0
APPID
  2
GENIUS_GENOBJ-N-CRC_13
 70
     0
  0
APPID
  2
GENIUS_GENCRC_14
 70
     0
  0
APPID
  2
GEVID942827039
 70
     0
  0
APPID
  2
GEVID942827040
 70
     0
  0
APPID
  2
GEVID942827041
 70
     0
  0
APPID
  2
GENIUS_GENOBJ-F-SCPASSM_13
 70
     0
  0
APPID
  2
GENIUS_GENDIMSH_14
 70
     0
  0
APPID
  2
GEVID942827042
 70
     0
  0
APPID
  2
GEVID946020473
 70
     0
  0
APPID
  2
GEVID946020474
 70
     0
  0
APPID
  2
GEVID946020475
 70
     0
  0
APPID
  2
GENIUS_GENOBJ-N-HTC_13
 70
     0
  0
APPID
  2
GENIUS_GENHATCH_13
 70
     0
  0
APPID
  2
GEVID948854295
 70
     0
  0
APPID
  2
GEVID939402019
 70
     0
  0
APPID
  2
GEVID952919491
 70
     0
  0
APPID
  2
GEVID952919492
 70
     0
  0
APPID
  2
GENIUS_GEFWELD_13
 70
     0
  0
APPID
  2
GENIUS_GENOBJ-F-WELS_13
 70
     0
  0
APPID
  2
GEVID952919493
 70
     0
  0
APPID
  2
GENIUS_GENOBJ-N-RSBK_13
 70
     0
  0
APPID
  2
GENIUS_GENOBJ-N-LIB_13
 70
     0
  0
APPID
  2
GENIUS_GENSCALE_13
 70
     0
  0
APPID
  2
GEVID986376691
 70
     0
  0
APPID
  2
DCO15
 70
     0
  0
APPID
  2
ACAD_DSTYLE_DIMBREAK
 70
     0
  0
APPID
  2
ACAD_DSTYLE_DIMJAG
 70
     0
  0
APPID
  2
ACAD_NAV_VCDISPLAY
 70
     0
  0
APPID
  2
ACADANNOPO
 70
     0
  0
APPID
  2
ACAD_EXEMPT_FROM_CAD_STANDARDS
 70
     0
  0
APPID
  2
ACAD_MLEADERVER
 70
     0
  0
ENDTAB
  0
TABLE
  2
DIMSTYLE
 70
    15
  0
DIMSTYLE
  2
STANDARD
 70
     0
  3

  4

  5

  6

  7

 40
1.0
 41
0.18
 42
0.0625
 43
0.38
 44
0.18
 45
0.0
 46
0.0
 47
0.0
 48
0.0
140
0.18
141
0.09
142
0.0
143
25.399999999999999
144
1.0
145
0.0
146
1.0
147
0.09
 71
     0
 72
     0
 73
     1
 74
     1
 75
     0
 76
     0
 77
     0
 78
     0
170
     0
171
     2
172
     0
173
     0
174
     0
175
     0
176
     0
177
     0
178
     0
  0
DIMSTYLE
  2
ANNOTATIVE
 70
     0
  3

  4

  5

  6

  7

 40
1.0
 41
0.18
 42
0.0625
 43
0.38
 44
0.18
 45
0.0
 46
0.0
 47
0.0
 48
0.0
140
0.18
141
0.09
142
0.0
143
25.399999999999999
144
1.0
145
0.0
146
1.0
147
0.09
 71
     0
 72
     0
 73
     1
 74
     1
 75
     0
 76
     0
 77
     0
 78
     0
170
     0
171
     2
172
     0
173
     0
174
     0
175
     0
176
     0
177
     0
178
     0
  0
DIMSTYLE
  2
AM_ISO
 70
     0
  3

  4
"
  5

  6

  7

 40
1.0
 41
2.5
 42
1.0
 43
8.0
 44
0.6
 45
0.0
 46
0.0
 47
0.1
 48
0.1
140
2.5
141
0.0
142
0.0
143
0.0393701
144
1.0
145
0.0
146
0.71
147
0.8
 71
     0
 72
     0
 73
     0
 74
     0
 75
     0
 76
     0
 77
     1
 78
     8
170
     0
171
     2
172
     1
173
     0
174
     0
175
     0
176
   256
177
   256
178
     4
  0
DIMSTYLE
  2
AM_ISO$3
 70
     0
  3

  4
"
  5

  6

  7

 40
1.0
 41
2.5
 42
1.0
 43
8.0
 44
0.6
 45
0.0
 46
0.0
 47
0.1
 48
0.1
140
2.5
141
0.0
142
0.0
143
0.0393701
144
1.0
145
0.0
146
0.71
147
0.8
 71
     0
 72
     0
 73
     0
 74
     1
 75
     0
 76
     0
 77
     1
 78
     8
170
     0
171
     2
172
     0
173
     0
174
     0
175
     0
176
   256
177
   256
178
     4
  0
DIMSTYLE
  2
AM_ISO$4
 70
     0
  3

  4
"
  5

  6

  7

 40
1.0
 41
2.5
 42
1.0
 43
8.0
 44
0.6
 45
0.0
 46
0.0
 47
0.1
 48
0.1
140
2.5
141
0.0
142
0.0
143
0.0393701
144
1.0
145
0.0
146
0.71
147
0.8
 71
     0
 72
     0
 73
     0
 74
     1
 75
     0
 76
     0
 77
     1
 78
     8
170
     0
171
     2
172
     0
173
     0
174
     0
175
     0
176
   256
177
   256
178
     4
  0
DIMSTYLE
  2
AM_ISO$6
 70
     0
  3

  4
"
  5

  6

  7

 40
1.0
 41
2.5
 42
1.0
 43
8.0
 44
0.6
 45
0.0
 46
0.0
 47
0.1
 48
0.1
140
2.5
141
0.0
142
0.0
143
0.0393701
144
1.0
145
0.0
146
0.71
147
0.8
 71
     0
 72
     0
 73
     0
 74
     0
 75
     0
 76
     0
 77
     0
 78
     8
170
     0
171
     2
172
     1
173
     0
174
     0
175
     0
176
   256
177
   256
178
     4
  0
DIMSTYLE
  2
AM_ISO$7
 70
     0
  3

  4
"
  5

  6

  7

 40
1.0
 41
2.5
 42
1.0
 43
8.0
 44
0.6
 45
0.0
 46
0.0
 47
0.1
 48
0.1
140
2.5
141
0.0
142
0.0
143
0.0393701
144
1.0
145
0.0
146
0.71
147
0.8
 71
     0
 72
     0
 73
     0
 74
     0
 75
     0
 76
     0
 77
     1
 78
     8
170
     0
171
     2
172
     1
173
     0
174
     0
175
     0
176
   256
177
   256
178
     4
  0
DIMSTYLE
  2
AM_ISO$SF
 70
     0
  3

  4
"
  5

  6

  7

 40
1.0
 41
2.5
 42
1.0
 43
10.0
 44
1.0
 45
0.0
 46
0.0
 47
0.1
 48
0.1
140
3.5
141
0.0
142
0.0
143
0.0393701
144
1.0
145
0.0
146
0.71
147
1.5
 71
     0
 72
     0
 73
     0
 74
     0
 75
     1
 76
     1
 77
     1
 78
     8
170
     0
171
     2
172
     1
173
     0
174
     0
175
     0
176
   256
177
   256
178
     2
  0
DIMSTYLE
  2
AM_ISO$SH
 70
     0
  3

  4
"
  5

  6

  7

 40
1.0
 41
2.5
 42
1.0
 43
10.0
 44
1.0
 45
0.0
 46
0.0
 47
0.1
 48
0.1
140
3.5
141
0.0
142
0.0
143
0.0393701
144
2.0
145
0.0
146
0.71
147
1.5
 71
     0
 72
     0
 73
     0
 74
     0
 75
     1
 76
     1
 77
     1
 78
     8
170
     0
171
     2
172
     1
173
     1
174
     0
175
     0
176
   256
177
   256
178
     2
  0
DIMSTYLE
  2
AM_ANSI
 70
     0
  3

  4
mm
  5

  6

  7

 40
1.0
 41
0.1
 42
0.05
 43
0.5
 44
0.1
 45
0.0
 46
0.0
 47
0.1
 48
0.1
140
0.12
141
0.0
142
0.0
143
25.399999999999999
144
1.0
145
0.0
146
0.71
147
0.06
 71
     0
 72
     0
 73
     1
 74
     1
 75
     0
 76
     0
 77
     0
 78
     7
170
     0
171
     2
172
     0
173
     0
174
     0
175
     0
176
   256
177
   256
178
     2
  0
DIMSTYLE
  2
AM_ANSI$3
 70
     0
  3

  4
mm
  5

  6

  7

 40
1.0
 41
0.1
 42
0.05
 43
0.5
 44
0.1
 45
0.0
 46
0.0
 47
0.1
 48
0.1
140
0.12
141
0.0
142
0.0
143
25.399999999999999
144
1.0
145
0.0
146
0.71
147
0.06
 71
     0
 72
     0
 73
     1
 74
     1
 75
     0
 76
     0
 77
     0
 78
     7
170
     0
171
     2
172
     0
173
     0
174
     0
175
     0
176
   256
177
   256
178
     2
  0
DIMSTYLE
  2
AM_ANSI$4
 70
     0
  3

  4
mm
  5

  6

  7

 40
1.0
 41
0.1
 42
0.05
 43
0.5
 44
0.1
 45
0.0
 46
0.0
 47
0.1
 48
0.1
140
0.12
141
0.0
142
0.0
143
25.399999999999999
144
1.0
145
0.0
146
0.71
147
0.06
 71
     0
 72
     0
 73
     1
 74
     1
 75
     0
 76
     0
 77
     0
 78
     7
170
     0
171
     2
172
     0
173
     0
174
     0
175
     0
176
   256
177
   256
178
     2
  0
DIMSTYLE
  2
AM_ANSI$7
 70
     0
  3

  4
mm
  5

  6

  7

 40
1.0
 41
0.1
 42
0.05
 43
0.5
 44
0.1
 45
0.0
 46
0.0
 47
0.1
 48
0.1
140
0.24
141
0.0
142
0.0
143
25.399999999999999
144
1.0
145
0.0
146
0.71
147
0.06
 71
     0
 72
     0
 73
     1
 74
     1
 75
     0
 76
     0
 77
     0
 78
     7
170
     0
171
     2
172
     0
173
     0
174
     0
175
     0
176
   256
177
   256
178
     2
  0
DIMSTYLE
  2
AM_ANSI$SF
 70
     0
  3

  4
mm
  5

  6

  7

 40
1.0
 41
0.1
 42
0.05
 43
0.5
 44
0.1
 45
0.0
 46
0.0
 47
0.1
 48
0.1
140
0.12
141
0.0
142
0.0
143
25.399999999999999
144
1.0
145
0.0
146
0.71
147
0.06
 71
     0
 72
     0
 73
     1
 74
     1
 75
     1
 76
     1
 77
     0
 78
     7
170
     0
171
     2
172
     0
173
     0
174
     0
175
     0
176
   256
177
   256
178
     2
  0
DIMSTYLE
  2
AM_ANSI$SH
 70
     0
  3

  4
mm
  5

  6

  7

 40
1.0
 41
0.1
 42
0.05
 43
0.5
 44
0.1
 45
0.0
 46
0.0
 47
0.1
 48
0.1
140
0.12
141
0.0
142
0.0
143
25.399999999999999
144
1.0
145
0.0
146
0.71
147
0.06
 71
     0
 72
     0
 73
     1
 74
     1
 75
     1
 76
     1
 77
     0
 78
     7
170
     0
171
     2
172
     0
173
     1
174
     0
175
     0
176
   256
177
   256
178
     2
  0
ENDTAB
  0
ENDSEC
  0
SECTION
  2
BLOCKS
  0
BLOCK
  8
0
  2
$MODEL_SPACE
 70
     0
 10
0.0
 20
0.0
 30
0.0
  3
$MODEL_SPACE
  1

  0
ENDBLK
  5
3685
  8
0
  0
BLOCK
 67
     1
  8
0
  2
$PAPER_SPACE
 70
     0
 10
0.0
 20
0.0
 30
0.0
  3
$PAPER_SPACE
  1

  0
ENDBLK
  5
3681
 67
     1
  8
0
  0
BLOCK
  8
0
  2
GENAXEH
 70
     0
 10
0.0
 20
0.0
 30
0.0
  3
GENAXEH
  1

  0
LINE
  5
33DD
  8
0
 10
-1.0
 20
0.0
 30
0.0
 11
1.0
 21
0.0
 31
0.0
  0
ENDBLK
  5
33DE
  8
0
  0
BLOCK
  8
0
  2
_ACMFILLEDHALF
 70
     0
 10
0.0
 20
0.0
 30
0.0
  3
_ACMFILLEDHALF
  1

  0
TRACE
  5
376C
  8
AM_0
 62
     0
 10
-0.8
 20
0.0
 30
0.0
 11
-1.0
 21
0.166666666
 31
0.0
 12
0.0
 22
0.0
 32
0.0
 13
0.0
 23
0.0
 33
0.0
  0
LINE
  5
376D
  8
AM_0
 62
     0
 10
-1.0
 20
0.0
 30
0.0
 11
-0.8
 21
0.0
 31
0.0
  0
ENDBLK
  5
376B
  8
0
  0
ENDSEC
  0
SECTION
  2
ENTITIES
  0
LINE
  5
33DF
  8
ﾁｭｳｼﾝｾﾝ
 10
233.5019327357179
 20
485.1956738717742
 30
0.0
 11
419.36643469268682
 21
485.1956738717742
 31
0.0
  0
ARC
  5
33E0
  8
AM_0
 10
417.0026346926868
 20
485.1956738717742
 30
0.0
 40
80.0
 50
148.90067999999891
 51
211.0993000000004
  0
LINE
  5
33E1
  8
AM_0
 10
291.50266469268678
 20
447.14080387177432
 30
0.0
 11
291.50266469268678
 21
523.25054387177397
 31
0.0
  0
LINE
  5
33E2
  8
AM_0
 10
286.50266469268678
 20
421.19567387177409
 30
0.0
 11
286.50266469268678
 21
549.19567387177426
 31
0.0
  0
LINE
  5
33E3
  8
AM_0
 10
337.00260469268682
 20
442.46202387177431
 30
0.0
 11
337.00260469268682
 21
527.9293138717743
 31
0.0
  0
LINE
  5
33E4
  8
AM_0
 10
324.00266469268678
 20
425.19567387177409
 30
0.0
 11
324.00266469268678
 21
545.19567387177426
 31
0.0
  0
LINE
  5
33E5
  8
AM_0
 10
382.00266469268678
 20
524.43279387177415
 30
0.0
 11
382.00266469268678
 21
442.75371387177432
 31
0.0
  0
LINE
  5
33E6
  8
AM_0
 10
369.00266469268678
 20
436.3799938717741
 30
0.0
 11
369.00266469268678
 21
534.01134387177422
 31
0.0
  0
LINE
  5
33E7
  8
AM_0
 10
384.00266469268678
 20
504.22151387177422
 30
0.0
 11
384.00266469268678
 21
466.1698238717741
 31
0.0
  0
LINE
  5
33E8
  8
AM_0
 10
336.00266469268678
 20
432.32762387177428
 30
0.0
 11
339.00266469268689
 21
432.32762387177428
 31
0.0
  0
LINE
  5
33E9
  8
AM_0
 10
336.00266469268678
 20
438.10118387177431
 30
0.0
 11
339.00266469268689
 21
438.10118387177431
 31
0.0
  0
LINE
  5
33EA
  8
AM_0
 10
336.00266469268678
 20
429.44091387177423
 30
0.0
 11
339.00266469268689
 21
429.44091387177423
 31
0.0
  0
LINE
  5
33EB
  8
AM_0
 10
336.00266469268678
 20
440.98790387177422
 30
0.0
 11
339.00266469268689
 21
440.98790387177422
 31
0.0
  0
LINE
  5
33EC
  8
AM_0
 10
348.50074469268679
 20
443.87380387177421
 30
0.0
 11
337.00263469268663
 21
442.46199387177421
 31
0.0
  0
LINE
  5
33ED
  8
AM_0
 10
343.96568469268692
 20
430.6585038717742
 30
0.0
 11
337.20209469268679
 21
426.75353387177421
 31
0.0
  0
LINE
  5
33EE
  8
AM_0
 10
379.13355469268691
 20
416.63930387177419
 30
0.0
 11
324.00266469268678
 21
415.19564387177428
 31
0.0
  0
LINE
  5
33EF
  8
AM_0
 10
286.50266469268678
 20
447.14080387177432
 30
0.0
 11
291.50266469268678
 21
447.14080387177432
 31
0.0
  0
LINE
  5
33F0
  8
AM_0
 10
286.50266469268678
 20
433.69536387177419
 30
0.0
 11
298.62778469268687
 21
433.69536387177419
 31
0.0
  0
LINE
  5
33F1
  8
AM_0
 10
290.52885469268682
 20
421.30107387177418
 30
0.0
 11
286.50266469268678
 21
421.19567387177409
 31
0.0
  0
LINE
  5
33F2
  8
AM_0
 10
336.00266469268678
 20
441.48790387177411
 30
0.0
 11
336.00266469268678
 21
428.94091387177428
 31
0.0
  0
LINE
  5
33F3
  8
AM_0
 10
335.00266469268689
 20
442.46202387177431
 30
0.0
 11
335.00266469268689
 21
425.81395387177429
 31
0.0
  0
ARC
  5
33F4
  8
AM_0
 10
311.00260469268687
 20
427.6956738717742
 30
0.0
 40
5.0
 50
216.102969999999
 51
326.8970199999992
  0
ARC
  5
33F5
  8
ｶｸﾚｾﾝ2
 10
311.00260469268687
 20
427.6956738717742
 30
0.0
 40
5.0
 50
326.89703000000083
 51
216.1029599999998
  0
LINE
  5
33F6
  8
AM_0
 10
291.50266469268678
 20
429.66930387177428
 30
0.0
 11
335.00266469268689
 21
429.66930387177428
 31
0.0
  0
LINE
  5
33F7
  8
AM_0
 10
291.50266469268678
 20
424.34462387177422
 30
0.0
 11
332.46384469268691
 21
425.41722387177418
 31
0.0
  0
LINE
  5
33F8
  8
ﾁｭｳｼﾝｾﾝ1
 10
303.56690469268688
 20
427.6956738717742
 30
0.0
 11
317.82609469268681
 21
427.6956738717742
 31
0.0
  0
LINE
  5
33F9
  8
AM_0
 10
324.00263469268668
 20
415.1956738717742
 30
0.0
 11
305.87177469268693
 21
415.67043387177432
 31
0.0
  0
ARC
  5
33FA
  8
AM_0
 10
306.00266469268678
 20
420.6687238717742
 30
0.0
 40
5.0
 50
180.00001000000091
 51
268.5000000000004
  0
LINE
  5
33FB
  8
AM_0
 10
309.50263469268668
 20
435.45861387177422
 30
0.0
 11
300.36427469268682
 21
433.84725387177423
 31
0.0
  0
LINE
  5
33FC
  8
AM_0
 10
291.50266469268678
 20
422.30074387177422
 30
0.0
 11
291.50266469268678
 21
433.69536387177419
 31
0.0
  0
ARC
  5
33FD
  8
AM_0
 10
290.50266469268678
 20
422.30074387177422
 30
0.0
 40
1.0
 50
271.4999999999992
 51
0.0
  0
ARC
  5
33FE
  8
AM_0
 10
298.62778469268687
 20
443.69536387177391
 30
0.0
 40
10.0
 50
270.0
 51
280.00001000000128
  0
LINE
  5
33FF
  8
ﾁｭｳｼﾝｾﾝ1
 10
311.00260469268687
 20
420.26863387177423
 30
0.0
 11
311.00260469268687
 21
434.73677387177429
 31
0.0
  0
LINE
  5
3400
  8
AM_0
 10
301.00266469268678
 20
420.6687238717742
 30
0.0
 11
301.00266469268678
 21
424.59337387177419
 31
0.0
  0
LINE
  5
3401
  8
AM_0
 10
323.00266469268678
 20
416.19600387177422
 30
0.0
 11
323.00266469268678
 21
418.19670387177428
 31
0.0
  0
LINE
  5
3402
  8
AM_0
 10
327.00266469268678
 20
417.22252387177417
 30
0.0
 11
327.00266469268678
 21
423.22118387177431
 31
0.0
  0
ARC
  5
3403
  8
AM_0
 10
325.00266469268678
 20
417.22252387177417
 30
0.0
 40
2.0
 50
271.4999999999992
 51
0.0
  0
ARC
  5
3404
  8
AM_0
 10
324.00266469268678
 20
416.19600387177422
 30
0.0
 40
1.0
 50
180.00001000000091
 51
268.5000000000004
  0
ARC
  5
3405
  8
AM_0
 10
325.00266469268678
 20
423.22118387177431
 30
0.0
 40
2.0
 50
0.0
 51
91.500001000001546
  0
LINE
  5
3406
  8
AM_0
 10
325.97648469268682
 20
419.14534387177417
 30
0.0
 11
324.0288246926869
 21
419.19637387177431
 31
0.0
  0
ARC
  5
3407
  8
AM_0
 10
324.00266469268678
 20
418.19670387177428
 30
0.0
 40
1.0
 50
88.499997000000747
 51
180.00001000000091
  0
ARC
  5
3408
  8
AM_0
 10
332.2020646926868
 20
435.41381387177421
 30
0.0
 40
10.0
 50
271.4999999999992
 51
300.00001000000083
  0
ARC
  5
3409
  8
AM_0
 10
326.00266469268678
 20
420.14501387177421
 30
0.0
 40
1.0
 50
268.5000000000004
 51
0.0000006832462478
  0
LINE
  5
340A
  8
AM_0
 10
335.00266469268689
 20
428.94091387177428
 30
0.0
 11
336.00266469268678
 21
428.94091387177428
 31
0.0
  0
LINE
  5
340B
  8
AM_0
 10
291.50266469268678
 20
448.01567387177431
 30
0.0
 11
309.50266469268678
 21
448.01567387177431
 31
0.0
  0
LINE
  5
340C
  8
AM_0
 10
299.50266469268678
 20
435.90734387177417
 30
0.0
 11
299.50266469268678
 21
445.82057387177429
 31
0.0
  0
LINE
  5
340D
  8
AM_0
 10
309.50266469268678
 20
436.87587387177422
 30
0.0
 11
309.50266469268678
 21
446.84606387177428
 31
0.0
  0
LINE
  5
340E
  8
AM_0
 10
335.00266469268689
 20
441.48790387177411
 30
0.0
 11
336.00266469268678
 21
441.48790387177411
 31
0.0
  0
LINE
  5
340F
  8
AM_0
 10
335.00266469268689
 20
442.46202387177431
 30
0.0
 11
337.00260469268682
 21
442.46202387177431
 31
0.0
  0
ARC
  5
3410
  8
AM_0
 10
366.00266469268678
 20
436.3799938717741
 30
0.0
 40
3.0
 50
271.4999999999992
 51
0.0
  0
LINE
  5
3411
  8
AM_0
 10
340.00260469268682
 20
430.44091387177423
 30
0.0
 11
340.00260469268682
 21
439.98793387177432
 31
0.0
  0
LINE
  5
3412
  8
AM_0
 10
384.00266469268678
 20
421.63759387177419
 30
0.0
 11
384.00266469268678
 21
438.75371387177432
 31
0.0
  0
ARC
  5
3413
  8
AM_0
 10
364.00266469268678
 20
428.32488387177432
 30
0.0
 40
5.0
 50
91.500001000001546
 51
180.00001000000091
  0
ARC
  5
3414
  8
AM_0
 10
362.00266469268678
 20
419.19176387177419
 30
0.0
 40
3.0
 50
180.00001000000091
 51
271.4999999999992
  0
LINE
  5
3415
  8
AM_0
 10
360.9916246926868
 20
432.31661387177422
 30
0.0
 11
348.70393469268691
 21
431.99483387177418
 31
0.0
  0
ARC
  5
3416
  8
AM_0
 10
348.96568469268692
 20
421.99825387177418
 30
0.0
 40
10.0
 50
91.500001000001546
 51
120.0000000000005
  0
ARC
  5
3417
  8
AM_0
 10
339.00266469268689
 20
431.3276538717742
 30
0.0
 40
1.0
 50
0.0
 51
90.000003000000945
  0
ARC
  5
3418
  8
AM_0
 10
339.00266469268689
 20
430.44091387177423
 30
0.0
 40
1.0
 50
269.999989999999
 51
0.0000006832462478
  0
ARC
  5
3419
  8
AM_0
 10
339.00266469268689
 20
433.3276538717742
 30
0.0
 40
1.0
 50
269.999989999999
 51
0.0000006832462478
  0
LINE
  5
341A
  8
AM_0
 10
359.00266469268678
 20
419.19176387177419
 30
0.0
 11
359.00266469268678
 21
428.32488387177432
 31
0.0
  0
ARC
  5
341B
  8
AM_0
 10
379.00266469268689
 20
421.63759387177419
 30
0.0
 40
5.0
 50
271.4999999999992
 51
0.0
  0
CIRCLE
  5
341C
  8
AM_0
 10
374.00260469268682
 20
427.6956738717742
 30
0.0
 40
5.0
  0
LINE
  5
341D
  8
ﾁｭｳｼﾝｾﾝ1
 10
366.88401469268678
 20
427.6956738717742
 30
0.0
 11
381.20103469268679
 21
427.6956738717742
 31
0.0
  0
LINE
  5
341E
  8
ﾁｭｳｼﾝｾﾝ1
 10
374.00260469268682
 20
420.39855387177403
 30
0.0
 11
374.00260469268682
 21
434.77675387177391
 31
0.0
  0
LINE
  5
341F
  8
AM_0
 10
363.87174469268689
 20
433.32314387177422
 30
0.0
 11
366.08118469268692
 21
433.38100387177423
 31
0.0
  0
LINE
  5
3420
  8
AM_0
 10
369.00263469268691
 20
444.5897438717742
 30
0.0
 11
348.50074469268679
 21
443.87380387177421
 31
0.0
  0
ARC
  5
3421
  8
AM_0
 10
339.00266469268689
 20
439.98793387177432
 30
0.0
 40
1.0
 50
0.0
 51
90.000003000000945
  0
ARC
  5
3422
  8
AM_0
 10
339.00266469268689
 20
437.10115387177422
 30
0.0
 40
1.0
 50
0.0
 51
90.000003000000945
  0
ARC
  5
3423
  8
AM_0
 10
339.00266469268689
 20
439.10115387177427
 30
0.0
 40
1.0
 50
269.999989999999
 51
0.0000006832462478
  0
LINE
  5
3424
  8
AM_0
 10
373.87177469268693
 20
442.8231738717742
 30
0.0
 11
379.08118469268692
 21
442.95958387177433
 31
0.0
  0
ARC
  5
3425
  8
AM_0
 10
374.00266469268678
 20
437.82488387177432
 30
0.0
 40
5.0
 50
91.500001000001546
 51
180.00001000000091
  0
ARC
  5
3426
  8
AM_0
 10
379.00266469268689
 20
445.95854387177422
 30
0.0
 40
3.0
 50
271.4999999999992
 51
0.0
  0
ARC
  5
3427
  8
AM_0
 10
379.00266469268689
 20
438.75371387177432
 30
0.0
 40
5.0
 50
0.0
 51
70.485339000000806
  0
ARC
  5
3428
  8
AM_0
 10
383.00266469268678
 20
464.16912387177427
 30
0.0
 40
1.0
 50
91.500001000001546
 51
180.00001000000091
  0
ARC
  5
3429
  8
AM_0
 10
383.00266469268678
 20
466.1698238717741
 30
0.0
 40
1.0
 50
271.4999999999992
 51
0.0
  0
LINE
  5
342A
  8
AM_0
 10
382.97648469268682
 20
465.16878387177428
 30
0.0
 11
383.0288246926869
 21
465.17015387177429
 31
0.0
  0
LINE
  5
342B
  8
AM_0
 10
336.00266469268678
 20
529.40340387177434
 30
0.0
 11
339.00266469268689
 21
529.40340387177434
 31
0.0
  0
LINE
  5
342C
  8
AM_0
 10
336.00266469268678
 20
540.95043387177407
 30
0.0
 11
339.00266469268689
 21
540.95043387177407
 31
0.0
  0
LINE
  5
342D
  8
AM_0
 10
336.00266469268678
 20
532.29015387177424
 30
0.0
 11
339.00266469268689
 21
532.29015387177424
 31
0.0
  0
LINE
  5
342E
  8
AM_0
 10
336.00266469268678
 20
538.06368387177429
 30
0.0
 11
339.00266469268689
 21
538.06368387177429
 31
0.0
  0
LINE
  5
342F
  8
AM_0
 10
348.50074469268679
 20
526.51750387177435
 30
0.0
 11
337.00263469268663
 21
527.9293138717743
 31
0.0
  0
LINE
  5
3430
  8
AM_0
 10
343.96568469268692
 20
539.73281387177417
 30
0.0
 11
337.20209469268679
 21
543.63777387177424
 31
0.0
  0
LINE
  5
3431
  8
AM_0
 10
379.13352469268682
 20
553.75200387177415
 30
0.0
 11
324.00266469268678
 21
555.19567387177415
 31
0.0
  0
ARC
  5
3432
  8
ｶｸﾚｾﾝ2
 10
311.00260469268687
 20
542.69567387177415
 30
0.0
 40
5.0
 50
143.89688000000041
 51
33.103123000000132
  0
LINE
  5
3433
  8
AM_0
 10
291.50266469268678
 20
536.69567387177426
 30
0.0
 11
291.50266469268678
 21
548.09056387177395
 31
0.0
  0
LINE
  5
3434
  8
AM_0
 10
335.00266469268689
 20
527.9293138717743
 30
0.0
 11
335.00266469268689
 21
544.57735387177433
 31
0.0
  0
LINE
  5
3435
  8
ﾁｭｳｼﾝｾﾝ1
 10
311.00260469268687
 20
550.00835387177415
 30
0.0
 11
311.00260469268687
 21
535.24227387177405
 31
0.0
  0
LINE
  5
3436
  8
AM_0
 10
286.50266469268678
 20
536.69594387177415
 30
0.0
 11
298.62778469268687
 21
536.69594387177415
 31
0.0
  0
LINE
  5
3437
  8
AM_0
 10
286.50266469268678
 20
523.25054387177397
 30
0.0
 11
291.50266469268678
 21
523.25054387177397
 31
0.0
  0
LINE
  5
3438
  8
AM_0
 10
291.50266469268678
 20
540.72200387177429
 30
0.0
 11
335.00266469268689
 21
540.72200387177429
 31
0.0
  0
LINE
  5
3439
  8
AM_0
 10
309.50266469268678
 20
533.51543387177435
 30
0.0
 11
309.50266469268678
 21
523.54521387177385
 31
0.0
  0
LINE
  5
343A
  8
AM_0
 10
291.50266469268678
 20
522.37563387177431
 30
0.0
 11
309.50266469268678
 21
522.37563387177431
 31
0.0
  0
LINE
  5
343B
  8
AM_0
 10
309.50263469268668
 20
534.93267387177423
 30
0.0
 11
300.36423469268681
 21
536.54402387177424
 31
0.0
  0
LINE
  5
343C
  8
AM_0
 10
299.50266469268678
 20
534.4839738717742
 30
0.0
 11
299.50266469268678
 21
524.57073387177434
 31
0.0
  0
ARC
  5
343D
  8
AM_0
 10
298.62778469268687
 20
526.69594387177415
 30
0.0
 40
10.0
 50
79.999998000001099
 51
90.000003000000945
  0
LINE
  5
343E
  8
AM_0
 10
336.00266469268678
 20
528.90343387177415
 30
0.0
 11
336.00266469268678
 21
541.45043387177395
 31
0.0
  0
LINE
  5
343F
  8
AM_0
 10
335.00266469268689
 20
528.90343387177415
 30
0.0
 11
336.00266469268678
 21
528.90343387177415
 31
0.0
  0
LINE
  5
3440
  8
AM_0
 10
335.00266469268689
 20
527.9293138717743
 30
0.0
 11
337.00260469268682
 21
527.9293138717743
 31
0.0
  0
LINE
  5
3441
  8
AM_0
 10
335.00266469268689
 20
541.45043387177395
 30
0.0
 11
336.00266469268678
 21
541.45043387177395
 31
0.0
  0
LINE
  5
3442
  8
AM_0
 10
290.52885469268682
 20
549.09023387177422
 30
0.0
 11
286.50266469268678
 21
549.19567387177426
 31
0.0
  0
ARC
  5
3443
  8
AM_0
 10
311.00260469268687
 20
542.69567387177415
 30
0.0
 40
5.0
 50
33.103113000001329
 51
143.89688000000041
  0
LINE
  5
3444
  8
AM_0
 10
291.50266469268678
 20
546.04671387177405
 30
0.0
 11
332.46387469268689
 21
544.97411387177431
 31
0.0
  0
LINE
  5
3445
  8
ﾁｭｳｼﾝｾﾝ1
 10
303.7364946926869
 20
542.69567387177415
 30
0.0
 11
318.35990469268683
 21
542.69567387177415
 31
0.0
  0
LINE
  5
3446
  8
AM_0
 10
324.00266469268678
 20
555.19564387177434
 30
0.0
 11
305.87177469268693
 21
554.7208738717743
 31
0.0
  0
ARC
  5
3447
  8
AM_0
 10
290.50266469268678
 20
548.09056387177395
 30
0.0
 40
1.0
 50
0.0
 51
88.499997000000747
  0
ARC
  5
3448
  8
AM_0
 10
306.00266469268678
 20
549.7225838717743
 30
0.0
 40
5.0
 50
91.500001000001546
 51
180.00001000000091
  0
LINE
  5
3449
  8
AM_0
 10
301.00266469268678
 20
549.7225838717743
 30
0.0
 11
301.00266469268678
 21
545.79793387177415
 31
0.0
  0
ARC
  5
344A
  8
AM_0
 10
325.00266469268678
 20
547.17015387177435
 30
0.0
 40
2.0
 50
268.5000000000004
 51
0.0000006832462478
  0
ARC
  5
344B
  8
AM_0
 10
325.00266469268678
 20
553.16878387177428
 30
0.0
 40
2.0
 50
0.0
 51
88.499997000000747
  0
LINE
  5
344C
  8
AM_0
 10
325.97648469268682
 20
551.24596387177405
 30
0.0
 11
324.02885469268682
 21
551.19496387177423
 31
0.0
  0
ARC
  5
344D
  8
AM_0
 10
324.00266469268678
 20
552.19463387177416
 30
0.0
 40
1.0
 50
180.00001000000091
 51
271.4999999999992
  0
ARC
  5
344E
  8
AM_0
 10
324.00266469268678
 20
554.19530387177429
 30
0.0
 40
1.0
 50
91.500001000001546
 51
180.00001000000091
  0
LINE
  5
344F
  8
AM_0
 10
323.00266469268678
 20
554.19530387177429
 30
0.0
 11
323.00266469268678
 21
552.19463387177416
 31
0.0
  0
ARC
  5
3450
  8
AM_0
 10
326.00266469268678
 20
550.24632387177417
 30
0.0
 40
1.0
 50
0.0
 51
91.500001000001546
  0
LINE
  5
3451
  8
AM_0
 10
327.00266469268678
 20
553.16878387177428
 30
0.0
 11
327.00266469268678
 21
547.17015387177435
 31
0.0
  0
ARC
  5
3452
  8
AM_0
 10
332.2020646926868
 20
534.9775338717742
 30
0.0
 40
10.0
 50
60.000002000001302
 51
88.499997000000747
  0
CIRCLE
  5
3453
  8
AM_0
 10
374.00260469268682
 20
542.69567387177415
 30
0.0
 40
5.0
  0
ARC
  5
3454
  8
AM_0
 10
364.00266469268678
 20
542.06645387177423
 30
0.0
 40
5.0
 50
180.00001000000091
 51
268.5000000000004
  0
LINE
  5
3455
  8
AM_0
 10
384.00266469268678
 20
548.75371387177415
 30
0.0
 11
384.00266469268678
 21
531.63759387177424
 31
0.0
  0
LINE
  5
3456
  8
ﾁｭｳｼﾝｾﾝ1
 10
374.00260469268682
 20
549.83397387177422
 30
0.0
 11
374.00260469268682
 21
535.56725387177426
 31
0.0
  0
LINE
  5
3457
  8
AM_0
 10
386.00260469268682
 20
494.69567387177432
 30
0.0
 11
414.0026346926868
 21
494.69567387177432
 31
0.0
  0
LINE
  5
3458
  8
AM_0
 10
386.00260469268682
 20
475.69567387177398
 30
0.0
 11
414.0026346926868
 21
475.69567387177398
 31
0.0
  0
ARC
  5
3459
  8
AM_0
 10
383.00266469268678
 20
506.2221938717741
 30
0.0
 40
1.0
 50
179.9999899999988
 51
268.50000999999872
  0
LINE
  5
345A
  8
AM_0
 10
386.00260469268682
 20
475.19567387177409
 30
0.0
 11
386.00260469268682
 21
495.19567387177432
 31
0.0
  0
LINE
  5
345B
  8
AM_0
 10
384.00266469268678
 20
475.19567387177409
 30
0.0
 11
386.00260469268682
 21
475.19567387177409
 31
0.0
  0
LINE
  5
345C
  8
AM_0
 10
384.00266469268678
 20
495.19567387177432
 30
0.0
 11
386.00260469268682
 21
495.19567387177432
 31
0.0
  0
ARC
  5
345D
  8
AM_0
 10
383.00266469268678
 20
504.22151387177422
 30
0.0
 40
1.0
 50
0.0
 51
88.499997000000747
  0
LINE
  5
345E
  8
AM_0
 10
382.97648469268682
 20
505.22252387177429
 30
0.0
 11
383.0288246926869
 21
505.22115387177428
 31
0.0
  0
LINE
  5
345F
  8
AM_0
 10
369.00263469268691
 20
525.80156387177431
 30
0.0
 11
348.50077469268678
 21
526.51750387177435
 31
0.0
  0
LINE
  5
3460
  8
AM_0
 10
360.9916246926868
 20
538.07472387177415
 30
0.0
 11
348.70390469268682
 21
538.39650387177403
 31
0.0
  0
ARC
  5
3461
  8
AM_0
 10
339.00266469268689
 20
533.29015387177424
 30
0.0
 40
1.0
 50
269.999989999999
 51
0.0000006832462478
  0
LINE
  5
3462
  8
AM_0
 10
340.00260469268682
 20
539.95043387177429
 30
0.0
 11
340.00260469268682
 21
530.40340387177434
 31
0.0
  0
ARC
  5
3463
  8
AM_0
 10
339.00266469268689
 20
531.29018387177405
 30
0.0
 40
1.0
 50
0.0
 51
90.000003000000945
  0
ARC
  5
3464
  8
AM_0
 10
339.00266469268689
 20
530.40340387177434
 30
0.0
 40
1.0
 50
269.999989999999
 51
0.0000006832462478
  0
ARC
  5
3465
  8
AM_0
 10
348.96568469268692
 20
548.39308387177425
 30
0.0
 40
10.0
 50
239.99999999999949
 51
268.5000000000004
  0
ARC
  5
3466
  8
AM_0
 10
339.00266469268689
 20
537.06368387177395
 30
0.0
 40
1.0
 50
0.0
 51
90.000003000000945
  0
ARC
  5
3467
  8
AM_0
 10
339.00266469268689
 20
539.95043387177429
 30
0.0
 40
1.0
 50
0.0
 51
90.000003000000945
  0
ARC
  5
3468
  8
AM_0
 10
339.00266469268689
 20
539.06365387177425
 30
0.0
 40
1.0
 50
269.999989999999
 51
0.0000006832462478
  0
LINE
  5
3469
  8
AM_0
 10
373.87177469268693
 20
527.56816387177423
 30
0.0
 11
379.08118469268692
 21
527.43175387177439
 31
0.0
  0
ARC
  5
346A
  8
AM_0
 10
374.00266469268678
 20
532.56645387177423
 30
0.0
 40
5.0
 50
180.00001000000091
 51
268.5000000000004
  0
ARC
  5
346B
  8
AM_0
 10
366.00266469268678
 20
534.01134387177422
 30
0.0
 40
3.0
 50
0.0
 51
88.499997000000747
  0
LINE
  5
346C
  8
AM_0
 10
363.87177469268693
 20
537.06816387177423
 30
0.0
 11
366.08118469268692
 21
537.01030387177434
 31
0.0
  0
ARC
  5
346D
  8
AM_0
 10
379.00266469268689
 20
531.63759387177424
 30
0.0
 40
5.0
 50
289.51466999999951
 51
0.0
  0
ARC
  5
346E
  8
AM_0
 10
379.00266469268689
 20
524.43279387177415
 30
0.0
 40
3.0
 50
0.0
 51
88.499997000000747
  0
LINE
  5
346F
  8
AM_0
 10
392.00260469268682
 20
488.19567387177398
 30
0.0
 11
414.0026346926868
 21
488.19567387177398
 31
0.0
  0
LINE
  5
3470
  8
AM_0
 10
392.00260469268682
 20
482.19567387177432
 30
0.0
 11
414.0026346926868
 21
482.19567387177432
 31
0.0
  0
ARC
  5
3471
  8
AM_0
 10
392.00260469268682
 20
485.1956738717742
 30
0.0
 40
3.0
 50
89.986013999999244
 51
270.01398999999992
  0
LINE
  5
3472
  8
AM_0
 10
392.00260469268682
 20
482.19567387177432
 30
0.0
 11
392.00260469268682
 21
488.19567387177398
 31
0.0
  0
LINE
  5
3473
  8
AM_0
 10
414.0026346926868
 20
475.69567387177398
 30
0.0
 11
414.0026346926868
 21
494.69567387177432
 31
0.0
  0
LINE
  5
3474
  8
AM_0
 10
359.00266469268678
 20
551.19957387177396
 30
0.0
 11
359.00266469268678
 21
542.06645387177423
 31
0.0
  0
ARC
  5
3475
  8
AM_0
 10
362.00266469268678
 20
551.19957387177396
 30
0.0
 40
3.0
 50
88.499997000000747
 51
180.00001000000091
  0
LINE
  5
3476
  8
ﾁｭｳｼﾝｾﾝ1
 10
367.1783846926869
 20
542.69567387177415
 30
0.0
 11
381.3950646926869
 21
542.69567387177415
 31
0.0
  0
ARC
  5
3477
  8
AM_0
 10
379.00266469268689
 20
548.75371387177415
 30
0.0
 40
5.0
 50
0.0
 51
88.499997000000747
  0
LINE
  5
3479
  8
ﾁｭｳｼﾝｾﾝ
 10
303.78552557919511
 20
286.34218782258432
 30
0.0
 11
415.7361546926868
 21
286.34218782258432
 31
0.0
  0
LINE
  5
347A
  8
AM_0
 10
337.00262469268682
 20
297.97304682258419
 30
0.0
 11
360.65444469268692
 21
297.97304682258419
 31
0.0
  0
LINE
  5
347B
  8
AM_0
 10
324.00260469268682
 20
329.3422018225844
 30
0.0
 11
367.13345469268683
 21
328.21276182258418
 31
0.0
  0
LINE
  5
347C
  8
AM_0
 10
322.00262469268688
 20
202.3421848225843
 30
0.0
 11
363.0026346926868
 21
202.3421848225843
 31
0.0
  0
ARC
  5
347D
  8
AM_0
 10
353.73791469268679
 20
292.97304582258431
 30
0.0
 40
5.0000001000000003
 50
90.000003000000945
 51
171.8542400000002
  0
LINE
  5
347E
  8
AM_0
 10
340.00262469268682
 20
312.86359182258428
 30
0.0
 11
367.00262469268682
 21
312.86359182258428
 31
0.0
  0
LINE
  5
347F
  8
AM_0
 10
348.78833469268682
 20
293.6815108225843
 30
0.0
 11
337.00262469268682
 21
211.34218482258399
 31
0.0
  0
LINE
  5
3480
  8
AM_0
 10
337.00262469268682
 20
297.97304682258419
 30
0.0
 11
337.00262469268682
 21
211.34218482258399
 31
0.0
  0
LINE
  5
3481
  8
AM_0
 10
324.00263469268668
 20
329.3422018225844
 30
0.0
 11
324.00263469268668
 21
219.3422008225842
 31
0.0
  0
LINE
  5
3482
  8
AM_0
 10
291.50267469268681
 20
231.3458788225843
 30
0.0
 11
291.50267469268681
 21
307.33849482258432
 31
0.0
  0
LINE
  5
3483
  8
0
  6
CONTINUOUS
 62
     7
 10
275.5026346926868
 20
331.34218682258438
 30
0.0
 11
275.5026346926868
 21
207.34218682258421
 31
0.0
  0
LINE
  5
3484
  8
0
 10
252.50264077236039
 20
347.34218682258432
 30
0.0
 11
252.50264077236039
 21
191.3421868225841
 31
0.0
  0
LINE
  5
3485
  8
0
 10
242.50264077236039
 20
349.34218682258432
 30
0.0
 11
242.50264077236039
 21
189.3421868225843
 31
0.0
  0
LINE
  5
3486
  8
AM_0
 10
286.50263469268668
 20
333.34218682258438
 30
0.0
 11
286.50263469268668
 21
205.34218682258421
 31
0.0
  0
LINE
  5
3487
  8
0
 10
242.50264077236039
 20
189.3421868225843
 30
0.0
 11
250.50264077236039
 21
189.3421868225843
 31
0.0
  0
ARC
  5
3488
  8
0
 10
250.50264077236039
 20
191.3421868225841
 30
0.0
 40
2.0
 50
270.0
 51
0.0
1001
GENIUS_GENODEF_13
1002
{
1000
HIER
1070
     0
1002
}
1002
{
1000
MANEDIT
1070
     0
1002
}
1002
{
1000
NOSEL
1070
     0
1002
}
1002
{
1000
BEHIND
1070
     0
1002
}
1002
{
1000
OTHER
1070
     0
1002
}
1002
{
1000
REACTOR
1002
}
1001
GENIUS_GENOBJ-N-FIL_13
1002
{
1000
OWNER
1000
GEN
1002
}
  0
LINE
  5
3489
  8
ﾁｭｳｼﾝｾﾝ
 10
233.5019327357179
 20
269.34218682258432
 30
0.0
 11
317.1241757108678
 21
269.34218682258432
 31
0.0
  0
LINE
  5
348A
  8
AM_0
 10
286.50263469268668
 20
205.84221582258431
 30
0.0
 11
290.52881469268681
 21
205.947638822584
 31
0.0
  0
LINE
  5
348B
  8
AM_0
 10
286.50263469268668
 20
217.8422008225842
 30
0.0
 11
292.5026346926868
 21
217.8422008225842
 31
0.0
  0
LINE
  5
348C
  8
AM_0
 10
286.50263469268668
 20
231.3458788225843
 30
0.0
 11
292.5026346926868
 21
231.3458788225843
 31
0.0
  0
ARC
  5
348D
  8
0
 10
257.50264077236062
 20
206.34218682258441
 30
0.0
 40
5.0
 50
90.0
 51
180.0
1001
GENIUS_GENOBJ-N-FIL_13
1002
{
1000
OWNER
1000
GEN
1002
}
1001
GENIUS_GENODEF_13
1002
{
1000
HIER
1070
     0
1002
}
1002
{
1000
MANEDIT
1070
     0
1002
}
1002
{
1000
NOSEL
1070
     0
1002
}
1002
{
1000
BEHIND
1070
     0
1002
}
1002
{
1000
OTHER
1070
     0
1002
}
1002
{
1000
REACTOR
1002
}
  0
LINE
  5
348E
  8
0
 10
273.5026346926868
 20
211.3421868225841
 30
0.0
 11
257.50264077236062
 21
211.3421868225841
 31
0.0
  0
ARC
  5
348F
  8
0
 10
277.5026346926868
 20
207.34218682258421
 30
0.0
 40
2.0
 50
180.0
 51
270.0
1001
GENIUS_GENODEF_13
1002
{
1000
HIER
1070
     0
1002
}
1002
{
1000
MANEDIT
1070
     0
1002
}
1002
{
1000
NOSEL
1070
     0
1002
}
1002
{
1000
BEHIND
1070
     0
1002
}
1002
{
1000
OTHER
1070
     0
1002
}
1002
{
1000
REACTOR
1002
}
1001
GENIUS_GENOBJ-N-FIL_13
1002
{
1000
OWNER
1000
GEN
1002
}
  0
LINE
  5
3490
  8
0
 10
286.50263469268668
 20
205.34218682258421
 30
0.0
 11
277.5026346926868
 21
205.34218682258421
 31
0.0
  0
ARC
  5
3491
  8
0
 10
273.5026346926868
 20
209.3421868225841
 30
0.0
 40
2.0
 50
0.0
 51
90.0
1001
GENIUS_GENODEF_13
1002
{
1000
HIER
1070
     0
1002
}
1002
{
1000
MANEDIT
1070
     0
1002
}
1002
{
1000
NOSEL
1070
     0
1002
}
1002
{
1000
BEHIND
1070
     0
1002
}
1002
{
1000
OTHER
1070
     0
1002
}
1002
{
1000
REACTOR
1002
}
1001
GENIUS_GENOBJ-N-FIL_13
1002
{
1000
OWNER
1000
GEN
1002
}
  0
LINE
  5
3492
  8
AM_0
 10
286.50263469268668
 20
217.84217082258431
 30
0.0
 11
275.5026346926868
 21
217.84217082258431
 31
0.0
  0
LINE
  5
3493
  8
AM_0
 10
286.50263469268668
 20
232.19425182258431
 30
0.0
 11
275.5026346926868
 21
232.19425182258431
 31
0.0
  0
LINE
  5
3494
  8
AM_0
 10
326.98205469268669
 20
245.16753282258401
 30
0.0
 11
323.31431469268682
 21
213.9916588225843
 31
0.0
  0
LINE
  5
3495
  8
AM_0
 10
301.00262469268688
 20
201.34218282258399
 30
0.0
 11
321.0026346926868
 21
201.34218282258399
 31
0.0
  0
LINE
  5
3496
  8
AM_0
 10
320.33489469268687
 20
211.34218482258399
 30
0.0
 11
302.50262469268682
 21
211.34218482258399
 31
0.0
  0
LINE
  5
3497
  8
AM_0
 10
291.50267469268681
 20
206.9472868225842
 30
0.0
 11
291.50267469268681
 21
217.8422008225842
 31
0.0
  0
ARC
  5
3498
  8
AM_0
 10
292.5026346926868
 20
219.8421838225843
 30
0.0
 40
2.00000007
 50
270.0
 51
0.0
  0
LINE
  5
3499
  8
AM_0
 10
301.00262469268688
 20
201.34218282258399
 30
0.0
 11
301.00262469268688
 21
209.84218482258399
 31
0.0
  0
ARC
  5
349A
  8
AM_0
 10
290.50262469268688
 20
206.9472868225842
 30
0.0
 40
1.0000000199999981
 50
271.4999999999992
 51
0.0
  0
LINE
  5
349B
  8
AM_0
 10
292.47644469268693
 20
208.51665282258401
 30
0.0
 11
296.45024469268708
 21
208.6207168225842
 31
0.0
  0
ARC
  5
349C
  8
AM_0
 10
292.5026346926868
 20
207.51697482258399
 30
0.0
 40
1.0000000199999981
 50
91.500001000001546
 51
180.00001000000091
  0
ARC
  5
349D
  8
AM_0
 10
302.50262469268682
 20
209.84218482258399
 30
0.0
 40
1.5000000299999969
 50
90.000003000000945
 51
180.00001000000091
  0
LINE
  5
349E
  8
AM_0
 10
296.45024469268708
 20
208.6207168225842
 30
0.0
 11
301.00262469268688
 21
208.7399188225842
 31
0.0
  0
LINE
  5
349F
  8
ｶｸﾚｾﾝ2
 10
306.0026346926868
 20
201.34218282258399
 30
0.0
 11
306.0026346926868
 21
211.34218482258399
 31
0.0
  0
LINE
  5
34A0
  8
ｶｸﾚｾﾝ2
 10
316.00262469268682
 20
201.34218282258399
 30
0.0
 11
316.00262469268682
 21
211.34218482258399
 31
0.0
  0
LINE
  5
34A1
  8
ﾁｭｳｼﾝｾﾝ1
 10
311.0026146926869
 20
199.16412674348351
 30
0.0
 11
311.0026146926869
 21
213.0432724241081
 31
0.0
  0
LINE
  5
34A2
  8
AM_0
 10
294.50267469268681
 20
219.8421838225843
 30
0.0
 11
294.50267469268681
 21
229.3458928225842
 31
0.0
  0
ARC
  5
34A3
  8
AM_0
 10
292.5026346926868
 20
229.3458928225842
 30
0.0
 40
2.00000007
 50
0.0
 51
90.000003000000945
  0
ARC
  5
34A4
  8
AM_0
 10
322.00262469268688
 20
201.34218282258399
 30
0.0
 40
1.0000000199999981
 50
90.000003000000945
 51
180.00001000000091
  0
LINE
  5
34A5
  8
AM_0
 10
321.0026346926868
 20
201.34218282258399
 30
0.0
 11
321.0026346926868
 21
201.34218282258399
 31
0.0
  0
ARC
  5
34A6
  8
AM_0
 10
320.33489469268687
 20
214.34218482258399
 30
0.0
 40
3.0
 50
270.0
 51
353.29016000000053
  0
LINE
  5
34A7
  8
AM_0
 10
327.0026346926868
 20
274.09301082258429
 30
0.0
 11
327.0026346926868
 21
245.5180438225843
 31
0.0
  0
ARC
  5
34A8
  8
AM_0
 10
324.00263469268668
 20
245.5180438225843
 30
0.0
 40
3.0
 50
353.29016000000053
 51
0.0
  0
LINE
  5
34A9
  8
AM_0
 10
286.50263469268668
 20
307.33849482258432
 30
0.0
 11
292.5026346926868
 21
307.33849482258432
 31
0.0
  0
LINE
  5
34AA
  8
AM_0
 10
286.50263469268668
 20
320.84218182258428
 30
0.0
 11
292.5026346926868
 21
320.84218182258428
 31
0.0
  0
LINE
  5
34AB
  8
AM_0
 10
286.50257469268678
 20
332.84218182258428
 30
0.0
 11
290.5287546926869
 21
332.73679182258428
 31
0.0
  0
LINE
  5
34AC
  8
AM_0
 10
286.50263469268668
 20
306.49010682258432
 30
0.0
 11
275.5026346926868
 21
306.49010682258432
 31
0.0
  0
LINE
  5
34AD
  8
AM_0
 10
286.50263469268668
 20
320.8421968225843
 30
0.0
 11
275.5026346926868
 21
320.8421968225843
 31
0.0
  0
ARC
  5
34AE
  8
0
 10
257.50264077236062
 20
332.34218682258432
 30
0.0
 40
5.0
 50
180.0
 51
270.0
1001
GENIUS_GENOBJ-N-FIL_13
1002
{
1000
OWNER
1000
GEN
1002
}
1001
GENIUS_GENODEF_13
1002
{
1000
HIER
1070
     0
1002
}
1002
{
1000
MANEDIT
1070
     0
1002
}
1002
{
1000
NOSEL
1070
     0
1002
}
1002
{
1000
BEHIND
1070
     0
1002
}
1002
{
1000
OTHER
1070
     0
1002
}
1002
{
1000
REACTOR
1002
}
  0
ARC
  5
34AF
  8
0
 10
250.50264077236039
 20
347.34218682258432
 30
0.0
 40
2.0
 50
0.0
 51
90.0
1001
GENIUS_GENODEF_13
1002
{
1000
HIER
1070
     0
1002
}
1002
{
1000
MANEDIT
1070
     0
1002
}
1002
{
1000
NOSEL
1070
     0
1002
}
1002
{
1000
BEHIND
1070
     0
1002
}
1002
{
1000
OTHER
1070
     0
1002
}
1002
{
1000
REACTOR
1002
}
1001
GENIUS_GENOBJ-N-FIL_13
1002
{
1000
OWNER
1000
GEN
1002
}
  0
LINE
  5
34B0
  8
0
 10
242.50264077236039
 20
349.34218682258432
 30
0.0
 11
250.50264077236039
 21
349.34218682258432
 31
0.0
  0
LINE
  5
34B1
  8
0
 10
273.5026346926868
 20
327.34218682258438
 30
0.0
 11
257.50264077236062
 21
327.34218682258438
 31
0.0
  0
LINE
  5
34B2
  8
0
 10
286.50263469268668
 20
333.34218682258438
 30
0.0
 11
277.5026346926868
 21
333.34218682258438
 31
0.0
  0
ARC
  5
34B3
  8
0
 10
277.5026346926868
 20
331.34218682258438
 30
0.0
 40
2.0
 50
90.0
 51
180.0
1001
GENIUS_GENODEF_13
1002
{
1000
HIER
1070
     0
1002
}
1002
{
1000
MANEDIT
1070
     0
1002
}
1002
{
1000
NOSEL
1070
     0
1002
}
1002
{
1000
BEHIND
1070
     0
1002
}
1002
{
1000
OTHER
1070
     0
1002
}
1002
{
1000
REACTOR
1002
}
1001
GENIUS_GENOBJ-N-FIL_13
1002
{
1000
OWNER
1000
GEN
1002
}
  0
ARC
  5
34B4
  8
0
 10
273.5026346926868
 20
329.34218682258438
 30
0.0
 40
2.0
 50
270.0
 51
0.0
1001
GENIUS_GENODEF_13
1002
{
1000
HIER
1070
     0
1002
}
1002
{
1000
MANEDIT
1070
     0
1002
}
1002
{
1000
NOSEL
1070
     0
1002
}
1002
{
1000
BEHIND
1070
     0
1002
}
1002
{
1000
OTHER
1070
     0
1002
}
1002
{
1000
REACTOR
1002
}
1001
GENIUS_GENOBJ-N-FIL_13
1002
{
1000
OWNER
1000
GEN
1002
}
  0
LINE
  5
34B5
  8
AM_0
 10
348.71225469268683
 20
313.76212182258428
 30
0.0
 11
337.00262469268682
 21
329.00179182258421
 31
0.0
  0
LINE
  5
34B6
  8
AM_0
 10
337.00262469268682
 20
328.89703182258432
 30
0.0
 11
337.00262469268682
 21
313.46764182258431
 31
0.0
  0
LINE
  5
34B7
  8
AM_0
 10
291.50267469268681
 20
320.84218182258428
 30
0.0
 11
291.50267469268681
 21
331.73707182258408
 31
0.0
  0
LINE
  5
34B8
  8
AM_0
 10
295.95500469268683
 20
311.94904182258432
 30
0.0
 11
335.00264469268689
 21
311.94904182258432
 31
0.0
  0
LINE
  5
34B9
  8
AM_0
 10
294.50267469268681
 20
309.33849582258432
 30
0.0
 11
294.50267469268681
 21
318.84220182258429
 31
0.0
  0
ARC
  5
34BA
  8
AM_0
 10
292.5026346926868
 20
309.33849582258432
 30
0.0
 40
2.00000007
 50
270.0
 51
0.0
  0
ARC
  5
34BB
  8
AM_0
 10
292.5026346926868
 20
318.84220182258429
 30
0.0
 40
2.00000007
 50
0.0
 51
90.000003000000945
  0
LINE
  5
34BC
  8
AM_0
 10
336.0026346926868
 20
313.967651822584
 30
0.0
 11
336.0026346926868
 21
301.42064682258427
 31
0.0
  0
LINE
  5
34BD
  8
AM_0
 10
335.00264469268689
 20
317.5641418225843
 30
0.0
 11
335.00264469268689
 21
298.180412822584
 31
0.0
  0
LINE
  5
34BE
  8
AM_0
 10
340.00262469268682
 20
302.92064682258427
 30
0.0
 11
340.00262469268682
 21
312.46768182258432
 31
0.0
  0
ARC
  5
34BF
  8
AM_0
 10
339.00263469268668
 20
303.80739582258428
 30
0.0
 40
1.0000000199999981
 50
0.0
 51
90.000003000000945
  0
LINE
  5
34C0
  8
AM_0
 10
336.0026346926868
 20
301.92061782258429
 30
0.0
 11
339.00263469268668
 21
301.92061782258429
 31
0.0
  0
ARC
  5
34C1
  8
AM_0
 10
336.0026346926868
 20
296.18041182258401
 30
0.0
 40
1.0000000199999981
 50
0.0
 51
90.000003000000945
  0
LINE
  5
34C2
  8
AM_0
 10
335.00264469268689
 20
301.42064682258427
 30
0.0
 11
336.0026346926868
 21
301.42064682258427
 31
0.0
  0
ARC
  5
34C3
  8
AM_0
 10
336.0026346926868
 20
298.180412822584
 30
0.0
 40
1.0000000199999981
 50
179.9999899999988
 51
270.0
  0
ARC
  5
34C4
  8
AM_0
 10
339.00263469268668
 20
302.92064682258427
 30
0.0
 40
1.0000000199999981
 50
270.0
 51
0.0
  0
LINE
  5
34C5
  8
AM_0
 10
336.0026346926868
 20
313.46764182258431
 30
0.0
 11
339.00263469268668
 21
313.46764182258431
 31
0.0
  0
LINE
  5
34C6
  8
AM_0
 10
336.0026346926868
 20
304.8073678225843
 30
0.0
 11
339.00263469268668
 21
304.8073678225843
 31
0.0
  0
LINE
  5
34C7
  8
AM_0
 10
336.0026346926868
 20
310.58089482258413
 30
0.0
 11
339.00263469268668
 21
310.58089482258413
 31
0.0
  0
ARC
  5
34C8
  8
AM_0
 10
336.0026346926868
 20
319.56418182258432
 30
0.0
 40
1.0000000199999981
 50
270.0
 51
0.0
  0
LINE
  5
34C9
  8
AM_0
 10
335.00264469268689
 20
313.967651822584
 30
0.0
 11
336.0026346926868
 21
313.967651822584
 31
0.0
  0
ARC
  5
34CA
  8
AM_0
 10
336.0026346926868
 20
317.5641418225843
 30
0.0
 40
1.0000000199999981
 50
90.000003000000945
 51
180.00001000000091
  0
ARC
  5
34CB
  8
AM_0
 10
339.00263469268668
 20
311.58088182258427
 30
0.0
 40
1.0000000199999981
 50
270.0
 51
0.0
  0
ARC
  5
34CC
  8
AM_0
 10
339.00263469268668
 20
305.80739682258428
 30
0.0
 40
1.0000000199999981
 50
270.0
 51
0.0
  0
ARC
  5
34CD
  8
AM_0
 10
339.00263469268668
 20
309.5808958225843
 30
0.0
 40
1.0000000199999981
 50
0.0
 51
90.000003000000945
  0
ARC
  5
34CE
  8
AM_0
 10
339.00263469268668
 20
312.46768182258432
 30
0.0
 40
1.0000000199999981
 50
0.0
 51
90.000003000000945
  0
LINE
  5
34CF
  8
AM_0
 10
292.47644469268693
 20
330.16774182258428
 30
0.0
 11
324.00260469268682
 21
329.34223182258432
 31
0.0
  0
ARC
  5
34D0
  8
AM_0
 10
292.5026346926868
 20
331.16740182258428
 30
0.0
 40
1.0000000199999981
 50
179.9999899999988
 51
268.50000999999872
  0
ARC
  5
34D1
  8
AM_0
 10
290.50262469268688
 20
331.73707182258408
 30
0.0
 40
1.0000000199999981
 50
0.0
 51
88.499997000000747
  0
ARC
  5
34D2
  8
AM_0
 10
570.52066458498655
 20
286.34218782258432
 30
0.0
 40
20.000000700000001
 50
90.000003000000945
 51
270.0
  0
ARC
  5
34D3
  8
AM_0
 10
570.52066458498655
 20
269.34218682258432
 30
0.0
 40
60.000002999999992
 50
153.3308500000023
 51
170.94545999999971
  0
ARC
  5
34D4
  8
AM_0
 10
570.52066458498655
 20
273.84218682258432
 30
0.0
 40
42.500000999999997
 50
0.0
 51
180.00001000000091
  0
ARC
  5
34D5
  8
AM_0
 10
570.52066458498655
 20
286.34218782258432
 30
0.0
 40
20.000000700000001
 50
270.0
 51
90.000003000000945
  0
ARC
  5
34D6
  8
AM_0
 10
570.52066458498655
 20
269.34218682258432
 30
0.0
 40
60.000002999999992
 50
9.0545419000017677
 51
26.669156999999409
  0
ARC
  5
34D7
  8
AM_0
 10
570.52066458498655
 20
286.34218782258432
 30
0.0
 40
9.5000003999999993
 50
108.4084799999998
 51
71.591512000000776
  0
LINE
  5
34D8
  8
AM_0
 10
640.52066658498666
 20
211.3421848225843
 30
0.0
 11
630.39592758498668
 21
301.57241082258429
 31
0.0
  0
LINE
  5
34D9
  8
AM_0
 10
500.5206775849868
 20
211.3421848225843
 30
0.0
 11
510.64540458498681
 21
301.57241082258429
 31
0.0
  0
LINE
  5
34DA
  8
AM_0
 10
518.52068058498651
 20
293.57759982258432
 30
0.0
 11
518.52068058498651
 21
251.34218682258421
 31
0.0
  0
LINE
  5
34DB
  8
AM_0
 10
622.52068158498673
 20
293.57759982258432
 30
0.0
 11
622.52068158498673
 21
251.34218682258421
 31
0.0
  0
ARC
  5
34DC
  8
AM_0
 10
570.52066458498655
 20
269.34218682258432
 30
0.0
 40
80.0
 50
328.46638259825193
 51
211.53363227911359
  0
LINE
  5
34DD
  8
ﾁｭｳｼﾝｾﾝ
 10
570.52066458498655
 20
186.3421868225841
 30
0.0
 11
570.52066458498655
 21
352.34218682258438
 31
0.0
  0
LINE
  5
34DE
  8
AM_0
 10
359.00264469268677
 20
216.3421678225842
 30
0.0
 11
359.00264469268677
 21
294.25960482258432
 31
0.0
  0
LINE
  5
34DF
  8
AM_0
 10
386.00258469268692
 20
276.34218582258421
 30
0.0
 11
386.00258469268692
 21
286.34218782258432
 31
0.0
  0
LINE
  5
34E0
  8
AM_0
 10
414.0026346926868
 20
276.84218682258432
 30
0.0
 11
414.0026346926868
 21
298.34218682258432
 31
0.0
  0
LINE
  5
34E1
  8
AM_0
 10
382.00262469268682
 20
314.342201822584
 30
0.0
 11
382.00262469268682
 21
214.5325828225842
 31
0.0
  0
LINE
  5
34E2
  8
AM_0
 10
372.0026346926868
 20
323.21449182258431
 30
0.0
 11
372.0026346926868
 21
238.10960982258399
 31
0.0
  0
LINE
  5
34E3
  8
AM_0
 10
384.00263469268691
 20
305.36803482258432
 30
0.0
 11
384.00263469268691
 21
267.31633782258427
 31
0.0
  0
ARC
  5
34E4
  8
AM_0
 10
590.52066558498655
 20
251.34218682258421
 30
0.0
 40
32.000000999999997
 50
314.67825999999877
 51
0.0
  0
LINE
  5
34E5
  8
AM_0
 10
640.52068158498673
 20
201.34218282258431
 30
0.0
 11
610.52068158498673
 21
201.34218282258431
 31
0.0
  0
LINE
  5
34E6
  8
AM_0
 10
628.02066858498665
 20
211.3421848225843
 30
0.0
 11
612.52066758498665
 21
211.3421848225843
 31
0.0
  0
LINE
  5
34E7
  8
ﾁｭｳｼﾝｾﾝ
 10
653.52066458498655
 20
269.34218682258432
 30
0.0
 11
487.52066458498672
 21
269.34218682258432
 31
0.0
  0
LINE
  5
34E8
  8
AM_0
 10
382.50263469268691
 20
211.34218482258399
 30
0.0
 11
364.00262469268682
 21
211.34218482258399
 31
0.0
  0
LINE
  5
34E9
  8
AM_0
 10
364.00262469268682
 20
201.34218282258399
 30
0.0
 11
384.00263469268691
 21
201.34218282258399
 31
0.0
  0
LINE
  5
34EA
  8
ｶｸﾚｾﾝ2
 10
369.00263469268691
 20
201.34218282258399
 30
0.0
 11
369.00263469268691
 21
211.34218482258399
 31
0.0
  0
LINE
  5
34EB
  8
AM_0
 10
364.00262469268682
 20
201.34218282258399
 30
0.0
 11
364.00262469268682
 21
201.34218282258399
 31
0.0
  0
ARC
  5
34EC
  8
AM_0
 10
363.0026346926868
 20
201.34218282258399
 30
0.0
 40
1.0000000199999981
 50
0.0
 51
90.000003000000945
  0
ARC
  5
34ED
  8
AM_0
 10
364.00262469268682
 20
216.3421678225842
 30
0.0
 40
5.0000001000000003
 50
180.00001000000091
 51
270.0
  0
LINE
  5
34EE
  8
ｶｸﾚｾﾝ2
 10
379.00262469268682
 20
201.34218282258399
 30
0.0
 11
379.00262469268682
 21
211.34218482258399
 31
0.0
  0
LINE
  5
34EF
  8
ﾁｭｳｼﾝｾﾝ1
 10
374.00258469268692
 20
199.16412674348351
 30
0.0
 11
374.00258469268692
 21
213.0432724241081
 31
0.0
  0
LINE
  5
34F0
  8
AM_0
 10
384.00263469268691
 20
201.34218282258399
 30
0.0
 11
384.00263469268691
 21
209.84218482258399
 31
0.0
  0
ARC
  5
34F1
  8
AM_0
 10
382.50263469268691
 20
209.84218482258399
 30
0.0
 40
1.5000000299999969
 50
0.0
 51
90.000003000000945
  0
ARC
  5
34F2
  8
AM_0
 10
387.00263469268691
 20
214.5325828225842
 30
0.0
 40
5.0000001000000003
 50
179.9999899999988
 51
226.18692999999939
  0
ARC
  5
34F3
  8
AM_0
 10
367.00262469268682
 20
238.10960982258399
 30
0.0
 40
5.0000001000000003
 50
270.0
 51
0.0
  0
LINE
  5
34F4
  8
AM_0
 10
367.00262469268682
 20
233.1095938225842
 30
0.0
 11
359.00264469268677
 21
233.1095938225842
 31
0.0
  0
LINE
  5
34F5
  8
AM_0
 10
386.00258469268692
 20
276.84218682258432
 30
0.0
 11
414.0026346926868
 21
276.84218682258432
 31
0.0
  0
ARC
  5
34F6
  8
AM_0
 10
383.00264469268677
 20
267.31633782258427
 30
0.0
 40
1.0000000199999981
 50
271.4999999999992
 51
0.0
  0
LINE
  5
34F7
  8
AM_0
 10
382.97645469268713
 20
266.31531582258413
 30
0.0
 11
383.02877469268691
 21
266.31668982258418
 31
0.0
  0
ARC
  5
34F8
  8
AM_0
 10
383.00264469268677
 20
265.31564982258431
 30
0.0
 40
1.0000000199999981
 50
91.500001000001546
 51
180.00001000000091
  0
LINE
  5
34F9
  8
AM_0
 10
384.00263469268691
 20
276.34218582258421
 30
0.0
 11
386.00258469268692
 21
276.34218582258421
 31
0.0
  0
ARC
  5
34FA
  8
AM_0
 10
570.52066458498655
 20
269.34218682258432
 30
0.0
 40
80.0
 50
238.2116748212226
 51
301.7883251787772
  0
LINE
  5
34FB
  8
AM_0
 10
600.52066758498665
 20
220.8421678225842
 30
0.0
 11
540.52066458498655
 21
220.8421678225842
 31
0.0
  0
LINE
  5
34FC
  8
AM_0
 10
531.52067958498674
 20
202.3421848225843
 30
0.0
 11
570.52066458498655
 21
202.3421848225843
 31
0.0
  0
ARC
  5
34FD
  8
AM_0
 10
550.52067858498685
 20
251.34218682258421
 30
0.0
 40
32.000000999999997
 50
179.9999899999988
 51
225.32174000000111
  0
LINE
  5
34FE
  8
AM_0
 10
528.02067858498685
 20
273.84218682258432
 30
0.0
 11
528.02067858498685
 21
214.34218482258399
 31
0.0
  0
LINE
  5
34FF
  8
AM_0
 10
500.5206775849868
 20
211.34216982258431
 30
0.0
 11
511.26836058498651
 21
278.78468982258431
 31
0.0
  0
LINE
  5
3500
  8
AM_0
 10
500.5206775849868
 20
201.34218282258431
 30
0.0
 11
530.52068058498662
 21
201.34218282258431
 31
0.0
  0
LINE
  5
3501
  8
AM_0
 10
513.02067858498685
 20
211.3421848225843
 30
0.0
 11
528.52067958498674
 21
211.3421848225843
 31
0.0
  0
LINE
  5
3502
  8
AM_0
 10
502.02067758498657
 20
211.3421848225843
 30
0.0
 11
513.02067858498685
 21
211.3421848225843
 31
0.0
  0
LINE
  5
3503
  8
AM_0
 10
500.5206775849868
 20
211.3421848225843
 30
0.0
 11
500.5206775849868
 21
201.34218282258431
 31
0.0
  0
ARC
  5
3504
  8
AM_0
 10
502.02067758498657
 20
209.84218482258399
 30
0.0
 40
1.5000000299999969
 50
90.000003000000945
 51
180.00001000000091
  0
LINE
  5
3505
  8
ﾁｭｳｼﾝｾﾝ1
 10
513.0206485849867
 20
213.0432724241081
 30
0.0
 11
513.0206485849867
 21
199.16412674348351
 31
0.0
  0
LINE
  5
3506
  8
ｶｸﾚｾﾝ2
 10
508.0206775849868
 20
211.3421848225843
 30
0.0
 11
508.0206775849868
 21
201.34218282258431
 31
0.0
  0
LINE
  5
3507
  8
ｶｸﾚｾﾝ2
 10
518.02067958498674
 20
211.3421848225843
 30
0.0
 11
518.02067958498674
 21
201.34218282258431
 31
0.0
  0
ARC
  5
3508
  8
AM_0
 10
540.52066458498655
 20
215.8421848225843
 30
0.0
 40
5.0000001000000003
 50
90.000003000000945
 51
180.00001000000091
  0
LINE
  5
3509
  8
AM_0
 10
535.52067858498685
 20
215.8421848225843
 30
0.0
 11
535.52067858498685
 21
206.8421848225843
 31
0.0
  0
LINE
  5
350A
  8
AM_0
 10
530.52068058498662
 20
209.3421838225843
 30
0.0
 11
530.52068058498662
 21
201.34218282258431
 31
0.0
  0
ARC
  5
350B
  8
AM_0
 10
531.52067958498674
 20
202.84218282258431
 30
0.0
 40
1.0000000199999981
 50
90.000003000000945
 51
180.00001000000091
  0
ARC
  5
350C
  8
AM_0
 10
531.52067958498674
 20
201.34218282258431
 30
0.0
 40
1.0000000199999981
 50
90.000003000000945
 51
180.00001000000091
  0
ARC
  5
350D
  8
AM_0
 10
532.52067858498685
 20
206.8421848225843
 30
0.0
 40
3.0
 50
270.0
 51
0.0
  0
LINE
  5
350E
  8
AM_0
 10
531.52067958498674
 20
203.84218482258399
 30
0.0
 11
532.52067858498685
 21
203.84218482258399
 31
0.0
  0
ARC
  5
350F
  8
AM_0
 10
525.02067858498685
 20
214.34218482258399
 30
0.0
 40
3.0
 50
270.0
 51
0.0
  0
ARC
  5
3510
  8
AM_0
 10
528.52067958498674
 20
209.3421838225843
 30
0.0
 40
2.00000007
 50
0.0
 51
90.000003000000945
  0
CIRCLE
  5
3511
  8
AM_0
 10
546.41161158498676
 20
211.13779182258409
 30
0.0
 40
4.9999998000000003
  0
LINE
  5
3512
  8
AM_0
 10
541.41161058498665
 20
208.25102682258409
 30
0.0
 11
546.41161158498676
 21
205.36427982258431
 31
0.0
  0
LINE
  5
3513
  8
AM_0
 10
546.41161158498676
 20
205.36427982258431
 30
0.0
 11
551.41160958498676
 21
208.25102682258409
 31
0.0
  0
LINE
  5
3514
  8
AM_0
 10
546.41162658498683
 20
216.91127682258431
 30
0.0
 11
541.41162558498672
 21
214.02452682258431
 31
0.0
  0
LINE
  5
3515
  8
AM_0
 10
541.41161058498665
 20
214.0245418225843
 30
0.0
 11
541.41161058498665
 21
208.2510118225841
 31
0.0
  0
LINE
  5
3516
  8
AM_0
 10
551.41160958498676
 20
214.02452682258431
 30
0.0
 11
546.41161158498676
 21
216.91127682258431
 31
0.0
  0
LINE
  5
3517
  8
AM_0
 10
551.41159458498669
 20
208.2510118225841
 30
0.0
 11
551.41159458498669
 21
214.0245418225843
 31
0.0
  0
ARC
  5
3518
  8
AM_0
 10
570.52066458498655
 20
269.34218682258432
 30
0.0
 40
60.000002999999992
 50
171.12478999999911
 51
172.44925999999899
  0
LINE
  5
3519
  8
AM_0
 10
613.02066558498677
 20
273.84218682258432
 30
0.0
 11
613.02066558498677
 21
214.34218482258399
 31
0.0
  0
LINE
  5
351A
  8
AM_0
 10
609.52066758498665
 20
202.3421848225843
 30
0.0
 11
570.52066458498655
 21
202.3421848225843
 31
0.0
  0
ARC
  5
351B
  8
AM_0
 10
561.53456658498681
 20
217.84216782258409
 30
0.0
 40
3.0
 50
356.81526000000002
 51
90.000003000000945
  0
ARC
  5
351C
  8
AM_0
 10
579.5067805849867
 20
217.84216782258409
 30
0.0
 40
3.0
 50
90.000003000000945
 51
183.18473999999989
  0
ARC
  5
351D
  8
AM_0
 10
570.52066458498655
 20
217.3421848225843
 30
0.0
 40
6.0000002999999991
 50
176.81527000000071
 51
3.18473600000162
  0
ARC
  5
351E
  8
AM_0
 10
600.52066758498665
 20
215.8421848225843
 30
0.0
 40
5.0000001000000003
 50
0.0
 51
90.000003000000945
  0
CIRCLE
  5
351F
  8
AM_0
 10
594.62973558498675
 20
211.13779182258409
 30
0.0
 40
4.9999998000000003
  0
LINE
  5
3520
  8
AM_0
 10
594.62973558498675
 20
205.36427982258431
 30
0.0
 11
599.62973658498674
 21
208.25102682258409
 31
0.0
  0
LINE
  5
3521
  8
AM_0
 10
589.62971958498645
 20
208.25102682258409
 30
0.0
 11
594.62972058498633
 21
205.36427982258431
 31
0.0
  0
LINE
  5
3522
  8
AM_0
 10
599.62972158498667
 20
214.02452682258431
 30
0.0
 11
594.62972058498633
 21
216.91127682258431
 31
0.0
  0
LINE
  5
3523
  8
AM_0
 10
594.62973558498675
 20
216.9112918225843
 30
0.0
 11
589.62973458498675
 21
214.0245418225843
 31
0.0
  0
LINE
  5
3524
  8
AM_0
 10
589.62971958498645
 20
214.0245418225843
 30
0.0
 11
589.62971958498645
 21
208.2510118225841
 31
0.0
  0
LINE
  5
3525
  8
AM_0
 10
599.62972158498667
 20
208.2510118225841
 30
0.0
 11
599.62972158498667
 21
214.0245418225843
 31
0.0
  0
LINE
  5
3526
  8
AM_0
 10
610.52068158498673
 20
201.34218282258431
 30
0.0
 11
610.52068158498673
 21
209.3421838225843
 31
0.0
  0
LINE
  5
3527
  8
AM_0
 10
605.52066558498655
 20
215.8421848225843
 30
0.0
 11
605.52066558498655
 21
206.8421848225843
 31
0.0
  0
ARC
  5
3528
  8
AM_0
 10
609.52066758498665
 20
202.84218282258431
 30
0.0
 40
1.0000000199999981
 50
0.0
 51
90.000003000000945
  0
ARC
  5
3529
  8
AM_0
 10
609.52066758498665
 20
201.34218282258431
 30
0.0
 40
1.0000000199999981
 50
0.0
 51
90.000003000000945
  0
ARC
  5
352A
  8
AM_0
 10
608.52066558498677
 20
206.8421848225843
 30
0.0
 40
3.0
 50
179.9999899999988
 51
270.0
  0
LINE
  5
352B
  8
AM_0
 10
609.52066758498665
 20
203.84218482258399
 30
0.0
 11
608.52066558498677
 21
203.84218482258399
 31
0.0
  0
ARC
  5
352C
  8
AM_0
 10
612.52066758498665
 20
209.3421838225843
 30
0.0
 40
2.00000007
 50
90.000003000000945
 51
180.00001000000091
  0
ARC
  5
352D
  8
AM_0
 10
616.02066558498677
 20
214.34218482258399
 30
0.0
 40
3.0
 50
179.9999899999988
 51
270.0
  0
LINE
  5
352E
  8
AM_0
 10
640.52066658498666
 20
211.34216982258431
 30
0.0
 11
629.77301658498652
 21
278.78465982258427
 31
0.0
  0
LINE
  5
352F
  8
AM_0
 10
639.02068158498673
 20
211.3421848225843
 30
0.0
 11
628.02066858498665
 21
211.3421848225843
 31
0.0
  0
LINE
  5
3530
  8
ﾁｭｳｼﾝｾﾝ1
 10
628.02066858498665
 20
213.0432724241081
 30
0.0
 11
628.02066858498665
 21
199.16412674348339
 31
0.0
  0
LINE
  5
3531
  8
ｶｸﾚｾﾝ2
 10
623.02066758498665
 20
211.3421848225843
 30
0.0
 11
623.02066758498665
 21
201.34218282258431
 31
0.0
  0
LINE
  5
3532
  8
ｶｸﾚｾﾝ2
 10
633.02068158498673
 20
211.3421848225843
 30
0.0
 11
633.02068158498673
 21
201.34218282258431
 31
0.0
  0
LINE
  5
3533
  8
AM_0
 10
640.52068158498673
 20
211.3421848225843
 30
0.0
 11
640.52068158498673
 21
201.34218282258431
 31
0.0
  0
ARC
  5
3534
  8
AM_0
 10
639.02068158498673
 20
209.84218482258399
 30
0.0
 40
1.5000000299999969
 50
0.0
 51
90.000003000000945
  0
ARC
  5
3535
  8
AM_0
 10
610.52068158498673
 20
299.34218682258432
 30
0.0
 40
20.000000700000001
 50
6.4023797999986547
 51
61.927515000000632
  0
ARC
  5
3536
  8
AM_0
 10
622.08864558498669
 20
308.9116768225843
 30
0.0
 40
11.000000399999999
 50
149.8422100000013
 51
285.1636500000007
  0
CIRCLE
  5
3537
  8
AM_0
 10
620.50191258498671
 20
307.69414482258401
 30
0.0
 40
4.9999998000000003
  0
LINE
  5
3538
  8
AM_0
 10
615.50192958498633
 20
304.80739782258428
 30
0.0
 11
620.50191258498671
 21
301.92064782258421
 31
0.0
  0
ARC
  5
3539
  8
AM_0
 10
617.52066558498666
 20
293.57759982258432
 30
0.0
 40
5.0000001000000003
 50
0.0
 51
73.411384999998205
  0
LINE
  5
353A
  8
AM_0
 10
620.50194558498674
 20
313.46767182258429
 30
0.0
 11
615.50194458498652
 21
310.58092482258428
 31
0.0
  0
ARC
  5
353B
  8
AM_0
 10
367.00262469268682
 20
323.21449182258431
 30
0.0
 40
5.0000001000000003
 50
0.0
 51
88.499997000000747
  0
LINE
  5
353C
  8
AM_0
 10
386.00258469268692
 20
295.84218582258438
 30
0.0
 11
414.0026346926868
 21
295.84218582258438
 31
0.0
  0
LINE
  5
353D
  8
AM_0
 10
372.0026346926868
 20
299.25960582258421
 30
0.0
 11
364.00262469268682
 21
299.25960582258421
 31
0.0
  0
ARC
  5
353E
  8
AM_0
 10
364.00262469268682
 20
294.25960482258432
 30
0.0
 40
5.0000001000000003
 50
90.000003000000945
 51
180.00001000000091
  0
LINE
  5
353F
  8
AM_0
 10
386.00258469268692
 20
296.34218682258432
 30
0.0
 11
386.00258469268692
 21
286.34218782258432
 31
0.0
  0
LINE
  5
3540
  8
AM_0
 10
384.00263469268691
 20
296.34218682258432
 30
0.0
 11
386.00258469268692
 21
296.34218682258432
 31
0.0
  0
ARC
  5
3541
  8
AM_0
 10
367.00262469268682
 20
307.86357882258432
 30
0.0
 40
5.0000001000000003
 50
0.0
 51
90.000003000000945
  0
ARC
  5
3542
  8
AM_0
 10
377.00264469268677
 20
321.34216182258427
 30
0.0
 40
5.0000001000000003
 50
180.00001000000091
 51
270.0
  0
ARC
  5
3543
  8
AM_0
 10
380.00264469268677
 20
314.342201822584
 30
0.0
 40
2.00000007
 50
0.0
 51
90.000003000000945
  0
ARC
  5
3544
  8
AM_0
 10
383.00264469268677
 20
305.36803482258432
 30
0.0
 40
1.0000000199999981
 50
0.0
 51
88.499997000000747
  0
LINE
  5
3545
  8
AM_0
 10
382.97642469268692
 20
306.36904182258428
 30
0.0
 11
383.02874469268693
 21
306.36770082258431
 31
0.0
  0
ARC
  5
3546
  8
AM_0
 10
383.00264469268677
 20
307.36870782258438
 30
0.0
 40
1.0000000199999981
 50
179.9999899999988
 51
268.50000999999872
  0
LINE
  5
3547
  8
AM_0
 10
377.00264469268677
 20
316.34218182258428
 30
0.0
 11
380.00264469268677
 21
316.34218182258428
 31
0.0
  0
LINE
  5
3548
  8
AM_0
 10
392.00258469268692
 20
298.34218682258432
 30
0.0
 11
414.0026346926868
 21
298.34218682258432
 31
0.0
  0
LINE
  5
3549
  8
AM_0
 10
392.00258469268692
 20
295.84218582258438
 30
0.0
 11
392.00258469268692
 21
298.34218682258432
 31
0.0
  0
ARC
  5
354A
  8
AM_0
 10
570.52066458498655
 20
224.3421838225843
 30
0.0
 40
105.00000299999969
 50
61.927515000000632
 51
118.07248000000079
  0
ARC
  5
354B
  8
AM_0
 10
570.52066458498655
 20
269.34218682258432
 30
0.0
 40
60.000002999999992
 50
48.330845000001858
 51
131.66915000000051
  0
LINE
  5
354C
  8
ﾁｭｳｼﾝｾﾝ
 10
536.79525145435514
 20
286.34218782258432
 30
0.0
 11
604.24607771561818
 21
286.34218782258432
 31
0.0
  0
ARC
  5
354D
  8
AM_0
 10
518.95271658498677
 20
308.9116768225843
 30
0.0
 40
11.000000399999999
 50
254.8363599999997
 51
30.15779499999946
  0
ARC
  5
354E
  8
AM_0
 10
530.52068058498662
 20
299.34218682258432
 30
0.0
 40
20.000000700000001
 50
118.07248000000079
 51
173.59761999999901
  0
CIRCLE
  5
354F
  8
AM_0
 10
520.53941658498684
 20
307.69414482258401
 30
0.0
 40
4.9999998000000003
  0
LINE
  5
3550
  8
AM_0
 10
515.53941558498673
 20
304.80739782258428
 30
0.0
 11
520.53941658498684
 21
301.92064782258421
 31
0.0
  0
ARC
  5
3551
  8
AM_0
 10
523.52067858498685
 20
293.57759982258432
 30
0.0
 40
5.0000001000000003
 50
106.5886099999996
 51
180.00001000000091
  0
LINE
  5
3552
  8
AM_0
 10
520.53941658498684
 20
313.46767182258429
 30
0.0
 11
515.53941558498673
 21
310.58092482258428
 31
0.0
  0
ARC
  5
3553
  8
AM_0
 10
514.76747358498665
 20
293.46874182258432
 30
0.0
 40
5.0000001000000003
 50
74.836354000000071
 51
173.59761999999901
  0
ARC
  5
3554
  8
AM_0
 10
519.58470558498675
 20
294.9259258225843
 30
0.0
 40
3.0
 50
92.587449000000944
 51
153.3308500000023
  0
LINE
  5
3555
  8
AM_0
 10
515.53941558498673
 20
310.58089482258413
 30
0.0
 11
515.53941558498673
 21
304.80739782258428
 31
0.0
  0
LINE
  5
3556
  8
AM_0
 10
520.53941658498684
 20
301.92067782258431
 30
0.0
 11
525.53941758498672
 21
304.80742782258432
 31
0.0
  0
ARC
  5
3557
  8
AM_0
 10
532.78703658498671
 20
316.9498318225842
 30
0.0
 40
5.0000001000000003
 50
112.16879999999991
 51
210.1577899999985
  0
LINE
  5
3558
  8
AM_0
 10
525.53941758498672
 20
310.58089482258413
 30
0.0
 11
520.53941658498684
 21
313.46764182258431
 31
0.0
  0
LINE
  5
3559
  8
AM_0
 10
525.53941758498672
 20
304.80739782258428
 30
0.0
 11
525.53941758498672
 21
310.58089482258413
 31
0.0
  0
ARC
  5
355A
  8
AM_0
 10
532.62547758498681
 20
311.92096182258427
 30
0.0
 40
3.0
 50
131.66915000000051
 51
192.41255000000001
  0
CIRCLE
  5
355B
  8
AM_5
 10
570.52066458498655
 20
286.34218782258432
 30
0.0
 40
3.0
  0
CIRCLE
  5
355C
  8
AM_0
 10
570.52066458498655
 20
286.34218782258432
 30
0.0
 40
2.4999998400000001
  0
LINE
  5
355D
  8
AM_0
 10
567.52066458498666
 20
292.34218782258432
 30
0.0
 11
573.52066458498655
 21
292.34218782258432
 31
0.0
  0
LINE
  5
355E
  8
AM_0
 10
573.52066458498655
 20
298.34218782258432
 30
0.0
 11
567.52066458498666
 21
298.34218782258432
 31
0.0
  0
LINE
  5
355F
  8
AM_0
 10
567.52066458498666
 20
298.34218782258432
 30
0.0
 11
567.52066458498666
 21
292.34218782258432
 31
0.0
  0
LINE
  5
3560
  8
AM_0
 10
573.52066458498655
 20
292.34218782258432
 30
0.0
 11
573.52066458498655
 21
298.34218782258432
 31
0.0
  0
ARC
  5
3561
  8
AM_0
 10
608.25431058498646
 20
316.9498318225842
 30
0.0
 40
5.0000001000000003
 50
329.84219999999971
 51
67.83120300000104
  0
ARC
  5
3562
  8
AM_0
 10
608.41588458498666
 20
311.92096182258427
 30
0.0
 40
3.0
 50
347.58744999999982
 51
48.330845000001858
  0
LINE
  5
3563
  8
AM_0
 10
615.50192958498633
 20
310.58089482258413
 30
0.0
 11
615.50192958498633
 21
304.80739782258428
 31
0.0
  0
LINE
  5
3564
  8
AM_0
 10
620.50194558498674
 20
301.92064782258421
 30
0.0
 11
625.50194358498675
 21
304.80742782258432
 31
0.0
  0
ARC
  5
3565
  8
AM_0
 10
626.27385558498668
 20
293.46874182258432
 30
0.0
 40
5.0000001000000003
 50
6.4023797999986547
 51
105.1636400000002
  0
ARC
  5
3566
  8
AM_0
 10
621.45662658498668
 20
294.9259258225843
 30
0.0
 40
3.0
 50
26.669156999999409
 51
87.412548999999331
  0
LINE
  5
3567
  8
AM_0
 10
625.50192858498667
 20
310.58092482258428
 30
0.0
 11
620.50192758498645
 21
313.46767182258429
 31
0.0
  0
LINE
  5
3568
  8
AM_0
 10
625.50192858498667
 20
304.80739782258428
 30
0.0
 11
625.50192858498667
 21
310.58089482258413
 31
0.0
  0
LINE
  5
3569
  8
0
 10
242.5026707723606
 20
565.19567387177415
 30
0.0
 11
242.5026707723606
 21
405.19567387177392
 31
0.0
  0
LINE
  5
356A
  8
0
 10
252.5026707723604
 20
563.19567387177415
 30
0.0
 11
252.5026707723604
 21
407.1956738717742
 31
0.0
  0
LINE
  5
356B
  8
0
  6
CONTINUOUS
 62
     7
 10
275.50266469268678
 20
547.19567387177415
 30
0.0
 11
275.50266469268678
 21
423.1956738717742
 31
0.0
  0
ARC
  5
356C
  8
0
 10
250.50267077236049
 20
407.1956738717742
 30
0.0
 40
2.0
 50
270.0
 51
0.0
1001
GENIUS_GENODEF_13
1002
{
1000
HIER
1070
     0
1002
}
1002
{
1000
MANEDIT
1070
     0
1002
}
1002
{
1000
NOSEL
1070
     0
1002
}
1002
{
1000
BEHIND
1070
     0
1002
}
1002
{
1000
OTHER
1070
     0
1002
}
1002
{
1000
REACTOR
1002
}
1001
GENIUS_GENOBJ-N-FIL_13
1002
{
1000
OWNER
1000
GEN
1002
}
  0
LINE
  5
356D
  8
0
 10
242.5026707723606
 20
405.19567387177392
 30
0.0
 11
250.50267077236049
 21
405.19567387177392
 31
0.0
  0
LINE
  5
356E
  8
0
 10
273.50266469268678
 20
427.1956738717742
 30
0.0
 11
257.5026707723606
 21
427.1956738717742
 31
0.0
  0
ARC
  5
356F
  8
0
 10
257.5026707723606
 20
422.19567387177392
 30
0.0
 40
5.0
 50
90.0
 51
180.0
1001
GENIUS_GENOBJ-N-FIL_13
1002
{
1000
OWNER
1000
GEN
1002
}
1001
GENIUS_GENODEF_13
1002
{
1000
HIER
1070
     0
1002
}
1002
{
1000
MANEDIT
1070
     0
1002
}
1002
{
1000
NOSEL
1070
     0
1002
}
1002
{
1000
BEHIND
1070
     0
1002
}
1002
{
1000
OTHER
1070
     0
1002
}
1002
{
1000
REACTOR
1002
}
  0
ARC
  5
3570
  8
0
 10
277.50266469268672
 20
423.1956738717742
 30
0.0
 40
2.0
 50
180.0
 51
270.0
1001
GENIUS_GENODEF_13
1002
{
1000
HIER
1070
     0
1002
}
1002
{
1000
MANEDIT
1070
     0
1002
}
1002
{
1000
NOSEL
1070
     0
1002
}
1002
{
1000
BEHIND
1070
     0
1002
}
1002
{
1000
OTHER
1070
     0
1002
}
1002
{
1000
REACTOR
1002
}
1001
GENIUS_GENOBJ-N-FIL_13
1002
{
1000
OWNER
1000
GEN
1002
}
  0
ARC
  5
3571
  8
0
 10
273.50266469268678
 20
425.19567387177409
 30
0.0
 40
2.0
 50
0.0
 51
90.0
1001
GENIUS_GENODEF_13
1002
{
1000
HIER
1070
     0
1002
}
1002
{
1000
MANEDIT
1070
     0
1002
}
1002
{
1000
NOSEL
1070
     0
1002
}
1002
{
1000
BEHIND
1070
     0
1002
}
1002
{
1000
OTHER
1070
     0
1002
}
1002
{
1000
REACTOR
1002
}
1001
GENIUS_GENOBJ-N-FIL_13
1002
{
1000
OWNER
1000
GEN
1002
}
  0
LINE
  5
3572
  8
0
 10
286.50266469268678
 20
421.19567387177409
 30
0.0
 11
277.50266469268672
 21
421.19567387177409
 31
0.0
  0
LINE
  5
3573
  8
AM_0
 10
286.50266469268678
 20
448.04773887177419
 30
0.0
 11
275.50266469268678
 21
448.04773887177419
 31
0.0
  0
LINE
  5
3574
  8
AM_0
 10
286.50266469268678
 20
433.69565787177407
 30
0.0
 11
275.50266469268678
 21
433.69565787177407
 31
0.0
  0
LINE
  5
3575
  8
AM_0
 10
286.50266469268678
 20
536.69568387177424
 30
0.0
 11
275.50266469268678
 21
536.69568387177424
 31
0.0
  0
LINE
  5
3576
  8
AM_0
 10
286.50266469268678
 20
522.34359387177415
 30
0.0
 11
275.50266469268678
 21
522.34359387177415
 31
0.0
  0
LINE
  5
3577
  8
0
 10
273.50266469268678
 20
543.19567387177415
 30
0.0
 11
257.5026707723606
 21
543.19567387177415
 31
0.0
  0
ARC
  5
3578
  8
0
 10
257.5026707723606
 20
548.19567387177415
 30
0.0
 40
5.0
 50
180.0
 51
270.0
1001
GENIUS_GENOBJ-N-FIL_13
1002
{
1000
OWNER
1000
GEN
1002
}
1001
GENIUS_GENODEF_13
1002
{
1000
HIER
1070
     0
1002
}
1002
{
1000
MANEDIT
1070
     0
1002
}
1002
{
1000
NOSEL
1070
     0
1002
}
1002
{
1000
BEHIND
1070
     0
1002
}
1002
{
1000
OTHER
1070
     0
1002
}
1002
{
1000
REACTOR
1002
}
  0
LINE
  5
3579
  8
0
 10
242.5026707723606
 20
565.19567387177415
 30
0.0
 11
250.50267077236049
 21
565.19567387177415
 31
0.0
  0
ARC
  5
357A
  8
0
 10
250.50267077236049
 20
563.19567387177415
 30
0.0
 40
2.0
 50
0.0
 51
90.0
1001
GENIUS_GENODEF_13
1002
{
1000
HIER
1070
     0
1002
}
1002
{
1000
MANEDIT
1070
     0
1002
}
1002
{
1000
NOSEL
1070
     0
1002
}
1002
{
1000
BEHIND
1070
     0
1002
}
1002
{
1000
OTHER
1070
     0
1002
}
1002
{
1000
REACTOR
1002
}
1001
GENIUS_GENOBJ-N-FIL_13
1002
{
1000
OWNER
1000
GEN
1002
}
  0
ARC
  5
357B
  8
0
 10
277.50266469268672
 20
547.19567387177415
 30
0.0
 40
2.0
 50
90.0
 51
180.0
1001
GENIUS_GENODEF_13
1002
{
1000
HIER
1070
     0
1002
}
1002
{
1000
MANEDIT
1070
     0
1002
}
1002
{
1000
NOSEL
1070
     0
1002
}
1002
{
1000
BEHIND
1070
     0
1002
}
1002
{
1000
OTHER
1070
     0
1002
}
1002
{
1000
REACTOR
1002
}
1001
GENIUS_GENOBJ-N-FIL_13
1002
{
1000
OWNER
1000
GEN
1002
}
  0
ARC
  5
357C
  8
0
 10
273.50266469268678
 20
545.19567387177426
 30
0.0
 40
2.0
 50
270.0
 51
0.0
1001
GENIUS_GENODEF_13
1002
{
1000
HIER
1070
     0
1002
}
1002
{
1000
MANEDIT
1070
     0
1002
}
1002
{
1000
NOSEL
1070
     0
1002
}
1002
{
1000
BEHIND
1070
     0
1002
}
1002
{
1000
OTHER
1070
     0
1002
}
1002
{
1000
REACTOR
1002
}
1001
GENIUS_GENOBJ-N-FIL_13
1002
{
1000
OWNER
1000
GEN
1002
}
  0
LINE
  5
357D
  8
0
 10
286.50266469268678
 20
549.19567387177426
 30
0.0
 11
277.50266469268672
 21
549.19567387177426
 31
0.0
  0
TEXT
  5
3791
  8
AM_0
 10
480.05309140124763
 20
499.97110210416707
 30
0.0
 40
10.0
  1
VX04-003A~VX04-010A
  0
ENDSEC
  0
EOF
