  0
SECTION
  2
HEADER
  9
$ACADVER
  1
AC1009
  9
$INSBASE
 10
0.0
 20
0.0
 30
0.0
  9
$EXTMIN
 10
204.89678414712739
 20
182.1838870687242
 30
-0.0000000349181948
  9
$EXTMAX
 10
635.3193758176867
 20
574.89800619349819
 30
0.0000000814935747
  9
$LIMMIN
 10
0.0
 20
0.0
  9
$LIMMAX
 10
853.5
 20
555.00000000000011
  9
$ORTHOMODE
 70
     0
  9
$REGENMODE
 70
     1
  9
$FILLMODE
 70
     1
  9
$QTEXTMODE
 70
     0
  9
$MIRRTEXT
 70
     1
  9
$DRAGMODE
 70
     2
  9
$LTSCALE
 40
3.0
  9
$OSMODE
 70
   551
  9
$ATTMODE
 70
     1
  9
$TEXTSIZE
 40
2.5
  9
$TRACEWID
 40
1.0
  9
$TEXTSTYLE
  7
STANDARD
  9
$CLAYER
  8
AM_0
  9
$CELTYPE
  6
BYLAYER
  9
$CECOLOR
 62
   256
  9
$DIMSCALE
 40
1.0
  9
$DIMASZ
 40
2.5
  9
$DIMEXO
 40
1.0
  9
$DIMDLI
 40
8.0
  9
$DIMRND
 40
0.0
  9
$DIMDLE
 40
0.0
  9
$DIMEXE
 40
0.6
  9
$DIMTP
 40
0.1
  9
$DIMTM
 40
0.1
  9
$DIMTXT
 40
2.5
  9
$DIMCEN
 40
0.0
  9
$DIMTSZ
 40
0.0
  9
$DIMTOL
 70
     0
  9
$DIMLIM
 70
     0
  9
$DIMTIH
 70
     0
  9
$DIMTOH
 70
     0
  9
$DIMSE1
 70
     0
  9
$DIMSE2
 70
     0
  9
$DIMTAD
 70
     1
  9
$DIMZIN
 70
     8
  9
$DIMBLK
  1

  9
$DIMASO
 70
     1
  9
$DIMSHO
 70
     1
  9
$DIMPOST
  1

  9
$DIMAPOST
  1
"
  9
$DIMALT
 70
     0
  9
$DIMALTD
 70
     2
  9
$DIMALTF
 40
0.0393701
  9
$DIMLFAC
 40
1.0
  9
$DIMTOFL
 70
     1
  9
$DIMTVP
 40
0.0
  9
$DIMTIX
 70
     0
  9
$DIMSOXD
 70
     0
  9
$DIMSAH
 70
     0
  9
$DIMBLK1
  1

  9
$DIMBLK2
  1

  9
$DIMSTYLE
  2
AM_ISO
  9
$DIMCLRD
 70
   256
  9
$DIMCLRE
 70
   256
  9
$DIMCLRT
 70
     4
  9
$DIMTFAC
 40
0.71
  9
$DIMGAP
 40
0.8
  9
$LUNITS
 70
     2
  9
$LUPREC
 70
     2
  9
$SKETCHINC
 40
1.0
  9
$FILLETRAD
 40
15.0
  9
$AUNITS
 70
     0
  9
$AUPREC
 70
     0
  9
$MENU
  1
.
  9
$ELEVATION
 40
0.0
  9
$PELEVATION
 40
0.0
  9
$THICKNESS
 40
0.0
  9
$LIMCHECK
 70
     0
  9
$BLIPMODE
 70
     0
  9
$CHAMFERA
 40
6.0
  9
$CHAMFERB
 40
3.0
  9
$SKPOLY
 70
     0
  9
$TDCREATE
 40
2452066.3658458102
  9
$TDUPDATE
 40
2458541.4681377551
  9
$TDINDWG
 40
0.1033626042
  9
$TDUSRTIMER
 40
0.1033624074
  9
$USRTIMER
 70
     1
  9
$ANGBASE
 50
0.0
  9
$ANGDIR
 70
     0
  9
$PDMODE
 70
     0
  9
$PDSIZE
 40
0.0
  9
$PLINEWID
 40
0.0
  9
$COORDS
 70
     1
  9
$SPLFRAME
 70
     0
  9
$SPLINETYPE
 70
     6
  9
$SPLINESEGS
 70
     8
  9
$ATTDIA
 70
     1
  9
$ATTREQ
 70
     1
  9
$HANDLING
 70
     1
  9
$HANDSEED
  5
337F
  9
$SURFTAB1
 70
     6
  9
$SURFTAB2
 70
     6
  9
$SURFTYPE
 70
     6
  9
$SURFU
 70
     6
  9
$SURFV
 70
     6
  9
$UCSNAME
  2

  9
$UCSORG
 10
0.0
 20
0.0
 30
0.0
  9
$UCSXDIR
 10
1.0
 20
0.0
 30
0.0
  9
$UCSYDIR
 10
0.0
 20
1.0
 30
0.0
  9
$PUCSNAME
  2

  9
$PUCSORG
 10
0.0
 20
0.0
 30
0.0
  9
$PUCSXDIR
 10
1.0
 20
0.0
 30
0.0
  9
$PUCSYDIR
 10
0.0
 20
1.0
 30
0.0
  9
$USERI1
 70
     0
  9
$USERI2
 70
     0
  9
$USERI3
 70
     0
  9
$USERI4
 70
     0
  9
$USERI5
 70
     0
  9
$USERR1
 40
0.0
  9
$USERR2
 40
0.0
  9
$USERR3
 40
0.0
  9
$USERR4
 40
0.0
  9
$USERR5
 40
0.0
  9
$WORLDVIEW
 70
     1
  9
$SHADEDGE
 70
     3
  9
$SHADEDIF
 70
    70
  9
$TILEMODE
 70
     1
  9
$MAXACTVP
 70
    64
  9
$PLIMCHECK
 70
     0
  9
$PEXTMIN
 10
1.0000000000000000E+020
 20
1.0000000000000000E+020
 30
1.0000000000000000E+020
  9
$PEXTMAX
 10
-1.0000000000000000E+020
 20
-1.0000000000000000E+020
 30
-1.0000000000000000E+020
  9
$PLIMMIN
 10
0.0
 20
0.0
  9
$PLIMMAX
 10
420.0
 20
297.0
  9
$UNITMODE
 70
     0
  9
$VISRETAIN
 70
     1
  9
$PLINEGEN
 70
     0
  9
$PSLTSCALE
 70
     1
  0
ENDSEC
  0
SECTION
  2
TABLES
  0
TABLE
  2
VPORT
 70
     1
  0
VPORT
  2
*ACTIVE
 70
     0
 10
0.0
 20
0.0
 11
1.0
 21
1.0
 12
420.10807998240699
 22
378.5409466311113
 13
0.0
 23
0.0
 14
7.5
 24
7.5
 15
30.0
 25
30.0
 16
0.0
 26
0.0
 36
1.0
 17
0.0
 27
0.0
 37
0.0
 40
395.41009705926899
 41
1.7571592210767459
 42
50.0
 43
0.0
 44
0.0
 50
0.0
 51
0.0
 71
     0
 72
   100
 73
     1
 74
     3
 75
     0
 76
     0
 77
     0
 78
     0
  0
ENDTAB
  0
TABLE
  2
LTYPE
 70
    27
  0
LTYPE
  2
CONTINUOUS
 70
     0
  3
Solid line
 72
    65
 73
     0
 40
0.0
  0
LTYPE
  2
AM_ISO02W050
 70
     0
  3
__ __ __ __ __ __ __ __ __ __ __ __ __ __ __
 72
    65
 73
     2
 40
7.5
 49
6.0
 49
-1.5
  0
LTYPE
  2
AM_ISO08W050
 70
     0
  3
____ . ____ . ____ . ____ . ____ . ____ . ____
 72
    65
 73
     4
 40
18.0
 49
12.0
 49
-1.5
 49
3.0
 49
-1.5
  0
LTYPE
  2
AM_ISO09W050
 70
     0
  3
_____ . . _____ . . _____ . . ____ .. ____
 72
    65
 73
     6
 40
22.5
 49
12.0
 49
-1.5
 49
3.0
 49
-1.5
 49
3.0
 49
-1.5
  0
LTYPE
  2
AMCONSTR
 70
     0
  3
_______________________
 72
    65
 73
     2
 40
9999.0
 49
9999.0
 49
0.0
  0
LTYPE
  2
AM_ISO08W050X2
 70
     0
  3
__ . __ . __ . __ . __ . __
 72
    65
 73
     4
 40
9.0
 49
6.0
 49
-0.75
 49
1.5
 49
-0.75
  0
LTYPE
  2
AM_ISO02W050X2
 70
     0
  3
 _ _ _ _ _ _ _ _ _ _ _ _
 72
    65
 73
     2
 40
3.75
 49
3.0
 49
-0.75
  0
LTYPE
  2
AMZIGZAG
 70
     0
  3
/\/-/\/-/\/-/\/-/\/-/\/
 72
    65
 73
     2
 40
11.000099999999991
 49
0.0001
 49
-11.0
  0
LTYPE
  2
ACISOWELD
 70
     0
  3
_ _ _ _ _
 72
    65
 73
     2
 40
2.0
 49
2.0
 49
-1.0
  0
LTYPE
  2
ACISOTGB
 70
     0
  3
__ . . __ . .
 72
    65
 73
     6
 40
9.0
 49
4.0
 49
-1.0
 49
1.0
 49
-1.0
 49
1.0
 49
-1.0
  0
LTYPE
  2
ACISOTGL
 70
     0
  3
_ _ _ _ _
 72
    65
 73
     2
 40
3.0
 49
2.0
 49
-1.0
  0
LTYPE
  2
CENTER
 70
     0
  3
__ . __
 72
    65
 73
     4
 40
7.0
 49
4.0
 49
-1.0
 49
1.0
 49
-1.0
  0
LTYPE
  2
PHANTOM2
 70
     0
  3
Phantom (.5x) ___ _ _ ___ _ _ ___ _ _ ___ _ _
 72
    65
 73
     6
 40
31.75
 49
15.875
 49
-3.174999999999998
 49
3.174999999999998
 49
-3.174999999999998
 49
3.174999999999998
 49
-3.174999999999998
  0
LTYPE
  2
ACANSTGBM
 70
     0
  3
__ . . __ . .
 72
    65
 73
     6
 40
9.0
 49
4.0
 49
-1.0
 49
1.0
 49
-1.0
 49
1.0
 49
-1.0
  0
LTYPE
  2
ACANSTGLM
 70
     0
  3
_ _ _ _ _
 72
    65
 73
     2
 40
3.0
 49
2.0
 49
-1.0
  0
LTYPE
  2
GEN7
 70
     0
  3
____ . ____ . ____ . ____ . ____ . ____ . ____
 72
    65
 73
     4
 40
14.25
 49
9.75
 49
-1.5
 49
1.5
 49
-1.5
  0
LTYPE
  2
GEN3B
 70
     0
  3
 - - - - -
 72
    65
 73
     2
 40
1.0
 49
0.5
 49
-0.5
  0
LTYPE
  2
GEN7A
 70
     0
  3
__ . __ . __
 72
    65
 73
     4
 40
7.375
 49
4.75
 49
-0.875
 49
0.875
 49
-0.875
  0
LTYPE
  2
ACJISTGB
 70
     0
  3
__ . . __ . .
 72
    65
 73
     6
 40
9.0
 49
4.0
 49
-1.0
 49
1.0
 49
-1.0
 49
1.0
 49
-1.0
  0
LTYPE
  2
ACJISTGL
 70
     0
  3
_ _ _ _ _
 72
    65
 73
     2
 40
3.0
 49
2.0
 49
-1.0
  0
LTYPE
  2
HIDDEN
 70
     0
  3
Hidden __ __ __ __ __ __ __ __ __ __ __ __ __ _
 72
    65
 73
     2
 40
0.375
 49
0.25
 49
-0.125
  0
LTYPE
  2
CENTER2
 70
     0
  3
Center (.5x) ___ _ ___ _ ___ _ ___ _ ___ _ ___
 72
    65
 73
     4
 40
1.125
 49
0.75
 49
-0.125
 49
0.125
 49
-0.125
  0
LTYPE
  2
HIDDEN2
 70
     0
  3
Hidden (.5x) _ _ _ _ _ _ _ _ _ _ _ _ _ _ _ _ _
 72
    65
 73
     2
 40
0.1875
 49
0.125
 49
-0.0625
  0
LTYPE
  2
AMZIGZAG2
 70
     0
  3
/\/-/\/-/\/-/\/-/\/-/\/
 72
    65
 73
     2
 40
0.4401
 49
0.0001
 49
-0.4400000000000002
  0
LTYPE
  2
ACANSTGB
 70
     0
  3
__ . . __ . .
 72
    65
 73
     6
 40
0.35433070866
 49
0.15748031496
 49
-0.03937007874
 49
0.03937007874
 49
-0.03937007874
 49
0.03937007874
 49
-0.03937007874
  0
LTYPE
  2
ACANSTGL
 70
     0
  3
_ _ _ _ _
 72
    65
 73
     2
 40
0.11811023622
 49
0.07874015748
 49
-0.03937007874
  0
ENDTAB
  0
TABLE
  2
LAYER
 70
     7
  0
LAYER
  2
0
 70
     0
 62
     7
  6
CONTINUOUS
  0
LAYER
  2
AM_0
 70
     0
 62
     7
  6
CONTINUOUS
  0
LAYER
  2
AM_5
 70
     0
 62
     2
  6
CONTINUOUS
  0
LAYER
  2
DEFPOINTS
 70
     0
 62
     7
  6
CONTINUOUS
  0
LAYER
  2
ｶｸﾚｾﾝ2
 70
     0
 62
     3
  6
GEN3B
  0
LAYER
  2
ﾁｭｳｼﾝｾﾝ
 70
     0
 62
     1
  6
GEN7
  0
LAYER
  2
ﾁｭｳｼﾝｾﾝ1
 70
     0
 62
     1
  6
GEN7A
  0
ENDTAB
  0
TABLE
  2
STYLE
 70
     9
  0
STYLE
  2
STANDARD
 70
     0
 40
0.0
 41
0.8299999999999999
 50
0.0
 71
     0
 42
2.5
  3
txt.shx
  4
bigfont.shx
  0
STYLE
  2
ANNOTATIVE
 70
     0
 40
0.0
 41
1.0
 50
0.0
 71
     0
 42
0.2
  3
txt
  4

  0
STYLE
  2

 70
     1
 40
0.0
 41
1.0
 50
0.0
 71
     0
 42
2.5
  3
ltypeshp.shx
  4

  0
STYLE
  2
ACISOTS
 70
     0
 40
1.0
 41
1.0
 50
0.0
 71
     0
 42
2.5
  3
isocp.shx
  4
extfont.shx
  0
STYLE
  2
ACISOGDT
 70
     0
 40
0.0
 41
1.0
 50
0.0
 71
     0
 42
2.5
  3
amgdt.shx
  4

  0
STYLE
  2
ACANSTS
 70
     0
 40
1.0
 41
1.0
 50
0.0
 71
     0
 42
2.5
  3
romans.shx
  4
bigfont.shx
  0
STYLE
  2
ACANSGDT
 70
     0
 40
0.0
 41
1.0
 50
0.0
 71
     0
 42
2.5
  3
amgdt.shx
  4

  0
STYLE
  2
ACJISTS
 70
     0
 40
1.0
 41
1.0
 50
0.0
 71
     0
 42
2.5
  3
isocp.shx
  4
bigfont.shx
  0
STYLE
  2
ACJISGDT
 70
     0
 40
0.0
 41
1.0
 50
0.0
 71
     0
 42
2.5
  3
amgdt.shx
  4

  0
ENDTAB
  0
TABLE
  2
VIEW
 70
     6
  0
VIEW
  2
AM_VIEW1
 70
     0
 40
277.49999999999989
 10
249.64779005524849
 20
416.24999999999989
 41
499.2955801104971
 11
0.0
 21
0.0
 31
1.0
 12
0.0
 22
0.0
 32
0.0
 42
50.0
 43
0.0
 44
0.0
 50
0.0
 71
     0
  0
VIEW
  2
AM_VIEW2
 70
     0
 40
277.49999999999989
 10
603.85220994475117
 20
416.24999999999989
 41
499.2955801104971
 11
0.0
 21
0.0
 31
1.0
 12
0.0
 22
0.0
 32
0.0
 42
50.0
 43
0.0
 44
0.0
 50
0.0
 71
     0
  0
VIEW
  2
AM_VIEW3
 70
     0
 40
277.49999999999989
 10
249.64779005524849
 20
138.7499999999998
 41
499.2955801104971
 11
0.0
 21
0.0
 31
1.0
 12
0.0
 22
0.0
 32
0.0
 42
50.0
 43
0.0
 44
0.0
 50
0.0
 71
     0
  0
VIEW
  2
AM_VIEW4
 70
     0
 40
277.49999999999989
 10
603.85220994475117
 20
138.7499999999998
 41
499.2955801104971
 11
0.0
 21
0.0
 31
1.0
 12
0.0
 22
0.0
 32
0.0
 42
50.0
 43
0.0
 44
0.0
 50
0.0
 71
     0
  0
VIEW
  2
AM_VIEW5
 70
     0
 40
277.5
 10
426.75
 20
277.49999999999989
 41
499.2955801104971
 11
0.0
 21
0.0
 31
1.0
 12
0.0
 22
0.0
 32
0.0
 42
50.0
 43
0.0
 44
0.0
 50
0.0
 71
     0
  0
VIEW
  2
AM_VIEW6
 70
     0
 40
554.99445000000014
 10
426.75
 20
277.49999999999989
 41
998.5811743093924
 11
0.0
 21
0.0
 31
1.0
 12
0.0
 22
0.0
 32
0.0
 42
50.0
 43
0.0
 44
0.0
 50
0.0
 71
     0
  0
ENDTAB
  0
TABLE
  2
UCS
 70
     0
  0
ENDTAB
  0
TABLE
  2
APPID
 70
    95
  0
APPID
  2
ACAD
 70
     0
  0
APPID
  2
ACADANNOTATIVE
 70
     0
  0
APPID
  2
MCAD_NO_VIS
 70
     0
  0
APPID
  2
ACAD_TEMP_GRAPHIC
 70
     0
  0
APPID
  2
ACATTRIBSERVICES
 70
     0
  0
APPID
  2
GENIUS_GENREC_14
 70
     0
  0
APPID
  2
GENIUS_GENOBJ-N-REC_13
 70
     0
  0
APPID
  2
GENIUS_GENODEF_13
 70
     0
  0
APPID
  2
GENIUS_GENOLIS_13
 70
     0
  0
APPID
  2
GENIUS_GENOBJ-N-TIT_13
 70
     0
  0
APPID
  2
GENIUS_GENOENT_13
 70
     0
  0
APPID
  2
GENIUS_GENTITLE_13
 70
     0
  0
APPID
  2
GENIUS_GENOREF_13
 70
     0
  0
APPID
  2
GENIUS_GENSCREG_15
 70
     0
  0
APPID
  2
GENIUS_GENOBJ-N-SDF_13
 70
     0
  0
APPID
  2
GENIUS_GENFIL_13
 70
     0
  0
APPID
  2
GENIUS_GENOBJ-N-CHA_13
 70
     0
  0
APPID
  2
GENIUS_GENDTOL_13
 70
     0
  0
APPID
  2
GENIUS_GENOBJ-N-FIL_13
 70
     0
  0
APPID
  2
AD_DRAW
 70
     0
  0
APPID
  2
DESIGNERASSEMBLIES
 70
     0
  0
APPID
  2
ASURF_PCURVE_APPNAME
 70
     0
  0
APPID
  2
GENIUS_GE3SECT_13
 70
     0
  0
APPID
  2
GENIUS_GENCFG_13
 70
     0
  0
APPID
  2
GENIUS_GE3CFG0_13
 70
     0
  0
APPID
  2
GENIUS_GENCFG0_13
 70
     0
  0
APPID
  2
GENIUS_GENCFG1_13
 70
     0
  0
APPID
  2
GENIUS_GENCFG2_13
 70
     0
  0
APPID
  2
GENIUS_GENCFG3_13
 70
     0
  0
APPID
  2
GENIUS_GENCFG4_13
 70
     0
  0
APPID
  2
GENIUS_GEVCFG0_13
 70
     0
  0
APPID
  2
GENIUS_GENHINW_13
 70
     0
  0
APPID
  2
GENIUS_FIRSTVISTXT_14
 70
     0
  0
APPID
  2
GENIUS_GENOBJ-N-LEADER_13
 70
     0
  0
APPID
  2
GEV_VCCNULL_SWITCH_OFF
 70
     0
  0
APPID
  2
GENIUS_GEFCFG0_13
 70
     0
  0
APPID
  2
GENIUS_GENZVEED_13
 70
     0
  0
APPID
  2
GENIUS_GENSCREG_13
 70
     0
  0
APPID
  2
GENIUS_DUMCFG0_13
 70
     0
  0
APPID
  2
GEVID936201362
 70
     0
  0
APPID
  2
GEVDC
 70
     0
  0
APPID
  2
GEVCON
 70
     0
  0
APPID
  2
VCC
 70
     0
  0
APPID
  2
GEVPT
 70
     0
  0
APPID
  2
GEVIT
 70
     0
  0
APPID
  2
GENBH
 70
     0
  0
APPID
  2
GEVMK
 70
     0
  0
APPID
  2
GENIUS_GENBH_13
 70
     0
  0
APPID
  2
GENIUS_GENOBJ-NBEHI-BHF_13
 70
     0
  0
APPID
  2
GENIUS_GENOBJ-NBEHI-BHB_13
 70
     0
  0
APPID
  2
GENIUS_GENOBJ-F-DESC_13
 70
     0
  0
APPID
  2
GENIUS_GEFDESC_14
 70
     0
  0
APPID
  2
GENIUS_GENOBJ-F-PART_13
 70
     0
  0
APPID
  2
GENIUS_GEFSTDP_13
 70
     0
  0
APPID
  2
GENIUS_GEFPARTINS_13
 70
     0
  0
APPID
  2
GENIUS_GENTRA_14
 70
     0
  0
APPID
  2
GENIUS_GENINF13_13
 70
     0
  0
APPID
  2
GENIUS_GENOBJ-N-INFOPT_13
 70
     0
  0
APPID
  2
GENIUS_GENOBJ-N-RSSYM_13
 70
     0
  0
APPID
  2
GENIUS_GENSYMENT_13
 70
     0
  0
APPID
  2
GENIUS_GENSCSYM_13
 70
     0
  0
APPID
  2
GENIUS_GEFINFNAM_13
 70
     0
  0
APPID
  2
GENIUS_GENOBJ-N-CEN_13
 70
     0
  0
APPID
  2
GENIUS_GENOBJ-N-CRS_13
 70
     0
  0
APPID
  2
GENIUS_GENOBJ-N-CRC_13
 70
     0
  0
APPID
  2
GENIUS_GENCRC_14
 70
     0
  0
APPID
  2
GEVID942827039
 70
     0
  0
APPID
  2
GEVID942827040
 70
     0
  0
APPID
  2
GEVID942827041
 70
     0
  0
APPID
  2
GENIUS_GENOBJ-F-SCPASSM_13
 70
     0
  0
APPID
  2
GENIUS_GENDIMSH_14
 70
     0
  0
APPID
  2
GEVID942827042
 70
     0
  0
APPID
  2
GEVID946020473
 70
     0
  0
APPID
  2
GEVID946020474
 70
     0
  0
APPID
  2
GEVID946020475
 70
     0
  0
APPID
  2
GENIUS_GENOBJ-N-HTC_13
 70
     0
  0
APPID
  2
GENIUS_GENHATCH_13
 70
     0
  0
APPID
  2
GEVID948854295
 70
     0
  0
APPID
  2
GEVID939402019
 70
     0
  0
APPID
  2
GEVID952919491
 70
     0
  0
APPID
  2
GEVID952919492
 70
     0
  0
APPID
  2
GENIUS_GEFWELD_13
 70
     0
  0
APPID
  2
GENIUS_GENOBJ-F-WELS_13
 70
     0
  0
APPID
  2
GEVID952919493
 70
     0
  0
APPID
  2
GENIUS_GENOBJ-N-RSBK_13
 70
     0
  0
APPID
  2
GENIUS_GENOBJ-N-LIB_13
 70
     0
  0
APPID
  2
GENIUS_GENSCALE_13
 70
     0
  0
APPID
  2
GEVID986376691
 70
     0
  0
APPID
  2
DCO15
 70
     0
  0
APPID
  2
ACAD_DSTYLE_DIMBREAK
 70
     0
  0
APPID
  2
ACAD_DSTYLE_DIMJAG
 70
     0
  0
APPID
  2
ACAD_NAV_VCDISPLAY
 70
     0
  0
APPID
  2
ACADANNOPO
 70
     0
  0
APPID
  2
ACAD_EXEMPT_FROM_CAD_STANDARDS
 70
     0
  0
APPID
  2
ACAD_MLEADERVER
 70
     0
  0
ENDTAB
  0
TABLE
  2
DIMSTYLE
 70
    22
  0
DIMSTYLE
  2
STANDARD
 70
     0
  3

  4

  5

  6

  7

 40
1.0
 41
0.18
 42
0.0625
 43
0.38
 44
0.18
 45
0.0
 46
0.0
 47
0.0
 48
0.0
140
0.18
141
0.09
142
0.0
143
25.399999999999999
144
1.0
145
0.0
146
1.0
147
0.09
 71
     0
 72
     0
 73
     1
 74
     1
 75
     0
 76
     0
 77
     0
 78
     0
170
     0
171
     2
172
     0
173
     0
174
     0
175
     0
176
     0
177
     0
178
     0
  0
DIMSTYLE
  2
ANNOTATIVE
 70
     0
  3

  4

  5

  6

  7

 40
1.0
 41
0.18
 42
0.0625
 43
0.38
 44
0.18
 45
0.0
 46
0.0
 47
0.0
 48
0.0
140
0.18
141
0.09
142
0.0
143
25.399999999999999
144
1.0
145
0.0
146
1.0
147
0.09
 71
     0
 72
     0
 73
     1
 74
     1
 75
     0
 76
     0
 77
     0
 78
     0
170
     0
171
     2
172
     0
173
     0
174
     0
175
     0
176
     0
177
     0
178
     0
  0
DIMSTYLE
  2
AM_ISO
 70
     0
  3

  4
"
  5

  6

  7

 40
1.0
 41
2.5
 42
1.0
 43
8.0
 44
0.6
 45
0.0
 46
0.0
 47
0.1
 48
0.1
140
2.5
141
0.0
142
0.0
143
0.0393701
144
1.0
145
0.0
146
0.71
147
0.8
 71
     0
 72
     0
 73
     0
 74
     0
 75
     0
 76
     0
 77
     1
 78
     8
170
     0
171
     2
172
     1
173
     0
174
     0
175
     0
176
   256
177
   256
178
     4
  0
DIMSTYLE
  2
AM_ISO$3
 70
     0
  3

  4
"
  5

  6

  7

 40
1.0
 41
2.5
 42
1.0
 43
8.0
 44
0.6
 45
0.0
 46
0.0
 47
0.1
 48
0.1
140
2.5
141
0.0
142
0.0
143
0.0393701
144
1.0
145
0.0
146
0.71
147
0.8
 71
     0
 72
     0
 73
     0
 74
     1
 75
     0
 76
     0
 77
     1
 78
     8
170
     0
171
     2
172
     0
173
     0
174
     0
175
     0
176
   256
177
   256
178
     4
  0
DIMSTYLE
  2
AM_ISO$4
 70
     0
  3

  4
"
  5

  6

  7

 40
1.0
 41
2.5
 42
1.0
 43
8.0
 44
0.6
 45
0.0
 46
0.0
 47
0.1
 48
0.1
140
2.5
141
0.0
142
0.0
143
0.0393701
144
1.0
145
0.0
146
0.71
147
0.8
 71
     0
 72
     0
 73
     0
 74
     1
 75
     0
 76
     0
 77
     1
 78
     8
170
     0
171
     2
172
     0
173
     0
174
     0
175
     0
176
   256
177
   256
178
     4
  0
DIMSTYLE
  2
AM_ISO$6
 70
     0
  3

  4
"
  5

  6

  7

 40
1.0
 41
2.5
 42
1.0
 43
8.0
 44
0.6
 45
0.0
 46
0.0
 47
0.1
 48
0.1
140
2.5
141
0.0
142
0.0
143
0.0393701
144
1.0
145
0.0
146
0.71
147
0.8
 71
     0
 72
     0
 73
     0
 74
     0
 75
     0
 76
     0
 77
     0
 78
     8
170
     0
171
     2
172
     1
173
     0
174
     0
175
     0
176
   256
177
   256
178
     4
  0
DIMSTYLE
  2
AM_ISO$7
 70
     0
  3

  4
"
  5

  6

  7

 40
1.0
 41
2.5
 42
1.0
 43
8.0
 44
0.6
 45
0.0
 46
0.0
 47
0.1
 48
0.1
140
2.5
141
0.0
142
0.0
143
0.0393701
144
1.0
145
0.0
146
0.71
147
0.8
 71
     0
 72
     0
 73
     0
 74
     0
 75
     0
 76
     0
 77
     1
 78
     8
170
     0
171
     2
172
     1
173
     0
174
     0
175
     0
176
   256
177
   256
178
     4
  0
DIMSTYLE
  2
AM_ISO$SF
 70
     0
  3

  4
"
  5

  6

  7

 40
1.0
 41
2.5
 42
1.0
 43
10.0
 44
1.0
 45
0.0
 46
0.0
 47
0.1
 48
0.1
140
3.5
141
0.0
142
0.0
143
0.0393701
144
1.0
145
0.0
146
0.71
147
1.5
 71
     0
 72
     0
 73
     0
 74
     0
 75
     1
 76
     1
 77
     1
 78
     8
170
     0
171
     2
172
     1
173
     0
174
     0
175
     0
176
   256
177
   256
178
     2
  0
DIMSTYLE
  2
AM_ISO$SH
 70
     0
  3

  4
"
  5

  6

  7

 40
1.0
 41
2.5
 42
1.0
 43
10.0
 44
1.0
 45
0.0
 46
0.0
 47
0.1
 48
0.1
140
3.5
141
0.0
142
0.0
143
0.0393701
144
2.0
145
0.0
146
0.71
147
1.5
 71
     0
 72
     0
 73
     0
 74
     0
 75
     1
 76
     1
 77
     1
 78
     8
170
     0
171
     2
172
     1
173
     1
174
     0
175
     0
176
   256
177
   256
178
     2
  0
DIMSTYLE
  2
AM_JIS
 70
     0
  3

  4
"
  5

  6

  7

 40
1.0
 41
2.5
 42
1.0
 43
7.0
 44
1.0
 45
0.0
 46
0.0
 47
0.1
 48
0.1000000001
140
2.5
141
0.0
142
0.0
143
0.0393701
144
1.0
145
0.0
146
0.71
147
1.0
 71
     0
 72
     0
 73
     0
 74
     0
 75
     0
 76
     0
 77
     3
 78
     8
170
     0
171
     2
172
     1
173
     0
174
     0
175
     0
176
   256
177
   256
178
     4
  0
DIMSTYLE
  2
AM_JIS$3
 70
     0
  3

  4
"
  5

  6

  7

 40
1.0
 41
2.5
 42
1.0
 43
7.0
 44
1.0
 45
0.0
 46
0.0
 47
0.1
 48
0.1000000001
140
2.5
141
0.0
142
0.0
143
0.0393701
144
1.0
145
0.0
146
0.71
147
1.0
 71
     0
 72
     0
 73
     0
 74
     1
 75
     0
 76
     0
 77
     3
 78
     8
170
     0
171
     2
172
     0
173
     0
174
     0
175
     0
176
   256
177
   256
178
     4
  0
DIMSTYLE
  2
AM_JIS$4
 70
     0
  3

  4
"
  5

  6

  7

 40
1.0
 41
2.5
 42
1.0
 43
7.0
 44
1.0
 45
0.0
 46
0.0
 47
0.1
 48
0.1000000001
140
2.5
141
0.0
142
0.0
143
0.0393701
144
1.0
145
0.0
146
0.71
147
1.0
 71
     0
 72
     0
 73
     0
 74
     0
 75
     0
 76
     0
 77
     3
 78
     8
170
     0
171
     2
172
     0
173
     0
174
     0
175
     0
176
   256
177
   256
178
     4
  0
DIMSTYLE
  2
AM_JIS$6
 70
     0
  3

  4
"
  5

  6

  7

 40
1.0
 41
2.5
 42
1.0
 43
7.0
 44
1.0
 45
0.0
 46
0.0
 47
0.1
 48
0.1000000001
140
2.5
141
0.0
142
0.0
143
0.0393701
144
1.0
145
0.0
146
0.71
147
1.0
 71
     0
 72
     0
 73
     0
 74
     0
 75
     0
 76
     0
 77
     0
 78
     8
170
     0
171
     2
172
     1
173
     0
174
     0
175
     0
176
   256
177
   256
178
     4
  0
DIMSTYLE
  2
AM_JIS$7
 70
     0
  3

  4
"
  5

  6

  7

 40
1.0
 41
2.5
 42
1.0
 43
7.0
 44
1.0
 45
0.0
 46
0.0
 47
0.1
 48
0.1000000001
140
2.5
141
0.0
142
0.0
143
0.0393701
144
1.0
145
0.0
146
0.71
147
1.0
 71
     0
 72
     0
 73
     0
 74
     0
 75
     0
 76
     0
 77
     3
 78
     8
170
     0
171
     2
172
     1
173
     0
174
     0
175
     0
176
   256
177
   256
178
     4
  0
DIMSTYLE
  2
AM_JIS$SF
 70
     0
  3

  4
"
  5

  6

  7

 40
1.0
 41
2.5
 42
1.0
 43
10.0
 44
1.0
 45
0.0
 46
0.0
 47
0.1
 48
0.1
140
3.5
141
0.0
142
0.0
143
0.0393701
144
1.0
145
0.0
146
0.71
147
1.5
 71
     0
 72
     0
 73
     0
 74
     0
 75
     1
 76
     1
 77
     3
 78
     8
170
     0
171
     2
172
     1
173
     0
174
     0
175
     0
176
   256
177
   256
178
     4
  0
DIMSTYLE
  2
AM_JIS$SH
 70
     0
  3

  4
"
  5

  6

  7

 40
1.0
 41
2.5
 42
1.0
 43
10.0
 44
1.0
 45
0.0
 46
0.0
 47
0.1
 48
0.1
140
3.5
141
0.0
142
0.0
143
0.0393701
144
1.0
145
0.0
146
0.71
147
1.5
 71
     0
 72
     0
 73
     0
 74
     0
 75
     1
 76
     0
 77
     3
 78
     8
170
     0
171
     2
172
     1
173
     1
174
     0
175
     0
176
   256
177
   256
178
     4
  0
DIMSTYLE
  2
AM_ANSI
 70
     0
  3

  4
mm
  5

  6

  7

 40
1.0
 41
0.1
 42
0.05
 43
0.5
 44
0.1
 45
0.0
 46
0.0
 47
0.1
 48
0.1
140
0.12
141
0.0
142
0.0
143
25.399999999999999
144
1.0
145
0.0
146
0.71
147
0.06
 71
     0
 72
     0
 73
     1
 74
     1
 75
     0
 76
     0
 77
     0
 78
     7
170
     0
171
     2
172
     0
173
     0
174
     0
175
     0
176
   256
177
   256
178
     2
  0
DIMSTYLE
  2
AM_ANSI$3
 70
     0
  3

  4
mm
  5

  6

  7

 40
1.0
 41
0.1
 42
0.05
 43
0.5
 44
0.1
 45
0.0
 46
0.0
 47
0.1
 48
0.1
140
0.12
141
0.0
142
0.0
143
25.399999999999999
144
1.0
145
0.0
146
0.71
147
0.06
 71
     0
 72
     0
 73
     1
 74
     1
 75
     0
 76
     0
 77
     0
 78
     7
170
     0
171
     2
172
     0
173
     0
174
     0
175
     0
176
   256
177
   256
178
     2
  0
DIMSTYLE
  2
AM_ANSI$4
 70
     0
  3

  4
mm
  5

  6

  7

 40
1.0
 41
0.1
 42
0.05
 43
0.5
 44
0.1
 45
0.0
 46
0.0
 47
0.1
 48
0.1
140
0.12
141
0.0
142
0.0
143
25.399999999999999
144
1.0
145
0.0
146
0.71
147
0.06
 71
     0
 72
     0
 73
     1
 74
     1
 75
     0
 76
     0
 77
     0
 78
     7
170
     0
171
     2
172
     0
173
     0
174
     0
175
     0
176
   256
177
   256
178
     2
  0
DIMSTYLE
  2
AM_ANSI$7
 70
     0
  3

  4
mm
  5

  6

  7

 40
1.0
 41
0.1
 42
0.05
 43
0.5
 44
0.1
 45
0.0
 46
0.0
 47
0.1
 48
0.1
140
0.24
141
0.0
142
0.0
143
25.399999999999999
144
1.0
145
0.0
146
0.71
147
0.06
 71
     0
 72
     0
 73
     1
 74
     1
 75
     0
 76
     0
 77
     0
 78
     7
170
     0
171
     2
172
     0
173
     0
174
     0
175
     0
176
   256
177
   256
178
     2
  0
DIMSTYLE
  2
AM_ANSI$SF
 70
     0
  3

  4
mm
  5

  6

  7

 40
1.0
 41
0.1
 42
0.05
 43
0.5
 44
0.1
 45
0.0
 46
0.0
 47
0.1
 48
0.1
140
0.12
141
0.0
142
0.0
143
25.399999999999999
144
1.0
145
0.0
146
0.71
147
0.06
 71
     0
 72
     0
 73
     1
 74
     1
 75
     1
 76
     1
 77
     0
 78
     7
170
     0
171
     2
172
     0
173
     0
174
     0
175
     0
176
   256
177
   256
178
     2
  0
DIMSTYLE
  2
AM_ANSI$SH
 70
     0
  3

  4
mm
  5

  6

  7

 40
1.0
 41
0.1
 42
0.05
 43
0.5
 44
0.1
 45
0.0
 46
0.0
 47
0.1
 48
0.1
140
0.12
141
0.0
142
0.0
143
25.399999999999999
144
1.0
145
0.0
146
0.71
147
0.06
 71
     0
 72
     0
 73
     1
 74
     1
 75
     1
 76
     1
 77
     0
 78
     7
170
     0
171
     2
172
     0
173
     1
174
     0
175
     0
176
   256
177
   256
178
     2
  0
ENDTAB
  0
ENDSEC
  0
SECTION
  2
BLOCKS
  0
BLOCK
  8
0
  2
$MODEL_SPACE
 70
     0
 10
0.0
 20
0.0
 30
0.0
  3
$MODEL_SPACE
  1

  0
ENDBLK
  5
31F1
  8
0
  0
BLOCK
 67
     1
  8
0
  2
$PAPER_SPACE
 70
     0
 10
0.0
 20
0.0
 30
0.0
  3
$PAPER_SPACE
  1

  0
ENDBLK
  5
31ED
 67
     1
  8
0
  0
BLOCK
  8
0
  2
GENAXEH
 70
     0
 10
0.0
 20
0.0
 30
0.0
  3
GENAXEH
  1

  0
LINE
  5
2F8F
  8
0
 10
-1.0
 20
0.0
 30
0.0
 11
1.0
 21
0.0
 31
0.0
  0
ENDBLK
  5
2F90
  8
0
  0
BLOCK
  8
0
  2
_OPEN30
 70
     0
 10
0.0
 20
0.0
 30
0.0
  3
_OPEN30
  1

  0
LINE
  5
2F93
  8
0
 62
     0
 10
-1.0
 20
0.26794919
 30
0.0
 11
0.0
 21
0.0
 31
0.0
  0
LINE
  5
2F94
  8
0
 62
     0
 10
0.0
 20
0.0
 30
0.0
 11
-1.0
 21
-0.26794919
 31
0.0
  0
LINE
  5
2F95
  8
0
 62
     0
 10
0.0
 20
0.0
 30
0.0
 11
-1.0
 21
0.0
 31
0.0
  0
ENDBLK
  5
2F96
  8
0
  0
BLOCK
  8
0
  2
_NONE
 70
     0
 10
0.0
 20
0.0
 30
0.0
  3
_NONE
  1

  0
ENDBLK
  5
2F99
  8
0
  0
BLOCK
  8
0
  2
_ACMFILLEDHALF
 70
     0
 10
0.0
 20
0.0
 30
0.0
  3
_ACMFILLEDHALF
  1

  0
TRACE
  5
32E9
  8
AM_0
 62
     0
 10
-0.8
 20
0.0
 30
0.0
 11
-1.0
 21
0.166666666
 31
0.0
 12
0.0
 22
0.0
 32
0.0
 13
0.0
 23
0.0
 33
0.0
  0
LINE
  5
32EA
  8
AM_0
 62
     0
 10
-1.0
 20
0.0
 30
0.0
 11
-0.8
 21
0.0
 31
0.0
  0
ENDBLK
  5
32E8
  8
0
  0
ENDSEC
  0
SECTION
  2
ENTITIES
  0
LINE
  5
2F9A
  8
ﾁｭｳｼﾝｾﾝ
 10
204.92926324456809
 20
494.88756913427682
 30
0.0
 11
408.1496552015368
 21
494.88756913427682
 31
0.0
  0
ARC
  5
2F9B
  8
AM_0
 10
369.92996520153667
 20
494.88753913427678
 30
0.0
 40
3.9999962
 50
90.000003000000945
 51
270.0
  0
ARC
  5
2F9C
  8
AM_0
 10
410.41870520153668
 20
494.88756913427682
 30
0.0
 40
101.4887199999999
 50
151.893330000003
 51
208.1066699999968
  0
LINE
  5
2F9D
  8
AM_0
 10
401.92996520153679
 20
506.88756913427687
 30
0.0
 11
401.92996520153679
 21
482.88756913427659
 31
0.0
  0
LINE
  5
2F9E
  8
AM_0
 10
361.92993520153658
 20
507.38753913427678
 30
0.0
 11
361.92993520153658
 21
482.3875991342768
 31
0.0
  0
LINE
  5
2F9F
  8
AM_0
 10
369.92996520153667
 20
498.88753913427678
 30
0.0
 11
369.92996520153667
 21
490.88756913427682
 31
0.0
  0
LINE
  5
2FA0
  8
AM_0
 10
257.92999520153683
 20
431.38756913427687
 30
0.0
 11
257.92999520153683
 21
558.38756913427665
 31
0.0
  0
LINE
  5
2FA1
  8
AM_0
 10
287.92999520153683
 20
426.01918913427681
 30
0.0
 11
287.92999520153683
 21
563.75593913427679
 31
0.0
  0
LINE
  5
2FA2
  8
AM_0
 10
308.92999520153683
 20
444.82033913427682
 30
0.0
 11
308.92999520153683
 21
544.95479913427675
 31
0.0
  0
LINE
  5
2FA3
  8
AM_0
 10
343.92999520153671
 20
444.63655913427669
 30
0.0
 11
343.92999520153671
 21
545.13856913427685
 31
0.0
  0
LINE
  5
2FA4
  8
AM_0
 10
359.92996520153679
 20
469.35322913427677
 30
0.0
 11
359.92996520153679
 21
520.42186913427668
 31
0.0
  0
LINE
  5
2FA5
  8
AM_0
 10
356.92996520153667
 20
544.43251913427684
 30
0.0
 11
356.92996520153667
 21
445.34260913427681
 31
0.0
  0
LINE
  5
2FA6
  8
AM_0
 10
294.92996520153662
 20
565.88756913427676
 30
0.0
 11
294.92996520153662
 21
423.88756913427682
 31
0.0
  0
LINE
  5
2FA7
  8
AM_0
 10
307.66583520153682
 20
424.22105913427669
 30
0.0
 11
294.92999520153683
 21
423.88756913427682
 31
0.0
  0
LINE
  5
2FA8
  8
AM_0
 10
297.92999520153683
 20
416.88759913427668
 30
0.0
 11
357.98232520153681
 21
418.46010913427682
 31
0.0
  0
ARC
  5
2FA9
  8
AM_0
 10
277.92996520153662
 20
429.88756913427682
 30
0.0
 40
6.0
 50
169.13878999999559
 51
0.5425729200004517
  0
ARC
  5
2FAA
  8
ｶｸﾚｾﾝ2
 10
277.92996520153662
 20
429.88756913427682
 30
0.0
 40
6.0
 50
0.5425604000007392
 51
169.13878999999559
  0
LINE
  5
2FAB
  8
AM_0
 10
257.92999520153683
 20
442.84752913427678
 30
0.0
 11
287.92999520153683
 21
442.84752913427678
 31
0.0
  0
LINE
  5
2FAC
  8
AM_0
 10
283.16979520153677
 20
430.72664913427673
 30
0.0
 11
257.93002520153681
 21
431.38756913427687
 31
0.0
  0
LINE
  5
2FAD
  8
AM_0
 10
267.87762520153677
 20
417.67448913427683
 30
0.0
 11
297.92996520153679
 21
416.88756913427659
 31
0.0
  0
LINE
  5
2FAE
  8
ﾁｭｳｼﾝｾﾝ1
 10
269.75750520153679
 20
429.88756913427682
 30
0.0
 11
286.30285520153677
 21
429.88756913427682
 31
0.0
  0
LINE
  5
2FAF
  8
AM_0
 10
265.92996520153662
 20
419.67384913427679
 30
0.0
 11
265.92996520153662
 21
431.12569913427677
 31
0.0
  0
ARC
  5
2FB0
  8
AM_0
 10
267.92996520153662
 20
419.67384913427679
 30
0.0
 40
2.0
 50
180.00001000000091
 51
268.50000000000063
  0
LINE
  5
2FB1
  8
AM_0
 10
282.92996520153679
 20
431.67628913427677
 30
0.0
 11
282.92996520153679
 21
440.84752913427661
 31
0.0
  0
LINE
  5
2FB2
  8
ﾁｭｳｼﾝｾﾝ1
 10
277.92996520153662
 20
421.17909913427673
 30
0.0
 11
277.92996520153662
 21
438.25572913427669
 31
0.0
  0
ARC
  5
2FB3
  8
AM_0
 10
285.92999520153683
 20
427.67628913427677
 30
0.0
 40
2.0
 50
0.0
 51
90.000003000000945
  0
ARC
  5
2FB4
  8
AM_0
 10
284.92996520153662
 20
431.67628913427677
 30
0.0
 40
2.0
 50
180.00001000000091
 51
270.0
  0
LINE
  5
2FB5
  8
AM_0
 10
284.92996520153662
 20
429.67628913427677
 30
0.0
 11
285.92999520153683
 21
429.67628913427677
 31
0.0
  0
ARC
  5
2FB6
  8
AM_0
 10
289.92999520153683
 20
426.01918913427681
 30
0.0
 40
2.0
 50
180.00001000000091
 51
268.50000000000063
  0
LINE
  5
2FB7
  8
AM_0
 10
294.92999520153683
 20
423.88756913427682
 30
0.0
 11
289.87765520153681
 21
424.01985913427671
 31
0.0
  0
LINE
  5
2FB8
  8
AM_0
 10
297.92996520153679
 20
420.7435491342768
 30
0.0
 11
290.92996520153662
 21
417.07088913427668
 31
0.0
  0
LINE
  5
2FB9
  8
AM_0
 10
295.33297520153678
 20
423.89812913427681
 30
0.0
 11
290.92996520153662
 21
421.58800913427677
 31
0.0
  0
LINE
  5
2FBA
  8
AM_0
 10
290.92996520153662
 20
417.07088913427668
 30
0.0
 11
290.92996520153662
 21
421.58797913427679
 31
0.0
  0
LINE
  5
2FBB
  8
AM_0
 10
297.92996520153679
 20
423.96611913427682
 30
0.0
 11
297.92996520153679
 21
420.7435491342768
 31
0.0
  0
ARC
  5
2FBC
  8
AM_0
 10
280.9299652015369
 20
440.84752913427661
 30
0.0
 40
2.0
 50
0.0
 51
90.000003000000945
  0
LINE
  5
2FBD
  8
AM_0
 10
257.92999520153683
 20
457.73753913427669
 30
0.0
 11
287.92999520153683
 21
457.73753913427669
 31
0.0
  0
ARC
  5
2FBE
  8
AM_0
 10
351.92996520153679
 20
451.46919913427678
 30
0.0
 40
5.0
 50
275.0
 51
0.0
  0
CIRCLE
  5
2FBF
  8
AM_0
 10
347.92996520153679
 20
429.88756913427682
 30
0.0
 40
6.0
  0
LINE
  5
2FC0
  8
ﾁｭｳｼﾝｾﾝ1
 10
339.51739520153677
 20
429.88756913427682
 30
0.0
 11
356.2830552015368
 21
429.88756913427682
 31
0.0
  0
LINE
  5
2FC1
  8
AM_0
 10
328.00851520153668
 20
431.79127913427669
 30
0.0
 11
323.02377520153681
 21
431.66075913427659
 31
0.0
  0
LINE
  5
2FC2
  8
AM_0
 10
341.00854520153678
 20
447.8630591342768
 30
0.0
 11
322.51196520153673
 21
447.37871913427682
 31
0.0
  0
LINE
  5
2FC3
  8
AM_0
 10
310.92993520153669
 20
431.80257913427681
 30
0.0
 11
310.92993520153669
 21
441.34959913427679
 31
0.0
  0
LINE
  5
2FC4
  8
AM_0
 10
306.92996520153667
 20
443.34962913427688
 30
0.0
 11
306.92996520153667
 21
429.80257913427693
 31
0.0
  0
LINE
  5
2FC5
  8
AM_0
 10
305.9299652015369
 20
444.82033913427682
 30
0.0
 11
305.9299652015369
 21
424.17561913427659
 31
0.0
  0
LINE
  5
2FC6
  8
AM_0
 10
310.02639520153679
 20
424.88429913427677
 30
0.0
 11
320.66317520153677
 21
430.99751913427667
 31
0.0
  0
ARC
  5
2FC7
  8
AM_0
 10
307.53494520153669
 20
429.2193491342768
 30
0.0
 40
5.0
 50
271.4999999999992
 51
299.88701999999739
  0
LINE
  5
2FC8
  8
AM_0
 10
305.9299652015369
 20
429.80257913427693
 30
0.0
 11
306.92996520153667
 21
429.80257913427693
 31
0.0
  0
ARC
  5
2FC9
  8
AM_0
 10
309.9299652015369
 20
434.68931913427667
 30
0.0
 40
1.0
 50
269.999989999999
 51
0.0000006832495047
  0
ARC
  5
2FCA
  8
AM_0
 10
309.9299652015369
 20
431.80257913427681
 30
0.0
 40
1.0
 50
269.999989999999
 51
0.0000006832495047
  0
ARC
  5
2FCB
  8
AM_0
 10
309.9299652015369
 20
432.68934913427682
 30
0.0
 40
1.0
 50
0.0
 51
90.000003000000945
  0
LINE
  5
2FCC
  8
AM_0
 10
306.92996520153667
 20
430.80257913427658
 30
0.0
 11
309.9299652015369
 21
430.80257913427658
 31
0.0
  0
LINE
  5
2FCD
  8
AM_0
 10
306.92996520153667
 20
433.68934913427682
 30
0.0
 11
309.9299652015369
 21
433.68934913427682
 31
0.0
  0
ARC
  5
2FCE
  8
AM_0
 10
323.15463520153662
 20
426.66246913427682
 30
0.0
 40
5.0
 50
91.500001000001546
 51
119.88701999999751
  0
LINE
  5
2FCF
  8
AM_0
 10
308.92999520153683
 20
444.82033913427682
 30
0.0
 11
322.51196520153673
 21
447.37871913427682
 31
0.0
  0
LINE
  5
2FD0
  8
AM_0
 10
305.9299652015369
 20
443.34962913427688
 30
0.0
 11
306.92996520153667
 21
443.34962913427688
 31
0.0
  0
ARC
  5
2FD1
  8
AM_0
 10
309.9299652015369
 20
440.46284913427678
 30
0.0
 40
1.0
 50
269.999989999999
 51
0.0000006832495047
  0
ARC
  5
2FD2
  8
AM_0
 10
309.9299652015369
 20
438.46284913427678
 30
0.0
 40
1.0
 50
0.0
 51
90.000003000000945
  0
ARC
  5
2FD3
  8
AM_0
 10
309.9299652015369
 20
441.34959913427679
 30
0.0
 40
1.0
 50
0.0
 51
90.000003000000945
  0
LINE
  5
2FD4
  8
AM_0
 10
306.92996520153667
 20
442.34962913427682
 30
0.0
 11
309.9299652015369
 21
442.34962913427682
 31
0.0
  0
LINE
  5
2FD5
  8
AM_0
 10
306.92996520153667
 20
439.46284913427678
 30
0.0
 11
309.9299652015369
 21
439.46284913427678
 31
0.0
  0
LINE
  5
2FD6
  8
AM_0
 10
305.9299652015369
 20
444.82033913427682
 30
0.0
 11
308.92996520153662
 21
444.82033913427682
 31
0.0
  0
LINE
  5
2FD7
  8
AM_0
 10
330.9299652015369
 20
422.88435913427668
 30
0.0
 11
330.9299652015369
 21
436.16853913427673
 31
0.0
  0
LINE
  5
2FD8
  8
ﾁｭｳｼﾝｾﾝ1
 10
347.92996520153679
 20
421.46132913427681
 30
0.0
 11
347.92996520153679
 21
438.09996913427682
 31
0.0
  0
ARC
  5
2FD9
  8
AM_0
 10
335.92996520153662
 20
422.88435913427668
 30
0.0
 40
5.0
 50
180.00001000000091
 51
271.4999999999992
  0
ARC
  5
2FDA
  8
AM_0
 10
327.92996520153662
 20
434.79024913427668
 30
0.0
 40
3.0
 50
271.4999999999992
 51
0.0
  0
LINE
  5
2FDB
  8
AM_0
 10
341.1914652015368
 20
441.64799913427669
 30
0.0
 11
335.49417520153668
 21
441.14955913427679
 31
0.0
  0
ARC
  5
2FDC
  8
AM_0
 10
335.92996520153662
 20
436.16853913427673
 30
0.0
 40
5.0
 50
95.00000199999856
 51
180.00001000000091
  0
ARC
  5
2FDD
  8
AM_0
 10
348.10400520153672
 20
441.09627913427659
 30
0.0
 40
5.0
 50
95.00000199999856
 51
153.73432999999969
  0
ARC
  5
2FDE
  8
AM_0
 10
340.92999520153683
 20
444.63655913427669
 30
0.0
 40
3.0
 50
275.0
 51
0.0
  0
ARC
  5
2FDF
  8
AM_0
 10
340.92999520153683
 20
450.86201913427669
 30
0.0
 40
3.0
 50
271.4999999999992
 51
0.0
  0
LINE
  5
2FE0
  8
AM_0
 10
352.36575520153679
 20
446.4882391342768
 30
0.0
 11
347.66824520153671
 21
446.0772591342768
 31
0.0
  0
LINE
  5
2FE1
  8
AM_0
 10
359.92996520153679
 20
420.45939913427668
 30
0.0
 11
359.92996520153679
 21
443.31572913427692
 31
0.0
  0
ARC
  5
2FE2
  8
AM_0
 10
357.92996520153679
 20
420.45939913427668
 30
0.0
 40
2.0
 50
271.4999999999992
 51
0.0
  0
ARC
  5
2FE3
  8
AM_0
 10
357.92996520153679
 20
443.31572913427692
 30
0.0
 40
2.0
 50
0.0
 51
88.499997000000647
  0
LINE
  5
2FE4
  8
AM_0
 10
357.98232520153681
 20
445.31502913427681
 30
0.0
 11
356.92996520153667
 21
445.34257913427678
 31
0.0
  0
LINE
  5
2FE5
  8
AM_0
 10
369.92996520153667
 20
490.88756913427682
 30
0.0
 11
401.92996520153679
 21
490.88756913427682
 31
0.0
  0
LINE
  5
2FE6
  8
AM_0
 10
361.92993520153658
 20
482.88756913427659
 30
0.0
 11
401.92996520153679
 21
482.88756913427659
 31
0.0
  0
ARC
  5
2FE7
  8
AM_0
 10
358.92996520153667
 20
469.35322913427677
 30
0.0
 40
1.0
 50
272.0000000000004
 51
0.0
  0
ARC
  5
2FE8
  8
AM_0
 10
357.92996520153679
 20
467.31709913427682
 30
0.0
 40
1.0
 50
91.999998000000545
 51
180.00001000000091
  0
LINE
  5
2FE9
  8
AM_0
 10
357.89508520153669
 20
468.3165191342768
 30
0.0
 11
358.96487520153681
 21
468.35387913427678
 31
0.0
  0
LINE
  5
2FEA
  8
AM_0
 10
359.92996520153679
 20
482.3875991342768
 30
0.0
 11
361.92993520153658
 21
482.3875991342768
 31
0.0
  0
LINE
  5
2FEB
  8
AM_0
 10
307.66583520153682
 20
565.55406913427669
 30
0.0
 11
294.92999520153683
 21
565.88756913427676
 31
0.0
  0
LINE
  5
2FEC
  8
AM_0
 10
297.92999520153683
 20
572.88756913427687
 30
0.0
 11
357.98232520153681
 21
571.31505913427691
 31
0.0
  0
LINE
  5
2FED
  8
AM_0
 10
297.92996520153679
 20
565.80900913427672
 30
0.0
 11
297.92996520153679
 21
569.03157913427685
 31
0.0
  0
LINE
  5
2FEE
  8
AM_0
 10
295.33300520153682
 20
565.87700913427636
 30
0.0
 11
290.92999520153683
 21
568.18712913427646
 31
0.0
  0
LINE
  5
2FEF
  8
ﾁｭｳｼﾝｾﾝ1
 10
277.92996520153662
 20
568.20421913427685
 30
0.0
 11
277.92996520153662
 21
551.50874913427685
 31
0.0
  0
LINE
  5
2FF0
  8
AM_0
 10
265.92996520153662
 20
570.10130913427668
 30
0.0
 11
265.92996520153662
 21
558.6494391342768
 31
0.0
  0
ARC
  5
2FF1
  8
ｶｸﾚｾﾝ2
 10
277.92996520153662
 20
559.88756913427665
 30
0.0
 40
6.0
 50
190.86121000000409
 51
359.45752000000078
  0
ARC
  5
2FF2
  8
AM_0
 10
277.92996520153662
 20
559.88756913427665
 30
0.0
 40
6.0
 50
359.45751000000092
 51
190.86121000000409
  0
LINE
  5
2FF3
  8
AM_0
 10
257.92999520153683
 20
546.92760913427685
 30
0.0
 11
287.92999520153683
 21
546.92760913427685
 31
0.0
  0
LINE
  5
2FF4
  8
AM_0
 10
257.92999520153683
 20
532.03758913427669
 30
0.0
 11
287.92999520153683
 21
532.03758913427669
 31
0.0
  0
LINE
  5
2FF5
  8
AM_0
 10
283.16979520153677
 20
559.04848913427645
 30
0.0
 11
257.93002520153681
 21
558.38756913427665
 31
0.0
  0
LINE
  5
2FF6
  8
ﾁｭｳｼﾝｾﾝ1
 10
269.38311520153673
 20
559.88756913427665
 30
0.0
 11
286.38772520153691
 21
559.88756913427665
 31
0.0
  0
LINE
  5
2FF7
  8
AM_0
 10
282.92996520153679
 20
558.09886913427681
 30
0.0
 11
282.92996520153679
 21
548.92760913427685
 31
0.0
  0
ARC
  5
2FF8
  8
AM_0
 10
280.9299652015369
 20
548.92760913427685
 30
0.0
 40
2.0
 50
270.0
 51
0.0
  0
ARC
  5
2FF9
  8
AM_0
 10
285.92999520153683
 20
562.09886913427681
 30
0.0
 40
2.0
 50
270.0
 51
0.0
  0
ARC
  5
2FFA
  8
AM_0
 10
284.92996520153662
 20
558.09886913427681
 30
0.0
 40
2.0
 50
90.000003000000945
 51
180.00001000000091
  0
LINE
  5
2FFB
  8
AM_0
 10
284.92996520153662
 20
560.0988691342767
 30
0.0
 11
285.92999520153683
 21
560.0988691342767
 31
0.0
  0
LINE
  5
2FFC
  8
AM_0
 10
294.92996520153662
 20
565.88756913427676
 30
0.0
 11
289.87765520153681
 21
565.75526913427666
 31
0.0
  0
ARC
  5
2FFD
  8
AM_0
 10
289.92999520153683
 20
563.75593913427679
 30
0.0
 40
2.0
 50
91.500001000001546
 51
180.00001000000091
  0
LINE
  5
2FFE
  8
AM_0
 10
267.87762520153677
 20
572.10060913427685
 30
0.0
 11
297.92996520153679
 21
572.88756913427687
 31
0.0
  0
ARC
  5
2FFF
  8
AM_0
 10
267.92996520153662
 20
570.10130913427668
 30
0.0
 40
2.0
 50
91.500001000001546
 51
180.00001000000091
  0
LINE
  5
3000
  8
AM_0
 10
297.92996520153679
 20
569.03157913427685
 30
0.0
 11
290.92996520153662
 21
572.70427913427693
 31
0.0
  0
LINE
  5
3001
  8
AM_0
 10
290.92996520153662
 20
572.70424913427689
 30
0.0
 11
290.92996520153662
 21
568.18715913427673
 31
0.0
  0
ARC
  5
3002
  8
AM_0
 10
335.92996520153662
 20
566.89076913427675
 30
0.0
 40
5.0
 50
88.499997000000647
 51
180.00001000000091
  0
LINE
  5
3003
  8
ﾁｭｳｼﾝｾﾝ1
 10
347.92996520153679
 20
568.44655913427675
 30
0.0
 11
347.92996520153679
 21
551.22966913427672
 31
0.0
  0
LINE
  5
3004
  8
AM_0
 10
359.92996520153679
 20
569.31572913427669
 30
0.0
 11
359.92996520153679
 21
546.45939913427685
 31
0.0
  0
ARC
  5
3005
  8
AM_0
 10
351.92996520153679
 20
538.30589913427684
 30
0.0
 40
5.0
 50
0.0
 51
85.000004000000885
  0
CIRCLE
  5
3006
  8
AM_0
 10
347.92996520153679
 20
559.88756913427665
 30
0.0
 40
6.0
  0
LINE
  5
3007
  8
ﾁｭｳｼﾝｾﾝ1
 10
339.43551520153682
 20
559.88756913427665
 30
0.0
 11
356.5671352015367
 21
559.88756913427665
 31
0.0
  0
LINE
  5
3008
  8
AM_0
 10
328.00851520153668
 20
557.98384913427685
 30
0.0
 11
323.02377520153681
 21
558.11436913427667
 31
0.0
  0
LINE
  5
3009
  8
AM_0
 10
341.00854520153678
 20
541.91206913427675
 30
0.0
 11
322.5119352015368
 21
542.39641913427681
 31
0.0
  0
LINE
  5
300A
  8
AM_0
 10
305.9299652015369
 20
544.95479913427675
 30
0.0
 11
305.9299652015369
 21
565.59950913427667
 31
0.0
  0
LINE
  5
300B
  8
AM_0
 10
306.92996520153667
 20
546.42549913427683
 30
0.0
 11
306.92996520153667
 21
559.97255913427671
 31
0.0
  0
LINE
  5
300C
  8
AM_0
 10
310.92993520153669
 20
557.97255913427682
 30
0.0
 11
310.92993520153669
 21
548.42552913427664
 31
0.0
  0
LINE
  5
300D
  8
AM_0
 10
308.92999520153683
 20
544.95482913427691
 30
0.0
 11
322.51196520153673
 21
542.39644913427685
 31
0.0
  0
LINE
  5
300E
  8
AM_0
 10
305.9299652015369
 20
544.95479913427675
 30
0.0
 11
308.92996520153662
 21
544.95479913427675
 31
0.0
  0
LINE
  5
300F
  8
AM_0
 10
305.9299652015369
 20
546.42549913427683
 30
0.0
 11
306.92996520153667
 21
546.42549913427683
 31
0.0
  0
ARC
  5
3010
  8
AM_0
 10
309.9299652015369
 20
548.42552913427664
 30
0.0
 40
1.0
 50
269.999989999999
 51
0.0000006832495047
  0
LINE
  5
3011
  8
AM_0
 10
306.92996520153667
 20
547.42552913427676
 30
0.0
 11
309.9299652015369
 21
547.42552913427676
 31
0.0
  0
LINE
  5
3012
  8
AM_0
 10
310.02642520153682
 20
564.8907991342769
 30
0.0
 11
320.66317520153677
 21
558.77760913427664
 31
0.0
  0
ARC
  5
3013
  8
AM_0
 10
309.9299652015369
 20
557.97255913427682
 30
0.0
 40
1.0
 50
0.0
 51
90.000003000000945
  0
ARC
  5
3014
  8
AM_0
 10
309.9299652015369
 20
551.31227913427688
 30
0.0
 40
1.0
 50
269.999989999999
 51
0.0000006832495047
  0
ARC
  5
3015
  8
AM_0
 10
309.9299652015369
 20
557.08577913427689
 30
0.0
 40
1.0
 50
269.999989999999
 51
0.0000006832495047
  0
ARC
  5
3016
  8
AM_0
 10
309.9299652015369
 20
555.08580913427659
 30
0.0
 40
1.0
 50
0.0
 51
90.000003000000945
  0
ARC
  5
3017
  8
AM_0
 10
309.9299652015369
 20
549.31227913427665
 30
0.0
 40
1.0
 50
0.0
 51
90.000003000000945
  0
LINE
  5
3018
  8
AM_0
 10
306.92996520153667
 20
550.31227913427665
 30
0.0
 11
309.9299652015369
 21
550.31227913427665
 31
0.0
  0
LINE
  5
3019
  8
AM_0
 10
306.92996520153667
 20
556.08577913427666
 30
0.0
 11
309.9299652015369
 21
556.08577913427666
 31
0.0
  0
LINE
  5
301A
  8
AM_0
 10
305.9299652015369
 20
559.97255913427671
 30
0.0
 11
306.92996520153667
 21
559.97255913427671
 31
0.0
  0
ARC
  5
301B
  8
AM_0
 10
307.53494520153669
 20
560.55577913427692
 30
0.0
 40
5.0
 50
60.11298000000248
 51
88.499997000000647
  0
LINE
  5
301C
  8
AM_0
 10
306.92996520153667
 20
558.97252913427678
 30
0.0
 11
309.9299652015369
 21
558.97252913427678
 31
0.0
  0
ARC
  5
301D
  8
AM_0
 10
323.15463520153662
 20
563.11265913427667
 30
0.0
 40
5.0
 50
240.11298000000241
 51
268.50000000000063
  0
ARC
  5
301E
  8
AM_0
 10
335.92996520153662
 20
553.60655913427684
 30
0.0
 40
5.0
 50
180.00001000000091
 51
265.00001000000032
  0
LINE
  5
301F
  8
AM_0
 10
341.1914652015368
 20
548.12715913427678
 30
0.0
 11
335.49420520153677
 21
548.62559913427685
 31
0.0
  0
ARC
  5
3020
  8
AM_0
 10
340.92999520153683
 20
538.91310913427685
 30
0.0
 40
3.0
 50
0.0
 51
88.499997000000647
  0
ARC
  5
3021
  8
AM_0
 10
348.10400520153672
 20
548.67882913427684
 30
0.0
 40
5.0
 50
206.2656700000002
 51
265.00001000000032
  0
ARC
  5
3022
  8
AM_0
 10
340.92999520153683
 20
545.13856913427685
 30
0.0
 40
3.0
 50
0.0
 51
85.000004000000885
  0
LINE
  5
3023
  8
AM_0
 10
352.36575520153679
 20
543.28685913427682
 30
0.0
 11
347.66824520153671
 21
543.69783913427682
 31
0.0
  0
LINE
  5
3024
  8
AM_0
 10
330.9299652015369
 20
553.60655913427684
 30
0.0
 11
330.9299652015369
 21
566.89076913427675
 31
0.0
  0
ARC
  5
3025
  8
AM_0
 10
327.92996520153662
 20
554.98488913427684
 30
0.0
 40
3.0
 50
0.0
 51
88.499997000000647
  0
LINE
  5
3026
  8
AM_0
 10
361.92993520153658
 20
506.88756913427687
 30
0.0
 11
401.92996520153679
 21
506.88756913427687
 31
0.0
  0
LINE
  5
3027
  8
AM_0
 10
369.92996520153667
 20
498.88753913427678
 30
0.0
 11
401.92996520153679
 21
498.88753913427678
 31
0.0
  0
LINE
  5
3028
  8
AM_0
 10
359.92996520153679
 20
507.38753913427678
 30
0.0
 11
361.92993520153658
 21
507.38753913427678
 31
0.0
  0
ARC
  5
3029
  8
AM_0
 10
358.92996520153667
 20
520.42186913427668
 30
0.0
 40
1.0
 50
0.0
 51
87.999999999999503
  0
ARC
  5
302A
  8
AM_0
 10
357.92996520153679
 20
522.45802913427679
 30
0.0
 40
1.0
 50
180.00001000000091
 51
267.99999999999932
  0
LINE
  5
302B
  8
AM_0
 10
357.89504520153679
 20
521.45860913427691
 30
0.0
 11
358.96487520153681
 21
521.42125913427685
 31
0.0
  0
ARC
  5
302C
  8
AM_0
 10
357.92996520153679
 20
546.45939913427685
 30
0.0
 40
2.0
 50
271.4999999999992
 51
0.0
  0
LINE
  5
302D
  8
AM_0
 10
356.9299952015366
 20
544.43254913427688
 30
0.0
 11
357.98232520153681
 21
544.46010913427665
 31
0.0
  0
ARC
  5
302E
  8
AM_0
 10
357.92996520153679
 20
569.31572913427669
 30
0.0
 40
2.0
 50
0.0
 51
88.499997000000647
  0
LINE
  5
3030
  8
ﾁｭｳｼﾝｾﾝ
 10
404.39089520153669
 20
285.19522162682631
 30
0.0
 11
274.89304520153672
 21
285.19522162682631
 31
0.0
  0
LINE
  5
3031
  8
AM_0
 10
334.92997520153682
 20
190.1952356268265
 30
0.0
 11
359.92996520153667
 21
190.1952356268265
 31
0.0
  0
LINE
  5
3032
  8
AM_0
 10
335.92996520153662
 20
202.19525062682629
 30
0.0
 11
357.92995520153659
 21
202.19525062682629
 31
0.0
  0
LINE
  5
3033
  8
AM_0
 10
348.4942052015366
 20
318.93326662682631
 30
0.0
 11
354.19147520153672
 21
318.43481662682638
 31
0.0
  0
LINE
  5
3034
  8
AM_0
 10
257.92996520153662
 20
328.69523662682639
 30
0.0
 11
257.92996520153662
 21
201.69518962682631
 31
0.0
  0
LINE
  5
3035
  8
AM_0
 10
287.92996520153662
 20
307.58324662682651
 30
0.0
 11
287.92996520153662
 21
204.59819062682641
 31
0.0
  0
LINE
  5
3036
  8
AM_0
 10
321.75958520153682
 20
298.54394662682643
 30
0.0
 11
308.92996520153662
 21
272.41150162682629
 31
0.0
  0
LINE
  5
3037
  8
AM_0
 10
308.92996520153662
 20
298.54394662682643
 30
0.0
 11
308.92996520153662
 21
272.41150162682629
 31
0.0
  0
LINE
  5
3038
  8
AM_0
 10
343.92997520153648
 20
330.04133662682631
 30
0.0
 11
343.92997520153648
 21
221.23603762682629
 31
0.0
  0
LINE
  5
3039
  8
AM_0
 10
330.92995520153659
 20
294.9860546268265
 30
0.0
 11
330.92995520153659
 21
207.19523662682639
 31
0.0
  0
LINE
  5
303A
  8
AM_0
 10
294.92995520153659
 20
336.19523662682627
 30
0.0
 11
294.92995520153659
 21
221.05238362682641
 31
0.0
  0
LINE
  5
303B
  8
0
 10
223.92997128121041
 20
343.19525362682651
 30
0.0
 11
223.92997128121041
 21
187.1952536268264
 31
0.0
  0
LINE
  5
303C
  8
0
 10
213.9299712812105
 20
345.1952536268264
 30
0.0
 11
213.9299712812105
 21
185.1952536268264
 31
0.0
  0
LINE
  5
303D
  8
0
  6
CONTINUOUS
 62
     7
 10
246.92996520153659
 20
327.19525362682651
 30
0.0
 11
246.92996520153659
 21
203.1952536268264
 31
0.0
  0
LINE
  5
303E
  8
ﾁｭｳｼﾝｾﾝ
 10
204.92926324456789
 20
265.1952536268264
 30
0.0
 11
288.55150621971768
 21
265.1952536268264
 31
0.0
  0
LINE
  5
303F
  8
0
 10
213.9299712812105
 20
185.1952536268264
 30
0.0
 11
221.9299712812105
 21
185.1952536268264
 31
0.0
  0
LINE
  5
3040
  8
ｶｸﾚｾﾝ2
 10
341.92996520153662
 20
202.19525062682629
 30
0.0
 11
341.92996520153662
 21
190.1952356268265
 31
0.0
  0
LINE
  5
3041
  8
ｶｸﾚｾﾝ2
 10
271.9300052015368
 20
202.19525062682629
 30
0.0
 11
271.9300052015368
 21
190.1952356268265
 31
0.0
  0
LINE
  5
3042
  8
ｶｸﾚｾﾝ2
 10
283.9300052015368
 20
202.19525062682629
 30
0.0
 11
283.9300052015368
 21
190.1952356268265
 31
0.0
  0
LINE
  5
3043
  8
ﾁｭｳｼﾝｾﾝ1
 10
277.9300052015368
 20
204.05026218738681
 30
0.0
 11
277.9300052015368
 21
188.46310392025239
 31
0.0
  0
LINE
  5
3044
  8
ﾁｭｳｼﾝｾﾝ1
 10
347.92996520153667
 20
204.05026218738681
 30
0.0
 11
347.92996520153667
 21
188.46310392025239
 31
0.0
  0
LINE
  5
3045
  8
AM_0
 10
265.9300052015368
 20
200.19523462682639
 30
0.0
 11
265.9300052015368
 21
190.1952356268265
 31
0.0
  0
LINE
  5
3046
  8
AM_0
 10
265.9300052015368
 20
190.1952356268265
 30
0.0
 11
290.92996520153662
 21
190.1952356268265
 31
0.0
  0
ARC
  5
3047
  8
0
 10
221.9299712812105
 20
187.1952536268264
 30
0.0
 40
2.0
 50
270.0
 51
0.0
1001
GENIUS_GENODEF_13
1002
{
1000
HIER
1070
     0
1002
}
1002
{
1000
MANEDIT
1070
     0
1002
}
1002
{
1000
NOSEL
1070
     0
1002
}
1002
{
1000
BEHIND
1070
     0
1002
}
1002
{
1000
OTHER
1070
     0
1002
}
1002
{
1000
REACTOR
1002
}
1001
GENIUS_GENOBJ-N-FIL_13
1002
{
1000
OWNER
1000
GEN
1002
}
  0
LINE
  5
3048
  8
AM_0
 10
291.92995520153659
 20
191.1952196268264
 30
0.0
 11
333.9299552015367
 21
191.1952196268264
 31
0.0
  0
ARC
  5
3049
  8
AM_0
 10
291.92995520153659
 20
190.1952356268265
 30
0.0
 40
1.0000000199999981
 50
90.000003000000945
 51
180.00001000000091
  0
LINE
  5
304A
  8
AM_0
 10
290.92996520153662
 20
190.1952356268265
 30
0.0
 11
290.92996520153662
 21
190.1952356268265
 31
0.0
  0
ARC
  5
304B
  8
AM_0
 10
333.9299552015367
 20
190.1952356268265
 30
0.0
 40
1.0000000199999981
 50
0.0
 51
90.000003000000945
  0
LINE
  5
304C
  8
AM_0
 10
334.92997520153682
 20
190.1952356268265
 30
0.0
 11
334.92997520153682
 21
190.1952356268265
 31
0.0
  0
LINE
  5
304D
  8
AM_0
 10
267.9299552015367
 20
202.19525062682629
 30
0.0
 11
286.87930520153662
 21
202.19525062682629
 31
0.0
  0
LINE
  5
304E
  8
AM_0
 10
257.92996520153662
 20
213.69523462682631
 30
0.0
 11
287.92996520153662
 21
213.69523462682631
 31
0.0
  0
LINE
  5
304F
  8
AM_0
 10
257.92996520153662
 20
228.0473186268265
 30
0.0
 11
287.92996520153662
 21
228.0473186268265
 31
0.0
  0
LINE
  5
3050
  8
AM_0
 10
282.9299552015367
 20
209.56524562682631
 30
0.0
 11
287.4099452015368
 21
209.56524562682631
 31
0.0
  0
LINE
  5
3051
  8
AM_0
 10
257.92996520153662
 20
228.04727812682631
 30
0.0
 11
246.92996520153659
 21
228.04727812682631
 31
0.0
  0
LINE
  5
3052
  8
AM_0
 10
257.92996520153662
 20
213.69519712682629
 30
0.0
 11
246.92996520153659
 21
213.69519712682629
 31
0.0
  0
LINE
  5
3053
  8
0
 10
257.92996520153662
 20
201.1952536268264
 30
0.0
 11
248.92996520153659
 21
201.1952536268264
 31
0.0
  0
LINE
  5
3054
  8
0
 10
244.92996520153659
 20
207.1952536268264
 30
0.0
 11
228.9299712812105
 21
207.1952536268264
 31
0.0
  0
ARC
  5
3055
  8
0
 10
228.9299712812105
 20
202.19525362682651
 30
0.0
 40
5.0
 50
90.0
 51
180.0
1001
GENIUS_GENOBJ-N-FIL_13
1002
{
1000
OWNER
1000
GEN
1002
}
1001
GENIUS_GENODEF_13
1002
{
1000
HIER
1070
     0
1002
}
1002
{
1000
MANEDIT
1070
     0
1002
}
1002
{
1000
NOSEL
1070
     0
1002
}
1002
{
1000
BEHIND
1070
     0
1002
}
1002
{
1000
OTHER
1070
     0
1002
}
1002
{
1000
REACTOR
1002
}
  0
ARC
  5
3056
  8
0
 10
244.92996520153659
 20
205.1952536268264
 30
0.0
 40
2.0
 50
0.0
 51
90.0
1001
GENIUS_GENODEF_13
1002
{
1000
HIER
1070
     0
1002
}
1002
{
1000
MANEDIT
1070
     0
1002
}
1002
{
1000
NOSEL
1070
     0
1002
}
1002
{
1000
BEHIND
1070
     0
1002
}
1002
{
1000
OTHER
1070
     0
1002
}
1002
{
1000
REACTOR
1002
}
1001
GENIUS_GENOBJ-N-FIL_13
1002
{
1000
OWNER
1000
GEN
1002
}
  0
ARC
  5
3057
  8
0
 10
248.92996520153659
 20
203.1952536268264
 30
0.0
 40
2.0
 50
180.0
 51
270.0
1001
GENIUS_GENODEF_13
1002
{
1000
HIER
1070
     0
1002
}
1002
{
1000
MANEDIT
1070
     0
1002
}
1002
{
1000
NOSEL
1070
     0
1002
}
1002
{
1000
BEHIND
1070
     0
1002
}
1002
{
1000
OTHER
1070
     0
1002
}
1002
{
1000
REACTOR
1002
}
1001
GENIUS_GENOBJ-N-FIL_13
1002
{
1000
OWNER
1000
GEN
1002
}
  0
ARC
  5
3058
  8
AM_0
 10
267.9299552015367
 20
200.19523462682639
 30
0.0
 40
2.00000007
 50
90.000003000000945
 51
180.00001000000091
  0
LINE
  5
3059
  8
AM_0
 10
257.92996520153662
 20
201.6952346268265
 30
0.0
 11
266.39188520153658
 21
201.4736486268263
 31
0.0
  0
LINE
  5
305A
  8
AM_0
 10
282.9299552015367
 20
207.56522962682629
 30
0.0
 11
282.9299552015367
 21
202.19525062682629
 31
0.0
  0
ARC
  5
305B
  8
AM_0
 10
280.9300052015368
 20
207.56522962682629
 30
0.0
 40
2.00000007
 50
0.0
 51
90.000003000000945
  0
LINE
  5
305C
  8
AM_0
 10
297.92995520153659
 20
272.41150162682629
 30
0.0
 11
297.92995520153659
 21
235.7197106268265
 31
0.0
  0
LINE
  5
305D
  8
AM_0
 10
291.77047520153673
 20
206.15771362682639
 30
0.0
 11
297.82114520153681
 21
234.6821906268265
 31
0.0
  0
ARC
  5
305E
  8
AM_0
 10
286.87930520153662
 20
207.19523662682639
 30
0.0
 40
5.0000001000000003
 50
270.0
 51
348.0238700000009
  0
LINE
  5
305F
  8
AM_0
 10
284.92996520153662
 20
202.59817462682639
 30
0.0
 11
285.9299552015367
 21
202.59817462682639
 31
0.0
  0
ARC
  5
3060
  8
AM_0
 10
284.92996520153662
 20
200.59817362682639
 30
0.0
 40
2.00000007
 50
90.000003000000945
 51
127.01007000000121
  0
ARC
  5
3061
  8
AM_0
 10
285.9299552015367
 20
204.59819062682641
 30
0.0
 40
2.00000007
 50
270.0
 51
0.0
  0
ARC
  5
3062
  8
AM_0
 10
292.93000520153669
 20
235.7197106268265
 30
0.0
 40
5.0000001000000003
 50
348.0238700000009
 51
0.0
  0
ARC
  5
3063
  8
AM_0
 10
339.9299552015367
 20
221.23603762682629
 30
0.0
 40
4.000000199999997
 50
270.0
 51
0.0
  0
ARC
  5
3064
  8
AM_0
 10
335.92996520153662
 20
207.19523662682639
 30
0.0
 40
5.0000001000000003
 50
180.00001000000091
 51
270.0
  0
LINE
  5
3065
  8
AM_0
 10
330.92995520153659
 20
217.2360536268263
 30
0.0
 11
339.9299552015367
 21
217.2360536268263
 31
0.0
  0
LINE
  5
3066
  8
AM_0
 10
297.92995520153659
 20
272.41150162682629
 30
0.0
 11
308.92996520153662
 21
272.41150162682629
 31
0.0
  0
LINE
  5
3067
  8
0
 10
213.9299712812105
 20
345.1952536268264
 30
0.0
 11
221.9299712812105
 21
345.1952536268264
 31
0.0
  0
LINE
  5
3068
  8
AM_0
 10
257.92996520153662
 20
316.69523662682627
 30
0.0
 11
283.9300052015368
 21
316.69523662682627
 31
0.0
  0
LINE
  5
3069
  8
AM_0
 10
282.9299552015367
 20
298.06256362682632
 30
0.0
 11
287.37064520153672
 21
298.06256362682632
 31
0.0
  0
ARC
  5
306A
  8
AM_0
 10
284.92996520153662
 20
314.69525662682622
 30
0.0
 40
2.00000007
 50
90.000003000000945
 51
180.00001000000091
  0
ARC
  5
306B
  8
AM_0
 10
284.92996520153662
 20
309.58325662682643
 30
0.0
 40
2.00000007
 50
179.9999899999988
 51
270.0
  0
LINE
  5
306C
  8
AM_0
 10
257.92996520153662
 20
328.69523662682639
 30
0.0
 11
285.98233520153678
 21
329.42981662682632
 31
0.0
  0
ARC
  5
306D
  8
0
 10
228.9299712812105
 20
328.19525362682651
 30
0.0
 40
5.0
 50
180.0
 51
270.0
1001
GENIUS_GENOBJ-N-FIL_13
1002
{
1000
OWNER
1000
GEN
1002
}
1001
GENIUS_GENODEF_13
1002
{
1000
HIER
1070
     0
1002
}
1002
{
1000
MANEDIT
1070
     0
1002
}
1002
{
1000
NOSEL
1070
     0
1002
}
1002
{
1000
BEHIND
1070
     0
1002
}
1002
{
1000
OTHER
1070
     0
1002
}
1002
{
1000
REACTOR
1002
}
  0
LINE
  5
306E
  8
AM_0
 10
257.92996520153662
 20
316.69522312682631
 30
0.0
 11
246.92996520153659
 21
316.69522312682631
 31
0.0
  0
LINE
  5
306F
  8
AM_0
 10
257.92996520153662
 20
302.34313312682627
 30
0.0
 11
246.92996520153659
 21
302.34313312682627
 31
0.0
  0
LINE
  5
3070
  8
0
 10
244.92996520153659
 20
323.19525362682651
 30
0.0
 11
228.9299712812105
 21
323.19525362682651
 31
0.0
  0
ARC
  5
3071
  8
0
 10
244.92996520153659
 20
325.19525362682651
 30
0.0
 40
2.0
 50
270.0
 51
0.0
1001
GENIUS_GENODEF_13
1002
{
1000
HIER
1070
     0
1002
}
1002
{
1000
MANEDIT
1070
     0
1002
}
1002
{
1000
NOSEL
1070
     0
1002
}
1002
{
1000
BEHIND
1070
     0
1002
}
1002
{
1000
OTHER
1070
     0
1002
}
1002
{
1000
REACTOR
1002
}
1001
GENIUS_GENOBJ-N-FIL_13
1002
{
1000
OWNER
1000
GEN
1002
}
  0
LINE
  5
3072
  8
AM_0
 10
282.9299552015367
 20
314.69525662682622
 30
0.0
 11
282.9299552015367
 21
300.06256462682649
 31
0.0
  0
LINE
  5
3073
  8
AM_0
 10
257.92996520153662
 20
302.34317362682617
 30
0.0
 11
282.9299552015367
 21
302.34317362682617
 31
0.0
  0
ARC
  5
3074
  8
AM_0
 10
280.9300052015368
 20
300.06256462682649
 30
0.0
 40
2.00000007
 50
270.0
 51
0.0
  0
LINE
  5
3075
  8
0
 10
257.92996520153662
 20
329.19525362682651
 30
0.0
 11
248.92996520153659
 21
329.19525362682651
 31
0.0
  0
ARC
  5
3076
  8
0
 10
221.9299712812105
 20
343.19525362682651
 30
0.0
 40
2.0
 50
0.0
 51
90.0
1001
GENIUS_GENODEF_13
1002
{
1000
HIER
1070
     0
1002
}
1002
{
1000
MANEDIT
1070
     0
1002
}
1002
{
1000
NOSEL
1070
     0
1002
}
1002
{
1000
BEHIND
1070
     0
1002
}
1002
{
1000
OTHER
1070
     0
1002
}
1002
{
1000
REACTOR
1002
}
1001
GENIUS_GENOBJ-N-FIL_13
1002
{
1000
OWNER
1000
GEN
1002
}
  0
ARC
  5
3077
  8
0
 10
248.92996520153659
 20
327.19525362682651
 30
0.0
 40
2.0
 50
90.0
 51
180.0
1001
GENIUS_GENODEF_13
1002
{
1000
HIER
1070
     0
1002
}
1002
{
1000
MANEDIT
1070
     0
1002
}
1002
{
1000
NOSEL
1070
     0
1002
}
1002
{
1000
BEHIND
1070
     0
1002
}
1002
{
1000
OTHER
1070
     0
1002
}
1002
{
1000
REACTOR
1002
}
1001
GENIUS_GENOBJ-N-FIL_13
1002
{
1000
OWNER
1000
GEN
1002
}
  0
LINE
  5
3078
  8
AM_0
 10
287.92996520153662
 20
334.19525662682651
 30
0.0
 11
287.92996520153662
 21
318.69521662682649
 31
0.0
  0
LINE
  5
3079
  8
AM_0
 10
308.92996520153662
 20
335.75009662682618
 30
0.0
 11
308.92996520153662
 21
316.72268662682632
 31
0.0
  0
LINE
  5
307A
  8
AM_0
 10
308.92996520153662
 20
335.75006662682648
 30
0.0
 11
322.51195520153652
 21
316.72268662682632
 31
0.0
  0
LINE
  5
307B
  8
AM_0
 10
308.92996520153662
 20
316.72268662682632
 30
0.0
 11
343.92997520153648
 21
316.72268662682632
 31
0.0
  0
LINE
  5
307C
  8
AM_0
 10
308.92996520153662
 20
298.54394662682643
 30
0.0
 11
331.76467520153642
 21
298.54394662682643
 31
0.0
  0
LINE
  5
307D
  8
AM_0
 10
305.92996520153662
 20
321.72200662682638
 30
0.0
 11
305.92996520153662
 21
298.81997962682652
 31
0.0
  0
LINE
  5
307E
  8
AM_0
 10
306.9299552015367
 20
316.71272662682651
 30
0.0
 11
306.9299552015367
 21
303.16571362682652
 31
0.0
  0
ARC
  5
307F
  8
AM_0
 10
306.9299552015367
 20
295.81997962682641
 30
0.0
 40
2.00000007
 50
0.0
 51
90.000003000000945
  0
ARC
  5
3080
  8
AM_0
 10
306.9299552015367
 20
298.81997962682652
 30
0.0
 40
1.0000000199999981
 50
179.9999899999988
 51
270.0
  0
LINE
  5
3081
  8
AM_0
 10
305.92996520153662
 20
303.16571362682652
 30
0.0
 11
306.9299552015367
 21
303.16571362682652
 31
0.0
  0
LINE
  5
3082
  8
AM_0
 10
284.92996520153662
 20
307.58324662682651
 30
0.0
 11
287.92996520153662
 21
307.58324662682651
 31
0.0
  0
LINE
  5
3083
  8
AM_0
 10
284.92996520153662
 20
316.69523662682627
 30
0.0
 11
285.9299552015367
 21
316.69523662682627
 31
0.0
  0
ARC
  5
3084
  8
AM_0
 10
285.9299552015367
 20
318.69521662682649
 30
0.0
 40
2.00000007
 50
270.0
 51
0.0
  0
ARC
  5
3085
  8
AM_0
 10
309.92995520153659
 20
314.71274662682617
 30
0.0
 40
1.0000000199999981
 50
0.0
 51
90.000003000000945
  0
LINE
  5
3086
  8
AM_0
 10
306.9299552015367
 20
312.8259566268265
 30
0.0
 11
309.92995520153659
 21
312.8259566268265
 31
0.0
  0
LINE
  5
3087
  8
AM_0
 10
306.9299552015367
 20
307.05245662682643
 30
0.0
 11
309.92995520153659
 21
307.05245662682643
 31
0.0
  0
LINE
  5
3088
  8
AM_0
 10
306.9299552015367
 20
304.16571262682652
 30
0.0
 11
309.92995520153659
 21
304.16571262682652
 31
0.0
  0
ARC
  5
3089
  8
AM_0
 10
309.92995520153659
 20
305.16572662682643
 30
0.0
 40
1.0000000199999981
 50
270.0
 51
0.0
  0
ARC
  5
308A
  8
AM_0
 10
309.92995520153659
 20
306.05246662682652
 30
0.0
 40
1.0000000199999981
 50
0.0
 51
90.000003000000945
  0
ARC
  5
308B
  8
AM_0
 10
309.92995520153659
 20
313.82594662682652
 30
0.0
 40
1.0000000199999981
 50
270.0
 51
0.0
  0
ARC
  5
308C
  8
AM_0
 10
309.92995520153659
 20
311.82599662682651
 30
0.0
 40
1.0000000199999981
 50
0.0
 51
90.000003000000945
  0
ARC
  5
308D
  8
AM_0
 10
309.92995520153659
 20
308.05247662682632
 30
0.0
 40
1.0000000199999981
 50
270.0
 51
0.0
  0
LINE
  5
308E
  8
AM_0
 10
310.92991520153669
 20
305.16572662682643
 30
0.0
 11
310.92991520153669
 21
314.71274662682617
 31
0.0
  0
LINE
  5
308F
  8
AM_0
 10
306.9299552015367
 20
315.71273662682648
 30
0.0
 11
309.92995520153659
 21
315.71273662682648
 31
0.0
  0
ARC
  5
3090
  8
AM_0
 10
306.9299552015367
 20
324.7220066268265
 30
0.0
 40
2.00000007
 50
270.0
 51
0.0
  0
ARC
  5
3091
  8
AM_0
 10
306.9299552015367
 20
321.72200662682638
 30
0.0
 40
1.0000000199999981
 50
90.000003000000945
 51
180.00001000000091
  0
LINE
  5
3092
  8
AM_0
 10
305.92996520153662
 20
316.71272662682651
 30
0.0
 11
306.9299552015367
 21
316.71272662682651
 31
0.0
  0
ARC
  5
3093
  8
AM_0
 10
338.92996520153662
 20
294.9860546268265
 30
0.0
 40
8.0000000999999976
 50
90.000003000000945
 51
180.00001000000091
  0
LINE
  5
3094
  8
AM_0
 10
338.92996520153662
 20
302.98602562682618
 30
0.0
 11
343.92997520153648
 21
302.98602562682618
 31
0.0
  0
ARC
  5
3095
  8
AM_0
 10
348.9299552015367
 20
323.91425662682639
 30
0.0
 40
5.0000001000000003
 50
179.9999899999988
 51
265.00000000000028
  0
LINE
  5
3096
  8
AM_0
 10
294.92995520153659
 20
336.19523662682627
 30
0.0
 11
339.06085520153681
 21
335.03960662682653
 31
0.0
  0
ARC
  5
3097
  8
AM_0
 10
289.9300052015368
 20
334.19525662682651
 30
0.0
 40
2.00000007
 50
90.000003000000945
 51
180.00001000000091
  0
LINE
  5
3098
  8
AM_0
 10
289.9300052015368
 20
336.19523662682627
 30
0.0
 11
294.92995520153659
 21
336.19523662682627
 31
0.0
  0
ARC
  5
3099
  8
AM_0
 10
285.9299552015367
 20
331.42913662682622
 30
0.0
 40
2.00000007
 50
271.49999999999932
 51
0.0
  0
ARC
  5
309A
  8
AM_0
 10
338.92996520153662
 20
330.04133662682631
 30
0.0
 40
5.0000001000000003
 50
0.0
 51
88.499997000000747
  0
LINE
  5
309B
  8
ﾁｭｳｼﾝｾﾝ
 10
547.90010290400085
 20
348.19492743545641
 30
0.0
 11
547.90010290400085
 21
182.1955798181971
 31
0.0
  0
ARC
  5
309C
  8
AM_0
 10
547.66740640400076
 20
265.1952536268264
 30
0.0
 40
80.000000000000469
 50
143.98764637721439
 51
201.80698712529039
  0
ARC
  5
309D
  8
AM_0
 10
547.66740640400076
 20
265.1952536268264
 30
0.0
 40
80.000000000000469
 50
338.91248487627632
 51
34.267603855091913
  0
LINE
  5
309E
  8
AM_0
 10
625.90012090400126
 20
202.1952356268263
 30
0.0
 11
615.13168690400073
 21
304.82540662682618
 31
0.0
  0
LINE
  5
309F
  8
AM_0
 10
469.90010890400112
 20
202.1952356268263
 30
0.0
 11
480.66854890400111
 21
304.82540662682618
 31
0.0
  0
LINE
  5
30A0
  8
AM_0
 10
600.90011890400103
 20
300.44778562682632
 30
0.0
 11
600.90011890400103
 21
239.1952376268263
 31
0.0
  0
LINE
  5
30A1
  8
AM_0
 10
494.9001169040011
 20
300.44778562682632
 30
0.0
 11
494.9001169040011
 21
239.1952376268263
 31
0.0
  0
ARC
  5
30A2
  8
AM_0
 10
547.90010290400085
 20
285.19522162682631
 30
0.0
 40
26.500002599999998
 50
90.000003000000945
 51
270.0
  0
ARC
  5
30A3
  8
AM_0
 10
547.90010290400085
 20
265.1952536268264
 30
0.0
 40
71.000000999999983
 50
5.989814199999338
 51
27.0005730000006
  0
ARC
  5
30A4
  8
AM_0
 10
547.90010290400085
 20
270.19522162682642
 30
0.0
 40
48.0
 50
0.0
 51
180.00001000000091
  0
ARC
  5
30A5
  8
AM_0
 10
547.90010290400085
 20
285.19522162682631
 30
0.0
 40
26.500002599999998
 50
270.0
 51
90.000003000000945
  0
ARC
  5
30A6
  8
AM_0
 10
547.90010290400085
 20
265.1952536268264
 30
0.0
 40
71.000000999999983
 50
152.9994200000007
 51
174.01019000000011
  0
ARC
  5
30A7
  8
AM_0
 10
547.90010290400085
 20
285.19522162682631
 30
0.0
 40
12.00000029999998
 50
109.47121999999951
 51
70.528788999999293
  0
CIRCLE
  5
30A8
  8
AM_0
 10
547.90010290400085
 20
285.19522162682631
 30
0.0
 40
3.0
  0
CIRCLE
  5
30A9
  8
AM_5
 10
547.90010290400085
 20
285.19522162682631
 30
0.0
 40
4.000000199999997
  0
LINE
  5
30AA
  8
AM_0
 10
361.9299152015368
 20
297.69522262682631
 30
0.0
 11
361.9299152015368
 21
272.6952536268264
 31
0.0
  0
LINE
  5
30AB
  8
AM_0
 10
356.92996520153667
 20
315.44624662682622
 30
0.0
 11
356.92996520153667
 21
205.93980262682641
 31
0.0
  0
LINE
  5
30AC
  8
AM_0
 10
359.92996520153667
 20
259.84994662682641
 30
0.0
 11
359.92996520153667
 21
310.54052662682648
 31
0.0
  0
LINE
  5
30AD
  8
AM_0
 10
401.92996520153667
 20
300.1952246268263
 30
0.0
 11
401.92996520153667
 21
273.19522162682642
 31
0.0
  0
LINE
  5
30AE
  8
ﾁｭｳｼﾝｾﾝ
 10
464.6674064040003
 20
265.1952536268264
 30
0.0
 11
630.66740640400121
 21
265.1952536268264
 31
0.0
  0
LINE
  5
30AF
  8
AM_0
 10
625.90012090400126
 20
190.1952356268265
 30
0.0
 11
595.90012090400126
 21
190.1952356268265
 31
0.0
  0
ARC
  5
30B0
  8
AM_0
 10
566.90011990400114
 20
239.1952376268263
 30
0.0
 40
34.000001999999988
 50
328.53301999999962
 51
0.0
  0
LINE
  5
30B1
  8
AM_0
 10
597.90011890400103
 20
202.19525062682629
 30
0.0
 11
623.90013490400122
 21
202.19525062682629
 31
0.0
  0
ARC
  5
30B2
  8
AM_0
 10
600.90011890400103
 20
207.19523662682639
 30
0.0
 40
5.0000001000000003
 50
179.9999899999988
 51
270.0
  0
LINE
  5
30B3
  8
ｶｸﾚｾﾝ2
 10
353.92996520153667
 20
202.19525062682629
 30
0.0
 11
353.92996520153667
 21
190.1952356268265
 31
0.0
  0
LINE
  5
30B4
  8
AM_0
 10
359.92996520153667
 20
200.19523462682639
 30
0.0
 11
359.92996520153667
 21
190.1952356268265
 31
0.0
  0
ARC
  5
30B5
  8
AM_0
 10
357.92995520153659
 20
200.19523462682639
 30
0.0
 40
2.00000007
 50
0.0
 51
90.000003000000945
  0
ARC
  5
30B6
  8
AM_0
 10
361.92997520153671
 20
205.93980262682641
 30
0.0
 40
5.0000001000000003
 50
179.9999899999988
 51
235.15011000000041
  0
LINE
  5
30B7
  8
AM_0
 10
361.9299152015368
 20
273.19522162682642
 30
0.0
 11
401.92996520153667
 21
273.19522162682642
 31
0.0
  0
LINE
  5
30B8
  8
AM_0
 10
357.92998520153679
 20
257.54049862682649
 30
0.0
 11
358.92997520153671
 21
258.11786062682643
 31
0.0
  0
ARC
  5
30B9
  8
AM_0
 10
358.92997520153671
 20
255.80848762682649
 30
0.0
 40
2.00000007
 50
120.0000000000005
 51
180.00001000000091
  0
ARC
  5
30BA
  8
AM_0
 10
357.92995520153659
 20
259.84994662682641
 30
0.0
 40
2.00000007
 50
300.00000000000051
 51
0.0
  0
LINE
  5
30BB
  8
AM_0
 10
359.92996520153667
 20
272.6952536268264
 30
0.0
 11
361.9299152015368
 21
272.6952536268264
 31
0.0
  0
LINE
  5
30BC
  8
AM_0
 10
469.90010890400112
 20
190.1952356268265
 30
0.0
 11
469.90010890400112
 21
202.19525062682629
 31
0.0
  0
LINE
  5
30BD
  8
AM_0
 10
595.90012090400126
 20
190.1952356268265
 30
0.0
 11
595.90012090400126
 21
200.1952496268263
 31
0.0
  0
ARC
  5
30BE
  8
AM_0
 10
589.90012090400126
 20
196.1952356268263
 30
0.0
 40
3.0
 50
179.9999899999988
 51
270.0
  0
LINE
  5
30BF
  8
AM_0
 10
525.10685890400111
 20
195.08067262682641
 30
0.0
 11
524.35327390400118
 21
200.80477762682639
 31
0.0
  0
LINE
  5
30C0
  8
AM_0
 10
514.43881390400088
 20
199.49951062682641
 30
0.0
 11
515.19241390400111
 21
193.7754056268264
 31
0.0
  0
LINE
  5
30C1
  8
AM_0
 10
499.90011790400109
 20
190.1952356268265
 30
0.0
 11
499.90011790400109
 21
200.1952496268263
 31
0.0
  0
CIRCLE
  5
30C2
  8
AM_0
 10
519.77281390400105
 20
197.29010062682639
 30
0.0
 40
4.9999998000000003
  0
ARC
  5
30C3
  8
AM_0
 10
505.90011790400081
 20
196.1952356268263
 30
0.0
 40
3.0
 50
270.0
 51
0.0
  0
LINE
  5
30C4
  8
AM_0
 10
571.44694990400114
 20
200.80477762682639
 30
0.0
 11
570.69334690400115
 21
195.08067262682641
 31
0.0
  0
CIRCLE
  5
30C5
  8
AM_0
 10
576.02734690400098
 20
197.29010062682639
 30
0.0
 40
4.9999998000000003
  0
LINE
  5
30C6
  8
AM_0
 10
580.60780690400122
 20
193.7754056268264
 30
0.0
 11
581.36140690400123
 21
199.49951062682641
 31
0.0
  0
LINE
  5
30C7
  8
ﾁｭｳｼﾝｾﾝ1
 10
482.900086904001
 20
204.05026218738681
 30
0.0
 11
482.900086904001
 21
188.46310392025239
 31
0.0
  0
LINE
  5
30C8
  8
ｶｸﾚｾﾝ2
 10
476.9001169040011
 20
202.19525062682629
 30
0.0
 11
476.9001169040011
 21
190.1952356268265
 31
0.0
  0
LINE
  5
30C9
  8
ｶｸﾚｾﾝ2
 10
488.9001169040011
 20
202.19525062682629
 30
0.0
 11
488.9001169040011
 21
190.1952356268265
 31
0.0
  0
ARC
  5
30CA
  8
AM_0
 10
547.66740640400121
 20
265.19525362682759
 30
0.0
 40
80.00000000000108
 50
247.6683908037686
 51
292.33160919623111
  0
LINE
  5
30CB
  8
AM_0
 10
594.90011890400103
 20
191.1952346268265
 30
0.0
 11
500.9001169040011
 21
191.1952346268265
 31
0.0
  0
LINE
  5
30CC
  8
AM_0
 10
469.90010890400112
 20
190.1952356268265
 30
0.0
 11
499.90011790400109
 21
190.1952356268265
 31
0.0
  0
LINE
  5
30CD
  8
AM_0
 10
515.19244690400114
 20
193.77539062682641
 30
0.0
 11
520.52644690400098
 21
191.5659776268264
 31
0.0
  0
ARC
  5
30CE
  8
AM_0
 10
500.9001169040011
 20
190.1952356268265
 30
0.0
 40
1.0000000199999981
 50
90.000003000000945
 51
180.00001000000091
  0
ARC
  5
30CF
  8
AM_0
 10
501.90011590400138
 20
191.1952346268265
 30
0.0
 40
2.00000007
 50
90.000003000000945
 51
180.00001000000091
  0
LINE
  5
30D0
  8
AM_0
 10
505.90011790400081
 20
193.1952356268265
 30
0.0
 11
501.90011590400138
 21
193.1952356268265
 31
0.0
  0
LINE
  5
30D1
  8
AM_0
 10
520.52642890400114
 20
191.56599262682639
 30
0.0
 11
525.10685890400111
 21
195.08067262682641
 31
0.0
  0
LINE
  5
30D2
  8
AM_0
 10
570.69336190400111
 20
195.08065762682639
 30
0.0
 11
575.27379190400097
 21
191.5659776268264
 31
0.0
  0
LINE
  5
30D3
  8
AM_0
 10
575.27379190400097
 20
191.56600762682649
 30
0.0
 11
580.60782190400073
 21
193.77543562682641
 31
0.0
  0
LINE
  5
30D4
  8
AM_0
 10
593.90013490400122
 20
193.1952356268265
 30
0.0
 11
589.90012090400126
 21
193.1952356268265
 31
0.0
  0
ARC
  5
30D5
  8
AM_0
 10
594.90011890400103
 20
190.1952356268265
 30
0.0
 40
1.0000000199999981
 50
0.0
 51
90.000003000000945
  0
ARC
  5
30D6
  8
AM_0
 10
593.90013490400122
 20
191.1952346268265
 30
0.0
 40
2.00000007
 50
0.0
 51
90.000003000000945
  0
LINE
  5
30D7
  8
AM_0
 10
513.90011890400081
 20
207.19523662682639
 30
0.0
 11
581.90013490400122
 21
207.19523662682639
 31
0.0
  0
LINE
  5
30D8
  8
AM_0
 10
499.90011790400109
 20
270.19522162682642
 30
0.0
 11
499.90011790400109
 21
207.19523662682639
 31
0.0
  0
ARC
  5
30D9
  8
AM_0
 10
528.90010390400107
 20
239.1952376268263
 30
0.0
 40
34.000001999999988
 50
179.9999899999988
 51
211.46696999999941
  0
ARC
  5
30DA
  8
AM_0
 10
494.9001169040011
 20
207.19523662682639
 30
0.0
 40
5.0000001000000003
 50
270.0
 51
0.0
  0
ARC
  5
30DB
  8
AM_0
 10
497.9001169040011
 20
200.1952496268263
 30
0.0
 40
2.00000007
 50
0.0
 51
90.000003000000945
  0
LINE
  5
30DC
  8
AM_0
 10
497.9001169040011
 20
202.19525062682629
 30
0.0
 11
471.9001159040011
 21
202.19525062682629
 31
0.0
  0
ARC
  5
30DD
  8
AM_0
 10
471.9001159040011
 20
200.1952496268263
 30
0.0
 40
2.00000007
 50
90.000003000000945
 51
180.00001000000091
  0
LINE
  5
30DE
  8
AM_0
 10
519.01925890400116
 20
203.0142056268264
 30
0.0
 11
514.43881390400088
 21
199.49951062682641
 31
0.0
  0
ARC
  5
30DF
  8
AM_0
 10
513.90011890400081
 20
202.19525062682629
 30
0.0
 40
5.0000001000000003
 50
90.000003000000945
 51
180.00001000000091
  0
LINE
  5
30E0
  8
AM_0
 10
508.90011790400092
 20
202.19525062682629
 30
0.0
 11
508.90011790400092
 21
196.1952356268263
 31
0.0
  0
LINE
  5
30E1
  8
AM_0
 10
524.35328890400115
 20
200.8047626268264
 30
0.0
 11
519.01925890400116
 21
203.01419062682641
 31
0.0
  0
LINE
  5
30E2
  8
AM_0
 10
595.90012090400126
 20
270.19522162682642
 30
0.0
 11
595.90012090400126
 21
207.19523662682639
 31
0.0
  0
ARC
  5
30E3
  8
AM_0
 10
581.90013490400122
 20
202.19525062682629
 30
0.0
 40
5.0000001000000003
 50
0.0
 51
90.000003000000945
  0
LINE
  5
30E4
  8
AM_0
 10
576.7809949040012
 20
203.01422062682639
 30
0.0
 11
571.44696490400122
 21
200.8047926268265
 31
0.0
  0
LINE
  5
30E5
  8
AM_0
 10
581.36140690400123
 20
199.49951062682641
 30
0.0
 11
576.78097990400113
 21
203.01419062682641
 31
0.0
  0
LINE
  5
30E6
  8
AM_0
 10
586.90012090400126
 20
202.19525062682629
 30
0.0
 11
586.90012090400126
 21
196.1952356268263
 31
0.0
  0
ARC
  5
30E7
  8
AM_0
 10
597.90011890400103
 20
200.1952496268263
 30
0.0
 40
2.00000007
 50
90.000003000000945
 51
180.00001000000091
  0
LINE
  5
30E8
  8
AM_0
 10
625.90012090400126
 20
190.1952356268265
 30
0.0
 11
625.90012090400126
 21
202.19525062682629
 31
0.0
  0
LINE
  5
30E9
  8
ﾁｭｳｼﾝｾﾝ1
 10
612.90012190400114
 20
204.05026218738681
 30
0.0
 11
612.90012190400114
 21
188.46310392025239
 31
0.0
  0
LINE
  5
30EA
  8
ｶｸﾚｾﾝ2
 10
606.90012190400114
 20
202.19525062682629
 30
0.0
 11
606.90012190400114
 21
190.1952356268265
 31
0.0
  0
LINE
  5
30EB
  8
ｶｸﾚｾﾝ2
 10
618.90012190400114
 20
202.19525062682629
 30
0.0
 11
618.90012190400114
 21
190.1952356268265
 31
0.0
  0
ARC
  5
30EC
  8
AM_0
 10
623.90013490400122
 20
200.1952496268263
 30
0.0
 40
2.00000007
 50
0.0
 51
90.000003000000945
  0
ARC
  5
30ED
  8
AM_0
 10
547.66740640400076
 20
265.1952536268264
 30
0.0
 40
80.000000000000469
 50
42.290616499127893
 51
138.90566149709821
  0
ARC
  5
30EE
  8
AM_0
 10
547.90010290400085
 20
226.19525062682641
 30
0.0
 40
110.000004
 50
58.263836000000381
 51
121.7361699999997
  0
ARC
  5
30EF
  8
AM_0
 10
592.96736590400121
 20
321.03164662682627
 30
0.0
 40
5.0000001000000003
 50
334.93702999999948
 51
64.582444000001303
  0
ARC
  5
30F0
  8
AM_0
 10
610.17839590400115
 20
312.98297662682643
 30
0.0
 40
13.9999986
 50
154.93703999999951
 51
273.19937000000061
  0
LINE
  5
30F1
  8
AM_0
 10
361.9299152015368
 20
297.1952246268263
 30
0.0
 11
401.92996520153667
 21
297.1952246268263
 31
0.0
  0
LINE
  5
30F2
  8
AM_0
 10
369.9299552015367
 20
300.1952246268263
 30
0.0
 11
401.92996520153667
 21
300.1952246268263
 31
0.0
  0
LINE
  5
30F3
  8
AM_0
 10
359.92996520153667
 20
297.69522262682631
 30
0.0
 11
361.9299152015368
 21
297.69522262682631
 31
0.0
  0
LINE
  5
30F4
  8
AM_0
 10
369.9299552015367
 20
300.1952246268263
 30
0.0
 11
369.9299552015367
 21
297.1952246268263
 31
0.0
  0
LINE
  5
30F5
  8
AM_0
 10
357.92998520153679
 20
312.84992662682617
 30
0.0
 11
358.92997520153671
 21
312.27257662682632
 31
0.0
  0
ARC
  5
30F6
  8
AM_0
 10
358.92997520153671
 20
314.58200662682623
 30
0.0
 40
2.00000007
 50
179.9999899999988
 51
240.00000999999969
  0
ARC
  5
30F7
  8
AM_0
 10
357.92995520153659
 20
310.54052662682648
 30
0.0
 40
2.00000007
 50
0.0
 51
60.000002000001302
  0
ARC
  5
30F8
  8
AM_0
 10
353.92996520153667
 20
315.44624662682622
 30
0.0
 40
3.0
 50
0.0
 51
84.999996999998572
  0
LINE
  5
30F9
  8
ﾁｭｳｼﾝｾﾝ
 10
510.73153990400112
 20
285.19522162682631
 30
0.0
 11
583.59744790400111
 21
285.19522162682631
 31
0.0
  0
ARC
  5
30FA
  8
AM_0
 10
547.90010290400085
 20
265.1952536268264
 30
0.0
 40
71.000000999999983
 50
47.99935899999911
 51
132.00064999999921
  0
ARC
  5
30FB
  8
AM_0
 10
502.83285790400112
 20
321.03164662682627
 30
0.0
 40
5.0000001000000003
 50
115.4175600000008
 51
205.0629700000004
  0
ARC
  5
30FC
  8
AM_0
 10
485.62185790400082
 20
312.98297662682643
 30
0.0
 40
13.9999986
 50
266.80063999999902
 51
25.06296900000175
  0
ARC
  5
30FD
  8
AM_0
 10
484.56146290400068
 20
294.0125756268265
 30
0.0
 40
5.0000001000000003
 50
86.800638999999066
 51
174.01019000000011
  0
ARC
  5
30FE
  8
AM_0
 10
487.31198290400113
 20
296.06720062682632
 30
0.0
 40
3.0
 50
95.70573799999886
 51
152.9994200000007
  0
ARC
  5
30FF
  8
AM_0
 10
499.90011790400109
 20
300.44778562682632
 30
0.0
 40
5.0000001000000003
 50
138.71941000000001
 51
180.00001000000091
  0
ARC
  5
3100
  8
AM_0
 10
500.55932890400112
 20
302.73837562682638
 30
0.0
 40
20.000000700000001
 50
121.7361699999997
 51
174.01019000000011
  0
LINE
  5
3101
  8
AM_0
 10
494.16909790400109
 20
313.45388662682632
 30
0.0
 11
488.83508290400079
 21
315.66332662682652
 31
0.0
  0
CIRCLE
  5
3102
  8
AM_0
 10
489.5886559040008
 20
309.93920662682649
 30
0.0
 40
4.9999998000000003
  0
LINE
  5
3103
  8
AM_0
 10
488.83508290400079
 20
315.66332662682652
 30
0.0
 11
484.25467090400122
 21
312.14864662682652
 31
0.0
  0
LINE
  5
3104
  8
AM_0
 10
490.34225590400081
 20
304.21511962682632
 30
0.0
 11
494.92270090400109
 21
307.72982662682648
 31
0.0
  0
LINE
  5
3105
  8
AM_0
 10
484.25467090400122
 20
312.14864662682652
 30
0.0
 11
485.00824090400118
 21
306.42452662682632
 31
0.0
  0
LINE
  5
3106
  8
AM_0
 10
485.00824090400118
 20
306.42452662682632
 30
0.0
 11
490.34225590400081
 21
304.21511962682632
 31
0.0
  0
LINE
  5
3107
  8
AM_0
 10
494.92270090400109
 20
307.7297966268265
 30
0.0
 11
494.16909790400109
 21
313.45388662682632
 31
0.0
  0
ARC
  5
3108
  8
AM_0
 10
502.3986529040011
 20
315.72857662682651
 30
0.0
 40
3.0
 50
132.00064999999921
 51
189.2943400000016
  0
LINE
  5
3109
  8
AM_0
 10
543.90010390400118
 20
300.1952246268263
 30
0.0
 11
551.90008690400111
 21
300.1952246268263
 31
0.0
  0
LINE
  5
310A
  8
AM_0
 10
543.90010390400118
 20
293.19522262682631
 30
0.0
 11
551.90008690400111
 21
293.19522262682631
 31
0.0
  0
LINE
  5
310B
  8
AM_0
 10
543.90010390400118
 20
300.1952246268263
 30
0.0
 11
543.90010390400118
 21
293.19522262682631
 31
0.0
  0
LINE
  5
310C
  8
AM_0
 10
551.90008690400111
 20
300.1952246268263
 30
0.0
 11
551.90008690400111
 21
293.19522262682631
 31
0.0
  0
ARC
  5
310D
  8
AM_0
 10
593.40158590400085
 20
315.72857662682651
 30
0.0
 40
3.0
 50
350.70567000000091
 51
47.99935899999911
  0
ARC
  5
310E
  8
AM_0
 10
611.23879090400135
 20
294.0125756268265
 30
0.0
 40
5.0000001000000003
 50
5.9898155000000548
 51
93.199359000001024
  0
ARC
  5
310F
  8
AM_0
 10
595.90012090400126
 20
300.44778562682632
 30
0.0
 40
5.0000001000000003
 50
0.0
 51
41.280591000000527
  0
ARC
  5
3110
  8
AM_0
 10
608.48825590400111
 20
296.06720062682632
 30
0.0
 40
3.0
 50
27.0005730000006
 51
84.294260999999054
  0
ARC
  5
3111
  8
AM_0
 10
595.24089490400104
 20
302.73837562682638
 30
0.0
 40
20.000000700000001
 50
5.9898155000000548
 51
58.263836000000381
  0
LINE
  5
3112
  8
AM_0
 10
611.54561290400125
 20
312.14855662682618
 30
0.0
 11
606.96519790400123
 21
315.66323662682618
 31
0.0
  0
CIRCLE
  5
3113
  8
AM_0
 10
606.21159790400122
 20
309.9391466268263
 30
0.0
 40
4.9999998000000003
  0
LINE
  5
3114
  8
AM_0
 10
606.96519790400123
 20
315.66329662682648
 30
0.0
 11
601.63116790400125
 21
313.45385662682651
 31
0.0
  0
LINE
  5
3115
  8
AM_0
 10
605.45801290400095
 20
304.2150596268263
 30
0.0
 11
610.79204290400105
 21
306.42449662682651
 31
0.0
  0
LINE
  5
3116
  8
AM_0
 10
601.63116790400125
 20
313.4538266268263
 30
0.0
 11
600.87756790400124
 21
307.7297066268265
 31
0.0
  0
LINE
  5
3117
  8
AM_0
 10
600.87758290400086
 20
307.7297066268265
 30
0.0
 11
605.45801290400095
 21
304.21502962682638
 31
0.0
  0
LINE
  5
3118
  8
AM_0
 10
611.54558290400121
 20
312.14861662682631
 30
0.0
 11
610.79199790400116
 21
306.42452662682632
 31
0.0
  0
LINE
  5
3119
  8
0
  6
CONTINUOUS
 62
     7
 10
246.9299952015368
 20
556.88760963427694
 30
0.0
 11
246.9299952015368
 21
432.88760963427683
 31
0.0
  0
LINE
  5
311A
  8
0
 10
213.93000128121051
 20
574.88760963427694
 30
0.0
 11
213.93000128121051
 21
414.88760963427671
 31
0.0
  0
LINE
  5
311B
  8
0
 10
223.93000128121051
 20
572.88760963427694
 30
0.0
 11
223.93000128121051
 21
416.88760963427688
 31
0.0
  0
ARC
  5
311C
  8
0
 10
221.93000128121051
 20
416.88760963427688
 30
0.0
 40
2.0
 50
270.0
 51
0.0
1001
GENIUS_GENODEF_13
1002
{
1000
HIER
1070
     0
1002
}
1002
{
1000
MANEDIT
1070
     0
1002
}
1002
{
1000
NOSEL
1070
     0
1002
}
1002
{
1000
BEHIND
1070
     0
1002
}
1002
{
1000
OTHER
1070
     0
1002
}
1002
{
1000
REACTOR
1002
}
1001
GENIUS_GENOBJ-N-FIL_13
1002
{
1000
OWNER
1000
GEN
1002
}
  0
LINE
  5
311D
  8
0
 10
213.93000128121051
 20
414.88760963427671
 30
0.0
 11
221.93000128121051
 21
414.88760963427671
 31
0.0
  0
ARC
  5
311E
  8
0
 10
228.93000128121051
 20
431.88760963427683
 30
0.0
 40
5.0
 50
90.0
 51
180.0
1001
GENIUS_GENOBJ-N-FIL_13
1002
{
1000
OWNER
1000
GEN
1002
}
1001
GENIUS_GENODEF_13
1002
{
1000
HIER
1070
     0
1002
}
1002
{
1000
MANEDIT
1070
     0
1002
}
1002
{
1000
NOSEL
1070
     0
1002
}
1002
{
1000
BEHIND
1070
     0
1002
}
1002
{
1000
OTHER
1070
     0
1002
}
1002
{
1000
REACTOR
1002
}
  0
LINE
  5
311F
  8
0
 10
244.9299952015368
 20
436.88760963427683
 30
0.0
 11
228.93000128121051
 21
436.88760963427683
 31
0.0
  0
LINE
  5
3120
  8
0
 10
257.92999520153683
 20
430.88760963427688
 30
0.0
 11
248.9299952015368
 21
430.88760963427688
 31
0.0
  0
ARC
  5
3121
  8
0
 10
248.9299952015368
 20
432.88760963427683
 30
0.0
 40
2.0
 50
180.0
 51
270.0
1001
GENIUS_GENODEF_13
1002
{
1000
HIER
1070
     0
1002
}
1002
{
1000
MANEDIT
1070
     0
1002
}
1002
{
1000
NOSEL
1070
     0
1002
}
1002
{
1000
BEHIND
1070
     0
1002
}
1002
{
1000
OTHER
1070
     0
1002
}
1002
{
1000
REACTOR
1002
}
1001
GENIUS_GENOBJ-N-FIL_13
1002
{
1000
OWNER
1000
GEN
1002
}
  0
ARC
  5
3122
  8
0
 10
244.9299952015368
 20
434.88760963427688
 30
0.0
 40
2.0
 50
0.0
 51
90.0
1001
GENIUS_GENODEF_13
1002
{
1000
HIER
1070
     0
1002
}
1002
{
1000
MANEDIT
1070
     0
1002
}
1002
{
1000
NOSEL
1070
     0
1002
}
1002
{
1000
BEHIND
1070
     0
1002
}
1002
{
1000
OTHER
1070
     0
1002
}
1002
{
1000
REACTOR
1002
}
1001
GENIUS_GENOBJ-N-FIL_13
1002
{
1000
OWNER
1000
GEN
1002
}
  0
LINE
  5
3123
  8
AM_0
 10
257.92999520153683
 20
443.3875531342768
 30
0.0
 11
246.9299952015368
 21
443.3875531342768
 31
0.0
  0
LINE
  5
3124
  8
AM_0
 10
257.92999520153683
 20
457.7396341342768
 30
0.0
 11
246.9299952015368
 21
457.7396341342768
 31
0.0
  0
ARC
  5
3125
  8
0
 10
228.93000128121051
 20
557.88760963427694
 30
0.0
 40
5.0
 50
180.0
 51
270.0
1001
GENIUS_GENOBJ-N-FIL_13
1002
{
1000
OWNER
1000
GEN
1002
}
1001
GENIUS_GENODEF_13
1002
{
1000
HIER
1070
     0
1002
}
1002
{
1000
MANEDIT
1070
     0
1002
}
1002
{
1000
NOSEL
1070
     0
1002
}
1002
{
1000
BEHIND
1070
     0
1002
}
1002
{
1000
OTHER
1070
     0
1002
}
1002
{
1000
REACTOR
1002
}
  0
LINE
  5
3126
  8
0
 10
213.93000128121051
 20
574.88760963427694
 30
0.0
 11
221.93000128121051
 21
574.88760963427694
 31
0.0
  0
ARC
  5
3127
  8
0
 10
221.93000128121051
 20
572.88760963427694
 30
0.0
 40
2.0
 50
0.0
 51
90.0
1001
GENIUS_GENODEF_13
1002
{
1000
HIER
1070
     0
1002
}
1002
{
1000
MANEDIT
1070
     0
1002
}
1002
{
1000
NOSEL
1070
     0
1002
}
1002
{
1000
BEHIND
1070
     0
1002
}
1002
{
1000
OTHER
1070
     0
1002
}
1002
{
1000
REACTOR
1002
}
1001
GENIUS_GENOBJ-N-FIL_13
1002
{
1000
OWNER
1000
GEN
1002
}
  0
LINE
  5
3128
  8
AM_0
 10
257.92999520153683
 20
532.03548913427665
 30
0.0
 11
246.9299952015368
 21
532.03548913427665
 31
0.0
  0
LINE
  5
3129
  8
0
 10
244.9299952015368
 20
552.88760963427694
 30
0.0
 11
228.93000128121051
 21
552.88760963427694
 31
0.0
  0
LINE
  5
312A
  8
AM_0
 10
257.92999520153683
 20
546.38757913427685
 30
0.0
 11
246.9299952015368
 21
546.38757913427685
 31
0.0
  0
LINE
  5
312B
  8
0
 10
257.92999520153683
 20
558.88760963427694
 30
0.0
 11
248.9299952015368
 21
558.88760963427694
 31
0.0
  0
ARC
  5
312C
  8
0
 10
248.9299952015368
 20
556.88760963427694
 30
0.0
 40
2.0
 50
90.0
 51
180.0
1001
GENIUS_GENODEF_13
1002
{
1000
HIER
1070
     0
1002
}
1002
{
1000
MANEDIT
1070
     0
1002
}
1002
{
1000
NOSEL
1070
     0
1002
}
1002
{
1000
BEHIND
1070
     0
1002
}
1002
{
1000
OTHER
1070
     0
1002
}
1002
{
1000
REACTOR
1002
}
1001
GENIUS_GENOBJ-N-FIL_13
1002
{
1000
OWNER
1000
GEN
1002
}
  0
ARC
  5
312D
  8
0
 10
244.9299952015368
 20
554.88760963427694
 30
0.0
 40
2.0
 50
270.0
 51
0.0
1001
GENIUS_GENODEF_13
1002
{
1000
HIER
1070
     0
1002
}
1002
{
1000
MANEDIT
1070
     0
1002
}
1002
{
1000
NOSEL
1070
     0
1002
}
1002
{
1000
BEHIND
1070
     0
1002
}
1002
{
1000
OTHER
1070
     0
1002
}
1002
{
1000
REACTOR
1002
}
1001
GENIUS_GENOBJ-N-FIL_13
1002
{
1000
OWNER
1000
GEN
1002
}
  0
TEXT
  5
330E
  8
AM_0
 10
453.59837650400209
 20
518.8627552660522
 30
0.0
 40
10.0
  1
VX04-015A~VX04-030A
  0
ENDSEC
  0
EOF
