  0
SECTION
  2
HEADER
  9
$ACADVER
  1
AC1009
  9
$INSBASE
 10
0.0
 20
0.0
 30
0.0
  9
$EXTMIN
 10
204.89678414712739
 20
173.78015139113239
 30
-0.0000000349181948
  9
$EXTMAX
 10
648.99392112169153
 20
567.09759223782271
 30
0.0000000814935747
  9
$LIMMIN
 10
0.0
 20
0.0
  9
$LIMMAX
 10
853.5
 20
555.00000000000011
  9
$ORTHOMODE
 70
     0
  9
$REGENMODE
 70
     1
  9
$FILLMODE
 70
     1
  9
$QTEXTMODE
 70
     0
  9
$MIRRTEXT
 70
     1
  9
$DRAGMODE
 70
     2
  9
$LTSCALE
 40
3.0
  9
$OSMODE
 70
   551
  9
$ATTMODE
 70
     1
  9
$TEXTSIZE
 40
2.5
  9
$TRACEWID
 40
1.0
  9
$TEXTSTYLE
  7
STANDARD
  9
$CLAYER
  8
AM_0
  9
$CELTYPE
  6
BYLAYER
  9
$CECOLOR
 62
   256
  9
$DIMSCALE
 40
1.0
  9
$DIMASZ
 40
2.5
  9
$DIMEXO
 40
1.0
  9
$DIMDLI
 40
8.0
  9
$DIMRND
 40
0.0
  9
$DIMDLE
 40
0.0
  9
$DIMEXE
 40
0.6
  9
$DIMTP
 40
0.1
  9
$DIMTM
 40
0.1
  9
$DIMTXT
 40
2.5
  9
$DIMCEN
 40
0.0
  9
$DIMTSZ
 40
0.0
  9
$DIMTOL
 70
     0
  9
$DIMLIM
 70
     0
  9
$DIMTIH
 70
     0
  9
$DIMTOH
 70
     0
  9
$DIMSE1
 70
     0
  9
$DIMSE2
 70
     0
  9
$DIMTAD
 70
     1
  9
$DIMZIN
 70
     8
  9
$DIMBLK
  1

  9
$DIMASO
 70
     1
  9
$DIMSHO
 70
     1
  9
$DIMPOST
  1

  9
$DIMAPOST
  1
"
  9
$DIMALT
 70
     0
  9
$DIMALTD
 70
     2
  9
$DIMALTF
 40
0.0393701
  9
$DIMLFAC
 40
1.0
  9
$DIMTOFL
 70
     1
  9
$DIMTVP
 40
0.0
  9
$DIMTIX
 70
     0
  9
$DIMSOXD
 70
     0
  9
$DIMSAH
 70
     0
  9
$DIMBLK1
  1

  9
$DIMBLK2
  1

  9
$DIMSTYLE
  2
AM_ISO
  9
$DIMCLRD
 70
   256
  9
$DIMCLRE
 70
   256
  9
$DIMCLRT
 70
     4
  9
$DIMTFAC
 40
0.71
  9
$DIMGAP
 40
0.8
  9
$LUNITS
 70
     2
  9
$LUPREC
 70
     2
  9
$SKETCHINC
 40
1.0
  9
$FILLETRAD
 40
15.0
  9
$AUNITS
 70
     0
  9
$AUPREC
 70
     0
  9
$MENU
  1
.
  9
$ELEVATION
 40
0.0
  9
$PELEVATION
 40
0.0
  9
$THICKNESS
 40
0.0
  9
$LIMCHECK
 70
     0
  9
$BLIPMODE
 70
     0
  9
$CHAMFERA
 40
6.0
  9
$CHAMFERB
 40
3.0
  9
$SKPOLY
 70
     0
  9
$TDCREATE
 40
2452066.3775750468
  9
$TDUPDATE
 40
2458541.4684523488
  9
$TDINDWG
 40
0.1159033681
  9
$TDUSRTIMER
 40
0.1159033449
  9
$USRTIMER
 70
     1
  9
$ANGBASE
 50
0.0
  9
$ANGDIR
 70
     0
  9
$PDMODE
 70
     0
  9
$PDSIZE
 40
0.0
  9
$PLINEWID
 40
0.0
  9
$COORDS
 70
     1
  9
$SPLFRAME
 70
     0
  9
$SPLINETYPE
 70
     6
  9
$SPLINESEGS
 70
     8
  9
$ATTDIA
 70
     1
  9
$ATTREQ
 70
     1
  9
$HANDLING
 70
     1
  9
$HANDSEED
  5
3BC2
  9
$SURFTAB1
 70
     6
  9
$SURFTAB2
 70
     6
  9
$SURFTYPE
 70
     6
  9
$SURFU
 70
     6
  9
$SURFV
 70
     6
  9
$UCSNAME
  2

  9
$UCSORG
 10
0.0
 20
0.0
 30
0.0
  9
$UCSXDIR
 10
1.0
 20
0.0
 30
0.0
  9
$UCSYDIR
 10
0.0
 20
1.0
 30
0.0
  9
$PUCSNAME
  2

  9
$PUCSORG
 10
0.0
 20
0.0
 30
0.0
  9
$PUCSXDIR
 10
1.0
 20
0.0
 30
0.0
  9
$PUCSYDIR
 10
0.0
 20
1.0
 30
0.0
  9
$USERI1
 70
     0
  9
$USERI2
 70
     0
  9
$USERI3
 70
     0
  9
$USERI4
 70
     0
  9
$USERI5
 70
     0
  9
$USERR1
 40
0.0
  9
$USERR2
 40
0.0
  9
$USERR3
 40
0.0
  9
$USERR4
 40
0.0
  9
$USERR5
 40
0.0
  9
$WORLDVIEW
 70
     1
  9
$SHADEDGE
 70
     3
  9
$SHADEDIF
 70
    70
  9
$TILEMODE
 70
     1
  9
$MAXACTVP
 70
    64
  9
$PLIMCHECK
 70
     0
  9
$PEXTMIN
 10
1.0000000000000000E+020
 20
1.0000000000000000E+020
 30
1.0000000000000000E+020
  9
$PEXTMAX
 10
-1.0000000000000000E+020
 20
-1.0000000000000000E+020
 30
-1.0000000000000000E+020
  9
$PLIMMIN
 10
0.0
 20
0.0
  9
$PLIMMAX
 10
420.0
 20
297.0
  9
$UNITMODE
 70
     0
  9
$VISRETAIN
 70
     1
  9
$PLINEGEN
 70
     0
  9
$PSLTSCALE
 70
     1
  0
ENDSEC
  0
SECTION
  2
TABLES
  0
TABLE
  2
VPORT
 70
     1
  0
VPORT
  2
*ACTIVE
 70
     0
 10
0.0
 20
0.0
 11
1.0
 21
1.0
 12
426.9453526344094
 22
370.43887181447758
 13
0.0
 23
0.0
 14
7.5
 24
7.5
 15
30.0
 25
30.0
 16
0.0
 26
0.0
 36
1.0
 17
0.0
 27
0.0
 37
0.0
 40
396.01756057790323
 41
1.7571592210767459
 42
50.0
 43
0.0
 44
0.0
 50
0.0
 51
0.0
 71
     0
 72
   100
 73
     1
 74
     3
 75
     0
 76
     0
 77
     0
 78
     0
  0
ENDTAB
  0
TABLE
  2
LTYPE
 70
    27
  0
LTYPE
  2
CONTINUOUS
 70
     0
  3
Solid line
 72
    65
 73
     0
 40
0.0
  0
LTYPE
  2
AM_ISO02W050
 70
     0
  3
__ __ __ __ __ __ __ __ __ __ __ __ __ __ __
 72
    65
 73
     2
 40
7.5
 49
6.0
 49
-1.5
  0
LTYPE
  2
AM_ISO08W050
 70
     0
  3
____ . ____ . ____ . ____ . ____ . ____ . ____
 72
    65
 73
     4
 40
18.0
 49
12.0
 49
-1.5
 49
3.0
 49
-1.5
  0
LTYPE
  2
AM_ISO09W050
 70
     0
  3
_____ . . _____ . . _____ . . ____ .. ____
 72
    65
 73
     6
 40
22.5
 49
12.0
 49
-1.5
 49
3.0
 49
-1.5
 49
3.0
 49
-1.5
  0
LTYPE
  2
AMCONSTR
 70
     0
  3
_______________________
 72
    65
 73
     2
 40
9999.0
 49
9999.0
 49
0.0
  0
LTYPE
  2
AM_ISO08W050X2
 70
     0
  3
__ . __ . __ . __ . __ . __
 72
    65
 73
     4
 40
9.0
 49
6.0
 49
-0.75
 49
1.5
 49
-0.75
  0
LTYPE
  2
AM_ISO02W050X2
 70
     0
  3
 _ _ _ _ _ _ _ _ _ _ _ _
 72
    65
 73
     2
 40
3.75
 49
3.0
 49
-0.75
  0
LTYPE
  2
AMZIGZAG
 70
     0
  3
/\/-/\/-/\/-/\/-/\/-/\/
 72
    65
 73
     2
 40
11.000099999999991
 49
0.0001
 49
-11.0
  0
LTYPE
  2
ACISOWELD
 70
     0
  3
_ _ _ _ _
 72
    65
 73
     2
 40
2.0
 49
2.0
 49
-1.0
  0
LTYPE
  2
ACISOTGB
 70
     0
  3
__ . . __ . .
 72
    65
 73
     6
 40
9.0
 49
4.0
 49
-1.0
 49
1.0
 49
-1.0
 49
1.0
 49
-1.0
  0
LTYPE
  2
ACISOTGL
 70
     0
  3
_ _ _ _ _
 72
    65
 73
     2
 40
3.0
 49
2.0
 49
-1.0
  0
LTYPE
  2
CENTER
 70
     0
  3
__ . __
 72
    65
 73
     4
 40
7.0
 49
4.0
 49
-1.0
 49
1.0
 49
-1.0
  0
LTYPE
  2
PHANTOM2
 70
     0
  3
Phantom (.5x) ___ _ _ ___ _ _ ___ _ _ ___ _ _
 72
    65
 73
     6
 40
31.75
 49
15.875
 49
-3.174999999999998
 49
3.174999999999998
 49
-3.174999999999998
 49
3.174999999999998
 49
-3.174999999999998
  0
LTYPE
  2
ACANSTGBM
 70
     0
  3
__ . . __ . .
 72
    65
 73
     6
 40
9.0
 49
4.0
 49
-1.0
 49
1.0
 49
-1.0
 49
1.0
 49
-1.0
  0
LTYPE
  2
ACANSTGLM
 70
     0
  3
_ _ _ _ _
 72
    65
 73
     2
 40
3.0
 49
2.0
 49
-1.0
  0
LTYPE
  2
GEN7
 70
     0
  3
____ . ____ . ____ . ____ . ____ . ____ . ____
 72
    65
 73
     4
 40
14.25
 49
9.75
 49
-1.5
 49
1.5
 49
-1.5
  0
LTYPE
  2
GEN3B
 70
     0
  3
 - - - - -
 72
    65
 73
     2
 40
1.0
 49
0.5
 49
-0.5
  0
LTYPE
  2
GEN7A
 70
     0
  3
__ . __ . __
 72
    65
 73
     4
 40
7.375
 49
4.75
 49
-0.875
 49
0.875
 49
-0.875
  0
LTYPE
  2
ACJISTGB
 70
     0
  3
__ . . __ . .
 72
    65
 73
     6
 40
9.0
 49
4.0
 49
-1.0
 49
1.0
 49
-1.0
 49
1.0
 49
-1.0
  0
LTYPE
  2
ACJISTGL
 70
     0
  3
_ _ _ _ _
 72
    65
 73
     2
 40
3.0
 49
2.0
 49
-1.0
  0
LTYPE
  2
HIDDEN
 70
     0
  3
Hidden __ __ __ __ __ __ __ __ __ __ __ __ __ _
 72
    65
 73
     2
 40
0.375
 49
0.25
 49
-0.125
  0
LTYPE
  2
CENTER2
 70
     0
  3
Center (.5x) ___ _ ___ _ ___ _ ___ _ ___ _ ___
 72
    65
 73
     4
 40
1.125
 49
0.75
 49
-0.125
 49
0.125
 49
-0.125
  0
LTYPE
  2
HIDDEN2
 70
     0
  3
Hidden (.5x) _ _ _ _ _ _ _ _ _ _ _ _ _ _ _ _ _
 72
    65
 73
     2
 40
0.1875
 49
0.125
 49
-0.0625
  0
LTYPE
  2
AMZIGZAG2
 70
     0
  3
/\/-/\/-/\/-/\/-/\/-/\/
 72
    65
 73
     2
 40
0.4401
 49
0.0001
 49
-0.4400000000000002
  0
LTYPE
  2
ACANSTGB
 70
     0
  3
__ . . __ . .
 72
    65
 73
     6
 40
0.35433070866
 49
0.15748031496
 49
-0.03937007874
 49
0.03937007874
 49
-0.03937007874
 49
0.03937007874
 49
-0.03937007874
  0
LTYPE
  2
ACANSTGL
 70
     0
  3
_ _ _ _ _
 72
    65
 73
     2
 40
0.11811023622
 49
0.07874015748
 49
-0.03937007874
  0
ENDTAB
  0
TABLE
  2
LAYER
 70
     7
  0
LAYER
  2
0
 70
     0
 62
     7
  6
CONTINUOUS
  0
LAYER
  2
AM_0
 70
     0
 62
     7
  6
CONTINUOUS
  0
LAYER
  2
AM_5
 70
     0
 62
     2
  6
CONTINUOUS
  0
LAYER
  2
DEFPOINTS
 70
     0
 62
     7
  6
CONTINUOUS
  0
LAYER
  2
ｶｸﾚｾﾝ2
 70
     0
 62
     3
  6
GEN3B
  0
LAYER
  2
ﾁｭｳｼﾝｾﾝ
 70
     0
 62
     1
  6
GEN7
  0
LAYER
  2
ﾁｭｳｼﾝｾﾝ1
 70
     0
 62
     1
  6
GEN7A
  0
ENDTAB
  0
TABLE
  2
STYLE
 70
     9
  0
STYLE
  2
STANDARD
 70
     0
 40
0.0
 41
0.8299999999999999
 50
0.0
 71
     0
 42
2.5
  3
txt.shx
  4
bigfont.shx
  0
STYLE
  2
ANNOTATIVE
 70
     0
 40
0.0
 41
1.0
 50
0.0
 71
     0
 42
0.2
  3
txt
  4

  0
STYLE
  2

 70
     1
 40
0.0
 41
1.0
 50
0.0
 71
     0
 42
2.5
  3
ltypeshp.shx
  4

  0
STYLE
  2
ACISOTS
 70
     0
 40
1.0
 41
1.0
 50
0.0
 71
     0
 42
2.5
  3
isocp.shx
  4
extfont.shx
  0
STYLE
  2
ACISOGDT
 70
     0
 40
0.0
 41
1.0
 50
0.0
 71
     0
 42
2.5
  3
amgdt.shx
  4

  0
STYLE
  2
ACANSTS
 70
     0
 40
1.0
 41
1.0
 50
0.0
 71
     0
 42
2.5
  3
romans.shx
  4
bigfont.shx
  0
STYLE
  2
ACANSGDT
 70
     0
 40
0.0
 41
1.0
 50
0.0
 71
     0
 42
2.5
  3
amgdt.shx
  4

  0
STYLE
  2
ACJISTS
 70
     0
 40
1.0
 41
1.0
 50
0.0
 71
     0
 42
2.5
  3
isocp.shx
  4
bigfont.shx
  0
STYLE
  2
ACJISGDT
 70
     0
 40
0.0
 41
1.0
 50
0.0
 71
     0
 42
2.5
  3
amgdt.shx
  4

  0
ENDTAB
  0
TABLE
  2
VIEW
 70
     6
  0
VIEW
  2
AM_VIEW1
 70
     0
 40
277.49999999999989
 10
249.64779005524849
 20
416.24999999999989
 41
499.2955801104971
 11
0.0
 21
0.0
 31
1.0
 12
0.0
 22
0.0
 32
0.0
 42
50.0
 43
0.0
 44
0.0
 50
0.0
 71
     0
  0
VIEW
  2
AM_VIEW2
 70
     0
 40
277.49999999999989
 10
603.85220994475117
 20
416.24999999999989
 41
499.2955801104971
 11
0.0
 21
0.0
 31
1.0
 12
0.0
 22
0.0
 32
0.0
 42
50.0
 43
0.0
 44
0.0
 50
0.0
 71
     0
  0
VIEW
  2
AM_VIEW3
 70
     0
 40
277.49999999999989
 10
249.64779005524849
 20
138.7499999999998
 41
499.2955801104971
 11
0.0
 21
0.0
 31
1.0
 12
0.0
 22
0.0
 32
0.0
 42
50.0
 43
0.0
 44
0.0
 50
0.0
 71
     0
  0
VIEW
  2
AM_VIEW4
 70
     0
 40
277.49999999999989
 10
603.85220994475117
 20
138.7499999999998
 41
499.2955801104971
 11
0.0
 21
0.0
 31
1.0
 12
0.0
 22
0.0
 32
0.0
 42
50.0
 43
0.0
 44
0.0
 50
0.0
 71
     0
  0
VIEW
  2
AM_VIEW5
 70
     0
 40
277.5
 10
426.75
 20
277.49999999999989
 41
499.2955801104971
 11
0.0
 21
0.0
 31
1.0
 12
0.0
 22
0.0
 32
0.0
 42
50.0
 43
0.0
 44
0.0
 50
0.0
 71
     0
  0
VIEW
  2
AM_VIEW6
 70
     0
 40
554.99445000000014
 10
426.75
 20
277.49999999999989
 41
998.5811743093924
 11
0.0
 21
0.0
 31
1.0
 12
0.0
 22
0.0
 32
0.0
 42
50.0
 43
0.0
 44
0.0
 50
0.0
 71
     0
  0
ENDTAB
  0
TABLE
  2
UCS
 70
     0
  0
ENDTAB
  0
TABLE
  2
APPID
 70
    95
  0
APPID
  2
ACAD
 70
     0
  0
APPID
  2
ACADANNOTATIVE
 70
     0
  0
APPID
  2
MCAD_NO_VIS
 70
     0
  0
APPID
  2
ACAD_TEMP_GRAPHIC
 70
     0
  0
APPID
  2
ACATTRIBSERVICES
 70
     0
  0
APPID
  2
GENIUS_GENREC_14
 70
     0
  0
APPID
  2
GENIUS_GENOBJ-N-REC_13
 70
     0
  0
APPID
  2
GENIUS_GENODEF_13
 70
     0
  0
APPID
  2
GENIUS_GENOLIS_13
 70
     0
  0
APPID
  2
GENIUS_GENOBJ-N-TIT_13
 70
     0
  0
APPID
  2
GENIUS_GENOENT_13
 70
     0
  0
APPID
  2
GENIUS_GENTITLE_13
 70
     0
  0
APPID
  2
GENIUS_GENOREF_13
 70
     0
  0
APPID
  2
GENIUS_GENSCREG_15
 70
     0
  0
APPID
  2
GENIUS_GENOBJ-N-SDF_13
 70
     0
  0
APPID
  2
GENIUS_GENFIL_13
 70
     0
  0
APPID
  2
GENIUS_GENOBJ-N-CHA_13
 70
     0
  0
APPID
  2
GENIUS_GENDTOL_13
 70
     0
  0
APPID
  2
GENIUS_GENOBJ-N-FIL_13
 70
     0
  0
APPID
  2
AD_DRAW
 70
     0
  0
APPID
  2
DESIGNERASSEMBLIES
 70
     0
  0
APPID
  2
ASURF_PCURVE_APPNAME
 70
     0
  0
APPID
  2
GENIUS_GE3SECT_13
 70
     0
  0
APPID
  2
GENIUS_GENCFG_13
 70
     0
  0
APPID
  2
GENIUS_GE3CFG0_13
 70
     0
  0
APPID
  2
GENIUS_GENCFG0_13
 70
     0
  0
APPID
  2
GENIUS_GENCFG1_13
 70
     0
  0
APPID
  2
GENIUS_GENCFG2_13
 70
     0
  0
APPID
  2
GENIUS_GENCFG3_13
 70
     0
  0
APPID
  2
GENIUS_GENCFG4_13
 70
     0
  0
APPID
  2
GENIUS_GEVCFG0_13
 70
     0
  0
APPID
  2
GENIUS_GENHINW_13
 70
     0
  0
APPID
  2
GENIUS_FIRSTVISTXT_14
 70
     0
  0
APPID
  2
GENIUS_GENOBJ-N-LEADER_13
 70
     0
  0
APPID
  2
GEV_VCCNULL_SWITCH_OFF
 70
     0
  0
APPID
  2
GENIUS_GEFCFG0_13
 70
     0
  0
APPID
  2
GENIUS_GENZVEED_13
 70
     0
  0
APPID
  2
GENIUS_GENSCREG_13
 70
     0
  0
APPID
  2
GENIUS_DUMCFG0_13
 70
     0
  0
APPID
  2
GEVID936201362
 70
     0
  0
APPID
  2
GEVDC
 70
     0
  0
APPID
  2
GEVCON
 70
     0
  0
APPID
  2
VCC
 70
     0
  0
APPID
  2
GEVPT
 70
     0
  0
APPID
  2
GEVIT
 70
     0
  0
APPID
  2
GENBH
 70
     0
  0
APPID
  2
GEVMK
 70
     0
  0
APPID
  2
GENIUS_GENBH_13
 70
     0
  0
APPID
  2
GENIUS_GENOBJ-NBEHI-BHF_13
 70
     0
  0
APPID
  2
GENIUS_GENOBJ-NBEHI-BHB_13
 70
     0
  0
APPID
  2
GENIUS_GENOBJ-F-DESC_13
 70
     0
  0
APPID
  2
GENIUS_GEFDESC_14
 70
     0
  0
APPID
  2
GENIUS_GENOBJ-F-PART_13
 70
     0
  0
APPID
  2
GENIUS_GEFSTDP_13
 70
     0
  0
APPID
  2
GENIUS_GEFPARTINS_13
 70
     0
  0
APPID
  2
GENIUS_GENTRA_14
 70
     0
  0
APPID
  2
GENIUS_GENINF13_13
 70
     0
  0
APPID
  2
GENIUS_GENOBJ-N-INFOPT_13
 70
     0
  0
APPID
  2
GENIUS_GENOBJ-N-RSSYM_13
 70
     0
  0
APPID
  2
GENIUS_GENSYMENT_13
 70
     0
  0
APPID
  2
GENIUS_GENSCSYM_13
 70
     0
  0
APPID
  2
GENIUS_GEFINFNAM_13
 70
     0
  0
APPID
  2
GENIUS_GENOBJ-N-CEN_13
 70
     0
  0
APPID
  2
GENIUS_GENOBJ-N-CRS_13
 70
     0
  0
APPID
  2
GENIUS_GENOBJ-N-CRC_13
 70
     0
  0
APPID
  2
GENIUS_GENCRC_14
 70
     0
  0
APPID
  2
GEVID942827039
 70
     0
  0
APPID
  2
GEVID942827040
 70
     0
  0
APPID
  2
GEVID942827041
 70
     0
  0
APPID
  2
GENIUS_GENOBJ-F-SCPASSM_13
 70
     0
  0
APPID
  2
GENIUS_GENDIMSH_14
 70
     0
  0
APPID
  2
GEVID942827042
 70
     0
  0
APPID
  2
GEVID946020473
 70
     0
  0
APPID
  2
GEVID946020474
 70
     0
  0
APPID
  2
GEVID946020475
 70
     0
  0
APPID
  2
GENIUS_GENOBJ-N-HTC_13
 70
     0
  0
APPID
  2
GENIUS_GENHATCH_13
 70
     0
  0
APPID
  2
GEVID948854295
 70
     0
  0
APPID
  2
GEVID939402019
 70
     0
  0
APPID
  2
GEVID952919491
 70
     0
  0
APPID
  2
GEVID952919492
 70
     0
  0
APPID
  2
GENIUS_GEFWELD_13
 70
     0
  0
APPID
  2
GENIUS_GENOBJ-F-WELS_13
 70
     0
  0
APPID
  2
GEVID952919493
 70
     0
  0
APPID
  2
GENIUS_GENOBJ-N-RSBK_13
 70
     0
  0
APPID
  2
GENIUS_GENOBJ-N-LIB_13
 70
     0
  0
APPID
  2
GENIUS_GENSCALE_13
 70
     0
  0
APPID
  2
GEVID986376691
 70
     0
  0
APPID
  2
DCO15
 70
     0
  0
APPID
  2
ACAD_DSTYLE_DIMBREAK
 70
     0
  0
APPID
  2
ACAD_DSTYLE_DIMJAG
 70
     0
  0
APPID
  2
ACAD_NAV_VCDISPLAY
 70
     0
  0
APPID
  2
ACADANNOPO
 70
     0
  0
APPID
  2
ACAD_EXEMPT_FROM_CAD_STANDARDS
 70
     0
  0
APPID
  2
ACAD_MLEADERVER
 70
     0
  0
ENDTAB
  0
TABLE
  2
DIMSTYLE
 70
    22
  0
DIMSTYLE
  2
STANDARD
 70
     0
  3

  4

  5

  6

  7

 40
1.0
 41
0.18
 42
0.0625
 43
0.38
 44
0.18
 45
0.0
 46
0.0
 47
0.0
 48
0.0
140
0.18
141
0.09
142
0.0
143
25.399999999999999
144
1.0
145
0.0
146
1.0
147
0.09
 71
     0
 72
     0
 73
     1
 74
     1
 75
     0
 76
     0
 77
     0
 78
     0
170
     0
171
     2
172
     0
173
     0
174
     0
175
     0
176
     0
177
     0
178
     0
  0
DIMSTYLE
  2
ANNOTATIVE
 70
     0
  3

  4

  5

  6

  7

 40
1.0
 41
0.18
 42
0.0625
 43
0.38
 44
0.18
 45
0.0
 46
0.0
 47
0.0
 48
0.0
140
0.18
141
0.09
142
0.0
143
25.399999999999999
144
1.0
145
0.0
146
1.0
147
0.09
 71
     0
 72
     0
 73
     1
 74
     1
 75
     0
 76
     0
 77
     0
 78
     0
170
     0
171
     2
172
     0
173
     0
174
     0
175
     0
176
     0
177
     0
178
     0
  0
DIMSTYLE
  2
AM_ISO
 70
     0
  3

  4
"
  5

  6

  7

 40
1.0
 41
2.5
 42
1.0
 43
8.0
 44
0.6
 45
0.0
 46
0.0
 47
0.1
 48
0.1
140
2.5
141
0.0
142
0.0
143
0.0393701
144
1.0
145
0.0
146
0.71
147
0.8
 71
     0
 72
     0
 73
     0
 74
     0
 75
     0
 76
     0
 77
     1
 78
     8
170
     0
171
     2
172
     1
173
     0
174
     0
175
     0
176
   256
177
   256
178
     4
  0
DIMSTYLE
  2
AM_ISO$3
 70
     0
  3

  4
"
  5

  6

  7

 40
1.0
 41
2.5
 42
1.0
 43
8.0
 44
0.6
 45
0.0
 46
0.0
 47
0.1
 48
0.1
140
2.5
141
0.0
142
0.0
143
0.0393701
144
1.0
145
0.0
146
0.71
147
0.8
 71
     0
 72
     0
 73
     0
 74
     1
 75
     0
 76
     0
 77
     1
 78
     8
170
     0
171
     2
172
     0
173
     0
174
     0
175
     0
176
   256
177
   256
178
     4
  0
DIMSTYLE
  2
AM_ISO$4
 70
     0
  3

  4
"
  5

  6

  7

 40
1.0
 41
2.5
 42
1.0
 43
8.0
 44
0.6
 45
0.0
 46
0.0
 47
0.1
 48
0.1
140
2.5
141
0.0
142
0.0
143
0.0393701
144
1.0
145
0.0
146
0.71
147
0.8
 71
     0
 72
     0
 73
     0
 74
     1
 75
     0
 76
     0
 77
     1
 78
     8
170
     0
171
     2
172
     0
173
     0
174
     0
175
     0
176
   256
177
   256
178
     4
  0
DIMSTYLE
  2
AM_ISO$6
 70
     0
  3

  4
"
  5

  6

  7

 40
1.0
 41
2.5
 42
1.0
 43
8.0
 44
0.6
 45
0.0
 46
0.0
 47
0.1
 48
0.1
140
2.5
141
0.0
142
0.0
143
0.0393701
144
1.0
145
0.0
146
0.71
147
0.8
 71
     0
 72
     0
 73
     0
 74
     0
 75
     0
 76
     0
 77
     0
 78
     8
170
     0
171
     2
172
     1
173
     0
174
     0
175
     0
176
   256
177
   256
178
     4
  0
DIMSTYLE
  2
AM_ISO$7
 70
     0
  3

  4
"
  5

  6

  7

 40
1.0
 41
2.5
 42
1.0
 43
8.0
 44
0.6
 45
0.0
 46
0.0
 47
0.1
 48
0.1
140
2.5
141
0.0
142
0.0
143
0.0393701
144
1.0
145
0.0
146
0.71
147
0.8
 71
     0
 72
     0
 73
     0
 74
     0
 75
     0
 76
     0
 77
     1
 78
     8
170
     0
171
     2
172
     1
173
     0
174
     0
175
     0
176
   256
177
   256
178
     4
  0
DIMSTYLE
  2
AM_ISO$SF
 70
     0
  3

  4
"
  5

  6

  7

 40
1.0
 41
2.5
 42
1.0
 43
10.0
 44
1.0
 45
0.0
 46
0.0
 47
0.1
 48
0.1
140
3.5
141
0.0
142
0.0
143
0.0393701
144
1.0
145
0.0
146
0.71
147
1.5
 71
     0
 72
     0
 73
     0
 74
     0
 75
     1
 76
     1
 77
     1
 78
     8
170
     0
171
     2
172
     1
173
     0
174
     0
175
     0
176
   256
177
   256
178
     2
  0
DIMSTYLE
  2
AM_ISO$SH
 70
     0
  3

  4
"
  5

  6

  7

 40
1.0
 41
2.5
 42
1.0
 43
10.0
 44
1.0
 45
0.0
 46
0.0
 47
0.1
 48
0.1
140
3.5
141
0.0
142
0.0
143
0.0393701
144
2.0
145
0.0
146
0.71
147
1.5
 71
     0
 72
     0
 73
     0
 74
     0
 75
     1
 76
     1
 77
     1
 78
     8
170
     0
171
     2
172
     1
173
     1
174
     0
175
     0
176
   256
177
   256
178
     2
  0
DIMSTYLE
  2
AM_JIS
 70
     0
  3

  4
"
  5

  6

  7

 40
1.0
 41
2.5
 42
1.0
 43
7.0
 44
1.0
 45
0.0
 46
0.0
 47
0.1
 48
0.1000000001
140
2.5
141
0.0
142
0.0
143
0.0393701
144
1.0
145
0.0
146
0.71
147
1.0
 71
     0
 72
     0
 73
     0
 74
     0
 75
     0
 76
     0
 77
     3
 78
     8
170
     0
171
     2
172
     1
173
     0
174
     0
175
     0
176
   256
177
   256
178
     4
  0
DIMSTYLE
  2
AM_JIS$3
 70
     0
  3

  4
"
  5

  6

  7

 40
1.0
 41
2.5
 42
1.0
 43
7.0
 44
1.0
 45
0.0
 46
0.0
 47
0.1
 48
0.1000000001
140
2.5
141
0.0
142
0.0
143
0.0393701
144
1.0
145
0.0
146
0.71
147
1.0
 71
     0
 72
     0
 73
     0
 74
     1
 75
     0
 76
     0
 77
     3
 78
     8
170
     0
171
     2
172
     0
173
     0
174
     0
175
     0
176
   256
177
   256
178
     4
  0
DIMSTYLE
  2
AM_JIS$4
 70
     0
  3

  4
"
  5

  6

  7

 40
1.0
 41
2.5
 42
1.0
 43
7.0
 44
1.0
 45
0.0
 46
0.0
 47
0.1
 48
0.1000000001
140
2.5
141
0.0
142
0.0
143
0.0393701
144
1.0
145
0.0
146
0.71
147
1.0
 71
     0
 72
     0
 73
     0
 74
     0
 75
     0
 76
     0
 77
     3
 78
     8
170
     0
171
     2
172
     0
173
     0
174
     0
175
     0
176
   256
177
   256
178
     4
  0
DIMSTYLE
  2
AM_JIS$6
 70
     0
  3

  4
"
  5

  6

  7

 40
1.0
 41
2.5
 42
1.0
 43
7.0
 44
1.0
 45
0.0
 46
0.0
 47
0.1
 48
0.1000000001
140
2.5
141
0.0
142
0.0
143
0.0393701
144
1.0
145
0.0
146
0.71
147
1.0
 71
     0
 72
     0
 73
     0
 74
     0
 75
     0
 76
     0
 77
     0
 78
     8
170
     0
171
     2
172
     1
173
     0
174
     0
175
     0
176
   256
177
   256
178
     4
  0
DIMSTYLE
  2
AM_JIS$7
 70
     0
  3

  4
"
  5

  6

  7

 40
1.0
 41
2.5
 42
1.0
 43
7.0
 44
1.0
 45
0.0
 46
0.0
 47
0.1
 48
0.1000000001
140
2.5
141
0.0
142
0.0
143
0.0393701
144
1.0
145
0.0
146
0.71
147
1.0
 71
     0
 72
     0
 73
     0
 74
     0
 75
     0
 76
     0
 77
     3
 78
     8
170
     0
171
     2
172
     1
173
     0
174
     0
175
     0
176
   256
177
   256
178
     4
  0
DIMSTYLE
  2
AM_JIS$SF
 70
     0
  3

  4
"
  5

  6

  7

 40
1.0
 41
2.5
 42
1.0
 43
10.0
 44
1.0
 45
0.0
 46
0.0
 47
0.1
 48
0.1
140
3.5
141
0.0
142
0.0
143
0.0393701
144
1.0
145
0.0
146
0.71
147
1.5
 71
     0
 72
     0
 73
     0
 74
     0
 75
     1
 76
     1
 77
     3
 78
     8
170
     0
171
     2
172
     1
173
     0
174
     0
175
     0
176
   256
177
   256
178
     4
  0
DIMSTYLE
  2
AM_JIS$SH
 70
     0
  3

  4
"
  5

  6

  7

 40
1.0
 41
2.5
 42
1.0
 43
10.0
 44
1.0
 45
0.0
 46
0.0
 47
0.1
 48
0.1
140
3.5
141
0.0
142
0.0
143
0.0393701
144
1.0
145
0.0
146
0.71
147
1.5
 71
     0
 72
     0
 73
     0
 74
     0
 75
     1
 76
     0
 77
     3
 78
     8
170
     0
171
     2
172
     1
173
     1
174
     0
175
     0
176
   256
177
   256
178
     4
  0
DIMSTYLE
  2
AM_ANSI
 70
     0
  3

  4
mm
  5

  6

  7

 40
1.0
 41
0.1
 42
0.05
 43
0.5
 44
0.1
 45
0.0
 46
0.0
 47
0.1
 48
0.1
140
0.12
141
0.0
142
0.0
143
25.399999999999999
144
1.0
145
0.0
146
0.71
147
0.06
 71
     0
 72
     0
 73
     1
 74
     1
 75
     0
 76
     0
 77
     0
 78
     7
170
     0
171
     2
172
     0
173
     0
174
     0
175
     0
176
   256
177
   256
178
     2
  0
DIMSTYLE
  2
AM_ANSI$3
 70
     0
  3

  4
mm
  5

  6

  7

 40
1.0
 41
0.1
 42
0.05
 43
0.5
 44
0.1
 45
0.0
 46
0.0
 47
0.1
 48
0.1
140
0.12
141
0.0
142
0.0
143
25.399999999999999
144
1.0
145
0.0
146
0.71
147
0.06
 71
     0
 72
     0
 73
     1
 74
     1
 75
     0
 76
     0
 77
     0
 78
     7
170
     0
171
     2
172
     0
173
     0
174
     0
175
     0
176
   256
177
   256
178
     2
  0
DIMSTYLE
  2
AM_ANSI$4
 70
     0
  3

  4
mm
  5

  6

  7

 40
1.0
 41
0.1
 42
0.05
 43
0.5
 44
0.1
 45
0.0
 46
0.0
 47
0.1
 48
0.1
140
0.12
141
0.0
142
0.0
143
25.399999999999999
144
1.0
145
0.0
146
0.71
147
0.06
 71
     0
 72
     0
 73
     1
 74
     1
 75
     0
 76
     0
 77
     0
 78
     7
170
     0
171
     2
172
     0
173
     0
174
     0
175
     0
176
   256
177
   256
178
     2
  0
DIMSTYLE
  2
AM_ANSI$7
 70
     0
  3

  4
mm
  5

  6

  7

 40
1.0
 41
0.1
 42
0.05
 43
0.5
 44
0.1
 45
0.0
 46
0.0
 47
0.1
 48
0.1
140
0.24
141
0.0
142
0.0
143
25.399999999999999
144
1.0
145
0.0
146
0.71
147
0.06
 71
     0
 72
     0
 73
     1
 74
     1
 75
     0
 76
     0
 77
     0
 78
     7
170
     0
171
     2
172
     0
173
     0
174
     0
175
     0
176
   256
177
   256
178
     2
  0
DIMSTYLE
  2
AM_ANSI$SF
 70
     0
  3

  4
mm
  5

  6

  7

 40
1.0
 41
0.1
 42
0.05
 43
0.5
 44
0.1
 45
0.0
 46
0.0
 47
0.1
 48
0.1
140
0.12
141
0.0
142
0.0
143
25.399999999999999
144
1.0
145
0.0
146
0.71
147
0.06
 71
     0
 72
     0
 73
     1
 74
     1
 75
     1
 76
     1
 77
     0
 78
     7
170
     0
171
     2
172
     0
173
     0
174
     0
175
     0
176
   256
177
   256
178
     2
  0
DIMSTYLE
  2
AM_ANSI$SH
 70
     0
  3

  4
mm
  5

  6

  7

 40
1.0
 41
0.1
 42
0.05
 43
0.5
 44
0.1
 45
0.0
 46
0.0
 47
0.1
 48
0.1
140
0.12
141
0.0
142
0.0
143
25.399999999999999
144
1.0
145
0.0
146
0.71
147
0.06
 71
     0
 72
     0
 73
     1
 74
     1
 75
     1
 76
     1
 77
     0
 78
     7
170
     0
171
     2
172
     0
173
     1
174
     0
175
     0
176
   256
177
   256
178
     2
  0
ENDTAB
  0
ENDSEC
  0
SECTION
  2
BLOCKS
  0
BLOCK
  8
0
  2
$MODEL_SPACE
 70
     0
 10
0.0
 20
0.0
 30
0.0
  3
$MODEL_SPACE
  1

  0
ENDBLK
  5
3A34
  8
0
  0
BLOCK
 67
     1
  8
0
  2
$PAPER_SPACE
 70
     0
 10
0.0
 20
0.0
 30
0.0
  3
$PAPER_SPACE
  1

  0
ENDBLK
  5
3A30
 67
     1
  8
0
  0
BLOCK
  8
0
  2
GENAXEH
 70
     0
 10
0.0
 20
0.0
 30
0.0
  3
GENAXEH
  1

  0
LINE
  5
37D2
  8
0
 10
-1.0
 20
0.0
 30
0.0
 11
1.0
 21
0.0
 31
0.0
  0
ENDBLK
  5
37D3
  8
0
  0
BLOCK
  8
0
  2
_OPEN30
 70
     0
 10
0.0
 20
0.0
 30
0.0
  3
_OPEN30
  1

  0
LINE
  5
37D6
  8
0
 62
     0
 10
-1.0
 20
0.26794919
 30
0.0
 11
0.0
 21
0.0
 31
0.0
  0
LINE
  5
37D7
  8
0
 62
     0
 10
0.0
 20
0.0
 30
0.0
 11
-1.0
 21
-0.26794919
 31
0.0
  0
LINE
  5
37D8
  8
0
 62
     0
 10
0.0
 20
0.0
 30
0.0
 11
-1.0
 21
0.0
 31
0.0
  0
ENDBLK
  5
37D9
  8
0
  0
BLOCK
  8
0
  2
_NONE
 70
     0
 10
0.0
 20
0.0
 30
0.0
  3
_NONE
  1

  0
ENDBLK
  5
37DC
  8
0
  0
BLOCK
  8
0
  2
_ACMFILLEDHALF
 70
     0
 10
0.0
 20
0.0
 30
0.0
  3
_ACMFILLEDHALF
  1

  0
TRACE
  5
3B2C
  8
AM_0
 62
     0
 10
-0.8
 20
0.0
 30
0.0
 11
-1.0
 21
0.166666666
 31
0.0
 12
0.0
 22
0.0
 32
0.0
 13
0.0
 23
0.0
 33
0.0
  0
LINE
  5
3B2D
  8
AM_0
 62
     0
 10
-1.0
 20
0.0
 30
0.0
 11
-0.8
 21
0.0
 31
0.0
  0
ENDBLK
  5
3B2B
  8
0
  0
ENDSEC
  0
SECTION
  2
ENTITIES
  0
LINE
  5
37DE
  8
ﾁｭｳｼﾝｾﾝ
 10
204.92926324456809
 20
487.08167605055962
 30
0.0
 11
408.1496552015368
 21
487.08167605055962
 31
0.0
  0
ARC
  5
37DF
  8
AM_0
 10
410.41870520153668
 20
487.08167605055962
 30
0.0
 40
101.4887199999999
 50
151.89333000000019
 51
208.10666999999961
  0
LINE
  5
37E0
  8
AM_0
 10
361.92996520153667
 20
502.08167605055968
 30
0.0
 11
361.92996520153667
 21
472.08167605055979
 31
0.0
  0
LINE
  5
37E1
  8
AM_0
 10
257.92999520153683
 20
423.08167605055968
 30
0.0
 11
257.92999520153671
 21
551.08167605055974
 31
0.0
  0
LINE
  5
37E2
  8
AM_0
 10
287.92999520153683
 20
418.21329605055968
 30
0.0
 11
287.92999520153683
 21
555.95004605055965
 31
0.0
  0
LINE
  5
37E3
  8
AM_0
 10
308.92999520153683
 20
437.01444605055968
 30
0.0
 11
308.92999520153683
 21
537.14890605055973
 31
0.0
  0
LINE
  5
37E4
  8
AM_0
 10
343.92999520153671
 20
436.83066605055978
 30
0.0
 11
343.92999520153671
 21
537.33267605055971
 31
0.0
  0
LINE
  5
37E5
  8
AM_0
 10
359.92996520153679
 20
461.54733605055958
 30
0.0
 11
359.92996520153679
 21
512.61597605055965
 31
0.0
  0
LINE
  5
37E6
  8
AM_0
 10
356.92996520153667
 20
536.62662605055971
 30
0.0
 11
356.92996520153667
 21
437.53671605055968
 31
0.0
  0
LINE
  5
37E7
  8
AM_0
 10
294.92996520153662
 20
558.08167605055974
 30
0.0
 11
294.92996520153662
 21
416.08167605055951
 31
0.0
  0
ARC
  5
37E8
  8
AM_0
 10
309.9299652015369
 20
432.65695605055959
 30
0.0
 40
1.0
 50
269.999989999999
 51
0.0000006832462478
  0
ARC
  5
37E9
  8
AM_0
 10
309.9299652015369
 20
426.88342605055971
 30
0.0
 40
1.0
 50
269.999989999999
 51
0.0000006832462478
  0
ARC
  5
37EA
  8
AM_0
 10
309.9299652015369
 20
423.99668605055979
 30
0.0
 40
1.0
 50
269.999989999999
 51
0.0000006832462478
  0
ARC
  5
37EB
  8
AM_0
 10
309.9299652015369
 20
424.88345605055969
 30
0.0
 40
1.0
 50
0.0
 51
90.000003000000945
  0
ARC
  5
37EC
  8
AM_0
 10
309.9299652015369
 20
430.65695605055981
 30
0.0
 40
1.0
 50
0.0
 51
90.000003000000945
  0
ARC
  5
37ED
  8
AM_0
 10
309.9299652015369
 20
433.54370605055948
 30
0.0
 40
1.0
 50
0.0
 51
90.000003000000945
  0
LINE
  5
37EE
  8
AM_0
 10
310.02639520153679
 20
417.07840605055969
 30
0.0
 11
320.66317520153677
 21
423.19162605055971
 31
0.0
  0
LINE
  5
37EF
  8
AM_0
 10
308.92996520153662
 20
437.01444605055968
 30
0.0
 11
322.51196520153673
 21
439.57282605055963
 31
0.0
  0
LINE
  5
37F0
  8
AM_0
 10
297.92999520153683
 20
409.08167605055979
 30
0.0
 11
357.98232520153681
 21
410.65421605055963
 31
0.0
  0
LINE
  5
37F1
  8
AM_0
 10
257.92999520153683
 20
449.93164605055972
 30
0.0
 11
287.92999520153683
 21
449.93164605055972
 31
0.0
  0
LINE
  5
37F2
  8
AM_0
 10
257.92999520153683
 20
435.04163605055959
 30
0.0
 11
287.92999520153683
 21
435.04163605055959
 31
0.0
  0
LINE
  5
37F3
  8
AM_0
 10
283.16979520153677
 20
422.92072605055978
 30
0.0
 11
257.93002520153681
 21
423.58167605055962
 31
0.0
  0
ARC
  5
37F4
  8
AM_0
 10
280.9299652015369
 20
433.0416360505597
 30
0.0
 40
2.0
 50
0.0
 51
90.000003000000945
  0
LINE
  5
37F5
  8
AM_0
 10
306.92996520153667
 20
435.5437360505598
 30
0.0
 11
306.92996520153667
 21
421.9966860505595
 31
0.0
  0
LINE
  5
37F6
  8
AM_0
 10
305.9299652015369
 20
437.01444605055968
 30
0.0
 11
305.9299652015369
 21
416.36972605055979
 31
0.0
  0
ARC
  5
37F7
  8
AM_0
 10
284.92996520153662
 20
423.87039605055958
 30
0.0
 40
2.0
 50
180.00001000000091
 51
270.0
  0
LINE
  5
37F8
  8
AM_0
 10
267.87762520153677
 20
409.86862605055978
 30
0.0
 11
297.92996520153679
 21
409.08167605055979
 31
0.0
  0
LINE
  5
37F9
  8
ﾁｭｳｼﾝｾﾝ1
 10
269.26544520153669
 20
422.08167605055979
 30
0.0
 11
286.17474520153678
 21
422.08167605055979
 31
0.0
  0
LINE
  5
37FA
  8
AM_0
 10
265.92996520153662
 20
411.86795605055948
 30
0.0
 11
265.92996520153662
 21
423.31980605055958
 31
0.0
  0
LINE
  5
37FB
  8
ﾁｭｳｼﾝｾﾝ1
 10
277.92996520153662
 20
413.2797060505597
 30
0.0
 11
277.92996520153662
 21
431.27646605055969
 31
0.0
  0
ARC
  5
37FC
  8
AM_0
 10
267.92996520153662
 20
411.86795605055948
 30
0.0
 40
2.0
 50
180.00001000000091
 51
268.5000000000004
  0
ARC
  5
37FD
  8
AM_0
 10
277.92996520153662
 20
422.08167605055979
 30
0.0
 40
6.0
 50
169.13878999999881
 51
0.5425729200004517
  0
ARC
  5
37FE
  8
ｶｸﾚｾﾝ2
 10
277.92996520153662
 20
422.08167605055979
 30
0.0
 40
6.0
 50
0.5425604000007392
 51
169.13878999999881
  0
LINE
  5
37FF
  8
AM_0
 10
282.92996520153679
 20
423.87039605055958
 30
0.0
 11
282.92996520153679
 21
433.0416360505597
 31
0.0
  0
LINE
  5
3800
  8
AM_0
 10
297.92996520153679
 20
416.16022605055957
 30
0.0
 11
297.92996520153679
 21
412.93765605055961
 31
0.0
  0
LINE
  5
3801
  8
AM_0
 10
295.33297520153678
 20
416.09223605055979
 30
0.0
 11
290.92996520153662
 21
413.78208605055971
 31
0.0
  0
LINE
  5
3802
  8
AM_0
 10
297.92996520153679
 20
412.93762605055969
 30
0.0
 11
290.92996520153662
 21
409.26496605055962
 31
0.0
  0
LINE
  5
3803
  8
AM_0
 10
290.92996520153662
 20
409.26499605055972
 30
0.0
 11
290.92996520153662
 21
413.78208605055971
 31
0.0
  0
LINE
  5
3804
  8
AM_0
 10
307.6658052015369
 20
416.4151960505597
 30
0.0
 11
294.92996520153662
 21
416.08167605055951
 31
0.0
  0
LINE
  5
3805
  8
AM_0
 10
294.92999520153683
 20
416.08167605055951
 30
0.0
 11
289.87765520153681
 21
416.21396605055958
 31
0.0
  0
ARC
  5
3806
  8
AM_0
 10
285.92999520153683
 20
419.87039605055958
 30
0.0
 40
2.0
 50
0.0
 51
90.000003000000945
  0
ARC
  5
3807
  8
AM_0
 10
289.92999520153683
 20
418.21329605055968
 30
0.0
 40
2.0
 50
180.00001000000091
 51
268.5000000000004
  0
LINE
  5
3808
  8
AM_0
 10
284.92996520153662
 20
421.87039605055969
 30
0.0
 11
285.92999520153683
 21
421.87039605055969
 31
0.0
  0
ARC
  5
3809
  8
AM_0
 10
307.53494520153669
 20
421.41345605055972
 30
0.0
 40
5.0
 50
271.49999999999932
 51
299.88701999999893
  0
LINE
  5
380A
  8
AM_0
 10
306.92996520153667
 20
422.99668605055962
 30
0.0
 11
309.9299652015369
 21
422.99668605055962
 31
0.0
  0
LINE
  5
380B
  8
AM_0
 10
305.9299652015369
 20
421.9966860505595
 30
0.0
 11
306.92996520153667
 21
421.9966860505595
 31
0.0
  0
LINE
  5
380C
  8
AM_0
 10
306.92996520153667
 20
425.88345605055952
 30
0.0
 11
309.9299652015369
 21
425.88345605055952
 31
0.0
  0
LINE
  5
380D
  8
AM_0
 10
306.92996520153667
 20
431.65695605055959
 30
0.0
 11
309.9299652015369
 21
431.65695605055959
 31
0.0
  0
LINE
  5
380E
  8
AM_0
 10
305.9299652015369
 20
437.01444605055968
 30
0.0
 11
308.92996520153662
 21
437.01444605055968
 31
0.0
  0
LINE
  5
380F
  8
AM_0
 10
306.92996520153667
 20
434.5437360505598
 30
0.0
 11
309.9299652015369
 21
434.5437360505598
 31
0.0
  0
LINE
  5
3810
  8
AM_0
 10
305.9299652015369
 20
435.5437360505598
 30
0.0
 11
306.92996520153667
 21
435.5437360505598
 31
0.0
  0
LINE
  5
3811
  8
AM_0
 10
359.92996520153679
 20
472.08167605055979
 30
0.0
 11
361.92996520153667
 21
472.08167605055979
 31
0.0
  0
ARC
  5
3812
  8
AM_0
 10
340.92999520153683
 20
436.83066605055978
 30
0.0
 40
3.0
 50
274.99999999999972
 51
0.0
  0
ARC
  5
3813
  8
AM_0
 10
335.92996520153662
 20
428.36264605055982
 30
0.0
 40
5.0
 50
95.00000199999856
 51
180.00001000000091
  0
LINE
  5
3814
  8
AM_0
 10
341.1914652015368
 20
433.84210605055961
 30
0.0
 11
335.49417520153668
 21
433.3436360505595
 31
0.0
  0
LINE
  5
3815
  8
AM_0
 10
359.92996520153679
 20
412.65350605055971
 30
0.0
 11
359.92996520153679
 21
435.5098360505595
 31
0.0
  0
LINE
  5
3816
  8
AM_0
 10
310.92993520153669
 20
423.99668605055979
 30
0.0
 11
310.92993520153669
 21
433.54370605055948
 31
0.0
  0
ARC
  5
3817
  8
AM_0
 10
335.92996520153662
 20
415.07846605055971
 30
0.0
 40
5.0
 50
180.00001000000091
 51
271.49999999999932
  0
ARC
  5
3818
  8
AM_0
 10
323.15463520153662
 20
418.85657605055951
 30
0.0
 40
5.0
 50
91.500001000001546
 51
119.887019999999
  0
ARC
  5
3819
  8
AM_0
 10
327.92996520153662
 20
426.98435605055982
 30
0.0
 40
3.0
 50
271.49999999999932
 51
0.0
  0
LINE
  5
381A
  8
AM_0
 10
330.9299652015369
 20
415.07846605055971
 30
0.0
 11
330.9299652015369
 21
428.36264605055982
 31
0.0
  0
LINE
  5
381B
  8
AM_0
 10
328.0084852015367
 20
423.9853860505595
 30
0.0
 11
323.02374520153683
 21
423.85486605055962
 31
0.0
  0
LINE
  5
381C
  8
ﾁｭｳｼﾝｾﾝ1
 10
347.92996520153679
 20
412.59638605055972
 30
0.0
 11
347.92996520153679
 21
430.53421605055951
 31
0.0
  0
ARC
  5
381D
  8
AM_0
 10
357.92996520153679
 20
412.65350605055971
 30
0.0
 40
2.0
 50
271.49999999999932
 51
0.0
  0
CIRCLE
  5
381E
  8
AM_0
 10
347.92996520153679
 20
422.08167605055979
 30
0.0
 40
6.0
  0
LINE
  5
381F
  8
ﾁｭｳｼﾝｾﾝ1
 10
339.70834520153682
 20
422.08167605055979
 30
0.0
 11
357.27505520153682
 21
422.08167605055979
 31
0.0
  0
LINE
  5
3820
  8
AM_0
 10
341.00854520153678
 20
440.05713605055979
 30
0.0
 11
322.5119352015368
 21
439.57279605055948
 31
0.0
  0
LINE
  5
3821
  8
AM_0
 10
352.36575520153679
 20
438.6823460505596
 30
0.0
 11
347.66824520153671
 21
438.27136605055972
 31
0.0
  0
ARC
  5
3822
  8
AM_0
 10
340.92999520153683
 20
443.05612605055961
 30
0.0
 40
3.0
 50
271.49999999999932
 51
0.0
  0
ARC
  5
3823
  8
AM_0
 10
348.10400520153672
 20
433.29038605055979
 30
0.0
 40
5.0
 50
95.00000199999856
 51
153.73432999999969
  0
ARC
  5
3824
  8
AM_0
 10
351.92996520153679
 20
443.6633060505597
 30
0.0
 40
5.0
 50
274.99999999999972
 51
0.0
  0
ARC
  5
3825
  8
AM_0
 10
357.92996520153679
 20
435.5098360505595
 30
0.0
 40
2.0
 50
0.0
 51
88.499997000000747
  0
LINE
  5
3826
  8
AM_0
 10
357.98232520153681
 20
437.50916605055983
 30
0.0
 11
356.9299952015366
 21
437.53668605055969
 31
0.0
  0
ARC
  5
3827
  8
AM_0
 10
358.92996520153667
 20
461.54733605055958
 30
0.0
 40
1.0
 50
272.0000000000004
 51
0.0
  0
ARC
  5
3828
  8
AM_0
 10
357.92996520153679
 20
459.51120605055968
 30
0.0
 40
1.0
 50
91.999998000000545
 51
180.00001000000091
  0
LINE
  5
3829
  8
AM_0
 10
357.89508520153669
 20
460.51062605055949
 30
0.0
 11
358.96487520153681
 21
460.5479860505597
 31
0.0
  0
ARC
  5
382A
  8
AM_0
 10
309.9299652015369
 20
540.61963605055973
 30
0.0
 40
1.0
 50
269.999989999999
 51
0.0000006832462478
  0
ARC
  5
382B
  8
AM_0
 10
309.9299652015369
 20
543.50638605055985
 30
0.0
 40
1.0
 50
269.999989999999
 51
0.0000006832462478
  0
ARC
  5
382C
  8
AM_0
 10
309.9299652015369
 20
549.27988605055975
 30
0.0
 40
1.0
 50
269.999989999999
 51
0.0000006832462478
  0
ARC
  5
382D
  8
AM_0
 10
309.9299652015369
 20
550.16666605055968
 30
0.0
 40
1.0
 50
0.0
 51
90.000003000000945
  0
ARC
  5
382E
  8
AM_0
 10
309.9299652015369
 20
547.27991605055979
 30
0.0
 40
1.0
 50
0.0
 51
90.000003000000945
  0
ARC
  5
382F
  8
AM_0
 10
309.9299652015369
 20
541.50638605055997
 30
0.0
 40
1.0
 50
0.0
 51
90.000003000000945
  0
LINE
  5
3830
  8
AM_0
 10
308.92996520153662
 20
537.14893605055977
 30
0.0
 11
322.51196520153673
 21
534.59055605055971
 31
0.0
  0
LINE
  5
3831
  8
AM_0
 10
310.02642520153682
 20
557.08490605055965
 30
0.0
 11
320.66317520153677
 21
550.97171605055973
 31
0.0
  0
LINE
  5
3832
  8
AM_0
 10
297.92999520153683
 20
565.08167605055962
 30
0.0
 11
357.98232520153681
 21
563.50913605055962
 31
0.0
  0
ARC
  5
3833
  8
ｶｸﾚｾﾝ2
 10
277.92996520153662
 20
552.08167605055974
 30
0.0
 40
6.0
 50
190.86121000000111
 51
359.45752000000078
  0
ARC
  5
3834
  8
AM_0
 10
277.92996520153662
 20
552.08167605055974
 30
0.0
 40
6.0
 50
359.45751000000092
 51
190.86121000000111
  0
LINE
  5
3835
  8
AM_0
 10
282.92996520153679
 20
550.29297605055979
 30
0.0
 11
282.92996520153679
 21
541.1217160505596
 31
0.0
  0
LINE
  5
3836
  8
AM_0
 10
305.9299652015369
 20
537.14890605055973
 30
0.0
 11
305.9299652015369
 21
557.79361605055965
 31
0.0
  0
LINE
  5
3837
  8
AM_0
 10
306.92996520153667
 20
538.61960605055958
 30
0.0
 11
306.92996520153667
 21
552.16666605055946
 31
0.0
  0
LINE
  5
3838
  8
ﾁｭｳｼﾝｾﾝ1
 10
277.92996520153662
 20
560.59439605055945
 30
0.0
 11
277.92996520153662
 21
543.24896605055972
 31
0.0
  0
LINE
  5
3839
  8
AM_0
 10
257.92999520153683
 20
539.12171605055971
 30
0.0
 11
287.92999520153683
 21
539.12171605055971
 31
0.0
  0
LINE
  5
383A
  8
AM_0
 10
257.92999520153683
 20
524.23169605055955
 30
0.0
 11
287.92999520153683
 21
524.23169605055955
 31
0.0
  0
ARC
  5
383B
  8
AM_0
 10
280.9299652015369
 20
541.1217160505596
 30
0.0
 40
2.0
 50
270.0
 51
0.0
  0
LINE
  5
383C
  8
AM_0
 10
305.9299652015369
 20
537.14890605055973
 30
0.0
 11
308.92996520153662
 21
537.14890605055973
 31
0.0
  0
LINE
  5
383D
  8
AM_0
 10
305.9299652015369
 20
538.61960605055958
 30
0.0
 11
306.92996520153667
 21
538.61960605055958
 31
0.0
  0
LINE
  5
383E
  8
AM_0
 10
306.92996520153667
 20
539.61963605055973
 30
0.0
 11
309.9299652015369
 21
539.61963605055973
 31
0.0
  0
LINE
  5
383F
  8
AM_0
 10
306.92996520153667
 20
542.50638605055985
 30
0.0
 11
309.9299652015369
 21
542.50638605055985
 31
0.0
  0
LINE
  5
3840
  8
AM_0
 10
306.92996520153667
 20
548.27988605055975
 30
0.0
 11
309.9299652015369
 21
548.27988605055975
 31
0.0
  0
LINE
  5
3841
  8
AM_0
 10
283.16979520153677
 20
551.24262605055969
 30
0.0
 11
257.92999520153683
 21
550.58167605055974
 31
0.0
  0
ARC
  5
3842
  8
AM_0
 10
284.92996520153662
 20
550.29297605055979
 30
0.0
 40
2.0
 50
90.000003000000945
 51
180.00001000000091
  0
LINE
  5
3843
  8
AM_0
 10
267.87762520153677
 20
564.29471605055937
 30
0.0
 11
297.92996520153679
 21
565.08167605055962
 31
0.0
  0
LINE
  5
3844
  8
ﾁｭｳｼﾝｾﾝ1
 10
269.4484852015367
 20
552.08167605055974
 30
0.0
 11
286.13586520153677
 21
552.08167605055974
 31
0.0
  0
LINE
  5
3845
  8
AM_0
 10
265.92996520153662
 20
562.29541605055977
 30
0.0
 11
265.92996520153662
 21
550.84354605055955
 31
0.0
  0
ARC
  5
3846
  8
AM_0
 10
267.92996520153662
 20
562.29541605055977
 30
0.0
 40
2.0
 50
91.500001000001546
 51
180.00001000000091
  0
LINE
  5
3847
  8
AM_0
 10
307.66583520153682
 20
557.74814605055974
 30
0.0
 11
294.92999520153683
 21
558.08167605055974
 31
0.0
  0
LINE
  5
3848
  8
AM_0
 10
297.92999520153683
 20
561.22568605055983
 30
0.0
 11
290.92999520153683
 21
564.89835605055976
 31
0.0
  0
LINE
  5
3849
  8
AM_0
 10
295.33300520153682
 20
558.07111605055968
 30
0.0
 11
290.92999520153683
 21
560.38123605055978
 31
0.0
  0
LINE
  5
384A
  8
AM_0
 10
294.92996520153662
 20
558.08167605055974
 30
0.0
 11
289.87762520153677
 21
557.94937605055964
 31
0.0
  0
ARC
  5
384B
  8
AM_0
 10
285.92999520153683
 20
554.29297605055979
 30
0.0
 40
2.0
 50
270.0
 51
0.0
  0
ARC
  5
384C
  8
AM_0
 10
289.92999520153683
 20
555.95004605055965
 30
0.0
 40
2.0
 50
91.500001000001546
 51
180.00001000000091
  0
LINE
  5
384D
  8
AM_0
 10
284.92996520153662
 20
552.29297605055945
 30
0.0
 11
285.92999520153683
 21
552.29297605055945
 31
0.0
  0
LINE
  5
384E
  8
AM_0
 10
290.92996520153662
 20
564.89835605055976
 30
0.0
 11
290.92996520153662
 21
560.3812660505597
 31
0.0
  0
LINE
  5
384F
  8
AM_0
 10
297.92996520153679
 20
558.0031160505597
 30
0.0
 11
297.92996520153679
 21
561.22568605055983
 31
0.0
  0
ARC
  5
3850
  8
AM_0
 10
307.53494520153669
 20
552.74988605055967
 30
0.0
 40
5.0
 50
60.112980000000888
 51
88.499997000000747
  0
LINE
  5
3851
  8
AM_0
 10
305.9299652015369
 20
552.16666605055946
 30
0.0
 11
306.92996520153667
 21
552.16666605055946
 31
0.0
  0
LINE
  5
3852
  8
AM_0
 10
306.92996520153667
 20
551.16663605055965
 30
0.0
 11
309.9299652015369
 21
551.16663605055965
 31
0.0
  0
ARC
  5
3853
  8
AM_0
 10
327.92996520153662
 20
547.1789960505597
 30
0.0
 40
3.0
 50
0.0
 51
88.499997000000747
  0
CIRCLE
  5
3854
  8
AM_0
 10
347.92996520153679
 20
552.08167605055974
 30
0.0
 40
6.0
  0
LINE
  5
3855
  8
AM_0
 10
310.92993520153669
 20
550.16666605055968
 30
0.0
 11
310.92993520153669
 21
540.61963605055973
 31
0.0
  0
LINE
  5
3856
  8
AM_0
 10
330.9299652015369
 20
545.8006660505597
 30
0.0
 11
330.9299652015369
 21
559.08487605055973
 31
0.0
  0
LINE
  5
3857
  8
ﾁｭｳｼﾝｾﾝ1
 10
347.92996520153679
 20
560.60486605055974
 30
0.0
 11
347.92996520153679
 21
543.37268605055965
 31
0.0
  0
LINE
  5
3858
  8
AM_0
 10
359.92996520153679
 20
561.50983605055956
 30
0.0
 11
359.92996520153679
 21
538.65350605055971
 31
0.0
  0
LINE
  5
3859
  8
AM_0
 10
359.92996520153679
 20
502.08167605055968
 30
0.0
 11
361.92996520153667
 21
502.08167605055968
 31
0.0
  0
LINE
  5
385A
  8
AM_0
 10
341.00854520153678
 20
534.10620605055965
 30
0.0
 11
322.51196520153673
 21
534.59055605055971
 31
0.0
  0
LINE
  5
385B
  8
AM_0
 10
341.1914652015368
 20
540.32126605055964
 30
0.0
 11
335.49420520153677
 21
540.81970605055983
 31
0.0
  0
ARC
  5
385C
  8
AM_0
 10
335.92996520153662
 20
545.8006660505597
 30
0.0
 40
5.0
 50
180.00001000000091
 51
265.00001000000071
  0
ARC
  5
385D
  8
AM_0
 10
358.92996520153667
 20
512.61597605055965
 30
0.0
 40
1.0
 50
0.0
 51
87.999999999999659
  0
ARC
  5
385E
  8
AM_0
 10
357.92996520153679
 20
514.65213605055965
 30
0.0
 40
1.0
 50
180.00001000000091
 51
267.9999999999996
  0
LINE
  5
385F
  8
AM_0
 10
357.89504520153679
 20
513.65271605055977
 30
0.0
 11
358.96487520153681
 21
513.61536605055971
 31
0.0
  0
LINE
  5
3860
  8
AM_0
 10
352.3657252015368
 20
535.48099605055972
 30
0.0
 11
347.66821520153673
 21
535.89197605055972
 31
0.0
  0
ARC
  5
3861
  8
AM_0
 10
340.92999520153683
 20
537.33267605055971
 30
0.0
 40
3.0
 50
0.0
 51
85.000004000001198
  0
ARC
  5
3862
  8
AM_0
 10
340.92999520153683
 20
531.10721605055971
 30
0.0
 40
3.0
 50
0.0
 51
88.499997000000747
  0
ARC
  5
3863
  8
AM_0
 10
348.10400520153672
 20
540.8729360505597
 30
0.0
 40
5.0
 50
206.2656700000002
 51
265.00001000000071
  0
ARC
  5
3864
  8
AM_0
 10
351.92996520153679
 20
530.50000605055982
 30
0.0
 40
5.0
 50
0.0
 51
85.000004000001198
  0
ARC
  5
3865
  8
AM_0
 10
357.92996520153679
 20
538.65350605055971
 30
0.0
 40
2.0
 50
271.49999999999932
 51
0.0
  0
LINE
  5
3866
  8
AM_0
 10
356.92996520153667
 20
536.62662605055971
 30
0.0
 11
357.98229520153672
 21
536.65418605055982
 31
0.0
  0
LINE
  5
3867
  8
AM_0
 10
369.92996520153667
 20
483.08167605055962
 30
0.0
 11
401.92996520153679
 21
483.08167605055962
 31
0.0
  0
LINE
  5
3868
  8
AM_0
 10
361.92996520153667
 20
501.08170605055977
 30
0.0
 11
401.92996520153679
 21
501.08170605055977
 31
0.0
  0
LINE
  5
3869
  8
AM_0
 10
361.92996520153667
 20
473.08170605055972
 30
0.0
 11
401.92996520153679
 21
473.08170605055972
 31
0.0
  0
LINE
  5
386A
  8
AM_0
 10
369.92996520153667
 20
491.08164605055958
 30
0.0
 11
401.92996520153679
 21
491.08164605055958
 31
0.0
  0
ARC
  5
386B
  8
AM_0
 10
369.92996520153667
 20
487.08164605055958
 30
0.0
 40
3.9999962
 50
90.000003000000945
 51
270.0
  0
LINE
  5
386C
  8
AM_0
 10
369.92996520153667
 20
491.08164605055958
 30
0.0
 11
369.92996520153667
 21
483.08167605055962
 31
0.0
  0
LINE
  5
386D
  8
AM_0
 10
401.92996520153679
 20
501.08170605055977
 30
0.0
 11
401.92996520153679
 21
473.08170605055972
 31
0.0
  0
ARC
  5
386E
  8
AM_0
 10
335.92996520153662
 20
559.08487605055973
 30
0.0
 40
5.0
 50
88.499997000000747
 51
180.00001000000091
  0
ARC
  5
386F
  8
AM_0
 10
323.15463520153662
 20
555.30676605055965
 30
0.0
 40
5.0
 50
240.11298000000079
 51
268.5000000000004
  0
LINE
  5
3870
  8
AM_0
 10
328.00851520153668
 20
550.17795605055983
 30
0.0
 11
323.02377520153681
 21
550.30847605055965
 31
0.0
  0
LINE
  5
3871
  8
ﾁｭｳｼﾝｾﾝ1
 10
339.26577520153683
 20
552.08167605055974
 30
0.0
 11
357.02239520153671
 21
552.08167605055974
 31
0.0
  0
ARC
  5
3872
  8
AM_0
 10
357.92996520153679
 20
561.50983605055956
 30
0.0
 40
2.0
 50
0.0
 51
88.499997000000747
  0
LINE
  5
3873
  8
ﾁｭｳｼﾝｾﾝ
 10
404.39089520153669
 20
276.80430219198649
 30
0.0
 11
274.89304520153672
 21
276.80430219198649
 31
0.0
  0
LINE
  5
3874
  8
AM_0
 10
334.92997520153682
 20
181.80431619198649
 30
0.0
 11
359.92996520153667
 21
181.80431619198649
 31
0.0
  0
LINE
  5
3875
  8
AM_0
 10
335.92996520153662
 20
193.80433119198639
 30
0.0
 11
357.92995520153659
 21
193.80433119198639
 31
0.0
  0
LINE
  5
3876
  8
AM_0
 10
348.4942052015366
 20
310.54234719198661
 30
0.0
 11
354.19147520153672
 21
310.04389719198662
 31
0.0
  0
LINE
  5
3877
  8
AM_0
 10
257.92996520153662
 20
320.30431719198663
 30
0.0
 11
257.92996520153662
 21
193.3042701919864
 31
0.0
  0
LINE
  5
3878
  8
AM_0
 10
287.92996520153662
 20
299.19232719198658
 30
0.0
 11
287.92996520153662
 21
196.20727119198659
 31
0.0
  0
LINE
  5
3879
  8
AM_0
 10
321.75958520153682
 20
290.15302719198661
 30
0.0
 11
308.92996520153662
 21
264.02058219198648
 31
0.0
  0
LINE
  5
387A
  8
AM_0
 10
308.92996520153662
 20
290.15302719198661
 30
0.0
 11
308.92996520153662
 21
264.02058219198648
 31
0.0
  0
LINE
  5
387B
  8
AM_0
 10
343.92997520153648
 20
321.65041719198649
 30
0.0
 11
343.92997520153648
 21
212.8451181919865
 31
0.0
  0
LINE
  5
387C
  8
AM_0
 10
330.92995520153659
 20
286.59513519198663
 30
0.0
 11
330.92995520153659
 21
198.8043171919864
 31
0.0
  0
LINE
  5
387D
  8
AM_0
 10
294.92995520153659
 20
327.80431719198663
 30
0.0
 11
294.92995520153659
 21
212.6614641919864
 31
0.0
  0
LINE
  5
387E
  8
0
 10
223.92997128121041
 20
334.8043341919867
 30
0.0
 11
223.92997128121041
 21
178.8043341919865
 31
0.0
  0
LINE
  5
387F
  8
0
 10
213.9299712812105
 20
336.8043341919867
 30
0.0
 11
213.9299712812105
 21
176.8043341919867
 31
0.0
  0
LINE
  5
3880
  8
0
  6
CONTINUOUS
 62
     7
 10
246.92996520153659
 20
318.8043341919867
 30
0.0
 11
246.92996520153659
 21
194.8043341919867
 31
0.0
  0
LINE
  5
3881
  8
ﾁｭｳｼﾝｾﾝ
 10
204.92926324456789
 20
256.80433419198658
 30
0.0
 11
288.55150621971768
 21
256.80433419198658
 31
0.0
  0
LINE
  5
3882
  8
0
 10
213.9299712812105
 20
176.8043341919867
 30
0.0
 11
221.9299712812105
 21
176.8043341919867
 31
0.0
  0
LINE
  5
3883
  8
ｶｸﾚｾﾝ2
 10
341.92996520153662
 20
193.80433119198639
 30
0.0
 11
341.92996520153662
 21
181.80431619198649
 31
0.0
  0
LINE
  5
3884
  8
ｶｸﾚｾﾝ2
 10
271.9300052015368
 20
193.80433119198639
 30
0.0
 11
271.9300052015368
 21
181.80431619198649
 31
0.0
  0
LINE
  5
3885
  8
ｶｸﾚｾﾝ2
 10
283.9300052015368
 20
193.80433119198639
 30
0.0
 11
283.9300052015368
 21
181.80431619198649
 31
0.0
  0
LINE
  5
3886
  8
ﾁｭｳｼﾝｾﾝ1
 10
277.9300052015368
 20
195.6593427525471
 30
0.0
 11
277.9300052015368
 21
180.07218448541281
 31
0.0
  0
LINE
  5
3887
  8
ﾁｭｳｼﾝｾﾝ1
 10
347.92996520153667
 20
195.6593427525471
 30
0.0
 11
347.92996520153667
 21
180.07218448541281
 31
0.0
  0
LINE
  5
3888
  8
AM_0
 10
265.9300052015368
 20
191.8043151919864
 30
0.0
 11
265.9300052015368
 21
181.80431619198649
 31
0.0
  0
LINE
  5
3889
  8
AM_0
 10
265.9300052015368
 20
181.80431619198649
 30
0.0
 11
290.92996520153662
 21
181.80431619198649
 31
0.0
  0
ARC
  5
388A
  8
0
 10
221.9299712812105
 20
178.8043341919865
 30
0.0
 40
2.0
 50
270.0
 51
0.0
1001
GENIUS_GENODEF_13
1002
{
1000
HIER
1070
     0
1002
}
1002
{
1000
MANEDIT
1070
     0
1002
}
1002
{
1000
NOSEL
1070
     0
1002
}
1002
{
1000
BEHIND
1070
     0
1002
}
1002
{
1000
OTHER
1070
     0
1002
}
1002
{
1000
REACTOR
1002
}
1001
GENIUS_GENOBJ-N-FIL_13
1002
{
1000
OWNER
1000
GEN
1002
}
  0
LINE
  5
388B
  8
AM_0
 10
291.92995520153659
 20
182.8043001919867
 30
0.0
 11
333.9299552015367
 21
182.8043001919867
 31
0.0
  0
ARC
  5
388C
  8
AM_0
 10
291.92995520153659
 20
181.80431619198649
 30
0.0
 40
1.0000000199999981
 50
90.000003000000945
 51
180.00001000000091
  0
LINE
  5
388D
  8
AM_0
 10
290.92996520153662
 20
181.80431619198649
 30
0.0
 11
290.92996520153662
 21
181.80431619198649
 31
0.0
  0
ARC
  5
388E
  8
AM_0
 10
333.9299552015367
 20
181.80431619198649
 30
0.0
 40
1.0000000199999981
 50
0.0
 51
90.000003000000945
  0
LINE
  5
388F
  8
AM_0
 10
334.92997520153682
 20
181.80431619198649
 30
0.0
 11
334.92997520153682
 21
181.80431619198649
 31
0.0
  0
LINE
  5
3890
  8
AM_0
 10
267.9299552015367
 20
193.80433119198639
 30
0.0
 11
286.87930520153662
 21
193.80433119198639
 31
0.0
  0
LINE
  5
3891
  8
AM_0
 10
257.92996520153662
 20
205.30431519198649
 30
0.0
 11
287.92996520153662
 21
205.30431519198649
 31
0.0
  0
LINE
  5
3892
  8
AM_0
 10
257.92996520153662
 20
219.65639919198651
 30
0.0
 11
287.92996520153662
 21
219.65639919198651
 31
0.0
  0
LINE
  5
3893
  8
AM_0
 10
282.9299552015367
 20
201.17432619198641
 30
0.0
 11
287.4099452015368
 21
201.17432619198641
 31
0.0
  0
LINE
  5
3894
  8
AM_0
 10
257.92996520153662
 20
219.6563586919865
 30
0.0
 11
246.92996520153659
 21
219.6563586919865
 31
0.0
  0
LINE
  5
3895
  8
AM_0
 10
257.92996520153662
 20
205.3042776919865
 30
0.0
 11
246.92996520153659
 21
205.3042776919865
 31
0.0
  0
LINE
  5
3896
  8
0
 10
257.92996520153662
 20
192.8043341919867
 30
0.0
 11
248.92996520153659
 21
192.8043341919867
 31
0.0
  0
LINE
  5
3897
  8
0
 10
244.92996520153659
 20
198.8043341919867
 30
0.0
 11
228.9299712812105
 21
198.8043341919867
 31
0.0
  0
ARC
  5
3898
  8
0
 10
228.9299712812105
 20
193.8043341919867
 30
0.0
 40
5.0
 50
90.0
 51
180.0
1001
GENIUS_GENOBJ-N-FIL_13
1002
{
1000
OWNER
1000
GEN
1002
}
1001
GENIUS_GENODEF_13
1002
{
1000
HIER
1070
     0
1002
}
1002
{
1000
MANEDIT
1070
     0
1002
}
1002
{
1000
NOSEL
1070
     0
1002
}
1002
{
1000
BEHIND
1070
     0
1002
}
1002
{
1000
OTHER
1070
     0
1002
}
1002
{
1000
REACTOR
1002
}
  0
ARC
  5
3899
  8
0
 10
244.92996520153659
 20
196.8043341919867
 30
0.0
 40
2.0
 50
0.0
 51
90.0
1001
GENIUS_GENODEF_13
1002
{
1000
HIER
1070
     0
1002
}
1002
{
1000
MANEDIT
1070
     0
1002
}
1002
{
1000
NOSEL
1070
     0
1002
}
1002
{
1000
BEHIND
1070
     0
1002
}
1002
{
1000
OTHER
1070
     0
1002
}
1002
{
1000
REACTOR
1002
}
1001
GENIUS_GENOBJ-N-FIL_13
1002
{
1000
OWNER
1000
GEN
1002
}
  0
ARC
  5
389A
  8
0
 10
248.92996520153659
 20
194.8043341919867
 30
0.0
 40
2.0
 50
180.0
 51
270.0
1001
GENIUS_GENODEF_13
1002
{
1000
HIER
1070
     0
1002
}
1002
{
1000
MANEDIT
1070
     0
1002
}
1002
{
1000
NOSEL
1070
     0
1002
}
1002
{
1000
BEHIND
1070
     0
1002
}
1002
{
1000
OTHER
1070
     0
1002
}
1002
{
1000
REACTOR
1002
}
1001
GENIUS_GENOBJ-N-FIL_13
1002
{
1000
OWNER
1000
GEN
1002
}
  0
ARC
  5
389B
  8
AM_0
 10
267.9299552015367
 20
191.8043151919864
 30
0.0
 40
2.00000007
 50
90.000003000000945
 51
180.00001000000091
  0
LINE
  5
389C
  8
AM_0
 10
257.92996520153662
 20
193.3043151919864
 30
0.0
 11
266.39188520153658
 21
193.0827291919864
 31
0.0
  0
LINE
  5
389D
  8
AM_0
 10
282.9299552015367
 20
199.17431019198651
 30
0.0
 11
282.9299552015367
 21
193.80433119198639
 31
0.0
  0
ARC
  5
389E
  8
AM_0
 10
280.9300052015368
 20
199.17431019198651
 30
0.0
 40
2.00000007
 50
0.0
 51
90.000003000000945
  0
LINE
  5
389F
  8
AM_0
 10
297.92995520153659
 20
264.02058219198648
 30
0.0
 11
297.92995520153659
 21
227.32879119198671
 31
0.0
  0
LINE
  5
38A0
  8
AM_0
 10
291.77047520153673
 20
197.76679419198669
 30
0.0
 11
297.82114520153681
 21
226.2912711919864
 31
0.0
  0
ARC
  5
38A1
  8
AM_0
 10
286.87930520153662
 20
198.8043171919864
 30
0.0
 40
5.0000001000000003
 50
270.0
 51
348.0238700000009
  0
LINE
  5
38A2
  8
AM_0
 10
284.92996520153662
 20
194.20725519198641
 30
0.0
 11
285.9299552015367
 21
194.20725519198641
 31
0.0
  0
ARC
  5
38A3
  8
AM_0
 10
284.92996520153662
 20
192.20725419198669
 30
0.0
 40
2.00000007
 50
90.000003000000945
 51
127.01007000000121
  0
ARC
  5
38A4
  8
AM_0
 10
285.9299552015367
 20
196.20727119198659
 30
0.0
 40
2.00000007
 50
270.0
 51
0.0
  0
ARC
  5
38A5
  8
AM_0
 10
292.93000520153669
 20
227.32879119198671
 30
0.0
 40
5.0000001000000003
 50
348.0238700000009
 51
0.0
  0
ARC
  5
38A6
  8
AM_0
 10
339.9299552015367
 20
212.8451181919865
 30
0.0
 40
4.000000199999997
 50
270.0
 51
0.0
  0
ARC
  5
38A7
  8
AM_0
 10
335.92996520153662
 20
198.8043171919864
 30
0.0
 40
5.0000001000000003
 50
180.00001000000091
 51
270.0
  0
LINE
  5
38A8
  8
AM_0
 10
330.92995520153659
 20
208.8451341919864
 30
0.0
 11
339.9299552015367
 21
208.8451341919864
 31
0.0
  0
LINE
  5
38A9
  8
AM_0
 10
297.92995520153659
 20
264.02058219198648
 30
0.0
 11
308.92996520153662
 21
264.02058219198648
 31
0.0
  0
LINE
  5
38AA
  8
0
 10
213.9299712812105
 20
336.8043341919867
 30
0.0
 11
221.9299712812105
 21
336.8043341919867
 31
0.0
  0
LINE
  5
38AB
  8
AM_0
 10
257.92996520153662
 20
308.30431719198663
 30
0.0
 11
283.9300052015368
 21
308.30431719198663
 31
0.0
  0
LINE
  5
38AC
  8
AM_0
 10
282.9299552015367
 20
289.67164419198667
 30
0.0
 11
287.37064520153672
 21
289.67164419198667
 31
0.0
  0
ARC
  5
38AD
  8
AM_0
 10
284.92996520153662
 20
306.30433719198652
 30
0.0
 40
2.00000007
 50
90.000003000000945
 51
180.00001000000091
  0
ARC
  5
38AE
  8
AM_0
 10
284.92996520153662
 20
301.19233719198661
 30
0.0
 40
2.00000007
 50
179.9999899999988
 51
270.0
  0
LINE
  5
38AF
  8
AM_0
 10
257.92996520153662
 20
320.30431719198663
 30
0.0
 11
285.98233520153678
 21
321.03889719198662
 31
0.0
  0
ARC
  5
38B0
  8
0
 10
228.9299712812105
 20
319.80433419198653
 30
0.0
 40
5.0
 50
180.0
 51
270.0
1001
GENIUS_GENOBJ-N-FIL_13
1002
{
1000
OWNER
1000
GEN
1002
}
1001
GENIUS_GENODEF_13
1002
{
1000
HIER
1070
     0
1002
}
1002
{
1000
MANEDIT
1070
     0
1002
}
1002
{
1000
NOSEL
1070
     0
1002
}
1002
{
1000
BEHIND
1070
     0
1002
}
1002
{
1000
OTHER
1070
     0
1002
}
1002
{
1000
REACTOR
1002
}
  0
LINE
  5
38B1
  8
AM_0
 10
257.92996520153662
 20
308.3043036919866
 30
0.0
 11
246.92996520153659
 21
308.3043036919866
 31
0.0
  0
LINE
  5
38B2
  8
AM_0
 10
257.92996520153662
 20
293.95221369198663
 30
0.0
 11
246.92996520153659
 21
293.95221369198663
 31
0.0
  0
LINE
  5
38B3
  8
0
 10
244.92996520153659
 20
314.8043341919867
 30
0.0
 11
228.9299712812105
 21
314.8043341919867
 31
0.0
  0
ARC
  5
38B4
  8
0
 10
244.92996520153659
 20
316.8043341919867
 30
0.0
 40
2.0
 50
270.0
 51
0.0
1001
GENIUS_GENODEF_13
1002
{
1000
HIER
1070
     0
1002
}
1002
{
1000
MANEDIT
1070
     0
1002
}
1002
{
1000
NOSEL
1070
     0
1002
}
1002
{
1000
BEHIND
1070
     0
1002
}
1002
{
1000
OTHER
1070
     0
1002
}
1002
{
1000
REACTOR
1002
}
1001
GENIUS_GENOBJ-N-FIL_13
1002
{
1000
OWNER
1000
GEN
1002
}
  0
LINE
  5
38B5
  8
AM_0
 10
282.9299552015367
 20
306.30433719198652
 30
0.0
 11
282.9299552015367
 21
291.67164519198661
 31
0.0
  0
LINE
  5
38B6
  8
AM_0
 10
257.92996520153662
 20
293.95225419198653
 30
0.0
 11
282.9299552015367
 21
293.95225419198653
 31
0.0
  0
ARC
  5
38B7
  8
AM_0
 10
280.9300052015368
 20
291.67164519198661
 30
0.0
 40
2.00000007
 50
270.0
 51
0.0
  0
LINE
  5
38B8
  8
0
 10
257.92996520153662
 20
320.8043341919867
 30
0.0
 11
248.92996520153659
 21
320.8043341919867
 31
0.0
  0
ARC
  5
38B9
  8
0
 10
221.9299712812105
 20
334.8043341919867
 30
0.0
 40
2.0
 50
0.0
 51
90.0
1001
GENIUS_GENODEF_13
1002
{
1000
HIER
1070
     0
1002
}
1002
{
1000
MANEDIT
1070
     0
1002
}
1002
{
1000
NOSEL
1070
     0
1002
}
1002
{
1000
BEHIND
1070
     0
1002
}
1002
{
1000
OTHER
1070
     0
1002
}
1002
{
1000
REACTOR
1002
}
1001
GENIUS_GENOBJ-N-FIL_13
1002
{
1000
OWNER
1000
GEN
1002
}
  0
ARC
  5
38BA
  8
0
 10
248.92996520153659
 20
318.8043341919867
 30
0.0
 40
2.0
 50
90.0
 51
180.0
1001
GENIUS_GENODEF_13
1002
{
1000
HIER
1070
     0
1002
}
1002
{
1000
MANEDIT
1070
     0
1002
}
1002
{
1000
NOSEL
1070
     0
1002
}
1002
{
1000
BEHIND
1070
     0
1002
}
1002
{
1000
OTHER
1070
     0
1002
}
1002
{
1000
REACTOR
1002
}
1001
GENIUS_GENOBJ-N-FIL_13
1002
{
1000
OWNER
1000
GEN
1002
}
  0
LINE
  5
38BB
  8
AM_0
 10
287.92996520153662
 20
325.80433719198669
 30
0.0
 11
287.92996520153662
 21
310.30429719198662
 31
0.0
  0
LINE
  5
38BC
  8
AM_0
 10
308.92996520153662
 20
327.35917719198648
 30
0.0
 11
308.92996520153662
 21
308.33176719198661
 31
0.0
  0
LINE
  5
38BD
  8
AM_0
 10
308.92996520153662
 20
327.35914719198672
 30
0.0
 11
322.51195520153652
 21
308.33176719198661
 31
0.0
  0
LINE
  5
38BE
  8
AM_0
 10
308.92996520153662
 20
308.33176719198661
 30
0.0
 11
343.92997520153648
 21
308.33176719198661
 31
0.0
  0
LINE
  5
38BF
  8
AM_0
 10
308.92996520153662
 20
290.15302719198661
 30
0.0
 11
331.76467520153642
 21
290.15302719198661
 31
0.0
  0
LINE
  5
38C0
  8
AM_0
 10
305.92996520153662
 20
313.33108719198663
 30
0.0
 11
305.92996520153662
 21
290.42906019198659
 31
0.0
  0
LINE
  5
38C1
  8
AM_0
 10
306.9299552015367
 20
308.32180719198658
 30
0.0
 11
306.9299552015367
 21
294.7747941919867
 31
0.0
  0
ARC
  5
38C2
  8
AM_0
 10
306.9299552015367
 20
287.42906019198659
 30
0.0
 40
2.00000007
 50
0.0
 51
90.000003000000945
  0
ARC
  5
38C3
  8
AM_0
 10
306.9299552015367
 20
290.42906019198659
 30
0.0
 40
1.0000000199999981
 50
179.9999899999988
 51
270.0
  0
LINE
  5
38C4
  8
AM_0
 10
305.92996520153662
 20
294.7747941919867
 30
0.0
 11
306.9299552015367
 21
294.7747941919867
 31
0.0
  0
LINE
  5
38C5
  8
AM_0
 10
284.92996520153662
 20
299.19232719198658
 30
0.0
 11
287.92996520153662
 21
299.19232719198658
 31
0.0
  0
LINE
  5
38C6
  8
AM_0
 10
284.92996520153662
 20
308.30431719198663
 30
0.0
 11
285.9299552015367
 21
308.30431719198663
 31
0.0
  0
ARC
  5
38C7
  8
AM_0
 10
285.9299552015367
 20
310.30429719198662
 30
0.0
 40
2.00000007
 50
270.0
 51
0.0
  0
ARC
  5
38C8
  8
AM_0
 10
309.92995520153659
 20
306.32182719198647
 30
0.0
 40
1.0000000199999981
 50
0.0
 51
90.000003000000945
  0
LINE
  5
38C9
  8
AM_0
 10
306.9299552015367
 20
304.43503719198668
 30
0.0
 11
309.92995520153659
 21
304.43503719198668
 31
0.0
  0
LINE
  5
38CA
  8
AM_0
 10
306.9299552015367
 20
298.66153719198661
 30
0.0
 11
309.92995520153659
 21
298.66153719198661
 31
0.0
  0
LINE
  5
38CB
  8
AM_0
 10
306.9299552015367
 20
295.77479319198659
 30
0.0
 11
309.92995520153659
 21
295.77479319198659
 31
0.0
  0
ARC
  5
38CC
  8
AM_0
 10
309.92995520153659
 20
296.77480719198661
 30
0.0
 40
1.0000000199999981
 50
270.0
 51
0.0
  0
ARC
  5
38CD
  8
AM_0
 10
309.92995520153659
 20
297.6615471919867
 30
0.0
 40
1.0000000199999981
 50
0.0
 51
90.000003000000945
  0
ARC
  5
38CE
  8
AM_0
 10
309.92995520153659
 20
305.43502719198659
 30
0.0
 40
1.0000000199999981
 50
270.0
 51
0.0
  0
ARC
  5
38CF
  8
AM_0
 10
309.92995520153659
 20
303.43507719198669
 30
0.0
 40
1.0000000199999981
 50
0.0
 51
90.000003000000945
  0
ARC
  5
38D0
  8
AM_0
 10
309.92995520153659
 20
299.66155719198662
 30
0.0
 40
1.0000000199999981
 50
270.0
 51
0.0
  0
LINE
  5
38D1
  8
AM_0
 10
310.92991520153669
 20
296.77480719198661
 30
0.0
 11
310.92991520153669
 21
306.32182719198647
 31
0.0
  0
LINE
  5
38D2
  8
AM_0
 10
306.9299552015367
 20
307.32181719198661
 30
0.0
 11
309.92995520153659
 21
307.32181719198661
 31
0.0
  0
ARC
  5
38D3
  8
AM_0
 10
306.9299552015367
 20
316.33108719198668
 30
0.0
 40
2.00000007
 50
270.0
 51
0.0
  0
ARC
  5
38D4
  8
AM_0
 10
306.9299552015367
 20
313.33108719198663
 30
0.0
 40
1.0000000199999981
 50
90.000003000000945
 51
180.00001000000091
  0
LINE
  5
38D5
  8
AM_0
 10
305.92996520153662
 20
308.32180719198658
 30
0.0
 11
306.9299552015367
 21
308.32180719198658
 31
0.0
  0
ARC
  5
38D6
  8
AM_0
 10
338.92996520153662
 20
286.59513519198663
 30
0.0
 40
8.0000000999999976
 50
90.000003000000945
 51
180.00001000000091
  0
LINE
  5
38D7
  8
AM_0
 10
338.92996520153662
 20
294.59510619198659
 30
0.0
 11
343.92997520153648
 21
294.59510619198659
 31
0.0
  0
ARC
  5
38D8
  8
AM_0
 10
348.9299552015367
 20
315.52333719198663
 30
0.0
 40
5.0000001000000003
 50
179.9999899999988
 51
265.00000000000028
  0
LINE
  5
38D9
  8
AM_0
 10
294.92995520153659
 20
327.80431719198663
 30
0.0
 11
339.06085520153681
 21
326.6486871919866
 31
0.0
  0
ARC
  5
38DA
  8
AM_0
 10
289.9300052015368
 20
325.80433719198669
 30
0.0
 40
2.00000007
 50
90.000003000000945
 51
180.00001000000091
  0
LINE
  5
38DB
  8
AM_0
 10
289.9300052015368
 20
327.80431719198663
 30
0.0
 11
294.92995520153659
 21
327.80431719198663
 31
0.0
  0
ARC
  5
38DC
  8
AM_0
 10
285.9299552015367
 20
323.03821719198652
 30
0.0
 40
2.00000007
 50
271.49999999999932
 51
0.0
  0
ARC
  5
38DD
  8
AM_0
 10
338.92996520153662
 20
321.65041719198649
 30
0.0
 40
5.0000001000000003
 50
0.0
 51
88.499997000000747
  0
LINE
  5
38DE
  8
AM_0
 10
361.93000520153669
 20
291.80430219198661
 30
0.0
 11
361.93000520153669
 21
261.80430219198661
 31
0.0
  0
LINE
  5
38DF
  8
AM_0
 10
401.92996520153667
 20
293.80430319198661
 30
0.0
 11
401.92996520153667
 21
262.8043011919865
 31
0.0
  0
CIRCLE
  5
38E0
  8
AM_0
 10
566.22513659989954
 20
276.80430219198649
 30
0.0
 40
3.0
  0
CIRCLE
  5
38E1
  8
AM_5
 10
566.22513659989954
 20
276.80430219198649
 30
0.0
 40
4.000000199999997
  0
ARC
  5
38E2
  8
AM_0
 10
566.22513659989954
 20
276.80430219198649
 30
0.0
 40
14.000001299999999
 50
106.6015400000023
 51
73.398451999997818
  0
LINE
  5
38E3
  8
ﾁｭｳｼﾝｾﾝ
 10
566.22513659989954
 20
339.80400800061659
 30
0.0
 11
566.22513659989954
 21
173.8046603833572
 31
0.0
  0
ARC
  5
38E4
  8
AM_0
 10
565.99244009989934
 20
256.80433419198658
 30
0.0
 40
80.000000000000469
 50
143.98764637721439
 51
201.80698712529039
  0
ARC
  5
38E5
  8
AM_0
 10
565.99244009989934
 20
256.80433419198658
 30
0.0
 40
80.000000000000469
 50
338.91248487627632
 51
34.267603855091913
  0
LINE
  5
38E6
  8
AM_0
 10
644.2251545998995
 20
193.8043161919864
 30
0.0
 11
633.45672059989954
 21
296.43448719198659
 31
0.0
  0
LINE
  5
38E7
  8
AM_0
 10
488.2251425998997
 20
193.8043161919864
 30
0.0
 11
498.99358259989953
 21
296.43448719198659
 31
0.0
  0
LINE
  5
38E8
  8
AM_0
 10
619.2251525998995
 20
292.05686619198661
 30
0.0
 11
619.2251525998995
 21
230.80431819198651
 31
0.0
  0
LINE
  5
38E9
  8
AM_0
 10
513.22515059989962
 20
292.05686619198661
 30
0.0
 11
513.22515059989962
 21
230.80431819198651
 31
0.0
  0
ARC
  5
38EA
  8
AM_0
 10
566.22513659989954
 20
276.80430219198649
 30
0.0
 40
26.500002599999998
 50
90.000003000000945
 51
270.0
  0
ARC
  5
38EB
  8
AM_0
 10
566.22513659989954
 20
256.80433419198658
 30
0.0
 40
71.000000999999983
 50
5.989814199999338
 51
27.0005730000006
  0
ARC
  5
38EC
  8
AM_0
 10
566.22513659989954
 20
261.80430219198661
 30
0.0
 40
48.0
 50
0.0
 51
180.00001000000091
  0
ARC
  5
38ED
  8
AM_0
 10
566.22513659989954
 20
276.80430219198649
 30
0.0
 40
26.500002599999998
 50
270.0
 51
90.000003000000945
  0
ARC
  5
38EE
  8
AM_0
 10
566.22513659989954
 20
256.80433419198658
 30
0.0
 40
71.000000999999983
 50
152.9994200000007
 51
174.01019000000011
  0
LINE
  5
38EF
  8
AM_0
 10
356.92996520153667
 20
307.05532719198658
 30
0.0
 11
356.92996520153667
 21
197.5488831919867
 31
0.0
  0
LINE
  5
38F0
  8
AM_0
 10
359.92996520153667
 20
251.45902719198651
 30
0.0
 11
359.92996520153667
 21
302.14960719198672
 31
0.0
  0
LINE
  5
38F1
  8
ﾁｭｳｼﾝｾﾝ
 10
482.99244009989877
 20
256.80433419198658
 30
0.0
 11
648.99244009989957
 21
256.80433419198658
 31
0.0
  0
LINE
  5
38F2
  8
AM_0
 10
644.2251545998995
 20
181.80431619198649
 30
0.0
 11
614.22515459989961
 21
181.80431619198649
 31
0.0
  0
ARC
  5
38F3
  8
AM_0
 10
585.22515359989995
 20
230.80431819198651
 30
0.0
 40
34.000001999999988
 50
328.53301999999962
 51
0.0
  0
LINE
  5
38F4
  8
AM_0
 10
616.22515259989939
 20
193.80433119198639
 30
0.0
 11
642.22516859989946
 21
193.80433119198639
 31
0.0
  0
ARC
  5
38F5
  8
AM_0
 10
619.2251525998995
 20
198.8043171919864
 30
0.0
 40
5.0000001000000003
 50
179.9999899999988
 51
270.0
  0
LINE
  5
38F6
  8
ｶｸﾚｾﾝ2
 10
353.92996520153667
 20
193.80433119198639
 30
0.0
 11
353.92996520153667
 21
181.80431619198649
 31
0.0
  0
LINE
  5
38F7
  8
AM_0
 10
359.92996520153667
 20
191.8043151919864
 30
0.0
 11
359.92996520153667
 21
181.80431619198649
 31
0.0
  0
ARC
  5
38F8
  8
AM_0
 10
357.92995520153659
 20
191.8043151919864
 30
0.0
 40
2.00000007
 50
0.0
 51
90.000003000000945
  0
ARC
  5
38F9
  8
AM_0
 10
361.92997520153671
 20
197.5488831919867
 30
0.0
 40
5.0000001000000003
 50
179.9999899999988
 51
235.15011000000041
  0
LINE
  5
38FA
  8
AM_0
 10
361.93000520153669
 20
262.8043011919865
 30
0.0
 11
401.92996520153667
 21
262.8043011919865
 31
0.0
  0
LINE
  5
38FB
  8
AM_0
 10
357.92998520153679
 20
249.14957919198659
 30
0.0
 11
358.92997520153671
 21
249.7269411919865
 31
0.0
  0
ARC
  5
38FC
  8
AM_0
 10
358.92997520153671
 20
247.41756819198659
 30
0.0
 40
2.00000007
 50
120.0000000000005
 51
180.00001000000091
  0
ARC
  5
38FD
  8
AM_0
 10
357.92995520153659
 20
251.45902719198651
 30
0.0
 40
2.00000007
 50
300.00000000000051
 51
0.0
  0
LINE
  5
38FE
  8
AM_0
 10
359.92996520153667
 20
261.80430219198661
 30
0.0
 11
361.93000520153669
 21
261.80430219198661
 31
0.0
  0
LINE
  5
38FF
  8
AM_0
 10
488.2251425998997
 20
181.80431619198649
 30
0.0
 11
488.2251425998997
 21
193.80433119198639
 31
0.0
  0
LINE
  5
3900
  8
AM_0
 10
614.22515459989961
 20
181.80431619198649
 30
0.0
 11
614.22515459989961
 21
191.80433019198639
 31
0.0
  0
ARC
  5
3901
  8
AM_0
 10
608.22515459989961
 20
187.8043161919864
 30
0.0
 40
3.0
 50
179.9999899999988
 51
270.0
  0
LINE
  5
3902
  8
AM_0
 10
543.43189259989947
 20
186.6897531919864
 30
0.0
 11
542.67830759989965
 21
192.41385819198661
 31
0.0
  0
LINE
  5
3903
  8
AM_0
 10
532.76384759989958
 20
191.1085911919867
 30
0.0
 11
533.51744759989958
 21
185.3844861919867
 31
0.0
  0
LINE
  5
3904
  8
AM_0
 10
518.22515159989962
 20
181.80431619198649
 30
0.0
 11
518.22515159989962
 21
191.80433019198639
 31
0.0
  0
CIRCLE
  5
3905
  8
AM_0
 10
538.09784759989952
 20
188.8991811919864
 30
0.0
 40
4.9999998000000003
  0
ARC
  5
3906
  8
AM_0
 10
524.2251515998995
 20
187.8043161919864
 30
0.0
 40
3.0
 50
270.0
 51
0.0
  0
LINE
  5
3907
  8
AM_0
 10
589.77198359989961
 20
192.41385819198661
 30
0.0
 11
589.0183805998995
 21
186.6897531919864
 31
0.0
  0
CIRCLE
  5
3908
  8
AM_0
 10
594.35238059989979
 20
188.8991811919864
 30
0.0
 40
4.9999998000000003
  0
LINE
  5
3909
  8
AM_0
 10
598.93284059989946
 20
185.3844861919867
 30
0.0
 11
599.6864405998997
 21
191.1085911919867
 31
0.0
  0
LINE
  5
390A
  8
ﾁｭｳｼﾝｾﾝ1
 10
501.22512059989953
 20
195.6593427525471
 30
0.0
 11
501.22512059989953
 21
180.07218448541281
 31
0.0
  0
LINE
  5
390B
  8
ｶｸﾚｾﾝ2
 10
495.22515059989951
 20
193.80433119198639
 30
0.0
 11
495.22515059989951
 21
181.80431619198649
 31
0.0
  0
LINE
  5
390C
  8
ｶｸﾚｾﾝ2
 10
507.22515059989962
 20
193.80433119198639
 30
0.0
 11
507.22515059989962
 21
181.80431619198649
 31
0.0
  0
ARC
  5
390D
  8
AM_0
 10
565.99244009989945
 20
256.80433419198778
 30
0.0
 40
80.00000000000108
 50
247.6683908037686
 51
292.33160919623111
  0
LINE
  5
390E
  8
AM_0
 10
613.2251525998995
 20
182.8043151919864
 30
0.0
 11
519.22515059989962
 21
182.8043151919864
 31
0.0
  0
LINE
  5
390F
  8
AM_0
 10
488.2251425998997
 20
181.80431619198649
 30
0.0
 11
518.22515159989962
 21
181.80431619198649
 31
0.0
  0
LINE
  5
3910
  8
AM_0
 10
533.51748059989973
 20
185.38447119198651
 30
0.0
 11
538.85148059989979
 21
183.17505819198641
 31
0.0
  0
ARC
  5
3911
  8
AM_0
 10
519.22515059989962
 20
181.80431619198649
 30
0.0
 40
1.0000000199999981
 50
90.000003000000945
 51
180.00001000000091
  0
ARC
  5
3912
  8
AM_0
 10
520.22514959989985
 20
182.8043151919864
 30
0.0
 40
2.00000007
 50
90.000003000000945
 51
180.00001000000091
  0
LINE
  5
3913
  8
AM_0
 10
524.2251515998995
 20
184.8043161919864
 30
0.0
 11
520.22514959989985
 21
184.8043161919864
 31
0.0
  0
LINE
  5
3914
  8
AM_0
 10
538.85146259989961
 20
183.1750731919864
 30
0.0
 11
543.43189259989947
 21
186.6897531919864
 31
0.0
  0
LINE
  5
3915
  8
AM_0
 10
589.01839559989946
 20
186.68973819198641
 30
0.0
 11
593.59882559989956
 21
183.17505819198641
 31
0.0
  0
LINE
  5
3916
  8
AM_0
 10
593.59882559989956
 20
183.17508819198659
 30
0.0
 11
598.93285559989954
 21
185.38451619198639
 31
0.0
  0
LINE
  5
3917
  8
AM_0
 10
612.22516859989946
 20
184.8043161919864
 30
0.0
 11
608.22515459989961
 21
184.8043161919864
 31
0.0
  0
ARC
  5
3918
  8
AM_0
 10
613.2251525998995
 20
181.80431619198649
 30
0.0
 40
1.0000000199999981
 50
0.0
 51
90.000003000000945
  0
ARC
  5
3919
  8
AM_0
 10
612.22516859989946
 20
182.8043151919864
 30
0.0
 40
2.00000007
 50
0.0
 51
90.000003000000945
  0
LINE
  5
391A
  8
AM_0
 10
532.2251525998995
 20
198.8043171919864
 30
0.0
 11
600.22516859989946
 21
198.8043171919864
 31
0.0
  0
LINE
  5
391B
  8
AM_0
 10
518.22515159989962
 20
261.80430219198661
 30
0.0
 11
518.22515159989962
 21
198.8043171919864
 31
0.0
  0
ARC
  5
391C
  8
AM_0
 10
547.22513759989965
 20
230.80431819198651
 30
0.0
 40
34.000001999999988
 50
179.9999899999988
 51
211.46696999999941
  0
ARC
  5
391D
  8
AM_0
 10
513.22515059989962
 20
198.8043171919864
 30
0.0
 40
5.0000001000000003
 50
270.0
 51
0.0
  0
ARC
  5
391E
  8
AM_0
 10
516.22515059989951
 20
191.80433019198639
 30
0.0
 40
2.00000007
 50
0.0
 51
90.000003000000945
  0
LINE
  5
391F
  8
AM_0
 10
516.22515059989951
 20
193.80433119198639
 30
0.0
 11
490.22514959989968
 21
193.80433119198639
 31
0.0
  0
ARC
  5
3920
  8
AM_0
 10
490.22514959989968
 20
191.80433019198639
 30
0.0
 40
2.00000007
 50
90.000003000000945
 51
180.00001000000091
  0
LINE
  5
3921
  8
AM_0
 10
537.34429259989975
 20
194.62328619198669
 30
0.0
 11
532.76384759989958
 21
191.1085911919867
 31
0.0
  0
ARC
  5
3922
  8
AM_0
 10
532.2251525998995
 20
193.80433119198639
 30
0.0
 40
5.0000001000000003
 50
90.000003000000945
 51
180.00001000000091
  0
LINE
  5
3923
  8
AM_0
 10
527.22515159989962
 20
193.80433119198639
 30
0.0
 11
527.22515159989962
 21
187.8043161919864
 31
0.0
  0
LINE
  5
3924
  8
AM_0
 10
542.67832259989973
 20
192.41384319198659
 30
0.0
 11
537.34429259989975
 21
194.6232711919867
 31
0.0
  0
LINE
  5
3925
  8
AM_0
 10
614.22515459989961
 20
261.80430219198661
 30
0.0
 11
614.22515459989961
 21
198.8043171919864
 31
0.0
  0
ARC
  5
3926
  8
AM_0
 10
600.22516859989946
 20
193.80433119198639
 30
0.0
 40
5.0000001000000003
 50
0.0
 51
90.000003000000945
  0
LINE
  5
3927
  8
AM_0
 10
595.10602859989956
 20
194.6233011919864
 30
0.0
 11
589.77199859989946
 21
192.4138731919864
 31
0.0
  0
LINE
  5
3928
  8
AM_0
 10
599.6864405998997
 20
191.1085911919867
 30
0.0
 11
595.1060135998996
 21
194.6232711919867
 31
0.0
  0
LINE
  5
3929
  8
AM_0
 10
605.22515459989961
 20
193.80433119198639
 30
0.0
 11
605.22515459989961
 21
187.8043161919864
 31
0.0
  0
ARC
  5
392A
  8
AM_0
 10
616.22515259989939
 20
191.80433019198639
 30
0.0
 40
2.00000007
 50
90.000003000000945
 51
180.00001000000091
  0
LINE
  5
392B
  8
AM_0
 10
644.2251545998995
 20
181.80431619198649
 30
0.0
 11
644.2251545998995
 21
193.80433119198639
 31
0.0
  0
LINE
  5
392C
  8
ﾁｭｳｼﾝｾﾝ1
 10
631.22515559989961
 20
195.6593427525471
 30
0.0
 11
631.22515559989961
 21
180.07218448541281
 31
0.0
  0
LINE
  5
392D
  8
ｶｸﾚｾﾝ2
 10
625.22515559989961
 20
193.80433119198639
 30
0.0
 11
625.22515559989961
 21
181.80431619198649
 31
0.0
  0
LINE
  5
392E
  8
ｶｸﾚｾﾝ2
 10
637.22515559989961
 20
193.80433119198639
 30
0.0
 11
637.22515559989961
 21
181.80431619198649
 31
0.0
  0
ARC
  5
392F
  8
AM_0
 10
642.22516859989946
 20
191.80433019198639
 30
0.0
 40
2.00000007
 50
0.0
 51
90.000003000000945
  0
ARC
  5
3930
  8
AM_0
 10
565.99244009989934
 20
256.80433419198658
 30
0.0
 40
80.000000000000469
 50
42.290616499127893
 51
138.90566149709821
  0
ARC
  5
3931
  8
AM_0
 10
566.22513659989954
 20
217.80433119198659
 30
0.0
 40
110.000004
 50
58.263836000000381
 51
121.7361699999997
  0
ARC
  5
3932
  8
AM_0
 10
611.29239959989945
 20
312.64072719198668
 30
0.0
 40
5.0000001000000003
 50
334.93702999999948
 51
64.582444000001303
  0
ARC
  5
3933
  8
AM_0
 10
628.50342959989985
 20
304.59205719198661
 30
0.0
 40
13.9999986
 50
154.93703999999951
 51
273.19937000000061
  0
LINE
  5
3934
  8
AM_0
 10
369.9299552015367
 20
293.80430319198661
 30
0.0
 11
401.92996520153667
 21
293.80430319198661
 31
0.0
  0
LINE
  5
3935
  8
AM_0
 10
361.93000520153669
 20
290.80431819198662
 30
0.0
 11
401.92996520153667
 21
290.80431819198662
 31
0.0
  0
LINE
  5
3936
  8
AM_0
 10
359.92996520153667
 20
291.80430219198661
 30
0.0
 11
361.93000520153669
 21
291.80430219198661
 31
0.0
  0
LINE
  5
3937
  8
AM_0
 10
369.9299552015367
 20
293.80430319198661
 30
0.0
 11
369.9299552015367
 21
290.80431819198662
 31
0.0
  0
LINE
  5
3938
  8
AM_0
 10
357.92998520153679
 20
304.45900719198647
 30
0.0
 11
358.92997520153671
 21
303.88165719198662
 31
0.0
  0
ARC
  5
3939
  8
AM_0
 10
358.92997520153671
 20
306.19108719198653
 30
0.0
 40
2.00000007
 50
179.9999899999988
 51
240.00000999999969
  0
ARC
  5
393A
  8
AM_0
 10
357.92995520153659
 20
302.14960719198672
 30
0.0
 40
2.00000007
 50
0.0
 51
60.000002000001302
  0
ARC
  5
393B
  8
AM_0
 10
353.92996520153667
 20
307.05532719198658
 30
0.0
 40
3.0
 50
0.0
 51
84.999996999998572
  0
LINE
  5
393C
  8
ﾁｭｳｼﾝｾﾝ
 10
529.05657359989982
 20
276.80430219198649
 30
0.0
 11
601.92248159989936
 21
276.80430219198649
 31
0.0
  0
ARC
  5
393D
  8
AM_0
 10
566.22513659989954
 20
256.80433419198658
 30
0.0
 40
71.000000999999983
 50
47.99935899999911
 51
132.00064999999921
  0
ARC
  5
393E
  8
AM_0
 10
521.15789159989959
 20
312.64072719198668
 30
0.0
 40
5.0000001000000003
 50
115.4175600000008
 51
205.0629700000004
  0
ARC
  5
393F
  8
AM_0
 10
503.94689159989952
 20
304.59205719198661
 30
0.0
 40
13.9999986
 50
266.80063999999902
 51
25.06296900000175
  0
ARC
  5
3940
  8
AM_0
 10
502.88649659989937
 20
285.62165619198652
 30
0.0
 40
5.0000001000000003
 50
86.800638999999066
 51
174.01019000000011
  0
ARC
  5
3941
  8
AM_0
 10
505.6370165998996
 20
287.67628119198662
 30
0.0
 40
3.0
 50
95.70573799999886
 51
152.9994200000007
  0
ARC
  5
3942
  8
AM_0
 10
518.22515159989962
 20
292.05686619198661
 30
0.0
 40
5.0000001000000003
 50
138.71941000000001
 51
180.00001000000091
  0
ARC
  5
3943
  8
AM_0
 10
518.88436259989965
 20
294.34745619198662
 30
0.0
 40
20.000000700000001
 50
121.7361699999997
 51
174.01019000000011
  0
LINE
  5
3944
  8
AM_0
 10
512.49413159989945
 20
305.06296719198662
 30
0.0
 11
507.16011659989931
 21
307.27240719198659
 31
0.0
  0
CIRCLE
  5
3945
  8
AM_0
 10
507.91368959989939
 20
301.54828719198662
 30
0.0
 40
4.9999998000000003
  0
LINE
  5
3946
  8
AM_0
 10
507.16011659989931
 20
307.27240719198659
 30
0.0
 11
502.57970459989969
 21
303.7577271919867
 31
0.0
  0
LINE
  5
3947
  8
AM_0
 10
508.66728959989939
 20
295.82420019198662
 30
0.0
 11
513.24773459989945
 21
299.33890719198661
 31
0.0
  0
LINE
  5
3948
  8
AM_0
 10
502.57970459989969
 20
303.7577271919867
 30
0.0
 11
503.33327459989931
 21
298.03360719198662
 31
0.0
  0
LINE
  5
3949
  8
AM_0
 10
503.33327459989931
 20
298.03360719198662
 30
0.0
 11
508.66728959989939
 21
295.82420019198662
 31
0.0
  0
LINE
  5
394A
  8
AM_0
 10
513.24773459989945
 20
299.33887719198668
 30
0.0
 11
512.49413159989945
 21
305.06296719198662
 31
0.0
  0
ARC
  5
394B
  8
AM_0
 10
520.72368659989957
 20
307.33765719198669
 30
0.0
 40
3.0
 50
132.00064999999921
 51
189.2943400000016
  0
LINE
  5
394C
  8
AM_0
 10
562.2251375998992
 20
286.80430419198649
 30
0.0
 11
570.22512059989958
 21
286.80430419198649
 31
0.0
  0
LINE
  5
394D
  8
AM_0
 10
562.2251375998992
 20
293.80430319198661
 30
0.0
 11
570.22512059989958
 21
293.80430319198661
 31
0.0
  0
LINE
  5
394E
  8
AM_0
 10
562.2251375998992
 20
286.80430419198649
 30
0.0
 11
562.2251375998992
 21
293.80430319198661
 31
0.0
  0
LINE
  5
394F
  8
AM_0
 10
570.22512059989958
 20
286.80430419198649
 30
0.0
 11
570.22512059989958
 21
293.80430319198661
 31
0.0
  0
ARC
  5
3950
  8
AM_0
 10
611.72661959989955
 20
307.33765719198669
 30
0.0
 40
3.0
 50
350.70567000000091
 51
47.99935899999911
  0
ARC
  5
3951
  8
AM_0
 10
629.56382459989993
 20
285.62165619198652
 30
0.0
 40
5.0000001000000003
 50
5.9898155000000548
 51
93.199359000001024
  0
ARC
  5
3952
  8
AM_0
 10
614.22515459989961
 20
292.05686619198661
 30
0.0
 40
5.0000001000000003
 50
0.0
 51
41.280591000000527
  0
ARC
  5
3953
  8
AM_0
 10
626.81328959989946
 20
287.67628119198662
 30
0.0
 40
3.0
 50
27.0005730000006
 51
84.294260999999054
  0
ARC
  5
3954
  8
AM_0
 10
613.56592859989951
 20
294.34745619198662
 30
0.0
 40
20.000000700000001
 50
5.9898155000000548
 51
58.263836000000381
  0
LINE
  5
3955
  8
AM_0
 10
629.87064659989994
 20
303.75763719198659
 30
0.0
 11
625.2902315998997
 21
307.27231719198647
 31
0.0
  0
CIRCLE
  5
3956
  8
AM_0
 10
624.53663159989935
 20
301.5482271919866
 30
0.0
 40
4.9999998000000003
  0
LINE
  5
3957
  8
AM_0
 10
625.2902315998997
 20
307.27237719198661
 30
0.0
 11
619.9562015998996
 21
305.06293719198669
 31
0.0
  0
LINE
  5
3958
  8
AM_0
 10
623.78304659989954
 20
295.82414019198649
 30
0.0
 11
629.11707659989952
 21
298.03357719198652
 31
0.0
  0
LINE
  5
3959
  8
AM_0
 10
619.9562015998996
 20
305.06290719198648
 30
0.0
 11
619.20260159989959
 21
299.33878719198663
 31
0.0
  0
LINE
  5
395A
  8
AM_0
 10
619.20261659989956
 20
299.33878719198663
 30
0.0
 11
623.78304659989954
 21
295.82411019198662
 31
0.0
  0
LINE
  5
395B
  8
AM_0
 10
629.87061659989956
 20
303.75769719198649
 30
0.0
 11
629.11703159989975
 21
298.03360719198662
 31
0.0
  0
LINE
  5
395C
  8
0
  6
CONTINUOUS
 62
     7
 10
246.9299952015368
 20
549.0817165505598
 30
0.0
 11
246.9299952015368
 21
425.08171655055992
 31
0.0
  0
LINE
  5
395D
  8
0
 10
213.93000128121051
 20
567.0817165505598
 30
0.0
 11
213.93000128121051
 21
407.0817165505598
 31
0.0
  0
LINE
  5
395E
  8
0
 10
223.93000128121051
 20
565.0817165505598
 30
0.0
 11
223.93000128121051
 21
409.0817165505598
 31
0.0
  0
LINE
  5
395F
  8
0
 10
213.93000128121051
 20
407.0817165505598
 30
0.0
 11
221.93000128121051
 21
407.0817165505598
 31
0.0
  0
ARC
  5
3960
  8
0
 10
221.93000128121051
 20
409.0817165505598
 30
0.0
 40
2.0
 50
270.0
 51
0.0
1001
GENIUS_GENODEF_13
1002
{
1000
HIER
1070
     0
1002
}
1002
{
1000
MANEDIT
1070
     0
1002
}
1002
{
1000
NOSEL
1070
     0
1002
}
1002
{
1000
BEHIND
1070
     0
1002
}
1002
{
1000
OTHER
1070
     0
1002
}
1002
{
1000
REACTOR
1002
}
1001
GENIUS_GENOBJ-N-FIL_13
1002
{
1000
OWNER
1000
GEN
1002
}
  0
ARC
  5
3961
  8
0
 10
228.93000128121051
 20
424.0817165505598
 30
0.0
 40
5.0
 50
90.0
 51
180.0
1001
GENIUS_GENOBJ-N-FIL_13
1002
{
1000
OWNER
1000
GEN
1002
}
1001
GENIUS_GENODEF_13
1002
{
1000
HIER
1070
     0
1002
}
1002
{
1000
MANEDIT
1070
     0
1002
}
1002
{
1000
NOSEL
1070
     0
1002
}
1002
{
1000
BEHIND
1070
     0
1002
}
1002
{
1000
OTHER
1070
     0
1002
}
1002
{
1000
REACTOR
1002
}
  0
LINE
  5
3962
  8
0
 10
244.9299952015368
 20
429.08171655055992
 30
0.0
 11
228.93000128121051
 21
429.08171655055992
 31
0.0
  0
LINE
  5
3963
  8
0
 10
257.92999520153683
 20
423.08171655055958
 30
0.0
 11
248.9299952015368
 21
423.08171655055958
 31
0.0
  0
ARC
  5
3964
  8
0
 10
248.9299952015368
 20
425.08171655055992
 30
0.0
 40
2.0
 50
180.0
 51
270.0
1001
GENIUS_GENODEF_13
1002
{
1000
HIER
1070
     0
1002
}
1002
{
1000
MANEDIT
1070
     0
1002
}
1002
{
1000
NOSEL
1070
     0
1002
}
1002
{
1000
BEHIND
1070
     0
1002
}
1002
{
1000
OTHER
1070
     0
1002
}
1002
{
1000
REACTOR
1002
}
1001
GENIUS_GENOBJ-N-FIL_13
1002
{
1000
OWNER
1000
GEN
1002
}
  0
ARC
  5
3965
  8
0
 10
244.9299952015368
 20
427.08171655055958
 30
0.0
 40
2.0
 50
0.0
 51
90.0
1001
GENIUS_GENODEF_13
1002
{
1000
HIER
1070
     0
1002
}
1002
{
1000
MANEDIT
1070
     0
1002
}
1002
{
1000
NOSEL
1070
     0
1002
}
1002
{
1000
BEHIND
1070
     0
1002
}
1002
{
1000
OTHER
1070
     0
1002
}
1002
{
1000
REACTOR
1002
}
1001
GENIUS_GENOBJ-N-FIL_13
1002
{
1000
OWNER
1000
GEN
1002
}
  0
LINE
  5
3966
  8
AM_0
 10
257.92999520153683
 20
435.58166005055972
 30
0.0
 11
246.9299952015368
 21
435.58166005055972
 31
0.0
  0
LINE
  5
3967
  8
AM_0
 10
257.92999520153683
 20
449.93374105055972
 30
0.0
 11
246.9299952015368
 21
449.93374105055972
 31
0.0
  0
ARC
  5
3968
  8
0
 10
228.93000128121051
 20
550.0817165505598
 30
0.0
 40
5.0
 50
180.0
 51
270.0
1001
GENIUS_GENOBJ-N-FIL_13
1002
{
1000
OWNER
1000
GEN
1002
}
1001
GENIUS_GENODEF_13
1002
{
1000
HIER
1070
     0
1002
}
1002
{
1000
MANEDIT
1070
     0
1002
}
1002
{
1000
NOSEL
1070
     0
1002
}
1002
{
1000
BEHIND
1070
     0
1002
}
1002
{
1000
OTHER
1070
     0
1002
}
1002
{
1000
REACTOR
1002
}
  0
LINE
  5
3969
  8
0
 10
213.93000128121051
 20
567.0817165505598
 30
0.0
 11
221.93000128121051
 21
567.0817165505598
 31
0.0
  0
ARC
  5
396A
  8
0
 10
221.93000128121051
 20
565.0817165505598
 30
0.0
 40
2.0
 50
0.0
 51
90.0
1001
GENIUS_GENODEF_13
1002
{
1000
HIER
1070
     0
1002
}
1002
{
1000
MANEDIT
1070
     0
1002
}
1002
{
1000
NOSEL
1070
     0
1002
}
1002
{
1000
BEHIND
1070
     0
1002
}
1002
{
1000
OTHER
1070
     0
1002
}
1002
{
1000
REACTOR
1002
}
1001
GENIUS_GENOBJ-N-FIL_13
1002
{
1000
OWNER
1000
GEN
1002
}
  0
ARC
  5
396B
  8
0
 10
248.9299952015368
 20
549.0817165505598
 30
0.0
 40
2.0
 50
90.0
 51
180.0
1001
GENIUS_GENODEF_13
1002
{
1000
HIER
1070
     0
1002
}
1002
{
1000
MANEDIT
1070
     0
1002
}
1002
{
1000
NOSEL
1070
     0
1002
}
1002
{
1000
BEHIND
1070
     0
1002
}
1002
{
1000
OTHER
1070
     0
1002
}
1002
{
1000
REACTOR
1002
}
1001
GENIUS_GENOBJ-N-FIL_13
1002
{
1000
OWNER
1000
GEN
1002
}
  0
LINE
  5
396C
  8
AM_0
 10
257.92999520153683
 20
524.22959605055973
 30
0.0
 11
246.9299952015368
 21
524.22959605055973
 31
0.0
  0
LINE
  5
396D
  8
0
 10
244.9299952015368
 20
545.0817165505598
 30
0.0
 11
228.93000128121051
 21
545.0817165505598
 31
0.0
  0
LINE
  5
396E
  8
AM_0
 10
257.92999520153683
 20
538.58168605055982
 30
0.0
 11
246.9299952015368
 21
538.58168605055982
 31
0.0
  0
LINE
  5
396F
  8
0
 10
257.92999520153683
 20
551.08171655055969
 30
0.0
 11
248.9299952015368
 21
551.08171655055969
 31
0.0
  0
ARC
  5
3970
  8
0
 10
244.9299952015368
 20
547.08171655055969
 30
0.0
 40
2.0
 50
270.0
 51
0.0
1001
GENIUS_GENODEF_13
1002
{
1000
HIER
1070
     0
1002
}
1002
{
1000
MANEDIT
1070
     0
1002
}
1002
{
1000
NOSEL
1070
     0
1002
}
1002
{
1000
BEHIND
1070
     0
1002
}
1002
{
1000
OTHER
1070
     0
1002
}
1002
{
1000
REACTOR
1002
}
1001
GENIUS_GENOBJ-N-FIL_13
1002
{
1000
OWNER
1000
GEN
1002
}
  0
TEXT
  5
3B51
  8
AM_0
 10
464.48495263810872
 20
506.03011313886913
 30
0.0
 40
10.0
  1
VX04-040A~VX04-050A
  0
ENDSEC
  0
EOF
