  0
SECTION
  2
HEADER
  9
$ACADVER
  1
AC1009
  9
$INSBASE
 10
0.0
 20
0.0
 30
0.0
  9
$EXTMIN
 10
186.72917395752049
 20
192.54475609277591
 30
-0.0000000349181948
  9
$EXTMAX
 10
660.58472618889607
 20
613.30047535502854
 30
0.0000000814935747
  9
$LIMMIN
 10
0.0
 20
0.0
  9
$LIMMAX
 10
853.5
 20
555.00000000000011
  9
$ORTHOMODE
 70
     0
  9
$REGENMODE
 70
     1
  9
$FILLMODE
 70
     1
  9
$QTEXTMODE
 70
     0
  9
$MIRRTEXT
 70
     1
  9
$DRAGMODE
 70
     2
  9
$LTSCALE
 40
3.0
  9
$OSMODE
 70
   551
  9
$ATTMODE
 70
     1
  9
$TEXTSIZE
 40
2.5
  9
$TRACEWID
 40
1.0
  9
$TEXTSTYLE
  7
STANDARD
  9
$CLAYER
  8
AM_0
  9
$CELTYPE
  6
BYLAYER
  9
$CECOLOR
 62
   256
  9
$DIMSCALE
 40
1.0
  9
$DIMASZ
 40
2.5
  9
$DIMEXO
 40
1.0
  9
$DIMDLI
 40
8.0
  9
$DIMRND
 40
0.0
  9
$DIMDLE
 40
0.0
  9
$DIMEXE
 40
0.6
  9
$DIMTP
 40
0.1
  9
$DIMTM
 40
0.1
  9
$DIMTXT
 40
2.5
  9
$DIMCEN
 40
0.0
  9
$DIMTSZ
 40
0.0
  9
$DIMTOL
 70
     0
  9
$DIMLIM
 70
     0
  9
$DIMTIH
 70
     0
  9
$DIMTOH
 70
     0
  9
$DIMSE1
 70
     0
  9
$DIMSE2
 70
     0
  9
$DIMTAD
 70
     1
  9
$DIMZIN
 70
     8
  9
$DIMBLK
  1

  9
$DIMASO
 70
     1
  9
$DIMSHO
 70
     1
  9
$DIMPOST
  1

  9
$DIMAPOST
  1
"
  9
$DIMALT
 70
     0
  9
$DIMALTD
 70
     2
  9
$DIMALTF
 40
0.0393701
  9
$DIMLFAC
 40
1.0
  9
$DIMTOFL
 70
     1
  9
$DIMTVP
 40
0.0
  9
$DIMTIX
 70
     0
  9
$DIMSOXD
 70
     0
  9
$DIMSAH
 70
     0
  9
$DIMBLK1
  1

  9
$DIMBLK2
  1

  9
$DIMSTYLE
  2
AM_ISO
  9
$DIMCLRD
 70
   256
  9
$DIMCLRE
 70
   256
  9
$DIMCLRT
 70
     4
  9
$DIMTFAC
 40
0.71
  9
$DIMGAP
 40
0.8
  9
$LUNITS
 70
     2
  9
$LUPREC
 70
     2
  9
$SKETCHINC
 40
1.0
  9
$FILLETRAD
 40
15.0
  9
$AUNITS
 70
     0
  9
$AUPREC
 70
     0
  9
$MENU
  1
.
  9
$ELEVATION
 40
0.0
  9
$PELEVATION
 40
0.0
  9
$THICKNESS
 40
0.0
  9
$LIMCHECK
 70
     0
  9
$BLIPMODE
 70
     0
  9
$CHAMFERA
 40
6.0
  9
$CHAMFERB
 40
3.0
  9
$SKPOLY
 70
     0
  9
$TDCREATE
 40
2452066.390688472
  9
$TDUPDATE
 40
2458541.4688056712
  9
$TDINDWG
 40
0.1222886921
  9
$TDUSRTIMER
 40
0.1222886806
  9
$USRTIMER
 70
     1
  9
$ANGBASE
 50
0.0
  9
$ANGDIR
 70
     0
  9
$PDMODE
 70
     0
  9
$PDSIZE
 40
0.0
  9
$PLINEWID
 40
0.0
  9
$COORDS
 70
     1
  9
$SPLFRAME
 70
     0
  9
$SPLINETYPE
 70
     6
  9
$SPLINESEGS
 70
     8
  9
$ATTDIA
 70
     1
  9
$ATTREQ
 70
     1
  9
$HANDLING
 70
     1
  9
$HANDSEED
  5
331A
  9
$SURFTAB1
 70
     6
  9
$SURFTAB2
 70
     6
  9
$SURFTYPE
 70
     6
  9
$SURFU
 70
     6
  9
$SURFV
 70
     6
  9
$UCSNAME
  2

  9
$UCSORG
 10
0.0
 20
0.0
 30
0.0
  9
$UCSXDIR
 10
1.0
 20
0.0
 30
0.0
  9
$UCSYDIR
 10
0.0
 20
1.0
 30
0.0
  9
$PUCSNAME
  2

  9
$PUCSORG
 10
0.0
 20
0.0
 30
0.0
  9
$PUCSXDIR
 10
1.0
 20
0.0
 30
0.0
  9
$PUCSYDIR
 10
0.0
 20
1.0
 30
0.0
  9
$USERI1
 70
     0
  9
$USERI2
 70
     0
  9
$USERI3
 70
     0
  9
$USERI4
 70
     0
  9
$USERI5
 70
     0
  9
$USERR1
 40
0.0
  9
$USERR2
 40
0.0
  9
$USERR3
 40
0.0
  9
$USERR4
 40
0.0
  9
$USERR5
 40
0.0
  9
$WORLDVIEW
 70
     1
  9
$SHADEDGE
 70
     3
  9
$SHADEDIF
 70
    70
  9
$TILEMODE
 70
     1
  9
$MAXACTVP
 70
    64
  9
$PLIMCHECK
 70
     0
  9
$PEXTMIN
 10
1.0000000000000000E+020
 20
1.0000000000000000E+020
 30
1.0000000000000000E+020
  9
$PEXTMAX
 10
-1.0000000000000000E+020
 20
-1.0000000000000000E+020
 30
-1.0000000000000000E+020
  9
$PLIMMIN
 10
0.0
 20
0.0
  9
$PLIMMAX
 10
420.0
 20
297.0
  9
$UNITMODE
 70
     0
  9
$VISRETAIN
 70
     1
  9
$PLINEGEN
 70
     0
  9
$PSLTSCALE
 70
     1
  0
ENDSEC
  0
SECTION
  2
TABLES
  0
TABLE
  2
VPORT
 70
     1
  0
VPORT
  2
*ACTIVE
 70
     0
 10
0.0
 20
0.0
 11
1.0
 21
1.0
 12
423.65695007320829
 22
402.9226157239022
 13
0.0
 23
0.0
 14
7.5
 24
7.5
 15
30.0
 25
30.0
 16
0.0
 26
0.0
 36
1.0
 17
0.0
 27
0.0
 37
0.0
 40
423.64420246084933
 41
1.7571592210767459
 42
50.0
 43
0.0
 44
0.0
 50
0.0
 51
0.0
 71
     0
 72
   100
 73
     1
 74
     3
 75
     0
 76
     0
 77
     0
 78
     0
  0
ENDTAB
  0
TABLE
  2
LTYPE
 70
    27
  0
LTYPE
  2
CONTINUOUS
 70
     0
  3
Solid line
 72
    65
 73
     0
 40
0.0
  0
LTYPE
  2
AM_ISO02W050
 70
     0
  3
__ __ __ __ __ __ __ __ __ __ __ __ __ __ __
 72
    65
 73
     2
 40
7.5
 49
6.0
 49
-1.5
  0
LTYPE
  2
AM_ISO08W050
 70
     0
  3
____ . ____ . ____ . ____ . ____ . ____ . ____
 72
    65
 73
     4
 40
18.0
 49
12.0
 49
-1.5
 49
3.0
 49
-1.5
  0
LTYPE
  2
AM_ISO09W050
 70
     0
  3
_____ . . _____ . . _____ . . ____ .. ____
 72
    65
 73
     6
 40
22.5
 49
12.0
 49
-1.5
 49
3.0
 49
-1.5
 49
3.0
 49
-1.5
  0
LTYPE
  2
AMCONSTR
 70
     0
  3
_______________________
 72
    65
 73
     2
 40
9999.0
 49
9999.0
 49
0.0
  0
LTYPE
  2
AM_ISO08W050X2
 70
     0
  3
__ . __ . __ . __ . __ . __
 72
    65
 73
     4
 40
9.0
 49
6.0
 49
-0.75
 49
1.5
 49
-0.75
  0
LTYPE
  2
AM_ISO02W050X2
 70
     0
  3
 _ _ _ _ _ _ _ _ _ _ _ _
 72
    65
 73
     2
 40
3.75
 49
3.0
 49
-0.75
  0
LTYPE
  2
AMZIGZAG
 70
     0
  3
/\/-/\/-/\/-/\/-/\/-/\/
 72
    65
 73
     2
 40
11.000099999999991
 49
0.0001
 49
-11.0
  0
LTYPE
  2
ACISOWELD
 70
     0
  3
_ _ _ _ _
 72
    65
 73
     2
 40
2.0
 49
2.0
 49
-1.0
  0
LTYPE
  2
ACISOTGB
 70
     0
  3
__ . . __ . .
 72
    65
 73
     6
 40
9.0
 49
4.0
 49
-1.0
 49
1.0
 49
-1.0
 49
1.0
 49
-1.0
  0
LTYPE
  2
ACISOTGL
 70
     0
  3
_ _ _ _ _
 72
    65
 73
     2
 40
3.0
 49
2.0
 49
-1.0
  0
LTYPE
  2
CENTER
 70
     0
  3
__ . __
 72
    65
 73
     4
 40
7.0
 49
4.0
 49
-1.0
 49
1.0
 49
-1.0
  0
LTYPE
  2
PHANTOM2
 70
     0
  3
Phantom (.5x) ___ _ _ ___ _ _ ___ _ _ ___ _ _
 72
    65
 73
     6
 40
31.75
 49
15.875
 49
-3.174999999999998
 49
3.174999999999998
 49
-3.174999999999998
 49
3.174999999999998
 49
-3.174999999999998
  0
LTYPE
  2
ACANSTGBM
 70
     0
  3
__ . . __ . .
 72
    65
 73
     6
 40
9.0
 49
4.0
 49
-1.0
 49
1.0
 49
-1.0
 49
1.0
 49
-1.0
  0
LTYPE
  2
ACANSTGLM
 70
     0
  3
_ _ _ _ _
 72
    65
 73
     2
 40
3.0
 49
2.0
 49
-1.0
  0
LTYPE
  2
GEN7
 70
     0
  3
____ . ____ . ____ . ____ . ____ . ____ . ____
 72
    65
 73
     4
 40
14.25
 49
9.75
 49
-1.5
 49
1.5
 49
-1.5
  0
LTYPE
  2
GEN3B
 70
     0
  3
 - - - - -
 72
    65
 73
     2
 40
1.0
 49
0.5
 49
-0.5
  0
LTYPE
  2
GEN7A
 70
     0
  3
__ . __ . __
 72
    65
 73
     4
 40
7.375
 49
4.75
 49
-0.875
 49
0.875
 49
-0.875
  0
LTYPE
  2
ACJISTGB
 70
     0
  3
__ . . __ . .
 72
    65
 73
     6
 40
9.0
 49
4.0
 49
-1.0
 49
1.0
 49
-1.0
 49
1.0
 49
-1.0
  0
LTYPE
  2
ACJISTGL
 70
     0
  3
_ _ _ _ _
 72
    65
 73
     2
 40
3.0
 49
2.0
 49
-1.0
  0
LTYPE
  2
HIDDEN
 70
     0
  3
Hidden __ __ __ __ __ __ __ __ __ __ __ __ __ _
 72
    65
 73
     2
 40
0.375
 49
0.25
 49
-0.125
  0
LTYPE
  2
CENTER2
 70
     0
  3
Center (.5x) ___ _ ___ _ ___ _ ___ _ ___ _ ___
 72
    65
 73
     4
 40
1.125
 49
0.75
 49
-0.125
 49
0.125
 49
-0.125
  0
LTYPE
  2
HIDDEN2
 70
     0
  3
Hidden (.5x) _ _ _ _ _ _ _ _ _ _ _ _ _ _ _ _ _
 72
    65
 73
     2
 40
0.1875
 49
0.125
 49
-0.0625
  0
LTYPE
  2
AMZIGZAG2
 70
     0
  3
/\/-/\/-/\/-/\/-/\/-/\/
 72
    65
 73
     2
 40
0.4401
 49
0.0001
 49
-0.4400000000000002
  0
LTYPE
  2
ACANSTGB
 70
     0
  3
__ . . __ . .
 72
    65
 73
     6
 40
0.35433070866
 49
0.15748031496
 49
-0.03937007874
 49
0.03937007874
 49
-0.03937007874
 49
0.03937007874
 49
-0.03937007874
  0
LTYPE
  2
ACANSTGL
 70
     0
  3
_ _ _ _ _
 72
    65
 73
     2
 40
0.11811023622
 49
0.07874015748
 49
-0.03937007874
  0
ENDTAB
  0
TABLE
  2
LAYER
 70
     7
  0
LAYER
  2
0
 70
     0
 62
     7
  6
CONTINUOUS
  0
LAYER
  2
AM_0
 70
     0
 62
     7
  6
CONTINUOUS
  0
LAYER
  2
AM_5
 70
     0
 62
     2
  6
CONTINUOUS
  0
LAYER
  2
DEFPOINTS
 70
     0
 62
     7
  6
CONTINUOUS
  0
LAYER
  2
ｶｸﾚｾﾝ2
 70
     0
 62
     3
  6
GEN3B
  0
LAYER
  2
ﾁｭｳｼﾝｾﾝ
 70
     0
 62
     1
  6
GEN7
  0
LAYER
  2
ﾁｭｳｼﾝｾﾝ1
 70
     0
 62
     1
  6
GEN7A
  0
ENDTAB
  0
TABLE
  2
STYLE
 70
     9
  0
STYLE
  2
STANDARD
 70
     0
 40
0.0
 41
0.8299999999999999
 50
0.0
 71
     0
 42
2.5
  3
txt.shx
  4
bigfont.shx
  0
STYLE
  2
ANNOTATIVE
 70
     0
 40
0.0
 41
1.0
 50
0.0
 71
     0
 42
0.2
  3
txt
  4

  0
STYLE
  2

 70
     1
 40
0.0
 41
1.0
 50
0.0
 71
     0
 42
2.5
  3
ltypeshp.shx
  4

  0
STYLE
  2
ACISOTS
 70
     0
 40
1.0
 41
1.0
 50
0.0
 71
     0
 42
2.5
  3
isocp.shx
  4
extfont.shx
  0
STYLE
  2
ACISOGDT
 70
     0
 40
0.0
 41
1.0
 50
0.0
 71
     0
 42
2.5
  3
amgdt.shx
  4

  0
STYLE
  2
ACANSTS
 70
     0
 40
1.0
 41
1.0
 50
0.0
 71
     0
 42
2.5
  3
romans.shx
  4
bigfont.shx
  0
STYLE
  2
ACANSGDT
 70
     0
 40
0.0
 41
1.0
 50
0.0
 71
     0
 42
2.5
  3
amgdt.shx
  4

  0
STYLE
  2
ACJISTS
 70
     0
 40
1.0
 41
1.0
 50
0.0
 71
     0
 42
2.5
  3
isocp.shx
  4
bigfont.shx
  0
STYLE
  2
ACJISGDT
 70
     0
 40
0.0
 41
1.0
 50
0.0
 71
     0
 42
2.5
  3
amgdt.shx
  4

  0
ENDTAB
  0
TABLE
  2
VIEW
 70
     6
  0
VIEW
  2
AM_VIEW1
 70
     0
 40
277.49999999999989
 10
249.64779005524849
 20
416.24999999999989
 41
499.2955801104971
 11
0.0
 21
0.0
 31
1.0
 12
0.0
 22
0.0
 32
0.0
 42
50.0
 43
0.0
 44
0.0
 50
0.0
 71
     0
  0
VIEW
  2
AM_VIEW2
 70
     0
 40
277.49999999999989
 10
603.85220994475117
 20
416.24999999999989
 41
499.2955801104971
 11
0.0
 21
0.0
 31
1.0
 12
0.0
 22
0.0
 32
0.0
 42
50.0
 43
0.0
 44
0.0
 50
0.0
 71
     0
  0
VIEW
  2
AM_VIEW3
 70
     0
 40
277.49999999999989
 10
249.64779005524849
 20
138.7499999999998
 41
499.2955801104971
 11
0.0
 21
0.0
 31
1.0
 12
0.0
 22
0.0
 32
0.0
 42
50.0
 43
0.0
 44
0.0
 50
0.0
 71
     0
  0
VIEW
  2
AM_VIEW4
 70
     0
 40
277.49999999999989
 10
603.85220994475117
 20
138.7499999999998
 41
499.2955801104971
 11
0.0
 21
0.0
 31
1.0
 12
0.0
 22
0.0
 32
0.0
 42
50.0
 43
0.0
 44
0.0
 50
0.0
 71
     0
  0
VIEW
  2
AM_VIEW5
 70
     0
 40
277.5
 10
426.75
 20
277.49999999999989
 41
499.2955801104971
 11
0.0
 21
0.0
 31
1.0
 12
0.0
 22
0.0
 32
0.0
 42
50.0
 43
0.0
 44
0.0
 50
0.0
 71
     0
  0
VIEW
  2
AM_VIEW6
 70
     0
 40
554.99445000000014
 10
426.75
 20
277.49999999999989
 41
998.5811743093924
 11
0.0
 21
0.0
 31
1.0
 12
0.0
 22
0.0
 32
0.0
 42
50.0
 43
0.0
 44
0.0
 50
0.0
 71
     0
  0
ENDTAB
  0
TABLE
  2
UCS
 70
     0
  0
ENDTAB
  0
TABLE
  2
APPID
 70
    95
  0
APPID
  2
ACAD
 70
     0
  0
APPID
  2
ACADANNOTATIVE
 70
     0
  0
APPID
  2
MCAD_NO_VIS
 70
     0
  0
APPID
  2
ACAD_TEMP_GRAPHIC
 70
     0
  0
APPID
  2
ACATTRIBSERVICES
 70
     0
  0
APPID
  2
GENIUS_GENREC_14
 70
     0
  0
APPID
  2
GENIUS_GENOBJ-N-REC_13
 70
     0
  0
APPID
  2
GENIUS_GENODEF_13
 70
     0
  0
APPID
  2
GENIUS_GENOLIS_13
 70
     0
  0
APPID
  2
GENIUS_GENOBJ-N-TIT_13
 70
     0
  0
APPID
  2
GENIUS_GENOENT_13
 70
     0
  0
APPID
  2
GENIUS_GENTITLE_13
 70
     0
  0
APPID
  2
GENIUS_GENOREF_13
 70
     0
  0
APPID
  2
GENIUS_GENSCREG_15
 70
     0
  0
APPID
  2
GENIUS_GENOBJ-N-SDF_13
 70
     0
  0
APPID
  2
GENIUS_GENFIL_13
 70
     0
  0
APPID
  2
GENIUS_GENOBJ-N-CHA_13
 70
     0
  0
APPID
  2
GENIUS_GENDTOL_13
 70
     0
  0
APPID
  2
GENIUS_GENOBJ-N-FIL_13
 70
     0
  0
APPID
  2
AD_DRAW
 70
     0
  0
APPID
  2
DESIGNERASSEMBLIES
 70
     0
  0
APPID
  2
ASURF_PCURVE_APPNAME
 70
     0
  0
APPID
  2
GENIUS_GE3SECT_13
 70
     0
  0
APPID
  2
GENIUS_GENCFG_13
 70
     0
  0
APPID
  2
GENIUS_GE3CFG0_13
 70
     0
  0
APPID
  2
GENIUS_GENCFG0_13
 70
     0
  0
APPID
  2
GENIUS_GENCFG1_13
 70
     0
  0
APPID
  2
GENIUS_GENCFG2_13
 70
     0
  0
APPID
  2
GENIUS_GENCFG3_13
 70
     0
  0
APPID
  2
GENIUS_GENCFG4_13
 70
     0
  0
APPID
  2
GENIUS_GEVCFG0_13
 70
     0
  0
APPID
  2
GENIUS_GENHINW_13
 70
     0
  0
APPID
  2
GENIUS_FIRSTVISTXT_14
 70
     0
  0
APPID
  2
GENIUS_GENOBJ-N-LEADER_13
 70
     0
  0
APPID
  2
GEV_VCCNULL_SWITCH_OFF
 70
     0
  0
APPID
  2
GENIUS_GEFCFG0_13
 70
     0
  0
APPID
  2
GENIUS_GENZVEED_13
 70
     0
  0
APPID
  2
GENIUS_GENSCREG_13
 70
     0
  0
APPID
  2
GENIUS_DUMCFG0_13
 70
     0
  0
APPID
  2
GEVID936201362
 70
     0
  0
APPID
  2
GEVDC
 70
     0
  0
APPID
  2
GEVCON
 70
     0
  0
APPID
  2
VCC
 70
     0
  0
APPID
  2
GEVPT
 70
     0
  0
APPID
  2
GEVIT
 70
     0
  0
APPID
  2
GENBH
 70
     0
  0
APPID
  2
GEVMK
 70
     0
  0
APPID
  2
GENIUS_GENBH_13
 70
     0
  0
APPID
  2
GENIUS_GENOBJ-NBEHI-BHF_13
 70
     0
  0
APPID
  2
GENIUS_GENOBJ-NBEHI-BHB_13
 70
     0
  0
APPID
  2
GENIUS_GENOBJ-F-DESC_13
 70
     0
  0
APPID
  2
GENIUS_GEFDESC_14
 70
     0
  0
APPID
  2
GENIUS_GENOBJ-F-PART_13
 70
     0
  0
APPID
  2
GENIUS_GEFSTDP_13
 70
     0
  0
APPID
  2
GENIUS_GEFPARTINS_13
 70
     0
  0
APPID
  2
GENIUS_GENTRA_14
 70
     0
  0
APPID
  2
GENIUS_GENINF13_13
 70
     0
  0
APPID
  2
GENIUS_GENOBJ-N-INFOPT_13
 70
     0
  0
APPID
  2
GENIUS_GENOBJ-N-RSSYM_13
 70
     0
  0
APPID
  2
GENIUS_GENSYMENT_13
 70
     0
  0
APPID
  2
GENIUS_GENSCSYM_13
 70
     0
  0
APPID
  2
GENIUS_GEFINFNAM_13
 70
     0
  0
APPID
  2
GENIUS_GENOBJ-N-CEN_13
 70
     0
  0
APPID
  2
GENIUS_GENOBJ-N-CRS_13
 70
     0
  0
APPID
  2
GENIUS_GENOBJ-N-CRC_13
 70
     0
  0
APPID
  2
GENIUS_GENCRC_14
 70
     0
  0
APPID
  2
GEVID942827039
 70
     0
  0
APPID
  2
GEVID942827040
 70
     0
  0
APPID
  2
GEVID942827041
 70
     0
  0
APPID
  2
GENIUS_GENOBJ-F-SCPASSM_13
 70
     0
  0
APPID
  2
GENIUS_GENDIMSH_14
 70
     0
  0
APPID
  2
GEVID942827042
 70
     0
  0
APPID
  2
GEVID946020473
 70
     0
  0
APPID
  2
GEVID946020474
 70
     0
  0
APPID
  2
GEVID946020475
 70
     0
  0
APPID
  2
GENIUS_GENOBJ-N-HTC_13
 70
     0
  0
APPID
  2
GENIUS_GENHATCH_13
 70
     0
  0
APPID
  2
GEVID948854295
 70
     0
  0
APPID
  2
GEVID939402019
 70
     0
  0
APPID
  2
GEVID952919491
 70
     0
  0
APPID
  2
GEVID952919492
 70
     0
  0
APPID
  2
GENIUS_GEFWELD_13
 70
     0
  0
APPID
  2
GENIUS_GENOBJ-F-WELS_13
 70
     0
  0
APPID
  2
GEVID952919493
 70
     0
  0
APPID
  2
GENIUS_GENOBJ-N-RSBK_13
 70
     0
  0
APPID
  2
GENIUS_GENOBJ-N-LIB_13
 70
     0
  0
APPID
  2
GENIUS_GENSCALE_13
 70
     0
  0
APPID
  2
GEVID986376691
 70
     0
  0
APPID
  2
DCO15
 70
     0
  0
APPID
  2
ACAD_DSTYLE_DIMBREAK
 70
     0
  0
APPID
  2
ACAD_DSTYLE_DIMJAG
 70
     0
  0
APPID
  2
ACAD_NAV_VCDISPLAY
 70
     0
  0
APPID
  2
ACADANNOPO
 70
     0
  0
APPID
  2
ACAD_EXEMPT_FROM_CAD_STANDARDS
 70
     0
  0
APPID
  2
ACAD_MLEADERVER
 70
     0
  0
ENDTAB
  0
TABLE
  2
DIMSTYLE
 70
    22
  0
DIMSTYLE
  2
STANDARD
 70
     0
  3

  4

  5

  6

  7

 40
1.0
 41
0.18
 42
0.0625
 43
0.38
 44
0.18
 45
0.0
 46
0.0
 47
0.0
 48
0.0
140
0.18
141
0.09
142
0.0
143
25.399999999999999
144
1.0
145
0.0
146
1.0
147
0.09
 71
     0
 72
     0
 73
     1
 74
     1
 75
     0
 76
     0
 77
     0
 78
     0
170
     0
171
     2
172
     0
173
     0
174
     0
175
     0
176
     0
177
     0
178
     0
  0
DIMSTYLE
  2
ANNOTATIVE
 70
     0
  3

  4

  5

  6

  7

 40
1.0
 41
0.18
 42
0.0625
 43
0.38
 44
0.18
 45
0.0
 46
0.0
 47
0.0
 48
0.0
140
0.18
141
0.09
142
0.0
143
25.399999999999999
144
1.0
145
0.0
146
1.0
147
0.09
 71
     0
 72
     0
 73
     1
 74
     1
 75
     0
 76
     0
 77
     0
 78
     0
170
     0
171
     2
172
     0
173
     0
174
     0
175
     0
176
     0
177
     0
178
     0
  0
DIMSTYLE
  2
AM_ISO
 70
     0
  3

  4
"
  5

  6

  7

 40
1.0
 41
2.5
 42
1.0
 43
8.0
 44
0.6
 45
0.0
 46
0.0
 47
0.1
 48
0.1
140
2.5
141
0.0
142
0.0
143
0.0393701
144
1.0
145
0.0
146
0.71
147
0.8
 71
     0
 72
     0
 73
     0
 74
     0
 75
     0
 76
     0
 77
     1
 78
     8
170
     0
171
     2
172
     1
173
     0
174
     0
175
     0
176
   256
177
   256
178
     4
  0
DIMSTYLE
  2
AM_ISO$3
 70
     0
  3

  4
"
  5

  6

  7

 40
1.0
 41
2.5
 42
1.0
 43
8.0
 44
0.6
 45
0.0
 46
0.0
 47
0.1
 48
0.1
140
2.5
141
0.0
142
0.0
143
0.0393701
144
1.0
145
0.0
146
0.71
147
0.8
 71
     0
 72
     0
 73
     0
 74
     1
 75
     0
 76
     0
 77
     1
 78
     8
170
     0
171
     2
172
     0
173
     0
174
     0
175
     0
176
   256
177
   256
178
     4
  0
DIMSTYLE
  2
AM_ISO$4
 70
     0
  3

  4
"
  5

  6

  7

 40
1.0
 41
2.5
 42
1.0
 43
8.0
 44
0.6
 45
0.0
 46
0.0
 47
0.1
 48
0.1
140
2.5
141
0.0
142
0.0
143
0.0393701
144
1.0
145
0.0
146
0.71
147
0.8
 71
     0
 72
     0
 73
     0
 74
     1
 75
     0
 76
     0
 77
     1
 78
     8
170
     0
171
     2
172
     0
173
     0
174
     0
175
     0
176
   256
177
   256
178
     4
  0
DIMSTYLE
  2
AM_ISO$6
 70
     0
  3

  4
"
  5

  6

  7

 40
1.0
 41
2.5
 42
1.0
 43
8.0
 44
0.6
 45
0.0
 46
0.0
 47
0.1
 48
0.1
140
2.5
141
0.0
142
0.0
143
0.0393701
144
1.0
145
0.0
146
0.71
147
0.8
 71
     0
 72
     0
 73
     0
 74
     0
 75
     0
 76
     0
 77
     0
 78
     8
170
     0
171
     2
172
     1
173
     0
174
     0
175
     0
176
   256
177
   256
178
     4
  0
DIMSTYLE
  2
AM_ISO$7
 70
     0
  3

  4
"
  5

  6

  7

 40
1.0
 41
2.5
 42
1.0
 43
8.0
 44
0.6
 45
0.0
 46
0.0
 47
0.1
 48
0.1
140
2.5
141
0.0
142
0.0
143
0.0393701
144
1.0
145
0.0
146
0.71
147
0.8
 71
     0
 72
     0
 73
     0
 74
     0
 75
     0
 76
     0
 77
     1
 78
     8
170
     0
171
     2
172
     1
173
     0
174
     0
175
     0
176
   256
177
   256
178
     4
  0
DIMSTYLE
  2
AM_ISO$SF
 70
     0
  3

  4
"
  5

  6

  7

 40
1.0
 41
2.5
 42
1.0
 43
10.0
 44
1.0
 45
0.0
 46
0.0
 47
0.1
 48
0.1
140
3.5
141
0.0
142
0.0
143
0.0393701
144
1.0
145
0.0
146
0.71
147
1.5
 71
     0
 72
     0
 73
     0
 74
     0
 75
     1
 76
     1
 77
     1
 78
     8
170
     0
171
     2
172
     1
173
     0
174
     0
175
     0
176
   256
177
   256
178
     2
  0
DIMSTYLE
  2
AM_ISO$SH
 70
     0
  3

  4
"
  5

  6

  7

 40
1.0
 41
2.5
 42
1.0
 43
10.0
 44
1.0
 45
0.0
 46
0.0
 47
0.1
 48
0.1
140
3.5
141
0.0
142
0.0
143
0.0393701
144
2.0
145
0.0
146
0.71
147
1.5
 71
     0
 72
     0
 73
     0
 74
     0
 75
     1
 76
     1
 77
     1
 78
     8
170
     0
171
     2
172
     1
173
     1
174
     0
175
     0
176
   256
177
   256
178
     2
  0
DIMSTYLE
  2
AM_JIS
 70
     0
  3

  4
"
  5

  6

  7

 40
1.0
 41
2.5
 42
1.0
 43
7.0
 44
1.0
 45
0.0
 46
0.0
 47
0.1
 48
0.1000000001
140
2.5
141
0.0
142
0.0
143
0.0393701
144
1.0
145
0.0
146
0.71
147
1.0
 71
     0
 72
     0
 73
     0
 74
     0
 75
     0
 76
     0
 77
     3
 78
     8
170
     0
171
     2
172
     1
173
     0
174
     0
175
     0
176
   256
177
   256
178
     4
  0
DIMSTYLE
  2
AM_JIS$3
 70
     0
  3

  4
"
  5

  6

  7

 40
1.0
 41
2.5
 42
1.0
 43
7.0
 44
1.0
 45
0.0
 46
0.0
 47
0.1
 48
0.1000000001
140
2.5
141
0.0
142
0.0
143
0.0393701
144
1.0
145
0.0
146
0.71
147
1.0
 71
     0
 72
     0
 73
     0
 74
     1
 75
     0
 76
     0
 77
     3
 78
     8
170
     0
171
     2
172
     0
173
     0
174
     0
175
     0
176
   256
177
   256
178
     4
  0
DIMSTYLE
  2
AM_JIS$4
 70
     0
  3

  4
"
  5

  6

  7

 40
1.0
 41
2.5
 42
1.0
 43
7.0
 44
1.0
 45
0.0
 46
0.0
 47
0.1
 48
0.1000000001
140
2.5
141
0.0
142
0.0
143
0.0393701
144
1.0
145
0.0
146
0.71
147
1.0
 71
     0
 72
     0
 73
     0
 74
     0
 75
     0
 76
     0
 77
     3
 78
     8
170
     0
171
     2
172
     0
173
     0
174
     0
175
     0
176
   256
177
   256
178
     4
  0
DIMSTYLE
  2
AM_JIS$6
 70
     0
  3

  4
"
  5

  6

  7

 40
1.0
 41
2.5
 42
1.0
 43
7.0
 44
1.0
 45
0.0
 46
0.0
 47
0.1
 48
0.1000000001
140
2.5
141
0.0
142
0.0
143
0.0393701
144
1.0
145
0.0
146
0.71
147
1.0
 71
     0
 72
     0
 73
     0
 74
     0
 75
     0
 76
     0
 77
     0
 78
     8
170
     0
171
     2
172
     1
173
     0
174
     0
175
     0
176
   256
177
   256
178
     4
  0
DIMSTYLE
  2
AM_JIS$7
 70
     0
  3

  4
"
  5

  6

  7

 40
1.0
 41
2.5
 42
1.0
 43
7.0
 44
1.0
 45
0.0
 46
0.0
 47
0.1
 48
0.1000000001
140
2.5
141
0.0
142
0.0
143
0.0393701
144
1.0
145
0.0
146
0.71
147
1.0
 71
     0
 72
     0
 73
     0
 74
     0
 75
     0
 76
     0
 77
     3
 78
     8
170
     0
171
     2
172
     1
173
     0
174
     0
175
     0
176
   256
177
   256
178
     4
  0
DIMSTYLE
  2
AM_JIS$SF
 70
     0
  3

  4
"
  5

  6

  7

 40
1.0
 41
2.5
 42
1.0
 43
10.0
 44
1.0
 45
0.0
 46
0.0
 47
0.1
 48
0.1
140
3.5
141
0.0
142
0.0
143
0.0393701
144
1.0
145
0.0
146
0.71
147
1.5
 71
     0
 72
     0
 73
     0
 74
     0
 75
     1
 76
     1
 77
     3
 78
     8
170
     0
171
     2
172
     1
173
     0
174
     0
175
     0
176
   256
177
   256
178
     4
  0
DIMSTYLE
  2
AM_JIS$SH
 70
     0
  3

  4
"
  5

  6

  7

 40
1.0
 41
2.5
 42
1.0
 43
10.0
 44
1.0
 45
0.0
 46
0.0
 47
0.1
 48
0.1
140
3.5
141
0.0
142
0.0
143
0.0393701
144
1.0
145
0.0
146
0.71
147
1.5
 71
     0
 72
     0
 73
     0
 74
     0
 75
     1
 76
     0
 77
     3
 78
     8
170
     0
171
     2
172
     1
173
     1
174
     0
175
     0
176
   256
177
   256
178
     4
  0
DIMSTYLE
  2
AM_ANSI
 70
     0
  3

  4
mm
  5

  6

  7

 40
1.0
 41
0.1
 42
0.05
 43
0.5
 44
0.1
 45
0.0
 46
0.0
 47
0.1
 48
0.1
140
0.12
141
0.0
142
0.0
143
25.399999999999999
144
1.0
145
0.0
146
0.71
147
0.06
 71
     0
 72
     0
 73
     1
 74
     1
 75
     0
 76
     0
 77
     0
 78
     7
170
     0
171
     2
172
     0
173
     0
174
     0
175
     0
176
   256
177
   256
178
     2
  0
DIMSTYLE
  2
AM_ANSI$3
 70
     0
  3

  4
mm
  5

  6

  7

 40
1.0
 41
0.1
 42
0.05
 43
0.5
 44
0.1
 45
0.0
 46
0.0
 47
0.1
 48
0.1
140
0.12
141
0.0
142
0.0
143
25.399999999999999
144
1.0
145
0.0
146
0.71
147
0.06
 71
     0
 72
     0
 73
     1
 74
     1
 75
     0
 76
     0
 77
     0
 78
     7
170
     0
171
     2
172
     0
173
     0
174
     0
175
     0
176
   256
177
   256
178
     2
  0
DIMSTYLE
  2
AM_ANSI$4
 70
     0
  3

  4
mm
  5

  6

  7

 40
1.0
 41
0.1
 42
0.05
 43
0.5
 44
0.1
 45
0.0
 46
0.0
 47
0.1
 48
0.1
140
0.12
141
0.0
142
0.0
143
25.399999999999999
144
1.0
145
0.0
146
0.71
147
0.06
 71
     0
 72
     0
 73
     1
 74
     1
 75
     0
 76
     0
 77
     0
 78
     7
170
     0
171
     2
172
     0
173
     0
174
     0
175
     0
176
   256
177
   256
178
     2
  0
DIMSTYLE
  2
AM_ANSI$7
 70
     0
  3

  4
mm
  5

  6

  7

 40
1.0
 41
0.1
 42
0.05
 43
0.5
 44
0.1
 45
0.0
 46
0.0
 47
0.1
 48
0.1
140
0.24
141
0.0
142
0.0
143
25.399999999999999
144
1.0
145
0.0
146
0.71
147
0.06
 71
     0
 72
     0
 73
     1
 74
     1
 75
     0
 76
     0
 77
     0
 78
     7
170
     0
171
     2
172
     0
173
     0
174
     0
175
     0
176
   256
177
   256
178
     2
  0
DIMSTYLE
  2
AM_ANSI$SF
 70
     0
  3

  4
mm
  5

  6

  7

 40
1.0
 41
0.1
 42
0.05
 43
0.5
 44
0.1
 45
0.0
 46
0.0
 47
0.1
 48
0.1
140
0.12
141
0.0
142
0.0
143
25.399999999999999
144
1.0
145
0.0
146
0.71
147
0.06
 71
     0
 72
     0
 73
     1
 74
     1
 75
     1
 76
     1
 77
     0
 78
     7
170
     0
171
     2
172
     0
173
     0
174
     0
175
     0
176
   256
177
   256
178
     2
  0
DIMSTYLE
  2
AM_ANSI$SH
 70
     0
  3

  4
mm
  5

  6

  7

 40
1.0
 41
0.1
 42
0.05
 43
0.5
 44
0.1
 45
0.0
 46
0.0
 47
0.1
 48
0.1
140
0.12
141
0.0
142
0.0
143
25.399999999999999
144
1.0
145
0.0
146
0.71
147
0.06
 71
     0
 72
     0
 73
     1
 74
     1
 75
     1
 76
     1
 77
     0
 78
     7
170
     0
171
     2
172
     0
173
     1
174
     0
175
     0
176
   256
177
   256
178
     2
  0
ENDTAB
  0
ENDSEC
  0
SECTION
  2
BLOCKS
  0
BLOCK
  8
0
  2
$MODEL_SPACE
 70
     0
 10
0.0
 20
0.0
 30
0.0
  3
$MODEL_SPACE
  1

  0
ENDBLK
  5
318C
  8
0
  0
BLOCK
 67
     1
  8
0
  2
$PAPER_SPACE
 70
     0
 10
0.0
 20
0.0
 30
0.0
  3
$PAPER_SPACE
  1

  0
ENDBLK
  5
3188
 67
     1
  8
0
  0
BLOCK
  8
0
  2
GENAXEH
 70
     0
 10
0.0
 20
0.0
 30
0.0
  3
GENAXEH
  1

  0
LINE
  5
2F42
  8
0
 10
-1.0
 20
0.0
 30
0.0
 11
1.0
 21
0.0
 31
0.0
  0
ENDBLK
  5
2F43
  8
0
  0
BLOCK
  8
0
  2
_OPEN30
 70
     0
 10
0.0
 20
0.0
 30
0.0
  3
_OPEN30
  1

  0
LINE
  5
2F46
  8
0
 62
     0
 10
-1.0
 20
0.26794919
 30
0.0
 11
0.0
 21
0.0
 31
0.0
  0
LINE
  5
2F47
  8
0
 62
     0
 10
0.0
 20
0.0
 30
0.0
 11
-1.0
 21
-0.26794919
 31
0.0
  0
LINE
  5
2F48
  8
0
 62
     0
 10
0.0
 20
0.0
 30
0.0
 11
-1.0
 21
0.0
 31
0.0
  0
ENDBLK
  5
2F49
  8
0
  0
BLOCK
  8
0
  2
_NONE
 70
     0
 10
0.0
 20
0.0
 30
0.0
  3
_NONE
  1

  0
ENDBLK
  5
2F4C
  8
0
  0
BLOCK
  8
0
  2
_ACMFILLEDHALF
 70
     0
 10
0.0
 20
0.0
 30
0.0
  3
_ACMFILLEDHALF
  1

  0
TRACE
  5
3284
  8
AM_0
 62
     0
 10
-0.8
 20
0.0
 30
0.0
 11
-1.0
 21
0.166666666
 31
0.0
 12
0.0
 22
0.0
 32
0.0
 13
0.0
 23
0.0
 33
0.0
  0
LINE
  5
3285
  8
AM_0
 62
     0
 10
-1.0
 20
0.0
 30
0.0
 11
-0.8
 21
0.0
 31
0.0
  0
ENDBLK
  5
3283
  8
0
  0
ENDSEC
  0
SECTION
  2
ENTITIES
  0
LINE
  5
2F4E
  8
AM_0
 10
371.98096090673562
 20
527.29441351343053
 30
0.0
 11
403.98096090673562
 21
527.29441351343053
 31
0.0
  0
LINE
  5
2F4F
  8
AM_0
 10
371.98096090673562
 20
519.29444351343056
 30
0.0
 11
403.98096090673562
 21
519.29444351343056
 31
0.0
  0
LINE
  5
2F50
  8
AM_0
 10
361.9809909067356
 20
509.2944735134306
 30
0.0
 11
403.98096090673562
 21
509.2944735134306
 31
0.0
  0
LINE
  5
2F51
  8
AM_0
 10
361.9809909067356
 20
537.29447351343038
 30
0.0
 11
403.98096090673562
 21
537.29447351343038
 31
0.0
  0
LINE
  5
2F52
  8
ﾁｭｳｼﾝｾﾝ
 10
186.73960502940551
 20
523.29444351343056
 30
0.0
 11
408.68799090673559
 21
523.29444351343056
 31
0.0
  0
ARC
  5
2F53
  8
AM_0
 10
371.98096090673562
 20
523.29441351343053
 30
0.0
 40
3.9999962
 50
90.000003000000945
 51
270.0
  0
LINE
  5
2F54
  8
AM_0
 10
239.4809909067356
 20
459.29444351343051
 30
0.0
 11
239.4809909067356
 21
587.29444351343045
 31
0.0
  0
LINE
  5
2F55
  8
AM_0
 10
275.98096090673562
 20
452.20426351343048
 30
0.0
 11
275.98096090673562
 21
594.3846235134306
 31
0.0
  0
LINE
  5
2F56
  8
AM_0
 10
265.9809909067356
 20
446.46558351343072
 30
0.0
 11
265.9809909067356
 21
600.12330351343053
 31
0.0
  0
LINE
  5
2F57
  8
AM_0
 10
343.98099090673549
 20
468.12290351343057
 30
0.0
 11
343.98099090673549
 21
578.4659835134305
 31
0.0
  0
LINE
  5
2F58
  8
AM_0
 10
358.98099090673549
 20
551.32029351343056
 30
0.0
 11
358.98099090673549
 21
495.26859351343029
 31
0.0
  0
LINE
  5
2F59
  8
AM_0
 10
355.9809909067356
 20
469.16742351343038
 30
0.0
 11
355.9809909067356
 21
577.42145351343027
 31
0.0
  0
LINE
  5
2F5A
  8
AM_0
 10
282.98099090673543
 20
441.04349351343029
 30
0.0
 11
282.98099090673543
 21
605.54539351343044
 31
0.0
  0
LINE
  5
2F5B
  8
AM_0
 10
371.98096090673562
 20
527.29441351343053
 30
0.0
 11
371.98096090673562
 21
519.29444351343056
 31
0.0
  0
LINE
  5
2F5C
  8
AM_0
 10
361.9809909067356
 20
538.29444351343045
 30
0.0
 11
361.9809909067356
 21
508.29444351343039
 31
0.0
  0
POLYLINE
  5
2F5D
  8
AM_0
 66
     1
 10
0.0
 20
0.0
 30
0.0
  0
VERTEX
  5
2F5E
  8
AM_0
 10
284.24453090673558
 20
443.36546351343043
 30
0.0
 42
0.021277534
  0
VERTEX
  5
2F5F
  8
AM_0
 10
295.07467090673549
 20
445.4219835134304
 30
0.0
 42
0.020622971
  0
VERTEX
  5
2F60
  8
AM_0
 10
305.19943090673542
 20
448.2390235134306
 30
0.0
 42
0.022709
  0
VERTEX
  5
2F61
  8
AM_0
 10
316.00635090673552
 20
452.2845835134305
 30
0.0
  0
SEQEND
  5
2F62
  8
AM_0
  0
POLYLINE
  5
2F63
  8
AM_0
 66
     1
 10
0.0
 20
0.0
 30
0.0
  0
VERTEX
  5
2F64
  8
AM_0
 10
282.98099090673543
 20
485.0193535134303
 30
0.0
 42
-0.059991193
  0
VERTEX
  5
2F65
  8
AM_0
 10
308.56980090673562
 20
469.08714351343048
 30
0.0
 42
-0.30883796
  0
VERTEX
  5
2F66
  8
AM_0
 10
317.98096090673562
 20
453.14640351343041
 30
0.0
 42
-0.25905842
  0
VERTEX
  5
2F67
  8
AM_0
 10
283.53129090673559
 20
433.3583435134305
 30
0.0
  0
SEQEND
  5
2F68
  8
AM_0
  0
LINE
  5
2F69
  8
AM_0
 10
285.98099090673543
 20
433.29444351343039
 30
0.0
 11
356.05951090673562
 21
435.12952351343063
 31
0.0
  0
ARC
  5
2F6A
  8
ｶｸﾚｾﾝ2
 10
263.9809909067356
 20
448.29444351343062
 30
0.0
 40
6.0
 50
302.21188000000092
 51
70.528778999998195
  0
ARC
  5
2F6B
  8
AM_0
 10
270.98099090673549
 20
446.46558351343072
 30
0.0
 40
5.0
 50
180.00001000000091
 51
267.99999999999932
  0
ARC
  5
2F6C
  8
AM_0
 10
263.9809909067356
 20
448.29444351343062
 30
0.0
 40
6.0
 50
70.528778999998195
 51
302.21188000000092
  0
LINE
  5
2F6D
  8
AM_0
 10
248.9809909067356
 20
437.18577351343032
 30
0.0
 11
248.9809909067356
 21
456.07834351343058
 31
0.0
  0
LINE
  5
2F6E
  8
AM_0
 10
282.98099090673543
 20
443.18708351343031
 30
0.0
 11
267.38431090673561
 21
442.99228351343049
 31
0.0
  0
LINE
  5
2F6F
  8
AM_0
 10
251.9024709067354
 20
434.1868035134305
 30
0.0
 11
285.98099090673543
 21
433.29444351343039
 31
0.0
  0
ARC
  5
2F70
  8
AM_0
 10
251.9809909067356
 20
437.18577351343032
 30
0.0
 40
3.0
 50
180.00001000000091
 51
268.50000000000063
  0
ARC
  5
2F71
  8
AM_0
 10
280.9809909067356
 20
434.4271035134305
 30
0.0
 40
1.0
 50
270.0
 51
0.0
  0
ARC
  5
2F72
  8
AM_0
 10
280.9809909067356
 20
438.4271035134305
 30
0.0
 40
5.0
 50
268.50000000000063
 51
0.0000006832495047
  0
LINE
  5
2F73
  8
AM_0
 10
282.98099090673543
 20
441.04349351343029
 30
0.0
 11
270.80649090673552
 21
441.46863351343029
 31
0.0
  0
ARC
  5
2F74
  8
AM_0
 10
282.98099090673543
 20
437.77024351343027
 30
0.0
 40
1.0
 50
109.47121999999951
 51
180.00001000000091
  0
ARC
  5
2F75
  8
AM_0
 10
280.9809909067356
 20
443.4271035134305
 30
0.0
 40
5.0
 50
289.47123000000062
 51
331.5287600000031
  0
LINE
  5
2F76
  8
AM_0
 10
281.98099090673543
 20
434.4271035134305
 30
0.0
 11
281.98099090673543
 21
437.77024351343027
 31
0.0
  0
LINE
  5
2F77
  8
AM_0
 10
285.98099090673543
 20
438.4271035134305
 30
0.0
 11
285.98099090673543
 21
441.04349351343029
 31
0.0
  0
LINE
  5
2F78
  8
AM_0
 10
282.98099090673543
 20
441.04349351343029
 30
0.0
 11
285.98099090673543
 21
441.04349351343029
 31
0.0
  0
LINE
  5
2F79
  8
AM_0
 10
239.4809909067356
 20
471.25443351343029
 30
0.0
 11
265.98096090673562
 21
471.25443351343029
 31
0.0
  0
LINE
  5
2F7A
  8
AM_0
 10
239.4809909067356
 20
486.14652351343028
 30
0.0
 11
265.98096090673562
 21
486.14652351343028
 31
0.0
  0
LINE
  5
2F7B
  8
AM_0
 10
239.48102090673541
 20
459.79441351343041
 30
0.0
 11
263.08567090673552
 21
458.97013351343048
 31
0.0
  0
LINE
  5
2F7C
  8
AM_0
 10
265.9809909067356
 20
463.98594351343041
 30
0.0
 11
275.98096090673562
 21
463.98594351343041
 31
0.0
  0
ARC
  5
2F7D
  8
AM_0
 10
251.9809909067356
 20
456.07834351343058
 30
0.0
 40
3.0
 50
105.0000000000007
 51
180.00001000000091
  0
LINE
  5
2F7E
  8
AM_0
 10
251.20453090673561
 20
458.97611351343028
 30
0.0
 11
252.55466090673551
 21
459.33790351343038
 31
0.0
  0
ARC
  5
2F7F
  8
AM_0
 10
262.98099090673549
 20
455.97196351343058
 30
0.0
 40
3.0
 50
0.0
 51
87.999999999999503
  0
LINE
  5
2F80
  8
AM_0
 10
275.98096090673562
 20
452.20426351343048
 30
0.0
 11
282.98099090673543
 21
452.20426351343048
 31
0.0
  0
LINE
  5
2F81
  8
AM_0
 10
282.98099090673543
 20
485.0193535134303
 30
0.0
 11
275.98096090673562
 21
485.0193535134303
 31
0.0
  0
CIRCLE
  5
2F82
  8
AM_0
 10
343.98099090673549
 20
448.29444351343062
 30
0.0
 40
6.0
  0
LINE
  5
2F83
  8
AM_0
 10
325.9809909067356
 20
439.47452351343071
 30
0.0
 11
325.9809909067356
 21
454.94034351343049
 31
0.0
  0
LINE
  5
2F84
  8
AM_0
 10
358.98099090673549
 20
438.1284835134303
 30
0.0
 11
358.98099090673549
 21
465.29444351343062
 31
0.0
  0
ARC
  5
2F85
  8
AM_0
 10
330.9809909067356
 20
439.47452351343071
 30
0.0
 40
5.0
 50
180.00001000000091
 51
271.4999999999992
  0
ARC
  5
2F86
  8
AM_0
 10
355.9809909067356
 20
438.1284835134303
 30
0.0
 40
3.0
 50
271.4999999999992
 51
0.0
  0
ARC
  5
2F87
  8
AM_0
 10
347.88281090673559
 20
463.5668435134304
 30
0.0
 40
5.0
 50
95.00000199999856
 51
152.89619000000181
  0
ARC
  5
2F88
  8
AM_0
 10
333.98099090673543
 20
454.94034351343049
 30
0.0
 40
8.0
 50
91.999998000000545
 51
180.00001000000091
  0
ARC
  5
2F89
  8
AM_0
 10
338.9809909067356
 20
468.12290351343057
 30
0.0
 40
5.0
 50
272.0000000000004
 51
0.0
  0
LINE
  5
2F8A
  8
AM_0
 10
339.15549090673562
 20
463.12592351343039
 30
0.0
 11
333.70178090673551
 21
462.93549351343057
 31
0.0
  0
LINE
  5
2F8B
  8
AM_0
 10
353.24243090673548
 20
469.05485351343037
 30
0.0
 11
347.44702090673559
 21
468.54783351343048
 31
0.0
  0
ARC
  5
2F8C
  8
AM_0
 10
352.9809909067356
 20
472.04343351343061
 30
0.0
 40
3.0
 50
275.0
 51
0.0
  0
ARC
  5
2F8D
  8
AM_0
 10
356.98099090673549
 20
469.16742351343038
 30
0.0
 40
1.0
 50
180.00001000000091
 51
255.5224900000002
  0
ARC
  5
2F8E
  8
AM_0
 10
355.9809909067356
 20
465.29444351343062
 30
0.0
 40
3.0
 50
0.0
 51
75.522487999999072
  0
ARC
  5
2F8F
  8
AM_0
 10
357.9809909067356
 20
495.26859351343029
 30
0.0
 40
1.0
 50
271.4999999999992
 51
0.0
  0
ARC
  5
2F90
  8
AM_0
 10
356.98099090673549
 20
493.24174351343032
 30
0.0
 40
1.0
 50
91.500001000001546
 51
180.00001000000091
  0
LINE
  5
2F91
  8
AM_0
 10
356.95481090673547
 20
494.24140351343033
 30
0.0
 11
358.00717090673561
 21
494.26896351343032
 31
0.0
  0
LINE
  5
2F92
  8
AM_0
 10
358.98099090673549
 20
508.29444351343039
 30
0.0
 11
361.9809909067356
 21
508.29444351343039
 31
0.0
  0
POLYLINE
  5
2F93
  8
AM_0
 66
     1
 10
0.0
 20
0.0
 30
0.0
  0
VERTEX
  5
2F94
  8
AM_0
 10
284.24453090673558
 20
603.22342351343025
 30
0.0
 42
-0.021277534
  0
VERTEX
  5
2F95
  8
AM_0
 10
295.07467090673549
 20
601.16690351343027
 30
0.0
 42
-0.020622971
  0
VERTEX
  5
2F96
  8
AM_0
 10
305.19943090673542
 20
598.34986351343048
 30
0.0
 42
-0.022709
  0
VERTEX
  5
2F97
  8
AM_0
 10
316.00635090673552
 20
594.30430351343045
 30
0.0
  0
SEQEND
  5
2F98
  8
AM_0
  0
POLYLINE
  5
2F99
  8
AM_0
 66
     1
 10
0.0
 20
0.0
 30
0.0
  0
VERTEX
  5
2F9A
  8
AM_0
 10
282.98099090673543
 20
561.56952351343045
 30
0.0
 42
0.059991175
  0
VERTEX
  5
2F9B
  8
AM_0
 10
308.56980090673562
 20
577.50173351343051
 30
0.0
 42
0.30883786
  0
VERTEX
  5
2F9C
  8
AM_0
 10
317.98096090673562
 20
593.4424835134306
 30
0.0
 42
0.25905849
  0
VERTEX
  5
2F9D
  8
AM_0
 10
283.5313109067356
 20
613.23053351343026
 30
0.0
  0
SEQEND
  5
2F9E
  8
AM_0
  0
LINE
  5
2F9F
  8
AM_0
 10
285.98099090673543
 20
613.29444351343045
 30
0.0
 11
356.05951090673562
 21
611.4593635134305
 31
0.0
  0
ARC
  5
2FA0
  8
ｶｸﾚｾﾝ2
 10
263.9809909067356
 20
598.29444351343045
 30
0.0
 40
6.0
 50
289.47123000000062
 51
57.78807200000049
  0
ARC
  5
2FA1
  8
AM_0
 10
270.98099090673549
 20
600.12330351343053
 30
0.0
 40
5.0
 50
91.999998000000545
 51
180.00001000000091
  0
ARC
  5
2FA2
  8
AM_0
 10
263.9809909067356
 20
598.29444351343045
 30
0.0
 40
6.0
 50
57.78807200000049
 51
289.47123000000062
  0
LINE
  5
2FA3
  8
AM_0
 10
248.9809909067356
 20
609.40308351343026
 30
0.0
 11
248.9809909067356
 21
590.51053351343046
 31
0.0
  0
LINE
  5
2FA4
  8
AM_0
 10
239.4809909067356
 20
586.79444351343045
 30
0.0
 11
263.0857009067355
 21
587.61875351343065
 31
0.0
  0
LINE
  5
2FA5
  8
AM_0
 10
239.4809909067356
 20
560.44236351343045
 30
0.0
 11
265.98096090673562
 21
560.44236351343045
 31
0.0
  0
LINE
  5
2FA6
  8
AM_0
 10
239.4809909067356
 20
575.3344535134305
 30
0.0
 11
265.98096090673562
 21
575.3344535134305
 31
0.0
  0
LINE
  5
2FA7
  8
AM_0
 10
282.98099090673543
 20
561.56952351343045
 30
0.0
 11
275.98096090673562
 21
561.56952351343045
 31
0.0
  0
LINE
  5
2FA8
  8
AM_0
 10
265.9809909067356
 20
582.60294351343043
 30
0.0
 11
275.98096090673562
 21
582.60294351343043
 31
0.0
  0
ARC
  5
2FA9
  8
AM_0
 10
251.9809909067356
 20
590.51053351343046
 30
0.0
 40
3.0
 50
180.00001000000091
 51
254.99999000000159
  0
LINE
  5
2FAA
  8
AM_0
 10
251.20456090673559
 20
587.61277351343028
 30
0.0
 11
252.55469090673549
 21
587.25098351343036
 31
0.0
  0
ARC
  5
2FAB
  8
AM_0
 10
262.98099090673549
 20
590.61692351343049
 30
0.0
 40
3.0
 50
272.0000000000004
 51
0.0
  0
LINE
  5
2FAC
  8
AM_0
 10
275.98096090673562
 20
594.3846235134306
 30
0.0
 11
282.98099090673543
 21
594.3846235134306
 31
0.0
  0
LINE
  5
2FAD
  8
AM_0
 10
282.98099090673543
 20
603.40180351343065
 30
0.0
 11
267.38428090673563
 21
603.59659351343043
 31
0.0
  0
LINE
  5
2FAE
  8
AM_0
 10
251.9024709067354
 20
612.4020435134305
 30
0.0
 11
285.98099090673543
 21
613.29441351343053
 31
0.0
  0
ARC
  5
2FAF
  8
AM_0
 10
251.9809909067356
 20
609.40308351343026
 30
0.0
 40
3.0
 50
91.500001000001546
 51
180.00001000000091
  0
ARC
  5
2FB0
  8
AM_0
 10
280.9809909067356
 20
612.16178351343035
 30
0.0
 40
1.0
 50
0.0
 51
90.000003000000945
  0
ARC
  5
2FB1
  8
AM_0
 10
280.9809909067356
 20
608.16178351343035
 30
0.0
 40
5.0
 50
0.0
 51
91.500001000001546
  0
LINE
  5
2FB2
  8
AM_0
 10
282.98096090673562
 20
605.54539351343044
 30
0.0
 11
270.80646090673548
 21
605.12024351343052
 31
0.0
  0
LINE
  5
2FB3
  8
AM_0
 10
281.98099090673543
 20
612.16178351343035
 30
0.0
 11
281.98099090673543
 21
608.8186435134304
 31
0.0
  0
ARC
  5
2FB4
  8
AM_0
 10
282.98099090673543
 20
608.8186435134304
 30
0.0
 40
1.0
 50
180.00001000000091
 51
250.52876999999941
  0
ARC
  5
2FB5
  8
AM_0
 10
280.9809909067356
 20
603.16178351343035
 30
0.0
 40
5.0
 50
28.471238999999571
 51
70.528778999998195
  0
LINE
  5
2FB6
  8
AM_0
 10
282.98099090673543
 20
605.54539351343044
 30
0.0
 11
285.98099090673543
 21
605.54539351343044
 31
0.0
  0
LINE
  5
2FB7
  8
AM_0
 10
285.98099090673543
 20
608.16178351343035
 30
0.0
 11
285.98099090673543
 21
605.54539351343044
 31
0.0
  0
CIRCLE
  5
2FB8
  8
AM_0
 10
343.98099090673549
 20
598.29444351343045
 30
0.0
 40
6.0
  0
LINE
  5
2FB9
  8
AM_0
 10
325.9809909067356
 20
591.64853351343038
 30
0.0
 11
325.9809909067356
 21
607.1143535134305
 31
0.0
  0
LINE
  5
2FBA
  8
ﾁｭｳｼﾝｾﾝ1
 10
343.98099090673549
 20
609.29444351343045
 30
0.0
 11
343.98099090673549
 21
587.29444351343045
 31
0.0
  0
LINE
  5
2FBB
  8
AM_0
 10
358.98099090673549
 20
608.46039351343052
 30
0.0
 11
358.98099090673549
 21
581.29444351343045
 31
0.0
  0
ARC
  5
2FBC
  8
AM_0
 10
347.88281090673559
 20
583.0220435134305
 30
0.0
 40
5.0
 50
207.10380999999799
 51
265.00001000000032
  0
LINE
  5
2FBD
  8
ﾁｭｳｼﾝｾﾝ1
 10
332.9809909067356
 20
598.29444351343045
 30
0.0
 11
354.9809909067356
 21
598.29444351343045
 31
0.0
  0
ARC
  5
2FBE
  8
AM_0
 10
338.9809909067356
 20
578.4659835134305
 30
0.0
 40
5.0
 50
0.0
 51
87.999999999999503
  0
ARC
  5
2FBF
  8
AM_0
 10
333.98099090673543
 20
591.64853351343038
 30
0.0
 40
8.0
 50
180.00001000000091
 51
267.99999999999932
  0
LINE
  5
2FC0
  8
AM_0
 10
339.15546090673558
 20
583.46296351343028
 30
0.0
 11
333.70178090673551
 21
583.6533935134305
 31
0.0
  0
LINE
  5
2FC1
  8
AM_0
 10
358.98099090673549
 20
538.29444351343045
 30
0.0
 11
361.9809909067356
 21
538.29444351343045
 31
0.0
  0
ARC
  5
2FC2
  8
AM_0
 10
357.9809909067356
 20
551.32029351343056
 30
0.0
 40
1.0
 50
0.0
 51
88.499997000000647
  0
ARC
  5
2FC3
  8
AM_0
 10
356.98099090673549
 20
553.34714351343052
 30
0.0
 40
1.0
 50
180.00001000000091
 51
268.50000000000063
  0
LINE
  5
2FC4
  8
AM_0
 10
356.95484090673551
 20
552.34751351343039
 30
0.0
 11
358.00717090673561
 21
552.31995351343028
 31
0.0
  0
LINE
  5
2FC5
  8
AM_0
 10
353.24246090673557
 20
577.53403351343047
 30
0.0
 11
347.44702090673559
 21
578.04108351343052
 31
0.0
  0
ARC
  5
2FC6
  8
AM_0
 10
352.9809909067356
 20
574.54545351343052
 30
0.0
 40
3.0
 50
0.0
 51
85.000004000000885
  0
ARC
  5
2FC7
  8
AM_0
 10
356.98099090673549
 20
577.42145351343027
 30
0.0
 40
1.0
 50
104.4775099999998
 51
180.00001000000091
  0
ARC
  5
2FC8
  8
AM_0
 10
355.9809909067356
 20
581.29444351343045
 30
0.0
 40
3.0
 50
284.47750999999971
 51
0.0
  0
ARC
  5
2FC9
  8
AM_0
 10
330.9809909067356
 20
607.1143535134305
 30
0.0
 40
5.0
 50
88.499997000000647
 51
180.00001000000091
  0
ARC
  5
2FCA
  8
AM_0
 10
355.9809909067356
 20
608.46039351343052
 30
0.0
 40
3.0
 50
0.0
 51
88.499997000000647
  0
LINE
  5
2FCB
  8
AM_0
 10
403.98096090673562
 20
537.29447351343038
 30
0.0
 11
403.98096090673562
 21
509.2944735134306
 31
0.0
  0
LINE
  5
2FCC
  8
ﾁｭｳｼﾝｾﾝ1
 10
263.9809909067356
 20
609.29444351343045
 30
0.0
 11
263.9809909067356
 21
587.29444351343045
 31
0.0
  0
LINE
  5
2FCD
  8
ﾁｭｳｼﾝｾﾝ1
 10
252.9809909067356
 20
598.29444351343045
 30
0.0
 11
274.9809909067356
 21
598.29444351343045
 31
0.0
  0
LINE
  5
2FCE
  8
ﾁｭｳｼﾝｾﾝ1
 10
263.9809909067356
 20
459.29444351343051
 30
0.0
 11
263.9809909067356
 21
437.29444351343039
 31
0.0
  0
LINE
  5
2FCF
  8
ﾁｭｳｼﾝｾﾝ1
 10
252.9809909067356
 20
448.29444351343062
 30
0.0
 11
274.9809909067356
 21
448.29444351343062
 31
0.0
  0
LINE
  5
2FD0
  8
ﾁｭｳｼﾝｾﾝ1
 10
343.98099090673549
 20
459.29444351343051
 30
0.0
 11
343.98099090673549
 21
437.29444351343039
 31
0.0
  0
LINE
  5
2FD1
  8
ﾁｭｳｼﾝｾﾝ1
 10
332.9809909067356
 20
448.29444351343062
 30
0.0
 11
354.9809909067356
 21
448.29444351343062
 31
0.0
  0
LINE
  5
2FD2
  8
ﾁｭｳｼﾝｾﾝ
 10
245.2897966773325
 20
302.09643031868052
 30
0.0
 11
408.9287409067357
 21
302.09643031868052
 31
0.0
  0
ARC
  5
2FD3
  8
AM_0
 10
338.98092090673549
 20
353.42829631868051
 30
0.0
 40
5.0000001000000003
 50
0.0
 51
88.499997000000747
  0
LINE
  5
2FD4
  8
AM_0
 10
335.98092090673561
 20
333.32970631868051
 30
0.0
 11
343.98093090673592
 21
333.32970631868051
 31
0.0
  0
ARC
  5
2FD5
  8
AM_0
 10
338.98092090673549
 20
228.70974031868039
 30
0.0
 40
5.0000001000000003
 50
270.0
 51
0.0
  0
LINE
  5
2FD6
  8
AM_0
 10
330.98097090673571
 20
211.09642831868041
 30
0.0
 11
356.98092090673561
 21
211.09642831868041
 31
0.0
  0
LINE
  5
2FD7
  8
AM_0
 10
331.98093090673581
 20
196.09642831868041
 30
0.0
 11
358.98093090673592
 21
196.09642831868041
 31
0.0
  0
LINE
  5
2FD8
  8
0
 10
205.4809769864095
 20
356.89644631868049
 30
0.0
 11
205.4809769864095
 21
200.8964463186804
 31
0.0
  0
LINE
  5
2FD9
  8
0
 10
195.4809769864095
 20
358.89644631868049
 30
0.0
 11
195.4809769864095
 21
198.8964463186804
 31
0.0
  0
LINE
  5
2FDA
  8
0
  6
CONTINUOUS
 62
     7
 10
228.48097090673559
 20
340.89644631868049
 30
0.0
 11
228.48097090673559
 21
216.8964463186804
 31
0.0
  0
LINE
  5
2FDB
  8
AM_0
 10
325.98093090673581
 20
216.09642631868061
 30
0.0
 11
325.98093090673581
 21
323.3297373186806
 31
0.0
  0
LINE
  5
2FDC
  8
AM_0
 10
282.98097090673571
 20
359.89644631868032
 30
0.0
 11
282.98097090673571
 21
232.2392973186804
 31
0.0
  0
LINE
  5
2FDD
  8
AM_0
 10
265.9809609067355
 20
349.71876631868059
 30
0.0
 11
265.9809609067355
 21
211.09642831868041
 31
0.0
  0
LINE
  5
2FDE
  8
AM_0
 10
275.98092090673561
 20
310.04565031868037
 30
0.0
 11
275.98092090673561
 21
219.3524553186804
 31
0.0
  0
LINE
  5
2FDF
  8
AM_0
 10
239.48097090673559
 20
342.39642631868048
 30
0.0
 11
239.48097090673559
 21
215.3963853186805
 31
0.0
  0
POLYLINE
  5
2FE0
  8
AM_0
 66
     1
 10
0.0
 20
0.0
 30
0.0
  0
VERTEX
  5
2FE1
  8
AM_0
  6
CONTINUOUS
 10
285.98091090673557
 20
211.09642831868041
 30
0.0
 42
0.12791153
  0
VERTEX
  5
2FE2
  8
AM_0
  6
CONTINUOUS
 10
292.07502090673597
 20
212.7618453186804
 30
0.0
 42
0.075873116
  0
VERTEX
  5
2FE3
  8
AM_0
  6
CONTINUOUS
 10
297.05640090673558
 20
216.7207443186804
 30
0.0
 42
0.04391337
  0
VERTEX
  5
2FE4
  8
AM_0
  6
CONTINUOUS
 10
300.99717090673568
 20
221.7378603186805
 30
0.0
 42
0.028464649
  0
VERTEX
  5
2FE5
  8
AM_0
  6
CONTINUOUS
 10
304.18932090673547
 20
227.26448431868039
 30
0.0
 42
0.020370658
  0
VERTEX
  5
2FE6
  8
AM_0
  6
CONTINUOUS
 10
306.83604090673572
 20
233.07683131868041
 30
0.0
 42
0.01565625
  0
VERTEX
  5
2FE7
  8
AM_0
  6
CONTINUOUS
 10
309.06105090673572
 20
239.06345131868039
 30
0.0
 42
0.012688908
  0
VERTEX
  5
2FE8
  8
AM_0
  6
CONTINUOUS
 10
310.94544090673548
 20
245.1665523186804
 30
0.0
 42
0.010707695
  0
VERTEX
  5
2FE9
  8
AM_0
  6
CONTINUOUS
 10
312.54375090673562
 20
251.35197631868041
 30
0.0
 42
0.009324549
  0
VERTEX
  5
2FEA
  8
AM_0
  6
CONTINUOUS
 10
313.8936909067358
 20
257.59589431868039
 30
0.0
 42
0.0083349477
  0
VERTEX
  5
2FEB
  8
AM_0
  6
CONTINUOUS
 10
315.02307090673582
 20
263.88489631868038
 30
0.0
 42
0.0076122067
  0
VERTEX
  5
2FEC
  8
AM_0
  6
CONTINUOUS
 10
315.95175090673558
 20
270.2070693186804
 30
0.0
 42
0.0070829649
  0
VERTEX
  5
2FED
  8
AM_0
  6
CONTINUOUS
 10
316.6944909067355
 20
276.55383031868053
 30
0.0
 42
0.0067007814
  0
VERTEX
  5
2FEE
  8
AM_0
  6
CONTINUOUS
 10
317.26227090673581
 20
282.91887931868052
 30
0.0
 42
0.0064353086
  0
VERTEX
  5
2FEF
  8
AM_0
  6
CONTINUOUS
 10
317.6628009067357
 20
289.29686731868043
 30
0.0
 42
0.0062673647
  0
VERTEX
  5
2FF0
  8
AM_0
  6
CONTINUOUS
 10
317.90136090673542
 20
295.68301831868052
 30
0.0
 42
0.0061857305
  0
VERTEX
  5
2FF1
  8
AM_0
  6
CONTINUOUS
 10
317.98092090673549
 20
302.07301231868058
 30
0.0
  0
SEQEND
  5
2FF2
  8
AM_0
  0
ARC
  5
2FF3
  8
0
 10
210.4809769864095
 20
215.89644631868049
 30
0.0
 40
5.0
 50
90.0
 51
180.0
1001
GENIUS_GENOBJ-N-FIL_13
1002
{
1000
OWNER
1000
GEN
1002
}
1001
GENIUS_GENODEF_13
1002
{
1000
HIER
1070
     0
1002
}
1002
{
1000
MANEDIT
1070
     0
1002
}
1002
{
1000
NOSEL
1070
     0
1002
}
1002
{
1000
BEHIND
1070
     0
1002
}
1002
{
1000
OTHER
1070
     0
1002
}
1002
{
1000
REACTOR
1002
}
  0
LINE
  5
2FF4
  8
ﾁｭｳｼﾝｾﾝ
 10
186.7396050294054
 20
278.89644631868038
 30
0.0
 11
261.84414222710097
 21
278.89644631868038
 31
0.0
  0
LINE
  5
2FF5
  8
0
 10
195.4809769864095
 20
198.8964463186804
 30
0.0
 11
203.4809769864095
 21
198.8964463186804
 31
0.0
  0
ARC
  5
2FF6
  8
0
 10
203.4809769864095
 20
200.8964463186804
 30
0.0
 40
2.0
 50
270.0
 51
0.0
1001
GENIUS_GENODEF_13
1002
{
1000
HIER
1070
     0
1002
}
1002
{
1000
MANEDIT
1070
     0
1002
}
1002
{
1000
NOSEL
1070
     0
1002
}
1002
{
1000
BEHIND
1070
     0
1002
}
1002
{
1000
OTHER
1070
     0
1002
}
1002
{
1000
REACTOR
1002
}
1001
GENIUS_GENOBJ-N-FIL_13
1002
{
1000
OWNER
1000
GEN
1002
}
  0
LINE
  5
2FF7
  8
ﾁｭｳｼﾝｾﾝ1
 10
263.98095090673581
 20
213.68983122263279
 30
0.0
 11
263.98095090673581
 21
193.22411915453711
 31
0.0
  0
LINE
  5
2FF8
  8
AM_0
 10
248.98095090673581
 20
209.0964423186804
 30
0.0
 11
248.98095090673581
 21
196.09642831868041
 31
0.0
  0
LINE
  5
2FF9
  8
ｶｸﾚｾﾝ2
 10
257.98095090673581
 20
211.09642831868041
 30
0.0
 11
257.98095090673581
 21
196.09642831868041
 31
0.0
  0
LINE
  5
2FFA
  8
ｶｸﾚｾﾝ2
 10
269.98095090673581
 20
211.09642831868041
 30
0.0
 11
269.98095090673581
 21
196.09642831868041
 31
0.0
  0
LINE
  5
2FFB
  8
ｶｸﾚｾﾝ2
 10
337.98093090673581
 20
211.09642831868041
 30
0.0
 11
337.98093090673581
 21
196.09642831868041
 31
0.0
  0
LINE
  5
2FFC
  8
AM_0
 10
248.98095090673581
 20
196.09642831868041
 30
0.0
 11
275.98092090673561
 21
196.09642831868041
 31
0.0
  0
LINE
  5
2FFD
  8
AM_0
 10
276.98097090673571
 20
197.0964273186805
 30
0.0
 11
330.98097090673571
 21
197.0964273186805
 31
0.0
  0
LINE
  5
2FFE
  8
AM_0
 10
275.98092090673561
 20
196.09642831868041
 30
0.0
 11
275.98092090673561
 21
196.09642831868041
 31
0.0
  0
ARC
  5
2FFF
  8
AM_0
 10
276.98097090673571
 20
196.09642831868041
 30
0.0
 40
1.0000000199999981
 50
90.000003000000945
 51
180.00001000000091
  0
LINE
  5
3000
  8
AM_0
 10
331.98093090673581
 20
196.09642831868041
 30
0.0
 11
331.98093090673581
 21
196.09642831868041
 31
0.0
  0
ARC
  5
3001
  8
AM_0
 10
330.98097090673571
 20
196.09642831868041
 30
0.0
 40
1.0000000199999981
 50
0.0
 51
90.000003000000945
  0
LINE
  5
3002
  8
AM_0
 10
267.98097090673559
 20
217.3524543186804
 30
0.0
 11
273.98097090673559
 21
217.3524543186804
 31
0.0
  0
LINE
  5
3003
  8
AM_0
 10
250.98096090673539
 20
211.09642831868041
 30
0.0
 11
276.49527090673581
 21
211.09642831868041
 31
0.0
  0
LINE
  5
3004
  8
0
 10
239.48097090673559
 20
214.8964463186804
 30
0.0
 11
230.48097090673559
 21
214.8964463186804
 31
0.0
  0
LINE
  5
3005
  8
AM_0
 10
239.48097090673559
 20
241.74851131868041
 30
0.0
 11
228.48097090673559
 21
241.74851131868041
 31
0.0
  0
LINE
  5
3006
  8
AM_0
 10
239.48097090673559
 20
227.39643031868039
 30
0.0
 11
228.48097090673559
 21
227.39643031868039
 31
0.0
  0
LINE
  5
3007
  8
0
 10
226.48097090673559
 20
220.8964463186804
 30
0.0
 11
210.4809769864095
 21
220.8964463186804
 31
0.0
  0
ARC
  5
3008
  8
0
 10
230.48097090673559
 20
216.8964463186804
 30
0.0
 40
2.0
 50
180.0
 51
270.0
1001
GENIUS_GENODEF_13
1002
{
1000
HIER
1070
     0
1002
}
1002
{
1000
MANEDIT
1070
     0
1002
}
1002
{
1000
NOSEL
1070
     0
1002
}
1002
{
1000
BEHIND
1070
     0
1002
}
1002
{
1000
OTHER
1070
     0
1002
}
1002
{
1000
REACTOR
1002
}
1001
GENIUS_GENOBJ-N-FIL_13
1002
{
1000
OWNER
1000
GEN
1002
}
  0
ARC
  5
3009
  8
0
 10
226.48097090673559
 20
218.8964463186804
 30
0.0
 40
2.0
 50
0.0
 51
90.0
1001
GENIUS_GENODEF_13
1002
{
1000
HIER
1070
     0
1002
}
1002
{
1000
MANEDIT
1070
     0
1002
}
1002
{
1000
NOSEL
1070
     0
1002
}
1002
{
1000
BEHIND
1070
     0
1002
}
1002
{
1000
OTHER
1070
     0
1002
}
1002
{
1000
REACTOR
1002
}
1001
GENIUS_GENOBJ-N-FIL_13
1002
{
1000
OWNER
1000
GEN
1002
}
  0
LINE
  5
300A
  8
AM_0
 10
239.48097090673559
 20
215.39644531868041
 30
0.0
 11
261.7077609067357
 21
214.62026131868041
 31
0.0
  0
ARC
  5
300B
  8
AM_0
 10
250.98096090673539
 20
209.0964423186804
 30
0.0
 40
2.00000007
 50
90.000003000000945
 51
180.00001000000091
  0
ARC
  5
300C
  8
AM_0
 10
267.98097090673559
 20
215.3524713186805
 30
0.0
 40
2.00000007
 50
90.000003000000945
 51
180.00001000000091
  0
ARC
  5
300D
  8
AM_0
 10
262.9809609067355
 20
211.37914231868061
 30
0.0
 40
3.0
 50
0.0
 51
79.999998000001099
  0
LINE
  5
300E
  8
AM_0
 10
262.12401090673569
 20
214.57651531868041
 30
0.0
 11
263.50188090673561
 21
214.3335633186804
 31
0.0
  0
ARC
  5
300F
  8
AM_0
 10
261.6030909067357
 20
211.6221093186804
 30
0.0
 40
3.0
 50
79.999998000001099
 51
87.999999999999659
  0
LINE
  5
3010
  8
AM_0
 10
239.48097090673559
 20
227.39643031868039
 30
0.0
 11
265.9809609067355
 21
227.39643031868039
 31
0.0
  0
LINE
  5
3011
  8
AM_0
 10
239.48097090673559
 20
241.74851131868041
 30
0.0
 11
265.9809609067355
 21
241.74851131868041
 31
0.0
  0
LINE
  5
3012
  8
AM_0
 10
285.98097090673571
 20
248.5652553186805
 30
0.0
 11
285.98097090673571
 21
283.88509531868038
 31
0.0
  0
LINE
  5
3013
  8
AM_0
 10
285.8938209067357
 20
247.6357803186805
 30
0.0
 11
279.44301090673548
 21
213.5387493186804
 31
0.0
  0
ARC
  5
3014
  8
AM_0
 10
276.49527090673581
 20
214.09642831868041
 30
0.0
 40
3.0
 50
270.0
 51
349.2868799999996
  0
ARC
  5
3015
  8
AM_0
 10
273.98097090673559
 20
219.3524553186804
 30
0.0
 40
2.00000007
 50
270.0
 51
0.0
  0
ARC
  5
3016
  8
AM_0
 10
280.98093090673569
 20
248.5652553186805
 30
0.0
 40
5.0000001000000003
 50
349.2868799999996
 51
0.0
  0
ARC
  5
3017
  8
AM_0
 10
330.98097090673571
 20
216.09642631868061
 30
0.0
 40
5.0000001000000003
 50
179.9999899999988
 51
270.0
  0
LINE
  5
3018
  8
AM_0
 10
325.98093090673581
 20
223.7097243186804
 30
0.0
 11
338.98092090673549
 21
223.7097243186804
 31
0.0
  0
ARC
  5
3019
  8
0
 10
210.4809769864095
 20
341.89644631868038
 30
0.0
 40
5.0
 50
180.0
 51
270.0
1001
GENIUS_GENOBJ-N-FIL_13
1002
{
1000
OWNER
1000
GEN
1002
}
1001
GENIUS_GENODEF_13
1002
{
1000
HIER
1070
     0
1002
}
1002
{
1000
MANEDIT
1070
     0
1002
}
1002
{
1000
NOSEL
1070
     0
1002
}
1002
{
1000
BEHIND
1070
     0
1002
}
1002
{
1000
OTHER
1070
     0
1002
}
1002
{
1000
REACTOR
1002
}
  0
ARC
  5
301A
  8
0
 10
203.4809769864095
 20
356.89644631868049
 30
0.0
 40
2.0
 50
0.0
 51
90.0
1001
GENIUS_GENODEF_13
1002
{
1000
HIER
1070
     0
1002
}
1002
{
1000
MANEDIT
1070
     0
1002
}
1002
{
1000
NOSEL
1070
     0
1002
}
1002
{
1000
BEHIND
1070
     0
1002
}
1002
{
1000
OTHER
1070
     0
1002
}
1002
{
1000
REACTOR
1002
}
1001
GENIUS_GENOBJ-N-FIL_13
1002
{
1000
OWNER
1000
GEN
1002
}
  0
LINE
  5
301B
  8
0
 10
195.4809769864095
 20
358.89644631868049
 30
0.0
 11
203.4809769864095
 21
358.89644631868049
 31
0.0
  0
ARC
  5
301C
  8
AM_0
 10
271.27716090673562
 20
359.73522631868042
 30
0.0
 40
5.0000001000000003
 50
272.0000000000004
 51
343.27365999999921
  0
LINE
  5
301D
  8
AM_0
 10
267.98097090673559
 20
333.23052631868052
 30
0.0
 11
273.98097090673559
 21
333.23052631868052
 31
0.0
  0
LINE
  5
301E
  8
AM_0
 10
267.98097090673559
 20
312.04564831868049
 30
0.0
 11
273.98097090673559
 21
312.04564831868049
 31
0.0
  0
LINE
  5
301F
  8
AM_0
 10
266.89635090673562
 20
305.5685373186804
 30
0.0
 11
273.98097090673559
 21
305.5685373186804
 31
0.0
  0
LINE
  5
3020
  8
AM_0
 10
239.48097090673559
 20
330.39645631868052
 30
0.0
 11
228.48097090673559
 21
330.39645631868052
 31
0.0
  0
LINE
  5
3021
  8
AM_0
 10
239.48097090673559
 20
316.04436631868037
 30
0.0
 11
228.48097090673559
 21
316.04436631868037
 31
0.0
  0
ARC
  5
3022
  8
AM_0
 10
267.98097090673559
 20
314.04564931868049
 30
0.0
 40
2.00000007
 50
179.9999899999988
 51
270.0
  0
LINE
  5
3023
  8
AM_0
 10
239.48097090673559
 20
316.04436631868037
 30
0.0
 11
265.9809609067355
 21
316.04436631868037
 31
0.0
  0
LINE
  5
3024
  8
AM_0
 10
239.48097090673559
 20
330.39645631868052
 30
0.0
 11
265.9809609067355
 21
330.39645631868052
 31
0.0
  0
ARC
  5
3025
  8
AM_0
 10
267.98097090673559
 20
331.23051631868037
 30
0.0
 40
2.00000007
 50
90.000003000000945
 51
180.00001000000091
  0
LINE
  5
3026
  8
0
 10
239.48097090673559
 20
342.89644631868049
 30
0.0
 11
230.48097090673559
 21
342.89644631868049
 31
0.0
  0
LINE
  5
3027
  8
0
 10
226.48097090673559
 20
336.89644631868038
 30
0.0
 11
210.4809769864095
 21
336.89644631868038
 31
0.0
  0
ARC
  5
3028
  8
0
 10
230.48097090673559
 20
340.89644631868049
 30
0.0
 40
2.0
 50
90.0
 51
180.0
1001
GENIUS_GENODEF_13
1002
{
1000
HIER
1070
     0
1002
}
1002
{
1000
MANEDIT
1070
     0
1002
}
1002
{
1000
NOSEL
1070
     0
1002
}
1002
{
1000
BEHIND
1070
     0
1002
}
1002
{
1000
OTHER
1070
     0
1002
}
1002
{
1000
REACTOR
1002
}
1001
GENIUS_GENOBJ-N-FIL_13
1002
{
1000
OWNER
1000
GEN
1002
}
  0
ARC
  5
3029
  8
0
 10
226.48097090673559
 20
338.89644631868038
 30
0.0
 40
2.0
 50
270.0
 51
0.0
1001
GENIUS_GENODEF_13
1002
{
1000
HIER
1070
     0
1002
}
1002
{
1000
MANEDIT
1070
     0
1002
}
1002
{
1000
NOSEL
1070
     0
1002
}
1002
{
1000
BEHIND
1070
     0
1002
}
1002
{
1000
OTHER
1070
     0
1002
}
1002
{
1000
REACTOR
1002
}
1001
GENIUS_GENOBJ-N-FIL_13
1002
{
1000
OWNER
1000
GEN
1002
}
  0
LINE
  5
302A
  8
AM_0
 10
239.48097090673559
 20
342.39645631868052
 30
0.0
 11
261.56805090673538
 21
343.16775631868052
 31
0.0
  0
ARC
  5
302B
  8
AM_0
 10
262.9809609067355
 20
346.4137563186805
 30
0.0
 40
3.0
 50
279.99999999999852
 51
0.0
  0
LINE
  5
302C
  8
AM_0
 10
262.26183090673561
 20
343.24062631868048
 30
0.0
 11
263.50188090673561
 21
343.45929631868052
 31
0.0
  0
ARC
  5
302D
  8
AM_0
 10
261.39357090673582
 20
348.16470631868032
 30
0.0
 40
5.0000001000000003
 50
272.0000000000004
 51
279.99999999999852
  0
ARC
  5
302E
  8
AM_0
 10
270.98097090673571
 20
349.71876631868059
 30
0.0
 40
5.0000001000000003
 50
91.999998000000545
 51
180.00001000000091
  0
LINE
  5
302F
  8
AM_0
 10
270.80646090673571
 20
354.71574631868032
 30
0.0
 11
271.45161090673571
 21
354.73827631868051
 31
0.0
  0
POLYLINE
  5
3030
  8
AM_0
 66
     1
 10
0.0
 20
0.0
 30
0.0
  0
VERTEX
  5
3031
  8
AM_0
  6
CONTINUOUS
 10
317.98092090673549
 20
319.39644631868049
 30
0.0
 42
0.029628731
  0
VERTEX
  5
3032
  8
AM_0
  6
CONTINUOUS
 10
317.7892809067356
 20
322.62573931868059
 30
0.0
 42
0.029327543
  0
VERTEX
  5
3033
  8
AM_0
  6
CONTINUOUS
 10
317.21958090673559
 20
325.8066783186805
 30
0.0
 42
0.028837186
  0
VERTEX
  5
3034
  8
AM_0
  6
CONTINUOUS
 10
316.2837309067358
 20
328.9023963186803
 30
0.0
 42
0.028139479
  0
VERTEX
  5
3035
  8
AM_0
  6
CONTINUOUS
 10
315.00135090673569
 20
331.87293631868039
 30
0.0
 42
0.027280614
  0
VERTEX
  5
3036
  8
AM_0
  6
CONTINUOUS
 10
313.39887090673562
 20
334.68234631868052
 30
0.0
 42
0.026363464
  0
VERTEX
  5
3037
  8
AM_0
  6
CONTINUOUS
 10
311.50425090673559
 20
337.30476631868049
 30
0.0
 42
0.025439158
  0
VERTEX
  5
3038
  8
AM_0
  6
CONTINUOUS
 10
309.3466809067358
 20
339.71937631868042
 30
0.0
 42
0.024503424
  0
VERTEX
  5
3039
  8
AM_0
  6
CONTINUOUS
 10
306.96027090673562
 20
341.9058963186805
 30
0.0
 42
0.023638789
  0
VERTEX
  5
303A
  8
AM_0
  6
CONTINUOUS
 10
304.3747209067356
 20
343.85301631868049
 30
0.0
 42
0.022857682
  0
VERTEX
  5
303B
  8
AM_0
  6
CONTINUOUS
 10
301.61946090673558
 20
345.5518263186803
 30
0.0
 42
0.022175457
  0
VERTEX
  5
303C
  8
AM_0
  6
CONTINUOUS
 10
298.7223909067356
 20
346.99614631868042
 30
0.0
 42
0.021601125
  0
VERTEX
  5
303D
  8
AM_0
  6
CONTINUOUS
 10
295.7099709067358
 20
348.1818363186805
 30
0.0
 42
0.021139333
  0
VERTEX
  5
303E
  8
AM_0
  6
CONTINUOUS
 10
292.60713090673562
 20
349.10619631868042
 30
0.0
 42
0.020791974
  0
VERTEX
  5
303F
  8
AM_0
  6
CONTINUOUS
 10
289.43772090673542
 20
349.7675463186805
 30
0.0
 42
0.020559394
  0
VERTEX
  5
3040
  8
AM_0
  6
CONTINUOUS
 10
286.2246009067357
 20
350.16495631868042
 30
0.0
 42
0.020441745
  0
VERTEX
  5
3041
  8
AM_0
  6
CONTINUOUS
 10
282.98994090673563
 20
350.29794631868032
 30
0.0
  0
SEQEND
  5
3042
  8
AM_0
  0
LINE
  5
3043
  8
AM_0
 10
275.98092090673561
 20
357.72063631868042
 30
0.0
 11
275.98092090673561
 21
335.23053631868038
 31
0.0
  0
POLYLINE
  5
3044
  8
AM_0
 66
     1
 10
0.0
 20
0.0
 30
0.0
  0
VERTEX
  5
3045
  8
AM_0
  6
CONTINUOUS
 10
316.05996090673563
 20
321.27518131868038
 30
0.0
 42
0.032705737
  0
VERTEX
  5
3046
  8
AM_0
  6
CONTINUOUS
 10
314.1138309067357
 20
322.02369631868032
 30
0.0
 42
0.016814103
  0
VERTEX
  5
3047
  8
AM_0
  6
CONTINUOUS
 10
312.10299090673578
 20
322.58589331868052
 30
0.0
 42
0.010836057
  0
VERTEX
  5
3048
  8
AM_0
  6
CONTINUOUS
 10
310.06359090673561
 20
323.0387313186805
 30
0.0
 42
0.007863161
  0
VERTEX
  5
3049
  8
AM_0
  6
CONTINUOUS
 10
308.00922090673549
 20
323.41585531868049
 30
0.0
 42
0.0061455438
  0
VERTEX
  5
304A
  8
AM_0
  6
CONTINUOUS
 10
305.9449509067357
 20
323.73574231868042
 30
0.0
 42
0.0050541015
  0
VERTEX
  5
304B
  8
AM_0
  6
CONTINUOUS
 10
303.87330090673561
 20
324.00964831868049
 30
0.0
 42
0.0043145835
  0
VERTEX
  5
304C
  8
AM_0
  6
CONTINUOUS
 10
301.7955609067356
 20
324.24498331868051
 30
0.0
 42
0.0037842963
  0
VERTEX
  5
304D
  8
AM_0
  6
CONTINUOUS
 10
299.71641090673569
 20
324.44652031868048
 30
0.0
 42
0.003403486
  0
VERTEX
  5
304E
  8
AM_0
  6
CONTINUOUS
 10
297.63237090673562
 20
324.61838731868039
 30
0.0
 42
0.0031173927
  0
VERTEX
  5
304F
  8
AM_0
  6
CONTINUOUS
 10
295.54587090673562
 20
324.76313431868039
 30
0.0
 42
0.0029018743
  0
VERTEX
  5
3050
  8
AM_0
  6
CONTINUOUS
 10
293.45778090673582
 20
324.88278331868042
 30
0.0
 42
0.0027404553
  0
VERTEX
  5
3051
  8
AM_0
  6
CONTINUOUS
 10
291.36846090673561
 20
324.97889131868038
 30
0.0
 42
0.0026217012
  0
VERTEX
  5
3052
  8
AM_0
  6
CONTINUOUS
 10
289.27815090673562
 20
325.05260731868037
 30
0.0
 42
0.0025380412
  0
VERTEX
  5
3053
  8
AM_0
  6
CONTINUOUS
 10
287.18715090673561
 20
325.10476531868051
 30
0.0
 42
0.0024845601
  0
VERTEX
  5
3054
  8
AM_0
  6
CONTINUOUS
 10
285.09576090673562
 20
325.13593531868048
 30
0.0
 42
0.002458447
  0
VERTEX
  5
3055
  8
AM_0
  6
CONTINUOUS
 10
283.00407090673548
 20
325.14643831868051
 30
0.0
  0
SEQEND
  5
3056
  8
AM_0
  0
ARC
  5
3057
  8
AM_0
 10
273.98097090673559
 20
310.04565031868037
 30
0.0
 40
2.00000007
 50
0.0
 51
90.000003000000945
  0
ARC
  5
3058
  8
AM_0
 10
273.98097090673559
 20
303.56853631868051
 30
0.0
 40
2.00000007
 50
0.0
 51
90.000003000000945
  0
ARC
  5
3059
  8
AM_0
 10
273.98097090673559
 20
335.23053631868038
 30
0.0
 40
2.00000007
 50
270.0
 51
0.0
  0
LINE
  5
305A
  8
AM_0
 10
317.98092090673549
 20
319.39644931868042
 30
0.0
 11
317.98092090673549
 21
302.09643031868052
 31
0.0
  0
ARC
  5
305B
  8
AM_0
 10
335.98092090673561
 20
323.3297373186806
 30
0.0
 40
10.000000200000001
 50
90.000003000000945
 51
180.00001000000091
  0
LINE
  5
305C
  8
AM_0
 10
282.98097090673571
 20
359.89644631868032
 30
0.0
 11
339.11184090673561
 21
358.42662631868052
 31
0.0
  0
LINE
  5
305D
  8
AM_0
 10
282.98100090673557
 20
359.89644631868032
 30
0.0
 11
277.9111509067356
 21
359.71941631868032
 31
0.0
  0
ARC
  5
305E
  8
AM_0
 10
277.98093090673581
 20
357.72063631868042
 30
0.0
 40
2.00000007
 50
91.999998000000545
 51
163.27364999999941
  0
LINE
  5
305F
  8
ﾁｭｳｼﾝｾﾝ
 10
570.57992290345521
 20
192.5616993186805
 30
0.0
 11
570.57992290345521
 21
365.3869571996612
 31
0.0
  0
LINE
  5
3060
  8
AM_0
 10
355.98093090673592
 20
212.96941231868041
 30
0.0
 11
355.98093090673592
 21
338.34744631868051
 31
0.0
  0
LINE
  5
3061
  8
AM_0
 10
358.98093090673592
 20
274.07059531868038
 30
0.0
 11
358.98093090673592
 21
330.12228631868038
 31
0.0
  0
CIRCLE
  5
3062
  8
AM_0
 10
570.57992290345521
 20
302.09643031868052
 30
0.0
 40
29.000001000000001
  0
ARC
  5
3063
  8
AM_0
 10
570.57992290345521
 20
287.09643031868052
 30
0.0
 40
54.000003000000007
 50
0.0
 51
180.00001000000091
  0
LINE
  5
3064
  8
AM_0
 10
660.57991690345534
 20
211.09642831868041
 30
0.0
 11
652.78877290345554
 21
318.30611731868038
 31
0.0
  0
LINE
  5
3065
  8
AM_0
 10
480.57991990345511
 20
211.09642831868041
 30
0.0
 11
488.37105790345538
 21
318.30611731868038
 31
0.0
  0
LINE
  5
3066
  8
AM_0
 10
630.57992290345533
 20
249.89643031868039
 30
0.0
 11
630.57992290345533
 21
331.34640631868052
 31
0.0
  0
LINE
  5
3067
  8
AM_0
 10
510.57991990345522
 20
249.89643031868039
 30
0.0
 11
510.57991990345522
 21
331.34640631868052
 31
0.0
  0
LINE
  5
3068
  8
AM_0
 10
343.98093090673592
 20
228.70974031868039
 30
0.0
 11
343.98093090673592
 21
353.42829631868051
 31
0.0
  0
ARC
  5
3069
  8
AM_0
 10
570.57992290345521
 20
278.89644631868038
 30
0.0
 40
81.000003000000007
 50
7.0485986000007923
 51
172.9514000000008
  0
LINE
  5
306A
  8
AM_0
 10
361.98093090673592
 20
317.09643031868052
 30
0.0
 11
361.98093090673592
 21
287.09643031868052
 31
0.0
  0
LINE
  5
306B
  8
AM_0
 10
403.9809609067355
 20
319.0964613186805
 30
0.0
 11
403.9809609067355
 21
288.09642931868058
 31
0.0
  0
ARC
  5
306C
  8
AM_0
 10
570.57992290345521
 20
302.09643031868052
 30
0.0
 40
14.000001299999999
 50
106.6015399999982
 51
73.398452000001853
  0
LINE
  5
306D
  8
AM_0
 10
533.57992090345533
 20
209.0964423186804
 30
0.0
 11
607.57992490345521
 21
209.0964423186804
 31
0.0
  0
LINE
  5
306E
  8
AM_0
 10
623.57992390345532
 20
198.09642631868039
 30
0.0
 11
517.57995190345525
 21
198.09642631868039
 31
0.0
  0
LINE
  5
306F
  8
ﾁｭｳｼﾝｾﾝ
 10
484.22320990345531
 20
278.89644631868038
 30
0.0
 11
658.08996490345532
 21
278.89644631868038
 31
0.0
  0
LINE
  5
3070
  8
ﾁｭｳｼﾝｾﾝ1
 10
343.9809009067356
 20
213.6898312226329
 30
0.0
 11
343.9809009067356
 21
193.22411915453711
 31
0.0
  0
LINE
  5
3071
  8
ｶｸﾚｾﾝ2
 10
349.98093090673592
 20
211.09642831868041
 30
0.0
 11
349.98093090673592
 21
196.09642831868041
 31
0.0
  0
LINE
  5
3072
  8
AM_0
 10
358.98093090673592
 20
209.0964423186804
 30
0.0
 11
358.98093090673592
 21
196.09642831868041
 31
0.0
  0
ARC
  5
3073
  8
AM_0
 10
357.98097090673571
 20
212.96941231868041
 30
0.0
 40
2.00000007
 50
179.9999899999988
 51
255.5224900000002
  0
ARC
  5
3074
  8
AM_0
 10
356.98092090673561
 20
209.0964423186804
 30
0.0
 40
2.00000007
 50
0.0
 51
90.000003000000945
  0
LINE
  5
3075
  8
AM_0
 10
361.98093090673592
 20
288.09642931868058
 30
0.0
 11
403.9809609067355
 21
288.09642931868058
 31
0.0
  0
ARC
  5
3076
  8
AM_0
 10
356.98092090673561
 20
272.04371131868038
 30
0.0
 40
1.0000000199999981
 50
91.500001000001546
 51
180.00001000000091
  0
LINE
  5
3077
  8
AM_0
 10
356.95476090673571
 20
273.04335931868059
 30
0.0
 11
358.00710090673562
 21
273.07091731868042
 31
0.0
  0
ARC
  5
3078
  8
AM_0
 10
357.98097090673571
 20
274.07059531868038
 30
0.0
 40
1.0000000199999981
 50
271.49999999999932
 51
0.0
  0
LINE
  5
3079
  8
AM_0
 10
358.98093090673592
 20
287.09643031868052
 30
0.0
 11
361.98093090673592
 21
287.09643031868052
 31
0.0
  0
LINE
  5
307A
  8
ﾁｭｳｼﾝｾﾝ1
 10
495.57991990345528
 20
193.22411915453711
 30
0.0
 11
495.57991990345528
 21
213.68983122263279
 31
0.0
  0
LINE
  5
307B
  8
AM_0
 10
480.57991990345511
 20
196.0964433186804
 30
0.0
 11
480.57991990345511
 21
211.09642831868041
 31
0.0
  0
LINE
  5
307C
  8
ｶｸﾚｾﾝ2
 10
501.57991990345522
 20
211.09642831868041
 30
0.0
 11
501.57991990345522
 21
196.0964433186804
 31
0.0
  0
LINE
  5
307D
  8
ｶｸﾚｾﾝ2
 10
489.57991990345522
 20
211.09642831868041
 30
0.0
 11
489.57991990345522
 21
196.0964433186804
 31
0.0
  0
LINE
  5
307E
  8
AM_0
 10
515.57992090345533
 20
196.0964433186804
 30
0.0
 11
515.57992090345533
 21
209.0964423186804
 31
0.0
  0
ARC
  5
307F
  8
AM_0
 10
533.57992090345533
 20
204.09644131868041
 30
0.0
 40
5.0000001000000003
 50
90.000003000000945
 51
180.00001000000091
  0
LINE
  5
3080
  8
AM_0
 10
515.57992090345533
 20
196.0964433186804
 30
0.0
 11
480.57991990345511
 21
196.0964433186804
 31
0.0
  0
ARC
  5
3081
  8
AM_0
 10
517.57995190345525
 20
196.0964433186804
 30
0.0
 40
2.00000007
 50
90.000003000000945
 51
180.00001000000091
  0
ARC
  5
3082
  8
AM_0
 10
523.57995190345537
 20
203.0964423186804
 30
0.0
 40
5.0000001000000003
 50
270.0
 51
0.0
  0
LINE
  5
3083
  8
AM_0
 10
528.57991990345545
 20
203.0964423186804
 30
0.0
 11
528.57991990345545
 21
204.09644131868041
 31
0.0
  0
ARC
  5
3084
  8
AM_0
 10
570.57992290345521
 20
278.89643131868053
 30
0.0
 40
81.000003000000007
 50
265.97275000000059
 51
274.0272499999993
  0
LINE
  5
3085
  8
AM_0
 10
516.57991990345545
 20
216.09644131868041
 30
0.0
 11
516.57991990345545
 21
287.09643031868052
 31
0.0
  0
LINE
  5
3086
  8
AM_0
 10
480.57988990345513
 20
211.09642831868041
 30
0.0
 11
490.19207290345543
 21
288.8360523186804
 31
0.0
  0
ARC
  5
3087
  8
AM_0
 10
570.57992290345521
 20
249.89643031868039
 30
0.0
 40
60.000002999999992
 50
180.00001000000091
 51
205.8419300000003
  0
LINE
  5
3088
  8
AM_0
 10
513.57991990345545
 20
211.09642831868041
 30
0.0
 11
482.57992990345508
 21
211.09642831868041
 31
0.0
  0
ARC
  5
3089
  8
AM_0
 10
482.57992990345508
 20
209.0964423186804
 30
0.0
 40
2.00000007
 50
90.000003000000945
 51
180.00001000000091
  0
ARC
  5
308A
  8
AM_0
 10
511.5799519034552
 20
216.09644131868041
 30
0.0
 40
5.0000001000000003
 50
270.0
 51
0.0
  0
ARC
  5
308B
  8
AM_0
 10
513.57991990345545
 20
209.0964423186804
 30
0.0
 40
2.00000007
 50
0.0
 51
90.000003000000945
  0
ARC
  5
308C
  8
AM_0
 10
607.57992490345521
 20
204.09644131868041
 30
0.0
 40
5.0000001000000003
 50
0.0
 51
90.000003000000945
  0
LINE
  5
308D
  8
AM_0
 10
625.57990990345525
 20
196.0964433186804
 30
0.0
 11
625.57990990345525
 21
209.0964423186804
 31
0.0
  0
LINE
  5
308E
  8
ﾁｭｳｼﾝｾﾝ1
 10
645.57991090345536
 20
193.22411915453711
 30
0.0
 11
645.57991090345536
 21
213.68983122263279
 31
0.0
  0
LINE
  5
308F
  8
ｶｸﾚｾﾝ2
 10
651.57992590345532
 20
211.09642831868041
 30
0.0
 11
651.57992590345532
 21
196.0964433186804
 31
0.0
  0
LINE
  5
3090
  8
ｶｸﾚｾﾝ2
 10
639.57992590345532
 20
211.09642831868041
 30
0.0
 11
639.57992590345532
 21
196.0964433186804
 31
0.0
  0
LINE
  5
3091
  8
AM_0
 10
660.57991690345534
 20
196.0964433186804
 30
0.0
 11
660.57991690345534
 21
211.09642831868041
 31
0.0
  0
LINE
  5
3092
  8
AM_0
 10
625.57990990345525
 20
196.0964433186804
 30
0.0
 11
660.57991690345534
 21
196.0964433186804
 31
0.0
  0
ARC
  5
3093
  8
AM_0
 10
617.57992390345532
 20
203.0964423186804
 30
0.0
 40
5.0000001000000003
 50
179.9999899999988
 51
270.0
  0
LINE
  5
3094
  8
AM_0
 10
612.57992290345533
 20
203.0964423186804
 30
0.0
 11
612.57992290345533
 21
204.09644131868041
 31
0.0
  0
ARC
  5
3095
  8
AM_0
 10
623.57992390345532
 20
196.0964433186804
 30
0.0
 40
2.00000007
 50
0.0
 51
90.000003000000945
  0
LINE
  5
3096
  8
AM_0
 10
624.57992290345521
 20
216.09644131868041
 30
0.0
 11
624.57992290345521
 21
287.09643031868052
 31
0.0
  0
LINE
  5
3097
  8
AM_0
 10
660.57991690345534
 20
211.09642831868041
 30
0.0
 11
650.96775790345532
 21
288.8360523186804
 31
0.0
  0
ARC
  5
3098
  8
AM_0
 10
570.57992290345521
 20
249.89643031868039
 30
0.0
 40
60.000002999999992
 50
334.15806999999961
 51
0.0
  0
LINE
  5
3099
  8
AM_0
 10
627.57992290345533
 20
211.09642831868041
 30
0.0
 11
658.57992490345532
 21
211.09642831868041
 31
0.0
  0
ARC
  5
309A
  8
AM_0
 10
629.57992390345532
 20
216.09644131868041
 30
0.0
 40
5.0000001000000003
 50
179.9999899999988
 51
270.0
  0
ARC
  5
309B
  8
AM_0
 10
627.57992290345533
 20
209.0964423186804
 30
0.0
 40
2.00000007
 50
90.000003000000945
 51
180.00001000000091
  0
ARC
  5
309C
  8
AM_0
 10
658.57992490345532
 20
209.0964423186804
 30
0.0
 40
2.00000007
 50
0.0
 51
90.000003000000945
  0
LINE
  5
309D
  8
ﾁｭｳｼﾝｾﾝ
 10
534.50182690345525
 20
302.09643031868052
 30
0.0
 11
606.83819290345525
 21
302.09643031868052
 31
0.0
  0
LINE
  5
309E
  8
AM_0
 10
361.98093090673592
 20
316.0964613186805
 30
0.0
 11
403.9809609067355
 21
316.0964613186805
 31
0.0
  0
LINE
  5
309F
  8
AM_0
 10
371.98092090673561
 20
319.0964613186805
 30
0.0
 11
403.9809609067355
 21
319.0964613186805
 31
0.0
  0
ARC
  5
30A0
  8
AM_0
 10
356.98092090673561
 20
332.14914631868038
 30
0.0
 40
1.0000000199999981
 50
179.9999899999988
 51
268.50000999999872
  0
LINE
  5
30A1
  8
AM_0
 10
358.98093090673592
 20
317.09643031868052
 30
0.0
 11
361.98093090673592
 21
317.09643031868052
 31
0.0
  0
LINE
  5
30A2
  8
AM_0
 10
371.98092090673561
 20
319.0964613186805
 30
0.0
 11
371.98092090673561
 21
316.0964613186805
 31
0.0
  0
LINE
  5
30A3
  8
AM_0
 10
356.95476090673571
 20
331.14945631868051
 30
0.0
 11
358.00710090673562
 21
331.12191631868052
 31
0.0
  0
ARC
  5
30A4
  8
AM_0
 10
357.98097090673571
 20
330.12228631868038
 30
0.0
 40
1.0000000199999981
 50
0.0
 51
88.499997000000747
  0
ARC
  5
30A5
  8
AM_0
 10
352.98093090673592
 20
338.34744631868051
 30
0.0
 40
3.0
 50
0.0
 51
84.999996999998572
  0
ARC
  5
30A6
  8
AM_0
 10
348.98097090673559
 20
346.72797631868031
 30
0.0
 40
5.0000001000000003
 50
179.9999899999988
 51
265.00000000000028
  0
LINE
  5
30A7
  8
AM_0
 10
348.54516090673548
 20
341.74698631868051
 30
0.0
 11
353.24244090673562
 21
341.33601631868061
 31
0.0
  0
LINE
  5
30A8
  8
AM_0
 10
496.7740429034551
 20
331.25046631868042
 30
0.0
 11
532.33303390345532
 21
350.29797631868058
 31
0.0
  0
ARC
  5
30A9
  8
AM_0
 10
504.32897590345527
 20
317.14644931868048
 30
0.0
 40
16.000000499999999
 50
118.17613999999919
 51
175.8435100000012
  0
ARC
  5
30AA
  8
AM_0
 10
515.57992090345533
 20
331.34640631868052
 30
0.0
 40
5.0000001000000003
 50
136.35948999999979
 51
180.00001000000091
  0
LINE
  5
30AB
  8
AM_0
 10
566.57992090345533
 20
312.09642931868052
 30
0.0
 11
574.57990690345525
 21
312.09642931868052
 31
0.0
  0
LINE
  5
30AC
  8
AM_0
 10
566.57992090345533
 20
319.0964613186805
 30
0.0
 11
574.57990690345525
 21
319.0964613186805
 31
0.0
  0
CIRCLE
  5
30AD
  8
AM_0
 10
570.57992290345521
 20
302.09643031868052
 30
0.0
 40
3.0
  0
CIRCLE
  5
30AE
  8
AM_5
 10
570.57992290345521
 20
302.09643031868052
 30
0.0
 40
4.000000199999997
  0
LINE
  5
30AF
  8
AM_0
 10
566.57992090345533
 20
312.09642931868052
 30
0.0
 11
566.57992090345533
 21
319.0964613186805
 31
0.0
  0
LINE
  5
30B0
  8
AM_0
 10
574.57990690345525
 20
312.09642931868052
 30
0.0
 11
574.57990690345525
 21
319.0964613186805
 31
0.0
  0
LINE
  5
30B1
  8
AM_0
 10
644.38581790345552
 20
331.2504363186805
 30
0.0
 11
608.82679690345537
 21
350.29794631868032
 31
0.0
  0
ARC
  5
30B2
  8
AM_0
 10
625.57990990345525
 20
331.34640631868052
 30
0.0
 40
5.0000001000000003
 50
0.0
 51
43.64050000000065
  0
ARC
  5
30B3
  8
AM_0
 10
636.83086990345532
 20
317.14644931868048
 30
0.0
 40
16.000000499999999
 50
4.1564916000008019
 51
61.823860000000678
  0
LINE
  5
30B4
  8
0
  6
CONTINUOUS
 62
     7
 10
228.4809909067356
 20
585.29444351343045
 30
0.0
 11
228.4809909067356
 21
461.29444351343062
 31
0.0
  0
LINE
  5
30B5
  8
0
 10
195.4809969864092
 20
603.29444351343045
 30
0.0
 11
195.4809969864092
 21
443.29444351343051
 31
0.0
  0
LINE
  5
30B6
  8
0
 10
205.4809969864092
 20
601.29444351343045
 30
0.0
 11
205.4809969864092
 21
445.29444351343051
 31
0.0
  0
ARC
  5
30B7
  8
0
 10
203.4809969864092
 20
445.29444351343051
 30
0.0
 40
2.0
 50
270.0
 51
0.0
1001
GENIUS_GENODEF_13
1002
{
1000
HIER
1070
     0
1002
}
1002
{
1000
MANEDIT
1070
     0
1002
}
1002
{
1000
NOSEL
1070
     0
1002
}
1002
{
1000
BEHIND
1070
     0
1002
}
1002
{
1000
OTHER
1070
     0
1002
}
1002
{
1000
REACTOR
1002
}
1001
GENIUS_GENOBJ-N-FIL_13
1002
{
1000
OWNER
1000
GEN
1002
}
  0
LINE
  5
30B8
  8
0
 10
195.4809969864092
 20
443.29444351343051
 30
0.0
 11
203.4809969864092
 21
443.29444351343051
 31
0.0
  0
ARC
  5
30B9
  8
0
 10
226.4809909067356
 20
463.29444351343028
 30
0.0
 40
2.0
 50
0.0
 51
90.0
1001
GENIUS_GENODEF_13
1002
{
1000
HIER
1070
     0
1002
}
1002
{
1000
MANEDIT
1070
     0
1002
}
1002
{
1000
NOSEL
1070
     0
1002
}
1002
{
1000
BEHIND
1070
     0
1002
}
1002
{
1000
OTHER
1070
     0
1002
}
1002
{
1000
REACTOR
1002
}
1001
GENIUS_GENOBJ-N-FIL_13
1002
{
1000
OWNER
1000
GEN
1002
}
  0
ARC
  5
30BA
  8
0
 10
210.4809969864092
 20
460.29444351343051
 30
0.0
 40
5.0
 50
90.0
 51
180.0
1001
GENIUS_GENOBJ-N-FIL_13
1002
{
1000
OWNER
1000
GEN
1002
}
1001
GENIUS_GENODEF_13
1002
{
1000
HIER
1070
     0
1002
}
1002
{
1000
MANEDIT
1070
     0
1002
}
1002
{
1000
NOSEL
1070
     0
1002
}
1002
{
1000
BEHIND
1070
     0
1002
}
1002
{
1000
OTHER
1070
     0
1002
}
1002
{
1000
REACTOR
1002
}
  0
LINE
  5
30BB
  8
0
 10
226.4809909067356
 20
465.29444351343062
 30
0.0
 11
210.4809969864092
 21
465.29444351343062
 31
0.0
  0
LINE
  5
30BC
  8
0
 10
239.4809909067356
 20
459.29444351343051
 30
0.0
 11
230.4809909067356
 21
459.29444351343051
 31
0.0
  0
ARC
  5
30BD
  8
0
 10
230.4809909067356
 20
461.29444351343062
 30
0.0
 40
2.0
 50
180.0
 51
270.0
1001
GENIUS_GENODEF_13
1002
{
1000
HIER
1070
     0
1002
}
1002
{
1000
MANEDIT
1070
     0
1002
}
1002
{
1000
NOSEL
1070
     0
1002
}
1002
{
1000
BEHIND
1070
     0
1002
}
1002
{
1000
OTHER
1070
     0
1002
}
1002
{
1000
REACTOR
1002
}
1001
GENIUS_GENOBJ-N-FIL_13
1002
{
1000
OWNER
1000
GEN
1002
}
  0
LINE
  5
30BE
  8
AM_0
 10
239.4809909067356
 20
471.79442751343038
 30
0.0
 11
228.4809909067356
 21
471.79442751343038
 31
0.0
  0
LINE
  5
30BF
  8
AM_0
 10
239.4809909067356
 20
486.14650851343032
 30
0.0
 11
228.4809909067356
 21
486.14650851343032
 31
0.0
  0
ARC
  5
30C0
  8
0
 10
226.4809909067356
 20
583.29444351343045
 30
0.0
 40
2.0
 50
270.0
 51
0.0
1001
GENIUS_GENODEF_13
1002
{
1000
HIER
1070
     0
1002
}
1002
{
1000
MANEDIT
1070
     0
1002
}
1002
{
1000
NOSEL
1070
     0
1002
}
1002
{
1000
BEHIND
1070
     0
1002
}
1002
{
1000
OTHER
1070
     0
1002
}
1002
{
1000
REACTOR
1002
}
1001
GENIUS_GENOBJ-N-FIL_13
1002
{
1000
OWNER
1000
GEN
1002
}
  0
ARC
  5
30C1
  8
0
 10
203.4809969864092
 20
601.29444351343045
 30
0.0
 40
2.0
 50
0.0
 51
90.0
1001
GENIUS_GENODEF_13
1002
{
1000
HIER
1070
     0
1002
}
1002
{
1000
MANEDIT
1070
     0
1002
}
1002
{
1000
NOSEL
1070
     0
1002
}
1002
{
1000
BEHIND
1070
     0
1002
}
1002
{
1000
OTHER
1070
     0
1002
}
1002
{
1000
REACTOR
1002
}
1001
GENIUS_GENOBJ-N-FIL_13
1002
{
1000
OWNER
1000
GEN
1002
}
  0
ARC
  5
30C2
  8
0
 10
210.4809969864092
 20
586.29444351343045
 30
0.0
 40
5.0
 50
180.0
 51
270.0
1001
GENIUS_GENOBJ-N-FIL_13
1002
{
1000
OWNER
1000
GEN
1002
}
1001
GENIUS_GENODEF_13
1002
{
1000
HIER
1070
     0
1002
}
1002
{
1000
MANEDIT
1070
     0
1002
}
1002
{
1000
NOSEL
1070
     0
1002
}
1002
{
1000
BEHIND
1070
     0
1002
}
1002
{
1000
OTHER
1070
     0
1002
}
1002
{
1000
REACTOR
1002
}
  0
LINE
  5
30C3
  8
0
 10
226.4809909067356
 20
581.29444351343045
 30
0.0
 11
210.4809969864092
 21
581.29444351343045
 31
0.0
  0
LINE
  5
30C4
  8
0
 10
195.4809969864092
 20
603.29444351343045
 30
0.0
 11
203.4809969864092
 21
603.29444351343045
 31
0.0
  0
LINE
  5
30C5
  8
AM_0
 10
239.4809909067356
 20
560.44236351343045
 30
0.0
 11
228.4809909067356
 21
560.44236351343045
 31
0.0
  0
LINE
  5
30C6
  8
AM_0
 10
239.4809909067356
 20
574.79445351343065
 30
0.0
 11
228.4809909067356
 21
574.79445351343065
 31
0.0
  0
LINE
  5
30C7
  8
0
 10
239.4809909067356
 20
587.29444351343045
 30
0.0
 11
230.4809909067356
 21
587.29444351343045
 31
0.0
  0
ARC
  5
30C8
  8
0
 10
230.4809909067356
 20
585.29444351343045
 30
0.0
 40
2.0
 50
90.0
 51
180.0
1001
GENIUS_GENODEF_13
1002
{
1000
HIER
1070
     0
1002
}
1002
{
1000
MANEDIT
1070
     0
1002
}
1002
{
1000
NOSEL
1070
     0
1002
}
1002
{
1000
BEHIND
1070
     0
1002
}
1002
{
1000
OTHER
1070
     0
1002
}
1002
{
1000
REACTOR
1002
}
1001
GENIUS_GENOBJ-N-FIL_13
1002
{
1000
OWNER
1000
GEN
1002
}
  0
TEXT
  5
32A9
  8
AM_0
 10
472.43899988631267
 20
543.81966801434305
 30
0.0
 40
10.0
  1
VX04-060A~VX04-100A
  0
ENDSEC
  0
EOF
