  0
SECTION
  2
HEADER
  9
$ACADVER
  1
AC1009
  9
$INSBASE
 10
0.0
 20
0.0
 30
0.0
  9
$EXTMIN
 10
173.1848624183153
 20
147.62494808183101
 30
-0.0000000349181948
  9
$EXTMAX
 10
788.34404945774475
 20
698.07368428566133
 30
0.0000000814935747
  9
$LIMMIN
 10
0.0
 20
0.0
  9
$LIMMAX
 10
853.5
 20
555.00000000000011
  9
$ORTHOMODE
 70
     0
  9
$REGENMODE
 70
     1
  9
$FILLMODE
 70
     1
  9
$QTEXTMODE
 70
     0
  9
$MIRRTEXT
 70
     1
  9
$DRAGMODE
 70
     2
  9
$LTSCALE
 40
3.0
  9
$OSMODE
 70
   551
  9
$ATTMODE
 70
     1
  9
$TEXTSIZE
 40
2.5
  9
$TRACEWID
 40
1.0
  9
$TEXTSTYLE
  7
STANDARD
  9
$CLAYER
  8
AM_0
  9
$CELTYPE
  6
BYLAYER
  9
$CECOLOR
 62
   256
  9
$DIMSCALE
 40
1.0
  9
$DIMASZ
 40
2.5
  9
$DIMEXO
 40
1.0
  9
$DIMDLI
 40
8.0
  9
$DIMRND
 40
0.0
  9
$DIMDLE
 40
0.0
  9
$DIMEXE
 40
0.6
  9
$DIMTP
 40
0.1
  9
$DIMTM
 40
0.1
  9
$DIMTXT
 40
2.5
  9
$DIMCEN
 40
0.0
  9
$DIMTSZ
 40
0.0
  9
$DIMTOL
 70
     0
  9
$DIMLIM
 70
     0
  9
$DIMTIH
 70
     0
  9
$DIMTOH
 70
     0
  9
$DIMSE1
 70
     0
  9
$DIMSE2
 70
     0
  9
$DIMTAD
 70
     1
  9
$DIMZIN
 70
     8
  9
$DIMBLK
  1

  9
$DIMASO
 70
     1
  9
$DIMSHO
 70
     1
  9
$DIMPOST
  1

  9
$DIMAPOST
  1
"
  9
$DIMALT
 70
     0
  9
$DIMALTD
 70
     2
  9
$DIMALTF
 40
0.0393701
  9
$DIMLFAC
 40
1.0
  9
$DIMTOFL
 70
     1
  9
$DIMTVP
 40
0.0
  9
$DIMTIX
 70
     0
  9
$DIMSOXD
 70
     0
  9
$DIMSAH
 70
     0
  9
$DIMBLK1
  1

  9
$DIMBLK2
  1

  9
$DIMSTYLE
  2
AM_ISO
  9
$DIMCLRD
 70
   256
  9
$DIMCLRE
 70
   256
  9
$DIMCLRT
 70
     4
  9
$DIMTFAC
 40
0.71
  9
$DIMGAP
 40
0.8
  9
$LUNITS
 70
     2
  9
$LUPREC
 70
     2
  9
$SKETCHINC
 40
1.0
  9
$FILLETRAD
 40
15.0
  9
$AUNITS
 70
     0
  9
$AUPREC
 70
     0
  9
$MENU
  1
.
  9
$ELEVATION
 40
0.0
  9
$PELEVATION
 40
0.0
  9
$THICKNESS
 40
0.0
  9
$LIMCHECK
 70
     0
  9
$BLIPMODE
 70
     0
  9
$CHAMFERA
 40
6.0
  9
$CHAMFERB
 40
3.0
  9
$SKPOLY
 70
     0
  9
$TDCREATE
 40
2452066.4013071419
  9
$TDUPDATE
 40
2458541.4693159261
  9
$TDINDWG
 40
0.1434603356
  9
$TDUSRTIMER
 40
0.1434603125
  9
$USRTIMER
 70
     1
  9
$ANGBASE
 50
0.0
  9
$ANGDIR
 70
     0
  9
$PDMODE
 70
     0
  9
$PDSIZE
 40
0.0
  9
$PLINEWID
 40
0.0
  9
$COORDS
 70
     1
  9
$SPLFRAME
 70
     0
  9
$SPLINETYPE
 70
     6
  9
$SPLINESEGS
 70
     8
  9
$ATTDIA
 70
     1
  9
$ATTREQ
 70
     1
  9
$HANDLING
 70
     1
  9
$HANDSEED
  5
3243
  9
$SURFTAB1
 70
     6
  9
$SURFTAB2
 70
     6
  9
$SURFTYPE
 70
     6
  9
$SURFU
 70
     6
  9
$SURFV
 70
     6
  9
$UCSNAME
  2

  9
$UCSORG
 10
0.0
 20
0.0
 30
0.0
  9
$UCSXDIR
 10
1.0
 20
0.0
 30
0.0
  9
$UCSYDIR
 10
0.0
 20
1.0
 30
0.0
  9
$PUCSNAME
  2

  9
$PUCSORG
 10
0.0
 20
0.0
 30
0.0
  9
$PUCSXDIR
 10
1.0
 20
0.0
 30
0.0
  9
$PUCSYDIR
 10
0.0
 20
1.0
 30
0.0
  9
$USERI1
 70
     0
  9
$USERI2
 70
     0
  9
$USERI3
 70
     0
  9
$USERI4
 70
     0
  9
$USERI5
 70
     0
  9
$USERR1
 40
0.0
  9
$USERR2
 40
0.0
  9
$USERR3
 40
0.0
  9
$USERR4
 40
0.0
  9
$USERR5
 40
0.0
  9
$WORLDVIEW
 70
     1
  9
$SHADEDGE
 70
     3
  9
$SHADEDIF
 70
    70
  9
$TILEMODE
 70
     1
  9
$MAXACTVP
 70
    64
  9
$PLIMCHECK
 70
     0
  9
$PEXTMIN
 10
1.0000000000000000E+020
 20
1.0000000000000000E+020
 30
1.0000000000000000E+020
  9
$PEXTMAX
 10
-1.0000000000000000E+020
 20
-1.0000000000000000E+020
 30
-1.0000000000000000E+020
  9
$PLIMMIN
 10
0.0
 20
0.0
  9
$PLIMMAX
 10
420.0
 20
297.0
  9
$UNITMODE
 70
     0
  9
$VISRETAIN
 70
     1
  9
$PLINEGEN
 70
     0
  9
$PSLTSCALE
 70
     1
  0
ENDSEC
  0
SECTION
  2
TABLES
  0
TABLE
  2
VPORT
 70
     1
  0
VPORT
  2
*ACTIVE
 70
     0
 10
0.0
 20
0.0
 11
1.0
 21
1.0
 12
480.7644559380301
 22
422.84931618374611
 13
0.0
 23
0.0
 14
7.5
 24
7.5
 15
30.0
 25
30.0
 16
0.0
 26
0.0
 36
1.0
 17
0.0
 27
0.0
 37
0.0
 40
554.22756047982921
 41
1.7571592210767459
 42
50.0
 43
0.0
 44
0.0
 50
0.0
 51
0.0
 71
     0
 72
   100
 73
     1
 74
     3
 75
     0
 76
     0
 77
     0
 78
     0
  0
ENDTAB
  0
TABLE
  2
LTYPE
 70
    27
  0
LTYPE
  2
CONTINUOUS
 70
     0
  3
Solid line
 72
    65
 73
     0
 40
0.0
  0
LTYPE
  2
AM_ISO02W050
 70
     0
  3
__ __ __ __ __ __ __ __ __ __ __ __ __ __ __
 72
    65
 73
     2
 40
7.5
 49
6.0
 49
-1.5
  0
LTYPE
  2
AM_ISO08W050
 70
     0
  3
____ . ____ . ____ . ____ . ____ . ____ . ____
 72
    65
 73
     4
 40
18.0
 49
12.0
 49
-1.5
 49
3.0
 49
-1.5
  0
LTYPE
  2
AM_ISO09W050
 70
     0
  3
_____ . . _____ . . _____ . . ____ .. ____
 72
    65
 73
     6
 40
22.5
 49
12.0
 49
-1.5
 49
3.0
 49
-1.5
 49
3.0
 49
-1.5
  0
LTYPE
  2
AMCONSTR
 70
     0
  3
_______________________
 72
    65
 73
     2
 40
9999.0
 49
9999.0
 49
0.0
  0
LTYPE
  2
AM_ISO08W050X2
 70
     0
  3
__ . __ . __ . __ . __ . __
 72
    65
 73
     4
 40
9.0
 49
6.0
 49
-0.75
 49
1.5
 49
-0.75
  0
LTYPE
  2
AM_ISO02W050X2
 70
     0
  3
 _ _ _ _ _ _ _ _ _ _ _ _
 72
    65
 73
     2
 40
3.75
 49
3.0
 49
-0.75
  0
LTYPE
  2
AMZIGZAG
 70
     0
  3
/\/-/\/-/\/-/\/-/\/-/\/
 72
    65
 73
     2
 40
11.000099999999991
 49
0.0001
 49
-11.0
  0
LTYPE
  2
ACISOWELD
 70
     0
  3
_ _ _ _ _
 72
    65
 73
     2
 40
2.0
 49
2.0
 49
-1.0
  0
LTYPE
  2
ACISOTGB
 70
     0
  3
__ . . __ . .
 72
    65
 73
     6
 40
9.0
 49
4.0
 49
-1.0
 49
1.0
 49
-1.0
 49
1.0
 49
-1.0
  0
LTYPE
  2
ACISOTGL
 70
     0
  3
_ _ _ _ _
 72
    65
 73
     2
 40
3.0
 49
2.0
 49
-1.0
  0
LTYPE
  2
CENTER
 70
     0
  3
__ . __
 72
    65
 73
     4
 40
7.0
 49
4.0
 49
-1.0
 49
1.0
 49
-1.0
  0
LTYPE
  2
PHANTOM2
 70
     0
  3
Phantom (.5x) ___ _ _ ___ _ _ ___ _ _ ___ _ _
 72
    65
 73
     6
 40
31.75
 49
15.875
 49
-3.174999999999998
 49
3.174999999999998
 49
-3.174999999999998
 49
3.174999999999998
 49
-3.174999999999998
  0
LTYPE
  2
ACANSTGBM
 70
     0
  3
__ . . __ . .
 72
    65
 73
     6
 40
9.0
 49
4.0
 49
-1.0
 49
1.0
 49
-1.0
 49
1.0
 49
-1.0
  0
LTYPE
  2
ACANSTGLM
 70
     0
  3
_ _ _ _ _
 72
    65
 73
     2
 40
3.0
 49
2.0
 49
-1.0
  0
LTYPE
  2
GEN7
 70
     0
  3
____ . ____ . ____ . ____ . ____ . ____ . ____
 72
    65
 73
     4
 40
14.25
 49
9.75
 49
-1.5
 49
1.5
 49
-1.5
  0
LTYPE
  2
GEN3B
 70
     0
  3
 - - - - -
 72
    65
 73
     2
 40
1.0
 49
0.5
 49
-0.5
  0
LTYPE
  2
GEN7A
 70
     0
  3
__ . __ . __
 72
    65
 73
     4
 40
7.375
 49
4.75
 49
-0.875
 49
0.875
 49
-0.875
  0
LTYPE
  2
ACJISTGB
 70
     0
  3
__ . . __ . .
 72
    65
 73
     6
 40
9.0
 49
4.0
 49
-1.0
 49
1.0
 49
-1.0
 49
1.0
 49
-1.0
  0
LTYPE
  2
ACJISTGL
 70
     0
  3
_ _ _ _ _
 72
    65
 73
     2
 40
3.0
 49
2.0
 49
-1.0
  0
LTYPE
  2
HIDDEN
 70
     0
  3
Hidden __ __ __ __ __ __ __ __ __ __ __ __ __ _
 72
    65
 73
     2
 40
0.375
 49
0.25
 49
-0.125
  0
LTYPE
  2
CENTER2
 70
     0
  3
Center (.5x) ___ _ ___ _ ___ _ ___ _ ___ _ ___
 72
    65
 73
     4
 40
1.125
 49
0.75
 49
-0.125
 49
0.125
 49
-0.125
  0
LTYPE
  2
HIDDEN2
 70
     0
  3
Hidden (.5x) _ _ _ _ _ _ _ _ _ _ _ _ _ _ _ _ _
 72
    65
 73
     2
 40
0.1875
 49
0.125
 49
-0.0625
  0
LTYPE
  2
AMZIGZAG2
 70
     0
  3
/\/-/\/-/\/-/\/-/\/-/\/
 72
    65
 73
     2
 40
0.4401
 49
0.0001
 49
-0.4400000000000002
  0
LTYPE
  2
ACANSTGB
 70
     0
  3
__ . . __ . .
 72
    65
 73
     6
 40
0.35433070866
 49
0.15748031496
 49
-0.03937007874
 49
0.03937007874
 49
-0.03937007874
 49
0.03937007874
 49
-0.03937007874
  0
LTYPE
  2
ACANSTGL
 70
     0
  3
_ _ _ _ _
 72
    65
 73
     2
 40
0.11811023622
 49
0.07874015748
 49
-0.03937007874
  0
ENDTAB
  0
TABLE
  2
LAYER
 70
     7
  0
LAYER
  2
0
 70
     0
 62
     7
  6
CONTINUOUS
  0
LAYER
  2
AM_0
 70
     0
 62
     7
  6
CONTINUOUS
  0
LAYER
  2
AM_5
 70
     0
 62
     2
  6
CONTINUOUS
  0
LAYER
  2
DEFPOINTS
 70
     0
 62
     7
  6
CONTINUOUS
  0
LAYER
  2
ｶｸﾚｾﾝ2
 70
     0
 62
     3
  6
GEN3B
  0
LAYER
  2
ﾁｭｳｼﾝｾﾝ
 70
     0
 62
     1
  6
GEN7
  0
LAYER
  2
ﾁｭｳｼﾝｾﾝ1
 70
     0
 62
     1
  6
GEN7A
  0
ENDTAB
  0
TABLE
  2
STYLE
 70
     9
  0
STYLE
  2
STANDARD
 70
     0
 40
0.0
 41
0.8299999999999999
 50
0.0
 71
     0
 42
2.5
  3
txt.shx
  4
bigfont.shx
  0
STYLE
  2
ANNOTATIVE
 70
     0
 40
0.0
 41
1.0
 50
0.0
 71
     0
 42
0.2
  3
txt
  4

  0
STYLE
  2

 70
     1
 40
0.0
 41
1.0
 50
0.0
 71
     0
 42
2.5
  3
ltypeshp.shx
  4

  0
STYLE
  2
ACISOTS
 70
     0
 40
1.0
 41
1.0
 50
0.0
 71
     0
 42
2.5
  3
isocp.shx
  4
extfont.shx
  0
STYLE
  2
ACISOGDT
 70
     0
 40
0.0
 41
1.0
 50
0.0
 71
     0
 42
2.5
  3
amgdt.shx
  4

  0
STYLE
  2
ACANSTS
 70
     0
 40
1.0
 41
1.0
 50
0.0
 71
     0
 42
2.5
  3
romans.shx
  4
bigfont.shx
  0
STYLE
  2
ACANSGDT
 70
     0
 40
0.0
 41
1.0
 50
0.0
 71
     0
 42
2.5
  3
amgdt.shx
  4

  0
STYLE
  2
ACJISTS
 70
     0
 40
1.0
 41
1.0
 50
0.0
 71
     0
 42
2.5
  3
isocp.shx
  4
bigfont.shx
  0
STYLE
  2
ACJISGDT
 70
     0
 40
0.0
 41
1.0
 50
0.0
 71
     0
 42
2.5
  3
amgdt.shx
  4

  0
ENDTAB
  0
TABLE
  2
VIEW
 70
     6
  0
VIEW
  2
AM_VIEW1
 70
     0
 40
277.49999999999989
 10
249.64779005524849
 20
416.24999999999989
 41
499.2955801104971
 11
0.0
 21
0.0
 31
1.0
 12
0.0
 22
0.0
 32
0.0
 42
50.0
 43
0.0
 44
0.0
 50
0.0
 71
     0
  0
VIEW
  2
AM_VIEW2
 70
     0
 40
277.49999999999989
 10
603.85220994475117
 20
416.24999999999989
 41
499.2955801104971
 11
0.0
 21
0.0
 31
1.0
 12
0.0
 22
0.0
 32
0.0
 42
50.0
 43
0.0
 44
0.0
 50
0.0
 71
     0
  0
VIEW
  2
AM_VIEW3
 70
     0
 40
277.49999999999989
 10
249.64779005524849
 20
138.7499999999998
 41
499.2955801104971
 11
0.0
 21
0.0
 31
1.0
 12
0.0
 22
0.0
 32
0.0
 42
50.0
 43
0.0
 44
0.0
 50
0.0
 71
     0
  0
VIEW
  2
AM_VIEW4
 70
     0
 40
277.49999999999989
 10
603.85220994475117
 20
138.7499999999998
 41
499.2955801104971
 11
0.0
 21
0.0
 31
1.0
 12
0.0
 22
0.0
 32
0.0
 42
50.0
 43
0.0
 44
0.0
 50
0.0
 71
     0
  0
VIEW
  2
AM_VIEW5
 70
     0
 40
277.5
 10
426.75
 20
277.49999999999989
 41
499.2955801104971
 11
0.0
 21
0.0
 31
1.0
 12
0.0
 22
0.0
 32
0.0
 42
50.0
 43
0.0
 44
0.0
 50
0.0
 71
     0
  0
VIEW
  2
AM_VIEW6
 70
     0
 40
554.99445000000014
 10
426.75
 20
277.49999999999989
 41
998.5811743093924
 11
0.0
 21
0.0
 31
1.0
 12
0.0
 22
0.0
 32
0.0
 42
50.0
 43
0.0
 44
0.0
 50
0.0
 71
     0
  0
ENDTAB
  0
TABLE
  2
UCS
 70
     0
  0
ENDTAB
  0
TABLE
  2
APPID
 70
    95
  0
APPID
  2
ACAD
 70
     0
  0
APPID
  2
ACADANNOTATIVE
 70
     0
  0
APPID
  2
MCAD_NO_VIS
 70
     0
  0
APPID
  2
ACAD_TEMP_GRAPHIC
 70
     0
  0
APPID
  2
ACATTRIBSERVICES
 70
     0
  0
APPID
  2
GENIUS_GENREC_14
 70
     0
  0
APPID
  2
GENIUS_GENOBJ-N-REC_13
 70
     0
  0
APPID
  2
GENIUS_GENODEF_13
 70
     0
  0
APPID
  2
GENIUS_GENOLIS_13
 70
     0
  0
APPID
  2
GENIUS_GENOBJ-N-TIT_13
 70
     0
  0
APPID
  2
GENIUS_GENOENT_13
 70
     0
  0
APPID
  2
GENIUS_GENTITLE_13
 70
     0
  0
APPID
  2
GENIUS_GENOREF_13
 70
     0
  0
APPID
  2
GENIUS_GENSCREG_15
 70
     0
  0
APPID
  2
GENIUS_GENOBJ-N-SDF_13
 70
     0
  0
APPID
  2
GENIUS_GENFIL_13
 70
     0
  0
APPID
  2
GENIUS_GENOBJ-N-CHA_13
 70
     0
  0
APPID
  2
GENIUS_GENDTOL_13
 70
     0
  0
APPID
  2
GENIUS_GENOBJ-N-FIL_13
 70
     0
  0
APPID
  2
AD_DRAW
 70
     0
  0
APPID
  2
DESIGNERASSEMBLIES
 70
     0
  0
APPID
  2
ASURF_PCURVE_APPNAME
 70
     0
  0
APPID
  2
GENIUS_GE3SECT_13
 70
     0
  0
APPID
  2
GENIUS_GENCFG_13
 70
     0
  0
APPID
  2
GENIUS_GE3CFG0_13
 70
     0
  0
APPID
  2
GENIUS_GENCFG0_13
 70
     0
  0
APPID
  2
GENIUS_GENCFG1_13
 70
     0
  0
APPID
  2
GENIUS_GENCFG2_13
 70
     0
  0
APPID
  2
GENIUS_GENCFG3_13
 70
     0
  0
APPID
  2
GENIUS_GENCFG4_13
 70
     0
  0
APPID
  2
GENIUS_GEVCFG0_13
 70
     0
  0
APPID
  2
GENIUS_GENHINW_13
 70
     0
  0
APPID
  2
GENIUS_FIRSTVISTXT_14
 70
     0
  0
APPID
  2
GENIUS_GENOBJ-N-LEADER_13
 70
     0
  0
APPID
  2
GEV_VCCNULL_SWITCH_OFF
 70
     0
  0
APPID
  2
GENIUS_GEFCFG0_13
 70
     0
  0
APPID
  2
GENIUS_GENZVEED_13
 70
     0
  0
APPID
  2
GENIUS_GENSCREG_13
 70
     0
  0
APPID
  2
GENIUS_DUMCFG0_13
 70
     0
  0
APPID
  2
GEVID936201362
 70
     0
  0
APPID
  2
GEVDC
 70
     0
  0
APPID
  2
GEVCON
 70
     0
  0
APPID
  2
VCC
 70
     0
  0
APPID
  2
GEVPT
 70
     0
  0
APPID
  2
GEVIT
 70
     0
  0
APPID
  2
GENBH
 70
     0
  0
APPID
  2
GEVMK
 70
     0
  0
APPID
  2
GENIUS_GENBH_13
 70
     0
  0
APPID
  2
GENIUS_GENOBJ-NBEHI-BHF_13
 70
     0
  0
APPID
  2
GENIUS_GENOBJ-NBEHI-BHB_13
 70
     0
  0
APPID
  2
GENIUS_GENOBJ-F-DESC_13
 70
     0
  0
APPID
  2
GENIUS_GEFDESC_14
 70
     0
  0
APPID
  2
GENIUS_GENOBJ-F-PART_13
 70
     0
  0
APPID
  2
GENIUS_GEFSTDP_13
 70
     0
  0
APPID
  2
GENIUS_GEFPARTINS_13
 70
     0
  0
APPID
  2
GENIUS_GENTRA_14
 70
     0
  0
APPID
  2
GENIUS_GENINF13_13
 70
     0
  0
APPID
  2
GENIUS_GENOBJ-N-INFOPT_13
 70
     0
  0
APPID
  2
GENIUS_GENOBJ-N-RSSYM_13
 70
     0
  0
APPID
  2
GENIUS_GENSYMENT_13
 70
     0
  0
APPID
  2
GENIUS_GENSCSYM_13
 70
     0
  0
APPID
  2
GENIUS_GEFINFNAM_13
 70
     0
  0
APPID
  2
GENIUS_GENOBJ-N-CEN_13
 70
     0
  0
APPID
  2
GENIUS_GENOBJ-N-CRS_13
 70
     0
  0
APPID
  2
GENIUS_GENOBJ-N-CRC_13
 70
     0
  0
APPID
  2
GENIUS_GENCRC_14
 70
     0
  0
APPID
  2
GEVID942827039
 70
     0
  0
APPID
  2
GEVID942827040
 70
     0
  0
APPID
  2
GEVID942827041
 70
     0
  0
APPID
  2
GENIUS_GENOBJ-F-SCPASSM_13
 70
     0
  0
APPID
  2
GENIUS_GENDIMSH_14
 70
     0
  0
APPID
  2
GEVID942827042
 70
     0
  0
APPID
  2
GEVID946020473
 70
     0
  0
APPID
  2
GEVID946020474
 70
     0
  0
APPID
  2
GEVID946020475
 70
     0
  0
APPID
  2
GENIUS_GENOBJ-N-HTC_13
 70
     0
  0
APPID
  2
GENIUS_GENHATCH_13
 70
     0
  0
APPID
  2
GEVID948854295
 70
     0
  0
APPID
  2
GEVID939402019
 70
     0
  0
APPID
  2
GEVID952919491
 70
     0
  0
APPID
  2
GEVID952919492
 70
     0
  0
APPID
  2
GENIUS_GEFWELD_13
 70
     0
  0
APPID
  2
GENIUS_GENOBJ-F-WELS_13
 70
     0
  0
APPID
  2
GEVID952919493
 70
     0
  0
APPID
  2
GENIUS_GENOBJ-N-RSBK_13
 70
     0
  0
APPID
  2
GENIUS_GENOBJ-N-LIB_13
 70
     0
  0
APPID
  2
GENIUS_GENSCALE_13
 70
     0
  0
APPID
  2
GEVID986376691
 70
     0
  0
APPID
  2
DCO15
 70
     0
  0
APPID
  2
ACAD_DSTYLE_DIMBREAK
 70
     0
  0
APPID
  2
ACAD_DSTYLE_DIMJAG
 70
     0
  0
APPID
  2
ACAD_NAV_VCDISPLAY
 70
     0
  0
APPID
  2
ACADANNOPO
 70
     0
  0
APPID
  2
ACAD_EXEMPT_FROM_CAD_STANDARDS
 70
     0
  0
APPID
  2
ACAD_MLEADERVER
 70
     0
  0
ENDTAB
  0
TABLE
  2
DIMSTYLE
 70
    22
  0
DIMSTYLE
  2
STANDARD
 70
     0
  3

  4

  5

  6

  7

 40
1.0
 41
0.18
 42
0.0625
 43
0.38
 44
0.18
 45
0.0
 46
0.0
 47
0.0
 48
0.0
140
0.18
141
0.09
142
0.0
143
25.399999999999999
144
1.0
145
0.0
146
1.0
147
0.09
 71
     0
 72
     0
 73
     1
 74
     1
 75
     0
 76
     0
 77
     0
 78
     0
170
     0
171
     2
172
     0
173
     0
174
     0
175
     0
176
     0
177
     0
178
     0
  0
DIMSTYLE
  2
ANNOTATIVE
 70
     0
  3

  4

  5

  6

  7

 40
1.0
 41
0.18
 42
0.0625
 43
0.38
 44
0.18
 45
0.0
 46
0.0
 47
0.0
 48
0.0
140
0.18
141
0.09
142
0.0
143
25.399999999999999
144
1.0
145
0.0
146
1.0
147
0.09
 71
     0
 72
     0
 73
     1
 74
     1
 75
     0
 76
     0
 77
     0
 78
     0
170
     0
171
     2
172
     0
173
     0
174
     0
175
     0
176
     0
177
     0
178
     0
  0
DIMSTYLE
  2
AM_ISO
 70
     0
  3

  4
"
  5

  6

  7

 40
1.0
 41
2.5
 42
1.0
 43
8.0
 44
0.6
 45
0.0
 46
0.0
 47
0.1
 48
0.1
140
2.5
141
0.0
142
0.0
143
0.0393701
144
1.0
145
0.0
146
0.71
147
0.8
 71
     0
 72
     0
 73
     0
 74
     0
 75
     0
 76
     0
 77
     1
 78
     8
170
     0
171
     2
172
     1
173
     0
174
     0
175
     0
176
   256
177
   256
178
     4
  0
DIMSTYLE
  2
AM_ISO$3
 70
     0
  3

  4
"
  5

  6

  7

 40
1.0
 41
2.5
 42
1.0
 43
8.0
 44
0.6
 45
0.0
 46
0.0
 47
0.1
 48
0.1
140
2.5
141
0.0
142
0.0
143
0.0393701
144
1.0
145
0.0
146
0.71
147
0.8
 71
     0
 72
     0
 73
     0
 74
     1
 75
     0
 76
     0
 77
     1
 78
     8
170
     0
171
     2
172
     0
173
     0
174
     0
175
     0
176
   256
177
   256
178
     4
  0
DIMSTYLE
  2
AM_ISO$4
 70
     0
  3

  4
"
  5

  6

  7

 40
1.0
 41
2.5
 42
1.0
 43
8.0
 44
0.6
 45
0.0
 46
0.0
 47
0.1
 48
0.1
140
2.5
141
0.0
142
0.0
143
0.0393701
144
1.0
145
0.0
146
0.71
147
0.8
 71
     0
 72
     0
 73
     0
 74
     1
 75
     0
 76
     0
 77
     1
 78
     8
170
     0
171
     2
172
     0
173
     0
174
     0
175
     0
176
   256
177
   256
178
     4
  0
DIMSTYLE
  2
AM_ISO$6
 70
     0
  3

  4
"
  5

  6

  7

 40
1.0
 41
2.5
 42
1.0
 43
8.0
 44
0.6
 45
0.0
 46
0.0
 47
0.1
 48
0.1
140
2.5
141
0.0
142
0.0
143
0.0393701
144
1.0
145
0.0
146
0.71
147
0.8
 71
     0
 72
     0
 73
     0
 74
     0
 75
     0
 76
     0
 77
     0
 78
     8
170
     0
171
     2
172
     1
173
     0
174
     0
175
     0
176
   256
177
   256
178
     4
  0
DIMSTYLE
  2
AM_ISO$7
 70
     0
  3

  4
"
  5

  6

  7

 40
1.0
 41
2.5
 42
1.0
 43
8.0
 44
0.6
 45
0.0
 46
0.0
 47
0.1
 48
0.1
140
2.5
141
0.0
142
0.0
143
0.0393701
144
1.0
145
0.0
146
0.71
147
0.8
 71
     0
 72
     0
 73
     0
 74
     0
 75
     0
 76
     0
 77
     1
 78
     8
170
     0
171
     2
172
     1
173
     0
174
     0
175
     0
176
   256
177
   256
178
     4
  0
DIMSTYLE
  2
AM_ISO$SF
 70
     0
  3

  4
"
  5

  6

  7

 40
1.0
 41
2.5
 42
1.0
 43
10.0
 44
1.0
 45
0.0
 46
0.0
 47
0.1
 48
0.1
140
3.5
141
0.0
142
0.0
143
0.0393701
144
1.0
145
0.0
146
0.71
147
1.5
 71
     0
 72
     0
 73
     0
 74
     0
 75
     1
 76
     1
 77
     1
 78
     8
170
     0
171
     2
172
     1
173
     0
174
     0
175
     0
176
   256
177
   256
178
     2
  0
DIMSTYLE
  2
AM_ISO$SH
 70
     0
  3

  4
"
  5

  6

  7

 40
1.0
 41
2.5
 42
1.0
 43
10.0
 44
1.0
 45
0.0
 46
0.0
 47
0.1
 48
0.1
140
3.5
141
0.0
142
0.0
143
0.0393701
144
2.0
145
0.0
146
0.71
147
1.5
 71
     0
 72
     0
 73
     0
 74
     0
 75
     1
 76
     1
 77
     1
 78
     8
170
     0
171
     2
172
     1
173
     1
174
     0
175
     0
176
   256
177
   256
178
     2
  0
DIMSTYLE
  2
AM_JIS
 70
     0
  3

  4
"
  5

  6

  7

 40
1.0
 41
2.5
 42
1.0
 43
7.0
 44
1.0
 45
0.0
 46
0.0
 47
0.1
 48
0.1000000001
140
2.5
141
0.0
142
0.0
143
0.0393701
144
1.0
145
0.0
146
0.71
147
1.0
 71
     0
 72
     0
 73
     0
 74
     0
 75
     0
 76
     0
 77
     3
 78
     8
170
     0
171
     2
172
     1
173
     0
174
     0
175
     0
176
   256
177
   256
178
     4
  0
DIMSTYLE
  2
AM_JIS$3
 70
     0
  3

  4
"
  5

  6

  7

 40
1.0
 41
2.5
 42
1.0
 43
7.0
 44
1.0
 45
0.0
 46
0.0
 47
0.1
 48
0.1000000001
140
2.5
141
0.0
142
0.0
143
0.0393701
144
1.0
145
0.0
146
0.71
147
1.0
 71
     0
 72
     0
 73
     0
 74
     1
 75
     0
 76
     0
 77
     3
 78
     8
170
     0
171
     2
172
     0
173
     0
174
     0
175
     0
176
   256
177
   256
178
     4
  0
DIMSTYLE
  2
AM_JIS$4
 70
     0
  3

  4
"
  5

  6

  7

 40
1.0
 41
2.5
 42
1.0
 43
7.0
 44
1.0
 45
0.0
 46
0.0
 47
0.1
 48
0.1000000001
140
2.5
141
0.0
142
0.0
143
0.0393701
144
1.0
145
0.0
146
0.71
147
1.0
 71
     0
 72
     0
 73
     0
 74
     0
 75
     0
 76
     0
 77
     3
 78
     8
170
     0
171
     2
172
     0
173
     0
174
     0
175
     0
176
   256
177
   256
178
     4
  0
DIMSTYLE
  2
AM_JIS$6
 70
     0
  3

  4
"
  5

  6

  7

 40
1.0
 41
2.5
 42
1.0
 43
7.0
 44
1.0
 45
0.0
 46
0.0
 47
0.1
 48
0.1000000001
140
2.5
141
0.0
142
0.0
143
0.0393701
144
1.0
145
0.0
146
0.71
147
1.0
 71
     0
 72
     0
 73
     0
 74
     0
 75
     0
 76
     0
 77
     0
 78
     8
170
     0
171
     2
172
     1
173
     0
174
     0
175
     0
176
   256
177
   256
178
     4
  0
DIMSTYLE
  2
AM_JIS$7
 70
     0
  3

  4
"
  5

  6

  7

 40
1.0
 41
2.5
 42
1.0
 43
7.0
 44
1.0
 45
0.0
 46
0.0
 47
0.1
 48
0.1000000001
140
2.5
141
0.0
142
0.0
143
0.0393701
144
1.0
145
0.0
146
0.71
147
1.0
 71
     0
 72
     0
 73
     0
 74
     0
 75
     0
 76
     0
 77
     3
 78
     8
170
     0
171
     2
172
     1
173
     0
174
     0
175
     0
176
   256
177
   256
178
     4
  0
DIMSTYLE
  2
AM_JIS$SF
 70
     0
  3

  4
"
  5

  6

  7

 40
1.0
 41
2.5
 42
1.0
 43
10.0
 44
1.0
 45
0.0
 46
0.0
 47
0.1
 48
0.1
140
3.5
141
0.0
142
0.0
143
0.0393701
144
1.0
145
0.0
146
0.71
147
1.5
 71
     0
 72
     0
 73
     0
 74
     0
 75
     1
 76
     1
 77
     3
 78
     8
170
     0
171
     2
172
     1
173
     0
174
     0
175
     0
176
   256
177
   256
178
     4
  0
DIMSTYLE
  2
AM_JIS$SH
 70
     0
  3

  4
"
  5

  6

  7

 40
1.0
 41
2.5
 42
1.0
 43
10.0
 44
1.0
 45
0.0
 46
0.0
 47
0.1
 48
0.1
140
3.5
141
0.0
142
0.0
143
0.0393701
144
1.0
145
0.0
146
0.71
147
1.5
 71
     0
 72
     0
 73
     0
 74
     0
 75
     1
 76
     0
 77
     3
 78
     8
170
     0
171
     2
172
     1
173
     1
174
     0
175
     0
176
   256
177
   256
178
     4
  0
DIMSTYLE
  2
AM_ANSI
 70
     0
  3

  4
mm
  5

  6

  7

 40
1.0
 41
0.1
 42
0.05
 43
0.5
 44
0.1
 45
0.0
 46
0.0
 47
0.1
 48
0.1
140
0.12
141
0.0
142
0.0
143
25.399999999999999
144
1.0
145
0.0
146
0.71
147
0.06
 71
     0
 72
     0
 73
     1
 74
     1
 75
     0
 76
     0
 77
     0
 78
     7
170
     0
171
     2
172
     0
173
     0
174
     0
175
     0
176
   256
177
   256
178
     2
  0
DIMSTYLE
  2
AM_ANSI$3
 70
     0
  3

  4
mm
  5

  6

  7

 40
1.0
 41
0.1
 42
0.05
 43
0.5
 44
0.1
 45
0.0
 46
0.0
 47
0.1
 48
0.1
140
0.12
141
0.0
142
0.0
143
25.399999999999999
144
1.0
145
0.0
146
0.71
147
0.06
 71
     0
 72
     0
 73
     1
 74
     1
 75
     0
 76
     0
 77
     0
 78
     7
170
     0
171
     2
172
     0
173
     0
174
     0
175
     0
176
   256
177
   256
178
     2
  0
DIMSTYLE
  2
AM_ANSI$4
 70
     0
  3

  4
mm
  5

  6

  7

 40
1.0
 41
0.1
 42
0.05
 43
0.5
 44
0.1
 45
0.0
 46
0.0
 47
0.1
 48
0.1
140
0.12
141
0.0
142
0.0
143
25.399999999999999
144
1.0
145
0.0
146
0.71
147
0.06
 71
     0
 72
     0
 73
     1
 74
     1
 75
     0
 76
     0
 77
     0
 78
     7
170
     0
171
     2
172
     0
173
     0
174
     0
175
     0
176
   256
177
   256
178
     2
  0
DIMSTYLE
  2
AM_ANSI$7
 70
     0
  3

  4
mm
  5

  6

  7

 40
1.0
 41
0.1
 42
0.05
 43
0.5
 44
0.1
 45
0.0
 46
0.0
 47
0.1
 48
0.1
140
0.24
141
0.0
142
0.0
143
25.399999999999999
144
1.0
145
0.0
146
0.71
147
0.06
 71
     0
 72
     0
 73
     1
 74
     1
 75
     0
 76
     0
 77
     0
 78
     7
170
     0
171
     2
172
     0
173
     0
174
     0
175
     0
176
   256
177
   256
178
     2
  0
DIMSTYLE
  2
AM_ANSI$SF
 70
     0
  3

  4
mm
  5

  6

  7

 40
1.0
 41
0.1
 42
0.05
 43
0.5
 44
0.1
 45
0.0
 46
0.0
 47
0.1
 48
0.1
140
0.12
141
0.0
142
0.0
143
25.399999999999999
144
1.0
145
0.0
146
0.71
147
0.06
 71
     0
 72
     0
 73
     1
 74
     1
 75
     1
 76
     1
 77
     0
 78
     7
170
     0
171
     2
172
     0
173
     0
174
     0
175
     0
176
   256
177
   256
178
     2
  0
DIMSTYLE
  2
AM_ANSI$SH
 70
     0
  3

  4
mm
  5

  6

  7

 40
1.0
 41
0.1
 42
0.05
 43
0.5
 44
0.1
 45
0.0
 46
0.0
 47
0.1
 48
0.1
140
0.12
141
0.0
142
0.0
143
25.399999999999999
144
1.0
145
0.0
146
0.71
147
0.06
 71
     0
 72
     0
 73
     1
 74
     1
 75
     1
 76
     1
 77
     0
 78
     7
170
     0
171
     2
172
     0
173
     1
174
     0
175
     0
176
   256
177
   256
178
     2
  0
ENDTAB
  0
ENDSEC
  0
SECTION
  2
BLOCKS
  0
BLOCK
  8
0
  2
$MODEL_SPACE
 70
     0
 10
0.0
 20
0.0
 30
0.0
  3
$MODEL_SPACE
  1

  0
ENDBLK
  5
30B5
  8
0
  0
BLOCK
 67
     1
  8
0
  2
$PAPER_SPACE
 70
     0
 10
0.0
 20
0.0
 30
0.0
  3
$PAPER_SPACE
  1

  0
ENDBLK
  5
30B1
 67
     1
  8
0
  0
BLOCK
  8
0
  2
GENAXEH
 70
     0
 10
0.0
 20
0.0
 30
0.0
  3
GENAXEH
  1

  0
LINE
  5
2E87
  8
0
 10
-1.0
 20
0.0
 30
0.0
 11
1.0
 21
0.0
 31
0.0
  0
ENDBLK
  5
2E88
  8
0
  0
BLOCK
  8
0
  2
_OPEN30
 70
     0
 10
0.0
 20
0.0
 30
0.0
  3
_OPEN30
  1

  0
LINE
  5
2E8B
  8
0
 62
     0
 10
-1.0
 20
0.26794919
 30
0.0
 11
0.0
 21
0.0
 31
0.0
  0
LINE
  5
2E8C
  8
0
 62
     0
 10
0.0
 20
0.0
 30
0.0
 11
-1.0
 21
-0.26794919
 31
0.0
  0
LINE
  5
2E8D
  8
0
 62
     0
 10
0.0
 20
0.0
 30
0.0
 11
-1.0
 21
0.0
 31
0.0
  0
ENDBLK
  5
2E8E
  8
0
  0
BLOCK
  8
0
  2
_NONE
 70
     0
 10
0.0
 20
0.0
 30
0.0
  3
_NONE
  1

  0
ENDBLK
  5
2E91
  8
0
  0
BLOCK
  8
0
  2
_ACMFILLEDHALF
 70
     0
 10
0.0
 20
0.0
 30
0.0
  3
_ACMFILLEDHALF
  1

  0
TRACE
  5
31AD
  8
AM_0
 62
     0
 10
-0.8
 20
0.0
 30
0.0
 11
-1.0
 21
0.166666666
 31
0.0
 12
0.0
 22
0.0
 32
0.0
 13
0.0
 23
0.0
 33
0.0
  0
LINE
  5
31AE
  8
AM_0
 62
     0
 10
-1.0
 20
0.0
 30
0.0
 11
-0.8
 21
0.0
 31
0.0
  0
ENDBLK
  5
31AC
  8
0
  0
ENDSEC
  0
SECTION
  2
ENTITIES
  0
LINE
  5
2E93
  8
AM_0
 10
398.41841135536379
 20
588.07195759800265
 30
0.0
 11
443.4184113553635
 21
588.07195759800265
 31
0.0
  0
LINE
  5
2E94
  8
AM_0
 10
398.41841135536379
 20
578.07201759800273
 30
0.0
 11
443.4184113553635
 21
578.07201759800273
 31
0.0
  0
LINE
  5
2E95
  8
AM_0
 10
443.4184113553635
 20
567.07201759800273
 30
0.0
 11
385.41844135536371
 21
567.07201759800273
 31
0.0
  0
LINE
  5
2E96
  8
AM_0
 10
443.4184113553635
 20
599.07195759800265
 30
0.0
 11
385.41844135536371
 21
599.07195759800265
 31
0.0
  0
LINE
  5
2E97
  8
ﾁｭｳｼﾝｾﾝ
 10
173.1987675889149
 20
583.07195759800265
 30
0.0
 11
451.33125135536358
 21
583.07195759800265
 31
0.0
  0
ARC
  5
2E98
  8
AM_0
 10
398.41841135536379
 20
583.07195759800265
 30
0.0
 40
4.9999924
 50
90.000003000000945
 51
270.0
  0
LINE
  5
2E99
  8
AM_0
 10
353.41844135536371
 20
513.86522759800255
 30
0.0
 11
353.41844135536371
 21
652.27873759800252
 31
0.0
  0
LINE
  5
2E9A
  8
AM_0
 10
398.41844135536383
 20
578.07201759800273
 30
0.0
 11
398.41844135536383
 21
588.07195759800265
 31
0.0
  0
LINE
  5
2E9B
  8
AM_0
 10
385.41844135536371
 20
565.57201759800273
 30
0.0
 11
385.41844135536371
 21
600.57201759800273
 31
0.0
  0
LINE
  5
2E9C
  8
AM_0
 10
381.41841135536379
 20
555.8040675980028
 30
0.0
 11
381.41841135536379
 21
583.07195759800265
 31
0.0
  0
LINE
  5
2E9D
  8
AM_0
 10
230.91838135536381
 20
647.07195759800265
 30
0.0
 11
230.91838135536381
 21
519.07195759800265
 31
0.0
  0
LINE
  5
2E9E
  8
AM_0
 10
258.41838135536381
 20
485.85259759800272
 30
0.0
 11
258.41838135536381
 21
680.29137759800267
 31
0.0
  0
LINE
  5
2E9F
  8
AM_0
 10
243.41838135536381
 20
511.14305759800271
 30
0.0
 11
243.41838135536381
 21
655.00090759800253
 31
0.0
  0
LINE
  5
2EA0
  8
AM_0
 10
374.41844135536371
 20
521.96861759800277
 30
0.0
 11
374.41844135536371
 21
644.17534759800265
 31
0.0
  0
LINE
  5
2EA1
  8
AM_0
 10
268.41838135536381
 20
483.57198759800252
 30
0.0
 11
268.41838135536381
 21
682.57195759800265
 31
0.0
  0
LINE
  5
2EA2
  8
AM_0
 10
274.41844135536383
 20
468.07195759800271
 30
0.0
 11
377.55800135536367
 21
471.6736675980024
 31
0.0
  0
CIRCLE
  5
2EA3
  8
AM_0
 10
238.41838135536369
 20
488.07198759800252
 30
0.0
 40
7.5
  0
LINE
  5
2EA4
  8
AM_0
 10
272.41838135536381
 20
483.57198759800252
 30
0.0
 11
272.41838135536381
 21
473.70348759800271
 31
0.0
  0
LINE
  5
2EA5
  8
AM_0
 10
220.41838135536381
 20
500.53343759800248
 30
0.0
 11
220.41838135536381
 21
476.46169759800239
 31
0.0
  0
LINE
  5
2EA6
  8
ﾁｭｳｼﾝｾﾝ1
 10
238.41838135536369
 20
501.57198759800241
 30
0.0
 11
238.41838135536369
 21
474.57198759800252
 31
0.0
  0
LINE
  5
2EA7
  8
AM_0
 10
259.67986135536358
 20
475.38436759800283
 30
0.0
 11
268.0698113553637
 21
474.65035759800247
 31
0.0
  0
LINE
  5
2EA8
  8
AM_0
 10
224.06975135536371
 20
472.4769275980027
 30
0.0
 11
274.41838135536381
 21
468.07198759800252
 31
0.0
  0
ARC
  5
2EA9
  8
AM_0
 10
224.41838135536381
 20
476.46169759800239
 30
0.0
 40
4.0
 50
180.00001000000091
 51
265.00001000000071
  0
ARC
  5
2EAA
  8
AM_0
 10
259.41838135536369
 20
472.39577759800278
 30
0.0
 40
3.0
 50
85.000004000001198
 51
265.00000000000028
  0
ARC
  5
2EAB
  8
AM_0
 10
267.41838135536369
 20
473.70348759800271
 30
0.0
 40
5.0
 50
265.00001000000071
 51
0.0000006832462478
  0
ARC
  5
2EAC
  8
AM_0
 10
268.41838135536381
 20
478.63512759800273
 30
0.0
 40
4.0
 50
265.00001000000071
 51
0.0000006832462478
  0
LINE
  5
2EAD
  8
AM_0
 10
268.41838135536381
 20
552.79555759800235
 30
0.0
 11
258.41838135536381
 21
552.79555759800235
 31
0.0
  0
LINE
  5
2EAE
  8
AM_0
 10
268.41838135536381
 20
505.65520759800239
 30
0.0
 11
258.41838135536381
 21
505.65520759800239
 31
0.0
  0
LINE
  5
2EAF
  8
AM_0
 10
268.41838135536381
 20
488.28179759800241
 30
0.0
 11
258.41838135536381
 21
488.28179759800241
 31
0.0
  0
LINE
  5
2EB0
  8
AM_0
 10
260.34856135536381
 20
483.85381759800248
 30
0.0
 11
268.41838135536381
 21
483.57198759800252
 31
0.0
  0
LINE
  5
2EB1
  8
AM_0
 10
230.9184413553638
 20
519.57192759800273
 30
0.0
 11
238.59294135536371
 21
519.30397759800235
 31
0.0
  0
LINE
  5
2EB2
  8
AM_0
 10
230.91838135536381
 20
531.03197759800253
 30
0.0
 11
243.41838135536381
 21
531.03197759800253
 31
0.0
  0
LINE
  5
2EB3
  8
ﾁｭｳｼﾝｾﾝ1
 10
224.91838135536381
 20
488.07198759800252
 30
0.0
 11
251.91838135536381
 21
488.07198759800252
 31
0.0
  0
LINE
  5
2EB4
  8
AM_0
 10
223.3831613553636
 20
504.39714759800262
 30
0.0
 11
243.59831135536359
 21
509.8137775980025
 31
0.0
  0
ARC
  5
2EB5
  8
AM_0
 10
224.41838135536381
 20
500.53343759800248
 30
0.0
 40
4.0
 50
105.00000000000161
 51
180.00001000000091
  0
LINE
  5
2EB6
  8
AM_0
 10
244.8828613553637
 20
507.60753759800252
 30
0.0
 11
257.53972135536372
 21
494.95070759800251
 31
0.0
  0
ARC
  5
2EB7
  8
AM_0
 10
255.41838135536381
 20
492.82933759800238
 30
0.0
 40
3.0
 50
0.0
 51
44.999998000001611
  0
ARC
  5
2EB8
  8
AM_0
 10
260.41838135536381
 20
485.85259759800272
 30
0.0
 40
2.0
 50
179.9999899999988
 51
268.00000999999861
  0
ARC
  5
2EB9
  8
AM_0
 10
238.41838135536369
 20
514.30702759800283
 30
0.0
 40
5.0
 50
0.0
 51
87.999999999999659
  0
ARC
  5
2EBA
  8
AM_0
 10
248.41838135536381
 20
511.14305759800271
 30
0.0
 40
5.0
 50
179.9999899999988
 51
225.0
  0
LINE
  5
2EBB
  8
AM_0
 10
230.91838135536381
 20
545.92198759800283
 30
0.0
 11
243.41838135536381
 21
545.92198759800283
 31
0.0
  0
POLYLINE
  5
2EBC
  8
AM_0
 66
     1
 10
0.0
 20
0.0
 30
0.0
  0
VERTEX
  5
2EBD
  8
AM_0
 10
268.41838135536381
 20
552.79555759800235
 30
0.0
 42
-0.070055462
  0
VERTEX
  5
2EBE
  8
AM_0
 10
294.77905135536372
 20
532.59821759800275
 30
0.0
 42
-0.27110597
  0
VERTEX
  5
2EBF
  8
AM_0
 10
303.41841135536362
 20
512.71486759800246
 30
0.0
 42
-0.2130317
  0
VERTEX
  5
2EC0
  8
AM_0
 10
283.82795135536361
 20
494.58005759800238
 30
0.0
  0
VERTEX
  5
2EC1
  8
AM_0
 10
268.41838135536381
 20
488.28179759800241
 30
0.0
 42
-1.0
  0
SEQEND
  5
2EC2
  8
AM_0
  0
POLYLINE
  5
2EC3
  8
AM_0
 66
     1
 10
0.0
 20
0.0
 30
0.0
  0
VERTEX
  5
2EC4
  8
AM_0
 10
268.41838135536381
 20
505.65520759800239
 30
0.0
 42
0.040442845
  0
VERTEX
  5
2EC5
  8
AM_0
 10
279.94657135536357
 20
505.87854759800251
 30
0.0
 42
0.04246989
  0
VERTEX
  5
2EC6
  8
AM_0
 10
291.28028135536368
 20
507.99202759800272
 30
0.0
 42
0.022672802
  0
VERTEX
  5
2EC7
  8
AM_0
 10
296.76478135536382
 20
509.78297759800239
 30
0.0
  0
VERTEX
  5
2EC8
  8
AM_0
 10
302.07039135536371
 20
512.05183759800275
 30
0.0
 42
-1.0
  0
SEQEND
  5
2EC9
  8
AM_0
  0
LINE
  5
2ECA
  8
AM_0
 10
268.41838135536381
 20
483.57198759800252
 30
0.0
 11
272.41838135536381
 21
483.57198759800252
 31
0.0
  0
CIRCLE
  5
2ECB
  8
AM_0
 10
363.4184413553636
 20
488.07198759800252
 30
0.0
 40
7.5
  0
LINE
  5
2ECC
  8
AM_0
 10
333.41841135536367
 20
478.41655759800273
 30
0.0
 11
333.41841135536367
 21
493.85839759800263
 31
0.0
  0
LINE
  5
2ECD
  8
AM_0
 10
381.41844135536371
 20
514.07198759800258
 30
0.0
 11
381.41844135536371
 21
475.6712575980024
 31
0.0
  0
LINE
  5
2ECE
  8
ﾁｭｳｼﾝｾﾝ1
 10
363.4184413553636
 20
501.57198759800241
 30
0.0
 11
363.4184413553636
 21
474.57198759800252
 31
0.0
  0
ARC
  5
2ECF
  8
AM_0
 10
377.41844135536371
 20
475.6712575980024
 30
0.0
 40
4.0
 50
272.0000000000004
 51
0.0
  0
ARC
  5
2ED0
  8
AM_0
 10
341.41841135536367
 20
478.41655759800273
 30
0.0
 40
8.0
 50
180.00001000000091
 51
271.99999000000139
  0
ARC
  5
2ED1
  8
AM_0
 10
377.41844135536371
 20
514.07198759800258
 30
0.0
 40
4.0
 50
0.0
 51
82.819247000000175
  0
LINE
  5
2ED2
  8
AM_0
 10
375.91838135536369
 20
550.8965975980027
 30
0.0
 11
379.91838135536369
 21
553.20598759800225
 31
0.0
  0
ARC
  5
2ED3
  8
AM_0
 10
345.41844135536371
 20
513.86522759800255
 30
0.0
 40
8.0
 50
271.49999999999932
 51
0.0
  0
ARC
  5
2ED4
  8
AM_0
 10
345.41841135536362
 20
493.85839759800263
 30
0.0
 40
12.0
 50
91.500001000001546
 51
180.00001000000091
  0
LINE
  5
2ED5
  8
AM_0
 10
345.62785135536387
 20
505.86800759800252
 30
0.0
 11
345.10426135536392
 21
505.85430759800249
 31
0.0
  0
LINE
  5
2ED6
  8
ﾁｭｳｼﾝｾﾝ1
 10
349.91844135536371
 20
488.07198759800252
 30
0.0
 11
376.91844135536371
 21
488.07198759800252
 31
0.0
  0
LINE
  5
2ED7
  8
AM_0
 10
370.52312135536363
 20
517.96999759800246
 30
0.0
 11
360.6612413553637
 21
517.71175759800258
 31
0.0
  0
ARC
  5
2ED8
  8
AM_0
 10
360.8706513553638
 20
509.71446759800273
 30
0.0
 40
8.0
 50
91.500001000001546
 51
164.96419999999981
  0
ARC
  5
2ED9
  8
AM_0
 10
370.41844135536371
 20
521.96861759800277
 30
0.0
 40
4.0
 50
271.49999999999932
 51
0.0
  0
ARC
  5
2EDA
  8
AM_0
 10
378.41844135536371
 20
522.00923759800276
 30
0.0
 40
4.0
 50
180.00001000000091
 51
262.8192499999995
  0
ARC
  5
2EDB
  8
AM_0
 10
377.41844135536371
 20
548.29851759800283
 30
0.0
 40
3.0
 50
120.0000000000005
 51
180.00001000000091
  0
ARC
  5
2EDC
  8
AM_0
 10
378.41841135536362
 20
555.8040675980028
 30
0.0
 40
3.0
 50
300.00001000000083
 51
0.0
  0
LINE
  5
2EDD
  8
AM_0
 10
385.41844135536371
 20
565.57201759800273
 30
0.0
 11
381.41841135536379
 21
565.57201759800273
 31
0.0
  0
LINE
  5
2EDE
  8
AM_0
 10
274.41844135536383
 20
698.07201759800273
 30
0.0
 11
377.55803135536382
 21
694.47026759800247
 31
0.0
  0
CIRCLE
  5
2EDF
  8
AM_0
 10
238.41838135536369
 20
678.07195759800265
 30
0.0
 40
7.5
  0
LINE
  5
2EE0
  8
ﾁｭｳｼﾝｾﾝ1
 10
238.41838135536369
 20
664.57195759800265
 30
0.0
 11
238.41838135536369
 21
691.57195759800265
 31
0.0
  0
LINE
  5
2EE1
  8
AM_0
 10
220.41838135536381
 20
665.61052759800282
 30
0.0
 11
220.41838135536381
 21
689.68224759800273
 31
0.0
  0
LINE
  5
2EE2
  8
AM_0
 10
268.41838135536381
 20
677.86217759800275
 30
0.0
 11
258.41838135536381
 21
677.86217759800275
 31
0.0
  0
LINE
  5
2EE3
  8
AM_0
 10
268.41838135536381
 20
660.48876759800282
 30
0.0
 11
258.41838135536381
 21
660.48876759800282
 31
0.0
  0
LINE
  5
2EE4
  8
AM_0
 10
268.41838135536381
 20
613.34844759800251
 30
0.0
 11
258.41838135536381
 21
613.34844759800251
 31
0.0
  0
LINE
  5
2EE5
  8
AM_0
 10
230.91838135536381
 20
620.22197759800281
 30
0.0
 11
243.41838135536381
 21
620.22197759800281
 31
0.0
  0
LINE
  5
2EE6
  8
AM_0
 10
230.9184413553638
 20
646.57195759800265
 30
0.0
 11
238.5928813553638
 21
646.83995759800246
 31
0.0
  0
LINE
  5
2EE7
  8
AM_0
 10
230.91838135536381
 20
635.11199759800274
 30
0.0
 11
243.41838135536381
 21
635.11199759800274
 31
0.0
  0
LINE
  5
2EE8
  8
AM_0
 10
223.3831613553636
 20
661.74681759800274
 30
0.0
 11
243.59831135536359
 21
656.33019759800266
 31
0.0
  0
LINE
  5
2EE9
  8
ﾁｭｳｼﾝｾﾝ1
 10
224.91838135536381
 20
678.07195759800265
 30
0.0
 11
251.91838135536381
 21
678.07195759800265
 31
0.0
  0
ARC
  5
2EEA
  8
AM_0
 10
224.41838135536381
 20
665.61052759800282
 30
0.0
 40
4.0
 50
180.00001000000091
 51
254.99999000000091
  0
ARC
  5
2EEB
  8
AM_0
 10
238.41838135536369
 20
651.83696759800273
 30
0.0
 40
5.0
 50
272.0000000000004
 51
0.0
  0
LINE
  5
2EEC
  8
AM_0
 10
244.8828613553637
 20
658.53642759800243
 30
0.0
 11
257.53972135536372
 21
671.1932975980028
 31
0.0
  0
ARC
  5
2EED
  8
AM_0
 10
248.41838135536381
 20
655.00090759800253
 30
0.0
 40
5.0
 50
135.0
 51
180.00001000000091
  0
ARC
  5
2EEE
  8
AM_0
 10
255.41838135536381
 20
673.31462759800274
 30
0.0
 40
3.0
 50
315.0
 51
0.0
  0
POLYLINE
  5
2EEF
  8
AM_0
 66
     1
 10
0.0
 20
0.0
 30
0.0
  0
VERTEX
  5
2EF0
  8
AM_0
 10
268.41838135536381
 20
613.34844759800251
 30
0.0
 42
0.070055443
  0
VERTEX
  5
2EF1
  8
AM_0
 10
294.77905135536372
 20
633.54578759800245
 30
0.0
 42
0.27110593
  0
VERTEX
  5
2EF2
  8
AM_0
 10
303.41841135536362
 20
653.42912759800265
 30
0.0
 42
0.21303199
  0
VERTEX
  5
2EF3
  8
AM_0
 10
283.82795135536361
 20
671.56391759800283
 30
0.0
  0
VERTEX
  5
2EF4
  8
AM_0
 10
268.41838135536381
 20
677.86217759800275
 30
0.0
 42
-1.0
  0
SEQEND
  5
2EF5
  8
AM_0
  0
POLYLINE
  5
2EF6
  8
AM_0
 66
     1
 10
0.0
 20
0.0
 30
0.0
  0
VERTEX
  5
2EF7
  8
AM_0
 10
268.41838135536381
 20
660.48876759800282
 30
0.0
 42
-0.040442832
  0
VERTEX
  5
2EF8
  8
AM_0
 10
279.94656135536371
 20
660.26541759800284
 30
0.0
 42
-0.042469875
  0
VERTEX
  5
2EF9
  8
AM_0
 10
291.28028135536368
 20
658.15193759800252
 30
0.0
 42
-0.022671837
  0
VERTEX
  5
2EFA
  8
AM_0
 10
296.76477135536362
 20
656.36099759800265
 30
0.0
  0
VERTEX
  5
2EFB
  8
AM_0
 10
302.07039135536371
 20
654.09216759800279
 30
0.0
 42
-1.0
  0
SEQEND
  5
2EFC
  8
AM_0
  0
LINE
  5
2EFD
  8
AM_0
 10
260.34862135536372
 20
682.29021759800276
 30
0.0
 11
268.41838135536381
 21
682.57201759800273
 31
0.0
  0
LINE
  5
2EFE
  8
AM_0
 10
259.67992135536372
 20
690.75963759800266
 30
0.0
 11
268.0698113553637
 21
691.49364759800244
 31
0.0
  0
LINE
  5
2EFF
  8
AM_0
 10
224.0698113553637
 20
693.66710759800276
 30
0.0
 11
274.41844135536383
 21
698.07201759800273
 31
0.0
  0
ARC
  5
2F00
  8
AM_0
 10
224.41838135536381
 20
689.68224759800273
 30
0.0
 40
4.0
 50
95.00000199999856
 51
180.00001000000091
  0
ARC
  5
2F01
  8
AM_0
 10
259.41838135536369
 20
693.74822759800281
 30
0.0
 40
3.0
 50
95.00000199999856
 51
274.99999999999972
  0
ARC
  5
2F02
  8
AM_0
 10
260.41838135536381
 20
680.29137759800267
 30
0.0
 40
2.0
 50
91.999998000000545
 51
180.00001000000091
  0
ARC
  5
2F03
  8
AM_0
 10
268.41838135536381
 20
687.50884759800283
 30
0.0
 40
4.0
 50
0.0
 51
95.00000199999856
  0
LINE
  5
2F04
  8
AM_0
 10
272.41838135536381
 20
682.57195759800265
 30
0.0
 11
272.41838135536381
 21
692.44048759800251
 31
0.0
  0
LINE
  5
2F05
  8
AM_0
 10
268.41838135536381
 20
682.57195759800265
 30
0.0
 11
272.41838135536381
 21
682.57195759800265
 31
0.0
  0
ARC
  5
2F06
  8
AM_0
 10
267.41838135536369
 20
692.44048759800251
 30
0.0
 40
5.0
 50
0.0
 51
95.00000199999856
  0
CIRCLE
  5
2F07
  8
AM_0
 10
363.4184413553636
 20
678.07195759800265
 30
0.0
 40
7.5
  0
LINE
  5
2F08
  8
AM_0
 10
333.41841135536367
 20
672.28557759800265
 30
0.0
 11
333.41841135536367
 21
687.72740759800251
 31
0.0
  0
LINE
  5
2F09
  8
ﾁｭｳｼﾝｾﾝ1
 10
363.4184413553636
 20
664.57195759800265
 30
0.0
 11
363.4184413553636
 21
691.57195759800265
 31
0.0
  0
LINE
  5
2F0A
  8
AM_0
 10
381.41844135536371
 20
652.07195759800265
 30
0.0
 11
381.41844135536371
 21
690.47270759800233
 31
0.0
  0
ARC
  5
2F0B
  8
AM_0
 10
377.41844135536371
 20
652.07195759800265
 30
0.0
 40
4.0
 50
277.18075000000027
 51
0.0
  0
LINE
  5
2F0C
  8
AM_0
 10
375.91841135536367
 20
615.24742759800267
 30
0.0
 11
379.91838135536369
 21
612.93804759800253
 31
0.0
  0
ARC
  5
2F0D
  8
AM_0
 10
377.41844135536371
 20
617.84551759800274
 30
0.0
 40
3.0
 50
179.9999899999988
 51
240.00000999999969
  0
ARC
  5
2F0E
  8
AM_0
 10
345.41844135536371
 20
652.27873759800252
 30
0.0
 40
8.0
 50
0.0
 51
88.499997000000747
  0
ARC
  5
2F0F
  8
AM_0
 10
345.41841135536362
 20
672.28557759800265
 30
0.0
 40
12.0
 50
180.00001000000091
 51
268.5000000000004
  0
LINE
  5
2F10
  8
AM_0
 10
345.62782135536378
 20
660.27599759800273
 30
0.0
 11
345.10429135536378
 21
660.28966759800244
 31
0.0
  0
LINE
  5
2F11
  8
AM_0
 10
370.52312135536363
 20
648.1740075980025
 30
0.0
 11
360.6612413553637
 21
648.43224759800273
 31
0.0
  0
ARC
  5
2F12
  8
AM_0
 10
360.8706513553638
 20
656.42949759800251
 30
0.0
 40
8.0
 50
195.03580000000011
 51
268.5000000000004
  0
ARC
  5
2F13
  8
AM_0
 10
370.41844135536371
 20
644.17534759800265
 30
0.0
 40
4.0
 50
0.0
 51
88.499997000000747
  0
ARC
  5
2F14
  8
AM_0
 10
378.41844135536371
 20
644.13469759800273
 30
0.0
 40
4.0
 50
97.180758000000424
 51
180.00001000000091
  0
LINE
  5
2F15
  8
ﾁｭｳｼﾝｾﾝ1
 10
349.91844135536371
 20
678.07195759800265
 30
0.0
 11
376.91844135536371
 21
678.07195759800265
 31
0.0
  0
LINE
  5
2F16
  8
AM_0
 10
381.41841135536379
 20
583.07195759800265
 30
0.0
 11
381.41841135536379
 21
610.33995759800246
 31
0.0
  0
LINE
  5
2F17
  8
AM_0
 10
385.41844135536371
 20
600.57201759800273
 30
0.0
 11
381.41841135536379
 21
600.57201759800273
 31
0.0
  0
ARC
  5
2F18
  8
AM_0
 10
378.41841135536362
 20
610.33995759800246
 30
0.0
 40
3.0
 50
0.0
 51
60.000002000001302
  0
ARC
  5
2F19
  8
AM_0
 10
377.41844135536371
 20
690.47270759800233
 30
0.0
 40
4.0
 50
0.0
 51
87.999999999999659
  0
ARC
  5
2F1A
  8
AM_0
 10
341.41841135536367
 20
687.72740759800251
 30
0.0
 40
8.0
 50
87.999999999999659
 51
180.00001000000091
  0
LINE
  5
2F1B
  8
AM_0
 10
443.4184113553635
 20
567.07201759800273
 30
0.0
 11
443.4184113553635
 21
599.07195759800265
 31
0.0
  0
LINE
  5
2F1C
  8
ﾁｭｳｼﾝｾﾝ
 10
249.5651494073648
 20
291.3876302132806
 30
0.0
 11
446.19761135536362
 21
291.3876302132806
 31
0.0
  0
LINE
  5
2F1D
  8
AM_0
 10
443.4184113553635
 20
275.38766121328041
 30
0.0
 11
385.41845135536369
 21
275.38766121328041
 31
0.0
  0
LINE
  5
2F1E
  8
AM_0
 10
443.4184113553635
 20
307.38761721328058
 30
0.0
 11
385.41845135536369
 21
307.38761721328058
 31
0.0
  0
LINE
  5
2F1F
  8
AM_0
 10
374.41841135536362
 20
176.92704021328061
 30
0.0
 11
374.41841135536362
 21
335.38766721328062
 31
0.0
  0
LINE
  5
2F20
  8
AM_0
 10
353.41841135536362
 20
191.84537721328061
 30
0.0
 11
353.41841135536362
 21
352.86857721328062
 31
0.0
  0
ARC
  5
2F21
  8
AM_0
 10
377.41841135536362
 20
256.61413221328053
 30
0.0
 40
3.0
 50
120.0000000000005
 51
180.00001000000091
  0
LINE
  5
2F22
  8
0
  6
CONTINUOUS
 62
     7
 10
219.91848135536381
 20
325.3876612132803
 30
0.0
 11
219.91848135536381
 21
201.3876612132805
 31
0.0
  0
LINE
  5
2F23
  8
0
 10
186.91848743503741
 20
343.38766121328041
 30
0.0
 11
186.91848743503741
 21
183.38766121328041
 31
0.0
  0
LINE
  5
2F24
  8
0
 10
196.91848743503741
 20
341.38766121328041
 30
0.0
 11
196.91848743503741
 21
185.38766121328041
 31
0.0
  0
LINE
  5
2F25
  8
AM_0
 10
268.41848135536361
 20
206.88764421328051
 30
0.0
 11
268.41848135536361
 21
362.88767721328071
 31
0.0
  0
LINE
  5
2F26
  8
AM_0
 10
333.41843135536362
 20
184.38764421328051
 30
0.0
 11
333.41843135536362
 21
322.8303872132804
 31
0.0
  0
LINE
  5
2F27
  8
AM_0
 10
272.4184113553635
 20
220.0120502132805
 30
0.0
 11
272.4184113553635
 21
278.03539521328048
 31
0.0
  0
LINE
  5
2F28
  8
AM_0
 10
258.41843135536351
 20
175.63765821328039
 30
0.0
 11
258.41843135536351
 21
360.60704721328062
 31
0.0
  0
LINE
  5
2F29
  8
AM_0
 10
230.9184813553637
 20
326.88761721328041
 30
0.0
 11
230.9184813553637
 21
199.8875972132806
 31
0.0
  0
LINE
  5
2F2A
  8
AM_0
 10
243.41843135536359
 20
191.4587192132804
 30
0.0
 11
243.41843135536359
 21
335.31659721328049
 31
0.0
  0
LINE
  5
2F2B
  8
AM_0
 10
244.88291135536369
 20
187.92319521328051
 30
0.0
 11
257.53976135536368
 21
175.26632121328061
 31
0.0
  0
LINE
  5
2F2C
  8
AM_0
 10
220.4184813553637
 20
151.3876412132804
 30
0.0
 11
256.41848135536361
 21
151.3876412132804
 31
0.0
  0
ARC
  5
2F2D
  8
AM_0
 10
253.49861135536381
 20
173.38765821328039
 30
0.0
 40
4.000000199999997
 50
270.0
 51
342.25533000000132
  0
LINE
  5
2F2E
  8
ﾁｭｳｼﾝｾﾝ1
 10
238.4184813553637
 20
148.94720253473309
 30
0.0
 11
238.4184813553637
 21
171.7062440949272
 31
0.0
  0
ARC
  5
2F2F
  8
AM_0
 10
222.41843135536351
 20
167.38765821328039
 30
0.0
 40
2.00000007
 50
90.000003000000945
 51
180.00001000000091
  0
LINE
  5
2F30
  8
AM_0
 10
220.4184813553637
 20
151.3876412132804
 30
0.0
 11
220.4184813553637
 21
167.38765821328039
 31
0.0
  0
LINE
  5
2F31
  8
AM_0
 10
222.41843135536351
 20
169.3876412132804
 30
0.0
 11
253.49861135536381
 21
169.3876412132804
 31
0.0
  0
LINE
  5
2F32
  8
ｶｸﾚｾﾝ2
 10
230.9184813553637
 20
169.3876412132804
 30
0.0
 11
230.9184813553637
 21
151.3876412132804
 31
0.0
  0
LINE
  5
2F33
  8
ｶｸﾚｾﾝ2
 10
245.91848135536361
 20
169.3876412132804
 30
0.0
 11
245.91848135536361
 21
151.3876412132804
 31
0.0
  0
LINE
  5
2F34
  8
0
 10
186.91848743503741
 20
183.38766121328041
 30
0.0
 11
194.91848743503741
 21
183.38766121328041
 31
0.0
  0
LINE
  5
2F35
  8
AM_0
 10
230.9184813553637
 20
211.88764521328039
 30
0.0
 11
219.91848135536381
 21
211.88764521328039
 31
0.0
  0
ARC
  5
2F36
  8
0
 10
221.91848135536381
 20
201.3876612132805
 30
0.0
 40
2.0
 50
180.0
 51
270.0
1001
GENIUS_GENODEF_13
1002
{
1000
HIER
1070
     0
1002
}
1002
{
1000
MANEDIT
1070
     0
1002
}
1002
{
1000
NOSEL
1070
     0
1002
}
1002
{
1000
BEHIND
1070
     0
1002
}
1002
{
1000
OTHER
1070
     0
1002
}
1002
{
1000
REACTOR
1002
}
1001
GENIUS_GENOBJ-N-FIL_13
1002
{
1000
OWNER
1000
GEN
1002
}
  0
ARC
  5
2F37
  8
0
 10
194.91848743503741
 20
185.38766121328041
 30
0.0
 40
2.0
 50
270.0
 51
0.0
1001
GENIUS_GENODEF_13
1002
{
1000
HIER
1070
     0
1002
}
1002
{
1000
MANEDIT
1070
     0
1002
}
1002
{
1000
NOSEL
1070
     0
1002
}
1002
{
1000
BEHIND
1070
     0
1002
}
1002
{
1000
OTHER
1070
     0
1002
}
1002
{
1000
REACTOR
1002
}
1001
GENIUS_GENOBJ-N-FIL_13
1002
{
1000
OWNER
1000
GEN
1002
}
  0
LINE
  5
2F38
  8
0
 10
217.91848135536381
 20
205.38766121328061
 30
0.0
 11
201.91848743503741
 21
205.38766121328061
 31
0.0
  0
ARC
  5
2F39
  8
0
 10
201.91848743503741
 20
200.38766121328041
 30
0.0
 40
5.0
 50
90.0
 51
180.0
1001
GENIUS_GENOBJ-N-FIL_13
1002
{
1000
OWNER
1000
GEN
1002
}
1001
GENIUS_GENODEF_13
1002
{
1000
HIER
1070
     0
1002
}
1002
{
1000
MANEDIT
1070
     0
1002
}
1002
{
1000
NOSEL
1070
     0
1002
}
1002
{
1000
BEHIND
1070
     0
1002
}
1002
{
1000
OTHER
1070
     0
1002
}
1002
{
1000
REACTOR
1002
}
  0
ARC
  5
2F3A
  8
0
 10
217.91848135536381
 20
203.38766121328061
 30
0.0
 40
2.0
 50
0.0
 51
90.0
1001
GENIUS_GENODEF_13
1002
{
1000
HIER
1070
     0
1002
}
1002
{
1000
MANEDIT
1070
     0
1002
}
1002
{
1000
NOSEL
1070
     0
1002
}
1002
{
1000
BEHIND
1070
     0
1002
}
1002
{
1000
OTHER
1070
     0
1002
}
1002
{
1000
REACTOR
1002
}
1001
GENIUS_GENOBJ-N-FIL_13
1002
{
1000
OWNER
1000
GEN
1002
}
  0
ARC
  5
2F3B
  8
AM_0
 10
248.4184113553637
 20
191.4587192132804
 30
0.0
 40
5.0000001000000003
 50
179.9999899999988
 51
225.0
  0
LINE
  5
2F3C
  8
AM_0
 10
230.91842135536371
 20
199.88762721328061
 30
0.0
 11
238.5929313553637
 21
199.61963721328061
 31
0.0
  0
LINE
  5
2F3D
  8
AM_0
 10
230.9184813553637
 20
211.88764521328051
 30
0.0
 11
243.41843135536359
 21
211.88764521328051
 31
0.0
  0
LINE
  5
2F3E
  8
0
 10
230.9184813553637
 20
199.3876612132805
 30
0.0
 11
221.91848135536381
 21
199.3876612132805
 31
0.0
  0
ARC
  5
2F3F
  8
AM_0
 10
238.4184813553637
 20
194.62269021328041
 30
0.0
 40
5.0000001000000003
 50
0.0
 51
87.999999999999659
  0
LINE
  5
2F40
  8
AM_0
 10
230.9184813553637
 20
226.23972621328039
 30
0.0
 11
219.91848135536381
 21
226.23972621328039
 31
0.0
  0
LINE
  5
2F41
  8
AM_0
 10
230.9184813553637
 20
226.23972621328051
 30
0.0
 11
243.41843135536359
 21
226.23972621328051
 31
0.0
  0
ARC
  5
2F42
  8
AM_0
 10
382.41845135536357
 20
176.92704021328061
 30
0.0
 40
8.0000000999999976
 50
179.9999899999988
 51
252.54238999999831
  0
LINE
  5
2F43
  8
ﾁｭｳｼﾝｾﾝ1
 10
363.41843135536362
 20
148.94720253473309
 30
0.0
 11
363.41843135536362
 21
171.7062440949272
 31
0.0
  0
ARC
  5
2F44
  8
AM_0
 10
348.41843135536362
 20
184.38764421328051
 30
0.0
 40
15.00000029999998
 50
179.9999899999988
 51
270.0
  0
LINE
  5
2F45
  8
AM_0
 10
258.41843135536351
 20
153.3876422132804
 30
0.0
 11
343.41845135536357
 21
153.3876422132804
 31
0.0
  0
ARC
  5
2F46
  8
AM_0
 10
258.41843135536351
 20
151.3876412132804
 30
0.0
 40
2.00000007
 50
90.000003000000945
 51
180.00001000000091
  0
LINE
  5
2F47
  8
AM_0
 10
348.41843135536362
 20
169.3876412132804
 30
0.0
 11
379.41845135536357
 21
169.3876412132804
 31
0.0
  0
LINE
  5
2F48
  8
AM_0
 10
345.41843135536362
 20
151.3876412132804
 30
0.0
 11
381.41843135536362
 21
151.3876412132804
 31
0.0
  0
ARC
  5
2F49
  8
AM_0
 10
343.41845135536357
 20
151.3876412132804
 30
0.0
 40
2.00000007
 50
0.0
 51
90.000003000000945
  0
LINE
  5
2F4A
  8
AM_0
 10
345.41843135536362
 20
151.3876412132804
 30
0.0
 11
345.41843135536362
 21
151.3876412132804
 31
0.0
  0
LINE
  5
2F4B
  8
ｶｸﾚｾﾝ2
 10
355.91843135536362
 20
169.3876412132804
 30
0.0
 11
355.91843135536362
 21
151.3876412132804
 31
0.0
  0
LINE
  5
2F4C
  8
ｶｸﾚｾﾝ2
 10
370.91843135536362
 20
169.3876412132804
 30
0.0
 11
370.91843135536362
 21
151.3876412132804
 31
0.0
  0
LINE
  5
2F4D
  8
AM_0
 10
381.41843135536362
 20
151.3876412132804
 30
0.0
 11
381.41843135536362
 21
167.38765821328039
 31
0.0
  0
ARC
  5
2F4E
  8
AM_0
 10
379.41845135536357
 20
167.38765821328039
 30
0.0
 40
2.00000007
 50
0.0
 51
90.000003000000945
  0
LINE
  5
2F4F
  8
AM_0
 10
257.3083113553638
 20
172.1685272132805
 30
0.0
 11
272.22812135536373
 21
218.7929342132806
 31
0.0
  0
ARC
  5
2F50
  8
AM_0
 10
255.41843135536371
 20
173.14501221328041
 30
0.0
 40
3.0
 50
27.893113000001151
 51
45.000000999999187
  0
LINE
  5
2F51
  8
AM_0
 10
258.41843135536351
 20
182.96985621328039
 30
0.0
 11
260.76473135536372
 21
182.96985621328039
 31
0.0
  0
LINE
  5
2F52
  8
AM_0
 10
258.41843135536351
 20
200.32262721328061
 30
0.0
 11
266.31764135536372
 21
200.32262721328061
 31
0.0
  0
ARC
  5
2F53
  8
AM_0
 10
268.41848135536361
 20
220.0120502132805
 30
0.0
 40
4.000000199999997
 50
342.25533000000132
 51
0.0
  0
ARC
  5
2F54
  8
AM_0
 10
345.41843135536362
 20
191.84537721328061
 30
0.0
 40
8.0000000999999976
 50
270.0
 51
0.0
  0
LINE
  5
2F55
  8
AM_0
 10
338.49341135536372
 20
183.8453762132805
 30
0.0
 11
345.41843135536362
 21
183.8453762132805
 31
0.0
  0
LINE
  5
2F56
  8
AM_0
 10
244.88291135536369
 20
338.85209721328062
 30
0.0
 11
257.53976135536368
 21
351.50897721328062
 31
0.0
  0
LINE
  5
2F57
  8
ﾁｭｳｼﾝｾﾝ
 10
173.1987675889149
 20
263.38766121328052
 30
0.0
 11
264.47606712643687
 21
263.38766121328041
 31
0.0
  0
LINE
  5
2F58
  8
0
 10
186.91848743503741
 20
343.38766121328041
 30
0.0
 11
194.91848743503741
 21
343.38766121328041
 31
0.0
  0
LINE
  5
2F59
  8
AM_0
 10
230.9184813553637
 20
300.5355812132803
 30
0.0
 11
219.91848135536381
 21
300.5355812132803
 31
0.0
  0
LINE
  5
2F5A
  8
AM_0
 10
230.9184813553637
 20
300.53558721328062
 30
0.0
 11
243.41843135536359
 21
300.53558721328062
 31
0.0
  0
LINE
  5
2F5B
  8
AM_0
 10
230.9184813553637
 20
314.88767121328061
 30
0.0
 11
219.91848135536381
 21
314.88767121328061
 31
0.0
  0
ARC
  5
2F5C
  8
0
 10
221.91848135536381
 20
325.3876612132803
 30
0.0
 40
2.0
 50
90.0
 51
180.0
1001
GENIUS_GENODEF_13
1002
{
1000
HIER
1070
     0
1002
}
1002
{
1000
MANEDIT
1070
     0
1002
}
1002
{
1000
NOSEL
1070
     0
1002
}
1002
{
1000
BEHIND
1070
     0
1002
}
1002
{
1000
OTHER
1070
     0
1002
}
1002
{
1000
REACTOR
1002
}
1001
GENIUS_GENOBJ-N-FIL_13
1002
{
1000
OWNER
1000
GEN
1002
}
  0
ARC
  5
2F5D
  8
0
 10
201.91848743503741
 20
326.38766121328041
 30
0.0
 40
5.0
 50
180.0
 51
270.0
1001
GENIUS_GENOBJ-N-FIL_13
1002
{
1000
OWNER
1000
GEN
1002
}
1001
GENIUS_GENODEF_13
1002
{
1000
HIER
1070
     0
1002
}
1002
{
1000
MANEDIT
1070
     0
1002
}
1002
{
1000
NOSEL
1070
     0
1002
}
1002
{
1000
BEHIND
1070
     0
1002
}
1002
{
1000
OTHER
1070
     0
1002
}
1002
{
1000
REACTOR
1002
}
  0
ARC
  5
2F5E
  8
0
 10
217.91848135536381
 20
323.3876612132803
 30
0.0
 40
2.0
 50
270.0
 51
0.0
1001
GENIUS_GENODEF_13
1002
{
1000
HIER
1070
     0
1002
}
1002
{
1000
MANEDIT
1070
     0
1002
}
1002
{
1000
NOSEL
1070
     0
1002
}
1002
{
1000
BEHIND
1070
     0
1002
}
1002
{
1000
OTHER
1070
     0
1002
}
1002
{
1000
REACTOR
1002
}
1001
GENIUS_GENOBJ-N-FIL_13
1002
{
1000
OWNER
1000
GEN
1002
}
  0
LINE
  5
2F5F
  8
0
 10
217.91848135536381
 20
321.3876612132803
 30
0.0
 11
201.91848743503741
 21
321.3876612132803
 31
0.0
  0
ARC
  5
2F60
  8
0
 10
194.91848743503741
 20
341.38766121328041
 30
0.0
 40
2.0
 50
0.0
 51
90.0
1001
GENIUS_GENODEF_13
1002
{
1000
HIER
1070
     0
1002
}
1002
{
1000
MANEDIT
1070
     0
1002
}
1002
{
1000
NOSEL
1070
     0
1002
}
1002
{
1000
BEHIND
1070
     0
1002
}
1002
{
1000
OTHER
1070
     0
1002
}
1002
{
1000
REACTOR
1002
}
1001
GENIUS_GENOBJ-N-FIL_13
1002
{
1000
OWNER
1000
GEN
1002
}
  0
LINE
  5
2F61
  8
AM_0
 10
230.9184813553637
 20
314.88761721328041
 30
0.0
 11
243.41843135536359
 21
314.88761721328041
 31
0.0
  0
LINE
  5
2F62
  8
AM_0
 10
230.9183613553634
 20
326.88761721328041
 30
0.0
 11
238.59287135536391
 21
327.15563721328039
 31
0.0
  0
LINE
  5
2F63
  8
0
 10
230.9184813553637
 20
327.38766121328041
 30
0.0
 11
221.91848135536381
 21
327.38766121328041
 31
0.0
  0
ARC
  5
2F64
  8
AM_0
 10
238.4184813553637
 20
332.15261721328062
 30
0.0
 40
5.0000001000000003
 50
272.0000000000004
 51
0.0
  0
ARC
  5
2F65
  8
AM_0
 10
248.4184113553637
 20
335.31659721328049
 30
0.0
 40
5.0000001000000003
 50
135.0
 51
180.00001000000091
  0
ARC
  5
2F66
  8
AM_0
 10
361.41845135536357
 20
347.38766721328062
 30
0.0
 40
8.0000000999999976
 50
179.9999899999988
 51
270.0
  0
POLYLINE
  5
2F67
  8
AM_0
 66
     1
 10
0.0
 20
0.0
 30
0.0
  0
VERTEX
  5
2F68
  8
AM_0
  6
CONTINUOUS
 10
296.1876213553636
 20
318.85997721328062
 30
0.0
 42
0.038759451
  0
VERTEX
  5
2F69
  8
AM_0
  6
CONTINUOUS
 10
298.93544135536371
 20
321.77081721328062
 30
0.0
 42
0.045306413
  0
VERTEX
  5
2F6A
  8
AM_0
  6
CONTINUOUS
 10
301.15763135536361
 20
325.09853721328051
 30
0.0
 42
0.052171431
  0
VERTEX
  5
2F6B
  8
AM_0
  6
CONTINUOUS
 10
302.6943213553638
 20
328.79633721328042
 30
0.0
 42
0.057266618
  0
VERTEX
  5
2F6C
  8
AM_0
  6
CONTINUOUS
 10
303.38858135536373
 20
332.73509721328071
 30
0.0
 42
0.058402263
  0
VERTEX
  5
2F6D
  8
AM_0
  6
CONTINUOUS
 10
303.15782135536369
 20
336.72329721328072
 30
0.0
 42
0.055045302
  0
VERTEX
  5
2F6E
  8
AM_0
  6
CONTINUOUS
 10
302.03231135536367
 20
340.55846721328072
 30
0.0
 42
0.048778173
  0
VERTEX
  5
2F6F
  8
AM_0
  6
CONTINUOUS
 10
300.13946135536372
 20
344.07896721328041
 30
0.0
 42
0.041944207
  0
VERTEX
  5
2F70
  8
AM_0
  6
CONTINUOUS
 10
297.64193135536362
 20
347.20199721328072
 30
0.0
 42
0.035908261
  0
VERTEX
  5
2F71
  8
AM_0
  6
CONTINUOUS
 10
294.68936135536381
 20
349.90280721328048
 30
0.0
 42
0.031063208
  0
VERTEX
  5
2F72
  8
AM_0
  6
CONTINUOUS
 10
291.4026813553636
 20
352.18673721328042
 30
0.0
 42
0.027381869
  0
VERTEX
  5
2F73
  8
AM_0
  6
CONTINUOUS
 10
287.87075135536361
 20
354.07385721328052
 30
0.0
 42
0.024647405
  0
VERTEX
  5
2F74
  8
AM_0
  6
CONTINUOUS
 10
284.16176135536392
 20
355.58498721328039
 30
0.0
 42
0.022677562
  0
VERTEX
  5
2F75
  8
AM_0
  6
CONTINUOUS
 10
280.32635135536373
 20
356.73965721328062
 30
0.0
 42
0.021321502
  0
VERTEX
  5
2F76
  8
AM_0
  6
CONTINUOUS
 10
276.4039413553636
 20
357.55349721328048
 30
0.0
 42
0.020471074
  0
VERTEX
  5
2F77
  8
AM_0
  6
CONTINUOUS
 10
272.42705135536369
 20
358.03754721328062
 30
0.0
 42
0.020088488
  0
VERTEX
  5
2F78
  8
AM_0
  6
CONTINUOUS
 10
268.41845135536352
 20
358.19846721328048
 30
0.0
  0
SEQEND
  5
2F79
  8
AM_0
  0
LINE
  5
2F7A
  8
AM_0
 10
268.41842135536371
 20
293.5729352132804
 30
0.0
 11
296.1871113553637
 21
318.8594372132805
 31
0.0
  0
LINE
  5
2F7B
  8
AM_0
 10
268.41848135536361
 20
278.03539521328048
 30
0.0
 11
272.4184113553635
 21
278.03539521328048
 31
0.0
  0
LINE
  5
2F7C
  8
AM_0
 10
268.41848135536361
 20
293.57298984999989
 30
0.0
 11
258.41843135536351
 21
293.65518551810368
 31
0.0
  0
LINE
  5
2F7D
  8
AM_0
 10
268.41842135536371
 20
293.57296521328072
 30
0.0
 11
268.42001135536373
 21
293.57296521328072
 31
0.0
  0
POLYLINE
  5
2F7E
  8
AM_0
 66
     1
 10
0.0
 20
0.0
 30
0.0
  0
VERTEX
  5
2F7F
  8
AM_0
  6
CONTINUOUS
 10
301.87511135536391
 20
336.0290372132805
 30
0.0
 42
0.046334034
  0
VERTEX
  5
2F80
  8
AM_0
  6
CONTINUOUS
 10
300.02327135536359
 20
337.08668721328041
 30
0.0
 42
0.024113349
  0
VERTEX
  5
2F81
  8
AM_0
  6
CONTINUOUS
 10
298.04381135536369
 20
337.88654721328049
 30
0.0
 42
0.015482213
  0
VERTEX
  5
2F82
  8
AM_0
  6
CONTINUOUS
 10
296.00687135536361
 20
338.53121721328063
 30
0.0
 42
0.011170747
  0
VERTEX
  5
2F83
  8
AM_0
  6
CONTINUOUS
 10
293.93912135536368
 20
339.06770721328058
 30
0.0
 42
0.0086851837
  0
VERTEX
  5
2F84
  8
AM_0
  6
CONTINUOUS
 10
291.85157135536372
 20
339.52238721328058
 30
0.0
 42
0.0071112966
  0
VERTEX
  5
2F85
  8
AM_0
  6
CONTINUOUS
 10
289.74986135536381
 20
339.91139721328062
 30
0.0
 42
0.0060487861
  0
VERTEX
  5
2F86
  8
AM_0
  6
CONTINUOUS
 10
287.63717135536371
 20
340.2454172132804
 30
0.0
 42
0.0052886795
  0
VERTEX
  5
2F87
  8
AM_0
  6
CONTINUOUS
 10
285.51980135536371
 20
340.53125721328053
 30
0.0
 42
0.004745088
  0
VERTEX
  5
2F88
  8
AM_0
  6
CONTINUOUS
 10
283.39469135536348
 20
340.77491721328062
 30
0.0
 42
0.0043374779
  0
VERTEX
  5
2F89
  8
AM_0
  6
CONTINUOUS
 10
281.26499135536352
 20
340.98005721328047
 30
0.0
 42
0.0040309373
  0
VERTEX
  5
2F8A
  8
AM_0
  6
CONTINUOUS
 10
279.13220135536392
 20
341.14955721328062
 30
0.0
 42
0.0038017218
  0
VERTEX
  5
2F8B
  8
AM_0
  6
CONTINUOUS
 10
276.99698135536369
 20
341.28569721328063
 30
0.0
 42
0.0036333144
  0
VERTEX
  5
2F8C
  8
AM_0
  6
CONTINUOUS
 10
274.85990135536389
 20
341.39006721328042
 30
0.0
 42
0.0035147919
  0
VERTEX
  5
2F8D
  8
AM_0
  6
CONTINUOUS
 10
272.72150135536373
 20
341.46392721328061
 30
0.0
 42
0.003439074
  0
VERTEX
  5
2F8E
  8
AM_0
  6
CONTINUOUS
 10
270.58229135536368
 20
341.50805721328072
 30
0.0
 42
0.0034021156
  0
VERTEX
  5
2F8F
  8
AM_0
  6
CONTINUOUS
 10
268.44260135536382
 20
341.52293721328061
 30
0.0
  0
SEQEND
  5
2F90
  8
AM_0
  0
LINE
  5
2F91
  8
AM_0
 10
258.41843135536351
 20
341.52293721328061
 30
0.0
 11
268.41848135536361
 21
341.52293721328061
 31
0.0
  0
LINE
  5
2F92
  8
AM_0
 10
385.41845135536369
 20
273.88766121328041
 30
0.0
 11
385.41845135536369
 21
308.88761721328029
 31
0.0
  0
LINE
  5
2F93
  8
AM_0
 10
381.41843135536362
 20
291.3876302132806
 30
0.0
 11
381.41843135536362
 21
318.65558721328051
 31
0.0
  0
LINE
  5
2F94
  8
AM_0
 10
381.41843135536362
 20
264.11971521328047
 30
0.0
 11
381.41843135536362
 21
291.3876302132806
 31
0.0
  0
LINE
  5
2F95
  8
AM_0
 10
375.91838135536341
 20
259.21224621328048
 30
0.0
 11
379.9184013553637
 21
261.52166421328042
 31
0.0
  0
ARC
  5
2F96
  8
AM_0
 10
378.41843135536368
 20
264.11971521328047
 30
0.0
 40
3.0
 50
300.00000000000051
 51
0.0
  0
LINE
  5
2F97
  8
AM_0
 10
385.41845135536369
 20
273.88766121328041
 30
0.0
 11
381.41843135536362
 21
273.88766121328041
 31
0.0
  0
ARC
  5
2F98
  8
AM_0
 10
341.41841135536362
 20
322.8303872132804
 30
0.0
 40
8.0000000999999976
 50
90.000003000000945
 51
180.00001000000091
  0
LINE
  5
2F99
  8
AM_0
 10
341.41841135536362
 20
330.83033721328047
 30
0.0
 11
349.81793135536361
 21
330.83033721328047
 31
0.0
  0
LINE
  5
2F9A
  8
AM_0
 10
375.91844135536383
 20
323.56307721328051
 30
0.0
 11
379.91846135536377
 21
321.2536772132803
 31
0.0
  0
LINE
  5
2F9B
  8
AM_0
 10
385.41845135536369
 20
308.88761721328029
 30
0.0
 11
381.41843135536362
 21
308.88761721328029
 31
0.0
  0
ARC
  5
2F9C
  8
AM_0
 10
378.41843135536368
 20
318.65558721328051
 30
0.0
 40
3.0
 50
0.0
 51
60.000002000001302
  0
ARC
  5
2F9D
  8
AM_0
 10
370.41845135536357
 20
335.38766721328062
 30
0.0
 40
4.000000199999997
 50
0.0
 51
90.000003000000945
  0
LINE
  5
2F9E
  8
AM_0
 10
361.41845135536357
 20
339.38765721328059
 30
0.0
 11
370.41845135536357
 21
339.38765721328059
 31
0.0
  0
ARC
  5
2F9F
  8
AM_0
 10
377.41841135536362
 20
326.16116721328052
 30
0.0
 40
3.0
 50
179.9999899999988
 51
240.00000999999969
  0
LINE
  5
2FA0
  8
AM_0
 10
268.41842135536371
 20
362.88767721328071
 30
0.0
 11
345.62783135536392
 21
360.86588721328059
 31
0.0
  0
ARC
  5
2FA1
  8
AM_0
 10
255.41843135536371
 20
353.63030721328062
 30
0.0
 40
3.0
 50
315.0
 51
0.0
  0
LINE
  5
2FA2
  8
AM_0
 10
260.34860135536371
 20
362.60585721328061
 30
0.0
 11
268.41836135536352
 21
362.88767721328071
 31
0.0
  0
LINE
  5
2FA3
  8
AM_0
 10
268.41845135536352
 20
358.19846721328048
 30
0.0
 11
258.41843135536351
 21
358.19846721328048
 31
0.0
  0
ARC
  5
2FA4
  8
AM_0
 10
260.4184113553635
 20
360.60704721328062
 30
0.0
 40
2.00000007
 50
91.999998000000545
 51
180.00001000000091
  0
ARC
  5
2FA5
  8
AM_0
 10
345.41843135536362
 20
352.86857721328062
 30
0.0
 40
8.0000000999999976
 50
0.0
 51
88.499997000000747
  0
LINE
  5
2FA6
  8
ﾁｭｳｼﾝｾﾝ
 10
633.85896917310811
 20
147.6310352132806
 30
0.0
 11
633.85896917310811
 21
366.41799697240509
 31
0.0
  0
LINE
  5
2FA7
  8
AM_0
 10
568.85898317310784
 20
274.3876292132806
 30
0.0
 11
568.85898317310784
 21
184.38764421328051
 31
0.0
  0
LINE
  5
2FA8
  8
AM_0
 10
698.85898817310795
 20
274.3876292132806
 30
0.0
 11
698.85898817310795
 21
184.38764421328051
 31
0.0
  0
LINE
  5
2FA9
  8
AM_0
 10
710.85898817310795
 20
323.48132721328062
 30
0.0
 11
710.85898817310795
 21
225.12490221328051
 31
0.0
  0
LINE
  5
2FAA
  8
AM_0
 10
556.85898317310784
 20
323.48132721328062
 30
0.0
 11
556.85898317310784
 21
225.12490221328051
 31
0.0
  0
LINE
  5
2FAB
  8
AM_0
 10
748.82629817310806
 20
166.8292622132806
 30
0.0
 11
732.27489617310812
 21
278.03542821328062
 31
0.0
  0
LINE
  5
2FAC
  8
AM_0
 10
518.89166417310821
 20
166.82927721328051
 30
0.0
 11
535.44305417310807
 21
278.03542821328062
 31
0.0
  0
ARC
  5
2FAD
  8
AM_0
 10
633.85896917310811
 20
274.3876292132806
 30
0.0
 40
65.000000999999997
 50
0.0
 51
180.00001000000091
  0
LINE
  5
2FAE
  8
AM_0
 10
570.85898417310818
 20
153.3876422132806
 30
0.0
 11
696.85897217310799
 21
153.3876422132806
 31
0.0
  0
LINE
  5
2FAF
  8
AM_0
 10
564.85898417310807
 20
169.3876412132806
 30
0.0
 11
521.85899417310793
 21
169.3876412132806
 31
0.0
  0
LINE
  5
2FB0
  8
AM_0
 10
518.85899417310793
 20
151.3876412132806
 30
0.0
 11
568.85898317310784
 21
151.3876412132806
 31
0.0
  0
LINE
  5
2FB1
  8
ﾁｭｳｼﾝｾﾝ1
 10
538.85897417310775
 20
171.7062440949272
 30
0.0
 11
538.85897417310775
 21
148.94720253473309
 31
0.0
  0
LINE
  5
2FB2
  8
AM_0
 10
518.85899417310793
 20
166.3876412132806
 30
0.0
 11
518.85899417310793
 21
151.3876412132806
 31
0.0
  0
ARC
  5
2FB3
  8
AM_0
 10
521.85899417310793
 20
166.3876412132806
 30
0.0
 40
3.0
 50
90.000003000000945
 51
180.00001000000091
  0
LINE
  5
2FB4
  8
ｶｸﾚｾﾝ2
 10
531.35897417310775
 20
169.3876412132806
 30
0.0
 11
531.35897417310775
 21
151.3876412132806
 31
0.0
  0
ARC
  5
2FB5
  8
AM_0
 10
553.85898317310784
 20
184.38764421328051
 30
0.0
 40
15.00000029999998
 50
270.0
 51
0.0
  0
LINE
  5
2FB6
  8
ｶｸﾚｾﾝ2
 10
546.35898317310807
 20
169.3876412132806
 30
0.0
 11
546.35898317310807
 21
151.3876412132806
 31
0.0
  0
LINE
  5
2FB7
  8
AM_0
 10
568.85898317310784
 20
165.3876422132804
 30
0.0
 11
568.85898317310784
 21
151.3876412132806
 31
0.0
  0
ARC
  5
2FB8
  8
AM_0
 10
570.85898417310818
 20
151.3876412132806
 30
0.0
 40
2.00000007
 50
90.000003000000945
 51
180.00001000000091
  0
ARC
  5
2FB9
  8
AM_0
 10
564.85898417310807
 20
165.3876422132804
 30
0.0
 40
4.000000199999997
 50
0.0
 51
90.000003000000945
  0
ARC
  5
2FBA
  8
AM_0
 10
633.85896917310811
 20
225.12490221328051
 30
0.0
 40
77.000000999999983
 50
179.9999899999988
 51
212.41839000000161
  0
LINE
  5
2FBB
  8
ﾁｭｳｼﾝｾﾝ1
 10
728.85898217310785
 20
171.7062440949272
 30
0.0
 11
728.85898217310785
 21
148.94720253473309
 31
0.0
  0
ARC
  5
2FBC
  8
AM_0
 10
713.85898817310795
 20
184.38764421328051
 30
0.0
 40
15.00000029999998
 50
179.9999899999988
 51
270.0
  0
LINE
  5
2FBD
  8
AM_0
 10
702.8589721731081
 20
169.3876412132806
 30
0.0
 11
745.85898017310853
 21
169.3876412132806
 31
0.0
  0
LINE
  5
2FBE
  8
AM_0
 10
698.85898817310795
 20
151.3876412132806
 30
0.0
 11
748.85898017310785
 21
151.3876412132806
 31
0.0
  0
LINE
  5
2FBF
  8
AM_0
 10
698.85898817310795
 20
165.3876422132804
 30
0.0
 11
698.85898817310795
 21
151.3876412132806
 31
0.0
  0
ARC
  5
2FC0
  8
AM_0
 10
696.85897217310799
 20
151.3876412132806
 30
0.0
 40
2.00000007
 50
0.0
 51
90.000003000000945
  0
ARC
  5
2FC1
  8
AM_0
 10
702.8589721731081
 20
165.3876422132804
 30
0.0
 40
4.000000199999997
 50
90.000003000000945
 51
180.00001000000091
  0
LINE
  5
2FC2
  8
ｶｸﾚｾﾝ2
 10
721.35898217310785
 20
169.3876412132806
 30
0.0
 11
721.35898217310785
 21
151.3876412132806
 31
0.0
  0
LINE
  5
2FC3
  8
ｶｸﾚｾﾝ2
 10
736.35898217310785
 20
169.3876412132806
 30
0.0
 11
736.35898217310785
 21
151.3876412132806
 31
0.0
  0
LINE
  5
2FC4
  8
AM_0
 10
748.85898017310785
 20
166.3876412132806
 30
0.0
 11
748.85898017310785
 21
151.3876412132806
 31
0.0
  0
ARC
  5
2FC5
  8
AM_0
 10
745.85898017310853
 20
166.3876412132806
 30
0.0
 40
3.0
 50
0.0
 51
90.000003000000945
  0
ARC
  5
2FC6
  8
AM_0
 10
633.85896917310811
 20
225.12490221328051
 30
0.0
 40
77.000000999999983
 50
327.5815999999997
 51
0.0
  0
LINE
  5
2FC7
  8
AM_0
 10
705.37972517310777
 20
345.50360721328059
 30
0.0
 11
663.08190317310778
 21
358.49954721328072
 31
0.0
  0
LINE
  5
2FC8
  8
ﾁｭｳｼﾝｾﾝ
 10
575.37691136248725
 20
291.3876302132806
 30
0.0
 11
692.96755662170835
 21
291.3876302132806
 31
0.0
  0
ARC
  5
2FC9
  8
AM_0
 10
633.85896917310811
 20
263.38766121328052
 30
0.0
 40
99.500004000000004
 50
8.4654901000001566
 51
171.53449999999981
  0
LINE
  5
2FCA
  8
ﾁｭｳｼﾝｾﾝ
 10
538.00313850848261
 20
263.38766121328041
 30
0.0
 11
729.73362441625125
 21
263.38766121328041
 31
0.0
  0
LINE
  5
2FCB
  8
AM_0
 10
552.14499317310811
 20
334.70963721328047
 30
0.0
 11
539.04815417310795
 21
293.57299521328048
 31
0.0
  0
LINE
  5
2FCC
  8
AM_0
 10
443.4184113553635
 20
275.38766121328041
 30
0.0
 11
443.4184113553635
 21
310.38761721328041
 31
0.0
  0
LINE
  5
2FCD
  8
AM_0
 10
443.4184113553635
 20
310.38761721328041
 30
0.0
 11
398.41841135536362
 21
310.38761721328041
 31
0.0
  0
LINE
  5
2FCE
  8
AM_0
 10
398.41841135536362
 20
307.38761721328058
 30
0.0
 11
398.41841135536362
 21
310.38761721328041
 31
0.0
  0
ARC
  5
2FCF
  8
AM_0
 10
567.39093617310778
 20
329.85566721328053
 30
0.0
 40
16.000000499999999
 50
107.079459999999
 51
162.9205300000007
  0
CIRCLE
  5
2FD0
  8
AM_0
 10
633.85896917310811
 20
291.3876302132806
 30
0.0
 40
29.000001000000001
  0
ARC
  5
2FD1
  8
AM_0
 10
564.85898417310807
 20
323.48132721328062
 30
0.0
 40
8.0000000999999976
 50
138.94664999999881
 51
180.00001000000091
  0
ARC
  5
2FD2
  8
AM_0
 10
633.85896917310811
 20
291.3876302132806
 30
0.0
 40
16.000000499999999
 50
108.2099600000016
 51
71.790051999998809
  0
CIRCLE
  5
2FD3
  8
AM_0
 10
633.85896917310811
 20
291.3876302132806
 30
0.0
 40
2.75000007
  0
CIRCLE
  5
2FD4
  8
AM_5
 10
633.85896917310811
 20
291.3876302132806
 30
0.0
 40
4.000000199999997
  0
LINE
  5
2FD5
  8
AM_0
 10
628.85898617310818
 20
302.38766721328062
 30
0.0
 11
638.85897017310788
 21
302.38766721328062
 31
0.0
  0
LINE
  5
2FD6
  8
AM_0
 10
628.85898617310818
 20
310.38761721328041
 30
0.0
 11
638.85897017310788
 21
310.38761721328041
 31
0.0
  0
LINE
  5
2FD7
  8
AM_0
 10
628.85898617310818
 20
302.38766721328062
 30
0.0
 11
628.85898617310818
 21
310.38761721328041
 31
0.0
  0
LINE
  5
2FD8
  8
AM_0
 10
638.85897017310788
 20
302.38766721328062
 30
0.0
 11
638.85897017310788
 21
310.38761721328041
 31
0.0
  0
LINE
  5
2FD9
  8
AM_0
 10
562.53702317310785
 20
345.1016072132806
 30
0.0
 11
603.67365317310805
 21
358.19846721328048
 31
0.0
  0
ARC
  5
2FDA
  8
AM_0
 10
700.6805671731081
 20
330.20924721328072
 30
0.0
 40
16.000000499999999
 50
17.07946300000124
 51
72.920534000000799
  0
LINE
  5
2FDB
  8
AM_0
 10
715.97493917310806
 20
334.90844721328068
 30
0.0
 11
728.9708671731081
 21
292.61056221328062
 31
0.0
  0
ARC
  5
2FDC
  8
AM_0
 10
702.8589721731081
 20
323.48132721328062
 30
0.0
 40
8.0000000999999976
 50
0.0
 51
41.05335099999968
  0
LINE
  5
2FDD
  8
0
 10
196.9183874350374
 20
661.07201159800252
 30
0.0
 11
196.9183874350374
 21
505.0720115980024
 31
0.0
  0
LINE
  5
2FDE
  8
0
 10
186.9183874350374
 20
663.07201159800252
 30
0.0
 11
186.9183874350374
 21
503.07201159800258
 31
0.0
  0
LINE
  5
2FDF
  8
0
  6
CONTINUOUS
 62
     7
 10
219.91838135536369
 20
645.07201159800252
 30
0.0
 11
219.91838135536369
 21
521.0720115980024
 31
0.0
  0
LINE
  5
2FE0
  8
AM_0
 10
230.91838135536381
 20
545.92407659800244
 30
0.0
 11
219.91838135536369
 21
545.92407659800244
 31
0.0
  0
LINE
  5
2FE1
  8
0
 10
230.91838135536381
 20
519.07201159800252
 30
0.0
 11
221.91838135536369
 21
519.07201159800252
 31
0.0
  0
LINE
  5
2FE2
  8
AM_0
 10
230.91838135536381
 20
531.57199559800245
 30
0.0
 11
219.91838135536369
 21
531.57199559800245
 31
0.0
  0
LINE
  5
2FE3
  8
0
 10
186.9183874350374
 20
503.07201159800258
 30
0.0
 11
194.9183874350374
 21
503.07201159800258
 31
0.0
  0
ARC
  5
2FE4
  8
0
 10
194.9183874350374
 20
505.0720115980024
 30
0.0
 40
2.0
 50
270.0
 51
0.0
1001
GENIUS_GENODEF_13
1002
{
1000
HIER
1070
     0
1002
}
1002
{
1000
MANEDIT
1070
     0
1002
}
1002
{
1000
NOSEL
1070
     0
1002
}
1002
{
1000
BEHIND
1070
     0
1002
}
1002
{
1000
OTHER
1070
     0
1002
}
1002
{
1000
REACTOR
1002
}
1001
GENIUS_GENOBJ-N-FIL_13
1002
{
1000
OWNER
1000
GEN
1002
}
  0
LINE
  5
2FE5
  8
0
 10
217.91838135536381
 20
525.0720115980024
 30
0.0
 11
201.91838743503749
 21
525.0720115980024
 31
0.0
  0
ARC
  5
2FE6
  8
0
 10
201.91838743503749
 20
520.07201159800252
 30
0.0
 40
5.0
 50
90.0
 51
180.0
1001
GENIUS_GENOBJ-N-FIL_13
1002
{
1000
OWNER
1000
GEN
1002
}
1001
GENIUS_GENODEF_13
1002
{
1000
HIER
1070
     0
1002
}
1002
{
1000
MANEDIT
1070
     0
1002
}
1002
{
1000
NOSEL
1070
     0
1002
}
1002
{
1000
BEHIND
1070
     0
1002
}
1002
{
1000
OTHER
1070
     0
1002
}
1002
{
1000
REACTOR
1002
}
  0
ARC
  5
2FE7
  8
0
 10
221.91838135536369
 20
521.0720115980024
 30
0.0
 40
2.0
 50
180.0
 51
270.0
1001
GENIUS_GENODEF_13
1002
{
1000
HIER
1070
     0
1002
}
1002
{
1000
MANEDIT
1070
     0
1002
}
1002
{
1000
NOSEL
1070
     0
1002
}
1002
{
1000
BEHIND
1070
     0
1002
}
1002
{
1000
OTHER
1070
     0
1002
}
1002
{
1000
REACTOR
1002
}
1001
GENIUS_GENOBJ-N-FIL_13
1002
{
1000
OWNER
1000
GEN
1002
}
  0
ARC
  5
2FE8
  8
0
 10
217.91838135536381
 20
523.07201159800252
 30
0.0
 40
2.0
 50
0.0
 51
90.0
1001
GENIUS_GENODEF_13
1002
{
1000
HIER
1070
     0
1002
}
1002
{
1000
MANEDIT
1070
     0
1002
}
1002
{
1000
NOSEL
1070
     0
1002
}
1002
{
1000
BEHIND
1070
     0
1002
}
1002
{
1000
OTHER
1070
     0
1002
}
1002
{
1000
REACTOR
1002
}
1001
GENIUS_GENOBJ-N-FIL_13
1002
{
1000
OWNER
1000
GEN
1002
}
  0
LINE
  5
2FE9
  8
0
 10
230.91838135536381
 20
647.07201159800252
 30
0.0
 11
221.91838135536369
 21
647.07201159800252
 31
0.0
  0
LINE
  5
2FEA
  8
AM_0
 10
230.91838135536381
 20
634.57202159800272
 30
0.0
 11
219.91838135536369
 21
634.57202159800272
 31
0.0
  0
LINE
  5
2FEB
  8
AM_0
 10
230.91838135536381
 20
620.21993159800252
 30
0.0
 11
219.91838135536369
 21
620.21993159800252
 31
0.0
  0
LINE
  5
2FEC
  8
0
 10
186.9183874350374
 20
663.07201159800252
 30
0.0
 11
194.9183874350374
 21
663.07201159800252
 31
0.0
  0
ARC
  5
2FED
  8
0
 10
217.91838135536381
 20
643.07201159800252
 30
0.0
 40
2.0
 50
270.0
 51
0.0
1001
GENIUS_GENODEF_13
1002
{
1000
HIER
1070
     0
1002
}
1002
{
1000
MANEDIT
1070
     0
1002
}
1002
{
1000
NOSEL
1070
     0
1002
}
1002
{
1000
BEHIND
1070
     0
1002
}
1002
{
1000
OTHER
1070
     0
1002
}
1002
{
1000
REACTOR
1002
}
1001
GENIUS_GENOBJ-N-FIL_13
1002
{
1000
OWNER
1000
GEN
1002
}
  0
ARC
  5
2FEE
  8
0
 10
201.91838743503749
 20
646.0720115980024
 30
0.0
 40
5.0
 50
180.0
 51
270.0
1001
GENIUS_GENOBJ-N-FIL_13
1002
{
1000
OWNER
1000
GEN
1002
}
1001
GENIUS_GENODEF_13
1002
{
1000
HIER
1070
     0
1002
}
1002
{
1000
MANEDIT
1070
     0
1002
}
1002
{
1000
NOSEL
1070
     0
1002
}
1002
{
1000
BEHIND
1070
     0
1002
}
1002
{
1000
OTHER
1070
     0
1002
}
1002
{
1000
REACTOR
1002
}
  0
LINE
  5
2FEF
  8
0
 10
217.91838135536381
 20
641.07201159800252
 30
0.0
 11
201.91838743503749
 21
641.07201159800252
 31
0.0
  0
ARC
  5
2FF0
  8
0
 10
194.9183874350374
 20
661.07201159800252
 30
0.0
 40
2.0
 50
0.0
 51
90.0
1001
GENIUS_GENODEF_13
1002
{
1000
HIER
1070
     0
1002
}
1002
{
1000
MANEDIT
1070
     0
1002
}
1002
{
1000
NOSEL
1070
     0
1002
}
1002
{
1000
BEHIND
1070
     0
1002
}
1002
{
1000
OTHER
1070
     0
1002
}
1002
{
1000
REACTOR
1002
}
1001
GENIUS_GENOBJ-N-FIL_13
1002
{
1000
OWNER
1000
GEN
1002
}
  0
ARC
  5
2FF1
  8
0
 10
221.91838135536369
 20
645.07201159800252
 30
0.0
 40
2.0
 50
90.0
 51
180.0
1001
GENIUS_GENODEF_13
1002
{
1000
HIER
1070
     0
1002
}
1002
{
1000
MANEDIT
1070
     0
1002
}
1002
{
1000
NOSEL
1070
     0
1002
}
1002
{
1000
BEHIND
1070
     0
1002
}
1002
{
1000
OTHER
1070
     0
1002
}
1002
{
1000
REACTOR
1002
}
1001
GENIUS_GENOBJ-N-FIL_13
1002
{
1000
OWNER
1000
GEN
1002
}
  0
TEXT
  5
31D2
  8
AM_0
 10
515.82229681360832
 20
618.88039738625503
 30
0.0
 40
15.0
  1
VX04-120A~VX04-200A
  0
ENDSEC
  0
EOF
