  0
SECTION
  2
HEADER
  9
$ACADVER
  1
AC1009
  9
$INSBASE
 10
0.0
 20
0.0
 30
0.0
  9
$EXTMIN
 10
314.36260591186868
 20
298.77242855375971
 30
-0.0000000349181948
  9
$EXTMAX
 10
1151.548655645513
 20
1005.285311220683
 30
0.0000000814935747
  9
$LIMMIN
 10
0.0
 20
0.0
  9
$LIMMAX
 10
1422.5
 20
925.0
  9
$ORTHOMODE
 70
     0
  9
$REGENMODE
 70
     1
  9
$FILLMODE
 70
     1
  9
$QTEXTMODE
 70
     0
  9
$MIRRTEXT
 70
     1
  9
$DRAGMODE
 70
     2
  9
$LTSCALE
 40
5.0
  9
$OSMODE
 70
   551
  9
$ATTMODE
 70
     1
  9
$TEXTSIZE
 40
2.5
  9
$TRACEWID
 40
1.0
  9
$TEXTSTYLE
  7
STANDARD
  9
$CLAYER
  8
AM_0
  9
$CELTYPE
  6
BYLAYER
  9
$CECOLOR
 62
   256
  9
$DIMSCALE
 40
1.0
  9
$DIMASZ
 40
2.5
  9
$DIMEXO
 40
1.0
  9
$DIMDLI
 40
8.0
  9
$DIMRND
 40
0.0
  9
$DIMDLE
 40
0.0
  9
$DIMEXE
 40
0.6
  9
$DIMTP
 40
0.1
  9
$DIMTM
 40
0.1
  9
$DIMTXT
 40
2.5
  9
$DIMCEN
 40
0.0
  9
$DIMTSZ
 40
0.0
  9
$DIMTOL
 70
     0
  9
$DIMLIM
 70
     0
  9
$DIMTIH
 70
     0
  9
$DIMTOH
 70
     0
  9
$DIMSE1
 70
     0
  9
$DIMSE2
 70
     0
  9
$DIMTAD
 70
     1
  9
$DIMZIN
 70
     8
  9
$DIMBLK
  1

  9
$DIMASO
 70
     1
  9
$DIMSHO
 70
     1
  9
$DIMPOST
  1

  9
$DIMAPOST
  1
"
  9
$DIMALT
 70
     0
  9
$DIMALTD
 70
     2
  9
$DIMALTF
 40
0.0393701
  9
$DIMLFAC
 40
1.0
  9
$DIMTOFL
 70
     1
  9
$DIMTVP
 40
0.0
  9
$DIMTIX
 70
     0
  9
$DIMSOXD
 70
     0
  9
$DIMSAH
 70
     0
  9
$DIMBLK1
  1

  9
$DIMBLK2
  1

  9
$DIMSTYLE
  2
AM_ISO
  9
$DIMCLRD
 70
   256
  9
$DIMCLRE
 70
   256
  9
$DIMCLRT
 70
     4
  9
$DIMTFAC
 40
0.71
  9
$DIMGAP
 40
0.8
  9
$LUNITS
 70
     2
  9
$LUPREC
 70
     2
  9
$SKETCHINC
 40
1.0
  9
$FILLETRAD
 40
25.0
  9
$AUNITS
 70
     0
  9
$AUPREC
 70
     0
  9
$MENU
  1
.
  9
$ELEVATION
 40
0.0
  9
$PELEVATION
 40
0.0
  9
$THICKNESS
 40
0.0
  9
$LIMCHECK
 70
     0
  9
$BLIPMODE
 70
     0
  9
$CHAMFERA
 40
10.0
  9
$CHAMFERB
 40
5.0
  9
$SKPOLY
 70
     0
  9
$TDCREATE
 40
2452066.4139136579
  9
$TDUPDATE
 40
2458541.4697674769
  9
$TDINDWG
 40
0.1615218634
  9
$TDUSRTIMER
 40
0.1615218519
  9
$USRTIMER
 70
     1
  9
$ANGBASE
 50
0.0
  9
$ANGDIR
 70
     0
  9
$PDMODE
 70
     0
  9
$PDSIZE
 40
0.0
  9
$PLINEWID
 40
0.0
  9
$COORDS
 70
     1
  9
$SPLFRAME
 70
     0
  9
$SPLINETYPE
 70
     6
  9
$SPLINESEGS
 70
     8
  9
$ATTDIA
 70
     1
  9
$ATTREQ
 70
     1
  9
$HANDLING
 70
     1
  9
$HANDSEED
  5
354C
  9
$SURFTAB1
 70
     6
  9
$SURFTAB2
 70
     6
  9
$SURFTYPE
 70
     6
  9
$SURFU
 70
     6
  9
$SURFV
 70
     6
  9
$UCSNAME
  2

  9
$UCSORG
 10
0.0
 20
0.0
 30
0.0
  9
$UCSXDIR
 10
1.0
 20
0.0
 30
0.0
  9
$UCSYDIR
 10
0.0
 20
1.0
 30
0.0
  9
$PUCSNAME
  2

  9
$PUCSORG
 10
0.0
 20
0.0
 30
0.0
  9
$PUCSXDIR
 10
1.0
 20
0.0
 30
0.0
  9
$PUCSYDIR
 10
0.0
 20
1.0
 30
0.0
  9
$USERI1
 70
     0
  9
$USERI2
 70
     0
  9
$USERI3
 70
     0
  9
$USERI4
 70
     0
  9
$USERI5
 70
     0
  9
$USERR1
 40
0.0
  9
$USERR2
 40
0.0
  9
$USERR3
 40
0.0
  9
$USERR4
 40
0.0
  9
$USERR5
 40
0.0
  9
$WORLDVIEW
 70
     1
  9
$SHADEDGE
 70
     3
  9
$SHADEDIF
 70
    70
  9
$TILEMODE
 70
     1
  9
$MAXACTVP
 70
    64
  9
$PLIMCHECK
 70
     0
  9
$PEXTMIN
 10
1.0000000000000000E+020
 20
1.0000000000000000E+020
 30
1.0000000000000000E+020
  9
$PEXTMAX
 10
-1.0000000000000000E+020
 20
-1.0000000000000000E+020
 30
-1.0000000000000000E+020
  9
$PLIMMIN
 10
0.0
 20
0.0
  9
$PLIMMAX
 10
420.0
 20
297.0
  9
$UNITMODE
 70
     0
  9
$VISRETAIN
 70
     1
  9
$PLINEGEN
 70
     0
  9
$PSLTSCALE
 70
     1
  0
ENDSEC
  0
SECTION
  2
TABLES
  0
TABLE
  2
VPORT
 70
     1
  0
VPORT
  2
*ACTIVE
 70
     0
 10
0.0
 20
0.0
 11
1.0
 21
1.0
 12
732.95563077869065
 22
652.02886988722139
 13
0.0
 23
0.0
 14
12.5
 24
12.5
 15
50.0
 25
50.0
 16
0.0
 26
0.0
 36
1.0
 17
0.0
 27
0.0
 37
0.0
 40
711.36308552276034
 41
1.7571592210767459
 42
50.0
 43
0.0
 44
0.0
 50
0.0
 51
0.0
 71
     0
 72
   100
 73
     1
 74
     3
 75
     0
 76
     0
 77
     0
 78
     0
  0
ENDTAB
  0
TABLE
  2
LTYPE
 70
    26
  0
LTYPE
  2
CONTINUOUS
 70
     0
  3
Solid line
 72
    65
 73
     0
 40
0.0
  0
LTYPE
  2
AM_ISO02W050
 70
     0
  3
__ __ __ __ __ __ __ __ __ __ __ __ __ __ __
 72
    65
 73
     2
 40
7.5
 49
6.0
 49
-1.5
  0
LTYPE
  2
AM_ISO08W050
 70
     0
  3
____ . ____ . ____ . ____ . ____ . ____ . ____
 72
    65
 73
     4
 40
18.0
 49
12.0
 49
-1.5
 49
3.0
 49
-1.5
  0
LTYPE
  2
AM_ISO09W050
 70
     0
  3
_____ . . _____ . . _____ . . ____ .. ____
 72
    65
 73
     6
 40
22.5
 49
12.0
 49
-1.5
 49
3.0
 49
-1.5
 49
3.0
 49
-1.5
  0
LTYPE
  2
AMCONSTR
 70
     0
  3
_______________________
 72
    65
 73
     2
 40
9999.0
 49
9999.0
 49
0.0
  0
LTYPE
  2
AM_ISO08W050X2
 70
     0
  3
__ . __ . __ . __ . __ . __
 72
    65
 73
     4
 40
9.0
 49
6.0
 49
-0.75
 49
1.5
 49
-0.75
  0
LTYPE
  2
AM_ISO02W050X2
 70
     0
  3
 _ _ _ _ _ _ _ _ _ _ _ _
 72
    65
 73
     2
 40
3.75
 49
3.0
 49
-0.75
  0
LTYPE
  2
AMZIGZAG
 70
     0
  3
/\/-/\/-/\/-/\/-/\/-/\/
 72
    65
 73
     2
 40
11.000099999999991
 49
0.0001
 49
-11.0
  0
LTYPE
  2
ACISOWELD
 70
     0
  3
_ _ _ _ _
 72
    65
 73
     2
 40
2.0
 49
2.0
 49
-1.0
  0
LTYPE
  2
ACISOTGB
 70
     0
  3
__ . . __ . .
 72
    65
 73
     6
 40
9.0
 49
4.0
 49
-1.0
 49
1.0
 49
-1.0
 49
1.0
 49
-1.0
  0
LTYPE
  2
ACISOTGL
 70
     0
  3
_ _ _ _ _
 72
    65
 73
     2
 40
3.0
 49
2.0
 49
-1.0
  0
LTYPE
  2
CENTER
 70
     0
  3
__ . __
 72
    65
 73
     4
 40
7.0
 49
4.0
 49
-1.0
 49
1.0
 49
-1.0
  0
LTYPE
  2
PHANTOM2
 70
     0
  3
Phantom (.5x) ___ _ _ ___ _ _ ___ _ _ ___ _ _
 72
    65
 73
     6
 40
31.75
 49
15.875
 49
-3.174999999999998
 49
3.174999999999998
 49
-3.174999999999998
 49
3.174999999999998
 49
-3.174999999999998
  0
LTYPE
  2
ACANSTGBM
 70
     0
  3
__ . . __ . .
 72
    65
 73
     6
 40
9.0
 49
4.0
 49
-1.0
 49
1.0
 49
-1.0
 49
1.0
 49
-1.0
  0
LTYPE
  2
ACANSTGLM
 70
     0
  3
_ _ _ _ _
 72
    65
 73
     2
 40
3.0
 49
2.0
 49
-1.0
  0
LTYPE
  2
GEN3B
 70
     0
  3
 - - - - -
 72
    65
 73
     2
 40
1.0
 49
0.5
 49
-0.5
  0
LTYPE
  2
GEN7A
 70
     0
  3
__ . __ . __
 72
    65
 73
     4
 40
7.375
 49
4.75
 49
-0.875
 49
0.875
 49
-0.875
  0
LTYPE
  2
ACJISTGB
 70
     0
  3
__ . . __ . .
 72
    65
 73
     6
 40
9.0
 49
4.0
 49
-1.0
 49
1.0
 49
-1.0
 49
1.0
 49
-1.0
  0
LTYPE
  2
ACJISTGL
 70
     0
  3
_ _ _ _ _
 72
    65
 73
     2
 40
3.0
 49
2.0
 49
-1.0
  0
LTYPE
  2
HIDDEN
 70
     0
  3
Hidden __ __ __ __ __ __ __ __ __ __ __ __ __ _
 72
    65
 73
     2
 40
0.375
 49
0.25
 49
-0.125
  0
LTYPE
  2
CENTER2
 70
     0
  3
Center (.5x) ___ _ ___ _ ___ _ ___ _ ___ _ ___
 72
    65
 73
     4
 40
1.125
 49
0.75
 49
-0.125
 49
0.125
 49
-0.125
  0
LTYPE
  2
HIDDEN2
 70
     0
  3
Hidden (.5x) _ _ _ _ _ _ _ _ _ _ _ _ _ _ _ _ _
 72
    65
 73
     2
 40
0.1875
 49
0.125
 49
-0.0625
  0
LTYPE
  2
AMZIGZAG2
 70
     0
  3
/\/-/\/-/\/-/\/-/\/-/\/
 72
    65
 73
     2
 40
0.4401
 49
0.0001
 49
-0.4400000000000002
  0
LTYPE
  2
ACANSTGB
 70
     0
  3
__ . . __ . .
 72
    65
 73
     6
 40
0.35433070866
 49
0.15748031496
 49
-0.03937007874
 49
0.03937007874
 49
-0.03937007874
 49
0.03937007874
 49
-0.03937007874
  0
LTYPE
  2
ACANSTGL
 70
     0
  3
_ _ _ _ _
 72
    65
 73
     2
 40
0.11811023622
 49
0.07874015748
 49
-0.03937007874
  0
ENDTAB
  0
TABLE
  2
LAYER
 70
     6
  0
LAYER
  2
0
 70
     0
 62
     7
  6
CONTINUOUS
  0
LAYER
  2
AM_0
 70
     0
 62
     7
  6
CONTINUOUS
  0
LAYER
  2
AM_5
 70
     0
 62
     2
  6
CONTINUOUS
  0
LAYER
  2
DEFPOINTS
 70
     0
 62
     7
  6
CONTINUOUS
  0
LAYER
  2
ｶｸﾚｾﾝ2
 70
     0
 62
     3
  6
GEN3B
  0
LAYER
  2
ﾁｭｳｼﾝｾﾝ1
 70
     0
 62
     1
  6
GEN7A
  0
ENDTAB
  0
TABLE
  2
STYLE
 70
     9
  0
STYLE
  2
STANDARD
 70
     0
 40
0.0
 41
0.8299999999999999
 50
0.0
 71
     0
 42
2.5
  3
txt.shx
  4
bigfont.shx
  0
STYLE
  2
ANNOTATIVE
 70
     0
 40
0.0
 41
1.0
 50
0.0
 71
     0
 42
0.2
  3
txt
  4

  0
STYLE
  2

 70
     1
 40
0.0
 41
1.0
 50
0.0
 71
     0
 42
2.5
  3
ltypeshp.shx
  4

  0
STYLE
  2
ACISOTS
 70
     0
 40
1.0
 41
1.0
 50
0.0
 71
     0
 42
2.5
  3
isocp.shx
  4
extfont.shx
  0
STYLE
  2
ACISOGDT
 70
     0
 40
0.0
 41
1.0
 50
0.0
 71
     0
 42
2.5
  3
amgdt.shx
  4

  0
STYLE
  2
ACANSTS
 70
     0
 40
1.0
 41
1.0
 50
0.0
 71
     0
 42
2.5
  3
romans.shx
  4
bigfont.shx
  0
STYLE
  2
ACANSGDT
 70
     0
 40
0.0
 41
1.0
 50
0.0
 71
     0
 42
2.5
  3
amgdt.shx
  4

  0
STYLE
  2
ACJISTS
 70
     0
 40
1.0
 41
1.0
 50
0.0
 71
     0
 42
2.5
  3
isocp.shx
  4
bigfont.shx
  0
STYLE
  2
ACJISGDT
 70
     0
 40
0.0
 41
1.0
 50
0.0
 71
     0
 42
2.5
  3
amgdt.shx
  4

  0
ENDTAB
  0
TABLE
  2
VIEW
 70
     6
  0
VIEW
  2
AM_VIEW1
 70
     0
 40
462.5
 10
416.07965009208078
 20
693.75
 41
832.15930018416213
 11
0.0
 21
0.0
 31
1.0
 12
0.0
 22
0.0
 32
0.0
 42
50.0
 43
0.0
 44
0.0
 50
0.0
 71
     0
  0
VIEW
  2
AM_VIEW2
 70
     0
 40
462.5
 10
1006.420349907918
 20
693.75
 41
832.15930018416213
 11
0.0
 21
0.0
 31
1.0
 12
0.0
 22
0.0
 32
0.0
 42
50.0
 43
0.0
 44
0.0
 50
0.0
 71
     0
  0
VIEW
  2
AM_VIEW3
 70
     0
 40
462.5
 10
416.07965009208078
 20
231.25
 41
832.15930018416213
 11
0.0
 21
0.0
 31
1.0
 12
0.0
 22
0.0
 32
0.0
 42
50.0
 43
0.0
 44
0.0
 50
0.0
 71
     0
  0
VIEW
  2
AM_VIEW4
 70
     0
 40
462.5
 10
1006.420349907918
 20
231.25
 41
832.15930018416213
 11
0.0
 21
0.0
 31
1.0
 12
0.0
 22
0.0
 32
0.0
 42
50.0
 43
0.0
 44
0.0
 50
0.0
 71
     0
  0
VIEW
  2
AM_VIEW5
 70
     0
 40
462.5
 10
711.24999999999966
 20
462.5
 41
832.15930018416179
 11
0.0
 21
0.0
 31
1.0
 12
0.0
 22
0.0
 32
0.0
 42
50.0
 43
0.0
 44
0.0
 50
0.0
 71
     0
  0
VIEW
  2
AM_VIEW6
 70
     0
 40
924.99075000000005
 10
711.24999999999966
 20
462.5
 41
1664.3019571823199
 11
0.0
 21
0.0
 31
1.0
 12
0.0
 22
0.0
 32
0.0
 42
50.0
 43
0.0
 44
0.0
 50
0.0
 71
     0
  0
ENDTAB
  0
TABLE
  2
UCS
 70
     0
  0
ENDTAB
  0
TABLE
  2
APPID
 70
    95
  0
APPID
  2
ACAD
 70
     0
  0
APPID
  2
ACADANNOTATIVE
 70
     0
  0
APPID
  2
MCAD_NO_VIS
 70
     0
  0
APPID
  2
ACAD_TEMP_GRAPHIC
 70
     0
  0
APPID
  2
ACATTRIBSERVICES
 70
     0
  0
APPID
  2
GENIUS_GENREC_14
 70
     0
  0
APPID
  2
GENIUS_GENOBJ-N-REC_13
 70
     0
  0
APPID
  2
GENIUS_GENODEF_13
 70
     0
  0
APPID
  2
GENIUS_GENOLIS_13
 70
     0
  0
APPID
  2
GENIUS_GENOBJ-N-TIT_13
 70
     0
  0
APPID
  2
GENIUS_GENOENT_13
 70
     0
  0
APPID
  2
GENIUS_GENTITLE_13
 70
     0
  0
APPID
  2
GENIUS_GENOREF_13
 70
     0
  0
APPID
  2
GENIUS_GENSCREG_15
 70
     0
  0
APPID
  2
GENIUS_GENOBJ-N-SDF_13
 70
     0
  0
APPID
  2
GENIUS_GENFIL_13
 70
     0
  0
APPID
  2
GENIUS_GENOBJ-N-CHA_13
 70
     0
  0
APPID
  2
GENIUS_GENDTOL_13
 70
     0
  0
APPID
  2
GENIUS_GENOBJ-N-FIL_13
 70
     0
  0
APPID
  2
AD_DRAW
 70
     0
  0
APPID
  2
DESIGNERASSEMBLIES
 70
     0
  0
APPID
  2
ASURF_PCURVE_APPNAME
 70
     0
  0
APPID
  2
GENIUS_GE3SECT_13
 70
     0
  0
APPID
  2
GENIUS_GENCFG_13
 70
     0
  0
APPID
  2
GENIUS_GE3CFG0_13
 70
     0
  0
APPID
  2
GENIUS_GENCFG0_13
 70
     0
  0
APPID
  2
GENIUS_GENCFG1_13
 70
     0
  0
APPID
  2
GENIUS_GENCFG2_13
 70
     0
  0
APPID
  2
GENIUS_GENCFG3_13
 70
     0
  0
APPID
  2
GENIUS_GENCFG4_13
 70
     0
  0
APPID
  2
GENIUS_GEVCFG0_13
 70
     0
  0
APPID
  2
GENIUS_GENHINW_13
 70
     0
  0
APPID
  2
GENIUS_FIRSTVISTXT_14
 70
     0
  0
APPID
  2
GENIUS_GENOBJ-N-LEADER_13
 70
     0
  0
APPID
  2
GEV_VCCNULL_SWITCH_OFF
 70
     0
  0
APPID
  2
GENIUS_GEFCFG0_13
 70
     0
  0
APPID
  2
GENIUS_GENZVEED_13
 70
     0
  0
APPID
  2
GENIUS_GENSCREG_13
 70
     0
  0
APPID
  2
GENIUS_DUMCFG0_13
 70
     0
  0
APPID
  2
GEVID936201362
 70
     0
  0
APPID
  2
GEVDC
 70
     0
  0
APPID
  2
GEVCON
 70
     0
  0
APPID
  2
VCC
 70
     0
  0
APPID
  2
GEVPT
 70
     0
  0
APPID
  2
GEVIT
 70
     0
  0
APPID
  2
GENBH
 70
     0
  0
APPID
  2
GEVMK
 70
     0
  0
APPID
  2
GENIUS_GENBH_13
 70
     0
  0
APPID
  2
GENIUS_GENOBJ-NBEHI-BHF_13
 70
     0
  0
APPID
  2
GENIUS_GENOBJ-NBEHI-BHB_13
 70
     0
  0
APPID
  2
GENIUS_GENOBJ-F-DESC_13
 70
     0
  0
APPID
  2
GENIUS_GEFDESC_14
 70
     0
  0
APPID
  2
GENIUS_GENOBJ-F-PART_13
 70
     0
  0
APPID
  2
GENIUS_GEFSTDP_13
 70
     0
  0
APPID
  2
GENIUS_GEFPARTINS_13
 70
     0
  0
APPID
  2
GENIUS_GENTRA_14
 70
     0
  0
APPID
  2
GENIUS_GENINF13_13
 70
     0
  0
APPID
  2
GENIUS_GENOBJ-N-INFOPT_13
 70
     0
  0
APPID
  2
GENIUS_GENOBJ-N-RSSYM_13
 70
     0
  0
APPID
  2
GENIUS_GENSYMENT_13
 70
     0
  0
APPID
  2
GENIUS_GENSCSYM_13
 70
     0
  0
APPID
  2
GENIUS_GEFINFNAM_13
 70
     0
  0
APPID
  2
GENIUS_GENOBJ-N-CEN_13
 70
     0
  0
APPID
  2
GENIUS_GENOBJ-N-CRS_13
 70
     0
  0
APPID
  2
GENIUS_GENOBJ-N-CRC_13
 70
     0
  0
APPID
  2
GENIUS_GENCRC_14
 70
     0
  0
APPID
  2
GEVID942827039
 70
     0
  0
APPID
  2
GEVID942827040
 70
     0
  0
APPID
  2
GEVID942827041
 70
     0
  0
APPID
  2
GENIUS_GENOBJ-F-SCPASSM_13
 70
     0
  0
APPID
  2
GENIUS_GENDIMSH_14
 70
     0
  0
APPID
  2
GEVID942827042
 70
     0
  0
APPID
  2
GEVID946020473
 70
     0
  0
APPID
  2
GEVID946020474
 70
     0
  0
APPID
  2
GEVID946020475
 70
     0
  0
APPID
  2
GENIUS_GENOBJ-N-HTC_13
 70
     0
  0
APPID
  2
GENIUS_GENHATCH_13
 70
     0
  0
APPID
  2
GEVID948854295
 70
     0
  0
APPID
  2
GEVID939402019
 70
     0
  0
APPID
  2
GEVID952919491
 70
     0
  0
APPID
  2
GEVID952919492
 70
     0
  0
APPID
  2
GENIUS_GEFWELD_13
 70
     0
  0
APPID
  2
GENIUS_GENOBJ-F-WELS_13
 70
     0
  0
APPID
  2
GEVID952919493
 70
     0
  0
APPID
  2
GENIUS_GENOBJ-N-RSBK_13
 70
     0
  0
APPID
  2
GENIUS_GENOBJ-N-LIB_13
 70
     0
  0
APPID
  2
GENIUS_GENSCALE_13
 70
     0
  0
APPID
  2
GEVID986376691
 70
     0
  0
APPID
  2
DCO15
 70
     0
  0
APPID
  2
ACAD_DSTYLE_DIMBREAK
 70
     0
  0
APPID
  2
ACAD_DSTYLE_DIMJAG
 70
     0
  0
APPID
  2
ACAD_NAV_VCDISPLAY
 70
     0
  0
APPID
  2
ACADANNOPO
 70
     0
  0
APPID
  2
ACAD_EXEMPT_FROM_CAD_STANDARDS
 70
     0
  0
APPID
  2
ACAD_MLEADERVER
 70
     0
  0
ENDTAB
  0
TABLE
  2
DIMSTYLE
 70
    22
  0
DIMSTYLE
  2
STANDARD
 70
     0
  3

  4

  5

  6

  7

 40
1.0
 41
0.18
 42
0.0625
 43
0.38
 44
0.18
 45
0.0
 46
0.0
 47
0.0
 48
0.0
140
0.18
141
0.09
142
0.0
143
25.399999999999999
144
1.0
145
0.0
146
1.0
147
0.09
 71
     0
 72
     0
 73
     1
 74
     1
 75
     0
 76
     0
 77
     0
 78
     0
170
     0
171
     2
172
     0
173
     0
174
     0
175
     0
176
     0
177
     0
178
     0
  0
DIMSTYLE
  2
ANNOTATIVE
 70
     0
  3

  4

  5

  6

  7

 40
1.0
 41
0.18
 42
0.0625
 43
0.38
 44
0.18
 45
0.0
 46
0.0
 47
0.0
 48
0.0
140
0.18
141
0.09
142
0.0
143
25.399999999999999
144
1.0
145
0.0
146
1.0
147
0.09
 71
     0
 72
     0
 73
     1
 74
     1
 75
     0
 76
     0
 77
     0
 78
     0
170
     0
171
     2
172
     0
173
     0
174
     0
175
     0
176
     0
177
     0
178
     0
  0
DIMSTYLE
  2
AM_ISO
 70
     0
  3

  4
"
  5

  6

  7

 40
1.0
 41
2.5
 42
1.0
 43
8.0
 44
0.6
 45
0.0
 46
0.0
 47
0.1
 48
0.1
140
2.5
141
0.0
142
0.0
143
0.0393701
144
1.0
145
0.0
146
0.71
147
0.8
 71
     0
 72
     0
 73
     0
 74
     0
 75
     0
 76
     0
 77
     1
 78
     8
170
     0
171
     2
172
     1
173
     0
174
     0
175
     0
176
   256
177
   256
178
     4
  0
DIMSTYLE
  2
AM_ISO$3
 70
     0
  3

  4
"
  5

  6

  7

 40
1.0
 41
2.5
 42
1.0
 43
8.0
 44
0.6
 45
0.0
 46
0.0
 47
0.1
 48
0.1
140
2.5
141
0.0
142
0.0
143
0.0393701
144
1.0
145
0.0
146
0.71
147
0.8
 71
     0
 72
     0
 73
     0
 74
     1
 75
     0
 76
     0
 77
     1
 78
     8
170
     0
171
     2
172
     0
173
     0
174
     0
175
     0
176
   256
177
   256
178
     4
  0
DIMSTYLE
  2
AM_ISO$4
 70
     0
  3

  4
"
  5

  6

  7

 40
1.0
 41
2.5
 42
1.0
 43
8.0
 44
0.6
 45
0.0
 46
0.0
 47
0.1
 48
0.1
140
2.5
141
0.0
142
0.0
143
0.0393701
144
1.0
145
0.0
146
0.71
147
0.8
 71
     0
 72
     0
 73
     0
 74
     1
 75
     0
 76
     0
 77
     1
 78
     8
170
     0
171
     2
172
     0
173
     0
174
     0
175
     0
176
   256
177
   256
178
     4
  0
DIMSTYLE
  2
AM_ISO$6
 70
     0
  3

  4
"
  5

  6

  7

 40
1.0
 41
2.5
 42
1.0
 43
8.0
 44
0.6
 45
0.0
 46
0.0
 47
0.1
 48
0.1
140
2.5
141
0.0
142
0.0
143
0.0393701
144
1.0
145
0.0
146
0.71
147
0.8
 71
     0
 72
     0
 73
     0
 74
     0
 75
     0
 76
     0
 77
     0
 78
     8
170
     0
171
     2
172
     1
173
     0
174
     0
175
     0
176
   256
177
   256
178
     4
  0
DIMSTYLE
  2
AM_ISO$7
 70
     0
  3

  4
"
  5

  6

  7

 40
1.0
 41
2.5
 42
1.0
 43
8.0
 44
0.6
 45
0.0
 46
0.0
 47
0.1
 48
0.1
140
2.5
141
0.0
142
0.0
143
0.0393701
144
1.0
145
0.0
146
0.71
147
0.8
 71
     0
 72
     0
 73
     0
 74
     0
 75
     0
 76
     0
 77
     1
 78
     8
170
     0
171
     2
172
     1
173
     0
174
     0
175
     0
176
   256
177
   256
178
     4
  0
DIMSTYLE
  2
AM_ISO$SF
 70
     0
  3

  4
"
  5

  6

  7

 40
1.0
 41
2.5
 42
1.0
 43
10.0
 44
1.0
 45
0.0
 46
0.0
 47
0.1
 48
0.1
140
3.5
141
0.0
142
0.0
143
0.0393701
144
1.0
145
0.0
146
0.71
147
1.5
 71
     0
 72
     0
 73
     0
 74
     0
 75
     1
 76
     1
 77
     1
 78
     8
170
     0
171
     2
172
     1
173
     0
174
     0
175
     0
176
   256
177
   256
178
     2
  0
DIMSTYLE
  2
AM_ISO$SH
 70
     0
  3

  4
"
  5

  6

  7

 40
1.0
 41
2.5
 42
1.0
 43
10.0
 44
1.0
 45
0.0
 46
0.0
 47
0.1
 48
0.1
140
3.5
141
0.0
142
0.0
143
0.0393701
144
2.0
145
0.0
146
0.71
147
1.5
 71
     0
 72
     0
 73
     0
 74
     0
 75
     1
 76
     1
 77
     1
 78
     8
170
     0
171
     2
172
     1
173
     1
174
     0
175
     0
176
   256
177
   256
178
     2
  0
DIMSTYLE
  2
AM_JIS
 70
     0
  3

  4
"
  5

  6

  7

 40
1.0
 41
2.5
 42
1.0
 43
7.0
 44
1.0
 45
0.0
 46
0.0
 47
0.1
 48
0.1000000001
140
2.5
141
0.0
142
0.0
143
0.0393701
144
1.0
145
0.0
146
0.71
147
1.0
 71
     0
 72
     0
 73
     0
 74
     0
 75
     0
 76
     0
 77
     3
 78
     8
170
     0
171
     2
172
     1
173
     0
174
     0
175
     0
176
   256
177
   256
178
     4
  0
DIMSTYLE
  2
AM_JIS$3
 70
     0
  3

  4
"
  5

  6

  7

 40
1.0
 41
2.5
 42
1.0
 43
7.0
 44
1.0
 45
0.0
 46
0.0
 47
0.1
 48
0.1000000001
140
2.5
141
0.0
142
0.0
143
0.0393701
144
1.0
145
0.0
146
0.71
147
1.0
 71
     0
 72
     0
 73
     0
 74
     1
 75
     0
 76
     0
 77
     3
 78
     8
170
     0
171
     2
172
     0
173
     0
174
     0
175
     0
176
   256
177
   256
178
     4
  0
DIMSTYLE
  2
AM_JIS$4
 70
     0
  3

  4
"
  5

  6

  7

 40
1.0
 41
2.5
 42
1.0
 43
7.0
 44
1.0
 45
0.0
 46
0.0
 47
0.1
 48
0.1000000001
140
2.5
141
0.0
142
0.0
143
0.0393701
144
1.0
145
0.0
146
0.71
147
1.0
 71
     0
 72
     0
 73
     0
 74
     0
 75
     0
 76
     0
 77
     3
 78
     8
170
     0
171
     2
172
     0
173
     0
174
     0
175
     0
176
   256
177
   256
178
     4
  0
DIMSTYLE
  2
AM_JIS$6
 70
     0
  3

  4
"
  5

  6

  7

 40
1.0
 41
2.5
 42
1.0
 43
7.0
 44
1.0
 45
0.0
 46
0.0
 47
0.1
 48
0.1000000001
140
2.5
141
0.0
142
0.0
143
0.0393701
144
1.0
145
0.0
146
0.71
147
1.0
 71
     0
 72
     0
 73
     0
 74
     0
 75
     0
 76
     0
 77
     0
 78
     8
170
     0
171
     2
172
     1
173
     0
174
     0
175
     0
176
   256
177
   256
178
     4
  0
DIMSTYLE
  2
AM_JIS$7
 70
     0
  3

  4
"
  5

  6

  7

 40
1.0
 41
2.5
 42
1.0
 43
7.0
 44
1.0
 45
0.0
 46
0.0
 47
0.1
 48
0.1000000001
140
2.5
141
0.0
142
0.0
143
0.0393701
144
1.0
145
0.0
146
0.71
147
1.0
 71
     0
 72
     0
 73
     0
 74
     0
 75
     0
 76
     0
 77
     3
 78
     8
170
     0
171
     2
172
     1
173
     0
174
     0
175
     0
176
   256
177
   256
178
     4
  0
DIMSTYLE
  2
AM_JIS$SF
 70
     0
  3

  4
"
  5

  6

  7

 40
1.0
 41
2.5
 42
1.0
 43
10.0
 44
1.0
 45
0.0
 46
0.0
 47
0.1
 48
0.1
140
3.5
141
0.0
142
0.0
143
0.0393701
144
1.0
145
0.0
146
0.71
147
1.5
 71
     0
 72
     0
 73
     0
 74
     0
 75
     1
 76
     1
 77
     3
 78
     8
170
     0
171
     2
172
     1
173
     0
174
     0
175
     0
176
   256
177
   256
178
     4
  0
DIMSTYLE
  2
AM_JIS$SH
 70
     0
  3

  4
"
  5

  6

  7

 40
1.0
 41
2.5
 42
1.0
 43
10.0
 44
1.0
 45
0.0
 46
0.0
 47
0.1
 48
0.1
140
3.5
141
0.0
142
0.0
143
0.0393701
144
1.0
145
0.0
146
0.71
147
1.5
 71
     0
 72
     0
 73
     0
 74
     0
 75
     1
 76
     0
 77
     3
 78
     8
170
     0
171
     2
172
     1
173
     1
174
     0
175
     0
176
   256
177
   256
178
     4
  0
DIMSTYLE
  2
AM_ANSI
 70
     0
  3

  4
mm
  5

  6

  7

 40
1.0
 41
0.1
 42
0.05
 43
0.5
 44
0.1
 45
0.0
 46
0.0
 47
0.1
 48
0.1
140
0.12
141
0.0
142
0.0
143
25.399999999999999
144
1.0
145
0.0
146
0.71
147
0.06
 71
     0
 72
     0
 73
     1
 74
     1
 75
     0
 76
     0
 77
     0
 78
     7
170
     0
171
     2
172
     0
173
     0
174
     0
175
     0
176
   256
177
   256
178
     2
  0
DIMSTYLE
  2
AM_ANSI$3
 70
     0
  3

  4
mm
  5

  6

  7

 40
1.0
 41
0.1
 42
0.05
 43
0.5
 44
0.1
 45
0.0
 46
0.0
 47
0.1
 48
0.1
140
0.12
141
0.0
142
0.0
143
25.399999999999999
144
1.0
145
0.0
146
0.71
147
0.06
 71
     0
 72
     0
 73
     1
 74
     1
 75
     0
 76
     0
 77
     0
 78
     7
170
     0
171
     2
172
     0
173
     0
174
     0
175
     0
176
   256
177
   256
178
     2
  0
DIMSTYLE
  2
AM_ANSI$4
 70
     0
  3

  4
mm
  5

  6

  7

 40
1.0
 41
0.1
 42
0.05
 43
0.5
 44
0.1
 45
0.0
 46
0.0
 47
0.1
 48
0.1
140
0.12
141
0.0
142
0.0
143
25.399999999999999
144
1.0
145
0.0
146
0.71
147
0.06
 71
     0
 72
     0
 73
     1
 74
     1
 75
     0
 76
     0
 77
     0
 78
     7
170
     0
171
     2
172
     0
173
     0
174
     0
175
     0
176
   256
177
   256
178
     2
  0
DIMSTYLE
  2
AM_ANSI$7
 70
     0
  3

  4
mm
  5

  6

  7

 40
1.0
 41
0.1
 42
0.05
 43
0.5
 44
0.1
 45
0.0
 46
0.0
 47
0.1
 48
0.1
140
0.24
141
0.0
142
0.0
143
25.399999999999999
144
1.0
145
0.0
146
0.71
147
0.06
 71
     0
 72
     0
 73
     1
 74
     1
 75
     0
 76
     0
 77
     0
 78
     7
170
     0
171
     2
172
     0
173
     0
174
     0
175
     0
176
   256
177
   256
178
     2
  0
DIMSTYLE
  2
AM_ANSI$SF
 70
     0
  3

  4
mm
  5

  6

  7

 40
1.0
 41
0.1
 42
0.05
 43
0.5
 44
0.1
 45
0.0
 46
0.0
 47
0.1
 48
0.1
140
0.12
141
0.0
142
0.0
143
25.399999999999999
144
1.0
145
0.0
146
0.71
147
0.06
 71
     0
 72
     0
 73
     1
 74
     1
 75
     1
 76
     1
 77
     0
 78
     7
170
     0
171
     2
172
     0
173
     0
174
     0
175
     0
176
   256
177
   256
178
     2
  0
DIMSTYLE
  2
AM_ANSI$SH
 70
     0
  3

  4
mm
  5

  6

  7

 40
1.0
 41
0.1
 42
0.05
 43
0.5
 44
0.1
 45
0.0
 46
0.0
 47
0.1
 48
0.1
140
0.12
141
0.0
142
0.0
143
25.399999999999999
144
1.0
145
0.0
146
0.71
147
0.06
 71
     0
 72
     0
 73
     1
 74
     1
 75
     1
 76
     1
 77
     0
 78
     7
170
     0
171
     2
172
     0
173
     1
174
     0
175
     0
176
   256
177
   256
178
     2
  0
ENDTAB
  0
ENDSEC
  0
SECTION
  2
BLOCKS
  0
BLOCK
  8
0
  2
$MODEL_SPACE
 70
     0
 10
0.0
 20
0.0
 30
0.0
  3
$MODEL_SPACE
  1

  0
ENDBLK
  5
33C2
  8
0
  0
BLOCK
 67
     1
  8
0
  2
$PAPER_SPACE
 70
     0
 10
0.0
 20
0.0
 30
0.0
  3
$PAPER_SPACE
  1

  0
ENDBLK
  5
33BE
 67
     1
  8
0
  0
BLOCK
  8
0
  2
GENAXEH
 70
     0
 10
0.0
 20
0.0
 30
0.0
  3
GENAXEH
  1

  0
LINE
  5
3104
  8
0
 10
-1.0
 20
0.0
 30
0.0
 11
1.0
 21
0.0
 31
0.0
  0
ENDBLK
  5
3105
  8
0
  0
BLOCK
  8
0
  2
_OPEN30
 70
     0
 10
0.0
 20
0.0
 30
0.0
  3
_OPEN30
  1

  0
LINE
  5
3108
  8
0
 62
     0
 10
-1.0
 20
0.26794919
 30
0.0
 11
0.0
 21
0.0
 31
0.0
  0
LINE
  5
3109
  8
0
 62
     0
 10
0.0
 20
0.0
 30
0.0
 11
-1.0
 21
-0.26794919
 31
0.0
  0
LINE
  5
310A
  8
0
 62
     0
 10
0.0
 20
0.0
 30
0.0
 11
-1.0
 21
0.0
 31
0.0
  0
ENDBLK
  5
310B
  8
0
  0
BLOCK
  8
0
  2
_NONE
 70
     0
 10
0.0
 20
0.0
 30
0.0
  3
_NONE
  1

  0
ENDBLK
  5
310E
  8
0
  0
BLOCK
  8
0
  2
_ACMFILLEDHALF
 70
     0
 10
0.0
 20
0.0
 30
0.0
  3
_ACMFILLEDHALF
  1

  0
TRACE
  5
34B8
  8
AM_0
 62
     0
 10
-0.8
 20
0.0
 30
0.0
 11
-1.0
 21
0.166666666
 31
0.0
 12
0.0
 22
0.0
 32
0.0
 13
0.0
 23
0.0
 33
0.0
  0
LINE
  5
34B9
  8
AM_0
 62
     0
 10
-1.0
 20
0.0
 30
0.0
 11
-0.8
 21
0.0
 31
0.0
  0
ENDBLK
  5
34B7
  8
0
  0
ENDSEC
  0
SECTION
  2
ENTITIES
  0
LINE
  5
3110
  8
AM_0
 10
665.13097323006377
 20
871.22389160239038
 30
0.0
 11
721.13094323006362
 21
871.22389160239038
 31
0.0
  0
LINE
  5
3111
  8
AM_0
 10
665.13097323006377
 20
859.22389160239095
 30
0.0
 11
721.13094323006362
 21
859.22389160239095
 31
0.0
  0
LINE
  5
3112
  8
AM_0
 10
651.13097323006355
 20
844.2239516023908
 30
0.0
 11
721.13094323006362
 21
844.2239516023908
 31
0.0
  0
LINE
  5
3113
  8
AM_0
 10
651.13097323006355
 20
886.2239516023908
 30
0.0
 11
721.13094323006362
 21
886.2239516023908
 31
0.0
  0
LINE
  5
3114
  8
ﾁｭｳｼﾝｾﾝ1
 10
314.45484173545742
 20
865.22395160239068
 30
0.0
 11
732.64491323006393
 21
865.22395160239068
 31
0.0
  0
LINE
  5
3115
  8
AM_0
 10
382.63097323006372
 20
908.08253160239076
 30
0.0
 11
445.02452323006372
 21
908.08253160239076
 31
0.0
  0
LINE
  5
3116
  8
AM_0
 10
382.63097323006372
 20
822.90120160239076
 30
0.0
 11
444.81798323006359
 21
822.90120160239076
 31
0.0
  0
LINE
  5
3117
  8
AM_0
 10
367.63097323006372
 20
813.72359160239091
 30
0.0
 11
448.70555323006369
 21
813.72359160239091
 31
0.0
  0
LINE
  5
3118
  8
AM_0
 10
367.63097323006372
 20
916.7239516023908
 30
0.0
 11
448.70531323006372
 21
916.7239516023908
 31
0.0
  0
LINE
  5
3119
  8
AM_0
 10
454.73564323006372
 20
847.70601160239028
 30
0.0
 11
385.5262932300638
 21
850.12288160239075
 31
0.0
  0
LINE
  5
311A
  8
AM_0
 10
454.73564323006372
 20
882.74190160239084
 30
0.0
 11
385.52623323006372
 21
880.32503160239071
 31
0.0
  0
LINE
  5
311B
  8
AM_0
 10
454.73570323006362
 20
932.26570160239078
 30
0.0
 11
367.63103323006379
 21
929.2239516023908
 31
0.0
  0
LINE
  5
311C
  8
AM_0
 10
454.73564323006372
 20
798.18220160239059
 30
0.0
 11
367.63097323006372
 21
801.22395160239068
 31
0.0
  0
ARC
  5
311D
  8
AM_0
 10
385.63097323006372
 20
853.12099160239075
 30
0.0
 40
3.0
 50
180.00001000000091
 51
267.99999999999631
  0
LINE
  5
311E
  8
AM_0
 10
382.63097323006372
 20
822.90120160239076
 30
0.0
 11
382.63097323006372
 21
908.08253160239076
 31
0.0
  0
LINE
  5
311F
  8
AM_0
 10
367.63097323006372
 20
801.22395160239068
 30
0.0
 11
367.63097323006372
 21
929.2239516023908
 31
0.0
  0
LINE
  5
3120
  8
AM_0
 10
367.63097323006372
 20
827.1690216023909
 30
0.0
 11
382.63097323006372
 21
827.1690216023909
 31
0.0
  0
ARC
  5
3121
  8
AM_0
 10
385.63097323006372
 20
877.32686160239075
 30
0.0
 40
3.0
 50
91.999998000000545
 51
180.00001000000091
  0
LINE
  5
3122
  8
AM_0
 10
367.63097323006372
 20
904.08321160239052
 30
0.0
 11
382.63097323006372
 21
904.08321160239052
 31
0.0
  0
LINE
  5
3123
  8
AM_0
 10
457.63097323006372
 20
794.97017160239091
 30
0.0
 11
457.63097323006372
 21
935.4776816023907
 31
0.0
  0
LINE
  5
3124
  8
AM_0
 10
467.63084323006359
 20
791.72389160239072
 30
0.0
 11
467.63084323006359
 21
938.72395160239091
 31
0.0
  0
LINE
  5
3125
  8
AM_0
 10
544.13097323006355
 20
815.65938160239079
 30
0.0
 11
544.13097323006355
 21
914.78847160239081
 31
0.0
  0
LINE
  5
3126
  8
AM_0
 10
619.13097323006377
 20
774.2239516023908
 30
0.0
 11
619.13097323006377
 21
956.22395160239068
 31
0.0
  0
LINE
  5
3127
  8
AM_0
 10
647.13097323006355
 20
904.98128160239071
 30
0.0
 11
647.13097323006355
 21
831.46657160239079
 31
0.0
  0
LINE
  5
3128
  8
AM_0
 10
529.13097323006366
 20
725.48592160239059
 30
0.0
 11
529.13097323006366
 21
861.22389160239072
 31
0.0
  0
LINE
  5
3129
  8
AM_0
 10
641.13097323006377
 20
951.10451160239074
 30
0.0
 11
641.13097323006377
 21
779.34334160239075
 31
0.0
  0
LINE
  5
312A
  8
AM_0
 10
651.13097323006355
 20
842.7239516023908
 30
0.0
 11
651.13097323006355
 21
887.72395160239068
 31
0.0
  0
LINE
  5
312B
  8
AM_0
 10
516.13084323006365
 20
729.01411160239093
 30
0.0
 11
516.13084323006365
 21
855.6845216023903
 31
0.0
  0
LINE
  5
312C
  8
AM_0
 10
502.13097323006372
 20
751.1159216023907
 30
0.0
 11
502.13097323006372
 21
861.22389160239072
 31
0.0
  0
POLYLINE
  5
312D
  8
AM_0
 66
     1
 10
0.0
 20
0.0
 30
0.0
  0
VERTEX
  5
312E
  8
AM_0
 10
549.06066323006371
 20
785.49240160239071
 30
0.0
 42
0.11075717
  0
VERTEX
  5
312F
  8
AM_0
 10
561.94160323006372
 20
795.4001816023906
 30
0.0
 42
0.20375769
  0
VERTEX
  5
3130
  8
AM_0
 10
564.19933323006364
 20
803.0656516023904
 30
0.0
  0
VERTEX
  5
3131
  8
AM_0
 10
549.42953323006361
 20
821.98080160239044
 30
0.0
 42
-1.0
  0
SEQEND
  5
3132
  8
AM_0
  0
ARC
  5
3133
  8
AM_0
 10
549.69163323006399
 20
735.94191160239075
 30
0.0
 40
10.0
 50
272.00000000000369
 51
316.51703999999847
  0
LINE
  5
3134
  8
AM_0
 10
546.06120323006371
 20
742.66444160239075
 30
0.0
 11
570.66417323006362
 21
743.52364160239074
 31
0.0
  0
LINE
  5
3135
  8
AM_0
 10
534.13090323006372
 20
725.22389160239072
 30
0.0
 11
643.27049323006361
 21
729.03517160239073
 31
0.0
  0
CIRCLE
  5
3136
  8
AM_0
 10
476.13097323006372
 20
750.2239516023908
 30
0.0
 40
9.5
  0
LINE
  5
3137
  8
AM_0
 10
467.63090323006338
 20
791.72389160239072
 30
0.0
 11
497.30547323006368
 21
790.68764160239073
 31
0.0
  0
LINE
  5
3138
  8
AM_0
 10
467.63097323006338
 20
825.74922160239089
 30
0.0
 11
502.13097323006372
 21
825.74922160239089
 31
0.0
  0
LINE
  5
3139
  8
AM_0
 10
467.63097323006338
 20
803.64528160239058
 30
0.0
 11
502.13097323006372
 21
803.64528160239058
 31
0.0
  0
LINE
  5
313A
  8
AM_0
 10
458.92155323006358
 20
729.16548160239074
 30
0.0
 11
534.13090323006372
 21
725.2239516023908
 31
0.0
  0
LINE
  5
313B
  8
AM_0
 10
458.78233323006361
 20
773.63179160239042
 30
0.0
 11
502.13097323006372
 21
777.4242716023906
 31
0.0
  0
LINE
  5
313C
  8
AM_0
 10
455.13097323006338
 20
733.15999160239073
 30
0.0
 11
455.13097323006338
 21
769.64699160239059
 31
0.0
  0
ARC
  5
313D
  8
AM_0
 10
459.13097323006338
 20
733.15999160239073
 30
0.0
 40
4.0
 50
180.00001000000091
 51
266.99999000000008
  0
ARC
  5
313E
  8
AM_0
 10
459.13097323006338
 20
769.64699160239059
 30
0.0
 40
4.0
 50
95.00000199999856
 51
180.00001000000091
  0
POLYLINE
  5
313F
  8
AM_0
 66
     1
 10
0.0
 20
0.0
 30
0.0
  0
VERTEX
  5
3140
  8
AM_0
 10
457.63097323006372
 20
797.2239516023908
 30
0.0
  0
VERTEX
  5
3141
  8
AM_0
 10
437.89454323006368
 20
848.29394160239053
 30
0.0
 42
-1.0
  0
SEQEND
  5
3142
  8
AM_0
  0
ARC
  5
3143
  8
AM_0
 10
454.6309732300636
 20
795.1839716023909
 30
0.0
 40
3.0
 50
0.0
 51
87.999999999996248
  0
LINE
  5
3144
  8
AM_0
 10
467.63090323006338
 20
791.72389160239072
 30
0.0
 11
460.5262932300638
 21
791.97200160239072
 31
0.0
  0
ARC
  5
3145
  8
AM_0
 10
460.63097323006372
 20
794.97017160239091
 30
0.0
 40
3.0
 50
180.00001000000091
 51
267.99999999999631
  0
LINE
  5
3146
  8
AM_0
 10
467.63097323006338
 20
803.64528160239058
 30
0.0
 11
457.63097323006372
 21
803.64528160239058
 31
0.0
  0
ARC
  5
3147
  8
AM_0
 10
454.6309732300636
 20
844.70778160239058
 30
0.0
 40
3.0
 50
0.0
 51
87.999999999996248
  0
LINE
  5
3148
  8
AM_0
 10
467.63097323006338
 20
825.74922160239089
 30
0.0
 11
457.63097323006372
 21
825.74922160239089
 31
0.0
  0
LINE
  5
3149
  8
AM_0
 10
544.13097323006355
 20
738.5487816023907
 30
0.0
 11
544.13097323006355
 21
785.65816160239092
 31
0.0
  0
ARC
  5
314A
  8
AM_0
 10
519.13084323006365
 20
729.01411160239093
 30
0.0
 40
3.0
 50
180.00001000000091
 51
266.99999000000008
  0
ARC
  5
314B
  8
AM_0
 10
513.13097323006355
 20
743.59621160239044
 30
0.0
 40
3.0
 50
0.0
 51
79.999998000001099
  0
ARC
  5
314C
  8
AM_0
 10
518.13097323006355
 20
738.47896160239043
 30
0.0
 40
2.0
 50
179.9999899999988
 51
268.00000999999861
  0
LINE
  5
314D
  8
AM_0
 10
516.13090323006361
 20
735.47694160239075
 30
0.0
 11
508.75236323006362
 21
734.5526916023905
 31
0.0
  0
ARC
  5
314E
  8
AM_0
 10
508.13097323006372
 20
739.51399160239043
 30
0.0
 40
5.0
 50
180.00001000000091
 51
277.13983000000007
  0
LINE
  5
314F
  8
AM_0
 10
503.13097323006372
 20
727.82869160239079
 30
0.0
 11
503.13097323006372
 21
735.6774416023909
 31
0.0
  0
LINE
  5
3150
  8
AM_0
 10
504.60997323006359
 20
748.14491160239072
 30
0.0
 11
513.65190323006357
 21
746.55055160239078
 31
0.0
  0
ARC
  5
3151
  8
AM_0
 10
505.13097323006338
 20
751.09932160239089
 30
0.0
 40
3.0
 50
179.9999899999988
 51
260.00000000000119
  0
LINE
  5
3152
  8
AM_0
 10
529.13090323006372
 20
736.09358160239071
 30
0.0
 11
542.20079323006371
 21
736.55000160239069
 31
0.0
  0
LINE
  5
3153
  8
AM_0
 10
518.06114323006375
 20
736.48018160239042
 30
0.0
 11
529.13097323006366
 21
736.09358160239071
 31
0.0
  0
ARC
  5
3154
  8
AM_0
 10
542.13097323006355
 20
738.5487816023907
 30
0.0
 40
2.0
 50
272.00000000000369
 51
0.0
  0
LINE
  5
3155
  8
AM_0
 10
548.63097323006377
 20
728.9867716023906
 30
0.0
 11
548.63097323006377
 21
741.0191216023909
 31
0.0
  0
ARC
  5
3156
  8
AM_0
 10
546.13097323006355
 20
740.66573160239091
 30
0.0
 40
2.0
 50
91.999998000000545
 51
180.00001000000091
  0
ARC
  5
3157
  8
AM_0
 10
548.15904323006373
 20
787.27766160239094
 30
0.0
 40
2.0
 50
270.0
 51
296.80019999999712
  0
ARC
  5
3158
  8
AM_0
 10
497.13097323006372
 20
785.69069160239042
 30
0.0
 40
5.0
 50
0.0
 51
87.999999999996248
  0
LINE
  5
3159
  8
AM_0
 10
516.13084323006365
 20
813.65938160239068
 30
0.0
 11
542.13097323006355
 21
813.65938160239068
 31
0.0
  0
LINE
  5
315A
  8
AM_0
 10
516.13084323006365
 20
787.65816160239092
 30
0.0
 11
542.13097323006355
 21
787.65816160239092
 31
0.0
  0
LINE
  5
315B
  8
AM_0
 10
548.63097323006377
 20
787.65816160239092
 30
0.0
 11
548.63097323006377
 21
813.65938160239068
 31
0.0
  0
ARC
  5
315C
  8
AM_0
 10
542.13097323006355
 20
785.65816160239092
 30
0.0
 40
2.0
 50
0.0
 51
90.00000299999769
  0
ARC
  5
315D
  8
AM_0
 10
542.13097323006355
 20
815.65938160239079
 30
0.0
 40
2.0
 50
270.0
 51
0.0
  0
ARC
  5
315E
  8
AM_0
 10
547.6805332300637
 20
819.54335160239089
 30
0.0
 40
3.0
 50
54.348324000004709
 51
90.00000299999769
  0
ARC
  5
315F
  8
AM_0
 10
636.13097323006377
 20
784.02315160239073
 30
0.0
 40
5.0
 50
272.00000000000369
 51
0.0
  0
ARC
  5
3160
  8
AM_0
 10
591.13097323006377
 20
750.68013160239059
 30
0.0
 40
8.0
 50
272.00000000000369
 51
0.0
  0
LINE
  5
3161
  8
AM_0
 10
573.22130323006365
 20
742.04982160239069
 30
0.0
 11
591.4101432300638
 21
742.68501160239043
 31
0.0
  0
LINE
  5
3162
  8
AM_0
 10
556.9473732300637
 20
729.06050160239045
 30
0.0
 11
566.31456323006375
 21
738.93727160239075
 31
0.0
  0
ARC
  5
3163
  8
AM_0
 10
573.57030323006347
 20
732.05586160239091
 30
0.0
 40
10.0
 50
91.999998000000545
 51
136.5170399999985
  0
CIRCLE
  5
3164
  8
AM_0
 10
626.13097323006355
 20
750.2239516023908
 30
0.0
 40
9.5
  0
LINE
  5
3165
  8
AM_0
 10
599.13097323006377
 20
756.22395160239068
 30
0.0
 11
599.13097323006377
 21
750.68013160239059
 31
0.0
  0
LINE
  5
3166
  8
AM_0
 10
599.13097323006377
 20
732.67146160239042
 30
0.0
 11
599.13097323006377
 21
750.68013160239059
 31
0.0
  0
ARC
  5
3167
  8
AM_0
 10
604.13097323006366
 20
732.67146160239042
 30
0.0
 40
5.0
 50
180.00001000000091
 51
271.99999000000139
  0
ARC
  5
3168
  8
AM_0
 10
611.13097323006377
 20
774.2239516023908
 30
0.0
 40
8.0
 50
270.0
 51
0.0
  0
ARC
  5
3169
  8
AM_0
 10
609.13097323006355
 20
756.22395160239068
 30
0.0
 40
10.0
 50
90.00000299999769
 51
180.00001000000091
  0
LINE
  5
316A
  8
AM_0
 10
609.13097323006355
 20
766.2239516023908
 30
0.0
 11
611.13097323006377
 21
766.2239516023908
 31
0.0
  0
LINE
  5
316B
  8
AM_0
 10
626.45598323006379
 20
778.68227160239076
 30
0.0
 11
636.3054032300638
 21
779.02620160239076
 31
0.0
  0
ARC
  5
316C
  8
AM_0
 10
626.73509323006363
 20
770.68709160239075
 30
0.0
 40
8.0
 50
91.999998000000545
 51
167.22924999999881
  0
LINE
  5
316D
  8
AM_0
 10
647.13097323006355
 20
733.03273160239075
 30
0.0
 11
647.13097323006355
 21
772.41512160239074
 31
0.0
  0
ARC
  5
316E
  8
AM_0
 10
643.13097323006355
 20
733.03273160239075
 30
0.0
 40
4.0
 50
272.00000000000369
 51
0.0
  0
ARC
  5
316F
  8
AM_0
 10
643.13097323006355
 20
772.41512160239074
 30
0.0
 40
4.0
 50
0.0
 51
81.786789000000198
  0
ARC
  5
3170
  8
AM_0
 10
644.13097323006377
 20
779.34334160239075
 30
0.0
 40
3.0
 50
180.00001000000091
 51
261.78677999999701
  0
ARC
  5
3171
  8
AM_0
 10
644.13097323006377
 20
831.46657160239079
 30
0.0
 40
3.0
 50
315.0
 51
0.0
  0
ARC
  5
3172
  8
AM_0
 10
644.13097323006377
 20
822.98128160239071
 30
0.0
 40
3.0
 50
135.0
 51
180.00001000000091
  0
ARC
  5
3173
  8
AM_0
 10
644.13097323006377
 20
822.98128160239071
 30
0.0
 40
3.0
 50
135.0
 51
180.00001000000091
  0
ARC
  5
3174
  8
AM_0
 10
644.13097323006377
 20
831.46657160239079
 30
0.0
 40
3.0
 50
315.0
 51
0.0
  0
LINE
  5
3175
  8
AM_0
 10
642.00975323006355
 20
825.10262160239074
 30
0.0
 11
646.25236323006357
 21
829.34523160239075
 31
0.0
  0
LINE
  5
3176
  8
AM_0
 10
647.13097323006355
 20
842.7239516023908
 30
0.0
 11
651.13097323006355
 21
842.7239516023908
 31
0.0
  0
POLYLINE
  5
3177
  8
AM_0
 66
     1
 10
0.0
 20
0.0
 30
0.0
  0
VERTEX
  5
3178
  8
AM_0
 10
549.06066323006371
 20
944.95538160239073
 30
0.0
 42
-0.11075703
  0
VERTEX
  5
3179
  8
AM_0
 10
561.94163323006364
 20
935.04767160239089
 30
0.0
 42
-0.20375918
  0
VERTEX
  5
317A
  8
AM_0
 10
564.19933323006364
 20
927.38219160239089
 30
0.0
  0
VERTEX
  5
317B
  8
AM_0
 10
549.42953323006361
 20
908.46705160239071
 30
0.0
 42
-1.0
  0
SEQEND
  5
317C
  8
AM_0
  0
ARC
  5
317D
  8
AM_0
 10
549.69163323006399
 20
994.50594160239075
 30
0.0
 40
10.0
 50
43.482964999999631
 51
87.999999999996248
  0
LINE
  5
317E
  8
AM_0
 10
546.06114323006375
 20
987.78340160239031
 30
0.0
 11
570.66423323006381
 21
986.92421160239076
 31
0.0
  0
LINE
  5
317F
  8
AM_0
 10
534.13097323006355
 20
1005.22389160239
 30
0.0
 11
643.27055323006357
 21
1001.412671602391
 31
0.0
  0
CIRCLE
  5
3180
  8
AM_0
 10
476.13097323006372
 20
980.2239516023908
 30
0.0
 40
9.5
  0
ARC
  5
3181
  8
AM_0
 10
505.13097323006338
 20
979.34846160239078
 30
0.0
 40
3.0
 50
99.999999999998593
 51
180.00001000000091
  0
LINE
  5
3182
  8
AM_0
 10
516.13084323006365
 20
874.76332160239076
 30
0.0
 11
516.13084323006365
 21
1001.433671602389
 31
0.0
  0
LINE
  5
3183
  8
AM_0
 10
529.13097323006366
 20
869.22389160239072
 30
0.0
 11
529.13097323006366
 21
1004.96187160239
 31
0.0
  0
LINE
  5
3184
  8
AM_0
 10
544.13097323006355
 20
991.89906160239104
 30
0.0
 11
544.13097323006355
 21
944.78969160239069
 31
0.0
  0
LINE
  5
3185
  8
AM_0
 10
455.13097323006338
 20
997.28786160239031
 30
0.0
 11
455.13097323006338
 21
960.80086160239068
 31
0.0
  0
LINE
  5
3186
  8
AM_0
 10
458.78227323006371
 20
956.81606160239085
 30
0.0
 11
502.13090323006361
 21
953.02351160239084
 31
0.0
  0
LINE
  5
3187
  8
AM_0
 10
467.63097323006338
 20
938.72395160239091
 30
0.0
 11
497.30540323006369
 21
939.76021160239043
 31
0.0
  0
LINE
  5
3188
  8
AM_0
 10
467.63097323006338
 20
904.69856160239078
 30
0.0
 11
502.13097323006372
 21
904.69856160239078
 31
0.0
  0
LINE
  5
3189
  8
AM_0
 10
467.63097323006338
 20
926.8025716023908
 30
0.0
 11
502.13097323006372
 21
926.8025716023908
 31
0.0
  0
POLYLINE
  5
318A
  8
AM_0
 66
     1
 10
0.0
 20
0.0
 30
0.0
  0
VERTEX
  5
318B
  8
AM_0
 10
437.89450323006372
 20
882.15368160239075
 30
0.0
 42
-0.037107926
  0
VERTEX
  5
318C
  8
AM_0
 10
442.17270323006358
 20
899.99989160239079
 30
0.0
 42
-0.032389855
  0
VERTEX
  5
318D
  8
AM_0
 10
448.87518323006373
 20
917.08841160239069
 30
0.0
 42
-0.029578605
  0
VERTEX
  5
318E
  8
AM_0
 10
457.63097323006372
 20
933.22395160239068
 30
0.0
  0
SEQEND
  5
318F
  8
AM_0
  0
ARC
  5
3190
  8
AM_0
 10
454.6309732300636
 20
885.7400716023908
 30
0.0
 40
3.0
 50
272.00000000000369
 51
0.0
  0
LINE
  5
3191
  8
AM_0
 10
467.63097323006338
 20
904.69856160239078
 30
0.0
 11
457.63097323006372
 21
904.69856160239078
 31
0.0
  0
ARC
  5
3192
  8
AM_0
 10
454.6309732300636
 20
935.26387160239074
 30
0.0
 40
3.0
 50
272.00000000000369
 51
0.0
  0
LINE
  5
3193
  8
AM_0
 10
467.63097323006338
 20
926.8025716023908
 30
0.0
 11
457.63097323006372
 21
926.8025716023908
 31
0.0
  0
LINE
  5
3194
  8
AM_0
 10
467.63090323006338
 20
938.72395160239091
 30
0.0
 11
460.5262932300638
 21
938.47585160239043
 31
0.0
  0
ARC
  5
3195
  8
AM_0
 10
460.63097323006372
 20
935.4776816023907
 30
0.0
 40
3.0
 50
91.999998000000545
 51
180.00001000000091
  0
ARC
  5
3196
  8
AM_0
 10
459.13097323006338
 20
960.80086160239068
 30
0.0
 40
4.0
 50
180.00001000000091
 51
265.00001000000032
  0
LINE
  5
3197
  8
AM_0
 10
502.13097323006372
 20
869.22389160239072
 30
0.0
 11
502.13097323006372
 21
979.3650716023908
 31
0.0
  0
ARC
  5
3198
  8
AM_0
 10
513.13097323006355
 20
865.22395160239068
 30
0.0
 40
10.0
 50
203.5782699999985
 51
336.4217200000013
  0
ARC
  5
3199
  8
AM_0
 10
513.13097323006355
 20
865.22395160239068
 30
0.0
 40
10.0
 50
23.57803699999776
 51
156.42196000000081
  0
LINE
  5
319A
  8
AM_0
 10
496.63097323006338
 20
869.22389160239072
 30
0.0
 11
529.63097323006355
 21
869.22389160239072
 31
0.0
  0
LINE
  5
319B
  8
AM_0
 10
496.63097323006338
 20
861.22389160239072
 30
0.0
 11
529.63097323006355
 21
861.22389160239072
 31
0.0
  0
ARC
  5
319C
  8
AM_0
 10
496.63097323006338
 20
865.22389160239072
 30
0.0
 40
3.9999962
 50
90.00000299999769
 51
270.0
  0
ARC
  5
319D
  8
AM_0
 10
529.63097323006355
 20
865.22389160239072
 30
0.0
 40
3.9999962
 50
270.0
 51
90.00000299999769
  0
ARC
  5
319E
  8
AM_0
 10
547.6805332300637
 20
910.90450160239072
 30
0.0
 40
3.0
 50
270.0
 51
305.65166999999718
  0
ARC
  5
319F
  8
AM_0
 10
497.13097323006372
 20
944.75716160239074
 30
0.0
 40
5.0
 50
272.00000000000369
 51
0.0
  0
LINE
  5
31A0
  8
AM_0
 10
516.13084323006365
 20
942.78969160239069
 30
0.0
 11
542.13097323006355
 21
942.78969160239069
 31
0.0
  0
LINE
  5
31A1
  8
AM_0
 10
516.13084323006365
 20
916.7884716023907
 30
0.0
 11
542.13097323006355
 21
916.7884716023907
 31
0.0
  0
LINE
  5
31A2
  8
AM_0
 10
548.63097323006377
 20
942.78969160239069
 30
0.0
 11
548.63097323006377
 21
916.7884716023907
 31
0.0
  0
ARC
  5
31A3
  8
AM_0
 10
542.13097323006355
 20
914.78847160239081
 30
0.0
 40
2.0
 50
0.0
 51
90.00000299999769
  0
ARC
  5
31A4
  8
AM_0
 10
542.13097323006355
 20
944.78969160239069
 30
0.0
 40
2.0
 50
270.0
 51
0.0
  0
ARC
  5
31A5
  8
AM_0
 10
548.15904323006373
 20
943.17012160239085
 30
0.0
 40
2.0
 50
63.199809000002318
 51
90.00000299999769
  0
LINE
  5
31A6
  8
AM_0
 10
458.92155323006358
 20
1001.28236160239
 30
0.0
 11
534.13090323006372
 21
1005.22395160239
 31
0.0
  0
ARC
  5
31A7
  8
AM_0
 10
459.13097323006338
 20
997.28786160239031
 30
0.0
 40
4.0
 50
92.999999000001679
 51
180.00001000000091
  0
ARC
  5
31A8
  8
AM_0
 10
519.13084323006365
 20
1001.433671602389
 30
0.0
 40
3.0
 50
92.999999000001679
 51
180.00001000000091
  0
ARC
  5
31A9
  8
AM_0
 10
513.13097323006355
 20
986.8516416023906
 30
0.0
 40
3.0
 50
280.00001000000128
 51
0.0
  0
ARC
  5
31AA
  8
AM_0
 10
518.13097323006355
 20
991.96889160239084
 30
0.0
 40
2.0
 50
91.999998000000545
 51
180.00001000000091
  0
LINE
  5
31AB
  8
AM_0
 10
516.13090323006361
 20
994.97090160239043
 30
0.0
 11
508.75236323006362
 21
995.89516160239077
 31
0.0
  0
ARC
  5
31AC
  8
AM_0
 10
508.13097323006372
 20
990.93391160239071
 30
0.0
 40
5.0
 50
82.860167000000104
 51
180.00001000000091
  0
LINE
  5
31AD
  8
AM_0
 10
503.13097323006372
 20
1002.61916160239
 30
0.0
 11
503.13097323006372
 21
994.77040160239073
 31
0.0
  0
LINE
  5
31AE
  8
AM_0
 10
504.61003323006372
 20
982.30293160239069
 30
0.0
 11
513.65190323006357
 21
983.89729160239074
 31
0.0
  0
LINE
  5
31AF
  8
AM_0
 10
529.13090323006372
 20
994.35426160239035
 30
0.0
 11
542.20079323006371
 21
993.89784160239071
 31
0.0
  0
LINE
  5
31B0
  8
AM_0
 10
518.06120323006337
 20
993.9677316023907
 30
0.0
 11
529.13097323006366
 21
994.35432160239077
 31
0.0
  0
LINE
  5
31B1
  8
AM_0
 10
548.63097323006377
 20
989.50380160239069
 30
0.0
 11
548.63097323006377
 21
1001.457231602389
 31
0.0
  0
ARC
  5
31B2
  8
AM_0
 10
546.13097323006355
 20
989.78212160239036
 30
0.0
 40
2.0
 50
180.00001000000091
 51
267.99999999999631
  0
ARC
  5
31B3
  8
AM_0
 10
542.13097323006355
 20
991.89906160239104
 30
0.0
 40
2.0
 50
0.0
 51
87.999999999996248
  0
CIRCLE
  5
31B4
  8
AM_0
 10
626.13097323006355
 20
980.2239516023908
 30
0.0
 40
9.5
  0
LINE
  5
31B5
  8
AM_0
 10
599.13097323006377
 20
974.22395160239068
 30
0.0
 11
599.13097323006377
 21
979.76778160239076
 31
0.0
  0
LINE
  5
31B6
  8
ﾁｭｳｼﾝｾﾝ1
 10
626.13097323006355
 20
997.2239516023908
 30
0.0
 11
626.13097323006355
 21
963.2239516023908
 31
0.0
  0
LINE
  5
31B7
  8
AM_0
 10
647.13097323006355
 20
997.41512160239074
 30
0.0
 11
647.13097323006355
 21
958.03273160239075
 31
0.0
  0
ARC
  5
31B8
  8
AM_0
 10
636.13097323006377
 20
946.42470160239043
 30
0.0
 40
5.0
 50
0.0
 51
87.999999999996248
  0
ARC
  5
31B9
  8
AM_0
 10
611.13097323006377
 20
956.22395160239068
 30
0.0
 40
8.0
 50
0.0
 51
90.00000299999769
  0
ARC
  5
31BA
  8
AM_0
 10
609.13097323006355
 20
974.22395160239068
 30
0.0
 40
10.0
 50
180.00001000000091
 51
270.0
  0
LINE
  5
31BB
  8
AM_0
 10
609.13097323006355
 20
964.2239516023908
 30
0.0
 11
611.13097323006377
 21
964.2239516023908
 31
0.0
  0
LINE
  5
31BC
  8
AM_0
 10
626.45598323006379
 20
951.7656416023907
 30
0.0
 11
636.30547323006363
 21
951.4217116023907
 31
0.0
  0
ARC
  5
31BD
  8
AM_0
 10
626.73509323006363
 20
959.76076160239074
 30
0.0
 40
8.0
 50
192.7707500000011
 51
267.99999999999631
  0
ARC
  5
31BE
  8
AM_0
 10
665.13097323006377
 20
865.22389160239072
 30
0.0
 40
6.0000037999999991
 50
90.00000299999769
 51
270.0
  0
LINE
  5
31BF
  8
AM_0
 10
665.13097323006377
 20
871.22389160239038
 30
0.0
 11
665.13097323006377
 21
859.22389160239095
 31
0.0
  0
LINE
  5
31C0
  8
AM_0
 10
647.13097323006355
 20
887.72395160239068
 30
0.0
 11
651.13097323006355
 21
887.72395160239068
 31
0.0
  0
ARC
  5
31C1
  8
AM_0
 10
644.13097323006377
 20
913.46657160239079
 30
0.0
 40
3.0
 50
180.00001000000091
 51
225.0
  0
ARC
  5
31C2
  8
AM_0
 10
644.13097323006377
 20
904.98128160239071
 30
0.0
 40
3.0
 50
0.0
 51
44.999998000001611
  0
ARC
  5
31C3
  8
AM_0
 10
644.13097323006377
 20
904.98128160239071
 30
0.0
 40
3.0
 50
0.0
 51
45.000001000003799
  0
ARC
  5
31C4
  8
AM_0
 10
644.13097323006377
 20
913.46657160239079
 30
0.0
 40
3.0
 50
179.9999899999988
 51
225.0
  0
LINE
  5
31C5
  8
AM_0
 10
642.00969323006382
 20
911.34523160239075
 30
0.0
 11
646.25236323006357
 21
907.10255160239046
 31
0.0
  0
ARC
  5
31C6
  8
AM_0
 10
643.13097323006355
 20
958.03273160239075
 30
0.0
 40
4.0
 50
278.2132199999964
 51
0.0
  0
ARC
  5
31C7
  8
AM_0
 10
644.13097323006377
 20
951.10451160239074
 30
0.0
 40
3.0
 50
98.213209000002095
 51
180.00001000000091
  0
LINE
  5
31C8
  8
ﾁｭｳｼﾝｾﾝ1
 10
609.13097323006355
 20
980.2239516023908
 30
0.0
 11
643.13097323006355
 21
980.2239516023908
 31
0.0
  0
ARC
  5
31C9
  8
AM_0
 10
591.13097323006377
 20
979.76778160239076
 30
0.0
 40
8.0
 50
0.0
 51
87.999999999996248
  0
LINE
  5
31CA
  8
AM_0
 10
573.22130323006365
 20
988.3980316023908
 30
0.0
 11
591.4101432300638
 21
987.76283160239075
 31
0.0
  0
LINE
  5
31CB
  8
AM_0
 10
556.94743323006378
 20
1001.38728160239
 30
0.0
 11
566.31450323006356
 21
991.51057160239031
 31
0.0
  0
ARC
  5
31CC
  8
AM_0
 10
573.57030323006347
 20
998.39192160239077
 30
0.0
 40
10.0
 50
223.48296000000141
 51
267.99999999999631
  0
LINE
  5
31CD
  8
AM_0
 10
599.13097323006377
 20
997.77644160239072
 30
0.0
 11
599.13097323006377
 21
979.76778160239076
 31
0.0
  0
ARC
  5
31CE
  8
AM_0
 10
604.13097323006366
 20
997.77644160239072
 30
0.0
 40
5.0
 50
87.999999999996248
 51
180.00001000000091
  0
ARC
  5
31CF
  8
AM_0
 10
643.13097323006355
 20
997.41512160239074
 30
0.0
 40
4.0
 50
0.0
 51
87.999999999996248
  0
LINE
  5
31D0
  8
AM_0
 10
721.13094323006362
 20
844.2239516023908
 30
0.0
 11
721.13094323006362
 21
886.2239516023908
 31
0.0
  0
LINE
  5
31D1
  8
ﾁｭｳｼﾝｾﾝ1
 10
476.13097323006372
 20
997.2239516023908
 30
0.0
 11
476.13097323006372
 21
963.2239516023908
 31
0.0
  0
LINE
  5
31D2
  8
ﾁｭｳｼﾝｾﾝ1
 10
459.13097323006338
 20
980.2239516023908
 30
0.0
 11
493.13097323006372
 21
980.2239516023908
 31
0.0
  0
LINE
  5
31D3
  8
ﾁｭｳｼﾝｾﾝ1
 10
476.13097323006372
 20
767.2239516023908
 30
0.0
 11
476.13097323006372
 21
733.2239516023908
 31
0.0
  0
LINE
  5
31D4
  8
ﾁｭｳｼﾝｾﾝ1
 10
459.13097323006338
 20
750.2239516023908
 30
0.0
 11
493.13097323006372
 21
750.2239516023908
 31
0.0
  0
LINE
  5
31D5
  8
ﾁｭｳｼﾝｾﾝ1
 10
626.13097323006355
 20
767.2239516023908
 30
0.0
 11
626.13097323006355
 21
733.2239516023908
 31
0.0
  0
LINE
  5
31D6
  8
ﾁｭｳｼﾝｾﾝ1
 10
609.13097323006355
 20
750.2239516023908
 30
0.0
 11
643.13097323006355
 21
750.2239516023908
 31
0.0
  0
LINE
  5
31D7
  8
AM_0
 10
455.13094323006362
 20
305.75821146343662
 30
0.0
 11
647.13099323006361
 21
305.75821146343662
 31
0.0
  0
ARC
  5
31D8
  8
AM_0
 10
611.13094323006362
 20
384.35608146343668
 30
0.0
 40
8.0
 50
270.0
 51
0.0
  0
LINE
  5
31D9
  8
AM_0
 10
607.13099323006361
 20
330.75821146343662
 30
0.0
 11
643.13094323006362
 21
330.75821146343662
 31
0.0
  0
ARC
  5
31DA
  8
AM_0
 10
611.13094323006362
 20
556.60361146343655
 30
0.0
 40
8.0
 50
0.0
 51
88.000000000002785
  0
LINE
  5
31DB
  8
ﾁｭｳｼﾝｾﾝ1
 10
490.43444445373052
 20
480.75821646343661
 30
0.0
 11
729.07534323006325
 21
480.75821646343661
 31
0.0
  0
ARC
  5
31DC
  8
AM_0
 10
447.3685932300636
 20
454.04822146343668
 30
0.0
 40
4.000000049999997
 50
315.0
 51
90.00000299999769
  0
LINE
  5
31DD
  8
AM_0
 10
457.63094323006368
 20
371.83594146343648
 30
0.0
 11
457.63094323006368
 21
513.50455146343666
 31
0.0
  0
LINE
  5
31DE
  8
AM_0
 10
467.63094323006362
 20
368.75824646343659
 30
0.0
 11
467.63094323006362
 21
516.7582614634365
 31
0.0
  0
LINE
  5
31DF
  8
AM_0
 10
367.63089323006358
 20
342.54822146343662
 30
0.0
 11
367.63089323006358
 21
470.54822146343668
 31
0.0
  0
LINE
  5
31E0
  8
AM_0
 10
516.13094323006362
 20
347.53241146343652
 30
0.0
 11
516.13094323006362
 21
570.37291146343648
 31
0.0
  0
LINE
  5
31E1
  8
AM_0
 10
502.13099323006372
 20
331.31064146343653
 30
0.0
 11
502.13099323006372
 21
570.75821146343674
 31
0.0
  0
LINE
  5
31E2
  8
AM_0
 10
599.13094323006362
 20
514.93106146343655
 30
0.0
 11
599.13094323006362
 21
338.7582414634366
 31
0.0
  0
LINE
  5
31E3
  8
AM_0
 10
548.63094323006362
 20
455.24603646343672
 30
0.0
 11
548.63094323006362
 21
428.13388646343662
 31
0.0
  0
LINE
  5
31E4
  8
AM_0
 10
549.52759323006364
 20
463.24576146343668
 30
0.0
 11
561.66624323006374
 21
449.33237146343657
 31
0.0
  0
LINE
  5
31E5
  8
AM_0
 10
529.13094323006362
 20
364.30661646343668
 30
0.0
 11
529.13094323006362
 21
572.75821146343674
 31
0.0
  0
LINE
  5
31E6
  8
0
 10
323.63089930973757
 20
486.5482754634366
 30
0.0
 11
323.63089930973757
 21
326.5482754634366
 31
0.0
  0
LINE
  5
31E7
  8
0
 10
333.63089930973757
 20
484.54827546343671
 30
0.0
 11
333.63089930973757
 21
328.5482754634366
 31
0.0
  0
LINE
  5
31E8
  8
0
  6
CONTINUOUS
 62
     7
 10
356.6308932300638
 20
468.5482754634366
 30
0.0
 11
356.6308932300638
 21
344.54827546343671
 31
0.0
  0
LINE
  5
31E9
  8
AM_0
 10
367.63089323006358
 20
444.5445314634365
 30
0.0
 11
443.52174323006358
 21
444.5445314634365
 31
0.0
  0
LINE
  5
31EA
  8
AM_0
 10
392.80539323006371
 20
375.50781646343643
 30
0.0
 11
454.63599323006378
 21
373.34863646343672
 31
0.0
  0
LINE
  5
31EB
  8
AM_0
 10
389.86219323006361
 20
347.94580646343672
 30
0.0
 11
456.98029323006381
 21
368.90424146343668
 31
0.0
  0
LINE
  5
31EC
  8
AM_0
 10
392.63089323006358
 20
413.5513364634366
 30
0.0
 11
457.63094323006368
 21
413.5513364634366
 31
0.0
  0
LINE
  5
31ED
  8
ﾁｭｳｼﾝｾﾝ1
 10
499.92332887797181
 20
406.54822146343662
 30
0.0
 11
314.45484173545742
 21
406.54822146343662
 31
0.0
  0
LINE
  5
31EE
  8
AM_0
 10
387.63089323006358
 20
408.5513364634366
 30
0.0
 11
387.63089323006358
 21
347.10938146343648
 31
0.0
  0
ARC
  5
31EF
  8
0
 10
338.63089930973757
 20
343.5482754634366
 30
0.0
 40
5.0
 50
90.0
 51
180.0
1001
GENIUS_GENOBJ-N-FIL_13
1002
{
1000
OWNER
1000
GEN
1002
}
1001
GENIUS_GENODEF_13
1002
{
1000
HIER
1070
     0
1002
}
1002
{
1000
MANEDIT
1070
     0
1002
}
1002
{
1000
NOSEL
1070
     0
1002
}
1002
{
1000
BEHIND
1070
     0
1002
}
1002
{
1000
OTHER
1070
     0
1002
}
1002
{
1000
REACTOR
1002
}
  0
ARC
  5
31F0
  8
0
 10
331.63089930973757
 20
328.5482754634366
 30
0.0
 40
2.0
 50
270.0
 51
0.0
1001
GENIUS_GENODEF_13
1002
{
1000
HIER
1070
     0
1002
}
1002
{
1000
MANEDIT
1070
     0
1002
}
1002
{
1000
NOSEL
1070
     0
1002
}
1002
{
1000
BEHIND
1070
     0
1002
}
1002
{
1000
OTHER
1070
     0
1002
}
1002
{
1000
REACTOR
1002
}
1001
GENIUS_GENOBJ-N-FIL_13
1002
{
1000
OWNER
1000
GEN
1002
}
  0
LINE
  5
31F1
  8
0
 10
323.63089930973757
 20
326.5482754634366
 30
0.0
 11
331.63089930973757
 21
326.5482754634366
 31
0.0
  0
ARC
  5
31F2
  8
AM_0
 10
383.63089323006369
 20
347.10938146343648
 30
0.0
 40
4.000000049999997
 50
271.9999999999971
 51
0.0
  0
ARC
  5
31F3
  8
AM_0
 10
391.05444323006373
 20
344.12766146343671
 30
0.0
 40
4.000000049999997
 50
107.34160999999879
 51
158.11661000000231
  0
LINE
  5
31F4
  8
0
 10
367.6308932300638
 20
342.5482754634366
 30
0.0
 11
358.6308932300638
 21
342.5482754634366
 31
0.0
  0
ARC
  5
31F5
  8
0
 10
358.6308932300638
 20
344.54827546343671
 30
0.0
 40
2.0
 50
180.0
 51
270.0
1001
GENIUS_GENODEF_13
1002
{
1000
HIER
1070
     0
1002
}
1002
{
1000
MANEDIT
1070
     0
1002
}
1002
{
1000
NOSEL
1070
     0
1002
}
1002
{
1000
BEHIND
1070
     0
1002
}
1002
{
1000
OTHER
1070
     0
1002
}
1002
{
1000
REACTOR
1002
}
1001
GENIUS_GENOBJ-N-FIL_13
1002
{
1000
OWNER
1000
GEN
1002
}
  0
LINE
  5
31F6
  8
AM_0
 10
367.63099323006372
 20
342.54819146343652
 30
0.0
 11
383.77054323006371
 21
343.11182146343663
 31
0.0
  0
LINE
  5
31F7
  8
AM_0
 10
367.6308932300638
 20
369.40034046343652
 30
0.0
 11
356.6308932300638
 21
369.40034046343652
 31
0.0
  0
LINE
  5
31F8
  8
AM_0
 10
367.6308932300638
 20
355.04825946343652
 30
0.0
 11
356.6308932300638
 21
355.04825946343652
 31
0.0
  0
LINE
  5
31F9
  8
0
 10
354.6308932300638
 20
348.54827546343671
 30
0.0
 11
338.63089930973757
 21
348.54827546343671
 31
0.0
  0
ARC
  5
31FA
  8
0
 10
354.6308932300638
 20
346.54827546343671
 30
0.0
 40
2.0
 50
0.0
 51
90.0
1001
GENIUS_GENODEF_13
1002
{
1000
HIER
1070
     0
1002
}
1002
{
1000
MANEDIT
1070
     0
1002
}
1002
{
1000
NOSEL
1070
     0
1002
}
1002
{
1000
BEHIND
1070
     0
1002
}
1002
{
1000
OTHER
1070
     0
1002
}
1002
{
1000
REACTOR
1002
}
1001
GENIUS_GENOBJ-N-FIL_13
1002
{
1000
OWNER
1000
GEN
1002
}
  0
LINE
  5
31FB
  8
AM_0
 10
367.63089323006358
 20
355.04822146343668
 30
0.0
 11
387.63089323006358
 21
355.04822146343668
 31
0.0
  0
LINE
  5
31FC
  8
AM_0
 10
367.63089323006358
 20
368.55191646343673
 30
0.0
 11
387.63089323006358
 21
368.55191646343673
 31
0.0
  0
ARC
  5
31FD
  8
AM_0
 10
392.63089323006358
 20
370.51086646343668
 30
0.0
 40
5.0
 50
88.000000000002785
 51
180.00001000000091
  0
POINT
  5
31FE
  8
AM_0
 10
367.63089323006358
 20
406.54822146343662
 30
0.0
  0
ARC
  5
31FF
  8
AM_0
 10
392.63089323006358
 20
408.5513364634366
 30
0.0
 40
5.0
 50
90.00000299999769
 51
180.00001000000091
  0
LINE
  5
3200
  8
AM_0
 10
367.6308932300638
 20
443.6961954634366
 30
0.0
 11
356.6308932300638
 21
443.6961954634366
 31
0.0
  0
LINE
  5
3201
  8
AM_0
 10
455.13094323006362
 20
326.75824146343649
 30
0.0
 11
455.13094323006362
 21
305.75821146343662
 31
0.0
  0
LINE
  5
3202
  8
ﾁｭｳｼﾝｾﾝ1
 10
476.13094323006339
 20
335.26611646343662
 30
0.0
 11
476.13094323006339
 21
300.86658146343649
 31
0.0
  0
LINE
  5
3203
  8
ｶｸﾚｾﾝ2
 10
485.63094323006362
 20
330.75821146343662
 30
0.0
 11
485.63094323006362
 21
305.75821146343662
 31
0.0
  0
LINE
  5
3204
  8
ｶｸﾚｾﾝ2
 10
466.63094323006362
 20
330.75821146343662
 30
0.0
 11
466.63094323006362
 21
305.75821146343662
 31
0.0
  0
ARC
  5
3205
  8
AM_0
 10
499.20964323006382
 20
338.7582414634366
 30
0.0
 40
8.0
 50
270.0
 51
322.22431999999588
  0
LINE
  5
3206
  8
AM_0
 10
459.13094323006362
 20
330.75821146343662
 30
0.0
 11
499.20964323006382
 21
330.75821146343662
 31
0.0
  0
ARC
  5
3207
  8
AM_0
 10
459.13094323006362
 20
326.75824146343649
 30
0.0
 40
4.000000049999997
 50
90.00000299999769
 51
180.00001000000091
  0
LINE
  5
3208
  8
AM_0
 10
457.63094323006368
 20
379.75821146343668
 30
0.0
 11
502.13099323006372
 21
379.75821146343668
 31
0.0
  0
LINE
  5
3209
  8
AM_0
 10
475.36944323006361
 20
360.01862146343672
 30
0.0
 11
499.39239323006382
 21
357.91687646343672
 31
0.0
  0
LINE
  5
320A
  8
AM_0
 10
472.63094323006362
 20
363.0072064634366
 30
0.0
 11
472.63094323006362
 21
379.75821146343668
 31
0.0
  0
ARC
  5
320B
  8
AM_0
 10
475.63094323006362
 20
363.0072064634366
 30
0.0
 40
3.0000000500000001
 50
179.9999899999988
 51
264.99999999999989
  0
LINE
  5
320C
  8
AM_0
 10
458.31214323006378
 20
369.08365146343652
 30
0.0
 11
467.63099323006372
 21
368.75821146343668
 31
0.0
  0
ARC
  5
320D
  8
AM_0
 10
461.63094323006362
 20
372.97018646343668
 30
0.0
 40
4.000000049999997
 50
206.8969399999992
 51
268.00000000000261
  0
ARC
  5
320E
  8
AM_0
 10
454.4963932300638
 20
369.35107646343653
 30
0.0
 40
4.000000049999997
 50
26.89693700000354
 51
88.000000000002785
  0
ARC
  5
320F
  8
AM_0
 10
458.17254323006381
 20
365.08606146343652
 30
0.0
 40
4.000000049999997
 50
88.000000000002785
 51
107.34160999999879
  0
ARC
  5
3210
  8
AM_0
 10
469.63099323006361
 20
366.1865564634366
 30
0.0
 40
3.0000000500000001
 50
0.0
 51
88.000000000002785
  0
LINE
  5
3211
  8
AM_0
 10
467.63084323006359
 20
369.25821146343668
 30
0.0
 11
469.73559323006373
 21
369.18472646343668
 31
0.0
  0
ARC
  5
3212
  8
AM_0
 10
499.13094323006362
 20
354.9283164634366
 30
0.0
 40
3.0000000500000001
 50
0.0
 51
84.999996999998885
  0
LINE
  5
3213
  8
AM_0
 10
443.52174323006358
 20
444.5445314634365
 30
0.0
 11
457.63094323006368
 21
417.36240146343653
 31
0.0
  0
LINE
  5
3214
  8
AM_0
 10
443.52179323006379
 20
444.54447146343659
 30
0.0
 11
450.19709323006367
 21
451.21973146343657
 31
0.0
  0
LINE
  5
3215
  8
AM_0
 10
457.63094323006368
 20
403.93814646343668
 30
0.0
 11
502.13099323006372
 21
403.93814646343668
 31
0.0
  0
LINE
  5
3216
  8
AM_0
 10
534.13094323006362
 20
416.5701364634366
 30
0.0
 11
534.13094323006362
 21
370.75821146343668
 31
0.0
  0
LINE
  5
3217
  8
AM_0
 10
533.08299323006372
 20
369.40604146343668
 30
0.0
 11
505.53294323006361
 21
333.85764146343661
 31
0.0
  0
ARC
  5
3218
  8
AM_0
 10
529.13094323006362
 20
372.46890646343672
 30
0.0
 40
5.0
 50
322.22431999999588
 51
0.0
  0
ARC
  5
3219
  8
AM_0
 10
607.13099323006361
 20
338.7582414634366
 30
0.0
 40
8.0
 50
180.00001000000091
 51
270.0
  0
LINE
  5
321A
  8
AM_0
 10
611.13094323006362
 20
376.35608146343668
 30
0.0
 11
602.61419323006362
 21
376.35608146343668
 31
0.0
  0
ARC
  5
321B
  8
AM_0
 10
554.13094323006362
 20
442.75821646343661
 30
0.0
 40
10.0
 50
306.82303999999999
 51
41.102821999997772
  0
LINE
  5
321C
  8
AM_0
 10
544.13094323006362
 20
423.14789146343662
 30
0.0
 11
544.13094323006362
 21
416.5701364634366
 31
0.0
  0
LINE
  5
321D
  8
AM_0
 10
534.13094323006362
 20
416.5701364634366
 30
0.0
 11
544.13094323006362
 21
416.5701364634366
 31
0.0
  0
LINE
  5
321E
  8
AM_0
 10
529.13094323006362
 20
426.1479214634366
 30
0.0
 11
541.13094323006362
 21
426.1479214634366
 31
0.0
  0
LINE
  5
321F
  8
AM_0
 10
516.13094323006362
 20
427.74643646343668
 30
0.0
 11
529.13094323006362
 21
427.74643646343668
 31
0.0
  0
ARC
  5
3220
  8
AM_0
 10
541.13094323006362
 20
423.14789146343662
 30
0.0
 40
3.0000000500000001
 50
0.0
 51
90.00000299999769
  0
LINE
  5
3221
  8
AM_0
 10
546.88859323006363
 20
424.84326646343652
 30
0.0
 11
560.12444323006355
 21
434.75324146343672
 31
0.0
  0
LINE
  5
3222
  8
AM_0
 10
367.63089323006358
 20
458.04822146343668
 30
0.0
 11
447.3685932300636
 21
458.04822146343668
 31
0.0
  0
LINE
  5
3223
  8
AM_0
 10
385.52629323006357
 20
507.52759646343662
 30
0.0
 11
453.77049323006372
 21
509.9107114634366
 31
0.0
  0
LINE
  5
3224
  8
AM_0
 10
387.4564932300637
 20
487.92670146343659
 30
0.0
 11
434.93779323006379
 21
489.58478146343663
 31
0.0
  0
ARC
  5
3225
  8
0
 10
338.63089930973757
 20
469.5482754634366
 30
0.0
 40
5.0
 50
180.0
 51
270.0
1001
GENIUS_GENOBJ-N-FIL_13
1002
{
1000
OWNER
1000
GEN
1002
}
1001
GENIUS_GENODEF_13
1002
{
1000
HIER
1070
     0
1002
}
1002
{
1000
MANEDIT
1070
     0
1002
}
1002
{
1000
NOSEL
1070
     0
1002
}
1002
{
1000
BEHIND
1070
     0
1002
}
1002
{
1000
OTHER
1070
     0
1002
}
1002
{
1000
REACTOR
1002
}
  0
LINE
  5
3226
  8
0
 10
323.63089930973757
 20
486.5482754634366
 30
0.0
 11
331.63089930973757
 21
486.5482754634366
 31
0.0
  0
ARC
  5
3227
  8
0
 10
331.63089930973757
 20
484.54827546343671
 30
0.0
 40
2.0
 50
0.0
 51
90.0
1001
GENIUS_GENODEF_13
1002
{
1000
HIER
1070
     0
1002
}
1002
{
1000
MANEDIT
1070
     0
1002
}
1002
{
1000
NOSEL
1070
     0
1002
}
1002
{
1000
BEHIND
1070
     0
1002
}
1002
{
1000
OTHER
1070
     0
1002
}
1002
{
1000
REACTOR
1002
}
1001
GENIUS_GENOBJ-N-FIL_13
1002
{
1000
OWNER
1000
GEN
1002
}
  0
LINE
  5
3228
  8
AM_0
 10
382.63089323006369
 20
504.52942646343672
 30
0.0
 11
382.63089323006369
 21
461.04825646343659
 31
0.0
  0
LINE
  5
3229
  8
AM_0
 10
367.6308932300638
 20
458.04828546343663
 30
0.0
 11
356.6308932300638
 21
458.04828546343663
 31
0.0
  0
LINE
  5
322A
  8
0
 10
367.6308932300638
 20
470.5482754634366
 30
0.0
 11
358.6308932300638
 21
470.5482754634366
 31
0.0
  0
LINE
  5
322B
  8
0
 10
354.6308932300638
 20
464.5482754634366
 30
0.0
 11
338.63089930973757
 21
464.5482754634366
 31
0.0
  0
ARC
  5
322C
  8
0
 10
354.6308932300638
 20
466.5482754634366
 30
0.0
 40
2.0
 50
270.0
 51
0.0
1001
GENIUS_GENODEF_13
1002
{
1000
HIER
1070
     0
1002
}
1002
{
1000
MANEDIT
1070
     0
1002
}
1002
{
1000
NOSEL
1070
     0
1002
}
1002
{
1000
BEHIND
1070
     0
1002
}
1002
{
1000
OTHER
1070
     0
1002
}
1002
{
1000
REACTOR
1002
}
1001
GENIUS_GENOBJ-N-FIL_13
1002
{
1000
OWNER
1000
GEN
1002
}
  0
ARC
  5
322D
  8
0
 10
358.6308932300638
 20
468.5482754634366
 30
0.0
 40
2.0
 50
90.0
 51
180.0
1001
GENIUS_GENODEF_13
1002
{
1000
HIER
1070
     0
1002
}
1002
{
1000
MANEDIT
1070
     0
1002
}
1002
{
1000
NOSEL
1070
     0
1002
}
1002
{
1000
BEHIND
1070
     0
1002
}
1002
{
1000
OTHER
1070
     0
1002
}
1002
{
1000
REACTOR
1002
}
1001
GENIUS_GENOBJ-N-FIL_13
1002
{
1000
OWNER
1000
GEN
1002
}
  0
ARC
  5
322E
  8
AM_0
 10
377.63089323006358
 20
475.90045646343651
 30
0.0
 40
5.0
 50
271.9999999999971
 51
0.0
  0
ARC
  5
322F
  8
AM_0
 10
379.63099323006372
 20
461.04825646343659
 30
0.0
 40
3.0000000500000001
 50
270.0
 51
0.0
  0
LINE
  5
3230
  8
AM_0
 10
367.63089323006358
 20
470.54819146343658
 30
0.0
 11
377.80539323006371
 21
470.90351146343659
 31
0.0
  0
ARC
  5
3231
  8
AM_0
 10
387.63089323006358
 20
482.9297564634366
 30
0.0
 40
5.0
 50
91.999998000000545
 51
180.00001000000091
  0
ARC
  5
3232
  8
AM_0
 10
385.63089323006358
 20
504.52942646343672
 30
0.0
 40
3.0000000500000001
 50
91.999998000000545
 51
180.00001000000091
  0
ARC
  5
3233
  8
AM_0
 10
513.13094323006362
 20
593.25821146343674
 30
0.0
 40
20.500000499999992
 50
304.61364000000231
 51
235.3863500000021
  0
CIRCLE
  5
3234
  8
AM_0
 10
513.13094323006362
 20
593.25821146343674
 30
0.0
 40
12.5
  0
LINE
  5
3235
  8
AM_0
 10
504.60994323006361
 20
559.83721146343669
 30
0.0
 11
513.65179323006373
 21
561.43156146343665
 31
0.0
  0
LINE
  5
3236
  8
AM_0
 10
502.80804323006367
 20
572.25826146343672
 30
0.0
 11
517.46364323006355
 21
572.25826146343672
 31
0.0
  0
ARC
  5
3237
  8
AM_0
 10
505.80909323006358
 20
578.38951146343675
 30
0.0
 40
1.0
 50
100.4607200000025
 51
164.99998999999869
  0
LINE
  5
3238
  8
AM_0
 10
437.62664323006379
 20
490.75391146343662
 30
0.0
 11
456.45939323006371
 21
509.58661646343631
 31
0.0
  0
ARC
  5
3239
  8
AM_0
 10
434.7981932300637
 20
493.58237146343652
 30
0.0
 40
4.000000049999997
 50
271.9999999999971
 51
315.0
  0
LINE
  5
323A
  8
AM_0
 10
436.51249323006368
 20
489.63980646343629
 30
0.0
 11
436.51249323006368
 21
458.04822146343668
 31
0.0
  0
LINE
  5
323B
  8
AM_0
 10
457.63094323006368
 20
481.57834646343667
 30
0.0
 11
502.13099323006372
 21
481.57834646343667
 31
0.0
  0
LINE
  5
323C
  8
AM_0
 10
457.63094323006368
 20
505.75821646343661
 30
0.0
 11
502.13099323006372
 21
505.75821646343661
 31
0.0
  0
LINE
  5
323D
  8
AM_0
 10
467.63094323006362
 20
516.25821146343662
 30
0.0
 11
497.3054432300637
 21
517.29446146343662
 31
0.0
  0
LINE
  5
323E
  8
AM_0
 10
461.37384323006358
 20
516.53971146343645
 30
0.0
 11
467.63094323006362
 21
516.75821146343685
 31
0.0
  0
ARC
  5
323F
  8
AM_0
 10
461.51344323006361
 20
512.54215146343665
 30
0.0
 40
4.000000049999997
 50
91.999998000000545
 51
170.16761999999659
  0
ARC
  5
3240
  8
AM_0
 10
453.63094323006362
 20
513.9082614634367
 30
0.0
 40
4.000000049999997
 50
271.9999999999971
 51
350.16760999999678
  0
ARC
  5
3241
  8
AM_0
 10
453.63094323006362
 20
512.41507646343655
 30
0.0
 40
4.000000049999997
 50
315.0
 51
0.0
  0
ARC
  5
3242
  8
AM_0
 10
497.13099323006372
 20
522.29146146343646
 30
0.0
 40
5.0
 50
271.9999999999971
 51
0.0
  0
ARC
  5
3243
  8
AM_0
 10
505.13094323006362
 20
556.8828114634365
 30
0.0
 40
3.0000000500000001
 50
99.999999999998593
 51
180.00001000000091
  0
ARC
  5
3244
  8
AM_0
 10
499.21394323006359
 20
573.09471146343662
 30
0.0
 40
4.000000049999997
 50
347.9293300000017
 51
55.386359000001512
  0
ARC
  5
3245
  8
AM_0
 10
504.13094323006362
 20
570.75821146343674
 30
0.0
 40
2.0000000500000001
 50
131.40962000000121
 51
180.00001000000091
  0
LINE
  5
3246
  8
AM_0
 10
503.13094323006362
 20
572.25821146343674
 30
0.0
 11
504.84314323006367
 21
578.64836146343669
 31
0.0
  0
ARC
  5
3247
  8
AM_0
 10
609.13094323006362
 20
514.93106146343655
 30
0.0
 40
10.0
 50
90.00000299999769
 51
180.00001000000091
  0
LINE
  5
3248
  8
AM_0
 10
544.13094323006362
 20
460.7699964634366
 30
0.0
 11
544.13094323006362
 21
544.08251146343673
 31
0.0
  0
LINE
  5
3249
  8
AM_0
 10
529.13094323006362
 20
457.76999646343671
 30
0.0
 11
541.13094323006362
 21
457.76999646343671
 31
0.0
  0
LINE
  5
324A
  8
AM_0
 10
516.13094323006362
 20
457.76999646343671
 30
0.0
 11
529.13094323006362
 21
457.76999646343671
 31
0.0
  0
ARC
  5
324B
  8
AM_0
 10
541.13094323006362
 20
460.7699964634366
 30
0.0
 40
3.0000000500000001
 50
270.0
 51
0.0
  0
ARC
  5
324C
  8
AM_0
 10
547.26694323006325
 20
461.2735064634366
 30
0.0
 40
3.0000000500000001
 50
41.102821999997772
 51
90.00000299999769
  0
LINE
  5
324D
  8
AM_0
 10
614.18919323006355
 20
524.93106146343655
 30
0.0
 11
609.13094323006362
 21
524.93106146343655
 31
0.0
  0
LINE
  5
324E
  8
AM_0
 10
546.06114323006375
 20
566.88076146343667
 30
0.0
 11
611.41009323006358
 21
564.59871146343664
 31
0.0
  0
ARC
  5
324F
  8
AM_0
 10
554.13094323006362
 20
550.57841146343662
 30
0.0
 40
10.0
 50
288.4682099999992
 51
59.833878000001903
  0
ARC
  5
3250
  8
AM_0
 10
513.13094323006362
 20
564.38596146343662
 30
0.0
 40
3.0000000500000001
 50
279.99999999999852
 51
0.0
  0
LINE
  5
3251
  8
AM_0
 10
548.63094323006362
 20
542.23386146343671
 30
0.0
 11
548.63094323006362
 21
563.40706146343666
 31
0.0
  0
LINE
  5
3252
  8
AM_0
 10
549.32994323006369
 20
564.93521146343664
 30
0.0
 11
559.15599323006381
 21
559.22411146343677
 31
0.0
  0
LINE
  5
3253
  8
AM_0
 10
529.13094323006362
 20
547.08251146343673
 30
0.0
 11
541.13094323006362
 21
547.08251146343673
 31
0.0
  0
LINE
  5
3254
  8
AM_0
 10
516.13094323006362
 20
547.08251146343673
 30
0.0
 11
529.13094323006362
 21
547.08251146343673
 31
0.0
  0
ARC
  5
3255
  8
AM_0
 10
541.13094323006362
 20
544.08251146343673
 30
0.0
 40
3.0000000500000001
 50
0.0
 51
90.00000299999769
  0
LINE
  5
3256
  8
AM_0
 10
545.49739323006384
 20
537.15201146343679
 30
0.0
 11
557.29874323006356
 21
541.09341146343672
 31
0.0
  0
ARC
  5
3257
  8
AM_0
 10
548.1432432300636
 20
541.19851146343672
 30
0.0
 40
3.0000000500000001
 50
270.0
 51
288.46821999999992
  0
LINE
  5
3258
  8
AM_0
 10
529.13094323006362
 20
565.34151146343675
 30
0.0
 11
547.82239323006365
 21
565.34151146343675
 31
0.0
  0
LINE
  5
3259
  8
AM_0
 10
529.13094323006362
 20
572.75821146343674
 30
0.0
 11
542.20074323006372
 21
572.30181146343671
 31
0.0
  0
LINE
  5
325A
  8
AM_0
 10
517.38689323006372
 20
564.00176146343665
 30
0.0
 11
544.13094323006362
 21
564.00176146343665
 31
0.0
  0
LINE
  5
325B
  8
AM_0
 10
513.13084323006365
 20
580.75826146343661
 30
0.0
 11
520.63429323006358
 21
579.37291146343648
 31
0.0
  0
LINE
  5
325C
  8
AM_0
 10
505.31379323006382
 20
579.2582614634365
 30
0.0
 11
520.94799323006373
 21
579.2582614634365
 31
0.0
  0
LINE
  5
325D
  8
AM_0
 10
516.13094323006362
 20
565.34151146343675
 30
0.0
 11
529.13094323006362
 21
565.34151146343675
 31
0.0
  0
LINE
  5
325E
  8
AM_0
 10
518.06114323006375
 20
572.37166146343645
 30
0.0
 11
529.13094323006362
 21
572.75821146343674
 31
0.0
  0
ARC
  5
325F
  8
AM_0
 10
518.13094323006351
 20
570.37291146343648
 30
0.0
 40
2.0000000500000001
 50
91.999998000000545
 51
180.00001000000091
  0
LINE
  5
3260
  8
AM_0
 10
505.62754323006379
 20
579.3729614634367
 30
0.0
 11
513.13099323006372
 21
580.75826146343661
 31
0.0
  0
ARC
  5
3261
  8
AM_0
 10
520.45284323006365
 20
578.38951146343675
 30
0.0
 40
1.0
 50
15.000000000000741
 51
79.539281000002006
  0
ARC
  5
3262
  8
AM_0
 10
527.04784323006356
 20
573.09471146343662
 30
0.0
 40
4.000000049999997
 50
124.6136499999977
 51
187.86825000000209
  0
LINE
  5
3263
  8
AM_0
 10
523.05379323006355
 20
572.54606146343644
 30
0.0
 11
521.41869323006335
 21
578.6483114634367
 31
0.0
  0
LINE
  5
3264
  8
AM_0
 10
527.13099323006372
 20
572.68841146343675
 30
0.0
 11
527.13099323006372
 21
572.75826146343661
 31
0.0
  0
LINE
  5
3265
  8
AM_0
 10
527.13099323006372
 20
572.75826146343661
 30
0.0
 11
529.13094323006362
 21
572.75826146343661
 31
0.0
  0
ARC
  5
3266
  8
AM_0
 10
546.13094323006362
 20
568.87956146343686
 30
0.0
 40
2.0000000500000001
 50
179.9999899999988
 51
268.00000999999861
  0
ARC
  5
3267
  8
AM_0
 10
542.13099323006372
 20
570.30301146343663
 30
0.0
 40
2.0000000500000001
 50
0.0
 51
88.000000000002785
  0
LINE
  5
3268
  8
AM_0
 10
544.13094323006362
 20
565.34151146343675
 30
0.0
 11
544.13094323006362
 21
570.30301146343663
 31
0.0
  0
ARC
  5
3269
  8
AM_0
 10
547.82239323006365
 20
562.34151146343675
 30
0.0
 40
3.0000000500000001
 50
59.833878000001903
 51
90.00000299999769
  0
LINE
  5
326A
  8
AM_0
 10
647.13099323006361
 20
480.75821646343661
 30
0.0
 11
647.13099323006361
 21
447.00086146343648
 31
0.0
  0
LINE
  5
326B
  8
AM_0
 10
619.13094323006362
 20
384.35608146343668
 30
0.0
 11
619.13094323006362
 21
556.60361146343655
 31
0.0
  0
LINE
  5
326C
  8
AM_0
 10
641.13094323006362
 20
480.75821646343661
 30
0.0
 11
641.13094323006362
 21
334.50421646343648
 31
0.0
  0
LINE
  5
326D
  8
AM_0
 10
1139.8195886455139
 20
449.82929146343662
 30
0.0
 11
1126.479713645514
 21
463.16916646343668
 31
0.0
  0
LINE
  5
326E
  8
AM_0
 10
865.67746364551454
 20
449.82923146343637
 30
0.0
 11
879.01736364551448
 21
463.16913646343659
 31
0.0
  0
LINE
  5
326F
  8
AM_0
 10
879.20356364551458
 20
458.14981646343659
 30
0.0
 11
862.78686364551425
 21
326.37634646343662
 31
0.0
  0
LINE
  5
3270
  8
AM_0
 10
908.74852364551464
 20
524.39306146343677
 30
0.0
 11
908.74852364551464
 21
408.74835646343661
 31
0.0
  0
LINE
  5
3271
  8
AM_0
 10
1126.2934636455141
 20
458.14981646343659
 30
0.0
 11
1142.710183645514
 21
326.3763764634366
 31
0.0
  0
LINE
  5
3272
  8
AM_0
 10
1096.7485286455139
 20
524.39306146343677
 30
0.0
 11
1096.7485286455139
 21
405.14359146343668
 31
0.0
  0
CIRCLE
  5
3273
  8
AM_0
 10
1002.7485286455141
 20
480.75821646343661
 30
0.0
 40
41.000000499999992
  0
ARC
  5
3274
  8
AM_0
 10
1002.7485286455141
 20
452.75821646343661
 30
0.0
 40
88.0
 50
0.0
 51
186.52497999999721
  0
LINE
  5
3275
  8
ﾁｭｳｼﾝｾﾝ1
 10
1002.7485286455141
 20
615.3008614634366
 30
0.0
 11
1002.7485286455141
 21
304.78863646343649
 31
0.0
  0
LINE
  5
3276
  8
AM_0
 10
1087.7485286455151
 20
305.75821146343662
 30
0.0
 11
1142.748543645514
 21
305.75821146343662
 31
0.0
  0
ARC
  5
3277
  8
AM_0
 10
1098.7485286455139
 20
338.7582414634366
 30
0.0
 40
8.0
 50
180.00001000000091
 51
270.0
  0
LINE
  5
3278
  8
ﾁｭｳｼﾝｾﾝ1
 10
882.60538372215592
 20
406.54822146343668
 30
0.0
 11
1122.8916735688731
 21
406.54822146343668
 31
0.0
  0
LINE
  5
3279
  8
AM_0
 10
862.74851364551455
 20
305.75821146343662
 30
0.0
 11
917.74852364551464
 21
305.75821146343662
 31
0.0
  0
LINE
  5
327A
  8
AM_0
 10
867.74851364551432
 20
330.75821146343662
 30
0.0
 11
910.04854364551443
 21
330.75821146343662
 31
0.0
  0
LINE
  5
327B
  8
AM_0
 10
647.13099323006361
 20
326.75824146343649
 30
0.0
 11
647.13099323006361
 21
305.75821146343662
 31
0.0
  0
LINE
  5
327C
  8
ﾁｭｳｼﾝｾﾝ1
 10
626.13094323006351
 20
335.26611646343662
 30
0.0
 11
626.13094323006351
 21
300.86658146343649
 31
0.0
  0
LINE
  5
327D
  8
ｶｸﾚｾﾝ2
 10
616.63094323006362
 20
330.75821146343662
 30
0.0
 11
616.63094323006362
 21
305.75821146343662
 31
0.0
  0
LINE
  5
327E
  8
ｶｸﾚｾﾝ2
 10
635.63094323006362
 20
330.75821146343662
 30
0.0
 11
635.63094323006362
 21
305.75821146343662
 31
0.0
  0
LINE
  5
327F
  8
AM_0
 10
862.74851364551455
 20
325.75821146343668
 30
0.0
 11
862.74851364551455
 21
305.75821146343662
 31
0.0
  0
ARC
  5
3280
  8
AM_0
 10
643.13094323006362
 20
326.75824146343649
 30
0.0
 40
4.000000049999997
 50
0.0
 51
90.00000299999769
  0
ARC
  5
3281
  8
AM_0
 10
645.13094323006362
 20
334.50421646343648
 30
0.0
 40
4.000000049999997
 50
179.9999899999988
 51
255.52248999999699
  0
LINE
  5
3282
  8
AM_0
 10
642.00969323006336
 20
440.63684646343671
 30
0.0
 11
646.25234323006362
 21
444.87949146343652
 31
0.0
  0
ARC
  5
3283
  8
AM_0
 10
644.13094323006362
 20
438.51560146343661
 30
0.0
 40
3.0000000500000001
 50
135.0
 51
180.00001000000091
  0
ARC
  5
3284
  8
AM_0
 10
644.13094323006362
 20
447.00086146343648
 30
0.0
 40
3.0000000500000001
 50
315.0
 51
0.0
  0
ARC
  5
3285
  8
AM_0
 10
867.74851364551432
 20
325.75821146343668
 30
0.0
 40
5.0
 50
90.00000299999769
 51
180.00001000000091
  0
ARC
  5
3286
  8
AM_0
 10
872.74851364551455
 20
442.75821646343661
 30
0.0
 40
10.0
 50
135.0
 51
225.0
  0
ARC
  5
3287
  8
AM_0
 10
868.8655136455144
 20
425.42804646343671
 30
0.0
 40
5.0
 50
7.375508100000534
 51
45.000001000003799
  0
LINE
  5
3288
  8
AM_0
 10
865.67746364551454
 20
435.68710646343658
 30
0.0
 11
873.48846364551434
 21
427.87613646343652
 31
0.0
  0
ARC
  5
3289
  8
AM_0
 10
1002.7485286455141
 20
442.75821646343661
 30
0.0
 40
130.0
 50
187.37550999999999
 51
189.62445999999801
  0
ARC
  5
328A
  8
AM_0
 10
869.95291364551451
 20
424.34064146343673
 30
0.0
 40
5.0
 50
352.89851999999883
 51
45.000001000003799
  0
LINE
  5
328B
  8
ｶｸﾚｾﾝ2
 10
897.24855364551445
 20
330.75821146343662
 30
0.0
 11
897.24855364551445
 21
305.75821146343662
 31
0.0
  0
LINE
  5
328C
  8
ｶｸﾚｾﾝ2
 10
878.24851364551455
 20
330.75821146343662
 30
0.0
 11
878.24851364551455
 21
305.75821146343662
 31
0.0
  0
LINE
  5
328D
  8
ﾁｭｳｼﾝｾﾝ1
 10
887.74852364551475
 20
335.26611646343662
 30
0.0
 11
887.74852364551475
 21
300.86658146343649
 31
0.0
  0
LINE
  5
328E
  8
AM_0
 10
914.04854364551431
 20
326.75824146343649
 30
0.0
 11
914.04854364551431
 21
305.75821146343662
 31
0.0
  0
ARC
  5
328F
  8
AM_0
 10
921.74852364551452
 20
306.7582414634366
 30
0.0
 40
4.000000049999997
 50
99.488295999996765
 51
180.00001000000091
  0
ARC
  5
3290
  8
AM_0
 10
919.77037364551438
 20
318.59405646343652
 30
0.0
 40
8.0
 50
279.4882999999972
 51
357.00553999999892
  0
LINE
  5
3291
  8
AM_0
 10
1091.4485386455151
 20
326.75824146343649
 30
0.0
 11
1091.4485386455151
 21
305.75821146343662
 31
0.0
  0
ARC
  5
3292
  8
AM_0
 10
1083.7485286455139
 20
306.7582414634366
 30
0.0
 40
4.000000049999997
 50
0.0
 51
80.511702000002984
  0
ARC
  5
3293
  8
AM_0
 10
1085.726708645514
 20
318.59405646343652
 30
0.0
 40
8.0
 50
182.9944600000008
 51
260.51170000000258
  0
LINE
  5
3294
  8
AM_0
 10
917.74852364551464
 20
306.7582414634366
 30
0.0
 11
917.74852364551464
 21
305.75821146343662
 31
0.0
  0
LINE
  5
3295
  8
AM_0
 10
1087.7485286455151
 20
306.7582414634366
 30
0.0
 11
1087.7485286455151
 21
305.75821146343662
 31
0.0
  0
LINE
  5
3296
  8
AM_0
 10
935.7485236455143
 20
325.75821146343668
 30
0.0
 11
1069.7485286455139
 21
325.75821146343668
 31
0.0
  0
LINE
  5
3297
  8
AM_0
 10
932.39406364551439
 20
320.48889646343667
 30
0.0
 11
1073.1029886455151
 21
320.48889646343667
 31
0.0
  0
LINE
  5
3298
  8
AM_0
 10
921.74852364551452
 20
310.75821146343662
 30
0.0
 11
1084.1143136455139
 21
310.75821146343662
 31
0.0
  0
LINE
  5
3299
  8
AM_0
 10
914.74855364551433
 20
442.75821646343661
 30
0.0
 11
914.74855364551433
 21
338.7582414634366
 31
0.0
  0
ARC
  5
329A
  8
AM_0
 10
1002.7485286455141
 20
408.74835646343661
 30
0.0
 40
93.999994999999984
 50
179.9999899999988
 51
200.58196000000129
  0
ARC
  5
329B
  8
AM_0
 10
932.39406364551439
 20
315.48889646343662
 30
0.0
 40
5.0
 50
90.00000299999769
 51
166.1807799999996
  0
ARC
  5
329C
  8
AM_0
 10
935.7485236455143
 20
317.75821146343668
 30
0.0
 40
8.0
 50
90.00000299999769
 51
177.00553999999889
  0
ARC
  5
329D
  8
AM_0
 10
910.04854364551443
 20
326.75824146343649
 30
0.0
 40
4.000000049999997
 50
0.0
 51
90.00000299999769
  0
ARC
  5
329E
  8
AM_0
 10
906.74852364551441
 20
338.7582414634366
 30
0.0
 40
8.0
 50
270.0
 51
0.0
  0
LINE
  5
329F
  8
AM_0
 10
1090.7485286455139
 20
452.75821646343661
 30
0.0
 11
1090.7485286455139
 21
338.7582414634366
 31
0.0
  0
ARC
  5
32A0
  8
AM_0
 10
1002.7485286455141
 20
408.74835646343661
 30
0.0
 40
93.999994999999984
 50
339.95001999999999
 51
20.049975999999841
  0
ARC
  5
32A1
  8
AM_0
 10
1069.7485286455139
 20
317.75821146343668
 30
0.0
 40
8.0
 50
2.9944644000003162
 51
90.00000299999769
  0
ARC
  5
32A2
  8
AM_0
 10
1095.4485386455131
 20
326.75824146343649
 30
0.0
 40
4.000000049999997
 50
90.00000299999769
 51
180.00001000000091
  0
ARC
  5
32A3
  8
AM_0
 10
1073.1029886455151
 20
315.48889646343662
 30
0.0
 40
5.0
 50
13.819217000001251
 51
90.00000299999769
  0
ARC
  5
32A4
  8
AM_0
 10
1095.7485286455151
 20
374.80725646343649
 30
0.0
 40
5.0
 50
159.95003000000011
 51
180.00001000000091
  0
ARC
  5
32A5
  8
AM_0
 10
1095.7485286455151
 20
442.68949146343658
 30
0.0
 40
5.0
 50
179.9999899999988
 51
200.04996999999969
  0
LINE
  5
32A6
  8
ｶｸﾚｾﾝ2
 10
1127.2485286455139
 20
330.75821146343662
 30
0.0
 11
1127.2485286455139
 21
305.75821146343662
 31
0.0
  0
LINE
  5
32A7
  8
ｶｸﾚｾﾝ2
 10
1108.2485286455151
 20
330.75821146343662
 30
0.0
 11
1108.2485286455151
 21
305.75821146343662
 31
0.0
  0
LINE
  5
32A8
  8
ﾁｭｳｼﾝｾﾝ1
 10
1117.7485286455139
 20
334.60837146343653
 30
0.0
 11
1117.7485286455139
 21
298.78268646343662
 31
0.0
  0
LINE
  5
32A9
  8
AM_0
 10
1142.748543645514
 20
325.75821146343668
 30
0.0
 11
1142.748543645514
 21
305.75821146343662
 31
0.0
  0
LINE
  5
32AA
  8
AM_0
 10
1098.7485286455139
 20
330.75821146343662
 30
0.0
 11
1137.748543645514
 21
330.75821146343662
 31
0.0
  0
ARC
  5
32AB
  8
AM_0
 10
1137.748543645514
 20
325.75821146343668
 30
0.0
 40
5.0
 50
0.0
 51
90.00000299999769
  0
ARC
  5
32AC
  8
AM_0
 10
1132.748543645514
 20
442.75821646343661
 30
0.0
 40
10.0
 50
315.0
 51
45.000001000003799
  0
LINE
  5
32AD
  8
AM_0
 10
1139.8195886455139
 20
435.68717146343641
 30
0.0
 11
1132.0086136455141
 21
427.8761964634366
 31
0.0
  0
ARC
  5
32AE
  8
AM_0
 10
1002.7485286455141
 20
442.75821646343661
 30
0.0
 40
130.0
 50
350.37554999999838
 51
352.62448999999958
  0
ARC
  5
32AF
  8
AM_0
 10
1135.5441536455139
 20
424.34064146343673
 30
0.0
 40
5.0
 50
135.0
 51
187.1014900000016
  0
ARC
  5
32B0
  8
AM_0
 10
1136.631553645514
 20
425.42804646343671
 30
0.0
 40
5.0
 50
135.0
 51
172.6244899999997
  0
ARC
  5
32B1
  8
AM_0
 10
1002.7485286455141
 20
442.75821646343661
 30
0.0
 40
124.5
 50
7.1014839000006411
 51
172.89851999999871
  0
ARC
  5
32B2
  8
AM_0
 10
1002.7485286455141
 20
442.75821646343661
 30
0.0
 40
130.0
 50
7.375507199997366
 51
52.624493999996417
  0
ARC
  5
32B3
  8
AM_0
 10
1002.7485286455141
 20
442.75821646343661
 30
0.0
 40
130.0
 50
127.3755000000037
 51
172.6244899999997
  0
LINE
  5
32B4
  8
AM_0
 10
641.13094323006362
 20
480.75821646343661
 30
0.0
 11
641.13094323006362
 21
537.75821146343685
 31
0.0
  0
LINE
  5
32B5
  8
AM_0
 10
642.0096432300636
 20
526.87956146343663
 30
0.0
 11
646.25234323006362
 21
522.63686146343662
 31
0.0
  0
LINE
  5
32B6
  8
AM_0
 10
651.13094323006351
 20
501.75824646343648
 30
0.0
 11
721.13094323006362
 21
501.75824646343648
 31
0.0
  0
LINE
  5
32B7
  8
AM_0
 10
651.13094323006351
 20
459.75821646343661
 30
0.0
 11
721.13094323006362
 21
459.75821646343661
 31
0.0
  0
LINE
  5
32B8
  8
AM_0
 10
665.13094323006362
 20
504.7582164634365
 30
0.0
 11
721.13094323006362
 21
504.7582164634365
 31
0.0
  0
LINE
  5
32B9
  8
AM_0
 10
647.13099323006361
 20
480.75821646343661
 30
0.0
 11
647.13099323006361
 21
520.51561146343624
 31
0.0
  0
LINE
  5
32BA
  8
AM_0
 10
651.13094323006351
 20
458.25821646343661
 30
0.0
 11
651.13094323006351
 21
503.25821646343672
 31
0.0
  0
LINE
  5
32BB
  8
AM_0
 10
647.13099323006361
 20
458.25821646343661
 30
0.0
 11
651.13094323006351
 21
458.25821646343661
 31
0.0
  0
LINE
  5
32BC
  8
AM_0
 10
647.13099323006361
 20
503.25821646343672
 30
0.0
 11
651.13094323006351
 21
503.25821646343672
 31
0.0
  0
LINE
  5
32BD
  8
AM_0
 10
665.13094323006362
 20
504.7582164634365
 30
0.0
 11
665.13094323006362
 21
501.75824646343648
 31
0.0
  0
ARC
  5
32BE
  8
AM_0
 10
644.13094323006362
 20
520.51561146343624
 30
0.0
 40
3.0000000500000001
 50
0.0
 51
45.000001000003799
  0
LINE
  5
32BF
  8
AM_0
 10
721.13094323006362
 20
459.75821646343661
 30
0.0
 11
721.13094323006362
 21
504.7582164634365
 31
0.0
  0
ARC
  5
32C0
  8
AM_0
 10
627.13099323006361
 20
548.75821146343685
 30
0.0
 40
8.0
 50
180.00001000000091
 51
270.0
  0
LINE
  5
32C1
  8
AM_0
 10
627.13099323006361
 20
540.75821146343685
 30
0.0
 11
638.13094323006362
 21
540.75821146343685
 31
0.0
  0
ARC
  5
32C2
  8
AM_0
 10
644.13094323006362
 20
529.00081146343678
 30
0.0
 40
3.0000000500000001
 50
179.9999899999988
 51
225.0
  0
ARC
  5
32C3
  8
AM_0
 10
638.13094323006362
 20
537.75821146343685
 30
0.0
 40
3.0000000500000001
 50
0.0
 51
90.00000299999769
  0
ARC
  5
32C4
  8
AM_0
 10
868.8655136455144
 20
460.08838646343668
 30
0.0
 40
5.0
 50
315.0
 51
352.62448999999958
  0
LINE
  5
32C5
  8
AM_0
 10
998.74852864551485
 20
609.75821146343674
 30
0.0
 11
998.74852864551485
 21
576.25821146343674
 31
0.0
  0
LINE
  5
32C6
  8
AM_0
 10
1006.7485286455141
 20
609.75821146343674
 30
0.0
 11
1006.7485286455141
 21
576.25821146343674
 31
0.0
  0
ARC
  5
32C7
  8
AM_0
 10
1002.7485286455141
 20
480.75821646343661
 30
0.0
 40
20.9999985
 50
106.6015499999987
 51
73.398451999997818
  0
ARC
  5
32C8
  8
AM_0
 10
1002.7485286455141
 20
442.75821646343661
 30
0.0
 40
130.0
 50
67.375506000002574
 51
112.6244900000042
  0
LINE
  5
32C9
  8
ﾁｭｳｼﾝｾﾝ1
 10
941.80850894204275
 20
480.75821646343661
 30
0.0
 11
1063.6885483489859
 21
480.75821646343661
 31
0.0
  0
ARC
  5
32CA
  8
AM_0
 10
875.48181364551465
 20
466.70471646343663
 30
0.0
 40
5.0
 50
315.0
 51
349.34382000000329
  0
ARC
  5
32CB
  8
AM_0
 10
937.74852364551475
 20
555.34151146343675
 30
0.0
 40
10.0
 50
74.999998999997473
 51
164.99998999999869
  0
LINE
  5
32CC
  8
AM_0
 10
928.08928364551434
 20
557.92971146343655
 30
0.0
 11
923.20653364551458
 21
539.70706146343673
 31
0.0
  0
ARC
  5
32CD
  8
AM_0
 10
918.37688364551434
 20
541.00111146343647
 30
0.0
 40
5.0
 50
310.6561800000004
 51
344.99999999999909
  0
ARC
  5
32CE
  8
AM_0
 10
920.79866364551458
 20
550.03921146343635
 30
0.0
 40
5.0
 50
307.3755100000007
 51
344.99999999999909
  0
LINE
  5
32CF
  8
AM_0
 10
940.33672364551421
 20
565.00076146343656
 30
0.0
 11
958.55934864551432
 21
560.11806146343667
 31
0.0
  0
ARC
  5
32D0
  8
AM_0
 10
959.8534436455144
 20
564.9476614634367
 30
0.0
 40
5.0
 50
254.9999999999992
 51
289.34382000000068
  0
ARC
  5
32D1
  8
AM_0
 10
950.81538864551442
 20
567.36941146343679
 30
0.0
 40
5.0
 50
254.9999999999992
 51
292.62449000000191
  0
CIRCLE
  5
32D2
  8
AM_5
 10
1002.7485286455141
 20
480.75821646343661
 30
0.0
 40
5.0
  0
CIRCLE
  5
32D3
  8
AM_0
 10
1002.7485286455141
 20
480.75821646343661
 30
0.0
 40
3.5000000500000001
  0
LINE
  5
32D4
  8
AM_0
 10
996.74852864551485
 20
504.7582164634365
 30
0.0
 11
1008.7485286455141
 21
504.7582164634365
 31
0.0
  0
LINE
  5
32D5
  8
AM_0
 10
996.74852864551485
 20
496.75824646343648
 30
0.0
 11
1008.7485286455141
 21
496.75824646343648
 31
0.0
  0
LINE
  5
32D6
  8
AM_0
 10
996.74852864551485
 20
504.7582164634365
 30
0.0
 11
996.74852864551485
 21
496.75824646343648
 31
0.0
  0
LINE
  5
32D7
  8
AM_0
 10
1008.7485286455141
 20
504.7582164634365
 30
0.0
 11
1008.7485286455141
 21
496.75824646343648
 31
0.0
  0
ARC
  5
32D8
  8
AM_0
 10
996.74852864551485
 20
576.25821146343674
 30
0.0
 40
2.0000000500000001
 50
270.0
 51
0.0
  0
LINE
  5
32D9
  8
AM_0
 10
998.74852864551485
 20
580.01971146343635
 30
0.0
 11
995.24510864551428
 21
579.37291146343648
 31
0.0
  0
LINE
  5
32DA
  8
AM_0
 10
992.77995864551485
 20
572.37546146343652
 30
0.0
 11
994.46074364551475
 21
578.6483114634367
 31
0.0
  0
ARC
  5
32DB
  8
AM_0
 10
995.42668864551422
 20
578.38946146343665
 30
0.0
 40
1.0
 50
100.4607200000025
 51
164.99998999999869
  0
LINE
  5
32DC
  8
AM_0
 10
1012.717123645514
 20
572.37546146343652
 30
0.0
 11
1011.036338645514
 21
578.6483114634367
 31
0.0
  0
ARC
  5
32DD
  8
AM_0
 10
1010.070393645513
 20
578.38946146343665
 30
0.0
 40
1.0
 50
15.000000000000741
 51
79.539281000002006
  0
ARC
  5
32DE
  8
AM_0
 10
1008.7485286455141
 20
576.25821146343674
 30
0.0
 40
2.0000000500000001
 50
179.9999899999988
 51
270.0
  0
LINE
  5
32DF
  8
AM_0
 10
1006.7485286455141
 20
580.01976146343679
 30
0.0
 11
1010.251943645514
 21
579.37291146343648
 31
0.0
  0
LINE
  5
32E0
  8
AM_0
 10
1065.1603336455139
 20
565.00076146343656
 30
0.0
 11
1046.9377036455139
 21
560.11801146343669
 31
0.0
  0
ARC
  5
32E1
  8
AM_0
 10
1067.7485286455139
 20
555.34151146343675
 30
0.0
 40
10.0
 50
15.000000000000741
 51
105.0000000000007
  0
ARC
  5
32E2
  8
AM_0
 10
1054.6816636455139
 20
567.36941146343679
 30
0.0
 40
5.0
 50
247.37550999999809
 51
285.00000000000063
  0
ARC
  5
32E3
  8
AM_0
 10
1045.643638645515
 20
564.9476614634367
 30
0.0
 40
5.0
 50
250.65617999999921
 51
285.00000000000063
  0
LINE
  5
32E4
  8
AM_0
 10
1077.407798645515
 20
557.92966146343667
 30
0.0
 11
1082.2905186455141
 21
539.70706146343673
 31
0.0
  0
ARC
  5
32E5
  8
AM_0
 10
1087.120168645514
 20
541.00111146343647
 30
0.0
 40
5.0
 50
195.00001000000111
 51
229.34381999999951
  0
ARC
  5
32E6
  8
AM_0
 10
1084.6984186455129
 20
550.03921146343635
 30
0.0
 40
5.0
 50
195.00001000000111
 51
232.62449999999609
  0
ARC
  5
32E7
  8
AM_0
 10
1002.7485286455141
 20
609.75821146343674
 30
0.0
 40
4.000000049999997
 50
359.999989999999
 51
179.9999899999988
  0
ARC
  5
32E8
  8
AM_0
 10
1130.0152536455139
 20
466.70471646343663
 30
0.0
 40
5.0
 50
190.6561799999964
 51
225.0
  0
ARC
  5
32E9
  8
AM_0
 10
1136.631553645514
 20
460.08838646343668
 30
0.0
 40
5.0
 50
187.37550999999999
 51
225.0
  0
ARC
  5
32EA
  8
0
 10
338.63097930973771
 20
802.22400560239032
 30
0.0
 40
5.0
 50
90.0
 51
180.0
1001
GENIUS_GENOBJ-N-FIL_13
1002
{
1000
OWNER
1000
GEN
1002
}
1001
GENIUS_GENODEF_13
1002
{
1000
HIER
1070
     0
1002
}
1002
{
1000
MANEDIT
1070
     0
1002
}
1002
{
1000
NOSEL
1070
     0
1002
}
1002
{
1000
BEHIND
1070
     0
1002
}
1002
{
1000
OTHER
1070
     0
1002
}
1002
{
1000
REACTOR
1002
}
  0
LINE
  5
32EB
  8
0
  6
CONTINUOUS
 62
     7
 10
356.63097323006377
 20
927.22400560239032
 30
0.0
 11
356.63097323006377
 21
803.22400560239055
 31
0.0
  0
LINE
  5
32EC
  8
0
 10
323.6309793097376
 20
945.22400560239055
 30
0.0
 11
323.6309793097376
 21
785.22400560239043
 31
0.0
  0
LINE
  5
32ED
  8
0
 10
333.63097930973771
 20
943.22400560239032
 30
0.0
 11
333.63097930973771
 21
787.22400560239043
 31
0.0
  0
ARC
  5
32EE
  8
0
 10
331.63097930973771
 20
787.22400560239043
 30
0.0
 40
2.0
 50
270.0
 51
0.0
1001
GENIUS_GENODEF_13
1002
{
1000
HIER
1070
     0
1002
}
1002
{
1000
MANEDIT
1070
     0
1002
}
1002
{
1000
NOSEL
1070
     0
1002
}
1002
{
1000
BEHIND
1070
     0
1002
}
1002
{
1000
OTHER
1070
     0
1002
}
1002
{
1000
REACTOR
1002
}
1001
GENIUS_GENOBJ-N-FIL_13
1002
{
1000
OWNER
1000
GEN
1002
}
  0
LINE
  5
32EF
  8
0
 10
323.6309793097376
 20
785.22400560239043
 30
0.0
 11
331.63097930973771
 21
785.22400560239043
 31
0.0
  0
LINE
  5
32F0
  8
0
 10
367.63097323006389
 20
801.22400560239032
 30
0.0
 11
358.63097323006377
 21
801.22400560239032
 31
0.0
  0
ARC
  5
32F1
  8
0
 10
358.63097323006377
 20
803.22400560239055
 30
0.0
 40
2.0
 50
180.0
 51
270.0
1001
GENIUS_GENODEF_13
1002
{
1000
HIER
1070
     0
1002
}
1002
{
1000
MANEDIT
1070
     0
1002
}
1002
{
1000
NOSEL
1070
     0
1002
}
1002
{
1000
BEHIND
1070
     0
1002
}
1002
{
1000
OTHER
1070
     0
1002
}
1002
{
1000
REACTOR
1002
}
1001
GENIUS_GENOBJ-N-FIL_13
1002
{
1000
OWNER
1000
GEN
1002
}
  0
LINE
  5
32F2
  8
0
 10
354.63097323006377
 20
807.22400560239043
 30
0.0
 11
338.63097930973771
 21
807.22400560239043
 31
0.0
  0
LINE
  5
32F3
  8
AM_0
 10
367.63097323006389
 20
813.72398960239059
 30
0.0
 11
356.63097323006377
 21
813.72398960239059
 31
0.0
  0
ARC
  5
32F4
  8
0
 10
354.63097323006377
 20
805.22400560239043
 30
0.0
 40
2.0
 50
0.0
 51
90.0
1001
GENIUS_GENODEF_13
1002
{
1000
HIER
1070
     0
1002
}
1002
{
1000
MANEDIT
1070
     0
1002
}
1002
{
1000
NOSEL
1070
     0
1002
}
1002
{
1000
BEHIND
1070
     0
1002
}
1002
{
1000
OTHER
1070
     0
1002
}
1002
{
1000
REACTOR
1002
}
1001
GENIUS_GENOBJ-N-FIL_13
1002
{
1000
OWNER
1000
GEN
1002
}
  0
LINE
  5
32F5
  8
AM_0
 10
367.63097323006389
 20
828.07607060239059
 30
0.0
 11
356.63097323006377
 21
828.07607060239059
 31
0.0
  0
LINE
  5
32F6
  8
AM_0
 10
367.63097323006389
 20
902.37192560239043
 30
0.0
 11
356.63097323006377
 21
902.37192560239043
 31
0.0
  0
LINE
  5
32F7
  8
AM_0
 10
367.63097323006389
 20
916.72401560239041
 30
0.0
 11
356.63097323006377
 21
916.72401560239041
 31
0.0
  0
LINE
  5
32F8
  8
0
 10
354.63097323006377
 20
923.22400560239043
 30
0.0
 11
338.63097930973771
 21
923.22400560239043
 31
0.0
  0
ARC
  5
32F9
  8
0
 10
338.63097930973771
 20
928.22400560239055
 30
0.0
 40
5.0
 50
180.0
 51
270.0
1001
GENIUS_GENOBJ-N-FIL_13
1002
{
1000
OWNER
1000
GEN
1002
}
1001
GENIUS_GENODEF_13
1002
{
1000
HIER
1070
     0
1002
}
1002
{
1000
MANEDIT
1070
     0
1002
}
1002
{
1000
NOSEL
1070
     0
1002
}
1002
{
1000
BEHIND
1070
     0
1002
}
1002
{
1000
OTHER
1070
     0
1002
}
1002
{
1000
REACTOR
1002
}
  0
LINE
  5
32FA
  8
0
 10
323.6309793097376
 20
945.22400560239055
 30
0.0
 11
331.63097930973771
 21
945.22400560239055
 31
0.0
  0
ARC
  5
32FB
  8
0
 10
331.63097930973771
 20
943.22400560239032
 30
0.0
 40
2.0
 50
0.0
 51
90.0
1001
GENIUS_GENODEF_13
1002
{
1000
HIER
1070
     0
1002
}
1002
{
1000
MANEDIT
1070
     0
1002
}
1002
{
1000
NOSEL
1070
     0
1002
}
1002
{
1000
BEHIND
1070
     0
1002
}
1002
{
1000
OTHER
1070
     0
1002
}
1002
{
1000
REACTOR
1002
}
1001
GENIUS_GENOBJ-N-FIL_13
1002
{
1000
OWNER
1000
GEN
1002
}
  0
LINE
  5
32FC
  8
0
 10
367.63097323006389
 20
929.22400560239055
 30
0.0
 11
358.63097323006377
 21
929.22400560239055
 31
0.0
  0
ARC
  5
32FD
  8
0
 10
354.63097323006377
 20
925.22400560239043
 30
0.0
 40
2.0
 50
270.0
 51
0.0
1001
GENIUS_GENODEF_13
1002
{
1000
HIER
1070
     0
1002
}
1002
{
1000
MANEDIT
1070
     0
1002
}
1002
{
1000
NOSEL
1070
     0
1002
}
1002
{
1000
BEHIND
1070
     0
1002
}
1002
{
1000
OTHER
1070
     0
1002
}
1002
{
1000
REACTOR
1002
}
1001
GENIUS_GENOBJ-N-FIL_13
1002
{
1000
OWNER
1000
GEN
1002
}
  0
ARC
  5
32FE
  8
0
 10
358.63097323006377
 20
927.22400560239032
 30
0.0
 40
2.0
 50
90.0
 51
180.0
1001
GENIUS_GENODEF_13
1002
{
1000
HIER
1070
     0
1002
}
1002
{
1000
MANEDIT
1070
     0
1002
}
1002
{
1000
NOSEL
1070
     0
1002
}
1002
{
1000
BEHIND
1070
     0
1002
}
1002
{
1000
OTHER
1070
     0
1002
}
1002
{
1000
REACTOR
1002
}
1001
GENIUS_GENOBJ-N-FIL_13
1002
{
1000
OWNER
1000
GEN
1002
}
  0
TEXT
  5
34DD
  8
AM_0
 10
873.99238868223438
 20
896.28756124565973
 30
0.0
 40
15.0
  1
VX04-240A~VX04-600A
  0
ENDSEC
  0
EOF
