  0
SECTION
  2
HEADER
  9
$ACADVER
  1
AC1009
  9
$INSBASE
 10
0.0
 20
0.0
 30
0.0
  9
$EXTMIN
 10
258.36208704784713
 20
285.44398997176
 30
-0.0000000349181948
  9
$EXTMAX
 10
1178.4636337041891
 20
1106.0975620983711
 30
0.0000000814935747
  9
$LIMMIN
 10
0.0
 20
0.0
  9
$LIMMAX
 10
1422.5
 20
925.0
  9
$ORTHOMODE
 70
     0
  9
$REGENMODE
 70
     1
  9
$FILLMODE
 70
     1
  9
$QTEXTMODE
 70
     0
  9
$MIRRTEXT
 70
     1
  9
$DRAGMODE
 70
     2
  9
$LTSCALE
 40
5.0
  9
$OSMODE
 70
   551
  9
$ATTMODE
 70
     1
  9
$TEXTSIZE
 40
2.5
  9
$TRACEWID
 40
1.0
  9
$TEXTSTYLE
  7
STANDARD
  9
$CLAYER
  8
AM_0
  9
$CELTYPE
  6
BYLAYER
  9
$CECOLOR
 62
   256
  9
$DIMSCALE
 40
1.0
  9
$DIMASZ
 40
2.5
  9
$DIMEXO
 40
1.0
  9
$DIMDLI
 40
8.0
  9
$DIMRND
 40
0.0
  9
$DIMDLE
 40
0.0
  9
$DIMEXE
 40
0.6
  9
$DIMTP
 40
0.1
  9
$DIMTM
 40
0.1
  9
$DIMTXT
 40
2.5
  9
$DIMCEN
 40
0.0
  9
$DIMTSZ
 40
0.0
  9
$DIMTOL
 70
     0
  9
$DIMLIM
 70
     0
  9
$DIMTIH
 70
     0
  9
$DIMTOH
 70
     0
  9
$DIMSE1
 70
     0
  9
$DIMSE2
 70
     0
  9
$DIMTAD
 70
     1
  9
$DIMZIN
 70
     8
  9
$DIMBLK
  1

  9
$DIMASO
 70
     1
  9
$DIMSHO
 70
     1
  9
$DIMPOST
  1

  9
$DIMAPOST
  1
"
  9
$DIMALT
 70
     0
  9
$DIMALTD
 70
     2
  9
$DIMALTF
 40
0.0393701
  9
$DIMLFAC
 40
1.0
  9
$DIMTOFL
 70
     1
  9
$DIMTVP
 40
0.0
  9
$DIMTIX
 70
     0
  9
$DIMSOXD
 70
     0
  9
$DIMSAH
 70
     0
  9
$DIMBLK1
  1

  9
$DIMBLK2
  1

  9
$DIMSTYLE
  2
AM_ISO
  9
$DIMCLRD
 70
   256
  9
$DIMCLRE
 70
   256
  9
$DIMCLRT
 70
     4
  9
$DIMTFAC
 40
0.71
  9
$DIMGAP
 40
0.8
  9
$LUNITS
 70
     2
  9
$LUPREC
 70
     2
  9
$SKETCHINC
 40
1.0
  9
$FILLETRAD
 40
25.0
  9
$AUNITS
 70
     0
  9
$AUPREC
 70
     0
  9
$MENU
  1
.
  9
$ELEVATION
 40
0.0
  9
$PELEVATION
 40
0.0
  9
$THICKNESS
 40
0.0
  9
$LIMCHECK
 70
     0
  9
$BLIPMODE
 70
     0
  9
$CHAMFERA
 40
10.0
  9
$CHAMFERB
 40
5.0
  9
$SKPOLY
 70
     0
  9
$TDCREATE
 40
2452066.4240539931
  9
$TDUPDATE
 40
2458541.470162685
  9
$TDINDWG
 40
0.1897677778
  9
$TDUSRTIMER
 40
0.189767581
  9
$USRTIMER
 70
     1
  9
$ANGBASE
 50
0.0
  9
$ANGDIR
 70
     0
  9
$PDMODE
 70
     0
  9
$PDSIZE
 40
0.0
  9
$PLINEWID
 40
0.0
  9
$COORDS
 70
     1
  9
$SPLFRAME
 70
     0
  9
$SPLINETYPE
 70
     6
  9
$SPLINESEGS
 70
     8
  9
$ATTDIA
 70
     1
  9
$ATTREQ
 70
     1
  9
$HANDLING
 70
     1
  9
$HANDSEED
  5
3417
  9
$SURFTAB1
 70
     6
  9
$SURFTAB2
 70
     6
  9
$SURFTYPE
 70
     6
  9
$SURFU
 70
     6
  9
$SURFV
 70
     6
  9
$UCSNAME
  2

  9
$UCSORG
 10
0.0
 20
0.0
 30
0.0
  9
$UCSXDIR
 10
1.0
 20
0.0
 30
0.0
  9
$UCSYDIR
 10
0.0
 20
1.0
 30
0.0
  9
$PUCSNAME
  2

  9
$PUCSORG
 10
0.0
 20
0.0
 30
0.0
  9
$PUCSXDIR
 10
1.0
 20
0.0
 30
0.0
  9
$PUCSYDIR
 10
0.0
 20
1.0
 30
0.0
  9
$USERI1
 70
     0
  9
$USERI2
 70
     0
  9
$USERI3
 70
     0
  9
$USERI4
 70
     0
  9
$USERI5
 70
     0
  9
$USERR1
 40
0.0
  9
$USERR2
 40
0.0
  9
$USERR3
 40
0.0
  9
$USERR4
 40
0.0
  9
$USERR5
 40
0.0
  9
$WORLDVIEW
 70
     1
  9
$SHADEDGE
 70
     3
  9
$SHADEDIF
 70
    70
  9
$TILEMODE
 70
     1
  9
$MAXACTVP
 70
    64
  9
$PLIMCHECK
 70
     0
  9
$PEXTMIN
 10
1.0000000000000000E+020
 20
1.0000000000000000E+020
 30
1.0000000000000000E+020
  9
$PEXTMAX
 10
-1.0000000000000000E+020
 20
-1.0000000000000000E+020
 30
-1.0000000000000000E+020
  9
$PLIMMIN
 10
0.0
 20
0.0
  9
$PLIMMAX
 10
420.0
 20
297.0
  9
$UNITMODE
 70
     0
  9
$VISRETAIN
 70
     1
  9
$PLINEGEN
 70
     0
  9
$PSLTSCALE
 70
     1
  0
ENDSEC
  0
SECTION
  2
TABLES
  0
TABLE
  2
VPORT
 70
     1
  0
VPORT
  2
*ACTIVE
 70
     0
 10
0.0
 20
0.0
 11
1.0
 21
1.0
 12
718.41286037601787
 22
695.77077603506541
 13
0.0
 23
0.0
 14
12.5
 24
12.5
 15
50.0
 25
50.0
 16
0.0
 26
0.0
 36
1.0
 17
0.0
 27
0.0
 37
0.0
 40
826.28734950963087
 41
1.7571592210767459
 42
50.0
 43
0.0
 44
0.0
 50
0.0
 51
0.0
 71
     0
 72
   100
 73
     1
 74
     3
 75
     0
 76
     0
 77
     0
 78
     0
  0
ENDTAB
  0
TABLE
  2
LTYPE
 70
    27
  0
LTYPE
  2
CONTINUOUS
 70
     0
  3
Solid line
 72
    65
 73
     0
 40
0.0
  0
LTYPE
  2
AM_ISO02W050
 70
     0
  3
__ __ __ __ __ __ __ __ __ __ __ __ __ __ __
 72
    65
 73
     2
 40
7.5
 49
6.0
 49
-1.5
  0
LTYPE
  2
AM_ISO08W050
 70
     0
  3
____ . ____ . ____ . ____ . ____ . ____ . ____
 72
    65
 73
     4
 40
18.0
 49
12.0
 49
-1.5
 49
3.0
 49
-1.5
  0
LTYPE
  2
AM_ISO09W050
 70
     0
  3
_____ . . _____ . . _____ . . ____ .. ____
 72
    65
 73
     6
 40
22.5
 49
12.0
 49
-1.5
 49
3.0
 49
-1.5
 49
3.0
 49
-1.5
  0
LTYPE
  2
AMCONSTR
 70
     0
  3
_______________________
 72
    65
 73
     2
 40
9999.0
 49
9999.0
 49
0.0
  0
LTYPE
  2
AM_ISO08W050X2
 70
     0
  3
__ . __ . __ . __ . __ . __
 72
    65
 73
     4
 40
9.0
 49
6.0
 49
-0.75
 49
1.5
 49
-0.75
  0
LTYPE
  2
AM_ISO02W050X2
 70
     0
  3
 _ _ _ _ _ _ _ _ _ _ _ _
 72
    65
 73
     2
 40
3.75
 49
3.0
 49
-0.75
  0
LTYPE
  2
AMZIGZAG
 70
     0
  3
/\/-/\/-/\/-/\/-/\/-/\/
 72
    65
 73
     2
 40
11.000099999999991
 49
0.0001
 49
-11.0
  0
LTYPE
  2
ACISOWELD
 70
     0
  3
_ _ _ _ _
 72
    65
 73
     2
 40
2.0
 49
2.0
 49
-1.0
  0
LTYPE
  2
ACISOTGB
 70
     0
  3
__ . . __ . .
 72
    65
 73
     6
 40
9.0
 49
4.0
 49
-1.0
 49
1.0
 49
-1.0
 49
1.0
 49
-1.0
  0
LTYPE
  2
ACISOTGL
 70
     0
  3
_ _ _ _ _
 72
    65
 73
     2
 40
3.0
 49
2.0
 49
-1.0
  0
LTYPE
  2
CENTER
 70
     0
  3
__ . __
 72
    65
 73
     4
 40
7.0
 49
4.0
 49
-1.0
 49
1.0
 49
-1.0
  0
LTYPE
  2
PHANTOM2
 70
     0
  3
Phantom (.5x) ___ _ _ ___ _ _ ___ _ _ ___ _ _
 72
    65
 73
     6
 40
31.75
 49
15.875
 49
-3.174999999999998
 49
3.174999999999998
 49
-3.174999999999998
 49
3.174999999999998
 49
-3.174999999999998
  0
LTYPE
  2
ACANSTGBM
 70
     0
  3
__ . . __ . .
 72
    65
 73
     6
 40
9.0
 49
4.0
 49
-1.0
 49
1.0
 49
-1.0
 49
1.0
 49
-1.0
  0
LTYPE
  2
ACANSTGLM
 70
     0
  3
_ _ _ _ _
 72
    65
 73
     2
 40
3.0
 49
2.0
 49
-1.0
  0
LTYPE
  2
GEN7
 70
     0
  3
____ . ____ . ____ . ____ . ____ . ____ . ____
 72
    65
 73
     4
 40
14.25
 49
9.75
 49
-1.5
 49
1.5
 49
-1.5
  0
LTYPE
  2
GEN3B
 70
     0
  3
 - - - - -
 72
    65
 73
     2
 40
1.0
 49
0.5
 49
-0.5
  0
LTYPE
  2
GEN7A
 70
     0
  3
__ . __ . __
 72
    65
 73
     4
 40
7.375
 49
4.75
 49
-0.875
 49
0.875
 49
-0.875
  0
LTYPE
  2
ACJISTGB
 70
     0
  3
__ . . __ . .
 72
    65
 73
     6
 40
9.0
 49
4.0
 49
-1.0
 49
1.0
 49
-1.0
 49
1.0
 49
-1.0
  0
LTYPE
  2
ACJISTGL
 70
     0
  3
_ _ _ _ _
 72
    65
 73
     2
 40
3.0
 49
2.0
 49
-1.0
  0
LTYPE
  2
HIDDEN
 70
     0
  3
Hidden __ __ __ __ __ __ __ __ __ __ __ __ __ _
 72
    65
 73
     2
 40
0.375
 49
0.25
 49
-0.125
  0
LTYPE
  2
CENTER2
 70
     0
  3
Center (.5x) ___ _ ___ _ ___ _ ___ _ ___ _ ___
 72
    65
 73
     4
 40
1.125
 49
0.75
 49
-0.125
 49
0.125
 49
-0.125
  0
LTYPE
  2
HIDDEN2
 70
     0
  3
Hidden (.5x) _ _ _ _ _ _ _ _ _ _ _ _ _ _ _ _ _
 72
    65
 73
     2
 40
0.1875
 49
0.125
 49
-0.0625
  0
LTYPE
  2
AMZIGZAG2
 70
     0
  3
/\/-/\/-/\/-/\/-/\/-/\/
 72
    65
 73
     2
 40
0.4401
 49
0.0001
 49
-0.4400000000000002
  0
LTYPE
  2
ACANSTGB
 70
     0
  3
__ . . __ . .
 72
    65
 73
     6
 40
0.35433070866
 49
0.15748031496
 49
-0.03937007874
 49
0.03937007874
 49
-0.03937007874
 49
0.03937007874
 49
-0.03937007874
  0
LTYPE
  2
ACANSTGL
 70
     0
  3
_ _ _ _ _
 72
    65
 73
     2
 40
0.11811023622
 49
0.07874015748
 49
-0.03937007874
  0
ENDTAB
  0
TABLE
  2
LAYER
 70
     7
  0
LAYER
  2
0
 70
     0
 62
     7
  6
CONTINUOUS
  0
LAYER
  2
AM_0
 70
     0
 62
     7
  6
CONTINUOUS
  0
LAYER
  2
AM_5
 70
     0
 62
     2
  6
CONTINUOUS
  0
LAYER
  2
DEFPOINTS
 70
     0
 62
     7
  6
CONTINUOUS
  0
LAYER
  2
ｶｸﾚｾﾝ2
 70
     0
 62
     3
  6
GEN3B
  0
LAYER
  2
ﾁｭｳｼﾝｾﾝ
 70
     0
 62
     1
  6
GEN7
  0
LAYER
  2
ﾁｭｳｼﾝｾﾝ1
 70
     0
 62
     1
  6
GEN7A
  0
ENDTAB
  0
TABLE
  2
STYLE
 70
     9
  0
STYLE
  2
STANDARD
 70
     0
 40
0.0
 41
0.8299999999999999
 50
0.0
 71
     0
 42
2.5
  3
txt.shx
  4
bigfont.shx
  0
STYLE
  2
ANNOTATIVE
 70
     0
 40
0.0
 41
1.0
 50
0.0
 71
     0
 42
0.2
  3
txt
  4

  0
STYLE
  2

 70
     1
 40
0.0
 41
1.0
 50
0.0
 71
     0
 42
2.5
  3
ltypeshp.shx
  4

  0
STYLE
  2
ACISOTS
 70
     0
 40
1.0
 41
1.0
 50
0.0
 71
     0
 42
2.5
  3
isocp.shx
  4
extfont.shx
  0
STYLE
  2
ACISOGDT
 70
     0
 40
0.0
 41
1.0
 50
0.0
 71
     0
 42
2.5
  3
amgdt.shx
  4

  0
STYLE
  2
ACANSTS
 70
     0
 40
1.0
 41
1.0
 50
0.0
 71
     0
 42
2.5
  3
romans.shx
  4
bigfont.shx
  0
STYLE
  2
ACANSGDT
 70
     0
 40
0.0
 41
1.0
 50
0.0
 71
     0
 42
2.5
  3
amgdt.shx
  4

  0
STYLE
  2
ACJISTS
 70
     0
 40
1.0
 41
1.0
 50
0.0
 71
     0
 42
2.5
  3
isocp.shx
  4
bigfont.shx
  0
STYLE
  2
ACJISGDT
 70
     0
 40
0.0
 41
1.0
 50
0.0
 71
     0
 42
2.5
  3
amgdt.shx
  4

  0
ENDTAB
  0
TABLE
  2
VIEW
 70
     6
  0
VIEW
  2
AM_VIEW1
 70
     0
 40
462.5
 10
416.07965009208078
 20
693.75
 41
832.15930018416213
 11
0.0
 21
0.0
 31
1.0
 12
0.0
 22
0.0
 32
0.0
 42
50.0
 43
0.0
 44
0.0
 50
0.0
 71
     0
  0
VIEW
  2
AM_VIEW2
 70
     0
 40
462.5
 10
1006.420349907918
 20
693.75
 41
832.15930018416213
 11
0.0
 21
0.0
 31
1.0
 12
0.0
 22
0.0
 32
0.0
 42
50.0
 43
0.0
 44
0.0
 50
0.0
 71
     0
  0
VIEW
  2
AM_VIEW3
 70
     0
 40
462.5
 10
416.07965009208078
 20
231.25
 41
832.15930018416213
 11
0.0
 21
0.0
 31
1.0
 12
0.0
 22
0.0
 32
0.0
 42
50.0
 43
0.0
 44
0.0
 50
0.0
 71
     0
  0
VIEW
  2
AM_VIEW4
 70
     0
 40
462.5
 10
1006.420349907918
 20
231.25
 41
832.15930018416213
 11
0.0
 21
0.0
 31
1.0
 12
0.0
 22
0.0
 32
0.0
 42
50.0
 43
0.0
 44
0.0
 50
0.0
 71
     0
  0
VIEW
  2
AM_VIEW5
 70
     0
 40
462.5
 10
711.24999999999966
 20
462.5
 41
832.15930018416179
 11
0.0
 21
0.0
 31
1.0
 12
0.0
 22
0.0
 32
0.0
 42
50.0
 43
0.0
 44
0.0
 50
0.0
 71
     0
  0
VIEW
  2
AM_VIEW6
 70
     0
 40
924.99075000000005
 10
711.24999999999966
 20
462.5
 41
1664.3019571823199
 11
0.0
 21
0.0
 31
1.0
 12
0.0
 22
0.0
 32
0.0
 42
50.0
 43
0.0
 44
0.0
 50
0.0
 71
     0
  0
ENDTAB
  0
TABLE
  2
UCS
 70
     0
  0
ENDTAB
  0
TABLE
  2
APPID
 70
    95
  0
APPID
  2
ACAD
 70
     0
  0
APPID
  2
ACADANNOTATIVE
 70
     0
  0
APPID
  2
MCAD_NO_VIS
 70
     0
  0
APPID
  2
ACAD_TEMP_GRAPHIC
 70
     0
  0
APPID
  2
ACATTRIBSERVICES
 70
     0
  0
APPID
  2
GENIUS_GENREC_14
 70
     0
  0
APPID
  2
GENIUS_GENOBJ-N-REC_13
 70
     0
  0
APPID
  2
GENIUS_GENODEF_13
 70
     0
  0
APPID
  2
GENIUS_GENOLIS_13
 70
     0
  0
APPID
  2
GENIUS_GENOBJ-N-TIT_13
 70
     0
  0
APPID
  2
GENIUS_GENOENT_13
 70
     0
  0
APPID
  2
GENIUS_GENTITLE_13
 70
     0
  0
APPID
  2
GENIUS_GENOREF_13
 70
     0
  0
APPID
  2
GENIUS_GENSCREG_15
 70
     0
  0
APPID
  2
GENIUS_GENOBJ-N-SDF_13
 70
     0
  0
APPID
  2
GENIUS_GENFIL_13
 70
     0
  0
APPID
  2
GENIUS_GENOBJ-N-CHA_13
 70
     0
  0
APPID
  2
GENIUS_GENDTOL_13
 70
     0
  0
APPID
  2
GENIUS_GENOBJ-N-FIL_13
 70
     0
  0
APPID
  2
AD_DRAW
 70
     0
  0
APPID
  2
DESIGNERASSEMBLIES
 70
     0
  0
APPID
  2
ASURF_PCURVE_APPNAME
 70
     0
  0
APPID
  2
GENIUS_GE3SECT_13
 70
     0
  0
APPID
  2
GENIUS_GENCFG_13
 70
     0
  0
APPID
  2
GENIUS_GE3CFG0_13
 70
     0
  0
APPID
  2
GENIUS_GENCFG0_13
 70
     0
  0
APPID
  2
GENIUS_GENCFG1_13
 70
     0
  0
APPID
  2
GENIUS_GENCFG2_13
 70
     0
  0
APPID
  2
GENIUS_GENCFG3_13
 70
     0
  0
APPID
  2
GENIUS_GENCFG4_13
 70
     0
  0
APPID
  2
GENIUS_GEVCFG0_13
 70
     0
  0
APPID
  2
GENIUS_GENHINW_13
 70
     0
  0
APPID
  2
GENIUS_FIRSTVISTXT_14
 70
     0
  0
APPID
  2
GENIUS_GENOBJ-N-LEADER_13
 70
     0
  0
APPID
  2
GEV_VCCNULL_SWITCH_OFF
 70
     0
  0
APPID
  2
GENIUS_GEFCFG0_13
 70
     0
  0
APPID
  2
GENIUS_GENZVEED_13
 70
     0
  0
APPID
  2
GENIUS_GENSCREG_13
 70
     0
  0
APPID
  2
GENIUS_DUMCFG0_13
 70
     0
  0
APPID
  2
GEVID936201362
 70
     0
  0
APPID
  2
GEVDC
 70
     0
  0
APPID
  2
GEVCON
 70
     0
  0
APPID
  2
VCC
 70
     0
  0
APPID
  2
GEVPT
 70
     0
  0
APPID
  2
GEVIT
 70
     0
  0
APPID
  2
GENBH
 70
     0
  0
APPID
  2
GEVMK
 70
     0
  0
APPID
  2
GENIUS_GENBH_13
 70
     0
  0
APPID
  2
GENIUS_GENOBJ-NBEHI-BHF_13
 70
     0
  0
APPID
  2
GENIUS_GENOBJ-NBEHI-BHB_13
 70
     0
  0
APPID
  2
GENIUS_GENOBJ-F-DESC_13
 70
     0
  0
APPID
  2
GENIUS_GEFDESC_14
 70
     0
  0
APPID
  2
GENIUS_GENOBJ-F-PART_13
 70
     0
  0
APPID
  2
GENIUS_GEFSTDP_13
 70
     0
  0
APPID
  2
GENIUS_GEFPARTINS_13
 70
     0
  0
APPID
  2
GENIUS_GENTRA_14
 70
     0
  0
APPID
  2
GENIUS_GENINF13_13
 70
     0
  0
APPID
  2
GENIUS_GENOBJ-N-INFOPT_13
 70
     0
  0
APPID
  2
GENIUS_GENOBJ-N-RSSYM_13
 70
     0
  0
APPID
  2
GENIUS_GENSYMENT_13
 70
     0
  0
APPID
  2
GENIUS_GENSCSYM_13
 70
     0
  0
APPID
  2
GENIUS_GEFINFNAM_13
 70
     0
  0
APPID
  2
GENIUS_GENOBJ-N-CEN_13
 70
     0
  0
APPID
  2
GENIUS_GENOBJ-N-CRS_13
 70
     0
  0
APPID
  2
GENIUS_GENOBJ-N-CRC_13
 70
     0
  0
APPID
  2
GENIUS_GENCRC_14
 70
     0
  0
APPID
  2
GEVID942827039
 70
     0
  0
APPID
  2
GEVID942827040
 70
     0
  0
APPID
  2
GEVID942827041
 70
     0
  0
APPID
  2
GENIUS_GENOBJ-F-SCPASSM_13
 70
     0
  0
APPID
  2
GENIUS_GENDIMSH_14
 70
     0
  0
APPID
  2
GEVID942827042
 70
     0
  0
APPID
  2
GEVID946020473
 70
     0
  0
APPID
  2
GEVID946020474
 70
     0
  0
APPID
  2
GEVID946020475
 70
     0
  0
APPID
  2
GENIUS_GENOBJ-N-HTC_13
 70
     0
  0
APPID
  2
GENIUS_GENHATCH_13
 70
     0
  0
APPID
  2
GEVID948854295
 70
     0
  0
APPID
  2
GEVID939402019
 70
     0
  0
APPID
  2
GEVID952919491
 70
     0
  0
APPID
  2
GEVID952919492
 70
     0
  0
APPID
  2
GENIUS_GEFWELD_13
 70
     0
  0
APPID
  2
GENIUS_GENOBJ-F-WELS_13
 70
     0
  0
APPID
  2
GEVID952919493
 70
     0
  0
APPID
  2
GENIUS_GENOBJ-N-RSBK_13
 70
     0
  0
APPID
  2
GENIUS_GENOBJ-N-LIB_13
 70
     0
  0
APPID
  2
GENIUS_GENSCALE_13
 70
     0
  0
APPID
  2
GEVID986376691
 70
     0
  0
APPID
  2
DCO15
 70
     0
  0
APPID
  2
ACAD_DSTYLE_DIMBREAK
 70
     0
  0
APPID
  2
ACAD_DSTYLE_DIMJAG
 70
     0
  0
APPID
  2
ACAD_NAV_VCDISPLAY
 70
     0
  0
APPID
  2
ACADANNOPO
 70
     0
  0
APPID
  2
ACAD_EXEMPT_FROM_CAD_STANDARDS
 70
     0
  0
APPID
  2
ACAD_MLEADERVER
 70
     0
  0
ENDTAB
  0
TABLE
  2
DIMSTYLE
 70
    22
  0
DIMSTYLE
  2
STANDARD
 70
     0
  3

  4

  5

  6

  7

 40
1.0
 41
0.18
 42
0.0625
 43
0.38
 44
0.18
 45
0.0
 46
0.0
 47
0.0
 48
0.0
140
0.18
141
0.09
142
0.0
143
25.399999999999999
144
1.0
145
0.0
146
1.0
147
0.09
 71
     0
 72
     0
 73
     1
 74
     1
 75
     0
 76
     0
 77
     0
 78
     0
170
     0
171
     2
172
     0
173
     0
174
     0
175
     0
176
     0
177
     0
178
     0
  0
DIMSTYLE
  2
ANNOTATIVE
 70
     0
  3

  4

  5

  6

  7

 40
1.0
 41
0.18
 42
0.0625
 43
0.38
 44
0.18
 45
0.0
 46
0.0
 47
0.0
 48
0.0
140
0.18
141
0.09
142
0.0
143
25.399999999999999
144
1.0
145
0.0
146
1.0
147
0.09
 71
     0
 72
     0
 73
     1
 74
     1
 75
     0
 76
     0
 77
     0
 78
     0
170
     0
171
     2
172
     0
173
     0
174
     0
175
     0
176
     0
177
     0
178
     0
  0
DIMSTYLE
  2
AM_ISO
 70
     0
  3

  4
"
  5

  6

  7

 40
1.0
 41
2.5
 42
1.0
 43
8.0
 44
0.6
 45
0.0
 46
0.0
 47
0.1
 48
0.1
140
2.5
141
0.0
142
0.0
143
0.0393701
144
1.0
145
0.0
146
0.71
147
0.8
 71
     0
 72
     0
 73
     0
 74
     0
 75
     0
 76
     0
 77
     1
 78
     8
170
     0
171
     2
172
     1
173
     0
174
     0
175
     0
176
   256
177
   256
178
     4
  0
DIMSTYLE
  2
AM_ISO$3
 70
     0
  3

  4
"
  5

  6

  7

 40
1.0
 41
2.5
 42
1.0
 43
8.0
 44
0.6
 45
0.0
 46
0.0
 47
0.1
 48
0.1
140
2.5
141
0.0
142
0.0
143
0.0393701
144
1.0
145
0.0
146
0.71
147
0.8
 71
     0
 72
     0
 73
     0
 74
     1
 75
     0
 76
     0
 77
     1
 78
     8
170
     0
171
     2
172
     0
173
     0
174
     0
175
     0
176
   256
177
   256
178
     4
  0
DIMSTYLE
  2
AM_ISO$4
 70
     0
  3

  4
"
  5

  6

  7

 40
1.0
 41
2.5
 42
1.0
 43
8.0
 44
0.6
 45
0.0
 46
0.0
 47
0.1
 48
0.1
140
2.5
141
0.0
142
0.0
143
0.0393701
144
1.0
145
0.0
146
0.71
147
0.8
 71
     0
 72
     0
 73
     0
 74
     1
 75
     0
 76
     0
 77
     1
 78
     8
170
     0
171
     2
172
     0
173
     0
174
     0
175
     0
176
   256
177
   256
178
     4
  0
DIMSTYLE
  2
AM_ISO$6
 70
     0
  3

  4
"
  5

  6

  7

 40
1.0
 41
2.5
 42
1.0
 43
8.0
 44
0.6
 45
0.0
 46
0.0
 47
0.1
 48
0.1
140
2.5
141
0.0
142
0.0
143
0.0393701
144
1.0
145
0.0
146
0.71
147
0.8
 71
     0
 72
     0
 73
     0
 74
     0
 75
     0
 76
     0
 77
     0
 78
     8
170
     0
171
     2
172
     1
173
     0
174
     0
175
     0
176
   256
177
   256
178
     4
  0
DIMSTYLE
  2
AM_ISO$7
 70
     0
  3

  4
"
  5

  6

  7

 40
1.0
 41
2.5
 42
1.0
 43
8.0
 44
0.6
 45
0.0
 46
0.0
 47
0.1
 48
0.1
140
2.5
141
0.0
142
0.0
143
0.0393701
144
1.0
145
0.0
146
0.71
147
0.8
 71
     0
 72
     0
 73
     0
 74
     0
 75
     0
 76
     0
 77
     1
 78
     8
170
     0
171
     2
172
     1
173
     0
174
     0
175
     0
176
   256
177
   256
178
     4
  0
DIMSTYLE
  2
AM_ISO$SF
 70
     0
  3

  4
"
  5

  6

  7

 40
1.0
 41
2.5
 42
1.0
 43
10.0
 44
1.0
 45
0.0
 46
0.0
 47
0.1
 48
0.1
140
3.5
141
0.0
142
0.0
143
0.0393701
144
1.0
145
0.0
146
0.71
147
1.5
 71
     0
 72
     0
 73
     0
 74
     0
 75
     1
 76
     1
 77
     1
 78
     8
170
     0
171
     2
172
     1
173
     0
174
     0
175
     0
176
   256
177
   256
178
     2
  0
DIMSTYLE
  2
AM_ISO$SH
 70
     0
  3

  4
"
  5

  6

  7

 40
1.0
 41
2.5
 42
1.0
 43
10.0
 44
1.0
 45
0.0
 46
0.0
 47
0.1
 48
0.1
140
3.5
141
0.0
142
0.0
143
0.0393701
144
2.0
145
0.0
146
0.71
147
1.5
 71
     0
 72
     0
 73
     0
 74
     0
 75
     1
 76
     1
 77
     1
 78
     8
170
     0
171
     2
172
     1
173
     1
174
     0
175
     0
176
   256
177
   256
178
     2
  0
DIMSTYLE
  2
AM_JIS
 70
     0
  3

  4
"
  5

  6

  7

 40
1.0
 41
2.5
 42
1.0
 43
7.0
 44
1.0
 45
0.0
 46
0.0
 47
0.1
 48
0.1000000001
140
2.5
141
0.0
142
0.0
143
0.0393701
144
1.0
145
0.0
146
0.71
147
1.0
 71
     0
 72
     0
 73
     0
 74
     0
 75
     0
 76
     0
 77
     3
 78
     8
170
     0
171
     2
172
     1
173
     0
174
     0
175
     0
176
   256
177
   256
178
     4
  0
DIMSTYLE
  2
AM_JIS$3
 70
     0
  3

  4
"
  5

  6

  7

 40
1.0
 41
2.5
 42
1.0
 43
7.0
 44
1.0
 45
0.0
 46
0.0
 47
0.1
 48
0.1000000001
140
2.5
141
0.0
142
0.0
143
0.0393701
144
1.0
145
0.0
146
0.71
147
1.0
 71
     0
 72
     0
 73
     0
 74
     1
 75
     0
 76
     0
 77
     3
 78
     8
170
     0
171
     2
172
     0
173
     0
174
     0
175
     0
176
   256
177
   256
178
     4
  0
DIMSTYLE
  2
AM_JIS$4
 70
     0
  3

  4
"
  5

  6

  7

 40
1.0
 41
2.5
 42
1.0
 43
7.0
 44
1.0
 45
0.0
 46
0.0
 47
0.1
 48
0.1000000001
140
2.5
141
0.0
142
0.0
143
0.0393701
144
1.0
145
0.0
146
0.71
147
1.0
 71
     0
 72
     0
 73
     0
 74
     0
 75
     0
 76
     0
 77
     3
 78
     8
170
     0
171
     2
172
     0
173
     0
174
     0
175
     0
176
   256
177
   256
178
     4
  0
DIMSTYLE
  2
AM_JIS$6
 70
     0
  3

  4
"
  5

  6

  7

 40
1.0
 41
2.5
 42
1.0
 43
7.0
 44
1.0
 45
0.0
 46
0.0
 47
0.1
 48
0.1000000001
140
2.5
141
0.0
142
0.0
143
0.0393701
144
1.0
145
0.0
146
0.71
147
1.0
 71
     0
 72
     0
 73
     0
 74
     0
 75
     0
 76
     0
 77
     0
 78
     8
170
     0
171
     2
172
     1
173
     0
174
     0
175
     0
176
   256
177
   256
178
     4
  0
DIMSTYLE
  2
AM_JIS$7
 70
     0
  3

  4
"
  5

  6

  7

 40
1.0
 41
2.5
 42
1.0
 43
7.0
 44
1.0
 45
0.0
 46
0.0
 47
0.1
 48
0.1000000001
140
2.5
141
0.0
142
0.0
143
0.0393701
144
1.0
145
0.0
146
0.71
147
1.0
 71
     0
 72
     0
 73
     0
 74
     0
 75
     0
 76
     0
 77
     3
 78
     8
170
     0
171
     2
172
     1
173
     0
174
     0
175
     0
176
   256
177
   256
178
     4
  0
DIMSTYLE
  2
AM_JIS$SF
 70
     0
  3

  4
"
  5

  6

  7

 40
1.0
 41
2.5
 42
1.0
 43
10.0
 44
1.0
 45
0.0
 46
0.0
 47
0.1
 48
0.1
140
3.5
141
0.0
142
0.0
143
0.0393701
144
1.0
145
0.0
146
0.71
147
1.5
 71
     0
 72
     0
 73
     0
 74
     0
 75
     1
 76
     1
 77
     3
 78
     8
170
     0
171
     2
172
     1
173
     0
174
     0
175
     0
176
   256
177
   256
178
     4
  0
DIMSTYLE
  2
AM_JIS$SH
 70
     0
  3

  4
"
  5

  6

  7

 40
1.0
 41
2.5
 42
1.0
 43
10.0
 44
1.0
 45
0.0
 46
0.0
 47
0.1
 48
0.1
140
3.5
141
0.0
142
0.0
143
0.0393701
144
1.0
145
0.0
146
0.71
147
1.5
 71
     0
 72
     0
 73
     0
 74
     0
 75
     1
 76
     0
 77
     3
 78
     8
170
     0
171
     2
172
     1
173
     1
174
     0
175
     0
176
   256
177
   256
178
     4
  0
DIMSTYLE
  2
AM_ANSI
 70
     0
  3

  4
mm
  5

  6

  7

 40
1.0
 41
0.1
 42
0.05
 43
0.5
 44
0.1
 45
0.0
 46
0.0
 47
0.1
 48
0.1
140
0.12
141
0.0
142
0.0
143
25.399999999999999
144
1.0
145
0.0
146
0.71
147
0.06
 71
     0
 72
     0
 73
     1
 74
     1
 75
     0
 76
     0
 77
     0
 78
     7
170
     0
171
     2
172
     0
173
     0
174
     0
175
     0
176
   256
177
   256
178
     2
  0
DIMSTYLE
  2
AM_ANSI$3
 70
     0
  3

  4
mm
  5

  6

  7

 40
1.0
 41
0.1
 42
0.05
 43
0.5
 44
0.1
 45
0.0
 46
0.0
 47
0.1
 48
0.1
140
0.12
141
0.0
142
0.0
143
25.399999999999999
144
1.0
145
0.0
146
0.71
147
0.06
 71
     0
 72
     0
 73
     1
 74
     1
 75
     0
 76
     0
 77
     0
 78
     7
170
     0
171
     2
172
     0
173
     0
174
     0
175
     0
176
   256
177
   256
178
     2
  0
DIMSTYLE
  2
AM_ANSI$4
 70
     0
  3

  4
mm
  5

  6

  7

 40
1.0
 41
0.1
 42
0.05
 43
0.5
 44
0.1
 45
0.0
 46
0.0
 47
0.1
 48
0.1
140
0.12
141
0.0
142
0.0
143
25.399999999999999
144
1.0
145
0.0
146
0.71
147
0.06
 71
     0
 72
     0
 73
     1
 74
     1
 75
     0
 76
     0
 77
     0
 78
     7
170
     0
171
     2
172
     0
173
     0
174
     0
175
     0
176
   256
177
   256
178
     2
  0
DIMSTYLE
  2
AM_ANSI$7
 70
     0
  3

  4
mm
  5

  6

  7

 40
1.0
 41
0.1
 42
0.05
 43
0.5
 44
0.1
 45
0.0
 46
0.0
 47
0.1
 48
0.1
140
0.24
141
0.0
142
0.0
143
25.399999999999999
144
1.0
145
0.0
146
0.71
147
0.06
 71
     0
 72
     0
 73
     1
 74
     1
 75
     0
 76
     0
 77
     0
 78
     7
170
     0
171
     2
172
     0
173
     0
174
     0
175
     0
176
   256
177
   256
178
     2
  0
DIMSTYLE
  2
AM_ANSI$SF
 70
     0
  3

  4
mm
  5

  6

  7

 40
1.0
 41
0.1
 42
0.05
 43
0.5
 44
0.1
 45
0.0
 46
0.0
 47
0.1
 48
0.1
140
0.12
141
0.0
142
0.0
143
25.399999999999999
144
1.0
145
0.0
146
0.71
147
0.06
 71
     0
 72
     0
 73
     1
 74
     1
 75
     1
 76
     1
 77
     0
 78
     7
170
     0
171
     2
172
     0
173
     0
174
     0
175
     0
176
   256
177
   256
178
     2
  0
DIMSTYLE
  2
AM_ANSI$SH
 70
     0
  3

  4
mm
  5

  6

  7

 40
1.0
 41
0.1
 42
0.05
 43
0.5
 44
0.1
 45
0.0
 46
0.0
 47
0.1
 48
0.1
140
0.12
141
0.0
142
0.0
143
25.399999999999999
144
1.0
145
0.0
146
0.71
147
0.06
 71
     0
 72
     0
 73
     1
 74
     1
 75
     1
 76
     1
 77
     0
 78
     7
170
     0
171
     2
172
     0
173
     1
174
     0
175
     0
176
   256
177
   256
178
     2
  0
ENDTAB
  0
ENDSEC
  0
SECTION
  2
BLOCKS
  0
BLOCK
  8
0
  2
$MODEL_SPACE
 70
     0
 10
0.0
 20
0.0
 30
0.0
  3
$MODEL_SPACE
  1

  0
ENDBLK
  5
3289
  8
0
  0
BLOCK
 67
     1
  8
0
  2
$PAPER_SPACE
 70
     0
 10
0.0
 20
0.0
 30
0.0
  3
$PAPER_SPACE
  1

  0
ENDBLK
  5
3285
 67
     1
  8
0
  0
BLOCK
  8
0
  2
GENAXEH
 70
     0
 10
0.0
 20
0.0
 30
0.0
  3
GENAXEH
  1

  0
LINE
  5
3021
  8
0
 10
-1.0
 20
0.0
 30
0.0
 11
1.0
 21
0.0
 31
0.0
  0
ENDBLK
  5
3022
  8
0
  0
BLOCK
  8
0
  2
_OPEN30
 70
     0
 10
0.0
 20
0.0
 30
0.0
  3
_OPEN30
  1

  0
LINE
  5
3025
  8
0
 62
     0
 10
-1.0
 20
0.26794919
 30
0.0
 11
0.0
 21
0.0
 31
0.0
  0
LINE
  5
3026
  8
0
 62
     0
 10
0.0
 20
0.0
 30
0.0
 11
-1.0
 21
-0.26794919
 31
0.0
  0
LINE
  5
3027
  8
0
 62
     0
 10
0.0
 20
0.0
 30
0.0
 11
-1.0
 21
0.0
 31
0.0
  0
ENDBLK
  5
3028
  8
0
  0
BLOCK
  8
0
  2
_NONE
 70
     0
 10
0.0
 20
0.0
 30
0.0
  3
_NONE
  1

  0
ENDBLK
  5
302B
  8
0
  0
BLOCK
  8
0
  2
_ACMFILLEDHALF
 70
     0
 10
0.0
 20
0.0
 30
0.0
  3
_ACMFILLEDHALF
  1

  0
TRACE
  5
3381
  8
AM_0
 62
     0
 10
-0.8
 20
0.0
 30
0.0
 11
-1.0
 21
0.166666666
 31
0.0
 12
0.0
 22
0.0
 32
0.0
 13
0.0
 23
0.0
 33
0.0
  0
LINE
  5
3382
  8
AM_0
 62
     0
 10
-1.0
 20
0.0
 30
0.0
 11
-0.8
 21
0.0
 31
0.0
  0
ENDBLK
  5
3380
  8
0
  0
ENDSEC
  0
SECTION
  2
ENTITIES
  0
LINE
  5
302D
  8
AM_0
 10
653.37903243683695
 20
949.03004920083993
 30
0.0
 11
715.3789724368371
 21
949.03004920083993
 31
0.0
  0
LINE
  5
302E
  8
AM_0
 10
653.37903243683695
 20
933.02998920083974
 30
0.0
 11
715.3789724368371
 21
933.02998920083974
 31
0.0
  0
LINE
  5
302F
  8
AM_0
 10
633.37897243683699
 20
968.53004920084004
 30
0.0
 11
715.3789724368371
 21
968.53004920084004
 31
0.0
  0
LINE
  5
3030
  8
AM_0
 10
633.37897243683699
 20
913.53004920084015
 30
0.0
 11
715.3789724368371
 21
913.53004920084015
 31
0.0
  0
LINE
  5
3031
  8
ﾁｭｳｼﾝｾﾝ
 10
258.37670572999912
 20
941.03004920084015
 30
0.0
 11
720.80782243683655
 21
941.03004920084015
 31
0.0
  0
LINE
  5
3032
  8
AM_0
 10
331.37909243683703
 20
983.88862920084
 30
0.0
 11
393.77270243683688
 21
983.88862920084
 31
0.0
  0
LINE
  5
3033
  8
AM_0
 10
331.37909243683703
 20
898.70728920084002
 30
0.0
 11
393.5661024368369
 21
898.70728920084002
 31
0.0
  0
LINE
  5
3034
  8
AM_0
 10
316.37909243683703
 20
889.52973920084014
 30
0.0
 11
397.45367243683722
 21
889.52973920084014
 31
0.0
  0
LINE
  5
3035
  8
AM_0
 10
316.37909243683703
 20
992.53004920084004
 30
0.0
 11
397.453492436837
 21
992.53004920084004
 31
0.0
  0
LINE
  5
3036
  8
AM_0
 10
403.48376243683691
 20
873.98823920083998
 30
0.0
 11
316.37909243683703
 21
877.02998920084019
 31
0.0
  0
LINE
  5
3037
  8
AM_0
 10
403.48382243683682
 20
1008.07178920084
 30
0.0
 11
316.37915243683682
 21
1005.03004920084
 31
0.0
  0
LINE
  5
3038
  8
AM_0
 10
403.48376243683691
 20
958.54798920083999
 30
0.0
 11
334.27441243683688
 21
956.13111920084009
 31
0.0
  0
LINE
  5
3039
  8
AM_0
 10
403.48382243683682
 20
923.51203920084015
 30
0.0
 11
334.27441243683688
 21
925.92890920083994
 31
0.0
  0
LINE
  5
303A
  8
AM_0
 10
331.37909243683703
 20
898.70728920084002
 30
0.0
 11
331.37909243683703
 21
983.88862920084
 31
0.0
  0
LINE
  5
303B
  8
AM_0
 10
316.37909243683703
 20
877.03004920084004
 30
0.0
 11
316.37909243683703
 21
1005.03004920084
 31
0.0
  0
ARC
  5
303C
  8
AM_0
 10
334.37909243683703
 20
928.92707920084024
 30
0.0
 40
3.0
 50
180.00001000000091
 51
268.00000000000261
  0
LINE
  5
303D
  8
AM_0
 10
316.37909243683703
 20
902.97517920083988
 30
0.0
 11
331.37909243683703
 21
902.97517920083988
 31
0.0
  0
ARC
  5
303E
  8
AM_0
 10
334.37909243683703
 20
953.1329492008399
 30
0.0
 40
3.0
 50
91.999998000000545
 51
180.00001000000091
  0
LINE
  5
303F
  8
AM_0
 10
316.37909243683703
 20
979.88929920084013
 30
0.0
 11
331.37909243683703
 21
979.88929920084013
 31
0.0
  0
ARC
  5
3040
  8
AM_0
 10
462.37903243683701
 20
941.03004920084015
 30
0.0
 40
12.5
 50
203.5781799999973
 51
336.42183000000068
  0
ARC
  5
3041
  8
AM_0
 10
447.37903243683678
 20
927.80128920083985
 30
0.0
 40
5.0
 50
0.0
 51
41.409624000000257
  0
LINE
  5
3042
  8
AM_0
 10
406.3790924368368
 20
870.77625920084017
 30
0.0
 11
406.3790924368368
 21
1011.28376920084
 31
0.0
  0
LINE
  5
3043
  8
AM_0
 10
480.37903243683678
 20
936.03004920084004
 30
0.0
 11
480.37903243683678
 21
808.03004920084015
 31
0.0
  0
LINE
  5
3044
  8
AM_0
 10
431.8789724368371
 20
834.57435920084015
 30
0.0
 11
431.8789724368371
 21
1047.48573920084
 31
0.0
  0
LINE
  5
3045
  8
AM_0
 10
505.37897243683682
 20
808.90302920084002
 30
0.0
 11
505.37897243683682
 21
1073.1569992008399
 31
0.0
  0
LINE
  5
3046
  8
AM_0
 10
595.37903243683695
 20
832.9079192008403
 30
0.0
 11
595.37903243683695
 21
1049.152119200839
 31
0.0
  0
LINE
  5
3047
  8
AM_0
 10
622.37903243683695
 20
1038.40101920084
 30
0.0
 11
622.37903243683695
 21
843.65907920083987
 31
0.0
  0
LINE
  5
3048
  8
AM_0
 10
627.37903243683695
 20
999.09864920083987
 30
0.0
 11
627.37903243683695
 21
882.96143920084023
 31
0.0
  0
LINE
  5
3049
  8
AM_0
 10
633.37897243683699
 20
971.03004920084004
 30
0.0
 11
633.37897243683699
 21
911.03004920084004
 31
0.0
  0
LINE
  5
304A
  8
AM_0
 10
416.37903243683678
 20
867.53004920084015
 30
0.0
 11
416.37903243683678
 21
1014.53004920084
 31
0.0
  0
LINE
  5
304B
  8
AM_0
 10
509.52374243683681
 20
813.04780920083988
 30
0.0
 11
559.21899243683686
 21
814.78315920084015
 31
0.0
  0
LINE
  5
304C
  8
AM_0
 10
485.3789724368371
 20
776.02998920084019
 30
0.0
 11
622.55347243683696
 21
780.82026920084013
 31
0.0
  0
ARC
  5
304D
  8
AM_0
 10
402.37903243683678
 20
783.93153920084012
 30
0.0
 40
5.0
 50
180.00001000000091
 51
268.00000000000261
  0
LINE
  5
304E
  8
AM_0
 10
452.91528243683678
 20
777.3720292008403
 30
0.0
 11
483.37903243683678
 21
788.14307920084013
 31
0.0
  0
LINE
  5
304F
  8
AM_0
 10
485.37903243683678
 20
776.02998920084019
 30
0.0
 11
402.20453243683681
 21
778.9345292008403
 31
0.0
  0
LINE
  5
3050
  8
AM_0
 10
447.55353243683709
 20
829.19849920084005
 30
0.0
 11
436.70447243683668
 21
829.57734920083999
 31
0.0
  0
LINE
  5
3051
  8
AM_0
 10
397.37903243683678
 20
783.93153920084012
 30
0.0
 11
397.37903243683678
 21
826.31776920083973
 31
0.0
  0
CIRCLE
  5
3052
  8
AM_0
 10
427.37903243683678
 20
808.53004920084015
 30
0.0
 40
9.5
  0
LINE
  5
3053
  8
AM_0
 10
401.5108024368368
 20
831.24177920084014
 30
0.0
 11
431.8789724368371
 21
836.59650920084005
 31
0.0
  0
ARC
  5
3054
  8
AM_0
 10
402.37903243683678
 20
826.31776920083973
 30
0.0
 40
5.0
 50
99.999999999998593
 51
180.00001000000091
  0
ARC
  5
3055
  8
AM_0
 10
436.8789724368371
 20
834.57435920084015
 30
0.0
 40
5.0
 50
180.00001000000091
 51
268.00000000000261
  0
POLYLINE
  5
3056
  8
AM_0
 66
     1
 10
0.0
 20
0.0
 30
0.0
  0
VERTEX
  5
3057
  8
AM_0
 10
406.3790924368368
 20
873.03004920084015
 30
0.0
  0
VERTEX
  5
3058
  8
AM_0
 10
386.64272243683718
 20
924.10003920084
 30
0.0
 42
-1.0
  0
SEQEND
  5
3059
  8
AM_0
  0
LINE
  5
305A
  8
AM_0
 10
416.3789724368371
 20
867.5299892008403
 30
0.0
 11
427.05353243683709
 21
867.15723920084031
 31
0.0
  0
LINE
  5
305B
  8
AM_0
 10
416.37903243683678
 20
879.45008920084001
 30
0.0
 11
431.8789724368371
 21
879.45008920084001
 31
0.0
  0
ARC
  5
305C
  8
AM_0
 10
409.37909243683669
 20
870.77625920084017
 30
0.0
 40
3.0
 50
180.00001000000091
 51
268.00000000000261
  0
ARC
  5
305D
  8
AM_0
 10
403.3790924368368
 20
870.99006920084014
 30
0.0
 40
3.0
 50
0.0
 51
88.000000000002785
  0
LINE
  5
305E
  8
AM_0
 10
416.37903243683678
 20
867.5299892008403
 30
0.0
 11
409.27441243683711
 21
867.7780892008401
 31
0.0
  0
LINE
  5
305F
  8
AM_0
 10
416.37909243683691
 20
879.45136920084019
 30
0.0
 11
406.3790924368368
 21
879.45136920084019
 31
0.0
  0
ARC
  5
3060
  8
AM_0
 10
426.8789724368371
 20
862.16029920084009
 30
0.0
 40
5.0
 50
0.0
 51
88.000000000002785
  0
LINE
  5
3061
  8
AM_0
 10
416.37903243683678
 20
901.55531920084002
 30
0.0
 11
431.8789724368371
 21
901.55531920084002
 31
0.0
  0
LINE
  5
3062
  8
AM_0
 10
416.37909243683691
 20
901.55537920083998
 30
0.0
 11
406.3790924368368
 21
901.55537920083998
 31
0.0
  0
ARC
  5
3063
  8
AM_0
 10
403.3790924368368
 20
920.51392920084004
 30
0.0
 40
3.0
 50
0.0
 51
88.000000000002785
  0
LINE
  5
3064
  8
AM_0
 10
452.37903243683678
 20
813.83625920084023
 30
0.0
 11
452.37903243683678
 21
927.80128920083985
 31
0.0
  0
LINE
  5
3065
  8
AM_0
 10
456.37903243683678
 20
789.20338920083998
 30
0.0
 11
483.37903243683678
 21
798.74970920084013
 31
0.0
  0
LINE
  5
3066
  8
AM_0
 10
480.37897243683682
 20
808.03004920084015
 30
0.0
 11
505.37897243683682
 21
808.90302920084002
 31
0.0
  0
LINE
  5
3067
  8
AM_0
 10
480.37903243683678
 20
808.03004920084015
 30
0.0
 11
457.2045324368371
 21
808.83930920084003
 31
0.0
  0
ARC
  5
3068
  8
AM_0
 10
455.37903243683678
 20
792.03175920084016
 30
0.0
 40
3.0
 50
180.00001000000091
 51
289.47202999999712
  0
ARC
  5
3069
  8
AM_0
 10
457.37903243683712
 20
813.83625920084023
 30
0.0
 40
5.0
 50
180.00001000000091
 51
268.00000000000261
  0
ARC
  5
306A
  8
AM_0
 10
447.37903243683678
 20
824.20155920083982
 30
0.0
 40
5.0
 50
0.0
 51
88.000000000002785
  0
LINE
  5
306B
  8
AM_0
 10
485.37903243683678
 20
790.97144920084031
 30
0.0
 11
485.37903243683678
 21
808.2046092008402
 31
0.0
  0
ARC
  5
306C
  8
AM_0
 10
482.37903243683712
 20
801.57813920084016
 30
0.0
 40
3.0
 50
289.47202000000181
 51
0.0
  0
ARC
  5
306D
  8
AM_0
 10
482.37903243683712
 20
790.97144920084031
 30
0.0
 40
3.0
 50
289.47202000000181
 51
0.0
  0
LINE
  5
306E
  8
AM_0
 10
505.37897243683682
 20
808.90302920084002
 30
0.0
 11
509.52374243683681
 21
813.04780920083988
 31
0.0
  0
ARC
  5
306F
  8
AM_0
 10
567.37903243683695
 20
783.8965592008401
 30
0.0
 40
5.0
 50
180.00001000000091
 51
271.99999000000139
  0
ARC
  5
3070
  8
AM_0
 10
622.37903243683695
 20
785.81721920083999
 30
0.0
 40
5.0
 50
271.9999999999971
 51
0.0
  0
LINE
  5
3071
  8
AM_0
 10
603.09985243683695
 20
841.29963920084015
 30
0.0
 11
614.65820243683686
 21
841.70325920084031
 31
0.0
  0
ARC
  5
3072
  8
AM_0
 10
574.37903243683695
 20
812.44178920084016
 30
0.0
 40
12.0
 50
91.999998000000545
 51
180.00001000000091
  0
LINE
  5
3073
  8
AM_0
 10
562.37903243683695
 20
783.8965592008401
 30
0.0
 11
562.37903243683695
 21
812.44178920084016
 31
0.0
  0
ARC
  5
3074
  8
AM_0
 10
559.04443243683716
 20
819.78016920084019
 30
0.0
 40
5.0
 50
271.9999999999971
 51
334.42648000000293
  0
CIRCLE
  5
3075
  8
AM_0
 10
597.37903243683695
 20
808.53004920084015
 30
0.0
 40
9.5
  0
ARC
  5
3076
  8
AM_0
 10
587.37903243683695
 20
832.9079192008403
 30
0.0
 40
8.0
 50
271.9999999999971
 51
0.0
  0
LINE
  5
3077
  8
AM_0
 10
573.96020243683699
 20
824.43446920084
 30
0.0
 11
587.65820243683675
 21
824.91279920084025
 31
0.0
  0
ARC
  5
3078
  8
AM_0
 10
603.37903243683695
 20
833.30451920083999
 30
0.0
 40
8.0
 50
91.999998000000545
 51
180.00001000000091
  0
LINE
  5
3079
  8
AM_0
 10
627.37903243683695
 20
785.81721920083999
 30
0.0
 11
627.37903243683695
 21
836.24281920084013
 31
0.0
  0
ARC
  5
307A
  8
AM_0
 10
622.37903243683695
 20
836.24281920084013
 30
0.0
 40
5.0
 50
0.0
 51
67.975688999996393
  0
ARC
  5
307B
  8
AM_0
 10
614.37903243683695
 20
849.69837920084024
 30
0.0
 40
8.0
 50
271.9999999999971
 51
0.0
  0
ARC
  5
307C
  8
AM_0
 10
625.37903243683695
 20
843.65907920083987
 30
0.0
 40
3.0
 50
180.00001000000091
 51
247.97569000000061
  0
ARC
  5
307D
  8
AM_0
 10
624.37903243683695
 20
878.92408920084017
 30
0.0
 40
2.0
 50
91.999998000000545
 51
180.00001000000091
  0
ARC
  5
307E
  8
AM_0
 10
625.37903243683695
 20
882.96143920084023
 30
0.0
 40
2.0
 50
271.9999999999971
 51
0.0
  0
LINE
  5
307F
  8
AM_0
 10
624.30920243683704
 20
880.92286920083984
 30
0.0
 11
625.448852436837
 21
880.96265920084011
 31
0.0
  0
LINE
  5
3080
  8
AM_0
 10
627.37903243683695
 20
911.03004920084004
 30
0.0
 11
633.37897243683699
 21
911.03004920084004
 31
0.0
  0
LINE
  5
3081
  8
AM_0
 10
485.37903243683678
 20
1106.03004920084
 30
0.0
 11
622.55353243683714
 21
1101.2398192008391
 31
0.0
  0
LINE
  5
3082
  8
AM_0
 10
509.52374243683681
 20
1069.0122892008401
 30
0.0
 11
559.21899243683686
 21
1067.276869200839
 31
0.0
  0
CIRCLE
  5
3083
  8
AM_0
 10
427.37903243683678
 20
1073.53004920084
 30
0.0
 40
9.5
  0
LINE
  5
3084
  8
AM_0
 10
397.37903243683678
 20
1098.1285592008401
 30
0.0
 11
397.37903243683678
 21
1055.74232920084
 31
0.0
  0
LINE
  5
3085
  8
AM_0
 10
485.37903243683678
 20
1091.0885792008401
 30
0.0
 11
485.37903243683678
 21
1073.855429200838
 31
0.0
  0
ARC
  5
3086
  8
AM_0
 10
442.37903243683678
 20
941.03004920084015
 30
0.0
 40
5.0
 50
90.00000299999769
 51
270.0
  0
LINE
  5
3087
  8
AM_0
 10
447.55347243683718
 20
1052.8615292008401
 30
0.0
 11
436.70447243683668
 21
1052.48267920084
 31
0.0
  0
POLYLINE
  5
3088
  8
AM_0
 66
     1
 10
0.0
 20
0.0
 30
0.0
  0
VERTEX
  5
3089
  8
AM_0
 10
386.64267243683707
 20
957.95976920084024
 30
0.0
 42
-0.03710785
  0
VERTEX
  5
308A
  8
AM_0
 10
390.92085243683692
 20
975.80598920084003
 30
0.0
 42
-0.032389942
  0
VERTEX
  5
308B
  8
AM_0
 10
397.62331243683678
 20
992.89450920084005
 30
0.0
 42
-0.029578822
  0
VERTEX
  5
308C
  8
AM_0
 10
406.3790924368368
 20
1009.03004920084
 30
0.0
  0
SEQEND
  5
308D
  8
AM_0
  0
ARC
  5
308E
  8
AM_0
 10
403.3790924368368
 20
961.54615920083995
 30
0.0
 40
3.0
 50
271.9999999999971
 51
0.0
  0
LINE
  5
308F
  8
AM_0
 10
416.37903243683678
 20
980.50471920083999
 30
0.0
 11
431.8789724368371
 21
980.50471920083999
 31
0.0
  0
LINE
  5
3090
  8
AM_0
 10
416.37903243683678
 20
1002.6100592008401
 30
0.0
 11
431.8789724368371
 21
1002.6100592008401
 31
0.0
  0
LINE
  5
3091
  8
AM_0
 10
416.37909243683691
 20
980.50471920083999
 30
0.0
 11
406.3790924368368
 21
980.50471920083999
 31
0.0
  0
LINE
  5
3092
  8
AM_0
 10
416.37909243683691
 20
1002.608659200839
 30
0.0
 11
406.3790924368368
 21
1002.608659200839
 31
0.0
  0
LINE
  5
3093
  8
AM_0
 10
416.3789724368371
 20
1014.5299892008391
 30
0.0
 11
427.05347243683718
 21
1014.90272920084
 31
0.0
  0
ARC
  5
3094
  8
AM_0
 10
409.37909243683669
 20
1011.28376920084
 30
0.0
 40
3.0
 50
91.999998000000545
 51
180.00001000000091
  0
ARC
  5
3095
  8
AM_0
 10
403.3790924368368
 20
1011.06995920084
 30
0.0
 40
3.0
 50
271.9999999999971
 51
0.0
  0
LINE
  5
3096
  8
AM_0
 10
416.37903243683678
 20
1014.53004920084
 30
0.0
 11
409.27441243683711
 21
1014.281939200839
 31
0.0
  0
ARC
  5
3097
  8
AM_0
 10
426.8789724368371
 20
1019.89973920084
 30
0.0
 40
5.0
 50
271.9999999999971
 51
0.0
  0
LINE
  5
3098
  8
AM_0
 10
401.5108024368368
 20
1050.8182492008391
 30
0.0
 11
431.8789724368371
 21
1045.46351920084
 31
0.0
  0
ARC
  5
3099
  8
AM_0
 10
402.37903243683678
 20
1055.74232920084
 30
0.0
 40
5.0
 50
180.00001000000091
 51
259.99998999999872
  0
ARC
  5
309A
  8
AM_0
 10
436.8789724368371
 20
1047.48573920084
 30
0.0
 40
5.0
 50
91.999998000000545
 51
180.00001000000091
  0
LINE
  5
309B
  8
AM_0
 10
452.37903243683678
 20
954.25880920083989
 30
0.0
 11
452.37903243683678
 21
1068.22376920084
 31
0.0
  0
LINE
  5
309C
  8
AM_0
 10
480.37903243683678
 20
1074.03004920084
 30
0.0
 11
480.37903243683678
 21
946.03004920084004
 31
0.0
  0
ARC
  5
309D
  8
AM_0
 10
482.37903243683712
 20
941.03004920084015
 30
0.0
 40
5.0
 50
270.0
 51
90.00000299999769
  0
LINE
  5
309E
  8
AM_0
 10
442.37903243683678
 20
946.03004920084004
 30
0.0
 11
482.37903243683712
 21
946.03004920084004
 31
0.0
  0
LINE
  5
309F
  8
AM_0
 10
442.37903243683678
 20
936.03004920084004
 30
0.0
 11
482.37903243683712
 21
936.03004920084004
 31
0.0
  0
ARC
  5
30A0
  8
AM_0
 10
462.37903243683701
 20
941.03004920084015
 30
0.0
 40
12.5
 50
23.578179999997531
 51
156.42182000000241
  0
ARC
  5
30A1
  8
AM_0
 10
462.37903243683701
 20
941.03004920084015
 30
0.0
 40
15.0
 50
138.590370000001
 51
160.52876999999901
  0
ARC
  5
30A2
  8
AM_0
 10
462.37903243683701
 20
941.03004920084015
 30
0.0
 40
15.0
 50
199.4712300000005
 51
221.4096299999988
  0
ARC
  5
30A3
  8
AM_0
 10
447.37903243683678
 20
954.25880920083989
 30
0.0
 40
5.0
 50
318.59037000000097
 51
0.0
  0
LINE
  5
30A4
  8
AM_0
 10
480.37903243683678
 20
1074.02998920084
 30
0.0
 11
505.37903243683678
 21
1073.1569992008399
 31
0.0
  0
LINE
  5
30A5
  8
AM_0
 10
480.37897243683682
 20
1074.03004920084
 30
0.0
 11
457.20447243683668
 21
1073.2207792008401
 31
0.0
  0
ARC
  5
30A6
  8
AM_0
 10
447.37903243683678
 20
1057.8584792008401
 30
0.0
 40
5.0
 50
271.9999999999971
 51
0.0
  0
ARC
  5
30A7
  8
AM_0
 10
457.37903243683712
 20
1068.22376920084
 30
0.0
 40
5.0
 50
91.999998000000545
 51
180.00001000000091
  0
LINE
  5
30A8
  8
AM_0
 10
505.37897243683682
 20
1073.1570592008391
 30
0.0
 11
509.52374243683681
 21
1069.0122892008401
 31
0.0
  0
LINE
  5
30A9
  8
AM_0
 10
485.37903243683678
 20
1106.03004920084
 30
0.0
 11
402.20447243683691
 21
1103.12550920084
 31
0.0
  0
ARC
  5
30AA
  8
AM_0
 10
402.37903243683678
 20
1098.1285592008401
 30
0.0
 40
5.0
 50
91.999998000000545
 51
180.00001000000091
  0
LINE
  5
30AB
  8
AM_0
 10
452.91528243683678
 20
1104.68800920084
 30
0.0
 11
483.3790924368368
 21
1093.91694920084
 31
0.0
  0
LINE
  5
30AC
  8
AM_0
 10
456.3790924368368
 20
1092.85670920084
 30
0.0
 11
483.3790924368368
 21
1083.3103192008391
 31
0.0
  0
ARC
  5
30AD
  8
AM_0
 10
455.37903243683678
 20
1090.02827920084
 30
0.0
 40
3.0
 50
70.527972999999633
 51
180.00001000000091
  0
ARC
  5
30AE
  8
AM_0
 10
482.37903243683712
 20
1091.0885792008401
 30
0.0
 40
3.0
 50
0.0
 51
70.527972999999633
  0
ARC
  5
30AF
  8
AM_0
 10
482.37903243683712
 20
1080.48188920084
 30
0.0
 40
3.0
 50
0.0
 51
70.527972999999633
  0
CIRCLE
  5
30B0
  8
AM_0
 10
597.37903243683695
 20
1073.53004920084
 30
0.0
 40
9.5
  0
LINE
  5
30B1
  8
ﾁｭｳｼﾝｾﾝ1
 10
597.37903243683695
 20
1091.03004920084
 30
0.0
 11
597.37903243683695
 21
1055.91444920084
 31
0.0
  0
LINE
  5
30B2
  8
AM_0
 10
627.37903243683695
 20
1096.242819200839
 30
0.0
 11
627.37903243683695
 21
1045.8172192008401
 31
0.0
  0
LINE
  5
30B3
  8
AM_0
 10
562.37903243683695
 20
1098.163469200839
 30
0.0
 11
562.37903243683695
 21
1069.6182992008401
 31
0.0
  0
LINE
  5
30B4
  8
ﾁｭｳｼﾝｾﾝ1
 10
579.87903243683695
 20
1073.53004920084
 30
0.0
 11
614.87903243683695
 21
1073.53004920084
 31
0.0
  0
LINE
  5
30B5
  8
AM_0
 10
603.09985243683695
 20
1040.7603892008401
 30
0.0
 11
614.65826243683705
 21
1040.3567692008401
 31
0.0
  0
ARC
  5
30B6
  8
AM_0
 10
574.37903243683695
 20
1069.6182992008401
 30
0.0
 40
12.0
 50
180.00001000000091
 51
268.00000000000261
  0
ARC
  5
30B7
  8
AM_0
 10
559.04443243683716
 20
1062.279919200839
 30
0.0
 40
5.0
 50
25.5735169999985
 51
88.000000000002785
  0
ARC
  5
30B8
  8
AM_0
 10
603.37903243683695
 20
1048.7555092008399
 30
0.0
 40
8.0
 50
180.00001000000091
 51
268.00000000000261
  0
ARC
  5
30B9
  8
AM_0
 10
587.37903243683695
 20
1049.152119200839
 30
0.0
 40
8.0
 50
0.0
 51
88.000000000002785
  0
LINE
  5
30BA
  8
AM_0
 10
573.96027243683704
 20
1057.62562920084
 30
0.0
 11
587.65826243683705
 21
1057.1472292008391
 31
0.0
  0
ARC
  5
30BB
  8
AM_0
 10
653.37903243683695
 20
941.02998920083985
 30
0.0
 40
8.0000113999999982
 50
90.00000299999769
 51
270.0
  0
LINE
  5
30BC
  8
AM_0
 10
653.3789724368371
 20
949.03004920083993
 30
0.0
 11
653.3789724368371
 21
933.02998920083974
 31
0.0
  0
LINE
  5
30BD
  8
AM_0
 10
627.37903243683695
 20
971.03004920084004
 30
0.0
 11
633.37897243683699
 21
971.03004920084004
 31
0.0
  0
ARC
  5
30BE
  8
AM_0
 10
624.37903243683695
 20
1003.13599920084
 30
0.0
 40
2.0
 50
180.00001000000091
 51
268.00000000000261
  0
ARC
  5
30BF
  8
AM_0
 10
625.37903243683695
 20
999.09864920083987
 30
0.0
 40
2.0
 50
0.0
 51
88.000000000002785
  0
LINE
  5
30C0
  8
AM_0
 10
624.30920243683704
 20
1001.13721920084
 30
0.0
 11
625.448852436837
 21
1001.09742920084
 31
0.0
  0
ARC
  5
30C1
  8
AM_0
 10
625.37903243683695
 20
1038.40101920084
 30
0.0
 40
3.0
 50
112.0243099999992
 51
180.00001000000091
  0
ARC
  5
30C2
  8
AM_0
 10
614.37903243683695
 20
1032.36164920084
 30
0.0
 40
8.0
 50
0.0
 51
88.000000000002785
  0
ARC
  5
30C3
  8
AM_0
 10
622.37903243683695
 20
1045.8172192008401
 30
0.0
 40
5.0
 50
292.02430999999922
 51
0.0
  0
ARC
  5
30C4
  8
AM_0
 10
567.37903243683695
 20
1098.163469200839
 30
0.0
 40
5.0
 50
88.000000000002785
 51
180.00001000000091
  0
ARC
  5
30C5
  8
AM_0
 10
622.37903243683695
 20
1096.242819200839
 30
0.0
 40
5.0
 50
0.0
 51
88.000000000002785
  0
LINE
  5
30C6
  8
AM_0
 10
715.3789724368371
 20
968.53004920084004
 30
0.0
 11
715.3789724368371
 21
913.53004920084015
 31
0.0
  0
LINE
  5
30C7
  8
ﾁｭｳｼﾝｾﾝ1
 10
409.87903243683678
 20
1073.53004920084
 30
0.0
 11
444.87903243683712
 21
1073.53004920084
 31
0.0
  0
LINE
  5
30C8
  8
ﾁｭｳｼﾝｾﾝ1
 10
427.37903243683678
 20
1091.03004920084
 30
0.0
 11
427.37903243683678
 21
1055.91444920084
 31
0.0
  0
LINE
  5
30C9
  8
ﾁｭｳｼﾝｾﾝ1
 10
409.87903243683678
 20
808.53004920084015
 30
0.0
 11
444.87903243683712
 21
808.53004920084015
 31
0.0
  0
LINE
  5
30CA
  8
ﾁｭｳｼﾝｾﾝ1
 10
427.37903243683678
 20
826.03004920084015
 30
0.0
 11
427.37903243683678
 21
790.91444920084029
 31
0.0
  0
LINE
  5
30CB
  8
ﾁｭｳｼﾝｾﾝ1
 10
579.87903243683695
 20
808.53004920084015
 30
0.0
 11
614.87903243683695
 21
808.53004920084015
 31
0.0
  0
LINE
  5
30CC
  8
ﾁｭｳｼﾝｾﾝ1
 10
597.37903243683695
 20
826.03004920084015
 30
0.0
 11
597.37903243683695
 21
790.91444920084029
 31
0.0
  0
LINE
  5
30CD
  8
AM_0
 10
397.37897243683642
 20
291.5038413826021
 30
0.0
 11
627.37897243683642
 21
291.5038413826021
 31
0.0
  0
ARC
  5
30CE
  8
AM_0
 10
585.37897243683665
 20
347.8108513826021
 30
0.0
 40
10.0
 50
270.0
 51
0.0
  0
LINE
  5
30CF
  8
AM_0
 10
572.37897243683642
 20
321.5038413826021
 30
0.0
 11
622.37897243683642
 21
321.5038413826021
 31
0.0
  0
LINE
  5
30D0
  8
AM_0
 10
577.37897243683642
 20
543.46148138260219
 30
0.0
 11
595.37897243683699
 21
543.46148138260219
 31
0.0
  0
ARC
  5
30D1
  8
AM_0
 10
585.37897243683665
 20
595.83103138260219
 30
0.0
 40
10.0
 50
0.0
 51
88.000000000002785
  0
LINE
  5
30D2
  8
ﾁｭｳｼﾝｾﾝ
 10
440.71150463798631
 20
491.50384638260209
 30
0.0
 11
720.80782243683655
 21
491.50384638260209
 31
0.0
  0
LINE
  5
30D3
  8
AM_0
 10
331.37902243683652
 20
508.27502638260211
 30
0.0
 11
331.37902243683652
 21
464.79385138260182
 31
0.0
  0
LINE
  5
30D4
  8
AM_0
 10
406.37902243683641
 20
375.58154138260193
 30
0.0
 11
406.37902243683641
 21
517.25021138260195
 31
0.0
  0
LINE
  5
30D5
  8
AM_0
 10
416.37902243683641
 20
372.5038413826021
 30
0.0
 11
416.37902243683641
 21
520.50384638260209
 31
0.0
  0
LINE
  5
30D6
  8
AM_0
 10
385.2605724368367
 20
493.38540638260213
 30
0.0
 11
385.2605724368367
 21
461.7938513826021
 31
0.0
  0
LINE
  5
30D7
  8
AM_0
 10
452.37897243683648
 20
610.60513138260205
 30
0.0
 11
452.37897243683648
 21
322.6376913826021
 31
0.0
  0
LINE
  5
30D8
  8
AM_0
 10
431.87897243683648
 20
551.16963138260178
 30
0.0
 11
431.87897243683648
 21
342.6096163826021
 31
0.0
  0
LINE
  5
30D9
  8
AM_0
 10
480.37897243683682
 20
613.50383138260213
 30
0.0
 11
480.37897243683682
 21
380.89776138260203
 31
0.0
  0
LINE
  5
30DA
  8
AM_0
 10
505.37897243683682
 20
607.80238138260211
 30
0.0
 11
505.37897243683682
 21
483.60983138260201
 31
0.0
  0
LINE
  5
30DB
  8
0
 10
272.3790285165104
 20
490.29387538260198
 30
0.0
 11
272.3790285165104
 21
330.29387538260193
 31
0.0
  0
LINE
  5
30DC
  8
0
 10
282.3790285165104
 20
488.2938753826021
 30
0.0
 11
282.3790285165104
 21
332.29387538260193
 31
0.0
  0
LINE
  5
30DD
  8
AM_0
 10
562.37897243683619
 20
528.46148638260195
 30
0.0
 11
562.37897243683619
 21
331.50384138260199
 31
0.0
  0
LINE
  5
30DE
  8
AM_0
 10
338.61022243683652
 20
351.69152638260209
 30
0.0
 11
405.72842243683641
 21
372.64996138260221
 31
0.0
  0
LINE
  5
30DF
  8
AM_0
 10
316.37902243683652
 20
448.29016138260221
 30
0.0
 11
392.26982243683682
 21
448.29016138260221
 31
0.0
  0
LINE
  5
30E0
  8
AM_0
 10
316.37902243683652
 20
461.7938513826021
 30
0.0
 11
396.11662243683639
 21
461.7938513826021
 31
0.0
  0
LINE
  5
30E1
  8
AM_0
 10
341.55347243683661
 20
379.25344638260202
 30
0.0
 11
403.38402243683669
 21
377.09426638260209
 31
0.0
  0
LINE
  5
30E2
  8
AM_0
 10
341.37902243683652
 20
417.2969363826021
 30
0.0
 11
406.37902243683641
 21
417.2969363826021
 31
0.0
  0
LINE
  5
30E3
  8
ﾁｭｳｼﾝｾﾝ
 10
483.02186071314708
 20
410.29382138260178
 30
0.0
 11
258.37670572999912
 21
410.29382138260178
 31
0.0
  0
ARC
  5
30E4
  8
0
 10
280.3790285165104
 20
332.29387538260193
 30
0.0
 40
2.0
 50
270.0
 51
0.0
1001
GENIUS_GENODEF_13
1002
{
1000
HIER
1070
     0
1002
}
1002
{
1000
MANEDIT
1070
     0
1002
}
1002
{
1000
NOSEL
1070
     0
1002
}
1002
{
1000
BEHIND
1070
     0
1002
}
1002
{
1000
OTHER
1070
     0
1002
}
1002
{
1000
REACTOR
1002
}
1001
GENIUS_GENOBJ-N-FIL_13
1002
{
1000
OWNER
1000
GEN
1002
}
  0
LINE
  5
30E5
  8
0
 10
272.3790285165104
 20
330.29387538260193
 30
0.0
 11
280.3790285165104
 21
330.29387538260193
 31
0.0
  0
ARC
  5
30E6
  8
AM_0
 10
341.37902243683652
 20
412.2969363826021
 30
0.0
 40
5.0
 50
90.00000299999769
 51
180.00001000000091
  0
LINE
  5
30E7
  8
AM_0
 10
316.37902243683652
 20
346.29385138260221
 30
0.0
 11
316.37902243683652
 21
474.2938513826021
 31
0.0
  0
LINE
  5
30E8
  8
0
  6
CONTINUOUS
 62
     7
 10
305.37902243683652
 20
472.2938753826021
 30
0.0
 11
305.37902243683652
 21
348.2938753826021
 31
0.0
  0
LINE
  5
30E9
  8
0
 10
316.37902243683652
 20
346.2938753826021
 30
0.0
 11
307.37902243683652
 21
346.2938753826021
 31
0.0
  0
LINE
  5
30EA
  8
AM_0
 10
316.37902243683652
 20
373.14594038260202
 30
0.0
 11
305.37902243683652
 21
373.14594038260202
 31
0.0
  0
LINE
  5
30EB
  8
AM_0
 10
316.37902243683652
 20
358.79385938260202
 30
0.0
 11
305.37902243683652
 21
358.79385938260202
 31
0.0
  0
ARC
  5
30EC
  8
0
 10
287.37902851651017
 20
347.29387538260221
 30
0.0
 40
5.0
 50
90.0
 51
180.0
1001
GENIUS_GENOBJ-N-FIL_13
1002
{
1000
OWNER
1000
GEN
1002
}
1001
GENIUS_GENODEF_13
1002
{
1000
HIER
1070
     0
1002
}
1002
{
1000
MANEDIT
1070
     0
1002
}
1002
{
1000
NOSEL
1070
     0
1002
}
1002
{
1000
BEHIND
1070
     0
1002
}
1002
{
1000
OTHER
1070
     0
1002
}
1002
{
1000
REACTOR
1002
}
  0
LINE
  5
30ED
  8
0
 10
303.37902243683652
 20
352.2938753826021
 30
0.0
 11
287.37902851651017
 21
352.2938753826021
 31
0.0
  0
ARC
  5
30EE
  8
0
 10
303.37902243683652
 20
350.2938753826021
 30
0.0
 40
2.0
 50
0.0
 51
90.0
1001
GENIUS_GENODEF_13
1002
{
1000
HIER
1070
     0
1002
}
1002
{
1000
MANEDIT
1070
     0
1002
}
1002
{
1000
NOSEL
1070
     0
1002
}
1002
{
1000
BEHIND
1070
     0
1002
}
1002
{
1000
OTHER
1070
     0
1002
}
1002
{
1000
REACTOR
1002
}
1001
GENIUS_GENOBJ-N-FIL_13
1002
{
1000
OWNER
1000
GEN
1002
}
  0
ARC
  5
30EF
  8
0
 10
307.37902243683652
 20
348.2938753826021
 30
0.0
 40
2.0
 50
180.0
 51
270.0
1001
GENIUS_GENODEF_13
1002
{
1000
HIER
1070
     0
1002
}
1002
{
1000
MANEDIT
1070
     0
1002
}
1002
{
1000
NOSEL
1070
     0
1002
}
1002
{
1000
BEHIND
1070
     0
1002
}
1002
{
1000
OTHER
1070
     0
1002
}
1002
{
1000
REACTOR
1002
}
1001
GENIUS_GENOBJ-N-FIL_13
1002
{
1000
OWNER
1000
GEN
1002
}
  0
ARC
  5
30F0
  8
AM_0
 10
341.37902243683652
 20
374.25649638260199
 30
0.0
 40
5.0
 50
88.000000000002785
 51
180.00001000000091
  0
LINE
  5
30F1
  8
AM_0
 10
336.37902243683652
 20
412.2969363826021
 30
0.0
 11
336.37902243683652
 21
350.85500638260208
 31
0.0
  0
ARC
  5
30F2
  8
AM_0
 10
339.80262243683671
 20
347.87325638260211
 30
0.0
 40
4.000000049999997
 50
107.34160999999879
 51
158.11660999999609
  0
LINE
  5
30F3
  8
AM_0
 10
316.37902243683652
 20
346.293821382602
 30
0.0
 11
332.51857243683662
 21
346.85742138260201
 31
0.0
  0
LINE
  5
30F4
  8
AM_0
 10
316.37902243683652
 20
358.79385138260221
 30
0.0
 11
336.37902243683652
 21
358.79385138260221
 31
0.0
  0
ARC
  5
30F5
  8
AM_0
 10
332.37902243683652
 20
350.85500638260208
 30
0.0
 40
4.000000049999997
 50
271.9999999999971
 51
0.0
  0
LINE
  5
30F6
  8
AM_0
 10
316.37902243683652
 20
372.29754638260209
 30
0.0
 11
336.37902243683652
 21
372.29754638260209
 31
0.0
  0
POINT
  5
30F7
  8
AM_0
 10
316.37902243683652
 20
410.29382138260178
 30
0.0
  0
LINE
  5
30F8
  8
AM_0
 10
316.37902243683652
 20
447.44179538260181
 30
0.0
 11
305.37902243683652
 21
447.44179538260181
 31
0.0
  0
LINE
  5
30F9
  8
0
 10
316.37902243683652
 20
474.29387538260193
 30
0.0
 11
307.37902243683652
 21
474.29387538260193
 31
0.0
  0
LINE
  5
30FA
  8
AM_0
 10
316.37902243683652
 20
461.79388538260213
 30
0.0
 11
305.37902243683652
 21
461.79388538260213
 31
0.0
  0
ARC
  5
30FB
  8
0
 10
287.37902851651017
 20
473.2938753826021
 30
0.0
 40
5.0
 50
180.0
 51
270.0
1001
GENIUS_GENOBJ-N-FIL_13
1002
{
1000
OWNER
1000
GEN
1002
}
1001
GENIUS_GENODEF_13
1002
{
1000
HIER
1070
     0
1002
}
1002
{
1000
MANEDIT
1070
     0
1002
}
1002
{
1000
NOSEL
1070
     0
1002
}
1002
{
1000
BEHIND
1070
     0
1002
}
1002
{
1000
OTHER
1070
     0
1002
}
1002
{
1000
REACTOR
1002
}
  0
ARC
  5
30FC
  8
0
 10
303.37902243683652
 20
470.29387538260193
 30
0.0
 40
2.0
 50
270.0
 51
0.0
1001
GENIUS_GENODEF_13
1002
{
1000
HIER
1070
     0
1002
}
1002
{
1000
MANEDIT
1070
     0
1002
}
1002
{
1000
NOSEL
1070
     0
1002
}
1002
{
1000
BEHIND
1070
     0
1002
}
1002
{
1000
OTHER
1070
     0
1002
}
1002
{
1000
REACTOR
1002
}
1001
GENIUS_GENOBJ-N-FIL_13
1002
{
1000
OWNER
1000
GEN
1002
}
  0
LINE
  5
30FD
  8
0
 10
303.37902243683652
 20
468.2938753826021
 30
0.0
 11
287.37902851651017
 21
468.2938753826021
 31
0.0
  0
ARC
  5
30FE
  8
0
 10
307.37902243683652
 20
472.2938753826021
 30
0.0
 40
2.0
 50
90.0
 51
180.0
1001
GENIUS_GENODEF_13
1002
{
1000
HIER
1070
     0
1002
}
1002
{
1000
MANEDIT
1070
     0
1002
}
1002
{
1000
NOSEL
1070
     0
1002
}
1002
{
1000
BEHIND
1070
     0
1002
}
1002
{
1000
OTHER
1070
     0
1002
}
1002
{
1000
REACTOR
1002
}
1001
GENIUS_GENOBJ-N-FIL_13
1002
{
1000
OWNER
1000
GEN
1002
}
  0
ARC
  5
30FF
  8
AM_0
 10
328.37902243683652
 20
464.79385138260182
 30
0.0
 40
3.0000000500000001
 50
270.0
 51
0.0
  0
LINE
  5
3100
  8
AM_0
 10
316.37902243683652
 20
474.293821382602
 30
0.0
 11
326.55347243683661
 21
474.64910638260181
 31
0.0
  0
ARC
  5
3101
  8
AM_0
 10
326.37902243683652
 20
479.64608638260211
 30
0.0
 40
5.0
 50
271.9999999999971
 51
0.0
  0
ARC
  5
3102
  8
AM_0
 10
441.87897243683642
 20
342.6096163826021
 30
0.0
 40
10.0
 50
179.9999899999988
 51
217.7772300000004
  0
LINE
  5
3103
  8
AM_0
 10
453.7310224368365
 20
324.37173138260198
 30
0.0
 11
484.4242724368367
 21
389.47863638260202
 31
0.0
  0
LINE
  5
3104
  8
AM_0
 10
402.37897243683648
 20
321.5038413826021
 30
0.0
 11
449.20837243683661
 21
321.5038413826021
 31
0.0
  0
LINE
  5
3105
  8
AM_0
 10
397.37897243683642
 20
316.5038413826021
 30
0.0
 11
397.37897243683642
 21
291.5038413826021
 31
0.0
  0
LINE
  5
3106
  8
ｶｸﾚｾﾝ2
 10
417.87897243683682
 20
321.5038413826021
 30
0.0
 11
417.87897243683682
 21
291.5038413826021
 31
0.0
  0
ARC
  5
3107
  8
AM_0
 10
402.37897243683648
 20
316.5038413826021
 30
0.0
 40
5.0
 50
90.00000299999769
 51
180.00001000000091
  0
LINE
  5
3108
  8
ﾁｭｳｼﾝｾﾝ1
 10
427.37897243683648
 20
325.41171138260199
 30
0.0
 11
427.37897243683648
 21
288.5038413826021
 31
0.0
  0
LINE
  5
3109
  8
ｶｸﾚｾﾝ2
 10
436.87897243683631
 20
321.5038413826021
 30
0.0
 11
436.87897243683631
 21
291.5038413826021
 31
0.0
  0
ARC
  5
310A
  8
AM_0
 10
449.20837243683661
 20
326.5038413826021
 30
0.0
 40
5.0
 50
270.0
 51
334.759470000004
  0
LINE
  5
310B
  8
AM_0
 10
445.58502243683682
 20
321.5038413826021
 30
0.0
 11
433.97497243683631
 21
336.48367138260198
 31
0.0
  0
LINE
  5
310C
  8
ｶｸﾚｾﾝ2
 10
587.87897243683688
 20
321.5038413826021
 30
0.0
 11
587.87897243683688
 21
291.5038413826021
 31
0.0
  0
ARC
  5
310D
  8
AM_0
 10
572.37897243683642
 20
331.50384138260199
 30
0.0
 40
10.0
 50
179.9999899999988
 51
270.0
  0
LINE
  5
310E
  8
AM_0
 10
562.37897243683619
 20
337.81085138260198
 30
0.0
 11
585.37897243683665
 21
337.81085138260198
 31
0.0
  0
LINE
  5
310F
  8
AM_0
 10
416.37897243683631
 20
373.00384138260199
 30
0.0
 11
427.05347243683661
 21
372.63107138260222
 31
0.0
  0
LINE
  5
3110
  8
AM_0
 10
406.37902243683641
 20
383.50381138260201
 30
0.0
 11
431.87897243683648
 21
383.50381138260201
 31
0.0
  0
LINE
  5
3111
  8
AM_0
 10
406.37902243683641
 20
407.68374638260201
 30
0.0
 11
431.87897243683648
 21
407.68374638260201
 31
0.0
  0
LINE
  5
3112
  8
AM_0
 10
407.06017243683669
 20
372.82928138260201
 30
0.0
 11
416.37902243683641
 21
372.5038413826021
 31
0.0
  0
ARC
  5
3113
  8
AM_0
 10
410.3789724368367
 20
376.715786382602
 30
0.0
 40
4.000000049999997
 50
206.8969399999992
 51
268.00000000000261
  0
ARC
  5
3114
  8
AM_0
 10
406.9206224368366
 20
368.831691382602
 30
0.0
 40
4.000000049999997
 50
88.000000000002785
 51
107.34160999999879
  0
ARC
  5
3115
  8
AM_0
 10
403.2443724368365
 20
373.09670638260201
 30
0.0
 40
4.000000049999997
 50
26.89693700000354
 51
88.000000000002785
  0
ARC
  5
3116
  8
AM_0
 10
426.87897243683648
 20
367.63412138260202
 30
0.0
 40
5.0
 50
0.0
 51
88.000000000002785
  0
LINE
  5
3117
  8
AM_0
 10
406.37902243683641
 20
485.32394138260179
 30
0.0
 11
431.87897243683648
 21
485.32394138260179
 31
0.0
  0
LINE
  5
3118
  8
AM_0
 10
392.26982243683682
 20
448.29016138260221
 30
0.0
 11
398.94507243683688
 21
454.96542138260207
 31
0.0
  0
LINE
  5
3119
  8
AM_0
 10
392.26992243683679
 20
448.290131382602
 30
0.0
 11
406.37902243683641
 21
421.1080613826021
 31
0.0
  0
ARC
  5
311A
  8
AM_0
 10
396.11662243683639
 20
457.793821382602
 30
0.0
 40
4.000000049999997
 50
315.0
 51
90.00000299999769
  0
LINE
  5
311B
  8
AM_0
 10
485.3789724368367
 20
483.60983138260201
 30
0.0
 11
485.3789724368367
 21
393.742826382602
 31
0.0
  0
ARC
  5
311C
  8
AM_0
 10
475.37897243683688
 20
393.742826382602
 30
0.0
 40
10.0
 50
334.759470000004
 51
0.0
  0
LINE
  5
311D
  8
AM_0
 10
485.3789724368367
 20
483.60983138260201
 30
0.0
 11
505.37897243683682
 21
483.60983138260201
 31
0.0
  0
LINE
  5
311E
  8
AM_0
 10
336.20447243683668
 20
491.67233138260201
 30
0.0
 11
383.68597243683678
 21
493.33041138260222
 31
0.0
  0
LINE
  5
311F
  8
AM_0
 10
334.27427243683661
 20
511.27319138260208
 30
0.0
 11
402.51862243683661
 21
513.65634138260214
 31
0.0
  0
ARC
  5
3120
  8
0
 10
280.3790285165104
 20
488.2938753826021
 30
0.0
 40
2.0
 50
0.0
 51
90.0
1001
GENIUS_GENODEF_13
1002
{
1000
HIER
1070
     0
1002
}
1002
{
1000
MANEDIT
1070
     0
1002
}
1002
{
1000
NOSEL
1070
     0
1002
}
1002
{
1000
BEHIND
1070
     0
1002
}
1002
{
1000
OTHER
1070
     0
1002
}
1002
{
1000
REACTOR
1002
}
1001
GENIUS_GENOBJ-N-FIL_13
1002
{
1000
OWNER
1000
GEN
1002
}
  0
LINE
  5
3121
  8
0
 10
272.3790285165104
 20
490.29387538260198
 30
0.0
 11
280.3790285165104
 21
490.29387538260198
 31
0.0
  0
ARC
  5
3122
  8
AM_0
 10
336.37902243683652
 20
486.67541638260201
 30
0.0
 40
5.0
 50
91.999998000000545
 51
180.00001000000091
  0
ARC
  5
3123
  8
AM_0
 10
334.37902243683652
 20
508.27502638260211
 30
0.0
 40
3.0000000500000001
 50
91.999998000000545
 51
180.00001000000091
  0
ARC
  5
3124
  8
AM_0
 10
462.37897243683631
 20
639.50383138260213
 30
0.0
 40
25.000000499999999
 50
306.46672000000012
 51
233.5332900000034
  0
CIRCLE
  5
3125
  8
AM_0
 10
462.37897243683631
 20
639.50383138260213
 30
0.0
 40
15.0
  0
LINE
  5
3126
  8
AM_0
 10
449.37897243683631
 20
613.50383138260213
 30
0.0
 11
480.37897243683682
 21
613.50383138260213
 31
0.0
  0
LINE
  5
3127
  8
AM_0
 10
454.30922243683642
 20
612.60393138260224
 30
0.0
 11
480.07897243683669
 21
613.50383138260213
 31
0.0
  0
LINE
  5
3128
  8
AM_0
 10
433.27607243683661
 20
556.26768138260218
 30
0.0
 11
446.68042243683669
 21
578.88753138260222
 31
0.0
  0
LINE
  5
3129
  8
AM_0
 10
416.37902243683641
 20
520.00384638260209
 30
0.0
 11
427.05352243683677
 21
520.37658638260211
 31
0.0
  0
LINE
  5
312A
  8
AM_0
 10
406.37902243683641
 20
509.50384638260192
 30
0.0
 11
431.87897243683648
 21
509.50384638260192
 31
0.0
  0
LINE
  5
312B
  8
AM_0
 10
386.37477243683662
 20
494.4995413826021
 30
0.0
 11
405.20747243683661
 21
513.33224638260185
 31
0.0
  0
ARC
  5
312C
  8
AM_0
 10
383.54627243683677
 20
497.32803138260209
 30
0.0
 40
4.000000049999997
 50
271.9999999999971
 51
315.0
  0
ARC
  5
312D
  8
AM_0
 10
410.2614724368367
 20
516.28778138260213
 30
0.0
 40
4.000000049999997
 50
91.999998000000545
 51
170.16761999999659
  0
ARC
  5
312E
  8
AM_0
 10
402.37897243683648
 20
516.16067638260211
 30
0.0
 40
4.000000049999997
 50
315.0
 51
0.0
  0
ARC
  5
312F
  8
AM_0
 10
402.37897243683648
 20
517.65390138260216
 30
0.0
 40
4.000000049999997
 50
271.9999999999971
 51
350.16760999999678
  0
LINE
  5
3130
  8
AM_0
 10
410.12187243683678
 20
520.28530638260202
 30
0.0
 11
416.37902243683641
 21
520.50381638260217
 31
0.0
  0
ARC
  5
3131
  8
AM_0
 10
426.87897243683648
 20
525.37356638260212
 30
0.0
 40
5.0
 50
271.9999999999971
 51
0.0
  0
ARC
  5
3132
  8
AM_0
 10
441.87897243683642
 20
551.16963138260178
 30
0.0
 40
10.0
 50
149.3493299999954
 51
180.00001000000091
  0
LINE
  5
3133
  8
AM_0
 10
447.37897243683648
 20
611.50388138260223
 30
0.0
 11
447.37897243683648
 21
581.4365313826022
 31
0.0
  0
LINE
  5
3134
  8
AM_0
 10
446.68042243683669
 20
578.88753138260222
 30
0.0
 11
451.68042243683669
 21
587.32503138260222
 31
0.0
  0
ARC
  5
3135
  8
AM_0
 10
442.37897243683642
 20
581.4365313826022
 30
0.0
 40
5.0
 50
329.34932999999552
 51
0.0
  0
ARC
  5
3136
  8
AM_0
 10
447.37897243683648
 20
589.8740313826022
 30
0.0
 40
5.0
 50
329.34932999999552
 51
0.0
  0
ARC
  5
3137
  8
AM_0
 10
443.95392243683671
 20
614.57353138260214
 30
0.0
 40
6.0
 50
349.72994999999878
 51
53.533291000004859
  0
ARC
  5
3138
  8
AM_0
 10
449.37897243683631
 20
611.50388138260223
 30
0.0
 40
2.0000000500000001
 50
90.00000299999769
 51
180.00001000000091
  0
ARC
  5
3139
  8
AM_0
 10
454.37897243683642
 20
610.60513138260205
 30
0.0
 40
2.0000000500000001
 50
91.999998000000545
 51
180.00001000000091
  0
LINE
  5
313A
  8
AM_0
 10
462.37902243683641
 20
624.50383138260213
 30
0.0
 11
471.85712243683679
 21
622.62483138260222
 31
0.0
  0
LINE
  5
313B
  8
AM_0
 10
452.58492243683628
 20
622.50383138260213
 30
0.0
 11
472.17297243683669
 21
622.50383138260213
 31
0.0
  0
ARC
  5
313C
  8
AM_0
 10
453.09542243683671
 20
621.6439313826022
 30
0.0
 40
1.0
 50
101.21328999999869
 51
164.99999000000491
  0
LINE
  5
313D
  8
AM_0
 10
449.87897243683631
 20
613.50383138260213
 30
0.0
 11
452.12947243683641
 21
621.90273138260216
 31
0.0
  0
LINE
  5
313E
  8
AM_0
 10
452.90092243683671
 20
622.62478138260212
 30
0.0
 11
462.37892243683638
 21
624.50373138260215
 31
0.0
  0
ARC
  5
313F
  8
AM_0
 10
480.80397243683672
 20
614.57353138260214
 30
0.0
 40
6.0
 50
126.46669999999671
 51
190.27005999999921
  0
ARC
  5
3140
  8
AM_0
 10
471.66262243683678
 20
621.6439313826022
 30
0.0
 40
1.0
 50
15.000000000000741
 51
78.786710000001207
  0
LINE
  5
3141
  8
AM_0
 10
474.87902243683641
 20
613.50388138260223
 30
0.0
 11
472.62852243683642
 21
621.90278138260214
 31
0.0
  0
ARC
  5
3142
  8
AM_0
 10
577.37897243683642
 20
528.46148638260195
 30
0.0
 40
15.0
 50
90.00000299999769
 51
180.00001000000091
  0
LINE
  5
3143
  8
AM_0
 10
508.40727243683671
 20
608.52513138260224
 30
0.0
 11
585.72802243683668
 21
605.82498138260212
 31
0.0
  0
ARC
  5
3144
  8
AM_0
 10
508.58177243683627
 20
613.52208138260221
 30
0.0
 40
5.0
 50
214.88733999999911
 51
268.00000000000261
  0
LINE
  5
3145
  8
AM_0
 10
480.37902243683652
 20
613.50383138260213
 30
0.0
 11
500.55347243683661
 21
612.79933138260219
 31
0.0
  0
ARC
  5
3146
  8
AM_0
 10
500.37897243683688
 20
607.80238138260211
 30
0.0
 40
5.0
 50
34.887349999997149
 51
88.000000000002785
  0
LINE
  5
3147
  8
AM_0
 10
595.37897243683699
 20
595.83103138260219
 30
0.0
 11
595.37897243683699
 21
347.8108513826021
 31
0.0
  0
LINE
  5
3148
  8
AM_0
 10
627.37897243683642
 20
549.57248138260195
 30
0.0
 11
627.37897243683642
 21
433.4352413826017
 31
0.0
  0
LINE
  5
3149
  8
AM_0
 10
622.37897243683642
 20
571.92213138260217
 30
0.0
 11
622.37897243683642
 21
325.16409138260201
 31
0.0
  0
LINE
  5
314A
  8
AM_0
 10
633.37897243683642
 20
521.50384638260198
 30
0.0
 11
633.37897243683642
 21
461.50384638260209
 31
0.0
  0
LINE
  5
314B
  8
AM_0
 10
715.37897243683699
 20
523.00384638260175
 30
0.0
 11
715.37897243683699
 21
464.00384638260192
 31
0.0
  0
LINE
  5
314C
  8
AM_0
 10
880.43461734939478
 20
499.970246382602
 30
0.0
 11
880.43461734939478
 21
486.12954638260209
 31
0.0
  0
LINE
  5
314D
  8
AM_0
 10
896.43460734939424
 20
398.46774138260201
 30
0.0
 11
896.43460734939424
 21
542.43763138260215
 31
0.0
  0
LINE
  5
314E
  8
AM_0
 10
848.43461734939478
 20
321.5038413826021
 30
0.0
 11
886.63196234939483
 21
518.01214638260205
 31
0.0
  0
LINE
  5
314F
  8
AM_0
 10
1146.4346273493941
 20
499.970246382602
 30
0.0
 11
1146.4346273493941
 21
486.12954638260209
 31
0.0
  0
LINE
  5
3150
  8
AM_0
 10
1130.4346073493939
 20
398.46774138260201
 30
0.0
 11
1130.4346073493939
 21
542.43763138260215
 31
0.0
  0
LINE
  5
3151
  8
AM_0
 10
1178.434612349394
 20
321.5038413826021
 30
0.0
 11
1140.2372673493931
 21
518.01217638260175
 31
0.0
  0
ARC
  5
3152
  8
AM_0
 10
1013.4346373493941
 20
491.50384638260209
 30
0.0
 40
27.500000499999999
 50
106.91238999999661
 51
73.087596999997956
  0
ARC
  5
3153
  8
AM_0
 10
1013.4346373493941
 20
476.50384638260192
 30
0.0
 40
100.0
 50
90.00000299999769
 51
180.00001000000091
  0
ARC
  5
3154
  8
AM_0
 10
1013.4346373493941
 20
491.50384638260209
 30
0.0
 40
60.0
 50
90.00000299999769
 51
270.0
  0
ARC
  5
3155
  8
AM_0
 10
1013.4346373493941
 20
476.50384638260192
 30
0.0
 40
100.0
 50
0.0
 51
90.00000299999769
  0
ARC
  5
3156
  8
AM_0
 10
1013.4346373493941
 20
491.50384638260209
 30
0.0
 40
60.0
 50
270.0
 51
90.00000299999769
  0
CIRCLE
  5
3157
  8
AM_5
 10
1013.4346373493941
 20
491.50384638260209
 30
0.0
 40
6.0
  0
LINE
  5
3158
  8
ﾁｭｳｼﾝｾﾝ
 10
1013.4346373493941
 20
285.50382638260209
 30
0.0
 11
1013.4346373493941
 21
667.50313138260185
 31
0.0
  0
LINE
  5
3159
  8
AM_0
 10
1013.4346373493941
 20
298.50381138260201
 30
0.0
 11
1103.4346073493939
 21
298.50381138260201
 31
0.0
  0
ARC
  5
315A
  8
AM_0
 10
1090.2441173493939
 20
305.55215138260201
 30
0.0
 40
10.0
 50
45.000001000003799
 51
124.9999999999972
  0
LINE
  5
315B
  8
ﾁｭｳｼﾝｾﾝ
 10
878.38944195684223
 20
410.29382138260178
 30
0.0
 11
1148.797770440304
 21
410.29382138260178
 31
0.0
  0
LINE
  5
315C
  8
AM_0
 10
913.43463734939485
 20
321.5038413826021
 30
0.0
 11
853.43461734939433
 21
321.5038413826021
 31
0.0
  0
LINE
  5
315D
  8
AM_0
 10
918.43463734939485
 20
291.5038413826021
 30
0.0
 11
848.43461734939478
 21
291.5038413826021
 31
0.0
  0
LINE
  5
315E
  8
ﾁｭｳｼﾝｾﾝ1
 10
597.37897243683642
 20
325.41171138260199
 30
0.0
 11
597.37897243683642
 21
288.5038413826021
 31
0.0
  0
LINE
  5
315F
  8
AM_0
 10
627.37897243683642
 20
316.5038413826021
 30
0.0
 11
627.37897243683642
 21
291.5038413826021
 31
0.0
  0
LINE
  5
3160
  8
ｶｸﾚｾﾝ2
 10
606.87897243683642
 20
321.5038413826021
 30
0.0
 11
606.87897243683642
 21
291.5038413826021
 31
0.0
  0
ARC
  5
3161
  8
AM_0
 10
627.37897243683642
 20
325.16409138260201
 30
0.0
 40
5.0
 50
179.9999899999988
 51
240.00000999999969
  0
ARC
  5
3162
  8
AM_0
 10
622.37897243683642
 20
316.5038413826021
 30
0.0
 40
5.0
 50
0.0
 51
90.00000299999769
  0
LINE
  5
3163
  8
AM_0
 10
848.43461734939478
 20
321.5038413826021
 30
0.0
 11
848.43461734939478
 21
291.5038413826021
 31
0.0
  0
ARC
  5
3164
  8
AM_0
 10
853.43461734939433
 20
316.5038413826021
 30
0.0
 40
5.0
 50
90.00000299999769
 51
180.00001000000091
  0
LINE
  5
3165
  8
AM_0
 10
633.37897243683642
 20
464.00384638260192
 30
0.0
 11
715.37897243683699
 21
464.00384638260192
 31
0.0
  0
ARC
  5
3166
  8
AM_0
 10
625.37897243683688
 20
433.4352413826017
 30
0.0
 40
2.0000000500000001
 50
271.9999999999971
 51
0.0
  0
ARC
  5
3167
  8
AM_0
 10
624.37897243683631
 20
429.39788638260188
 30
0.0
 40
2.0000000500000001
 50
91.999998000000545
 51
180.00001000000091
  0
LINE
  5
3168
  8
AM_0
 10
624.30922243683642
 20
431.3966063826021
 30
0.0
 11
625.44882243683685
 21
431.43640138260201
 31
0.0
  0
LINE
  5
3169
  8
AM_0
 10
627.37897243683642
 20
461.50384638260209
 30
0.0
 11
633.37897243683642
 21
461.50384638260209
 31
0.0
  0
LINE
  5
316A
  8
AM_0
 10
913.43463734939485
 20
333.50381138260201
 30
0.0
 11
913.43463734939485
 21
476.50384638260192
 31
0.0
  0
ARC
  5
316B
  8
AM_0
 10
1013.4346373493941
 20
398.50381138260201
 30
0.0
 40
117.0
 50
179.9999899999988
 51
211.27329999999591
  0
LINE
  5
316C
  8
AM_0
 10
1013.4346373493941
 20
307.5038413826021
 30
0.0
 11
954.42529734939433
 21
307.5038413826021
 31
0.0
  0
LINE
  5
316D
  8
AM_0
 10
1013.4346373493941
 20
298.50381138260201
 30
0.0
 11
923.43463734939485
 21
298.50381138260201
 31
0.0
  0
LINE
  5
316E
  8
AM_0
 10
921.36353234939475
 20
304.43276638260193
 30
0.0
 11
929.5540223493947
 21
312.62325638260211
 31
0.0
  0
LINE
  5
316F
  8
AM_0
 10
918.43463734939485
 20
316.5038413826021
 30
0.0
 11
918.43463734939485
 21
291.5038413826021
 31
0.0
  0
LINE
  5
3170
  8
ﾁｭｳｼﾝｾﾝ1
 10
880.93461734939444
 20
326.16509638260209
 30
0.0
 11
880.93461734939444
 21
288.5038413826021
 31
0.0
  0
LINE
  5
3171
  8
ｶｸﾚｾﾝ2
 10
871.43461734939478
 20
321.5038413826021
 30
0.0
 11
871.43461734939478
 21
291.5038413826021
 31
0.0
  0
LINE
  5
3172
  8
ｶｸﾚｾﾝ2
 10
890.43460734939413
 20
321.5038413826021
 30
0.0
 11
890.43460734939413
 21
291.5038413826021
 31
0.0
  0
ARC
  5
3173
  8
AM_0
 10
923.43463734939485
 20
293.50381138260201
 30
0.0
 40
5.0
 50
90.00000299999769
 51
180.00001000000091
  0
ARC
  5
3174
  8
AM_0
 10
928.43463734939473
 20
297.36169138260198
 30
0.0
 40
10.0
 50
135.0
 51
180.00001000000091
  0
ARC
  5
3175
  8
AM_0
 10
901.43460734939458
 20
333.50381138260201
 30
0.0
 40
12.0
 50
270.0
 51
0.0
  0
ARC
  5
3176
  8
AM_0
 10
913.43463734939485
 20
316.5038413826021
 30
0.0
 40
5.0
 50
0.0
 51
90.00000299999769
  0
ARC
  5
3177
  8
AM_0
 10
954.42529734939433
 20
317.5038413826021
 30
0.0
 40
10.0
 50
235.0000000000025
 51
270.0
  0
ARC
  5
3178
  8
AM_0
 10
936.62509734939442
 20
305.55215138260201
 30
0.0
 40
10.0
 50
54.999999000001559
 51
135.0
  0
LINE
  5
3179
  8
AM_0
 10
948.68952234939434
 20
309.31234638260202
 30
0.0
 11
942.36084734939436
 21
313.74371138260187
 31
0.0
  0
LINE
  5
317A
  8
AM_0
 10
1013.4346373493941
 20
307.5038413826021
 30
0.0
 11
1072.443947349394
 21
307.5038413826021
 31
0.0
  0
ARC
  5
317B
  8
AM_0
 10
1072.443947349394
 20
317.5038413826021
 30
0.0
 40
10.0
 50
270.0
 51
304.99999999999739
  0
LINE
  5
317C
  8
AM_0
 10
1078.179697349394
 20
309.31234638260202
 30
0.0
 11
1084.5083673493939
 21
313.74374138260202
 31
0.0
  0
LINE
  5
317D
  8
AM_0
 10
1113.4346073493939
 20
333.50381138260201
 30
0.0
 11
1113.4346073493939
 21
476.50384638260192
 31
0.0
  0
ARC
  5
317E
  8
AM_0
 10
1013.4346373493941
 20
398.50381138260201
 30
0.0
 40
117.0
 50
328.72670000000397
 51
0.0
  0
LINE
  5
317F
  8
AM_0
 10
1108.4346073493939
 20
291.5038413826021
 30
0.0
 11
1178.434612349394
 21
291.5038413826021
 31
0.0
  0
LINE
  5
3180
  8
AM_0
 10
1113.4346073493939
 20
321.5038413826021
 30
0.0
 11
1173.434612349394
 21
321.5038413826021
 31
0.0
  0
LINE
  5
3181
  8
AM_0
 10
1108.4346073493939
 20
316.5038413826021
 30
0.0
 11
1108.4346073493939
 21
291.5038413826021
 31
0.0
  0
LINE
  5
3182
  8
AM_0
 10
1105.505682349394
 20
304.43276638260193
 30
0.0
 11
1097.315192349394
 21
312.62325638260211
 31
0.0
  0
LINE
  5
3183
  8
ﾁｭｳｼﾝｾﾝ1
 10
1145.9346073493939
 20
326.16509638260209
 30
0.0
 11
1145.9346073493939
 21
288.5038413826021
 31
0.0
  0
LINE
  5
3184
  8
ｶｸﾚｾﾝ2
 10
1136.4346223493931
 20
321.5038413826021
 30
0.0
 11
1136.4346223493931
 21
291.5038413826021
 31
0.0
  0
ARC
  5
3185
  8
AM_0
 10
1103.4346073493939
 20
293.50381138260201
 30
0.0
 40
5.0
 50
0.0
 51
90.00000299999769
  0
ARC
  5
3186
  8
AM_0
 10
1098.4346073493939
 20
297.36169138260198
 30
0.0
 40
10.0
 50
0.0
 51
45.000001000003799
  0
ARC
  5
3187
  8
AM_0
 10
1125.4346073493939
 20
333.50381138260201
 30
0.0
 40
12.0
 50
180.00001000000091
 51
270.0
  0
ARC
  5
3188
  8
AM_0
 10
1113.4346073493939
 20
316.5038413826021
 30
0.0
 40
5.0
 50
90.00000299999769
 51
180.00001000000091
  0
LINE
  5
3189
  8
AM_0
 10
1178.434612349394
 20
321.5038413826021
 30
0.0
 11
1178.434612349394
 21
291.5038413826021
 31
0.0
  0
LINE
  5
318A
  8
ｶｸﾚｾﾝ2
 10
1155.4346073493939
 20
321.5038413826021
 30
0.0
 11
1155.4346073493939
 21
291.5038413826021
 31
0.0
  0
ARC
  5
318B
  8
AM_0
 10
1173.434612349394
 20
316.5038413826021
 30
0.0
 40
5.0
 50
0.0
 51
90.00000299999769
  0
ARC
  5
318C
  8
AM_0
 10
1013.4346373493941
 20
466.50384638260209
 30
0.0
 40
147.0
 50
45.402042999998848
 51
90.00000299999769
  0
ARC
  5
318D
  8
AM_0
 10
1013.4346373493941
 20
466.50384638260209
 30
0.0
 40
142.0
 50
43.554364000002593
 51
90.00000299999769
  0
LINE
  5
318E
  8
ﾁｭｳｼﾝｾﾝ
 10
1105.420519984187
 20
491.50384638260209
 30
0.0
 11
921.44875471460034
 21
491.50384638260209
 31
0.0
  0
LINE
  5
318F
  8
AM_0
 10
633.37897243683642
 20
519.00384638260175
 30
0.0
 11
715.37897243683699
 21
519.00384638260175
 31
0.0
  0
LINE
  5
3190
  8
AM_0
 10
653.37897243683642
 20
523.00384638260175
 30
0.0
 11
715.37897243683699
 21
523.00384638260175
 31
0.0
  0
LINE
  5
3191
  8
AM_0
 10
627.37897243683642
 20
521.50384638260198
 30
0.0
 11
633.37897243683642
 21
521.50384638260198
 31
0.0
  0
ARC
  5
3192
  8
AM_0
 10
624.37897243683631
 20
553.60983138260212
 30
0.0
 40
2.0000000500000001
 50
179.9999899999988
 51
268.00000999999861
  0
LINE
  5
3193
  8
AM_0
 10
624.30922243683642
 20
551.61103138260228
 30
0.0
 11
625.44887243683615
 21
551.57128138260214
 31
0.0
  0
ARC
  5
3194
  8
AM_0
 10
625.37897243683688
 20
549.57248138260195
 30
0.0
 40
2.0000000500000001
 50
0.0
 51
88.000000000002785
  0
LINE
  5
3195
  8
AM_0
 10
653.37897243683642
 20
523.00384638260175
 30
0.0
 11
653.37897243683642
 21
519.00384638260175
 31
0.0
  0
LINE
  5
3196
  8
AM_0
 10
604.50747243683679
 20
578.06743138260242
 30
0.0
 11
617.81477243683673
 21
576.90318138260216
 31
0.0
  0
ARC
  5
3197
  8
AM_0
 10
605.37897243683676
 20
588.02933138260221
 30
0.0
 40
10.0
 50
179.9999899999988
 51
264.99999999999989
  0
ARC
  5
3198
  8
AM_0
 10
617.37897243683642
 20
571.92213138260217
 30
0.0
 40
5.0
 50
0.0
 51
84.999996999998885
  0
LINE
  5
3199
  8
AM_0
 10
1018.4346373493941
 20
659.50383138260213
 30
0.0
 11
1018.4346373493941
 21
617.50383138260213
 31
0.0
  0
LINE
  5
319A
  8
AM_0
 10
1008.4346373493941
 20
659.50383138260213
 30
0.0
 11
1008.4346373493941
 21
617.50383138260213
 31
0.0
  0
ARC
  5
319B
  8
AM_0
 10
1013.4346373493941
 20
466.50384638260209
 30
0.0
 40
147.0
 50
90.00000299999769
 51
134.59796000000341
  0
ARC
  5
319C
  8
AM_0
 10
1013.4346373493941
 20
466.50384638260209
 30
0.0
 40
142.0
 50
90.00000299999769
 51
136.4456399999961
  0
ARC
  5
319D
  8
AM_0
 10
977.92331734939444
 20
500.26693638260201
 30
0.0
 40
93.0
 50
136.4456399999961
 51
169.00000000000131
  0
ARC
  5
319E
  8
AM_0
 10
980.43460734939435
 20
499.970246382602
 30
0.0
 40
100.0
 50
134.59796000000341
 51
180.00001000000091
  0
ARC
  5
319F
  8
AM_0
 10
906.43460734939435
 20
542.43763138260215
 30
0.0
 40
10.0
 50
149.46391999999909
 51
180.00001000000091
  0
LINE
  5
31A0
  8
AM_0
 10
1005.434607349394
 20
513.00384638260209
 30
0.0
 11
1005.434607349394
 21
523.00384638260175
 31
0.0
  0
LINE
  5
31A1
  8
AM_0
 10
1021.434607349394
 20
513.00384638260209
 30
0.0
 11
1021.434607349394
 21
523.00384638260175
 31
0.0
  0
LINE
  5
31A2
  8
AM_0
 10
1005.434607349394
 20
513.00384638260209
 30
0.0
 11
1021.434607349394
 21
513.00384638260209
 31
0.0
  0
CIRCLE
  5
31A3
  8
AM_0
 10
1013.4346373493941
 20
491.50384638260209
 30
0.0
 40
4.500000049999997
  0
LINE
  5
31A4
  8
AM_0
 10
1005.434607349394
 20
523.00384638260175
 30
0.0
 11
1021.434607349394
 21
523.00384638260175
 31
0.0
  0
LINE
  5
31A5
  8
AM_0
 10
1003.956547349394
 20
622.62478138260212
 30
0.0
 11
1008.434607349394
 21
623.51253138260222
 31
0.0
  0
ARC
  5
31A6
  8
AM_0
 10
1006.434607349394
 20
617.50383138260213
 30
0.0
 40
2.0000000500000001
 50
270.0
 51
0.0
  0
LINE
  5
31A7
  8
AM_0
 10
1000.788582349394
 20
612.95888138260204
 30
0.0
 11
1003.185097349394
 21
621.90273138260216
 31
0.0
  0
ARC
  5
31A8
  8
AM_0
 10
1004.151037349394
 20
621.6439313826022
 30
0.0
 40
1.0
 50
101.21328999999869
 51
164.99999000000491
  0
LINE
  5
31A9
  8
AM_0
 10
1026.0806323493939
 20
612.95888138260204
 30
0.0
 11
1023.684117349394
 21
621.90278138260214
 31
0.0
  0
LINE
  5
31AA
  8
AM_0
 10
1018.4346373493941
 20
623.51258138260187
 30
0.0
 11
1022.912667349394
 21
622.62483138260222
 31
0.0
  0
ARC
  5
31AB
  8
AM_0
 10
1020.434607349394
 20
617.50383138260213
 30
0.0
 40
2.0000000500000001
 50
179.9999899999988
 51
270.0
  0
ARC
  5
31AC
  8
AM_0
 10
1022.718177349394
 20
621.6439313826022
 30
0.0
 40
1.0
 50
15.000000000000741
 51
78.786710000001207
  0
ARC
  5
31AD
  8
AM_0
 10
1013.4346373493941
 20
659.50383138260213
 30
0.0
 40
5.0
 50
359.999989999999
 51
179.9999899999988
  0
ARC
  5
31AE
  8
AM_0
 10
1048.945897349394
 20
500.26693638260201
 30
0.0
 40
93.0
 50
10.999999999998691
 51
43.554364000002593
  0
ARC
  5
31AF
  8
AM_0
 10
1046.4346073493939
 20
499.970246382602
 30
0.0
 40
100.0
 50
0.0
 51
45.402042999998848
  0
ARC
  5
31B0
  8
AM_0
 10
1120.4346073493939
 20
542.43763138260215
 30
0.0
 40
10.0
 50
0.0
 51
30.536085000004341
  0
LINE
  5
31B1
  8
0
  6
CONTINUOUS
 62
     7
 10
305.37909243683703
 20
1003.03010320084
 30
0.0
 11
305.37909243683703
 21
879.03010320084002
 31
0.0
  0
LINE
  5
31B2
  8
0
 10
282.37909851651068
 20
1019.03010320084
 30
0.0
 11
282.37909851651068
 21
863.03010320084024
 31
0.0
  0
LINE
  5
31B3
  8
0
 10
272.37909851651062
 20
1021.03010320084
 30
0.0
 11
272.37909851651062
 21
861.03010320084013
 31
0.0
  0
ARC
  5
31B4
  8
0
 10
280.37909851651068
 20
863.03010320084024
 30
0.0
 40
2.0
 50
270.0
 51
0.0
1001
GENIUS_GENODEF_13
1002
{
1000
HIER
1070
     0
1002
}
1002
{
1000
MANEDIT
1070
     0
1002
}
1002
{
1000
NOSEL
1070
     0
1002
}
1002
{
1000
BEHIND
1070
     0
1002
}
1002
{
1000
OTHER
1070
     0
1002
}
1002
{
1000
REACTOR
1002
}
1001
GENIUS_GENOBJ-N-FIL_13
1002
{
1000
OWNER
1000
GEN
1002
}
  0
LINE
  5
31B5
  8
0
 10
272.37909851651062
 20
861.03010320084013
 30
0.0
 11
280.37909851651068
 21
861.03010320084013
 31
0.0
  0
LINE
  5
31B6
  8
0
 10
303.37909243683703
 20
883.03010320084013
 30
0.0
 11
287.37909851651062
 21
883.03010320084013
 31
0.0
  0
ARC
  5
31B7
  8
0
 10
287.37909851651062
 20
878.03010320084002
 30
0.0
 40
5.0
 50
90.0
 51
180.0
1001
GENIUS_GENOBJ-N-FIL_13
1002
{
1000
OWNER
1000
GEN
1002
}
1001
GENIUS_GENODEF_13
1002
{
1000
HIER
1070
     0
1002
}
1002
{
1000
MANEDIT
1070
     0
1002
}
1002
{
1000
NOSEL
1070
     0
1002
}
1002
{
1000
BEHIND
1070
     0
1002
}
1002
{
1000
OTHER
1070
     0
1002
}
1002
{
1000
REACTOR
1002
}
  0
LINE
  5
31B8
  8
0
 10
316.37909243683703
 20
877.03010320084013
 30
0.0
 11
307.37909243683703
 21
877.03010320084013
 31
0.0
  0
ARC
  5
31B9
  8
0
 10
307.37909243683703
 20
879.03010320084002
 30
0.0
 40
2.0
 50
180.0
 51
270.0
1001
GENIUS_GENODEF_13
1002
{
1000
HIER
1070
     0
1002
}
1002
{
1000
MANEDIT
1070
     0
1002
}
1002
{
1000
NOSEL
1070
     0
1002
}
1002
{
1000
BEHIND
1070
     0
1002
}
1002
{
1000
OTHER
1070
     0
1002
}
1002
{
1000
REACTOR
1002
}
1001
GENIUS_GENOBJ-N-FIL_13
1002
{
1000
OWNER
1000
GEN
1002
}
  0
ARC
  5
31BA
  8
0
 10
303.37909243683703
 20
881.03010320084024
 30
0.0
 40
2.0
 50
0.0
 51
90.0
1001
GENIUS_GENODEF_13
1002
{
1000
HIER
1070
     0
1002
}
1002
{
1000
MANEDIT
1070
     0
1002
}
1002
{
1000
NOSEL
1070
     0
1002
}
1002
{
1000
BEHIND
1070
     0
1002
}
1002
{
1000
OTHER
1070
     0
1002
}
1002
{
1000
REACTOR
1002
}
1001
GENIUS_GENOBJ-N-FIL_13
1002
{
1000
OWNER
1000
GEN
1002
}
  0
LINE
  5
31BB
  8
AM_0
 10
316.37909243683703
 20
889.53008720084017
 30
0.0
 11
305.37909243683703
 21
889.53008720084017
 31
0.0
  0
LINE
  5
31BC
  8
AM_0
 10
316.37909243683703
 20
903.88216820084006
 30
0.0
 11
305.37909243683703
 21
903.88216820084006
 31
0.0
  0
LINE
  5
31BD
  8
AM_0
 10
316.37909243683703
 20
992.53011320084033
 30
0.0
 11
305.37909243683703
 21
992.53011320084033
 31
0.0
  0
LINE
  5
31BE
  8
AM_0
 10
316.37909243683703
 20
978.1780232008399
 30
0.0
 11
305.37909243683703
 21
978.1780232008399
 31
0.0
  0
LINE
  5
31BF
  8
0
 10
303.37909243683703
 20
999.03010320084002
 30
0.0
 11
287.37909851651062
 21
999.03010320084002
 31
0.0
  0
ARC
  5
31C0
  8
0
 10
287.37909851651062
 20
1004.03010320084
 30
0.0
 40
5.0
 50
180.0
 51
270.0
1001
GENIUS_GENOBJ-N-FIL_13
1002
{
1000
OWNER
1000
GEN
1002
}
1001
GENIUS_GENODEF_13
1002
{
1000
HIER
1070
     0
1002
}
1002
{
1000
MANEDIT
1070
     0
1002
}
1002
{
1000
NOSEL
1070
     0
1002
}
1002
{
1000
BEHIND
1070
     0
1002
}
1002
{
1000
OTHER
1070
     0
1002
}
1002
{
1000
REACTOR
1002
}
  0
ARC
  5
31C1
  8
0
 10
280.37909851651068
 20
1019.03010320084
 30
0.0
 40
2.0
 50
0.0
 51
90.0
1001
GENIUS_GENODEF_13
1002
{
1000
HIER
1070
     0
1002
}
1002
{
1000
MANEDIT
1070
     0
1002
}
1002
{
1000
NOSEL
1070
     0
1002
}
1002
{
1000
BEHIND
1070
     0
1002
}
1002
{
1000
OTHER
1070
     0
1002
}
1002
{
1000
REACTOR
1002
}
1001
GENIUS_GENOBJ-N-FIL_13
1002
{
1000
OWNER
1000
GEN
1002
}
  0
LINE
  5
31C2
  8
0
 10
272.37909851651062
 20
1021.03010320084
 30
0.0
 11
280.37909851651068
 21
1021.03010320084
 31
0.0
  0
LINE
  5
31C3
  8
0
 10
316.37909243683703
 20
1005.03010320084
 30
0.0
 11
307.37909243683703
 21
1005.03010320084
 31
0.0
  0
ARC
  5
31C4
  8
0
 10
307.37909243683703
 20
1003.03010320084
 30
0.0
 40
2.0
 50
90.0
 51
180.0
1001
GENIUS_GENODEF_13
1002
{
1000
HIER
1070
     0
1002
}
1002
{
1000
MANEDIT
1070
     0
1002
}
1002
{
1000
NOSEL
1070
     0
1002
}
1002
{
1000
BEHIND
1070
     0
1002
}
1002
{
1000
OTHER
1070
     0
1002
}
1002
{
1000
REACTOR
1002
}
1001
GENIUS_GENOBJ-N-FIL_13
1002
{
1000
OWNER
1000
GEN
1002
}
  0
ARC
  5
31C5
  8
0
 10
303.37909243683703
 20
1001.030103200839
 30
0.0
 40
2.0
 50
270.0
 51
0.0
1001
GENIUS_GENODEF_13
1002
{
1000
HIER
1070
     0
1002
}
1002
{
1000
MANEDIT
1070
     0
1002
}
1002
{
1000
NOSEL
1070
     0
1002
}
1002
{
1000
BEHIND
1070
     0
1002
}
1002
{
1000
OTHER
1070
     0
1002
}
1002
{
1000
REACTOR
1002
}
1001
GENIUS_GENOBJ-N-FIL_13
1002
{
1000
OWNER
1000
GEN
1002
}
  0
TEXT
  5
33A6
  8
AM_0
 10
896.82417210675885
 20
959.1491240207597
 30
0.0
 40
15.0
  1
VX04-800A~VX04-K20A
  0
ENDSEC
  0
EOF
