  0
SECTION
  2
HEADER
  9
$ACADVER
  1
AC1009
  9
$INSBASE
 10
0.0
 20
0.0
 30
0.0
  9
$EXTMIN
 10
206.39447244232821
 20
174.3419953429497
 30
-0.0000000349181948
  9
$EXTMAX
 10
703.95256986731283
 20
634.78391915431439
 30
0.0000000814935747
  9
$LIMMIN
 10
0.0
 20
0.0
  9
$LIMMAX
 10
853.5
 20
555.00000000000011
  9
$ORTHOMODE
 70
     0
  9
$REGENMODE
 70
     1
  9
$FILLMODE
 70
     1
  9
$QTEXTMODE
 70
     0
  9
$MIRRTEXT
 70
     1
  9
$DRAGMODE
 70
     2
  9
$LTSCALE
 40
3.0
  9
$OSMODE
 70
   551
  9
$ATTMODE
 70
     1
  9
$TEXTSIZE
 40
2.5
  9
$TRACEWID
 40
1.0
  9
$TEXTSTYLE
  7
STANDARD
  9
$CLAYER
  8
AM_0
  9
$CELTYPE
  6
BYLAYER
  9
$CECOLOR
 62
   256
  9
$DIMSCALE
 40
1.0
  9
$DIMASZ
 40
2.5
  9
$DIMEXO
 40
1.0
  9
$DIMDLI
 40
8.0
  9
$DIMRND
 40
0.0
  9
$DIMDLE
 40
0.0
  9
$DIMEXE
 40
0.6
  9
$DIMTP
 40
0.1
  9
$DIMTM
 40
0.1
  9
$DIMTXT
 40
2.5
  9
$DIMCEN
 40
0.0
  9
$DIMTSZ
 40
0.0
  9
$DIMTOL
 70
     0
  9
$DIMLIM
 70
     0
  9
$DIMTIH
 70
     0
  9
$DIMTOH
 70
     0
  9
$DIMSE1
 70
     0
  9
$DIMSE2
 70
     0
  9
$DIMTAD
 70
     1
  9
$DIMZIN
 70
     8
  9
$DIMBLK
  1

  9
$DIMASO
 70
     1
  9
$DIMSHO
 70
     1
  9
$DIMPOST
  1

  9
$DIMAPOST
  1
"
  9
$DIMALT
 70
     0
  9
$DIMALTD
 70
     2
  9
$DIMALTF
 40
0.0393701
  9
$DIMLFAC
 40
1.0
  9
$DIMTOFL
 70
     1
  9
$DIMTVP
 40
0.0
  9
$DIMTIX
 70
     0
  9
$DIMSOXD
 70
     0
  9
$DIMSAH
 70
     0
  9
$DIMBLK1
  1

  9
$DIMBLK2
  1

  9
$DIMSTYLE
  2
AM_ISO
  9
$DIMCLRD
 70
   256
  9
$DIMCLRE
 70
   256
  9
$DIMCLRT
 70
     4
  9
$DIMTFAC
 40
0.71
  9
$DIMGAP
 40
0.8
  9
$LUNITS
 70
     2
  9
$LUPREC
 70
     2
  9
$SKETCHINC
 40
1.0
  9
$FILLETRAD
 40
15.0
  9
$AUNITS
 70
     0
  9
$AUPREC
 70
     0
  9
$MENU
  1
.
  9
$ELEVATION
 40
0.0
  9
$PELEVATION
 40
0.0
  9
$THICKNESS
 40
0.0
  9
$LIMCHECK
 70
     0
  9
$BLIPMODE
 70
     0
  9
$CHAMFERA
 40
6.0
  9
$CHAMFERB
 40
3.0
  9
$SKPOLY
 70
     0
  9
$TDCREATE
 40
2452066.4465576159
  9
$TDUPDATE
 40
2458541.4704716899
  9
$TDINDWG
 40
0.0675972106
  9
$TDUSRTIMER
 40
0.0675970139
  9
$USRTIMER
 70
     1
  9
$ANGBASE
 50
0.0
  9
$ANGDIR
 70
     0
  9
$PDMODE
 70
     0
  9
$PDSIZE
 40
0.0
  9
$PLINEWID
 40
0.0
  9
$COORDS
 70
     1
  9
$SPLFRAME
 70
     0
  9
$SPLINETYPE
 70
     6
  9
$SPLINESEGS
 70
     8
  9
$ATTDIA
 70
     1
  9
$ATTREQ
 70
     1
  9
$HANDLING
 70
     1
  9
$HANDSEED
  5
31B2
  9
$SURFTAB1
 70
     6
  9
$SURFTAB2
 70
     6
  9
$SURFTYPE
 70
     6
  9
$SURFU
 70
     6
  9
$SURFV
 70
     6
  9
$UCSNAME
  2

  9
$UCSORG
 10
0.0
 20
0.0
 30
0.0
  9
$UCSXDIR
 10
1.0
 20
0.0
 30
0.0
  9
$UCSYDIR
 10
0.0
 20
1.0
 30
0.0
  9
$PUCSNAME
  2

  9
$PUCSORG
 10
0.0
 20
0.0
 30
0.0
  9
$PUCSXDIR
 10
1.0
 20
0.0
 30
0.0
  9
$PUCSYDIR
 10
0.0
 20
1.0
 30
0.0
  9
$USERI1
 70
     0
  9
$USERI2
 70
     0
  9
$USERI3
 70
     0
  9
$USERI4
 70
     0
  9
$USERI5
 70
     0
  9
$USERR1
 40
0.0
  9
$USERR2
 40
0.0
  9
$USERR3
 40
0.0
  9
$USERR4
 40
0.0
  9
$USERR5
 40
0.0
  9
$WORLDVIEW
 70
     1
  9
$SHADEDGE
 70
     3
  9
$SHADEDIF
 70
    70
  9
$TILEMODE
 70
     1
  9
$MAXACTVP
 70
    64
  9
$PLIMCHECK
 70
     0
  9
$PEXTMIN
 10
1.0000000000000000E+020
 20
1.0000000000000000E+020
 30
1.0000000000000000E+020
  9
$PEXTMAX
 10
-1.0000000000000000E+020
 20
-1.0000000000000000E+020
 30
-1.0000000000000000E+020
  9
$PLIMMIN
 10
0.0
 20
0.0
  9
$PLIMMAX
 10
420.0
 20
297.0
  9
$UNITMODE
 70
     0
  9
$VISRETAIN
 70
     1
  9
$PLINEGEN
 70
     0
  9
$PSLTSCALE
 70
     1
  0
ENDSEC
  0
SECTION
  2
TABLES
  0
TABLE
  2
VPORT
 70
     1
  0
VPORT
  2
*ACTIVE
 70
     0
 10
0.0
 20
0.0
 11
1.0
 21
1.0
 12
455.17352115482038
 22
404.56295724863202
 13
0.0
 23
0.0
 14
7.5
 24
7.5
 15
30.0
 25
30.0
 16
0.0
 26
0.0
 36
1.0
 17
0.0
 27
0.0
 37
0.0
 40
463.60285235011543
 41
1.7571592210767459
 42
50.0
 43
0.0
 44
0.0
 50
0.0
 51
0.0
 71
     0
 72
   100
 73
     1
 74
     3
 75
     0
 76
     0
 77
     0
 78
     0
  0
ENDTAB
  0
TABLE
  2
LTYPE
 70
    26
  0
LTYPE
  2
CONTINUOUS
 70
     0
  3
Solid line
 72
    65
 73
     0
 40
0.0
  0
LTYPE
  2
AM_ISO02W050
 70
     0
  3
__ __ __ __ __ __ __ __ __ __ __ __ __ __ __
 72
    65
 73
     2
 40
7.5
 49
6.0
 49
-1.5
  0
LTYPE
  2
AM_ISO08W050
 70
     0
  3
____ . ____ . ____ . ____ . ____ . ____ . ____
 72
    65
 73
     4
 40
18.0
 49
12.0
 49
-1.5
 49
3.0
 49
-1.5
  0
LTYPE
  2
AM_ISO09W050
 70
     0
  3
_____ . . _____ . . _____ . . ____ .. ____
 72
    65
 73
     6
 40
22.5
 49
12.0
 49
-1.5
 49
3.0
 49
-1.5
 49
3.0
 49
-1.5
  0
LTYPE
  2
AMCONSTR
 70
     0
  3
_______________________
 72
    65
 73
     2
 40
9999.0
 49
9999.0
 49
0.0
  0
LTYPE
  2
AM_ISO08W050X2
 70
     0
  3
__ . __ . __ . __ . __ . __
 72
    65
 73
     4
 40
9.0
 49
6.0
 49
-0.75
 49
1.5
 49
-0.75
  0
LTYPE
  2
AM_ISO02W050X2
 70
     0
  3
 _ _ _ _ _ _ _ _ _ _ _ _
 72
    65
 73
     2
 40
3.75
 49
3.0
 49
-0.75
  0
LTYPE
  2
AMZIGZAG
 70
     0
  3
/\/-/\/-/\/-/\/-/\/-/\/
 72
    65
 73
     2
 40
11.000099999999991
 49
0.0001
 49
-11.0
  0
LTYPE
  2
ACISOWELD
 70
     0
  3
_ _ _ _ _
 72
    65
 73
     2
 40
2.0
 49
2.0
 49
-1.0
  0
LTYPE
  2
ACISOTGB
 70
     0
  3
__ . . __ . .
 72
    65
 73
     6
 40
9.0
 49
4.0
 49
-1.0
 49
1.0
 49
-1.0
 49
1.0
 49
-1.0
  0
LTYPE
  2
ACISOTGL
 70
     0
  3
_ _ _ _ _
 72
    65
 73
     2
 40
3.0
 49
2.0
 49
-1.0
  0
LTYPE
  2
CENTER
 70
     0
  3
__ . __
 72
    65
 73
     4
 40
7.0
 49
4.0
 49
-1.0
 49
1.0
 49
-1.0
  0
LTYPE
  2
PHANTOM2
 70
     0
  3
Phantom (.5x) ___ _ _ ___ _ _ ___ _ _ ___ _ _
 72
    65
 73
     6
 40
31.75
 49
15.875
 49
-3.174999999999998
 49
3.174999999999998
 49
-3.174999999999998
 49
3.174999999999998
 49
-3.174999999999998
  0
LTYPE
  2
ACANSTGBM
 70
     0
  3
__ . . __ . .
 72
    65
 73
     6
 40
9.0
 49
4.0
 49
-1.0
 49
1.0
 49
-1.0
 49
1.0
 49
-1.0
  0
LTYPE
  2
ACANSTGLM
 70
     0
  3
_ _ _ _ _
 72
    65
 73
     2
 40
3.0
 49
2.0
 49
-1.0
  0
LTYPE
  2
GEN3B
 70
     0
  3
 - - - - -
 72
    65
 73
     2
 40
1.0
 49
0.5
 49
-0.5
  0
LTYPE
  2
GEN7A
 70
     0
  3
__ . __ . __
 72
    65
 73
     4
 40
7.375
 49
4.75
 49
-0.875
 49
0.875
 49
-0.875
  0
LTYPE
  2
ACJISTGB
 70
     0
  3
__ . . __ . .
 72
    65
 73
     6
 40
9.0
 49
4.0
 49
-1.0
 49
1.0
 49
-1.0
 49
1.0
 49
-1.0
  0
LTYPE
  2
ACJISTGL
 70
     0
  3
_ _ _ _ _
 72
    65
 73
     2
 40
3.0
 49
2.0
 49
-1.0
  0
LTYPE
  2
HIDDEN
 70
     0
  3
Hidden __ __ __ __ __ __ __ __ __ __ __ __ __ _
 72
    65
 73
     2
 40
0.375
 49
0.25
 49
-0.125
  0
LTYPE
  2
CENTER2
 70
     0
  3
Center (.5x) ___ _ ___ _ ___ _ ___ _ ___ _ ___
 72
    65
 73
     4
 40
1.125
 49
0.75
 49
-0.125
 49
0.125
 49
-0.125
  0
LTYPE
  2
HIDDEN2
 70
     0
  3
Hidden (.5x) _ _ _ _ _ _ _ _ _ _ _ _ _ _ _ _ _
 72
    65
 73
     2
 40
0.1875
 49
0.125
 49
-0.0625
  0
LTYPE
  2
AMZIGZAG2
 70
     0
  3
/\/-/\/-/\/-/\/-/\/-/\/
 72
    65
 73
     2
 40
0.4401
 49
0.0001
 49
-0.4400000000000002
  0
LTYPE
  2
ACANSTGB
 70
     0
  3
__ . . __ . .
 72
    65
 73
     6
 40
0.35433070866
 49
0.15748031496
 49
-0.03937007874
 49
0.03937007874
 49
-0.03937007874
 49
0.03937007874
 49
-0.03937007874
  0
LTYPE
  2
ACANSTGL
 70
     0
  3
_ _ _ _ _
 72
    65
 73
     2
 40
0.11811023622
 49
0.07874015748
 49
-0.03937007874
  0
ENDTAB
  0
TABLE
  2
LAYER
 70
     6
  0
LAYER
  2
0
 70
     0
 62
     7
  6
CONTINUOUS
  0
LAYER
  2
AM_0
 70
     0
 62
     7
  6
CONTINUOUS
  0
LAYER
  2
AM_5
 70
     0
 62
     2
  6
CONTINUOUS
  0
LAYER
  2
DEFPOINTS
 70
     0
 62
     7
  6
CONTINUOUS
  0
LAYER
  2
ｶｸﾚｾﾝ2
 70
     0
 62
     3
  6
GEN3B
  0
LAYER
  2
ﾁｭｳｼﾝｾﾝ1
 70
     0
 62
     1
  6
GEN7A
  0
ENDTAB
  0
TABLE
  2
STYLE
 70
     9
  0
STYLE
  2
STANDARD
 70
     0
 40
0.0
 41
0.8299999999999999
 50
0.0
 71
     0
 42
2.5
  3
txt.shx
  4
bigfont.shx
  0
STYLE
  2
ANNOTATIVE
 70
     0
 40
0.0
 41
1.0
 50
0.0
 71
     0
 42
0.2
  3
txt
  4

  0
STYLE
  2

 70
     1
 40
0.0
 41
1.0
 50
0.0
 71
     0
 42
2.5
  3
ltypeshp.shx
  4

  0
STYLE
  2
ACISOTS
 70
     0
 40
1.0
 41
1.0
 50
0.0
 71
     0
 42
2.5
  3
isocp.shx
  4
extfont.shx
  0
STYLE
  2
ACISOGDT
 70
     0
 40
0.0
 41
1.0
 50
0.0
 71
     0
 42
2.5
  3
amgdt.shx
  4

  0
STYLE
  2
ACANSTS
 70
     0
 40
1.0
 41
1.0
 50
0.0
 71
     0
 42
2.5
  3
romans.shx
  4
bigfont.shx
  0
STYLE
  2
ACANSGDT
 70
     0
 40
0.0
 41
1.0
 50
0.0
 71
     0
 42
2.5
  3
amgdt.shx
  4

  0
STYLE
  2
ACJISTS
 70
     0
 40
1.0
 41
1.0
 50
0.0
 71
     0
 42
2.5
  3
isocp.shx
  4
bigfont.shx
  0
STYLE
  2
ACJISGDT
 70
     0
 40
0.0
 41
1.0
 50
0.0
 71
     0
 42
2.5
  3
amgdt.shx
  4

  0
ENDTAB
  0
TABLE
  2
VIEW
 70
     6
  0
VIEW
  2
AM_VIEW1
 70
     0
 40
277.49999999999989
 10
249.64779005524849
 20
416.24999999999989
 41
499.2955801104971
 11
0.0
 21
0.0
 31
1.0
 12
0.0
 22
0.0
 32
0.0
 42
50.0
 43
0.0
 44
0.0
 50
0.0
 71
     0
  0
VIEW
  2
AM_VIEW2
 70
     0
 40
277.49999999999989
 10
603.85220994475117
 20
416.24999999999989
 41
499.2955801104971
 11
0.0
 21
0.0
 31
1.0
 12
0.0
 22
0.0
 32
0.0
 42
50.0
 43
0.0
 44
0.0
 50
0.0
 71
     0
  0
VIEW
  2
AM_VIEW3
 70
     0
 40
277.49999999999989
 10
249.64779005524849
 20
138.7499999999998
 41
499.2955801104971
 11
0.0
 21
0.0
 31
1.0
 12
0.0
 22
0.0
 32
0.0
 42
50.0
 43
0.0
 44
0.0
 50
0.0
 71
     0
  0
VIEW
  2
AM_VIEW4
 70
     0
 40
277.49999999999989
 10
603.85220994475117
 20
138.7499999999998
 41
499.2955801104971
 11
0.0
 21
0.0
 31
1.0
 12
0.0
 22
0.0
 32
0.0
 42
50.0
 43
0.0
 44
0.0
 50
0.0
 71
     0
  0
VIEW
  2
AM_VIEW5
 70
     0
 40
277.5
 10
426.75
 20
277.49999999999989
 41
499.2955801104971
 11
0.0
 21
0.0
 31
1.0
 12
0.0
 22
0.0
 32
0.0
 42
50.0
 43
0.0
 44
0.0
 50
0.0
 71
     0
  0
VIEW
  2
AM_VIEW6
 70
     0
 40
554.99445000000014
 10
426.75
 20
277.49999999999989
 41
998.5811743093924
 11
0.0
 21
0.0
 31
1.0
 12
0.0
 22
0.0
 32
0.0
 42
50.0
 43
0.0
 44
0.0
 50
0.0
 71
     0
  0
ENDTAB
  0
TABLE
  2
UCS
 70
     0
  0
ENDTAB
  0
TABLE
  2
APPID
 70
    95
  0
APPID
  2
ACAD
 70
     0
  0
APPID
  2
ACADANNOTATIVE
 70
     0
  0
APPID
  2
MCAD_NO_VIS
 70
     0
  0
APPID
  2
ACAD_TEMP_GRAPHIC
 70
     0
  0
APPID
  2
ACATTRIBSERVICES
 70
     0
  0
APPID
  2
GENIUS_GENREC_14
 70
     0
  0
APPID
  2
GENIUS_GENOBJ-N-REC_13
 70
     0
  0
APPID
  2
GENIUS_GENODEF_13
 70
     0
  0
APPID
  2
GENIUS_GENOLIS_13
 70
     0
  0
APPID
  2
GENIUS_GENOBJ-N-TIT_13
 70
     0
  0
APPID
  2
GENIUS_GENOENT_13
 70
     0
  0
APPID
  2
GENIUS_GENTITLE_13
 70
     0
  0
APPID
  2
GENIUS_GENOREF_13
 70
     0
  0
APPID
  2
GENIUS_GENSCREG_15
 70
     0
  0
APPID
  2
GENIUS_GENOBJ-N-SDF_13
 70
     0
  0
APPID
  2
GENIUS_GENFIL_13
 70
     0
  0
APPID
  2
GENIUS_GENOBJ-N-CHA_13
 70
     0
  0
APPID
  2
GENIUS_GENDTOL_13
 70
     0
  0
APPID
  2
GENIUS_GENOBJ-N-FIL_13
 70
     0
  0
APPID
  2
AD_DRAW
 70
     0
  0
APPID
  2
DESIGNERASSEMBLIES
 70
     0
  0
APPID
  2
ASURF_PCURVE_APPNAME
 70
     0
  0
APPID
  2
GENIUS_GE3SECT_13
 70
     0
  0
APPID
  2
GENIUS_GENCFG_13
 70
     0
  0
APPID
  2
GENIUS_GE3CFG0_13
 70
     0
  0
APPID
  2
GENIUS_GENCFG0_13
 70
     0
  0
APPID
  2
GENIUS_GENCFG1_13
 70
     0
  0
APPID
  2
GENIUS_GENCFG2_13
 70
     0
  0
APPID
  2
GENIUS_GENCFG3_13
 70
     0
  0
APPID
  2
GENIUS_GENCFG4_13
 70
     0
  0
APPID
  2
GENIUS_GEVCFG0_13
 70
     0
  0
APPID
  2
GENIUS_GENHINW_13
 70
     0
  0
APPID
  2
GENIUS_FIRSTVISTXT_14
 70
     0
  0
APPID
  2
GENIUS_GENOBJ-N-LEADER_13
 70
     0
  0
APPID
  2
GEV_VCCNULL_SWITCH_OFF
 70
     0
  0
APPID
  2
GENIUS_GEFCFG0_13
 70
     0
  0
APPID
  2
GENIUS_GENZVEED_13
 70
     0
  0
APPID
  2
GENIUS_GENSCREG_13
 70
     0
  0
APPID
  2
GENIUS_DUMCFG0_13
 70
     0
  0
APPID
  2
GEVID936201362
 70
     0
  0
APPID
  2
GEVDC
 70
     0
  0
APPID
  2
GEVCON
 70
     0
  0
APPID
  2
VCC
 70
     0
  0
APPID
  2
GEVPT
 70
     0
  0
APPID
  2
GEVIT
 70
     0
  0
APPID
  2
GENBH
 70
     0
  0
APPID
  2
GEVMK
 70
     0
  0
APPID
  2
GENIUS_GENBH_13
 70
     0
  0
APPID
  2
GENIUS_GENOBJ-NBEHI-BHF_13
 70
     0
  0
APPID
  2
GENIUS_GENOBJ-NBEHI-BHB_13
 70
     0
  0
APPID
  2
GENIUS_GENOBJ-F-DESC_13
 70
     0
  0
APPID
  2
GENIUS_GEFDESC_14
 70
     0
  0
APPID
  2
GENIUS_GENOBJ-F-PART_13
 70
     0
  0
APPID
  2
GENIUS_GEFSTDP_13
 70
     0
  0
APPID
  2
GENIUS_GEFPARTINS_13
 70
     0
  0
APPID
  2
GENIUS_GENTRA_14
 70
     0
  0
APPID
  2
GENIUS_GENINF13_13
 70
     0
  0
APPID
  2
GENIUS_GENOBJ-N-INFOPT_13
 70
     0
  0
APPID
  2
GENIUS_GENOBJ-N-RSSYM_13
 70
     0
  0
APPID
  2
GENIUS_GENSYMENT_13
 70
     0
  0
APPID
  2
GENIUS_GENSCSYM_13
 70
     0
  0
APPID
  2
GENIUS_GEFINFNAM_13
 70
     0
  0
APPID
  2
GENIUS_GENOBJ-N-CEN_13
 70
     0
  0
APPID
  2
GENIUS_GENOBJ-N-CRS_13
 70
     0
  0
APPID
  2
GENIUS_GENOBJ-N-CRC_13
 70
     0
  0
APPID
  2
GENIUS_GENCRC_14
 70
     0
  0
APPID
  2
GEVID942827039
 70
     0
  0
APPID
  2
GEVID942827040
 70
     0
  0
APPID
  2
GEVID942827041
 70
     0
  0
APPID
  2
GENIUS_GENOBJ-F-SCPASSM_13
 70
     0
  0
APPID
  2
GENIUS_GENDIMSH_14
 70
     0
  0
APPID
  2
GEVID942827042
 70
     0
  0
APPID
  2
GEVID946020473
 70
     0
  0
APPID
  2
GEVID946020474
 70
     0
  0
APPID
  2
GEVID946020475
 70
     0
  0
APPID
  2
GENIUS_GENOBJ-N-HTC_13
 70
     0
  0
APPID
  2
GENIUS_GENHATCH_13
 70
     0
  0
APPID
  2
GEVID948854295
 70
     0
  0
APPID
  2
GEVID939402019
 70
     0
  0
APPID
  2
GEVID952919491
 70
     0
  0
APPID
  2
GEVID952919492
 70
     0
  0
APPID
  2
GENIUS_GEFWELD_13
 70
     0
  0
APPID
  2
GENIUS_GENOBJ-F-WELS_13
 70
     0
  0
APPID
  2
GEVID952919493
 70
     0
  0
APPID
  2
GENIUS_GENOBJ-N-RSBK_13
 70
     0
  0
APPID
  2
GENIUS_GENOBJ-N-LIB_13
 70
     0
  0
APPID
  2
GENIUS_GENSCALE_13
 70
     0
  0
APPID
  2
GEVID986376691
 70
     0
  0
APPID
  2
DCO15
 70
     0
  0
APPID
  2
ACAD_DSTYLE_DIMBREAK
 70
     0
  0
APPID
  2
ACAD_DSTYLE_DIMJAG
 70
     0
  0
APPID
  2
ACAD_NAV_VCDISPLAY
 70
     0
  0
APPID
  2
ACADANNOPO
 70
     0
  0
APPID
  2
ACAD_EXEMPT_FROM_CAD_STANDARDS
 70
     0
  0
APPID
  2
ACAD_MLEADERVER
 70
     0
  0
ENDTAB
  0
TABLE
  2
DIMSTYLE
 70
    22
  0
DIMSTYLE
  2
STANDARD
 70
     0
  3

  4

  5

  6

  7

 40
1.0
 41
0.18
 42
0.0625
 43
0.38
 44
0.18
 45
0.0
 46
0.0
 47
0.0
 48
0.0
140
0.18
141
0.09
142
0.0
143
25.399999999999999
144
1.0
145
0.0
146
1.0
147
0.09
 71
     0
 72
     0
 73
     1
 74
     1
 75
     0
 76
     0
 77
     0
 78
     0
170
     0
171
     2
172
     0
173
     0
174
     0
175
     0
176
     0
177
     0
178
     0
  0
DIMSTYLE
  2
ANNOTATIVE
 70
     0
  3

  4

  5

  6

  7

 40
1.0
 41
0.18
 42
0.0625
 43
0.38
 44
0.18
 45
0.0
 46
0.0
 47
0.0
 48
0.0
140
0.18
141
0.09
142
0.0
143
25.399999999999999
144
1.0
145
0.0
146
1.0
147
0.09
 71
     0
 72
     0
 73
     1
 74
     1
 75
     0
 76
     0
 77
     0
 78
     0
170
     0
171
     2
172
     0
173
     0
174
     0
175
     0
176
     0
177
     0
178
     0
  0
DIMSTYLE
  2
AM_ISO
 70
     0
  3

  4
"
  5

  6

  7

 40
1.0
 41
2.5
 42
1.0
 43
8.0
 44
0.6
 45
0.0
 46
0.0
 47
0.1
 48
0.1
140
2.5
141
0.0
142
0.0
143
0.0393701
144
1.0
145
0.0
146
0.71
147
0.8
 71
     0
 72
     0
 73
     0
 74
     0
 75
     0
 76
     0
 77
     1
 78
     8
170
     0
171
     2
172
     1
173
     0
174
     0
175
     0
176
   256
177
   256
178
     4
  0
DIMSTYLE
  2
AM_ISO$3
 70
     0
  3

  4
"
  5

  6

  7

 40
1.0
 41
2.5
 42
1.0
 43
8.0
 44
0.6
 45
0.0
 46
0.0
 47
0.1
 48
0.1
140
2.5
141
0.0
142
0.0
143
0.0393701
144
1.0
145
0.0
146
0.71
147
0.8
 71
     0
 72
     0
 73
     0
 74
     1
 75
     0
 76
     0
 77
     1
 78
     8
170
     0
171
     2
172
     0
173
     0
174
     0
175
     0
176
   256
177
   256
178
     4
  0
DIMSTYLE
  2
AM_ISO$4
 70
     0
  3

  4
"
  5

  6

  7

 40
1.0
 41
2.5
 42
1.0
 43
8.0
 44
0.6
 45
0.0
 46
0.0
 47
0.1
 48
0.1
140
2.5
141
0.0
142
0.0
143
0.0393701
144
1.0
145
0.0
146
0.71
147
0.8
 71
     0
 72
     0
 73
     0
 74
     1
 75
     0
 76
     0
 77
     1
 78
     8
170
     0
171
     2
172
     0
173
     0
174
     0
175
     0
176
   256
177
   256
178
     4
  0
DIMSTYLE
  2
AM_ISO$6
 70
     0
  3

  4
"
  5

  6

  7

 40
1.0
 41
2.5
 42
1.0
 43
8.0
 44
0.6
 45
0.0
 46
0.0
 47
0.1
 48
0.1
140
2.5
141
0.0
142
0.0
143
0.0393701
144
1.0
145
0.0
146
0.71
147
0.8
 71
     0
 72
     0
 73
     0
 74
     0
 75
     0
 76
     0
 77
     0
 78
     8
170
     0
171
     2
172
     1
173
     0
174
     0
175
     0
176
   256
177
   256
178
     4
  0
DIMSTYLE
  2
AM_ISO$7
 70
     0
  3

  4
"
  5

  6

  7

 40
1.0
 41
2.5
 42
1.0
 43
8.0
 44
0.6
 45
0.0
 46
0.0
 47
0.1
 48
0.1
140
2.5
141
0.0
142
0.0
143
0.0393701
144
1.0
145
0.0
146
0.71
147
0.8
 71
     0
 72
     0
 73
     0
 74
     0
 75
     0
 76
     0
 77
     1
 78
     8
170
     0
171
     2
172
     1
173
     0
174
     0
175
     0
176
   256
177
   256
178
     4
  0
DIMSTYLE
  2
AM_ISO$SF
 70
     0
  3

  4
"
  5

  6

  7

 40
1.0
 41
2.5
 42
1.0
 43
10.0
 44
1.0
 45
0.0
 46
0.0
 47
0.1
 48
0.1
140
3.5
141
0.0
142
0.0
143
0.0393701
144
1.0
145
0.0
146
0.71
147
1.5
 71
     0
 72
     0
 73
     0
 74
     0
 75
     1
 76
     1
 77
     1
 78
     8
170
     0
171
     2
172
     1
173
     0
174
     0
175
     0
176
   256
177
   256
178
     2
  0
DIMSTYLE
  2
AM_ISO$SH
 70
     0
  3

  4
"
  5

  6

  7

 40
1.0
 41
2.5
 42
1.0
 43
10.0
 44
1.0
 45
0.0
 46
0.0
 47
0.1
 48
0.1
140
3.5
141
0.0
142
0.0
143
0.0393701
144
2.0
145
0.0
146
0.71
147
1.5
 71
     0
 72
     0
 73
     0
 74
     0
 75
     1
 76
     1
 77
     1
 78
     8
170
     0
171
     2
172
     1
173
     1
174
     0
175
     0
176
   256
177
   256
178
     2
  0
DIMSTYLE
  2
AM_JIS
 70
     0
  3

  4
"
  5

  6

  7

 40
1.0
 41
2.5
 42
1.0
 43
7.0
 44
1.0
 45
0.0
 46
0.0
 47
0.1
 48
0.1000000001
140
2.5
141
0.0
142
0.0
143
0.0393701
144
1.0
145
0.0
146
0.71
147
1.0
 71
     0
 72
     0
 73
     0
 74
     0
 75
     0
 76
     0
 77
     3
 78
     8
170
     0
171
     2
172
     1
173
     0
174
     0
175
     0
176
   256
177
   256
178
     4
  0
DIMSTYLE
  2
AM_JIS$3
 70
     0
  3

  4
"
  5

  6

  7

 40
1.0
 41
2.5
 42
1.0
 43
7.0
 44
1.0
 45
0.0
 46
0.0
 47
0.1
 48
0.1000000001
140
2.5
141
0.0
142
0.0
143
0.0393701
144
1.0
145
0.0
146
0.71
147
1.0
 71
     0
 72
     0
 73
     0
 74
     1
 75
     0
 76
     0
 77
     3
 78
     8
170
     0
171
     2
172
     0
173
     0
174
     0
175
     0
176
   256
177
   256
178
     4
  0
DIMSTYLE
  2
AM_JIS$4
 70
     0
  3

  4
"
  5

  6

  7

 40
1.0
 41
2.5
 42
1.0
 43
7.0
 44
1.0
 45
0.0
 46
0.0
 47
0.1
 48
0.1000000001
140
2.5
141
0.0
142
0.0
143
0.0393701
144
1.0
145
0.0
146
0.71
147
1.0
 71
     0
 72
     0
 73
     0
 74
     0
 75
     0
 76
     0
 77
     3
 78
     8
170
     0
171
     2
172
     0
173
     0
174
     0
175
     0
176
   256
177
   256
178
     4
  0
DIMSTYLE
  2
AM_JIS$6
 70
     0
  3

  4
"
  5

  6

  7

 40
1.0
 41
2.5
 42
1.0
 43
7.0
 44
1.0
 45
0.0
 46
0.0
 47
0.1
 48
0.1000000001
140
2.5
141
0.0
142
0.0
143
0.0393701
144
1.0
145
0.0
146
0.71
147
1.0
 71
     0
 72
     0
 73
     0
 74
     0
 75
     0
 76
     0
 77
     0
 78
     8
170
     0
171
     2
172
     1
173
     0
174
     0
175
     0
176
   256
177
   256
178
     4
  0
DIMSTYLE
  2
AM_JIS$7
 70
     0
  3

  4
"
  5

  6

  7

 40
1.0
 41
2.5
 42
1.0
 43
7.0
 44
1.0
 45
0.0
 46
0.0
 47
0.1
 48
0.1000000001
140
2.5
141
0.0
142
0.0
143
0.0393701
144
1.0
145
0.0
146
0.71
147
1.0
 71
     0
 72
     0
 73
     0
 74
     0
 75
     0
 76
     0
 77
     3
 78
     8
170
     0
171
     2
172
     1
173
     0
174
     0
175
     0
176
   256
177
   256
178
     4
  0
DIMSTYLE
  2
AM_JIS$SF
 70
     0
  3

  4
"
  5

  6

  7

 40
1.0
 41
2.5
 42
1.0
 43
10.0
 44
1.0
 45
0.0
 46
0.0
 47
0.1
 48
0.1
140
3.5
141
0.0
142
0.0
143
0.0393701
144
1.0
145
0.0
146
0.71
147
1.5
 71
     0
 72
     0
 73
     0
 74
     0
 75
     1
 76
     1
 77
     3
 78
     8
170
     0
171
     2
172
     1
173
     0
174
     0
175
     0
176
   256
177
   256
178
     4
  0
DIMSTYLE
  2
AM_JIS$SH
 70
     0
  3

  4
"
  5

  6

  7

 40
1.0
 41
2.5
 42
1.0
 43
10.0
 44
1.0
 45
0.0
 46
0.0
 47
0.1
 48
0.1
140
3.5
141
0.0
142
0.0
143
0.0393701
144
1.0
145
0.0
146
0.71
147
1.5
 71
     0
 72
     0
 73
     0
 74
     0
 75
     1
 76
     0
 77
     3
 78
     8
170
     0
171
     2
172
     1
173
     1
174
     0
175
     0
176
   256
177
   256
178
     4
  0
DIMSTYLE
  2
AM_ANSI
 70
     0
  3

  4
mm
  5

  6

  7

 40
1.0
 41
0.1
 42
0.05
 43
0.5
 44
0.1
 45
0.0
 46
0.0
 47
0.1
 48
0.1
140
0.12
141
0.0
142
0.0
143
25.399999999999999
144
1.0
145
0.0
146
0.71
147
0.06
 71
     0
 72
     0
 73
     1
 74
     1
 75
     0
 76
     0
 77
     0
 78
     7
170
     0
171
     2
172
     0
173
     0
174
     0
175
     0
176
   256
177
   256
178
     2
  0
DIMSTYLE
  2
AM_ANSI$3
 70
     0
  3

  4
mm
  5

  6

  7

 40
1.0
 41
0.1
 42
0.05
 43
0.5
 44
0.1
 45
0.0
 46
0.0
 47
0.1
 48
0.1
140
0.12
141
0.0
142
0.0
143
25.399999999999999
144
1.0
145
0.0
146
0.71
147
0.06
 71
     0
 72
     0
 73
     1
 74
     1
 75
     0
 76
     0
 77
     0
 78
     7
170
     0
171
     2
172
     0
173
     0
174
     0
175
     0
176
   256
177
   256
178
     2
  0
DIMSTYLE
  2
AM_ANSI$4
 70
     0
  3

  4
mm
  5

  6

  7

 40
1.0
 41
0.1
 42
0.05
 43
0.5
 44
0.1
 45
0.0
 46
0.0
 47
0.1
 48
0.1
140
0.12
141
0.0
142
0.0
143
25.399999999999999
144
1.0
145
0.0
146
0.71
147
0.06
 71
     0
 72
     0
 73
     1
 74
     1
 75
     0
 76
     0
 77
     0
 78
     7
170
     0
171
     2
172
     0
173
     0
174
     0
175
     0
176
   256
177
   256
178
     2
  0
DIMSTYLE
  2
AM_ANSI$7
 70
     0
  3

  4
mm
  5

  6

  7

 40
1.0
 41
0.1
 42
0.05
 43
0.5
 44
0.1
 45
0.0
 46
0.0
 47
0.1
 48
0.1
140
0.24
141
0.0
142
0.0
143
25.399999999999999
144
1.0
145
0.0
146
0.71
147
0.06
 71
     0
 72
     0
 73
     1
 74
     1
 75
     0
 76
     0
 77
     0
 78
     7
170
     0
171
     2
172
     0
173
     0
174
     0
175
     0
176
   256
177
   256
178
     2
  0
DIMSTYLE
  2
AM_ANSI$SF
 70
     0
  3

  4
mm
  5

  6

  7

 40
1.0
 41
0.1
 42
0.05
 43
0.5
 44
0.1
 45
0.0
 46
0.0
 47
0.1
 48
0.1
140
0.12
141
0.0
142
0.0
143
25.399999999999999
144
1.0
145
0.0
146
0.71
147
0.06
 71
     0
 72
     0
 73
     1
 74
     1
 75
     1
 76
     1
 77
     0
 78
     7
170
     0
171
     2
172
     0
173
     0
174
     0
175
     0
176
   256
177
   256
178
     2
  0
DIMSTYLE
  2
AM_ANSI$SH
 70
     0
  3

  4
mm
  5

  6

  7

 40
1.0
 41
0.1
 42
0.05
 43
0.5
 44
0.1
 45
0.0
 46
0.0
 47
0.1
 48
0.1
140
0.12
141
0.0
142
0.0
143
25.399999999999999
144
1.0
145
0.0
146
0.71
147
0.06
 71
     0
 72
     0
 73
     1
 74
     1
 75
     1
 76
     1
 77
     0
 78
     7
170
     0
171
     2
172
     0
173
     1
174
     0
175
     0
176
   256
177
   256
178
     2
  0
ENDTAB
  0
ENDSEC
  0
SECTION
  2
BLOCKS
  0
BLOCK
  8
0
  2
$MODEL_SPACE
 70
     0
 10
0.0
 20
0.0
 30
0.0
  3
$MODEL_SPACE
  1

  0
ENDBLK
  5
3028
  8
0
  0
BLOCK
 67
     1
  8
0
  2
$PAPER_SPACE
 70
     0
 10
0.0
 20
0.0
 30
0.0
  3
$PAPER_SPACE
  1

  0
ENDBLK
  5
3024
 67
     1
  8
0
  0
BLOCK
  8
0
  2
GENAXEH
 70
     0
 10
0.0
 20
0.0
 30
0.0
  3
GENAXEH
  1

  0
LINE
  5
2DDC
  8
0
 10
-1.0
 20
0.0
 30
0.0
 11
1.0
 21
0.0
 31
0.0
  0
ENDBLK
  5
2DDD
  8
0
  0
BLOCK
  8
0
  2
_OPEN30
 70
     0
 10
0.0
 20
0.0
 30
0.0
  3
_OPEN30
  1

  0
LINE
  5
2DE0
  8
0
 62
     0
 10
-1.0
 20
0.26794919
 30
0.0
 11
0.0
 21
0.0
 31
0.0
  0
LINE
  5
2DE1
  8
0
 62
     0
 10
0.0
 20
0.0
 30
0.0
 11
-1.0
 21
-0.26794919
 31
0.0
  0
LINE
  5
2DE2
  8
0
 62
     0
 10
0.0
 20
0.0
 30
0.0
 11
-1.0
 21
0.0
 31
0.0
  0
ENDBLK
  5
2DE3
  8
0
  0
BLOCK
  8
0
  2
_NONE
 70
     0
 10
0.0
 20
0.0
 30
0.0
  3
_NONE
  1

  0
ENDBLK
  5
2DE6
  8
0
  0
BLOCK
  8
0
  2
_ACMFILLEDHALF
 70
     0
 10
0.0
 20
0.0
 30
0.0
  3
_ACMFILLEDHALF
  1

  0
TRACE
  5
311E
  8
AM_0
 62
     0
 10
-0.8
 20
0.0
 30
0.0
 11
-1.0
 21
0.166666666
 31
0.0
 12
0.0
 22
0.0
 32
0.0
 13
0.0
 23
0.0
 33
0.0
  0
LINE
  5
311F
  8
AM_0
 62
     0
 10
-1.0
 20
0.0
 30
0.0
 11
-0.8
 21
0.0
 31
0.0
  0
ENDBLK
  5
311D
  8
0
  0
ENDSEC
  0
SECTION
  2
ENTITIES
  0
LINE
  5
2DE7
  8
AM_0
 10
392.55601120995902
 20
538.78027163083902
 30
0.0
 11
424.55601120995908
 21
538.78027163083902
 31
0.0
  0
LINE
  5
2DE8
  8
AM_0
 10
392.55601120995902
 20
530.78030163083895
 30
0.0
 11
424.55601120995908
 21
530.78030163083895
 31
0.0
  0
LINE
  5
2DE9
  8
AM_0
 10
382.55604120995912
 20
520.7803316308391
 30
0.0
 11
424.55601120995908
 21
520.7803316308391
 31
0.0
  0
LINE
  5
2DEA
  8
AM_0
 10
382.55604120995912
 20
548.7803316308391
 30
0.0
 11
424.55601120995908
 21
548.7803316308391
 31
0.0
  0
LINE
  5
2DEB
  8
ﾁｭｳｼﾝｾﾝ1
 10
206.4056194068701
 20
534.78030163083895
 30
0.0
 11
429.263041209959
 21
534.78030163083895
 31
0.0
  0
LINE
  5
2DEC
  8
AM_0
 10
267.0559812099591
 20
461.2803316308391
 30
0.0
 11
267.0559812099591
 21
608.28030163083895
 31
0.0
  0
LINE
  5
2DED
  8
AM_0
 10
296.55601120995908
 20
454.70520163083893
 30
0.0
 11
296.55601120995908
 21
614.85540163083897
 31
0.0
  0
LINE
  5
2DEE
  8
AM_0
 10
364.55604120995912
 20
479.60876163083901
 30
0.0
 11
364.55604120995912
 21
589.951841630839
 31
0.0
  0
LINE
  5
2DEF
  8
AM_0
 10
379.55604120995912
 20
562.80615163083905
 30
0.0
 11
379.55604120995912
 21
506.75445163083901
 31
0.0
  0
LINE
  5
2DF0
  8
AM_0
 10
376.55604120995912
 20
480.6532816308391
 30
0.0
 11
376.55604120995912
 21
588.9073116308391
 31
0.0
  0
LINE
  5
2DF1
  8
AM_0
 10
303.55604120995912
 20
452.52935163083907
 30
0.0
 11
303.55604120995912
 21
617.03125163083905
 31
0.0
  0
LINE
  5
2DF2
  8
AM_0
 10
382.55604120995912
 20
549.78030163083895
 30
0.0
 11
382.55604120995912
 21
519.78030163083895
 31
0.0
  0
ARC
  5
2DF3
  8
AM_0
 10
284.55604120995912
 20
459.78030163083901
 30
0.0
 40
6.0
 50
168.5051000000046
 51
320.54157000000077
  0
ARC
  5
2DF4
  8
ｶｸﾚｾﾝ2
 10
284.55604120995912
 20
459.78030163083901
 30
0.0
 40
6.0
 50
320.54155000000191
 51
168.5051000000046
  0
LINE
  5
2DF5
  8
AM_0
 10
267.05604120995912
 20
495.305631630839
 30
0.0
 11
296.55601120995908
 21
495.305631630839
 31
0.0
  0
LINE
  5
2DF6
  8
AM_0
 10
267.05604120995912
 20
473.20166163083883
 30
0.0
 11
296.55601120995908
 21
473.20166163083883
 31
0.0
  0
LINE
  5
2DF7
  8
AM_0
 10
287.35603120995893
 20
468.9671616308388
 30
0.0
 11
294.55601120995908
 21
468.9671616308388
 31
0.0
  0
LINE
  5
2DF8
  8
AM_0
 10
287.35603120995893
 20
455.96719163083901
 30
0.0
 11
294.55601120995908
 21
455.96719163083901
 31
0.0
  0
LINE
  5
2DF9
  8
AM_0
 10
272.477491209959
 20
445.67266163083877
 30
0.0
 11
306.55604120995912
 21
444.78030163083901
 31
0.0
  0
LINE
  5
2DFA
  8
AM_0
 10
287.35603120995893
 20
455.96719163083901
 30
0.0
 11
287.35603120995893
 21
468.9671616308388
 31
0.0
  0
LINE
  5
2DFB
  8
AM_0
 10
286.55604120995912
 20
456.7671816308391
 30
0.0
 11
286.55604120995912
 21
468.16717163083888
 31
0.0
  0
LINE
  5
2DFC
  8
AM_0
 10
267.05601120995902
 20
461.28027163083902
 30
0.0
 11
286.55601120995908
 21
460.76965163083901
 31
0.0
  0
LINE
  5
2DFD
  8
AM_0
 10
269.55604120995912
 20
448.6716316308391
 30
0.0
 11
269.55604120995912
 21
461.21481163083882
 31
0.0
  0
ARC
  5
2DFE
  8
AM_0
 10
272.55604120995912
 20
448.6716316308391
 30
0.0
 40
3.0
 50
180.00001000000091
 51
268.50000000000063
  0
LINE
  5
2DFF
  8
AM_0
 10
286.55601120995908
 20
456.7671816308391
 30
0.0
 11
287.35606120995908
 21
455.96716163083892
 31
0.0
  0
LINE
  5
2E00
  8
AM_0
 10
286.55604120995912
 20
468.16714163083913
 30
0.0
 11
287.35606120995908
 21
468.9671616308388
 31
0.0
  0
POLYLINE
  5
2E01
  8
AM_0
 66
     1
 10
0.0
 20
0.0
 30
0.0
  0
VERTEX
  5
2E02
  8
AM_0
 10
304.81958120995893
 20
454.8513216308391
 30
0.0
 42
0.021277534
  0
VERTEX
  5
2E03
  8
AM_0
 10
315.64972120995901
 20
456.90784163083902
 30
0.0
 42
0.020622971
  0
VERTEX
  5
2E04
  8
AM_0
 10
325.77448120995911
 20
459.72488163083909
 30
0.0
 42
0.022709
  0
VERTEX
  5
2E05
  8
AM_0
 10
336.58140120995893
 20
463.77044163083912
 30
0.0
  0
SEQEND
  5
2E06
  8
AM_0
  0
POLYLINE
  5
2E07
  8
AM_0
 66
     1
 10
0.0
 20
0.0
 30
0.0
  0
VERTEX
  5
2E08
  8
AM_0
 10
303.55604120995912
 20
496.50521163083909
 30
0.0
 42
-0.059991193
  0
VERTEX
  5
2E09
  8
AM_0
 10
329.14485120995909
 20
480.5730016308388
 30
0.0
 42
-0.30883796
  0
VERTEX
  5
2E0A
  8
AM_0
 10
338.55601120995908
 20
464.63226163083903
 30
0.0
 42
-0.25905842
  0
VERTEX
  5
2E0B
  8
AM_0
 10
304.10634120995911
 20
444.844201630839
 30
0.0
  0
SEQEND
  5
2E0C
  8
AM_0
  0
CIRCLE
  5
2E0D
  8
AM_0
 10
364.55604120995912
 20
459.78030163083901
 30
0.0
 40
6.0
  0
LINE
  5
2E0E
  8
AM_0
 10
294.55601120995908
 20
453.96716163083909
 30
0.0
 11
294.55601120995908
 21
470.96716163083909
 31
0.0
  0
LINE
  5
2E0F
  8
AM_0
 10
346.55604120995912
 20
450.96038163083892
 30
0.0
 11
346.55604120995912
 21
466.42620163083888
 31
0.0
  0
LINE
  5
2E10
  8
AM_0
 10
379.55604120995912
 20
449.61434163083908
 30
0.0
 11
379.55604120995912
 21
476.78030163083901
 31
0.0
  0
ARC
  5
2E11
  8
AM_0
 10
351.55604120995912
 20
450.96038163083892
 30
0.0
 40
5.0
 50
180.00001000000091
 51
271.4999999999992
  0
LINE
  5
2E12
  8
AM_0
 10
306.55604120995912
 20
444.78030163083901
 30
0.0
 11
376.63453120995911
 21
446.6153516308388
 31
0.0
  0
ARC
  5
2E13
  8
AM_0
 10
303.55604120995912
 20
449.256101630839
 30
0.0
 40
1.0
 50
109.47121999999951
 51
180.00001000000091
  0
ARC
  5
2E14
  8
AM_0
 10
301.55604120995912
 20
449.91296163083888
 30
0.0
 40
5.0
 50
268.50000000000063
 51
0.0000006832495047
  0
LINE
  5
2E15
  8
AM_0
 10
303.55604120995912
 20
454.67294163083909
 30
0.0
 11
296.55601120995908
 21
454.67294163083909
 31
0.0
  0
LINE
  5
2E16
  8
AM_0
 10
303.55604120995912
 20
452.52935163083907
 30
0.0
 11
298.48622120995901
 21
452.70639163083911
 31
0.0
  0
ARC
  5
2E17
  8
AM_0
 10
301.55604120995912
 20
445.91296163083888
 30
0.0
 40
1.0
 50
270.0
 51
0.0
  0
LINE
  5
2E18
  8
AM_0
 10
302.55604120995912
 20
445.91296163083888
 30
0.0
 11
302.55604120995912
 21
449.256101630839
 31
0.0
  0
LINE
  5
2E19
  8
AM_0
 10
294.55601120995908
 20
453.96716163083909
 30
0.0
 11
296.55601120995908
 21
453.96716163083909
 31
0.0
  0
ARC
  5
2E1A
  8
AM_0
 10
298.55601120995908
 20
454.70520163083893
 30
0.0
 40
2.0
 50
180.00001000000091
 51
267.99999999999932
  0
ARC
  5
2E1B
  8
AM_0
 10
301.55604120995912
 20
454.91296163083882
 30
0.0
 40
5.0
 50
289.47123000000062
 51
331.5287600000031
  0
LINE
  5
2E1C
  8
AM_0
 10
306.55604120995912
 20
449.91296163083888
 30
0.0
 11
306.55604120995912
 21
452.52935163083907
 31
0.0
  0
LINE
  5
2E1D
  8
AM_0
 10
303.55604120995912
 20
452.52935163083907
 30
0.0
 11
306.55604120995912
 21
452.52935163083907
 31
0.0
  0
ARC
  5
2E1E
  8
AM_0
 10
376.55604120995912
 20
449.61434163083908
 30
0.0
 40
3.0
 50
271.4999999999992
 51
0.0
  0
ARC
  5
2E1F
  8
AM_0
 10
354.55604120995912
 20
466.42620163083888
 30
0.0
 40
8.0
 50
91.999998000000545
 51
180.00001000000091
  0
LINE
  5
2E20
  8
AM_0
 10
294.55601120995908
 20
470.96716163083909
 30
0.0
 11
296.55601120995908
 21
470.96716163083909
 31
0.0
  0
LINE
  5
2E21
  8
AM_0
 10
303.55604120995912
 20
496.50521163083909
 30
0.0
 11
296.55601120995908
 21
496.50521163083909
 31
0.0
  0
ARC
  5
2E22
  8
AM_0
 10
373.55604120995912
 20
483.52929163083883
 30
0.0
 40
3.0
 50
275.0
 51
0.0
  0
ARC
  5
2E23
  8
AM_0
 10
359.55604120995912
 20
479.60876163083901
 30
0.0
 40
5.0
 50
272.0000000000004
 51
0.0
  0
LINE
  5
2E24
  8
AM_0
 10
359.73054120995897
 20
474.61181163083882
 30
0.0
 11
354.27683120995903
 21
474.42135163083901
 31
0.0
  0
ARC
  5
2E25
  8
AM_0
 10
368.45786120995911
 20
475.05270163083912
 30
0.0
 40
5.0
 50
95.00000199999856
 51
152.89619000000181
  0
LINE
  5
2E26
  8
AM_0
 10
373.81748120995911
 20
480.54071163083881
 30
0.0
 11
368.02207120995911
 21
480.03369163083869
 31
0.0
  0
ARC
  5
2E27
  8
AM_0
 10
377.55604120995912
 20
480.6532816308391
 30
0.0
 40
1.0
 50
180.00001000000091
 51
255.5224900000002
  0
ARC
  5
2E28
  8
AM_0
 10
376.55604120995912
 20
476.78030163083901
 30
0.0
 40
3.0
 50
0.0
 51
75.522487999999072
  0
ARC
  5
2E29
  8
AM_0
 10
378.55604120995912
 20
506.75445163083901
 30
0.0
 40
1.0
 50
271.4999999999992
 51
0.0
  0
ARC
  5
2E2A
  8
AM_0
 10
377.55604120995912
 20
504.72760163083882
 30
0.0
 40
1.0
 50
91.500001000001546
 51
180.00001000000091
  0
LINE
  5
2E2B
  8
AM_0
 10
377.52983120995913
 20
505.727261630839
 30
0.0
 11
378.58219120995892
 21
505.75482163083882
 31
0.0
  0
LINE
  5
2E2C
  8
AM_0
 10
379.55604120995912
 20
519.78030163083895
 30
0.0
 11
382.55604120995912
 21
519.78030163083895
 31
0.0
  0
ARC
  5
2E2D
  8
AM_0
 10
392.55601120995902
 20
534.78027163083902
 30
0.0
 40
3.9999962
 50
90.000003000000945
 51
270.0
  0
LINE
  5
2E2E
  8
AM_0
 10
392.55601120995902
 20
538.78027163083902
 30
0.0
 11
392.55601120995902
 21
530.78030163083895
 31
0.0
  0
ARC
  5
2E2F
  8
ｶｸﾚｾﾝ2
 10
284.55604120995912
 20
609.78030163083895
 30
0.0
 40
6.0
 50
191.4949199999983
 51
39.458439999999598
  0
ARC
  5
2E30
  8
AM_0
 10
284.55604120995912
 20
609.78030163083895
 30
0.0
 40
6.0
 50
39.458443000000081
 51
191.49490999999961
  0
LINE
  5
2E31
  8
AM_0
 10
287.35603120995893
 20
613.59341163083911
 30
0.0
 11
294.55601120995908
 21
613.59341163083911
 31
0.0
  0
LINE
  5
2E32
  8
AM_0
 10
287.35603120995893
 20
600.59344163083915
 30
0.0
 11
294.55601120995908
 21
600.59344163083915
 31
0.0
  0
LINE
  5
2E33
  8
AM_0
 10
267.05604120995912
 20
596.35894163083913
 30
0.0
 11
296.55601120995908
 21
596.35894163083913
 31
0.0
  0
LINE
  5
2E34
  8
AM_0
 10
267.05604120995912
 20
574.25497163083878
 30
0.0
 11
296.55601120995908
 21
574.25497163083878
 31
0.0
  0
LINE
  5
2E35
  8
AM_0
 10
272.477491209959
 20
623.887901630839
 30
0.0
 11
306.55604120995912
 21
624.78030163083895
 31
0.0
  0
ARC
  5
2E36
  8
AM_0
 10
272.55604120995912
 20
620.88894163083921
 30
0.0
 40
3.0
 50
91.500001000001546
 51
180.00001000000091
  0
LINE
  5
2E37
  8
AM_0
 10
287.35603120995893
 20
600.59344163083915
 30
0.0
 11
287.35603120995893
 21
613.59341163083911
 31
0.0
  0
LINE
  5
2E38
  8
AM_0
 10
286.55604120995912
 20
601.39343163083902
 30
0.0
 11
286.55604120995912
 21
612.79342163083902
 31
0.0
  0
LINE
  5
2E39
  8
AM_0
 10
286.55604120995912
 20
601.39340163083898
 30
0.0
 11
287.35606120995908
 21
600.59338163083919
 31
0.0
  0
LINE
  5
2E3A
  8
AM_0
 10
267.05601120995902
 20
608.2803316308391
 30
0.0
 11
286.55601120995908
 21
608.79095163083912
 31
0.0
  0
LINE
  5
2E3B
  8
AM_0
 10
269.55604120995912
 20
620.88894163083921
 30
0.0
 11
269.55604120995912
 21
608.34579163083913
 31
0.0
  0
LINE
  5
2E3C
  8
AM_0
 10
286.55604120995912
 20
612.79342163083902
 30
0.0
 11
287.35603120995893
 21
613.59344163083915
 31
0.0
  0
POLYLINE
  5
2E3D
  8
AM_0
 66
     1
 10
0.0
 20
0.0
 30
0.0
  0
VERTEX
  5
2E3E
  8
AM_0
 10
303.55604120995912
 20
573.05538163083918
 30
0.0
 42
0.059991175
  0
VERTEX
  5
2E3F
  8
AM_0
 10
329.14485120995909
 20
588.98759163083901
 30
0.0
 42
0.30883786
  0
VERTEX
  5
2E40
  8
AM_0
 10
338.55601120995908
 20
604.92834163083921
 30
0.0
 42
0.25905849
  0
VERTEX
  5
2E41
  8
AM_0
 10
304.10636120995912
 20
624.71639163083921
 30
0.0
  0
SEQEND
  5
2E42
  8
AM_0
  0
ARC
  5
2E43
  8
AM_0
 10
351.55604120995912
 20
618.60021163083911
 30
0.0
 40
5.0
 50
88.499997000000647
 51
180.00001000000091
  0
ARC
  5
2E44
  8
AM_0
 10
301.55604120995912
 20
619.64764163083896
 30
0.0
 40
5.0
 50
0.0
 51
91.500001000001546
  0
ARC
  5
2E45
  8
AM_0
 10
376.55604120995912
 20
619.94625163083901
 30
0.0
 40
3.0
 50
0.0
 51
88.499997000000647
  0
LINE
  5
2E46
  8
AM_0
 10
302.55604120995912
 20
623.64764163083908
 30
0.0
 11
302.55604120995912
 21
620.30450163083901
 31
0.0
  0
ARC
  5
2E47
  8
AM_0
 10
354.55604120995912
 20
603.1343916308391
 30
0.0
 40
8.0
 50
180.00001000000091
 51
267.99999999999932
  0
LINE
  5
2E48
  8
AM_0
 10
303.55604120995912
 20
573.05538163083918
 30
0.0
 11
296.55601120995908
 21
573.05538163083918
 31
0.0
  0
POLYLINE
  5
2E49
  8
AM_0
 66
     1
 10
0.0
 20
0.0
 30
0.0
  0
VERTEX
  5
2E4A
  8
AM_0
 10
304.81958120995893
 20
614.7092816308392
 30
0.0
 42
-0.021277534
  0
VERTEX
  5
2E4B
  8
AM_0
 10
315.64972120995901
 20
612.65276163083911
 30
0.0
 42
-0.020622971
  0
VERTEX
  5
2E4C
  8
AM_0
 10
325.77448120995911
 20
609.83572163083886
 30
0.0
 42
-0.022709
  0
VERTEX
  5
2E4D
  8
AM_0
 10
336.58140120995893
 20
605.79016163083918
 30
0.0
  0
SEQEND
  5
2E4E
  8
AM_0
  0
LINE
  5
2E4F
  8
AM_0
 10
294.55601120995908
 20
598.59341163083911
 30
0.0
 11
294.55601120995908
 21
615.59341163083911
 31
0.0
  0
LINE
  5
2E50
  8
AM_0
 10
294.55601120995908
 20
598.59341163083911
 30
0.0
 11
296.55601120995908
 21
598.59341163083911
 31
0.0
  0
ARC
  5
2E51
  8
AM_0
 10
303.55604120995912
 20
620.30450163083901
 30
0.0
 40
1.0
 50
180.00001000000091
 51
250.52876999999941
  0
LINE
  5
2E52
  8
AM_0
 10
303.55604120995912
 20
617.03125163083905
 30
0.0
 11
298.48622120995901
 21
616.85421163083913
 31
0.0
  0
LINE
  5
2E53
  8
AM_0
 10
294.55601120995908
 20
615.59341163083911
 30
0.0
 11
296.55601120995908
 21
615.59341163083911
 31
0.0
  0
ARC
  5
2E54
  8
AM_0
 10
298.55601120995908
 20
614.85540163083897
 30
0.0
 40
2.0
 50
91.999998000000545
 51
180.00001000000091
  0
ARC
  5
2E55
  8
AM_0
 10
301.55604120995912
 20
614.64764163083919
 30
0.0
 40
5.0
 50
28.471238999999571
 51
70.528778999998195
  0
LINE
  5
2E56
  8
AM_0
 10
303.55604120995912
 20
617.03125163083905
 30
0.0
 11
306.55604120995912
 21
617.03125163083905
 31
0.0
  0
LINE
  5
2E57
  8
AM_0
 10
306.55604120995912
 20
619.64764163083896
 30
0.0
 11
306.55604120995912
 21
617.03125163083905
 31
0.0
  0
LINE
  5
2E58
  8
AM_0
 10
379.55604120995912
 20
549.78030163083895
 30
0.0
 11
382.55604120995912
 21
549.78030163083895
 31
0.0
  0
ARC
  5
2E59
  8
AM_0
 10
378.55604120995912
 20
562.80615163083905
 30
0.0
 40
1.0
 50
0.0
 51
88.499997000000647
  0
ARC
  5
2E5A
  8
AM_0
 10
377.55604120995912
 20
564.83300163083925
 30
0.0
 40
1.0
 50
180.00001000000091
 51
268.50000000000063
  0
LINE
  5
2E5B
  8
AM_0
 10
377.52986120995911
 20
563.83337163083911
 30
0.0
 11
378.58219120995892
 21
563.80581163083912
 31
0.0
  0
ARC
  5
2E5C
  8
AM_0
 10
373.55604120995912
 20
586.03131163083913
 30
0.0
 40
3.0
 50
0.0
 51
85.000004000000885
  0
LINE
  5
2E5D
  8
ﾁｭｳｼﾝｾﾝ1
 10
364.55604120995912
 20
620.78030163083895
 30
0.0
 11
364.55604120995912
 21
598.78030163083895
 31
0.0
  0
ARC
  5
2E5E
  8
AM_0
 10
359.55604120995912
 20
589.951841630839
 30
0.0
 40
5.0
 50
0.0
 51
87.999999999999503
  0
LINE
  5
2E5F
  8
AM_0
 10
359.73051120995899
 20
594.94882163083912
 30
0.0
 11
354.27683120995903
 21
595.139251630839
 31
0.0
  0
ARC
  5
2E60
  8
AM_0
 10
368.45786120995911
 20
594.50790163083889
 30
0.0
 40
5.0
 50
207.10380999999799
 51
265.00001000000032
  0
LINE
  5
2E61
  8
AM_0
 10
373.81748120995911
 20
589.01986163083905
 30
0.0
 11
368.02207120995911
 21
589.52691163083921
 31
0.0
  0
CIRCLE
  5
2E62
  8
AM_0
 10
364.55604120995912
 20
609.78030163083895
 30
0.0
 40
6.0
  0
LINE
  5
2E63
  8
ﾁｭｳｼﾝｾﾝ1
 10
353.55604120995912
 20
609.78030163083895
 30
0.0
 11
375.55604120995912
 21
609.78030163083895
 31
0.0
  0
LINE
  5
2E64
  8
AM_0
 10
346.55604120995912
 20
603.1343916308391
 30
0.0
 11
346.55604120995912
 21
618.60021163083911
 31
0.0
  0
LINE
  5
2E65
  8
AM_0
 10
379.55604120995912
 20
619.94625163083901
 30
0.0
 11
379.55604120995912
 21
592.78030163083906
 31
0.0
  0
ARC
  5
2E66
  8
AM_0
 10
376.55604120995912
 20
592.78030163083906
 30
0.0
 40
3.0
 50
284.47750999999971
 51
0.0
  0
ARC
  5
2E67
  8
AM_0
 10
377.55604120995912
 20
588.9073116308391
 30
0.0
 40
1.0
 50
104.4775099999998
 51
180.00001000000091
  0
LINE
  5
2E68
  8
AM_0
 10
306.55604120995912
 20
624.78030163083895
 30
0.0
 11
376.63453120995911
 21
622.94525163083904
 31
0.0
  0
ARC
  5
2E69
  8
AM_0
 10
301.55604120995912
 20
623.64764163083908
 30
0.0
 40
1.0
 50
0.0
 51
90.000003000000945
  0
LINE
  5
2E6A
  8
AM_0
 10
424.55601120995908
 20
548.7803316308391
 30
0.0
 11
424.55601120995908
 21
520.7803316308391
 31
0.0
  0
LINE
  5
2E6B
  8
ﾁｭｳｼﾝｾﾝ1
 10
353.55604120995912
 20
459.78030163083901
 30
0.0
 11
375.55604120995912
 21
459.78030163083901
 31
0.0
  0
LINE
  5
2E6C
  8
ﾁｭｳｼﾝｾﾝ1
 10
364.55604120995912
 20
470.78030163083901
 30
0.0
 11
364.55604120995912
 21
448.78030163083901
 31
0.0
  0
LINE
  5
2E6D
  8
ﾁｭｳｼﾝｾﾝ1
 10
273.55604120995912
 20
459.78030163083901
 30
0.0
 11
295.55604120995912
 21
459.78030163083901
 31
0.0
  0
LINE
  5
2E6E
  8
ﾁｭｳｼﾝｾﾝ1
 10
284.55604120995912
 20
470.78030163083901
 30
0.0
 11
284.55604120995912
 21
448.78030163083901
 31
0.0
  0
LINE
  5
2E6F
  8
ﾁｭｳｼﾝｾﾝ1
 10
273.55604120995912
 20
609.78030163083895
 30
0.0
 11
295.55604120995912
 21
609.78030163083895
 31
0.0
  0
LINE
  5
2E70
  8
ﾁｭｳｼﾝｾﾝ1
 10
284.55604120995912
 20
620.78030163083895
 30
0.0
 11
284.55604120995912
 21
598.78030163083895
 31
0.0
  0
LINE
  5
2E72
  8
ﾁｭｳｼﾝｾﾝ1
 10
274.61519584926089
 20
300.58414860355282
 30
0.0
 11
429.50379120995882
 21
300.58414860355282
 31
0.0
  0
LINE
  5
2E73
  8
AM_0
 10
352.55598120995887
 20
194.5841616035527
 30
0.0
 11
379.55598120995887
 21
194.5841616035527
 31
0.0
  0
LINE
  5
2E74
  8
AM_0
 10
377.52981120995901
 20
271.5311076035527
 30
0.0
 11
378.582181209959
 21
271.55866560355253
 31
0.0
  0
LINE
  5
2E75
  8
AM_0
 10
377.5298412099591
 20
329.63722260355269
 30
0.0
 11
378.582181209959
 21
329.60965260355272
 31
0.0
  0
ARC
  5
2E76
  8
AM_0
 10
377.55600120995882
 20
207.5841606035527
 30
0.0
 40
2.00000007
 50
0.0
 51
90.000003000000945
  0
LINE
  5
2E77
  8
AM_0
 10
267.05595120995901
 20
203.88417960355261
 30
0.0
 11
267.05595120995901
 21
350.8841826035528
 31
0.0
  0
LINE
  5
2E78
  8
AM_0
 10
376.55598120995887
 20
211.45713360355271
 30
0.0
 11
376.55598120995887
 21
336.8351526035529
 31
0.0
  0
LINE
  5
2E79
  8
AM_0
 10
346.55598120995887
 20
214.58414760355271
 30
0.0
 11
346.55598120995887
 21
321.81745260355268
 31
0.0
  0
LINE
  5
2E7A
  8
AM_0
 10
306.55602120995889
 20
247.05297360355269
 30
0.0
 11
306.55602120995889
 21
282.37281360355257
 31
0.0
  0
LINE
  5
2E7B
  8
AM_0
 10
364.55598120995887
 20
227.1974586035526
 30
0.0
 11
364.55598120995887
 21
351.91603260355282
 31
0.0
  0
LINE
  5
2E7C
  8
AM_0
 10
303.556021209959
 20
358.3841826035528
 30
0.0
 11
303.556021209959
 21
230.7270156035527
 31
0.0
  0
LINE
  5
2E7D
  8
AM_0
 10
296.55600120995888
 20
356.25253260355282
 30
0.0
 11
296.55600120995888
 21
209.5841616035527
 31
0.0
  0
POLYLINE
  5
2E7E
  8
AM_0
 66
     1
 10
0.0
 20
0.0
 30
0.0
  0
VERTEX
  5
2E7F
  8
AM_0
  6
CONTINUOUS
 10
306.55596120995898
 20
209.58415860355271
 30
0.0
 42
0.1279115
  0
VERTEX
  5
2E80
  8
AM_0
  6
CONTINUOUS
 10
312.65007120995898
 20
211.2495756035527
 30
0.0
 42
0.075873118
  0
VERTEX
  5
2E81
  8
AM_0
  6
CONTINUOUS
 10
317.63145120995898
 20
215.2084746035527
 30
0.0
 42
0.043913378
  0
VERTEX
  5
2E82
  8
AM_0
  6
CONTINUOUS
 10
321.57222120995908
 20
220.22558760355261
 30
0.0
 42
0.028464656
  0
VERTEX
  5
2E83
  8
AM_0
  6
CONTINUOUS
 10
324.76437120995888
 20
225.75221160355269
 30
0.0
 42
0.020370663
  0
VERTEX
  5
2E84
  8
AM_0
  6
CONTINUOUS
 10
327.41112120995888
 20
231.56455860355271
 30
0.0
 42
0.015656254
  0
VERTEX
  5
2E85
  8
AM_0
  6
CONTINUOUS
 10
329.63613120995888
 20
237.55117560355271
 30
0.0
 42
0.012688911
  0
VERTEX
  5
2E86
  8
AM_0
  6
CONTINUOUS
 10
331.52052120995887
 20
243.65427660355269
 30
0.0
 42
0.010707698
  0
VERTEX
  5
2E87
  8
AM_0
  6
CONTINUOUS
 10
333.11883120995901
 20
249.83970060355259
 30
0.0
 42
0.0093245508
  0
VERTEX
  5
2E88
  8
AM_0
  6
CONTINUOUS
 10
334.46877120995907
 20
256.08361560355257
 30
0.0
 42
0.0083349492
  0
VERTEX
  5
2E89
  8
AM_0
  6
CONTINUOUS
 10
335.598121209959
 20
262.37262060355272
 30
0.0
 42
0.0076122078
  0
VERTEX
  5
2E8A
  8
AM_0
  6
CONTINUOUS
 10
336.52680120995888
 20
268.69479060355269
 30
0.0
 42
0.0070829657
  0
VERTEX
  5
2E8B
  8
AM_0
  6
CONTINUOUS
 10
337.26954120995907
 20
275.0415516035527
 30
0.0
 42
0.0067007819
  0
VERTEX
  5
2E8C
  8
AM_0
  6
CONTINUOUS
 10
337.83732120995887
 20
281.4066006035527
 30
0.0
 42
0.0064353088
  0
VERTEX
  5
2E8D
  8
AM_0
  6
CONTINUOUS
 10
338.23785120995882
 20
287.78458860355272
 30
0.0
 42
0.0062673646
  0
VERTEX
  5
2E8E
  8
AM_0
  6
CONTINUOUS
 10
338.476411209959
 20
294.1707396035527
 30
0.0
 42
0.0061857301
  0
VERTEX
  5
2E8F
  8
AM_0
  6
CONTINUOUS
 10
338.55597120995901
 20
300.56073060355283
 30
0.0
  0
SEQEND
  5
2E90
  8
AM_0
  0
LINE
  5
2E91
  8
AM_0
 10
223.05595120995901
 20
376.38416760355278
 30
0.0
 11
223.05595120995901
 21
178.38416760355281
 31
0.0
  0
LINE
  5
2E92
  8
AM_0
 10
213.05595120995901
 20
177.38416760355281
 30
0.0
 11
213.05595120995901
 21
377.38416760355278
 31
0.0
  0
LINE
  5
2E93
  8
AM_0
 10
267.05595120995901
 20
203.8841676035529
 30
0.0
 11
225.79448420995891
 21
200.2742566035528
 31
0.0
  0
LINE
  5
2E94
  8
AM_0
 10
226.05595120995901
 20
213.8749426035528
 30
0.0
 11
263.05595120995901
 21
213.8749426035528
 31
0.0
  0
LINE
  5
2E95
  8
AM_0
 10
226.05595120995901
 20
237.90949160355279
 30
0.0
 11
265.05595120995901
 21
237.90949160355279
 31
0.0
  0
ARC
  5
2E96
  8
AM_0
 10
226.05595120995901
 20
197.2856726035528
 30
0.0
 40
3.0
 50
94.99999999999973
 51
180.0
  0
ARC
  5
2E97
  8
AM_0
 10
226.05595120995901
 20
210.8749426035528
 30
0.0
 40
3.0
 50
90.0
 51
180.0
  0
ARC
  5
2E98
  8
AM_0
 10
226.05595120995901
 20
234.90949160355279
 30
0.0
 40
3.0
 50
90.0
 51
180.0
  0
LINE
  5
2E99
  8
AM_0
 10
297.556021209959
 20
195.5841606035527
 30
0.0
 11
351.55602120995911
 21
195.5841606035527
 31
0.0
  0
LINE
  5
2E9A
  8
AM_0
 10
306.46887120995888
 20
246.12351660355259
 30
0.0
 11
300.01806120995911
 21
212.02648260355261
 31
0.0
  0
LINE
  5
2E9B
  8
AM_0
 10
265.05595120995901
 20
215.8749426035528
 30
0.0
 11
265.05595120995901
 21
235.90949160355279
 31
0.0
  0
LINE
  5
2E9C
  8
AM_0
 10
267.05601120995902
 20
215.8055196035526
 30
0.0
 11
296.55600120995888
 21
215.8055196035526
 31
0.0
  0
LINE
  5
2E9D
  8
AM_0
 10
271.55601120995902
 20
209.5841616035527
 30
0.0
 11
297.0703212099591
 21
209.5841616035527
 31
0.0
  0
LINE
  5
2E9E
  8
AM_0
 10
269.55600120995888
 20
194.5841616035527
 30
0.0
 11
296.55600120995888
 21
194.5841616035527
 31
0.0
  0
ARC
  5
2E9F
  8
AM_0
 10
271.55601120995902
 20
207.5841606035527
 30
0.0
 40
2.00000007
 50
90.000003000000945
 51
180.00001000000091
  0
LINE
  5
2EA0
  8
AM_0
 10
269.55600120995888
 20
207.5841606035527
 30
0.0
 11
269.55600120995888
 21
194.5841616035527
 31
0.0
  0
LINE
  5
2EA1
  8
AM_0
 10
267.05601120995902
 20
203.88414960355269
 30
0.0
 11
269.55600120995888
 21
203.8186896035528
 31
0.0
  0
ARC
  5
2EA2
  8
AM_0
 10
263.05595120995901
 20
215.8749426035528
 30
0.0
 40
2.0
 50
270.0
 51
0.0
  0
LINE
  5
2EA3
  8
ｶｸﾚｾﾝ2
 10
278.55603120995892
 20
209.5841616035527
 30
0.0
 11
278.55603120995892
 21
194.5841616035527
 31
0.0
  0
LINE
  5
2EA4
  8
ｶｸﾚｾﾝ2
 10
290.55600120995888
 20
209.5841616035527
 30
0.0
 11
290.55600120995888
 21
194.5841616035527
 31
0.0
  0
LINE
  5
2EA5
  8
ﾁｭｳｼﾝｾﾝ1
 10
284.55597120995901
 20
211.68105136936919
 30
0.0
 11
284.55597120995901
 21
192.2684746457175
 31
0.0
  0
LINE
  5
2EA6
  8
AM_0
 10
296.55600120995888
 20
194.5841616035527
 30
0.0
 11
296.55600120995888
 21
194.5841616035527
 31
0.0
  0
ARC
  5
2EA7
  8
AM_0
 10
297.556021209959
 20
194.5841616035527
 30
0.0
 40
1.0000000199999981
 50
90.000003000000945
 51
180.00001000000091
  0
LINE
  5
2EA8
  8
AM_0
 10
297.25008120995892
 20
211.87555860355261
 30
0.0
 11
299.9895012099588
 21
211.87555860355261
 31
0.0
  0
ARC
  5
2EA9
  8
AM_0
 10
297.0703212099591
 20
212.5841466035526
 30
0.0
 40
3.0
 50
270.0
 51
349.2868799999996
  0
LINE
  5
2EAA
  8
AM_0
 10
267.05601120995902
 20
237.9094956035527
 30
0.0
 11
296.55600120995888
 21
237.9094956035527
 31
0.0
  0
ARC
  5
2EAB
  8
AM_0
 10
267.05595120995901
 20
235.90949160355279
 30
0.0
 40
2.0
 50
120.0000000000005
 51
180.0
  0
ARC
  5
2EAC
  8
AM_0
 10
301.55598120995887
 20
247.05297360355269
 30
0.0
 40
5.0000001000000003
 50
349.2868799999996
 51
0.0
  0
LINE
  5
2EAD
  8
ｶｸﾚｾﾝ2
 10
370.55598120995887
 20
209.5841616035527
 30
0.0
 11
370.55598120995887
 21
194.5841616035527
 31
0.0
  0
LINE
  5
2EAE
  8
ｶｸﾚｾﾝ2
 10
358.55598120995887
 20
209.5841616035527
 30
0.0
 11
358.55598120995887
 21
194.5841616035527
 31
0.0
  0
LINE
  5
2EAF
  8
ﾁｭｳｼﾝｾﾝ1
 10
364.55595120995901
 20
211.68105136936919
 30
0.0
 11
364.55595120995901
 21
192.2684746457177
 31
0.0
  0
LINE
  5
2EB0
  8
AM_0
 10
352.55598120995887
 20
194.5841616035527
 30
0.0
 11
352.55598120995887
 21
194.5841616035527
 31
0.0
  0
ARC
  5
2EB1
  8
AM_0
 10
351.55602120995911
 20
194.5841616035527
 30
0.0
 40
1.0000000199999981
 50
0.0
 51
90.000003000000945
  0
LINE
  5
2EB2
  8
AM_0
 10
351.55602120995911
 20
209.5841616035527
 30
0.0
 11
377.55600120995882
 21
209.5841616035527
 31
0.0
  0
ARC
  5
2EB3
  8
AM_0
 10
359.55600120995888
 20
227.1974586035526
 30
0.0
 40
5.0000001000000003
 50
270.0
 51
0.0
  0
ARC
  5
2EB4
  8
AM_0
 10
351.55602120995911
 20
214.58414760355271
 30
0.0
 40
5.0000001000000003
 50
179.9999899999988
 51
270.0
  0
LINE
  5
2EB5
  8
AM_0
 10
346.55598120995887
 20
222.1974426035527
 30
0.0
 11
359.55600120995888
 21
222.1974426035527
 31
0.0
  0
ARC
  5
2EB6
  8
AM_0
 10
378.55602120995911
 20
211.45713360355271
 30
0.0
 40
2.00000007
 50
179.9999899999988
 51
255.5224900000002
  0
ARC
  5
2EB7
  8
AM_0
 10
377.55600120995882
 20
270.53142960355262
 30
0.0
 40
1.0000000199999981
 50
91.500001000001546
 51
180.00001000000091
  0
LINE
  5
2EB8
  8
ﾁｭｳｼﾝｾﾝ1
 10
206.4056194068701
 20
277.38416760355278
 30
0.0
 11
290.16444327360392
 21
277.38416760355278
 31
0.0
  0
LINE
  5
2EB9
  8
AM_0
 10
267.05595120995901
 20
350.88416760355278
 30
0.0
 11
225.79448420995891
 21
354.4940776035528
 31
0.0
  0
LINE
  5
2EBA
  8
AM_0
 10
226.05595120995901
 20
316.85884260355277
 30
0.0
 11
265.05595120995901
 21
316.85884260355277
 31
0.0
  0
LINE
  5
2EBB
  8
AM_0
 10
226.05595120995901
 20
340.8933926035528
 30
0.0
 11
263.05595120995901
 21
340.8933926035528
 31
0.0
  0
ARC
  5
2EBC
  8
AM_0
 10
226.05595120995901
 20
319.85884260355277
 30
0.0
 40
3.0
 50
180.0
 51
270.0
  0
ARC
  5
2EBD
  8
AM_0
 10
226.05595120995901
 20
343.89339260355263
 30
0.0
 40
3.0
 50
180.0
 51
270.0
  0
ARC
  5
2EBE
  8
AM_0
 10
226.05595120995901
 20
357.4826626035528
 30
0.0
 40
3.0
 50
180.0
 51
265.00000000000028
  0
LINE
  5
2EBF
  8
AM_0
 10
213.05595120995901
 20
377.38416760355278
 30
0.0
 11
222.05595120995901
 21
377.38416760355278
 31
0.0
  0
ARC
  5
2EC0
  8
AM_0
 10
222.05595120995901
 20
376.38416760355278
 30
0.0
 40
1.0
 50
0.0
 51
90.0
  0
LINE
  5
2EC1
  8
AM_0
 10
303.55605120995881
 20
358.38421260355278
 30
0.0
 11
359.68692120995911
 21
356.91436260355277
 31
0.0
  0
POLYLINE
  5
2EC2
  8
AM_0
 66
     1
 10
0.0
 20
0.0
 30
0.0
  0
VERTEX
  5
2EC3
  8
AM_0
  6
CONTINUOUS
 10
336.63504120995901
 20
319.76290260355279
 30
0.0
 42
0.032705737
  0
VERTEX
  5
2EC4
  8
AM_0
  6
CONTINUOUS
 10
334.68888120995888
 20
320.51140260355271
 30
0.0
 42
0.016814103
  0
VERTEX
  5
2EC5
  8
AM_0
  6
CONTINUOUS
 10
332.678071209959
 20
321.07360260355267
 30
0.0
 42
0.010836057
  0
VERTEX
  5
2EC6
  8
AM_0
  6
CONTINUOUS
 10
330.63864120995908
 20
321.52645260355268
 30
0.0
 42
0.007863161
  0
VERTEX
  5
2EC7
  8
AM_0
  6
CONTINUOUS
 10
328.58427120995901
 20
321.90358260355282
 30
0.0
 42
0.0061455438
  0
VERTEX
  5
2EC8
  8
AM_0
  6
CONTINUOUS
 10
326.52000120995888
 20
322.22347260355269
 30
0.0
 42
0.0050541015
  0
VERTEX
  5
2EC9
  8
AM_0
  6
CONTINUOUS
 10
324.448381209959
 20
322.49737260355278
 30
0.0
 42
0.0043145835
  0
VERTEX
  5
2ECA
  8
AM_0
  6
CONTINUOUS
 10
322.37064120995888
 20
322.73269260355272
 30
0.0
 42
0.0037842963
  0
VERTEX
  5
2ECB
  8
AM_0
  6
CONTINUOUS
 10
320.29146120995892
 20
322.93423260355257
 30
0.0
 42
0.003403486
  0
VERTEX
  5
2ECC
  8
AM_0
  6
CONTINUOUS
 10
318.20742120995908
 20
323.1061026035527
 30
0.0
 42
0.0031173927
  0
VERTEX
  5
2ECD
  8
AM_0
  6
CONTINUOUS
 10
316.12092120995908
 20
323.25085260355257
 30
0.0
 42
0.0029018743
  0
VERTEX
  5
2ECE
  8
AM_0
  6
CONTINUOUS
 10
314.03283120995889
 20
323.37049260355258
 30
0.0
 42
0.0027404553
  0
VERTEX
  5
2ECF
  8
AM_0
  6
CONTINUOUS
 10
311.94351120995901
 20
323.46661260355279
 30
0.0
 42
0.0026217012
  0
VERTEX
  5
2ED0
  8
AM_0
  6
CONTINUOUS
 10
309.85320120995908
 20
323.54032260355262
 30
0.0
 42
0.0025380412
  0
VERTEX
  5
2ED1
  8
AM_0
  6
CONTINUOUS
 10
307.762231209959
 20
323.59249260355278
 30
0.0
 42
0.0024845601
  0
VERTEX
  5
2ED2
  8
AM_0
  6
CONTINUOUS
 10
305.67081120995908
 20
323.6236626035527
 30
0.0
 42
0.002458447
  0
VERTEX
  5
2ED3
  8
AM_0
  6
CONTINUOUS
 10
303.579121209959
 20
323.63416260355262
 30
0.0
  0
SEQEND
  5
2ED4
  8
AM_0
  0
POLYLINE
  5
2ED5
  8
AM_0
 66
     1
 10
0.0
 20
0.0
 30
0.0
  0
VERTEX
  5
2ED6
  8
AM_0
  6
CONTINUOUS
 10
338.55597120995901
 20
317.88416760355273
 30
0.0
 42
0.029628731
  0
VERTEX
  5
2ED7
  8
AM_0
  6
CONTINUOUS
 10
338.3643612099591
 20
321.11347260355262
 30
0.0
 42
0.029327543
  0
VERTEX
  5
2ED8
  8
AM_0
  6
CONTINUOUS
 10
337.79466120995909
 20
324.29440260355278
 30
0.0
 42
0.028837186
  0
VERTEX
  5
2ED9
  8
AM_0
  6
CONTINUOUS
 10
336.85878120995898
 20
327.39013260355267
 30
0.0
 42
0.028139479
  0
VERTEX
  5
2EDA
  8
AM_0
  6
CONTINUOUS
 10
335.57640120995882
 20
330.3606726035527
 30
0.0
 42
0.027280614
  0
VERTEX
  5
2EDB
  8
AM_0
  6
CONTINUOUS
 10
333.97392120995909
 20
333.17005260355279
 30
0.0
 42
0.026363464
  0
VERTEX
  5
2EDC
  8
AM_0
  6
CONTINUOUS
 10
332.07930120995889
 20
335.79247260355282
 30
0.0
 42
0.025439158
  0
VERTEX
  5
2EDD
  8
AM_0
  6
CONTINUOUS
 10
329.92173120995909
 20
338.20711260355279
 30
0.0
 42
0.024503424
  0
VERTEX
  5
2EDE
  8
AM_0
  6
CONTINUOUS
 10
327.53532120995908
 20
340.3936326035527
 30
0.0
 42
0.023638789
  0
VERTEX
  5
2EDF
  8
AM_0
  6
CONTINUOUS
 10
324.94977120995901
 20
342.3407526035528
 30
0.0
 42
0.022857682
  0
VERTEX
  5
2EE0
  8
AM_0
  6
CONTINUOUS
 10
322.1945112099591
 20
344.03953260355269
 30
0.0
 42
0.022175457
  0
VERTEX
  5
2EE1
  8
AM_0
  6
CONTINUOUS
 10
319.29744120995889
 20
345.48388260355279
 30
0.0
 42
0.021601125
  0
VERTEX
  5
2EE2
  8
AM_0
  6
CONTINUOUS
 10
316.28502120995893
 20
346.66957260355252
 30
0.0
 42
0.021139333
  0
VERTEX
  5
2EE3
  8
AM_0
  6
CONTINUOUS
 10
313.18218120995908
 20
347.59393260355267
 30
0.0
 42
0.020791974
  0
VERTEX
  5
2EE4
  8
AM_0
  6
CONTINUOUS
 10
310.01277120995911
 20
348.2552826035527
 30
0.0
 42
0.020559394
  0
VERTEX
  5
2EE5
  8
AM_0
  6
CONTINUOUS
 10
306.79965120995888
 20
348.65266260355253
 30
0.0
 42
0.020441745
  0
VERTEX
  5
2EE6
  8
AM_0
  6
CONTINUOUS
 10
303.56502120995901
 20
348.78565260355282
 30
0.0
  0
SEQEND
  5
2EE7
  8
AM_0
  0
LINE
  5
2EE8
  8
AM_0
 10
294.55596120995892
 20
310.63413660355258
 30
0.0
 11
294.55596120995892
 21
327.63415260355271
 31
0.0
  0
LINE
  5
2EE9
  8
AM_0
 10
287.35596120995888
 20
312.63416760355278
 30
0.0
 11
287.35596120995888
 21
325.63414260355268
 31
0.0
  0
LINE
  5
2EEA
  8
AM_0
 10
286.55598120995887
 20
313.43415660355282
 30
0.0
 11
286.55598120995887
 21
324.83416260355273
 31
0.0
  0
LINE
  5
2EEB
  8
AM_0
 10
294.55596120995892
 20
310.63413660355258
 30
0.0
 11
296.55600120995888
 21
310.63413660355258
 31
0.0
  0
LINE
  5
2EEC
  8
AM_0
 10
286.55598120995887
 20
313.43415660355282
 30
0.0
 11
287.35602120995901
 21
312.63413760355257
 31
0.0
  0
LINE
  5
2EED
  8
AM_0
 10
287.35596120995888
 20
312.63416760355278
 30
0.0
 11
294.55596120995892
 21
312.63416760355278
 31
0.0
  0
LINE
  5
2EEE
  8
AM_0
 10
267.05601120995902
 20
338.96281260355272
 30
0.0
 11
296.55600120995888
 21
338.96281260355272
 31
0.0
  0
LINE
  5
2EEF
  8
AM_0
 10
267.05601120995902
 20
350.88421260355278
 30
0.0
 11
293.63454120995908
 21
351.58018260355283
 31
0.0
  0
LINE
  5
2EF0
  8
AM_0
 10
267.05601120995902
 20
316.85883960355272
 30
0.0
 11
286.55598120995887
 21
316.85883960355272
 31
0.0
  0
LINE
  5
2EF1
  8
AM_0
 10
265.05595120995901
 20
338.8933926035528
 30
0.0
 11
265.05595120995901
 21
318.85884260355277
 31
0.0
  0
ARC
  5
2EF2
  8
AM_0
 10
267.05595120995901
 20
318.85884260355277
 30
0.0
 40
2.0
 50
180.0
 51
239.99999999999949
  0
ARC
  5
2EF3
  8
AM_0
 10
263.05595120995901
 20
338.8933926035528
 30
0.0
 40
2.0
 50
0.0
 51
90.0
  0
LINE
  5
2EF4
  8
AM_0
 10
294.55596120995892
 20
327.63415260355271
 30
0.0
 11
296.55600120995888
 21
327.63415260355271
 31
0.0
  0
LINE
  5
2EF5
  8
AM_0
 10
286.55601120995908
 20
324.83416260355273
 30
0.0
 11
287.3559912099588
 21
325.63417260355283
 31
0.0
  0
LINE
  5
2EF6
  8
AM_0
 10
287.35596120995888
 20
325.63414260355268
 30
0.0
 11
294.55596120995892
 21
325.63414260355268
 31
0.0
  0
ARC
  5
2EF7
  8
AM_0
 10
293.55600120995888
 20
354.57910260355283
 30
0.0
 40
3.0
 50
271.49999999999932
 51
0.0
  0
LINE
  5
2EF8
  8
AM_0
 10
298.50366120995892
 20
358.2518826035527
 30
0.0
 11
303.55599120995907
 21
358.3841826035528
 31
0.0
  0
ARC
  5
2EF9
  8
AM_0
 10
298.55598120995887
 20
356.25253260355282
 30
0.0
 40
2.00000007
 50
91.500001000001546
 51
180.00001000000091
  0
LINE
  5
2EFA
  8
AM_0
 10
338.55600120995888
 20
317.88416760355273
 30
0.0
 11
338.55600120995888
 21
300.58414860355282
 31
0.0
  0
ARC
  5
2EFB
  8
AM_0
 10
356.55600120995882
 20
321.81745260355268
 30
0.0
 40
10.000000200000001
 50
90.000003000000945
 51
180.00001000000091
  0
ARC
  5
2EFC
  8
AM_0
 10
373.55598120995887
 20
336.8351526035529
 30
0.0
 40
3.0
 50
0.0
 51
84.999996999998572
  0
LINE
  5
2EFD
  8
AM_0
 10
356.55600120995882
 20
331.81741260355273
 30
0.0
 11
364.55598120995887
 21
331.81741260355273
 31
0.0
  0
ARC
  5
2EFE
  8
AM_0
 10
377.55600120995882
 20
330.63685260355271
 30
0.0
 40
1.0000000199999981
 50
179.9999899999988
 51
268.50000999999872
  0
ARC
  5
2EFF
  8
AM_0
 10
359.55600120995888
 20
351.91603260355282
 30
0.0
 40
5.0000001000000003
 50
0.0
 51
88.499997000000747
  0
LINE
  5
2F00
  8
AM_0
 10
369.12027120995901
 20
340.23469260355267
 30
0.0
 11
373.81749120995892
 21
339.82375260355269
 31
0.0
  0
ARC
  5
2F01
  8
AM_0
 10
369.55602120995911
 20
345.21568260355269
 30
0.0
 40
5.0000001000000003
 50
179.9999899999988
 51
265.00000000000028
  0
LINE
  5
2F02
  8
AM_0
 10
690.90897640647495
 20
209.5841616035527
 30
0.0
 11
681.29680840647518
 21
287.32380360355279
 31
0.0
  0
LINE
  5
2F03
  8
AM_0
 10
510.90894940647507
 20
209.5841616035527
 30
0.0
 11
520.52109940647506
 21
287.32377360355252
 31
0.0
  0
LINE
  5
2F04
  8
AM_0
 10
654.90898240647505
 20
214.58416260355261
 30
0.0
 11
654.90898240647505
 21
285.58414860355282
 31
0.0
  0
LINE
  5
2F05
  8
AM_0
 10
540.90897940647505
 20
248.38415160355271
 30
0.0
 11
540.90897940647505
 21
329.83411260355268
 31
0.0
  0
LINE
  5
2F06
  8
AM_0
 10
660.90897640647506
 20
248.38415160355271
 30
0.0
 11
660.90897640647506
 21
329.83411260355268
 31
0.0
  0
LINE
  5
2F07
  8
AM_0
 10
546.90897940647517
 20
214.58416260355261
 30
0.0
 11
546.90897940647517
 21
285.58414860355282
 31
0.0
  0
LINE
  5
2F08
  8
ﾁｭｳｼﾝｾﾝ1
 10
600.90898240647505
 20
174.3841676035527
 30
0.0
 11
600.90898240647516
 21
380.38416760355261
 31
0.0
  0
LINE
  5
2F09
  8
AM_0
 10
379.55598120995887
 20
272.55831660355273
 30
0.0
 11
379.55598120995887
 21
328.60999260355283
 31
0.0
  0
LINE
  5
2F0A
  8
AM_0
 10
690.90898540647515
 20
209.5841616035527
 30
0.0
 11
683.11783840647513
 21
316.79386560355272
 31
0.0
  0
LINE
  5
2F0B
  8
AM_0
 10
510.90897940647523
 20
209.5841616035527
 30
0.0
 11
518.7001174064751
 21
316.79386560355272
 31
0.0
  0
ARC
  5
2F0C
  8
AM_0
 10
600.90898240647505
 20
285.58414860355282
 30
0.0
 40
54.000003000000007
 50
0.0
 51
180.00001000000091
  0
CIRCLE
  5
2F0D
  8
AM_0
 10
600.90898240647505
 20
300.58414860355282
 30
0.0
 40
29.000001000000001
  0
ARC
  5
2F0E
  8
AM_0
 10
600.90898240647516
 20
277.38416760355278
 30
0.0
 40
99.999999999999872
 50
332.20439217826561
 51
207.7956059028827
  0
LINE
  5
2F0F
  8
AM_0
 10
653.90898340647516
 20
196.5841626035525
 30
0.0
 11
547.90899340647525
 21
196.5841626035525
 31
0.0
  0
ARC
  5
2F10
  8
AM_0
 10
647.90898340647516
 20
201.5841606035527
 30
0.0
 40
5.0000001000000003
 50
179.9999899999988
 51
270.0
  0
ARC
  5
2F11
  8
AM_0
 10
600.90898240647516
 20
277.38416760355278
 30
0.0
 40
100.0
 50
235.89383400000071
 51
304.10616599999918
  0
LINE
  5
2F12
  8
AM_0
 10
545.90898040647517
 20
194.58417660355261
 30
0.0
 11
510.90897940647523
 21
194.58417660355261
 31
0.0
  0
ARC
  5
2F13
  8
AM_0
 10
512.90897740647506
 20
207.5841606035527
 30
0.0
 40
2.00000007
 50
90.000003000000945
 51
180.00001000000091
  0
LINE
  5
2F14
  8
AM_0
 10
379.55598120995887
 20
207.5841606035527
 30
0.0
 11
379.55598120995887
 21
194.5841616035527
 31
0.0
  0
ARC
  5
2F15
  8
AM_0
 10
378.55602120995911
 20
272.55831660355273
 30
0.0
 40
1.0000000199999981
 50
271.49999999999932
 51
0.0
  0
LINE
  5
2F16
  8
AM_0
 10
510.90897940647523
 20
194.58417660355261
 30
0.0
 11
510.90897940647523
 21
209.5841616035527
 31
0.0
  0
LINE
  5
2F17
  8
AM_0
 10
563.90898040647505
 20
207.5841606035527
 30
0.0
 11
637.9089664064752
 21
207.5841606035527
 31
0.0
  0
ARC
  5
2F18
  8
AM_0
 10
600.90898240647505
 20
248.38415160355271
 30
0.0
 40
60.000002999999992
 50
180.00001000000091
 51
205.8419300000003
  0
ARC
  5
2F19
  8
AM_0
 10
543.90897940647505
 20
207.5841606035527
 30
0.0
 40
2.00000007
 50
0.0
 51
90.000003000000945
  0
ARC
  5
2F1A
  8
AM_0
 10
541.90899340647525
 20
214.58416260355261
 30
0.0
 40
5.0000001000000003
 50
270.0
 51
0.0
  0
LINE
  5
2F1B
  8
ｶｸﾚｾﾝ2
 10
531.90897940647505
 20
209.5841616035527
 30
0.0
 11
531.90897940647505
 21
194.58417660355261
 31
0.0
  0
LINE
  5
2F1C
  8
ｶｸﾚｾﾝ2
 10
519.90897940647505
 20
209.5841616035527
 30
0.0
 11
519.90897940647505
 21
194.58417660355261
 31
0.0
  0
LINE
  5
2F1D
  8
ﾁｭｳｼﾝｾﾝ1
 10
525.90897940647517
 20
192.2684746457175
 30
0.0
 11
525.90897940647517
 21
211.6810513693691
 31
0.0
  0
LINE
  5
2F1E
  8
AM_0
 10
543.90897940647505
 20
209.5841616035527
 30
0.0
 11
512.90897740647506
 21
209.5841616035527
 31
0.0
  0
ARC
  5
2F1F
  8
AM_0
 10
563.90898040647505
 20
202.58417760355269
 30
0.0
 40
5.0000001000000003
 50
90.000003000000945
 51
180.00001000000091
  0
LINE
  5
2F20
  8
AM_0
 10
545.90898040647517
 20
194.58417660355261
 30
0.0
 11
545.90898040647517
 21
207.5841606035527
 31
0.0
  0
ARC
  5
2F21
  8
AM_0
 10
553.90899640647513
 20
201.5841606035527
 30
0.0
 40
5.0000001000000003
 50
270.0
 51
0.0
  0
ARC
  5
2F22
  8
AM_0
 10
547.90899340647525
 20
194.58417660355261
 30
0.0
 40
2.00000007
 50
90.000003000000945
 51
180.00001000000091
  0
LINE
  5
2F23
  8
AM_0
 10
558.90897940647517
 20
201.5841606035527
 30
0.0
 11
558.90897940647517
 21
202.58417760355269
 31
0.0
  0
ARC
  5
2F24
  8
AM_0
 10
600.90898240647505
 20
277.38413760355257
 30
0.0
 40
81.000003000000007
 50
265.97275000000059
 51
274.0272499999993
  0
ARC
  5
2F25
  8
AM_0
 10
637.9089664064752
 20
202.58417760355269
 30
0.0
 40
5.0000001000000003
 50
0.0
 51
90.000003000000945
  0
LINE
  5
2F26
  8
AM_0
 10
642.90898240647505
 20
201.5841606035527
 30
0.0
 11
642.90898240647505
 21
202.58417760355269
 31
0.0
  0
ARC
  5
2F27
  8
AM_0
 10
600.90898240647505
 20
248.38415160355271
 30
0.0
 40
60.000002999999992
 50
334.15806999999961
 51
0.0
  0
LINE
  5
2F28
  8
AM_0
 10
657.90898240647527
 20
209.5841616035527
 30
0.0
 11
688.90898440647516
 21
209.5841616035527
 31
0.0
  0
LINE
  5
2F29
  8
AM_0
 10
655.90898140647505
 20
194.58417660355261
 30
0.0
 11
690.90897640647495
 21
194.58417660355261
 31
0.0
  0
LINE
  5
2F2A
  8
ﾁｭｳｼﾝｾﾝ1
 10
675.90896140647521
 20
192.2684746457175
 30
0.0
 11
675.90896140647521
 21
211.6810513693691
 31
0.0
  0
LINE
  5
2F2B
  8
ｶｸﾚｾﾝ2
 10
669.90897640647506
 20
209.5841616035527
 30
0.0
 11
669.90897640647506
 21
194.58417660355261
 31
0.0
  0
ARC
  5
2F2C
  8
AM_0
 10
657.90898240647527
 20
207.5841606035527
 30
0.0
 40
2.00000007
 50
90.000003000000945
 51
180.00001000000091
  0
LINE
  5
2F2D
  8
AM_0
 10
655.90898140647505
 20
194.58417660355261
 30
0.0
 11
655.90898140647505
 21
207.5841606035527
 31
0.0
  0
ARC
  5
2F2E
  8
AM_0
 10
653.90898340647516
 20
194.58417660355261
 30
0.0
 40
2.00000007
 50
0.0
 51
90.000003000000945
  0
ARC
  5
2F2F
  8
AM_0
 10
659.90897440647518
 20
214.58416260355261
 30
0.0
 40
5.0000001000000003
 50
179.9999899999988
 51
270.0
  0
LINE
  5
2F30
  8
ｶｸﾚｾﾝ2
 10
681.90897640647506
 20
209.5841616035527
 30
0.0
 11
681.90897640647506
 21
194.58417660355261
 31
0.0
  0
LINE
  5
2F31
  8
AM_0
 10
690.90897640647495
 20
194.58417660355261
 30
0.0
 11
690.90897640647495
 21
209.5841616035527
 31
0.0
  0
ARC
  5
2F32
  8
AM_0
 10
688.90898440647516
 20
207.5841606035527
 30
0.0
 40
2.00000007
 50
0.0
 51
90.000003000000945
  0
LINE
  5
2F33
  8
ﾁｭｳｼﾝｾﾝ1
 10
497.9089824064755
 20
277.38416760355278
 30
0.0
 11
703.90898240647527
 21
277.38416760355278
 31
0.0
  0
LINE
  5
2F34
  8
AM_0
 10
674.71486240647516
 20
329.73817260355253
 30
0.0
 11
639.15583840647525
 21
348.7856826035528
 31
0.0
  0
ARC
  5
2F35
  8
AM_0
 10
600.90898240647505
 20
277.38416760355278
 30
0.0
 40
81.000003000000007
 50
7.0485986000007923
 51
172.9514000000008
  0
LINE
  5
2F36
  8
AM_0
 10
424.55601120995908
 20
317.58417960355263
 30
0.0
 11
424.55601120995908
 21
286.58414760355271
 31
0.0
  0
LINE
  5
2F37
  8
AM_0
 10
392.55600120995888
 20
317.58417960355263
 30
0.0
 11
392.55600120995888
 21
314.58417960355263
 31
0.0
  0
LINE
  5
2F38
  8
AM_0
 10
382.55598120995887
 20
314.58417960355263
 30
0.0
 11
424.55601120995908
 21
314.58417960355263
 31
0.0
  0
LINE
  5
2F39
  8
AM_0
 10
382.55598120995887
 20
286.58414760355271
 30
0.0
 11
424.55601120995908
 21
286.58414760355271
 31
0.0
  0
LINE
  5
2F3A
  8
AM_0
 10
382.55598120995887
 20
315.58414860355271
 30
0.0
 11
382.55598120995887
 21
285.58414860355282
 31
0.0
  0
LINE
  5
2F3B
  8
AM_0
 10
379.55598120995887
 20
285.58414860355282
 30
0.0
 11
382.55598120995887
 21
285.58414860355282
 31
0.0
  0
LINE
  5
2F3C
  8
AM_0
 10
379.55598120995887
 20
315.58414860355271
 30
0.0
 11
382.55598120995887
 21
315.58414860355271
 31
0.0
  0
LINE
  5
2F3D
  8
AM_0
 10
392.55600120995888
 20
317.58417960355263
 30
0.0
 11
424.55601120995908
 21
317.58417960355263
 31
0.0
  0
ARC
  5
2F3E
  8
AM_0
 10
378.55602120995911
 20
328.60999260355283
 30
0.0
 40
1.0000000199999981
 50
0.0
 51
88.499997000000747
  0
LINE
  5
2F3F
  8
ﾁｭｳｼﾝｾﾝ1
 10
564.8308864064752
 20
300.58414860355282
 30
0.0
 11
637.16725240647509
 21
300.58414860355282
 31
0.0
  0
LINE
  5
2F40
  8
AM_0
 10
527.10306940647524
 20
329.73820260355262
 30
0.0
 11
562.6620784064753
 21
348.78571260355278
 31
0.0
  0
ARC
  5
2F41
  8
AM_0
 10
534.65803240647517
 20
315.63416760355273
 30
0.0
 40
16.000000499999999
 50
118.17613999999919
 51
175.8435100000012
  0
ARC
  5
2F42
  8
AM_0
 10
545.90898040647517
 20
329.83411260355268
 30
0.0
 40
5.0000001000000003
 50
136.35948999999979
 51
180.00001000000091
  0
LINE
  5
2F43
  8
AM_0
 10
604.9089664064752
 20
310.5841506035527
 30
0.0
 11
604.9089664064752
 21
317.58417960355263
 31
0.0
  0
LINE
  5
2F44
  8
AM_0
 10
596.9089654064752
 20
310.5841506035527
 30
0.0
 11
596.9089654064752
 21
317.58417960355263
 31
0.0
  0
ARC
  5
2F45
  8
AM_0
 10
600.90898240647505
 20
300.58414860355282
 30
0.0
 40
14.000001299999999
 50
106.6015399999982
 51
73.398452000001853
  0
CIRCLE
  5
2F46
  8
AM_5
 10
600.90898240647505
 20
300.58414860355282
 30
0.0
 40
4.000000199999997
  0
CIRCLE
  5
2F47
  8
AM_0
 10
600.90898240647505
 20
300.58414860355282
 30
0.0
 40
3.0
  0
LINE
  5
2F48
  8
AM_0
 10
596.9089654064752
 20
310.5841506035527
 30
0.0
 11
604.9089664064752
 21
310.5841506035527
 31
0.0
  0
LINE
  5
2F49
  8
AM_0
 10
596.9089654064752
 20
317.58417960355263
 30
0.0
 11
604.9089664064752
 21
317.58417960355263
 31
0.0
  0
ARC
  5
2F4A
  8
AM_0
 10
667.15992040647518
 20
315.63416760355273
 30
0.0
 40
16.000000499999999
 50
4.1564916000008019
 51
61.823860000000678
  0
ARC
  5
2F4B
  8
AM_0
 10
655.90898140647505
 20
329.83411260355268
 30
0.0
 40
5.0000001000000003
 50
0.0
 51
43.64050000000065
  0
LINE
  5
2F4C
  8
AM_0
 10
213.05595120995901
 20
177.38416760355281
 30
0.0
 11
222.05595120995901
 21
177.38416760355281
 31
0.0
  0
ARC
  5
2F4D
  8
AM_0
 10
222.05595120995901
 20
178.38416760355281
 30
0.0
 40
1.0
 50
270.0
 51
0.0
  0
LINE
  5
2F4E
  8
AM_0
 10
213.05598120995899
 20
434.7802881308391
 30
0.0
 11
213.05598120995899
 21
634.78028813083904
 31
0.0
  0
LINE
  5
2F4F
  8
AM_0
 10
223.0559812099591
 20
633.78028813083904
 30
0.0
 11
223.0559812099591
 21
435.7802881308391
 31
0.0
  0
LINE
  5
2F50
  8
AM_0
 10
265.0559812099591
 20
473.27106313083908
 30
0.0
 11
265.0559812099591
 21
493.30561213083911
 31
0.0
  0
LINE
  5
2F51
  8
AM_0
 10
226.05598120995899
 20
471.27106313083908
 30
0.0
 11
263.05598120995887
 21
471.27106313083908
 31
0.0
  0
LINE
  5
2F52
  8
AM_0
 10
267.0559812099591
 20
461.2802881308391
 30
0.0
 11
225.79451420995909
 21
457.67037713083909
 31
0.0
  0
LINE
  5
2F53
  8
AM_0
 10
213.05598120995899
 20
434.7802881308391
 30
0.0
 11
222.0559812099589
 21
434.7802881308391
 31
0.0
  0
ARC
  5
2F54
  8
AM_0
 10
222.0559812099589
 20
435.7802881308391
 30
0.0
 40
1.0
 50
270.0
 51
0.0
  0
ARC
  5
2F55
  8
AM_0
 10
226.05598120995899
 20
454.68179313083908
 30
0.0
 40
3.0
 50
94.99999999999973
 51
180.0
  0
ARC
  5
2F56
  8
AM_0
 10
226.05598120995899
 20
468.27106313083908
 30
0.0
 40
3.0
 50
90.0
 51
180.0
  0
ARC
  5
2F57
  8
AM_0
 10
263.05598120995887
 20
473.27106313083908
 30
0.0
 40
2.0
 50
270.0
 51
0.0
  0
LINE
  5
2F58
  8
AM_0
 10
226.05598120995899
 20
495.30561213083911
 30
0.0
 11
265.0559812099591
 21
495.30561213083911
 31
0.0
  0
ARC
  5
2F59
  8
AM_0
 10
226.05598120995899
 20
492.30561213083882
 30
0.0
 40
3.0
 50
90.0
 51
180.0
  0
ARC
  5
2F5A
  8
AM_0
 10
267.0559812099591
 20
493.30561213083911
 30
0.0
 40
2.0
 50
120.0000000000005
 51
180.0
  0
LINE
  5
2F5B
  8
AM_0
 10
226.05598120995899
 20
598.28951313083905
 30
0.0
 11
263.05598120995887
 21
598.28951313083905
 31
0.0
  0
LINE
  5
2F5C
  8
AM_0
 10
226.05598120995899
 20
574.25496313083909
 30
0.0
 11
265.0559812099591
 21
574.25496313083909
 31
0.0
  0
LINE
  5
2F5D
  8
AM_0
 10
267.0559812099591
 20
608.28028813083904
 30
0.0
 11
225.79451420995909
 21
611.89019813083917
 31
0.0
  0
ARC
  5
2F5E
  8
AM_0
 10
226.05598120995899
 20
577.25496313083909
 30
0.0
 40
3.0
 50
180.0
 51
270.0
  0
ARC
  5
2F5F
  8
AM_0
 10
226.05598120995899
 20
601.28951313083917
 30
0.0
 40
3.0
 50
180.0
 51
270.0
  0
ARC
  5
2F60
  8
AM_0
 10
226.05598120995899
 20
614.87878313083911
 30
0.0
 40
3.0
 50
180.0
 51
265.00000000000028
  0
LINE
  5
2F61
  8
AM_0
 10
213.05598120995899
 20
634.78028813083904
 30
0.0
 11
222.0559812099589
 21
634.78028813083904
 31
0.0
  0
ARC
  5
2F62
  8
AM_0
 10
222.0559812099589
 20
633.78028813083904
 30
0.0
 40
1.0
 50
0.0
 51
90.0
  0
ARC
  5
2F63
  8
AM_0
 10
263.05598120995887
 20
596.28951313083928
 30
0.0
 40
2.0
 50
0.0
 51
90.0
  0
LINE
  5
2F64
  8
AM_0
 10
265.0559812099591
 20
596.28951313083928
 30
0.0
 11
265.0559812099591
 21
576.2549631308392
 31
0.0
  0
ARC
  5
2F65
  8
AM_0
 10
267.0559812099591
 20
576.2549631308392
 30
0.0
 40
2.0
 50
180.0
 51
239.99999999999949
  0
TEXT
  5
3143
  8
AM_0
 10
504.12740527343811
 20
571.31363698143196
 30
0.0
 40
10.0
  1
VX08-003A~VX08-030A
  0
ENDSEC
  0
EOF
