  0
SECTION
  2
HEADER
  9
$ACADVER
  1
AC1009
  9
$INSBASE
 10
0.0
 20
0.0
 30
0.0
  9
$EXTMIN
 10
183.79891424951941
 20
166.229710860902
 30
-0.0000000349181948
  9
$EXTMAX
 10
819.40480236255644
 20
702.87004198680415
 30
0.0000000814935747
  9
$LIMMIN
 10
0.0
 20
0.0
  9
$LIMMAX
 10
853.5
 20
555.00000000000011
  9
$ORTHOMODE
 70
     0
  9
$REGENMODE
 70
     1
  9
$FILLMODE
 70
     1
  9
$QTEXTMODE
 70
     0
  9
$MIRRTEXT
 70
     1
  9
$DRAGMODE
 70
     2
  9
$LTSCALE
 40
3.0
  9
$OSMODE
 70
   551
  9
$ATTMODE
 70
     1
  9
$TEXTSIZE
 40
2.5
  9
$TRACEWID
 40
1.0
  9
$TEXTSTYLE
  7
STANDARD
  9
$CLAYER
  8
AM_0
  9
$CELTYPE
  6
BYLAYER
  9
$CECOLOR
 62
   256
  9
$DIMSCALE
 40
1.0
  9
$DIMASZ
 40
2.5
  9
$DIMEXO
 40
1.0
  9
$DIMDLI
 40
8.0
  9
$DIMRND
 40
0.0
  9
$DIMDLE
 40
0.0
  9
$DIMEXE
 40
0.6
  9
$DIMTP
 40
0.1
  9
$DIMTM
 40
0.1
  9
$DIMTXT
 40
2.5
  9
$DIMCEN
 40
0.0
  9
$DIMTSZ
 40
0.0
  9
$DIMTOL
 70
     0
  9
$DIMLIM
 70
     0
  9
$DIMTIH
 70
     0
  9
$DIMTOH
 70
     0
  9
$DIMSE1
 70
     0
  9
$DIMSE2
 70
     0
  9
$DIMTAD
 70
     1
  9
$DIMZIN
 70
     8
  9
$DIMBLK
  1

  9
$DIMASO
 70
     1
  9
$DIMSHO
 70
     1
  9
$DIMPOST
  1

  9
$DIMAPOST
  1
"
  9
$DIMALT
 70
     0
  9
$DIMALTD
 70
     2
  9
$DIMALTF
 40
0.0393701
  9
$DIMLFAC
 40
1.0
  9
$DIMTOFL
 70
     1
  9
$DIMTVP
 40
0.0
  9
$DIMTIX
 70
     0
  9
$DIMSOXD
 70
     0
  9
$DIMSAH
 70
     0
  9
$DIMBLK1
  1

  9
$DIMBLK2
  1

  9
$DIMSTYLE
  2
AM_ISO
  9
$DIMCLRD
 70
   256
  9
$DIMCLRE
 70
   256
  9
$DIMCLRT
 70
     4
  9
$DIMTFAC
 40
0.71
  9
$DIMGAP
 40
0.8
  9
$LUNITS
 70
     2
  9
$LUPREC
 70
     2
  9
$SKETCHINC
 40
1.0
  9
$FILLETRAD
 40
15.0
  9
$AUNITS
 70
     0
  9
$AUPREC
 70
     0
  9
$MENU
  1
.
  9
$ELEVATION
 40
0.0
  9
$PELEVATION
 40
0.0
  9
$THICKNESS
 40
0.0
  9
$LIMCHECK
 70
     0
  9
$BLIPMODE
 70
     0
  9
$CHAMFERA
 40
6.0
  9
$CHAMFERB
 40
3.0
  9
$SKPOLY
 70
     0
  9
$TDCREATE
 40
2452066.4583244682
  9
$TDUPDATE
 40
2458541.4709084718
  9
$TDINDWG
 40
0.0868542245
  9
$TDUSRTIMER
 40
0.086854213
  9
$USRTIMER
 70
     1
  9
$ANGBASE
 50
0.0
  9
$ANGDIR
 70
     0
  9
$PDMODE
 70
     0
  9
$PDSIZE
 40
0.0
  9
$PLINEWID
 40
0.0
  9
$COORDS
 70
     1
  9
$SPLFRAME
 70
     0
  9
$SPLINETYPE
 70
     6
  9
$SPLINESEGS
 70
     8
  9
$ATTDIA
 70
     1
  9
$ATTREQ
 70
     1
  9
$HANDLING
 70
     1
  9
$HANDSEED
  5
3134
  9
$SURFTAB1
 70
     6
  9
$SURFTAB2
 70
     6
  9
$SURFTYPE
 70
     6
  9
$SURFU
 70
     6
  9
$SURFV
 70
     6
  9
$UCSNAME
  2

  9
$UCSORG
 10
0.0
 20
0.0
 30
0.0
  9
$UCSXDIR
 10
1.0
 20
0.0
 30
0.0
  9
$UCSYDIR
 10
0.0
 20
1.0
 30
0.0
  9
$PUCSNAME
  2

  9
$PUCSORG
 10
0.0
 20
0.0
 30
0.0
  9
$PUCSXDIR
 10
1.0
 20
0.0
 30
0.0
  9
$PUCSYDIR
 10
0.0
 20
1.0
 30
0.0
  9
$USERI1
 70
     0
  9
$USERI2
 70
     0
  9
$USERI3
 70
     0
  9
$USERI4
 70
     0
  9
$USERI5
 70
     0
  9
$USERR1
 40
0.0
  9
$USERR2
 40
0.0
  9
$USERR3
 40
0.0
  9
$USERR4
 40
0.0
  9
$USERR5
 40
0.0
  9
$WORLDVIEW
 70
     1
  9
$SHADEDGE
 70
     3
  9
$SHADEDIF
 70
    70
  9
$TILEMODE
 70
     1
  9
$MAXACTVP
 70
    64
  9
$PLIMCHECK
 70
     0
  9
$PEXTMIN
 10
1.0000000000000000E+020
 20
1.0000000000000000E+020
 30
1.0000000000000000E+020
  9
$PEXTMAX
 10
-1.0000000000000000E+020
 20
-1.0000000000000000E+020
 30
-1.0000000000000000E+020
  9
$PLIMMIN
 10
0.0
 20
0.0
  9
$PLIMMAX
 10
420.0
 20
297.0
  9
$UNITMODE
 70
     0
  9
$VISRETAIN
 70
     1
  9
$PLINEGEN
 70
     0
  9
$PSLTSCALE
 70
     1
  0
ENDSEC
  0
SECTION
  2
TABLES
  0
TABLE
  2
VPORT
 70
     1
  0
VPORT
  2
*ACTIVE
 70
     0
 10
0.0
 20
0.0
 11
1.0
 21
1.0
 12
501.60185830603791
 22
434.54987642385311
 13
0.0
 23
0.0
 14
7.5
 24
7.5
 15
30.0
 25
30.0
 16
0.0
 26
0.0
 36
1.0
 17
0.0
 27
0.0
 37
0.0
 40
540.32436085903191
 41
1.7571592210767459
 42
50.0
 43
0.0
 44
0.0
 50
0.0
 51
0.0
 71
     0
 72
   100
 73
     1
 74
     3
 75
     0
 76
     0
 77
     0
 78
     0
  0
ENDTAB
  0
TABLE
  2
LTYPE
 70
    27
  0
LTYPE
  2
CONTINUOUS
 70
     0
  3
Solid line
 72
    65
 73
     0
 40
0.0
  0
LTYPE
  2
AM_ISO02W050
 70
     0
  3
__ __ __ __ __ __ __ __ __ __ __ __ __ __ __
 72
    65
 73
     2
 40
7.5
 49
6.0
 49
-1.5
  0
LTYPE
  2
AM_ISO08W050
 70
     0
  3
____ . ____ . ____ . ____ . ____ . ____ . ____
 72
    65
 73
     4
 40
18.0
 49
12.0
 49
-1.5
 49
3.0
 49
-1.5
  0
LTYPE
  2
AM_ISO09W050
 70
     0
  3
_____ . . _____ . . _____ . . ____ .. ____
 72
    65
 73
     6
 40
22.5
 49
12.0
 49
-1.5
 49
3.0
 49
-1.5
 49
3.0
 49
-1.5
  0
LTYPE
  2
AMCONSTR
 70
     0
  3
_______________________
 72
    65
 73
     2
 40
9999.0
 49
9999.0
 49
0.0
  0
LTYPE
  2
AM_ISO08W050X2
 70
     0
  3
__ . __ . __ . __ . __ . __
 72
    65
 73
     4
 40
9.0
 49
6.0
 49
-0.75
 49
1.5
 49
-0.75
  0
LTYPE
  2
AM_ISO02W050X2
 70
     0
  3
 _ _ _ _ _ _ _ _ _ _ _ _
 72
    65
 73
     2
 40
3.75
 49
3.0
 49
-0.75
  0
LTYPE
  2
AMZIGZAG
 70
     0
  3
/\/-/\/-/\/-/\/-/\/-/\/
 72
    65
 73
     2
 40
11.000099999999991
 49
0.0001
 49
-11.0
  0
LTYPE
  2
ACISOWELD
 70
     0
  3
_ _ _ _ _
 72
    65
 73
     2
 40
2.0
 49
2.0
 49
-1.0
  0
LTYPE
  2
ACISOTGB
 70
     0
  3
__ . . __ . .
 72
    65
 73
     6
 40
9.0
 49
4.0
 49
-1.0
 49
1.0
 49
-1.0
 49
1.0
 49
-1.0
  0
LTYPE
  2
ACISOTGL
 70
     0
  3
_ _ _ _ _
 72
    65
 73
     2
 40
3.0
 49
2.0
 49
-1.0
  0
LTYPE
  2
CENTER
 70
     0
  3
__ . __
 72
    65
 73
     4
 40
7.0
 49
4.0
 49
-1.0
 49
1.0
 49
-1.0
  0
LTYPE
  2
PHANTOM2
 70
     0
  3
Phantom (.5x) ___ _ _ ___ _ _ ___ _ _ ___ _ _
 72
    65
 73
     6
 40
31.75
 49
15.875
 49
-3.174999999999998
 49
3.174999999999998
 49
-3.174999999999998
 49
3.174999999999998
 49
-3.174999999999998
  0
LTYPE
  2
ACANSTGBM
 70
     0
  3
__ . . __ . .
 72
    65
 73
     6
 40
9.0
 49
4.0
 49
-1.0
 49
1.0
 49
-1.0
 49
1.0
 49
-1.0
  0
LTYPE
  2
ACANSTGLM
 70
     0
  3
_ _ _ _ _
 72
    65
 73
     2
 40
3.0
 49
2.0
 49
-1.0
  0
LTYPE
  2
GEN7
 70
     0
  3
____ . ____ . ____ . ____ . ____ . ____ . ____
 72
    65
 73
     4
 40
14.25
 49
9.75
 49
-1.5
 49
1.5
 49
-1.5
  0
LTYPE
  2
GEN3B
 70
     0
  3
 - - - - -
 72
    65
 73
     2
 40
1.0
 49
0.5
 49
-0.5
  0
LTYPE
  2
GEN7A
 70
     0
  3
__ . __ . __
 72
    65
 73
     4
 40
7.375
 49
4.75
 49
-0.875
 49
0.875
 49
-0.875
  0
LTYPE
  2
ACJISTGB
 70
     0
  3
__ . . __ . .
 72
    65
 73
     6
 40
9.0
 49
4.0
 49
-1.0
 49
1.0
 49
-1.0
 49
1.0
 49
-1.0
  0
LTYPE
  2
ACJISTGL
 70
     0
  3
_ _ _ _ _
 72
    65
 73
     2
 40
3.0
 49
2.0
 49
-1.0
  0
LTYPE
  2
HIDDEN
 70
     0
  3
Hidden __ __ __ __ __ __ __ __ __ __ __ __ __ _
 72
    65
 73
     2
 40
0.375
 49
0.25
 49
-0.125
  0
LTYPE
  2
CENTER2
 70
     0
  3
Center (.5x) ___ _ ___ _ ___ _ ___ _ ___ _ ___
 72
    65
 73
     4
 40
1.125
 49
0.75
 49
-0.125
 49
0.125
 49
-0.125
  0
LTYPE
  2
HIDDEN2
 70
     0
  3
Hidden (.5x) _ _ _ _ _ _ _ _ _ _ _ _ _ _ _ _ _
 72
    65
 73
     2
 40
0.1875
 49
0.125
 49
-0.0625
  0
LTYPE
  2
AMZIGZAG2
 70
     0
  3
/\/-/\/-/\/-/\/-/\/-/\/
 72
    65
 73
     2
 40
0.4401
 49
0.0001
 49
-0.4400000000000002
  0
LTYPE
  2
ACANSTGB
 70
     0
  3
__ . . __ . .
 72
    65
 73
     6
 40
0.35433070866
 49
0.15748031496
 49
-0.03937007874
 49
0.03937007874
 49
-0.03937007874
 49
0.03937007874
 49
-0.03937007874
  0
LTYPE
  2
ACANSTGL
 70
     0
  3
_ _ _ _ _
 72
    65
 73
     2
 40
0.11811023622
 49
0.07874015748
 49
-0.03937007874
  0
ENDTAB
  0
TABLE
  2
LAYER
 70
     7
  0
LAYER
  2
0
 70
     0
 62
     7
  6
CONTINUOUS
  0
LAYER
  2
AM_0
 70
     0
 62
     7
  6
CONTINUOUS
  0
LAYER
  2
AM_5
 70
     0
 62
     2
  6
CONTINUOUS
  0
LAYER
  2
DEFPOINTS
 70
     0
 62
     7
  6
CONTINUOUS
  0
LAYER
  2
ｶｸﾚｾﾝ2
 70
     0
 62
     3
  6
GEN3B
  0
LAYER
  2
ﾁｭｳｼﾝｾﾝ
 70
     0
 62
     1
  6
GEN7
  0
LAYER
  2
ﾁｭｳｼﾝｾﾝ1
 70
     0
 62
     1
  6
GEN7A
  0
ENDTAB
  0
TABLE
  2
STYLE
 70
     9
  0
STYLE
  2
STANDARD
 70
     0
 40
0.0
 41
0.8299999999999999
 50
0.0
 71
     0
 42
2.5
  3
txt.shx
  4
bigfont.shx
  0
STYLE
  2
ANNOTATIVE
 70
     0
 40
0.0
 41
1.0
 50
0.0
 71
     0
 42
0.2
  3
txt
  4

  0
STYLE
  2

 70
     1
 40
0.0
 41
1.0
 50
0.0
 71
     0
 42
2.5
  3
ltypeshp.shx
  4

  0
STYLE
  2
ACISOTS
 70
     0
 40
1.0
 41
1.0
 50
0.0
 71
     0
 42
2.5
  3
isocp.shx
  4
extfont.shx
  0
STYLE
  2
ACISOGDT
 70
     0
 40
0.0
 41
1.0
 50
0.0
 71
     0
 42
2.5
  3
amgdt.shx
  4

  0
STYLE
  2
ACANSTS
 70
     0
 40
1.0
 41
1.0
 50
0.0
 71
     0
 42
2.5
  3
romans.shx
  4
bigfont.shx
  0
STYLE
  2
ACANSGDT
 70
     0
 40
0.0
 41
1.0
 50
0.0
 71
     0
 42
2.5
  3
amgdt.shx
  4

  0
STYLE
  2
ACJISTS
 70
     0
 40
1.0
 41
1.0
 50
0.0
 71
     0
 42
2.5
  3
isocp.shx
  4
bigfont.shx
  0
STYLE
  2
ACJISGDT
 70
     0
 40
0.0
 41
1.0
 50
0.0
 71
     0
 42
2.5
  3
amgdt.shx
  4

  0
ENDTAB
  0
TABLE
  2
VIEW
 70
     6
  0
VIEW
  2
AM_VIEW1
 70
     0
 40
277.49999999999989
 10
249.64779005524849
 20
416.24999999999989
 41
499.2955801104971
 11
0.0
 21
0.0
 31
1.0
 12
0.0
 22
0.0
 32
0.0
 42
50.0
 43
0.0
 44
0.0
 50
0.0
 71
     0
  0
VIEW
  2
AM_VIEW2
 70
     0
 40
277.49999999999989
 10
603.85220994475117
 20
416.24999999999989
 41
499.2955801104971
 11
0.0
 21
0.0
 31
1.0
 12
0.0
 22
0.0
 32
0.0
 42
50.0
 43
0.0
 44
0.0
 50
0.0
 71
     0
  0
VIEW
  2
AM_VIEW3
 70
     0
 40
277.49999999999989
 10
249.64779005524849
 20
138.7499999999998
 41
499.2955801104971
 11
0.0
 21
0.0
 31
1.0
 12
0.0
 22
0.0
 32
0.0
 42
50.0
 43
0.0
 44
0.0
 50
0.0
 71
     0
  0
VIEW
  2
AM_VIEW4
 70
     0
 40
277.49999999999989
 10
603.85220994475117
 20
138.7499999999998
 41
499.2955801104971
 11
0.0
 21
0.0
 31
1.0
 12
0.0
 22
0.0
 32
0.0
 42
50.0
 43
0.0
 44
0.0
 50
0.0
 71
     0
  0
VIEW
  2
AM_VIEW5
 70
     0
 40
277.5
 10
426.75
 20
277.49999999999989
 41
499.2955801104971
 11
0.0
 21
0.0
 31
1.0
 12
0.0
 22
0.0
 32
0.0
 42
50.0
 43
0.0
 44
0.0
 50
0.0
 71
     0
  0
VIEW
  2
AM_VIEW6
 70
     0
 40
554.99445000000014
 10
426.75
 20
277.49999999999989
 41
998.5811743093924
 11
0.0
 21
0.0
 31
1.0
 12
0.0
 22
0.0
 32
0.0
 42
50.0
 43
0.0
 44
0.0
 50
0.0
 71
     0
  0
ENDTAB
  0
TABLE
  2
UCS
 70
     0
  0
ENDTAB
  0
TABLE
  2
APPID
 70
    95
  0
APPID
  2
ACAD
 70
     0
  0
APPID
  2
ACADANNOTATIVE
 70
     0
  0
APPID
  2
MCAD_NO_VIS
 70
     0
  0
APPID
  2
ACAD_TEMP_GRAPHIC
 70
     0
  0
APPID
  2
ACATTRIBSERVICES
 70
     0
  0
APPID
  2
GENIUS_GENREC_14
 70
     0
  0
APPID
  2
GENIUS_GENOBJ-N-REC_13
 70
     0
  0
APPID
  2
GENIUS_GENODEF_13
 70
     0
  0
APPID
  2
GENIUS_GENOLIS_13
 70
     0
  0
APPID
  2
GENIUS_GENOBJ-N-TIT_13
 70
     0
  0
APPID
  2
GENIUS_GENOENT_13
 70
     0
  0
APPID
  2
GENIUS_GENTITLE_13
 70
     0
  0
APPID
  2
GENIUS_GENOREF_13
 70
     0
  0
APPID
  2
GENIUS_GENSCREG_15
 70
     0
  0
APPID
  2
GENIUS_GENOBJ-N-SDF_13
 70
     0
  0
APPID
  2
GENIUS_GENFIL_13
 70
     0
  0
APPID
  2
GENIUS_GENOBJ-N-CHA_13
 70
     0
  0
APPID
  2
GENIUS_GENDTOL_13
 70
     0
  0
APPID
  2
GENIUS_GENOBJ-N-FIL_13
 70
     0
  0
APPID
  2
AD_DRAW
 70
     0
  0
APPID
  2
DESIGNERASSEMBLIES
 70
     0
  0
APPID
  2
ASURF_PCURVE_APPNAME
 70
     0
  0
APPID
  2
GENIUS_GE3SECT_13
 70
     0
  0
APPID
  2
GENIUS_GENCFG_13
 70
     0
  0
APPID
  2
GENIUS_GE3CFG0_13
 70
     0
  0
APPID
  2
GENIUS_GENCFG0_13
 70
     0
  0
APPID
  2
GENIUS_GENCFG1_13
 70
     0
  0
APPID
  2
GENIUS_GENCFG2_13
 70
     0
  0
APPID
  2
GENIUS_GENCFG3_13
 70
     0
  0
APPID
  2
GENIUS_GENCFG4_13
 70
     0
  0
APPID
  2
GENIUS_GEVCFG0_13
 70
     0
  0
APPID
  2
GENIUS_GENHINW_13
 70
     0
  0
APPID
  2
GENIUS_FIRSTVISTXT_14
 70
     0
  0
APPID
  2
GENIUS_GENOBJ-N-LEADER_13
 70
     0
  0
APPID
  2
GEV_VCCNULL_SWITCH_OFF
 70
     0
  0
APPID
  2
GENIUS_GEFCFG0_13
 70
     0
  0
APPID
  2
GENIUS_GENZVEED_13
 70
     0
  0
APPID
  2
GENIUS_GENSCREG_13
 70
     0
  0
APPID
  2
GENIUS_DUMCFG0_13
 70
     0
  0
APPID
  2
GEVID936201362
 70
     0
  0
APPID
  2
GEVDC
 70
     0
  0
APPID
  2
GEVCON
 70
     0
  0
APPID
  2
VCC
 70
     0
  0
APPID
  2
GEVPT
 70
     0
  0
APPID
  2
GEVIT
 70
     0
  0
APPID
  2
GENBH
 70
     0
  0
APPID
  2
GEVMK
 70
     0
  0
APPID
  2
GENIUS_GENBH_13
 70
     0
  0
APPID
  2
GENIUS_GENOBJ-NBEHI-BHF_13
 70
     0
  0
APPID
  2
GENIUS_GENOBJ-NBEHI-BHB_13
 70
     0
  0
APPID
  2
GENIUS_GENOBJ-F-DESC_13
 70
     0
  0
APPID
  2
GENIUS_GEFDESC_14
 70
     0
  0
APPID
  2
GENIUS_GENOBJ-F-PART_13
 70
     0
  0
APPID
  2
GENIUS_GEFSTDP_13
 70
     0
  0
APPID
  2
GENIUS_GEFPARTINS_13
 70
     0
  0
APPID
  2
GENIUS_GENTRA_14
 70
     0
  0
APPID
  2
GENIUS_GENINF13_13
 70
     0
  0
APPID
  2
GENIUS_GENOBJ-N-INFOPT_13
 70
     0
  0
APPID
  2
GENIUS_GENOBJ-N-RSSYM_13
 70
     0
  0
APPID
  2
GENIUS_GENSYMENT_13
 70
     0
  0
APPID
  2
GENIUS_GENSCSYM_13
 70
     0
  0
APPID
  2
GENIUS_GEFINFNAM_13
 70
     0
  0
APPID
  2
GENIUS_GENOBJ-N-CEN_13
 70
     0
  0
APPID
  2
GENIUS_GENOBJ-N-CRS_13
 70
     0
  0
APPID
  2
GENIUS_GENOBJ-N-CRC_13
 70
     0
  0
APPID
  2
GENIUS_GENCRC_14
 70
     0
  0
APPID
  2
GEVID942827039
 70
     0
  0
APPID
  2
GEVID942827040
 70
     0
  0
APPID
  2
GEVID942827041
 70
     0
  0
APPID
  2
GENIUS_GENOBJ-F-SCPASSM_13
 70
     0
  0
APPID
  2
GENIUS_GENDIMSH_14
 70
     0
  0
APPID
  2
GEVID942827042
 70
     0
  0
APPID
  2
GEVID946020473
 70
     0
  0
APPID
  2
GEVID946020474
 70
     0
  0
APPID
  2
GEVID946020475
 70
     0
  0
APPID
  2
GENIUS_GENOBJ-N-HTC_13
 70
     0
  0
APPID
  2
GENIUS_GENHATCH_13
 70
     0
  0
APPID
  2
GEVID948854295
 70
     0
  0
APPID
  2
GEVID939402019
 70
     0
  0
APPID
  2
GEVID952919491
 70
     0
  0
APPID
  2
GEVID952919492
 70
     0
  0
APPID
  2
GENIUS_GEFWELD_13
 70
     0
  0
APPID
  2
GENIUS_GENOBJ-F-WELS_13
 70
     0
  0
APPID
  2
GEVID952919493
 70
     0
  0
APPID
  2
GENIUS_GENOBJ-N-RSBK_13
 70
     0
  0
APPID
  2
GENIUS_GENOBJ-N-LIB_13
 70
     0
  0
APPID
  2
GENIUS_GENSCALE_13
 70
     0
  0
APPID
  2
GEVID986376691
 70
     0
  0
APPID
  2
DCO15
 70
     0
  0
APPID
  2
ACAD_DSTYLE_DIMBREAK
 70
     0
  0
APPID
  2
ACAD_DSTYLE_DIMJAG
 70
     0
  0
APPID
  2
ACAD_NAV_VCDISPLAY
 70
     0
  0
APPID
  2
ACADANNOPO
 70
     0
  0
APPID
  2
ACAD_EXEMPT_FROM_CAD_STANDARDS
 70
     0
  0
APPID
  2
ACAD_MLEADERVER
 70
     0
  0
ENDTAB
  0
TABLE
  2
DIMSTYLE
 70
    22
  0
DIMSTYLE
  2
STANDARD
 70
     0
  3

  4

  5

  6

  7

 40
1.0
 41
0.18
 42
0.0625
 43
0.38
 44
0.18
 45
0.0
 46
0.0
 47
0.0
 48
0.0
140
0.18
141
0.09
142
0.0
143
25.399999999999999
144
1.0
145
0.0
146
1.0
147
0.09
 71
     0
 72
     0
 73
     1
 74
     1
 75
     0
 76
     0
 77
     0
 78
     0
170
     0
171
     2
172
     0
173
     0
174
     0
175
     0
176
     0
177
     0
178
     0
  0
DIMSTYLE
  2
ANNOTATIVE
 70
     0
  3

  4

  5

  6

  7

 40
1.0
 41
0.18
 42
0.0625
 43
0.38
 44
0.18
 45
0.0
 46
0.0
 47
0.0
 48
0.0
140
0.18
141
0.09
142
0.0
143
25.399999999999999
144
1.0
145
0.0
146
1.0
147
0.09
 71
     0
 72
     0
 73
     1
 74
     1
 75
     0
 76
     0
 77
     0
 78
     0
170
     0
171
     2
172
     0
173
     0
174
     0
175
     0
176
     0
177
     0
178
     0
  0
DIMSTYLE
  2
AM_ISO
 70
     0
  3

  4
"
  5

  6

  7

 40
1.0
 41
2.5
 42
1.0
 43
8.0
 44
0.6
 45
0.0
 46
0.0
 47
0.1
 48
0.1
140
2.5
141
0.0
142
0.0
143
0.0393701
144
1.0
145
0.0
146
0.71
147
0.8
 71
     0
 72
     0
 73
     0
 74
     0
 75
     0
 76
     0
 77
     1
 78
     8
170
     0
171
     2
172
     1
173
     0
174
     0
175
     0
176
   256
177
   256
178
     4
  0
DIMSTYLE
  2
AM_ISO$3
 70
     0
  3

  4
"
  5

  6

  7

 40
1.0
 41
2.5
 42
1.0
 43
8.0
 44
0.6
 45
0.0
 46
0.0
 47
0.1
 48
0.1
140
2.5
141
0.0
142
0.0
143
0.0393701
144
1.0
145
0.0
146
0.71
147
0.8
 71
     0
 72
     0
 73
     0
 74
     1
 75
     0
 76
     0
 77
     1
 78
     8
170
     0
171
     2
172
     0
173
     0
174
     0
175
     0
176
   256
177
   256
178
     4
  0
DIMSTYLE
  2
AM_ISO$4
 70
     0
  3

  4
"
  5

  6

  7

 40
1.0
 41
2.5
 42
1.0
 43
8.0
 44
0.6
 45
0.0
 46
0.0
 47
0.1
 48
0.1
140
2.5
141
0.0
142
0.0
143
0.0393701
144
1.0
145
0.0
146
0.71
147
0.8
 71
     0
 72
     0
 73
     0
 74
     1
 75
     0
 76
     0
 77
     1
 78
     8
170
     0
171
     2
172
     0
173
     0
174
     0
175
     0
176
   256
177
   256
178
     4
  0
DIMSTYLE
  2
AM_ISO$6
 70
     0
  3

  4
"
  5

  6

  7

 40
1.0
 41
2.5
 42
1.0
 43
8.0
 44
0.6
 45
0.0
 46
0.0
 47
0.1
 48
0.1
140
2.5
141
0.0
142
0.0
143
0.0393701
144
1.0
145
0.0
146
0.71
147
0.8
 71
     0
 72
     0
 73
     0
 74
     0
 75
     0
 76
     0
 77
     0
 78
     8
170
     0
171
     2
172
     1
173
     0
174
     0
175
     0
176
   256
177
   256
178
     4
  0
DIMSTYLE
  2
AM_ISO$7
 70
     0
  3

  4
"
  5

  6

  7

 40
1.0
 41
2.5
 42
1.0
 43
8.0
 44
0.6
 45
0.0
 46
0.0
 47
0.1
 48
0.1
140
2.5
141
0.0
142
0.0
143
0.0393701
144
1.0
145
0.0
146
0.71
147
0.8
 71
     0
 72
     0
 73
     0
 74
     0
 75
     0
 76
     0
 77
     1
 78
     8
170
     0
171
     2
172
     1
173
     0
174
     0
175
     0
176
   256
177
   256
178
     4
  0
DIMSTYLE
  2
AM_ISO$SF
 70
     0
  3

  4
"
  5

  6

  7

 40
1.0
 41
2.5
 42
1.0
 43
10.0
 44
1.0
 45
0.0
 46
0.0
 47
0.1
 48
0.1
140
3.5
141
0.0
142
0.0
143
0.0393701
144
1.0
145
0.0
146
0.71
147
1.5
 71
     0
 72
     0
 73
     0
 74
     0
 75
     1
 76
     1
 77
     1
 78
     8
170
     0
171
     2
172
     1
173
     0
174
     0
175
     0
176
   256
177
   256
178
     2
  0
DIMSTYLE
  2
AM_ISO$SH
 70
     0
  3

  4
"
  5

  6

  7

 40
1.0
 41
2.5
 42
1.0
 43
10.0
 44
1.0
 45
0.0
 46
0.0
 47
0.1
 48
0.1
140
3.5
141
0.0
142
0.0
143
0.0393701
144
2.0
145
0.0
146
0.71
147
1.5
 71
     0
 72
     0
 73
     0
 74
     0
 75
     1
 76
     1
 77
     1
 78
     8
170
     0
171
     2
172
     1
173
     1
174
     0
175
     0
176
   256
177
   256
178
     2
  0
DIMSTYLE
  2
AM_JIS
 70
     0
  3

  4
"
  5

  6

  7

 40
1.0
 41
2.5
 42
1.0
 43
7.0
 44
1.0
 45
0.0
 46
0.0
 47
0.1
 48
0.1000000001
140
2.5
141
0.0
142
0.0
143
0.0393701
144
1.0
145
0.0
146
0.71
147
1.0
 71
     0
 72
     0
 73
     0
 74
     0
 75
     0
 76
     0
 77
     3
 78
     8
170
     0
171
     2
172
     1
173
     0
174
     0
175
     0
176
   256
177
   256
178
     4
  0
DIMSTYLE
  2
AM_JIS$3
 70
     0
  3

  4
"
  5

  6

  7

 40
1.0
 41
2.5
 42
1.0
 43
7.0
 44
1.0
 45
0.0
 46
0.0
 47
0.1
 48
0.1000000001
140
2.5
141
0.0
142
0.0
143
0.0393701
144
1.0
145
0.0
146
0.71
147
1.0
 71
     0
 72
     0
 73
     0
 74
     1
 75
     0
 76
     0
 77
     3
 78
     8
170
     0
171
     2
172
     0
173
     0
174
     0
175
     0
176
   256
177
   256
178
     4
  0
DIMSTYLE
  2
AM_JIS$4
 70
     0
  3

  4
"
  5

  6

  7

 40
1.0
 41
2.5
 42
1.0
 43
7.0
 44
1.0
 45
0.0
 46
0.0
 47
0.1
 48
0.1000000001
140
2.5
141
0.0
142
0.0
143
0.0393701
144
1.0
145
0.0
146
0.71
147
1.0
 71
     0
 72
     0
 73
     0
 74
     0
 75
     0
 76
     0
 77
     3
 78
     8
170
     0
171
     2
172
     0
173
     0
174
     0
175
     0
176
   256
177
   256
178
     4
  0
DIMSTYLE
  2
AM_JIS$6
 70
     0
  3

  4
"
  5

  6

  7

 40
1.0
 41
2.5
 42
1.0
 43
7.0
 44
1.0
 45
0.0
 46
0.0
 47
0.1
 48
0.1000000001
140
2.5
141
0.0
142
0.0
143
0.0393701
144
1.0
145
0.0
146
0.71
147
1.0
 71
     0
 72
     0
 73
     0
 74
     0
 75
     0
 76
     0
 77
     0
 78
     8
170
     0
171
     2
172
     1
173
     0
174
     0
175
     0
176
   256
177
   256
178
     4
  0
DIMSTYLE
  2
AM_JIS$7
 70
     0
  3

  4
"
  5

  6

  7

 40
1.0
 41
2.5
 42
1.0
 43
7.0
 44
1.0
 45
0.0
 46
0.0
 47
0.1
 48
0.1000000001
140
2.5
141
0.0
142
0.0
143
0.0393701
144
1.0
145
0.0
146
0.71
147
1.0
 71
     0
 72
     0
 73
     0
 74
     0
 75
     0
 76
     0
 77
     3
 78
     8
170
     0
171
     2
172
     1
173
     0
174
     0
175
     0
176
   256
177
   256
178
     4
  0
DIMSTYLE
  2
AM_JIS$SF
 70
     0
  3

  4
"
  5

  6

  7

 40
1.0
 41
2.5
 42
1.0
 43
10.0
 44
1.0
 45
0.0
 46
0.0
 47
0.1
 48
0.1
140
3.5
141
0.0
142
0.0
143
0.0393701
144
1.0
145
0.0
146
0.71
147
1.5
 71
     0
 72
     0
 73
     0
 74
     0
 75
     1
 76
     1
 77
     3
 78
     8
170
     0
171
     2
172
     1
173
     0
174
     0
175
     0
176
   256
177
   256
178
     4
  0
DIMSTYLE
  2
AM_JIS$SH
 70
     0
  3

  4
"
  5

  6

  7

 40
1.0
 41
2.5
 42
1.0
 43
10.0
 44
1.0
 45
0.0
 46
0.0
 47
0.1
 48
0.1
140
3.5
141
0.0
142
0.0
143
0.0393701
144
1.0
145
0.0
146
0.71
147
1.5
 71
     0
 72
     0
 73
     0
 74
     0
 75
     1
 76
     0
 77
     3
 78
     8
170
     0
171
     2
172
     1
173
     1
174
     0
175
     0
176
   256
177
   256
178
     4
  0
DIMSTYLE
  2
AM_ANSI
 70
     0
  3

  4
mm
  5

  6

  7

 40
1.0
 41
0.1
 42
0.05
 43
0.5
 44
0.1
 45
0.0
 46
0.0
 47
0.1
 48
0.1
140
0.12
141
0.0
142
0.0
143
25.399999999999999
144
1.0
145
0.0
146
0.71
147
0.06
 71
     0
 72
     0
 73
     1
 74
     1
 75
     0
 76
     0
 77
     0
 78
     7
170
     0
171
     2
172
     0
173
     0
174
     0
175
     0
176
   256
177
   256
178
     2
  0
DIMSTYLE
  2
AM_ANSI$3
 70
     0
  3

  4
mm
  5

  6

  7

 40
1.0
 41
0.1
 42
0.05
 43
0.5
 44
0.1
 45
0.0
 46
0.0
 47
0.1
 48
0.1
140
0.12
141
0.0
142
0.0
143
25.399999999999999
144
1.0
145
0.0
146
0.71
147
0.06
 71
     0
 72
     0
 73
     1
 74
     1
 75
     0
 76
     0
 77
     0
 78
     7
170
     0
171
     2
172
     0
173
     0
174
     0
175
     0
176
   256
177
   256
178
     2
  0
DIMSTYLE
  2
AM_ANSI$4
 70
     0
  3

  4
mm
  5

  6

  7

 40
1.0
 41
0.1
 42
0.05
 43
0.5
 44
0.1
 45
0.0
 46
0.0
 47
0.1
 48
0.1
140
0.12
141
0.0
142
0.0
143
25.399999999999999
144
1.0
145
0.0
146
0.71
147
0.06
 71
     0
 72
     0
 73
     1
 74
     1
 75
     0
 76
     0
 77
     0
 78
     7
170
     0
171
     2
172
     0
173
     0
174
     0
175
     0
176
   256
177
   256
178
     2
  0
DIMSTYLE
  2
AM_ANSI$7
 70
     0
  3

  4
mm
  5

  6

  7

 40
1.0
 41
0.1
 42
0.05
 43
0.5
 44
0.1
 45
0.0
 46
0.0
 47
0.1
 48
0.1
140
0.24
141
0.0
142
0.0
143
25.399999999999999
144
1.0
145
0.0
146
0.71
147
0.06
 71
     0
 72
     0
 73
     1
 74
     1
 75
     0
 76
     0
 77
     0
 78
     7
170
     0
171
     2
172
     0
173
     0
174
     0
175
     0
176
   256
177
   256
178
     2
  0
DIMSTYLE
  2
AM_ANSI$SF
 70
     0
  3

  4
mm
  5

  6

  7

 40
1.0
 41
0.1
 42
0.05
 43
0.5
 44
0.1
 45
0.0
 46
0.0
 47
0.1
 48
0.1
140
0.12
141
0.0
142
0.0
143
25.399999999999999
144
1.0
145
0.0
146
0.71
147
0.06
 71
     0
 72
     0
 73
     1
 74
     1
 75
     1
 76
     1
 77
     0
 78
     7
170
     0
171
     2
172
     0
173
     0
174
     0
175
     0
176
   256
177
   256
178
     2
  0
DIMSTYLE
  2
AM_ANSI$SH
 70
     0
  3

  4
mm
  5

  6

  7

 40
1.0
 41
0.1
 42
0.05
 43
0.5
 44
0.1
 45
0.0
 46
0.0
 47
0.1
 48
0.1
140
0.12
141
0.0
142
0.0
143
25.399999999999999
144
1.0
145
0.0
146
0.71
147
0.06
 71
     0
 72
     0
 73
     1
 74
     1
 75
     1
 76
     1
 77
     0
 78
     7
170
     0
171
     2
172
     0
173
     1
174
     0
175
     0
176
   256
177
   256
178
     2
  0
ENDTAB
  0
ENDSEC
  0
SECTION
  2
BLOCKS
  0
BLOCK
  8
0
  2
$MODEL_SPACE
 70
     0
 10
0.0
 20
0.0
 30
0.0
  3
$MODEL_SPACE
  1

  0
ENDBLK
  5
2FA6
  8
0
  0
BLOCK
 67
     1
  8
0
  2
$PAPER_SPACE
 70
     0
 10
0.0
 20
0.0
 30
0.0
  3
$PAPER_SPACE
  1

  0
ENDBLK
  5
2FA2
 67
     1
  8
0
  0
BLOCK
  8
0
  2
GENAXEH
 70
     0
 10
0.0
 20
0.0
 30
0.0
  3
GENAXEH
  1

  0
LINE
  5
2D58
  8
0
 10
-1.0
 20
0.0
 30
0.0
 11
1.0
 21
0.0
 31
0.0
  0
ENDBLK
  5
2D59
  8
0
  0
BLOCK
  8
0
  2
_OPEN30
 70
     0
 10
0.0
 20
0.0
 30
0.0
  3
_OPEN30
  1

  0
LINE
  5
2D5C
  8
0
 62
     0
 10
-1.0
 20
0.26794919
 30
0.0
 11
0.0
 21
0.0
 31
0.0
  0
LINE
  5
2D5D
  8
0
 62
     0
 10
0.0
 20
0.0
 30
0.0
 11
-1.0
 21
-0.26794919
 31
0.0
  0
LINE
  5
2D5E
  8
0
 62
     0
 10
0.0
 20
0.0
 30
0.0
 11
-1.0
 21
0.0
 31
0.0
  0
ENDBLK
  5
2D5F
  8
0
  0
BLOCK
  8
0
  2
_NONE
 70
     0
 10
0.0
 20
0.0
 30
0.0
  3
_NONE
  1

  0
ENDBLK
  5
2D62
  8
0
  0
BLOCK
  8
0
  2
_ACMFILLEDHALF
 70
     0
 10
0.0
 20
0.0
 30
0.0
  3
_ACMFILLEDHALF
  1

  0
TRACE
  5
309E
  8
AM_0
 62
     0
 10
-0.8
 20
0.0
 30
0.0
 11
-1.0
 21
0.166666666
 31
0.0
 12
0.0
 22
0.0
 32
0.0
 13
0.0
 23
0.0
 33
0.0
  0
LINE
  5
309F
  8
AM_0
 62
     0
 10
-1.0
 20
0.0
 30
0.0
 11
-0.8
 21
0.0
 31
0.0
  0
ENDBLK
  5
309D
  8
0
  0
ENDSEC
  0
SECTION
  2
ENTITIES
  0
LINE
  5
2D64
  8
AM_0
 10
431.00370322435299
 20
592.81840499132875
 30
0.0
 11
476.0037032243531
 21
592.81840499132875
 31
0.0
  0
LINE
  5
2D65
  8
AM_0
 10
431.00370322435299
 20
582.81840499132875
 30
0.0
 11
476.0037032243531
 21
582.81840499132875
 31
0.0
  0
LINE
  5
2D66
  8
AM_0
 10
476.0037032243531
 20
571.81840499132875
 30
0.0
 11
418.00373322435308
 21
571.81840499132875
 31
0.0
  0
LINE
  5
2D67
  8
AM_0
 10
476.0037032243531
 20
603.81840499132875
 30
0.0
 11
418.00373322435308
 21
603.81840499132875
 31
0.0
  0
LINE
  5
2D68
  8
ﾁｭｳｼﾝｾﾝ
 10
183.85339142126409
 20
587.81840499132875
 30
0.0
 11
483.91654322435318
 21
587.81840499132875
 31
0.0
  0
ARC
  5
2D69
  8
AM_0
 10
431.00370322435299
 20
587.81840499132875
 30
0.0
 40
4.9999924
 50
90.000003000000945
 51
270.0
  0
LINE
  5
2D6A
  8
AM_0
 10
244.50370322435319
 20
514.31840499132875
 30
0.0
 11
244.50370322435319
 21
661.31840499132886
 31
0.0
  0
LINE
  5
2D6B
  8
AM_0
 10
279.00370322435322
 20
496.89729499132881
 30
0.0
 11
279.00370322435322
 21
678.73954499132878
 31
0.0
  0
LINE
  5
2D6C
  8
AM_0
 10
386.0037332243532
 20
518.61167499132875
 30
0.0
 11
386.0037332243532
 21
657.02512499132888
 31
0.0
  0
LINE
  5
2D6D
  8
AM_0
 10
431.00373322435308
 20
582.81840499132875
 30
0.0
 11
431.00373322435308
 21
592.81840499132875
 31
0.0
  0
LINE
  5
2D6E
  8
AM_0
 10
418.00373322435308
 20
570.31840499132875
 30
0.0
 11
418.00373322435308
 21
605.31840499132875
 31
0.0
  0
LINE
  5
2D6F
  8
AM_0
 10
414.00370322435299
 20
560.55045499132882
 30
0.0
 11
414.00370322435299
 21
587.81840499132875
 31
0.0
  0
LINE
  5
2D70
  8
AM_0
 10
291.00370322435322
 20
522.74619499132882
 30
0.0
 11
291.00370322435322
 21
652.89060499132847
 31
0.0
  0
LINE
  5
2D71
  8
AM_0
 10
407.0037332243532
 20
526.71503499132882
 30
0.0
 11
407.0037332243532
 21
648.92179499132885
 31
0.0
  0
LINE
  5
2D72
  8
AM_0
 10
301.0037032243531
 20
488.3184049913288
 30
0.0
 11
301.0037032243531
 21
687.31840499132875
 31
0.0
  0
POLYLINE
  5
2D73
  8
AM_0
 66
     1
 10
0.0
 20
0.0
 30
0.0
  0
VERTEX
  5
2D74
  8
AM_0
 10
301.0037032243531
 20
510.40159499132869
 30
0.0
 42
0.040443759
  0
VERTEX
  5
2D75
  8
AM_0
 10
312.53188322435312
 20
510.62496499132891
 30
0.0
 42
0.042469384
  0
VERTEX
  5
2D76
  8
AM_0
 10
323.86557322435328
 20
512.73847499132876
 30
0.0
 42
0.022671411
  0
VERTEX
  5
2D77
  8
AM_0
 10
329.35006322435322
 20
514.52941499132885
 30
0.0
  0
VERTEX
  5
2D78
  8
AM_0
 10
334.65568322435308
 20
516.7982549913288
 30
0.0
 42
-1.0
  0
SEQEND
  5
2D79
  8
AM_0
  0
POLYLINE
  5
2D7A
  8
AM_0
 66
     1
 10
0.0
 20
0.0
 30
0.0
  0
VERTEX
  5
2D7B
  8
AM_0
 10
301.0037032243531
 20
557.54197499132874
 30
0.0
 42
-0.07005559
  0
VERTEX
  5
2D7C
  8
AM_0
 10
327.36436322435321
 20
537.3446349913288
 30
0.0
 42
-0.27110578
  0
VERTEX
  5
2D7D
  8
AM_0
 10
336.00370322435322
 20
517.46128499132885
 30
0.0
 42
-0.21303172
  0
VERTEX
  5
2D7E
  8
AM_0
 10
316.41326322435322
 20
499.32647499132878
 30
0.0
  0
VERTEX
  5
2D7F
  8
AM_0
 10
301.0037032243531
 20
493.02821499132881
 30
0.0
 42
-1.0
  0
SEQEND
  5
2D80
  8
AM_0
  0
LINE
  5
2D81
  8
AM_0
 10
307.0037032243531
 20
472.8184049913288
 30
0.0
 11
410.14329322435327
 21
476.42011499132877
 31
0.0
  0
ARC
  5
2D82
  8
AM_0
 10
294.00370322435322
 20
491.56467499132867
 30
0.0
 40
3.0
 50
180.00001000000091
 51
267.99999999999932
  0
CIRCLE
  5
2D83
  8
AM_0
 10
271.00370322435322
 20
492.8184049913288
 30
0.0
 40
7.5
  0
LINE
  5
2D84
  8
AM_0
 10
253.0037032243533
 20
505.27982499132889
 30
0.0
 11
253.0037032243533
 21
481.20811499132878
 31
0.0
  0
LINE
  5
2D85
  8
ﾁｭｳｼﾝｾﾝ1
 10
271.00370322435322
 20
506.3184049913288
 30
0.0
 11
271.00370322435322
 21
479.31840499132869
 31
0.0
  0
LINE
  5
2D86
  8
AM_0
 10
256.65507322435309
 20
477.2233349913289
 30
0.0
 11
307.0037032243531
 21
472.8184049913288
 31
0.0
  0
ARC
  5
2D87
  8
AM_0
 10
257.0037032243531
 20
481.20811499132878
 30
0.0
 40
4.0
 50
180.00001000000091
 51
265.00001000000032
  0
ARC
  5
2D88
  8
AM_0
 10
292.00370322435322
 20
477.14219499132878
 30
0.0
 40
3.0
 50
85.000004000000885
 51
265.0
  0
ARC
  5
2D89
  8
AM_0
 10
300.00370322435327
 20
478.44993499132869
 30
0.0
 40
5.0
 50
265.00001000000032
 51
0.0000006832495047
  0
LINE
  5
2D8A
  8
AM_0
 10
293.89903322435322
 20
488.56647499132879
 30
0.0
 11
301.0036432243532
 21
488.3184049913288
 31
0.0
  0
LINE
  5
2D8B
  8
AM_0
 10
292.26518322435311
 20
480.13078499132882
 30
0.0
 11
300.65513322435322
 21
479.39674499132889
 31
0.0
  0
ARC
  5
2D8C
  8
AM_0
 10
301.0037032243531
 20
483.3815149913288
 30
0.0
 40
4.0
 50
265.00001000000032
 51
0.0000006832495047
  0
LINE
  5
2D8D
  8
AM_0
 10
305.0037032243531
 20
488.3184049913288
 30
0.0
 11
305.0037032243531
 21
478.44993499132869
 31
0.0
  0
LINE
  5
2D8E
  8
AM_0
 10
301.0037032243531
 20
488.3184049913288
 30
0.0
 11
305.0037032243531
 21
488.3184049913288
 31
0.0
  0
LINE
  5
2D8F
  8
AM_0
 10
244.5036432243532
 20
514.31837499132894
 30
0.0
 11
276.57353322435318
 21
513.19846499132882
 31
0.0
  0
LINE
  5
2D90
  8
AM_0
 10
244.50370322435319
 20
548.3437349913288
 30
0.0
 11
279.00370322435322
 21
548.3437349913288
 31
0.0
  0
LINE
  5
2D91
  8
AM_0
 10
244.50370322435319
 20
526.23975499132882
 30
0.0
 11
279.00370322435322
 21
526.23975499132882
 31
0.0
  0
LINE
  5
2D92
  8
ﾁｭｳｼﾝｾﾝ1
 10
257.50370322435322
 20
492.8184049913288
 30
0.0
 11
284.5037032243531
 21
492.8184049913288
 31
0.0
  0
LINE
  5
2D93
  8
AM_0
 10
255.96849322435321
 20
509.14353499132881
 30
0.0
 11
271.7326532243531
 21
513.36753499132885
 31
0.0
  0
ARC
  5
2D94
  8
AM_0
 10
257.0037032243531
 20
505.27982499132889
 30
0.0
 40
4.0
 50
105.0000000000007
 51
180.00001000000091
  0
ARC
  5
2D95
  8
AM_0
 10
288.04093322435318
 20
490.89729499132869
 30
0.0
 40
3.0
 50
6.3862994000025628
 51
90.000003000000945
  0
ARC
  5
2D96
  8
AM_0
 10
288.00370322435322
 20
501.92838499132858
 30
0.0
 40
3.0
 50
0.0
 51
90.000003000000945
  0
ARC
  5
2D97
  8
AM_0
 10
288.00370322435322
 20
522.74619499132882
 30
0.0
 40
3.0
 50
270.0
 51
0.0
  0
LINE
  5
2D98
  8
AM_0
 10
279.00370322435322
 20
530.50083499132882
 30
0.0
 11
291.00370322435322
 21
530.50083499132882
 31
0.0
  0
LINE
  5
2D99
  8
AM_0
 10
301.0037032243531
 20
510.40159499132869
 30
0.0
 11
279.00370322435322
 21
510.40159499132869
 31
0.0
  0
ARC
  5
2D9A
  8
AM_0
 10
276.0037032243531
 20
510.21656499132871
 30
0.0
 40
3.0
 50
0.0
 51
87.999999999999503
  0
LINE
  5
2D9B
  8
AM_0
 10
282.0037032243531
 20
493.89729499132892
 30
0.0
 11
288.04093322435318
 21
493.89729499132892
 31
0.0
  0
ARC
  5
2D9C
  8
AM_0
 10
282.0037032243531
 20
496.89729499132881
 30
0.0
 40
3.0
 50
180.00001000000091
 51
270.0
  0
LINE
  5
2D9D
  8
AM_0
 10
282.0037032243531
 20
504.92838499132881
 30
0.0
 11
288.00370322435322
 21
504.92838499132881
 31
0.0
  0
ARC
  5
2D9E
  8
AM_0
 10
282.0037032243531
 20
507.92838499132881
 30
0.0
 40
3.0
 50
180.00001000000091
 51
270.0
  0
LINE
  5
2D9F
  8
AM_0
 10
279.00370322435322
 20
519.74619499132882
 30
0.0
 11
288.00370322435322
 21
519.74619499132882
 31
0.0
  0
LINE
  5
2DA0
  8
AM_0
 10
291.00370322435322
 20
491.56467499132867
 30
0.0
 11
291.00370322435322
 21
501.92838499132858
 31
0.0
  0
LINE
  5
2DA1
  8
AM_0
 10
301.0037032243531
 20
493.02821499132881
 30
0.0
 11
291.00370322435322
 21
493.02821499132881
 31
0.0
  0
LINE
  5
2DA2
  8
AM_0
 10
301.0037032243531
 20
557.54197499132874
 30
0.0
 11
291.00370322435322
 21
557.54197499132874
 31
0.0
  0
CIRCLE
  5
2DA3
  8
AM_0
 10
396.0037332243532
 20
492.8184049913288
 30
0.0
 40
7.5
  0
LINE
  5
2DA4
  8
AM_0
 10
366.0037032243531
 20
483.16297499132878
 30
0.0
 11
366.0037032243531
 21
498.60480499132871
 31
0.0
  0
LINE
  5
2DA5
  8
AM_0
 10
414.00373322435308
 20
518.81840499132875
 30
0.0
 11
414.00373322435308
 21
480.41767499132868
 31
0.0
  0
LINE
  5
2DA6
  8
ﾁｭｳｼﾝｾﾝ1
 10
396.0037332243532
 20
506.3184049913288
 30
0.0
 11
396.0037332243532
 21
479.31840499132869
 31
0.0
  0
ARC
  5
2DA7
  8
AM_0
 10
374.0037032243531
 20
483.16297499132878
 30
0.0
 40
8.0
 50
180.00001000000091
 51
271.99999000000139
  0
ARC
  5
2DA8
  8
AM_0
 10
410.00373322435308
 20
480.41767499132868
 30
0.0
 40
4.0
 50
272.0000000000004
 51
0.0
  0
ARC
  5
2DA9
  8
AM_0
 10
378.00373322435308
 20
518.61167499132875
 30
0.0
 40
8.0
 50
271.4999999999992
 51
0.0
  0
LINE
  5
2DAA
  8
ﾁｭｳｼﾝｾﾝ1
 10
382.5037332243532
 20
492.8184049913288
 30
0.0
 11
409.50373322435308
 21
492.8184049913288
 31
0.0
  0
ARC
  5
2DAB
  8
AM_0
 10
378.0037032243531
 20
498.60480499132871
 30
0.0
 40
12.0
 50
91.500001000001546
 51
180.00001000000091
  0
LINE
  5
2DAC
  8
AM_0
 10
378.2131432243533
 20
510.61442499132869
 30
0.0
 11
377.68955322435318
 21
510.60068499132882
 31
0.0
  0
ARC
  5
2DAD
  8
AM_0
 10
410.00373322435308
 20
518.81840499132875
 30
0.0
 40
4.0
 50
0.0
 51
82.819247000000175
  0
LINE
  5
2DAE
  8
AM_0
 10
403.10841322435311
 20
522.71641499132886
 30
0.0
 11
393.24653322435302
 21
522.45817499132875
 31
0.0
  0
ARC
  5
2DAF
  8
AM_0
 10
393.45594322435318
 20
514.46091499132865
 30
0.0
 40
8.0
 50
91.500001000001546
 51
164.96420000000299
  0
ARC
  5
2DB0
  8
AM_0
 10
403.0037332243532
 20
526.71503499132882
 30
0.0
 40
4.0
 50
271.4999999999992
 51
0.0
  0
ARC
  5
2DB1
  8
AM_0
 10
411.0037332243532
 20
526.75565499132881
 30
0.0
 40
4.0
 50
180.00001000000091
 51
262.8192499999995
  0
ARC
  5
2DB2
  8
AM_0
 10
411.00370322435299
 20
560.55045499132882
 30
0.0
 40
3.0
 50
300.00001000000083
 51
0.0
  0
LINE
  5
2DB3
  8
AM_0
 10
418.00373322435308
 20
570.31840499132875
 30
0.0
 11
414.00370322435299
 21
570.31840499132875
 31
0.0
  0
ARC
  5
2DB4
  8
AM_0
 10
410.00373322435308
 20
553.04490499132885
 30
0.0
 40
3.0
 50
120.0000000000005
 51
180.00001000000091
  0
LINE
  5
2DB5
  8
AM_0
 10
408.50367322435318
 20
555.64304499132891
 30
0.0
 11
412.50367322435318
 21
557.95243499132857
 31
0.0
  0
POLYLINE
  5
2DB6
  8
AM_0
 66
     1
 10
0.0
 20
0.0
 30
0.0
  0
VERTEX
  5
2DB7
  8
AM_0
 10
301.0037032243531
 20
618.09483499132875
 30
0.0
 42
0.070055609
  0
VERTEX
  5
2DB8
  8
AM_0
 10
327.36436322435321
 20
638.29217499132835
 30
0.0
 42
0.27110581
  0
VERTEX
  5
2DB9
  8
AM_0
 10
336.00370322435322
 20
658.1755149913289
 30
0.0
 42
0.21303143
  0
VERTEX
  5
2DBA
  8
AM_0
 10
316.41326322435322
 20
676.31035499132872
 30
0.0
  0
VERTEX
  5
2DBB
  8
AM_0
 10
301.0037032243531
 20
682.60862499132872
 30
0.0
 42
-1.0
  0
SEQEND
  5
2DBC
  8
AM_0
  0
POLYLINE
  5
2DBD
  8
AM_0
 66
     1
 10
0.0
 20
0.0
 30
0.0
  0
VERTEX
  5
2DBE
  8
AM_0
 10
301.0037032243531
 20
665.23521499132892
 30
0.0
 42
-0.040443759
  0
VERTEX
  5
2DBF
  8
AM_0
 10
312.53188322435312
 20
665.01184499132864
 30
0.0
 42
-0.042469384
  0
VERTEX
  5
2DC0
  8
AM_0
 10
323.86557322435328
 20
662.89832499132888
 30
0.0
 42
-0.022671411
  0
VERTEX
  5
2DC1
  8
AM_0
 10
329.35006322435322
 20
661.10738499132879
 30
0.0
  0
VERTEX
  5
2DC2
  8
AM_0
 10
334.65568322435308
 20
658.83855499132869
 30
0.0
 42
-1.0
  0
SEQEND
  5
2DC3
  8
AM_0
  0
LINE
  5
2DC4
  8
AM_0
 10
307.0037032243531
 20
702.81840499132886
 30
0.0
 11
410.1433232243532
 21
699.21665499132871
 31
0.0
  0
ARC
  5
2DC5
  8
AM_0
 10
288.04093322435318
 20
684.7395449913289
 30
0.0
 40
3.0
 50
270.0
 51
353.61370000000318
  0
CIRCLE
  5
2DC6
  8
AM_0
 10
271.00370322435322
 20
682.81840499132875
 30
0.0
 40
7.5
  0
LINE
  5
2DC7
  8
AM_0
 10
291.00370322435322
 20
684.07212499132891
 30
0.0
 11
291.00370322435322
 21
673.70841499132894
 31
0.0
  0
LINE
  5
2DC8
  8
ﾁｭｳｼﾝｾﾝ1
 10
271.00370322435322
 20
669.31840499132886
 30
0.0
 11
271.00370322435322
 21
696.31840499132875
 31
0.0
  0
LINE
  5
2DC9
  8
AM_0
 10
253.0037032243533
 20
670.35697499132891
 30
0.0
 11
253.0037032243533
 21
694.42869499132871
 31
0.0
  0
LINE
  5
2DCA
  8
AM_0
 10
244.50370322435319
 20
661.31840499132886
 30
0.0
 11
276.10838322435319
 21
662.4220349913287
 31
0.0
  0
LINE
  5
2DCB
  8
AM_0
 10
244.50370322435319
 20
627.29307499132835
 30
0.0
 11
279.00370322435322
 21
627.29307499132835
 31
0.0
  0
LINE
  5
2DCC
  8
AM_0
 10
244.50370322435319
 20
649.39701499132877
 30
0.0
 11
279.00370322435322
 21
649.39701499132877
 31
0.0
  0
LINE
  5
2DCD
  8
AM_0
 10
255.96849322435321
 20
666.49326499132894
 30
0.0
 11
271.7327732243532
 21
662.26920499132871
 31
0.0
  0
LINE
  5
2DCE
  8
ﾁｭｳｼﾝｾﾝ1
 10
257.50370322435322
 20
682.81840499132875
 30
0.0
 11
284.5037032243531
 21
682.81840499132875
 31
0.0
  0
ARC
  5
2DCF
  8
AM_0
 10
257.0037032243531
 20
670.35697499132891
 30
0.0
 40
4.0
 50
180.00001000000091
 51
254.99999000000159
  0
LINE
  5
2DD0
  8
AM_0
 10
301.0037032243531
 20
618.09483499132875
 30
0.0
 11
291.00370322435322
 21
618.09483499132875
 31
0.0
  0
ARC
  5
2DD1
  8
AM_0
 10
288.00370322435322
 20
673.70841499132894
 30
0.0
 40
3.0
 50
270.0
 51
0.0
  0
ARC
  5
2DD2
  8
AM_0
 10
288.00370322435322
 20
652.89060499132847
 30
0.0
 40
3.0
 50
0.0
 51
90.000003000000945
  0
LINE
  5
2DD3
  8
AM_0
 10
279.00370322435322
 20
645.13596499132893
 30
0.0
 11
291.00370322435322
 21
645.13596499132893
 31
0.0
  0
LINE
  5
2DD4
  8
AM_0
 10
301.0037032243531
 20
665.23521499132892
 30
0.0
 11
279.00370322435322
 21
665.23521499132892
 31
0.0
  0
LINE
  5
2DD5
  8
AM_0
 10
279.00370322435322
 20
655.8906049913287
 30
0.0
 11
288.00370322435322
 21
655.8906049913287
 31
0.0
  0
LINE
  5
2DD6
  8
AM_0
 10
282.0037032243531
 20
670.70841499132894
 30
0.0
 11
288.00370322435322
 21
670.70841499132894
 31
0.0
  0
ARC
  5
2DD7
  8
AM_0
 10
282.0037032243531
 20
667.70841499132894
 30
0.0
 40
3.0
 50
90.000003000000945
 51
180.00001000000091
  0
ARC
  5
2DD8
  8
AM_0
 10
276.0037032243531
 20
665.42020499132889
 30
0.0
 40
3.0
 50
272.0000000000004
 51
0.0
  0
LINE
  5
2DD9
  8
AM_0
 10
282.0037032243531
 20
681.7395449913289
 30
0.0
 11
288.04093322435318
 21
681.7395449913289
 31
0.0
  0
ARC
  5
2DDA
  8
AM_0
 10
282.0037032243531
 20
678.73954499132878
 30
0.0
 40
3.0
 50
90.000003000000945
 51
180.00001000000091
  0
LINE
  5
2DDB
  8
AM_0
 10
301.0037032243531
 20
682.60856499132865
 30
0.0
 11
291.00370322435322
 21
682.60856499132865
 31
0.0
  0
LINE
  5
2DDC
  8
AM_0
 10
256.65507322435309
 20
698.41349499132889
 30
0.0
 11
307.00376322435318
 21
702.81840499132886
 31
0.0
  0
ARC
  5
2DDD
  8
AM_0
 10
257.0037032243531
 20
694.42869499132871
 30
0.0
 40
4.0
 50
95.00000199999856
 51
180.00001000000091
  0
ARC
  5
2DDE
  8
AM_0
 10
294.00370322435322
 20
684.07212499132891
 30
0.0
 40
3.0
 50
91.999998000000545
 51
180.00001000000091
  0
ARC
  5
2DDF
  8
AM_0
 10
292.00370322435322
 20
698.49461499132894
 30
0.0
 40
3.0
 50
95.00000199999856
 51
275.0
  0
ARC
  5
2DE0
  8
AM_0
 10
301.0037032243531
 20
692.2552949913287
 30
0.0
 40
4.0
 50
0.0
 51
95.00000199999856
  0
LINE
  5
2DE1
  8
AM_0
 10
305.0037032243531
 20
687.31840499132875
 30
0.0
 11
305.0037032243531
 21
697.18687499132875
 31
0.0
  0
LINE
  5
2DE2
  8
AM_0
 10
292.2652432243533
 20
695.50602499132867
 30
0.0
 11
300.65513322435322
 21
696.24003499132868
 31
0.0
  0
LINE
  5
2DE3
  8
AM_0
 10
293.8989732243532
 20
687.07029499132886
 30
0.0
 11
301.0036432243532
 21
687.31840499132875
 31
0.0
  0
LINE
  5
2DE4
  8
AM_0
 10
301.0037032243531
 20
687.31840499132875
 30
0.0
 11
305.0037032243531
 21
687.31840499132875
 31
0.0
  0
ARC
  5
2DE5
  8
AM_0
 10
300.00370322435327
 20
697.18687499132875
 30
0.0
 40
5.0
 50
0.0
 51
95.00000199999856
  0
CIRCLE
  5
2DE6
  8
AM_0
 10
396.0037332243532
 20
682.81840499132875
 30
0.0
 40
7.5
  0
LINE
  5
2DE7
  8
AM_0
 10
366.0037032243531
 20
677.03202499132885
 30
0.0
 11
366.0037032243531
 21
692.47385499132861
 31
0.0
  0
LINE
  5
2DE8
  8
ﾁｭｳｼﾝｾﾝ1
 10
396.0037332243532
 20
669.31840499132886
 30
0.0
 11
396.0037332243532
 21
696.31840499132875
 31
0.0
  0
LINE
  5
2DE9
  8
AM_0
 10
414.00373322435308
 20
656.81840499132886
 30
0.0
 11
414.00373322435308
 21
695.21909499132892
 31
0.0
  0
ARC
  5
2DEA
  8
AM_0
 10
378.00373322435308
 20
657.02512499132888
 30
0.0
 40
8.0
 50
0.0
 51
88.499997000000647
  0
LINE
  5
2DEB
  8
ﾁｭｳｼﾝｾﾝ1
 10
382.5037332243532
 20
682.81840499132875
 30
0.0
 11
409.50373322435308
 21
682.81840499132875
 31
0.0
  0
ARC
  5
2DEC
  8
AM_0
 10
378.0037032243531
 20
677.03202499132885
 30
0.0
 40
12.0
 50
180.00001000000091
 51
268.50000000000063
  0
LINE
  5
2DED
  8
AM_0
 10
378.21311322435321
 20
665.02238499132875
 30
0.0
 11
377.6895832243531
 21
665.03611499132887
 31
0.0
  0
ARC
  5
2DEE
  8
AM_0
 10
411.00370322435299
 20
615.08634499132893
 30
0.0
 40
3.0
 50
0.0
 51
60.000002000001302
  0
LINE
  5
2DEF
  8
AM_0
 10
418.00373322435308
 20
605.31840499132875
 30
0.0
 11
414.00370322435299
 21
605.31840499132875
 31
0.0
  0
LINE
  5
2DF0
  8
AM_0
 10
414.00370322435299
 20
587.81840499132875
 30
0.0
 11
414.00370322435299
 21
615.08634499132893
 31
0.0
  0
ARC
  5
2DF1
  8
AM_0
 10
410.00373322435308
 20
622.59190499132865
 30
0.0
 40
3.0
 50
179.9999899999988
 51
240.00000999999969
  0
LINE
  5
2DF2
  8
AM_0
 10
408.5037332243532
 20
619.99381499132892
 30
0.0
 11
412.50370322435327
 21
617.68442499132891
 31
0.0
  0
ARC
  5
2DF3
  8
AM_0
 10
410.00373322435308
 20
656.81840499132886
 30
0.0
 40
4.0
 50
277.18075000000027
 51
0.0
  0
LINE
  5
2DF4
  8
AM_0
 10
403.10841322435311
 20
652.92039499132875
 30
0.0
 11
393.24653322435302
 21
653.17863499132875
 31
0.0
  0
ARC
  5
2DF5
  8
AM_0
 10
393.45594322435318
 20
661.17588499132887
 30
0.0
 40
8.0
 50
195.0357999999969
 51
268.50000000000063
  0
ARC
  5
2DF6
  8
AM_0
 10
403.0037332243532
 20
648.92179499132885
 30
0.0
 40
4.0
 50
0.0
 51
88.499997000000647
  0
ARC
  5
2DF7
  8
AM_0
 10
411.0037332243532
 20
648.88114499132894
 30
0.0
 40
4.0
 50
97.180758000000822
 51
180.00001000000091
  0
ARC
  5
2DF8
  8
AM_0
 10
374.0037032243531
 20
692.47385499132861
 30
0.0
 40
8.0
 50
87.999999999999503
 51
180.00001000000091
  0
ARC
  5
2DF9
  8
AM_0
 10
410.00373322435308
 20
695.21909499132892
 30
0.0
 40
4.0
 50
0.0
 51
87.999999999999503
  0
LINE
  5
2DFA
  8
AM_0
 10
476.0037032243531
 20
571.81840499132875
 30
0.0
 11
476.0037032243531
 21
603.81840499132875
 31
0.0
  0
LINE
  5
2DFB
  8
ﾁｭｳｼﾝｾﾝ
 10
255.39758207378671
 20
312.97964306874638
 30
0.0
 11
478.78293322435292
 21
312.97964306874638
 31
0.0
  0
LINE
  5
2DFC
  8
AM_0
 10
378.00372322435311
 20
172.97965406874641
 30
0.0
 11
414.00372322435311
 21
172.97965406874641
 31
0.0
  0
LINE
  5
2DFD
  8
AM_0
 10
381.003723224353
 20
190.97965406874641
 30
0.0
 11
412.00368322435293
 21
190.97965406874641
 31
0.0
  0
LINE
  5
2DFE
  8
AM_0
 10
394.00368322435293
 20
360.97967006874632
 30
0.0
 11
403.00368322435293
 21
360.97967006874632
 31
0.0
  0
LINE
  5
2DFF
  8
AM_0
 10
291.00372322435311
 20
223.12028006874641
 30
0.0
 11
291.00372322435311
 21
349.31177006874628
 31
0.0
  0
LINE
  5
2E00
  8
AM_0
 10
279.00372322435322
 20
376.00373006874628
 30
0.0
 11
279.00372322435322
 21
193.95621806874641
 31
0.0
  0
LINE
  5
2E01
  8
AM_0
 10
244.50372322435319
 20
211.47967106874631
 30
0.0
 11
244.50372322435319
 21
358.47968006874618
 31
0.0
  0
LINE
  5
2E02
  8
AM_0
 10
305.0037032243531
 20
241.6040630687464
 30
0.0
 11
305.0037032243531
 21
299.62740806874632
 31
0.0
  0
LINE
  5
2E03
  8
AM_0
 10
366.00372322435311
 20
205.9796720687464
 30
0.0
 11
366.00372322435311
 21
344.42240006874641
 31
0.0
  0
LINE
  5
2E04
  8
AM_0
 10
301.00371322435319
 20
384.47969006874632
 30
0.0
 11
301.00371322435319
 21
228.47965706874641
 31
0.0
  0
LINE
  5
2E05
  8
AM_0
 10
200.50372322435311
 20
383.97967406874642
 30
0.0
 11
200.50372322435311
 21
185.97967406874639
 31
0.0
  0
LINE
  5
2E06
  8
AM_0
 10
190.50372322435311
 20
184.97967406874639
 30
0.0
 11
190.50372322435311
 21
384.97967406874642
 31
0.0
  0
LINE
  5
2E07
  8
AM_0
 10
386.0037032243531
 20
213.4373900687464
 30
0.0
 11
386.0037032243531
 21
374.4605900687464
 31
0.0
  0
LINE
  5
2E08
  8
AM_0
 10
244.50372322435319
 20
223.4010290687464
 30
0.0
 11
279.00372322435322
 21
223.4010290687464
 31
0.0
  0
LINE
  5
2E09
  8
AM_0
 10
244.50372322435319
 20
211.47965606874641
 30
0.0
 11
276.5735432243531
 21
210.3597530687463
 31
0.0
  0
LINE
  5
2E0A
  8
AM_0
 10
244.50372322435319
 20
245.5049870687462
 30
0.0
 11
279.00372322435322
 21
245.5049870687462
 31
0.0
  0
LINE
  5
2E0B
  8
AM_0
 10
253.00371322435311
 20
172.97965406874641
 30
0.0
 11
289.00371322435319
 21
172.97965406874641
 31
0.0
  0
LINE
  5
2E0C
  8
AM_0
 10
255.00372322435319
 20
190.97965406874641
 30
0.0
 11
286.08390322435321
 21
190.97965406874641
 31
0.0
  0
LINE
  5
2E0D
  8
AM_0
 10
190.50372322435311
 20
184.97967406874639
 30
0.0
 11
199.50372322435311
 21
184.97967406874639
 31
0.0
  0
ARC
  5
2E0E
  8
AM_0
 10
199.50372322435311
 20
185.97967406874639
 30
0.0
 40
1.0
 50
270.0
 51
0.0
  0
LINE
  5
2E0F
  8
AM_0
 10
253.00371322435311
 20
172.97965406874641
 30
0.0
 11
253.00371322435311
 21
188.97967106874631
 31
0.0
  0
LINE
  5
2E10
  8
ｶｸﾚｾﾝ2
 10
263.50371322435302
 20
190.97965406874641
 30
0.0
 11
263.50371322435302
 21
172.97965406874641
 31
0.0
  0
ARC
  5
2E11
  8
AM_0
 10
255.00372322435319
 20
188.97967106874631
 30
0.0
 40
2.00000007
 50
90.000003000000945
 51
180.00001000000091
  0
ARC
  5
2E12
  8
AM_0
 10
203.50372322435311
 20
204.88117906874641
 30
0.0
 40
3.0
 50
94.99999999999973
 51
180.0
  0
ARC
  5
2E13
  8
AM_0
 10
203.50372322435311
 20
218.47044906874629
 30
0.0
 40
3.0
 50
90.0
 51
180.0
  0
ARC
  5
2E14
  8
AM_0
 10
203.50372322435311
 20
242.5049980687464
 30
0.0
 40
3.0
 50
90.0
 51
180.0
  0
LINE
  5
2E15
  8
AM_0
 10
242.50372322435319
 20
223.4704490687464
 30
0.0
 11
242.50372322435319
 21
243.50499806874629
 31
0.0
  0
LINE
  5
2E16
  8
AM_0
 10
244.50372322435319
 20
211.47967406874639
 30
0.0
 11
203.2422562243531
 21
207.86976306874641
 31
0.0
  0
LINE
  5
2E17
  8
AM_0
 10
203.50372322435311
 20
221.4704490687464
 30
0.0
 11
240.50372322435319
 21
221.4704490687464
 31
0.0
  0
ARC
  5
2E18
  8
AM_0
 10
240.50372322435319
 20
223.4704490687464
 30
0.0
 40
2.0
 50
270.0
 51
0.0
  0
LINE
  5
2E19
  8
AM_0
 10
203.50372322435311
 20
245.50499806874629
 30
0.0
 11
242.50372322435319
 21
245.50499806874629
 31
0.0
  0
ARC
  5
2E1A
  8
AM_0
 10
244.50372322435319
 20
243.50499806874629
 30
0.0
 40
2.0
 50
120.0000000000005
 51
180.0
  0
ARC
  5
2E1B
  8
AM_0
 10
381.003723224353
 20
205.9796720687464
 30
0.0
 40
15.00000029999998
 50
179.9999899999988
 51
270.0
  0
ARC
  5
2E1C
  8
AM_0
 10
286.08390322435321
 20
194.97967106874631
 30
0.0
 40
4.000000199999997
 50
270.0
 51
342.25533000000132
  0
ARC
  5
2E1D
  8
AM_0
 10
282.00372322435322
 20
193.95621806874641
 30
0.0
 40
3.0
 50
179.9999899999988
 51
268.00000999999861
  0
LINE
  5
2E1E
  8
ﾁｭｳｼﾝｾﾝ1
 10
396.00372322435311
 20
169.64835506874641
 30
0.0
 11
396.00372322435311
 21
195.2289830687464
 31
0.0
  0
LINE
  5
2E1F
  8
ﾁｭｳｼﾝｾﾝ1
 10
271.00371322435308
 20
169.64835506874641
 30
0.0
 11
271.00371322435308
 21
195.2289830687464
 31
0.0
  0
LINE
  5
2E20
  8
AM_0
 10
291.00372322435311
 20
174.97965506874641
 30
0.0
 11
376.00368322435293
 21
174.97965506874641
 31
0.0
  0
LINE
  5
2E21
  8
ｶｸﾚｾﾝ2
 10
278.50371322435319
 20
190.97965406874641
 30
0.0
 11
278.50371322435319
 21
172.97965406874641
 31
0.0
  0
ARC
  5
2E22
  8
AM_0
 10
291.00372322435311
 20
172.97965406874641
 30
0.0
 40
2.00000007
 50
90.000003000000945
 51
180.00001000000091
  0
ARC
  5
2E23
  8
AM_0
 10
376.00368322435293
 20
172.97965406874641
 30
0.0
 40
2.00000007
 50
0.0
 51
90.000003000000945
  0
LINE
  5
2E24
  8
AM_0
 10
378.00372322435311
 20
172.97965406874641
 30
0.0
 11
378.00372322435311
 21
172.97965406874641
 31
0.0
  0
LINE
  5
2E25
  8
ｶｸﾚｾﾝ2
 10
388.50372322435311
 20
190.97965406874641
 30
0.0
 11
388.50372322435311
 21
172.97965406874641
 31
0.0
  0
LINE
  5
2E26
  8
AM_0
 10
289.89360322435311
 20
193.7605550687463
 30
0.0
 11
304.81341322435293
 21
240.38494706874641
 31
0.0
  0
LINE
  5
2E27
  8
AM_0
 10
281.0037032243531
 20
204.5618840687462
 30
0.0
 11
289.00371322435319
 21
204.5618840687462
 31
0.0
  0
ARC
  5
2E28
  8
AM_0
 10
281.0037032243531
 20
206.5618700687464
 30
0.0
 40
2.00000007
 50
179.9999899999988
 51
270.0
  0
ARC
  5
2E29
  8
AM_0
 10
276.00372322435322
 20
207.3778340687463
 30
0.0
 40
3.0
 50
0.0
 51
87.999999999999659
  0
ARC
  5
2E2A
  8
AM_0
 10
289.00371322435319
 20
202.56188606874639
 30
0.0
 40
2.00000007
 50
0.0
 51
90.000003000000945
  0
LINE
  5
2E2B
  8
AM_0
 10
291.00372322435311
 20
197.22967106874631
 30
0.0
 11
291.00372322435311
 21
202.56188606874639
 31
0.0
  0
LINE
  5
2E2C
  8
AM_0
 10
281.0037032243531
 20
225.23698106874639
 30
0.0
 11
289.00371322435319
 21
225.23698106874639
 31
0.0
  0
ARC
  5
2E2D
  8
AM_0
 10
281.0037032243531
 20
227.2369970687464
 30
0.0
 40
2.00000007
 50
179.9999899999988
 51
270.0
  0
ARC
  5
2E2E
  8
AM_0
 10
289.00371322435319
 20
227.2369970687464
 30
0.0
 40
2.00000007
 50
270.0
 51
0.0
  0
LINE
  5
2E2F
  8
AM_0
 10
291.00372322435311
 20
221.12028206874641
 30
0.0
 11
298.6487432243531
 21
221.12028206874641
 31
0.0
  0
ARC
  5
2E30
  8
AM_0
 10
289.00371322435319
 20
223.12028006874641
 30
0.0
 40
2.00000007
 50
270.0
 51
0.0
  0
ARC
  5
2E31
  8
AM_0
 10
301.00371322435319
 20
241.6040630687464
 30
0.0
 40
4.000000199999997
 50
342.25533000000132
 51
0.0
  0
ARC
  5
2E32
  8
AM_0
 10
378.00372322435311
 20
213.4373900687464
 30
0.0
 40
8.0000000999999976
 50
270.0
 51
0.0
  0
LINE
  5
2E33
  8
AM_0
 10
371.07870322435321
 20
205.4374040687461
 30
0.0
 11
378.00372322435311
 21
205.4374040687461
 31
0.0
  0
LINE
  5
2E34
  8
AM_0
 10
244.50372322435319
 20
324.45434006874632
 30
0.0
 11
279.00372322435322
 21
324.45434006874632
 31
0.0
  0
LINE
  5
2E35
  8
AM_0
 10
244.50372322435319
 20
346.55831006874632
 30
0.0
 11
279.00372322435322
 21
346.55831006874632
 31
0.0
  0
LINE
  5
2E36
  8
AM_0
 10
244.50372322435319
 20
358.47965006874642
 30
0.0
 11
276.10839322435288
 21
359.58332006874627
 31
0.0
  0
LINE
  5
2E37
  8
ﾁｭｳｼﾝｾﾝ
 10
183.85339142126401
 20
284.97967406874619
 30
0.0
 11
273.83971232937103
 21
284.97967406874619
 31
0.0
  0
ARC
  5
2E38
  8
AM_0
 10
203.50372322435311
 20
327.4543490687463
 30
0.0
 40
3.0
 50
180.0
 51
270.0
  0
ARC
  5
2E39
  8
AM_0
 10
203.50372322435311
 20
351.48889906874632
 30
0.0
 40
3.0
 50
180.0
 51
270.0
  0
ARC
  5
2E3A
  8
AM_0
 10
203.50372322435311
 20
365.07816906874632
 30
0.0
 40
3.0
 50
180.0
 51
265.00000000000028
  0
LINE
  5
2E3B
  8
AM_0
 10
244.50372322435319
 20
358.47967406874642
 30
0.0
 11
203.2422562243531
 21
362.08958406874632
 31
0.0
  0
LINE
  5
2E3C
  8
AM_0
 10
203.50372322435311
 20
348.48889906874632
 30
0.0
 11
240.50372322435319
 21
348.48889906874632
 31
0.0
  0
LINE
  5
2E3D
  8
AM_0
 10
203.50372322435311
 20
324.45434906874641
 30
0.0
 11
242.50372322435319
 21
324.45434906874641
 31
0.0
  0
LINE
  5
2E3E
  8
AM_0
 10
242.50372322435319
 20
346.48889906874632
 30
0.0
 11
242.50372322435319
 21
326.45434906874641
 31
0.0
  0
ARC
  5
2E3F
  8
AM_0
 10
244.50372322435319
 20
326.45434906874641
 30
0.0
 40
2.0
 50
180.0
 51
239.99999999999949
  0
ARC
  5
2E40
  8
AM_0
 10
240.50372322435319
 20
346.48889906874632
 30
0.0
 40
2.0
 50
0.0
 51
90.0
  0
LINE
  5
2E41
  8
AM_0
 10
190.50372322435311
 20
384.97967406874642
 30
0.0
 11
199.50372322435311
 21
384.97967406874642
 31
0.0
  0
ARC
  5
2E42
  8
AM_0
 10
199.50372322435311
 20
383.97967406874642
 30
0.0
 40
1.0
 50
0.0
 51
90.0
  0
ARC
  5
2E43
  8
AM_0
 10
281.0037032243531
 20
366.28232006874629
 30
0.0
 40
2.00000007
 50
90.000003000000945
 51
180.00001000000091
  0
POLYLINE
  5
2E44
  8
AM_0
 66
     1
 10
0.0
 20
0.0
 30
0.0
  0
VERTEX
  5
2E45
  8
AM_0
  6
CONTINUOUS
 10
328.77291322435298
 20
340.4519900687464
 30
0.0
 42
0.038759412
  0
VERTEX
  5
2E46
  8
AM_0
  6
CONTINUOUS
 10
331.5207332243528
 20
343.36283006874629
 30
0.0
 42
0.04530642
  0
VERTEX
  5
2E47
  8
AM_0
  6
CONTINUOUS
 10
333.74292322435298
 20
346.69055006874618
 30
0.0
 42
0.052171517
  0
VERTEX
  5
2E48
  8
AM_0
  6
CONTINUOUS
 10
335.279613224353
 20
350.38835006874632
 30
0.0
 42
0.057266797
  0
VERTEX
  5
2E49
  8
AM_0
  6
CONTINUOUS
 10
335.97387322435287
 20
354.32711006874632
 30
0.0
 42
0.058402473
  0
VERTEX
  5
2E4A
  8
AM_0
  6
CONTINUOUS
 10
335.74311322435312
 20
358.31531006874633
 30
0.0
 42
0.055045428
  0
VERTEX
  5
2E4B
  8
AM_0
  6
CONTINUOUS
 10
334.61760322435322
 20
362.15048006874628
 30
0.0
 42
0.048778207
  0
VERTEX
  5
2E4C
  8
AM_0
  6
CONTINUOUS
 10
332.72472322435323
 20
365.6710100687464
 30
0.0
 42
0.041944178
  0
VERTEX
  5
2E4D
  8
AM_0
  6
CONTINUOUS
 10
330.22722322435322
 20
368.7940400687462
 30
0.0
 42
0.035908203
  0
VERTEX
  5
2E4E
  8
AM_0
  6
CONTINUOUS
 10
327.27462322435298
 20
371.49482006874632
 30
0.0
 42
0.031063143
  0
VERTEX
  5
2E4F
  8
AM_0
  6
CONTINUOUS
 10
323.98794322435322
 20
373.77878006874641
 30
0.0
 42
0.027381807
  0
VERTEX
  5
2E50
  8
AM_0
  6
CONTINUOUS
 10
320.45601322435311
 20
375.6658700687463
 30
0.0
 42
0.024647351
  0
VERTEX
  5
2E51
  8
AM_0
  6
CONTINUOUS
 10
316.74699322435288
 20
377.17700006874628
 30
0.0
 42
0.022677519
  0
VERTEX
  5
2E52
  8
AM_0
  6
CONTINUOUS
 10
312.91161322435312
 20
378.3316700687464
 30
0.0
 42
0.021321472
  0
VERTEX
  5
2E53
  8
AM_0
  6
CONTINUOUS
 10
308.98920322435322
 20
379.14551006874649
 30
0.0
 42
0.020471059
  0
VERTEX
  5
2E54
  8
AM_0
  6
CONTINUOUS
 10
305.01231322435308
 20
379.62956006874629
 30
0.0
 42
0.020088491
  0
VERTEX
  5
2E55
  8
AM_0
  6
CONTINUOUS
 10
301.00368322435293
 20
379.79048006874632
 30
0.0
  0
SEQEND
  5
2E56
  8
AM_0
  0
ARC
  5
2E57
  8
AM_0
 10
394.00368322435293
 20
368.9796800687464
 30
0.0
 40
8.0000000999999976
 50
179.9999899999988
 51
270.0
  0
LINE
  5
2E58
  8
AM_0
 10
301.00371322435319
 20
315.16497806874628
 30
0.0
 11
328.77237322435298
 21
340.45145006874628
 31
0.0
  0
LINE
  5
2E59
  8
AM_0
 10
301.00371322435319
 20
299.62740806874632
 30
0.0
 11
305.0037032243531
 21
299.62740806874632
 31
0.0
  0
LINE
  5
2E5A
  8
AM_0
 10
301.00371322435319
 20
315.16497806874628
 30
0.0
 11
301.00530322435287
 21
315.16497806874628
 31
0.0
  0
POLYLINE
  5
2E5B
  8
AM_0
 66
     1
 10
0.0
 20
0.0
 30
0.0
  0
VERTEX
  5
2E5C
  8
AM_0
  6
CONTINUOUS
 10
334.46037322435308
 20
357.62105006874629
 30
0.0
 42
0.046333928
  0
VERTEX
  5
2E5D
  8
AM_0
  6
CONTINUOUS
 10
332.60856322435308
 20
358.67870006874642
 30
0.0
 42
0.024113287
  0
VERTEX
  5
2E5E
  8
AM_0
  6
CONTINUOUS
 10
330.62907322435319
 20
359.47856006874628
 30
0.0
 42
0.015482173
  0
VERTEX
  5
2E5F
  8
AM_0
  6
CONTINUOUS
 10
328.59213322435312
 20
360.12323006874641
 30
0.0
 42
0.01117072
  0
VERTEX
  5
2E60
  8
AM_0
  6
CONTINUOUS
 10
326.52441322435322
 20
360.65972006874631
 30
0.0
 42
0.0086851636
  0
VERTEX
  5
2E61
  8
AM_0
  6
CONTINUOUS
 10
324.43683322435322
 20
361.11437006874633
 30
0.0
 42
0.0071112813
  0
VERTEX
  5
2E62
  8
AM_0
  6
CONTINUOUS
 10
322.33515322435312
 20
361.50341006874629
 30
0.0
 42
0.0060487741
  0
VERTEX
  5
2E63
  8
AM_0
  6
CONTINUOUS
 10
320.22243322435293
 20
361.83743006874641
 30
0.0
 42
0.0052886701
  0
VERTEX
  5
2E64
  8
AM_0
  6
CONTINUOUS
 10
318.10506322435322
 20
362.12327006874642
 30
0.0
 42
0.0047450804
  0
VERTEX
  5
2E65
  8
AM_0
  6
CONTINUOUS
 10
315.9799532243531
 20
362.36693006874629
 30
0.0
 42
0.004337472
  0
VERTEX
  5
2E66
  8
AM_0
  6
CONTINUOUS
 10
313.85025322435308
 20
362.5720700687462
 30
0.0
 42
0.0040309329
  0
VERTEX
  5
2E67
  8
AM_0
  6
CONTINUOUS
 10
311.71746322435308
 20
362.7415700687464
 30
0.0
 42
0.0038017188
  0
VERTEX
  5
2E68
  8
AM_0
  6
CONTINUOUS
 10
309.58224322435279
 20
362.87771006874641
 30
0.0
 42
0.0036333127
  0
VERTEX
  5
2E69
  8
AM_0
  6
CONTINUOUS
 10
307.445163224353
 20
362.98208006874631
 30
0.0
 42
0.0035147917
  0
VERTEX
  5
2E6A
  8
AM_0
  6
CONTINUOUS
 10
305.30676322435312
 20
363.05594006874628
 30
0.0
 42
0.0034390753
  0
VERTEX
  5
2E6B
  8
AM_0
  6
CONTINUOUS
 10
303.1675232243532
 20
363.1000700687465
 30
0.0
 42
0.0034021186
  0
VERTEX
  5
2E6C
  8
AM_0
  6
CONTINUOUS
 10
301.02783322435312
 20
363.1149500687464
 30
0.0
  0
SEQEND
  5
2E6D
  8
AM_0
  0
LINE
  5
2E6E
  8
AM_0
 10
280.48221322435307
 20
342.3623300687463
 30
0.0
 11
289.43280322435322
 21
342.3623300687463
 31
0.0
  0
LINE
  5
2E6F
  8
AM_0
 10
281.0037032243531
 20
351.31175006874628
 30
0.0
 11
289.00371322435319
 21
351.31175006874628
 31
0.0
  0
LINE
  5
2E70
  8
AM_0
 10
280.62492322435298
 20
363.1149500687464
 30
0.0
 11
301.00371322435319
 21
363.1149500687464
 31
0.0
  0
ARC
  5
2E71
  8
AM_0
 10
281.0037032243531
 20
353.31173006874627
 30
0.0
 40
2.00000007
 50
179.9999899999988
 51
270.0
  0
ARC
  5
2E72
  8
AM_0
 10
276.00372322435322
 20
362.58152006874627
 30
0.0
 40
3.0
 50
272.0000000000004
 51
0.0
  0
ARC
  5
2E73
  8
AM_0
 10
289.00371322435319
 20
349.31177006874628
 30
0.0
 40
2.00000007
 50
0.0
 51
90.000003000000945
  0
ARC
  5
2E74
  8
AM_0
 10
374.0037032243531
 20
344.42240006874641
 30
0.0
 40
8.0000000999999976
 50
90.000003000000945
 51
180.00001000000091
  0
LINE
  5
2E75
  8
AM_0
 10
374.0037032243531
 20
352.42235006874631
 30
0.0
 11
382.40319322435312
 21
352.42235006874631
 31
0.0
  0
LINE
  5
2E76
  8
AM_0
 10
301.00371322435319
 20
384.47966006874651
 30
0.0
 11
378.2130932243532
 21
382.45787006874627
 31
0.0
  0
LINE
  5
2E77
  8
AM_0
 10
281.0037032243531
 20
368.28233006874632
 30
0.0
 11
289.00371322435319
 21
368.28233006874632
 31
0.0
  0
LINE
  5
2E78
  8
AM_0
 10
281.89896322435322
 20
379.00187006874631
 30
0.0
 11
289.07346322435308
 21
379.25237006874642
 31
0.0
  0
ARC
  5
2E79
  8
AM_0
 10
282.00372322435322
 20
376.00373006874628
 30
0.0
 40
3.0
 50
91.999998000000545
 51
180.00001000000091
  0
LINE
  5
2E7A
  8
AM_0
 10
291.00372322435311
 20
370.28231006874648
 30
0.0
 11
291.00372322435311
 21
382.19906006874641
 31
0.0
  0
ARC
  5
2E7B
  8
AM_0
 10
289.00371322435319
 20
370.28231006874648
 30
0.0
 40
2.00000007
 50
270.0
 51
0.0
  0
LINE
  5
2E7C
  8
AM_0
 10
292.93389322435308
 20
384.19784006874642
 30
0.0
 11
301.00371322435319
 21
384.47969006874632
 31
0.0
  0
ARC
  5
2E7D
  8
AM_0
 10
289.00371322435319
 20
381.25121006874627
 30
0.0
 40
2.00000007
 50
272.0000000000004
 51
0.0
  0
ARC
  5
2E7E
  8
AM_0
 10
293.00370322435322
 20
382.19906006874641
 30
0.0
 40
2.00000007
 50
91.999998000000545
 51
180.00001000000091
  0
ARC
  5
2E7F
  8
AM_0
 10
378.00372322435311
 20
374.4605900687464
 30
0.0
 40
8.0000000999999976
 50
0.0
 51
88.499997000000747
  0
ARC
  5
2E80
  8
AM_0
 10
410.00370322435299
 20
278.20614506874642
 30
0.0
 40
3.0
 50
120.0000000000005
 51
180.00001000000091
  0
LINE
  5
2E81
  8
AM_0
 10
407.0037032243531
 20
198.51905306874639
 30
0.0
 11
407.0037032243531
 21
356.97968006874618
 31
0.0
  0
ARC
  5
2E82
  8
AM_0
 10
669.20839880859739
 20
295.97964206874627
 30
0.0
 40
65.000000999999997
 50
0.0
 51
180.00001000000091
  0
LINE
  5
2E83
  8
AM_0
 10
554.24108780859729
 20
188.42129006874629
 30
0.0
 11
570.79247180859738
 21
299.62744106874618
 31
0.0
  0
LINE
  5
2E84
  8
AM_0
 10
784.1757128085975
 20
188.42129006874629
 30
0.0
 11
767.62431080859699
 21
299.62744106874618
 31
0.0
  0
LINE
  5
2E85
  8
AM_0
 10
592.20839780859751
 20
345.07334006874618
 30
0.0
 11
592.20839780859751
 21
246.7169150687464
 31
0.0
  0
LINE
  5
2E86
  8
AM_0
 10
746.20839380859741
 20
345.07334006874618
 30
0.0
 11
746.20839380859741
 21
246.7169150687464
 31
0.0
  0
LINE
  5
2E87
  8
AM_0
 10
734.20839380859752
 20
295.97964206874627
 30
0.0
 11
734.20839380859752
 21
205.9796720687464
 31
0.0
  0
LINE
  5
2E88
  8
AM_0
 10
604.20838280859743
 20
295.97964206874627
 30
0.0
 11
604.20838280859743
 21
205.9796720687464
 31
0.0
  0
LINE
  5
2E89
  8
ﾁｭｳｼﾝｾﾝ
 10
669.20838980859753
 20
166.24114718723109
 30
0.0
 11
669.20839880859739
 21
389.28579256204239
 31
0.0
  0
LINE
  5
2E8A
  8
AM_0
 10
606.2083838085972
 20
174.97965506874641
 30
0.0
 11
732.20839580859729
 21
174.97965506874641
 31
0.0
  0
LINE
  5
2E8B
  8
AM_0
 10
554.20838780859731
 20
172.97965406874641
 30
0.0
 11
604.20838280859743
 21
172.97965406874641
 31
0.0
  0
LINE
  5
2E8C
  8
AM_0
 10
600.20839880859717
 20
190.97965406874641
 30
0.0
 11
557.20838780859719
 21
190.97965406874641
 31
0.0
  0
ARC
  5
2E8D
  8
AM_0
 10
415.00368322435281
 20
198.51905306874639
 30
0.0
 40
8.0000000999999976
 50
179.9999899999988
 51
252.54238999999831
  0
LINE
  5
2E8E
  8
AM_0
 10
414.00372322435311
 20
172.97965406874641
 30
0.0
 11
414.00372322435311
 21
188.97967106874631
 31
0.0
  0
LINE
  5
2E8F
  8
ｶｸﾚｾﾝ2
 10
403.50372322435311
 20
190.97965406874641
 30
0.0
 11
403.50372322435311
 21
172.97965406874641
 31
0.0
  0
ARC
  5
2E90
  8
AM_0
 10
412.00368322435293
 20
188.97967106874631
 30
0.0
 40
2.00000007
 50
0.0
 51
90.000003000000945
  0
LINE
  5
2E91
  8
AM_0
 10
554.20838780859731
 20
187.97965406874641
 30
0.0
 11
554.20838780859731
 21
172.97965406874641
 31
0.0
  0
LINE
  5
2E92
  8
ｶｸﾚｾﾝ2
 10
566.70839780859751
 20
190.97965406874641
 30
0.0
 11
566.70839780859751
 21
172.97965406874641
 31
0.0
  0
ARC
  5
2E93
  8
AM_0
 10
557.20838780859719
 20
187.97965406874641
 30
0.0
 40
3.0
 50
90.000003000000945
 51
180.00001000000091
  0
ARC
  5
2E94
  8
AM_0
 10
589.20839780859751
 20
205.9796720687464
 30
0.0
 40
15.00000029999998
 50
270.0
 51
0.0
  0
LINE
  5
2E95
  8
ﾁｭｳｼﾝｾﾝ1
 10
574.2083978085974
 20
195.2289830687464
 30
0.0
 11
574.2083978085974
 21
169.64835506874641
 31
0.0
  0
ARC
  5
2E96
  8
AM_0
 10
600.20839880859717
 20
186.97965506874641
 30
0.0
 40
4.000000199999997
 50
0.0
 51
90.000003000000945
  0
LINE
  5
2E97
  8
ｶｸﾚｾﾝ2
 10
581.70839780859751
 20
190.97965406874641
 30
0.0
 11
581.70839780859751
 21
172.97965406874641
 31
0.0
  0
LINE
  5
2E98
  8
AM_0
 10
604.20838280859743
 20
186.97965506874641
 30
0.0
 11
604.20838280859743
 21
172.97965406874641
 31
0.0
  0
ARC
  5
2E99
  8
AM_0
 10
606.2083838085972
 20
172.97965406874641
 30
0.0
 40
2.00000007
 50
90.000003000000945
 51
180.00001000000091
  0
ARC
  5
2E9A
  8
AM_0
 10
669.20839880859739
 20
246.7169150687464
 30
0.0
 40
77.000000999999983
 50
179.9999899999988
 51
212.41839000000161
  0
ARC
  5
2E9B
  8
AM_0
 10
749.20839380859752
 20
205.9796720687464
 30
0.0
 40
15.00000029999998
 50
179.9999899999988
 51
270.0
  0
LINE
  5
2E9C
  8
ﾁｭｳｼﾝｾﾝ1
 10
764.20839380859752
 20
195.2289830687464
 30
0.0
 11
764.20839380859752
 21
169.64835506874641
 31
0.0
  0
LINE
  5
2E9D
  8
AM_0
 10
738.20839580859695
 20
190.97965406874641
 30
0.0
 11
781.2083948085974
 21
190.97965406874641
 31
0.0
  0
LINE
  5
2E9E
  8
AM_0
 10
734.20839380859752
 20
172.97965406874641
 30
0.0
 11
784.20839480859706
 21
172.97965406874641
 31
0.0
  0
ARC
  5
2E9F
  8
AM_0
 10
738.20839580859695
 20
186.97965506874641
 30
0.0
 40
4.000000199999997
 50
90.000003000000945
 51
180.00001000000091
  0
ARC
  5
2EA0
  8
AM_0
 10
732.20839580859729
 20
172.97965406874641
 30
0.0
 40
2.00000007
 50
0.0
 51
90.000003000000945
  0
LINE
  5
2EA1
  8
AM_0
 10
734.20839380859752
 20
186.97965506874641
 30
0.0
 11
734.20839380859752
 21
172.97965406874641
 31
0.0
  0
LINE
  5
2EA2
  8
ｶｸﾚｾﾝ2
 10
756.70839380859752
 20
190.97965406874641
 30
0.0
 11
756.70839380859752
 21
172.97965406874641
 31
0.0
  0
ARC
  5
2EA3
  8
AM_0
 10
781.2083948085974
 20
187.97965406874641
 30
0.0
 40
3.0
 50
0.0
 51
90.000003000000945
  0
LINE
  5
2EA4
  8
AM_0
 10
784.20839480859706
 20
187.97965406874641
 30
0.0
 11
784.20839480859706
 21
172.97965406874641
 31
0.0
  0
LINE
  5
2EA5
  8
ｶｸﾚｾﾝ2
 10
771.70839680859751
 20
190.97965406874641
 30
0.0
 11
771.70839680859751
 21
172.97965406874641
 31
0.0
  0
ARC
  5
2EA6
  8
AM_0
 10
669.20839880859739
 20
246.7169150687464
 30
0.0
 40
77.000000999999983
 50
327.5815999999997
 51
0.0
  0
LINE
  5
2EA7
  8
ﾁｭｳｼﾝｾﾝ
 10
616.45772882481424
 20
312.97964306874638
 30
0.0
 11
723.84554459544063
 21
312.97964306874638
 31
0.0
  0
ARC
  5
2EA8
  8
AM_0
 10
669.20839880859739
 20
284.97967406874619
 30
0.0
 40
99.500004000000004
 50
8.4654901000001566
 51
171.53449999999981
  0
LINE
  5
2EA9
  8
ﾁｭｳｼﾝｾﾝ
 10
582.85164680859737
 20
284.97967406874619
 30
0.0
 11
756.71844380859716
 21
284.97967406874619
 31
0.0
  0
LINE
  5
2EAA
  8
AM_0
 10
740.72913980859755
 20
367.09562006874631
 30
0.0
 11
698.43131780859756
 21
380.09153006874641
 31
0.0
  0
LINE
  5
2EAB
  8
AM_0
 10
476.0037032243531
 20
328.9796300687463
 30
0.0
 11
418.00368322435281
 21
328.9796300687463
 31
0.0
  0
LINE
  5
2EAC
  8
AM_0
 10
476.0037032243531
 20
296.97967406874631
 30
0.0
 11
418.00368322435281
 21
296.97967406874631
 31
0.0
  0
LINE
  5
2EAD
  8
AM_0
 10
476.0037032243531
 20
331.9796300687463
 30
0.0
 11
431.00370322435299
 21
331.9796300687463
 31
0.0
  0
LINE
  5
2EAE
  8
AM_0
 10
418.00368322435281
 20
295.47967406874619
 30
0.0
 11
418.00368322435281
 21
330.47963006874619
 31
0.0
  0
LINE
  5
2EAF
  8
AM_0
 10
414.00372322435311
 20
312.97964306874638
 30
0.0
 11
414.00372322435311
 21
340.24760006874618
 31
0.0
  0
LINE
  5
2EB0
  8
AM_0
 10
414.00372322435311
 20
285.71172806874631
 30
0.0
 11
414.00372322435311
 21
312.97964306874638
 31
0.0
  0
LINE
  5
2EB1
  8
AM_0
 10
408.50367322435278
 20
280.80425906874638
 30
0.0
 11
412.50369322435301
 21
283.11364706874627
 31
0.0
  0
ARC
  5
2EB2
  8
AM_0
 10
411.00372322435322
 20
285.71172806874631
 30
0.0
 40
3.0
 50
300.00000000000051
 51
0.0
  0
LINE
  5
2EB3
  8
AM_0
 10
418.00368322435281
 20
295.47967406874619
 30
0.0
 11
414.00372322435311
 21
295.47967406874619
 31
0.0
  0
ARC
  5
2EB4
  8
AM_0
 10
410.00370322435299
 20
347.75318006874642
 30
0.0
 40
3.0
 50
179.9999899999988
 51
240.00000999999969
  0
LINE
  5
2EB5
  8
AM_0
 10
418.00368322435281
 20
330.47963006874619
 30
0.0
 11
414.00372322435311
 21
330.47963006874619
 31
0.0
  0
LINE
  5
2EB6
  8
AM_0
 10
408.50373322435291
 20
345.15509006874629
 30
0.0
 11
412.503723224353
 21
342.84569006874631
 31
0.0
  0
ARC
  5
2EB7
  8
AM_0
 10
411.00372322435322
 20
340.24760006874618
 30
0.0
 40
3.0
 50
0.0
 51
60.000002000001302
  0
LINE
  5
2EB8
  8
AM_0
 10
431.00370322435299
 20
328.9796300687463
 30
0.0
 11
431.00370322435299
 21
331.9796300687463
 31
0.0
  0
ARC
  5
2EB9
  8
AM_0
 10
403.00368322435293
 20
356.97968006874618
 30
0.0
 40
4.000000199999997
 50
0.0
 51
90.000003000000945
  0
LINE
  5
2EBA
  8
AM_0
 10
476.0037032243531
 20
296.97967406874631
 30
0.0
 11
476.0037032243531
 21
331.9796300687463
 31
0.0
  0
ARC
  5
2EBB
  8
AM_0
 10
602.74033580859759
 20
351.44768006874642
 30
0.0
 40
16.000000499999999
 50
107.079459999999
 51
162.9205300000007
  0
LINE
  5
2EBC
  8
AM_0
 10
597.88643780859718
 20
366.69371006874633
 30
0.0
 11
639.02306480859738
 21
379.79054006874628
 31
0.0
  0
LINE
  5
2EBD
  8
AM_0
 10
587.49437780859762
 20
356.30165006874643
 30
0.0
 11
574.39754480859744
 21
315.16500806874632
 31
0.0
  0
ARC
  5
2EBE
  8
AM_0
 10
600.20839880859717
 20
345.07334006874618
 30
0.0
 40
8.0000000999999976
 50
138.94664999999881
 51
180.00001000000091
  0
CIRCLE
  5
2EBF
  8
AM_0
 10
669.20839880859739
 20
312.97964306874638
 30
0.0
 40
29.000001000000001
  0
ARC
  5
2EC0
  8
AM_0
 10
669.20839880859739
 20
312.97964306874638
 30
0.0
 40
16.000000499999999
 50
108.2099600000016
 51
71.790051999998809
  0
CIRCLE
  5
2EC1
  8
AM_5
 10
669.20839880859739
 20
312.97964306874638
 30
0.0
 40
4.000000199999997
  0
CIRCLE
  5
2EC2
  8
AM_0
 10
669.20839880859739
 20
312.97964306874638
 30
0.0
 40
2.75000007
  0
LINE
  5
2EC3
  8
AM_0
 10
664.20838580859765
 20
331.9796300687463
 30
0.0
 11
674.20838480859754
 21
331.9796300687463
 31
0.0
  0
LINE
  5
2EC4
  8
AM_0
 10
664.20838580859765
 20
323.9796800687464
 30
0.0
 11
674.20838480859754
 21
323.9796800687464
 31
0.0
  0
LINE
  5
2EC5
  8
AM_0
 10
664.20838580859765
 20
323.9796800687464
 30
0.0
 11
664.20838580859765
 21
331.9796300687463
 31
0.0
  0
LINE
  5
2EC6
  8
AM_0
 10
674.20838480859754
 20
323.9796800687464
 30
0.0
 11
674.20838480859754
 21
331.9796300687463
 31
0.0
  0
ARC
  5
2EC7
  8
AM_0
 10
736.02998780859741
 20
351.80126006874627
 30
0.0
 40
16.000000499999999
 50
17.07946300000124
 51
72.920534000000799
  0
LINE
  5
2EC8
  8
AM_0
 10
751.32435380859749
 20
356.50043006874643
 30
0.0
 11
764.32028180859754
 21
314.2025750687464
 31
0.0
  0
ARC
  5
2EC9
  8
AM_0
 10
738.20839580859695
 20
345.07334006874618
 30
0.0
 40
8.0000000999999976
 50
0.0
 51
41.05335099999968
  0
LINE
  5
2ECA
  8
AM_0
 10
190.5037032243533
 20
487.81840499132869
 30
0.0
 11
190.5037032243533
 21
687.81840499132875
 31
0.0
  0
LINE
  5
2ECB
  8
AM_0
 10
200.50370322435319
 20
686.81840499132875
 30
0.0
 11
200.50370322435319
 21
488.8184049913288
 31
0.0
  0
LINE
  5
2ECC
  8
AM_0
 10
242.5037032243533
 20
526.30917999132885
 30
0.0
 11
242.5037032243533
 21
546.3437289913287
 31
0.0
  0
LINE
  5
2ECD
  8
AM_0
 10
203.5037032243533
 20
524.30917999132885
 30
0.0
 11
240.5037032243533
 21
524.30917999132885
 31
0.0
  0
LINE
  5
2ECE
  8
AM_0
 10
244.50370322435319
 20
514.31840499132875
 30
0.0
 11
203.24223622435321
 21
510.70849399132879
 31
0.0
  0
LINE
  5
2ECF
  8
AM_0
 10
190.5037032243533
 20
487.81840499132869
 30
0.0
 11
199.5037032243533
 21
487.81840499132869
 31
0.0
  0
ARC
  5
2ED0
  8
AM_0
 10
199.5037032243533
 20
488.8184049913288
 30
0.0
 40
1.0
 50
270.0
 51
0.0
  0
ARC
  5
2ED1
  8
AM_0
 10
203.5037032243533
 20
507.71990999132868
 30
0.0
 40
3.0
 50
94.99999999999973
 51
180.0
  0
ARC
  5
2ED2
  8
AM_0
 10
203.5037032243533
 20
521.30917999132885
 30
0.0
 40
3.0
 50
90.0
 51
180.0
  0
ARC
  5
2ED3
  8
AM_0
 10
240.5037032243533
 20
526.30917999132885
 30
0.0
 40
2.0
 50
270.0
 51
0.0
  0
LINE
  5
2ED4
  8
AM_0
 10
203.5037032243533
 20
627.29307999132891
 30
0.0
 11
242.5037032243533
 21
627.29307999132891
 31
0.0
  0
LINE
  5
2ED5
  8
AM_0
 10
203.5037032243533
 20
651.32762999132865
 30
0.0
 11
240.5037032243533
 21
651.32762999132865
 31
0.0
  0
LINE
  5
2ED6
  8
AM_0
 10
203.5037032243533
 20
548.34372899132882
 30
0.0
 11
242.5037032243533
 21
548.34372899132882
 31
0.0
  0
ARC
  5
2ED7
  8
AM_0
 10
203.5037032243533
 20
545.34372899132882
 30
0.0
 40
3.0
 50
90.0
 51
180.0
  0
ARC
  5
2ED8
  8
AM_0
 10
203.5037032243533
 20
630.29307999132891
 30
0.0
 40
3.0
 50
180.0
 51
270.0
  0
ARC
  5
2ED9
  8
AM_0
 10
203.5037032243533
 20
654.32762999132865
 30
0.0
 40
3.0
 50
180.0
 51
270.0
  0
ARC
  5
2EDA
  8
AM_0
 10
244.50370322435319
 20
546.3437289913287
 30
0.0
 40
2.0
 50
120.0000000000005
 51
180.0
  0
ARC
  5
2EDB
  8
AM_0
 10
244.50370322435319
 20
629.29307999132891
 30
0.0
 40
2.0
 50
180.0
 51
239.99999999999949
  0
LINE
  5
2EDC
  8
AM_0
 10
242.5037032243533
 20
649.32762999132865
 30
0.0
 11
242.5037032243533
 21
629.29307999132891
 31
0.0
  0
ARC
  5
2EDD
  8
AM_0
 10
240.5037032243533
 20
649.32762999132865
 30
0.0
 40
2.0
 50
0.0
 51
90.0
  0
LINE
  5
2EDE
  8
AM_0
 10
244.50370322435319
 20
661.31840499132875
 30
0.0
 11
203.24223622435321
 21
664.92831499132865
 31
0.0
  0
LINE
  5
2EDF
  8
AM_0
 10
190.5037032243533
 20
687.81840499132875
 30
0.0
 11
199.5037032243533
 21
687.81840499132875
 31
0.0
  0
ARC
  5
2EE0
  8
AM_0
 10
203.5037032243533
 20
667.91689999132871
 30
0.0
 40
3.0
 50
180.0
 51
265.00000000000028
  0
ARC
  5
2EE1
  8
AM_0
 10
199.5037032243533
 20
686.81840499132875
 30
0.0
 40
1.0
 50
0.0
 51
90.0
  0
TEXT
  5
30C3
  8
AM_0
 10
549.39393207920557
 20
623.7540373053298
 30
0.0
 40
15.0
  1
VX08-040A~VX08-100A
  0
ENDSEC
  0
EOF
