  0
SECTION
  2
HEADER
  9
$ACADVER
  1
AC1009
  9
$INSBASE
 10
0.0
 20
0.0
 30
0.0
  9
$EXTMIN
 10
370.5801810505568
 20
294.97099367726332
 30
-0.0000000349181948
  9
$EXTMAX
 10
1086.6488295201541
 20
972.76751661512799
 30
0.0000000814935747
  9
$LIMMIN
 10
0.0
 20
0.0
  9
$LIMMAX
 10
1422.5
 20
925.0
  9
$ORTHOMODE
 70
     0
  9
$REGENMODE
 70
     1
  9
$FILLMODE
 70
     1
  9
$QTEXTMODE
 70
     0
  9
$MIRRTEXT
 70
     1
  9
$DRAGMODE
 70
     2
  9
$LTSCALE
 40
5.0
  9
$OSMODE
 70
   551
  9
$ATTMODE
 70
     1
  9
$TEXTSIZE
 40
2.5
  9
$TRACEWID
 40
1.0
  9
$TEXTSTYLE
  7
STANDARD
  9
$CLAYER
  8
AM_0
  9
$CELTYPE
  6
BYLAYER
  9
$CECOLOR
 62
   256
  9
$DIMSCALE
 40
1.0
  9
$DIMASZ
 40
2.5
  9
$DIMEXO
 40
1.0
  9
$DIMDLI
 40
8.0
  9
$DIMRND
 40
0.0
  9
$DIMDLE
 40
0.0
  9
$DIMEXE
 40
0.6
  9
$DIMTP
 40
0.1
  9
$DIMTM
 40
0.1
  9
$DIMTXT
 40
2.5
  9
$DIMCEN
 40
0.0
  9
$DIMTSZ
 40
0.0
  9
$DIMTOL
 70
     0
  9
$DIMLIM
 70
     0
  9
$DIMTIH
 70
     0
  9
$DIMTOH
 70
     0
  9
$DIMSE1
 70
     0
  9
$DIMSE2
 70
     0
  9
$DIMTAD
 70
     1
  9
$DIMZIN
 70
     8
  9
$DIMBLK
  1

  9
$DIMASO
 70
     1
  9
$DIMSHO
 70
     1
  9
$DIMPOST
  1

  9
$DIMAPOST
  1
"
  9
$DIMALT
 70
     0
  9
$DIMALTD
 70
     2
  9
$DIMALTF
 40
0.0393701
  9
$DIMLFAC
 40
1.0
  9
$DIMTOFL
 70
     1
  9
$DIMTVP
 40
0.0
  9
$DIMTIX
 70
     0
  9
$DIMSOXD
 70
     0
  9
$DIMSAH
 70
     0
  9
$DIMBLK1
  1

  9
$DIMBLK2
  1

  9
$DIMSTYLE
  2
AM_ISO
  9
$DIMCLRD
 70
   256
  9
$DIMCLRE
 70
   256
  9
$DIMCLRT
 70
     4
  9
$DIMTFAC
 40
0.71
  9
$DIMGAP
 40
0.8
  9
$LUNITS
 70
     2
  9
$LUPREC
 70
     2
  9
$SKETCHINC
 40
1.0
  9
$FILLETRAD
 40
25.0
  9
$AUNITS
 70
     0
  9
$AUPREC
 70
     0
  9
$MENU
  1
.
  9
$ELEVATION
 40
0.0
  9
$PELEVATION
 40
0.0
  9
$THICKNESS
 40
0.0
  9
$LIMCHECK
 70
     0
  9
$BLIPMODE
 70
     0
  9
$CHAMFERA
 40
10.0
  9
$CHAMFERB
 40
5.0
  9
$SKPOLY
 70
     0
  9
$TDCREATE
 40
2452066.471316007
  9
$TDUPDATE
 40
2458541.4713999308
  9
$TDINDWG
 40
0.1177475694
  9
$TDUSRTIMER
 40
0.1177475463
  9
$USRTIMER
 70
     1
  9
$ANGBASE
 50
0.0
  9
$ANGDIR
 70
     0
  9
$PDMODE
 70
     0
  9
$PDSIZE
 40
0.0
  9
$PLINEWID
 40
0.0
  9
$COORDS
 70
     1
  9
$SPLFRAME
 70
     0
  9
$SPLINETYPE
 70
     6
  9
$SPLINESEGS
 70
     8
  9
$ATTDIA
 70
     1
  9
$ATTREQ
 70
     1
  9
$HANDLING
 70
     1
  9
$HANDSEED
  5
3E30
  9
$SURFTAB1
 70
     6
  9
$SURFTAB2
 70
     6
  9
$SURFTYPE
 70
     6
  9
$SURFU
 70
     6
  9
$SURFV
 70
     6
  9
$UCSNAME
  2

  9
$UCSORG
 10
0.0
 20
0.0
 30
0.0
  9
$UCSXDIR
 10
1.0
 20
0.0
 30
0.0
  9
$UCSYDIR
 10
0.0
 20
1.0
 30
0.0
  9
$PUCSNAME
  2

  9
$PUCSORG
 10
0.0
 20
0.0
 30
0.0
  9
$PUCSXDIR
 10
1.0
 20
0.0
 30
0.0
  9
$PUCSYDIR
 10
0.0
 20
1.0
 30
0.0
  9
$USERI1
 70
     0
  9
$USERI2
 70
     0
  9
$USERI3
 70
     0
  9
$USERI4
 70
     0
  9
$USERI5
 70
     0
  9
$USERR1
 40
0.0
  9
$USERR2
 40
0.0
  9
$USERR3
 40
0.0
  9
$USERR4
 40
0.0
  9
$USERR5
 40
0.0
  9
$WORLDVIEW
 70
     1
  9
$SHADEDGE
 70
     3
  9
$SHADEDIF
 70
    70
  9
$TILEMODE
 70
     1
  9
$MAXACTVP
 70
    64
  9
$PLIMCHECK
 70
     0
  9
$PEXTMIN
 10
1.0000000000000000E+020
 20
1.0000000000000000E+020
 30
1.0000000000000000E+020
  9
$PEXTMAX
 10
-1.0000000000000000E+020
 20
-1.0000000000000000E+020
 30
-1.0000000000000000E+020
  9
$PLIMMIN
 10
0.0
 20
0.0
  9
$PLIMMAX
 10
420.0
 20
297.0
  9
$UNITMODE
 70
     0
  9
$VISRETAIN
 70
     1
  9
$PLINEGEN
 70
     0
  9
$PSLTSCALE
 70
     1
  0
ENDSEC
  0
SECTION
  2
TABLES
  0
TABLE
  2
VPORT
 70
     1
  0
VPORT
  2
*ACTIVE
 70
     0
 10
0.0
 20
0.0
 11
1.0
 21
1.0
 12
728.61450528535556
 22
633.86925514619566
 13
0.0
 23
0.0
 14
12.5
 24
12.5
 15
50.0
 25
50.0
 16
0.0
 26
0.0
 36
1.0
 17
0.0
 27
0.0
 37
0.0
 40
682.44958831272425
 41
1.7571592210767459
 42
50.0
 43
0.0
 44
0.0
 50
0.0
 51
0.0
 71
     0
 72
   100
 73
     1
 74
     3
 75
     0
 76
     0
 77
     0
 78
     0
  0
ENDTAB
  0
TABLE
  2
LTYPE
 70
    27
  0
LTYPE
  2
CONTINUOUS
 70
     0
  3
Solid line
 72
    65
 73
     0
 40
0.0
  0
LTYPE
  2
AM_ISO02W050
 70
     0
  3
__ __ __ __ __ __ __ __ __ __ __ __ __ __ __
 72
    65
 73
     2
 40
7.5
 49
6.0
 49
-1.5
  0
LTYPE
  2
AM_ISO08W050
 70
     0
  3
____ . ____ . ____ . ____ . ____ . ____ . ____
 72
    65
 73
     4
 40
18.0
 49
12.0
 49
-1.5
 49
3.0
 49
-1.5
  0
LTYPE
  2
AM_ISO09W050
 70
     0
  3
_____ . . _____ . . _____ . . ____ .. ____
 72
    65
 73
     6
 40
22.5
 49
12.0
 49
-1.5
 49
3.0
 49
-1.5
 49
3.0
 49
-1.5
  0
LTYPE
  2
AMCONSTR
 70
     0
  3
_______________________
 72
    65
 73
     2
 40
9999.0
 49
9999.0
 49
0.0
  0
LTYPE
  2
AM_ISO08W050X2
 70
     0
  3
__ . __ . __ . __ . __ . __
 72
    65
 73
     4
 40
9.0
 49
6.0
 49
-0.75
 49
1.5
 49
-0.75
  0
LTYPE
  2
AM_ISO02W050X2
 70
     0
  3
 _ _ _ _ _ _ _ _ _ _ _ _
 72
    65
 73
     2
 40
3.75
 49
3.0
 49
-0.75
  0
LTYPE
  2
AMZIGZAG
 70
     0
  3
/\/-/\/-/\/-/\/-/\/-/\/
 72
    65
 73
     2
 40
11.000099999999991
 49
0.0001
 49
-11.0
  0
LTYPE
  2
ACISOWELD
 70
     0
  3
_ _ _ _ _
 72
    65
 73
     2
 40
2.0
 49
2.0
 49
-1.0
  0
LTYPE
  2
ACISOTGB
 70
     0
  3
__ . . __ . .
 72
    65
 73
     6
 40
9.0
 49
4.0
 49
-1.0
 49
1.0
 49
-1.0
 49
1.0
 49
-1.0
  0
LTYPE
  2
ACISOTGL
 70
     0
  3
_ _ _ _ _
 72
    65
 73
     2
 40
3.0
 49
2.0
 49
-1.0
  0
LTYPE
  2
CENTER
 70
     0
  3
__ . __
 72
    65
 73
     4
 40
7.0
 49
4.0
 49
-1.0
 49
1.0
 49
-1.0
  0
LTYPE
  2
PHANTOM2
 70
     0
  3
Phantom (.5x) ___ _ _ ___ _ _ ___ _ _ ___ _ _
 72
    65
 73
     6
 40
31.75
 49
15.875
 49
-3.174999999999998
 49
3.174999999999998
 49
-3.174999999999998
 49
3.174999999999998
 49
-3.174999999999998
  0
LTYPE
  2
ACANSTGBM
 70
     0
  3
__ . . __ . .
 72
    65
 73
     6
 40
9.0
 49
4.0
 49
-1.0
 49
1.0
 49
-1.0
 49
1.0
 49
-1.0
  0
LTYPE
  2
ACANSTGLM
 70
     0
  3
_ _ _ _ _
 72
    65
 73
     2
 40
3.0
 49
2.0
 49
-1.0
  0
LTYPE
  2
GEN7
 70
     0
  3
____ . ____ . ____ . ____ . ____ . ____ . ____
 72
    65
 73
     4
 40
14.25
 49
9.75
 49
-1.5
 49
1.5
 49
-1.5
  0
LTYPE
  2
GEN3B
 70
     0
  3
 - - - - -
 72
    65
 73
     2
 40
1.0
 49
0.5
 49
-0.5
  0
LTYPE
  2
GEN7A
 70
     0
  3
__ . __ . __
 72
    65
 73
     4
 40
7.375
 49
4.75
 49
-0.875
 49
0.875
 49
-0.875
  0
LTYPE
  2
ACJISTGB
 70
     0
  3
__ . . __ . .
 72
    65
 73
     6
 40
9.0
 49
4.0
 49
-1.0
 49
1.0
 49
-1.0
 49
1.0
 49
-1.0
  0
LTYPE
  2
ACJISTGL
 70
     0
  3
_ _ _ _ _
 72
    65
 73
     2
 40
3.0
 49
2.0
 49
-1.0
  0
LTYPE
  2
HIDDEN
 70
     0
  3
Hidden __ __ __ __ __ __ __ __ __ __ __ __ __ _
 72
    65
 73
     2
 40
0.375
 49
0.25
 49
-0.125
  0
LTYPE
  2
CENTER2
 70
     0
  3
Center (.5x) ___ _ ___ _ ___ _ ___ _ ___ _ ___
 72
    65
 73
     4
 40
1.125
 49
0.75
 49
-0.125
 49
0.125
 49
-0.125
  0
LTYPE
  2
HIDDEN2
 70
     0
  3
Hidden (.5x) _ _ _ _ _ _ _ _ _ _ _ _ _ _ _ _ _
 72
    65
 73
     2
 40
0.1875
 49
0.125
 49
-0.0625
  0
LTYPE
  2
AMZIGZAG2
 70
     0
  3
/\/-/\/-/\/-/\/-/\/-/\/
 72
    65
 73
     2
 40
0.4401
 49
0.0001
 49
-0.4400000000000002
  0
LTYPE
  2
ACANSTGB
 70
     0
  3
__ . . __ . .
 72
    65
 73
     6
 40
0.35433070866
 49
0.15748031496
 49
-0.03937007874
 49
0.03937007874
 49
-0.03937007874
 49
0.03937007874
 49
-0.03937007874
  0
LTYPE
  2
ACANSTGL
 70
     0
  3
_ _ _ _ _
 72
    65
 73
     2
 40
0.11811023622
 49
0.07874015748
 49
-0.03937007874
  0
ENDTAB
  0
TABLE
  2
LAYER
 70
     7
  0
LAYER
  2
0
 70
     0
 62
     7
  6
CONTINUOUS
  0
LAYER
  2
AM_0
 70
     0
 62
     7
  6
CONTINUOUS
  0
LAYER
  2
AM_5
 70
     0
 62
     2
  6
CONTINUOUS
  0
LAYER
  2
DEFPOINTS
 70
     0
 62
     7
  6
CONTINUOUS
  0
LAYER
  2
ｶｸﾚｾﾝ2
 70
     0
 62
     3
  6
GEN3B
  0
LAYER
  2
ﾁｭｳｼﾝｾﾝ
 70
     0
 62
     1
  6
GEN7
  0
LAYER
  2
ﾁｭｳｼﾝｾﾝ1
 70
     0
 62
     1
  6
GEN7A
  0
ENDTAB
  0
TABLE
  2
STYLE
 70
     9
  0
STYLE
  2
STANDARD
 70
     0
 40
0.0
 41
0.8299999999999999
 50
0.0
 71
     0
 42
2.5
  3
txt.shx
  4
bigfont.shx
  0
STYLE
  2
ANNOTATIVE
 70
     0
 40
0.0
 41
1.0
 50
0.0
 71
     0
 42
0.2
  3
txt
  4

  0
STYLE
  2

 70
     1
 40
0.0
 41
1.0
 50
0.0
 71
     0
 42
2.5
  3
ltypeshp.shx
  4

  0
STYLE
  2
ACISOTS
 70
     0
 40
1.0
 41
1.0
 50
0.0
 71
     0
 42
2.5
  3
isocp.shx
  4
extfont.shx
  0
STYLE
  2
ACISOGDT
 70
     0
 40
0.0
 41
1.0
 50
0.0
 71
     0
 42
2.5
  3
amgdt.shx
  4

  0
STYLE
  2
ACANSTS
 70
     0
 40
1.0
 41
1.0
 50
0.0
 71
     0
 42
2.5
  3
romans.shx
  4
bigfont.shx
  0
STYLE
  2
ACANSGDT
 70
     0
 40
0.0
 41
1.0
 50
0.0
 71
     0
 42
2.5
  3
amgdt.shx
  4

  0
STYLE
  2
ACJISTS
 70
     0
 40
1.0
 41
1.0
 50
0.0
 71
     0
 42
2.5
  3
isocp.shx
  4
bigfont.shx
  0
STYLE
  2
ACJISGDT
 70
     0
 40
0.0
 41
1.0
 50
0.0
 71
     0
 42
2.5
  3
amgdt.shx
  4

  0
ENDTAB
  0
TABLE
  2
VIEW
 70
     6
  0
VIEW
  2
AM_VIEW1
 70
     0
 40
462.5
 10
416.07965009208078
 20
693.75
 41
832.15930018416213
 11
0.0
 21
0.0
 31
1.0
 12
0.0
 22
0.0
 32
0.0
 42
50.0
 43
0.0
 44
0.0
 50
0.0
 71
     0
  0
VIEW
  2
AM_VIEW2
 70
     0
 40
462.5
 10
1006.420349907918
 20
693.75
 41
832.15930018416213
 11
0.0
 21
0.0
 31
1.0
 12
0.0
 22
0.0
 32
0.0
 42
50.0
 43
0.0
 44
0.0
 50
0.0
 71
     0
  0
VIEW
  2
AM_VIEW3
 70
     0
 40
462.5
 10
416.07965009208078
 20
231.25
 41
832.15930018416213
 11
0.0
 21
0.0
 31
1.0
 12
0.0
 22
0.0
 32
0.0
 42
50.0
 43
0.0
 44
0.0
 50
0.0
 71
     0
  0
VIEW
  2
AM_VIEW4
 70
     0
 40
462.5
 10
1006.420349907918
 20
231.25
 41
832.15930018416213
 11
0.0
 21
0.0
 31
1.0
 12
0.0
 22
0.0
 32
0.0
 42
50.0
 43
0.0
 44
0.0
 50
0.0
 71
     0
  0
VIEW
  2
AM_VIEW5
 70
     0
 40
462.5
 10
711.24999999999966
 20
462.5
 41
832.15930018416179
 11
0.0
 21
0.0
 31
1.0
 12
0.0
 22
0.0
 32
0.0
 42
50.0
 43
0.0
 44
0.0
 50
0.0
 71
     0
  0
VIEW
  2
AM_VIEW6
 70
     0
 40
924.99075000000005
 10
711.24999999999966
 20
462.5
 41
1664.3019571823199
 11
0.0
 21
0.0
 31
1.0
 12
0.0
 22
0.0
 32
0.0
 42
50.0
 43
0.0
 44
0.0
 50
0.0
 71
     0
  0
ENDTAB
  0
TABLE
  2
UCS
 70
     0
  0
ENDTAB
  0
TABLE
  2
APPID
 70
    95
  0
APPID
  2
ACAD
 70
     0
  0
APPID
  2
ACADANNOTATIVE
 70
     0
  0
APPID
  2
MCAD_NO_VIS
 70
     0
  0
APPID
  2
ACAD_TEMP_GRAPHIC
 70
     0
  0
APPID
  2
ACATTRIBSERVICES
 70
     0
  0
APPID
  2
GENIUS_GENREC_14
 70
     0
  0
APPID
  2
GENIUS_GENOBJ-N-REC_13
 70
     0
  0
APPID
  2
GENIUS_GENODEF_13
 70
     0
  0
APPID
  2
GENIUS_GENOLIS_13
 70
     0
  0
APPID
  2
GENIUS_GENOBJ-N-TIT_13
 70
     0
  0
APPID
  2
GENIUS_GENOENT_13
 70
     0
  0
APPID
  2
GENIUS_GENTITLE_13
 70
     0
  0
APPID
  2
GENIUS_GENOREF_13
 70
     0
  0
APPID
  2
GENIUS_GENSCREG_15
 70
     0
  0
APPID
  2
GENIUS_GENOBJ-N-SDF_13
 70
     0
  0
APPID
  2
GENIUS_GENFIL_13
 70
     0
  0
APPID
  2
GENIUS_GENOBJ-N-CHA_13
 70
     0
  0
APPID
  2
GENIUS_GENDTOL_13
 70
     0
  0
APPID
  2
GENIUS_GENOBJ-N-FIL_13
 70
     0
  0
APPID
  2
AD_DRAW
 70
     0
  0
APPID
  2
DESIGNERASSEMBLIES
 70
     0
  0
APPID
  2
ASURF_PCURVE_APPNAME
 70
     0
  0
APPID
  2
GENIUS_GE3SECT_13
 70
     0
  0
APPID
  2
GENIUS_GENCFG_13
 70
     0
  0
APPID
  2
GENIUS_GE3CFG0_13
 70
     0
  0
APPID
  2
GENIUS_GENCFG0_13
 70
     0
  0
APPID
  2
GENIUS_GENCFG1_13
 70
     0
  0
APPID
  2
GENIUS_GENCFG2_13
 70
     0
  0
APPID
  2
GENIUS_GENCFG3_13
 70
     0
  0
APPID
  2
GENIUS_GENCFG4_13
 70
     0
  0
APPID
  2
GENIUS_GEVCFG0_13
 70
     0
  0
APPID
  2
GENIUS_GENHINW_13
 70
     0
  0
APPID
  2
GENIUS_FIRSTVISTXT_14
 70
     0
  0
APPID
  2
GENIUS_GENOBJ-N-LEADER_13
 70
     0
  0
APPID
  2
GEV_VCCNULL_SWITCH_OFF
 70
     0
  0
APPID
  2
GENIUS_GEFCFG0_13
 70
     0
  0
APPID
  2
GENIUS_GENZVEED_13
 70
     0
  0
APPID
  2
GENIUS_GENSCREG_13
 70
     0
  0
APPID
  2
GENIUS_DUMCFG0_13
 70
     0
  0
APPID
  2
GEVID936201362
 70
     0
  0
APPID
  2
GEVDC
 70
     0
  0
APPID
  2
GEVCON
 70
     0
  0
APPID
  2
VCC
 70
     0
  0
APPID
  2
GEVPT
 70
     0
  0
APPID
  2
GEVIT
 70
     0
  0
APPID
  2
GENBH
 70
     0
  0
APPID
  2
GEVMK
 70
     0
  0
APPID
  2
GENIUS_GENBH_13
 70
     0
  0
APPID
  2
GENIUS_GENOBJ-NBEHI-BHF_13
 70
     0
  0
APPID
  2
GENIUS_GENOBJ-NBEHI-BHB_13
 70
     0
  0
APPID
  2
GENIUS_GENOBJ-F-DESC_13
 70
     0
  0
APPID
  2
GENIUS_GEFDESC_14
 70
     0
  0
APPID
  2
GENIUS_GENOBJ-F-PART_13
 70
     0
  0
APPID
  2
GENIUS_GEFSTDP_13
 70
     0
  0
APPID
  2
GENIUS_GEFPARTINS_13
 70
     0
  0
APPID
  2
GENIUS_GENTRA_14
 70
     0
  0
APPID
  2
GENIUS_GENINF13_13
 70
     0
  0
APPID
  2
GENIUS_GENOBJ-N-INFOPT_13
 70
     0
  0
APPID
  2
GENIUS_GENOBJ-N-RSSYM_13
 70
     0
  0
APPID
  2
GENIUS_GENSYMENT_13
 70
     0
  0
APPID
  2
GENIUS_GENSCSYM_13
 70
     0
  0
APPID
  2
GENIUS_GEFINFNAM_13
 70
     0
  0
APPID
  2
GENIUS_GENOBJ-N-CEN_13
 70
     0
  0
APPID
  2
GENIUS_GENOBJ-N-CRS_13
 70
     0
  0
APPID
  2
GENIUS_GENOBJ-N-CRC_13
 70
     0
  0
APPID
  2
GENIUS_GENCRC_14
 70
     0
  0
APPID
  2
GEVID942827039
 70
     0
  0
APPID
  2
GEVID942827040
 70
     0
  0
APPID
  2
GEVID942827041
 70
     0
  0
APPID
  2
GENIUS_GENOBJ-F-SCPASSM_13
 70
     0
  0
APPID
  2
GENIUS_GENDIMSH_14
 70
     0
  0
APPID
  2
GEVID942827042
 70
     0
  0
APPID
  2
GEVID946020473
 70
     0
  0
APPID
  2
GEVID946020474
 70
     0
  0
APPID
  2
GEVID946020475
 70
     0
  0
APPID
  2
GENIUS_GENOBJ-N-HTC_13
 70
     0
  0
APPID
  2
GENIUS_GENHATCH_13
 70
     0
  0
APPID
  2
GEVID948854295
 70
     0
  0
APPID
  2
GEVID939402019
 70
     0
  0
APPID
  2
GEVID952919491
 70
     0
  0
APPID
  2
GEVID952919492
 70
     0
  0
APPID
  2
GENIUS_GEFWELD_13
 70
     0
  0
APPID
  2
GENIUS_GENOBJ-F-WELS_13
 70
     0
  0
APPID
  2
GEVID952919493
 70
     0
  0
APPID
  2
GENIUS_GENOBJ-N-RSBK_13
 70
     0
  0
APPID
  2
GENIUS_GENOBJ-N-LIB_13
 70
     0
  0
APPID
  2
GENIUS_GENSCALE_13
 70
     0
  0
APPID
  2
GEVID986376691
 70
     0
  0
APPID
  2
DCO15
 70
     0
  0
APPID
  2
ACAD_DSTYLE_DIMBREAK
 70
     0
  0
APPID
  2
ACAD_DSTYLE_DIMJAG
 70
     0
  0
APPID
  2
ACAD_NAV_VCDISPLAY
 70
     0
  0
APPID
  2
ACADANNOPO
 70
     0
  0
APPID
  2
ACAD_EXEMPT_FROM_CAD_STANDARDS
 70
     0
  0
APPID
  2
ACAD_MLEADERVER
 70
     0
  0
ENDTAB
  0
TABLE
  2
DIMSTYLE
 70
    22
  0
DIMSTYLE
  2
STANDARD
 70
     0
  3

  4

  5

  6

  7

 40
1.0
 41
0.18
 42
0.0625
 43
0.38
 44
0.18
 45
0.0
 46
0.0
 47
0.0
 48
0.0
140
0.18
141
0.09
142
0.0
143
25.399999999999999
144
1.0
145
0.0
146
1.0
147
0.09
 71
     0
 72
     0
 73
     1
 74
     1
 75
     0
 76
     0
 77
     0
 78
     0
170
     0
171
     2
172
     0
173
     0
174
     0
175
     0
176
     0
177
     0
178
     0
  0
DIMSTYLE
  2
ANNOTATIVE
 70
     0
  3

  4

  5

  6

  7

 40
1.0
 41
0.18
 42
0.0625
 43
0.38
 44
0.18
 45
0.0
 46
0.0
 47
0.0
 48
0.0
140
0.18
141
0.09
142
0.0
143
25.399999999999999
144
1.0
145
0.0
146
1.0
147
0.09
 71
     0
 72
     0
 73
     1
 74
     1
 75
     0
 76
     0
 77
     0
 78
     0
170
     0
171
     2
172
     0
173
     0
174
     0
175
     0
176
     0
177
     0
178
     0
  0
DIMSTYLE
  2
AM_ISO
 70
     0
  3

  4
"
  5

  6

  7

 40
1.0
 41
2.5
 42
1.0
 43
8.0
 44
0.6
 45
0.0
 46
0.0
 47
0.1
 48
0.1
140
2.5
141
0.0
142
0.0
143
0.0393701
144
1.0
145
0.0
146
0.71
147
0.8
 71
     0
 72
     0
 73
     0
 74
     0
 75
     0
 76
     0
 77
     1
 78
     8
170
     0
171
     2
172
     1
173
     0
174
     0
175
     0
176
   256
177
   256
178
     4
  0
DIMSTYLE
  2
AM_ISO$3
 70
     0
  3

  4
"
  5

  6

  7

 40
1.0
 41
2.5
 42
1.0
 43
8.0
 44
0.6
 45
0.0
 46
0.0
 47
0.1
 48
0.1
140
2.5
141
0.0
142
0.0
143
0.0393701
144
1.0
145
0.0
146
0.71
147
0.8
 71
     0
 72
     0
 73
     0
 74
     1
 75
     0
 76
     0
 77
     1
 78
     8
170
     0
171
     2
172
     0
173
     0
174
     0
175
     0
176
   256
177
   256
178
     4
  0
DIMSTYLE
  2
AM_ISO$4
 70
     0
  3

  4
"
  5

  6

  7

 40
1.0
 41
2.5
 42
1.0
 43
8.0
 44
0.6
 45
0.0
 46
0.0
 47
0.1
 48
0.1
140
2.5
141
0.0
142
0.0
143
0.0393701
144
1.0
145
0.0
146
0.71
147
0.8
 71
     0
 72
     0
 73
     0
 74
     1
 75
     0
 76
     0
 77
     1
 78
     8
170
     0
171
     2
172
     0
173
     0
174
     0
175
     0
176
   256
177
   256
178
     4
  0
DIMSTYLE
  2
AM_ISO$6
 70
     0
  3

  4
"
  5

  6

  7

 40
1.0
 41
2.5
 42
1.0
 43
8.0
 44
0.6
 45
0.0
 46
0.0
 47
0.1
 48
0.1
140
2.5
141
0.0
142
0.0
143
0.0393701
144
1.0
145
0.0
146
0.71
147
0.8
 71
     0
 72
     0
 73
     0
 74
     0
 75
     0
 76
     0
 77
     0
 78
     8
170
     0
171
     2
172
     1
173
     0
174
     0
175
     0
176
   256
177
   256
178
     4
  0
DIMSTYLE
  2
AM_ISO$7
 70
     0
  3

  4
"
  5

  6

  7

 40
1.0
 41
2.5
 42
1.0
 43
8.0
 44
0.6
 45
0.0
 46
0.0
 47
0.1
 48
0.1
140
2.5
141
0.0
142
0.0
143
0.0393701
144
1.0
145
0.0
146
0.71
147
0.8
 71
     0
 72
     0
 73
     0
 74
     0
 75
     0
 76
     0
 77
     1
 78
     8
170
     0
171
     2
172
     1
173
     0
174
     0
175
     0
176
   256
177
   256
178
     4
  0
DIMSTYLE
  2
AM_ISO$SF
 70
     0
  3

  4
"
  5

  6

  7

 40
1.0
 41
2.5
 42
1.0
 43
10.0
 44
1.0
 45
0.0
 46
0.0
 47
0.1
 48
0.1
140
3.5
141
0.0
142
0.0
143
0.0393701
144
1.0
145
0.0
146
0.71
147
1.5
 71
     0
 72
     0
 73
     0
 74
     0
 75
     1
 76
     1
 77
     1
 78
     8
170
     0
171
     2
172
     1
173
     0
174
     0
175
     0
176
   256
177
   256
178
     2
  0
DIMSTYLE
  2
AM_ISO$SH
 70
     0
  3

  4
"
  5

  6

  7

 40
1.0
 41
2.5
 42
1.0
 43
10.0
 44
1.0
 45
0.0
 46
0.0
 47
0.1
 48
0.1
140
3.5
141
0.0
142
0.0
143
0.0393701
144
2.0
145
0.0
146
0.71
147
1.5
 71
     0
 72
     0
 73
     0
 74
     0
 75
     1
 76
     1
 77
     1
 78
     8
170
     0
171
     2
172
     1
173
     1
174
     0
175
     0
176
   256
177
   256
178
     2
  0
DIMSTYLE
  2
AM_JIS
 70
     0
  3

  4
"
  5

  6

  7

 40
1.0
 41
2.5
 42
1.0
 43
7.0
 44
1.0
 45
0.0
 46
0.0
 47
0.1
 48
0.1000000001
140
2.5
141
0.0
142
0.0
143
0.0393701
144
1.0
145
0.0
146
0.71
147
1.0
 71
     0
 72
     0
 73
     0
 74
     0
 75
     0
 76
     0
 77
     3
 78
     8
170
     0
171
     2
172
     1
173
     0
174
     0
175
     0
176
   256
177
   256
178
     4
  0
DIMSTYLE
  2
AM_JIS$3
 70
     0
  3

  4
"
  5

  6

  7

 40
1.0
 41
2.5
 42
1.0
 43
7.0
 44
1.0
 45
0.0
 46
0.0
 47
0.1
 48
0.1000000001
140
2.5
141
0.0
142
0.0
143
0.0393701
144
1.0
145
0.0
146
0.71
147
1.0
 71
     0
 72
     0
 73
     0
 74
     1
 75
     0
 76
     0
 77
     3
 78
     8
170
     0
171
     2
172
     0
173
     0
174
     0
175
     0
176
   256
177
   256
178
     4
  0
DIMSTYLE
  2
AM_JIS$4
 70
     0
  3

  4
"
  5

  6

  7

 40
1.0
 41
2.5
 42
1.0
 43
7.0
 44
1.0
 45
0.0
 46
0.0
 47
0.1
 48
0.1000000001
140
2.5
141
0.0
142
0.0
143
0.0393701
144
1.0
145
0.0
146
0.71
147
1.0
 71
     0
 72
     0
 73
     0
 74
     0
 75
     0
 76
     0
 77
     3
 78
     8
170
     0
171
     2
172
     0
173
     0
174
     0
175
     0
176
   256
177
   256
178
     4
  0
DIMSTYLE
  2
AM_JIS$6
 70
     0
  3

  4
"
  5

  6

  7

 40
1.0
 41
2.5
 42
1.0
 43
7.0
 44
1.0
 45
0.0
 46
0.0
 47
0.1
 48
0.1000000001
140
2.5
141
0.0
142
0.0
143
0.0393701
144
1.0
145
0.0
146
0.71
147
1.0
 71
     0
 72
     0
 73
     0
 74
     0
 75
     0
 76
     0
 77
     0
 78
     8
170
     0
171
     2
172
     1
173
     0
174
     0
175
     0
176
   256
177
   256
178
     4
  0
DIMSTYLE
  2
AM_JIS$7
 70
     0
  3

  4
"
  5

  6

  7

 40
1.0
 41
2.5
 42
1.0
 43
7.0
 44
1.0
 45
0.0
 46
0.0
 47
0.1
 48
0.1000000001
140
2.5
141
0.0
142
0.0
143
0.0393701
144
1.0
145
0.0
146
0.71
147
1.0
 71
     0
 72
     0
 73
     0
 74
     0
 75
     0
 76
     0
 77
     3
 78
     8
170
     0
171
     2
172
     1
173
     0
174
     0
175
     0
176
   256
177
   256
178
     4
  0
DIMSTYLE
  2
AM_JIS$SF
 70
     0
  3

  4
"
  5

  6

  7

 40
1.0
 41
2.5
 42
1.0
 43
10.0
 44
1.0
 45
0.0
 46
0.0
 47
0.1
 48
0.1
140
3.5
141
0.0
142
0.0
143
0.0393701
144
1.0
145
0.0
146
0.71
147
1.5
 71
     0
 72
     0
 73
     0
 74
     0
 75
     1
 76
     1
 77
     3
 78
     8
170
     0
171
     2
172
     1
173
     0
174
     0
175
     0
176
   256
177
   256
178
     4
  0
DIMSTYLE
  2
AM_JIS$SH
 70
     0
  3

  4
"
  5

  6

  7

 40
1.0
 41
2.5
 42
1.0
 43
10.0
 44
1.0
 45
0.0
 46
0.0
 47
0.1
 48
0.1
140
3.5
141
0.0
142
0.0
143
0.0393701
144
1.0
145
0.0
146
0.71
147
1.5
 71
     0
 72
     0
 73
     0
 74
     0
 75
     1
 76
     0
 77
     3
 78
     8
170
     0
171
     2
172
     1
173
     1
174
     0
175
     0
176
   256
177
   256
178
     4
  0
DIMSTYLE
  2
AM_ANSI
 70
     0
  3

  4
mm
  5

  6

  7

 40
1.0
 41
0.1
 42
0.05
 43
0.5
 44
0.1
 45
0.0
 46
0.0
 47
0.1
 48
0.1
140
0.12
141
0.0
142
0.0
143
25.399999999999999
144
1.0
145
0.0
146
0.71
147
0.06
 71
     0
 72
     0
 73
     1
 74
     1
 75
     0
 76
     0
 77
     0
 78
     7
170
     0
171
     2
172
     0
173
     0
174
     0
175
     0
176
   256
177
   256
178
     2
  0
DIMSTYLE
  2
AM_ANSI$3
 70
     0
  3

  4
mm
  5

  6

  7

 40
1.0
 41
0.1
 42
0.05
 43
0.5
 44
0.1
 45
0.0
 46
0.0
 47
0.1
 48
0.1
140
0.12
141
0.0
142
0.0
143
25.399999999999999
144
1.0
145
0.0
146
0.71
147
0.06
 71
     0
 72
     0
 73
     1
 74
     1
 75
     0
 76
     0
 77
     0
 78
     7
170
     0
171
     2
172
     0
173
     0
174
     0
175
     0
176
   256
177
   256
178
     2
  0
DIMSTYLE
  2
AM_ANSI$4
 70
     0
  3

  4
mm
  5

  6

  7

 40
1.0
 41
0.1
 42
0.05
 43
0.5
 44
0.1
 45
0.0
 46
0.0
 47
0.1
 48
0.1
140
0.12
141
0.0
142
0.0
143
25.399999999999999
144
1.0
145
0.0
146
0.71
147
0.06
 71
     0
 72
     0
 73
     1
 74
     1
 75
     0
 76
     0
 77
     0
 78
     7
170
     0
171
     2
172
     0
173
     0
174
     0
175
     0
176
   256
177
   256
178
     2
  0
DIMSTYLE
  2
AM_ANSI$7
 70
     0
  3

  4
mm
  5

  6

  7

 40
1.0
 41
0.1
 42
0.05
 43
0.5
 44
0.1
 45
0.0
 46
0.0
 47
0.1
 48
0.1
140
0.24
141
0.0
142
0.0
143
25.399999999999999
144
1.0
145
0.0
146
0.71
147
0.06
 71
     0
 72
     0
 73
     1
 74
     1
 75
     0
 76
     0
 77
     0
 78
     7
170
     0
171
     2
172
     0
173
     0
174
     0
175
     0
176
   256
177
   256
178
     2
  0
DIMSTYLE
  2
AM_ANSI$SF
 70
     0
  3

  4
mm
  5

  6

  7

 40
1.0
 41
0.1
 42
0.05
 43
0.5
 44
0.1
 45
0.0
 46
0.0
 47
0.1
 48
0.1
140
0.12
141
0.0
142
0.0
143
25.399999999999999
144
1.0
145
0.0
146
0.71
147
0.06
 71
     0
 72
     0
 73
     1
 74
     1
 75
     1
 76
     1
 77
     0
 78
     7
170
     0
171
     2
172
     0
173
     0
174
     0
175
     0
176
   256
177
   256
178
     2
  0
DIMSTYLE
  2
AM_ANSI$SH
 70
     0
  3

  4
mm
  5

  6

  7

 40
1.0
 41
0.1
 42
0.05
 43
0.5
 44
0.1
 45
0.0
 46
0.0
 47
0.1
 48
0.1
140
0.12
141
0.0
142
0.0
143
25.399999999999999
144
1.0
145
0.0
146
0.71
147
0.06
 71
     0
 72
     0
 73
     1
 74
     1
 75
     1
 76
     1
 77
     0
 78
     7
170
     0
171
     2
172
     0
173
     1
174
     0
175
     0
176
   256
177
   256
178
     2
  0
ENDTAB
  0
ENDSEC
  0
SECTION
  2
BLOCKS
  0
BLOCK
  8
0
  2
$MODEL_SPACE
 70
     0
 10
0.0
 20
0.0
 30
0.0
  3
$MODEL_SPACE
  1

  0
ENDBLK
  5
3CA2
  8
0
  0
BLOCK
 67
     1
  8
0
  2
$PAPER_SPACE
 70
     0
 10
0.0
 20
0.0
 30
0.0
  3
$PAPER_SPACE
  1

  0
ENDBLK
  5
3C9E
 67
     1
  8
0
  0
BLOCK
  8
0
  2
GENAXEH
 70
     0
 10
0.0
 20
0.0
 30
0.0
  3
GENAXEH
  1

  0
LINE
  5
3A29
  8
0
 10
-1.0
 20
0.0
 30
0.0
 11
1.0
 21
0.0
 31
0.0
  0
ENDBLK
  5
3A2A
  8
0
  0
BLOCK
  8
0
  2
_OPEN30
 70
     0
 10
0.0
 20
0.0
 30
0.0
  3
_OPEN30
  1

  0
LINE
  5
3A2D
  8
0
 62
     0
 10
-1.0
 20
0.26794919
 30
0.0
 11
0.0
 21
0.0
 31
0.0
  0
LINE
  5
3A2E
  8
0
 62
     0
 10
0.0
 20
0.0
 30
0.0
 11
-1.0
 21
-0.26794919
 31
0.0
  0
LINE
  5
3A2F
  8
0
 62
     0
 10
0.0
 20
0.0
 30
0.0
 11
-1.0
 21
0.0
 31
0.0
  0
ENDBLK
  5
3A30
  8
0
  0
BLOCK
  8
0
  2
_NONE
 70
     0
 10
0.0
 20
0.0
 30
0.0
  3
_NONE
  1

  0
ENDBLK
  5
3A33
  8
0
  0
BLOCK
  8
0
  2
_ACMFILLEDHALF
 70
     0
 10
0.0
 20
0.0
 30
0.0
  3
_ACMFILLEDHALF
  1

  0
TRACE
  5
3D9A
  8
AM_0
 62
     0
 10
-0.8
 20
0.0
 30
0.0
 11
-1.0
 21
0.166666666
 31
0.0
 12
0.0
 22
0.0
 32
0.0
 13
0.0
 23
0.0
 33
0.0
  0
LINE
  5
3D9B
  8
AM_0
 62
     0
 10
-1.0
 20
0.0
 30
0.0
 11
-0.8
 21
0.0
 31
0.0
  0
ENDBLK
  5
3D99
  8
0
  0
ENDSEC
  0
SECTION
  2
ENTITIES
  0
LINE
  5
3A35
  8
ﾁｭｳｼﾝｾﾝ
 10
370.64657468639041
 20
832.70808178607024
 30
0.0
 11
696.31088648947912
 21
832.70808178607024
 31
0.0
  0
LINE
  5
3A36
  8
AM_0
 10
431.29684648947892
 20
759.20808178607024
 30
0.0
 11
431.29684648947892
 21
906.20814178607054
 31
0.0
  0
LINE
  5
3A37
  8
AM_0
 10
507.79690648947877
 20
783.14351178607058
 30
0.0
 11
507.79690648947877
 21
882.27266178607044
 31
0.0
  0
LINE
  5
3A38
  8
AM_0
 10
582.79690648947894
 20
741.70808178607024
 30
0.0
 11
582.79690648947894
 21
923.70808178607035
 31
0.0
  0
LINE
  5
3A39
  8
AM_0
 10
610.79690648947894
 20
872.46541178607072
 30
0.0
 11
610.79690648947894
 21
798.95076178607053
 31
0.0
  0
LINE
  5
3A3A
  8
AM_0
 10
492.79690648947889
 20
692.97011178607045
 30
0.0
 11
492.79690648947889
 21
828.70808178607058
 31
0.0
  0
LINE
  5
3A3B
  8
AM_0
 10
604.79690648947894
 20
918.58870178607049
 30
0.0
 11
604.79690648947894
 21
746.82747178607053
 31
0.0
  0
LINE
  5
3A3C
  8
AM_0
 10
684.79690648947894
 20
811.70808178607058
 30
0.0
 11
684.79690648947894
 21
853.70808178607058
 31
0.0
  0
LINE
  5
3A3D
  8
AM_0
 10
614.79690648947894
 20
810.20808178607058
 30
0.0
 11
614.79690648947894
 21
855.20808178607012
 31
0.0
  0
LINE
  5
3A3E
  8
AM_0
 10
479.79684648947892
 20
696.49831178607053
 30
0.0
 11
479.79684648947892
 21
823.16865178607054
 31
0.0
  0
LINE
  5
3A3F
  8
AM_0
 10
465.79690648947877
 20
718.60011178607056
 30
0.0
 11
465.79690648947877
 21
828.70808178607058
 31
0.0
  0
ARC
  5
3A40
  8
AM_0
 10
572.79690648947894
 20
723.70808178607058
 30
0.0
 40
10.0
 50
90.00000299999769
 51
180.00001000000091
  0
ARC
  5
3A41
  8
AM_0
 10
567.79690648947894
 20
700.15559178607054
 30
0.0
 40
5.0
 50
180.00001000000091
 51
271.99999000000139
  0
ARC
  5
3A42
  8
AM_0
 10
554.79690648947894
 20
718.16426178607048
 30
0.0
 40
8.0
 50
272.00000000000369
 51
0.0
  0
LINE
  5
3A43
  8
AM_0
 10
497.79684648947892
 20
692.70808178607047
 30
0.0
 11
606.93643648947909
 21
696.51936178607048
 31
0.0
  0
LINE
  5
3A44
  8
AM_0
 10
481.72708648947912
 20
703.96431178607054
 30
0.0
 11
492.79690648947889
 21
703.57771178607061
 31
0.0
  0
LINE
  5
3A45
  8
AM_0
 10
479.79684648947892
 20
781.14351178607023
 30
0.0
 11
505.79690648947889
 21
781.14351178607023
 31
0.0
  0
LINE
  5
3A46
  8
AM_0
 10
479.79684648947892
 20
755.1422917860707
 30
0.0
 11
505.79690648947889
 21
755.1422917860707
 31
0.0
  0
LINE
  5
3A47
  8
AM_0
 10
422.5875564894788
 20
696.6496717860706
 30
0.0
 11
497.79690648947877
 21
692.70808178607047
 31
0.0
  0
CIRCLE
  5
3A48
  8
AM_0
 10
439.79690648947877
 20
717.70808178607047
 30
0.0
 40
9.5
  0
LINE
  5
3A49
  8
AM_0
 10
422.448336489479
 20
741.11592178607054
 30
0.0
 11
465.79697648947888
 21
744.9084017860705
 31
0.0
  0
LINE
  5
3A4A
  8
AM_0
 10
418.79690648947877
 20
700.64412178607051
 30
0.0
 11
418.79690648947877
 21
737.13118178607056
 31
0.0
  0
ARC
  5
3A4B
  8
AM_0
 10
422.79690648947877
 20
700.64412178607051
 30
0.0
 40
4.0
 50
180.00001000000091
 51
266.99999000000008
  0
ARC
  5
3A4C
  8
AM_0
 10
422.79690648947877
 20
737.13118178607056
 30
0.0
 40
4.0
 50
95.00000199999856
 51
180.00001000000091
  0
ARC
  5
3A4D
  8
AM_0
 10
471.79690648947889
 20
706.99812178607056
 30
0.0
 40
5.0
 50
180.00001000000091
 51
277.13983000000007
  0
ARC
  5
3A4E
  8
AM_0
 10
468.79690648947877
 20
718.58351178607052
 30
0.0
 40
3.0
 50
179.9999899999988
 51
260.00000000000119
  0
LINE
  5
3A4F
  8
AM_0
 10
466.79690648947889
 20
695.31288178607053
 30
0.0
 11
466.79690648947889
 21
703.16157178607045
 31
0.0
  0
ARC
  5
3A50
  8
AM_0
 10
481.79690648947877
 20
705.96309178607055
 30
0.0
 40
2.0
 50
179.9999899999988
 51
268.00000999999861
  0
LINE
  5
3A51
  8
AM_0
 10
479.79690648947889
 20
702.9611317860705
 30
0.0
 11
472.41830648947888
 21
702.03688178607047
 31
0.0
  0
ARC
  5
3A52
  8
AM_0
 10
482.79684648947892
 20
696.49831178607053
 30
0.0
 40
3.0
 50
180.00001000000091
 51
266.99999000000008
  0
LINE
  5
3A53
  8
AM_0
 10
468.27591648947907
 20
715.6290417860705
 30
0.0
 11
477.31784648947888
 21
714.03474178607053
 31
0.0
  0
ARC
  5
3A54
  8
AM_0
 10
476.79690648947877
 20
711.08040178607052
 30
0.0
 40
3.0
 50
0.0
 51
79.999998000001099
  0
LINE
  5
3A55
  8
AM_0
 10
431.29684648947892
 20
759.20808178607024
 30
0.0
 11
460.97140648947891
 21
758.1718317860707
 31
0.0
  0
LINE
  5
3A56
  8
AM_0
 10
431.29690648947877
 20
793.23341178607052
 30
0.0
 11
465.79690648947877
 21
793.23341178607052
 31
0.0
  0
LINE
  5
3A57
  8
AM_0
 10
431.29690648947877
 20
771.12947178607055
 30
0.0
 11
465.79690648947877
 21
771.12947178607055
 31
0.0
  0
ARC
  5
3A58
  8
AM_0
 10
460.79690648947872
 20
753.17488178607027
 30
0.0
 40
5.0
 50
0.0
 51
87.999999999996248
  0
POLYLINE
  5
3A59
  8
AM_0
 66
     1
 10
0.0
 20
0.0
 30
0.0
  0
VERTEX
  5
3A5A
  8
AM_0
 10
512.72660648947885
 20
752.97659178607046
 30
0.0
 42
0.1107572
  0
VERTEX
  5
3A5B
  8
AM_0
 10
525.60756648947904
 20
762.88434178607054
 30
0.0
 42
0.20375856
  0
VERTEX
  5
3A5C
  8
AM_0
 10
527.8652764894789
 20
770.54983178607051
 30
0.0
  0
VERTEX
  5
3A5D
  8
AM_0
 10
513.09547648947876
 20
789.46499178607053
 30
0.0
 42
-1.0
  0
SEQEND
  5
3A5E
  8
AM_0
  0
LINE
  5
3A5F
  8
AM_0
 10
507.79690648947877
 20
706.0329117860706
 30
0.0
 11
507.79690648947877
 21
753.1422917860707
 31
0.0
  0
LINE
  5
3A60
  8
AM_0
 10
509.72714648947908
 20
710.14863178607061
 30
0.0
 11
534.33011648947877
 21
711.00777178607052
 31
0.0
  0
LINE
  5
3A61
  8
AM_0
 10
520.61331648947885
 20
696.54463178607045
 30
0.0
 11
529.98050648947901
 21
706.42146178607061
 31
0.0
  0
LINE
  5
3A62
  8
AM_0
 10
492.79684648947892
 20
703.57771178607061
 30
0.0
 11
505.86673648947902
 21
704.03413178607059
 31
0.0
  0
ARC
  5
3A63
  8
AM_0
 10
505.79690648947889
 20
706.0329117860706
 30
0.0
 40
2.0
 50
272.00000000000369
 51
0.0
  0
LINE
  5
3A64
  8
AM_0
 10
512.29690648947894
 20
696.4709017860705
 30
0.0
 11
512.29690648947894
 21
708.50325178607045
 31
0.0
  0
ARC
  5
3A65
  8
AM_0
 10
513.35757648947902
 20
703.4261017860706
 30
0.0
 40
10.0
 50
272.00000000000369
 51
316.51703999999847
  0
ARC
  5
3A66
  8
AM_0
 10
509.79690648947889
 20
708.14986178607046
 30
0.0
 40
2.0
 50
91.999998000000545
 51
180.00001000000091
  0
ARC
  5
3A67
  8
AM_0
 10
511.82498648947887
 20
754.76185178607068
 30
0.0
 40
2.0
 50
270.0
 51
296.80019999999712
  0
LINE
  5
3A68
  8
AM_0
 10
536.8872464894788
 20
709.53395178607059
 30
0.0
 11
555.07608648947894
 21
710.16914178607055
 31
0.0
  0
ARC
  5
3A69
  8
AM_0
 10
537.23624648947896
 20
699.54005178607053
 30
0.0
 40
10.0
 50
91.999998000000545
 51
136.5170399999985
  0
LINE
  5
3A6A
  8
AM_0
 10
512.29690648947894
 20
755.1422917860707
 30
0.0
 11
512.29690648947894
 21
781.14351178607023
 31
0.0
  0
ARC
  5
3A6B
  8
AM_0
 10
505.79690648947889
 20
753.1422917860707
 30
0.0
 40
2.0
 50
0.0
 51
90.00000299999769
  0
ARC
  5
3A6C
  8
AM_0
 10
505.79690648947889
 20
783.14351178607058
 30
0.0
 40
2.0
 50
270.0
 51
0.0
  0
ARC
  5
3A6D
  8
AM_0
 10
511.34653648947892
 20
787.02754178607051
 30
0.0
 40
3.0
 50
54.348324000004709
 51
90.00000299999769
  0
LINE
  5
3A6E
  8
AM_0
 10
614.79690648947894
 20
811.70808178607058
 30
0.0
 11
684.79690648947894
 21
811.70808178607058
 31
0.0
  0
ARC
  5
3A6F
  8
AM_0
 10
599.79690648947894
 20
751.50728178607051
 30
0.0
 40
5.0
 50
272.00000000000369
 51
0.0
  0
LINE
  5
3A70
  8
ﾁｭｳｼﾝｾﾝ1
 10
572.29690648947894
 20
717.70808178607047
 30
0.0
 11
607.29690648947894
 21
717.70808178607047
 31
0.0
  0
CIRCLE
  5
3A71
  8
AM_0
 10
589.79690648947894
 20
717.70808178607047
 30
0.0
 40
9.5
  0
LINE
  5
3A72
  8
AM_0
 10
562.79690648947894
 20
723.70808178607058
 30
0.0
 11
562.79690648947894
 21
718.16426178607048
 31
0.0
  0
LINE
  5
3A73
  8
ﾁｭｳｼﾝｾﾝ1
 10
589.79690648947894
 20
700.20808178607047
 30
0.0
 11
589.79690648947894
 21
735.20808178607069
 31
0.0
  0
LINE
  5
3A74
  8
AM_0
 10
562.79690648947894
 20
700.15559178607054
 30
0.0
 11
562.79690648947894
 21
718.16426178607048
 31
0.0
  0
ARC
  5
3A75
  8
AM_0
 10
590.40109648947885
 20
738.17128178607061
 30
0.0
 40
8.0
 50
91.999998000000545
 51
167.22924999999881
  0
ARC
  5
3A76
  8
AM_0
 10
574.79690648947894
 20
741.70808178607024
 30
0.0
 40
8.0
 50
270.0
 51
0.0
  0
LINE
  5
3A77
  8
AM_0
 10
572.79690648947894
 20
733.70808178607024
 30
0.0
 11
574.79690648947894
 21
733.70808178607024
 31
0.0
  0
LINE
  5
3A78
  8
AM_0
 10
590.12192648947894
 20
746.16640178607054
 30
0.0
 11
599.97134648947895
 21
746.51033178607054
 31
0.0
  0
LINE
  5
3A79
  8
AM_0
 10
610.79690648947894
 20
700.5169217860705
 30
0.0
 11
610.79690648947894
 21
739.89925178607052
 31
0.0
  0
ARC
  5
3A7A
  8
AM_0
 10
606.79690648947894
 20
700.5169217860705
 30
0.0
 40
4.0
 50
272.00000000000369
 51
0.0
  0
ARC
  5
3A7B
  8
AM_0
 10
606.79690648947894
 20
739.89925178607052
 30
0.0
 40
4.0
 50
0.0
 51
81.786789000000198
  0
ARC
  5
3A7C
  8
AM_0
 10
607.79690648947894
 20
746.82747178607053
 30
0.0
 40
3.0
 50
180.00001000000091
 51
261.78677999999701
  0
ARC
  5
3A7D
  8
AM_0
 10
607.79690648947894
 20
798.95076178607053
 30
0.0
 40
3.0
 50
315.0
 51
0.0
  0
ARC
  5
3A7E
  8
AM_0
 10
607.79690648947894
 20
798.95076178607053
 30
0.0
 40
3.0
 50
315.0
 51
0.0
  0
ARC
  5
3A7F
  8
AM_0
 10
607.79690648947894
 20
790.46541178607049
 30
0.0
 40
3.0
 50
135.0
 51
180.00001000000091
  0
ARC
  5
3A80
  8
AM_0
 10
607.79690648947894
 20
790.46547178607045
 30
0.0
 40
3.0
 50
135.0
 51
180.00001000000091
  0
LINE
  5
3A81
  8
AM_0
 10
605.67575648947877
 20
792.58675178607052
 30
0.0
 11
609.9183664894789
 21
796.82936178607054
 31
0.0
  0
LINE
  5
3A82
  8
AM_0
 10
610.79697648947888
 20
810.20808178607058
 30
0.0
 11
614.79690648947894
 21
810.20808178607058
 31
0.0
  0
ARC
  5
3A83
  8
AM_0
 10
572.79690648947894
 20
941.70808178607035
 30
0.0
 40
10.0
 50
180.00001000000091
 51
270.0
  0
ARC
  5
3A84
  8
AM_0
 10
567.79690648947894
 20
965.26057178607073
 30
0.0
 40
5.0
 50
87.999999999996248
 51
180.00001000000091
  0
ARC
  5
3A85
  8
AM_0
 10
554.79690648947894
 20
947.25191178607065
 30
0.0
 40
8.0
 50
0.0
 51
87.999999999996248
  0
LINE
  5
3A86
  8
AM_0
 10
497.79690648947877
 20
972.70808178607035
 30
0.0
 11
606.93649648947894
 21
968.8968617860703
 31
0.0
  0
CIRCLE
  5
3A87
  8
AM_0
 10
439.79690648947877
 20
947.70808178607035
 30
0.0
 40
9.5
  0
ARC
  5
3A88
  8
AM_0
 10
468.79690648947877
 20
946.8326617860705
 30
0.0
 40
3.0
 50
99.999999999998593
 51
180.00001000000091
  0
LINE
  5
3A89
  8
AM_0
 10
479.79684648947892
 20
842.24751178607039
 30
0.0
 11
479.79684648947892
 21
968.9178617860706
 31
0.0
  0
LINE
  5
3A8A
  8
AM_0
 10
492.79690648947889
 20
836.70808178607058
 30
0.0
 11
492.79690648947889
 21
972.44606178607046
 31
0.0
  0
LINE
  5
3A8B
  8
AM_0
 10
507.79690648947877
 20
959.38325178607045
 30
0.0
 11
507.79690648947877
 21
912.27388178607055
 31
0.0
  0
LINE
  5
3A8C
  8
AM_0
 10
418.79690648947877
 20
964.77199178607054
 30
0.0
 11
418.79690648947877
 21
928.28499178607069
 31
0.0
  0
LINE
  5
3A8D
  8
AM_0
 10
460.29697648947888
 20
836.70808178607058
 30
0.0
 11
493.29697648947888
 21
836.70808178607058
 31
0.0
  0
LINE
  5
3A8E
  8
AM_0
 10
460.29697648947888
 20
828.70808178607058
 30
0.0
 11
493.29697648947888
 21
828.70808178607058
 31
0.0
  0
LINE
  5
3A8F
  8
AM_0
 10
479.79684648947892
 20
910.27388178607043
 30
0.0
 11
505.79690648947889
 21
910.27388178607043
 31
0.0
  0
LINE
  5
3A90
  8
AM_0
 10
479.79684648947892
 20
884.27266178607022
 30
0.0
 11
505.79690648947889
 21
884.27266178607022
 31
0.0
  0
LINE
  5
3A91
  8
AM_0
 10
465.79690648947877
 20
836.70808178607058
 30
0.0
 11
465.79690648947877
 21
946.84926178607066
 31
0.0
  0
LINE
  5
3A92
  8
AM_0
 10
431.29690648947877
 20
872.18275178607041
 30
0.0
 11
465.79690648947877
 21
872.18275178607041
 31
0.0
  0
ARC
  5
3A93
  8
AM_0
 10
476.79697648947888
 20
832.70808178607024
 30
0.0
 40
10.0
 50
203.5782699999985
 51
336.4217200000013
  0
ARC
  5
3A94
  8
AM_0
 10
476.79697648947888
 20
832.70808178607024
 30
0.0
 40
10.0
 50
23.57803699999776
 51
156.42196000000081
  0
ARC
  5
3A95
  8
AM_0
 10
460.29697648947888
 20
832.70808178607024
 30
0.0
 40
3.9999962
 50
90.00000299999769
 51
270.0
  0
LINE
  5
3A96
  8
AM_0
 10
422.44827648947893
 20
924.30025178607059
 30
0.0
 11
465.79697648947888
 21
920.50770178607036
 31
0.0
  0
LINE
  5
3A97
  8
AM_0
 10
431.29690648947877
 20
906.20814178607054
 30
0.0
 11
460.971346489479
 21
907.24440178607028
 31
0.0
  0
LINE
  5
3A98
  8
AM_0
 10
431.29690648947877
 20
894.28670178607058
 30
0.0
 11
465.79690648947877
 21
894.28670178607058
 31
0.0
  0
ARC
  5
3A99
  8
AM_0
 10
422.79690648947877
 20
928.28499178607069
 30
0.0
 40
4.0
 50
180.00001000000091
 51
265.00001000000032
  0
ARC
  5
3A9A
  8
AM_0
 10
460.79690648947872
 20
912.24129178607075
 30
0.0
 40
5.0
 50
272.00000000000369
 51
0.0
  0
POLYLINE
  5
3A9B
  8
AM_0
 66
     1
 10
0.0
 20
0.0
 30
0.0
  0
VERTEX
  5
3A9C
  8
AM_0
 10
512.72660648947885
 20
912.4395717860707
 30
0.0
 42
-0.1107572
  0
VERTEX
  5
3A9D
  8
AM_0
 10
525.60756648947904
 20
902.5318217860704
 30
0.0
 42
-0.20375856
  0
VERTEX
  5
3A9E
  8
AM_0
 10
527.8652764894789
 20
894.86634178607051
 30
0.0
  0
VERTEX
  5
3A9F
  8
AM_0
 10
513.09547648947876
 20
875.95118178607061
 30
0.0
 42
-1.0
  0
SEQEND
  5
3AA0
  8
AM_0
  0
ARC
  5
3AA1
  8
AM_0
 10
493.29697648947888
 20
832.70808178607024
 30
0.0
 40
3.9999962
 50
270.0
 51
90.00000299999769
  0
ARC
  5
3AA2
  8
AM_0
 10
511.34653648947892
 20
878.3886317860705
 30
0.0
 40
3.0
 50
270.0
 51
305.65166999999718
  0
LINE
  5
3AA3
  8
AM_0
 10
512.29690648947894
 20
910.27388178607043
 30
0.0
 11
512.29690648947894
 21
884.27266178607022
 31
0.0
  0
ARC
  5
3AA4
  8
AM_0
 10
505.79690648947889
 20
882.27266178607044
 30
0.0
 40
2.0
 50
0.0
 51
90.00000299999769
  0
ARC
  5
3AA5
  8
AM_0
 10
505.79690648947889
 20
912.27388178607055
 30
0.0
 40
2.0
 50
270.0
 51
0.0
  0
ARC
  5
3AA6
  8
AM_0
 10
511.82498648947887
 20
910.65431178607059
 30
0.0
 40
2.0
 50
63.199809000002318
 51
90.00000299999769
  0
LINE
  5
3AA7
  8
AM_0
 10
422.5875564894788
 20
968.76655178607064
 30
0.0
 11
497.79690648947877
 21
972.70814178607066
 31
0.0
  0
LINE
  5
3AA8
  8
AM_0
 10
481.72714648947903
 20
961.45186178607059
 30
0.0
 11
492.79690648947889
 21
961.83845178607044
 31
0.0
  0
ARC
  5
3AA9
  8
AM_0
 10
422.79690648947877
 20
964.77199178607054
 30
0.0
 40
4.0
 50
92.999999000001679
 51
180.00001000000091
  0
ARC
  5
3AAA
  8
AM_0
 10
471.79690648947889
 20
958.41804178607072
 30
0.0
 40
5.0
 50
82.860167000000104
 51
180.00001000000091
  0
LINE
  5
3AAB
  8
AM_0
 10
466.79690648947889
 20
970.10329178607071
 30
0.0
 11
466.79690648947889
 21
962.2545917860707
 31
0.0
  0
LINE
  5
3AAC
  8
AM_0
 10
479.79690648947889
 20
962.45503178607044
 30
0.0
 11
472.4183664894789
 21
963.37929178607044
 31
0.0
  0
LINE
  5
3AAD
  8
AM_0
 10
468.27603648947888
 20
949.78712178607032
 30
0.0
 11
477.31784648947888
 21
951.38148178607025
 31
0.0
  0
ARC
  5
3AAE
  8
AM_0
 10
476.79690648947877
 20
954.33583178607034
 30
0.0
 40
3.0
 50
280.00001000000128
 51
0.0
  0
ARC
  5
3AAF
  8
AM_0
 10
481.79690648947877
 20
959.45308178607036
 30
0.0
 40
2.0
 50
91.999998000000545
 51
180.00001000000091
  0
ARC
  5
3AB0
  8
AM_0
 10
482.79684648947892
 20
968.9178617860706
 30
0.0
 40
3.0
 50
92.999999000001679
 51
180.00001000000091
  0
LINE
  5
3AB1
  8
AM_0
 10
509.72708648947901
 20
955.26753178607032
 30
0.0
 11
534.33017648947884
 21
954.40834178607042
 31
0.0
  0
LINE
  5
3AB2
  8
AM_0
 10
520.61331648947885
 20
968.87154178607045
 30
0.0
 11
529.98050648947901
 21
958.99470178607055
 31
0.0
  0
LINE
  5
3AB3
  8
AM_0
 10
492.79684648947892
 20
961.83845178607044
 30
0.0
 11
505.86673648947902
 21
961.38203178607046
 31
0.0
  0
LINE
  5
3AB4
  8
AM_0
 10
512.29690648947894
 20
956.98793178607059
 30
0.0
 11
512.29690648947894
 21
968.94136178607039
 31
0.0
  0
ARC
  5
3AB5
  8
AM_0
 10
509.79690648947889
 20
957.26631178607045
 30
0.0
 40
2.0
 50
180.00001000000091
 51
267.99999999999631
  0
ARC
  5
3AB6
  8
AM_0
 10
505.79690648947889
 20
959.38325178607045
 30
0.0
 40
2.0
 50
0.0
 51
87.999999999996248
  0
ARC
  5
3AB7
  8
AM_0
 10
513.35757648947902
 20
961.9900717860703
 30
0.0
 40
10.0
 50
43.482964999999631
 51
87.999999999996248
  0
LINE
  5
3AB8
  8
AM_0
 10
536.8872464894788
 20
955.88222178607043
 30
0.0
 11
555.07608648947894
 21
955.2470217860706
 31
0.0
  0
ARC
  5
3AB9
  8
AM_0
 10
537.23624648947896
 20
965.8761117860704
 30
0.0
 40
10.0
 50
223.48296000000141
 51
267.99999999999631
  0
CIRCLE
  5
3ABA
  8
AM_0
 10
589.79690648947894
 20
947.70808178607035
 30
0.0
 40
9.5
  0
LINE
  5
3ABB
  8
AM_0
 10
562.79690648947894
 20
941.70808178607035
 30
0.0
 11
562.79690648947894
 21
947.25191178607065
 31
0.0
  0
LINE
  5
3ABC
  8
AM_0
 10
610.79690648947894
 20
964.8993117860706
 30
0.0
 11
610.79690648947894
 21
925.51686178607042
 31
0.0
  0
LINE
  5
3ABD
  8
AM_0
 10
628.79690648947894
 20
838.70808178607058
 30
0.0
 11
684.79690648947894
 21
838.70808178607058
 31
0.0
  0
LINE
  5
3ABE
  8
AM_0
 10
628.79690648947894
 20
826.70808178607012
 30
0.0
 11
684.79690648947894
 21
826.70808178607012
 31
0.0
  0
LINE
  5
3ABF
  8
AM_0
 10
614.79690648947894
 20
853.70808178607058
 30
0.0
 11
684.79690648947894
 21
853.70808178607058
 31
0.0
  0
ARC
  5
3AC0
  8
AM_0
 10
628.79690648947894
 20
832.70808178607024
 30
0.0
 40
6.0000037999999991
 50
90.00000299999769
 51
270.0
  0
LINE
  5
3AC1
  8
AM_0
 10
628.79690648947894
 20
838.70808178607058
 30
0.0
 11
628.79690648947894
 21
826.70808178607012
 31
0.0
  0
LINE
  5
3AC2
  8
AM_0
 10
610.79697648947888
 20
855.20808178607012
 30
0.0
 11
614.79690648947894
 21
855.20808178607012
 31
0.0
  0
ARC
  5
3AC3
  8
AM_0
 10
607.79690648947894
 20
872.46541178607072
 30
0.0
 40
3.0
 50
0.0
 51
44.999998000001611
  0
ARC
  5
3AC4
  8
AM_0
 10
607.79690648947894
 20
872.46547178607068
 30
0.0
 40
3.0
 50
0.0
 51
45.000001000003799
  0
ARC
  5
3AC5
  8
AM_0
 10
607.79690648947894
 20
880.95076178607042
 30
0.0
 40
3.0
 50
180.00001000000091
 51
225.0
  0
ARC
  5
3AC6
  8
AM_0
 10
607.79690648947894
 20
880.95076178607042
 30
0.0
 40
3.0
 50
179.9999899999988
 51
225.0
  0
LINE
  5
3AC7
  8
AM_0
 10
605.67563648947885
 20
878.8294217860705
 30
0.0
 11
609.91830648947894
 21
874.58675178607052
 31
0.0
  0
ARC
  5
3AC8
  8
AM_0
 10
599.79690648947894
 20
913.90889178607028
 30
0.0
 40
5.0
 50
0.0
 51
87.999999999996248
  0
ARC
  5
3AC9
  8
AM_0
 10
590.40109648947885
 20
927.24489178607075
 30
0.0
 40
8.0
 50
192.7707500000011
 51
267.99999999999631
  0
ARC
  5
3ACA
  8
AM_0
 10
574.79690648947894
 20
923.70808178607035
 30
0.0
 40
8.0
 50
0.0
 51
90.00000299999769
  0
LINE
  5
3ACB
  8
AM_0
 10
572.79690648947894
 20
931.70808178607035
 30
0.0
 11
574.79690648947894
 21
931.70808178607035
 31
0.0
  0
LINE
  5
3ACC
  8
AM_0
 10
590.12192648947894
 20
919.24977178607014
 30
0.0
 11
599.97140648947891
 21
918.90584178607071
 31
0.0
  0
ARC
  5
3ACD
  8
AM_0
 10
606.79690648947894
 20
925.51686178607042
 30
0.0
 40
4.0
 50
278.2132199999964
 51
0.0
  0
ARC
  5
3ACE
  8
AM_0
 10
607.79690648947894
 20
918.58870178607049
 30
0.0
 40
3.0
 50
98.213209000002095
 51
180.00001000000091
  0
LINE
  5
3ACF
  8
AM_0
 10
562.79690648947894
 20
965.26057178607073
 30
0.0
 11
562.79690648947894
 21
947.25191178607065
 31
0.0
  0
ARC
  5
3AD0
  8
AM_0
 10
606.79690648947894
 20
964.8993117860706
 30
0.0
 40
4.0
 50
0.0
 51
87.999999999996248
  0
LINE
  5
3AD1
  8
ﾁｭｳｼﾝｾﾝ1
 10
589.79690648947894
 20
930.20808178607035
 30
0.0
 11
589.79690648947894
 21
965.20808178607035
 31
0.0
  0
LINE
  5
3AD2
  8
ﾁｭｳｼﾝｾﾝ1
 10
572.29690648947894
 20
947.70808178607035
 30
0.0
 11
607.29690648947894
 21
947.70808178607035
 31
0.0
  0
LINE
  5
3AD3
  8
ﾁｭｳｼﾝｾﾝ1
 10
439.79690648947877
 20
930.20808178607035
 30
0.0
 11
439.79690648947877
 21
965.20808178607035
 31
0.0
  0
LINE
  5
3AD4
  8
ﾁｭｳｼﾝｾﾝ1
 10
422.29690648947889
 20
947.70808178607035
 30
0.0
 11
457.29690648947877
 21
947.70808178607035
 31
0.0
  0
LINE
  5
3AD5
  8
ﾁｭｳｼﾝｾﾝ1
 10
439.79690648947877
 20
700.20808178607047
 30
0.0
 11
439.79690648947877
 21
735.20808178607069
 31
0.0
  0
LINE
  5
3AD6
  8
ﾁｭｳｼﾝｾﾝ1
 10
422.29690648947889
 20
717.70808178607047
 30
0.0
 11
457.29690648947877
 21
717.70808178607047
 31
0.0
  0
LINE
  5
3AD7
  8
AM_0
 10
614.79690648947872
 20
498.01414692799858
 30
0.0
 11
684.79690648947872
 21
498.01414692799858
 31
0.0
  0
LINE
  5
3AD8
  8
ﾁｭｳｼﾝｾﾝ
 10
436.24504216620062
 20
477.01411692799871
 30
0.0
 11
689.26835648947872
 21
477.01411692799871
 31
0.0
  0
LINE
  5
3AD9
  8
AM_0
 10
614.79690648947872
 20
456.01414692799858
 30
0.0
 11
684.79690648947872
 21
456.01414692799858
 31
0.0
  0
LINE
  5
3ADA
  8
AM_0
 10
628.79690648947917
 20
501.01414692799852
 30
0.0
 11
684.79690648947872
 21
501.01414692799852
 31
0.0
  0
ARC
  5
3ADB
  8
AM_0
 10
510.93300648947888
 20
457.52940692799871
 30
0.0
 40
3.0000000500000001
 50
41.102821999997772
 51
90.00000299999769
  0
LINE
  5
3ADC
  8
AM_0
 10
431.29690648947923
 20
365.51414692799852
 30
0.0
 11
431.29690648947923
 21
512.51414692799869
 31
0.0
  0
LINE
  5
3ADD
  8
AM_0
 10
479.79690648947877
 20
343.78834692799848
 30
0.0
 11
479.79690648947877
 21
566.6287869279987
 31
0.0
  0
LINE
  5
3ADE
  8
AM_0
 10
465.7969564894791
 20
327.56657192799861
 30
0.0
 11
465.7969564894791
 21
567.01413692799872
 31
0.0
  0
LINE
  5
3ADF
  8
AM_0
 10
610.79695648947916
 20
477.01411692799871
 30
0.0
 11
610.79695648947916
 21
443.25676192799858
 31
0.0
  0
LINE
  5
3AE0
  8
AM_0
 10
582.79690648947849
 20
380.61198692799849
 30
0.0
 11
582.79690648947849
 21
552.85953692799865
 31
0.0
  0
LINE
  5
3AE1
  8
AM_0
 10
604.79690648947872
 20
477.01411692799871
 30
0.0
 11
604.79690648947872
 21
330.76011692799858
 31
0.0
  0
LINE
  5
3AE2
  8
AM_0
 10
562.79690648947883
 20
511.18699692799851
 30
0.0
 11
562.79690648947883
 21
335.01414692799869
 31
0.0
  0
LINE
  5
3AE3
  8
AM_0
 10
507.79690648947877
 20
457.02592692799851
 30
0.0
 11
507.79690648947877
 21
540.3384369279986
 31
0.0
  0
LINE
  5
3AE4
  8
AM_0
 10
492.79690648947877
 20
360.5625169279985
 30
0.0
 11
492.79690648947877
 21
569.01413692799872
 31
0.0
  0
LINE
  5
3AE5
  8
AM_0
 10
614.79690648947872
 20
454.51411692799871
 30
0.0
 11
614.79690648947872
 21
499.51411692799871
 31
0.0
  0
LINE
  5
3AE6
  8
AM_0
 10
377.29690648947923
 20
339.01414692799881
 30
0.0
 11
377.29690648947923
 21
539.01414692799869
 31
0.0
  0
LINE
  5
3AE7
  8
AM_0
 10
387.29690648947923
 20
538.01414692799869
 30
0.0
 11
387.29690648947923
 21
340.01414692799881
 31
0.0
  0
LINE
  5
3AE8
  8
ﾁｭｳｼﾝｾﾝ
 10
370.64657468639041
 20
439.01414692799858
 30
0.0
 11
460.63289559449743
 21
439.01414692799858
 31
0.0
  0
LINE
  5
3AE9
  8
AM_0
 10
418.79690648947923
 20
302.01411192799861
 30
0.0
 11
610.79695648947916
 21
302.01411192799861
 31
0.0
  0
LINE
  5
3AEA
  8
AM_0
 10
431.29690648947923
 20
377.43550192799847
 30
0.0
 11
465.7969564894791
 21
377.43550192799847
 31
0.0
  0
LINE
  5
3AEB
  8
AM_0
 10
422.79690648947877
 20
327.01411192799861
 30
0.0
 11
462.8756064894788
 21
327.01411192799861
 31
0.0
  0
ARC
  5
3AEC
  8
AM_0
 10
433.29695648947938
 20
362.4424919279985
 30
0.0
 40
3.0000000500000001
 50
0.0
 51
88.000000000002899
  0
LINE
  5
3AED
  8
AM_0
 10
431.29690648947923
 20
399.5394469279986
 30
0.0
 11
465.7969564894791
 21
399.5394469279986
 31
0.0
  0
LINE
  5
3AEE
  8
ｶｸﾚｾﾝ2
 10
430.29690648947877
 20
327.01411192799861
 30
0.0
 11
430.29690648947877
 21
302.01411192799861
 31
0.0
  0
LINE
  5
3AEF
  8
AM_0
 10
418.79690648947923
 20
323.01414192799871
 30
0.0
 11
418.79690648947923
 21
302.01411192799861
 31
0.0
  0
LINE
  5
3AF0
  8
AM_0
 10
429.29690648947923
 20
377.50492192799879
 30
0.0
 11
429.29690648947923
 21
397.53947092799871
 31
0.0
  0
LINE
  5
3AF1
  8
AM_0
 10
377.29690648947923
 20
339.01414692799881
 30
0.0
 11
386.29690648947923
 21
339.01414692799881
 31
0.0
  0
ARC
  5
3AF2
  8
AM_0
 10
386.29690648947923
 20
340.01414692799881
 30
0.0
 40
1.0
 50
270.0
 51
0.0
  0
ARC
  5
3AF3
  8
AM_0
 10
422.79690648947877
 20
323.01414192799871
 30
0.0
 40
4.000000049999997
 50
90.00000299999769
 51
180.00001000000091
  0
LINE
  5
3AF4
  8
AM_0
 10
431.29690648947923
 20
365.51414692799881
 30
0.0
 11
390.03543948947919
 21
361.90423592799863
 31
0.0
  0
LINE
  5
3AF5
  8
AM_0
 10
390.29690648947923
 20
375.50492192799879
 30
0.0
 11
427.29690648947923
 21
375.50492192799879
 31
0.0
  0
ARC
  5
3AF6
  8
AM_0
 10
390.29690648947923
 20
358.91565192799868
 30
0.0
 40
3.0
 50
94.99999999999973
 51
180.0
  0
ARC
  5
3AF7
  8
AM_0
 10
390.29690648947923
 20
372.50492192799879
 30
0.0
 40
3.0
 50
90.0
 51
180.0
  0
LINE
  5
3AF8
  8
AM_0
 10
431.29685648947913
 20
365.51414692799852
 30
0.0
 11
433.40155648947888
 21
365.44062692799861
 31
0.0
  0
ARC
  5
3AF9
  8
AM_0
 10
427.29690648947923
 20
377.50492192799879
 30
0.0
 40
2.0
 50
270.0
 51
0.0
  0
LINE
  5
3AFA
  8
AM_0
 10
390.29690648947923
 20
399.53947092799871
 30
0.0
 11
429.29690648947923
 21
399.53947092799871
 31
0.0
  0
ARC
  5
3AFB
  8
AM_0
 10
390.29690648947923
 20
396.53947092799871
 30
0.0
 40
3.0
 50
90.0
 51
180.0
  0
ARC
  5
3AFC
  8
AM_0
 10
431.29690648947923
 20
397.53947092799871
 30
0.0
 40
2.0
 50
120.0000000000005
 51
180.0
  0
LINE
  5
3AFD
  8
AM_0
 10
610.79695648947916
 20
323.01414192799871
 30
0.0
 11
610.79695648947916
 21
302.01411192799861
 31
0.0
  0
LINE
  5
3AFE
  8
ｶｸﾚｾﾝ2
 10
580.29690648947872
 20
327.01411192799861
 30
0.0
 11
580.29690648947872
 21
302.01411192799861
 31
0.0
  0
LINE
  5
3AFF
  8
ｶｸﾚｾﾝ2
 10
599.29695648947916
 20
327.01411192799861
 30
0.0
 11
599.29695648947916
 21
302.01411192799861
 31
0.0
  0
LINE
  5
3B00
  8
ﾁｭｳｼﾝｾﾝ1
 10
589.79690648947872
 20
331.52201692799872
 30
0.0
 11
589.79690648947872
 21
297.12251192799852
 31
0.0
  0
LINE
  5
3B01
  8
ﾁｭｳｼﾝｾﾝ1
 10
439.79690648947877
 20
331.52201692799872
 30
0.0
 11
439.79690648947877
 21
297.12251192799852
 31
0.0
  0
LINE
  5
3B02
  8
ｶｸﾚｾﾝ2
 10
449.2969564894791
 20
327.01411192799861
 30
0.0
 11
449.2969564894791
 21
302.01411192799861
 31
0.0
  0
LINE
  5
3B03
  8
AM_0
 10
497.79690648947877
 20
412.82603692799859
 30
0.0
 11
497.79690648947877
 21
367.01411692799871
 31
0.0
  0
LINE
  5
3B04
  8
AM_0
 10
496.7490564894789
 20
365.66197192799871
 30
0.0
 11
469.19900648947902
 21
330.11357192799869
 31
0.0
  0
ARC
  5
3B05
  8
AM_0
 10
462.79690648947877
 20
351.18425192799867
 30
0.0
 40
3.0000000500000001
 50
0.0
 51
84.999996999998572
  0
ARC
  5
3B06
  8
AM_0
 10
462.8756064894788
 20
335.01414692799869
 30
0.0
 40
8.0
 50
270.0
 51
322.22431999999588
  0
LINE
  5
3B07
  8
AM_0
 10
439.03545648947892
 20
356.27455192799857
 30
0.0
 11
463.05840648947878
 21
354.17280692799852
 31
0.0
  0
LINE
  5
3B08
  8
AM_0
 10
436.29690648947923
 20
359.26310692799859
 30
0.0
 11
436.29690648947923
 21
377.01411692799871
 31
0.0
  0
ARC
  5
3B09
  8
AM_0
 10
439.29695648947921
 20
359.26310692799859
 30
0.0
 40
3.0000000500000001
 50
179.9999899999988
 51
265.00000000000028
  0
ARC
  5
3B0A
  8
AM_0
 10
492.79690648947877
 20
368.72483692799858
 30
0.0
 40
5.0
 50
322.22431999999588
 51
0.0
  0
LINE
  5
3B0B
  8
AM_0
 10
479.79690648947877
 20
454.02592692799851
 30
0.0
 11
492.79690648947877
 21
454.02592692799851
 31
0.0
  0
LINE
  5
3B0C
  8
AM_0
 10
479.79690648947877
 20
424.00233692799861
 30
0.0
 11
492.79690648947877
 21
424.00233692799861
 31
0.0
  0
LINE
  5
3B0D
  8
AM_0
 10
510.55465648947887
 20
421.09919692799849
 30
0.0
 11
523.79050648947884
 21
431.00917192799852
 31
0.0
  0
LINE
  5
3B0E
  8
AM_0
 10
492.79690648947877
 20
422.40382692799858
 30
0.0
 11
504.79690648947877
 21
422.40382692799858
 31
0.0
  0
LINE
  5
3B0F
  8
AM_0
 10
497.79690648947877
 20
412.82603692799859
 30
0.0
 11
507.79690648947877
 21
412.82603692799859
 31
0.0
  0
ARC
  5
3B10
  8
AM_0
 10
504.79690648947877
 20
419.40379192799872
 30
0.0
 40
3.0000000500000001
 50
0.0
 51
90.00000299999769
  0
LINE
  5
3B11
  8
AM_0
 10
507.79690648947877
 20
419.40379192799872
 30
0.0
 11
507.79690648947877
 21
412.82603692799859
 31
0.0
  0
LINE
  5
3B12
  8
AM_0
 10
513.19360648947895
 20
459.50172692799867
 30
0.0
 11
525.33225648947894
 21
445.58830192799871
 31
0.0
  0
LINE
  5
3B13
  8
AM_0
 10
512.29690648947883
 20
451.50197192799851
 30
0.0
 11
512.29690648947883
 21
424.3898169279986
 31
0.0
  0
LINE
  5
3B14
  8
AM_0
 10
492.79690648947877
 20
454.02592692799851
 30
0.0
 11
504.79690648947877
 21
454.02592692799851
 31
0.0
  0
ARC
  5
3B15
  8
AM_0
 10
504.79690648947877
 20
457.02592692799851
 30
0.0
 40
3.0000000500000001
 50
270.0
 51
0.0
  0
ARC
  5
3B16
  8
AM_0
 10
517.79690648947883
 20
439.01414692799858
 30
0.0
 40
10.0
 50
306.82304000000198
 51
41.102821999997772
  0
LINE
  5
3B17
  8
AM_0
 10
570.79695648947938
 20
327.01411192799861
 30
0.0
 11
606.79695648947916
 21
327.01411192799861
 31
0.0
  0
ARC
  5
3B18
  8
AM_0
 10
570.79695648947938
 20
335.01414692799869
 30
0.0
 40
8.0
 50
180.00001000000091
 51
270.0
  0
LINE
  5
3B19
  8
AM_0
 10
574.79690648947872
 20
372.61201692799852
 30
0.0
 11
566.28015648947905
 21
372.61201692799852
 31
0.0
  0
ARC
  5
3B1A
  8
AM_0
 10
574.79690648947872
 20
380.61198692799849
 30
0.0
 40
8.0
 50
270.0
 51
0.0
  0
ARC
  5
3B1B
  8
AM_0
 10
606.79695648947916
 20
323.01414192799871
 30
0.0
 40
4.000000049999997
 50
0.0
 51
90.00000299999769
  0
ARC
  5
3B1C
  8
AM_0
 10
608.79690648947906
 20
330.76011692799858
 30
0.0
 40
4.000000049999997
 50
179.9999899999988
 51
255.52248999999699
  0
ARC
  5
3B1D
  8
AM_0
 10
607.79690648947872
 20
443.25676192799858
 30
0.0
 40
3.0000000500000001
 50
315.0
 51
0.0
  0
ARC
  5
3B1E
  8
AM_0
 10
607.79690648947872
 20
434.7715019279986
 30
0.0
 40
3.0000000500000001
 50
135.0
 51
180.00001000000091
  0
LINE
  5
3B1F
  8
AM_0
 10
605.67570648947924
 20
436.89277692799851
 30
0.0
 11
609.91835648947938
 21
441.13542192799861
 31
0.0
  0
LINE
  5
3B20
  8
AM_0
 10
610.79695648947916
 20
454.51411692799871
 30
0.0
 11
614.79690648947872
 21
454.51411692799871
 31
0.0
  0
LINE
  5
3B21
  8
AM_0
 10
431.29690648947923
 20
500.59276192799859
 30
0.0
 11
465.7969564894791
 21
500.59276192799859
 31
0.0
  0
LINE
  5
3B22
  8
AM_0
 10
431.29690648947923
 20
512.51417692799862
 30
0.0
 11
460.9714564894789
 21
513.5504319279986
 31
0.0
  0
LINE
  5
3B23
  8
AM_0
 10
431.29690648947923
 20
478.48881692799858
 30
0.0
 11
465.7969564894791
 21
478.48881692799858
 31
0.0
  0
LINE
  5
3B24
  8
AM_0
 10
429.29690648947923
 20
500.52337192799871
 30
0.0
 11
429.29690648947923
 21
480.48882192799869
 31
0.0
  0
LINE
  5
3B25
  8
AM_0
 10
390.29690648947923
 20
478.4888219279988
 30
0.0
 11
429.29690648947923
 21
478.4888219279988
 31
0.0
  0
ARC
  5
3B26
  8
AM_0
 10
390.29690648947923
 20
481.48882192799857
 30
0.0
 40
3.0
 50
180.0
 51
270.0
  0
ARC
  5
3B27
  8
AM_0
 10
431.29690648947923
 20
480.48882192799869
 30
0.0
 40
2.0
 50
180.0
 51
239.99999999999949
  0
LINE
  5
3B28
  8
AM_0
 10
431.29690648947923
 20
512.51414692799869
 30
0.0
 11
390.03543948947919
 21
516.12405692799882
 31
0.0
  0
LINE
  5
3B29
  8
AM_0
 10
390.29690648947923
 20
502.52337192799871
 30
0.0
 11
427.29690648947923
 21
502.52337192799871
 31
0.0
  0
ARC
  5
3B2A
  8
AM_0
 10
390.29690648947923
 20
505.5233719279986
 30
0.0
 40
3.0
 50
180.0
 51
270.0
  0
ARC
  5
3B2B
  8
AM_0
 10
390.29690648947923
 20
519.11264192799877
 30
0.0
 40
3.0
 50
180.0
 51
265.00000000000028
  0
ARC
  5
3B2C
  8
AM_0
 10
427.29690648947923
 20
500.52337192799871
 30
0.0
 40
2.0
 50
0.0
 51
90.0
  0
LINE
  5
3B2D
  8
AM_0
 10
377.29690648947923
 20
539.01414692799869
 30
0.0
 11
386.29690648947923
 21
539.01414692799869
 31
0.0
  0
ARC
  5
3B2E
  8
AM_0
 10
386.29690648947923
 20
538.01414692799869
 30
0.0
 40
1.0
 50
0.0
 51
90.0
  0
ARC
  5
3B2F
  8
AM_0
 10
476.79695648947921
 20
589.51413692799872
 30
0.0
 40
20.500000499999992
 50
304.61364000000401
 51
235.3863500000021
  0
LINE
  5
3B30
  8
AM_0
 10
509.72715648947911
 20
563.13668692799865
 30
0.0
 11
575.07615648947865
 21
560.85473692799872
 31
0.0
  0
ARC
  5
3B31
  8
AM_0
 10
460.79695648947921
 20
518.54738192799857
 30
0.0
 40
5.0
 50
271.99999999999687
 51
0.0
  0
LINE
  5
3B32
  8
AM_0
 10
479.79690648947877
 20
561.59743692799873
 30
0.0
 11
492.79690648947877
 21
561.59743692799873
 31
0.0
  0
LINE
  5
3B33
  8
AM_0
 10
479.79690648947877
 20
543.33838692799839
 30
0.0
 11
492.79690648947877
 21
543.33838692799839
 31
0.0
  0
LINE
  5
3B34
  8
AM_0
 10
481.05295648947919
 20
560.25768692799875
 30
0.0
 11
507.79690648947877
 21
560.25768692799875
 31
0.0
  0
LINE
  5
3B35
  8
AM_0
 10
481.72720648947922
 20
568.62763692799865
 30
0.0
 11
492.79695648947938
 21
569.01418692799871
 31
0.0
  0
ARC
  5
3B36
  8
AM_0
 10
481.79695648947921
 20
566.6287869279987
 30
0.0
 40
2.0000000500000001
 50
91.999998000000545
 51
180.00001000000091
  0
ARC
  5
3B37
  8
AM_0
 10
467.79690648947877
 20
567.01413692799872
 30
0.0
 40
2.0000000500000001
 50
131.4096200000032
 51
180.00001000000091
  0
LINE
  5
3B38
  8
AM_0
 10
468.2759564894792
 20
556.09313692799867
 30
0.0
 11
477.31780648947921
 21
557.68748692799875
 31
0.0
  0
ARC
  5
3B39
  8
AM_0
 10
468.79690648947923
 20
553.13873692799825
 30
0.0
 40
3.0000000500000001
 50
99.999999999998593
 51
180.00001000000091
  0
ARC
  5
3B3A
  8
AM_0
 10
476.79695648947921
 20
560.64183692799872
 30
0.0
 40
3.0000000500000001
 50
279.99999999999852
 51
0.0
  0
CIRCLE
  5
3B3B
  8
AM_0
 10
476.79695648947921
 20
589.51413692799872
 30
0.0
 40
12.5
  0
LINE
  5
3B3C
  8
AM_0
 10
469.29365648947902
 20
575.62888692799868
 30
0.0
 11
476.79705648947908
 21
577.01418692799871
 31
0.0
  0
LINE
  5
3B3D
  8
AM_0
 10
468.97975648947892
 20
575.51418692799871
 30
0.0
 11
484.61405648947908
 21
575.51418692799871
 31
0.0
  0
LINE
  5
3B3E
  8
AM_0
 10
466.47405648947921
 20
568.51413692799872
 30
0.0
 11
481.12960648947922
 21
568.51413692799872
 31
0.0
  0
ARC
  5
3B3F
  8
AM_0
 10
469.47505648947902
 20
574.6454369279985
 30
0.0
 40
1.0
 50
100.4607200000025
 51
164.99999000000179
  0
ARC
  5
3B40
  8
AM_0
 10
462.87990648947908
 20
569.35063692799849
 30
0.0
 40
4.000000049999997
 50
347.9293300000017
 51
55.386359000001512
  0
LINE
  5
3B41
  8
AM_0
 10
466.79695648947938
 20
568.51413692799872
 30
0.0
 11
468.50915648947921
 21
574.90428692799856
 31
0.0
  0
LINE
  5
3B42
  8
AM_0
 10
486.71975648947921
 20
568.80198692799866
 30
0.0
 11
485.08465648947919
 21
574.90423692799868
 31
0.0
  0
ARC
  5
3B43
  8
AM_0
 10
484.1188064894792
 20
574.6454369279985
 30
0.0
 40
1.0
 50
15.000000000000741
 51
79.539281000002589
  0
LINE
  5
3B44
  8
AM_0
 10
476.79685648947918
 20
577.01418692799871
 30
0.0
 11
484.30025648947878
 21
575.62883692799835
 31
0.0
  0
ARC
  5
3B45
  8
AM_0
 10
490.71390648947909
 20
569.35063692799849
 30
0.0
 40
4.000000049999997
 50
124.6136499999977
 51
187.86824999999891
  0
ARC
  5
3B46
  8
AM_0
 10
505.79695648947921
 20
566.55893692799884
 30
0.0
 40
2.0000000500000001
 50
0.0
 51
88.000000000002899
  0
LINE
  5
3B47
  8
AM_0
 10
512.99595648947889
 20
561.19113692799863
 30
0.0
 11
522.82200648947912
 21
555.48003692799853
 31
0.0
  0
LINE
  5
3B48
  8
AM_0
 10
509.16335648947921
 20
533.40798692799865
 30
0.0
 11
520.96475648947887
 21
537.34943692799868
 31
0.0
  0
LINE
  5
3B49
  8
AM_0
 10
512.29690648947883
 20
538.48978692799881
 30
0.0
 11
512.29690648947883
 21
559.66303692799863
 31
0.0
  0
LINE
  5
3B4A
  8
AM_0
 10
492.79690648947877
 20
543.33838692799839
 30
0.0
 11
504.79690648947877
 21
543.33838692799839
 31
0.0
  0
ARC
  5
3B4B
  8
AM_0
 10
511.8092064894791
 20
537.4544369279987
 30
0.0
 40
3.0000000500000001
 50
270.0
 51
288.46821999999901
  0
ARC
  5
3B4C
  8
AM_0
 10
504.79690648947877
 20
540.3384369279986
 30
0.0
 40
3.0000000500000001
 50
0.0
 51
90.00000299999769
  0
LINE
  5
3B4D
  8
AM_0
 10
492.79690648947877
 20
561.59743692799873
 30
0.0
 11
511.48840648947908
 21
561.59743692799873
 31
0.0
  0
ARC
  5
3B4E
  8
AM_0
 10
509.79690648947877
 20
565.1354869279985
 30
0.0
 40
2.0000000500000001
 50
179.9999899999988
 51
268.00000999999861
  0
ARC
  5
3B4F
  8
AM_0
 10
511.48840648947908
 20
558.59743692799873
 30
0.0
 40
3.0000000500000001
 50
59.83387800000353
 51
90.00000299999769
  0
LINE
  5
3B50
  8
AM_0
 10
507.79690648947877
 20
561.59743692799873
 30
0.0
 11
507.79690648947877
 21
566.55893692799884
 31
0.0
  0
ARC
  5
3B51
  8
AM_0
 10
517.79690648947883
 20
546.83428692799873
 30
0.0
 40
10.0
 50
288.46820999999818
 51
59.83387800000353
  0
LINE
  5
3B52
  8
AM_0
 10
492.79695648947938
 20
569.01413692799872
 30
0.0
 11
505.86670648947887
 21
568.55773692799869
 31
0.0
  0
LINE
  5
3B53
  8
AM_0
 10
490.7969564894791
 20
568.94433692799873
 30
0.0
 11
490.7969564894791
 21
569.01413692799872
 31
0.0
  0
LINE
  5
3B54
  8
AM_0
 10
490.7969564894791
 20
569.01413692799872
 30
0.0
 11
492.79690648947877
 21
569.01413692799872
 31
0.0
  0
LINE
  5
3B55
  8
AM_0
 10
604.79690648947872
 20
477.01411692799871
 30
0.0
 11
604.79690648947872
 21
534.01413692799872
 31
0.0
  0
ARC
  5
3B56
  8
AM_0
 10
572.79690648947872
 20
511.18699692799851
 30
0.0
 40
10.0
 50
90.00000299999769
 51
180.00001000000091
  0
LINE
  5
3B57
  8
AM_0
 10
577.8552064894792
 20
521.18698692799865
 30
0.0
 11
572.79690648947872
 21
521.18698692799865
 31
0.0
  0
LINE
  5
3B58
  8
AM_0
 10
610.79695648947916
 20
477.01411692799871
 30
0.0
 11
610.79695648947916
 21
516.77150192799866
 31
0.0
  0
LINE
  5
3B59
  8
AM_0
 10
610.79695648947916
 20
499.51411692799871
 30
0.0
 11
614.79690648947872
 21
499.51411692799871
 31
0.0
  0
ARC
  5
3B5A
  8
AM_0
 10
607.79690648947872
 20
525.25678692799875
 30
0.0
 40
3.0000000500000001
 50
179.9999899999988
 51
225.0
  0
LINE
  5
3B5B
  8
AM_0
 10
605.67570648947924
 20
523.13543692799874
 30
0.0
 11
609.91835648947938
 21
518.89274692799859
 31
0.0
  0
ARC
  5
3B5C
  8
AM_0
 10
607.79690648947872
 20
516.77150192799866
 30
0.0
 40
3.0000000500000001
 50
0.0
 51
45.00000100000149
  0
LINE
  5
3B5D
  8
AM_0
 10
628.79690648947917
 20
501.01414692799852
 30
0.0
 11
628.79690648947917
 21
498.01414692799858
 31
0.0
  0
LINE
  5
3B5E
  8
AM_0
 10
590.79695648947916
 20
537.01413692799872
 30
0.0
 11
601.79695648947927
 21
537.01413692799872
 31
0.0
  0
ARC
  5
3B5F
  8
AM_0
 10
590.79695648947916
 20
545.01413692799872
 30
0.0
 40
8.0
 50
180.00001000000091
 51
270.0
  0
ARC
  5
3B60
  8
AM_0
 10
574.79690648947872
 20
552.85953692799865
 30
0.0
 40
8.0
 50
0.0
 51
88.000000000002899
  0
ARC
  5
3B61
  8
AM_0
 10
601.79695648947927
 20
534.01413692799872
 30
0.0
 40
3.0000000500000001
 50
0.0
 51
90.00000299999769
  0
LINE
  5
3B62
  8
ﾁｭｳｼﾝｾﾝ
 10
942.71857553125028
 20
611.55683692799835
 30
0.0
 11
942.71857553125028
 21
301.04454192799852
 31
0.0
  0
LINE
  5
3B63
  8
AM_0
 10
848.71859053125036
 20
520.64898692799864
 30
0.0
 11
848.71859053125036
 21
405.00428692799858
 31
0.0
  0
LINE
  5
3B64
  8
AM_0
 10
1036.71855053125
 20
520.64898692799864
 30
0.0
 11
1036.71855053125
 21
401.39949192799833
 31
0.0
  0
ARC
  5
3B65
  8
AM_0
 10
942.71857553125028
 20
477.01411692799871
 30
0.0
 40
20.9999985
 50
106.6015499999987
 51
73.398451999997818
  0
ARC
  5
3B66
  8
AM_0
 10
942.71857553125028
 20
439.01414692799858
 30
0.0
 40
130.0
 50
127.3755000000037
 51
172.6244899999997
  0
ARC
  5
3B67
  8
AM_0
 10
942.71857553125028
 20
439.01414692799858
 30
0.0
 40
124.5
 50
7.1014839000006411
 51
172.89851999999871
  0
CIRCLE
  5
3B68
  8
AM_0
 10
942.71857553125028
 20
477.01411692799871
 30
0.0
 40
41.000000499999992
  0
ARC
  5
3B69
  8
AM_0
 10
942.71857553125028
 20
449.01414692799852
 30
0.0
 40
88.0
 50
0.0
 51
186.5249800000004
  0
ARC
  5
3B6A
  8
AM_0
 10
942.71857553125028
 20
439.01414692799858
 30
0.0
 40
130.0
 50
7.3755072000005972
 51
52.624493999996417
  0
ARC
  5
3B6B
  8
AM_0
 10
815.45184053125035
 20
462.96061692799879
 30
0.0
 40
5.0
 50
315.0
 51
349.34382000000022
  0
ARC
  5
3B6C
  8
AM_0
 10
1069.9852705312501
 20
462.96061692799879
 30
0.0
 40
5.0
 50
190.65617999999949
 51
225.0
  0
LINE
  5
3B6D
  8
AM_0
 10
684.79690648947872
 20
456.01414692799858
 30
0.0
 11
684.79690648947872
 21
501.01414692799852
 31
0.0
  0
LINE
  5
3B6E
  8
ﾁｭｳｼﾝｾﾝ
 10
798.45299053125029
 20
439.01414692799858
 30
0.0
 11
1086.573040531249
 21
439.01414692799858
 31
0.0
  0
LINE
  5
3B6F
  8
AM_0
 10
1027.718580531249
 20
302.01411192799861
 30
0.0
 11
1082.7185805312499
 21
302.01411192799861
 31
0.0
  0
LINE
  5
3B70
  8
AM_0
 10
1066.26350053125
 20
454.40574692799851
 30
0.0
 11
1082.6802205312499
 21
322.63230692799863
 31
0.0
  0
ARC
  5
3B71
  8
AM_0
 10
1077.718580531249
 20
322.01411192799861
 30
0.0
 40
5.0
 50
0.0
 51
90.00000299999769
  0
ARC
  5
3B72
  8
AM_0
 10
1072.7185805312499
 20
439.01414692799858
 30
0.0
 40
10.0
 50
315.0
 51
45.00000100000149
  0
ARC
  5
3B73
  8
AM_0
 10
861.71854553125036
 20
303.01414192799871
 30
0.0
 40
4.000000049999997
 50
99.488295999997277
 51
180.00001000000091
  0
LINE
  5
3B74
  8
ﾁｭｳｼﾝｾﾝ1
 10
827.71859053125036
 20
331.52201692799872
 30
0.0
 11
827.71859053125036
 21
297.12251192799852
 31
0.0
  0
LINE
  5
3B75
  8
ｶｸﾚｾﾝ2
 10
837.21859053125036
 20
327.01411192799861
 30
0.0
 11
837.21859053125036
 21
302.01411192799861
 31
0.0
  0
LINE
  5
3B76
  8
AM_0
 10
854.0185955312503
 20
323.01414192799871
 30
0.0
 11
854.0185955312503
 21
302.01411192799861
 31
0.0
  0
LINE
  5
3B77
  8
ｶｸﾚｾﾝ2
 10
818.21859053125036
 20
327.01411192799861
 30
0.0
 11
818.21859053125036
 21
302.01411192799861
 31
0.0
  0
LINE
  5
3B78
  8
AM_0
 10
802.71859053125036
 20
322.01411192799861
 30
0.0
 11
802.71859053125036
 21
302.01411192799861
 31
0.0
  0
LINE
  5
3B79
  8
AM_0
 10
802.71859053125036
 20
302.01411192799861
 30
0.0
 11
857.71857553125017
 21
302.01411192799861
 31
0.0
  0
LINE
  5
3B7A
  8
AM_0
 10
857.71857553125017
 20
303.01414192799871
 30
0.0
 11
857.71857553125017
 21
302.01411192799861
 31
0.0
  0
LINE
  5
3B7B
  8
AM_0
 10
854.71857553125028
 20
439.01414692799858
 30
0.0
 11
854.71857553125028
 21
335.01414692799869
 31
0.0
  0
ARC
  5
3B7C
  8
AM_0
 10
942.71857553125028
 20
405.00428692799858
 30
0.0
 40
93.999994999999984
 50
179.9999899999988
 51
200.58196000000129
  0
LINE
  5
3B7D
  8
AM_0
 10
819.17359053125028
 20
454.40574692799851
 30
0.0
 11
802.75689053125018
 21
322.63227692799859
 31
0.0
  0
ARC
  5
3B7E
  8
AM_0
 10
807.71859053125036
 20
322.01411192799861
 30
0.0
 40
5.0
 50
90.00000299999769
 51
180.00001000000091
  0
LINE
  5
3B7F
  8
AM_0
 10
807.71859053125036
 20
327.01411192799861
 30
0.0
 11
850.01856553125026
 21
327.01411192799861
 31
0.0
  0
ARC
  5
3B80
  8
AM_0
 10
846.71854053125026
 20
335.01414692799869
 30
0.0
 40
8.0
 50
270.0
 51
0.0
  0
ARC
  5
3B81
  8
AM_0
 10
850.01856553125026
 20
323.01414192799871
 30
0.0
 40
4.000000049999997
 50
0.0
 51
90.00000299999769
  0
ARC
  5
3B82
  8
AM_0
 10
809.92294053125022
 20
420.59654192799871
 30
0.0
 40
5.0
 50
352.89851999999883
 51
45.00000100000149
  0
ARC
  5
3B83
  8
AM_0
 10
808.83559053125043
 20
421.68397692799851
 30
0.0
 40
5.0
 50
7.375508100000534
 51
45.00000100000149
  0
ARC
  5
3B84
  8
AM_0
 10
942.71857553125028
 20
439.01414692799858
 30
0.0
 40
130.0
 50
187.37550999999999
 51
189.62446000000111
  0
ARC
  5
3B85
  8
AM_0
 10
812.71859053125036
 20
439.01414692799858
 30
0.0
 40
10.0
 50
135.0
 51
225.0
  0
LINE
  5
3B86
  8
AM_0
 10
805.64754053125
 20
431.94304192799871
 30
0.0
 11
813.45849053125016
 21
424.13206692799861
 31
0.0
  0
LINE
  5
3B87
  8
AM_0
 10
805.64754053125
 20
446.08516192799868
 30
0.0
 11
818.98744053125029
 21
459.42506692799873
 31
0.0
  0
ARC
  5
3B88
  8
AM_0
 10
808.83559053125043
 20
456.34431692799848
 30
0.0
 40
5.0
 50
315.0
 51
352.62448999999958
  0
ARC
  5
3B89
  8
AM_0
 10
875.71857553125028
 20
314.01414192799871
 30
0.0
 40
8.0
 50
90.00000299999769
 51
177.00553999999889
  0
ARC
  5
3B8A
  8
AM_0
 10
872.36411553125026
 20
311.74479692799861
 30
0.0
 40
5.0
 50
90.00000299999769
 51
166.1807799999996
  0
LINE
  5
3B8B
  8
ｶｸﾚｾﾝ2
 10
1048.21855053125
 20
327.01411192799861
 30
0.0
 11
1048.21855053125
 21
302.01411192799861
 31
0.0
  0
LINE
  5
3B8C
  8
ﾁｭｳｼﾝｾﾝ1
 10
1057.718580531249
 20
330.86430192799861
 30
0.0
 11
1057.718580531249
 21
295.03861692799848
 31
0.0
  0
LINE
  5
3B8D
  8
ｶｸﾚｾﾝ2
 10
1067.21855053125
 20
327.01411192799861
 30
0.0
 11
1067.21855053125
 21
302.01411192799861
 31
0.0
  0
LINE
  5
3B8E
  8
AM_0
 10
1031.41856053125
 20
323.01414192799871
 30
0.0
 11
1031.41856053125
 21
302.01411192799861
 31
0.0
  0
ARC
  5
3B8F
  8
AM_0
 10
1009.71854553125
 20
314.01414192799871
 30
0.0
 40
8.0
 50
2.9944644000003162
 51
90.00000299999769
  0
ARC
  5
3B90
  8
AM_0
 10
1013.073010531249
 20
311.74479692799861
 30
0.0
 40
5.0
 50
13.819217000001251
 51
90.00000299999769
  0
LINE
  5
3B91
  8
AM_0
 10
861.71854553125036
 20
307.01411192799861
 30
0.0
 11
1024.08436053125
 21
307.01411192799861
 31
0.0
  0
ARC
  5
3B92
  8
AM_0
 10
859.74039553125021
 20
314.84996192799861
 30
0.0
 40
8.0
 50
279.48829999999663
 51
357.00553999999892
  0
ARC
  5
3B93
  8
AM_0
 10
1023.71858053125
 20
303.01414192799871
 30
0.0
 40
4.000000049999997
 50
0.0
 51
80.511702000002984
  0
ARC
  5
3B94
  8
AM_0
 10
1025.6967305312501
 20
314.84996192799861
 30
0.0
 40
8.0
 50
182.9944600000008
 51
260.5117000000032
  0
LINE
  5
3B95
  8
AM_0
 10
1027.718580531249
 20
303.01414192799871
 30
0.0
 11
1027.718580531249
 21
302.01411192799861
 31
0.0
  0
LINE
  5
3B96
  8
AM_0
 10
875.71857553125028
 20
322.01411192799861
 30
0.0
 11
1009.71854553125
 21
322.01411192799861
 31
0.0
  0
LINE
  5
3B97
  8
AM_0
 10
872.36411553125026
 20
316.74479692799861
 30
0.0
 11
1013.073010531249
 21
316.74479692799861
 31
0.0
  0
LINE
  5
3B98
  8
AM_0
 10
1030.7185505312491
 20
449.01414692799852
 30
0.0
 11
1030.7185505312491
 21
335.01414692799869
 31
0.0
  0
ARC
  5
3B99
  8
AM_0
 10
942.71857553125028
 20
405.00428692799858
 30
0.0
 40
93.999994999999984
 50
339.95001999999999
 51
20.049975999999841
  0
LINE
  5
3B9A
  8
AM_0
 10
1038.7185505312491
 20
327.01411192799861
 30
0.0
 11
1077.718580531249
 21
327.01411192799861
 31
0.0
  0
ARC
  5
3B9B
  8
AM_0
 10
1038.7185505312491
 20
335.01414692799869
 30
0.0
 40
8.0
 50
180.00001000000091
 51
270.0
  0
ARC
  5
3B9C
  8
AM_0
 10
1035.41856053125
 20
323.01414192799871
 30
0.0
 40
4.000000049999997
 50
90.00000299999769
 51
180.00001000000091
  0
ARC
  5
3B9D
  8
AM_0
 10
1035.71855053125
 20
371.06315692799859
 30
0.0
 40
5.0
 50
159.95003000000011
 51
180.00001000000091
  0
ARC
  5
3B9E
  8
AM_0
 10
1075.5141705312501
 20
420.59654192799871
 30
0.0
 40
5.0
 50
135.0
 51
187.10148999999859
  0
ARC
  5
3B9F
  8
AM_0
 10
1076.6015755312501
 20
421.68397692799851
 30
0.0
 40
5.0
 50
135.0
 51
172.6244899999997
  0
ARC
  5
3BA0
  8
AM_0
 10
942.71857553125028
 20
439.01414692799858
 30
0.0
 40
130.0
 50
350.37554999999838
 51
352.62448999999958
  0
ARC
  5
3BA1
  8
AM_0
 10
1035.71855053125
 20
438.94539192799851
 30
0.0
 40
5.0
 50
179.9999899999988
 51
200.04996999999969
  0
LINE
  5
3BA2
  8
AM_0
 10
1079.7896255312501
 20
431.94310192799878
 30
0.0
 11
1071.97862053125
 21
424.13212692799851
 31
0.0
  0
LINE
  5
3BA3
  8
AM_0
 10
1079.7896255312501
 20
446.08522192799859
 30
0.0
 11
1066.4497505312499
 21
459.4250969279986
 31
0.0
  0
ARC
  5
3BA4
  8
AM_0
 10
1076.6015755312501
 20
456.34431692799848
 30
0.0
 40
5.0
 50
187.37550999999999
 51
225.0
  0
LINE
  5
3BA5
  8
AM_0
 10
1082.7185805312499
 20
322.01411192799861
 30
0.0
 11
1082.7185805312499
 21
302.01411192799861
 31
0.0
  0
LINE
  5
3BA6
  8
AM_0
 10
938.71857553125039
 20
606.01413692799872
 30
0.0
 11
938.71857553125039
 21
572.51413692799872
 31
0.0
  0
LINE
  5
3BA7
  8
AM_0
 10
946.71854553125024
 20
606.01413692799872
 30
0.0
 11
946.71854553125024
 21
572.51413692799872
 31
0.0
  0
ARC
  5
3BA8
  8
AM_0
 10
942.71857553125028
 20
606.01413692799872
 30
0.0
 40
4.000000049999997
 50
359.999989999999
 51
179.9999899999988
  0
LINE
  5
3BA9
  8
ﾁｭｳｼﾝｾﾝ
 10
868.56075439849985
 20
477.01411692799871
 30
0.0
 11
1016.876396663999
 21
477.01411692799871
 31
0.0
  0
ARC
  5
3BAA
  8
AM_0
 10
942.71857553125028
 20
439.01414692799858
 30
0.0
 40
130.0
 50
67.375506000002574
 51
112.62449000000299
  0
LINE
  5
3BAB
  8
AM_0
 10
936.71854553125036
 20
501.01414692799852
 30
0.0
 11
936.71854553125036
 21
493.01414692799858
 31
0.0
  0
LINE
  5
3BAC
  8
AM_0
 10
948.71857553125062
 20
501.01414692799852
 30
0.0
 11
948.71857553125062
 21
493.01414692799858
 31
0.0
  0
LINE
  5
3BAD
  8
AM_0
 10
936.71854553125036
 20
493.01414692799858
 30
0.0
 11
948.71857553125062
 21
493.01414692799858
 31
0.0
  0
CIRCLE
  5
3BAE
  8
AM_0
 10
942.71857553125028
 20
477.01411692799871
 30
0.0
 40
3.5000000500000001
  0
CIRCLE
  5
3BAF
  8
AM_5
 10
942.71857553125028
 20
477.01411692799871
 30
0.0
 40
5.0
  0
LINE
  5
3BB0
  8
AM_0
 10
936.71854553125036
 20
501.01414692799852
 30
0.0
 11
948.71857553125062
 21
501.01414692799852
 31
0.0
  0
LINE
  5
3BB1
  8
AM_0
 10
880.3067405312496
 20
561.25668692799854
 30
0.0
 11
898.52936553125028
 21
556.37398692799854
 31
0.0
  0
LINE
  5
3BB2
  8
AM_0
 10
868.05930553125029
 20
554.18563692799853
 30
0.0
 11
863.17655553124973
 21
535.96298692799871
 31
0.0
  0
ARC
  5
3BB3
  8
AM_0
 10
858.34693553125032
 20
537.25708692799878
 30
0.0
 40
5.0
 50
310.6561800000004
 51
344.99999999999909
  0
ARC
  5
3BB4
  8
AM_0
 10
860.76868553124973
 20
546.29513692799856
 30
0.0
 40
5.0
 50
307.37551000000269
 51
344.99999999999909
  0
ARC
  5
3BB5
  8
AM_0
 10
877.71857553125028
 20
551.59743692799861
 30
0.0
 40
10.0
 50
74.99999899999662
 51
164.99999000000179
  0
ARC
  5
3BB6
  8
AM_0
 10
899.8234955312497
 20
561.20358692799834
 30
0.0
 40
5.0
 50
254.99999999999841
 51
289.34381999999971
  0
ARC
  5
3BB7
  8
AM_0
 10
890.78544053125017
 20
563.62533692799855
 30
0.0
 40
5.0
 50
254.99999999999841
 51
292.62449000000288
  0
LINE
  5
3BB8
  8
AM_0
 10
932.74998053125
 20
568.63138692799873
 30
0.0
 11
934.43076553125024
 21
574.90423692799868
 31
0.0
  0
LINE
  5
3BB9
  8
AM_0
 10
938.71854553125024
 20
576.27563692799879
 30
0.0
 11
935.21513053125034
 21
575.6287869279987
 31
0.0
  0
ARC
  5
3BBA
  8
AM_0
 10
936.71854553125036
 20
572.51413692799872
 30
0.0
 40
2.0000000500000001
 50
270.0
 51
0.0
  0
ARC
  5
3BBB
  8
AM_0
 10
935.3967405312502
 20
574.64538692799852
 30
0.0
 40
1.0
 50
100.4607200000025
 51
164.99999000000179
  0
LINE
  5
3BBC
  8
AM_0
 10
952.68717553125032
 20
568.63138692799873
 30
0.0
 11
951.00636053125038
 21
574.90423692799868
 31
0.0
  0
LINE
  5
3BBD
  8
AM_0
 10
946.71857553125039
 20
576.27568692799866
 30
0.0
 11
950.22196553125025
 21
575.62883692799835
 31
0.0
  0
ARC
  5
3BBE
  8
AM_0
 10
948.71857553125062
 20
572.51413692799872
 30
0.0
 40
2.0000000500000001
 50
179.9999899999988
 51
270.0
  0
ARC
  5
3BBF
  8
AM_0
 10
950.04044553124959
 20
574.64538692799852
 30
0.0
 40
1.0
 50
15.000000000000741
 51
79.539281000002589
  0
LINE
  5
3BC0
  8
AM_0
 10
1005.13038053125
 20
561.25663692799878
 30
0.0
 11
986.90775553125036
 21
556.37393692799867
 31
0.0
  0
ARC
  5
3BC1
  8
AM_0
 10
994.65171553124981
 20
563.62533692799855
 30
0.0
 40
5.0
 50
247.37550999999681
 51
285.00000000000148
  0
ARC
  5
3BC2
  8
AM_0
 10
985.61366053125028
 20
561.20358692799834
 30
0.0
 40
5.0
 50
250.65618000000021
 51
285.00000000000148
  0
LINE
  5
3BC3
  8
AM_0
 10
1017.37785053125
 20
554.18558692799866
 30
0.0
 11
1022.260570531249
 21
535.96303692799881
 31
0.0
  0
ARC
  5
3BC4
  8
AM_0
 10
1027.0901905312501
 20
537.25708692799878
 30
0.0
 40
5.0
 50
195.0000099999981
 51
229.34381999999951
  0
ARC
  5
3BC5
  8
AM_0
 10
1024.66847053125
 20
546.29513692799856
 30
0.0
 40
5.0
 50
195.0000099999981
 51
232.62449999999609
  0
ARC
  5
3BC6
  8
AM_0
 10
1007.71858053125
 20
551.59743692799861
 30
0.0
 40
10.0
 50
15.000000000000741
 51
105.00000000000161
  0
LINE
  5
3BC7
  8
AM_0
 10
429.29684648947892
 20
894.21733678607052
 30
0.0
 11
429.29684648947892
 21
874.18278678607044
 31
0.0
  0
LINE
  5
3BC8
  8
AM_0
 10
387.29684648947892
 20
931.70811178607062
 30
0.0
 11
387.29684648947892
 21
733.70811178607073
 31
0.0
  0
LINE
  5
3BC9
  8
AM_0
 10
377.29684648947892
 20
732.70811178607073
 30
0.0
 11
377.29684648947892
 21
932.7081117860705
 31
0.0
  0
LINE
  5
3BCA
  8
AM_0
 10
431.29684648947892
 20
759.20811178607073
 30
0.0
 11
390.03537948947888
 21
755.59820078607061
 31
0.0
  0
ARC
  5
3BCB
  8
AM_0
 10
390.29684648947892
 20
752.60961678607055
 30
0.0
 40
3.0
 50
94.99999999999973
 51
180.0
  0
LINE
  5
3BCC
  8
AM_0
 10
390.29684648947892
 20
793.23343578607069
 30
0.0
 11
429.29684648947892
 21
793.23343578607069
 31
0.0
  0
LINE
  5
3BCD
  8
AM_0
 10
390.29684648947892
 20
769.19888678607072
 30
0.0
 11
427.29684648947881
 21
769.19888678607072
 31
0.0
  0
ARC
  5
3BCE
  8
AM_0
 10
390.29684648947892
 20
766.19888678607049
 30
0.0
 40
3.0
 50
90.0
 51
180.0
  0
ARC
  5
3BCF
  8
AM_0
 10
390.29684648947892
 20
790.23343578607069
 30
0.0
 40
3.0
 50
90.0
 51
180.0
  0
LINE
  5
3BD0
  8
AM_0
 10
429.29684648947892
 20
771.19888678607072
 30
0.0
 11
429.29684648947892
 21
791.23343578607046
 31
0.0
  0
ARC
  5
3BD1
  8
AM_0
 10
427.29684648947881
 20
771.19888678607072
 30
0.0
 40
2.0
 50
270.0
 51
0.0
  0
ARC
  5
3BD2
  8
AM_0
 10
431.29684648947892
 20
791.23343578607046
 30
0.0
 40
2.0
 50
120.0000000000005
 51
180.0
  0
LINE
  5
3BD3
  8
AM_0
 10
390.29684648947892
 20
872.18278678607055
 30
0.0
 11
429.29684648947892
 21
872.18278678607055
 31
0.0
  0
ARC
  5
3BD4
  8
AM_0
 10
390.29684648947892
 20
875.18278678607055
 30
0.0
 40
3.0
 50
180.0
 51
270.0
  0
ARC
  5
3BD5
  8
AM_0
 10
431.29684648947892
 20
874.18278678607044
 30
0.0
 40
2.0
 50
180.0
 51
239.99999999999949
  0
LINE
  5
3BD6
  8
AM_0
 10
377.29684648947892
 20
932.7081117860705
 30
0.0
 11
386.29684648947892
 21
932.7081117860705
 31
0.0
  0
LINE
  5
3BD7
  8
AM_0
 10
390.29684648947892
 20
896.21733678607075
 30
0.0
 11
427.29684648947881
 21
896.21733678607075
 31
0.0
  0
LINE
  5
3BD8
  8
AM_0
 10
431.29684648947892
 20
906.20811178607073
 30
0.0
 11
390.03537948947888
 21
909.81802178607074
 31
0.0
  0
ARC
  5
3BD9
  8
AM_0
 10
390.29684648947892
 20
899.2173367860704
 30
0.0
 40
3.0
 50
180.0
 51
270.0
  0
ARC
  5
3BDA
  8
AM_0
 10
390.29684648947892
 20
912.80660678607069
 30
0.0
 40
3.0
 50
180.0
 51
265.00000000000028
  0
ARC
  5
3BDB
  8
AM_0
 10
427.29684648947881
 20
894.21733678607052
 30
0.0
 40
2.0
 50
0.0
 51
90.0
  0
ARC
  5
3BDC
  8
AM_0
 10
386.29684648947892
 20
931.70811178607062
 30
0.0
 40
1.0
 50
0.0
 51
90.0
  0
LINE
  5
3BDD
  8
AM_0
 10
377.29684648947892
 20
732.70811178607073
 30
0.0
 11
386.29684648947892
 21
732.70811178607073
 31
0.0
  0
ARC
  5
3BDE
  8
AM_0
 10
386.29684648947892
 20
733.70811178607073
 30
0.0
 40
1.0
 50
270.0
 51
0.0
  0
TEXT
  5
3DBF
  8
AM_0
 10
789.95655484832787
 20
872.63493809841157
 30
0.0
 40
15.0
  1
VX08-120A~VX08-200A
  0
ENDSEC
  0
EOF
