  0
SECTION
  2
HEADER
  9
$ACADVER
  1
AC1009
  9
$INSBASE
 10
0.0
 20
0.0
 30
0.0
  9
$EXTMIN
 10
274.5327795105199
 20
291.43692777825669
 30
-0.0000000349181948
  9
$EXTMAX
 10
1243.9061005162141
 20
1101.0026070421129
 30
0.0000000814935747
  9
$LIMMIN
 10
0.0
 20
0.0
  9
$LIMMAX
 10
1422.5
 20
925.0
  9
$ORTHOMODE
 70
     0
  9
$REGENMODE
 70
     1
  9
$FILLMODE
 70
     1
  9
$QTEXTMODE
 70
     0
  9
$MIRRTEXT
 70
     1
  9
$DRAGMODE
 70
     2
  9
$LTSCALE
 40
5.0
  9
$OSMODE
 70
   551
  9
$ATTMODE
 70
     1
  9
$TEXTSIZE
 40
2.5
  9
$TRACEWID
 40
1.0
  9
$TEXTSTYLE
  7
STANDARD
  9
$CLAYER
  8
AM_0
  9
$CELTYPE
  6
BYLAYER
  9
$CECOLOR
 62
   256
  9
$DIMSCALE
 40
1.0
  9
$DIMASZ
 40
2.5
  9
$DIMEXO
 40
1.0
  9
$DIMDLI
 40
8.0
  9
$DIMRND
 40
0.0
  9
$DIMDLE
 40
0.0
  9
$DIMEXE
 40
0.6
  9
$DIMTP
 40
0.1
  9
$DIMTM
 40
0.1
  9
$DIMTXT
 40
2.5
  9
$DIMCEN
 40
0.0
  9
$DIMTSZ
 40
0.0
  9
$DIMTOL
 70
     0
  9
$DIMLIM
 70
     0
  9
$DIMTIH
 70
     0
  9
$DIMTOH
 70
     0
  9
$DIMSE1
 70
     0
  9
$DIMSE2
 70
     0
  9
$DIMTAD
 70
     1
  9
$DIMZIN
 70
     8
  9
$DIMBLK
  1

  9
$DIMASO
 70
     1
  9
$DIMSHO
 70
     1
  9
$DIMPOST
  1

  9
$DIMAPOST
  1
"
  9
$DIMALT
 70
     0
  9
$DIMALTD
 70
     2
  9
$DIMALTF
 40
0.0393701
  9
$DIMLFAC
 40
1.0
  9
$DIMTOFL
 70
     1
  9
$DIMTVP
 40
0.0
  9
$DIMTIX
 70
     0
  9
$DIMSOXD
 70
     0
  9
$DIMSAH
 70
     0
  9
$DIMBLK1
  1

  9
$DIMBLK2
  1

  9
$DIMSTYLE
  2
AM_ISO
  9
$DIMCLRD
 70
   256
  9
$DIMCLRE
 70
   256
  9
$DIMCLRT
 70
     4
  9
$DIMTFAC
 40
0.71
  9
$DIMGAP
 40
0.8
  9
$LUNITS
 70
     2
  9
$LUPREC
 70
     2
  9
$SKETCHINC
 40
1.0
  9
$FILLETRAD
 40
25.0
  9
$AUNITS
 70
     0
  9
$AUPREC
 70
     0
  9
$MENU
  1
.
  9
$ELEVATION
 40
0.0
  9
$PELEVATION
 40
0.0
  9
$THICKNESS
 40
0.0
  9
$LIMCHECK
 70
     0
  9
$BLIPMODE
 70
     0
  9
$CHAMFERA
 40
10.0
  9
$CHAMFERB
 40
5.0
  9
$SKPOLY
 70
     0
  9
$TDCREATE
 40
2452066.486006401
  9
$TDUPDATE
 40
2458541.471909503
  9
$TDINDWG
 40
0.1243812616
  9
$TDUSRTIMER
 40
0.1243810648
  9
$USRTIMER
 70
     1
  9
$ANGBASE
 50
0.0
  9
$ANGDIR
 70
     0
  9
$PDMODE
 70
     0
  9
$PDSIZE
 40
0.0
  9
$PLINEWID
 40
0.0
  9
$COORDS
 70
     1
  9
$SPLFRAME
 70
     0
  9
$SPLINETYPE
 70
     6
  9
$SPLINESEGS
 70
     8
  9
$ATTDIA
 70
     1
  9
$ATTREQ
 70
     1
  9
$HANDLING
 70
     1
  9
$HANDSEED
  5
331C
  9
$SURFTAB1
 70
     6
  9
$SURFTAB2
 70
     6
  9
$SURFTYPE
 70
     6
  9
$SURFU
 70
     6
  9
$SURFV
 70
     6
  9
$UCSNAME
  2

  9
$UCSORG
 10
0.0
 20
0.0
 30
0.0
  9
$UCSXDIR
 10
1.0
 20
0.0
 30
0.0
  9
$UCSYDIR
 10
0.0
 20
1.0
 30
0.0
  9
$PUCSNAME
  2

  9
$PUCSORG
 10
0.0
 20
0.0
 30
0.0
  9
$PUCSXDIR
 10
1.0
 20
0.0
 30
0.0
  9
$PUCSYDIR
 10
0.0
 20
1.0
 30
0.0
  9
$USERI1
 70
     0
  9
$USERI2
 70
     0
  9
$USERI3
 70
     0
  9
$USERI4
 70
     0
  9
$USERI5
 70
     0
  9
$USERR1
 40
0.0
  9
$USERR2
 40
0.0
  9
$USERR3
 40
0.0
  9
$USERR4
 40
0.0
  9
$USERR5
 40
0.0
  9
$WORLDVIEW
 70
     1
  9
$SHADEDGE
 70
     3
  9
$SHADEDIF
 70
    70
  9
$TILEMODE
 70
     1
  9
$MAXACTVP
 70
    64
  9
$PLIMCHECK
 70
     0
  9
$PEXTMIN
 10
1.0000000000000000E+020
 20
1.0000000000000000E+020
 30
1.0000000000000000E+020
  9
$PEXTMAX
 10
-1.0000000000000000E+020
 20
-1.0000000000000000E+020
 30
-1.0000000000000000E+020
  9
$PLIMMIN
 10
0.0
 20
0.0
  9
$PLIMMAX
 10
420.0
 20
297.0
  9
$UNITMODE
 70
     0
  9
$VISRETAIN
 70
     1
  9
$PLINEGEN
 70
     0
  9
$PSLTSCALE
 70
     1
  0
ENDSEC
  0
SECTION
  2
TABLES
  0
TABLE
  2
VPORT
 70
     1
  0
VPORT
  2
*ACTIVE
 70
     0
 10
0.0
 20
0.0
 11
1.0
 21
1.0
 12
759.21944001336715
 22
696.21976741018477
 13
0.0
 23
0.0
 14
12.5
 24
12.5
 15
50.0
 25
50.0
 16
0.0
 26
0.0
 36
1.0
 17
0.0
 27
0.0
 37
0.0
 40
815.12333838923757
 41
1.757159221076747
 42
50.0
 43
0.0
 44
0.0
 50
0.0
 51
0.0
 71
     0
 72
   100
 73
     1
 74
     3
 75
     0
 76
     0
 77
     0
 78
     0
  0
ENDTAB
  0
TABLE
  2
LTYPE
 70
    27
  0
LTYPE
  2
CONTINUOUS
 70
     0
  3
Solid line
 72
    65
 73
     0
 40
0.0
  0
LTYPE
  2
AM_ISO02W050
 70
     0
  3
__ __ __ __ __ __ __ __ __ __ __ __ __ __ __
 72
    65
 73
     2
 40
7.5
 49
6.0
 49
-1.5
  0
LTYPE
  2
AM_ISO08W050
 70
     0
  3
____ . ____ . ____ . ____ . ____ . ____ . ____
 72
    65
 73
     4
 40
18.0
 49
12.0
 49
-1.5
 49
3.0
 49
-1.5
  0
LTYPE
  2
AM_ISO09W050
 70
     0
  3
_____ . . _____ . . _____ . . ____ .. ____
 72
    65
 73
     6
 40
22.5
 49
12.0
 49
-1.5
 49
3.0
 49
-1.5
 49
3.0
 49
-1.5
  0
LTYPE
  2
AMCONSTR
 70
     0
  3
_______________________
 72
    65
 73
     2
 40
9999.0
 49
9999.0
 49
0.0
  0
LTYPE
  2
AM_ISO08W050X2
 70
     0
  3
__ . __ . __ . __ . __ . __
 72
    65
 73
     4
 40
9.0
 49
6.0
 49
-0.75
 49
1.5
 49
-0.75
  0
LTYPE
  2
AM_ISO02W050X2
 70
     0
  3
 _ _ _ _ _ _ _ _ _ _ _ _
 72
    65
 73
     2
 40
3.75
 49
3.0
 49
-0.75
  0
LTYPE
  2
AMZIGZAG
 70
     0
  3
/\/-/\/-/\/-/\/-/\/-/\/
 72
    65
 73
     2
 40
11.000099999999991
 49
0.0001
 49
-11.0
  0
LTYPE
  2
ACISOWELD
 70
     0
  3
_ _ _ _ _
 72
    65
 73
     2
 40
2.0
 49
2.0
 49
-1.0
  0
LTYPE
  2
ACISOTGB
 70
     0
  3
__ . . __ . .
 72
    65
 73
     6
 40
9.0
 49
4.0
 49
-1.0
 49
1.0
 49
-1.0
 49
1.0
 49
-1.0
  0
LTYPE
  2
ACISOTGL
 70
     0
  3
_ _ _ _ _
 72
    65
 73
     2
 40
3.0
 49
2.0
 49
-1.0
  0
LTYPE
  2
CENTER
 70
     0
  3
__ . __
 72
    65
 73
     4
 40
7.0
 49
4.0
 49
-1.0
 49
1.0
 49
-1.0
  0
LTYPE
  2
PHANTOM2
 70
     0
  3
Phantom (.5x) ___ _ _ ___ _ _ ___ _ _ ___ _ _
 72
    65
 73
     6
 40
31.75
 49
15.875
 49
-3.174999999999998
 49
3.174999999999998
 49
-3.174999999999998
 49
3.174999999999998
 49
-3.174999999999998
  0
LTYPE
  2
ACANSTGBM
 70
     0
  3
__ . . __ . .
 72
    65
 73
     6
 40
9.0
 49
4.0
 49
-1.0
 49
1.0
 49
-1.0
 49
1.0
 49
-1.0
  0
LTYPE
  2
ACANSTGLM
 70
     0
  3
_ _ _ _ _
 72
    65
 73
     2
 40
3.0
 49
2.0
 49
-1.0
  0
LTYPE
  2
GEN7
 70
     0
  3
____ . ____ . ____ . ____ . ____ . ____ . ____
 72
    65
 73
     4
 40
14.25
 49
9.75
 49
-1.5
 49
1.5
 49
-1.5
  0
LTYPE
  2
GEN3B
 70
     0
  3
 - - - - -
 72
    65
 73
     2
 40
1.0
 49
0.5
 49
-0.5
  0
LTYPE
  2
GEN7A
 70
     0
  3
__ . __ . __
 72
    65
 73
     4
 40
7.375
 49
4.75
 49
-0.875
 49
0.875
 49
-0.875
  0
LTYPE
  2
ACJISTGB
 70
     0
  3
__ . . __ . .
 72
    65
 73
     6
 40
9.0
 49
4.0
 49
-1.0
 49
1.0
 49
-1.0
 49
1.0
 49
-1.0
  0
LTYPE
  2
ACJISTGL
 70
     0
  3
_ _ _ _ _
 72
    65
 73
     2
 40
3.0
 49
2.0
 49
-1.0
  0
LTYPE
  2
HIDDEN
 70
     0
  3
Hidden __ __ __ __ __ __ __ __ __ __ __ __ __ _
 72
    65
 73
     2
 40
0.375
 49
0.25
 49
-0.125
  0
LTYPE
  2
CENTER2
 70
     0
  3
Center (.5x) ___ _ ___ _ ___ _ ___ _ ___ _ ___
 72
    65
 73
     4
 40
1.125
 49
0.75
 49
-0.125
 49
0.125
 49
-0.125
  0
LTYPE
  2
HIDDEN2
 70
     0
  3
Hidden (.5x) _ _ _ _ _ _ _ _ _ _ _ _ _ _ _ _ _
 72
    65
 73
     2
 40
0.1875
 49
0.125
 49
-0.0625
  0
LTYPE
  2
AMZIGZAG2
 70
     0
  3
/\/-/\/-/\/-/\/-/\/-/\/
 72
    65
 73
     2
 40
0.4401
 49
0.0001
 49
-0.4400000000000002
  0
LTYPE
  2
ACANSTGB
 70
     0
  3
__ . . __ . .
 72
    65
 73
     6
 40
0.35433070866
 49
0.15748031496
 49
-0.03937007874
 49
0.03937007874
 49
-0.03937007874
 49
0.03937007874
 49
-0.03937007874
  0
LTYPE
  2
ACANSTGL
 70
     0
  3
_ _ _ _ _
 72
    65
 73
     2
 40
0.11811023622
 49
0.07874015748
 49
-0.03937007874
  0
ENDTAB
  0
TABLE
  2
LAYER
 70
     7
  0
LAYER
  2
0
 70
     0
 62
     7
  6
CONTINUOUS
  0
LAYER
  2
AM_0
 70
     0
 62
     7
  6
CONTINUOUS
  0
LAYER
  2
AM_5
 70
     0
 62
     2
  6
CONTINUOUS
  0
LAYER
  2
DEFPOINTS
 70
     0
 62
     7
  6
CONTINUOUS
  0
LAYER
  2
ｶｸﾚｾﾝ2
 70
     0
 62
     3
  6
GEN3B
  0
LAYER
  2
ﾁｭｳｼﾝｾﾝ
 70
     0
 62
     1
  6
GEN7
  0
LAYER
  2
ﾁｭｳｼﾝｾﾝ1
 70
     0
 62
     1
  6
GEN7A
  0
ENDTAB
  0
TABLE
  2
STYLE
 70
     9
  0
STYLE
  2
STANDARD
 70
     0
 40
0.0
 41
0.8299999999999999
 50
0.0
 71
     0
 42
2.5
  3
txt.shx
  4
bigfont.shx
  0
STYLE
  2
ANNOTATIVE
 70
     0
 40
0.0
 41
1.0
 50
0.0
 71
     0
 42
0.2
  3
txt
  4

  0
STYLE
  2

 70
     1
 40
0.0
 41
1.0
 50
0.0
 71
     0
 42
2.5
  3
ltypeshp.shx
  4

  0
STYLE
  2
ACISOTS
 70
     0
 40
1.0
 41
1.0
 50
0.0
 71
     0
 42
2.5
  3
isocp.shx
  4
extfont.shx
  0
STYLE
  2
ACISOGDT
 70
     0
 40
0.0
 41
1.0
 50
0.0
 71
     0
 42
2.5
  3
amgdt.shx
  4

  0
STYLE
  2
ACANSTS
 70
     0
 40
1.0
 41
1.0
 50
0.0
 71
     0
 42
2.5
  3
romans.shx
  4
bigfont.shx
  0
STYLE
  2
ACANSGDT
 70
     0
 40
0.0
 41
1.0
 50
0.0
 71
     0
 42
2.5
  3
amgdt.shx
  4

  0
STYLE
  2
ACJISTS
 70
     0
 40
1.0
 41
1.0
 50
0.0
 71
     0
 42
2.5
  3
isocp.shx
  4
bigfont.shx
  0
STYLE
  2
ACJISGDT
 70
     0
 40
0.0
 41
1.0
 50
0.0
 71
     0
 42
2.5
  3
amgdt.shx
  4

  0
ENDTAB
  0
TABLE
  2
VIEW
 70
     6
  0
VIEW
  2
AM_VIEW1
 70
     0
 40
462.5
 10
416.07965009208078
 20
693.75
 41
832.15930018416213
 11
0.0
 21
0.0
 31
1.0
 12
0.0
 22
0.0
 32
0.0
 42
50.0
 43
0.0
 44
0.0
 50
0.0
 71
     0
  0
VIEW
  2
AM_VIEW2
 70
     0
 40
462.5
 10
1006.420349907918
 20
693.75
 41
832.15930018416213
 11
0.0
 21
0.0
 31
1.0
 12
0.0
 22
0.0
 32
0.0
 42
50.0
 43
0.0
 44
0.0
 50
0.0
 71
     0
  0
VIEW
  2
AM_VIEW3
 70
     0
 40
462.5
 10
416.07965009208078
 20
231.25
 41
832.15930018416213
 11
0.0
 21
0.0
 31
1.0
 12
0.0
 22
0.0
 32
0.0
 42
50.0
 43
0.0
 44
0.0
 50
0.0
 71
     0
  0
VIEW
  2
AM_VIEW4
 70
     0
 40
462.5
 10
1006.420349907918
 20
231.25
 41
832.15930018416213
 11
0.0
 21
0.0
 31
1.0
 12
0.0
 22
0.0
 32
0.0
 42
50.0
 43
0.0
 44
0.0
 50
0.0
 71
     0
  0
VIEW
  2
AM_VIEW5
 70
     0
 40
462.5
 10
711.24999999999966
 20
462.5
 41
832.15930018416179
 11
0.0
 21
0.0
 31
1.0
 12
0.0
 22
0.0
 32
0.0
 42
50.0
 43
0.0
 44
0.0
 50
0.0
 71
     0
  0
VIEW
  2
AM_VIEW6
 70
     0
 40
924.99075000000005
 10
711.24999999999966
 20
462.5
 41
1664.3019571823199
 11
0.0
 21
0.0
 31
1.0
 12
0.0
 22
0.0
 32
0.0
 42
50.0
 43
0.0
 44
0.0
 50
0.0
 71
     0
  0
ENDTAB
  0
TABLE
  2
UCS
 70
     0
  0
ENDTAB
  0
TABLE
  2
APPID
 70
    95
  0
APPID
  2
ACAD
 70
     0
  0
APPID
  2
ACADANNOTATIVE
 70
     0
  0
APPID
  2
MCAD_NO_VIS
 70
     0
  0
APPID
  2
ACAD_TEMP_GRAPHIC
 70
     0
  0
APPID
  2
ACATTRIBSERVICES
 70
     0
  0
APPID
  2
GENIUS_GENREC_14
 70
     0
  0
APPID
  2
GENIUS_GENOBJ-N-REC_13
 70
     0
  0
APPID
  2
GENIUS_GENODEF_13
 70
     0
  0
APPID
  2
GENIUS_GENOLIS_13
 70
     0
  0
APPID
  2
GENIUS_GENOBJ-N-TIT_13
 70
     0
  0
APPID
  2
GENIUS_GENOENT_13
 70
     0
  0
APPID
  2
GENIUS_GENTITLE_13
 70
     0
  0
APPID
  2
GENIUS_GENOREF_13
 70
     0
  0
APPID
  2
GENIUS_GENSCREG_15
 70
     0
  0
APPID
  2
GENIUS_GENOBJ-N-SDF_13
 70
     0
  0
APPID
  2
GENIUS_GENFIL_13
 70
     0
  0
APPID
  2
GENIUS_GENOBJ-N-CHA_13
 70
     0
  0
APPID
  2
GENIUS_GENDTOL_13
 70
     0
  0
APPID
  2
GENIUS_GENOBJ-N-FIL_13
 70
     0
  0
APPID
  2
AD_DRAW
 70
     0
  0
APPID
  2
DESIGNERASSEMBLIES
 70
     0
  0
APPID
  2
ASURF_PCURVE_APPNAME
 70
     0
  0
APPID
  2
GENIUS_GE3SECT_13
 70
     0
  0
APPID
  2
GENIUS_GENCFG_13
 70
     0
  0
APPID
  2
GENIUS_GE3CFG0_13
 70
     0
  0
APPID
  2
GENIUS_GENCFG0_13
 70
     0
  0
APPID
  2
GENIUS_GENCFG1_13
 70
     0
  0
APPID
  2
GENIUS_GENCFG2_13
 70
     0
  0
APPID
  2
GENIUS_GENCFG3_13
 70
     0
  0
APPID
  2
GENIUS_GENCFG4_13
 70
     0
  0
APPID
  2
GENIUS_GEVCFG0_13
 70
     0
  0
APPID
  2
GENIUS_GENHINW_13
 70
     0
  0
APPID
  2
GENIUS_FIRSTVISTXT_14
 70
     0
  0
APPID
  2
GENIUS_GENOBJ-N-LEADER_13
 70
     0
  0
APPID
  2
GEV_VCCNULL_SWITCH_OFF
 70
     0
  0
APPID
  2
GENIUS_GEFCFG0_13
 70
     0
  0
APPID
  2
GENIUS_GENZVEED_13
 70
     0
  0
APPID
  2
GENIUS_GENSCREG_13
 70
     0
  0
APPID
  2
GENIUS_DUMCFG0_13
 70
     0
  0
APPID
  2
GEVID936201362
 70
     0
  0
APPID
  2
GEVDC
 70
     0
  0
APPID
  2
GEVCON
 70
     0
  0
APPID
  2
VCC
 70
     0
  0
APPID
  2
GEVPT
 70
     0
  0
APPID
  2
GEVIT
 70
     0
  0
APPID
  2
GENBH
 70
     0
  0
APPID
  2
GEVMK
 70
     0
  0
APPID
  2
GENIUS_GENBH_13
 70
     0
  0
APPID
  2
GENIUS_GENOBJ-NBEHI-BHF_13
 70
     0
  0
APPID
  2
GENIUS_GENOBJ-NBEHI-BHB_13
 70
     0
  0
APPID
  2
GENIUS_GENOBJ-F-DESC_13
 70
     0
  0
APPID
  2
GENIUS_GEFDESC_14
 70
     0
  0
APPID
  2
GENIUS_GENOBJ-F-PART_13
 70
     0
  0
APPID
  2
GENIUS_GEFSTDP_13
 70
     0
  0
APPID
  2
GENIUS_GEFPARTINS_13
 70
     0
  0
APPID
  2
GENIUS_GENTRA_14
 70
     0
  0
APPID
  2
GENIUS_GENINF13_13
 70
     0
  0
APPID
  2
GENIUS_GENOBJ-N-INFOPT_13
 70
     0
  0
APPID
  2
GENIUS_GENOBJ-N-RSSYM_13
 70
     0
  0
APPID
  2
GENIUS_GENSYMENT_13
 70
     0
  0
APPID
  2
GENIUS_GENSCSYM_13
 70
     0
  0
APPID
  2
GENIUS_GEFINFNAM_13
 70
     0
  0
APPID
  2
GENIUS_GENOBJ-N-CEN_13
 70
     0
  0
APPID
  2
GENIUS_GENOBJ-N-CRS_13
 70
     0
  0
APPID
  2
GENIUS_GENOBJ-N-CRC_13
 70
     0
  0
APPID
  2
GENIUS_GENCRC_14
 70
     0
  0
APPID
  2
GEVID942827039
 70
     0
  0
APPID
  2
GEVID942827040
 70
     0
  0
APPID
  2
GEVID942827041
 70
     0
  0
APPID
  2
GENIUS_GENOBJ-F-SCPASSM_13
 70
     0
  0
APPID
  2
GENIUS_GENDIMSH_14
 70
     0
  0
APPID
  2
GEVID942827042
 70
     0
  0
APPID
  2
GEVID946020473
 70
     0
  0
APPID
  2
GEVID946020474
 70
     0
  0
APPID
  2
GEVID946020475
 70
     0
  0
APPID
  2
GENIUS_GENOBJ-N-HTC_13
 70
     0
  0
APPID
  2
GENIUS_GENHATCH_13
 70
     0
  0
APPID
  2
GEVID948854295
 70
     0
  0
APPID
  2
GEVID939402019
 70
     0
  0
APPID
  2
GEVID952919491
 70
     0
  0
APPID
  2
GEVID952919492
 70
     0
  0
APPID
  2
GENIUS_GEFWELD_13
 70
     0
  0
APPID
  2
GENIUS_GENOBJ-F-WELS_13
 70
     0
  0
APPID
  2
GEVID952919493
 70
     0
  0
APPID
  2
GENIUS_GENOBJ-N-RSBK_13
 70
     0
  0
APPID
  2
GENIUS_GENOBJ-N-LIB_13
 70
     0
  0
APPID
  2
GENIUS_GENSCALE_13
 70
     0
  0
APPID
  2
GEVID986376691
 70
     0
  0
APPID
  2
DCO15
 70
     0
  0
APPID
  2
ACAD_DSTYLE_DIMBREAK
 70
     0
  0
APPID
  2
ACAD_DSTYLE_DIMJAG
 70
     0
  0
APPID
  2
ACAD_NAV_VCDISPLAY
 70
     0
  0
APPID
  2
ACADANNOPO
 70
     0
  0
APPID
  2
ACAD_EXEMPT_FROM_CAD_STANDARDS
 70
     0
  0
APPID
  2
ACAD_MLEADERVER
 70
     0
  0
ENDTAB
  0
TABLE
  2
DIMSTYLE
 70
    22
  0
DIMSTYLE
  2
STANDARD
 70
     0
  3

  4

  5

  6

  7

 40
1.0
 41
0.18
 42
0.0625
 43
0.38
 44
0.18
 45
0.0
 46
0.0
 47
0.0
 48
0.0
140
0.18
141
0.09
142
0.0
143
25.399999999999999
144
1.0
145
0.0
146
1.0
147
0.09
 71
     0
 72
     0
 73
     1
 74
     1
 75
     0
 76
     0
 77
     0
 78
     0
170
     0
171
     2
172
     0
173
     0
174
     0
175
     0
176
     0
177
     0
178
     0
  0
DIMSTYLE
  2
ANNOTATIVE
 70
     0
  3

  4

  5

  6

  7

 40
1.0
 41
0.18
 42
0.0625
 43
0.38
 44
0.18
 45
0.0
 46
0.0
 47
0.0
 48
0.0
140
0.18
141
0.09
142
0.0
143
25.399999999999999
144
1.0
145
0.0
146
1.0
147
0.09
 71
     0
 72
     0
 73
     1
 74
     1
 75
     0
 76
     0
 77
     0
 78
     0
170
     0
171
     2
172
     0
173
     0
174
     0
175
     0
176
     0
177
     0
178
     0
  0
DIMSTYLE
  2
AM_ISO
 70
     0
  3

  4
"
  5

  6

  7

 40
1.0
 41
2.5
 42
1.0
 43
8.0
 44
0.6
 45
0.0
 46
0.0
 47
0.1
 48
0.1
140
2.5
141
0.0
142
0.0
143
0.0393701
144
1.0
145
0.0
146
0.71
147
0.8
 71
     0
 72
     0
 73
     0
 74
     0
 75
     0
 76
     0
 77
     1
 78
     8
170
     0
171
     2
172
     1
173
     0
174
     0
175
     0
176
   256
177
   256
178
     4
  0
DIMSTYLE
  2
AM_ISO$3
 70
     0
  3

  4
"
  5

  6

  7

 40
1.0
 41
2.5
 42
1.0
 43
8.0
 44
0.6
 45
0.0
 46
0.0
 47
0.1
 48
0.1
140
2.5
141
0.0
142
0.0
143
0.0393701
144
1.0
145
0.0
146
0.71
147
0.8
 71
     0
 72
     0
 73
     0
 74
     1
 75
     0
 76
     0
 77
     1
 78
     8
170
     0
171
     2
172
     0
173
     0
174
     0
175
     0
176
   256
177
   256
178
     4
  0
DIMSTYLE
  2
AM_ISO$4
 70
     0
  3

  4
"
  5

  6

  7

 40
1.0
 41
2.5
 42
1.0
 43
8.0
 44
0.6
 45
0.0
 46
0.0
 47
0.1
 48
0.1
140
2.5
141
0.0
142
0.0
143
0.0393701
144
1.0
145
0.0
146
0.71
147
0.8
 71
     0
 72
     0
 73
     0
 74
     1
 75
     0
 76
     0
 77
     1
 78
     8
170
     0
171
     2
172
     0
173
     0
174
     0
175
     0
176
   256
177
   256
178
     4
  0
DIMSTYLE
  2
AM_ISO$6
 70
     0
  3

  4
"
  5

  6

  7

 40
1.0
 41
2.5
 42
1.0
 43
8.0
 44
0.6
 45
0.0
 46
0.0
 47
0.1
 48
0.1
140
2.5
141
0.0
142
0.0
143
0.0393701
144
1.0
145
0.0
146
0.71
147
0.8
 71
     0
 72
     0
 73
     0
 74
     0
 75
     0
 76
     0
 77
     0
 78
     8
170
     0
171
     2
172
     1
173
     0
174
     0
175
     0
176
   256
177
   256
178
     4
  0
DIMSTYLE
  2
AM_ISO$7
 70
     0
  3

  4
"
  5

  6

  7

 40
1.0
 41
2.5
 42
1.0
 43
8.0
 44
0.6
 45
0.0
 46
0.0
 47
0.1
 48
0.1
140
2.5
141
0.0
142
0.0
143
0.0393701
144
1.0
145
0.0
146
0.71
147
0.8
 71
     0
 72
     0
 73
     0
 74
     0
 75
     0
 76
     0
 77
     1
 78
     8
170
     0
171
     2
172
     1
173
     0
174
     0
175
     0
176
   256
177
   256
178
     4
  0
DIMSTYLE
  2
AM_ISO$SF
 70
     0
  3

  4
"
  5

  6

  7

 40
1.0
 41
2.5
 42
1.0
 43
10.0
 44
1.0
 45
0.0
 46
0.0
 47
0.1
 48
0.1
140
3.5
141
0.0
142
0.0
143
0.0393701
144
1.0
145
0.0
146
0.71
147
1.5
 71
     0
 72
     0
 73
     0
 74
     0
 75
     1
 76
     1
 77
     1
 78
     8
170
     0
171
     2
172
     1
173
     0
174
     0
175
     0
176
   256
177
   256
178
     2
  0
DIMSTYLE
  2
AM_ISO$SH
 70
     0
  3

  4
"
  5

  6

  7

 40
1.0
 41
2.5
 42
1.0
 43
10.0
 44
1.0
 45
0.0
 46
0.0
 47
0.1
 48
0.1
140
3.5
141
0.0
142
0.0
143
0.0393701
144
2.0
145
0.0
146
0.71
147
1.5
 71
     0
 72
     0
 73
     0
 74
     0
 75
     1
 76
     1
 77
     1
 78
     8
170
     0
171
     2
172
     1
173
     1
174
     0
175
     0
176
   256
177
   256
178
     2
  0
DIMSTYLE
  2
AM_JIS
 70
     0
  3

  4
"
  5

  6

  7

 40
1.0
 41
2.5
 42
1.0
 43
7.0
 44
1.0
 45
0.0
 46
0.0
 47
0.1
 48
0.1000000001
140
2.5
141
0.0
142
0.0
143
0.0393701
144
1.0
145
0.0
146
0.71
147
1.0
 71
     0
 72
     0
 73
     0
 74
     0
 75
     0
 76
     0
 77
     3
 78
     8
170
     0
171
     2
172
     1
173
     0
174
     0
175
     0
176
   256
177
   256
178
     4
  0
DIMSTYLE
  2
AM_JIS$3
 70
     0
  3

  4
"
  5

  6

  7

 40
1.0
 41
2.5
 42
1.0
 43
7.0
 44
1.0
 45
0.0
 46
0.0
 47
0.1
 48
0.1000000001
140
2.5
141
0.0
142
0.0
143
0.0393701
144
1.0
145
0.0
146
0.71
147
1.0
 71
     0
 72
     0
 73
     0
 74
     1
 75
     0
 76
     0
 77
     3
 78
     8
170
     0
171
     2
172
     0
173
     0
174
     0
175
     0
176
   256
177
   256
178
     4
  0
DIMSTYLE
  2
AM_JIS$4
 70
     0
  3

  4
"
  5

  6

  7

 40
1.0
 41
2.5
 42
1.0
 43
7.0
 44
1.0
 45
0.0
 46
0.0
 47
0.1
 48
0.1000000001
140
2.5
141
0.0
142
0.0
143
0.0393701
144
1.0
145
0.0
146
0.71
147
1.0
 71
     0
 72
     0
 73
     0
 74
     0
 75
     0
 76
     0
 77
     3
 78
     8
170
     0
171
     2
172
     0
173
     0
174
     0
175
     0
176
   256
177
   256
178
     4
  0
DIMSTYLE
  2
AM_JIS$6
 70
     0
  3

  4
"
  5

  6

  7

 40
1.0
 41
2.5
 42
1.0
 43
7.0
 44
1.0
 45
0.0
 46
0.0
 47
0.1
 48
0.1000000001
140
2.5
141
0.0
142
0.0
143
0.0393701
144
1.0
145
0.0
146
0.71
147
1.0
 71
     0
 72
     0
 73
     0
 74
     0
 75
     0
 76
     0
 77
     0
 78
     8
170
     0
171
     2
172
     1
173
     0
174
     0
175
     0
176
   256
177
   256
178
     4
  0
DIMSTYLE
  2
AM_JIS$7
 70
     0
  3

  4
"
  5

  6

  7

 40
1.0
 41
2.5
 42
1.0
 43
7.0
 44
1.0
 45
0.0
 46
0.0
 47
0.1
 48
0.1000000001
140
2.5
141
0.0
142
0.0
143
0.0393701
144
1.0
145
0.0
146
0.71
147
1.0
 71
     0
 72
     0
 73
     0
 74
     0
 75
     0
 76
     0
 77
     3
 78
     8
170
     0
171
     2
172
     1
173
     0
174
     0
175
     0
176
   256
177
   256
178
     4
  0
DIMSTYLE
  2
AM_JIS$SF
 70
     0
  3

  4
"
  5

  6

  7

 40
1.0
 41
2.5
 42
1.0
 43
10.0
 44
1.0
 45
0.0
 46
0.0
 47
0.1
 48
0.1
140
3.5
141
0.0
142
0.0
143
0.0393701
144
1.0
145
0.0
146
0.71
147
1.5
 71
     0
 72
     0
 73
     0
 74
     0
 75
     1
 76
     1
 77
     3
 78
     8
170
     0
171
     2
172
     1
173
     0
174
     0
175
     0
176
   256
177
   256
178
     4
  0
DIMSTYLE
  2
AM_JIS$SH
 70
     0
  3

  4
"
  5

  6

  7

 40
1.0
 41
2.5
 42
1.0
 43
10.0
 44
1.0
 45
0.0
 46
0.0
 47
0.1
 48
0.1
140
3.5
141
0.0
142
0.0
143
0.0393701
144
1.0
145
0.0
146
0.71
147
1.5
 71
     0
 72
     0
 73
     0
 74
     0
 75
     1
 76
     0
 77
     3
 78
     8
170
     0
171
     2
172
     1
173
     1
174
     0
175
     0
176
   256
177
   256
178
     4
  0
DIMSTYLE
  2
AM_ANSI
 70
     0
  3

  4
mm
  5

  6

  7

 40
1.0
 41
0.1
 42
0.05
 43
0.5
 44
0.1
 45
0.0
 46
0.0
 47
0.1
 48
0.1
140
0.12
141
0.0
142
0.0
143
25.399999999999999
144
1.0
145
0.0
146
0.71
147
0.06
 71
     0
 72
     0
 73
     1
 74
     1
 75
     0
 76
     0
 77
     0
 78
     7
170
     0
171
     2
172
     0
173
     0
174
     0
175
     0
176
   256
177
   256
178
     2
  0
DIMSTYLE
  2
AM_ANSI$3
 70
     0
  3

  4
mm
  5

  6

  7

 40
1.0
 41
0.1
 42
0.05
 43
0.5
 44
0.1
 45
0.0
 46
0.0
 47
0.1
 48
0.1
140
0.12
141
0.0
142
0.0
143
25.399999999999999
144
1.0
145
0.0
146
0.71
147
0.06
 71
     0
 72
     0
 73
     1
 74
     1
 75
     0
 76
     0
 77
     0
 78
     7
170
     0
171
     2
172
     0
173
     0
174
     0
175
     0
176
   256
177
   256
178
     2
  0
DIMSTYLE
  2
AM_ANSI$4
 70
     0
  3

  4
mm
  5

  6

  7

 40
1.0
 41
0.1
 42
0.05
 43
0.5
 44
0.1
 45
0.0
 46
0.0
 47
0.1
 48
0.1
140
0.12
141
0.0
142
0.0
143
25.399999999999999
144
1.0
145
0.0
146
0.71
147
0.06
 71
     0
 72
     0
 73
     1
 74
     1
 75
     0
 76
     0
 77
     0
 78
     7
170
     0
171
     2
172
     0
173
     0
174
     0
175
     0
176
   256
177
   256
178
     2
  0
DIMSTYLE
  2
AM_ANSI$7
 70
     0
  3

  4
mm
  5

  6

  7

 40
1.0
 41
0.1
 42
0.05
 43
0.5
 44
0.1
 45
0.0
 46
0.0
 47
0.1
 48
0.1
140
0.24
141
0.0
142
0.0
143
25.399999999999999
144
1.0
145
0.0
146
0.71
147
0.06
 71
     0
 72
     0
 73
     1
 74
     1
 75
     0
 76
     0
 77
     0
 78
     7
170
     0
171
     2
172
     0
173
     0
174
     0
175
     0
176
   256
177
   256
178
     2
  0
DIMSTYLE
  2
AM_ANSI$SF
 70
     0
  3

  4
mm
  5

  6

  7

 40
1.0
 41
0.1
 42
0.05
 43
0.5
 44
0.1
 45
0.0
 46
0.0
 47
0.1
 48
0.1
140
0.12
141
0.0
142
0.0
143
25.399999999999999
144
1.0
145
0.0
146
0.71
147
0.06
 71
     0
 72
     0
 73
     1
 74
     1
 75
     1
 76
     1
 77
     0
 78
     7
170
     0
171
     2
172
     0
173
     0
174
     0
175
     0
176
   256
177
   256
178
     2
  0
DIMSTYLE
  2
AM_ANSI$SH
 70
     0
  3

  4
mm
  5

  6

  7

 40
1.0
 41
0.1
 42
0.05
 43
0.5
 44
0.1
 45
0.0
 46
0.0
 47
0.1
 48
0.1
140
0.12
141
0.0
142
0.0
143
25.399999999999999
144
1.0
145
0.0
146
0.71
147
0.06
 71
     0
 72
     0
 73
     1
 74
     1
 75
     1
 76
     1
 77
     0
 78
     7
170
     0
171
     2
172
     0
173
     1
174
     0
175
     0
176
   256
177
   256
178
     2
  0
ENDTAB
  0
ENDSEC
  0
SECTION
  2
BLOCKS
  0
BLOCK
  8
0
  2
$MODEL_SPACE
 70
     0
 10
0.0
 20
0.0
 30
0.0
  3
$MODEL_SPACE
  1

  0
ENDBLK
  5
318E
  8
0
  0
BLOCK
 67
     1
  8
0
  2
$PAPER_SPACE
 70
     0
 10
0.0
 20
0.0
 30
0.0
  3
$PAPER_SPACE
  1

  0
ENDBLK
  5
318A
 67
     1
  8
0
  0
BLOCK
  8
0
  2
GENAXEH
 70
     0
 10
0.0
 20
0.0
 30
0.0
  3
GENAXEH
  1

  0
LINE
  5
2F1A
  8
0
 10
-1.0
 20
0.0
 30
0.0
 11
1.0
 21
0.0
 31
0.0
  0
ENDBLK
  5
2F1B
  8
0
  0
BLOCK
  8
0
  2
_OPEN30
 70
     0
 10
0.0
 20
0.0
 30
0.0
  3
_OPEN30
  1

  0
LINE
  5
2F1E
  8
0
 62
     0
 10
-1.0
 20
0.26794919
 30
0.0
 11
0.0
 21
0.0
 31
0.0
  0
LINE
  5
2F1F
  8
0
 62
     0
 10
0.0
 20
0.0
 30
0.0
 11
-1.0
 21
-0.26794919
 31
0.0
  0
LINE
  5
2F20
  8
0
 62
     0
 10
0.0
 20
0.0
 30
0.0
 11
-1.0
 21
0.0
 31
0.0
  0
ENDBLK
  5
2F21
  8
0
  0
BLOCK
  8
0
  2
_NONE
 70
     0
 10
0.0
 20
0.0
 30
0.0
  3
_NONE
  1

  0
ENDBLK
  5
2F24
  8
0
  0
BLOCK
  8
0
  2
_ACMFILLEDHALF
 70
     0
 10
0.0
 20
0.0
 30
0.0
  3
_ACMFILLEDHALF
  1

  0
TRACE
  5
3286
  8
AM_0
 62
     0
 10
-0.8
 20
0.0
 30
0.0
 11
-1.0
 21
0.166666666
 31
0.0
 12
0.0
 22
0.0
 32
0.0
 13
0.0
 23
0.0
 33
0.0
  0
LINE
  5
3287
  8
AM_0
 62
     0
 10
-1.0
 20
0.0
 30
0.0
 11
-0.8
 21
0.0
 31
0.0
  0
ENDBLK
  5
3285
  8
0
  0
ENDSEC
  0
SECTION
  2
ENTITIES
  0
LINE
  5
2F26
  8
AM_0
 10
682.00019676636225
 20
943.9353451254492
 30
0.0
 11
744.00013676636183
 21
943.9353451254492
 31
0.0
  0
LINE
  5
2F27
  8
AM_0
 10
682.00019676636225
 20
927.93534512544909
 30
0.0
 11
744.00013676636183
 21
927.93534512544909
 31
0.0
  0
LINE
  5
2F28
  8
AM_0
 10
662.0001367663624
 20
963.43540512544917
 30
0.0
 11
744.00013676636183
 21
963.43540512544917
 31
0.0
  0
LINE
  5
2F29
  8
AM_0
 10
662.0001367663624
 20
908.43540512544905
 30
0.0
 11
744.00013676636183
 21
908.43540512544905
 31
0.0
  0
LINE
  5
2F2A
  8
ﾁｭｳｼﾝｾﾝ
 10
274.61346392454601
 20
935.93540512544905
 30
0.0
 11
754.61737676636233
 21
935.93540512544905
 31
0.0
  0
POLYLINE
  5
2F2B
  8
AM_0
 66
     1
 10
0.0
 20
0.0
 30
0.0
  0
VERTEX
  5
2F2C
  8
AM_0
 10
399.062816766362
 20
860.37284512544909
 30
0.0
 42
-0.10362759
  0
VERTEX
  5
2F2D
  8
AM_0
 10
359.65445676636222
 20
906.59853512544908
 30
0.0
 42
-0.26090923
  0
VERTEX
  5
2F2E
  8
AM_0
 10
359.65445676636222
 20
965.27228512544934
 30
0.0
 42
-0.10362793
  0
VERTEX
  5
2F2F
  8
AM_0
 10
399.06275676636221
 20
1011.4979051254491
 30
0.0
  0
SEQEND
  5
2F30
  8
AM_0
  0
LINE
  5
2F31
  8
AM_0
 10
397.09442676636201
 20
860.44156512544907
 30
0.0
 11
340.00019676636219
 21
862.4353451254492
 31
0.0
  0
LINE
  5
2F32
  8
AM_0
 10
397.09442676636201
 20
1011.429175125449
 30
0.0
 11
340.00019676636219
 21
1009.4354051254491
 31
0.0
  0
LINE
  5
2F33
  8
AM_0
 10
352.00019676636208
 20
862.4353451254492
 30
0.0
 11
352.00019676636208
 21
1009.4354051254491
 31
0.0
  0
LINE
  5
2F34
  8
AM_0
 10
340.00019676636219
 20
862.4353451254492
 30
0.0
 11
340.00019676636219
 21
1009.4354051254491
 31
0.0
  0
LINE
  5
2F35
  8
AM_0
 10
340.00019676636219
 20
874.35538512544906
 30
0.0
 11
352.00019676636208
 21
874.35538512544906
 31
0.0
  0
LINE
  5
2F36
  8
AM_0
 10
340.00019676636219
 20
896.46073512544933
 30
0.0
 11
352.00019676636208
 21
896.46073512544933
 31
0.0
  0
LINE
  5
2F37
  8
AM_0
 10
340.00019676636219
 20
975.41007512544923
 30
0.0
 11
352.00019676636208
 21
975.41007512544923
 31
0.0
  0
LINE
  5
2F38
  8
AM_0
 10
340.00019676636219
 20
997.51542512544916
 30
0.0
 11
352.00019676636208
 21
997.51542512544916
 31
0.0
  0
LINE
  5
2F39
  8
AM_0
 10
397.00019676636208
 20
917.93540512544917
 30
0.0
 11
397.00019676636208
 21
953.93540512544894
 31
0.0
  0
LINE
  5
2F3A
  8
AM_0
 10
365.00019676636208
 20
922.93540512544905
 30
0.0
 11
365.00019676636208
 21
948.93540512544917
 31
0.0
  0
LINE
  5
2F3B
  8
AM_0
 10
415.00019676636202
 20
838.93540512544905
 30
0.0
 11
415.00019676636202
 21
1032.935345125449
 31
0.0
  0
LINE
  5
2F3C
  8
AM_0
 10
430.0002567663621
 20
1033.4354051254491
 30
0.0
 11
430.0002567663621
 21
838.43540512544905
 31
0.0
  0
LINE
  5
2F3D
  8
AM_0
 10
479.00013676636229
 20
808.81144512544904
 30
0.0
 11
479.00013676636229
 21
925.39981512544921
 31
0.0
  0
LINE
  5
2F3E
  8
AM_0
 10
509.00019676636231
 20
930.93540512544905
 30
0.0
 11
509.00019676636231
 21
802.93534512544898
 31
0.0
  0
LINE
  5
2F3F
  8
AM_0
 10
453.000136766362
 20
829.47971512544905
 30
0.0
 11
453.000136766362
 21
1042.391035125449
 31
0.0
  0
LINE
  5
2F40
  8
AM_0
 10
534.00013676636229
 20
803.80838512544915
 30
0.0
 11
534.00013676636229
 21
1068.062355125448
 31
0.0
  0
LINE
  5
2F41
  8
AM_0
 10
624.00019676636225
 20
827.8132751254492
 30
0.0
 11
624.00019676636225
 21
1044.057475125448
 31
0.0
  0
LINE
  5
2F42
  8
AM_0
 10
651.00019676636225
 20
1033.306375125449
 30
0.0
 11
651.00019676636225
 21
838.56437512544926
 31
0.0
  0
LINE
  5
2F43
  8
AM_0
 10
656.00019676636225
 20
994.00400512544911
 30
0.0
 11
656.00019676636225
 21
877.86673512544905
 31
0.0
  0
LINE
  5
2F44
  8
AM_0
 10
662.0001367663624
 20
965.93540512544917
 30
0.0
 11
662.0001367663624
 21
905.93540512544905
 31
0.0
  0
LINE
  5
2F45
  8
AM_0
 10
509.00013676636229
 20
802.93540512544905
 30
0.0
 11
534.00013676636229
 21
803.80838512544915
 31
0.0
  0
LINE
  5
2F46
  8
AM_0
 10
514.00013676636217
 20
770.93540512544905
 30
0.0
 11
651.17463676636226
 21
775.72568512544922
 31
0.0
  0
ARC
  5
2F47
  8
AM_0
 10
431.00019676636202
 20
778.83683512544906
 30
0.0
 40
5.0
 50
180.00001000000091
 51
268.00000000000261
  0
LINE
  5
2F48
  8
AM_0
 10
481.53650676636221
 20
772.27738512544909
 30
0.0
 11
512.00019676636225
 21
783.04844512544923
 31
0.0
  0
LINE
  5
2F49
  8
AM_0
 10
514.00019676636225
 20
770.9353451254492
 30
0.0
 11
430.82569676636223
 21
773.83988512544909
 31
0.0
  0
LINE
  5
2F4A
  8
AM_0
 10
430.00019676636208
 20
838.43534512544954
 30
0.0
 11
448.17469676636222
 21
837.80069512544935
 31
0.0
  0
LINE
  5
2F4B
  8
AM_0
 10
432.000136766362
 20
852.74021512544903
 30
0.0
 11
453.000136766362
 21
852.74021512544903
 31
0.0
  0
LINE
  5
2F4C
  8
AM_0
 10
432.000136766362
 20
879.1595851254491
 30
0.0
 11
453.000136766362
 21
879.1595851254491
 31
0.0
  0
LINE
  5
2F4D
  8
AM_0
 10
432.000136766362
 20
862.92917512544909
 30
0.0
 11
453.000136766362
 21
862.92917512544909
 31
0.0
  0
LINE
  5
2F4E
  8
AM_0
 10
430.13190676636202
 20
826.14713512544904
 30
0.0
 11
453.000136766362
 21
830.17942512544903
 31
0.0
  0
LINE
  5
2F4F
  8
AM_0
 10
399.062816766362
 20
860.37284512544909
 30
0.0
 11
413.5357167663621
 21
845.89994512544911
 31
0.0
  0
LINE
  5
2F50
  8
AM_0
 10
426.00019676636208
 20
778.83683512544906
 30
0.0
 11
426.00019676636208
 21
821.22312512544897
 31
0.0
  0
LINE
  5
2F51
  8
AM_0
 10
417.00019676636208
 20
836.93540512544894
 30
0.0
 11
428.000136766362
 21
836.93540512544894
 31
0.0
  0
ARC
  5
2F52
  8
AM_0
 10
410.00019676636208
 20
842.36429512544908
 30
0.0
 40
5.0
 50
0.0
 51
45.000001000003799
  0
ARC
  5
2F53
  8
AM_0
 10
417.00019676636208
 20
838.93540512544905
 30
0.0
 40
2.0
 50
179.9999899999988
 51
270.0
  0
ARC
  5
2F54
  8
AM_0
 10
431.00019676636202
 20
821.22312512544897
 30
0.0
 40
5.0
 50
99.999999999998593
 51
180.00001000000091
  0
LINE
  5
2F55
  8
AM_0
 10
428.000136766362
 20
836.93540512544894
 30
0.0
 11
430.00013676636229
 21
838.93540512544905
 31
0.0
  0
ARC
  5
2F56
  8
AM_0
 10
396.91993676636201
 20
855.44461512544922
 30
0.0
 40
5.0
 50
44.999998000001611
 51
88.000000000002785
  0
LINE
  5
2F57
  8
AM_0
 10
370.00019676636208
 20
917.93540512544917
 30
0.0
 11
392.00019676636208
 21
917.93540512544917
 31
0.0
  0
ARC
  5
2F58
  8
AM_0
 10
370.00019676636208
 20
922.93540512544905
 30
0.0
 40
5.0
 50
180.00001000000091
 51
270.0
  0
ARC
  5
2F59
  8
AM_0
 10
392.00019676636208
 20
912.93540512544905
 30
0.0
 40
5.0
 50
0.0
 51
90.00000299999769
  0
LINE
  5
2F5A
  8
AM_0
 10
415.00019676636202
 20
879.65958512544921
 30
0.0
 11
430.00019676636208
 21
879.65958512544921
 31
0.0
  0
LINE
  5
2F5B
  8
AM_0
 10
415.00019676636202
 20
863.42917512544921
 30
0.0
 11
430.00019676636208
 21
863.42917512544921
 31
0.0
  0
LINE
  5
2F5C
  8
AM_0
 10
415.00019676636202
 20
853.24021512544925
 30
0.0
 11
430.00019676636208
 21
853.24021512544925
 31
0.0
  0
LINE
  5
2F5D
  8
AM_0
 10
432.000136766362
 20
879.1595851254491
 30
0.0
 11
432.000136766362
 21
852.74021512544903
 31
0.0
  0
LINE
  5
2F5E
  8
AM_0
 10
509.00019676636231
 20
802.93534512544898
 30
0.0
 11
483.82569676636189
 21
803.81449512544907
 31
0.0
  0
LINE
  5
2F5F
  8
AM_0
 10
485.00019676636208
 20
784.10868512544926
 30
0.0
 11
512.00025676636221
 21
793.65506512544925
 31
0.0
  0
CIRCLE
  5
2F60
  8
AM_0
 10
456.00019676636202
 20
803.4353451254492
 30
0.0
 40
9.5
  0
ARC
  5
2F61
  8
AM_0
 10
484.00019676636231
 20
786.93711512544905
 30
0.0
 40
3.0
 50
180.00001000000091
 51
289.47202999999712
  0
ARC
  5
2F62
  8
AM_0
 10
484.00013676636229
 20
808.81144512544904
 30
0.0
 40
5.0
 50
180.00001000000091
 51
268.00000000000261
  0
LINE
  5
2F63
  8
AM_0
 10
474.17463676636208
 20
823.91184512544919
 30
0.0
 11
457.82563676636198
 21
824.48276512544919
 31
0.0
  0
ARC
  5
2F64
  8
AM_0
 10
458.00013676636229
 20
829.47971512544905
 30
0.0
 40
5.0
 50
180.00001000000091
 51
268.00000000000261
  0
ARC
  5
2F65
  8
AM_0
 10
448.00019676636202
 20
832.80375512544924
 30
0.0
 40
5.0
 50
0.0
 51
88.000000000002785
  0
ARC
  5
2F66
  8
AM_0
 10
474.000136766362
 20
818.91489512544911
 30
0.0
 40
5.0
 50
0.0
 51
88.000000000002785
  0
ARC
  5
2F67
  8
AM_0
 10
511.00019676636202
 20
796.48349512544905
 30
0.0
 40
3.0
 50
289.47202000000181
 51
0.0
  0
LINE
  5
2F68
  8
AM_0
 10
514.00019676636225
 20
785.87687512544903
 30
0.0
 11
514.00019676636225
 21
803.11002512544906
 31
0.0
  0
ARC
  5
2F69
  8
AM_0
 10
511.00019676636202
 20
785.87687512544903
 30
0.0
 40
3.0
 50
289.47202000000181
 51
0.0
  0
ARC
  5
2F6A
  8
AM_0
 10
596.00019676636236
 20
778.80191512544923
 30
0.0
 40
5.0
 50
180.00001000000091
 51
271.99999000000139
  0
ARC
  5
2F6B
  8
AM_0
 10
651.00019676636225
 20
780.72257512544923
 30
0.0
 40
5.0
 50
271.9999999999971
 51
0.0
  0
ARC
  5
2F6C
  8
AM_0
 10
616.00019676636236
 20
827.8132751254492
 30
0.0
 40
8.0
 50
271.9999999999971
 51
0.0
  0
CIRCLE
  5
2F6D
  8
AM_0
 10
626.00019676636225
 20
803.4353451254492
 30
0.0
 40
9.5
  0
LINE
  5
2F6E
  8
ﾁｭｳｼﾝｾﾝ1
 10
606.50019676636225
 20
803.4353451254492
 30
0.0
 11
645.50019676636236
 21
803.4353451254492
 31
0.0
  0
LINE
  5
2F6F
  8
AM_0
 10
538.14490676636228
 20
807.95316512544935
 30
0.0
 11
587.84015676636216
 21
809.68851512544904
 31
0.0
  0
LINE
  5
2F70
  8
AM_0
 10
534.00019676636225
 20
803.80838512544915
 30
0.0
 11
538.14496676636224
 21
807.95316512544935
 31
0.0
  0
ARC
  5
2F71
  8
AM_0
 10
587.66559676636223
 20
814.68546512544935
 30
0.0
 40
5.0
 50
271.9999999999971
 51
334.42648000000293
  0
ARC
  5
2F72
  8
AM_0
 10
603.00019676636225
 20
807.34708512544933
 30
0.0
 40
12.0
 50
91.999998000000545
 51
180.00001000000091
  0
LINE
  5
2F73
  8
AM_0
 10
591.00019676636236
 20
778.80191512544923
 30
0.0
 11
591.00019676636236
 21
807.34708512544933
 31
0.0
  0
LINE
  5
2F74
  8
AM_0
 10
602.58136676636207
 20
819.3398851254492
 30
0.0
 11
616.27936676636205
 21
819.81821512544923
 31
0.0
  0
LINE
  5
2F75
  8
AM_0
 10
656.00019676636225
 20
780.72257512544923
 30
0.0
 11
656.00019676636225
 21
831.1482351254491
 31
0.0
  0
LINE
  5
2F76
  8
ﾁｭｳｼﾝｾﾝ1
 10
626.00019676636225
 20
783.9353451254492
 30
0.0
 11
626.00019676636225
 21
822.93534512544932
 31
0.0
  0
LINE
  5
2F77
  8
AM_0
 10
631.72101676636225
 20
836.20505512544923
 30
0.0
 11
643.27936676636239
 21
836.60868512544903
 31
0.0
  0
ARC
  5
2F78
  8
AM_0
 10
632.00019676636225
 20
828.20987512544923
 30
0.0
 40
8.0
 50
91.999998000000545
 51
180.00001000000091
  0
ARC
  5
2F79
  8
AM_0
 10
651.00019676636225
 20
831.1482351254491
 30
0.0
 40
5.0
 50
0.0
 51
67.975688999996393
  0
ARC
  5
2F7A
  8
AM_0
 10
643.00019676636225
 20
844.60379512544921
 30
0.0
 40
8.0
 50
271.9999999999971
 51
0.0
  0
ARC
  5
2F7B
  8
AM_0
 10
654.00019676636236
 20
838.56437512544926
 30
0.0
 40
3.0
 50
180.00001000000091
 51
247.97569000000061
  0
ARC
  5
2F7C
  8
AM_0
 10
654.00019676636236
 20
877.86673512544905
 30
0.0
 40
2.0
 50
271.9999999999971
 51
0.0
  0
ARC
  5
2F7D
  8
AM_0
 10
653.00019676636225
 20
873.82938512544933
 30
0.0
 40
2.0
 50
91.999998000000545
 51
180.00001000000091
  0
LINE
  5
2F7E
  8
AM_0
 10
652.93036676636223
 20
875.82822512544919
 30
0.0
 11
654.07001676636207
 21
875.86802512544921
 31
0.0
  0
LINE
  5
2F7F
  8
AM_0
 10
656.00019676636225
 20
905.93540512544905
 30
0.0
 11
662.0001367663624
 21
905.93540512544905
 31
0.0
  0
LINE
  5
2F80
  8
AM_0
 10
514.00019676636225
 20
1100.9354051254491
 30
0.0
 11
651.17469676636222
 21
1096.145115125448
 31
0.0
  0
LINE
  5
2F81
  8
AM_0
 10
509.00019676636231
 20
1068.935345125449
 30
0.0
 11
534.00019676636225
 21
1068.062355125448
 31
0.0
  0
CIRCLE
  5
2F82
  8
AM_0
 10
456.00019676636202
 20
1068.4354051254491
 30
0.0
 40
9.5
  0
LINE
  5
2F83
  8
AM_0
 10
426.00019676636208
 20
1093.0339151254491
 30
0.0
 11
426.00019676636208
 21
1050.647625125448
 31
0.0
  0
LINE
  5
2F84
  8
AM_0
 10
514.00019676636225
 20
1085.9939351254491
 30
0.0
 11
514.00019676636225
 21
1068.760785125449
 31
0.0
  0
LINE
  5
2F85
  8
AM_0
 10
430.0002567663621
 20
1033.4354051254491
 30
0.0
 11
448.17475676636229
 21
1034.0700451254479
 31
0.0
  0
LINE
  5
2F86
  8
AM_0
 10
432.000136766362
 20
1008.941565125449
 30
0.0
 11
453.000136766362
 21
1008.941565125449
 31
0.0
  0
LINE
  5
2F87
  8
AM_0
 10
432.000136766362
 20
1019.130535125449
 30
0.0
 11
453.000136766362
 21
1019.130535125449
 31
0.0
  0
LINE
  5
2F88
  8
AM_0
 10
432.000136766362
 20
992.71115512544918
 30
0.0
 11
453.000136766362
 21
992.71115512544918
 31
0.0
  0
LINE
  5
2F89
  8
AM_0
 10
430.13190676636202
 20
1045.7236751254491
 30
0.0
 11
453.000136766362
 21
1041.691385125449
 31
0.0
  0
LINE
  5
2F8A
  8
AM_0
 10
432.000136766362
 20
1019.130535125449
 30
0.0
 11
432.000136766362
 21
992.71115512544918
 31
0.0
  0
LINE
  5
2F8B
  8
AM_0
 10
370.00019676636208
 20
953.93540512544894
 30
0.0
 11
392.00019676636208
 21
953.93540512544894
 31
0.0
  0
ARC
  5
2F8C
  8
AM_0
 10
370.00019676636208
 20
948.93540512544917
 30
0.0
 40
5.0
 50
90.00000299999769
 51
180.00001000000091
  0
ARC
  5
2F8D
  8
AM_0
 10
392.00019676636208
 20
958.93540512544917
 30
0.0
 40
5.0
 50
270.0
 51
0.0
  0
LINE
  5
2F8E
  8
AM_0
 10
415.00019676636202
 20
993.21115512544907
 30
0.0
 11
430.00019676636208
 21
993.21115512544907
 31
0.0
  0
ARC
  5
2F8F
  8
AM_0
 10
396.91993676636201
 20
1016.426125125448
 30
0.0
 40
5.0
 50
271.9999999999971
 51
315.0
  0
ARC
  5
2F90
  8
AM_0
 10
418.00013676636217
 20
1032.935345125449
 30
0.0
 40
3.0
 50
90.00000299999769
 51
180.00001000000091
  0
LINE
  5
2F91
  8
AM_0
 10
428.00019676636202
 20
1035.9354051254491
 30
0.0
 11
430.00013676636229
 21
1033.935465125448
 31
0.0
  0
LINE
  5
2F92
  8
AM_0
 10
415.00019676636202
 20
1019.630535125449
 30
0.0
 11
430.00019676636208
 21
1019.630535125449
 31
0.0
  0
LINE
  5
2F93
  8
AM_0
 10
415.00019676636202
 20
1009.441565125449
 30
0.0
 11
430.00019676636208
 21
1009.441565125449
 31
0.0
  0
LINE
  5
2F94
  8
AM_0
 10
399.06275676636221
 20
1011.497845125449
 30
0.0
 11
413.53577676636201
 21
1025.9708651254491
 31
0.0
  0
ARC
  5
2F95
  8
AM_0
 10
410.00019676636208
 20
1029.5064451254491
 30
0.0
 40
5.0
 50
315.0
 51
0.0
  0
LINE
  5
2F96
  8
AM_0
 10
418.00013676636217
 20
1035.935345125449
 30
0.0
 11
428.000136766362
 21
1035.935345125449
 31
0.0
  0
ARC
  5
2F97
  8
AM_0
 10
431.00019676636202
 20
1050.647625125448
 30
0.0
 40
5.0
 50
180.00001000000091
 51
259.99998999999872
  0
LINE
  5
2F98
  8
AM_0
 10
479.00013676636229
 20
946.47098512544926
 30
0.0
 11
479.00013676636229
 21
1063.0593051254491
 31
0.0
  0
LINE
  5
2F99
  8
AM_0
 10
509.00019676636231
 20
1068.9354051254491
 30
0.0
 11
509.00019676636231
 21
940.93540512544917
 31
0.0
  0
ARC
  5
2F9A
  8
AM_0
 10
491.00019676636202
 20
935.93540512544905
 30
0.0
 40
12.5
 50
203.5781799999973
 51
336.42183000000068
  0
ARC
  5
2F9B
  8
AM_0
 10
491.00019676636202
 20
935.93540512544905
 30
0.0
 40
12.5
 50
23.578179999997531
 51
156.42182000000241
  0
LINE
  5
2F9C
  8
AM_0
 10
471.00019676636208
 20
940.93540512544917
 30
0.0
 11
511.00019676636202
 21
940.93540512544917
 31
0.0
  0
LINE
  5
2F9D
  8
AM_0
 10
471.00019676636208
 20
930.93540512544905
 30
0.0
 11
511.00019676636202
 21
930.93540512544905
 31
0.0
  0
ARC
  5
2F9E
  8
AM_0
 10
491.00019676636202
 20
935.93540512544905
 30
0.0
 40
15.0
 50
148.21198000000049
 51
160.52876999999901
  0
ARC
  5
2F9F
  8
AM_0
 10
471.00019676636208
 20
935.93540512544905
 30
0.0
 40
5.0
 50
90.00000299999769
 51
270.0
  0
ARC
  5
2FA0
  8
AM_0
 10
474.000136766362
 20
925.39981512544921
 30
0.0
 40
5.0
 50
0.0
 51
31.78801800000311
  0
ARC
  5
2FA1
  8
AM_0
 10
491.00019676636202
 20
935.93540512544905
 30
0.0
 40
15.0
 50
199.4712300000005
 51
211.78801999999919
  0
ARC
  5
2FA2
  8
AM_0
 10
474.000136766362
 20
946.47098512544926
 30
0.0
 40
5.0
 50
328.21198000000078
 51
0.0
  0
ARC
  5
2FA3
  8
AM_0
 10
511.00019676636202
 20
935.93540512544905
 30
0.0
 40
5.0
 50
270.0
 51
90.00000299999769
  0
LINE
  5
2FA4
  8
AM_0
 10
509.00013676636229
 20
1068.9354051254491
 30
0.0
 11
483.82556676636227
 21
1068.0562551254491
 31
0.0
  0
ARC
  5
2FA5
  8
AM_0
 10
448.00019676636202
 20
1039.066995125449
 30
0.0
 40
5.0
 50
271.9999999999971
 51
0.0
  0
LINE
  5
2FA6
  8
AM_0
 10
474.17463676636208
 20
1047.958965125448
 30
0.0
 11
457.82563676636198
 21
1047.3880351254491
 31
0.0
  0
ARC
  5
2FA7
  8
AM_0
 10
458.00013676636229
 20
1042.391035125449
 30
0.0
 40
5.0
 50
91.999998000000545
 51
180.00001000000091
  0
ARC
  5
2FA8
  8
AM_0
 10
474.000136766362
 20
1052.9559151254491
 30
0.0
 40
5.0
 50
271.9999999999971
 51
0.0
  0
ARC
  5
2FA9
  8
AM_0
 10
484.00013676636229
 20
1063.0593051254491
 30
0.0
 40
5.0
 50
91.999998000000545
 51
180.00001000000091
  0
LINE
  5
2FAA
  8
AM_0
 10
514.00019676636225
 20
1100.9354051254491
 30
0.0
 11
430.82563676636221
 21
1098.0308651254491
 31
0.0
  0
ARC
  5
2FAB
  8
AM_0
 10
431.00019676636202
 20
1093.0339151254491
 30
0.0
 40
5.0
 50
91.999998000000545
 51
180.00001000000091
  0
LINE
  5
2FAC
  8
AM_0
 10
481.53638676636228
 20
1099.5933651254491
 30
0.0
 11
512.00019676636225
 21
1088.822305125449
 31
0.0
  0
LINE
  5
2FAD
  8
AM_0
 10
485.00013676636212
 20
1087.762065125449
 30
0.0
 11
512.00025676636221
 21
1078.215615125448
 31
0.0
  0
ARC
  5
2FAE
  8
AM_0
 10
484.00019676636231
 20
1084.933635125449
 30
0.0
 40
3.0
 50
70.527972999999633
 51
180.00001000000091
  0
ARC
  5
2FAF
  8
AM_0
 10
511.00019676636202
 20
1085.9939351254491
 30
0.0
 40
3.0
 50
0.0
 51
70.527972999999633
  0
ARC
  5
2FB0
  8
AM_0
 10
511.00019676636202
 20
1075.387245125449
 30
0.0
 40
3.0
 50
0.0
 51
70.527972999999633
  0
CIRCLE
  5
2FB1
  8
AM_0
 10
626.00019676636225
 20
1068.4354051254491
 30
0.0
 40
9.5
  0
LINE
  5
2FB2
  8
AM_0
 10
656.00019676636225
 20
1091.148175125448
 30
0.0
 11
656.00019676636225
 21
1040.7225751254491
 31
0.0
  0
LINE
  5
2FB3
  8
AM_0
 10
591.00019676636236
 20
1093.068825125448
 30
0.0
 11
591.00019676636236
 21
1064.5236551254491
 31
0.0
  0
ARC
  5
2FB4
  8
AM_0
 10
616.00019676636236
 20
1044.057475125448
 30
0.0
 40
8.0
 50
0.0
 51
88.000000000002785
  0
LINE
  5
2FB5
  8
AM_0
 10
538.14490676636228
 20
1063.917585125449
 30
0.0
 11
587.84015676636216
 21
1062.182225125448
 31
0.0
  0
LINE
  5
2FB6
  8
AM_0
 10
534.00013676636229
 20
1068.0624151254481
 30
0.0
 11
538.14490676636228
 21
1063.9176451254491
 31
0.0
  0
ARC
  5
2FB7
  8
AM_0
 10
603.00019676636225
 20
1064.5236551254491
 30
0.0
 40
12.0
 50
180.00001000000091
 51
268.00000000000261
  0
ARC
  5
2FB8
  8
AM_0
 10
587.66559676636223
 20
1057.185285125448
 30
0.0
 40
5.0
 50
25.5735169999985
 51
88.000000000002785
  0
LINE
  5
2FB9
  8
AM_0
 10
602.58136676636207
 20
1052.530925125448
 30
0.0
 11
616.27942676636223
 21
1052.0525951254481
 31
0.0
  0
ARC
  5
2FBA
  8
AM_0
 10
653.00019676636225
 20
998.0413551254494
 30
0.0
 40
2.0
 50
180.00001000000091
 51
268.00000000000261
  0
LINE
  5
2FBB
  8
AM_0
 10
656.00019676636225
 20
965.93540512544917
 30
0.0
 11
662.0001367663624
 21
965.93540512544917
 31
0.0
  0
ARC
  5
2FBC
  8
AM_0
 10
654.00019676636236
 20
994.00400512544911
 30
0.0
 40
2.0
 50
0.0
 51
88.000000000002785
  0
LINE
  5
2FBD
  8
AM_0
 10
652.93036676636223
 20
996.0425151254492
 30
0.0
 11
654.07001676636207
 21
996.00272512544905
 31
0.0
  0
ARC
  5
2FBE
  8
AM_0
 10
682.00019676636225
 20
935.9353451254492
 30
0.0
 40
8.0000113999999982
 50
90.00000299999769
 51
270.0
  0
LINE
  5
2FBF
  8
AM_0
 10
682.00013676636206
 20
943.9353451254492
 30
0.0
 11
682.00013676636206
 21
927.93534512544909
 31
0.0
  0
ARC
  5
2FC0
  8
AM_0
 10
654.00019676636236
 20
1033.306375125449
 30
0.0
 40
3.0
 50
112.0243099999992
 51
180.00001000000091
  0
ARC
  5
2FC1
  8
AM_0
 10
643.00019676636225
 20
1027.267005125449
 30
0.0
 40
8.0
 50
0.0
 51
88.000000000002785
  0
ARC
  5
2FC2
  8
AM_0
 10
632.00019676636225
 20
1043.6609251254481
 30
0.0
 40
8.0
 50
180.00001000000091
 51
268.00000000000261
  0
LINE
  5
2FC3
  8
AM_0
 10
631.72101676636225
 20
1035.665745125448
 30
0.0
 11
643.27936676636239
 21
1035.2621251254491
 31
0.0
  0
ARC
  5
2FC4
  8
AM_0
 10
651.00019676636225
 20
1040.7225751254491
 30
0.0
 40
5.0
 50
292.02430999999922
 51
0.0
  0
ARC
  5
2FC5
  8
AM_0
 10
596.00019676636236
 20
1093.068825125448
 30
0.0
 40
5.0
 50
88.000000000002785
 51
180.00001000000091
  0
ARC
  5
2FC6
  8
AM_0
 10
651.00019676636225
 20
1091.148175125448
 30
0.0
 40
5.0
 50
0.0
 51
88.000000000002785
  0
LINE
  5
2FC7
  8
AM_0
 10
744.00013676636183
 20
963.43540512544917
 30
0.0
 11
744.00013676636183
 21
908.43540512544905
 31
0.0
  0
LINE
  5
2FC8
  8
ﾁｭｳｼﾝｾﾝ1
 10
456.00019676636202
 20
783.9353451254492
 30
0.0
 11
456.00019676636202
 21
822.93534512544932
 31
0.0
  0
LINE
  5
2FC9
  8
ﾁｭｳｼﾝｾﾝ1
 10
436.50019676636202
 20
803.4353451254492
 30
0.0
 11
475.50019676636231
 21
803.4353451254492
 31
0.0
  0
LINE
  5
2FCA
  8
ﾁｭｳｼﾝｾﾝ1
 10
456.00019676636202
 20
1048.9354051254491
 30
0.0
 11
456.00019676636202
 21
1087.9354051254491
 31
0.0
  0
LINE
  5
2FCB
  8
ﾁｭｳｼﾝｾﾝ1
 10
436.50019676636202
 20
1068.4354051254491
 30
0.0
 11
475.50019676636231
 21
1068.4354051254491
 31
0.0
  0
LINE
  5
2FCC
  8
ﾁｭｳｼﾝｾﾝ1
 10
626.00019676636225
 20
1048.9354051254491
 30
0.0
 11
626.00019676636225
 21
1087.9354051254491
 31
0.0
  0
LINE
  5
2FCD
  8
ﾁｭｳｼﾝｾﾝ1
 10
606.50019676636225
 20
1068.4354051254491
 30
0.0
 11
645.50019676636236
 21
1068.4354051254491
 31
0.0
  0
LINE
  5
2FCE
  8
AM_0
 10
426.00013676636229
 20
297.50498679183062
 30
0.0
 11
656.00013676636252
 21
297.50498679183062
 31
0.0
  0
LINE
  5
2FCF
  8
AM_0
 10
601.00013676636252
 20
327.50501679183071
 30
0.0
 11
651.00013676636252
 21
327.50501679183071
 31
0.0
  0
LINE
  5
2FD0
  8
AM_0
 10
591.00013676636252
 20
343.81202679183059
 30
0.0
 11
614.00013676636217
 21
343.81202679183059
 31
0.0
  0
LINE
  5
2FD1
  8
ﾁｭｳｼﾝｾﾝ
 10
409.0403381231049
 20
497.50502179183059
 30
0.0
 11
750.9289867663623
 21
497.50502179183059
 31
0.0
  0
LINE
  5
2FD2
  8
AM_0
 10
537.02843676636246
 20
614.52627179183048
 30
0.0
 11
614.34913676636234
 21
611.82612179183047
 31
0.0
  0
LINE
  5
2FD3
  8
AM_0
 10
606.00013676636252
 20
549.46267179183064
 30
0.0
 11
624.00013676636206
 21
549.46267179183064
 31
0.0
  0
LINE
  5
2FD4
  8
AM_0
 10
355.54293676636217
 20
484.0477767918307
 30
0.0
 11
355.54293676636217
 21
410.0050167918306
 31
0.0
  0
LINE
  5
2FD5
  8
AM_0
 10
340.00023676636232
 20
483.50502179183059
 30
0.0
 11
340.00023676636232
 21
336.50498679183062
 31
0.0
  0
LINE
  5
2FD6
  8
AM_0
 10
415.00023676636209
 20
355.0050167918306
 30
0.0
 11
415.00023676636209
 21
549.00502179183025
 31
0.0
  0
LINE
  5
2FD7
  8
AM_0
 10
453.00013676636252
 20
565.48897179183075
 30
0.0
 11
453.00013676636252
 21
340.06251179183062
 31
0.0
  0
LINE
  5
2FD8
  8
AM_0
 10
479.00013676636189
 20
616.52602179183054
 30
0.0
 11
479.00013676636189
 21
327.64399679183072
 31
0.0
  0
LINE
  5
2FD9
  8
AM_0
 10
509.00013676636217
 20
619.5049717918306
 30
0.0
 11
509.00013676636217
 21
386.89893679183058
 31
0.0
  0
LINE
  5
2FDA
  8
AM_0
 10
591.00013676636252
 20
534.46267179183064
 30
0.0
 11
591.00013676636252
 21
337.50501679183071
 31
0.0
  0
LINE
  5
2FDB
  8
AM_0
 10
514.00013676636217
 20
489.61100679183062
 30
0.0
 11
514.00013676636217
 21
399.74397179183052
 31
0.0
  0
LINE
  5
2FDC
  8
AM_0
 10
430.00023676636238
 20
550.0050217918307
 30
0.0
 11
430.00023676636238
 21
355.0050167918306
 31
0.0
  0
LINE
  5
2FDD
  8
AM_0
 10
296.00023676636232
 20
509.00501679183049
 30
0.0
 11
296.00023676636232
 21
311.00501679183083
 31
0.0
  0
LINE
  5
2FDE
  8
AM_0
 10
286.00023676636232
 20
310.00501679183083
 30
0.0
 11
286.00023676636232
 21
510.0050167918306
 31
0.0
  0
LINE
  5
2FDF
  8
AM_0
 10
355.00023676636232
 20
406.0531467918305
 30
0.0
 11
412.00013676636189
 21
406.0531467918305
 31
0.0
  0
LINE
  5
2FE0
  8
AM_0
 10
363.2000367663623
 20
361.50498679183062
 30
0.0
 11
412.00013676636189
 21
361.50498679183062
 31
0.0
  0
LINE
  5
2FE1
  8
ﾁｭｳｼﾝｾﾝ
 10
274.61346392454601
 20
410.0050167918306
 30
0.0
 11
440.71394468033481
 21
410.0050167918306
 31
0.0
  0
ARC
  5
2FE2
  8
AM_0
 10
299.00023676636238
 20
329.9065217918307
 30
0.0
 40
3.0
 50
95.0
 51
180.0
  0
LINE
  5
2FE3
  8
AM_0
 10
286.00023676636232
 20
310.00501679183083
 30
0.0
 11
295.00023676636232
 21
310.00501679183083
 31
0.0
  0
ARC
  5
2FE4
  8
AM_0
 10
295.00023676636232
 20
311.00501679183083
 30
0.0
 40
1.0
 50
270.0
 51
0.0
  0
LINE
  5
2FE5
  8
AM_0
 10
299.00023676636238
 20
346.4957917918307
 30
0.0
 11
336.00023676636232
 21
346.4957917918307
 31
0.0
  0
LINE
  5
2FE6
  8
AM_0
 10
340.00023676636232
 20
336.50501679183083
 30
0.0
 11
298.73876976636228
 21
332.8951057918307
 31
0.0
  0
LINE
  5
2FE7
  8
AM_0
 10
299.00023676636238
 20
370.53034079183072
 30
0.0
 11
338.00023676636232
 21
370.53034079183072
 31
0.0
  0
ARC
  5
2FE8
  8
AM_0
 10
299.00023676636238
 20
367.53034079183072
 30
0.0
 40
3.0
 50
90.0
 51
180.0
  0
ARC
  5
2FE9
  8
AM_0
 10
299.00023676636238
 20
343.49579179183058
 30
0.0
 40
3.0
 50
90.0
 51
180.0
  0
ARC
  5
2FEA
  8
AM_0
 10
340.00023676636232
 20
368.53034079183072
 30
0.0
 40
2.0
 50
120.0000000000005
 51
180.0
  0
LINE
  5
2FEB
  8
AM_0
 10
352.00023676636232
 20
403.05314679183061
 30
0.0
 11
352.00023676636232
 21
337.93531679183047
 31
0.0
  0
LINE
  5
2FEC
  8
AM_0
 10
361.0994367663626
 20
403.05314679183061
 30
0.0
 11
361.0994367663626
 21
361.50498679183062
 31
0.0
  0
ARC
  5
2FED
  8
AM_0
 10
363.2000367663623
 20
358.5050167918306
 30
0.0
 40
3.0000000500000001
 50
90.00000299999769
 51
160.00000000000239
  0
LINE
  5
2FEE
  8
AM_0
 10
353.19758676636212
 20
339.79490179183063
 30
0.0
 11
360.38093676636231
 21
359.53108179183062
 31
0.0
  0
LINE
  5
2FEF
  8
AM_0
 10
338.00023676636232
 20
348.4957917918307
 30
0.0
 11
338.00023676636232
 21
368.53034079183072
 31
0.0
  0
LINE
  5
2FF0
  8
AM_0
 10
340.00023676636232
 20
348.42634179183062
 30
0.0
 11
352.00023676636232
 21
348.42634179183062
 31
0.0
  0
LINE
  5
2FF1
  8
AM_0
 10
340.00023676636232
 20
336.50498679183062
 30
0.0
 11
348.49913676636248
 21
336.50498679183062
 31
0.0
  0
ARC
  5
2FF2
  8
AM_0
 10
336.00023676636232
 20
348.4957917918307
 30
0.0
 40
2.0
 50
270.0
 51
0.0
  0
ARC
  5
2FF3
  8
AM_0
 10
348.49913676636248
 20
341.50498679183062
 30
0.0
 40
5.0
 50
270.0
 51
340.00000000000227
  0
LINE
  5
2FF4
  8
AM_0
 10
340.00023676636232
 20
370.53034679183082
 30
0.0
 11
352.00023676636232
 21
370.53034679183082
 31
0.0
  0
LINE
  5
2FF5
  8
AM_0
 10
299.00023676636238
 20
449.47969179183082
 30
0.0
 11
338.00023676636232
 21
449.47969179183082
 31
0.0
  0
LINE
  5
2FF6
  8
AM_0
 10
299.00023676636238
 20
473.5142417918305
 30
0.0
 11
336.00023676636232
 21
473.5142417918305
 31
0.0
  0
ARC
  5
2FF7
  8
AM_0
 10
299.00023676636238
 20
452.47969179183059
 30
0.0
 40
3.0
 50
180.0
 51
270.0
  0
ARC
  5
2FF8
  8
AM_0
 10
299.00023676636238
 20
476.51424179183073
 30
0.0
 40
3.0
 50
180.0
 51
270.0
  0
LINE
  5
2FF9
  8
AM_0
 10
338.00023676636232
 20
471.51424179183073
 30
0.0
 11
338.00023676636232
 21
451.47969179183082
 31
0.0
  0
LINE
  5
2FFA
  8
AM_0
 10
340.00023676636232
 20
449.47969179183048
 30
0.0
 11
355.00023676636232
 21
449.47969179183048
 31
0.0
  0
ARC
  5
2FFB
  8
AM_0
 10
340.00023676636232
 20
451.47969179183082
 30
0.0
 40
2.0
 50
180.0
 51
239.99999999999949
  0
LINE
  5
2FFC
  8
AM_0
 10
340.00023676636232
 20
471.58366179183059
 30
0.0
 11
355.54293676636217
 21
471.58366179183059
 31
0.0
  0
ARC
  5
2FFD
  8
AM_0
 10
336.00023676636232
 20
471.51424179183073
 30
0.0
 40
2.0
 50
0.0
 51
90.0
  0
LINE
  5
2FFE
  8
AM_0
 10
466.85513676636208
 20
327.50495679183052
 30
0.0
 11
455.07393676636229
 21
336.00822179183069
 31
0.0
  0
ARC
  5
2FFF
  8
AM_0
 10
601.00013676636252
 20
337.50501679183071
 30
0.0
 40
10.0
 50
179.9999899999988
 51
270.0
  0
LINE
  5
3000
  8
AM_0
 10
482.35218676636208
 20
330.3729067918307
 30
0.0
 11
513.0454367663624
 21
395.47978179183059
 31
0.0
  0
LINE
  5
3001
  8
AM_0
 10
431.00013676636252
 20
327.50501679183071
 30
0.0
 11
477.82958676636213
 21
327.50501679183071
 31
0.0
  0
LINE
  5
3002
  8
AM_0
 10
426.00013676636229
 20
322.50498679183062
 30
0.0
 11
426.00013676636229
 21
297.50498679183062
 31
0.0
  0
ARC
  5
3003
  8
AM_0
 10
431.00013676636252
 20
322.50498679183062
 30
0.0
 40
5.0
 50
90.00000299999769
 51
180.00001000000091
  0
LINE
  5
3004
  8
ﾁｭｳｼﾝｾﾝ1
 10
456.00013676636252
 20
331.41288679183072
 30
0.0
 11
456.00013676636252
 21
294.50498679183062
 31
0.0
  0
LINE
  5
3005
  8
ｶｸﾚｾﾝ2
 10
465.50013676636252
 20
327.50501679183071
 30
0.0
 11
465.50013676636252
 21
297.50498679183062
 31
0.0
  0
LINE
  5
3006
  8
ｶｸﾚｾﾝ2
 10
446.50013676636217
 20
327.50501679183071
 30
0.0
 11
446.50013676636217
 21
297.50498679183062
 31
0.0
  0
ARC
  5
3007
  8
AM_0
 10
477.82958676636213
 20
332.5050167918306
 30
0.0
 40
5.0
 50
270.0
 51
334.75946999999809
  0
LINE
  5
3008
  8
AM_0
 10
430.00008676636247
 20
355.00498679183067
 30
0.0
 11
448.17458676636249
 21
354.3703117918306
 31
0.0
  0
LINE
  5
3009
  8
AM_0
 10
432.00013676636189
 20
369.30982679183052
 30
0.0
 11
453.00013676636252
 21
369.30982679183052
 31
0.0
  0
LINE
  5
300A
  8
AM_0
 10
432.00013676636189
 20
379.49882179183061
 30
0.0
 11
453.00013676636252
 21
379.49882179183061
 31
0.0
  0
LINE
  5
300B
  8
AM_0
 10
432.00013676636189
 20
395.72920179183052
 30
0.0
 11
453.00013676636252
 21
395.72920179183052
 31
0.0
  0
LINE
  5
300C
  8
AM_0
 10
417.000136766362
 20
353.00501679183083
 30
0.0
 11
428.00013676636252
 21
353.00501679183083
 31
0.0
  0
ARC
  5
300D
  8
AM_0
 10
412.00013676636189
 20
358.5050167918306
 30
0.0
 40
3.0000000500000001
 50
0.0
 51
90.00000299999769
  0
ARC
  5
300E
  8
AM_0
 10
417.000136766362
 20
355.0050167918306
 30
0.0
 40
2.0000000500000001
 50
179.9999899999988
 51
270.0
  0
LINE
  5
300F
  8
AM_0
 10
428.00023676636232
 20
353.00498679183062
 30
0.0
 11
430.00013676636229
 21
355.00498679183067
 31
0.0
  0
LINE
  5
3010
  8
AM_0
 10
415.00023676636209
 20
369.30982679183052
 30
0.0
 11
430.00023676636238
 21
369.30982679183052
 31
0.0
  0
LINE
  5
3011
  8
AM_0
 10
415.00023676636209
 20
379.49882179183061
 30
0.0
 11
430.00023676636238
 21
379.49882179183061
 31
0.0
  0
LINE
  5
3012
  8
AM_0
 10
415.00023676636209
 20
395.72920179183052
 30
0.0
 11
430.00023676636238
 21
395.72920179183052
 31
0.0
  0
LINE
  5
3013
  8
AM_0
 10
432.00013676636189
 20
395.72920179183052
 30
0.0
 11
432.00013676636189
 21
369.30982679183052
 31
0.0
  0
ARC
  5
3014
  8
AM_0
 10
448.00013676636252
 20
349.3733967918306
 30
0.0
 40
5.0
 50
0.0
 51
88.000000000002785
  0
ARC
  5
3015
  8
AM_0
 10
458.00013676636252
 20
340.06251179183062
 30
0.0
 40
5.0
 50
179.9999899999988
 51
234.17957000000141
  0
ARC
  5
3016
  8
AM_0
 10
504.00013676636189
 20
399.74397179183052
 30
0.0
 40
10.0
 50
334.75946999999809
 51
0.0
  0
LINE
  5
3017
  8
AM_0
 10
356.93563676636222
 20
485.44041179183051
 30
0.0
 11
413.53573676636228
 21
542.04047179183056
 31
0.0
  0
LINE
  5
3018
  8
AM_0
 10
340.00023676636232
 20
483.50501679183049
 30
0.0
 11
298.73876976636228
 21
487.11492679183073
 31
0.0
  0
ARC
  5
3019
  8
AM_0
 10
299.00023676636238
 20
490.10351179183073
 30
0.0
 40
3.0
 50
180.0
 51
264.99999999999989
  0
LINE
  5
301A
  8
AM_0
 10
286.00023676636232
 20
510.0050167918306
 30
0.0
 11
295.00023676636232
 21
510.0050167918306
 31
0.0
  0
ARC
  5
301B
  8
AM_0
 10
295.00023676636232
 20
509.00501679183049
 30
0.0
 40
1.0
 50
0.0
 51
90.0
  0
LINE
  5
301C
  8
AM_0
 10
340.00023676636232
 20
483.50502179183059
 30
0.0
 11
353.57468676636222
 21
483.9790467918304
 31
0.0
  0
ARC
  5
301D
  8
AM_0
 10
353.40013676636232
 20
488.97599679183071
 30
0.0
 40
5.0
 50
271.9999999999971
 51
315.0
  0
ARC
  5
301E
  8
AM_0
 10
472.57508676636229
 20
620.57472179183071
 30
0.0
 40
6.0
 50
349.72994999999878
 51
53.533291000000993
  0
LINE
  5
301F
  8
AM_0
 10
478.50023676636232
 20
619.5049717918306
 30
0.0
 11
480.75068676636232
 21
627.90387179183074
 31
0.0
  0
ARC
  5
3020
  8
AM_0
 10
509.42513676636207
 20
620.57472179183071
 30
0.0
 40
6.0
 50
126.46669999999671
 51
190.27005999999921
  0
LINE
  5
3021
  8
AM_0
 10
503.50028676636242
 20
619.5049717918306
 30
0.0
 11
501.24978676636238
 21
627.90387179183074
 31
0.0
  0
ARC
  5
3022
  8
AM_0
 10
491.00013676636252
 20
645.50497179183049
 30
0.0
 40
25.000000499999999
 50
306.46672000000012
 51
233.5332899999996
  0
LINE
  5
3023
  8
AM_0
 10
480.9304367663625
 20
618.52482179183073
 30
0.0
 11
509.00028676636219
 21
619.50502179183036
 31
0.0
  0
LINE
  5
3024
  8
AM_0
 10
478.00013676636252
 20
619.5049717918306
 30
0.0
 11
509.00013676636217
 21
619.5049717918306
 31
0.0
  0
ARC
  5
3025
  8
AM_0
 10
418.00013676636252
 20
549.00502179183025
 30
0.0
 40
3.0000000500000001
 50
90.00000299999769
 51
180.00001000000091
  0
LINE
  5
3026
  8
AM_0
 10
432.00013676636189
 20
509.28080679183051
 30
0.0
 11
453.00013676636252
 21
509.28080679183051
 31
0.0
  0
LINE
  5
3027
  8
AM_0
 10
432.00013676636189
 20
525.51117179183063
 30
0.0
 11
453.00013676636252
 21
525.51117179183063
 31
0.0
  0
LINE
  5
3028
  8
AM_0
 10
432.00013676636189
 20
535.70017179183071
 30
0.0
 11
453.00013676636252
 21
535.70017179183071
 31
0.0
  0
LINE
  5
3029
  8
AM_0
 10
432.00013676636189
 20
535.70017179183071
 30
0.0
 11
432.00013676636189
 21
509.28080679183051
 31
0.0
  0
LINE
  5
302A
  8
AM_0
 10
415.00023676636209
 20
509.28080679183051
 30
0.0
 11
430.00023676636238
 21
509.28080679183051
 31
0.0
  0
LINE
  5
302B
  8
AM_0
 10
415.00023676636209
 20
525.51117179183063
 30
0.0
 11
430.00023676636238
 21
525.51117179183063
 31
0.0
  0
LINE
  5
302C
  8
AM_0
 10
415.00023676636209
 20
535.70017179183071
 30
0.0
 11
430.00023676636238
 21
535.70017179183071
 31
0.0
  0
ARC
  5
302D
  8
AM_0
 10
410.00023676636232
 20
545.57607179183037
 30
0.0
 40
5.0
 50
315.0
 51
0.0
  0
LINE
  5
302E
  8
AM_0
 10
430.00028676636219
 20
550.0050217918307
 30
0.0
 11
448.1747867663625
 21
550.63967179183055
 31
0.0
  0
LINE
  5
302F
  8
AM_0
 10
418.00013676636252
 20
552.0049717918306
 30
0.0
 11
428.00013676636252
 21
552.0049717918306
 31
0.0
  0
LINE
  5
3030
  8
AM_0
 10
428.00023676636232
 20
552.0049717918306
 30
0.0
 11
430.00013676636229
 21
550.0050217918307
 31
0.0
  0
LINE
  5
3031
  8
AM_0
 10
454.3985367663625
 20
568.95717179183055
 30
0.0
 11
474.60173676636202
 21
589.9374717918306
 31
0.0
  0
ARC
  5
3032
  8
AM_0
 10
458.00013676636252
 20
565.48897179183075
 30
0.0
 40
5.0
 50
136.08091999999979
 51
180.00001000000091
  0
ARC
  5
3033
  8
AM_0
 10
448.00013676636252
 20
555.63662179183075
 30
0.0
 40
5.0
 50
271.9999999999971
 51
0.0
  0
LINE
  5
3034
  8
AM_0
 10
476.00013676636252
 20
617.5050217918307
 30
0.0
 11
476.00013676636252
 21
593.40567179183051
 31
0.0
  0
ARC
  5
3035
  8
AM_0
 10
471.0001367663624
 20
593.40567179183051
 30
0.0
 40
5.0
 50
316.08091999999982
 51
0.0
  0
LINE
  5
3036
  8
AM_0
 10
474.60173676636202
 20
589.9374717918306
 30
0.0
 11
477.60173676636248
 21
593.05282179183052
 31
0.0
  0
ARC
  5
3037
  8
AM_0
 10
474.00013676636189
 20
596.52102179183055
 30
0.0
 40
5.0
 50
316.08091999999982
 51
0.0
  0
ARC
  5
3038
  8
AM_0
 10
481.00013676636252
 20
616.52602179183054
 30
0.0
 40
2.0000000500000001
 50
91.999998000000545
 51
180.00001000000091
  0
ARC
  5
3039
  8
AM_0
 10
478.00013676636252
 20
617.5050217918307
 30
0.0
 40
2.0000000500000001
 50
90.00000299999769
 51
180.00001000000091
  0
ARC
  5
303A
  8
AM_0
 10
606.00013676636252
 20
534.46267179183064
 30
0.0
 40
15.0
 50
90.00000299999769
 51
180.00001000000091
  0
LINE
  5
303B
  8
AM_0
 10
534.00013676636217
 20
613.80352179183046
 30
0.0
 11
534.00013676636217
 21
489.61100679183062
 31
0.0
  0
LINE
  5
303C
  8
AM_0
 10
514.00013676636217
 20
489.61100679183062
 30
0.0
 11
534.00013676636217
 21
489.61100679183062
 31
0.0
  0
LINE
  5
303D
  8
AM_0
 10
509.00013676636217
 20
619.5049717918306
 30
0.0
 11
529.17463676636271
 21
618.80047179183077
 31
0.0
  0
ARC
  5
303E
  8
AM_0
 10
537.2029867663623
 20
619.52322179183045
 30
0.0
 40
5.0
 50
214.88733999999911
 51
268.00000000000261
  0
ARC
  5
303F
  8
AM_0
 10
529.00013676636195
 20
613.80352179183046
 30
0.0
 40
5.0
 50
34.887349999997149
 51
88.000000000002785
  0
CIRCLE
  5
3040
  8
AM_0
 10
491.00013676636252
 20
645.50497179183049
 30
0.0
 40
15.0
  0
ARC
  5
3041
  8
AM_0
 10
500.28378676636243
 20
627.64512179183055
 30
0.0
 40
1.0
 50
15.000000000000741
 51
78.786710000001207
  0
LINE
  5
3042
  8
AM_0
 10
481.20608676636198
 20
628.50502179183025
 30
0.0
 11
500.79418676636192
 21
628.50502179183025
 31
0.0
  0
LINE
  5
3043
  8
AM_0
 10
481.52213676636251
 20
628.62597179183035
 30
0.0
 11
491.00013676636252
 21
630.50497179183071
 31
0.0
  0
ARC
  5
3044
  8
AM_0
 10
481.71658676636252
 20
627.64512179183055
 30
0.0
 40
1.0
 50
101.21328999999869
 51
164.99998999999869
  0
LINE
  5
3045
  8
AM_0
 10
491.00023676636232
 20
630.50497179183071
 30
0.0
 11
500.47828676636249
 21
628.62592179183036
 31
0.0
  0
ARC
  5
3046
  8
AM_0
 10
1020.563935477188
 20
497.50502179183059
 30
0.0
 40
60.0
 50
270.0
 51
90.00000299999769
  0
ARC
  5
3047
  8
AM_0
 10
1020.563935477188
 20
497.50502179183059
 30
0.0
 40
60.0
 50
90.00000299999769
 51
270.0
  0
ARC
  5
3048
  8
AM_0
 10
1020.563935477188
 20
497.50502179183059
 30
0.0
 40
27.500000499999999
 50
106.9123899999985
 51
73.087596999999803
  0
LINE
  5
3049
  8
AM_0
 10
1185.563910477189
 20
327.50498679183062
 30
0.0
 11
1147.366565477188
 21
524.01332179183055
 31
0.0
  0
LINE
  5
304A
  8
AM_0
 10
1137.5639254771891
 20
404.46891679183051
 30
0.0
 11
1137.5639254771891
 21
548.43882179183072
 31
0.0
  0
LINE
  5
304B
  8
AM_0
 10
1120.5639054771891
 20
339.50498679183062
 30
0.0
 11
1120.5639054771891
 21
482.50502179183047
 31
0.0
  0
LINE
  5
304C
  8
AM_0
 10
855.56391547718954
 20
327.50501679183071
 30
0.0
 11
893.76126047718901
 21
524.01327179183056
 31
0.0
  0
LINE
  5
304D
  8
AM_0
 10
903.56393547718915
 20
404.46891679183051
 30
0.0
 11
903.56393547718915
 21
548.43882179183072
 31
0.0
  0
LINE
  5
304E
  8
ﾁｭｳｼﾝｾﾝ
 10
1020.563935477188
 20
291.50498679183062
 30
0.0
 11
1020.563935477188
 21
673.50427179183055
 31
0.0
  0
LINE
  5
304F
  8
AM_0
 10
920.56393547718915
 20
339.50498679183062
 30
0.0
 11
920.56393547718915
 21
482.50502179183047
 31
0.0
  0
LINE
  5
3050
  8
AM_0
 10
624.00013676636206
 20
601.83222179183065
 30
0.0
 11
624.00013676636206
 21
353.81202679183059
 31
0.0
  0
LINE
  5
3051
  8
AM_0
 10
656.00013676636252
 20
555.57362179183065
 30
0.0
 11
656.00013676636252
 21
439.4364167918306
 31
0.0
  0
LINE
  5
3052
  8
AM_0
 10
651.00013676636252
 20
577.92337179183073
 30
0.0
 11
651.00013676636252
 21
331.16526679183062
 31
0.0
  0
LINE
  5
3053
  8
AM_0
 10
662.00013676636206
 20
527.50502179183036
 30
0.0
 11
662.00013676636206
 21
467.50502179183059
 31
0.0
  0
LINE
  5
3054
  8
AM_0
 10
744.00013676636172
 20
529.0050217918307
 30
0.0
 11
744.00013676636172
 21
470.00502179183047
 31
0.0
  0
LINE
  5
3055
  8
AM_0
 10
1020.563935477188
 20
304.50495679183069
 30
0.0
 11
1110.5639054771891
 21
304.50495679183069
 31
0.0
  0
LINE
  5
3056
  8
AM_0
 10
1085.308995477189
 20
315.31345679183062
 30
0.0
 11
1091.637670477189
 21
319.74485679183061
 31
0.0
  0
LINE
  5
3057
  8
AM_0
 10
925.56393547718915
 20
297.50498679183062
 30
0.0
 11
855.56391547718954
 21
297.50498679183062
 31
0.0
  0
LINE
  5
3058
  8
AM_0
 10
920.56393547718915
 20
327.50501679183071
 30
0.0
 11
860.56391547718977
 21
327.50501679183071
 31
0.0
  0
LINE
  5
3059
  8
ﾁｭｳｼﾝｾﾝ1
 10
626.00013676636252
 20
331.41288679183072
 30
0.0
 11
626.00013676636252
 21
294.50498679183062
 31
0.0
  0
LINE
  5
305A
  8
ｶｸﾚｾﾝ2
 10
635.50013676636252
 20
327.50501679183071
 30
0.0
 11
635.50013676636252
 21
297.50498679183062
 31
0.0
  0
LINE
  5
305B
  8
ｶｸﾚｾﾝ2
 10
616.50013676636206
 20
327.50501679183071
 30
0.0
 11
616.50013676636206
 21
297.50498679183062
 31
0.0
  0
LINE
  5
305C
  8
AM_0
 10
656.00013676636252
 20
322.50498679183062
 30
0.0
 11
656.00013676636252
 21
297.50498679183062
 31
0.0
  0
ARC
  5
305D
  8
AM_0
 10
651.00013676636252
 20
322.50498679183062
 30
0.0
 40
5.0
 50
0.0
 51
90.00000299999769
  0
ARC
  5
305E
  8
AM_0
 10
656.00013676636252
 20
331.16526679183062
 30
0.0
 40
5.0
 50
179.9999899999988
 51
240.00000999999969
  0
LINE
  5
305F
  8
AM_0
 10
855.56391547718954
 20
327.50501679183071
 30
0.0
 11
855.56391547718954
 21
297.50498679183062
 31
0.0
  0
ARC
  5
3060
  8
AM_0
 10
860.56391547718977
 20
322.50498679183062
 30
0.0
 40
5.0
 50
90.00000299999769
 51
180.00001000000091
  0
LINE
  5
3061
  8
AM_0
 10
662.00013676636206
 20
470.00502179183047
 30
0.0
 11
744.00013676636172
 21
470.00502179183047
 31
0.0
  0
ARC
  5
3062
  8
AM_0
 10
614.00013676636217
 20
353.81202679183059
 30
0.0
 40
10.0
 50
270.0
 51
0.0
  0
LINE
  5
3063
  8
AM_0
 10
652.9304367663625
 20
437.39781179183052
 30
0.0
 11
654.07003676636214
 21
437.4376067918306
 31
0.0
  0
ARC
  5
3064
  8
AM_0
 10
653.00013676636252
 20
435.39903179183062
 30
0.0
 40
2.0000000500000001
 50
91.999998000000545
 51
180.00001000000091
  0
ARC
  5
3065
  8
AM_0
 10
654.00013676636206
 20
439.4364167918306
 30
0.0
 40
2.0000000500000001
 50
271.9999999999971
 51
0.0
  0
LINE
  5
3066
  8
AM_0
 10
656.00013676636252
 20
467.50502179183059
 30
0.0
 11
662.00013676636206
 21
467.50502179183059
 31
0.0
  0
ARC
  5
3067
  8
AM_0
 10
908.56393547718915
 20
339.50498679183062
 30
0.0
 40
12.0
 50
270.0
 51
0.0
  0
LINE
  5
3068
  8
AM_0
 10
1020.563935477188
 20
313.50498679183062
 30
0.0
 11
961.55459547718965
 21
313.50498679183062
 31
0.0
  0
LINE
  5
3069
  8
AM_0
 10
1020.563935477188
 20
304.50495679183069
 30
0.0
 11
930.56393547718915
 21
304.50495679183069
 31
0.0
  0
ARC
  5
306A
  8
AM_0
 10
920.56393547718915
 20
322.50498679183062
 30
0.0
 40
5.0
 50
0.0
 51
90.00000299999769
  0
LINE
  5
306B
  8
ﾁｭｳｼﾝｾﾝ1
 10
888.06391547718965
 20
332.16627179183058
 30
0.0
 11
888.06391547718965
 21
294.50498679183062
 31
0.0
  0
LINE
  5
306C
  8
ｶｸﾚｾﾝ2
 10
878.56391547718977
 20
327.50501679183071
 30
0.0
 11
878.56391547718977
 21
297.50498679183062
 31
0.0
  0
LINE
  5
306D
  8
ｶｸﾚｾﾝ2
 10
897.56390547718945
 20
327.50501679183071
 30
0.0
 11
897.56390547718945
 21
297.50498679183062
 31
0.0
  0
LINE
  5
306E
  8
AM_0
 10
955.81882047718943
 20
315.31348679183071
 30
0.0
 11
949.49017547718972
 21
319.74485679183061
 31
0.0
  0
LINE
  5
306F
  8
AM_0
 10
925.56393547718915
 20
322.50498679183062
 30
0.0
 11
925.56393547718915
 21
297.50498679183062
 31
0.0
  0
LINE
  5
3070
  8
AM_0
 10
928.49286047718908
 20
310.43391179183072
 30
0.0
 11
936.68332047718911
 21
318.62440179183062
 31
0.0
  0
ARC
  5
3071
  8
AM_0
 10
935.56393547718915
 20
303.36283679183072
 30
0.0
 40
10.0
 50
135.0
 51
180.00001000000091
  0
ARC
  5
3072
  8
AM_0
 10
930.56393547718915
 20
299.50495679183058
 30
0.0
 40
5.0
 50
90.00000299999769
 51
180.00001000000091
  0
ARC
  5
3073
  8
AM_0
 10
943.75439547718963
 20
311.55329679183052
 30
0.0
 40
10.0
 50
54.999999000001559
 51
135.0
  0
ARC
  5
3074
  8
AM_0
 10
961.55459547718965
 20
323.50498679183062
 30
0.0
 40
10.0
 50
235.0000000000025
 51
270.0
  0
LINE
  5
3075
  8
AM_0
 10
1020.563935477188
 20
313.50498679183062
 30
0.0
 11
1079.573245477188
 21
313.50498679183062
 31
0.0
  0
ARC
  5
3076
  8
AM_0
 10
1079.573245477188
 20
323.50498679183062
 30
0.0
 40
10.0
 50
270.0
 51
304.99999999999739
  0
ARC
  5
3077
  8
AM_0
 10
1020.563935477188
 20
404.50498679183062
 30
0.0
 40
117.0
 50
179.9999899999988
 51
211.27329999999591
  0
ARC
  5
3078
  8
AM_0
 10
1132.563940477188
 20
339.50498679183062
 30
0.0
 40
12.0
 50
180.00001000000091
 51
270.0
  0
LINE
  5
3079
  8
AM_0
 10
1115.5639054771891
 20
297.50498679183062
 30
0.0
 11
1185.563910477189
 21
297.50498679183062
 31
0.0
  0
LINE
  5
307A
  8
AM_0
 10
1120.5639054771891
 20
327.50501679183071
 30
0.0
 11
1180.563910477189
 21
327.50501679183071
 31
0.0
  0
ARC
  5
307B
  8
AM_0
 10
1120.5639054771891
 20
322.50498679183062
 30
0.0
 40
5.0
 50
90.00000299999769
 51
180.00001000000091
  0
LINE
  5
307C
  8
AM_0
 10
1112.634985477189
 20
310.43391179183072
 30
0.0
 11
1104.444490477189
 21
318.62440179183062
 31
0.0
  0
LINE
  5
307D
  8
AM_0
 10
1115.5639054771891
 20
322.50498679183062
 30
0.0
 11
1115.5639054771891
 21
297.50498679183062
 31
0.0
  0
ARC
  5
307E
  8
AM_0
 10
1110.5639054771891
 20
299.50495679183058
 30
0.0
 40
5.0
 50
0.0
 51
90.00000299999769
  0
ARC
  5
307F
  8
AM_0
 10
1105.5639054771891
 20
303.36283679183072
 30
0.0
 40
10.0
 50
0.0
 51
45.000001000003799
  0
ARC
  5
3080
  8
AM_0
 10
1097.3734454771891
 20
311.55329679183052
 30
0.0
 40
10.0
 50
45.000001000003799
 51
124.9999999999972
  0
LINE
  5
3081
  8
ｶｸﾚｾﾝ2
 10
1143.5639254771891
 20
327.50501679183071
 30
0.0
 11
1143.5639254771891
 21
297.50498679183062
 31
0.0
  0
LINE
  5
3082
  8
ﾁｭｳｼﾝｾﾝ1
 10
1153.0639104771881
 20
332.16627179183058
 30
0.0
 11
1153.0639104771881
 21
294.50498679183062
 31
0.0
  0
LINE
  5
3083
  8
ｶｸﾚｾﾝ2
 10
1162.5639254771891
 20
327.50501679183071
 30
0.0
 11
1162.5639254771891
 21
297.50498679183062
 31
0.0
  0
LINE
  5
3084
  8
AM_0
 10
1185.563910477189
 20
327.50501679183071
 30
0.0
 11
1185.563910477189
 21
297.50498679183062
 31
0.0
  0
ARC
  5
3085
  8
AM_0
 10
1180.563910477189
 20
322.50498679183062
 30
0.0
 40
5.0
 50
0.0
 51
90.00000299999769
  0
ARC
  5
3086
  8
AM_0
 10
1020.563935477188
 20
404.50498679183062
 30
0.0
 40
117.0
 50
328.72670000000397
 51
0.0
  0
LINE
  5
3087
  8
ﾁｭｳｼﾝｾﾝ
 10
1113.394164861638
 20
497.50502179183059
 30
0.0
 11
927.73370609274014
 21
497.50502179183059
 31
0.0
  0
ARC
  5
3088
  8
AM_0
 10
1020.563935477188
 20
472.50502179183059
 30
0.0
 40
142.0
 50
43.554363999997882
 51
90.00000299999769
  0
ARC
  5
3089
  8
AM_0
 10
1020.563935477188
 20
472.50502179183059
 30
0.0
 40
147.0
 50
45.402042999998848
 51
90.00000299999769
  0
ARC
  5
308A
  8
AM_0
 10
1020.563935477188
 20
482.50502179183047
 30
0.0
 40
100.0
 50
0.0
 51
90.00000299999769
  0
LINE
  5
308B
  8
AM_0
 10
662.00013676636206
 20
525.0050217918307
 30
0.0
 11
744.00013676636172
 21
525.0050217918307
 31
0.0
  0
LINE
  5
308C
  8
AM_0
 10
682.00013676636206
 20
529.0050217918307
 30
0.0
 11
744.00013676636172
 21
529.0050217918307
 31
0.0
  0
LINE
  5
308D
  8
AM_0
 10
656.00013676636252
 20
527.50502179183036
 30
0.0
 11
662.00013676636206
 21
527.50502179183036
 31
0.0
  0
LINE
  5
308E
  8
AM_0
 10
682.00013676636206
 20
529.0050217918307
 30
0.0
 11
682.00013676636206
 21
525.0050217918307
 31
0.0
  0
ARC
  5
308F
  8
AM_0
 10
634.00013676636217
 20
594.03052179183055
 30
0.0
 40
10.0
 50
179.9999899999988
 51
264.99999999999989
  0
LINE
  5
3090
  8
AM_0
 10
633.12863676636243
 20
584.06857179183055
 30
0.0
 11
646.43593676636226
 21
582.90437179183073
 31
0.0
  0
LINE
  5
3091
  8
AM_0
 10
652.93038676636252
 20
557.61222179183073
 30
0.0
 11
654.06998676636249
 21
557.57242179183027
 31
0.0
  0
ARC
  5
3092
  8
AM_0
 10
653.00013676636252
 20
559.61097179183071
 30
0.0
 40
2.0000000500000001
 50
179.9999899999988
 51
268.00000999999861
  0
ARC
  5
3093
  8
AM_0
 10
654.00013676636206
 20
555.57362179183065
 30
0.0
 40
2.0000000500000001
 50
0.0
 51
88.000000000002785
  0
ARC
  5
3094
  8
AM_0
 10
646.0001367663624
 20
577.92337179183073
 30
0.0
 40
5.0
 50
0.0
 51
84.999996999998885
  0
ARC
  5
3095
  8
AM_0
 10
614.00013676636217
 20
601.83222179183065
 30
0.0
 40
10.0
 50
0.0
 51
88.000000000002785
  0
ARC
  5
3096
  8
AM_0
 10
1020.563935477188
 20
472.50502179183059
 30
0.0
 40
142.0
 50
90.00000299999769
 51
136.4456399999961
  0
ARC
  5
3097
  8
AM_0
 10
1020.563935477188
 20
472.50502179183059
 30
0.0
 40
147.0
 50
90.00000299999769
 51
134.59795999999881
  0
ARC
  5
3098
  8
AM_0
 10
1027.5639054771891
 20
623.50502179183036
 30
0.0
 40
2.0000000500000001
 50
179.9999899999988
 51
270.0
  0
ARC
  5
3099
  8
AM_0
 10
1013.563935477189
 20
623.50502179183036
 30
0.0
 40
2.0000000500000001
 50
270.0
 51
0.0
  0
LINE
  5
309A
  8
AM_0
 10
1033.209935477189
 20
618.95997179183053
 30
0.0
 11
1030.8134204771891
 21
627.90387179183074
 31
0.0
  0
LINE
  5
309B
  8
AM_0
 10
1007.917880477189
 20
618.96002179183051
 30
0.0
 11
1010.3143654771879
 21
627.90387179183074
 31
0.0
  0
ARC
  5
309C
  8
AM_0
 10
1020.563935477188
 20
482.50502179183047
 30
0.0
 40
100.0
 50
90.00000299999769
 51
180.00001000000091
  0
ARC
  5
309D
  8
AM_0
 10
987.56390547718945
 20
505.97139179183063
 30
0.0
 40
100.0
 50
134.59795999999881
 51
180.00001000000091
  0
ARC
  5
309E
  8
AM_0
 10
913.56393547718915
 20
548.43882179183072
 30
0.0
 40
10.0
 50
149.46391999999909
 51
180.00001000000091
  0
ARC
  5
309F
  8
AM_0
 10
985.05261547718965
 20
506.26811179183062
 30
0.0
 40
93.0
 50
136.4456399999961
 51
169.00000000000131
  0
LINE
  5
30A0
  8
AM_0
 10
887.56391547718977
 20
505.97139179183063
 30
0.0
 11
887.56391547718977
 21
492.13072179183058
 31
0.0
  0
CIRCLE
  5
30A1
  8
AM_5
 10
1020.563935477188
 20
497.50502179183059
 30
0.0
 40
6.0
  0
CIRCLE
  5
30A2
  8
AM_0
 10
1020.563935477188
 20
497.50502179183059
 30
0.0
 40
4.500000049999997
  0
LINE
  5
30A3
  8
AM_0
 10
1012.563905477189
 20
529.0050217918307
 30
0.0
 11
1028.5639354771879
 21
529.0050217918307
 31
0.0
  0
LINE
  5
30A4
  8
AM_0
 10
1012.563905477189
 20
519.00497179183071
 30
0.0
 11
1028.5639354771879
 21
519.00497179183071
 31
0.0
  0
LINE
  5
30A5
  8
AM_0
 10
1012.563905477189
 20
519.00497179183071
 30
0.0
 11
1012.563905477189
 21
529.0050217918307
 31
0.0
  0
LINE
  5
30A6
  8
AM_0
 10
1028.5639354771879
 20
519.00497179183071
 30
0.0
 11
1028.5639354771879
 21
529.0050217918307
 31
0.0
  0
LINE
  5
30A7
  8
AM_0
 10
1025.563935477189
 20
665.50497179183071
 30
0.0
 11
1025.563935477189
 21
623.50502179183036
 31
0.0
  0
LINE
  5
30A8
  8
AM_0
 10
1015.563935477189
 20
665.50497179183071
 30
0.0
 11
1015.563935477189
 21
623.50502179183036
 31
0.0
  0
LINE
  5
30A9
  8
AM_0
 10
1011.085850477189
 20
628.62597179183035
 30
0.0
 11
1015.563905477189
 21
629.51377179183055
 31
0.0
  0
ARC
  5
30AA
  8
AM_0
 10
1011.2803354771891
 20
627.64512179183055
 30
0.0
 40
1.0
 50
101.21328999999869
 51
164.99998999999869
  0
LINE
  5
30AB
  8
AM_0
 10
1025.5639054771891
 20
629.51367179183046
 30
0.0
 11
1030.0419354771891
 21
628.62592179183036
 31
0.0
  0
ARC
  5
30AC
  8
AM_0
 10
1029.8475054771891
 20
627.64512179183055
 30
0.0
 40
1.0
 50
15.000000000000741
 51
78.786710000001207
  0
ARC
  5
30AD
  8
AM_0
 10
1020.563935477188
 20
665.50497179183071
 30
0.0
 40
5.0
 50
359.999989999999
 51
179.9999899999988
  0
ARC
  5
30AE
  8
AM_0
 10
1127.563940477188
 20
548.43882179183072
 30
0.0
 40
10.0
 50
0.0
 51
30.536084999998732
  0
ARC
  5
30AF
  8
AM_0
 10
1053.563935477189
 20
505.97139179183063
 30
0.0
 40
100.0
 50
0.0
 51
45.402042999998848
  0
ARC
  5
30B0
  8
AM_0
 10
1056.0752304771891
 20
506.26811179183062
 30
0.0
 40
93.0
 50
10.999999999998691
 51
43.554363999997882
  0
LINE
  5
30B1
  8
AM_0
 10
1153.5639254771891
 20
505.97139179183063
 30
0.0
 11
1153.5639254771891
 21
492.13072179183058
 31
0.0
  0
LINE
  5
30B2
  8
AM_0
 10
286.00019676636219
 20
835.93541762544908
 30
0.0
 11
286.00019676636219
 21
1035.9354176254481
 31
0.0
  0
LINE
  5
30B3
  8
AM_0
 10
296.00019676636208
 20
1034.935417625449
 30
0.0
 11
296.00019676636208
 21
836.93541762544908
 31
0.0
  0
LINE
  5
30B4
  8
AM_0
 10
299.00019676636208
 20
896.46074162544915
 30
0.0
 11
338.00019676636219
 21
896.46074162544915
 31
0.0
  0
LINE
  5
30B5
  8
AM_0
 10
340.00019676636219
 20
862.43541762544919
 30
0.0
 11
298.73872976636221
 21
858.82550662544895
 31
0.0
  0
LINE
  5
30B6
  8
AM_0
 10
299.00019676636208
 20
872.42619262544918
 30
0.0
 11
336.00019676636219
 21
872.42619262544918
 31
0.0
  0
LINE
  5
30B7
  8
AM_0
 10
286.00019676636219
 20
835.93541762544908
 30
0.0
 11
295.00019676636219
 21
835.93541762544908
 31
0.0
  0
ARC
  5
30B8
  8
AM_0
 10
295.00019676636219
 20
836.93541762544908
 30
0.0
 40
1.0
 50
270.0
 51
0.0
  0
ARC
  5
30B9
  8
AM_0
 10
299.00019676636208
 20
855.83692262544912
 30
0.0
 40
3.0
 50
95.0
 51
180.0
  0
ARC
  5
30BA
  8
AM_0
 10
299.00019676636208
 20
869.42619262544918
 30
0.0
 40
3.0
 50
90.0
 51
180.0
  0
ARC
  5
30BB
  8
AM_0
 10
299.00019676636208
 20
893.46074162544903
 30
0.0
 40
3.0
 50
90.0
 51
180.0
  0
LINE
  5
30BC
  8
AM_0
 10
338.00019676636219
 20
874.42619262544906
 30
0.0
 11
338.00019676636219
 21
894.46074162544892
 31
0.0
  0
ARC
  5
30BD
  8
AM_0
 10
336.00019676636219
 20
874.42619262544906
 30
0.0
 40
2.0
 50
270.0
 51
0.0
  0
ARC
  5
30BE
  8
AM_0
 10
340.00019676636219
 20
894.46074162544892
 30
0.0
 40
2.0
 50
120.0000000000005
 51
180.0
  0
LINE
  5
30BF
  8
AM_0
 10
338.00019676636219
 20
997.44464262544875
 30
0.0
 11
338.00019676636219
 21
977.41009262544901
 31
0.0
  0
LINE
  5
30C0
  8
AM_0
 10
299.00019676636208
 20
975.41009262544924
 30
0.0
 11
338.00019676636219
 21
975.41009262544924
 31
0.0
  0
ARC
  5
30C1
  8
AM_0
 10
299.00019676636208
 20
978.41009262544924
 30
0.0
 40
3.0
 50
180.0
 51
270.0
  0
ARC
  5
30C2
  8
AM_0
 10
340.00019676636219
 20
977.41009262544901
 30
0.0
 40
2.0
 50
180.0
 51
239.99999999999949
  0
LINE
  5
30C3
  8
AM_0
 10
340.00019676636219
 20
1009.4354176254481
 30
0.0
 11
298.73872976636221
 21
1013.045327625449
 31
0.0
  0
LINE
  5
30C4
  8
AM_0
 10
299.00019676636208
 20
999.44464262544875
 30
0.0
 11
336.00019676636219
 21
999.44464262544875
 31
0.0
  0
ARC
  5
30C5
  8
AM_0
 10
299.00019676636208
 20
1002.444642625449
 30
0.0
 40
3.0
 50
180.0
 51
270.0
  0
ARC
  5
30C6
  8
AM_0
 10
299.00019676636208
 20
1016.033912625448
 30
0.0
 40
3.0
 50
180.0
 51
264.99999999999989
  0
LINE
  5
30C7
  8
AM_0
 10
286.00019676636219
 20
1035.9354176254481
 30
0.0
 11
295.00019676636219
 21
1035.9354176254481
 31
0.0
  0
ARC
  5
30C8
  8
AM_0
 10
295.00019676636219
 20
1034.935417625449
 30
0.0
 40
1.0
 50
0.0
 51
90.0
  0
ARC
  5
30C9
  8
AM_0
 10
336.00019676636219
 20
997.44464262544875
 30
0.0
 40
2.0
 50
0.0
 51
90.0
  0
LINE
  5
30CA
  8
ﾁｭｳｼﾝｾﾝ
 10
912.4956932783424
 20
410.0050167918306
 30
0.0
 11
1128.6321776760351
 21
410.0050167918306
 31
0.0
  0
TEXT
  5
32AB
  8
AM_0
 10
873.81164570375131
 20
973.7363792567503
 30
0.0
 40
20.0
  1
VX08-240A~VX08-500A
  0
ENDSEC
  0
EOF
