  0
SECTION
  2
HEADER
  9
$ACADVER
  1
AC1009
  9
$INSBASE
 10
0.0
 20
0.0
 30
0.0
  9
$EXTMIN
 10
257.27680567451353
 20
262.42866762032372
 30
-0.0000000349181948
  9
$EXTMAX
 10
920.70930753742448
 20
805.47943316688725
 30
0.0000000814935747
  9
$LIMMIN
 10
0.0
 20
0.0
  9
$LIMMAX
 10
1422.5
 20
925.0
  9
$ORTHOMODE
 70
     0
  9
$REGENMODE
 70
     1
  9
$FILLMODE
 70
     1
  9
$QTEXTMODE
 70
     0
  9
$MIRRTEXT
 70
     1
  9
$DRAGMODE
 70
     2
  9
$LTSCALE
 40
5.0
  9
$OSMODE
 70
   551
  9
$ATTMODE
 70
     1
  9
$TEXTSIZE
 40
2.5
  9
$TRACEWID
 40
1.0
  9
$TEXTSTYLE
  7
STANDARD
  9
$CLAYER
  8
AM_0
  9
$CELTYPE
  6
BYLAYER
  9
$CECOLOR
 62
   256
  9
$DIMSCALE
 40
1.0
  9
$DIMASZ
 40
2.5
  9
$DIMEXO
 40
1.0
  9
$DIMDLI
 40
8.0
  9
$DIMRND
 40
0.0
  9
$DIMDLE
 40
0.0
  9
$DIMEXE
 40
0.6
  9
$DIMTP
 40
0.1
  9
$DIMTM
 40
0.1
  9
$DIMTXT
 40
2.5
  9
$DIMCEN
 40
0.0
  9
$DIMTSZ
 40
0.0
  9
$DIMTOL
 70
     0
  9
$DIMLIM
 70
     0
  9
$DIMTIH
 70
     0
  9
$DIMTOH
 70
     0
  9
$DIMSE1
 70
     0
  9
$DIMSE2
 70
     0
  9
$DIMTAD
 70
     1
  9
$DIMZIN
 70
     8
  9
$DIMBLK
  1

  9
$DIMASO
 70
     1
  9
$DIMSHO
 70
     1
  9
$DIMPOST
  1

  9
$DIMAPOST
  1
"
  9
$DIMALT
 70
     0
  9
$DIMALTD
 70
     2
  9
$DIMALTF
 40
0.0393701
  9
$DIMLFAC
 40
1.0
  9
$DIMTOFL
 70
     1
  9
$DIMTVP
 40
0.0
  9
$DIMTIX
 70
     0
  9
$DIMSOXD
 70
     0
  9
$DIMSAH
 70
     0
  9
$DIMBLK1
  1

  9
$DIMBLK2
  1

  9
$DIMSTYLE
  2
AM_ISO
  9
$DIMCLRD
 70
   256
  9
$DIMCLRE
 70
   256
  9
$DIMCLRT
 70
     4
  9
$DIMTFAC
 40
0.71
  9
$DIMGAP
 40
0.8
  9
$LUNITS
 70
     2
  9
$LUPREC
 70
     2
  9
$SKETCHINC
 40
1.0
  9
$FILLETRAD
 40
25.0
  9
$AUNITS
 70
     0
  9
$AUPREC
 70
     0
  9
$MENU
  1
.
  9
$ELEVATION
 40
0.0
  9
$PELEVATION
 40
0.0
  9
$THICKNESS
 40
0.0
  9
$LIMCHECK
 70
     0
  9
$BLIPMODE
 70
     0
  9
$CHAMFERA
 40
10.0
  9
$CHAMFERB
 40
5.0
  9
$SKPOLY
 70
     0
  9
$TDCREATE
 40
2452066.5496044909
  9
$TDUPDATE
 40
2458541.472316239
  9
$TDINDWG
 40
0.0841326273
  9
$TDUSRTIMER
 40
0.0841326042
  9
$USRTIMER
 70
     1
  9
$ANGBASE
 50
0.0
  9
$ANGDIR
 70
     0
  9
$PDMODE
 70
     0
  9
$PDSIZE
 40
0.0
  9
$PLINEWID
 40
0.0
  9
$COORDS
 70
     1
  9
$SPLFRAME
 70
     0
  9
$SPLINETYPE
 70
     6
  9
$SPLINESEGS
 70
     8
  9
$ATTDIA
 70
     1
  9
$ATTREQ
 70
     1
  9
$HANDLING
 70
     1
  9
$HANDSEED
  5
3128
  9
$SURFTAB1
 70
     6
  9
$SURFTAB2
 70
     6
  9
$SURFTYPE
 70
     6
  9
$SURFU
 70
     6
  9
$SURFV
 70
     6
  9
$UCSNAME
  2

  9
$UCSORG
 10
0.0
 20
0.0
 30
0.0
  9
$UCSXDIR
 10
1.0
 20
0.0
 30
0.0
  9
$UCSYDIR
 10
0.0
 20
1.0
 30
0.0
  9
$PUCSNAME
  2

  9
$PUCSORG
 10
0.0
 20
0.0
 30
0.0
  9
$PUCSXDIR
 10
1.0
 20
0.0
 30
0.0
  9
$PUCSYDIR
 10
0.0
 20
1.0
 30
0.0
  9
$USERI1
 70
     0
  9
$USERI2
 70
     0
  9
$USERI3
 70
     0
  9
$USERI4
 70
     0
  9
$USERI5
 70
     0
  9
$USERR1
 40
0.0
  9
$USERR2
 40
0.0
  9
$USERR3
 40
0.0
  9
$USERR4
 40
0.0
  9
$USERR5
 40
0.0
  9
$WORLDVIEW
 70
     1
  9
$SHADEDGE
 70
     3
  9
$SHADEDIF
 70
    70
  9
$TILEMODE
 70
     1
  9
$MAXACTVP
 70
    64
  9
$PLIMCHECK
 70
     0
  9
$PEXTMIN
 10
1.0000000000000000E+020
 20
1.0000000000000000E+020
 30
1.0000000000000000E+020
  9
$PEXTMAX
 10
-1.0000000000000000E+020
 20
-1.0000000000000000E+020
 30
-1.0000000000000000E+020
  9
$PLIMMIN
 10
0.0
 20
0.0
  9
$PLIMMAX
 10
420.0
 20
297.0
  9
$UNITMODE
 70
     0
  9
$VISRETAIN
 70
     1
  9
$PLINEGEN
 70
     0
  9
$PSLTSCALE
 70
     1
  0
ENDSEC
  0
SECTION
  2
TABLES
  0
TABLE
  2
VPORT
 70
     1
  0
VPORT
  2
*ACTIVE
 70
     0
 10
0.0
 20
0.0
 11
1.0
 21
1.0
 12
588.99305660596895
 22
533.95405039360548
 13
0.0
 23
0.0
 14
12.5
 24
12.5
 15
50.0
 25
50.0
 16
0.0
 26
0.0
 36
1.0
 17
0.0
 27
0.0
 37
0.0
 40
546.77880283864511
 41
1.7571592210767459
 42
50.0
 43
0.0
 44
0.0
 50
0.0
 51
0.0
 71
     0
 72
   100
 73
     1
 74
     3
 75
     0
 76
     0
 77
     0
 78
     0
  0
ENDTAB
  0
TABLE
  2
LTYPE
 70
    26
  0
LTYPE
  2
CONTINUOUS
 70
     0
  3
Solid line
 72
    65
 73
     0
 40
0.0
  0
LTYPE
  2
AM_ISO02W050
 70
     0
  3
__ __ __ __ __ __ __ __ __ __ __ __ __ __ __
 72
    65
 73
     2
 40
7.5
 49
6.0
 49
-1.5
  0
LTYPE
  2
AM_ISO08W050
 70
     0
  3
____ . ____ . ____ . ____ . ____ . ____ . ____
 72
    65
 73
     4
 40
18.0
 49
12.0
 49
-1.5
 49
3.0
 49
-1.5
  0
LTYPE
  2
AM_ISO09W050
 70
     0
  3
_____ . . _____ . . _____ . . ____ .. ____
 72
    65
 73
     6
 40
22.5
 49
12.0
 49
-1.5
 49
3.0
 49
-1.5
 49
3.0
 49
-1.5
  0
LTYPE
  2
AMCONSTR
 70
     0
  3
_______________________
 72
    65
 73
     2
 40
9999.0
 49
9999.0
 49
0.0
  0
LTYPE
  2
AM_ISO08W050X2
 70
     0
  3
__ . __ . __ . __ . __ . __
 72
    65
 73
     4
 40
9.0
 49
6.0
 49
-0.75
 49
1.5
 49
-0.75
  0
LTYPE
  2
AM_ISO02W050X2
 70
     0
  3
 _ _ _ _ _ _ _ _ _ _ _ _
 72
    65
 73
     2
 40
3.75
 49
3.0
 49
-0.75
  0
LTYPE
  2
AMZIGZAG
 70
     0
  3
/\/-/\/-/\/-/\/-/\/-/\/
 72
    65
 73
     2
 40
11.000099999999991
 49
0.0001
 49
-11.0
  0
LTYPE
  2
ACISOWELD
 70
     0
  3
_ _ _ _ _
 72
    65
 73
     2
 40
2.0
 49
2.0
 49
-1.0
  0
LTYPE
  2
ACISOTGB
 70
     0
  3
__ . . __ . .
 72
    65
 73
     6
 40
9.0
 49
4.0
 49
-1.0
 49
1.0
 49
-1.0
 49
1.0
 49
-1.0
  0
LTYPE
  2
ACISOTGL
 70
     0
  3
_ _ _ _ _
 72
    65
 73
     2
 40
3.0
 49
2.0
 49
-1.0
  0
LTYPE
  2
CENTER
 70
     0
  3
__ . __
 72
    65
 73
     4
 40
7.0
 49
4.0
 49
-1.0
 49
1.0
 49
-1.0
  0
LTYPE
  2
PHANTOM2
 70
     0
  3
Phantom (.5x) ___ _ _ ___ _ _ ___ _ _ ___ _ _
 72
    65
 73
     6
 40
31.75
 49
15.875
 49
-3.174999999999998
 49
3.174999999999998
 49
-3.174999999999998
 49
3.174999999999998
 49
-3.174999999999998
  0
LTYPE
  2
ACANSTGBM
 70
     0
  3
__ . . __ . .
 72
    65
 73
     6
 40
9.0
 49
4.0
 49
-1.0
 49
1.0
 49
-1.0
 49
1.0
 49
-1.0
  0
LTYPE
  2
ACANSTGLM
 70
     0
  3
_ _ _ _ _
 72
    65
 73
     2
 40
3.0
 49
2.0
 49
-1.0
  0
LTYPE
  2
GEN3B
 70
     0
  3
 - - - - -
 72
    65
 73
     2
 40
1.0
 49
0.5
 49
-0.5
  0
LTYPE
  2
GEN7A
 70
     0
  3
__ . __ . __
 72
    65
 73
     4
 40
7.375
 49
4.75
 49
-0.875
 49
0.875
 49
-0.875
  0
LTYPE
  2
ACJISTGB
 70
     0
  3
__ . . __ . .
 72
    65
 73
     6
 40
9.0
 49
4.0
 49
-1.0
 49
1.0
 49
-1.0
 49
1.0
 49
-1.0
  0
LTYPE
  2
ACJISTGL
 70
     0
  3
_ _ _ _ _
 72
    65
 73
     2
 40
3.0
 49
2.0
 49
-1.0
  0
LTYPE
  2
HIDDEN
 70
     0
  3
Hidden __ __ __ __ __ __ __ __ __ __ __ __ __ _
 72
    65
 73
     2
 40
0.375
 49
0.25
 49
-0.125
  0
LTYPE
  2
CENTER2
 70
     0
  3
Center (.5x) ___ _ ___ _ ___ _ ___ _ ___ _ ___
 72
    65
 73
     4
 40
1.125
 49
0.75
 49
-0.125
 49
0.125
 49
-0.125
  0
LTYPE
  2
HIDDEN2
 70
     0
  3
Hidden (.5x) _ _ _ _ _ _ _ _ _ _ _ _ _ _ _ _ _
 72
    65
 73
     2
 40
0.1875
 49
0.125
 49
-0.0625
  0
LTYPE
  2
AMZIGZAG2
 70
     0
  3
/\/-/\/-/\/-/\/-/\/-/\/
 72
    65
 73
     2
 40
0.4401
 49
0.0001
 49
-0.4400000000000002
  0
LTYPE
  2
ACANSTGB
 70
     0
  3
__ . . __ . .
 72
    65
 73
     6
 40
0.35433070866
 49
0.15748031496
 49
-0.03937007874
 49
0.03937007874
 49
-0.03937007874
 49
0.03937007874
 49
-0.03937007874
  0
LTYPE
  2
ACANSTGL
 70
     0
  3
_ _ _ _ _
 72
    65
 73
     2
 40
0.11811023622
 49
0.07874015748
 49
-0.03937007874
  0
ENDTAB
  0
TABLE
  2
LAYER
 70
     6
  0
LAYER
  2
0
 70
     0
 62
     7
  6
CONTINUOUS
  0
LAYER
  2
AM_0
 70
     0
 62
     7
  6
CONTINUOUS
  0
LAYER
  2
AM_5
 70
     0
 62
     2
  6
CONTINUOUS
  0
LAYER
  2
DEFPOINTS
 70
     0
 62
     7
  6
CONTINUOUS
  0
LAYER
  2
ｶｸﾚｾﾝ2
 70
     0
 62
     3
  6
GEN3B
  0
LAYER
  2
ﾁｭｳｼﾝｾﾝ1
 70
     0
 62
     1
  6
GEN7A
  0
ENDTAB
  0
TABLE
  2
STYLE
 70
     9
  0
STYLE
  2
STANDARD
 70
     0
 40
0.0
 41
0.8299999999999999
 50
0.0
 71
     0
 42
2.5
  3
txt.shx
  4
bigfont.shx
  0
STYLE
  2
ANNOTATIVE
 70
     0
 40
0.0
 41
1.0
 50
0.0
 71
     0
 42
0.2
  3
txt
  4

  0
STYLE
  2

 70
     1
 40
0.0
 41
1.0
 50
0.0
 71
     0
 42
2.5
  3
ltypeshp.shx
  4

  0
STYLE
  2
ACISOTS
 70
     0
 40
1.0
 41
1.0
 50
0.0
 71
     0
 42
2.5
  3
isocp.shx
  4
extfont.shx
  0
STYLE
  2
ACISOGDT
 70
     0
 40
0.0
 41
1.0
 50
0.0
 71
     0
 42
2.5
  3
amgdt.shx
  4

  0
STYLE
  2
ACANSTS
 70
     0
 40
1.0
 41
1.0
 50
0.0
 71
     0
 42
2.5
  3
romans.shx
  4
bigfont.shx
  0
STYLE
  2
ACANSGDT
 70
     0
 40
0.0
 41
1.0
 50
0.0
 71
     0
 42
2.5
  3
amgdt.shx
  4

  0
STYLE
  2
ACJISTS
 70
     0
 40
1.0
 41
1.0
 50
0.0
 71
     0
 42
2.5
  3
isocp.shx
  4
bigfont.shx
  0
STYLE
  2
ACJISGDT
 70
     0
 40
0.0
 41
1.0
 50
0.0
 71
     0
 42
2.5
  3
amgdt.shx
  4

  0
ENDTAB
  0
TABLE
  2
VIEW
 70
     6
  0
VIEW
  2
AM_VIEW1
 70
     0
 40
462.5
 10
416.07965009208078
 20
693.75
 41
832.15930018416213
 11
0.0
 21
0.0
 31
1.0
 12
0.0
 22
0.0
 32
0.0
 42
50.0
 43
0.0
 44
0.0
 50
0.0
 71
     0
  0
VIEW
  2
AM_VIEW2
 70
     0
 40
462.5
 10
1006.420349907918
 20
693.75
 41
832.15930018416213
 11
0.0
 21
0.0
 31
1.0
 12
0.0
 22
0.0
 32
0.0
 42
50.0
 43
0.0
 44
0.0
 50
0.0
 71
     0
  0
VIEW
  2
AM_VIEW3
 70
     0
 40
462.5
 10
416.07965009208078
 20
231.25
 41
832.15930018416213
 11
0.0
 21
0.0
 31
1.0
 12
0.0
 22
0.0
 32
0.0
 42
50.0
 43
0.0
 44
0.0
 50
0.0
 71
     0
  0
VIEW
  2
AM_VIEW4
 70
     0
 40
462.5
 10
1006.420349907918
 20
231.25
 41
832.15930018416213
 11
0.0
 21
0.0
 31
1.0
 12
0.0
 22
0.0
 32
0.0
 42
50.0
 43
0.0
 44
0.0
 50
0.0
 71
     0
  0
VIEW
  2
AM_VIEW5
 70
     0
 40
462.5
 10
711.24999999999966
 20
462.5
 41
832.15930018416179
 11
0.0
 21
0.0
 31
1.0
 12
0.0
 22
0.0
 32
0.0
 42
50.0
 43
0.0
 44
0.0
 50
0.0
 71
     0
  0
VIEW
  2
AM_VIEW6
 70
     0
 40
924.99075000000005
 10
711.24999999999966
 20
462.5
 41
1664.3019571823199
 11
0.0
 21
0.0
 31
1.0
 12
0.0
 22
0.0
 32
0.0
 42
50.0
 43
0.0
 44
0.0
 50
0.0
 71
     0
  0
ENDTAB
  0
TABLE
  2
UCS
 70
     0
  0
ENDTAB
  0
TABLE
  2
APPID
 70
    95
  0
APPID
  2
ACAD
 70
     0
  0
APPID
  2
ACADANNOTATIVE
 70
     0
  0
APPID
  2
MCAD_NO_VIS
 70
     0
  0
APPID
  2
ACAD_TEMP_GRAPHIC
 70
     0
  0
APPID
  2
ACATTRIBSERVICES
 70
     0
  0
APPID
  2
GENIUS_GENREC_14
 70
     0
  0
APPID
  2
GENIUS_GENOBJ-N-REC_13
 70
     0
  0
APPID
  2
GENIUS_GENODEF_13
 70
     0
  0
APPID
  2
GENIUS_GENOLIS_13
 70
     0
  0
APPID
  2
GENIUS_GENOBJ-N-TIT_13
 70
     0
  0
APPID
  2
GENIUS_GENOENT_13
 70
     0
  0
APPID
  2
GENIUS_GENTITLE_13
 70
     0
  0
APPID
  2
GENIUS_GENOREF_13
 70
     0
  0
APPID
  2
GENIUS_GENSCREG_15
 70
     0
  0
APPID
  2
GENIUS_GENOBJ-N-SDF_13
 70
     0
  0
APPID
  2
GENIUS_GENFIL_13
 70
     0
  0
APPID
  2
GENIUS_GENOBJ-N-CHA_13
 70
     0
  0
APPID
  2
GENIUS_GENDTOL_13
 70
     0
  0
APPID
  2
GENIUS_GENOBJ-N-FIL_13
 70
     0
  0
APPID
  2
AD_DRAW
 70
     0
  0
APPID
  2
DESIGNERASSEMBLIES
 70
     0
  0
APPID
  2
ASURF_PCURVE_APPNAME
 70
     0
  0
APPID
  2
GENIUS_GE3SECT_13
 70
     0
  0
APPID
  2
GENIUS_GENCFG_13
 70
     0
  0
APPID
  2
GENIUS_GE3CFG0_13
 70
     0
  0
APPID
  2
GENIUS_GENCFG0_13
 70
     0
  0
APPID
  2
GENIUS_GENCFG1_13
 70
     0
  0
APPID
  2
GENIUS_GENCFG2_13
 70
     0
  0
APPID
  2
GENIUS_GENCFG3_13
 70
     0
  0
APPID
  2
GENIUS_GENCFG4_13
 70
     0
  0
APPID
  2
GENIUS_GEVCFG0_13
 70
     0
  0
APPID
  2
GENIUS_GENHINW_13
 70
     0
  0
APPID
  2
GENIUS_FIRSTVISTXT_14
 70
     0
  0
APPID
  2
GENIUS_GENOBJ-N-LEADER_13
 70
     0
  0
APPID
  2
GEV_VCCNULL_SWITCH_OFF
 70
     0
  0
APPID
  2
GENIUS_GEFCFG0_13
 70
     0
  0
APPID
  2
GENIUS_GENZVEED_13
 70
     0
  0
APPID
  2
GENIUS_GENSCREG_13
 70
     0
  0
APPID
  2
GENIUS_DUMCFG0_13
 70
     0
  0
APPID
  2
GEVID936201362
 70
     0
  0
APPID
  2
GEVDC
 70
     0
  0
APPID
  2
GEVCON
 70
     0
  0
APPID
  2
VCC
 70
     0
  0
APPID
  2
GEVPT
 70
     0
  0
APPID
  2
GEVIT
 70
     0
  0
APPID
  2
GENBH
 70
     0
  0
APPID
  2
GEVMK
 70
     0
  0
APPID
  2
GENIUS_GENBH_13
 70
     0
  0
APPID
  2
GENIUS_GENOBJ-NBEHI-BHF_13
 70
     0
  0
APPID
  2
GENIUS_GENOBJ-NBEHI-BHB_13
 70
     0
  0
APPID
  2
GENIUS_GENOBJ-F-DESC_13
 70
     0
  0
APPID
  2
GENIUS_GEFDESC_14
 70
     0
  0
APPID
  2
GENIUS_GENOBJ-F-PART_13
 70
     0
  0
APPID
  2
GENIUS_GEFSTDP_13
 70
     0
  0
APPID
  2
GENIUS_GEFPARTINS_13
 70
     0
  0
APPID
  2
GENIUS_GENTRA_14
 70
     0
  0
APPID
  2
GENIUS_GENINF13_13
 70
     0
  0
APPID
  2
GENIUS_GENOBJ-N-INFOPT_13
 70
     0
  0
APPID
  2
GENIUS_GENOBJ-N-RSSYM_13
 70
     0
  0
APPID
  2
GENIUS_GENSYMENT_13
 70
     0
  0
APPID
  2
GENIUS_GENSCSYM_13
 70
     0
  0
APPID
  2
GENIUS_GEFINFNAM_13
 70
     0
  0
APPID
  2
GENIUS_GENOBJ-N-CEN_13
 70
     0
  0
APPID
  2
GENIUS_GENOBJ-N-CRS_13
 70
     0
  0
APPID
  2
GENIUS_GENOBJ-N-CRC_13
 70
     0
  0
APPID
  2
GENIUS_GENCRC_14
 70
     0
  0
APPID
  2
GEVID942827039
 70
     0
  0
APPID
  2
GEVID942827040
 70
     0
  0
APPID
  2
GEVID942827041
 70
     0
  0
APPID
  2
GENIUS_GENOBJ-F-SCPASSM_13
 70
     0
  0
APPID
  2
GENIUS_GENDIMSH_14
 70
     0
  0
APPID
  2
GEVID942827042
 70
     0
  0
APPID
  2
GEVID946020473
 70
     0
  0
APPID
  2
GEVID946020474
 70
     0
  0
APPID
  2
GEVID946020475
 70
     0
  0
APPID
  2
GENIUS_GENOBJ-N-HTC_13
 70
     0
  0
APPID
  2
GENIUS_GENHATCH_13
 70
     0
  0
APPID
  2
GEVID948854295
 70
     0
  0
APPID
  2
GEVID939402019
 70
     0
  0
APPID
  2
GEVID952919491
 70
     0
  0
APPID
  2
GEVID952919492
 70
     0
  0
APPID
  2
GENIUS_GEFWELD_13
 70
     0
  0
APPID
  2
GENIUS_GENOBJ-F-WELS_13
 70
     0
  0
APPID
  2
GEVID952919493
 70
     0
  0
APPID
  2
GENIUS_GENOBJ-N-RSBK_13
 70
     0
  0
APPID
  2
GENIUS_GENOBJ-N-LIB_13
 70
     0
  0
APPID
  2
GENIUS_GENSCALE_13
 70
     0
  0
APPID
  2
GEVID986376691
 70
     0
  0
APPID
  2
DCO15
 70
     0
  0
APPID
  2
ACAD_DSTYLE_DIMBREAK
 70
     0
  0
APPID
  2
ACAD_DSTYLE_DIMJAG
 70
     0
  0
APPID
  2
ACAD_NAV_VCDISPLAY
 70
     0
  0
APPID
  2
ACADANNOPO
 70
     0
  0
APPID
  2
ACAD_EXEMPT_FROM_CAD_STANDARDS
 70
     0
  0
APPID
  2
ACAD_MLEADERVER
 70
     0
  0
ENDTAB
  0
TABLE
  2
DIMSTYLE
 70
    22
  0
DIMSTYLE
  2
STANDARD
 70
     0
  3

  4

  5

  6

  7

 40
1.0
 41
0.18
 42
0.0625
 43
0.38
 44
0.18
 45
0.0
 46
0.0
 47
0.0
 48
0.0
140
0.18
141
0.09
142
0.0
143
25.399999999999999
144
1.0
145
0.0
146
1.0
147
0.09
 71
     0
 72
     0
 73
     1
 74
     1
 75
     0
 76
     0
 77
     0
 78
     0
170
     0
171
     2
172
     0
173
     0
174
     0
175
     0
176
     0
177
     0
178
     0
  0
DIMSTYLE
  2
ANNOTATIVE
 70
     0
  3

  4

  5

  6

  7

 40
1.0
 41
0.18
 42
0.0625
 43
0.38
 44
0.18
 45
0.0
 46
0.0
 47
0.0
 48
0.0
140
0.18
141
0.09
142
0.0
143
25.399999999999999
144
1.0
145
0.0
146
1.0
147
0.09
 71
     0
 72
     0
 73
     1
 74
     1
 75
     0
 76
     0
 77
     0
 78
     0
170
     0
171
     2
172
     0
173
     0
174
     0
175
     0
176
     0
177
     0
178
     0
  0
DIMSTYLE
  2
AM_ISO
 70
     0
  3

  4
"
  5

  6

  7

 40
1.0
 41
2.5
 42
1.0
 43
8.0
 44
0.6
 45
0.0
 46
0.0
 47
0.1
 48
0.1
140
2.5
141
0.0
142
0.0
143
0.0393701
144
1.0
145
0.0
146
0.71
147
0.8
 71
     0
 72
     0
 73
     0
 74
     0
 75
     0
 76
     0
 77
     1
 78
     8
170
     0
171
     2
172
     1
173
     0
174
     0
175
     0
176
   256
177
   256
178
     4
  0
DIMSTYLE
  2
AM_ISO$3
 70
     0
  3

  4
"
  5

  6

  7

 40
1.0
 41
2.5
 42
1.0
 43
8.0
 44
0.6
 45
0.0
 46
0.0
 47
0.1
 48
0.1
140
2.5
141
0.0
142
0.0
143
0.0393701
144
1.0
145
0.0
146
0.71
147
0.8
 71
     0
 72
     0
 73
     0
 74
     1
 75
     0
 76
     0
 77
     1
 78
     8
170
     0
171
     2
172
     0
173
     0
174
     0
175
     0
176
   256
177
   256
178
     4
  0
DIMSTYLE
  2
AM_ISO$4
 70
     0
  3

  4
"
  5

  6

  7

 40
1.0
 41
2.5
 42
1.0
 43
8.0
 44
0.6
 45
0.0
 46
0.0
 47
0.1
 48
0.1
140
2.5
141
0.0
142
0.0
143
0.0393701
144
1.0
145
0.0
146
0.71
147
0.8
 71
     0
 72
     0
 73
     0
 74
     1
 75
     0
 76
     0
 77
     1
 78
     8
170
     0
171
     2
172
     0
173
     0
174
     0
175
     0
176
   256
177
   256
178
     4
  0
DIMSTYLE
  2
AM_ISO$6
 70
     0
  3

  4
"
  5

  6

  7

 40
1.0
 41
2.5
 42
1.0
 43
8.0
 44
0.6
 45
0.0
 46
0.0
 47
0.1
 48
0.1
140
2.5
141
0.0
142
0.0
143
0.0393701
144
1.0
145
0.0
146
0.71
147
0.8
 71
     0
 72
     0
 73
     0
 74
     0
 75
     0
 76
     0
 77
     0
 78
     8
170
     0
171
     2
172
     1
173
     0
174
     0
175
     0
176
   256
177
   256
178
     4
  0
DIMSTYLE
  2
AM_ISO$7
 70
     0
  3

  4
"
  5

  6

  7

 40
1.0
 41
2.5
 42
1.0
 43
8.0
 44
0.6
 45
0.0
 46
0.0
 47
0.1
 48
0.1
140
2.5
141
0.0
142
0.0
143
0.0393701
144
1.0
145
0.0
146
0.71
147
0.8
 71
     0
 72
     0
 73
     0
 74
     0
 75
     0
 76
     0
 77
     1
 78
     8
170
     0
171
     2
172
     1
173
     0
174
     0
175
     0
176
   256
177
   256
178
     4
  0
DIMSTYLE
  2
AM_ISO$SF
 70
     0
  3

  4
"
  5

  6

  7

 40
1.0
 41
2.5
 42
1.0
 43
10.0
 44
1.0
 45
0.0
 46
0.0
 47
0.1
 48
0.1
140
3.5
141
0.0
142
0.0
143
0.0393701
144
1.0
145
0.0
146
0.71
147
1.5
 71
     0
 72
     0
 73
     0
 74
     0
 75
     1
 76
     1
 77
     1
 78
     8
170
     0
171
     2
172
     1
173
     0
174
     0
175
     0
176
   256
177
   256
178
     2
  0
DIMSTYLE
  2
AM_ISO$SH
 70
     0
  3

  4
"
  5

  6

  7

 40
1.0
 41
2.5
 42
1.0
 43
10.0
 44
1.0
 45
0.0
 46
0.0
 47
0.1
 48
0.1
140
3.5
141
0.0
142
0.0
143
0.0393701
144
2.0
145
0.0
146
0.71
147
1.5
 71
     0
 72
     0
 73
     0
 74
     0
 75
     1
 76
     1
 77
     1
 78
     8
170
     0
171
     2
172
     1
173
     1
174
     0
175
     0
176
   256
177
   256
178
     2
  0
DIMSTYLE
  2
AM_JIS
 70
     0
  3

  4
"
  5

  6

  7

 40
1.0
 41
2.5
 42
1.0
 43
7.0
 44
1.0
 45
0.0
 46
0.0
 47
0.1
 48
0.1000000001
140
2.5
141
0.0
142
0.0
143
0.0393701
144
1.0
145
0.0
146
0.71
147
1.0
 71
     0
 72
     0
 73
     0
 74
     0
 75
     0
 76
     0
 77
     3
 78
     8
170
     0
171
     2
172
     1
173
     0
174
     0
175
     0
176
   256
177
   256
178
     4
  0
DIMSTYLE
  2
AM_JIS$3
 70
     0
  3

  4
"
  5

  6

  7

 40
1.0
 41
2.5
 42
1.0
 43
7.0
 44
1.0
 45
0.0
 46
0.0
 47
0.1
 48
0.1000000001
140
2.5
141
0.0
142
0.0
143
0.0393701
144
1.0
145
0.0
146
0.71
147
1.0
 71
     0
 72
     0
 73
     0
 74
     1
 75
     0
 76
     0
 77
     3
 78
     8
170
     0
171
     2
172
     0
173
     0
174
     0
175
     0
176
   256
177
   256
178
     4
  0
DIMSTYLE
  2
AM_JIS$4
 70
     0
  3

  4
"
  5

  6

  7

 40
1.0
 41
2.5
 42
1.0
 43
7.0
 44
1.0
 45
0.0
 46
0.0
 47
0.1
 48
0.1000000001
140
2.5
141
0.0
142
0.0
143
0.0393701
144
1.0
145
0.0
146
0.71
147
1.0
 71
     0
 72
     0
 73
     0
 74
     0
 75
     0
 76
     0
 77
     3
 78
     8
170
     0
171
     2
172
     0
173
     0
174
     0
175
     0
176
   256
177
   256
178
     4
  0
DIMSTYLE
  2
AM_JIS$6
 70
     0
  3

  4
"
  5

  6

  7

 40
1.0
 41
2.5
 42
1.0
 43
7.0
 44
1.0
 45
0.0
 46
0.0
 47
0.1
 48
0.1000000001
140
2.5
141
0.0
142
0.0
143
0.0393701
144
1.0
145
0.0
146
0.71
147
1.0
 71
     0
 72
     0
 73
     0
 74
     0
 75
     0
 76
     0
 77
     0
 78
     8
170
     0
171
     2
172
     1
173
     0
174
     0
175
     0
176
   256
177
   256
178
     4
  0
DIMSTYLE
  2
AM_JIS$7
 70
     0
  3

  4
"
  5

  6

  7

 40
1.0
 41
2.5
 42
1.0
 43
7.0
 44
1.0
 45
0.0
 46
0.0
 47
0.1
 48
0.1000000001
140
2.5
141
0.0
142
0.0
143
0.0393701
144
1.0
145
0.0
146
0.71
147
1.0
 71
     0
 72
     0
 73
     0
 74
     0
 75
     0
 76
     0
 77
     3
 78
     8
170
     0
171
     2
172
     1
173
     0
174
     0
175
     0
176
   256
177
   256
178
     4
  0
DIMSTYLE
  2
AM_JIS$SF
 70
     0
  3

  4
"
  5

  6

  7

 40
1.0
 41
2.5
 42
1.0
 43
10.0
 44
1.0
 45
0.0
 46
0.0
 47
0.1
 48
0.1
140
3.5
141
0.0
142
0.0
143
0.0393701
144
1.0
145
0.0
146
0.71
147
1.5
 71
     0
 72
     0
 73
     0
 74
     0
 75
     1
 76
     1
 77
     3
 78
     8
170
     0
171
     2
172
     1
173
     0
174
     0
175
     0
176
   256
177
   256
178
     4
  0
DIMSTYLE
  2
AM_JIS$SH
 70
     0
  3

  4
"
  5

  6

  7

 40
1.0
 41
2.5
 42
1.0
 43
10.0
 44
1.0
 45
0.0
 46
0.0
 47
0.1
 48
0.1
140
3.5
141
0.0
142
0.0
143
0.0393701
144
1.0
145
0.0
146
0.71
147
1.5
 71
     0
 72
     0
 73
     0
 74
     0
 75
     1
 76
     0
 77
     3
 78
     8
170
     0
171
     2
172
     1
173
     1
174
     0
175
     0
176
   256
177
   256
178
     4
  0
DIMSTYLE
  2
AM_ANSI
 70
     0
  3

  4
mm
  5

  6

  7

 40
1.0
 41
0.1
 42
0.05
 43
0.5
 44
0.1
 45
0.0
 46
0.0
 47
0.1
 48
0.1
140
0.12
141
0.0
142
0.0
143
25.399999999999999
144
1.0
145
0.0
146
0.71
147
0.06
 71
     0
 72
     0
 73
     1
 74
     1
 75
     0
 76
     0
 77
     0
 78
     7
170
     0
171
     2
172
     0
173
     0
174
     0
175
     0
176
   256
177
   256
178
     2
  0
DIMSTYLE
  2
AM_ANSI$3
 70
     0
  3

  4
mm
  5

  6

  7

 40
1.0
 41
0.1
 42
0.05
 43
0.5
 44
0.1
 45
0.0
 46
0.0
 47
0.1
 48
0.1
140
0.12
141
0.0
142
0.0
143
25.399999999999999
144
1.0
145
0.0
146
0.71
147
0.06
 71
     0
 72
     0
 73
     1
 74
     1
 75
     0
 76
     0
 77
     0
 78
     7
170
     0
171
     2
172
     0
173
     0
174
     0
175
     0
176
   256
177
   256
178
     2
  0
DIMSTYLE
  2
AM_ANSI$4
 70
     0
  3

  4
mm
  5

  6

  7

 40
1.0
 41
0.1
 42
0.05
 43
0.5
 44
0.1
 45
0.0
 46
0.0
 47
0.1
 48
0.1
140
0.12
141
0.0
142
0.0
143
25.399999999999999
144
1.0
145
0.0
146
0.71
147
0.06
 71
     0
 72
     0
 73
     1
 74
     1
 75
     0
 76
     0
 77
     0
 78
     7
170
     0
171
     2
172
     0
173
     0
174
     0
175
     0
176
   256
177
   256
178
     2
  0
DIMSTYLE
  2
AM_ANSI$7
 70
     0
  3

  4
mm
  5

  6

  7

 40
1.0
 41
0.1
 42
0.05
 43
0.5
 44
0.1
 45
0.0
 46
0.0
 47
0.1
 48
0.1
140
0.24
141
0.0
142
0.0
143
25.399999999999999
144
1.0
145
0.0
146
0.71
147
0.06
 71
     0
 72
     0
 73
     1
 74
     1
 75
     0
 76
     0
 77
     0
 78
     7
170
     0
171
     2
172
     0
173
     0
174
     0
175
     0
176
   256
177
   256
178
     2
  0
DIMSTYLE
  2
AM_ANSI$SF
 70
     0
  3

  4
mm
  5

  6

  7

 40
1.0
 41
0.1
 42
0.05
 43
0.5
 44
0.1
 45
0.0
 46
0.0
 47
0.1
 48
0.1
140
0.12
141
0.0
142
0.0
143
25.399999999999999
144
1.0
145
0.0
146
0.71
147
0.06
 71
     0
 72
     0
 73
     1
 74
     1
 75
     1
 76
     1
 77
     0
 78
     7
170
     0
171
     2
172
     0
173
     0
174
     0
175
     0
176
   256
177
   256
178
     2
  0
DIMSTYLE
  2
AM_ANSI$SH
 70
     0
  3

  4
mm
  5

  6

  7

 40
1.0
 41
0.1
 42
0.05
 43
0.5
 44
0.1
 45
0.0
 46
0.0
 47
0.1
 48
0.1
140
0.12
141
0.0
142
0.0
143
25.399999999999999
144
1.0
145
0.0
146
0.71
147
0.06
 71
     0
 72
     0
 73
     1
 74
     1
 75
     1
 76
     1
 77
     0
 78
     7
170
     0
171
     2
172
     0
173
     1
174
     0
175
     0
176
   256
177
   256
178
     2
  0
ENDTAB
  0
ENDSEC
  0
SECTION
  2
BLOCKS
  0
BLOCK
  8
0
  2
$MODEL_SPACE
 70
     0
 10
0.0
 20
0.0
 30
0.0
  3
$MODEL_SPACE
  1

  0
ENDBLK
  5
2F9E
  8
0
  0
BLOCK
 67
     1
  8
0
  2
$PAPER_SPACE
 70
     0
 10
0.0
 20
0.0
 30
0.0
  3
$PAPER_SPACE
  1

  0
ENDBLK
  5
2F9A
 67
     1
  8
0
  0
BLOCK
  8
0
  2
GENAXEH
 70
     0
 10
0.0
 20
0.0
 30
0.0
  3
GENAXEH
  1

  0
LINE
  5
2D75
  8
0
 10
-1.0
 20
0.0
 30
0.0
 11
1.0
 21
0.0
 31
0.0
  0
ENDBLK
  5
2D76
  8
0
  0
BLOCK
  8
0
  2
_OPEN30
 70
     0
 10
0.0
 20
0.0
 30
0.0
  3
_OPEN30
  1

  0
LINE
  5
2D79
  8
0
 62
     0
 10
-1.0
 20
0.26794919
 30
0.0
 11
0.0
 21
0.0
 31
0.0
  0
LINE
  5
2D7A
  8
0
 62
     0
 10
0.0
 20
0.0
 30
0.0
 11
-1.0
 21
-0.26794919
 31
0.0
  0
LINE
  5
2D7B
  8
0
 62
     0
 10
0.0
 20
0.0
 30
0.0
 11
-1.0
 21
0.0
 31
0.0
  0
ENDBLK
  5
2D7C
  8
0
  0
BLOCK
  8
0
  2
_NONE
 70
     0
 10
0.0
 20
0.0
 30
0.0
  3
_NONE
  1

  0
ENDBLK
  5
2D7F
  8
0
  0
BLOCK
  8
0
  2
_ACMFILLEDHALF
 70
     0
 10
0.0
 20
0.0
 30
0.0
  3
_ACMFILLEDHALF
  1

  0
TRACE
  5
3094
  8
AM_0
 62
     0
 10
-0.8
 20
0.0
 30
0.0
 11
-1.0
 21
0.166666666
 31
0.0
 12
0.0
 22
0.0
 32
0.0
 13
0.0
 23
0.0
 33
0.0
  0
LINE
  5
3095
  8
AM_0
 62
     0
 10
-1.0
 20
0.0
 30
0.0
 11
-0.8
 21
0.0
 31
0.0
  0
ENDBLK
  5
3093
  8
0
  0
ENDSEC
  0
SECTION
  2
ENTITIES
  0
ARC
  5
2D81
  8
AM_0
 10
473.86196335220973
 20
583.02526835766889
 30
0.0
 40
4.0
 50
271.9999999999971
 51
0.0
  0
ARC
  5
2D82
  8
AM_0
 10
473.86196335220973
 20
621.42599835766885
 30
0.0
 40
4.0
 50
0.0
 51
82.819247000003429
  0
ARC
  5
2D83
  8
AM_0
 10
473.86196335220973
 20
759.4259983576685
 30
0.0
 40
4.0
 50
277.18075000000363
 51
0.0
  0
ARC
  5
2D84
  8
AM_0
 10
473.86196335220973
 20
797.82668835766901
 30
0.0
 40
4.0
 50
0.0
 51
88.000000000002785
  0
LINE
  5
2D85
  8
AM_0
 10
481.86196335220961
 20
672.92599835766885
 30
0.0
 11
477.86193335220992
 21
672.92599835766885
 31
0.0
  0
LINE
  5
2D86
  8
AM_0
 10
481.86196335220961
 20
707.92599835766885
 30
0.0
 11
477.86193335220992
 21
707.92599835766885
 31
0.0
  0
LINE
  5
2D87
  8
ﾁｭｳｼﾝｾﾝ1
 10
257.31658967350393
 20
690.42599835766896
 30
0.0
 11
547.77477335220976
 21
690.42599835766896
 31
0.0
  0
LINE
  5
2D88
  8
AM_0
 10
339.86193335220992
 20
616.92599835766885
 30
0.0
 11
339.86193335220992
 21
763.9259983576685
 31
0.0
  0
LINE
  5
2D89
  8
AM_0
 10
354.86193335220992
 20
594.17226835766894
 30
0.0
 11
354.86193335220992
 21
786.67971835766912
 31
0.0
  0
LINE
  5
2D8A
  8
AM_0
 10
449.86196335220973
 20
621.21926835766885
 30
0.0
 11
449.86196335220973
 21
759.63271835766909
 31
0.0
  0
LINE
  5
2D8B
  8
AM_0
 10
477.86193335220992
 20
690.42599835766896
 30
0.0
 11
477.86193335220992
 21
717.69393835766903
 31
0.0
  0
LINE
  5
2D8C
  8
AM_0
 10
470.86196335220973
 20
629.3226283576688
 30
0.0
 11
470.86196335220973
 21
751.52938835766895
 31
0.0
  0
LINE
  5
2D8D
  8
AM_0
 10
364.86193335220992
 20
590.92599835766885
 30
0.0
 11
364.86193335220992
 21
789.92599835766907
 31
0.0
  0
POLYLINE
  5
2D8E
  8
AM_0
 66
     1
 10
0.0
 20
0.0
 30
0.0
  0
VERTEX
  5
2D8F
  8
AM_0
 10
364.86193335220992
 20
660.14956835766895
 30
0.0
 42
-0.07005559
  0
VERTEX
  5
2D90
  8
AM_0
 10
391.22259335220991
 20
639.95222835766867
 30
0.0
 42
-0.27110578
  0
VERTEX
  5
2D91
  8
AM_0
 10
399.86193335220992
 20
620.06887835766895
 30
0.0
 42
-0.21303172
  0
VERTEX
  5
2D92
  8
AM_0
 10
380.27149335220997
 20
601.93406835766871
 30
0.0
  0
VERTEX
  5
2D93
  8
AM_0
 10
364.86193335220992
 20
595.63580835766902
 30
0.0
 42
-1.0
  0
SEQEND
  5
2D94
  8
AM_0
  0
CIRCLE
  5
2D95
  8
AM_0
 10
459.86196335220978
 20
595.42599835766885
 30
0.0
 40
7.5
  0
LINE
  5
2D96
  8
AM_0
 10
429.86193335220992
 20
585.77056835766894
 30
0.0
 11
429.86193335220992
 21
601.2123983576688
 31
0.0
  0
LINE
  5
2D97
  8
AM_0
 10
477.86196335220961
 20
621.42599835766885
 30
0.0
 11
477.86196335220961
 21
583.02526835766889
 31
0.0
  0
LINE
  5
2D98
  8
ﾁｭｳｼﾝｾﾝ1
 10
459.86196335220978
 20
608.92599835766885
 30
0.0
 11
459.86196335220978
 21
581.92599835766896
 31
0.0
  0
LINE
  5
2D99
  8
AM_0
 10
370.86193335220992
 20
575.42596835766903
 30
0.0
 11
474.00155335220978
 21
579.02767835766895
 31
0.0
  0
ARC
  5
2D9A
  8
AM_0
 10
357.86193335220992
 20
594.17226835766894
 30
0.0
 40
3.0
 50
180.00001000000091
 51
268.00000000000261
  0
ARC
  5
2D9B
  8
AM_0
 10
355.86193335220992
 20
579.74978835766888
 30
0.0
 40
3.0
 50
85.000004000004154
 51
265.0
  0
LINE
  5
2D9C
  8
AM_0
 10
364.86193335220992
 20
595.63580835766902
 30
0.0
 11
354.86193335220992
 21
595.63580835766902
 31
0.0
  0
ARC
  5
2D9D
  8
AM_0
 10
364.86193335220992
 20
585.98910835766901
 30
0.0
 40
4.0
 50
265.00001000000032
 51
0.0000006832495047
  0
LINE
  5
2D9E
  8
AM_0
 10
368.86193335220992
 20
590.92599835766885
 30
0.0
 11
368.86193335220992
 21
581.05752835766873
 31
0.0
  0
ARC
  5
2D9F
  8
AM_0
 10
363.86193335220992
 20
581.05752835766873
 30
0.0
 40
5.0
 50
265.00001000000032
 51
0.0000006832495047
  0
LINE
  5
2DA0
  8
AM_0
 10
356.1234133522097
 20
582.73837835766903
 30
0.0
 11
364.51336335220969
 21
582.00433835766864
 31
0.0
  0
LINE
  5
2DA1
  8
AM_0
 10
357.75726335220992
 20
591.17410835766896
 30
0.0
 11
364.86187335221001
 21
590.92599835766885
 31
0.0
  0
LINE
  5
2DA2
  8
AM_0
 10
364.86193335220992
 20
590.92599835766885
 30
0.0
 11
368.86193335220992
 21
590.92599835766885
 31
0.0
  0
ARC
  5
2DA3
  8
AM_0
 10
437.86193335220992
 20
585.77056835766894
 30
0.0
 40
8.0
 50
180.00001000000091
 51
271.99999000000139
  0
LINE
  5
2DA4
  8
ﾁｭｳｼﾝｾﾝ1
 10
446.36196335220978
 20
595.42599835766885
 30
0.0
 11
473.36196335220973
 21
595.42599835766885
 31
0.0
  0
POLYLINE
  5
2DA5
  8
AM_0
 66
     1
 10
0.0
 20
0.0
 30
0.0
  0
VERTEX
  5
2DA6
  8
AM_0
 10
364.86193335220992
 20
613.00918835766902
 30
0.0
 42
0.040443759
  0
VERTEX
  5
2DA7
  8
AM_0
 10
376.39011335220971
 20
613.23255835766895
 30
0.0
 42
0.042469384
  0
VERTEX
  5
2DA8
  8
AM_0
 10
387.72380335220993
 20
615.34606835766886
 30
0.0
 42
0.022671411
  0
VERTEX
  5
2DA9
  8
AM_0
 10
393.20829335220992
 20
617.13700835766895
 30
0.0
  0
VERTEX
  5
2DAA
  8
AM_0
 10
398.51391335220978
 20
619.40584835766879
 30
0.0
 42
-1.0
  0
SEQEND
  5
2DAB
  8
AM_0
  0
LINE
  5
2DAC
  8
AM_0
 10
364.86193335220992
 20
613.00918835766902
 30
0.0
 11
354.86193335220992
 21
613.00918835766902
 31
0.0
  0
LINE
  5
2DAD
  8
AM_0
 10
339.86193335220992
 20
616.92599835766885
 30
0.0
 11
349.99285335220992
 21
616.66070835766902
 31
0.0
  0
ARC
  5
2DAE
  8
AM_0
 10
349.86193335220992
 20
611.66244835766895
 30
0.0
 40
5.0
 50
0.0
 51
88.499997000000647
  0
LINE
  5
2DAF
  8
AM_0
 10
339.86187335221001
 20
628.84603835766882
 30
0.0
 11
354.86193335220992
 21
628.84603835766882
 31
0.0
  0
LINE
  5
2DB0
  8
AM_0
 10
364.86193335220992
 20
660.14956835766895
 30
0.0
 11
354.86193335220992
 21
660.14956835766895
 31
0.0
  0
LINE
  5
2DB1
  8
AM_0
 10
339.86193335220992
 20
650.95132835766867
 30
0.0
 11
354.86193335220992
 21
650.95132835766867
 31
0.0
  0
ARC
  5
2DB2
  8
AM_0
 10
441.86196335220973
 20
621.21926835766885
 30
0.0
 40
8.0
 50
271.50000000000261
 51
0.0
  0
ARC
  5
2DB3
  8
AM_0
 10
441.86193335220992
 20
601.2123983576688
 30
0.0
 40
12.0
 50
91.500001000001546
 51
180.00001000000091
  0
LINE
  5
2DB4
  8
AM_0
 10
442.07137335220978
 20
613.22201835766896
 30
0.0
 11
441.54778335220959
 21
613.20831835766865
 31
0.0
  0
ARC
  5
2DB5
  8
AM_0
 10
457.31417335220959
 20
617.06850835766897
 30
0.0
 40
8.0
 50
91.500001000001546
 51
164.96420000000299
  0
LINE
  5
2DB6
  8
AM_0
 10
466.96664335220999
 20
625.32400835766873
 30
0.0
 11
457.10476335220972
 21
625.06576835766873
 31
0.0
  0
ARC
  5
2DB7
  8
AM_0
 10
466.86196335220973
 20
629.3226283576688
 30
0.0
 40
4.0
 50
271.50000000000261
 51
0.0
  0
ARC
  5
2DB8
  8
AM_0
 10
474.86196335220973
 20
629.36324835766868
 30
0.0
 40
4.0
 50
180.00001000000091
 51
262.81924999999637
  0
LINE
  5
2DB9
  8
AM_0
 10
477.86193335220992
 20
663.1580483576688
 30
0.0
 11
477.86193335220992
 21
690.42599835766896
 31
0.0
  0
ARC
  5
2DBA
  8
AM_0
 10
474.86193335220992
 20
663.1580483576688
 30
0.0
 40
3.0
 50
300.00001000000083
 51
0.0
  0
ARC
  5
2DBB
  8
AM_0
 10
473.86196335220973
 20
655.65249835766895
 30
0.0
 40
3.0
 50
120.0000000000005
 51
180.00001000000091
  0
LINE
  5
2DBC
  8
AM_0
 10
472.36190335220971
 20
658.25060835766885
 30
0.0
 11
476.36190335220971
 21
660.55999835766897
 31
0.0
  0
CIRCLE
  5
2DBD
  8
AM_0
 10
334.86193335220992
 20
785.42599835766907
 30
0.0
 40
7.5
  0
LINE
  5
2DBE
  8
AM_0
 10
319.8255903969719
 20
769.10115105182047
 30
0.0
 11
339.13958335220991
 21
763.9259983576685
 31
0.0
  0
LINE
  5
2DBF
  8
ﾁｭｳｼﾝｾﾝ1
 10
321.36193335220992
 20
785.42599835766907
 30
0.0
 11
348.36193335220992
 21
785.42599835766907
 31
0.0
  0
LINE
  5
2DC0
  8
AM_0
 10
320.51330335220968
 20
801.02102835766891
 30
0.0
 11
370.86199335220971
 21
805.42599835766896
 31
0.0
  0
ARC
  5
2DC1
  8
AM_0
 10
320.86193335220992
 20
797.03628835766904
 30
0.0
 40
4.0
 50
95.00000199999856
 51
180.00001000000091
  0
LINE
  5
2DC2
  8
ﾁｭｳｼﾝｾﾝ1
 10
334.86193335220992
 20
771.9259983576685
 30
0.0
 11
334.86193335220992
 21
798.92599835766862
 31
0.0
  0
LINE
  5
2DC3
  8
AM_0
 10
316.86193335220992
 20
772.96456835766912
 30
0.0
 11
316.86193335220992
 21
797.03628835766904
 31
0.0
  0
ARC
  5
2DC4
  8
AM_0
 10
320.86193335220992
 20
772.96456835766912
 30
0.0
 40
4.0
 50
180.00001000000091
 51
254.98417995576349
  0
ARC
  5
2DC5
  8
AM_0
 10
363.86193335220992
 20
799.79446835766862
 30
0.0
 40
5.0
 50
0.0
 51
95.00000199999856
  0
ARC
  5
2DC6
  8
AM_0
 10
437.86193335220992
 20
795.08144835766905
 30
0.0
 40
8.0
 50
88.000000000002785
 51
180.00001000000091
  0
ARC
  5
2DC7
  8
AM_0
 10
355.86193335220992
 20
801.10220835766904
 30
0.0
 40
3.0
 50
95.00000199999856
 51
275.0
  0
POLYLINE
  5
2DC8
  8
AM_0
 66
     1
 10
0.0
 20
0.0
 30
0.0
  0
VERTEX
  5
2DC9
  8
AM_0
 10
364.86193335220992
 20
720.70242835766862
 30
0.0
 42
0.070055609
  0
VERTEX
  5
2DCA
  8
AM_0
 10
391.22259335220991
 20
740.89976835766868
 30
0.0
 42
0.27110581
  0
VERTEX
  5
2DCB
  8
AM_0
 10
399.86193335220992
 20
760.78310835766911
 30
0.0
 42
0.21303143
  0
VERTEX
  5
2DCC
  8
AM_0
 10
380.27149335220997
 20
778.91794835766905
 30
0.0
  0
VERTEX
  5
2DCD
  8
AM_0
 10
364.86193335220992
 20
785.21621835766905
 30
0.0
 42
-1.0
  0
SEQEND
  5
2DCE
  8
AM_0
  0
LINE
  5
2DCF
  8
AM_0
 10
364.86193335220992
 20
720.70242835766862
 30
0.0
 11
354.86193335220992
 21
720.70242835766862
 31
0.0
  0
LINE
  5
2DD0
  8
AM_0
 10
339.86193335220992
 20
729.90066835766879
 30
0.0
 11
354.86193335220992
 21
729.90066835766879
 31
0.0
  0
POLYLINE
  5
2DD1
  8
AM_0
 66
     1
 10
0.0
 20
0.0
 30
0.0
  0
VERTEX
  5
2DD2
  8
AM_0
 10
364.86193335220992
 20
767.84280835766901
 30
0.0
 42
-0.040443759
  0
VERTEX
  5
2DD3
  8
AM_0
 10
376.39011335220971
 20
767.61943835766908
 30
0.0
 42
-0.042469384
  0
VERTEX
  5
2DD4
  8
AM_0
 10
387.72380335220993
 20
765.50591835766863
 30
0.0
 42
-0.022671411
  0
VERTEX
  5
2DD5
  8
AM_0
 10
393.20829335220992
 20
763.71497835766866
 30
0.0
  0
VERTEX
  5
2DD6
  8
AM_0
 10
398.51391335220978
 20
761.4461483576689
 30
0.0
 42
-1.0
  0
SEQEND
  5
2DD7
  8
AM_0
  0
LINE
  5
2DD8
  8
AM_0
 10
364.86193335220992
 20
767.84280835766901
 30
0.0
 11
354.86193335220992
 21
767.84280835766901
 31
0.0
  0
ARC
  5
2DD9
  8
AM_0
 10
349.86193335220992
 20
769.18960835766904
 30
0.0
 40
5.0
 50
271.50000000000261
 51
0.0
  0
LINE
  5
2DDA
  8
AM_0
 10
339.86199335220982
 20
752.00607835766868
 30
0.0
 11
354.86193335220992
 21
752.00607835766868
 31
0.0
  0
LINE
  5
2DDB
  8
AM_0
 10
339.86199335220982
 20
763.9259983576685
 30
0.0
 11
349.99285335220992
 21
764.19131835766905
 31
0.0
  0
ARC
  5
2DDC
  8
AM_0
 10
357.86193335220992
 20
786.67971835766912
 30
0.0
 40
3.0
 50
91.999998000000545
 51
180.00001000000091
  0
LINE
  5
2DDD
  8
AM_0
 10
364.86193335220992
 20
785.21615835766863
 30
0.0
 11
354.86193335220992
 21
785.21615835766863
 31
0.0
  0
ARC
  5
2DDE
  8
AM_0
 10
364.86193335220992
 20
794.86288835766902
 30
0.0
 40
4.0
 50
0.0
 51
95.00000199999856
  0
LINE
  5
2DDF
  8
AM_0
 10
357.75720335220979
 20
789.67788835766862
 30
0.0
 11
364.86187335221001
 21
789.92599835766907
 31
0.0
  0
LINE
  5
2DE0
  8
AM_0
 10
356.12347335220983
 20
798.113618357669
 30
0.0
 11
364.51336335220969
 21
798.84762835766855
 31
0.0
  0
LINE
  5
2DE1
  8
AM_0
 10
368.86193335220992
 20
789.92599835766907
 30
0.0
 11
368.86193335220992
 21
799.79446835766862
 31
0.0
  0
LINE
  5
2DE2
  8
AM_0
 10
364.86193335220992
 20
789.92599835766907
 30
0.0
 11
368.86193335220992
 21
789.92599835766907
 31
0.0
  0
ARC
  5
2DE3
  8
AM_0
 10
473.86196335220973
 20
725.19949835766909
 30
0.0
 40
3.0
 50
179.9999899999988
 51
240.00000999999969
  0
ARC
  5
2DE4
  8
AM_0
 10
474.86193335220992
 20
717.69393835766903
 30
0.0
 40
3.0
 50
0.0
 51
60.000002000001302
  0
LINE
  5
2DE5
  8
AM_0
 10
472.36196335220978
 20
722.60146835766864
 30
0.0
 11
476.36193335220992
 21
720.29208835766894
 31
0.0
  0
ARC
  5
2DE6
  8
AM_0
 10
441.86196335220973
 20
759.63271835766909
 30
0.0
 40
8.0
 50
0.0
 51
88.499997000000647
  0
ARC
  5
2DE7
  8
AM_0
 10
441.86193335220992
 20
779.63961835766895
 30
0.0
 40
12.0
 50
180.00001000000091
 51
268.49999999999733
  0
LINE
  5
2DE8
  8
AM_0
 10
442.07137335220978
 20
767.62997835766862
 30
0.0
 11
441.54785335220993
 21
767.64370835766863
 31
0.0
  0
LINE
  5
2DE9
  8
AM_0
 10
429.86193335220992
 20
779.63961835766895
 30
0.0
 11
429.86193335220992
 21
795.08144835766905
 31
0.0
  0
LINE
  5
2DEA
  8
ﾁｭｳｼﾝｾﾝ1
 10
459.86196335220978
 20
771.9259983576685
 30
0.0
 11
459.86196335220978
 21
798.92599835766862
 31
0.0
  0
LINE
  5
2DEB
  8
AM_0
 10
477.86196335220961
 20
759.4259983576685
 30
0.0
 11
477.86196335220961
 21
797.82668835766901
 31
0.0
  0
LINE
  5
2DEC
  8
AM_0
 10
466.96667335220991
 20
755.52798835766862
 30
0.0
 11
457.10476335220972
 21
755.78622835766862
 31
0.0
  0
ARC
  5
2DED
  8
AM_0
 10
457.31417335220959
 20
763.78347835766851
 30
0.0
 40
8.0
 50
195.0357999999969
 51
268.49999999999733
  0
ARC
  5
2DEE
  8
AM_0
 10
466.86196335220973
 20
751.52938835766895
 30
0.0
 40
4.0
 50
0.0
 51
88.499997000000647
  0
ARC
  5
2DEF
  8
AM_0
 10
474.86196335220973
 20
751.48873835766904
 30
0.0
 40
4.0
 50
97.180758000000822
 51
180.00001000000091
  0
CIRCLE
  5
2DF0
  8
AM_0
 10
459.86196335220978
 20
785.42599835766907
 30
0.0
 40
7.5
  0
LINE
  5
2DF1
  8
ﾁｭｳｼﾝｾﾝ1
 10
446.36196335220978
 20
785.42599835766907
 30
0.0
 11
473.36196335220973
 21
785.42599835766907
 31
0.0
  0
LINE
  5
2DF2
  8
AM_0
 10
370.86193335220992
 20
805.42599835766896
 30
0.0
 11
474.00155335220978
 21
801.82424835766881
 31
0.0
  0
LINE
  5
2DF3
  8
AM_0
 10
481.86196335220961
 20
672.92599835766885
 30
0.0
 11
481.86196335220961
 21
707.92599835766885
 31
0.0
  0
LINE
  5
2DF4
  8
AM_0
 10
539.86193335220969
 20
674.42599835766885
 30
0.0
 11
539.86193335220969
 21
706.42599835766907
 31
0.0
  0
LINE
  5
2DF5
  8
AM_0
 10
494.86193335220992
 20
695.42599835766885
 30
0.0
 11
539.86193335220969
 21
695.42599835766885
 31
0.0
  0
LINE
  5
2DF6
  8
AM_0
 10
494.86193335220992
 20
685.42599835766885
 30
0.0
 11
539.86193335220969
 21
685.42599835766885
 31
0.0
  0
LINE
  5
2DF7
  8
AM_0
 10
539.86193335220969
 20
674.42599835766885
 30
0.0
 11
481.86196335220961
 21
674.42599835766885
 31
0.0
  0
ARC
  5
2DF8
  8
AM_0
 10
494.86193335220992
 20
690.42599835766896
 30
0.0
 40
4.9999924
 50
90.00000299999769
 51
270.0
  0
LINE
  5
2DF9
  8
AM_0
 10
494.86196335220973
 20
685.42599835766885
 30
0.0
 11
494.86196335220973
 21
695.42599835766885
 31
0.0
  0
LINE
  5
2DFA
  8
AM_0
 10
539.86193335220969
 20
706.42599835766907
 30
0.0
 11
481.86196335220961
 21
706.42599835766907
 31
0.0
  0
LINE
  5
2DFB
  8
AM_0
 10
319.8255903969719
 20
611.75084566351723
 30
0.0
 11
339.13958335220991
 21
616.92599835766885
 31
0.0
  0
LINE
  5
2DFC
  8
AM_0
 10
320.51330335220968
 20
579.83096835766901
 30
0.0
 11
370.86199335220971
 21
575.42599835766885
 31
0.0
  0
LINE
  5
2DFD
  8
ﾁｭｳｼﾝｾﾝ1
 10
321.36193335220992
 20
595.42599835766885
 30
0.0
 11
348.36193335220992
 21
595.42599835766885
 31
0.0
  0
ARC
  5
2DFE
  8
AM_0
 10
320.86193335220992
 20
607.8874283576688
 30
0.0
 40
4.0
 50
105.01582004423641
 51
179.9999899999988
  0
LINE
  5
2DFF
  8
AM_0
 10
316.86193335220992
 20
607.8874283576688
 30
0.0
 11
316.86193335220992
 21
583.815708357669
 31
0.0
  0
ARC
  5
2E00
  8
AM_0
 10
320.86193335220992
 20
583.815708357669
 30
0.0
 40
4.0
 50
179.9999899999988
 51
264.99999800000143
  0
CIRCLE
  5
2E01
  8
AM_0
 10
334.86193335220992
 20
595.42599835766885
 30
0.0
 40
7.5
  0
LINE
  5
2E02
  8
ﾁｭｳｼﾝｾﾝ1
 10
334.86193335220992
 20
608.92599835766885
 30
0.0
 11
334.86193335220992
 21
581.92599835766896
 31
0.0
  0
POLYLINE
  5
2E03
  8
AM_0
 66
     1
 10
0.0
 20
0.0
 30
0.0
  0
VERTEX
  5
2E04
  8
AM_0
  6
CONTINUOUS
 10
392.6311433522103
 20
431.82941382942067
 30
0.0
 42
0.038759421
  0
VERTEX
  5
2E05
  8
AM_0
  6
CONTINUOUS
 10
395.37896335221001
 20
434.74025382942079
 30
0.0
 42
0.045306431
  0
VERTEX
  5
2E06
  8
AM_0
  6
CONTINUOUS
 10
397.6011533522103
 20
438.0679738294204
 30
0.0
 42
0.052171531
  0
VERTEX
  5
2E07
  8
AM_0
  6
CONTINUOUS
 10
399.13784335221021
 20
441.7658038294208
 30
0.0
 42
0.057266811
  0
VERTEX
  5
2E08
  8
AM_0
  6
CONTINUOUS
 10
399.83210335221008
 20
445.70456382942069
 30
0.0
 42
0.058402468
  0
VERTEX
  5
2E09
  8
AM_0
  6
CONTINUOUS
 10
399.60134335220982
 20
449.69276382942081
 30
0.0
 42
0.055045376
  0
VERTEX
  5
2E0A
  8
AM_0
  6
CONTINUOUS
 10
398.47583335221009
 20
453.52790382942061
 30
0.0
 42
0.048778144
  0
VERTEX
  5
2E0B
  8
AM_0
  6
CONTINUOUS
 10
396.58295335220998
 20
457.04843382942062
 30
0.0
 42
0.041944129
  0
VERTEX
  5
2E0C
  8
AM_0
  6
CONTINUOUS
 10
394.0854533522101
 20
460.17146382942082
 30
0.0
 42
0.035908173
  0
VERTEX
  5
2E0D
  8
AM_0
  6
CONTINUOUS
 10
391.1328533522103
 20
462.87224382942071
 30
0.0
 42
0.031063132
  0
VERTEX
  5
2E0E
  8
AM_0
  6
CONTINUOUS
 10
387.84617335221009
 20
465.1562038294208
 30
0.0
 42
0.027381811
  0
VERTEX
  5
2E0F
  8
AM_0
  6
CONTINUOUS
 10
384.31424335221021
 20
467.04332382942067
 30
0.0
 42
0.024647367
  0
VERTEX
  5
2E10
  8
AM_0
  6
CONTINUOUS
 10
380.60522335221009
 20
468.55445382942071
 30
0.0
 42
0.022677544
  0
VERTEX
  5
2E11
  8
AM_0
  6
CONTINUOUS
 10
376.76984335221022
 20
469.70912382942072
 30
0.0
 42
0.021321505
  0
VERTEX
  5
2E12
  8
AM_0
  6
CONTINUOUS
 10
372.84743335220998
 20
470.52296382942069
 30
0.0
 42
0.020471099
  0
VERTEX
  5
2E13
  8
AM_0
  6
CONTINUOUS
 10
368.87054335221012
 20
471.00701382942083
 30
0.0
 42
0.020088536
  0
VERTEX
  5
2E14
  8
AM_0
  6
CONTINUOUS
 10
364.86191335221002
 20
471.16793382942069
 30
0.0
  0
SEQEND
  5
2E15
  8
AM_0
  0
LINE
  5
2E16
  8
AM_0
 10
449.86193335221009
 20
304.8148138294207
 30
0.0
 11
449.86193335221009
 21
465.83801382942079
 31
0.0
  0
LINE
  5
2E17
  8
AM_0
 10
354.86195335221032
 20
288.60710982942072
 30
0.0
 11
354.86195335221032
 21
473.64695382942068
 31
0.0
  0
LINE
  5
2E18
  8
AM_0
 10
364.86194335221001
 20
319.8570958294207
 30
0.0
 11
364.86194335221001
 21
475.85714382942069
 31
0.0
  0
LINE
  5
2E19
  8
AM_0
 10
271.86195335221032
 20
475.3570978294207
 30
0.0
 11
271.86195335221032
 21
277.35709782942081
 31
0.0
  0
LINE
  5
2E1A
  8
AM_0
 10
261.86195335221032
 20
276.3570978294207
 30
0.0
 11
261.86195335221032
 21
476.3570978294207
 31
0.0
  0
LINE
  5
2E1B
  8
ﾁｭｳｼﾝｾﾝ1
 10
257.31658967350393
 20
376.3570978294207
 30
0.0
 11
373.01974867925168
 21
376.3570978294207
 31
0.0
  0
LINE
  5
2E1C
  8
AM_0
 10
353.75177335221008
 20
285.13800882942058
 30
0.0
 11
368.67158335221001
 21
331.76241582942072
 31
0.0
  0
LINE
  5
2E1D
  8
AM_0
 10
354.86195335221032
 20
266.35712382942057
 30
0.0
 11
439.86191335221019
 21
266.35712382942057
 31
0.0
  0
LINE
  5
2E1E
  8
AM_0
 10
354.86195335221032
 20
295.93930782942073
 30
0.0
 11
357.20825335221002
 21
295.93930782942073
 31
0.0
  0
LINE
  5
2E1F
  8
AM_0
 10
354.86195335221032
 20
312.4977208294207
 30
0.0
 11
362.50697335221008
 21
312.4977208294207
 31
0.0
  0
LINE
  5
2E20
  8
AM_0
 10
339.86195335221032
 20
302.35707882942069
 30
0.0
 11
339.86195335221032
 21
450.35711382942083
 31
0.0
  0
LINE
  5
2E21
  8
AM_0
 10
324.86195335221032
 20
449.8570978294207
 30
0.0
 11
324.86195335221032
 21
302.85709782942081
 31
0.0
  0
LINE
  5
2E22
  8
AM_0
 10
305.86195335221032
 20
314.51234282942067
 30
0.0
 11
305.86195335221032
 21
437.83350982942079
 31
0.0
  0
LINE
  5
2E23
  8
AM_0
 10
305.86195335221032
 20
308.95501882942068
 30
0.0
 11
274.60048535221
 21
306.2199948294209
 31
0.0
  0
ARC
  5
2E24
  8
AM_0
 10
270.86195335221032
 20
277.35709782942081
 30
0.0
 40
1.0
 50
270.0
 51
0.0
  0
LINE
  5
2E25
  8
AM_0
 10
261.86195335221032
 20
276.3570978294207
 30
0.0
 11
270.86195335221032
 21
276.3570978294207
 31
0.0
  0
ARC
  5
2E26
  8
AM_0
 10
274.86195335221032
 20
303.23141082942089
 30
0.0
 40
3.0
 50
94.99999999999973
 51
180.0
  0
LINE
  5
2E27
  8
ﾁｭｳｼﾝｾﾝ1
 10
334.86194335221001
 20
262.49420101644182
 30
0.0
 11
334.86194335221001
 21
284.75474905238428
 31
0.0
  0
LINE
  5
2E28
  8
ｶｸﾚｾﾝ2
 10
327.36194335221001
 20
282.35710782942073
 30
0.0
 11
327.36194335221001
 21
264.35712282942058
 31
0.0
  0
LINE
  5
2E29
  8
ｶｸﾚｾﾝ2
 10
342.36194335221001
 20
282.35710782942073
 30
0.0
 11
342.36194335221001
 21
264.35712282942058
 31
0.0
  0
ARC
  5
2E2A
  8
AM_0
 10
318.86195335221032
 20
280.35712482942063
 30
0.0
 40
2.00000007
 50
90.00000299999769
 51
180.00001000000091
  0
LINE
  5
2E2B
  8
AM_0
 10
316.86194335221001
 20
264.35712282942058
 30
0.0
 11
352.86194335221001
 21
264.35712282942058
 31
0.0
  0
LINE
  5
2E2C
  8
AM_0
 10
316.86194335221001
 20
264.35712282942058
 30
0.0
 11
316.86194335221001
 21
280.35712482942063
 31
0.0
  0
ARC
  5
2E2D
  8
AM_0
 10
354.86195335221032
 20
264.35712282942058
 30
0.0
 40
2.00000007
 50
90.00000299999769
 51
180.00001000000091
  0
LINE
  5
2E2E
  8
AM_0
 10
318.86195335221032
 20
282.35710782942073
 30
0.0
 11
349.94213335221008
 21
282.35710782942073
 31
0.0
  0
LINE
  5
2E2F
  8
AM_0
 10
326.71051535221022
 20
314.70709782942089
 30
0.0
 11
338.16995535221031
 21
314.70709782942089
 31
0.0
  0
LINE
  5
2E30
  8
AM_0
 10
324.86195335221032
 20
302.85709782942081
 30
0.0
 11
339.86195335221032
 21
302.85709782942081
 31
0.0
  0
LINE
  5
2E31
  8
AM_0
 10
323.03626435221031
 20
307.45246182942083
 30
0.0
 11
305.86195335221032
 21
308.95501882942068
 31
0.0
  0
ARC
  5
2E32
  8
AM_0
 10
322.86195335221032
 20
305.46007182942083
 30
0.0
 40
2.0
 50
0.0
 51
85.000000000000256
  0
LINE
  5
2E33
  8
AM_0
 10
344.86193335221031
 20
311.08574682942071
 30
0.0
 11
344.86193335221031
 21
298.08576282942079
 31
0.0
  0
LINE
  5
2E34
  8
AM_0
 10
352.86194335221001
 20
312.08574882942082
 30
0.0
 11
352.86194335221001
 21
297.08576382942073
 31
0.0
  0
LINE
  5
2E35
  8
AM_0
 10
354.86195335221032
 20
297.08576382942073
 30
0.0
 11
352.86194335221001
 21
297.08576382942073
 31
0.0
  0
LINE
  5
2E36
  8
AM_0
 10
352.86194335221001
 20
298.08576282942079
 30
0.0
 11
344.86193335221031
 21
298.08576282942079
 31
0.0
  0
ARC
  5
2E37
  8
AM_0
 10
349.94213335221008
 20
286.35712482942063
 30
0.0
 40
4.000000199999997
 50
270.0
 51
342.25533000000132
  0
LINE
  5
2E38
  8
AM_0
 10
339.86189335221002
 20
302.35710882942072
 30
0.0
 11
344.86187335221001
 21
302.22618882942072
 31
0.0
  0
LINE
  5
2E39
  8
AM_0
 10
339.86195335221032
 20
314.77712382942082
 30
0.0
 11
354.86195335221032
 21
314.77712382942082
 31
0.0
  0
LINE
  5
2E3A
  8
AM_0
 10
354.86195335221032
 20
312.08574882942082
 30
0.0
 11
352.86194335221001
 21
312.08574882942082
 31
0.0
  0
LINE
  5
2E3B
  8
AM_0
 10
352.86194335221001
 20
311.08574682942071
 30
0.0
 11
344.86193335221031
 21
311.08574682942071
 31
0.0
  0
LINE
  5
2E3C
  8
AM_0
 10
339.86195335221032
 20
336.88242582942053
 30
0.0
 11
354.86195335221032
 21
336.88242582942053
 31
0.0
  0
LINE
  5
2E3D
  8
AM_0
 10
305.86195335221032
 20
443.75917682942082
 30
0.0
 11
274.60048535221
 21
446.49420082942072
 31
0.0
  0
ARC
  5
2E3E
  8
AM_0
 10
274.86195335221032
 20
449.48278482942078
 30
0.0
 40
3.0
 50
180.0
 51
265.00000000000028
  0
LINE
  5
2E3F
  8
AM_0
 10
339.86195335221032
 20
415.83176382942071
 30
0.0
 11
354.86195335221032
 21
415.83176382942071
 31
0.0
  0
LINE
  5
2E40
  8
AM_0
 10
326.71051535221022
 20
438.00709782942079
 30
0.0
 11
338.16995535221031
 21
438.00709782942079
 31
0.0
  0
LINE
  5
2E41
  8
AM_0
 10
324.86195335221032
 20
449.8570978294207
 30
0.0
 11
339.86195335221032
 21
449.8570978294207
 31
0.0
  0
LINE
  5
2E42
  8
AM_0
 10
323.03626435221031
 20
445.26173482942067
 30
0.0
 11
305.86195335221032
 21
443.75917682942082
 31
0.0
  0
ARC
  5
2E43
  8
AM_0
 10
322.86195335221032
 20
447.25412382942079
 30
0.0
 40
2.0
 50
274.99999999999972
 51
0.0
  0
LINE
  5
2E44
  8
AM_0
 10
352.86194335221001
 20
440.6284438294208
 30
0.0
 11
352.86194335221001
 21
455.62844382942069
 31
0.0
  0
LINE
  5
2E45
  8
AM_0
 10
344.86193335221031
 20
441.62843382942071
 30
0.0
 11
344.86193335221031
 21
454.6284238294208
 31
0.0
  0
LINE
  5
2E46
  8
AM_0
 10
339.86195335221032
 20
437.93714382942068
 30
0.0
 11
354.86195335221032
 21
437.93714382942068
 31
0.0
  0
LINE
  5
2E47
  8
AM_0
 10
354.86195335221032
 20
440.6284438294208
 30
0.0
 11
352.86194335221001
 21
440.6284438294208
 31
0.0
  0
LINE
  5
2E48
  8
AM_0
 10
352.86194335221001
 20
441.62843382942071
 30
0.0
 11
344.86193335221031
 21
441.62843382942071
 31
0.0
  0
LINE
  5
2E49
  8
AM_0
 10
339.86201335221
 20
450.35714382942081
 30
0.0
 11
344.86199335221022
 21
450.48806382942053
 31
0.0
  0
LINE
  5
2E4A
  8
AM_0
 10
354.86195335221032
 20
455.62844382942069
 30
0.0
 11
352.86194335221001
 21
455.62844382942069
 31
0.0
  0
LINE
  5
2E4B
  8
AM_0
 10
352.86194335221001
 20
454.6284238294208
 30
0.0
 11
344.86193335221031
 21
454.6284238294208
 31
0.0
  0
LINE
  5
2E4C
  8
AM_0
 10
470.86193335221009
 20
289.89649182942071
 30
0.0
 11
470.86193335221009
 21
448.35710382942079
 31
0.0
  0
LINE
  5
2E4D
  8
AM_0
 10
429.86195335221032
 20
297.35709582942081
 30
0.0
 11
429.86195335221032
 21
435.79982382942069
 31
0.0
  0
LINE
  5
2E4E
  8
AM_0
 10
444.86195335221032
 20
282.35710782942073
 30
0.0
 11
475.86191335221031
 21
282.35710782942073
 31
0.0
  0
LINE
  5
2E4F
  8
AM_0
 10
441.86195335221032
 20
264.35712282942058
 30
0.0
 11
477.86195335221021
 21
264.35712282942058
 31
0.0
  0
LINE
  5
2E50
  8
ｶｸﾚｾﾝ2
 10
452.36195335221021
 20
282.35710782942073
 30
0.0
 11
452.36195335221021
 21
264.35712282942058
 31
0.0
  0
ARC
  5
2E51
  8
AM_0
 10
444.86195335221032
 20
297.35709582942081
 30
0.0
 40
15.00000029999998
 50
179.9999899999988
 51
270.0
  0
LINE
  5
2E52
  8
ﾁｭｳｼﾝｾﾝ1
 10
459.86195335221032
 20
262.49420101644182
 30
0.0
 11
459.86195335221032
 21
284.75474905238428
 31
0.0
  0
LINE
  5
2E53
  8
AM_0
 10
441.86195335221032
 20
264.35712282942058
 30
0.0
 11
441.86195335221032
 21
264.35712282942058
 31
0.0
  0
ARC
  5
2E54
  8
AM_0
 10
439.86191335221019
 20
264.35712282942058
 30
0.0
 40
2.00000007
 50
0.0
 51
90.00000299999769
  0
LINE
  5
2E55
  8
AM_0
 10
434.93693335220991
 20
296.81482782942072
 30
0.0
 11
441.86195335221032
 21
296.81482782942072
 31
0.0
  0
ARC
  5
2E56
  8
AM_0
 10
441.86195335221032
 20
304.8148138294207
 30
0.0
 40
8.0000000999999976
 50
270.0
 51
0.0
  0
LINE
  5
2E57
  8
ｶｸﾚｾﾝ2
 10
467.36195335221032
 20
282.35710782942073
 30
0.0
 11
467.36195335221032
 21
264.35712282942058
 31
0.0
  0
ARC
  5
2E58
  8
AM_0
 10
475.86191335221031
 20
280.35712482942063
 30
0.0
 40
2.00000007
 50
0.0
 51
90.00000299999769
  0
LINE
  5
2E59
  8
AM_0
 10
477.86195335221021
 20
264.35712282942058
 30
0.0
 11
477.86195335221021
 21
280.35712482942063
 31
0.0
  0
ARC
  5
2E5A
  8
AM_0
 10
478.86191335221031
 20
289.89649182942071
 30
0.0
 40
8.0000000999999976
 50
179.9999899999988
 51
252.54238999999831
  0
LINE
  5
2E5B
  8
ﾁｭｳｼﾝｾﾝ1
 10
332.55830523559592
 20
404.35706682942072
 30
0.0
 11
542.64116335221001
 21
404.35706682942072
 31
0.0
  0
LINE
  5
2E5C
  8
AM_0
 10
457.86191335221031
 20
452.35709382942071
 30
0.0
 11
466.86191335221042
 21
452.35709382942071
 31
0.0
  0
LINE
  5
2E5D
  8
AM_0
 10
368.86193335221031
 20
332.98149882942079
 30
0.0
 11
368.86193335221031
 21
391.00483182942082
 31
0.0
  0
ARC
  5
2E5E
  8
AM_0
 10
364.86194335221001
 20
332.98149882942079
 30
0.0
 40
4.000000199999997
 50
342.25533000000132
 51
0.0
  0
LINE
  5
2E5F
  8
AM_0
 10
364.86194335221001
 20
406.54240182942078
 30
0.0
 11
392.63060335221002
 21
431.8289038294206
 31
0.0
  0
LINE
  5
2E60
  8
AM_0
 10
364.86194335221001
 20
391.00483182942082
 30
0.0
 11
368.86193335221031
 21
391.00483182942082
 31
0.0
  0
LINE
  5
2E61
  8
AM_0
 10
364.86188335221021
 20
406.54240182942078
 30
0.0
 11
364.86347335221001
 21
406.54240182942078
 31
0.0
  0
POLYLINE
  5
2E62
  8
AM_0
 66
     1
 10
0.0
 20
0.0
 30
0.0
  0
VERTEX
  5
2E63
  8
AM_0
  6
CONTINUOUS
 10
398.31860335221
 20
448.99850382942071
 30
0.0
 42
0.046333928
  0
VERTEX
  5
2E64
  8
AM_0
  6
CONTINUOUS
 10
396.46679335221029
 20
450.05612382942059
 30
0.0
 42
0.024113287
  0
VERTEX
  5
2E65
  8
AM_0
  6
CONTINUOUS
 10
394.48730335221001
 20
450.85598382942078
 30
0.0
 42
0.015482173
  0
VERTEX
  5
2E66
  8
AM_0
  6
CONTINUOUS
 10
392.4503633522101
 20
451.50065382942068
 30
0.0
 42
0.01117072
  0
VERTEX
  5
2E67
  8
AM_0
  6
CONTINUOUS
 10
390.38264335221021
 20
452.0371438294207
 30
0.0
 42
0.0086851636
  0
VERTEX
  5
2E68
  8
AM_0
  6
CONTINUOUS
 10
388.29506335221032
 20
452.4918238294207
 30
0.0
 42
0.0071112813
  0
VERTEX
  5
2E69
  8
AM_0
  6
CONTINUOUS
 10
386.19338335220982
 20
452.88083382942062
 30
0.0
 42
0.0060487741
  0
VERTEX
  5
2E6A
  8
AM_0
  6
CONTINUOUS
 10
384.08066335221008
 20
453.21485382942052
 30
0.0
 42
0.0052886701
  0
VERTEX
  5
2E6B
  8
AM_0
  6
CONTINUOUS
 10
381.96329335220997
 20
453.50069382942053
 30
0.0
 42
0.0047450804
  0
VERTEX
  5
2E6C
  8
AM_0
  6
CONTINUOUS
 10
379.83818335221002
 20
453.74435382942067
 30
0.0
 42
0.004337472
  0
VERTEX
  5
2E6D
  8
AM_0
  6
CONTINUOUS
 10
377.70848335221001
 20
453.94949382942082
 30
0.0
 42
0.0040309329
  0
VERTEX
  5
2E6E
  8
AM_0
  6
CONTINUOUS
 10
375.57569335221001
 20
454.11902382942048
 30
0.0
 42
0.0038017188
  0
VERTEX
  5
2E6F
  8
AM_0
  6
CONTINUOUS
 10
373.44047335221001
 20
454.2551338294208
 30
0.0
 42
0.0036333127
  0
VERTEX
  5
2E70
  8
AM_0
  6
CONTINUOUS
 10
371.30339335221009
 20
454.3595338294208
 30
0.0
 42
0.0035147917
  0
VERTEX
  5
2E71
  8
AM_0
  6
CONTINUOUS
 10
369.16499335220999
 20
454.43339382942071
 30
0.0
 42
0.0034390753
  0
VERTEX
  5
2E72
  8
AM_0
  6
CONTINUOUS
 10
367.02575335221002
 20
454.4775238294207
 30
0.0
 42
0.0034021186
  0
VERTEX
  5
2E73
  8
AM_0
  6
CONTINUOUS
 10
364.8860633522101
 20
454.49237382942073
 30
0.0
  0
SEQEND
  5
2E74
  8
AM_0
  0
LINE
  5
2E75
  8
AM_0
 10
356.04170335221011
 20
454.49237382942073
 30
0.0
 11
364.86194335221001
 21
454.49237382942073
 31
0.0
  0
LINE
  5
2E76
  8
AM_0
 10
437.86193335221009
 20
443.7998038294208
 30
0.0
 11
446.2614233522101
 21
443.7998038294208
 31
0.0
  0
ARC
  5
2E77
  8
AM_0
 10
437.86193335221009
 20
435.79982382942069
 30
0.0
 40
8.0000000999999976
 50
90.00000299999769
 51
180.00001000000091
  0
ARC
  5
2E78
  8
AM_0
 10
457.86191335221031
 20
460.35710382942079
 30
0.0
 40
8.0000000999999976
 50
179.9999899999988
 51
270.0
  0
LINE
  5
2E79
  8
AM_0
 10
477.86195335221021
 20
377.08915182942047
 30
0.0
 11
477.86195335221021
 21
404.35706682942072
 31
0.0
  0
LINE
  5
2E7A
  8
AM_0
 10
481.86191335221031
 20
386.8570978294207
 30
0.0
 11
481.86191335221031
 21
421.85708382942067
 31
0.0
  0
LINE
  5
2E7B
  8
AM_0
 10
539.86193335220969
 20
388.3570978294207
 30
0.0
 11
539.86193335220969
 21
423.35708382942067
 31
0.0
  0
LINE
  5
2E7C
  8
AM_0
 10
539.86193335220969
 20
388.3570978294207
 30
0.0
 11
481.86191335221031
 21
388.3570978294207
 31
0.0
  0
ARC
  5
2E7D
  8
AM_0
 10
473.86193335221037
 20
369.58359882942062
 30
0.0
 40
3.0
 50
120.0000000000005
 51
180.00001000000091
  0
LINE
  5
2E7E
  8
AM_0
 10
481.86191335221031
 20
386.8570978294207
 30
0.0
 11
477.86195335221021
 21
386.8570978294207
 31
0.0
  0
ARC
  5
2E7F
  8
AM_0
 10
474.86195335221032
 20
377.08915182942047
 30
0.0
 40
3.0
 50
300.00000000000051
 51
0.0
  0
LINE
  5
2E80
  8
AM_0
 10
472.36193335221031
 20
372.18174282942078
 30
0.0
 11
476.36195335221032
 21
374.4911308294208
 31
0.0
  0
LINE
  5
2E81
  8
AM_0
 10
539.86193335220969
 20
420.35708382942079
 30
0.0
 11
481.86191335221031
 21
420.35708382942079
 31
0.0
  0
LINE
  5
2E82
  8
AM_0
 10
539.86193335220969
 20
423.35708382942067
 30
0.0
 11
494.86193335221037
 21
423.35708382942067
 31
0.0
  0
LINE
  5
2E83
  8
AM_0
 10
477.86195335221021
 20
404.35706682942072
 30
0.0
 11
477.86195335221021
 21
431.62505382942072
 31
0.0
  0
LINE
  5
2E84
  8
AM_0
 10
481.86191335221031
 20
421.85708382942067
 30
0.0
 11
477.86195335221021
 21
421.85708382942067
 31
0.0
  0
LINE
  5
2E85
  8
AM_0
 10
494.86193335221037
 20
420.35708382942079
 30
0.0
 11
494.86193335221037
 21
423.35708382942067
 31
0.0
  0
ARC
  5
2E86
  8
AM_0
 10
473.86193335221037
 20
439.13060382942069
 30
0.0
 40
3.0
 50
179.9999899999988
 51
240.00000999999969
  0
LINE
  5
2E87
  8
AM_0
 10
472.36199335221022
 20
436.53251382942079
 30
0.0
 11
476.36198335221042
 21
434.22311382942081
 31
0.0
  0
ARC
  5
2E88
  8
AM_0
 10
474.86195335221032
 20
431.62505382942072
 30
0.0
 40
3.0
 50
0.0
 51
60.000002000001302
  0
ARC
  5
2E89
  8
AM_0
 10
466.86191335221042
 20
448.35710382942079
 30
0.0
 40
4.000000199999997
 50
0.0
 51
90.00000299999769
  0
ARC
  5
2E8A
  8
AM_0
 10
356.86193335221031
 20
473.64695382942068
 30
0.0
 40
2.00000007
 50
91.500001000001546
 51
180.00001000000091
  0
ARC
  5
2E8B
  8
AM_0
 10
270.86195335221032
 20
475.3570978294207
 30
0.0
 40
1.0
 50
0.0
 51
90.0
  0
LINE
  5
2E8C
  8
AM_0
 10
261.86195335221032
 20
476.3570978294207
 30
0.0
 11
270.86195335221032
 21
476.3570978294207
 31
0.0
  0
LINE
  5
2E8D
  8
AM_0
 10
364.86188335221021
 20
475.85711382942071
 30
0.0
 11
442.07129335221009
 21
473.8353238294207
 31
0.0
  0
LINE
  5
2E8E
  8
AM_0
 10
364.86200335221008
 20
475.85717382942067
 30
0.0
 11
356.80964335221012
 21
475.64630382942067
 31
0.0
  0
ARC
  5
2E8F
  8
AM_0
 10
441.86195335221032
 20
465.83801382942079
 30
0.0
 40
8.0000000999999976
 50
0.0
 51
88.499997000000747
  0
LINE
  5
2E90
  8
AM_0
 10
692.76104276109947
 20
458.07116382942058
 30
0.0
 11
733.89765476109983
 21
471.16799382942071
 31
0.0
  0
LINE
  5
2E91
  8
AM_0
 10
835.60377476109954
 20
458.47310382942072
 30
0.0
 11
793.30595276109955
 21
471.46901382942087
 31
0.0
  0
ARC
  5
2E92
  8
AM_0
 10
764.08300376109969
 20
376.3570978294207
 30
0.0
 40
99.500004000000004
 50
8.4654901000001566
 51
171.53449999999941
  0
LINE
  5
2E93
  8
ﾁｭｳｼﾝｾﾝ1
 10
764.08300376109969
 20
263.71761312819928
 30
0.0
 11
764.08300376109969
 21
482.35589382942072
 31
0.0
  0
LINE
  5
2E94
  8
AM_0
 10
701.08298876109973
 20
266.35712382942057
 30
0.0
 11
827.08300076109958
 21
266.35712382942057
 31
0.0
  0
LINE
  5
2E95
  8
ﾁｭｳｼﾝｾﾝ1
 10
670.21089260191525
 20
376.3570978294207
 30
0.0
 11
859.29568155947652
 21
376.3570978294207
 31
0.0
  0
ARC
  5
2E96
  8
AM_0
 10
764.08300376109969
 20
387.3570958294207
 30
0.0
 40
65.000000999999997
 50
0.0
 51
180.00001000000091
  0
LINE
  5
2E97
  8
AM_0
 10
699.08298776109973
 20
387.3570958294207
 30
0.0
 11
699.08298776109973
 21
297.35709582942081
 31
0.0
  0
LINE
  5
2E98
  8
AM_0
 10
649.11572276109951
 20
279.79874382942057
 30
0.0
 11
665.66710976109948
 21
391.00489482942078
 31
0.0
  0
ARC
  5
2E99
  8
AM_0
 10
764.08300376109969
 20
338.0943538294207
 30
0.0
 40
77.000000999999983
 50
179.9999899999988
 51
212.41839000000161
  0
LINE
  5
2E9A
  8
AM_0
 10
649.08299276109926
 20
264.35712282942058
 30
0.0
 11
699.08298776109973
 21
264.35712282942058
 31
0.0
  0
LINE
  5
2E9B
  8
AM_0
 10
695.08300376109958
 20
282.35710782942073
 30
0.0
 11
652.0829927610996
 21
282.35710782942073
 31
0.0
  0
ARC
  5
2E9C
  8
AM_0
 10
652.0829927610996
 20
279.35710782942078
 30
0.0
 40
3.0
 50
90.00000299999769
 51
180.00001000000091
  0
LINE
  5
2E9D
  8
AM_0
 10
649.08299276109926
 20
279.35710782942078
 30
0.0
 11
649.08299276109926
 21
264.35712282942058
 31
0.0
  0
ARC
  5
2E9E
  8
AM_0
 10
684.08300276109981
 20
297.35709582942081
 30
0.0
 40
15.00000029999998
 50
270.0
 51
0.0
  0
ARC
  5
2E9F
  8
AM_0
 10
695.08300376109958
 20
278.35710882942072
 30
0.0
 40
4.000000199999997
 50
0.0
 51
90.00000299999769
  0
LINE
  5
2EA0
  8
ﾁｭｳｼﾝｾﾝ1
 10
669.08300276109958
 20
284.75474905238428
 30
0.0
 11
669.08300276109958
 21
262.49420101644182
 31
0.0
  0
LINE
  5
2EA1
  8
ｶｸﾚｾﾝ2
 10
676.58300276109981
 20
282.35710782942073
 30
0.0
 11
676.58300276109981
 21
264.35712282942058
 31
0.0
  0
LINE
  5
2EA2
  8
ｶｸﾚｾﾝ2
 10
661.58300276109958
 20
282.35710782942073
 30
0.0
 11
661.58300276109958
 21
264.35712282942058
 31
0.0
  0
ARC
  5
2EA3
  8
AM_0
 10
701.08298876109973
 20
264.35712282942058
 30
0.0
 40
2.00000007
 50
90.00000299999769
 51
180.00001000000091
  0
LINE
  5
2EA4
  8
AM_0
 10
699.08298776109973
 20
278.35710882942072
 30
0.0
 11
699.08298776109973
 21
264.35712282942058
 31
0.0
  0
LINE
  5
2EA5
  8
AM_0
 10
687.08300276109981
 20
436.45079382942077
 30
0.0
 11
687.08300276109981
 21
338.0943538294207
 31
0.0
  0
LINE
  5
2EA6
  8
AM_0
 10
682.36898276109935
 20
447.67913382942078
 30
0.0
 11
669.27214976109985
 21
406.54249182942073
 31
0.0
  0
ARC
  5
2EA7
  8
AM_0
 10
697.61494076109955
 20
442.82513382942079
 30
0.0
 40
16.000000499999999
 50
107.079459999999
 51
162.9205300000007
  0
ARC
  5
2EA8
  8
AM_0
 10
695.08300376109958
 20
436.45079382942077
 30
0.0
 40
8.0000000999999976
 50
138.9466500000008
 51
180.00001000000091
  0
CIRCLE
  5
2EA9
  8
AM_0
 10
764.08300376109969
 20
404.35706682942072
 30
0.0
 40
29.000001000000001
  0
ARC
  5
2EAA
  8
AM_0
 10
764.08300376109969
 20
404.35706682942072
 30
0.0
 40
16.000000499999999
 50
108.2099599999986
 51
71.790051999998809
  0
LINE
  5
2EAB
  8
ﾁｭｳｼﾝｾﾝ1
 10
710.53044415804436
 20
404.35706682942072
 30
0.0
 11
818.28096485326705
 21
404.35706682942072
 31
0.0
  0
CIRCLE
  5
2EAC
  8
AM_5
 10
764.08300376109969
 20
404.35706682942072
 30
0.0
 40
4.000000199999997
  0
CIRCLE
  5
2EAD
  8
AM_0
 10
764.08300376109969
 20
404.35706682942072
 30
0.0
 40
2.75000007
  0
LINE
  5
2EAE
  8
AM_0
 10
759.08299076109893
 20
423.35708382942067
 30
0.0
 11
769.0829897610995
 21
423.35708382942067
 31
0.0
  0
LINE
  5
2EAF
  8
AM_0
 10
759.08299076109893
 20
415.35710382942079
 30
0.0
 11
769.0829897610995
 21
415.35710382942079
 31
0.0
  0
LINE
  5
2EB0
  8
AM_0
 10
759.08299076109893
 20
415.35710382942079
 30
0.0
 11
759.08299076109893
 21
423.35708382942067
 31
0.0
  0
LINE
  5
2EB1
  8
AM_0
 10
769.0829897610995
 20
415.35710382942079
 30
0.0
 11
769.0829897610995
 21
423.35708382942067
 31
0.0
  0
ARC
  5
2EB2
  8
AM_0
 10
764.08300376109969
 20
338.0943538294207
 30
0.0
 40
77.000000999999983
 50
327.5816000000014
 51
0.0
  0
LINE
  5
2EB3
  8
AM_0
 10
829.08299876109936
 20
387.3570958294207
 30
0.0
 11
829.08299876109936
 21
297.35709582942081
 31
0.0
  0
LINE
  5
2EB4
  8
AM_0
 10
879.05031776109945
 20
279.79875882942071
 30
0.0
 11
862.49891576109951
 21
391.0049248294207
 31
0.0
  0
LINE
  5
2EB5
  8
AM_0
 10
833.08300076109936
 20
282.35710782942073
 30
0.0
 11
876.0829997610997
 21
282.35710782942073
 31
0.0
  0
LINE
  5
2EB6
  8
AM_0
 10
829.08299876109936
 20
264.35712282942058
 30
0.0
 11
879.08299976109959
 21
264.35712282942058
 31
0.0
  0
LINE
  5
2EB7
  8
ﾁｭｳｼﾝｾﾝ1
 10
859.08299876109925
 20
284.75474905238428
 30
0.0
 11
859.08299876109925
 21
262.49420101644182
 31
0.0
  0
LINE
  5
2EB8
  8
ｶｸﾚｾﾝ2
 10
851.58299876109925
 20
282.35710782942073
 30
0.0
 11
851.58299876109925
 21
264.35712282942058
 31
0.0
  0
ARC
  5
2EB9
  8
AM_0
 10
833.08300076109936
 20
278.35710882942072
 30
0.0
 40
4.000000199999997
 50
90.00000299999769
 51
180.00001000000091
  0
ARC
  5
2EBA
  8
AM_0
 10
844.08299876109925
 20
297.35709582942081
 30
0.0
 40
15.00000029999998
 50
179.9999899999988
 51
270.0
  0
LINE
  5
2EBB
  8
ｶｸﾚｾﾝ2
 10
866.58300176109935
 20
282.35710782942073
 30
0.0
 11
866.58300176109935
 21
264.35712282942058
 31
0.0
  0
ARC
  5
2EBC
  8
AM_0
 10
827.08300076109958
 20
264.35712282942058
 30
0.0
 40
2.00000007
 50
0.0
 51
90.00000299999769
  0
LINE
  5
2EBD
  8
AM_0
 10
829.08299876109936
 20
278.35710882942072
 30
0.0
 11
829.08299876109936
 21
264.35712282942058
 31
0.0
  0
ARC
  5
2EBE
  8
AM_0
 10
876.0829997610997
 20
279.35710782942078
 30
0.0
 40
3.0
 50
0.0
 51
90.00000299999769
  0
LINE
  5
2EBF
  8
AM_0
 10
879.08299976109959
 20
279.35710782942078
 30
0.0
 11
879.08299976109959
 21
264.35712282942058
 31
0.0
  0
LINE
  5
2EC0
  8
AM_0
 10
841.08299876109891
 20
436.45079382942077
 30
0.0
 11
841.08299876109891
 21
338.0943538294207
 31
0.0
  0
LINE
  5
2EC1
  8
AM_0
 10
846.19895876109945
 20
447.87791382942072
 30
0.0
 11
859.19487776109941
 21
405.58005882942069
 31
0.0
  0
ARC
  5
2EC2
  8
AM_0
 10
833.08300076109936
 20
436.45079382942077
 30
0.0
 40
8.0000000999999976
 50
0.0
 51
41.053350999999701
  0
ARC
  5
2EC3
  8
AM_0
 10
830.90459276109902
 20
443.17868382942078
 30
0.0
 40
16.000000499999999
 50
17.07946300000124
 51
72.920533999997687
  0
LINE
  5
2EC4
  8
AM_0
 10
326.71051535221022
 20
336.81239982942071
 30
0.0
 11
338.16995535221031
 21
336.81239982942071
 31
0.0
  0
LINE
  5
2EC5
  8
AM_0
 10
326.71051535221022
 20
415.76173782942072
 30
0.0
 11
338.16995535221031
 21
415.76173782942072
 31
0.0
  0
LINE
  5
2EC6
  8
AM_0
 10
261.86193335220992
 20
590.42599985766901
 30
0.0
 11
261.86193335220992
 21
790.42599985766901
 31
0.0
  0
LINE
  5
2EC7
  8
AM_0
 10
271.86193335220992
 20
789.42599985766901
 30
0.0
 11
271.86193335220992
 21
591.42599985766901
 31
0.0
  0
LINE
  5
2EC8
  8
AM_0
 10
305.86193335220992
 20
628.58124485766882
 30
0.0
 11
305.86193335220992
 21
751.90241185766865
 31
0.0
  0
LINE
  5
2EC9
  8
AM_0
 10
324.86193335220992
 20
763.92599985766901
 30
0.0
 11
324.86193335220992
 21
616.92599985766901
 31
0.0
  0
LINE
  5
2ECA
  8
AM_0
 10
323.03624435220991
 20
621.52136385766903
 30
0.0
 11
305.86193335220992
 21
623.02392085766894
 31
0.0
  0
LINE
  5
2ECB
  8
AM_0
 10
305.86193335220992
 20
623.02392085766894
 30
0.0
 11
274.60046535220988
 21
620.28889685766865
 31
0.0
  0
ARC
  5
2ECC
  8
AM_0
 10
274.86193335220992
 20
617.30031285766904
 30
0.0
 40
3.0
 50
94.99999999999973
 51
180.0
  0
LINE
  5
2ECD
  8
AM_0
 10
324.86193335220992
 20
616.92599985766901
 30
0.0
 11
339.86193335220992
 21
616.92599985766901
 31
0.0
  0
LINE
  5
2ECE
  8
AM_0
 10
326.7104953522101
 20
628.77599985766904
 30
0.0
 11
338.16993535220979
 21
628.77599985766904
 31
0.0
  0
ARC
  5
2ECF
  8
AM_0
 10
322.86193335220992
 20
619.52897385766903
 30
0.0
 40
2.0
 50
0.0
 51
85.000000000000256
  0
LINE
  5
2ED0
  8
AM_0
 10
326.7104953522101
 20
650.88130185766875
 30
0.0
 11
338.16993535220979
 21
650.88130185766875
 31
0.0
  0
LINE
  5
2ED1
  8
AM_0
 10
323.03624435220991
 20
759.33063685766911
 30
0.0
 11
305.86193335220992
 21
757.82807885766863
 31
0.0
  0
LINE
  5
2ED2
  8
AM_0
 10
305.86193335220992
 20
757.82807885766863
 30
0.0
 11
274.60046535220988
 21
760.56310285766904
 31
0.0
  0
ARC
  5
2ED3
  8
AM_0
 10
274.86193335220992
 20
763.55168685766864
 30
0.0
 40
3.0
 50
180.0
 51
265.00000000000028
  0
LINE
  5
2ED4
  8
AM_0
 10
326.7104953522101
 20
729.83063985766898
 30
0.0
 11
338.16993535220979
 21
729.83063985766898
 31
0.0
  0
LINE
  5
2ED5
  8
AM_0
 10
326.7104953522101
 20
752.0759998576691
 30
0.0
 11
338.16993535220979
 21
752.0759998576691
 31
0.0
  0
LINE
  5
2ED6
  8
AM_0
 10
324.86193335220992
 20
763.92599985766901
 30
0.0
 11
339.86193335220992
 21
763.92599985766901
 31
0.0
  0
ARC
  5
2ED7
  8
AM_0
 10
322.86193335220992
 20
761.32302585766911
 30
0.0
 40
2.0
 50
274.99999999999972
 51
0.0
  0
LINE
  5
2ED8
  8
AM_0
 10
261.86193335220992
 20
790.42599985766901
 30
0.0
 11
270.86193335220992
 21
790.42599985766901
 31
0.0
  0
ARC
  5
2ED9
  8
AM_0
 10
270.86193335220992
 20
789.42599985766901
 30
0.0
 40
1.0
 50
0.0
 51
90.0
  0
LINE
  5
2EDA
  8
AM_0
 10
261.86193335220992
 20
590.42599985766901
 30
0.0
 11
270.86193335220992
 21
590.42599985766901
 31
0.0
  0
ARC
  5
2EDB
  8
AM_0
 10
270.86193335220992
 20
591.42599985766901
 30
0.0
 40
1.0
 50
270.0
 51
0.0
  0
TEXT
  5
30B9
  8
AM_0
 10
650.64311163005948
 20
725.59641857992756
 30
0.0
 40
15.0
  1
VX15-003A~VX15-030A
  0
ENDSEC
  0
EOF
