  0
SECTION
  2
HEADER
  9
$ACADVER
  1
AC1009
  9
$INSBASE
 10
0.0
 20
0.0
 30
0.0
  9
$EXTMIN
 10
255.97446802651299
 20
254.9480462737242
 30
-0.0000000349181948
  9
$EXTMAX
 10
965.09731570677468
 20
805.83229266436808
 30
0.0000000814935747
  9
$LIMMIN
 10
0.0
 20
0.0
  9
$LIMMAX
 10
1422.5
 20
925.0
  9
$ORTHOMODE
 70
     0
  9
$REGENMODE
 70
     1
  9
$FILLMODE
 70
     1
  9
$QTEXTMODE
 70
     0
  9
$MIRRTEXT
 70
     1
  9
$DRAGMODE
 70
     2
  9
$LTSCALE
 40
5.0
  9
$OSMODE
 70
   551
  9
$ATTMODE
 70
     1
  9
$TEXTSIZE
 40
2.5
  9
$TRACEWID
 40
1.0
  9
$TEXTSTYLE
  7
STANDARD
  9
$CLAYER
  8
AM_0
  9
$CELTYPE
  6
BYLAYER
  9
$CECOLOR
 62
   256
  9
$DIMSCALE
 40
1.0
  9
$DIMASZ
 40
2.5
  9
$DIMEXO
 40
1.0
  9
$DIMDLI
 40
8.0
  9
$DIMRND
 40
0.0
  9
$DIMDLE
 40
0.0
  9
$DIMEXE
 40
0.6
  9
$DIMTP
 40
0.1
  9
$DIMTM
 40
0.1
  9
$DIMTXT
 40
2.5
  9
$DIMCEN
 40
0.0
  9
$DIMTSZ
 40
0.0
  9
$DIMTOL
 70
     0
  9
$DIMLIM
 70
     0
  9
$DIMTIH
 70
     0
  9
$DIMTOH
 70
     0
  9
$DIMSE1
 70
     0
  9
$DIMSE2
 70
     0
  9
$DIMTAD
 70
     1
  9
$DIMZIN
 70
     8
  9
$DIMBLK
  1

  9
$DIMASO
 70
     1
  9
$DIMSHO
 70
     1
  9
$DIMPOST
  1

  9
$DIMAPOST
  1
"
  9
$DIMALT
 70
     0
  9
$DIMALTD
 70
     2
  9
$DIMALTF
 40
0.0393701
  9
$DIMLFAC
 40
1.0
  9
$DIMTOFL
 70
     1
  9
$DIMTVP
 40
0.0
  9
$DIMTIX
 70
     0
  9
$DIMSOXD
 70
     0
  9
$DIMSAH
 70
     0
  9
$DIMBLK1
  1

  9
$DIMBLK2
  1

  9
$DIMSTYLE
  2
AM_ISO
  9
$DIMCLRD
 70
   256
  9
$DIMCLRE
 70
   256
  9
$DIMCLRT
 70
     4
  9
$DIMTFAC
 40
0.71
  9
$DIMGAP
 40
0.8
  9
$LUNITS
 70
     2
  9
$LUPREC
 70
     2
  9
$SKETCHINC
 40
1.0
  9
$FILLETRAD
 40
25.0
  9
$AUNITS
 70
     0
  9
$AUPREC
 70
     0
  9
$MENU
  1
.
  9
$ELEVATION
 40
0.0
  9
$PELEVATION
 40
0.0
  9
$THICKNESS
 40
0.0
  9
$LIMCHECK
 70
     0
  9
$BLIPMODE
 70
     0
  9
$CHAMFERA
 40
10.0
  9
$CHAMFERB
 40
5.0
  9
$SKPOLY
 70
     0
  9
$TDCREATE
 40
2452066.5614722571
  9
$TDUPDATE
 40
2458541.472755359
  9
$TDINDWG
 40
0.0969404977
  9
$TDUSRTIMER
 40
0.0969402894
  9
$USRTIMER
 70
     1
  9
$ANGBASE
 50
0.0
  9
$ANGDIR
 70
     0
  9
$PDMODE
 70
     0
  9
$PDSIZE
 40
0.0
  9
$PLINEWID
 40
0.0
  9
$COORDS
 70
     1
  9
$SPLFRAME
 70
     0
  9
$SPLINETYPE
 70
     6
  9
$SPLINESEGS
 70
     8
  9
$ATTDIA
 70
     1
  9
$ATTREQ
 70
     1
  9
$HANDLING
 70
     1
  9
$HANDSEED
  5
30AA
  9
$SURFTAB1
 70
     6
  9
$SURFTAB2
 70
     6
  9
$SURFTYPE
 70
     6
  9
$SURFU
 70
     6
  9
$SURFV
 70
     6
  9
$UCSNAME
  2

  9
$UCSORG
 10
0.0
 20
0.0
 30
0.0
  9
$UCSXDIR
 10
1.0
 20
0.0
 30
0.0
  9
$UCSYDIR
 10
0.0
 20
1.0
 30
0.0
  9
$PUCSNAME
  2

  9
$PUCSORG
 10
0.0
 20
0.0
 30
0.0
  9
$PUCSXDIR
 10
1.0
 20
0.0
 30
0.0
  9
$PUCSYDIR
 10
0.0
 20
1.0
 30
0.0
  9
$USERI1
 70
     0
  9
$USERI2
 70
     0
  9
$USERI3
 70
     0
  9
$USERI4
 70
     0
  9
$USERI5
 70
     0
  9
$USERR1
 40
0.0
  9
$USERR2
 40
0.0
  9
$USERR3
 40
0.0
  9
$USERR4
 40
0.0
  9
$USERR5
 40
0.0
  9
$WORLDVIEW
 70
     1
  9
$SHADEDGE
 70
     3
  9
$SHADEDIF
 70
    70
  9
$TILEMODE
 70
     1
  9
$MAXACTVP
 70
    64
  9
$PLIMCHECK
 70
     0
  9
$PEXTMIN
 10
1.0000000000000000E+020
 20
1.0000000000000000E+020
 30
1.0000000000000000E+020
  9
$PEXTMAX
 10
-1.0000000000000000E+020
 20
-1.0000000000000000E+020
 30
-1.0000000000000000E+020
  9
$PLIMMIN
 10
0.0
 20
0.0
  9
$PLIMMAX
 10
420.0
 20
297.0
  9
$UNITMODE
 70
     0
  9
$VISRETAIN
 70
     1
  9
$PLINEGEN
 70
     0
  9
$PSLTSCALE
 70
     1
  0
ENDSEC
  0
SECTION
  2
TABLES
  0
TABLE
  2
VPORT
 70
     1
  0
VPORT
  2
*ACTIVE
 70
     0
 10
0.0
 20
0.0
 11
1.0
 21
1.0
 12
610.53589186664374
 22
530.39016946904621
 13
0.0
 23
0.0
 14
12.5
 24
12.5
 15
50.0
 25
50.0
 16
0.0
 26
0.0
 36
1.0
 17
0.0
 27
0.0
 37
0.0
 40
554.66606043909223
 41
1.7571592210767459
 42
50.0
 43
0.0
 44
0.0
 50
0.0
 51
0.0
 71
     0
 72
   100
 73
     1
 74
     3
 75
     0
 76
     0
 77
     0
 78
     0
  0
ENDTAB
  0
TABLE
  2
LTYPE
 70
    26
  0
LTYPE
  2
CONTINUOUS
 70
     0
  3
Solid line
 72
    65
 73
     0
 40
0.0
  0
LTYPE
  2
AM_ISO02W050
 70
     0
  3
__ __ __ __ __ __ __ __ __ __ __ __ __ __ __
 72
    65
 73
     2
 40
7.5
 49
6.0
 49
-1.5
  0
LTYPE
  2
AM_ISO08W050
 70
     0
  3
____ . ____ . ____ . ____ . ____ . ____ . ____
 72
    65
 73
     4
 40
18.0
 49
12.0
 49
-1.5
 49
3.0
 49
-1.5
  0
LTYPE
  2
AM_ISO09W050
 70
     0
  3
_____ . . _____ . . _____ . . ____ .. ____
 72
    65
 73
     6
 40
22.5
 49
12.0
 49
-1.5
 49
3.0
 49
-1.5
 49
3.0
 49
-1.5
  0
LTYPE
  2
AMCONSTR
 70
     0
  3
_______________________
 72
    65
 73
     2
 40
9999.0
 49
9999.0
 49
0.0
  0
LTYPE
  2
AM_ISO08W050X2
 70
     0
  3
__ . __ . __ . __ . __ . __
 72
    65
 73
     4
 40
9.0
 49
6.0
 49
-0.75
 49
1.5
 49
-0.75
  0
LTYPE
  2
AM_ISO02W050X2
 70
     0
  3
 _ _ _ _ _ _ _ _ _ _ _ _
 72
    65
 73
     2
 40
3.75
 49
3.0
 49
-0.75
  0
LTYPE
  2
AMZIGZAG
 70
     0
  3
/\/-/\/-/\/-/\/-/\/-/\/
 72
    65
 73
     2
 40
11.000099999999991
 49
0.0001
 49
-11.0
  0
LTYPE
  2
ACISOWELD
 70
     0
  3
_ _ _ _ _
 72
    65
 73
     2
 40
2.0
 49
2.0
 49
-1.0
  0
LTYPE
  2
ACISOTGB
 70
     0
  3
__ . . __ . .
 72
    65
 73
     6
 40
9.0
 49
4.0
 49
-1.0
 49
1.0
 49
-1.0
 49
1.0
 49
-1.0
  0
LTYPE
  2
ACISOTGL
 70
     0
  3
_ _ _ _ _
 72
    65
 73
     2
 40
3.0
 49
2.0
 49
-1.0
  0
LTYPE
  2
CENTER
 70
     0
  3
__ . __
 72
    65
 73
     4
 40
7.0
 49
4.0
 49
-1.0
 49
1.0
 49
-1.0
  0
LTYPE
  2
PHANTOM2
 70
     0
  3
Phantom (.5x) ___ _ _ ___ _ _ ___ _ _ ___ _ _
 72
    65
 73
     6
 40
31.75
 49
15.875
 49
-3.174999999999998
 49
3.174999999999998
 49
-3.174999999999998
 49
3.174999999999998
 49
-3.174999999999998
  0
LTYPE
  2
ACANSTGBM
 70
     0
  3
__ . . __ . .
 72
    65
 73
     6
 40
9.0
 49
4.0
 49
-1.0
 49
1.0
 49
-1.0
 49
1.0
 49
-1.0
  0
LTYPE
  2
ACANSTGLM
 70
     0
  3
_ _ _ _ _
 72
    65
 73
     2
 40
3.0
 49
2.0
 49
-1.0
  0
LTYPE
  2
GEN3B
 70
     0
  3
 - - - - -
 72
    65
 73
     2
 40
1.0
 49
0.5
 49
-0.5
  0
LTYPE
  2
GEN7A
 70
     0
  3
__ . __ . __
 72
    65
 73
     4
 40
7.375
 49
4.75
 49
-0.875
 49
0.875
 49
-0.875
  0
LTYPE
  2
ACJISTGB
 70
     0
  3
__ . . __ . .
 72
    65
 73
     6
 40
9.0
 49
4.0
 49
-1.0
 49
1.0
 49
-1.0
 49
1.0
 49
-1.0
  0
LTYPE
  2
ACJISTGL
 70
     0
  3
_ _ _ _ _
 72
    65
 73
     2
 40
3.0
 49
2.0
 49
-1.0
  0
LTYPE
  2
HIDDEN
 70
     0
  3
Hidden __ __ __ __ __ __ __ __ __ __ __ __ __ _
 72
    65
 73
     2
 40
0.375
 49
0.25
 49
-0.125
  0
LTYPE
  2
CENTER2
 70
     0
  3
Center (.5x) ___ _ ___ _ ___ _ ___ _ ___ _ ___
 72
    65
 73
     4
 40
1.125
 49
0.75
 49
-0.125
 49
0.125
 49
-0.125
  0
LTYPE
  2
HIDDEN2
 70
     0
  3
Hidden (.5x) _ _ _ _ _ _ _ _ _ _ _ _ _ _ _ _ _
 72
    65
 73
     2
 40
0.1875
 49
0.125
 49
-0.0625
  0
LTYPE
  2
AMZIGZAG2
 70
     0
  3
/\/-/\/-/\/-/\/-/\/-/\/
 72
    65
 73
     2
 40
0.4401
 49
0.0001
 49
-0.4400000000000002
  0
LTYPE
  2
ACANSTGB
 70
     0
  3
__ . . __ . .
 72
    65
 73
     6
 40
0.35433070866
 49
0.15748031496
 49
-0.03937007874
 49
0.03937007874
 49
-0.03937007874
 49
0.03937007874
 49
-0.03937007874
  0
LTYPE
  2
ACANSTGL
 70
     0
  3
_ _ _ _ _
 72
    65
 73
     2
 40
0.11811023622
 49
0.07874015748
 49
-0.03937007874
  0
ENDTAB
  0
TABLE
  2
LAYER
 70
     6
  0
LAYER
  2
0
 70
     0
 62
     7
  6
CONTINUOUS
  0
LAYER
  2
AM_0
 70
     0
 62
     7
  6
CONTINUOUS
  0
LAYER
  2
AM_5
 70
     0
 62
     2
  6
CONTINUOUS
  0
LAYER
  2
DEFPOINTS
 70
     0
 62
     7
  6
CONTINUOUS
  0
LAYER
  2
ｶｸﾚｾﾝ2
 70
     0
 62
     3
  6
GEN3B
  0
LAYER
  2
ﾁｭｳｼﾝｾﾝ1
 70
     0
 62
     1
  6
GEN7A
  0
ENDTAB
  0
TABLE
  2
STYLE
 70
     9
  0
STYLE
  2
STANDARD
 70
     0
 40
0.0
 41
0.8299999999999999
 50
0.0
 71
     0
 42
2.5
  3
txt.shx
  4
bigfont.shx
  0
STYLE
  2
ANNOTATIVE
 70
     0
 40
0.0
 41
1.0
 50
0.0
 71
     0
 42
0.2
  3
txt
  4

  0
STYLE
  2

 70
     1
 40
0.0
 41
1.0
 50
0.0
 71
     0
 42
2.5
  3
ltypeshp.shx
  4

  0
STYLE
  2
ACISOTS
 70
     0
 40
1.0
 41
1.0
 50
0.0
 71
     0
 42
2.5
  3
isocp.shx
  4
extfont.shx
  0
STYLE
  2
ACISOGDT
 70
     0
 40
0.0
 41
1.0
 50
0.0
 71
     0
 42
2.5
  3
amgdt.shx
  4

  0
STYLE
  2
ACANSTS
 70
     0
 40
1.0
 41
1.0
 50
0.0
 71
     0
 42
2.5
  3
romans.shx
  4
bigfont.shx
  0
STYLE
  2
ACANSGDT
 70
     0
 40
0.0
 41
1.0
 50
0.0
 71
     0
 42
2.5
  3
amgdt.shx
  4

  0
STYLE
  2
ACJISTS
 70
     0
 40
1.0
 41
1.0
 50
0.0
 71
     0
 42
2.5
  3
isocp.shx
  4
bigfont.shx
  0
STYLE
  2
ACJISGDT
 70
     0
 40
0.0
 41
1.0
 50
0.0
 71
     0
 42
2.5
  3
amgdt.shx
  4

  0
ENDTAB
  0
TABLE
  2
VIEW
 70
     6
  0
VIEW
  2
AM_VIEW1
 70
     0
 40
462.5
 10
416.07965009208078
 20
693.75
 41
832.15930018416213
 11
0.0
 21
0.0
 31
1.0
 12
0.0
 22
0.0
 32
0.0
 42
50.0
 43
0.0
 44
0.0
 50
0.0
 71
     0
  0
VIEW
  2
AM_VIEW2
 70
     0
 40
462.5
 10
1006.420349907918
 20
693.75
 41
832.15930018416213
 11
0.0
 21
0.0
 31
1.0
 12
0.0
 22
0.0
 32
0.0
 42
50.0
 43
0.0
 44
0.0
 50
0.0
 71
     0
  0
VIEW
  2
AM_VIEW3
 70
     0
 40
462.5
 10
416.07965009208078
 20
231.25
 41
832.15930018416213
 11
0.0
 21
0.0
 31
1.0
 12
0.0
 22
0.0
 32
0.0
 42
50.0
 43
0.0
 44
0.0
 50
0.0
 71
     0
  0
VIEW
  2
AM_VIEW4
 70
     0
 40
462.5
 10
1006.420349907918
 20
231.25
 41
832.15930018416213
 11
0.0
 21
0.0
 31
1.0
 12
0.0
 22
0.0
 32
0.0
 42
50.0
 43
0.0
 44
0.0
 50
0.0
 71
     0
  0
VIEW
  2
AM_VIEW5
 70
     0
 40
462.5
 10
711.24999999999966
 20
462.5
 41
832.15930018416179
 11
0.0
 21
0.0
 31
1.0
 12
0.0
 22
0.0
 32
0.0
 42
50.0
 43
0.0
 44
0.0
 50
0.0
 71
     0
  0
VIEW
  2
AM_VIEW6
 70
     0
 40
924.99075000000005
 10
711.24999999999966
 20
462.5
 41
1664.3019571823199
 11
0.0
 21
0.0
 31
1.0
 12
0.0
 22
0.0
 32
0.0
 42
50.0
 43
0.0
 44
0.0
 50
0.0
 71
     0
  0
ENDTAB
  0
TABLE
  2
UCS
 70
     0
  0
ENDTAB
  0
TABLE
  2
APPID
 70
    95
  0
APPID
  2
ACAD
 70
     0
  0
APPID
  2
ACADANNOTATIVE
 70
     0
  0
APPID
  2
MCAD_NO_VIS
 70
     0
  0
APPID
  2
ACAD_TEMP_GRAPHIC
 70
     0
  0
APPID
  2
ACATTRIBSERVICES
 70
     0
  0
APPID
  2
GENIUS_GENREC_14
 70
     0
  0
APPID
  2
GENIUS_GENOBJ-N-REC_13
 70
     0
  0
APPID
  2
GENIUS_GENODEF_13
 70
     0
  0
APPID
  2
GENIUS_GENOLIS_13
 70
     0
  0
APPID
  2
GENIUS_GENOBJ-N-TIT_13
 70
     0
  0
APPID
  2
GENIUS_GENOENT_13
 70
     0
  0
APPID
  2
GENIUS_GENTITLE_13
 70
     0
  0
APPID
  2
GENIUS_GENOREF_13
 70
     0
  0
APPID
  2
GENIUS_GENSCREG_15
 70
     0
  0
APPID
  2
GENIUS_GENOBJ-N-SDF_13
 70
     0
  0
APPID
  2
GENIUS_GENFIL_13
 70
     0
  0
APPID
  2
GENIUS_GENOBJ-N-CHA_13
 70
     0
  0
APPID
  2
GENIUS_GENDTOL_13
 70
     0
  0
APPID
  2
GENIUS_GENOBJ-N-FIL_13
 70
     0
  0
APPID
  2
AD_DRAW
 70
     0
  0
APPID
  2
DESIGNERASSEMBLIES
 70
     0
  0
APPID
  2
ASURF_PCURVE_APPNAME
 70
     0
  0
APPID
  2
GENIUS_GE3SECT_13
 70
     0
  0
APPID
  2
GENIUS_GENCFG_13
 70
     0
  0
APPID
  2
GENIUS_GE3CFG0_13
 70
     0
  0
APPID
  2
GENIUS_GENCFG0_13
 70
     0
  0
APPID
  2
GENIUS_GENCFG1_13
 70
     0
  0
APPID
  2
GENIUS_GENCFG2_13
 70
     0
  0
APPID
  2
GENIUS_GENCFG3_13
 70
     0
  0
APPID
  2
GENIUS_GENCFG4_13
 70
     0
  0
APPID
  2
GENIUS_GEVCFG0_13
 70
     0
  0
APPID
  2
GENIUS_GENHINW_13
 70
     0
  0
APPID
  2
GENIUS_FIRSTVISTXT_14
 70
     0
  0
APPID
  2
GENIUS_GENOBJ-N-LEADER_13
 70
     0
  0
APPID
  2
GEV_VCCNULL_SWITCH_OFF
 70
     0
  0
APPID
  2
GENIUS_GEFCFG0_13
 70
     0
  0
APPID
  2
GENIUS_GENZVEED_13
 70
     0
  0
APPID
  2
GENIUS_GENSCREG_13
 70
     0
  0
APPID
  2
GENIUS_DUMCFG0_13
 70
     0
  0
APPID
  2
GEVID936201362
 70
     0
  0
APPID
  2
GEVDC
 70
     0
  0
APPID
  2
GEVCON
 70
     0
  0
APPID
  2
VCC
 70
     0
  0
APPID
  2
GEVPT
 70
     0
  0
APPID
  2
GEVIT
 70
     0
  0
APPID
  2
GENBH
 70
     0
  0
APPID
  2
GEVMK
 70
     0
  0
APPID
  2
GENIUS_GENBH_13
 70
     0
  0
APPID
  2
GENIUS_GENOBJ-NBEHI-BHF_13
 70
     0
  0
APPID
  2
GENIUS_GENOBJ-NBEHI-BHB_13
 70
     0
  0
APPID
  2
GENIUS_GENOBJ-F-DESC_13
 70
     0
  0
APPID
  2
GENIUS_GEFDESC_14
 70
     0
  0
APPID
  2
GENIUS_GENOBJ-F-PART_13
 70
     0
  0
APPID
  2
GENIUS_GEFSTDP_13
 70
     0
  0
APPID
  2
GENIUS_GEFPARTINS_13
 70
     0
  0
APPID
  2
GENIUS_GENTRA_14
 70
     0
  0
APPID
  2
GENIUS_GENINF13_13
 70
     0
  0
APPID
  2
GENIUS_GENOBJ-N-INFOPT_13
 70
     0
  0
APPID
  2
GENIUS_GENOBJ-N-RSSYM_13
 70
     0
  0
APPID
  2
GENIUS_GENSYMENT_13
 70
     0
  0
APPID
  2
GENIUS_GENSCSYM_13
 70
     0
  0
APPID
  2
GENIUS_GEFINFNAM_13
 70
     0
  0
APPID
  2
GENIUS_GENOBJ-N-CEN_13
 70
     0
  0
APPID
  2
GENIUS_GENOBJ-N-CRS_13
 70
     0
  0
APPID
  2
GENIUS_GENOBJ-N-CRC_13
 70
     0
  0
APPID
  2
GENIUS_GENCRC_14
 70
     0
  0
APPID
  2
GEVID942827039
 70
     0
  0
APPID
  2
GEVID942827040
 70
     0
  0
APPID
  2
GEVID942827041
 70
     0
  0
APPID
  2
GENIUS_GENOBJ-F-SCPASSM_13
 70
     0
  0
APPID
  2
GENIUS_GENDIMSH_14
 70
     0
  0
APPID
  2
GEVID942827042
 70
     0
  0
APPID
  2
GEVID946020473
 70
     0
  0
APPID
  2
GEVID946020474
 70
     0
  0
APPID
  2
GEVID946020475
 70
     0
  0
APPID
  2
GENIUS_GENOBJ-N-HTC_13
 70
     0
  0
APPID
  2
GENIUS_GENHATCH_13
 70
     0
  0
APPID
  2
GEVID948854295
 70
     0
  0
APPID
  2
GEVID939402019
 70
     0
  0
APPID
  2
GEVID952919491
 70
     0
  0
APPID
  2
GEVID952919492
 70
     0
  0
APPID
  2
GENIUS_GEFWELD_13
 70
     0
  0
APPID
  2
GENIUS_GENOBJ-F-WELS_13
 70
     0
  0
APPID
  2
GEVID952919493
 70
     0
  0
APPID
  2
GENIUS_GENOBJ-N-RSBK_13
 70
     0
  0
APPID
  2
GENIUS_GENOBJ-N-LIB_13
 70
     0
  0
APPID
  2
GENIUS_GENSCALE_13
 70
     0
  0
APPID
  2
GEVID986376691
 70
     0
  0
APPID
  2
DCO15
 70
     0
  0
APPID
  2
ACAD_DSTYLE_DIMBREAK
 70
     0
  0
APPID
  2
ACAD_DSTYLE_DIMJAG
 70
     0
  0
APPID
  2
ACAD_NAV_VCDISPLAY
 70
     0
  0
APPID
  2
ACADANNOPO
 70
     0
  0
APPID
  2
ACAD_EXEMPT_FROM_CAD_STANDARDS
 70
     0
  0
APPID
  2
ACAD_MLEADERVER
 70
     0
  0
ENDTAB
  0
TABLE
  2
DIMSTYLE
 70
    22
  0
DIMSTYLE
  2
STANDARD
 70
     0
  3

  4

  5

  6

  7

 40
1.0
 41
0.18
 42
0.0625
 43
0.38
 44
0.18
 45
0.0
 46
0.0
 47
0.0
 48
0.0
140
0.18
141
0.09
142
0.0
143
25.399999999999999
144
1.0
145
0.0
146
1.0
147
0.09
 71
     0
 72
     0
 73
     1
 74
     1
 75
     0
 76
     0
 77
     0
 78
     0
170
     0
171
     2
172
     0
173
     0
174
     0
175
     0
176
     0
177
     0
178
     0
  0
DIMSTYLE
  2
ANNOTATIVE
 70
     0
  3

  4

  5

  6

  7

 40
1.0
 41
0.18
 42
0.0625
 43
0.38
 44
0.18
 45
0.0
 46
0.0
 47
0.0
 48
0.0
140
0.18
141
0.09
142
0.0
143
25.399999999999999
144
1.0
145
0.0
146
1.0
147
0.09
 71
     0
 72
     0
 73
     1
 74
     1
 75
     0
 76
     0
 77
     0
 78
     0
170
     0
171
     2
172
     0
173
     0
174
     0
175
     0
176
     0
177
     0
178
     0
  0
DIMSTYLE
  2
AM_ISO
 70
     0
  3

  4
"
  5

  6

  7

 40
1.0
 41
2.5
 42
1.0
 43
8.0
 44
0.6
 45
0.0
 46
0.0
 47
0.1
 48
0.1
140
2.5
141
0.0
142
0.0
143
0.0393701
144
1.0
145
0.0
146
0.71
147
0.8
 71
     0
 72
     0
 73
     0
 74
     0
 75
     0
 76
     0
 77
     1
 78
     8
170
     0
171
     2
172
     1
173
     0
174
     0
175
     0
176
   256
177
   256
178
     4
  0
DIMSTYLE
  2
AM_ISO$3
 70
     0
  3

  4
"
  5

  6

  7

 40
1.0
 41
2.5
 42
1.0
 43
8.0
 44
0.6
 45
0.0
 46
0.0
 47
0.1
 48
0.1
140
2.5
141
0.0
142
0.0
143
0.0393701
144
1.0
145
0.0
146
0.71
147
0.8
 71
     0
 72
     0
 73
     0
 74
     1
 75
     0
 76
     0
 77
     1
 78
     8
170
     0
171
     2
172
     0
173
     0
174
     0
175
     0
176
   256
177
   256
178
     4
  0
DIMSTYLE
  2
AM_ISO$4
 70
     0
  3

  4
"
  5

  6

  7

 40
1.0
 41
2.5
 42
1.0
 43
8.0
 44
0.6
 45
0.0
 46
0.0
 47
0.1
 48
0.1
140
2.5
141
0.0
142
0.0
143
0.0393701
144
1.0
145
0.0
146
0.71
147
0.8
 71
     0
 72
     0
 73
     0
 74
     1
 75
     0
 76
     0
 77
     1
 78
     8
170
     0
171
     2
172
     0
173
     0
174
     0
175
     0
176
   256
177
   256
178
     4
  0
DIMSTYLE
  2
AM_ISO$6
 70
     0
  3

  4
"
  5

  6

  7

 40
1.0
 41
2.5
 42
1.0
 43
8.0
 44
0.6
 45
0.0
 46
0.0
 47
0.1
 48
0.1
140
2.5
141
0.0
142
0.0
143
0.0393701
144
1.0
145
0.0
146
0.71
147
0.8
 71
     0
 72
     0
 73
     0
 74
     0
 75
     0
 76
     0
 77
     0
 78
     8
170
     0
171
     2
172
     1
173
     0
174
     0
175
     0
176
   256
177
   256
178
     4
  0
DIMSTYLE
  2
AM_ISO$7
 70
     0
  3

  4
"
  5

  6

  7

 40
1.0
 41
2.5
 42
1.0
 43
8.0
 44
0.6
 45
0.0
 46
0.0
 47
0.1
 48
0.1
140
2.5
141
0.0
142
0.0
143
0.0393701
144
1.0
145
0.0
146
0.71
147
0.8
 71
     0
 72
     0
 73
     0
 74
     0
 75
     0
 76
     0
 77
     1
 78
     8
170
     0
171
     2
172
     1
173
     0
174
     0
175
     0
176
   256
177
   256
178
     4
  0
DIMSTYLE
  2
AM_ISO$SF
 70
     0
  3

  4
"
  5

  6

  7

 40
1.0
 41
2.5
 42
1.0
 43
10.0
 44
1.0
 45
0.0
 46
0.0
 47
0.1
 48
0.1
140
3.5
141
0.0
142
0.0
143
0.0393701
144
1.0
145
0.0
146
0.71
147
1.5
 71
     0
 72
     0
 73
     0
 74
     0
 75
     1
 76
     1
 77
     1
 78
     8
170
     0
171
     2
172
     1
173
     0
174
     0
175
     0
176
   256
177
   256
178
     2
  0
DIMSTYLE
  2
AM_ISO$SH
 70
     0
  3

  4
"
  5

  6

  7

 40
1.0
 41
2.5
 42
1.0
 43
10.0
 44
1.0
 45
0.0
 46
0.0
 47
0.1
 48
0.1
140
3.5
141
0.0
142
0.0
143
0.0393701
144
2.0
145
0.0
146
0.71
147
1.5
 71
     0
 72
     0
 73
     0
 74
     0
 75
     1
 76
     1
 77
     1
 78
     8
170
     0
171
     2
172
     1
173
     1
174
     0
175
     0
176
   256
177
   256
178
     2
  0
DIMSTYLE
  2
AM_JIS
 70
     0
  3

  4
"
  5

  6

  7

 40
1.0
 41
2.5
 42
1.0
 43
7.0
 44
1.0
 45
0.0
 46
0.0
 47
0.1
 48
0.1000000001
140
2.5
141
0.0
142
0.0
143
0.0393701
144
1.0
145
0.0
146
0.71
147
1.0
 71
     0
 72
     0
 73
     0
 74
     0
 75
     0
 76
     0
 77
     3
 78
     8
170
     0
171
     2
172
     1
173
     0
174
     0
175
     0
176
   256
177
   256
178
     4
  0
DIMSTYLE
  2
AM_JIS$3
 70
     0
  3

  4
"
  5

  6

  7

 40
1.0
 41
2.5
 42
1.0
 43
7.0
 44
1.0
 45
0.0
 46
0.0
 47
0.1
 48
0.1000000001
140
2.5
141
0.0
142
0.0
143
0.0393701
144
1.0
145
0.0
146
0.71
147
1.0
 71
     0
 72
     0
 73
     0
 74
     1
 75
     0
 76
     0
 77
     3
 78
     8
170
     0
171
     2
172
     0
173
     0
174
     0
175
     0
176
   256
177
   256
178
     4
  0
DIMSTYLE
  2
AM_JIS$4
 70
     0
  3

  4
"
  5

  6

  7

 40
1.0
 41
2.5
 42
1.0
 43
7.0
 44
1.0
 45
0.0
 46
0.0
 47
0.1
 48
0.1000000001
140
2.5
141
0.0
142
0.0
143
0.0393701
144
1.0
145
0.0
146
0.71
147
1.0
 71
     0
 72
     0
 73
     0
 74
     0
 75
     0
 76
     0
 77
     3
 78
     8
170
     0
171
     2
172
     0
173
     0
174
     0
175
     0
176
   256
177
   256
178
     4
  0
DIMSTYLE
  2
AM_JIS$6
 70
     0
  3

  4
"
  5

  6

  7

 40
1.0
 41
2.5
 42
1.0
 43
7.0
 44
1.0
 45
0.0
 46
0.0
 47
0.1
 48
0.1000000001
140
2.5
141
0.0
142
0.0
143
0.0393701
144
1.0
145
0.0
146
0.71
147
1.0
 71
     0
 72
     0
 73
     0
 74
     0
 75
     0
 76
     0
 77
     0
 78
     8
170
     0
171
     2
172
     1
173
     0
174
     0
175
     0
176
   256
177
   256
178
     4
  0
DIMSTYLE
  2
AM_JIS$7
 70
     0
  3

  4
"
  5

  6

  7

 40
1.0
 41
2.5
 42
1.0
 43
7.0
 44
1.0
 45
0.0
 46
0.0
 47
0.1
 48
0.1000000001
140
2.5
141
0.0
142
0.0
143
0.0393701
144
1.0
145
0.0
146
0.71
147
1.0
 71
     0
 72
     0
 73
     0
 74
     0
 75
     0
 76
     0
 77
     3
 78
     8
170
     0
171
     2
172
     1
173
     0
174
     0
175
     0
176
   256
177
   256
178
     4
  0
DIMSTYLE
  2
AM_JIS$SF
 70
     0
  3

  4
"
  5

  6

  7

 40
1.0
 41
2.5
 42
1.0
 43
10.0
 44
1.0
 45
0.0
 46
0.0
 47
0.1
 48
0.1
140
3.5
141
0.0
142
0.0
143
0.0393701
144
1.0
145
0.0
146
0.71
147
1.5
 71
     0
 72
     0
 73
     0
 74
     0
 75
     1
 76
     1
 77
     3
 78
     8
170
     0
171
     2
172
     1
173
     0
174
     0
175
     0
176
   256
177
   256
178
     4
  0
DIMSTYLE
  2
AM_JIS$SH
 70
     0
  3

  4
"
  5

  6

  7

 40
1.0
 41
2.5
 42
1.0
 43
10.0
 44
1.0
 45
0.0
 46
0.0
 47
0.1
 48
0.1
140
3.5
141
0.0
142
0.0
143
0.0393701
144
1.0
145
0.0
146
0.71
147
1.5
 71
     0
 72
     0
 73
     0
 74
     0
 75
     1
 76
     0
 77
     3
 78
     8
170
     0
171
     2
172
     1
173
     1
174
     0
175
     0
176
   256
177
   256
178
     4
  0
DIMSTYLE
  2
AM_ANSI
 70
     0
  3

  4
mm
  5

  6

  7

 40
1.0
 41
0.1
 42
0.05
 43
0.5
 44
0.1
 45
0.0
 46
0.0
 47
0.1
 48
0.1
140
0.12
141
0.0
142
0.0
143
25.399999999999999
144
1.0
145
0.0
146
0.71
147
0.06
 71
     0
 72
     0
 73
     1
 74
     1
 75
     0
 76
     0
 77
     0
 78
     7
170
     0
171
     2
172
     0
173
     0
174
     0
175
     0
176
   256
177
   256
178
     2
  0
DIMSTYLE
  2
AM_ANSI$3
 70
     0
  3

  4
mm
  5

  6

  7

 40
1.0
 41
0.1
 42
0.05
 43
0.5
 44
0.1
 45
0.0
 46
0.0
 47
0.1
 48
0.1
140
0.12
141
0.0
142
0.0
143
25.399999999999999
144
1.0
145
0.0
146
0.71
147
0.06
 71
     0
 72
     0
 73
     1
 74
     1
 75
     0
 76
     0
 77
     0
 78
     7
170
     0
171
     2
172
     0
173
     0
174
     0
175
     0
176
   256
177
   256
178
     2
  0
DIMSTYLE
  2
AM_ANSI$4
 70
     0
  3

  4
mm
  5

  6

  7

 40
1.0
 41
0.1
 42
0.05
 43
0.5
 44
0.1
 45
0.0
 46
0.0
 47
0.1
 48
0.1
140
0.12
141
0.0
142
0.0
143
25.399999999999999
144
1.0
145
0.0
146
0.71
147
0.06
 71
     0
 72
     0
 73
     1
 74
     1
 75
     0
 76
     0
 77
     0
 78
     7
170
     0
171
     2
172
     0
173
     0
174
     0
175
     0
176
   256
177
   256
178
     2
  0
DIMSTYLE
  2
AM_ANSI$7
 70
     0
  3

  4
mm
  5

  6

  7

 40
1.0
 41
0.1
 42
0.05
 43
0.5
 44
0.1
 45
0.0
 46
0.0
 47
0.1
 48
0.1
140
0.24
141
0.0
142
0.0
143
25.399999999999999
144
1.0
145
0.0
146
0.71
147
0.06
 71
     0
 72
     0
 73
     1
 74
     1
 75
     0
 76
     0
 77
     0
 78
     7
170
     0
171
     2
172
     0
173
     0
174
     0
175
     0
176
   256
177
   256
178
     2
  0
DIMSTYLE
  2
AM_ANSI$SF
 70
     0
  3

  4
mm
  5

  6

  7

 40
1.0
 41
0.1
 42
0.05
 43
0.5
 44
0.1
 45
0.0
 46
0.0
 47
0.1
 48
0.1
140
0.12
141
0.0
142
0.0
143
25.399999999999999
144
1.0
145
0.0
146
0.71
147
0.06
 71
     0
 72
     0
 73
     1
 74
     1
 75
     1
 76
     1
 77
     0
 78
     7
170
     0
171
     2
172
     0
173
     0
174
     0
175
     0
176
   256
177
   256
178
     2
  0
DIMSTYLE
  2
AM_ANSI$SH
 70
     0
  3

  4
mm
  5

  6

  7

 40
1.0
 41
0.1
 42
0.05
 43
0.5
 44
0.1
 45
0.0
 46
0.0
 47
0.1
 48
0.1
140
0.12
141
0.0
142
0.0
143
25.399999999999999
144
1.0
145
0.0
146
0.71
147
0.06
 71
     0
 72
     0
 73
     1
 74
     1
 75
     1
 76
     1
 77
     0
 78
     7
170
     0
171
     2
172
     0
173
     1
174
     0
175
     0
176
   256
177
   256
178
     2
  0
ENDTAB
  0
ENDSEC
  0
SECTION
  2
BLOCKS
  0
BLOCK
  8
0
  2
$MODEL_SPACE
 70
     0
 10
0.0
 20
0.0
 30
0.0
  3
$MODEL_SPACE
  1

  0
ENDBLK
  5
2F20
  8
0
  0
BLOCK
 67
     1
  8
0
  2
$PAPER_SPACE
 70
     0
 10
0.0
 20
0.0
 30
0.0
  3
$PAPER_SPACE
  1

  0
ENDBLK
  5
2F1C
 67
     1
  8
0
  0
BLOCK
  8
0
  2
GENAXEH
 70
     0
 10
0.0
 20
0.0
 30
0.0
  3
GENAXEH
  1

  0
LINE
  5
2CDD
  8
0
 10
-1.0
 20
0.0
 30
0.0
 11
1.0
 21
0.0
 31
0.0
  0
ENDBLK
  5
2CDE
  8
0
  0
BLOCK
  8
0
  2
_OPEN30
 70
     0
 10
0.0
 20
0.0
 30
0.0
  3
_OPEN30
  1

  0
LINE
  5
2CE1
  8
0
 62
     0
 10
-1.0
 20
0.26794919
 30
0.0
 11
0.0
 21
0.0
 31
0.0
  0
LINE
  5
2CE2
  8
0
 62
     0
 10
0.0
 20
0.0
 30
0.0
 11
-1.0
 21
-0.26794919
 31
0.0
  0
LINE
  5
2CE3
  8
0
 62
     0
 10
0.0
 20
0.0
 30
0.0
 11
-1.0
 21
0.0
 31
0.0
  0
ENDBLK
  5
2CE4
  8
0
  0
BLOCK
  8
0
  2
_NONE
 70
     0
 10
0.0
 20
0.0
 30
0.0
  3
_NONE
  1

  0
ENDBLK
  5
2CE7
  8
0
  0
BLOCK
  8
0
  2
_ACMFILLEDHALF
 70
     0
 10
0.0
 20
0.0
 30
0.0
  3
_ACMFILLEDHALF
  1

  0
TRACE
  5
3016
  8
AM_0
 62
     0
 10
-0.8
 20
0.0
 30
0.0
 11
-1.0
 21
0.166666666
 31
0.0
 12
0.0
 22
0.0
 32
0.0
 13
0.0
 23
0.0
 33
0.0
  0
LINE
  5
3017
  8
AM_0
 62
     0
 10
-1.0
 20
0.0
 30
0.0
 11
-0.8
 21
0.0
 31
0.0
  0
ENDBLK
  5
3015
  8
0
  0
ENDSEC
  0
SECTION
  2
ENTITIES
  0
LINE
  5
2CE9
  8
AM_0
 10
530.95603822915291
 20
695.80695217028551
 30
0.0
 11
575.95603822915291
 21
695.80695217028551
 31
0.0
  0
LINE
  5
2CEA
  8
AM_0
 10
530.95603822915291
 20
685.80701217028559
 30
0.0
 11
575.95603822915291
 21
685.80701217028559
 31
0.0
  0
LINE
  5
2CEB
  8
AM_0
 10
575.95603822915291
 20
674.80701217028559
 30
0.0
 11
517.95606822915283
 21
674.80701217028559
 31
0.0
  0
LINE
  5
2CEC
  8
AM_0
 10
575.95603822915291
 20
706.80695217028551
 30
0.0
 11
517.95606822915283
 21
706.80695217028551
 31
0.0
  0
LINE
  5
2CED
  8
ﾁｭｳｼﾝｾﾝ1
 10
256.06888018005162
 20
690.80695217028551
 30
0.0
 11
583.86887822915276
 21
690.80695217028551
 31
0.0
  0
LINE
  5
2CEE
  8
AM_0
 10
344.45606822915289
 20
617.30698217028544
 30
0.0
 11
344.45606822915289
 21
764.30695217028551
 31
0.0
  0
LINE
  5
2CEF
  8
AM_0
 10
378.95600822915293
 20
599.88587217028544
 30
0.0
 11
378.95600822915293
 21
781.72809217028544
 31
0.0
  0
LINE
  5
2CF0
  8
AM_0
 10
485.95606822915289
 20
621.60022217028552
 30
0.0
 11
485.95606822915289
 21
760.01373217028538
 31
0.0
  0
LINE
  5
2CF1
  8
AM_0
 10
517.95606822915283
 20
673.30701217028559
 30
0.0
 11
517.95606822915283
 21
708.30701217028547
 31
0.0
  0
LINE
  5
2CF2
  8
AM_0
 10
513.95603822915291
 20
663.53906217028555
 30
0.0
 11
513.95603822915291
 21
690.80695217028551
 31
0.0
  0
LINE
  5
2CF3
  8
AM_0
 10
390.95600822915293
 20
625.73477217028551
 30
0.0
 11
390.95600822915293
 21
755.87921217028554
 31
0.0
  0
LINE
  5
2CF4
  8
AM_0
 10
506.95606822915289
 20
629.70361217028562
 30
0.0
 11
506.95606822915289
 21
751.9103421702855
 31
0.0
  0
LINE
  5
2CF5
  8
AM_0
 10
400.95600822915293
 20
591.30698217028544
 30
0.0
 11
400.95600822915293
 21
790.30695217028551
 31
0.0
  0
POLYLINE
  5
2CF6
  8
AM_0
 66
     1
 10
0.0
 20
0.0
 30
0.0
  0
VERTEX
  5
2CF7
  8
AM_0
 10
400.95600822915293
 20
613.39020217028553
 30
0.0
 42
0.040442906
  0
VERTEX
  5
2CF8
  8
AM_0
 10
412.48418822915278
 20
613.61354217028565
 30
0.0
 42
0.04246993
  0
VERTEX
  5
2CF9
  8
AM_0
 10
423.81788822915291
 20
615.7270321702855
 30
0.0
 42
0.022672732
  0
VERTEX
  5
2CFA
  8
AM_0
 10
429.30237822915291
 20
617.51797217028525
 30
0.0
  0
VERTEX
  5
2CFB
  8
AM_0
 10
434.60798822915291
 20
619.78683217028549
 30
0.0
 42
-1.0
  0
SEQEND
  5
2CFC
  8
AM_0
  0
POLYLINE
  5
2CFD
  8
AM_0
 66
     1
 10
0.0
 20
0.0
 30
0.0
  0
VERTEX
  5
2CFE
  8
AM_0
 10
400.95600822915293
 20
660.53055217028555
 30
0.0
 42
-0.07005559
  0
VERTEX
  5
2CFF
  8
AM_0
 10
427.31665822915289
 20
640.33321217028561
 30
0.0
 42
-0.27110578
  0
VERTEX
  5
2D00
  8
AM_0
 10
435.95600822915293
 20
620.44986217028566
 30
0.0
 42
-0.21303172
  0
VERTEX
  5
2D01
  8
AM_0
 10
416.36556822915293
 20
602.31505217028553
 30
0.0
  0
VERTEX
  5
2D02
  8
AM_0
 10
400.95600822915293
 20
596.01679217028516
 30
0.0
 42
-1.0
  0
SEQEND
  5
2D03
  8
AM_0
  0
LINE
  5
2D04
  8
AM_0
 10
406.95600822915293
 20
575.80698217028544
 30
0.0
 11
510.09565822915278
 21
579.40869217028535
 31
0.0
  0
ARC
  5
2D05
  8
AM_0
 10
391.95600822915293
 20
580.1307721702857
 30
0.0
 40
3.0
 50
85.000003999997659
 51
265.0
  0
ARC
  5
2D06
  8
AM_0
 10
400.95600822915293
 20
586.37012217028553
 30
0.0
 40
4.0
 50
265.00001000000032
 51
0.0000006832429909
  0
ARC
  5
2D07
  8
AM_0
 10
356.95600822915293
 20
584.19669217028525
 30
0.0
 40
4.0
 50
180.00001000000091
 51
265.00001000000032
  0
LINE
  5
2D08
  8
AM_0
 10
404.95600822915293
 20
591.30698217028544
 30
0.0
 11
404.95600822915293
 21
581.43848217028517
 31
0.0
  0
LINE
  5
2D09
  8
AM_0
 10
356.60743822915282
 20
580.21188217028555
 30
0.0
 11
406.95606822915289
 21
575.80698217028544
 31
0.0
  0
ARC
  5
2D0A
  8
AM_0
 10
399.95600822915293
 20
581.43848217028517
 30
0.0
 40
5.0
 50
265.00001000000032
 51
0.0000006832429909
  0
CIRCLE
  5
2D0B
  8
AM_0
 10
370.95600822915293
 20
595.80698217028544
 30
0.0
 40
7.5
  0
LINE
  5
2D0C
  8
AM_0
 10
344.45600822915293
 20
617.30698217028544
 30
0.0
 11
376.52589822915292
 21
616.18707217028555
 31
0.0
  0
LINE
  5
2D0D
  8
AM_0
 10
344.45600822915293
 20
629.22833217028528
 30
0.0
 11
378.95600822915293
 21
629.22833217028528
 31
0.0
  0
LINE
  5
2D0E
  8
ﾁｭｳｼﾝｾﾝ1
 10
357.45600822915293
 20
595.80698217028544
 30
0.0
 11
384.45600822915293
 21
595.80698217028544
 31
0.0
  0
LINE
  5
2D0F
  8
AM_0
 10
352.95600822915293
 20
608.26843217028545
 30
0.0
 11
352.95600822915293
 21
584.19669217028525
 31
0.0
  0
LINE
  5
2D10
  8
ﾁｭｳｼﾝｾﾝ1
 10
370.95600822915293
 20
609.30698217028544
 30
0.0
 11
370.95600822915293
 21
582.30698217028544
 31
0.0
  0
LINE
  5
2D11
  8
AM_0
 10
355.92078822915278
 20
612.13211217028538
 30
0.0
 11
371.68494822915278
 21
616.3560821702855
 31
0.0
  0
ARC
  5
2D12
  8
AM_0
 10
356.95600822915293
 20
608.26843217028545
 30
0.0
 40
4.0
 50
105.0000000000007
 51
180.00001000000091
  0
ARC
  5
2D13
  8
AM_0
 10
381.95600822915293
 20
610.9169621702855
 30
0.0
 40
3.0
 50
180.00001000000091
 51
270.0
  0
ARC
  5
2D14
  8
AM_0
 10
387.95600822915293
 20
604.91696217028561
 30
0.0
 40
3.0
 50
0.0
 51
90.00000299999769
  0
ARC
  5
2D15
  8
AM_0
 10
387.99323822915278
 20
593.88587217028544
 30
0.0
 40
3.0
 50
6.3862994000021986
 51
90.00000299999769
  0
ARC
  5
2D16
  8
AM_0
 10
393.95600822915293
 20
594.55325217028553
 30
0.0
 40
3.0
 50
180.00001000000091
 51
267.99999999999631
  0
LINE
  5
2D17
  8
AM_0
 10
400.95600822915293
 20
596.01679217028516
 30
0.0
 11
390.95600822915293
 21
596.01679217028516
 31
0.0
  0
LINE
  5
2D18
  8
AM_0
 10
390.95600822915293
 20
594.55325217028553
 30
0.0
 11
390.95600822915293
 21
604.91696217028561
 31
0.0
  0
LINE
  5
2D19
  8
AM_0
 10
381.95600822915293
 20
596.88587217028544
 30
0.0
 11
387.99323822915278
 21
596.88587217028544
 31
0.0
  0
ARC
  5
2D1A
  8
AM_0
 10
381.95600822915293
 20
599.88587217028544
 30
0.0
 40
3.0
 50
180.00001000000091
 51
270.0
  0
LINE
  5
2D1B
  8
AM_0
 10
393.85133822915299
 20
591.55509217028555
 30
0.0
 11
400.9559482291528
 21
591.30698217028544
 31
0.0
  0
LINE
  5
2D1C
  8
AM_0
 10
392.2175482291529
 20
583.11933217028525
 30
0.0
 11
400.60749822915278
 21
582.38532217028535
 31
0.0
  0
LINE
  5
2D1D
  8
AM_0
 10
400.95600822915293
 20
591.30698217028544
 30
0.0
 11
404.95600822915293
 21
591.30698217028544
 31
0.0
  0
ARC
  5
2D1E
  8
AM_0
 10
387.95600822915293
 20
625.73477217028551
 30
0.0
 40
3.0
 50
270.0
 51
0.0
  0
LINE
  5
2D1F
  8
AM_0
 10
400.95600822915293
 20
613.39020217028553
 30
0.0
 11
378.95600822915293
 21
613.39020217028553
 31
0.0
  0
LINE
  5
2D20
  8
AM_0
 10
381.95600822915293
 20
607.91696217028561
 30
0.0
 11
387.95600822915293
 21
607.91696217028561
 31
0.0
  0
ARC
  5
2D21
  8
AM_0
 10
375.95600822915293
 20
613.20514217028551
 30
0.0
 40
3.0
 50
0.0
 51
87.999999999996248
  0
LINE
  5
2D22
  8
AM_0
 10
378.95600822915293
 20
622.73477217028551
 30
0.0
 11
387.95600822915293
 21
622.73477217028551
 31
0.0
  0
LINE
  5
2D23
  8
AM_0
 10
344.45600822915293
 20
651.3323121702856
 30
0.0
 11
378.95600822915293
 21
651.3323121702856
 31
0.0
  0
LINE
  5
2D24
  8
AM_0
 10
378.95600822915293
 20
633.4894121702855
 30
0.0
 11
390.95600822915293
 21
633.4894121702855
 31
0.0
  0
LINE
  5
2D25
  8
AM_0
 10
400.95600822915293
 20
660.53055217028555
 30
0.0
 11
390.95600822915293
 21
660.53055217028555
 31
0.0
  0
ARC
  5
2D26
  8
AM_0
 10
473.95603822915291
 20
586.15155217028541
 30
0.0
 40
8.0
 50
180.00001000000091
 51
271.99999000000139
  0
ARC
  5
2D27
  8
AM_0
 10
509.95606822915289
 20
583.40625217028526
 30
0.0
 40
4.0
 50
272.00000000000369
 51
0.0
  0
ARC
  5
2D28
  8
AM_0
 10
477.95603822915291
 20
601.59339217028537
 30
0.0
 40
12.0
 50
91.500001000001546
 51
180.00001000000091
  0
LINE
  5
2D29
  8
AM_0
 10
465.95603822915291
 20
586.15155217028541
 30
0.0
 11
465.95603822915291
 21
601.59339217028537
 31
0.0
  0
ARC
  5
2D2A
  8
AM_0
 10
510.95606822915289
 20
629.74423217028527
 30
0.0
 40
4.0
 50
180.00001000000091
 51
262.81924999999637
  0
LINE
  5
2D2B
  8
ﾁｭｳｼﾝｾﾝ1
 10
482.45606822915289
 20
595.80698217028544
 30
0.0
 11
509.45606822915278
 21
595.80698217028544
 31
0.0
  0
LINE
  5
2D2C
  8
ﾁｭｳｼﾝｾﾝ1
 10
495.95606822915278
 20
609.30698217028544
 30
0.0
 11
495.95606822915278
 21
582.30698217028544
 31
0.0
  0
CIRCLE
  5
2D2D
  8
AM_0
 10
495.95606822915278
 20
595.80698217028544
 30
0.0
 40
7.5
  0
ARC
  5
2D2E
  8
AM_0
 10
493.40827822915293
 20
617.44946217028553
 30
0.0
 40
8.0
 50
91.500001000001546
 51
164.96420000000299
  0
ARC
  5
2D2F
  8
AM_0
 10
477.95606822915289
 20
621.60022217028552
 30
0.0
 40
8.0
 50
271.49999999999608
 51
0.0
  0
LINE
  5
2D30
  8
AM_0
 10
478.16547822915282
 20
613.60297217028551
 30
0.0
 11
477.64191822915291
 21
613.58927217028565
 31
0.0
  0
LINE
  5
2D31
  8
AM_0
 10
503.0607782291529
 20
625.70499217028555
 30
0.0
 11
493.19886822915282
 21
625.44675217028544
 31
0.0
  0
ARC
  5
2D32
  8
AM_0
 10
502.95606822915289
 20
629.70361217028562
 30
0.0
 40
4.0
 50
271.49999999999608
 51
0.0
  0
LINE
  5
2D33
  8
AM_0
 10
513.95606822915283
 20
621.80698217028544
 30
0.0
 11
513.95606822915283
 21
583.40625217028526
 31
0.0
  0
ARC
  5
2D34
  8
AM_0
 10
509.95606822915289
 20
621.80698217028544
 30
0.0
 40
4.0
 50
0.0
 51
82.819247000003429
  0
ARC
  5
2D35
  8
AM_0
 10
509.95606822915289
 20
656.03351217028558
 30
0.0
 40
3.0
 50
120.0000000000005
 51
180.00001000000091
  0
ARC
  5
2D36
  8
AM_0
 10
510.95603822915291
 20
663.53906217028555
 30
0.0
 40
3.0
 50
300.00001000000083
 51
0.0
  0
LINE
  5
2D37
  8
AM_0
 10
508.45600822915293
 20
658.63159217028544
 30
0.0
 11
512.45600822915276
 21
660.94098217028545
 31
0.0
  0
LINE
  5
2D38
  8
AM_0
 10
517.95606822915283
 20
673.30701217028559
 30
0.0
 11
513.95603822915291
 21
673.30701217028559
 31
0.0
  0
POLYLINE
  5
2D39
  8
AM_0
 66
     1
 10
0.0
 20
0.0
 30
0.0
  0
VERTEX
  5
2D3A
  8
AM_0
 10
400.95600822915293
 20
721.08344217028548
 30
0.0
 42
0.070055572
  0
VERTEX
  5
2D3B
  8
AM_0
 10
427.31665822915289
 20
741.28077217028545
 30
0.0
 42
0.27110574
  0
VERTEX
  5
2D3C
  8
AM_0
 10
435.95600822915293
 20
761.16412217028517
 30
0.0
 42
0.21303201
  0
VERTEX
  5
2D3D
  8
AM_0
 10
416.36556822915293
 20
779.29891217028523
 30
0.0
  0
VERTEX
  5
2D3E
  8
AM_0
 10
400.95600822915293
 20
785.59717217028549
 30
0.0
 42
-1.0
  0
SEQEND
  5
2D3F
  8
AM_0
  0
POLYLINE
  5
2D40
  8
AM_0
 66
     1
 10
0.0
 20
0.0
 30
0.0
  0
VERTEX
  5
2D41
  8
AM_0
 10
400.95600822915293
 20
768.22376217028545
 30
0.0
 42
-0.040442893
  0
VERTEX
  5
2D42
  8
AM_0
 10
412.48417822915292
 20
768.00041217028559
 30
0.0
 42
-0.042469915
  0
VERTEX
  5
2D43
  8
AM_0
 10
423.81788822915291
 20
765.88693217028538
 30
0.0
 42
-0.022671767
  0
VERTEX
  5
2D44
  8
AM_0
 10
429.30236822915271
 20
764.09599217028506
 30
0.0
  0
VERTEX
  5
2D45
  8
AM_0
 10
434.60798822915291
 20
761.82716217028553
 30
0.0
 42
-1.0
  0
SEQEND
  5
2D46
  8
AM_0
  0
LINE
  5
2D47
  8
AM_0
 10
406.95606822915289
 20
805.80695217028506
 30
0.0
 11
510.09565822915278
 21
802.20526217028544
 31
0.0
  0
ARC
  5
2D48
  8
AM_0
 10
387.99323822915278
 20
787.72809217028544
 30
0.0
 40
3.0
 50
270.0
 51
353.61370000000318
  0
CIRCLE
  5
2D49
  8
AM_0
 10
370.95600822915293
 20
785.80695217028551
 30
0.0
 40
7.5
  0
LINE
  5
2D4A
  8
AM_0
 10
390.95600822915293
 20
787.06073217028552
 30
0.0
 11
390.95600822915293
 21
776.69702217028544
 31
0.0
  0
LINE
  5
2D4B
  8
ﾁｭｳｼﾝｾﾝ1
 10
370.95600822915293
 20
772.30695217028517
 30
0.0
 11
370.95600822915293
 21
799.30695217028551
 31
0.0
  0
LINE
  5
2D4C
  8
AM_0
 10
352.95600822915293
 20
773.34552217028545
 30
0.0
 11
352.95600822915293
 21
797.41724217028548
 31
0.0
  0
LINE
  5
2D4D
  8
AM_0
 10
344.45600822915293
 20
730.28168217028553
 30
0.0
 11
378.95600822915293
 21
730.28168217028553
 31
0.0
  0
LINE
  5
2D4E
  8
AM_0
 10
400.95600822915293
 20
721.08344217028548
 30
0.0
 11
390.95600822915293
 21
721.08344217028548
 31
0.0
  0
LINE
  5
2D4F
  8
AM_0
 10
344.45606822915289
 20
764.30695217028551
 30
0.0
 11
376.06074822915281
 21
765.41058217028524
 31
0.0
  0
LINE
  5
2D50
  8
AM_0
 10
344.45600822915293
 20
752.3856221702855
 30
0.0
 11
378.95600822915293
 21
752.3856221702855
 31
0.0
  0
LINE
  5
2D51
  8
ﾁｭｳｼﾝｾﾝ1
 10
357.45600822915293
 20
785.80695217028551
 30
0.0
 11
384.45600822915293
 21
785.80695217028551
 31
0.0
  0
LINE
  5
2D52
  8
AM_0
 10
355.92078822915278
 20
769.48181217028559
 30
0.0
 11
371.68507822915291
 21
765.25781217028555
 31
0.0
  0
ARC
  5
2D53
  8
AM_0
 10
356.95600822915293
 20
773.34552217028545
 30
0.0
 40
4.0
 50
180.00001000000091
 51
254.999990000005
  0
ARC
  5
2D54
  8
AM_0
 10
387.95600822915293
 20
755.87921217028554
 30
0.0
 40
3.0
 50
0.0
 51
90.00000299999769
  0
LINE
  5
2D55
  8
AM_0
 10
378.95600822915293
 20
748.12457217028555
 30
0.0
 11
390.95600822915293
 21
748.12457217028555
 31
0.0
  0
LINE
  5
2D56
  8
AM_0
 10
378.95600822915293
 20
758.87921217028554
 30
0.0
 11
387.95600822915293
 21
758.87921217028554
 31
0.0
  0
ARC
  5
2D57
  8
AM_0
 10
387.95600822915293
 20
776.69702217028544
 30
0.0
 40
3.0
 50
270.0
 51
0.0
  0
LINE
  5
2D58
  8
AM_0
 10
400.95600822915293
 20
785.59717217028549
 30
0.0
 11
390.95600822915293
 21
785.59717217028549
 31
0.0
  0
LINE
  5
2D59
  8
AM_0
 10
400.95600822915293
 20
768.22376217028545
 30
0.0
 11
378.95600822915293
 21
768.22376217028545
 31
0.0
  0
ARC
  5
2D5A
  8
AM_0
 10
381.95600822915293
 20
770.69702217028544
 30
0.0
 40
3.0
 50
90.00000299999769
 51
180.00001000000091
  0
ARC
  5
2D5B
  8
AM_0
 10
375.95600822915293
 20
768.40881217028539
 30
0.0
 40
3.0
 50
272.00000000000369
 51
0.0
  0
LINE
  5
2D5C
  8
AM_0
 10
381.95600822915293
 20
773.69702217028544
 30
0.0
 11
387.95600822915293
 21
773.69702217028544
 31
0.0
  0
LINE
  5
2D5D
  8
AM_0
 10
381.95600822915293
 20
784.72809217028544
 30
0.0
 11
387.99323822915278
 21
784.72809217028544
 31
0.0
  0
ARC
  5
2D5E
  8
AM_0
 10
381.95600822915293
 20
781.72809217028544
 30
0.0
 40
3.0
 50
90.00000299999769
 51
180.00001000000091
  0
LINE
  5
2D5F
  8
AM_0
 10
356.60743822915282
 20
801.40204217028565
 30
0.0
 11
406.95606822915289
 21
805.80701217028559
 31
0.0
  0
ARC
  5
2D60
  8
AM_0
 10
356.95600822915293
 20
797.41724217028548
 30
0.0
 40
4.0
 50
95.00000199999856
 51
180.00001000000091
  0
ARC
  5
2D61
  8
AM_0
 10
393.95600822915293
 20
787.06073217028552
 30
0.0
 40
3.0
 50
91.999998000000545
 51
180.00001000000091
  0
ARC
  5
2D62
  8
AM_0
 10
391.95600822915293
 20
801.48322217028544
 30
0.0
 40
3.0
 50
95.00000199999856
 51
275.0
  0
ARC
  5
2D63
  8
AM_0
 10
400.95600822915293
 20
795.24384217028523
 30
0.0
 40
4.0
 50
0.0
 51
95.00000199999856
  0
LINE
  5
2D64
  8
AM_0
 10
404.95600822915293
 20
790.30695217028551
 30
0.0
 11
404.95600822915293
 21
800.17548217028548
 31
0.0
  0
LINE
  5
2D65
  8
AM_0
 10
392.2175482291529
 20
798.49463217028551
 30
0.0
 11
400.60743822915288
 21
799.22864217028553
 31
0.0
  0
LINE
  5
2D66
  8
AM_0
 10
393.85133822915299
 20
790.05890217028514
 30
0.0
 11
400.95600822915293
 21
790.30695217028551
 31
0.0
  0
LINE
  5
2D67
  8
AM_0
 10
400.95600822915293
 20
790.30695217028551
 30
0.0
 11
404.95600822915293
 21
790.30695217028551
 31
0.0
  0
ARC
  5
2D68
  8
AM_0
 10
399.95600822915293
 20
800.17548217028548
 30
0.0
 40
5.0
 50
0.0
 51
95.00000199999856
  0
CIRCLE
  5
2D69
  8
AM_0
 10
495.95606822915278
 20
785.80695217028551
 30
0.0
 40
7.5
  0
LINE
  5
2D6A
  8
AM_0
 10
465.95603822915291
 20
780.02057217028539
 30
0.0
 11
465.95603822915291
 21
795.4624021702856
 31
0.0
  0
LINE
  5
2D6B
  8
ﾁｭｳｼﾝｾﾝ1
 10
495.95606822915278
 20
772.30695217028517
 30
0.0
 11
495.95606822915278
 21
799.30695217028551
 31
0.0
  0
LINE
  5
2D6C
  8
AM_0
 10
513.95606822915283
 20
759.80695217028517
 30
0.0
 11
513.95606822915283
 21
798.20770217028553
 31
0.0
  0
ARC
  5
2D6D
  8
AM_0
 10
477.95603822915291
 20
780.02057217028539
 30
0.0
 40
12.0
 50
180.00001000000091
 51
268.50000000000381
  0
ARC
  5
2D6E
  8
AM_0
 10
509.95606822915289
 20
725.5805121702856
 30
0.0
 40
3.0
 50
179.9999899999988
 51
240.00000999999969
  0
LINE
  5
2D6F
  8
AM_0
 10
513.95603822915291
 20
690.80695217028551
 30
0.0
 11
513.95603822915291
 21
718.07495217028566
 31
0.0
  0
LINE
  5
2D70
  8
AM_0
 10
517.95606822915283
 20
708.30701217028547
 30
0.0
 11
513.95603822915291
 21
708.30701217028547
 31
0.0
  0
ARC
  5
2D71
  8
AM_0
 10
530.95603822915291
 20
690.80695217028551
 30
0.0
 40
4.9999924
 50
90.00000299999769
 51
270.0
  0
LINE
  5
2D72
  8
AM_0
 10
530.95606822915283
 20
685.80701217028559
 30
0.0
 11
530.95606822915283
 21
695.80695217028551
 31
0.0
  0
LINE
  5
2D73
  8
AM_0
 10
508.4560382291528
 20
722.98242217028553
 30
0.0
 11
512.45600822915276
 21
720.6730421702855
 31
0.0
  0
ARC
  5
2D74
  8
AM_0
 10
510.95603822915291
 20
718.07495217028566
 30
0.0
 40
3.0
 50
0.0
 51
60.000002000001302
  0
ARC
  5
2D75
  8
AM_0
 10
510.95606822915289
 20
751.86969217028513
 30
0.0
 40
4.0
 50
97.180758000000822
 51
180.00001000000091
  0
LINE
  5
2D76
  8
ﾁｭｳｼﾝｾﾝ1
 10
482.45606822915289
 20
785.80695217028551
 30
0.0
 11
509.45606822915278
 21
785.80695217028551
 31
0.0
  0
ARC
  5
2D77
  8
AM_0
 10
493.40827822915293
 20
764.16449217028514
 30
0.0
 40
8.0
 50
195.0357999999969
 51
268.50000000000381
  0
ARC
  5
2D78
  8
AM_0
 10
477.95606822915289
 20
760.01373217028538
 30
0.0
 40
8.0
 50
0.0
 51
88.499997000000647
  0
LINE
  5
2D79
  8
AM_0
 10
503.06074822915281
 20
755.90900217028513
 30
0.0
 11
493.19886822915282
 21
756.16724217028514
 31
0.0
  0
ARC
  5
2D7A
  8
AM_0
 10
502.95606822915289
 20
751.9103421702855
 30
0.0
 40
4.0
 50
0.0
 51
88.499997000000647
  0
LINE
  5
2D7B
  8
AM_0
 10
478.16547822915282
 20
768.01099217028548
 30
0.0
 11
477.64191822915291
 21
768.02472217028514
 31
0.0
  0
ARC
  5
2D7C
  8
AM_0
 10
509.95606822915289
 20
759.80695217028517
 30
0.0
 40
4.0
 50
277.18075000000363
 51
0.0
  0
ARC
  5
2D7D
  8
AM_0
 10
473.95603822915291
 20
795.4624021702856
 30
0.0
 40
8.0
 50
87.999999999996248
 51
180.00001000000091
  0
ARC
  5
2D7E
  8
AM_0
 10
509.95606822915289
 20
798.20770217028553
 30
0.0
 40
4.0
 50
0.0
 51
87.999999999996248
  0
LINE
  5
2D7F
  8
AM_0
 10
575.95603822915291
 20
674.80701217028559
 30
0.0
 11
575.95603822915291
 21
706.80695217028551
 31
0.0
  0
POLYLINE
  5
2D80
  8
AM_0
 66
     1
 10
0.0
 20
0.0
 30
0.0
  0
VERTEX
  5
2D81
  8
AM_0
  6
CONTINUOUS
 10
428.72521822915292
 20
425.80093153527218
 30
0.0
 42
0.038759451
  0
VERTEX
  5
2D82
  8
AM_0
  6
CONTINUOUS
 10
431.47303822915291
 20
428.71177153527242
 30
0.0
 42
0.045306413
  0
VERTEX
  5
2D83
  8
AM_0
  6
CONTINUOUS
 10
433.6952282291528
 20
432.03949153527208
 30
0.0
 42
0.052171431
  0
VERTEX
  5
2D84
  8
AM_0
  6
CONTINUOUS
 10
435.23191822915288
 20
435.73729153527222
 30
0.0
 42
0.057266618
  0
VERTEX
  5
2D85
  8
AM_0
  6
CONTINUOUS
 10
435.92617822915292
 20
439.67605153527222
 30
0.0
 42
0.058402263
  0
VERTEX
  5
2D86
  8
AM_0
  6
CONTINUOUS
 10
435.69541822915289
 20
443.66425153527217
 30
0.0
 42
0.055045302
  0
VERTEX
  5
2D87
  8
AM_0
  6
CONTINUOUS
 10
434.56990822915287
 20
447.49942153527218
 30
0.0
 42
0.048778173
  0
VERTEX
  5
2D88
  8
AM_0
  6
CONTINUOUS
 10
432.67705822915292
 20
451.01992153527237
 30
0.0
 42
0.041944207
  0
VERTEX
  5
2D89
  8
AM_0
  6
CONTINUOUS
 10
430.17952822915288
 20
454.14295153527218
 30
0.0
 42
0.035908261
  0
VERTEX
  5
2D8A
  8
AM_0
  6
CONTINUOUS
 10
427.22695822915313
 20
456.84376153527199
 30
0.0
 42
0.031063208
  0
VERTEX
  5
2D8B
  8
AM_0
  6
CONTINUOUS
 10
423.94024822915293
 20
459.12769153527222
 30
0.0
 42
0.027381869
  0
VERTEX
  5
2D8C
  8
AM_0
  6
CONTINUOUS
 10
420.40834822915292
 20
461.01481153527232
 30
0.0
 42
0.024647405
  0
VERTEX
  5
2D8D
  8
AM_0
  6
CONTINUOUS
 10
416.69932822915291
 20
462.52594153527218
 30
0.0
 42
0.022677562
  0
VERTEX
  5
2D8E
  8
AM_0
  6
CONTINUOUS
 10
412.86394822915292
 20
463.68061153527219
 30
0.0
 42
0.021321502
  0
VERTEX
  5
2D8F
  8
AM_0
  6
CONTINUOUS
 10
408.9415382291528
 20
464.49445153527222
 30
0.0
 42
0.020471074
  0
VERTEX
  5
2D90
  8
AM_0
  6
CONTINUOUS
 10
404.964648229153
 20
464.97850153527241
 30
0.0
 42
0.020088488
  0
VERTEX
  5
2D91
  8
AM_0
  6
CONTINUOUS
 10
400.95604822915311
 20
465.13942153527222
 30
0.0
  0
SEQEND
  5
2D92
  8
AM_0
  0
ARC
  5
2D93
  8
AM_0
 10
388.9560182291529
 20
455.63125153527238
 30
0.0
 40
2.00000007
 50
270.0
 51
0.0
  0
LINE
  5
2D94
  8
AM_0
 10
400.95601822915279
 20
313.82859853527231
 30
0.0
 11
400.95601822915279
 21
469.82863153527222
 31
0.0
  0
LINE
  5
2D95
  8
AM_0
 10
485.95603822915291
 20
298.78633153527232
 30
0.0
 11
485.95603822915291
 21
459.8095315352723
 31
0.0
  0
LINE
  5
2D96
  8
AM_0
 10
276.45602822915282
 20
469.32861553527232
 30
0.0
 11
276.45602822915282
 21
271.32861553527232
 31
0.0
  0
LINE
  5
2D97
  8
AM_0
 10
266.45602822915282
 20
270.32861553527232
 30
0.0
 11
266.45602822915282
 21
470.32861553527221
 31
0.0
  0
LINE
  5
2D98
  8
AM_0
 10
344.45602822915288
 20
443.82859153527221
 30
0.0
 11
376.06075822915312
 21
444.93226153527218
 31
0.0
  0
LINE
  5
2D99
  8
AM_0
 10
344.45602822915288
 20
409.80328153527222
 30
0.0
 11
378.95602822915288
 21
409.80328153527222
 31
0.0
  0
LINE
  5
2D9A
  8
AM_0
 10
344.45602822915288
 20
330.85392853527219
 30
0.0
 11
378.95602822915288
 21
330.85392853527219
 31
0.0
  0
LINE
  5
2D9B
  8
AM_0
 10
344.45602822915288
 20
296.82861253527238
 30
0.0
 11
376.06075822915312
 21
295.7249455352723
 31
0.0
  0
LINE
  5
2D9C
  8
AM_0
 10
352.9560182291529
 20
258.32859553527231
 30
0.0
 11
388.9560182291529
 21
258.32859553527231
 31
0.0
  0
LINE
  5
2D9D
  8
AM_0
 10
354.95602822915288
 20
276.32859553527231
 30
0.0
 11
386.03623822915279
 21
276.32859553527231
 31
0.0
  0
LINE
  5
2D9E
  8
ﾁｭｳｼﾝｾﾝ1
 10
256.06888018005162
 20
370.32861553527232
 30
0.0
 11
373.53693113703912
 21
370.32861553527232
 31
0.0
  0
LINE
  5
2D9F
  8
AM_0
 10
344.45602822915288
 20
296.82861253527238
 30
0.0
 11
344.45602822915288
 21
443.82862153527219
 31
0.0
  0
LINE
  5
2DA0
  8
AM_0
 10
329.45602822915282
 20
443.82861553527232
 30
0.0
 11
329.45602822915282
 21
296.82861553527232
 31
0.0
  0
LINE
  5
2DA1
  8
AM_0
 10
310.45602822915288
 20
308.4838605352723
 30
0.0
 11
310.45602822915288
 21
431.80502753527242
 31
0.0
  0
LINE
  5
2DA2
  8
AM_0
 10
310.45602822915288
 20
302.92653653527231
 30
0.0
 11
279.19456022915273
 21
300.19151253527241
 31
0.0
  0
LINE
  5
2DA3
  8
AM_0
 10
266.45602822915282
 20
270.32861553527232
 30
0.0
 11
275.45602822915282
 21
270.32861553527232
 31
0.0
  0
ARC
  5
2DA4
  8
AM_0
 10
275.45602822915282
 20
271.32861553527232
 30
0.0
 40
1.0
 50
270.0
 51
0.0
  0
ARC
  5
2DA5
  8
AM_0
 10
279.45602822915282
 20
297.20292853527218
 30
0.0
 40
3.0
 50
94.99999999999973
 51
180.0
  0
ARC
  5
2DA6
  8
AM_0
 10
354.95602822915288
 20
274.32861253527238
 30
0.0
 40
2.00000007
 50
90.00000299999769
 51
180.00001000000091
  0
LINE
  5
2DA7
  8
ｶｸﾚｾﾝ2
 10
363.45601822915279
 20
276.32859553527231
 30
0.0
 11
363.45601822915279
 21
258.32859553527231
 31
0.0
  0
LINE
  5
2DA8
  8
AM_0
 10
352.9560182291529
 20
258.32859553527231
 30
0.0
 11
352.9560182291529
 21
274.32861253527238
 31
0.0
  0
LINE
  5
2DA9
  8
AM_0
 10
331.30459022915301
 20
308.67861553527217
 30
0.0
 11
342.76403022915281
 21
308.67861553527217
 31
0.0
  0
LINE
  5
2DAA
  8
AM_0
 10
329.45602822915282
 20
296.82861553527232
 30
0.0
 11
344.45602822915288
 21
296.82861553527232
 31
0.0
  0
LINE
  5
2DAB
  8
AM_0
 10
327.63033922915281
 20
301.42397953527228
 30
0.0
 11
310.45602822915288
 21
302.92653653527231
 31
0.0
  0
ARC
  5
2DAC
  8
AM_0
 10
327.45602822915282
 20
299.43158953527228
 30
0.0
 40
2.0
 50
0.0
 51
85.000000000000256
  0
LINE
  5
2DAD
  8
AM_0
 10
310.45602822915288
 20
437.73069453527222
 30
0.0
 11
279.19456022915273
 21
440.46571853527217
 31
0.0
  0
ARC
  5
2DAE
  8
AM_0
 10
279.45602822915282
 20
443.45430253527218
 30
0.0
 40
3.0
 50
180.0
 51
265.00000000000028
  0
LINE
  5
2DAF
  8
AM_0
 10
331.30459022915301
 20
431.9786155352723
 30
0.0
 11
342.76403022915281
 21
431.9786155352723
 31
0.0
  0
LINE
  5
2DB0
  8
AM_0
 10
329.45602822915282
 20
443.82861553527232
 30
0.0
 11
344.45602822915288
 21
443.82861553527232
 31
0.0
  0
LINE
  5
2DB1
  8
AM_0
 10
327.63033922915281
 20
439.23325253527219
 30
0.0
 11
310.45602822915288
 21
437.73069453527222
 31
0.0
  0
ARC
  5
2DB2
  8
AM_0
 10
327.45602822915282
 20
441.2256415352723
 30
0.0
 40
2.0
 50
274.99999999999972
 51
0.0
  0
LINE
  5
2DB3
  8
AM_0
 10
389.84590822915288
 20
279.10948153527232
 30
0.0
 11
404.76571822915292
 21
325.73388853527217
 31
0.0
  0
LINE
  5
2DB4
  8
AM_0
 10
390.95602822915288
 20
434.6607115352723
 30
0.0
 11
390.95602822915288
 21
308.62385653527241
 31
0.0
  0
LINE
  5
2DB5
  8
AM_0
 10
378.95602822915288
 20
450.63127153527239
 30
0.0
 11
378.95602822915288
 21
310.58592253527218
 31
0.0
  0
LINE
  5
2DB6
  8
AM_0
 10
465.95599822915278
 20
291.32861353527232
 30
0.0
 11
465.95599822915278
 21
429.77134153527231
 31
0.0
  0
LINE
  5
2DB7
  8
AM_0
 10
506.95603822915291
 20
283.86799453527232
 30
0.0
 11
506.95603822915291
 21
442.32862153527242
 31
0.0
  0
LINE
  5
2DB8
  8
AM_0
 10
471.0310082291528
 20
290.78634553527212
 30
0.0
 11
477.95599822915278
 21
290.78634553527212
 31
0.0
  0
ARC
  5
2DB9
  8
AM_0
 10
480.9559982291529
 20
291.32861353527232
 30
0.0
 40
15.00000029999998
 50
179.9999899999988
 51
270.0
  0
ARC
  5
2DBA
  8
AM_0
 10
475.95601822915279
 20
258.32859553527231
 30
0.0
 40
2.00000007
 50
0.0
 51
90.00000299999769
  0
LINE
  5
2DBB
  8
AM_0
 10
390.95602822915288
 20
260.32859653527231
 30
0.0
 11
475.95601822915279
 21
260.32859653527231
 31
0.0
  0
LINE
  5
2DBC
  8
ｶｸﾚｾﾝ2
 10
378.45601822915279
 20
276.32859553527231
 30
0.0
 11
378.45601822915279
 21
258.32859553527231
 31
0.0
  0
LINE
  5
2DBD
  8
ﾁｭｳｼﾝｾﾝ1
 10
370.9560182291529
 20
254.99729653527231
 30
0.0
 11
370.9560182291529
 21
280.57792453527242
 31
0.0
  0
ARC
  5
2DBE
  8
AM_0
 10
390.95602822915288
 20
258.32859553527231
 30
0.0
 40
2.00000007
 50
90.00000299999769
 51
180.00001000000091
  0
LINE
  5
2DBF
  8
AM_0
 10
390.95602822915288
 20
306.62384053527239
 30
0.0
 11
398.65054822915289
 21
306.62384053527239
 31
0.0
  0
ARC
  5
2DC0
  8
AM_0
 10
381.95602822915288
 20
292.91081053527239
 30
0.0
 40
3.0
 50
179.9999899999988
 51
270.0
  0
LINE
  5
2DC1
  8
AM_0
 10
381.95602822915288
 20
289.91082553527218
 30
0.0
 11
388.9560182291529
 21
289.91082553527218
 31
0.0
  0
ARC
  5
2DC2
  8
AM_0
 10
386.03623822915279
 20
280.32861253527238
 30
0.0
 40
4.000000199999997
 50
270.0
 51
342.25533000000132
  0
ARC
  5
2DC3
  8
AM_0
 10
388.9560182291529
 20
287.91082753527218
 30
0.0
 40
2.00000007
 50
0.0
 51
90.00000299999769
  0
LINE
  5
2DC4
  8
AM_0
 10
390.95602822915288
 20
287.91082753527218
 30
0.0
 11
390.95602822915288
 21
282.57861253527238
 31
0.0
  0
ARC
  5
2DC5
  8
AM_0
 10
375.95602822915288
 20
292.72677553527228
 30
0.0
 40
3.0
 50
0.0
 51
88.000000000002899
  0
LINE
  5
2DC6
  8
AM_0
 10
378.95602822915288
 20
310.58592253527218
 30
0.0
 11
378.95602822915288
 21
292.91081053527239
 31
0.0
  0
LINE
  5
2DC7
  8
AM_0
 10
381.95602822915288
 20
310.58592253527218
 30
0.0
 11
388.9560182291529
 21
310.58592253527218
 31
0.0
  0
ARC
  5
2DC8
  8
AM_0
 10
388.9560182291529
 20
308.62385653527241
 30
0.0
 40
2.00000007
 50
270.0
 51
0.0
  0
LINE
  5
2DC9
  8
ｶｸﾚｾﾝ2
 10
488.4559982291529
 20
276.32859553527231
 30
0.0
 11
488.4559982291529
 21
258.32859553527231
 31
0.0
  0
LINE
  5
2DCA
  8
ｶｸﾚｾﾝ2
 10
503.45599822915278
 20
276.32859553527231
 30
0.0
 11
503.45599822915278
 21
258.32859553527231
 31
0.0
  0
ARC
  5
2DCB
  8
AM_0
 10
511.9560182291529
 20
274.32861253527238
 30
0.0
 40
2.00000007
 50
0.0
 51
90.00000299999769
  0
LINE
  5
2DCC
  8
ﾁｭｳｼﾝｾﾝ1
 10
495.9559982291529
 20
254.99729653527231
 30
0.0
 11
495.9559982291529
 21
280.57792453527242
 31
0.0
  0
LINE
  5
2DCD
  8
AM_0
 10
477.95599822915278
 20
258.32859553527231
 30
0.0
 11
513.9559982291529
 21
258.32859553527231
 31
0.0
  0
LINE
  5
2DCE
  8
AM_0
 10
477.95599822915278
 20
258.32859553527231
 30
0.0
 11
477.95599822915278
 21
258.32859553527231
 31
0.0
  0
LINE
  5
2DCF
  8
AM_0
 10
513.9559982291529
 20
258.32859553527231
 30
0.0
 11
513.9559982291529
 21
274.32861253527238
 31
0.0
  0
LINE
  5
2DD0
  8
AM_0
 10
480.9559982291529
 20
276.32859553527231
 30
0.0
 11
511.9560182291529
 21
276.32859553527231
 31
0.0
  0
ARC
  5
2DD1
  8
AM_0
 10
477.95599822915278
 20
298.78633153527232
 30
0.0
 40
8.0000000999999976
 50
270.0
 51
0.0
  0
ARC
  5
2DD2
  8
AM_0
 10
514.95601822915285
 20
283.86799453527232
 30
0.0
 40
8.0000000999999976
 50
179.9999899999988
 51
252.54238999999831
  0
LINE
  5
2DD3
  8
ﾁｭｳｼﾝｾﾝ1
 10
348.81827173321062
 20
398.32858453527223
 30
0.0
 11
578.73523822915286
 21
398.32858453527223
 31
0.0
  0
LINE
  5
2DD4
  8
AM_0
 10
473.95603822915291
 20
437.77129153527233
 30
0.0
 11
482.35552822915292
 21
437.77129153527233
 31
0.0
  0
LINE
  5
2DD5
  8
AM_0
 10
404.95603822915291
 20
326.95300453527238
 30
0.0
 11
404.95603822915291
 21
384.97634953527222
 31
0.0
  0
ARC
  5
2DD6
  8
AM_0
 10
400.95601822915279
 20
326.95300453527238
 30
0.0
 40
4.000000199999997
 50
342.25533000000132
 51
0.0
  0
POLYLINE
  5
2DD7
  8
AM_0
 66
     1
 10
0.0
 20
0.0
 30
0.0
  0
VERTEX
  5
2DD8
  8
AM_0
  6
CONTINUOUS
 10
434.4126782291529
 20
442.96999153527219
 30
0.0
 42
0.046334034
  0
VERTEX
  5
2DD9
  8
AM_0
  6
CONTINUOUS
 10
432.56086822915279
 20
444.0276415352721
 30
0.0
 42
0.024113349
  0
VERTEX
  5
2DDA
  8
AM_0
  6
CONTINUOUS
 10
430.58140822915311
 20
444.82750153527218
 30
0.0
 42
0.015482213
  0
VERTEX
  5
2DDB
  8
AM_0
  6
CONTINUOUS
 10
428.5444682291531
 20
445.4721715352722
 30
0.0
 42
0.011170747
  0
VERTEX
  5
2DDC
  8
AM_0
  6
CONTINUOUS
 10
426.47671822915288
 20
446.00866153527221
 30
0.0
 42
0.0086851837
  0
VERTEX
  5
2DDD
  8
AM_0
  6
CONTINUOUS
 10
424.3891382291531
 20
446.46334153527221
 30
0.0
 42
0.0071112966
  0
VERTEX
  5
2DDE
  8
AM_0
  6
CONTINUOUS
 10
422.28745822915278
 20
446.85235153527231
 30
0.0
 42
0.0060487861
  0
VERTEX
  5
2DDF
  8
AM_0
  6
CONTINUOUS
 10
420.17473822915281
 20
447.18637153527231
 30
0.0
 42
0.0052886795
  0
VERTEX
  5
2DE0
  8
AM_0
  6
CONTINUOUS
 10
418.05736822915281
 20
447.47221153527221
 30
0.0
 42
0.004745088
  0
VERTEX
  5
2DE1
  8
AM_0
  6
CONTINUOUS
 10
415.9322882291529
 20
447.7158715352723
 30
0.0
 42
0.0043374779
  0
VERTEX
  5
2DE2
  8
AM_0
  6
CONTINUOUS
 10
413.80258822915312
 20
447.92101153527233
 30
0.0
 42
0.0040309373
  0
VERTEX
  5
2DE3
  8
AM_0
  6
CONTINUOUS
 10
411.669798229153
 20
448.09051153527219
 30
0.0
 42
0.0038017218
  0
VERTEX
  5
2DE4
  8
AM_0
  6
CONTINUOUS
 10
409.53457822915288
 20
448.22665153527248
 30
0.0
 42
0.0036333144
  0
VERTEX
  5
2DE5
  8
AM_0
  6
CONTINUOUS
 10
407.39749822915292
 20
448.33102153527221
 30
0.0
 42
0.0035147919
  0
VERTEX
  5
2DE6
  8
AM_0
  6
CONTINUOUS
 10
405.25909822915321
 20
448.40488153527218
 30
0.0
 42
0.003439074
  0
VERTEX
  5
2DE7
  8
AM_0
  6
CONTINUOUS
 10
403.11988822915288
 20
448.44901153527218
 30
0.0
 42
0.0034021156
  0
VERTEX
  5
2DE8
  8
AM_0
  6
CONTINUOUS
 10
400.98016822915292
 20
448.46389153527218
 30
0.0
  0
SEQEND
  5
2DE9
  8
AM_0
  0
LINE
  5
2DEA
  8
AM_0
 10
400.95601822915279
 20
400.51391953527241
 30
0.0
 11
428.72467822915291
 21
425.80039153527218
 31
0.0
  0
LINE
  5
2DEB
  8
AM_0
 10
400.95601822915279
 20
384.97634953527222
 30
0.0
 11
404.95603822915291
 21
384.97634953527222
 31
0.0
  0
LINE
  5
2DEC
  8
AM_0
 10
400.95601822915279
 20
400.51391953527241
 30
0.0
 11
400.95754822915291
 21
400.51391953527241
 31
0.0
  0
LINE
  5
2DED
  8
AM_0
 10
380.57722822915292
 20
448.46389153527218
 30
0.0
 11
400.95601822915279
 21
448.46389153527218
 31
0.0
  0
ARC
  5
2DEE
  8
AM_0
 10
380.95603822915291
 20
434.6607115352723
 30
0.0
 40
2.00000007
 50
90.00000299999769
 51
180.00001000000091
  0
LINE
  5
2DEF
  8
AM_0
 10
380.95603822915291
 20
436.66069153527218
 30
0.0
 11
388.9560182291529
 21
436.66069153527218
 31
0.0
  0
LINE
  5
2DF0
  8
AM_0
 10
380.01181822915288
 20
427.71127153527232
 30
0.0
 11
389.56954822915287
 21
427.71127153527232
 31
0.0
  0
ARC
  5
2DF1
  8
AM_0
 10
388.9560182291529
 20
434.6607115352723
 30
0.0
 40
2.00000007
 50
0.0
 51
90.00000299999769
  0
ARC
  5
2DF2
  8
AM_0
 10
375.95602822915288
 20
447.93046153527217
 30
0.0
 40
3.0
 50
271.99999999999687
 51
0.0
  0
ARC
  5
2DF3
  8
AM_0
 10
381.95602822915288
 20
450.63127153527239
 30
0.0
 40
3.0
 50
90.00000299999769
 51
180.00001000000091
  0
LINE
  5
2DF4
  8
AM_0
 10
381.95602822915288
 20
453.63127153527239
 30
0.0
 11
388.9560182291529
 21
453.63127153527239
 31
0.0
  0
ARC
  5
2DF5
  8
AM_0
 10
473.95603822915291
 20
429.77134153527231
 30
0.0
 40
8.0000000999999976
 50
90.00000299999769
 51
180.00001000000091
  0
LINE
  5
2DF6
  8
AM_0
 10
513.9559982291529
 20
371.06066953527221
 30
0.0
 11
513.9559982291529
 21
398.32858453527223
 31
0.0
  0
LINE
  5
2DF7
  8
AM_0
 10
517.95601822915285
 20
380.82861553527232
 30
0.0
 11
517.95601822915285
 21
415.82857153527232
 31
0.0
  0
LINE
  5
2DF8
  8
AM_0
 10
575.95603822915291
 20
382.32861553527232
 30
0.0
 11
575.95603822915291
 21
417.32857153527232
 31
0.0
  0
LINE
  5
2DF9
  8
AM_0
 10
575.95603822915291
 20
382.32861553527232
 30
0.0
 11
517.95601822915285
 21
382.32861553527232
 31
0.0
  0
ARC
  5
2DFA
  8
AM_0
 10
509.95603822915291
 20
363.55508653527221
 30
0.0
 40
3.0
 50
120.0000000000005
 51
180.00001000000091
  0
ARC
  5
2DFB
  8
AM_0
 10
510.95599822915278
 20
371.06066953527221
 30
0.0
 40
3.0
 50
300.00000000000051
 51
0.0
  0
LINE
  5
2DFC
  8
AM_0
 10
508.45600822915293
 20
366.15320053527222
 30
0.0
 11
512.45602822915293
 21
368.46258853527218
 31
0.0
  0
LINE
  5
2DFD
  8
AM_0
 10
517.95601822915285
 20
380.82861553527232
 30
0.0
 11
513.9559982291529
 21
380.82861553527232
 31
0.0
  0
LINE
  5
2DFE
  8
AM_0
 10
575.95603822915291
 20
414.32857153527232
 30
0.0
 11
517.95601822915285
 21
414.32857153527232
 31
0.0
  0
LINE
  5
2DFF
  8
AM_0
 10
575.95603822915291
 20
417.32857153527232
 30
0.0
 11
530.95603822915291
 21
417.32857153527232
 31
0.0
  0
LINE
  5
2E00
  8
AM_0
 10
513.9559982291529
 20
398.32858453527223
 30
0.0
 11
513.9559982291529
 21
425.59654153527231
 31
0.0
  0
LINE
  5
2E01
  8
AM_0
 10
517.95601822915285
 20
415.82857153527232
 30
0.0
 11
513.9559982291529
 21
415.82857153527232
 31
0.0
  0
LINE
  5
2E02
  8
AM_0
 10
530.95603822915291
 20
414.32857153527232
 30
0.0
 11
530.95603822915291
 21
417.32857153527232
 31
0.0
  0
ARC
  5
2E03
  8
AM_0
 10
502.9560182291529
 20
442.32862153527242
 30
0.0
 40
4.000000199999997
 50
0.0
 51
90.00000299999769
  0
ARC
  5
2E04
  8
AM_0
 10
493.95601822915279
 20
454.3286215352723
 30
0.0
 40
8.0000000999999976
 50
179.9999899999988
 51
270.0
  0
LINE
  5
2E05
  8
AM_0
 10
493.95601822915279
 20
446.32861153527222
 30
0.0
 11
502.9560182291529
 21
446.32861153527222
 31
0.0
  0
ARC
  5
2E06
  8
AM_0
 10
510.95599822915278
 20
425.59654153527231
 30
0.0
 40
3.0
 50
0.0
 51
60.000002000001302
  0
ARC
  5
2E07
  8
AM_0
 10
509.95603822915291
 20
433.1021215352722
 30
0.0
 40
3.0
 50
179.9999899999988
 51
240.00000999999969
  0
LINE
  5
2E08
  8
AM_0
 10
508.4560382291528
 20
430.5040315352723
 30
0.0
 11
512.45602822915293
 21
428.19463153527232
 31
0.0
  0
LINE
  5
2E09
  8
AM_0
 10
266.45602822915282
 20
470.32861553527221
 30
0.0
 11
275.45602822915282
 21
470.32861553527221
 31
0.0
  0
ARC
  5
2E0A
  8
AM_0
 10
275.45602822915282
 20
469.32861553527232
 30
0.0
 40
1.0
 50
0.0
 51
90.0
  0
LINE
  5
2E0B
  8
AM_0
 10
400.95601822915279
 20
469.82863153527222
 30
0.0
 11
478.16542822915289
 21
467.80684153527238
 31
0.0
  0
LINE
  5
2E0C
  8
AM_0
 10
392.88619822915268
 20
469.5467815352722
 30
0.0
 11
400.95601822915279
 21
469.8286015352723
 31
0.0
  0
ARC
  5
2E0D
  8
AM_0
 10
392.9560382291528
 20
467.54800153527219
 30
0.0
 40
2.00000007
 50
91.999998000000545
 51
180.00001000000091
  0
LINE
  5
2E0E
  8
AM_0
 10
390.95602822915288
 20
467.54800153527219
 30
0.0
 11
390.95602822915288
 21
455.63125153527238
 31
0.0
  0
ARC
  5
2E0F
  8
AM_0
 10
477.95599822915278
 20
459.8095315352723
 30
0.0
 40
8.0000000999999976
 50
0.0
 51
88.499997000000747
  0
LINE
  5
2E10
  8
ﾁｭｳｼﾝｾﾝ1
 10
802.41916906175982
 20
257.68913083405101
 30
0.0
 11
802.41916906175982
 21
476.32741153527218
 31
0.0
  0
ARC
  5
2E11
  8
AM_0
 10
802.41916906175982
 20
370.32861553527232
 30
0.0
 40
99.500004000000004
 50
8.4654901000001566
 51
171.53449999999941
  0
LINE
  5
2E12
  8
AM_0
 10
873.93994006175944
 20
452.44462153527218
 30
0.0
 11
831.6421180617599
 21
465.44053153527238
 31
0.0
  0
LINE
  5
2E13
  8
AM_0
 10
731.09720806175994
 20
452.04268153527221
 30
0.0
 11
772.23382006175996
 21
465.13951153527199
 31
0.0
  0
ARC
  5
2E14
  8
AM_0
 10
802.41916906175982
 20
381.32861353527221
 30
0.0
 40
65.000000999999997
 50
0.0
 51
180.00001000000091
  0
LINE
  5
2E15
  8
ﾁｭｳｼﾝｾﾝ1
 10
708.54705790257549
 20
370.32861553527232
 30
0.0
 11
897.6318468601371
 21
370.32861553527232
 31
0.0
  0
LINE
  5
2E16
  8
AM_0
 10
739.41915406175985
 20
260.32864153527231
 30
0.0
 11
865.41916606175982
 21
260.32864153527231
 31
0.0
  0
ARC
  5
2E17
  8
AM_0
 10
802.41916906175982
 20
332.06587153527232
 30
0.0
 40
77.000000999999983
 50
179.9999899999988
 51
212.41839000000161
  0
LINE
  5
2E18
  8
AM_0
 10
687.45188806175975
 20
273.77026153527231
 30
0.0
 11
704.00327506175961
 21
384.97641253527217
 31
0.0
  0
LINE
  5
2E19
  8
AM_0
 10
737.41915306175997
 20
381.32861353527221
 30
0.0
 11
737.41915306175997
 21
291.32861353527232
 31
0.0
  0
LINE
  5
2E1A
  8
AM_0
 10
733.41916906175993
 20
276.32862553527241
 30
0.0
 11
690.41915806175984
 21
276.32862553527241
 31
0.0
  0
LINE
  5
2E1B
  8
AM_0
 10
687.41915806175984
 20
258.32864053527231
 30
0.0
 11
737.41915306175997
 21
258.32864053527231
 31
0.0
  0
ARC
  5
2E1C
  8
AM_0
 10
690.41915806175984
 20
273.32862553527229
 30
0.0
 40
3.0
 50
90.00000299999769
 51
180.00001000000091
  0
LINE
  5
2E1D
  8
AM_0
 10
687.41915806175984
 20
273.32862553527229
 30
0.0
 11
687.41915806175984
 21
258.32864053527231
 31
0.0
  0
ARC
  5
2E1E
  8
AM_0
 10
733.41916906175993
 20
272.32862653527241
 30
0.0
 40
4.000000199999997
 50
0.0
 51
90.00000299999769
  0
ARC
  5
2E1F
  8
AM_0
 10
722.41916806175993
 20
291.32861353527232
 30
0.0
 40
15.00000029999998
 50
270.0
 51
0.0
  0
LINE
  5
2E20
  8
ｶｸﾚｾﾝ2
 10
714.91916806176005
 20
276.32862553527241
 30
0.0
 11
714.91916806176005
 21
258.32864053527231
 31
0.0
  0
LINE
  5
2E21
  8
ｶｸﾚｾﾝ2
 10
699.91916806176005
 20
276.32862553527241
 30
0.0
 11
699.91916806176005
 21
258.32864053527231
 31
0.0
  0
LINE
  5
2E22
  8
ﾁｭｳｼﾝｾﾝ1
 10
707.41916806176005
 20
280.57792453527242
 30
0.0
 11
707.41916806176005
 21
254.99729653527231
 31
0.0
  0
LINE
  5
2E23
  8
AM_0
 10
737.41915306175997
 20
272.32862653527241
 30
0.0
 11
737.41915306175997
 21
258.32864053527231
 31
0.0
  0
ARC
  5
2E24
  8
AM_0
 10
739.41915406175985
 20
258.32864053527231
 30
0.0
 40
2.00000007
 50
90.00000299999769
 51
180.00001000000091
  0
LINE
  5
2E25
  8
AM_0
 10
725.41916806175993
 20
430.42231153527217
 30
0.0
 11
725.41916806175993
 21
332.06587153527232
 31
0.0
  0
LINE
  5
2E26
  8
AM_0
 10
720.70514806175993
 20
441.65065153527217
 30
0.0
 11
707.60831506175987
 21
400.51400953527218
 31
0.0
  0
ARC
  5
2E27
  8
AM_0
 10
735.95110606176013
 20
436.79665153527242
 30
0.0
 40
16.000000499999999
 50
107.079459999999
 51
162.9205300000007
  0
ARC
  5
2E28
  8
AM_0
 10
733.41916906175993
 20
430.42231153527217
 30
0.0
 40
8.0000000999999976
 50
138.9466500000008
 51
180.00001000000091
  0
ARC
  5
2E29
  8
AM_0
 10
802.41916906175982
 20
398.32858453527223
 30
0.0
 40
16.000000499999999
 50
108.2099599999986
 51
71.790051999998809
  0
CIRCLE
  5
2E2A
  8
AM_0
 10
802.41916906175982
 20
398.32858453527223
 30
0.0
 40
29.000001000000001
  0
LINE
  5
2E2B
  8
AM_0
 10
797.41915606175962
 20
409.32862153527242
 30
0.0
 11
807.41915506175962
 21
409.32862153527242
 31
0.0
  0
LINE
  5
2E2C
  8
AM_0
 10
797.41915606175962
 20
417.32860153527218
 30
0.0
 11
807.41915506175962
 21
417.32860153527218
 31
0.0
  0
CIRCLE
  5
2E2D
  8
AM_0
 10
802.41916906175982
 20
398.32858453527223
 30
0.0
 40
2.75000007
  0
CIRCLE
  5
2E2E
  8
AM_5
 10
802.41916906175982
 20
398.32858453527223
 30
0.0
 40
4.000000199999997
  0
LINE
  5
2E2F
  8
ﾁｭｳｼﾝｾﾝ1
 10
748.8666094587046
 20
398.32858453527223
 30
0.0
 11
856.61713015392718
 21
398.32858453527223
 31
0.0
  0
LINE
  5
2E30
  8
AM_0
 10
797.41915606175962
 20
409.32862153527242
 30
0.0
 11
797.41915606175962
 21
417.32860153527218
 31
0.0
  0
LINE
  5
2E31
  8
AM_0
 10
807.41915506175962
 20
409.32862153527242
 30
0.0
 11
807.41915506175962
 21
417.32860153527218
 31
0.0
  0
LINE
  5
2E32
  8
AM_0
 10
917.38648306175992
 20
273.77027653527227
 30
0.0
 11
900.83508106175964
 21
384.97644253527238
 31
0.0
  0
LINE
  5
2E33
  8
AM_0
 10
867.4191640617596
 20
381.32861353527221
 30
0.0
 11
867.4191640617596
 21
291.32861353527232
 31
0.0
  0
ARC
  5
2E34
  8
AM_0
 10
802.41916906175982
 20
332.06587153527232
 30
0.0
 40
77.000000999999983
 50
327.5816000000014
 51
0.0
  0
LINE
  5
2E35
  8
AM_0
 10
867.4191640617596
 20
258.32864053527231
 30
0.0
 11
917.41916506175994
 21
258.32864053527231
 31
0.0
  0
LINE
  5
2E36
  8
AM_0
 10
871.41916606175994
 20
276.32862553527241
 30
0.0
 11
914.41916506175994
 21
276.32862553527241
 31
0.0
  0
ARC
  5
2E37
  8
AM_0
 10
882.41916406175972
 20
291.32861353527232
 30
0.0
 40
15.00000029999998
 50
179.9999899999988
 51
270.0
  0
ARC
  5
2E38
  8
AM_0
 10
871.41916606175994
 20
272.32862653527241
 30
0.0
 40
4.000000199999997
 50
90.00000299999769
 51
180.00001000000091
  0
LINE
  5
2E39
  8
ｶｸﾚｾﾝ2
 10
904.91916706175925
 20
276.32862553527241
 30
0.0
 11
904.91916706175925
 21
258.32864053527231
 31
0.0
  0
LINE
  5
2E3A
  8
ｶｸﾚｾﾝ2
 10
889.9191640617596
 20
276.32862553527241
 30
0.0
 11
889.9191640617596
 21
258.32864053527231
 31
0.0
  0
LINE
  5
2E3B
  8
ﾁｭｳｼﾝｾﾝ1
 10
897.41916406175949
 20
278.72626675823591
 30
0.0
 11
897.41916406175949
 21
256.46571872229327
 31
0.0
  0
LINE
  5
2E3C
  8
AM_0
 10
867.4191640617596
 20
272.32862653527241
 30
0.0
 11
867.4191640617596
 21
258.32864053527231
 31
0.0
  0
ARC
  5
2E3D
  8
AM_0
 10
865.41916606175982
 20
258.32864053527231
 30
0.0
 40
2.00000007
 50
0.0
 51
90.00000299999769
  0
ARC
  5
2E3E
  8
AM_0
 10
914.41916506175994
 20
273.32862553527229
 30
0.0
 40
3.0
 50
0.0
 51
90.00000299999769
  0
LINE
  5
2E3F
  8
AM_0
 10
917.41916506175994
 20
273.32862553527229
 30
0.0
 11
917.41916506175994
 21
258.32864053527231
 31
0.0
  0
LINE
  5
2E40
  8
AM_0
 10
879.41916406175949
 20
430.42231153527217
 30
0.0
 11
879.41916406175949
 21
332.06587153527232
 31
0.0
  0
LINE
  5
2E41
  8
AM_0
 10
884.53512406175992
 20
441.84943153527217
 30
0.0
 11
897.53104306175965
 21
399.55157653527237
 31
0.0
  0
ARC
  5
2E42
  8
AM_0
 10
871.41916606175994
 20
430.42231153527217
 30
0.0
 40
8.0000000999999976
 50
0.0
 51
41.053350999999701
  0
ARC
  5
2E43
  8
AM_0
 10
869.24075806175949
 20
437.15020153527217
 30
0.0
 40
16.000000499999999
 50
17.07946300000124
 51
72.920533999997687
  0
LINE
  5
2E44
  8
AM_0
 10
331.30459022915301
 20
330.85361553527241
 30
0.0
 11
342.76403022915281
 21
330.85361553527241
 31
0.0
  0
LINE
  5
2E45
  8
AM_0
 10
331.30459022915301
 20
409.80361553527217
 30
0.0
 11
342.76403022915281
 21
409.80361553527217
 31
0.0
  0
LINE
  5
2E46
  8
AM_0
 10
344.45602822915288
 20
431.97828153527217
 30
0.0
 11
378.95602822915288
 21
431.97828153527217
 31
0.0
  0
LINE
  5
2E47
  8
AM_0
 10
344.45602822915288
 20
308.67892853527212
 30
0.0
 11
378.95602822915288
 21
308.67892853527212
 31
0.0
  0
LINE
  5
2E48
  8
AM_0
 10
266.45606822915278
 20
590.80696567028565
 30
0.0
 11
266.45606822915278
 21
790.80696567028554
 31
0.0
  0
LINE
  5
2E49
  8
AM_0
 10
276.45606822915278
 20
789.80696567028554
 30
0.0
 11
276.45606822915278
 21
591.80696567028531
 31
0.0
  0
LINE
  5
2E4A
  8
AM_0
 10
266.45606822915278
 20
590.80696567028565
 30
0.0
 11
275.45606822915289
 21
590.80696567028565
 31
0.0
  0
LINE
  5
2E4B
  8
AM_0
 10
310.45606822915278
 20
628.96221067028546
 30
0.0
 11
310.45606822915278
 21
752.28337767028552
 31
0.0
  0
LINE
  5
2E4C
  8
AM_0
 10
329.45606822915278
 20
764.30696567028554
 30
0.0
 11
329.45606822915278
 21
617.30696567028565
 31
0.0
  0
LINE
  5
2E4D
  8
AM_0
 10
327.63037922915282
 20
621.90232967028544
 30
0.0
 11
310.45606822915278
 21
623.40488667028535
 31
0.0
  0
ARC
  5
2E4E
  8
AM_0
 10
275.45606822915289
 20
591.80696567028531
 30
0.0
 40
1.0
 50
270.0
 51
0.0
  0
LINE
  5
2E4F
  8
AM_0
 10
310.45606822915278
 20
623.40488667028535
 30
0.0
 11
279.1946002291528
 21
620.66986267028551
 31
0.0
  0
ARC
  5
2E50
  8
AM_0
 10
279.45606822915278
 20
617.68127867028545
 30
0.0
 40
3.0
 50
94.99999999999973
 51
180.0
  0
ARC
  5
2E51
  8
AM_0
 10
327.45606822915289
 20
619.90993967028544
 30
0.0
 40
2.0
 50
0.0
 51
85.000000000000256
  0
LINE
  5
2E52
  8
AM_0
 10
329.45606822915278
 20
617.30696567028565
 30
0.0
 11
344.45606822915289
 21
617.30696567028565
 31
0.0
  0
LINE
  5
2E53
  8
AM_0
 10
331.30463022915308
 20
629.15696567028544
 30
0.0
 11
342.76407022915282
 21
629.15696567028544
 31
0.0
  0
LINE
  5
2E54
  8
AM_0
 10
331.30463022915308
 20
651.33196567028529
 30
0.0
 11
342.76407022915282
 21
651.33196567028529
 31
0.0
  0
LINE
  5
2E55
  8
AM_0
 10
327.63037922915282
 20
759.71160267028517
 30
0.0
 11
310.45606822915278
 21
758.20904467028561
 31
0.0
  0
LINE
  5
2E56
  8
AM_0
 10
310.45606822915278
 20
758.20904467028561
 30
0.0
 11
279.1946002291528
 21
760.94406867028545
 31
0.0
  0
ARC
  5
2E57
  8
AM_0
 10
279.45606822915278
 20
763.93265267028551
 30
0.0
 40
3.0
 50
180.0
 51
265.00000000000028
  0
LINE
  5
2E58
  8
AM_0
 10
331.30463022915308
 20
730.28196567028544
 30
0.0
 11
342.76407022915282
 21
730.28196567028544
 31
0.0
  0
LINE
  5
2E59
  8
AM_0
 10
329.45606822915278
 20
764.30696567028554
 30
0.0
 11
344.45606822915289
 21
764.30696567028554
 31
0.0
  0
LINE
  5
2E5A
  8
AM_0
 10
331.30463022915308
 20
752.45696567028506
 30
0.0
 11
342.76407022915282
 21
752.45696567028506
 31
0.0
  0
ARC
  5
2E5B
  8
AM_0
 10
327.45606822915289
 20
761.70399167028506
 30
0.0
 40
2.0
 50
274.99999999999972
 51
0.0
  0
LINE
  5
2E5C
  8
AM_0
 10
266.45606822915278
 20
790.80696567028554
 30
0.0
 11
275.45606822915289
 21
790.80696567028554
 31
0.0
  0
ARC
  5
2E5D
  8
AM_0
 10
275.45606822915289
 20
789.80696567028554
 30
0.0
 40
1.0
 50
0.0
 51
90.0
  0
TEXT
  5
303B
  8
AM_0
 10
695.00481301753405
 20
724.88220108506493
 30
0.0
 40
15.0
  1
VX15-040A~VX15-050A
  0
ENDSEC
  0
EOF
